999
DXF file: 3-196_Top.dxf
999
Pro/ENGINEER 2023134 by Parametric Technology Corporation
  0
SECTION
  2
HEADER
  9
$ACADVER
  1
AC1032
  9
$DWGCODEPAGE
  3
ANSI_1252
  9
$EXTMAX
 10
11.0
 20
8.5
 30
0.0
  9
$EXTMIN
 10
0.0
 20
0.0
 30
0.0
  9
$LIMMIN
 10
0.0
 20
0.0
  9
$LIMMAX
 10
11.0
 20
8.5
  9
$VIEWCTR
 10
5.5
 20
4.25
  9
$VIEWSIZE
 40
8.5
  9
$CLAYER
  8
0
  9
$LTSCALE
 40
0.605
  9
$CELTYPE
  6
BYLAYER
  9
$DIMSCALE
 40
1.0
  9
$DIMASZ
 40
0.1
  9
$DIMEXO
 40
0.0625
  9
$DIMDLI
 40
0.418
  9
$DIMEXE
 40
0.125
  9
$DIMCEN
 40
0.099
  9
$DIMLFAC
 40
1.0
  9
$DIMBLK
  1
_FILLED
  9
$DIMALT
 70
1
  9
$DIMALTD
 70
2
  9
$DIMALTTD
 70
2
  9
$DIMALTF
 40
25.4
  9
$DIMTXT
 40
0.08
  9
$DIMTOL
 70
1
  9
$DIMLIM
 70
0
  9
$DIMTFAC
 40
1.0
  9
$DIMTP
 40
0.001
  9
$DIMTM
 40
0.001
  9
$DIMGAP
 40
0.09
  9
$DIMDSEP
 70
46
  9
$AUNITS
 70
0
  9
$PDMODE
 70
3
  9
$PDSIZE
 40
0.3125
  9
$HANDSEED
  5
389
  9
$TILEMODE
 70
1
  9
$MEASUREMENT
 70
0
  9
$INSUNITS
 70
1
  0
ENDSEC
  0
SECTION
  2
CLASSES
  0
CLASS
  1
ACDBDICTIONARYWDFLT
  2
AcDbDictionaryWithDefault
  3
AutoCAD 2000
 90
0
 91
1
280
0
281
0
  0
CLASS
  1
ACDBPLACEHOLDER
  2
AcDbPlaceHolder
  3
AutoCAD 2000
 90
0
 91
1
280
0
281
0
  0
CLASS
  1
LAYOUT
  2
AcDbLayout
  3
AutoCAD 2000
 90
0
 91
0
280
0
281
0
  0
ENDSEC
  0
SECTION
  2
TABLES
  0
TABLE
  2
VPORT
  5
8
100
AcDbSymbolTable
 70
2
  0
VPORT
  5
1F4
100
AcDbSymbolTableRecord
100
AcDbViewportTableRecord
  2
*ACTIVE
 70
0
 10
0.0
 20
0.0
 11
1.0
 21
1.0
 12
5.5
 22
4.25
 13
0.0
 23
0.0
 14
1.0
 24
1.0
 15
0.0
 25
0.0
 16
0.0
 26
0.0
 36
1.0
 17
0.0
 27
0.0
 37
0.0
 40
8.5
 41
1.2941176471
 42
50.0
 43
0.0
 44
0.0
 50
0.0
 51
0.0
 71
0
 72
100
 73
1
 74
1
 75
0
 76
0
 77
0
 78
0
  0
ENDTAB
  0
TABLE
  2
LTYPE
  5
5
100
AcDbSymbolTable
 70
6
  0
LTYPE
  5
14
100
AcDbSymbolTableRecord
100
AcDbLinetypeTableRecord
  2
BYBLOCK
 70
0
  3

 72
65
 73
0
 40
0.0
  0
LTYPE
  5
15
100
AcDbSymbolTableRecord
100
AcDbLinetypeTableRecord
  2
BYLAYER
 70
0
  3

 72
65
 73
0
 40
0.0
  0
LTYPE
  5
16
100
AcDbSymbolTableRecord
100
AcDbLinetypeTableRecord
  2
CONTINUOUS
 70
64
  3
Solid line
 72
65
 73
0
 40
0.0
  0
LTYPE
  5
1F5
100
AcDbSymbolTableRecord
100
AcDbLinetypeTableRecord
  2
CENTER
 70
64
  3
____ _ ____ _ ____ _ ____ _ ____ _ ____ _ ____
 72
65
 73
4
 40
0.6
 49
0.375
 74
0
 49
-0.075
 74
0
 49
0.075
 74
0
 49
-0.075
 74
0
  0
LTYPE
  5
1F6
100
AcDbSymbolTableRecord
100
AcDbLinetypeTableRecord
  2
HIDDEN
 70
64
  3
- - - - - - - - - - - - - - - - - - - -
 72
65
 73
2
 40
0.2
 49
0.1
 74
0
 49
-0.1
 74
0
  0
LTYPE
  5
1F7
100
AcDbSymbolTableRecord
100
AcDbLinetypeTableRecord
  2
PHANTOM
 70
64
  3
_____ _ _ _____ _ _ _____ _ _ _____
 72
65
 73
6
 40
0.8
 49
0.45
 74
0
 49
-0.05
 74
0
 49
0.1
 74
0
 49
-0.05
 74
0
 49
0.1
 74
0
 49
-0.05
 74
0
  0
LTYPE
  5
1F8
100
AcDbSymbolTableRecord
100
AcDbLinetypeTableRecord
  2
DOT
 70
64
  3
. . . . . . . . . . . . . . . . . . . .
 72
65
 73
2
 40
0.2
 49
0.1
 74
0
 49
-0.1
 74
0
  0
LTYPE
  5
1F9
100
AcDbSymbolTableRecord
100
AcDbLinetypeTableRecord
  2
DASHED
 70
64
  3
- - - - - - - - - - - - - - - - - - - -
 72
65
 73
2
 40
0.2
 49
0.1
 74
0
 49
-0.1
 74
0
  0
ENDTAB
  0
TABLE
  2
LAYER
  5
2
100
AcDbSymbolTable
 70
36
  0
LAYER
  5
10
100
AcDbSymbolTableRecord
100
AcDbLayerTableRecord
  2
0
 70
0
 62
7
  6
CONTINUOUS
370
-3
390
F
  0
LAYER
  5
1FA
100
AcDbSymbolTableRecord
100
AcDbLayerTableRecord
  2
DEFAULT_1
 70
0
 62
7
  6
CENTER
370
-3
390
F
  0
LAYER
  5
1FB
100
AcDbSymbolTableRecord
100
AcDbLayerTableRecord
  2
DEFAULT_2
 70
0
 62
8
  6
HIDDEN
370
-3
390
F
  0
LAYER
  5
1FC
100
AcDbSymbolTableRecord
100
AcDbLayerTableRecord
  2
DEFAULT_3
 70
0
 62
7
  6
PHANTOM
370
-3
390
F
  0
LAYER
  5
1FD
100
AcDbSymbolTableRecord
100
AcDbLayerTableRecord
  2
DEFAULT_COORDINATE_SYSTEM
 70
0
 62
7
  6
CONTINUOUS
370
-3
390
F
  0
LAYER
  5
1FE
100
AcDbSymbolTableRecord
100
AcDbLayerTableRecord
  2
DEFAULT_DATUM_AXES
 70
0
 62
7
  6
CONTINUOUS
370
-3
390
F
  0
LAYER
  5
1FF
100
AcDbSymbolTableRecord
100
AcDbLayerTableRecord
  2
DEFAULT_DATUM_CURVES
 70
0
 62
7
  6
CONTINUOUS
370
-3
390
F
  0
LAYER
  5
200
100
AcDbSymbolTableRecord
100
AcDbLayerTableRecord
  2
DEFAULT_DATUM_PLANES
 70
0
 62
7
  6
CONTINUOUS
370
-3
390
F
  0
ENDTAB
  0
TABLE
  2
STYLE
  5
3
100
AcDbSymbolTable
 70
1
  0
STYLE
  5
11
100
AcDbSymbolTableRecord
100
AcDbTextStyleTableRecord
  2
STANDARD
 70
0
 40
0.0
 41
0.8
 50
0.0
 71
0
 42
0.2
  3
txt
  4

  0
STYLE
  5
201
100
AcDbSymbolTableRecord
100
AcDbTextStyleTableRecord
  2
TEXTSTYLE_1
 70
0
 40
0.0
 41
0.8
 50
0.0
 71
0
 42
0.2
  3
gdt
  4

  0
ENDTAB
  0
TABLE
  2
VIEW
  5
6
100
AcDbSymbolTable
 70
0
  0
ENDTAB
  0
TABLE
  2
UCS
  5
7
100
AcDbSymbolTable
 70
0
  0
ENDTAB
  0
TABLE
  2
APPID
  5
9
100
AcDbSymbolTable
 70
1
  0
APPID
  5
202
100
AcDbSymbolTableRecord
100
AcDbRegAppTableRecord
  2
ACAD
 70
0
  0
ENDTAB
  0
TABLE
  2
BLOCK_RECORD
  5
1
100
AcDbSymbolTable
 70
0
  0
BLOCK_RECORD
  5
203
100
AcDbSymbolTableRecord
100
AcDbBlockTableRecord
  2
*Model_Space
  0
BLOCK_RECORD
  5
204
100
AcDbSymbolTableRecord
100
AcDbBlockTableRecord
  2
*Paper_Space
  0
BLOCK_RECORD
  5
205
100
AcDbSymbolTableRecord
100
AcDbBlockTableRecord
  2
_FILLED
  0
ENDTAB
  0
TABLE
  2
DIMSTYLE
  5
A
100
AcDbSymbolTable
 70
1
100
AcDbDimStyleTable
 71
0
  0
DIMSTYLE
105
206
100
AcDbSymbolTableRecord
100
AcDbDimStyleTableRecord
  2
STANDARD
 70
0
  3

  4

 40
1.0
 41
0.1
 42
0.0625
 43
0.38
 44
0.125
 45
0.0
 46
0.0
 47
0.001
 48
0.001
140
0.08
141
0.09
142
0.0
143
25.4
144
1.0
145
0.0
146
1.0
147
0.09
 71
1
 72
0
 73
1
 74
1
 75
0
 76
0
 77
0
 78
4
 79
1
170
1
171
2
172
0
173
0
174
0
175
0
176
0
177
0
178
0
270
2
179
3
271
3
272
3
273
2
274
2
275
0
280
0
281
0
282
0
283
1
284
4
285
0
286
0
287
3
288
0
340
11
278
46
341
205
342
205
343
205
344
205
  0
ENDTAB
  0
ENDSEC
  0
SECTION
  2
BLOCKS
  0
BLOCK
  5
20
100
AcDbEntity
  8
0
100
AcDbBlockBegin
  2
*Model_Space
 70
0
 10
0.0
 20
0.0
 30
0.0
  3
*Model_Space
  1

  0
ENDBLK
  5
21
100
AcDbEntity
  8
0
100
AcDbBlockEnd
  0
BLOCK
  5
1C
100
AcDbEntity
  8
0
100
AcDbBlockBegin
  2
*Paper_Space
 70
0
 10
0.0
 20
0.0
 30
0.0
  3
*Paper_Space
  1

  0
ENDBLK
  5
1D
100
AcDbEntity
  8
0
100
AcDbBlockEnd
  0
BLOCK
  5
207
100
AcDbEntity
  8
0
100
AcDbBlockBegin
  2
_FILLED
 70
64
 10
0.0
 20
0.0
  3
_FILLED
  1

  0
SOLID
  5
208
100
AcDbEntity
  8
0
  6
BYBLOCK
 62
0
100
AcDbTrace
 10
0.0
 20
0.0
 11
-1.0
 21
0.2
 12
-1.0
 22
-0.2
 13
-1.0
 23
-0.2
  0
ENDBLK
  5
209
100
AcDbEntity
  8
0
  6
BYBLOCK
 62
0
100
AcDbBlockEnd
  0
ENDSEC
  0
SECTION
  2
ENTITIES
  0
MTEXT
  5
20A
100
AcDbEntity
  8
0
100
AcDbMText
 62
2
  6
CONTINUOUS
  7
STANDARD
 71
2
 72
1
 10
5.5275695055
 20
0.5485524725
 30
0.0
 11
1.0
 21
0.0
 31
0.0
 73
2
 44
0.9
  1
SCALE 0.200
 40
0.08
 41
0.704
  0
LINE
  5
20B
100
AcDbEntity
  8
0
100
AcDbLine
 62
7
  6
CONTINUOUS
 10
0.0
 20
0.0
 11
0.0
 21
8.5
  0
LINE
  5
20C
100
AcDbEntity
  8
0
100
AcDbLine
 62
7
  6
CONTINUOUS
 10
0.0
 20
0.0
 11
11.0
 21
0.0
  0
LINE
  5
20D
100
AcDbEntity
  8
0
100
AcDbLine
 62
7
  6
CONTINUOUS
 10
0.0
 20
8.5
 11
11.0
 21
8.5
  0
LINE
  5
20E
100
AcDbEntity
  8
0
100
AcDbLine
 62
7
  6
CONTINUOUS
 10
11.0
 20
0.0
 11
11.0
 21
8.5
  0
LINE
  5
20F
100
AcDbEntity
  8
0
100
AcDbLine
 62
7
  6
CONTINUOUS
 10
6.2469556998
 20
1.3633118132
 11
6.0510615808
 21
1.3633118132
  0
LINE
  5
210
100
AcDbEntity
  8
0
100
AcDbLine
 62
7
  6
CONTINUOUS
 10
5.046955778
 20
1.3633118132
 11
4.8510615808
 21
1.3633118132
  0
LINE
  5
211
100
AcDbEntity
  8
0
100
AcDbLine
 62
7
  6
CONTINUOUS
 10
4.8590540246
 20
1.368267232
 11
4.8497057642
 21
1.3732885818
  0
LINE
  5
212
100
AcDbEntity
  8
0
100
AcDbLine
 62
7
  6
CONTINUOUS
 10
4.858610651
 20
1.382547257
 11
4.8492616032
 21
1.3875689874
  0
LINE
  5
213
100
AcDbEntity
  8
0
100
AcDbLine
 62
7
  6
CONTINUOUS
 10
4.8581672736
 20
1.3968272819
 11
4.8488174456
 21
1.4018493895
  0
LINE
  5
214
100
AcDbEntity
  8
0
100
AcDbLine
 62
7
  6
CONTINUOUS
 10
4.8577238924
 20
1.4111073065
 11
4.8483732912
 21
1.4161297881
  0
LINE
  5
215
100
AcDbEntity
  8
0
100
AcDbLine
 62
7
  6
CONTINUOUS
 10
4.8572805075
 20
1.4253873309
 11
4.84792914
 21
1.4304101832
  0
LINE
  5
216
100
AcDbEntity
  8
0
100
AcDbLine
 62
7
  6
CONTINUOUS
 10
4.8568371189
 20
1.439667355
 11
4.8474849921
 21
1.444690575
  0
LINE
  5
217
100
AcDbEntity
  8
0
100
AcDbLine
 62
7
  6
CONTINUOUS
 10
4.8563937266
 20
1.4539473789
 11
4.8470408473
 21
1.4589709635
  0
LINE
  5
218
100
AcDbEntity
  8
0
100
AcDbLine
 62
7
  6
CONTINUOUS
 10
4.8450824636
 20
1.5193118132
 11
4.9306888655
 21
1.5193118132
  0
LINE
  5
219
100
AcDbEntity
  8
0
100
AcDbLine
 62
7
  6
CONTINUOUS
 10
6.0450824636
 20
1.5193118132
 11
6.1306888655
 21
1.5193118132
  0
LINE
  5
21A
100
AcDbEntity
  8
0
100
AcDbLine
 62
7
  6
CONTINUOUS
 10
4.7150824636
 20
1.5633118132
 11
5.1870824636
 21
1.5633118132
  0
LINE
  5
21B
100
AcDbEntity
  8
0
100
AcDbLine
 62
7
  6
CONTINUOUS
 10
5.9150824636
 20
1.5633118132
 11
6.3870824636
 21
1.5633118132
  0
LINE
  5
21C
100
AcDbEntity
  8
0
100
AcDbLine
 62
7
  6
CONTINUOUS
 10
4.7510824636
 20
1.6008777552
 11
5.1510824636
 21
1.6008777552
  0
LINE
  5
21D
100
AcDbEntity
  8
0
100
AcDbLine
 62
7
  6
CONTINUOUS
 10
5.9510824636
 20
1.6008777552
 11
6.3510824636
 21
1.6008777552
  0
LINE
  5
21E
100
AcDbEntity
  8
0
100
AcDbLine
 62
7
  6
CONTINUOUS
 10
6.3134828298
 20
1.6383118132
 11
5.9886820974
 21
1.6383118132
  0
LINE
  5
21F
100
AcDbEntity
  8
0
100
AcDbLine
 62
7
  6
CONTINUOUS
 10
5.1134828298
 20
1.6383118132
 11
4.7886820974
 21
1.6383118132
  0
LINE
  5
220
100
AcDbEntity
  8
0
100
AcDbLine
 62
7
  6
CONTINUOUS
 10
4.8028824636
 20
1.6507118132
 11
5.0992824636
 21
1.6507118132
  0
LINE
  5
221
100
AcDbEntity
  8
0
100
AcDbLine
 62
7
  6
CONTINUOUS
 10
6.0028824636
 20
1.6507118132
 11
6.2992824636
 21
1.6507118132
  0
LINE
  5
222
100
AcDbEntity
  8
0
100
AcDbLine
 62
7
  6
CONTINUOUS
 10
4.8559503308
 20
1.4682274026
 11
4.8465967056
 21
1.4732513487
  0
LINE
  5
223
100
AcDbEntity
  8
0
100
AcDbLine
 62
7
  6
CONTINUOUS
 10
4.8555069314
 20
1.4825074261
 11
4.8461525669
 21
1.4875317306
  0
LINE
  5
224
100
AcDbEntity
  8
0
100
AcDbLine
 62
7
  6
CONTINUOUS
 10
4.8550635286
 20
1.4967874494
 11
4.8457084313
 21
1.5018121093
  0
LINE
  5
225
100
AcDbEntity
  8
0
100
AcDbLine
 62
7
  6
CONTINUOUS
 10
4.8546201223
 20
1.5110674724
 11
4.8452642987
 21
1.5160924848
  0
LINE
  5
226
100
AcDbEntity
  8
0
100
AcDbLine
 62
7
  6
CONTINUOUS
 10
5.0433325889
 20
1.3754072445
 11
5.0523673819
 21
1.3698056189
  0
LINE
  5
227
100
AcDbEntity
  8
0
100
AcDbLine
 62
7
  6
CONTINUOUS
 10
5.0437759644
 20
1.3896872695
 11
5.0528114478
 21
1.3840852539
  0
LINE
  5
228
100
AcDbEntity
  8
0
100
AcDbLine
 62
7
  6
CONTINUOUS
 10
5.0442193437
 20
1.4039672942
 11
5.0532555113
 21
1.398364892
  0
LINE
  5
229
100
AcDbEntity
  8
0
100
AcDbLine
 62
7
  6
CONTINUOUS
 10
5.0446627268
 20
1.4182473187
 11
5.0536995723
 21
1.4126445333
  0
LINE
  5
22A
100
AcDbEntity
  8
0
100
AcDbLine
 62
7
  6
CONTINUOUS
 10
5.0451061135
 20
1.432527343
 11
5.0541436309
 21
1.4269241777
  0
LINE
  5
22B
100
AcDbEntity
  8
0
100
AcDbLine
 62
7
  6
CONTINUOUS
 10
5.045549504
 20
1.446807367
 11
5.054587687
 21
1.4412038251
  0
LINE
  5
22C
100
AcDbEntity
  8
0
100
AcDbLine
 62
7
  6
CONTINUOUS
 10
5.045992898
 20
1.4610873908
 11
5.0550317408
 21
1.4554834755
  0
LINE
  5
22D
100
AcDbEntity
  8
0
100
AcDbLine
 62
7
  6
CONTINUOUS
 10
5.0464362956
 20
1.4753674144
 11
5.0554757923
 21
1.4697631289
  0
LINE
  5
22E
100
AcDbEntity
  8
0
100
AcDbLine
 62
7
  6
CONTINUOUS
 10
5.0468796968
 20
1.4896474378
 11
5.0559198414
 21
1.4840427852
  0
LINE
  5
22F
100
AcDbEntity
  8
0
100
AcDbLine
 62
7
  6
CONTINUOUS
 10
5.0473231013
 20
1.5039274609
 11
5.0563638883
 21
1.4983224443
  0
LINE
  5
230
100
AcDbEntity
  8
0
100
AcDbLine
 62
7
  6
CONTINUOUS
 10
5.0477665093
 20
1.5182074839
 11
5.0568079329
 21
1.5126021064
  0
LINE
  5
231
100
AcDbEntity
  8
0
100
AcDbLine
 62
7
  6
CONTINUOUS
 10
4.8497057642
 20
1.3732885818
 11
4.8496175097
 21
1.3733818132
  0
LINE
  5
232
100
AcDbEntity
  8
0
100
AcDbLine
 62
7
  6
CONTINUOUS
 10
4.8492616032
 20
1.3875689874
 11
4.8491737321
 21
1.3876618132
  0
LINE
  5
233
100
AcDbEntity
  8
0
100
AcDbLine
 62
7
  6
CONTINUOUS
 10
4.8488174456
 20
1.4018493895
 11
4.8487299546
 21
1.4019418132
  0
LINE
  5
234
100
AcDbEntity
  8
0
100
AcDbLine
 62
7
  6
CONTINUOUS
 10
4.8483732912
 20
1.4161297881
 11
4.848286177
 21
1.4162218132
  0
LINE
  5
235
100
AcDbEntity
  8
0
100
AcDbLine
 62
7
  6
CONTINUOUS
 10
4.84792914
 20
1.4304101832
 11
4.8478423995
 21
1.4305018132
  0
LINE
  5
236
100
AcDbEntity
  8
0
100
AcDbLine
 62
7
  6
CONTINUOUS
 10
4.8474849921
 20
1.444690575
 11
4.8473986219
 21
1.4447818132
  0
LINE
  5
237
100
AcDbEntity
  8
0
100
AcDbLine
 62
7
  6
CONTINUOUS
 10
4.8470408473
 20
1.4589709635
 11
4.8469548444
 21
1.4590618132
  0
LINE
  5
238
100
AcDbEntity
  8
0
100
AcDbLine
 62
7
  6
CONTINUOUS
 10
4.8465967056
 20
1.4732513487
 11
4.8465110668
 21
1.4733418132
  0
LINE
  5
239
100
AcDbEntity
  8
0
100
AcDbLine
 62
7
  6
CONTINUOUS
 10
4.8461525669
 20
1.4875317306
 11
4.8460672893
 21
1.4876218132
  0
LINE
  5
23A
100
AcDbEntity
  8
0
100
AcDbLine
 62
7
  6
CONTINUOUS
 10
4.8457084313
 20
1.5018121093
 11
4.8456235117
 21
1.5019018132
  0
LINE
  5
23B
100
AcDbEntity
  8
0
100
AcDbLine
 62
7
  6
CONTINUOUS
 10
6.0590540246
 20
1.368267232
 11
6.0497057642
 21
1.3732885818
  0
LINE
  5
23C
100
AcDbEntity
  8
0
100
AcDbLine
 62
7
  6
CONTINUOUS
 10
6.058610651
 20
1.382547257
 11
6.0492616032
 21
1.3875689874
  0
LINE
  5
23D
100
AcDbEntity
  8
0
100
AcDbLine
 62
7
  6
CONTINUOUS
 10
6.0581672736
 20
1.3968272819
 11
6.0488174456
 21
1.4018493895
  0
LINE
  5
23E
100
AcDbEntity
  8
0
100
AcDbLine
 62
7
  6
CONTINUOUS
 10
6.0577238924
 20
1.4111073065
 11
6.0483732912
 21
1.4161297881
  0
LINE
  5
23F
100
AcDbEntity
  8
0
100
AcDbLine
 62
7
  6
CONTINUOUS
 10
6.0572805075
 20
1.4253873309
 11
6.04792914
 21
1.4304101832
  0
LINE
  5
240
100
AcDbEntity
  8
0
100
AcDbLine
 62
7
  6
CONTINUOUS
 10
6.0568371189
 20
1.439667355
 11
6.0474849921
 21
1.444690575
  0
LINE
  5
241
100
AcDbEntity
  8
0
100
AcDbLine
 62
7
  6
CONTINUOUS
 10
6.0563937266
 20
1.4539473789
 11
6.0470408473
 21
1.4589709635
  0
LINE
  5
242
100
AcDbEntity
  8
0
100
AcDbLine
 62
7
  6
CONTINUOUS
 10
6.0559503308
 20
1.4682274026
 11
6.0465967056
 21
1.4732513487
  0
LINE
  5
243
100
AcDbEntity
  8
0
100
AcDbLine
 62
7
  6
CONTINUOUS
 10
6.0555069314
 20
1.4825074261
 11
6.0461525669
 21
1.4875317306
  0
LINE
  5
244
100
AcDbEntity
  8
0
100
AcDbLine
 62
7
  6
CONTINUOUS
 10
6.0550635286
 20
1.4967874494
 11
6.0457084313
 21
1.5018121093
  0
LINE
  5
245
100
AcDbEntity
  8
0
100
AcDbLine
 62
7
  6
CONTINUOUS
 10
6.0546201223
 20
1.5110674724
 11
6.0452642987
 21
1.5160924848
  0
LINE
  5
246
100
AcDbEntity
  8
0
100
AcDbLine
 62
7
  6
CONTINUOUS
 10
4.8452642987
 20
1.5160924848
 11
4.8451797342
 21
1.5161818132
  0
LINE
  5
247
100
AcDbEntity
  8
0
100
AcDbLine
 62
7
  6
CONTINUOUS
 10
6.2433325889
 20
1.3754072445
 11
6.2523673819
 21
1.3698056189
  0
LINE
  5
248
100
AcDbEntity
  8
0
100
AcDbLine
 62
7
  6
CONTINUOUS
 10
6.2437759644
 20
1.3896872695
 11
6.2528114478
 21
1.3840852539
  0
LINE
  5
249
100
AcDbEntity
  8
0
100
AcDbLine
 62
7
  6
CONTINUOUS
 10
6.2442193437
 20
1.4039672942
 11
6.2532555113
 21
1.398364892
  0
LINE
  5
24A
100
AcDbEntity
  8
0
100
AcDbLine
 62
7
  6
CONTINUOUS
 10
6.2446627268
 20
1.4182473187
 11
6.2536995723
 21
1.4126445333
  0
LINE
  5
24B
100
AcDbEntity
  8
0
100
AcDbLine
 62
7
  6
CONTINUOUS
 10
6.2451061135
 20
1.432527343
 11
6.2541436309
 21
1.4269241777
  0
LINE
  5
24C
100
AcDbEntity
  8
0
100
AcDbLine
 62
7
  6
CONTINUOUS
 10
6.245549504
 20
1.446807367
 11
6.254587687
 21
1.4412038251
  0
LINE
  5
24D
100
AcDbEntity
  8
0
100
AcDbLine
 62
7
  6
CONTINUOUS
 10
6.245992898
 20
1.4610873908
 11
6.2550317408
 21
1.4554834755
  0
LINE
  5
24E
100
AcDbEntity
  8
0
100
AcDbLine
 62
7
  6
CONTINUOUS
 10
6.2464362956
 20
1.4753674144
 11
6.2554757923
 21
1.4697631289
  0
LINE
  5
24F
100
AcDbEntity
  8
0
100
AcDbLine
 62
7
  6
CONTINUOUS
 10
6.2468796968
 20
1.4896474378
 11
6.2559198414
 21
1.4840427852
  0
LINE
  5
250
100
AcDbEntity
  8
0
100
AcDbLine
 62
7
  6
CONTINUOUS
 10
6.2473231013
 20
1.5039274609
 11
6.2563638883
 21
1.4983224443
  0
LINE
  5
251
100
AcDbEntity
  8
0
100
AcDbLine
 62
7
  6
CONTINUOUS
 10
6.2477665093
 20
1.5182074839
 11
6.2568079329
 21
1.5126021064
  0
LINE
  5
252
100
AcDbEntity
  8
0
100
AcDbLine
 62
7
  6
CONTINUOUS
 10
5.0524336762
 20
1.3697218132
 11
5.0523673819
 21
1.3698056189
  0
LINE
  5
253
100
AcDbEntity
  8
0
100
AcDbLine
 62
7
  6
CONTINUOUS
 10
5.0528114478
 20
1.3840852539
 11
5.0528774538
 21
1.3840018132
  0
LINE
  5
254
100
AcDbEntity
  8
0
100
AcDbLine
 62
7
  6
CONTINUOUS
 10
5.0532555113
 20
1.398364892
 11
5.0533212313
 21
1.3982818132
  0
LINE
  5
255
100
AcDbEntity
  8
0
100
AcDbLine
 62
7
  6
CONTINUOUS
 10
5.0536995723
 20
1.4126445333
 11
5.0537650089
 21
1.4125618132
  0
LINE
  5
256
100
AcDbEntity
  8
0
100
AcDbLine
 62
7
  6
CONTINUOUS
 10
5.0541436309
 20
1.4269241777
 11
5.0542087864
 21
1.4268418132
  0
LINE
  5
257
100
AcDbEntity
  8
0
100
AcDbLine
 62
7
  6
CONTINUOUS
 10
5.054587687
 20
1.4412038251
 11
5.054652564
 21
1.4411218132
  0
LINE
  5
258
100
AcDbEntity
  8
0
100
AcDbLine
 62
7
  6
CONTINUOUS
 10
5.0550317408
 20
1.4554834755
 11
5.0550963415
 21
1.4554018132
  0
LINE
  5
259
100
AcDbEntity
  8
0
100
AcDbLine
 62
7
  6
CONTINUOUS
 10
5.0554757923
 20
1.4697631289
 11
5.0555401191
 21
1.4696818132
  0
LINE
  5
25A
100
AcDbEntity
  8
0
100
AcDbLine
 62
7
  6
CONTINUOUS
 10
5.0559198414
 20
1.4840427852
 11
5.0559838966
 21
1.4839618132
  0
LINE
  5
25B
100
AcDbEntity
  8
0
100
AcDbLine
 62
7
  6
CONTINUOUS
 10
5.0563638883
 20
1.4983224443
 11
5.0564276742
 21
1.4982418132
  0
LINE
  5
25C
100
AcDbEntity
  8
0
100
AcDbLine
 62
7
  6
CONTINUOUS
 10
5.0568079329
 20
1.5126021064
 11
5.0568714517
 21
1.5125218132
  0
LINE
  5
25D
100
AcDbEntity
  8
0
100
AcDbLine
 62
7
  6
CONTINUOUS
 10
6.0497057642
 20
1.3732885818
 11
6.0496175097
 21
1.3733818132
  0
LINE
  5
25E
100
AcDbEntity
  8
0
100
AcDbLine
 62
7
  6
CONTINUOUS
 10
6.0492616032
 20
1.3875689874
 11
6.0491737321
 21
1.3876618132
  0
LINE
  5
25F
100
AcDbEntity
  8
0
100
AcDbLine
 62
7
  6
CONTINUOUS
 10
6.0488174456
 20
1.4018493895
 11
6.0487299546
 21
1.4019418132
  0
LINE
  5
260
100
AcDbEntity
  8
0
100
AcDbLine
 62
7
  6
CONTINUOUS
 10
6.0483732912
 20
1.4161297881
 11
6.048286177
 21
1.4162218132
  0
LINE
  5
261
100
AcDbEntity
  8
0
100
AcDbLine
 62
7
  6
CONTINUOUS
 10
6.04792914
 20
1.4304101832
 11
6.0478423995
 21
1.4305018132
  0
LINE
  5
262
100
AcDbEntity
  8
0
100
AcDbLine
 62
7
  6
CONTINUOUS
 10
6.0474849921
 20
1.444690575
 11
6.0473986219
 21
1.4447818132
  0
LINE
  5
263
100
AcDbEntity
  8
0
100
AcDbLine
 62
7
  6
CONTINUOUS
 10
6.0470408473
 20
1.4589709635
 11
6.0469548444
 21
1.4590618132
  0
LINE
  5
264
100
AcDbEntity
  8
0
100
AcDbLine
 62
7
  6
CONTINUOUS
 10
6.0465967056
 20
1.4732513487
 11
6.0465110668
 21
1.4733418132
  0
LINE
  5
265
100
AcDbEntity
  8
0
100
AcDbLine
 62
7
  6
CONTINUOUS
 10
6.0461525669
 20
1.4875317306
 11
6.0460672893
 21
1.4876218132
  0
LINE
  5
266
100
AcDbEntity
  8
0
100
AcDbLine
 62
7
  6
CONTINUOUS
 10
6.0457084313
 20
1.5018121093
 11
6.0456235117
 21
1.5019018132
  0
LINE
  5
267
100
AcDbEntity
  8
0
100
AcDbLine
 62
7
  6
CONTINUOUS
 10
6.0452642987
 20
1.5160924848
 11
6.0451797342
 21
1.5161818132
  0
LINE
  5
268
100
AcDbEntity
  8
0
100
AcDbLine
 62
7
  6
CONTINUOUS
 10
6.2524336762
 20
1.3697218132
 11
6.2523673819
 21
1.3698056189
  0
LINE
  5
269
100
AcDbEntity
  8
0
100
AcDbLine
 62
7
  6
CONTINUOUS
 10
6.2528114478
 20
1.3840852539
 11
6.2528774538
 21
1.3840018132
  0
LINE
  5
26A
100
AcDbEntity
  8
0
100
AcDbLine
 62
7
  6
CONTINUOUS
 10
6.2532555113
 20
1.398364892
 11
6.2533212313
 21
1.3982818132
  0
LINE
  5
26B
100
AcDbEntity
  8
0
100
AcDbLine
 62
7
  6
CONTINUOUS
 10
6.2536995723
 20
1.4126445333
 11
6.2537650089
 21
1.4125618132
  0
LINE
  5
26C
100
AcDbEntity
  8
0
100
AcDbLine
 62
7
  6
CONTINUOUS
 10
6.2541436309
 20
1.4269241777
 11
6.2542087864
 21
1.4268418132
  0
LINE
  5
26D
100
AcDbEntity
  8
0
100
AcDbLine
 62
7
  6
CONTINUOUS
 10
6.254587687
 20
1.4412038251
 11
6.254652564
 21
1.4411218132
  0
LINE
  5
26E
100
AcDbEntity
  8
0
100
AcDbLine
 62
7
  6
CONTINUOUS
 10
6.2550317408
 20
1.4554834755
 11
6.2550963415
 21
1.4554018132
  0
LINE
  5
26F
100
AcDbEntity
  8
0
100
AcDbLine
 62
7
  6
CONTINUOUS
 10
6.2554757923
 20
1.4697631289
 11
6.2555401191
 21
1.4696818132
  0
LINE
  5
270
100
AcDbEntity
  8
0
100
AcDbLine
 62
7
  6
CONTINUOUS
 10
6.2559198414
 20
1.4840427852
 11
6.2559838966
 21
1.4839618132
  0
LINE
  5
271
100
AcDbEntity
  8
0
100
AcDbLine
 62
7
  6
CONTINUOUS
 10
6.2563638883
 20
1.4983224443
 11
6.2564276742
 21
1.4982418132
  0
LINE
  5
272
100
AcDbEntity
  8
0
100
AcDbLine
 62
7
  6
CONTINUOUS
 10
6.2568079329
 20
1.5126021064
 11
6.2568714517
 21
1.5125218132
  0
LINE
  5
273
100
AcDbEntity
  8
0
100
AcDbLine
 62
7
  6
CONTINUOUS
 10
4.8450824636
 20
1.5193118132
 11
4.8451797342
 21
1.5161818132
  0
LINE
  5
274
100
AcDbEntity
  8
0
100
AcDbLine
 62
7
  6
CONTINUOUS
 10
4.8455153642
 20
1.5053818132
 11
4.8456235117
 21
1.5019018132
  0
LINE
  5
275
100
AcDbEntity
  8
0
100
AcDbLine
 62
7
  6
CONTINUOUS
 10
4.8459591418
 20
1.4911018132
 11
4.8460672893
 21
1.4876218132
  0
LINE
  5
276
100
AcDbEntity
  8
0
100
AcDbLine
 62
7
  6
CONTINUOUS
 10
4.8464029193
 20
1.4768218132
 11
4.8465110668
 21
1.4733418132
  0
LINE
  5
277
100
AcDbEntity
  8
0
100
AcDbLine
 62
7
  6
CONTINUOUS
 10
4.8468466969
 20
1.4625418132
 11
4.8469548444
 21
1.4590618132
  0
LINE
  5
278
100
AcDbEntity
  8
0
100
AcDbLine
 62
7
  6
CONTINUOUS
 10
4.8472904744
 20
1.4482618132
 11
4.8473986219
 21
1.4447818132
  0
LINE
  5
279
100
AcDbEntity
  8
0
100
AcDbLine
 62
7
  6
CONTINUOUS
 10
4.847734252
 20
1.4339818132
 11
4.8478423995
 21
1.4305018132
  0
LINE
  5
27A
100
AcDbEntity
  8
0
100
AcDbLine
 62
7
  6
CONTINUOUS
 10
4.8481780295
 20
1.4197018132
 11
4.848286177
 21
1.4162218132
  0
LINE
  5
27B
100
AcDbEntity
  8
0
100
AcDbLine
 62
7
  6
CONTINUOUS
 10
4.8486218071
 20
1.4054218132
 11
4.8487299546
 21
1.4019418132
  0
LINE
  5
27C
100
AcDbEntity
  8
0
100
AcDbLine
 62
7
  6
CONTINUOUS
 10
4.8490655846
 20
1.3911418132
 11
4.8491737321
 21
1.3876618132
  0
LINE
  5
27D
100
AcDbEntity
  8
0
100
AcDbLine
 62
7
  6
CONTINUOUS
 10
4.8495093622
 20
1.3768618132
 11
4.8496175097
 21
1.3733818132
  0
LINE
  5
27E
100
AcDbEntity
  8
0
100
AcDbLine
 62
7
  6
CONTINUOUS
 10
4.8028824636
 20
1.6507118132
 11
4.8028824636
 21
1.6383118132
  0
LINE
  5
27F
100
AcDbEntity
  8
0
100
AcDbLine
 62
7
  6
CONTINUOUS
 10
4.8450824636
 20
1.5193118132
 11
4.8450824636
 21
1.5633118132
  0
LINE
  5
280
100
AcDbEntity
  8
0
100
AcDbLine
 62
7
  6
CONTINUOUS
 10
4.8450824636
 20
1.6507118132
 11
4.8450824636
 21
7.5633118132
  0
LINE
  5
281
100
AcDbEntity
  8
0
100
AcDbLine
 62
7
  6
CONTINUOUS
 10
5.0570824636
 20
1.5232549375
 11
5.0570824636
 21
1.5633118132
  0
LINE
  5
282
100
AcDbEntity
  8
0
100
AcDbLine
 62
7
  6
CONTINUOUS
 10
5.0570824636
 20
1.6507118132
 11
5.0570824636
 21
7.5633118132
  0
LINE
  5
283
100
AcDbEntity
  8
0
100
AcDbLine
 62
7
  6
CONTINUOUS
 10
5.0992824636
 20
1.6507118132
 11
5.0992824636
 21
1.6383118132
  0
LINE
  5
284
100
AcDbEntity
  8
0
100
AcDbLine
 62
7
  6
CONTINUOUS
 10
5.0568714517
 20
1.5125218132
 11
5.0567633043
 21
1.5090418132
  0
LINE
  5
285
100
AcDbEntity
  8
0
100
AcDbLine
 62
7
  6
CONTINUOUS
 10
5.0564276742
 20
1.4982418132
 11
5.0563195267
 21
1.4947618132
  0
LINE
  5
286
100
AcDbEntity
  8
0
100
AcDbLine
 62
7
  6
CONTINUOUS
 10
5.0559838966
 20
1.4839618132
 11
5.0558757492
 21
1.4804818132
  0
LINE
  5
287
100
AcDbEntity
  8
0
100
AcDbLine
 62
7
  6
CONTINUOUS
 10
5.0555401191
 20
1.4696818132
 11
5.0554319716
 21
1.4662018132
  0
LINE
  5
288
100
AcDbEntity
  8
0
100
AcDbLine
 62
7
  6
CONTINUOUS
 10
5.0550963415
 20
1.4554018132
 11
5.054988194
 21
1.4519218132
  0
LINE
  5
289
100
AcDbEntity
  8
0
100
AcDbLine
 62
7
  6
CONTINUOUS
 10
5.054652564
 20
1.4411218132
 11
5.0545444165
 21
1.4376418132
  0
LINE
  5
28A
100
AcDbEntity
  8
0
100
AcDbLine
 62
7
  6
CONTINUOUS
 10
5.0542087864
 20
1.4268418132
 11
5.0541006389
 21
1.4233618132
  0
LINE
  5
28B
100
AcDbEntity
  8
0
100
AcDbLine
 62
7
  6
CONTINUOUS
 10
5.0537650089
 20
1.4125618132
 11
5.0536568614
 21
1.4090818132
  0
LINE
  5
28C
100
AcDbEntity
  8
0
100
AcDbLine
 62
7
  6
CONTINUOUS
 10
5.0533212313
 20
1.3982818132
 11
5.0532130838
 21
1.3948018132
  0
LINE
  5
28D
100
AcDbEntity
  8
0
100
AcDbLine
 62
7
  6
CONTINUOUS
 10
5.0528774538
 20
1.3840018132
 11
5.0527693063
 21
1.3805218132
  0
LINE
  5
28E
100
AcDbEntity
  8
0
100
AcDbLine
 62
7
  6
CONTINUOUS
 10
5.0524336762
 20
1.3697218132
 11
5.0523255287
 21
1.3662418132
  0
LINE
  5
28F
100
AcDbEntity
  8
0
100
AcDbLine
 62
7
  6
CONTINUOUS
 10
6.0450824636
 20
1.5193118132
 11
6.0451797342
 21
1.5161818132
  0
LINE
  5
290
100
AcDbEntity
  8
0
100
AcDbLine
 62
7
  6
CONTINUOUS
 10
6.0455153642
 20
1.5053818132
 11
6.0456235117
 21
1.5019018132
  0
LINE
  5
291
100
AcDbEntity
  8
0
100
AcDbLine
 62
7
  6
CONTINUOUS
 10
6.0459591418
 20
1.4911018132
 11
6.0460672893
 21
1.4876218132
  0
LINE
  5
292
100
AcDbEntity
  8
0
100
AcDbLine
 62
7
  6
CONTINUOUS
 10
6.0464029193
 20
1.4768218132
 11
6.0465110668
 21
1.4733418132
  0
LINE
  5
293
100
AcDbEntity
  8
0
100
AcDbLine
 62
7
  6
CONTINUOUS
 10
6.0468466969
 20
1.4625418132
 11
6.0469548444
 21
1.4590618132
  0
LINE
  5
294
100
AcDbEntity
  8
0
100
AcDbLine
 62
7
  6
CONTINUOUS
 10
6.0472904744
 20
1.4482618132
 11
6.0473986219
 21
1.4447818132
  0
LINE
  5
295
100
AcDbEntity
  8
0
100
AcDbLine
 62
7
  6
CONTINUOUS
 10
6.047734252
 20
1.4339818132
 11
6.0478423995
 21
1.4305018132
  0
LINE
  5
296
100
AcDbEntity
  8
0
100
AcDbLine
 62
7
  6
CONTINUOUS
 10
6.0481780295
 20
1.4197018132
 11
6.048286177
 21
1.4162218132
  0
LINE
  5
297
100
AcDbEntity
  8
0
100
AcDbLine
 62
7
  6
CONTINUOUS
 10
6.0486218071
 20
1.4054218132
 11
6.0487299546
 21
1.4019418132
  0
LINE
  5
298
100
AcDbEntity
  8
0
100
AcDbLine
 62
7
  6
CONTINUOUS
 10
6.0490655846
 20
1.3911418132
 11
6.0491737321
 21
1.3876618132
  0
LINE
  5
299
100
AcDbEntity
  8
0
100
AcDbLine
 62
7
  6
CONTINUOUS
 10
6.0495093622
 20
1.3768618132
 11
6.0496175097
 21
1.3733818132
  0
LINE
  5
29A
100
AcDbEntity
  8
0
100
AcDbLine
 62
7
  6
CONTINUOUS
 10
6.0028824636
 20
1.6507118132
 11
6.0028824636
 21
1.6383118132
  0
LINE
  5
29B
100
AcDbEntity
  8
0
100
AcDbLine
 62
7
  6
CONTINUOUS
 10
6.0450824636
 20
1.5193118132
 11
6.0450824636
 21
1.5633118132
  0
LINE
  5
29C
100
AcDbEntity
  8
0
100
AcDbLine
 62
7
  6
CONTINUOUS
 10
6.0450824636
 20
1.6507118132
 11
6.0450824636
 21
7.5633118132
  0
LINE
  5
29D
100
AcDbEntity
  8
0
100
AcDbLine
 62
7
  6
CONTINUOUS
 10
6.2570824636
 20
1.5232549375
 11
6.2570824636
 21
1.5633118132
  0
LINE
  5
29E
100
AcDbEntity
  8
0
100
AcDbLine
 62
7
  6
CONTINUOUS
 10
6.2570824636
 20
1.6507118132
 11
6.2570824636
 21
7.5633118132
  0
LINE
  5
29F
100
AcDbEntity
  8
0
100
AcDbLine
 62
7
  6
CONTINUOUS
 10
6.2992824636
 20
1.6507118132
 11
6.2992824636
 21
1.6383118132
  0
LINE
  5
2A0
100
AcDbEntity
  8
0
100
AcDbLine
 62
7
  6
CONTINUOUS
 10
6.2568714517
 20
1.5125218132
 11
6.2567633043
 21
1.5090418132
  0
LINE
  5
2A1
100
AcDbEntity
  8
0
100
AcDbLine
 62
7
  6
CONTINUOUS
 10
6.2564276742
 20
1.4982418132
 11
6.2563195267
 21
1.4947618132
  0
LINE
  5
2A2
100
AcDbEntity
  8
0
100
AcDbLine
 62
7
  6
CONTINUOUS
 10
6.2559838966
 20
1.4839618132
 11
6.2558757492
 21
1.4804818132
  0
LINE
  5
2A3
100
AcDbEntity
  8
0
100
AcDbLine
 62
7
  6
CONTINUOUS
 10
6.2555401191
 20
1.4696818132
 11
6.2554319716
 21
1.4662018132
  0
LINE
  5
2A4
100
AcDbEntity
  8
0
100
AcDbLine
 62
7
  6
CONTINUOUS
 10
6.2550963415
 20
1.4554018132
 11
6.254988194
 21
1.4519218132
  0
LINE
  5
2A5
100
AcDbEntity
  8
0
100
AcDbLine
 62
7
  6
CONTINUOUS
 10
6.254652564
 20
1.4411218132
 11
6.2545444165
 21
1.4376418132
  0
LINE
  5
2A6
100
AcDbEntity
  8
0
100
AcDbLine
 62
7
  6
CONTINUOUS
 10
6.2542087864
 20
1.4268418132
 11
6.2541006389
 21
1.4233618132
  0
LINE
  5
2A7
100
AcDbEntity
  8
0
100
AcDbLine
 62
7
  6
CONTINUOUS
 10
6.2537650089
 20
1.4125618132
 11
6.2536568614
 21
1.4090818132
  0
LINE
  5
2A8
100
AcDbEntity
  8
0
100
AcDbLine
 62
7
  6
CONTINUOUS
 10
6.2533212313
 20
1.3982818132
 11
6.2532130838
 21
1.3948018132
  0
LINE
  5
2A9
100
AcDbEntity
  8
0
100
AcDbLine
 62
7
  6
CONTINUOUS
 10
6.2528774538
 20
1.3840018132
 11
6.2527693063
 21
1.3805218132
  0
LINE
  5
2AA
100
AcDbEntity
  8
0
100
AcDbLine
 62
7
  6
CONTINUOUS
 10
6.2524336762
 20
1.3697218132
 11
6.2523255287
 21
1.3662418132
  0
LINE
  5
2AB
100
AcDbEntity
  8
0
100
AcDbLine
 62
7
  6
CONTINUOUS
 10
4.8455790163
 20
1.505462275
 11
4.8455153642
 21
1.5053818132
  0
LINE
  5
2AC
100
AcDbEntity
  8
0
100
AcDbLine
 62
7
  6
CONTINUOUS
 10
4.846023062
 20
1.4911826144
 11
4.8459591418
 21
1.4911018132
  0
LINE
  5
2AD
100
AcDbEntity
  8
0
100
AcDbLine
 62
7
  6
CONTINUOUS
 10
4.84646711
 20
1.4769029566
 11
4.8464029193
 21
1.4768218132
  0
LINE
  5
2AE
100
AcDbEntity
  8
0
100
AcDbLine
 62
7
  6
CONTINUOUS
 10
4.8469111603
 20
1.4626233018
 11
4.8468466969
 21
1.4625418132
  0
LINE
  5
2AF
100
AcDbEntity
  8
0
100
AcDbLine
 62
7
  6
CONTINUOUS
 10
4.847355213
 20
1.4483436499
 11
4.8472904744
 21
1.4482618132
  0
LINE
  5
2B0
100
AcDbEntity
  8
0
100
AcDbLine
 62
7
  6
CONTINUOUS
 10
4.8477992679
 20
1.434064001
 11
4.847734252
 21
1.4339818132
  0
LINE
  5
2B1
100
AcDbEntity
  8
0
100
AcDbLine
 62
7
  6
CONTINUOUS
 10
4.8482433253
 20
1.4197843551
 11
4.8481780295
 21
1.4197018132
  0
LINE
  5
2B2
100
AcDbEntity
  8
0
100
AcDbLine
 62
7
  6
CONTINUOUS
 10
4.8486873851
 20
1.4055047123
 11
4.8486218071
 21
1.4054218132
  0
LINE
  5
2B3
100
AcDbEntity
  8
0
100
AcDbLine
 62
7
  6
CONTINUOUS
 10
4.8491314473
 20
1.3912250726
 11
4.8490655846
 21
1.3911418132
  0
LINE
  5
2B4
100
AcDbEntity
  8
0
100
AcDbLine
 62
7
  6
CONTINUOUS
 10
4.849575512
 20
1.376945436
 11
4.8495093622
 21
1.3768618132
  0
LINE
  5
2B5
100
AcDbEntity
  8
0
100
AcDbLine
 62
7
  6
CONTINUOUS
 10
5.0570007521
 20
1.5231671816
 11
5.0570824636
 21
1.5232549375
  0
LINE
  5
2B6
100
AcDbEntity
  8
0
100
AcDbLine
 62
7
  6
CONTINUOUS
 10
5.0566785626
 20
1.5089522974
 11
5.0567633043
 21
1.5090418132
  0
LINE
  5
2B7
100
AcDbEntity
  8
0
100
AcDbLine
 62
7
  6
CONTINUOUS
 10
5.0562344285
 20
1.4946719203
 11
5.0563195267
 21
1.4947618132
  0
LINE
  5
2B8
100
AcDbEntity
  8
0
100
AcDbLine
 62
7
  6
CONTINUOUS
 10
5.0557902913
 20
1.48039154
 11
5.0558757492
 21
1.4804818132
  0
LINE
  5
2B9
100
AcDbEntity
  8
0
100
AcDbLine
 62
7
  6
CONTINUOUS
 10
5.0553461512
 20
1.4661111565
 11
5.0554319716
 21
1.4662018132
  0
LINE
  5
2BA
100
AcDbEntity
  8
0
100
AcDbLine
 62
7
  6
CONTINUOUS
 10
5.0549020079
 20
1.4518307697
 11
5.054988194
 21
1.4519218132
  0
LINE
  5
2BB
100
AcDbEntity
  8
0
100
AcDbLine
 62
7
  6
CONTINUOUS
 10
5.0544578615
 20
1.4375503795
 11
5.0545444165
 21
1.4376418132
  0
LINE
  5
2BC
100
AcDbEntity
  8
0
100
AcDbLine
 62
7
  6
CONTINUOUS
 10
5.054013712
 20
1.4232699861
 11
5.0541006389
 21
1.4233618132
  0
LINE
  5
2BD
100
AcDbEntity
  8
0
100
AcDbLine
 62
7
  6
CONTINUOUS
 10
5.0535695592
 20
1.4089895892
 11
5.0536568614
 21
1.4090818132
  0
LINE
  5
2BE
100
AcDbEntity
  8
0
100
AcDbLine
 62
7
  6
CONTINUOUS
 10
5.0531254032
 20
1.3947091889
 11
5.0532130838
 21
1.3948018132
  0
LINE
  5
2BF
100
AcDbEntity
  8
0
100
AcDbLine
 62
7
  6
CONTINUOUS
 10
5.0522370813
 20
1.3661483777
 11
5.0523255287
 21
1.3662418132
  0
LINE
  5
2C0
100
AcDbEntity
  8
0
100
AcDbLine
 62
7
  6
CONTINUOUS
 10
4.8455790163
 20
1.505462275
 11
4.8547703259
 21
1.5111605982
  0
LINE
  5
2C1
100
AcDbEntity
  8
0
100
AcDbLine
 62
7
  6
CONTINUOUS
 10
4.846023062
 20
1.4911826144
 11
4.855214425
 21
1.4968810053
  0
LINE
  5
2C2
100
AcDbEntity
  8
0
100
AcDbLine
 62
7
  6
CONTINUOUS
 10
6.0455790163
 20
1.505462275
 11
6.0455153642
 21
1.5053818132
  0
LINE
  5
2C3
100
AcDbEntity
  8
0
100
AcDbLine
 62
7
  6
CONTINUOUS
 10
6.046023062
 20
1.4911826144
 11
6.0459591418
 21
1.4911018132
  0
LINE
  5
2C4
100
AcDbEntity
  8
0
100
AcDbLine
 62
7
  6
CONTINUOUS
 10
6.04646711
 20
1.4769029566
 11
6.0464029193
 21
1.4768218132
  0
LINE
  5
2C5
100
AcDbEntity
  8
0
100
AcDbLine
 62
7
  6
CONTINUOUS
 10
6.0469111603
 20
1.4626233018
 11
6.0468466969
 21
1.4625418132
  0
LINE
  5
2C6
100
AcDbEntity
  8
0
100
AcDbLine
 62
7
  6
CONTINUOUS
 10
6.047355213
 20
1.4483436499
 11
6.0472904744
 21
1.4482618132
  0
LINE
  5
2C7
100
AcDbEntity
  8
0
100
AcDbLine
 62
7
  6
CONTINUOUS
 10
6.0477992679
 20
1.434064001
 11
6.047734252
 21
1.4339818132
  0
LINE
  5
2C8
100
AcDbEntity
  8
0
100
AcDbLine
 62
7
  6
CONTINUOUS
 10
6.0482433253
 20
1.4197843551
 11
6.0481780295
 21
1.4197018132
  0
LINE
  5
2C9
100
AcDbEntity
  8
0
100
AcDbLine
 62
7
  6
CONTINUOUS
 10
6.0486873851
 20
1.4055047123
 11
6.0486218071
 21
1.4054218132
  0
LINE
  5
2CA
100
AcDbEntity
  8
0
100
AcDbLine
 62
7
  6
CONTINUOUS
 10
6.0491314473
 20
1.3912250726
 11
6.0490655846
 21
1.3911418132
  0
LINE
  5
2CB
100
AcDbEntity
  8
0
100
AcDbLine
 62
7
  6
CONTINUOUS
 10
6.049575512
 20
1.376945436
 11
6.0495093622
 21
1.3768618132
  0
LINE
  5
2CC
100
AcDbEntity
  8
0
100
AcDbLine
 62
7
  6
CONTINUOUS
 10
4.84646711
 20
1.4769029566
 11
4.8556585272
 21
1.4826014163
  0
LINE
  5
2CD
100
AcDbEntity
  8
0
100
AcDbLine
 62
7
  6
CONTINUOUS
 10
4.8469111603
 20
1.4626233018
 11
4.8561026324
 21
1.4683218311
  0
LINE
  5
2CE
100
AcDbEntity
  8
0
100
AcDbLine
 62
7
  6
CONTINUOUS
 10
4.847355213
 20
1.4483436499
 11
4.8565467406
 21
1.4540422497
  0
LINE
  5
2CF
100
AcDbEntity
  8
0
100
AcDbLine
 62
7
  6
CONTINUOUS
 10
4.8477992679
 20
1.434064001
 11
4.856990852
 21
1.4397626723
  0
LINE
  5
2D0
100
AcDbEntity
  8
0
100
AcDbLine
 62
7
  6
CONTINUOUS
 10
4.8482433253
 20
1.4197843551
 11
4.8574349665
 21
1.4254830989
  0
LINE
  5
2D1
100
AcDbEntity
  8
0
100
AcDbLine
 62
7
  6
CONTINUOUS
 10
4.8486873851
 20
1.4055047123
 11
4.8578790842
 21
1.4112035296
  0
LINE
  5
2D2
100
AcDbEntity
  8
0
100
AcDbLine
 62
7
  6
CONTINUOUS
 10
4.8491314473
 20
1.3912250726
 11
4.8583232051
 21
1.3969239644
  0
LINE
  5
2D3
100
AcDbEntity
  8
0
100
AcDbLine
 62
7
  6
CONTINUOUS
 10
4.849575512
 20
1.376945436
 11
4.8587673294
 21
1.3826444033
  0
LINE
  5
2D4
100
AcDbEntity
  8
0
100
AcDbLine
 62
7
  6
CONTINUOUS
 10
4.8510615809
 20
1.3633118132
 11
4.8592114569
 21
1.3683648465
  0
LINE
  5
2D5
100
AcDbEntity
  8
0
100
AcDbLine
 62
7
  6
CONTINUOUS
 10
5.0570007521
 20
1.5231671816
 11
5.0475935116
 21
1.5181145616
  0
LINE
  5
2D6
100
AcDbEntity
  8
0
100
AcDbLine
 62
7
  6
CONTINUOUS
 10
5.0566785626
 20
1.5089522974
 11
5.0471493075
 21
1.5038341103
  0
LINE
  5
2D7
100
AcDbEntity
  8
0
100
AcDbLine
 62
7
  6
CONTINUOUS
 10
4.8450824636
 20
6.8633118132
 11
5.0570824636
 21
6.8633118132
  0
LINE
  5
2D8
100
AcDbEntity
  8
0
100
AcDbLine
 62
7
  6
CONTINUOUS
 10
6.0450824636
 20
6.8633118132
 11
6.2570824636
 21
6.8633118132
  0
LINE
  5
2D9
100
AcDbEntity
  8
0
100
AcDbLine
 62
7
  6
CONTINUOUS
 10
6.2570007521
 20
1.5231671816
 11
6.2570824636
 21
1.5232549375
  0
LINE
  5
2DA
100
AcDbEntity
  8
0
100
AcDbLine
 62
7
  6
CONTINUOUS
 10
6.2566785626
 20
1.5089522974
 11
6.2567633043
 21
1.5090418132
  0
LINE
  5
2DB
100
AcDbEntity
  8
0
100
AcDbLine
 62
7
  6
CONTINUOUS
 10
6.2562344285
 20
1.4946719203
 11
6.2563195267
 21
1.4947618132
  0
LINE
  5
2DC
100
AcDbEntity
  8
0
100
AcDbLine
 62
7
  6
CONTINUOUS
 10
6.2557902913
 20
1.48039154
 11
6.2558757492
 21
1.4804818132
  0
LINE
  5
2DD
100
AcDbEntity
  8
0
100
AcDbLine
 62
7
  6
CONTINUOUS
 10
6.2553461512
 20
1.4661111565
 11
6.2554319716
 21
1.4662018132
  0
LINE
  5
2DE
100
AcDbEntity
  8
0
100
AcDbLine
 62
7
  6
CONTINUOUS
 10
6.2549020079
 20
1.4518307697
 11
6.254988194
 21
1.4519218132
  0
LINE
  5
2DF
100
AcDbEntity
  8
0
100
AcDbLine
 62
7
  6
CONTINUOUS
 10
6.2544578615
 20
1.4375503795
 11
6.2545444165
 21
1.4376418132
  0
LINE
  5
2E0
100
AcDbEntity
  8
0
100
AcDbLine
 62
7
  6
CONTINUOUS
 10
6.254013712
 20
1.4232699861
 11
6.2541006389
 21
1.4233618132
  0
LINE
  5
2E1
100
AcDbEntity
  8
0
100
AcDbLine
 62
7
  6
CONTINUOUS
 10
5.0562344285
 20
1.4946719203
 11
5.0467050995
 21
1.4895536548
  0
LINE
  5
2E2
100
AcDbEntity
  8
0
100
AcDbLine
 62
7
  6
CONTINUOUS
 10
5.0557902913
 20
1.48039154
 11
5.0462608874
 21
1.475273195
  0
LINE
  5
2E3
100
AcDbEntity
  8
0
100
AcDbLine
 62
7
  6
CONTINUOUS
 10
5.0553461512
 20
1.4661111565
 11
5.0458166714
 21
1.460992731
  0
LINE
  5
2E4
100
AcDbEntity
  8
0
100
AcDbLine
 62
7
  6
CONTINUOUS
 10
5.0549020079
 20
1.4518307697
 11
5.0453724512
 21
1.4467122626
  0
LINE
  5
2E5
100
AcDbEntity
  8
0
100
AcDbLine
 62
7
  6
CONTINUOUS
 10
5.0544578615
 20
1.4375503795
 11
5.0449282268
 21
1.4324317898
  0
LINE
  5
2E6
100
AcDbEntity
  8
0
100
AcDbLine
 62
7
  6
CONTINUOUS
 10
5.054013712
 20
1.4232699861
 11
5.0444839983
 21
1.4181513125
  0
LINE
  5
2E7
100
AcDbEntity
  8
0
100
AcDbLine
 62
7
  6
CONTINUOUS
 10
5.0535695592
 20
1.4089895892
 11
5.0440397654
 21
1.4038708306
  0
LINE
  5
2E8
100
AcDbEntity
  8
0
100
AcDbLine
 62
7
  6
CONTINUOUS
 10
5.0531254032
 20
1.3947091889
 11
5.0435955282
 21
1.3895903442
  0
LINE
  5
2E9
100
AcDbEntity
  8
0
100
AcDbLine
 62
7
  6
CONTINUOUS
 10
5.0526812439
 20
1.3804287851
 11
5.0431512866
 21
1.3753098531
  0
LINE
  5
2EA
100
AcDbEntity
  8
0
100
AcDbLine
 62
7
  6
CONTINUOUS
 10
5.0522370813
 20
1.3661483777
 11
5.0469560534
 21
1.3633118132
  0
LINE
  5
2EB
100
AcDbEntity
  8
0
100
AcDbLine
 62
7
  6
CONTINUOUS
 10
6.2535695592
 20
1.4089895892
 11
6.2536568614
 21
1.4090818132
  0
LINE
  5
2EC
100
AcDbEntity
  8
0
100
AcDbLine
 62
7
  6
CONTINUOUS
 10
6.2531254032
 20
1.3947091889
 11
6.2532130838
 21
1.3948018132
  0
LINE
  5
2ED
100
AcDbEntity
  8
0
100
AcDbLine
 62
7
  6
CONTINUOUS
 10
6.2526812439
 20
1.3804287851
 11
6.2527693063
 21
1.3805218132
  0
LINE
  5
2EE
100
AcDbEntity
  8
0
100
AcDbLine
 62
7
  6
CONTINUOUS
 10
6.2522370813
 20
1.3661483777
 11
6.2523255287
 21
1.3662418132
  0
LINE
  5
2EF
100
AcDbEntity
  8
0
100
AcDbLine
 62
7
  6
CONTINUOUS
 10
6.0455790163
 20
1.505462275
 11
6.0547703259
 21
1.5111605982
  0
LINE
  5
2F0
100
AcDbEntity
  8
0
100
AcDbLine
 62
7
  6
CONTINUOUS
 10
6.046023062
 20
1.4911826144
 11
6.055214425
 21
1.4968810053
  0
LINE
  5
2F1
100
AcDbEntity
  8
0
100
AcDbLine
 62
7
  6
CONTINUOUS
 10
6.04646711
 20
1.4769029566
 11
6.0556585272
 21
1.4826014163
  0
LINE
  5
2F2
100
AcDbEntity
  8
0
100
AcDbLine
 62
7
  6
CONTINUOUS
 10
6.0469111603
 20
1.4626233018
 11
6.0561026324
 21
1.4683218311
  0
LINE
  5
2F3
100
AcDbEntity
  8
0
100
AcDbLine
 62
7
  6
CONTINUOUS
 10
6.047355213
 20
1.4483436499
 11
6.0565467406
 21
1.4540422497
  0
LINE
  5
2F4
100
AcDbEntity
  8
0
100
AcDbLine
 62
7
  6
CONTINUOUS
 10
6.0477992679
 20
1.434064001
 11
6.056990852
 21
1.4397626723
  0
LINE
  5
2F5
100
AcDbEntity
  8
0
100
AcDbLine
 62
7
  6
CONTINUOUS
 10
6.0482433253
 20
1.4197843551
 11
6.0574349665
 21
1.4254830989
  0
LINE
  5
2F6
100
AcDbEntity
  8
0
100
AcDbLine
 62
7
  6
CONTINUOUS
 10
6.0486873851
 20
1.4055047123
 11
6.0578790842
 21
1.4112035296
  0
LINE
  5
2F7
100
AcDbEntity
  8
0
100
AcDbLine
 62
7
  6
CONTINUOUS
 10
6.0491314473
 20
1.3912250726
 11
6.0583232051
 21
1.3969239644
  0
LINE
  5
2F8
100
AcDbEntity
  8
0
100
AcDbLine
 62
7
  6
CONTINUOUS
 10
6.049575512
 20
1.376945436
 11
6.0587673294
 21
1.3826444033
  0
LINE
  5
2F9
100
AcDbEntity
  8
0
100
AcDbLine
 62
7
  6
CONTINUOUS
 10
6.0510615809
 20
1.3633118132
 11
6.0592114569
 21
1.3683648465
  0
LINE
  5
2FA
100
AcDbEntity
  8
0
100
AcDbLine
 62
7
  6
CONTINUOUS
 10
6.2570007521
 20
1.5231671816
 11
6.2475935116
 21
1.5181145616
  0
LINE
  5
2FB
100
AcDbEntity
  8
0
100
AcDbLine
 62
7
  6
CONTINUOUS
 10
6.2566785626
 20
1.5089522974
 11
6.2471493075
 21
1.5038341103
  0
LINE
  5
2FC
100
AcDbEntity
  8
0
100
AcDbLine
 62
7
  6
CONTINUOUS
 10
6.2562344285
 20
1.4946719203
 11
6.2467050995
 21
1.4895536548
  0
LINE
  5
2FD
100
AcDbEntity
  8
0
100
AcDbLine
 62
7
  6
CONTINUOUS
 10
6.2557902913
 20
1.48039154
 11
6.2462608874
 21
1.475273195
  0
LINE
  5
2FE
100
AcDbEntity
  8
0
100
AcDbLine
 62
7
  6
CONTINUOUS
 10
6.2553461512
 20
1.4661111565
 11
6.2458166714
 21
1.460992731
  0
LINE
  5
2FF
100
AcDbEntity
  8
0
100
AcDbLine
 62
7
  6
CONTINUOUS
 10
6.2549020079
 20
1.4518307697
 11
6.2453724512
 21
1.4467122626
  0
LINE
  5
300
100
AcDbEntity
  8
0
100
AcDbLine
 62
7
  6
CONTINUOUS
 10
6.2544578615
 20
1.4375503795
 11
6.2449282268
 21
1.4324317898
  0
LINE
  5
301
100
AcDbEntity
  8
0
100
AcDbLine
 62
7
  6
CONTINUOUS
 10
6.254013712
 20
1.4232699861
 11
6.2444839983
 21
1.4181513125
  0
LINE
  5
302
100
AcDbEntity
  8
0
100
AcDbLine
 62
7
  6
CONTINUOUS
 10
6.2535695592
 20
1.4089895892
 11
6.2440397654
 21
1.4038708306
  0
LINE
  5
303
100
AcDbEntity
  8
0
100
AcDbLine
 62
7
  6
CONTINUOUS
 10
6.2531254032
 20
1.3947091889
 11
6.2435955282
 21
1.3895903442
  0
LINE
  5
304
100
AcDbEntity
  8
0
100
AcDbLine
 62
7
  6
CONTINUOUS
 10
6.2526812439
 20
1.3804287851
 11
6.2431512866
 21
1.3753098531
  0
LINE
  5
305
100
AcDbEntity
  8
0
100
AcDbLine
 62
7
  6
CONTINUOUS
 10
6.2522370813
 20
1.3661483777
 11
6.2469560534
 21
1.3633118132
  0
ARC
  5
306
100
AcDbEntity
  8
0
100
AcDbCircle
 62
7
  6
CONTINUOUS
 10
4.9510824636
 20
7.5633118132
 40
0.106
100
AcDbArc
 50
0.0
 51
180.0
  0
ARC
  5
307
100
AcDbEntity
  8
0
100
AcDbCircle
 62
7
  6
CONTINUOUS
 10
6.1510824636
 20
7.5633118132
 40
0.106
100
AcDbArc
 50
0.0
 51
180.0
  0
ARC
  5
308
100
AcDbEntity
  8
0
100
AcDbCircle
 62
7
  6
CONTINUOUS
 10
6.3134828298
 20
1.6007118132
 40
0.0376
100
AcDbArc
 50
0.2528672439
 51
90.0
  0
ARC
  5
309
100
AcDbEntity
  8
0
100
AcDbCircle
 62
7
  6
CONTINUOUS
 10
6.3494824636
 20
1.5633118132
 40
0.0376
100
AcDbArc
 50
0.0
 51
87.5611453091
  0
ARC
  5
30A
100
AcDbEntity
  8
0
100
AcDbCircle
 62
7
  6
CONTINUOUS
 10
5.9886820974
 20
1.6007118132
 40
0.0376
100
AcDbArc
 50
90.0
 51
179.7471327561
  0
ARC
  5
30B
100
AcDbEntity
  8
0
100
AcDbCircle
 62
7
  6
CONTINUOUS
 10
5.9526824636
 20
1.5633118132
 40
0.0376
100
AcDbArc
 50
92.4388546909
 51
180.0
  0
ARC
  5
30C
100
AcDbEntity
  8
0
100
AcDbCircle
 62
7
  6
CONTINUOUS
 10
5.1134828298
 20
1.6007118132
 40
0.0376
100
AcDbArc
 50
0.2528672439
 51
90.0
  0
ARC
  5
30D
100
AcDbEntity
  8
0
100
AcDbCircle
 62
7
  6
CONTINUOUS
 10
4.7526824636
 20
1.5633118132
 40
0.0376
100
AcDbArc
 50
92.4388546909
 51
180.0
  0
ARC
  5
30E
100
AcDbEntity
  8
0
100
AcDbCircle
 62
7
  6
CONTINUOUS
 10
5.1494824636
 20
1.5633118132
 40
0.0376
100
AcDbArc
 50
0.0
 51
87.5611453091
  0
ARC
  5
30F
100
AcDbEntity
  8
0
100
AcDbCircle
 62
7
  6
CONTINUOUS
 10
4.7886820974
 20
1.6007118132
 40
0.0376
100
AcDbArc
 50
90.0
 51
179.7471327561
  0
LINE
  5
310
100
AcDbEntity
  8
0
100
AcDbLine
 62
7
  6
CONTINUOUS
 10
5.0526812342
 20
1.380428785
 11
5.0527692953
 21
1.3805218132
  0
SPLINE
  5
311
100
AcDbEntity
  8
0
100
AcDbSpline
 62
7
  6
CONTINUOUS
 70
0
 71
3
 72
30
 73
26
 74
0
 42
0.0000001
 43
0.0000001
 44
0.0000000001
 40
0.0
 40
0.0
 40
0.0
 40
0.0
 40
0.1900058974
 40
0.282845596
 40
0.3731073398
 40
0.4599665412
 40
0.5426299684
 40
0.6203434681
 40
0.6923980156
 40
0.7581365518
 40
0.8169606071
 40
0.8683351599
 40
0.8910803604
 40
0.9117944666
 40
0.9304304304
 40
0.9469471805
 40
0.961307901
 40
0.9734823702
 40
0.9834458653
 40
0.9875932297
 40
0.9911828299
 40
0.9942144385
 40
0.9966896348
 40
0.9986137753
 40
1.0
 40
1.0
 40
1.0
 40
1.0
 10
4.9510824636
 20
1.3769518132
 30
0.0
 10
4.957521796
 20
1.3770958915
 30
0.0
 10
4.967107484
 20
1.377310291
 30
0.0
 10
4.9797519801
 20
1.3776009825
 30
0.0
 10
4.9889007274
 20
1.3778172516
 30
0.0
 10
4.9977044161
 20
1.3780334177
 30
0.0
 10
5.0060826059
 20
1.3782494482
 30
0.0
 10
5.0139587675
 20
1.3784652932
 30
0.0
 10
5.0212609751
 20
1.3786808916
 30
0.0
 10
5.0279225675
 20
1.3788961222
 30
0.0
 10
5.0338827468
 20
1.3791108921
 30
0.0
 10
5.0383855971
 20
1.3792959055
 30
0.0
 10
5.0415968306
 20
1.3794462062
 30
0.0
 10
5.0436990137
 20
1.3795541913
 30
0.0
 10
5.0455897647
 20
1.3796620176
 30
0.0
 10
5.0472647665
 20
1.3797696356
 30
0.0
 10
5.0487202546
 20
1.3798769143
 30
0.0
 10
5.0499529195
 20
1.379983782
 30
0.0
 10
5.0508391833
 20
1.3800768805
 30
0.0
 10
5.0514343302
 20
1.3801533994
 30
0.0
 10
5.0517954447
 20
1.3802070668
 30
0.0
 10
5.0520991559
 20
1.3802605089
 30
0.0
 10
5.0523455745
 20
1.3803135453
 30
0.0
 10
5.052534511
 20
1.3803660849
 30
0.0
 10
5.0526398346
 20
1.3804065536
 30
0.0
 10
5.0526812342
 20
1.380428785
 30
0.0
  0
SPLINE
  5
312
100
AcDbEntity
  8
0
100
AcDbSpline
 62
7
  6
CONTINUOUS
 70
0
 71
3
 72
34
 73
30
 74
0
 42
0.0000001
 43
0.0000001
 44
0.0000000001
 40
0.0
 40
0.0
 40
0.0
 40
0.0
 40
0.0597829391
 40
0.1278429935
 40
0.2026670018
 40
0.282588237
 40
0.365827506
 40
0.4505321519
 40
0.5348173154
 40
0.6168084364
 40
0.6946822565
 40
0.7667085328
 40
0.8000227245
 40
0.8312874022
 40
0.8603290627
 40
0.8869865722
 40
0.9111121465
 40
0.9325724477
 40
0.9512494256
 40
0.9670409874
 40
0.9738273972
 40
0.9798622381
 40
0.9851374863
 40
0.9896473161
 40
0.9933872612
 40
0.9963551649
 40
0.9985540981
 40
0.9993692104
 40
1.0
 40
1.0
 40
1.0
 40
1.0
 10
6.0798736657
 20
1.4270024774
 30
0.0
 10
6.0831631277
 20
1.4271251277
 30
0.0
 10
6.0901983717
 20
1.4273636443
 30
0.0
 10
6.1013525706
 20
1.4276975205
 30
0.0
 10
6.1136160431
 20
1.4280322572
 30
0.0
 10
6.126715578
 20
1.4283675502
 30
0.0
 10
6.1403593194
 20
1.4287031206
 30
0.0
 10
6.1542434139
 20
1.4290387858
 30
0.0
 10
6.1680587651
 20
1.4293743809
 30
0.0
 10
6.181497894
 20
1.4297097212
 30
0.0
 10
6.1942618203
 20
1.4300446399
 30
0.0
 10
6.2043458798
 20
1.4303299981
 30
0.0
 10
6.2118640354
 20
1.430561203
 30
0.0
 10
6.2170161783
 20
1.4307299616
 30
0.0
 10
6.2218015886
 20
1.4308985699
 30
0.0
 10
6.2261936527
 20
1.4310669854
 30
0.0
 10
6.2301679498
 20
1.431235145
 30
0.0
 10
6.2337024126
 20
1.4314029067
 30
0.0
 10
6.2367774272
 20
1.4315701809
 30
0.0
 10
6.2390444269
 20
1.4317151396
 30
0.0
 10
6.2406154622
 20
1.4318334944
 30
0.0
 10
6.2416083478
 20
1.4319175699
 30
0.0
 10
6.2424754078
 20
1.4320014185
 30
0.0
 10
6.243215436
 20
1.4320849936
 30
0.0
 10
6.2438276356
 20
1.4321679256
 30
0.0
 10
6.2443110861
 20
1.4322503255
 30
0.0
 10
6.2446329654
 20
1.4323226209
 30
0.0
 10
6.2448240878
 20
1.4323841347
 30
0.0
 10
6.2448976202
 20
1.4324153515
 30
0.0
 10
6.2449282162
 20
1.4324317898
 30
0.0
  0
SPLINE
  5
313
100
AcDbEntity
  8
0
100
AcDbSpline
 62
7
  6
CONTINUOUS
 70
0
 71
3
 72
43
 73
39
 74
0
 42
0.0000001
 43
0.0000001
 44
0.0000000001
 40
0.0
 40
0.0
 40
0.0
 40
0.0
 40
0.0161374983
 40
0.0359246653
 40
0.0592087153
 40
0.0858102863
 40
0.1481163824
 40
0.2209124791
 40
0.3019416484
 40
0.3886917203
 40
0.47847331
 40
0.5685042689
 40
0.6559954985
 40
0.6979366434
 40
0.7382377696
 40
0.7765866393
 40
0.8126860103
 40
0.8462562664
 40
0.8770377293
 40
0.904792333
 40
0.9293057553
 40
0.940287077
 40
0.9503893785
 40
0.9595935291
 40
0.9678817322
 40
0.9752387671
 40
0.9816506317
 40
0.9871063439
 40
0.9915965767
 40
0.9934778692
 40
0.9951161235
 40
0.9965113602
 40
0.9976643503
 40
0.9985773792
 40
0.99925564
 40
0.9995107724
 40
0.9997143132
 40
1.0
 40
1.0
 40
1.0
 40
1.0
 10
4.8551036211
 20
1.3633118132
 30
0.0
 10
4.8561634114
 20
1.3633873964
 30
0.0
 10
4.8585243375
 20
1.3635321468
 30
0.0
 10
4.8624176655
 20
1.3637288391
 30
0.0
 10
4.8670006513
 20
1.3639264685
 30
0.0
 10
4.8743820188
 20
1.3642057637
 30
0.0
 10
4.8850231649
 20
1.364544807
 30
0.0
 10
4.8992477321
 20
1.3649365643
 30
0.0
 10
4.9150821868
 20
1.3653297126
 30
0.0
 10
4.9320352424
 20
1.3657238269
 30
0.0
 10
4.949581115
 20
1.3661182903
 30
0.0
 10
4.9671757959
 20
1.3665127667
 30
0.0
 10
4.9816212839
 20
1.3668456508
 30
0.0
 10
4.9927931724
 20
1.3671152951
 30
0.0
 10
5.0007303126
 20
1.3673145969
 30
0.0
 10
5.0082827109
 20
1.3675137828
 30
0.0
 10
5.0153917951
 20
1.3677128215
 30
0.0
 10
5.0220024439
 20
1.3679116661
 30
0.0
 10
5.0280634211
 20
1.3681102315
 30
0.0
 10
5.0335277628
 20
1.3683084486
 30
0.0
 10
5.0376885974
 20
1.3684787977
 30
0.0
 10
5.0406875077
 20
1.3686168325
 30
0.0
 10
5.0426791512
 20
1.368716451
 30
0.0
 10
5.0444932462
 20
1.3688159606
 30
0.0
 10
5.0461263047
 20
1.3689153426
 30
0.0
 10
5.0475751543
 20
1.3690145363
 30
0.0
 10
5.0488370506
 20
1.3691134444
 30
0.0
 10
5.0499095519
 20
1.3692119914
 30
0.0
 10
5.0506836017
 20
1.3692977779
 30
0.0
 10
5.0512062661
 20
1.3693681661
 30
0.0
 10
5.0515260743
 20
1.3694176606
 30
0.0
 10
5.0517972943
 20
1.3694670028
 30
0.0
 10
5.052019949
 20
1.3695159576
 30
0.0
 10
5.0521940355
 20
1.3695647513
 30
0.0
 10
5.0523081475
 20
1.3696074413
 30
0.0
 10
5.0523739149
 20
1.3696441767
 30
0.0
 10
5.0524127504
 20
1.3696730811
 30
0.0
 10
5.0524330889
 20
1.3697030127
 30
0.0
 10
5.0524336672
 20
1.3697218132
 30
0.0
  0
SPLINE
  5
314
100
AcDbEntity
  8
0
100
AcDbSpline
 62
7
  6
CONTINUOUS
 70
0
 71
3
 72
35
 73
31
 74
0
 42
0.0000001
 43
0.0000001
 44
0.0000000001
 40
0.0
 40
0.0
 40
0.0
 40
0.0
 40
0.0002747777
 40
0.0006187367
 40
0.0010730618
 40
0.0016559966
 40
0.0023760373
 40
0.0032375028
 40
0.005393051
 40
0.0081330921
 40
0.0114614274
 40
0.0153791315
 40
0.0198852651
 40
0.0306555937
 40
0.043752988
 40
0.0591481579
 40
0.0768064136
 40
0.0966857163
 40
0.1187394409
 40
0.1429145411
 40
0.1691535596
 40
0.2275660426
 40
0.2934157746
 40
0.3660697262
 40
0.4448289433
 40
0.5289353469
 40
0.6175799389
 40
0.709909461
 40
0.8050358361
 40
1.0
 40
1.0
 40
1.0
 40
1.0
 10
6.0465110887
 20
1.4733418132
 30
0.0
 10
6.0465107908
 20
1.4733513995
 30
0.0
 10
6.0465171552
 20
1.4733732702
 30
0.0
 10
6.0465427679
 20
1.4734014709
 30
0.0
 10
6.0465826222
 20
1.4734289449
 30
0.0
 10
6.0466376701
 20
1.4734563192
 30
0.0
 10
6.0467081031
 20
1.4734838068
 30
0.0
 10
6.0468323932
 20
1.4735235886
 30
0.0
 10
6.0470277351
 20
1.4735715011
 30
0.0
 10
6.0473095746
 20
1.4736261866
 30
0.0
 10
6.047653829
 20
1.4736811366
 30
0.0
 10
6.0480603242
 20
1.4737363347
 30
0.0
 10
6.0487256955
 20
1.4738148511
 30
0.0
 10
6.0497115273
 20
1.4739105058
 30
0.0
 10
6.0510775966
 20
1.4740203676
 30
0.0
 10
6.0526847155
 20
1.4741306325
 30
0.0
 10
6.0545290043
 20
1.4742412192
 30
0.0
 10
6.0566060623
 20
1.4743520082
 30
0.0
 10
6.0589108676
 20
1.4744629373
 30
0.0
 10
6.0614378824
 20
1.47457398
 30
0.0
 10
6.0652333053
 20
1.4747276872
 30
0.0
 10
6.0704830611
 20
1.4749173349
 30
0.0
 10
6.0773527668
 20
1.4751381523
 30
0.0
 10
6.0849329827
 20
1.4753593288
 30
0.0
 10
6.0931506757
 20
1.4755807838
 30
0.0
 10
6.101926696
 20
1.4758024211
 30
0.0
 10
6.1111765187
 20
1.4760241866
 30
0.0
 10
6.1208110902
 20
1.4762460405
 30
0.0
 10
6.1341559033
 20
1.4765443536
 30
0.0
 10
6.1442789579
 20
1.4767641039
 30
0.0
 10
6.1510824636
 20
1.4769118132
 30
0.0
  0
SPLINE
  5
315
100
AcDbEntity
  8
0
100
AcDbSpline
 62
7
  6
CONTINUOUS
 70
0
 71
3
 72
26
 73
22
 74
0
 42
0.0000001
 43
0.0000001
 44
0.0000000001
 40
0.0
 40
0.0
 40
0.0
 40
0.0
 40
0.2019664995
 40
0.3897063855
 40
0.4768024429
 40
0.5586674054
 40
0.6348038575
 40
0.7047501607
 40
0.7680827262
 40
0.824418345
 40
0.873416956
 40
0.9147846455
 40
0.9325285308
 40
0.9482769025
 40
0.9620079409
 40
0.9737025343
 40
0.9833481748
 40
0.9909370209
 40
0.9964740715
 40
0.9984832515
 40
1.0
 40
1.0
 40
1.0
 40
1.0
 10
4.9791918334
 20
1.3633118132
 30
0.0
 10
4.9841141228
 20
1.3634269211
 30
0.0
 10
4.9936118632
 20
1.3636537881
 30
0.0
 10
5.0052317742
 20
1.3639516362
 30
0.0
 10
5.0139242502
 20
1.3641930391
 30
0.0
 10
5.0198967524
 20
1.3643694248
 30
0.0
 10
5.0254509805
 20
1.3645456525
 30
0.0
 10
5.0305531795
 20
1.3647216757
 30
0.0
 10
5.0351723607
 20
1.3648974261
 30
0.0
 10
5.0392804818
 20
1.3650727481
 30
0.0
 10
5.0428526014
 20
1.3652475436
 30
0.0
 10
5.0454838647
 20
1.3653990661
 30
0.0
 10
5.0473046517
 20
1.3655228421
 30
0.0
 10
5.0484525398
 20
1.3656107121
 30
0.0
 10
5.0494525053
 20
1.3656983097
 30
0.0
 10
5.0503030355
 20
1.3657856239
 30
0.0
 10
5.0510030965
 20
1.3658721697
 30
0.0
 10
5.0515515
 20
1.3659581451
 30
0.0
 10
5.0519133134
 20
1.366033478
 30
0.0
 10
5.0521246776
 20
1.3660980729
 30
0.0
 10
5.0522045048
 20
1.3661308803
 30
0.0
 10
5.0522370788
 20
1.3661483777
 30
0.0
  0
SPLINE
  5
316
100
AcDbEntity
  8
0
100
AcDbSpline
 62
7
  6
CONTINUOUS
 70
0
 71
3
 72
34
 73
30
 74
0
 42
0.0000001
 43
0.0000001
 44
0.0000000001
 40
0.0
 40
0.0
 40
0.0
 40
0.0
 40
0.0006202293
 40
0.0010875557
 40
0.0016843491
 40
0.0032931206
 40
0.0054764361
 40
0.0067869036
 40
0.0082438975
 40
0.0115983144
 40
0.0155405801
 40
0.0200703249
 40
0.0308848175
 40
0.0440211602
 40
0.0594511421
 40
0.0771393184
 40
0.0970444574
 40
0.119119547
 40
0.1433119726
 40
0.1695643116
 40
0.2279920003
 40
0.2938426207
 40
0.366484073
 40
0.4452183508
 40
0.5292880737
 40
0.6178846657
 40
0.7101550897
 40
0.8052114021
 40
1.0
 40
1.0
 40
1.0
 40
1.0
 10
5.0555401191
 20
1.4696818132
 30
0.0
 10
5.0555394492
 20
1.4696601992
 30
0.0
 10
5.0555120527
 20
1.4696263756
 30
0.0
 10
5.0554636653
 20
1.4695951373
 30
0.0
 10
5.0553792414
 20
1.4695539797
 30
0.0
 10
5.0552336007
 20
1.469506664
 30
0.0
 10
5.0550606566
 20
1.4694643339
 30
0.0
 10
5.0548916083
 20
1.4694294546
 30
0.0
 10
5.054681716
 20
1.4693906116
 30
0.0
 10
5.0543802323
 20
1.4693428626
 30
0.0
 10
5.0539715877
 20
1.4692876895
 30
0.0
 10
5.053303725
 20
1.4692092645
 30
0.0
 10
5.0523152703
 20
1.4691136874
 30
0.0
 10
5.0509466217
 20
1.4690038798
 30
0.0
 10
5.0493376952
 20
1.4688936783
 30
0.0
 10
5.047492326
 20
1.4687831428
 30
0.0
 10
5.0454149201
 20
1.4686724063
 30
0.0
 10
5.0431104641
 20
1.4685615196
 30
0.0
 10
5.040584486
 20
1.4684505152
 30
0.0
 10
5.0367917453
 20
1.468296864
 30
0.0
 10
5.0315468861
 20
1.4681072567
 30
0.0
 10
5.024684805
 20
1.467886446
 30
0.0
 10
5.0171144147
 20
1.4676652493
 30
0.0
 10
5.0089085762
 20
1.4674437465
 30
0.0
 10
5.0001462778
 20
1.4672220333
 30
0.0
 10
4.9909119025
 20
1.4670001634
 30
0.0
 10
4.9812943763
 20
1.4667781766
 30
0.0
 10
4.9679752418
 20
1.4664796625
 30
0.0
 10
4.9578721718
 20
1.466259697
 30
0.0
 10
4.9510824636
 20
1.4661118132
 30
0.0
  0
SPLINE
  5
317
100
AcDbEntity
  8
0
100
AcDbSpline
 62
7
  6
CONTINUOUS
 70
0
 71
3
 72
34
 73
30
 74
0
 42
0.0000001
 43
0.0000001
 44
0.0000000001
 40
0.0
 40
0.0
 40
0.0
 40
0.0
 40
0.0006021904
 40
0.0010558932
 40
0.0016383557
 40
0.0023580268
 40
0.0032191962
 40
0.0053743043
 40
0.0081140353
 40
0.0114421437
 40
0.0153596827
 40
0.0198657048
 40
0.0306359547
 40
0.0437334304
 40
0.0591287659
 40
0.0767872474
 40
0.096666837
 40
0.1187209262
 40
0.1428964889
 40
0.1691360562
 40
0.2275496822
 40
0.2934007594
 40
0.3660563021
 40
0.4448171458
 40
0.5289253559
 40
0.6175718748
 40
0.7099033159
 40
0.8050317323
 40
1.0
 40
1.0
 40
1.0
 40
1.0
 10
6.0460673122
 20
1.4876218132
 30
0.0
 10
6.0460666567
 20
1.4876429108
 30
0.0
 10
6.0460920814
 20
1.4876774871
 30
0.0
 10
6.046139034
 20
1.4877085919
 30
0.0
 10
6.0461945053
 20
1.4877364564
 30
0.0
 10
6.0462651686
 20
1.4877637628
 30
0.0
 10
6.046390027
 20
1.4878036278
 30
0.0
 10
6.046586183
 20
1.4878514862
 30
0.0
 10
6.0468692298
 20
1.4879061935
 30
0.0
 10
6.047214945
 20
1.4879611345
 30
0.0
 10
6.0476231697
 20
1.488016335
 30
0.0
 10
6.0482913737
 20
1.4880948503
 30
0.0
 10
6.0492813991
 20
1.4881905054
 30
0.0
 10
6.050653274
 20
1.4883003667
 30
0.0
 10
6.0522672208
 20
1.4884106317
 30
0.0
 10
6.0541193415
 20
1.488521218
 30
0.0
 10
6.0562052173
 20
1.4886320067
 30
0.0
 10
6.0585198069
 20
1.4887429356
 30
0.0
 10
6.0610575508
 20
1.4888539784
 30
0.0
 10
6.0648690867
 20
1.4890076855
 30
0.0
 10
6.0701411239
 20
1.4891973332
 30
0.0
 10
6.0770399827
 20
1.4894181505
 30
0.0
 10
6.0846523632
 20
1.489639327
 30
0.0
 10
6.0929049242
 20
1.4898607821
 30
0.0
 10
6.101718178
 20
1.4900824195
 30
0.0
 10
6.111007242
 20
1.4903041852
 30
0.0
 10
6.1206826853
 20
1.4905260393
 30
0.0
 10
6.1340841049
 20
1.4908243528
 30
0.0
 10
6.1442500996
 20
1.4910441036
 30
0.0
 10
6.1510824636
 20
1.4911918132
 30
0.0
  0
SPLINE
  5
318
100
AcDbEntity
  8
0
100
AcDbSpline
 62
7
  6
CONTINUOUS
 70
0
 71
3
 72
30
 73
26
 74
0
 42
0.0000001
 43
0.0000001
 44
0.0000000001
 40
0.0
 40
0.0
 40
0.0
 40
0.0
 40
0.1902992435
 40
0.2832699887
 40
0.3736484451
 40
0.4606078422
 40
0.5433522254
 40
0.6211248008
 40
0.6932143707
 40
0.7589616004
 40
0.8177659196
 40
0.869090701
 40
0.891799185
 40
0.9124685701
 40
0.9310514702
 40
0.9475068699
 40
0.9617975908
 40
0.9738934808
 40
0.983769224
 40
0.9878694183
 40
0.99140915
 40
0.9943882178
 40
0.9968084948
 40
0.998674855
 40
1.0
 40
1.0
 40
1.0
 40
1.0
 10
4.9510824636
 20
1.5197444752
 30
0.0
 10
4.9578054969
 20
1.5198860638
 30
0.0
 10
4.9678130626
 20
1.5200971958
 30
0.0
 10
4.9810134223
 20
1.5203832161
 30
0.0
 10
4.9905628326
 20
1.5205960508
 30
0.0
 10
4.9997507879
 20
1.5208087881
 30
0.0
 10
5.0084931729
 20
1.5210214073
 30
0.0
 10
5.0167099499
 20
1.5212338558
 30
0.0
 10
5.0243258976
 20
1.5214460737
 30
0.0
 10
5.0312713026
 20
1.5216579399
 30
0.0
 10
5.0374825874
 20
1.5218693621
 30
0.0
 10
5.0421731087
 20
1.5220515259
 30
0.0
 10
5.0455163096
 20
1.5221995401
 30
0.0
 10
5.0477032166
 20
1.5223058585
 30
0.0
 10
5.0496688831
 20
1.5224120229
 30
0.0
 10
5.0514087944
 20
1.5225179792
 30
0.0
 10
5.0529190276
 20
1.5226235995
 30
0.0
 10
5.0541961196
 20
1.5227288034
 30
0.0
 10
5.0551129354
 20
1.5228204914
 30
0.0
 10
5.0557272913
 20
1.5228958958
 30
0.0
 10
5.056098835
 20
1.5229487247
 30
0.0
 10
5.0564103156
 20
1.5230013283
 30
0.0
 10
5.0566618877
 20
1.523053481
 30
0.0
 10
5.0568532988
 20
1.5231051171
 30
0.0
 10
5.0569594976
 20
1.5231450243
 30
0.0
 10
5.0570007496
 20
1.5231671816
 30
0.0
  0
SPLINE
  5
319
100
AcDbEntity
  8
0
100
AcDbSpline
 62
7
  6
CONTINUOUS
 70
0
 71
3
 72
34
 73
30
 74
0
 42
0.0000001
 43
0.0000001
 44
0.0000000001
 40
0.0
 40
0.0
 40
0.0
 40
0.0
 40
0.0006181668
 40
0.0010847161
 40
0.0016809394
 40
0.0032891371
 40
0.0054719905
 40
0.0067821051
 40
0.0082387278
 40
0.0115926446
 40
0.0155348623
 40
0.0200643999
 40
0.030878175
 40
0.0440144896
 40
0.0594440398
 40
0.0771322006
 40
0.097037086
 40
0.1191122086
 40
0.143304663
 40
0.1695570961
 40
0.227984923
 40
0.2938359098
 40
0.3664779921
 40
0.4452127985
 40
0.5292833007
 40
0.6178807996
 40
0.7101520832
 40
0.805209257
 40
1.0
 40
1.0
 40
1.0
 40
1.0
 10
5.0559838737
 20
1.4839618132
 30
0.0
 10
5.0559832014
 20
1.4839401799
 30
0.0
 10
5.055955671
 20
1.4839063425
 30
0.0
 10
5.0559071287
 20
1.4838751303
 30
0.0
 10
5.0558223374
 20
1.4838339637
 30
0.0
 10
5.0556760746
 20
1.4837866645
 30
0.0
 10
5.0555024034
 20
1.4837443343
 30
0.0
 10
5.0553326512
 20
1.4837094539
 30
0.0
 10
5.055121883
 20
1.4836706085
 30
0.0
 10
5.0548191229
 20
1.4836228581
 30
0.0
 10
5.054408741
 20
1.4835676907
 30
0.0
 10
5.0537380437
 20
1.4834892645
 30
0.0
 10
5.0527453956
 20
1.483393682
 30
0.0
 10
5.0513709505
 20
1.4832838814
 30
0.0
 10
5.0497551909
 20
1.4831736743
 30
0.0
 10
5.0479019976
 20
1.4830631428
 30
0.0
 10
5.0458157713
 20
1.4829524039
 30
0.0
 10
5.0435015333
 20
1.4828415187
 30
0.0
 10
5.0409648242
 20
1.4827305134
 30
0.0
 10
5.0371559746
 20
1.4825768622
 30
0.0
 10
5.0318888383
 20
1.4823872547
 30
0.0
 10
5.0249976063
 20
1.4821664441
 30
0.0
 10
5.0173950525
 20
1.4819452475
 30
0.0
 10
5.0091543449
 20
1.4817237447
 30
0.0
 10
5.0003548111
 20
1.4815020317
 30
0.0
 10
4.9910811893
 20
1.4812801619
 30
0.0
 10
4.9814227908
 20
1.4810581754
 30
0.0
 10
4.9680470468
 20
1.4807596618
 30
0.0
 10
4.957901035
 20
1.4805396967
 30
0.0
 10
4.9510824636
 20
1.4803918132
 30
0.0
  0
SPLINE
  5
31A
100
AcDbEntity
  8
0
100
AcDbSpline
 62
7
  6
CONTINUOUS
 70
0
 71
3
 72
34
 73
30
 74
0
 42
0.0000001
 43
0.0000001
 44
0.0000000001
 40
0.0
 40
0.0
 40
0.0
 40
0.0
 40
0.0006281802
 40
0.0010981272
 40
0.0016970404
 40
0.0024329695
 40
0.0033100706
 40
0.0054959226
 40
0.0082648754
 40
0.0116207245
 40
0.0155645573
 40
0.0200954639
 40
0.0309114045
 40
0.0440493079
 40
0.0594799963
 40
0.0771689225
 40
0.0970742511
 40
0.1191495326
 40
0.1433418908
 40
0.169593997
 40
0.2280205455
 40
0.2938694912
 40
0.3665088915
 40
0.4452404752
 40
0.5293072125
 40
0.6179005292
 40
0.7101672984
 40
0.8052196211
 40
1.0
 40
1.0
 40
1.0
 40
1.0
 10
5.0537649864
 20
1.4125618132
 30
0.0
 10
5.0537643177
 20
1.4125402933
 30
0.0
 10
5.0537375798
 20
1.4125065115
 30
0.0
 10
5.0536898577
 20
1.4124751684
 30
0.0
 10
5.05363402
 20
1.4124473821
 30
0.0
 10
5.0535633809
 20
1.4124200553
 30
0.0
 10
5.0534392809
 20
1.4123802845
 30
0.0
 10
5.0532450533
 20
1.4123324549
 30
0.0
 10
5.0529654517
 20
1.4122777754
 30
0.0
 10
5.0526247066
 20
1.4122228624
 30
0.0
 10
5.0522229693
 20
1.4121676987
 30
0.0
 10
5.0515664409
 20
1.4120892729
 30
0.0
 10
5.0505947532
 20
1.4119936917
 30
0.0
 10
5.0492493265
 20
1.4118838901
 30
0.0
 10
5.0476676983
 20
1.4117736829
 30
0.0
 10
5.0458536665
 20
1.4116631516
 30
0.0
 10
5.0438115372
 20
1.411552413
 30
0.0
 10
5.0415462249
 20
1.411441528
 30
0.0
 10
5.0390631525
 20
1.411330523
 30
0.0
 10
5.0353348594
 20
1.4111768727
 30
0.0
 10
5.0301791287
 20
1.4109872656
 30
0.0
 10
5.023433657
 20
1.410766455
 30
0.0
 10
5.0159919255
 20
1.4105452579
 30
0.0
 10
5.0079255542
 20
1.4103237545
 30
0.0
 10
4.9993121914
 20
1.4101020406
 30
0.0
 10
4.9902347822
 20
1.4098801697
 30
0.0
 10
4.9807807481
 20
1.4096581818
 30
0.0
 10
4.9676880491
 20
1.409359666
 30
0.0
 10
4.9577567402
 20
1.4091396986
 30
0.0
 10
4.9510824636
 20
1.4089918132
 30
0.0
  0
SPLINE
  5
31B
100
AcDbEntity
  8
0
100
AcDbSpline
 62
7
  6
CONTINUOUS
 70
0
 71
3
 72
34
 73
30
 74
0
 42
0.0000001
 43
0.0000001
 44
0.0000000001
 40
0.0
 40
0.0
 40
0.0
 40
0.0
 40
0.0006162203
 40
0.0010821124
 40
0.0016778164
 40
0.003285235
 40
0.00546751
 40
0.0067773835
 40
0.0082337899
 40
0.0115873338
 40
0.0155292397
 40
0.0200585128
 40
0.0308718691
 40
0.0440078759
 40
0.0594372046
 40
0.0771252155
 40
0.0970300134
 40
0.1191051042
 40
0.1432975768
 40
0.1695500742
 40
0.227978154
 40
0.2938295248
 40
0.3664721222
 40
0.4452075711
 40
0.5292787711
 40
0.6178770562
 40
0.7101492198
 40
0.805207299
 40
1.0
 40
1.0
 40
1.0
 40
1.0
 10
5.0564276511
 20
1.4982418132
 30
0.0
 10
5.0564269782
 20
1.498220157
 30
0.0
 10
5.0563992886
 20
1.4981863082
 30
0.0
 10
5.0563505829
 20
1.4981551259
 30
0.0
 10
5.0562654242
 20
1.4981139526
 30
0.0
 10
5.0561185543
 20
1.498066661
 30
0.0
 10
5.0559441629
 20
1.498024332
 30
0.0
 10
5.0557737014
 20
1.4979894529
 30
0.0
 10
5.0555620435
 20
1.497950607
 30
0.0
 10
5.0552580064
 20
1.4979028566
 30
0.0
 10
5.0548458952
 20
1.4978476894
 30
0.0
 10
5.0541723643
 20
1.4977692627
 30
0.0
 10
5.053175524
 20
1.4976736801
 30
0.0
 10
5.0517952752
 20
1.4975638797
 30
0.0
 10
5.0501726893
 20
1.4974536726
 30
0.0
 10
5.0483116637
 20
1.4973431411
 30
0.0
 10
5.0462166179
 20
1.4972324021
 30
0.0
 10
5.0438925945
 20
1.4971215168
 30
0.0
 10
5.0413451579
 20
1.4970105114
 30
0.0
 10
5.0375201963
 20
1.4968568601
 30
0.0
 10
5.0322307783
 20
1.4966672525
 30
0.0
 10
5.0253103937
 20
1.496446442
 30
0.0
 10
5.0176756742
 20
1.4962252453
 30
0.0
 10
5.0094000989
 20
1.4960037426
 30
0.0
 10
5.0005633309
 20
1.4957820298
 30
0.0
 10
4.991250467
 20
1.4955601603
 30
0.0
 10
4.9815511961
 20
1.4953381741
 30
0.0
 10
4.968118844
 20
1.4950396609
 30
0.0
 10
4.9579298931
 20
1.4948196964
 30
0.0
 10
4.9510824636
 20
1.4946718132
 30
0.0
  0
SPLINE
  5
31C
100
AcDbEntity
  8
0
100
AcDbSpline
 62
7
  6
CONTINUOUS
 70
0
 71
3
 72
33
 73
29
 74
0
 42
0.0000001
 43
0.0000001
 44
0.0000000001
 40
0.0
 40
0.0
 40
0.0
 40
0.0
 40
0.0006313289
 40
0.0010824668
 40
0.0016517374
 40
0.0031771679
 40
0.0052440454
 40
0.0078642333
 40
0.0110427865
 40
0.0147819535
 40
0.0190821251
 40
0.0293611249
 40
0.0418679984
 40
0.0565831116
 40
0.0734811055
 40
0.0925325648
 40
0.1137024309
 40
0.1369530005
 40
0.1622407559
 40
0.2187399281
 40
0.2827838411
 40
0.3538994581
 40
0.4315609069
 40
0.5151941224
 40
0.604180218
 40
0.6978614619
 40
0.7955430426
 40
1.0
 40
1.0
 40
1.0
 40
1.0
 10
4.8451797563
 20
1.5161818132
 30
0.0
 10
4.845179196
 20
1.5161998276
 30
0.0
 10
4.8451977102
 20
1.516229647
 30
0.0
 10
4.8452348222
 20
1.5162577912
 30
0.0
 10
4.8452984706
 20
1.5162938569
 30
0.0
 10
4.8454100419
 20
1.5163355324
 30
0.0
 10
4.8455809668
 20
1.5163832245
 30
0.0
 10
4.8458004544
 20
1.5164310543
 30
0.0
 10
4.8460684684
 20
1.5164792955
 30
0.0
 10
4.8463850694
 20
1.5165276814
 30
0.0
 10
4.8469034908
 20
1.516596531
 30
0.0
 10
4.8476722675
 20
1.5166804126
 30
0.0
 10
4.8487385291
 20
1.51677675
 30
0.0
 10
4.8499943758
 20
1.5168734289
 30
0.0
 10
4.8514375036
 20
1.5169703988
 30
0.0
 10
4.853065256
 20
1.5170675354
 30
0.0
 10
4.85487464
 20
1.5171648055
 30
0.0
 10
4.8568622848
 20
1.5172621663
 30
0.0
 10
4.8598578512
 20
1.5173971182
 30
0.0
 10
4.864017707
 20
1.517563631
 30
0.0
 10
4.8694857409
 20
1.517757323
 30
0.0
 10
4.8755582416
 20
1.517951334
 30
0.0
 10
4.8821902254
 20
1.5181455978
 30
0.0
 10
4.8893325704
 20
1.5183400299
 30
0.0
 10
4.8969324014
 20
1.5185345855
 30
0.0
 10
4.9049334052
 20
1.5187292316
 30
0.0
 10
4.9162301496
 20
1.518992857
 30
0.0
 10
4.9248534444
 20
1.5191842981
 30
0.0
 10
4.9306888655
 20
1.5193118132
 30
0.0
  0
SPLINE
  5
31D
100
AcDbEntity
  8
0
100
AcDbSpline
 62
7
  6
CONTINUOUS
 70
0
 71
3
 72
35
 73
31
 74
0
 42
0.0000001
 43
0.0000001
 44
0.0000000001
 40
0.0
 40
0.0
 40
0.0
 40
0.0
 40
0.0002826215
 40
0.0006327635
 40
0.0010916947
 40
0.0016781502
 40
0.0024009804
 40
0.0032647245
 40
0.0054237784
 40
0.00816642
 40
0.0114967518
 40
0.0154160208
 40
0.0199233987
 40
0.0306955168
 40
0.0437940429
 40
0.0591898152
 40
0.0768482441
 40
0.0967273837
 40
0.1187806824
 40
0.1429551538
 40
0.1691933559
 40
0.2276035216
 40
0.2934503422
 40
0.3661009442
 40
0.4448562526
 40
0.5289584818
 40
0.6175986571
 40
0.7099234871
 40
0.8050451652
 40
1.0
 40
1.0
 40
1.0
 40
1.0
 10
4.8496175319
 20
1.3733818132
 30
0.0
 10
4.8496172346
 20
1.373391381
 30
0.0
 10
4.8496233019
 20
1.3734130986
 30
0.0
 10
4.8496480908
 20
1.3734413813
 30
0.0
 10
4.8496867756
 20
1.3734688939
 30
0.0
 10
4.8497401872
 20
1.3734962948
 30
0.0
 10
4.8498085237
 20
1.3735237931
 30
0.0
 10
4.8499290575
 20
1.3735635692
 30
0.0
 10
4.8501185593
 20
1.3736114893
 30
0.0
 10
4.8503920091
 20
1.3736661818
 30
0.0
 10
4.8507260126
 20
1.3737211365
 30
0.0
 10
4.8511204025
 20
1.373776337
 30
0.0
 10
4.8517659375
 20
1.3738548528
 30
0.0
 10
4.8527224251
 20
1.3739505095
 30
0.0
 10
4.8540478712
 20
1.3740603742
 30
0.0
 10
4.8556072072
 20
1.3741706413
 30
0.0
 10
4.8573966689
 20
1.3742812293
 30
0.0
 10
4.8594119889
 20
1.3743920193
 30
0.0
 10
4.8616482975
 20
1.3745029493
 30
0.0
 10
4.8641002226
 20
1.3746139929
 30
0.0
 10
4.8677828664
 20
1.3747677005
 30
0.0
 10
4.8728766535
 20
1.3749573489
 30
0.0
 10
4.8795422947
 20
1.3751781666
 30
0.0
 10
4.8868973579
 20
1.375399343
 30
0.0
 10
4.8948709803
 20
1.3756207975
 30
0.0
 10
4.9033863607
 20
1.3758424336
 30
0.0
 10
4.9123614858
 20
1.3760641976
 30
0.0
 10
4.9217099475
 20
1.3762860494
 30
0.0
 10
4.9346584967
 20
1.3765843594
 30
0.0
 10
4.9444809696
 20
1.3768041066
 30
0.0
 10
4.9510824636
 20
1.3769518132
 30
0.0
  0
SPLINE
  5
31E
100
AcDbEntity
  8
0
100
AcDbSpline
 62
7
  6
CONTINUOUS
 70
0
 71
3
 72
22
 73
18
 74
0
 42
0.0000001
 43
0.0000001
 44
0.0000000001
 40
0.0
 40
0.0
 40
0.0
 40
0.0
 40
0.004798139
 40
0.0112743808
 40
0.0194840204
 40
0.029452141
 40
0.0546989118
 40
0.0870352847
 40
0.1264373495
 40
0.1728491508
 40
0.2261999687
 40
0.2864035046
 40
0.3533574945
 40
0.4269511453
 40
0.5935248001
 40
0.7849927474
 40
1.0
 40
1.0
 40
1.0
 40
1.0
 10
6.0574349776
 20
1.425483099
 30
0.0
 10
6.0574655879
 20
1.4255020749
 30
0.0
 10
6.0575430301
 20
1.4255374162
 30
0.0
 10
6.0576818394
 20
1.4255835603
 30
0.0
 10
6.0578610862
 20
1.4256300984
 30
0.0
 10
6.0581799412
 20
1.4256979436
 30
0.0
 10
6.0586806599
 20
1.4257793067
 30
0.0
 10
6.0594027174
 20
1.4258722271
 30
0.0
 10
6.0602846914
 20
1.4259656262
 30
0.0
 10
6.0613250623
 20
1.4260594984
 30
0.0
 10
6.0625221009
 20
1.4261536059
 30
0.0
 10
6.0638737293
 20
1.4262478918
 30
0.0
 10
6.0653776217
 20
1.4263423114
 30
0.0
 10
6.067679138
 20
1.4264738074
 30
0.0
 10
6.0709149929
 20
1.4266357127
 30
0.0
 10
6.075212228
 20
1.4268235011
 30
0.0
 10
6.0782609364
 20
1.4269423454
 30
0.0
 10
6.0798736657
 20
1.4270024774
 30
0.0
  0
SPLINE
  5
31F
100
AcDbEntity
  8
0
100
AcDbSpline
 62
7
  6
CONTINUOUS
 70
0
 71
3
 72
35
 73
31
 74
0
 42
0.0000001
 43
0.0000001
 44
0.0000000001
 40
0.0
 40
0.0
 40
0.0
 40
0.0
 40
0.0002814706
 40
0.000630701
 40
0.0010889504
 40
0.0016748833
 40
0.0023972983
 40
0.0032607019
 40
0.00541923
 40
0.0081614811
 40
0.0114915153
 40
0.0154105507
 40
0.0199177418
 40
0.0306895958
 40
0.043787957
 40
0.0591836309
 40
0.076842009
 40
0.0967211622
 40
0.1187745293
 40
0.1429491066
 40
0.1691874307
 40
0.2275978762
 40
0.2934451507
 40
0.3660962796
 40
0.4448521036
 40
0.528954996
 40
0.6175958651
 40
0.7099213686
 40
0.8050437647
 40
1.0
 40
1.0
 40
1.0
 40
1.0
 10
4.8491737544
 20
1.3876618132
 30
0.0
 10
4.849173457
 20
1.3876713836
 30
0.0
 10
4.8491795664
 20
1.3876931231
 30
0.0
 10
4.8492044731
 20
1.3877213944
 30
0.0
 10
4.8492433252
 20
1.3877489013
 30
0.0
 10
4.8492969704
 20
1.3877762984
 30
0.0
 10
4.8493656063
 20
1.387803795
 30
0.0
 10
4.8494866765
 20
1.387843572
 30
0.0
 10
4.8496770122
 20
1.3878914909
 30
0.0
 10
4.8499516602
 20
1.3879461824
 30
0.0
 10
4.850287128
 20
1.3880011363
 30
0.0
 10
4.8506832471
 20
1.3880563365
 30
0.0
 10
4.851331616
 20
1.3881348524
 30
0.0
 10
4.8522922958
 20
1.3882305089
 30
0.0
 10
4.8536235451
 20
1.3883403731
 30
0.0
 10
4.8551897064
 20
1.3884506399
 30
0.0
 10
4.8569869991
 20
1.3885612277
 30
0.0
 10
4.8590111379
 20
1.3886720174
 30
0.0
 10
4.8612572321
 20
1.3887829474
 30
0.0
 10
4.8637198851
 20
1.3888939909
 30
0.0
 10
4.8674186386
 20
1.3890476984
 30
0.0
 10
4.8725347056
 20
1.3892373466
 30
0.0
 10
4.8792294987
 20
1.3894581643
 30
0.0
 10
4.8866167262
 20
1.3896793407
 30
0.0
 10
4.8946252162
 20
1.3899007953
 30
0.0
 10
4.9031778316
 20
1.3901224316
 30
0.0
 10
4.9121922012
 20
1.3903441959
 30
0.0
 10
4.9215815371
 20
1.3905660481
 30
0.0
 10
4.9345866959
 20
1.3908643585
 30
0.0
 10
4.9444521103
 20
1.3910841062
 30
0.0
 10
4.9510824636
 20
1.3912318132
 30
0.0
  0
SPLINE
  5
320
100
AcDbEntity
  8
0
100
AcDbSpline
 62
7
  6
CONTINUOUS
 70
0
 71
3
 72
30
 73
26
 74
0
 42
0.0000001
 43
0.0000001
 44
0.0000000001
 40
0.0
 40
0.0
 40
0.0
 40
0.0
 40
0.1908227435
 40
0.2840308473
 40
0.3746224775
 40
0.4617648565
 40
0.5446565408
 40
0.6225356935
 40
0.6946860972
 40
0.7604444051
 40
0.8192065684
 40
0.8704329389
 40
0.8930705857
 40
0.9136544422
 40
0.9321370884
 40
0.9484773943
 40
0.962638339
 40
0.9745899163
 40
0.9843073755
 40
0.9883234066
 40
0.9917757904
 40
0.994664731
 40
0.9969926668
 40
0.9987656876
 40
1.0
 40
1.0
 40
1.0
 40
1.0
 10
4.9510824636
 20
1.5089518132
 30
0.0
 10
4.9443669894
 20
1.5088073889
 30
0.0
 10
4.9343713149
 20
1.5085924441
 30
0.0
 10
4.9211876961
 20
1.5083008893
 30
0.0
 10
4.9116529055
 20
1.5080839754
 30
0.0
 10
4.9024813515
 20
1.5078671389
 30
0.0
 10
4.8937574089
 20
1.5076504131
 30
0.0
 10
4.8855613562
 20
1.5074338495
 30
0.0
 10
4.877968623
 20
1.5072175111
 30
0.0
 10
4.8710490976
 20
1.5070015242
 30
0.0
 10
4.8648664885
 20
1.5067859846
 30
0.0
 10
4.8602016645
 20
1.5066002164
 30
0.0
 10
4.8568804879
 20
1.5064492297
 30
0.0
 10
4.8547111786
 20
1.5063408216
 30
0.0
 10
4.8527638326
 20
1.5062325732
 30
0.0
 10
4.8510429532
 20
1.5061245395
 30
0.0
 10
4.849552448
 20
1.5060168624
 30
0.0
 10
4.8482957557
 20
1.5059096211
 30
0.0
 10
4.8473963687
 20
1.505816103
 30
0.0
 10
4.8467963172
 20
1.5057391013
 30
0.0
 10
4.8464356811
 20
1.5056852539
 30
0.0
 10
4.8461352572
 20
1.5056316574
 30
0.0
 10
4.8458947704
 20
1.5055785607
 30
0.0
 10
4.8457145706
 20
1.5055260495
 30
0.0
 10
4.8456159469
 20
1.5054851705
 30
0.0
 10
4.8455790207
 20
1.505462275
 30
0.0
  0
SPLINE
  5
321
100
AcDbEntity
  8
0
100
AcDbSpline
 62
7
  6
CONTINUOUS
 70
0
 71
3
 72
52
 73
48
 74
0
 42
0.0000001
 43
0.0000001
 44
0.0000000001
 40
0.0
 40
0.0
 40
0.0
 40
0.0
 40
0.0006772746
 40
0.0016198469
 40
0.0028361606
 40
0.0043293944
 40
0.0061008081
 40
0.0081507873
 40
0.0130845314
 40
0.0191229622
 40
0.0262547676
 40
0.034464409
 40
0.0437343698
 40
0.0540435309
 40
0.0653691363
 40
0.0909639608
 40
0.1202866449
 40
0.153070376
 40
0.1890162591
 40
0.2277965491
 40
0.2690577046
 40
0.3124232387
 40
0.3574975985
 40
0.4038699302
 40
0.4988087564
 40
0.5937859988
 40
0.6402060842
 40
0.6853475852
 40
0.7287994247
 40
0.7701659234
 40
0.8090708581
 40
0.8451604603
 40
0.8781066481
 40
0.9076104524
 40
0.933404599
 40
0.944836371
 40
0.95525614
 40
0.9646407459
 40
0.972969234
 40
0.9802236642
 40
0.9863884666
 40
0.9914518749
 40
0.995405585
 40
0.9969658917
 40
0.9982493049
 40
0.9992584257
 40
1.0
 40
1.0
 40
1.0
 40
1.0
 10
6.0578791045
 20
1.4112035296
 30
0.0
 10
6.0579149474
 20
1.4112257563
 30
0.0
 10
6.0580080604
 20
1.4112663792
 30
0.0
 10
6.0581766521
 20
1.4113189301
 30
0.0
 10
6.0583979913
 20
1.4113719944
 30
0.0
 10
6.0586718831
 20
1.4114254585
 30
0.0
 10
6.058998496
 20
1.4114791557
 30
0.0
 10
6.0595383133
 20
1.4115557579
 30
0.0
 10
6.0603439751
 20
1.4116489081
 30
0.0
 10
6.0614662982
 20
1.4117558152
 30
0.0
 10
6.0627933685
 20
1.4118631132
 30
0.0
 10
6.064322198
 20
1.4119707663
 30
0.0
 10
6.0660493053
 20
1.4120786077
 30
0.0
 10
6.0679707747
 20
1.4121866164
 30
0.0
 10
6.0709080109
 20
1.4123369564
 30
0.0
 10
6.075028974
 20
1.4125219885
 30
0.0
 10
6.0804860816
 20
1.412736721
 30
0.0
 10
6.0865881956
 20
1.4129518901
 30
0.0
 10
6.0932795686
 20
1.4131674
 30
0.0
 10
6.1004990908
 20
1.4133831287
 30
0.0
 10
6.1081808354
 20
1.4135990147
 30
0.0
 10
6.1162546662
 20
1.4138150071
 30
0.0
 10
6.124646886
 20
1.4140310748
 30
0.0
 10
6.1362498144
 20
1.4143214853
 30
0.0
 10
6.150959562
 20
1.4146795241
 30
0.0
 10
6.1656722868
 20
1.4150374473
 30
0.0
 10
6.1772847692
 20
1.4153276963
 30
0.0
 10
6.1856895249
 20
1.4155436601
 30
0.0
 10
6.1937794803
 20
1.4157595198
 30
0.0
 10
6.2014809332
 20
1.4159752446
 30
0.0
 10
6.2087237426
 20
1.416190785
 30
0.0
 10
6.215441964
 20
1.4164060811
 30
0.0
 10
6.2215744495
 20
1.4166210143
 30
0.0
 10
6.2270653998
 20
1.4168354924
 30
0.0
 10
6.2312167076
 20
1.4170202172
 30
0.0
 10
6.2341799036
 20
1.4171702489
 30
0.0
 10
6.2361220528
 20
1.4172780863
 30
0.0
 10
6.2378706369
 20
1.4173857667
 30
0.0
 10
6.2394217124
 20
1.4174932379
 30
0.0
 10
6.2407717571
 20
1.4176004229
 30
0.0
 10
6.2419178192
 20
1.417707075
 30
0.0
 10
6.2428572932
 20
1.4178131411
 30
0.0
 10
6.2435096374
 20
1.4179060114
 30
0.0
 10
6.2439258236
 20
1.4179834646
 30
0.0
 10
6.2441599502
 20
1.418036537
 30
0.0
 10
6.2443414343
 20
1.4180891485
 30
0.0
 10
6.2444432944
 20
1.4181294601
 30
0.0
 10
6.2444839759
 20
1.4181513125
 30
0.0
  0
SPLINE
  5
322
100
AcDbEntity
  8
0
100
AcDbSpline
 62
7
  6
CONTINUOUS
 70
0
 71
3
 72
52
 73
48
 74
0
 42
0.0000001
 43
0.0000001
 44
0.0000000001
 40
0.0
 40
0.0
 40
0.0
 40
0.0
 40
0.0006799374
 40
0.0016249298
 40
0.0028433427
 40
0.0043386399
 40
0.0061122208
 40
0.0081641872
 40
0.0131012195
 40
0.0191430343
 40
0.0262774057
 40
0.0344897218
 40
0.043761531
 40
0.054072593
 40
0.065399335
 40
0.0909958869
 40
0.1203190621
 40
0.1531019264
 40
0.1890458289
 40
0.2278232297
 40
0.2690804402
 40
0.3124412276
 40
0.357510385
 40
0.4038769219
 40
0.4988034367
 40
0.593768453
 40
0.6401830222
 40
0.6853195604
 40
0.7287670053
 40
0.7701300841
 40
0.8090326567
 40
0.8451208868
 40
0.8780669771
 40
0.9075720877
 40
0.933368835
 40
0.9448023368
 40
0.9552244157
 40
0.9646114951
 40
0.9729431072
 40
0.9802007057
 40
0.9863694071
 40
0.9914367102
 40
0.9953951544
 40
0.9969577439
 40
0.9982436223
 40
0.9992555387
 40
1.0
 40
1.0
 40
1.0
 40
1.0
 10
6.058323207
 20
1.3969239644
 30
0.0
 10
6.0583590221
 20
1.3969461688
 30
0.0
 10
6.0584519571
 20
1.3969867734
 30
0.0
 10
6.0586201364
 20
1.3970393297
 30
0.0
 10
6.058840781
 20
1.3970924006
 30
0.0
 10
6.0591137229
 20
1.3971458617
 30
0.0
 10
6.0594391345
 20
1.3971995483
 30
0.0
 10
6.0599768036
 20
1.3972761344
 30
0.0
 10
6.0607791275
 20
1.3973692838
 30
0.0
 10
6.0618966478
 20
1.3974761659
 30
0.0
 10
6.0632179082
 20
1.397583465
 30
0.0
 10
6.0647398804
 20
1.3976910948
 30
0.0
 10
6.0664591492
 20
1.3977989326
 30
0.0
 10
6.0683717652
 20
1.3979069203
 30
0.0
 10
6.0712953064
 20
1.3980572453
 30
0.0
 10
6.0753968607
 20
1.3982422484
 30
0.0
 10
6.0808280859
 20
1.3984569561
 30
0.0
 10
6.0869010273
 20
1.398672098
 30
0.0
 10
6.0935602213
 20
1.3988875808
 30
0.0
 10
6.1007448667
 20
1.3991032821
 30
0.0
 10
6.1083893688
 20
1.3993191404
 30
0.0
 10
6.1164239522
 20
1.399535105
 30
0.0
 10
6.1247752982
 20
1.3997511448
 30
0.0
 10
6.1363216217
 20
1.4000415172
 30
0.0
 10
6.1509595616
 20
1.40039951
 30
0.0
 10
6.1656004819
 20
1.4007573867
 30
0.0
 10
6.1771563514
 20
1.4010475968
 30
0.0
 10
6.1855202278
 20
1.4012635323
 30
0.0
 10
6.1935709285
 20
1.4014793635
 30
0.0
 10
6.2012351325
 20
1.40169506
 30
0.0
 10
6.2084430576
 20
1.4019105722
 30
0.0
 10
6.2151290909
 20
1.4021258401
 30
0.0
 10
6.2212323956
 20
1.4023407452
 30
0.0
 10
6.2266974556
 20
1.4025551965
 30
0.0
 10
6.2308293524
 20
1.4027398933
 30
0.0
 10
6.2337788471
 20
1.4028899051
 30
0.0
 10
6.2357121459
 20
1.4029977245
 30
0.0
 10
6.2374528823
 20
1.4031053968
 30
0.0
 10
6.2389970993
 20
1.4032128474
 30
0.0
 10
6.2403413234
 20
1.4033200296
 30
0.0
 10
6.2414825784
 20
1.4034266574
 30
0.0
 10
6.2424183127
 20
1.4035327303
 30
0.0
 10
6.2430681828
 20
1.403625573
 30
0.0
 10
6.2434829235
 20
1.4037030163
 30
0.0
 10
6.2437163587
 20
1.4037560928
 30
0.0
 10
6.2438974355
 20
1.4038087019
 30
0.0
 10
6.2439991195
 20
1.4038489971
 30
0.0
 10
6.2440397652
 20
1.4038708306
 30
0.0
  0
SPLINE
  5
323
100
AcDbEntity
  8
0
100
AcDbSpline
 62
7
  6
CONTINUOUS
 70
0
 71
3
 72
34
 73
30
 74
0
 42
0.0000001
 43
0.0000001
 44
0.0000000001
 40
0.0
 40
0.0
 40
0.0
 40
0.0
 40
0.0006261396
 40
0.0010953919
 40
0.0016937547
 40
0.0024292331
 40
0.0033059549
 40
0.0054911969
 40
0.0082596683
 40
0.0116151204
 40
0.0155586206
 40
0.0200892462
 40
0.0309047389
 40
0.0440423159
 40
0.05947278
 40
0.0771615714
 40
0.0970668129
 40
0.1191420492
 40
0.1433344102
 40
0.1695865808
 40
0.2280134358
 40
0.2938627675
 40
0.3665026806
 40
0.4452349554
 40
0.5293024206
 40
0.6178965519
 40
0.710164237
 40
0.8052175316
 40
1.0
 40
1.0
 40
1.0
 40
1.0
 10
5.0542087639
 20
1.4268418132
 30
0.0
 10
5.0542080944
 20
1.4268202707
 30
0.0
 10
5.0541811984
 20
1.4267864762
 30
0.0
 10
5.0541333117
 20
1.4267551638
 30
0.0
 10
5.0540772357
 20
1.4267273769
 30
0.0
 10
5.0540062985
 20
1.4267000529
 30
0.0
 10
5.053881661
 20
1.4266602803
 30
0.0
 10
5.0536865991
 20
1.4266124519
 30
0.0
 10
5.0534057985
 20
1.4265577731
 30
0.0
 10
5.0530635889
 20
1.4265028606
 30
0.0
 10
5.0526601224
 20
1.4264476971
 30
0.0
 10
5.0520007605
 20
1.4263692709
 30
0.0
 10
5.0510248808
 20
1.4262736897
 30
0.0
 10
5.0496736501
 20
1.4261638882
 30
0.0
 10
5.0480851944
 20
1.426053681
 30
0.0
 10
5.0462633289
 20
1.4259431497
 30
0.0
 10
5.0442123795
 20
1.4258324109
 30
0.0
 10
5.0419372826
 20
1.4257215259
 30
0.0
 10
5.0394434837
 20
1.4256105209
 30
0.0
 10
5.035699078
 20
1.4254568704
 30
0.0
 10
5.030521065
 20
1.4252672632
 30
0.0
 10
5.0237464413
 20
1.4250464526
 30
0.0
 10
5.0162725455
 20
1.4248252556
 30
0.0
 10
5.0081713075
 20
1.4246037524
 30
0.0
 10
4.9995207112
 20
1.4243820387
 30
0.0
 10
4.9904040615
 20
1.4241601681
 30
0.0
 10
4.9809091556
 20
1.4239381805
 30
0.0
 10
4.967759848
 20
1.4236396652
 30
0.0
 10
4.957785599
 20
1.4234196982
 30
0.0
 10
4.9510824636
 20
1.4232718132
 30
0.0
  0
SPLINE
  5
324
100
AcDbEntity
  8
0
100
AcDbSpline
 62
7
  6
CONTINUOUS
 70
0
 71
3
 72
35
 73
31
 74
0
 42
0.0000001
 43
0.0000001
 44
0.0000000001
 40
0.0
 40
0.0
 40
0.0
 40
0.0
 40
0.0002803304
 40
0.0006286593
 40
0.0010862357
 40
0.0016716533
 40
0.0023936606
 40
0.0032567324
 40
0.005414752
 40
0.0081566258
 40
0.0114863656
 40
0.0154051685
 40
0.0199121755
 40
0.030683764
 40
0.0437819649
 40
0.0591775642
 40
0.0768359409
 40
0.0967151205
 40
0.118768537
 40
0.1429431954
 40
0.16918165
 40
0.227592496
 40
0.2934401662
 40
0.3660917699
 40
0.4448482243
 40
0.5289516799
 40
0.6175931598
 40
0.7099193602
 40
0.8050424214
 40
1.0
 40
1.0
 40
1.0
 40
1.0
 10
4.848729977
 20
1.4019418132
 30
0.0
 10
4.8487296795
 20
1.4019513862
 30
0.0
 10
4.8487358311
 20
1.4019731476
 30
0.0
 10
4.8487608557
 20
1.4020014075
 30
0.0
 10
4.8487998749
 20
1.4020289088
 30
0.0
 10
4.8488537539
 20
1.402056302
 30
0.0
 10
4.8489226894
 20
1.4020837972
 30
0.0
 10
4.8490442966
 20
1.402123575
 30
0.0
 10
4.849235467
 20
1.4021714928
 30
0.0
 10
4.8495113138
 20
1.4022261833
 30
0.0
 10
4.849848246
 20
1.4022811366
 30
0.0
 10
4.8502460943
 20
1.4023363363
 30
0.0
 10
4.8508972967
 20
1.4024148523
 30
0.0
 10
4.8518621687
 20
1.4025105084
 30
0.0
 10
4.8531992219
 20
1.4026203723
 30
0.0
 10
4.8547722109
 20
1.4027306389
 30
0.0
 10
4.8565773375
 20
1.4028412264
 30
0.0
 10
4.8586102966
 20
1.4029520161
 30
0.0
 10
4.8608661753
 20
1.4030629458
 30
0.0
 10
4.863339555
 20
1.4031739892
 30
0.0
 10
4.867054422
 20
1.4033276967
 30
0.0
 10
4.8721927718
 20
1.4035173449
 30
0.0
 10
4.8789167174
 20
1.4037381625
 30
0.0
 10
4.8863361101
 20
1.4039593389
 30
0.0
 10
4.8943794672
 20
1.4041807936
 30
0.0
 10
4.902969316
 20
1.40440243
 30
0.0
 10
4.9120229256
 20
1.4046241945
 30
0.0
 10
4.9214531326
 20
1.4048460468
 30
0.0
 10
4.9345148993
 20
1.4051443577
 30
0.0
 10
4.9444232523
 20
1.4053641058
 30
0.0
 10
4.9510824636
 20
1.4055118132
 30
0.0
  0
SPLINE
  5
325
100
AcDbEntity
  8
0
100
AcDbSpline
 62
7
  6
CONTINUOUS
 70
0
 71
3
 72
51
 73
47
 74
0
 42
0.0000001
 43
0.0000001
 44
0.0000000001
 40
0.0
 40
0.0
 40
0.0
 40
0.0
 40
0.0006823201
 40
0.0016296649
 40
0.0028504918
 40
0.004348002
 40
0.0081770503
 40
0.0131178923
 40
0.0191626671
 40
0.0263000976
 40
0.0345146159
 40
0.0437887018
 40
0.0541012726
 40
0.0654296015
 40
0.0910279296
 40
0.1203514554
 40
0.1531334495
 40
0.189075453
 40
0.2278497957
 40
0.269102997
 40
0.3124591741
 40
0.3575229989
 40
0.4038836273
 40
0.4987979535
 40
0.5937507606
 40
0.6401598377
 40
0.6852912403
 40
0.7287343953
 40
0.7700941243
 40
0.8089941637
 40
0.845081052
 40
0.8780271344
 40
0.9075334265
 40
0.9333327672
 40
0.9447682859
 40
0.955192484
 40
0.9645823484
 40
0.9729167393
 40
0.9801779
 40
0.9863501324
 40
0.9914218317
 40
0.9953846181
 40
0.9969497856
 40
0.9982383514
 40
0.9992528491
 40
1.0
 40
1.0
 40
1.0
 40
1.0
 10
6.0587673506
 20
1.3826444033
 30
0.0
 10
6.0588031172
 20
1.382666583
 30
0.0
 10
6.0588958409
 20
1.3827071846
 30
0.0
 10
6.0590636048
 20
1.3827597383
 30
0.0
 10
6.0592835753
 20
1.3828128164
 30
0.0
 10
6.0596798993
 20
1.382890594
 30
0.0
 10
6.0603066161
 20
1.3829835889
 30
0.0
 10
6.0612142315
 20
1.3830897419
 30
0.0
 10
6.0623270273
 20
1.3831965013
 30
0.0
 10
6.0636424313
 20
1.3833038191
 30
0.0
 10
6.0651575728
 20
1.3834114327
 30
0.0
 10
6.0668689706
 20
1.3835192526
 30
0.0
 10
6.0687727587
 20
1.3836272328
 30
0.0
 10
6.071682607
 20
1.3837775303
 30
0.0
 10
6.0757647696
 20
1.3839625127
 30
0.0
 10
6.0811701022
 20
1.3841771926
 30
0.0
 10
6.0872138643
 20
1.3843923078
 30
0.0
 10
6.0938408727
 20
1.3846077631
 30
0.0
 10
6.1009906324
 20
1.3848234367
 30
0.0
 10
6.1085978878
 20
1.385039267
 30
0.0
 10
6.1165932231
 20
1.3852552036
 30
0.0
 10
6.1249036925
 20
1.3854712152
 30
0.0
 10
6.1363934098
 20
1.3857615491
 30
0.0
 10
6.1509595518
 20
1.3861194955
 30
0.0
 10
6.1655286858
 20
1.3864773255
 30
0.0
 10
6.1770279403
 20
1.3867674963
 30
0.0
 10
6.1853509379
 20
1.386983403
 30
0.0
 10
6.1933623863
 20
1.3871992056
 30
0.0
 10
6.2009893424
 20
1.3874148734
 30
0.0
 10
6.2081623784
 20
1.387630357
 30
0.0
 10
6.2148162181
 20
1.3878455964
 30
0.0
 10
6.2208903378
 20
1.3880604738
 30
0.0
 10
6.226329499
 20
1.3882748964
 30
0.0
 10
6.2304419879
 20
1.3884595698
 30
0.0
 10
6.2333777812
 20
1.3886095541
 30
0.0
 10
6.235302249
 20
1.388717365
 30
0.0
 10
6.2370351189
 20
1.3888250161
 30
0.0
 10
6.238572492
 20
1.3889324625
 30
0.0
 10
6.2399108705
 20
1.3890396197
 30
0.0
 10
6.2410473406
 20
1.3891462512
 30
0.0
 10
6.2419793155
 20
1.389252296
 30
0.0
 10
6.2426267243
 20
1.3893451458
 30
0.0
 10
6.2430400236
 20
1.3894225652
 30
0.0
 10
6.2432727844
 20
1.3894756334
 30
0.0
 10
6.2434534363
 20
1.3895282463
 30
0.0
 10
6.2435549081
 20
1.3895685352
 30
0.0
 10
6.2435955052
 20
1.3895903442
 30
0.0
  0
SPLINE
  5
326
100
AcDbEntity
  8
0
100
AcDbSpline
 62
7
  6
CONTINUOUS
 70
0
 71
3
 72
30
 73
26
 74
0
 42
0.0000001
 43
0.0000001
 44
0.0000000001
 40
0.0
 40
0.0
 40
0.0
 40
0.0
 40
0.1901951288
 40
0.2831227139
 40
0.3734641613
 40
0.4603926612
 40
0.5431126765
 40
0.6208679916
 40
0.6929476118
 40
0.7586929354
 40
0.8175040824
 40
0.8688448464
 40
0.8915650364
 40
0.9122487261
 40
0.9308485908
 40
0.9473236874
 40
0.961636902
 40
0.973758226
 40
0.9836625088
 40
0.9877781903
 40
0.9913342591
 40
0.9943305497
 40
0.9967689987
 40
0.9986545655
 40
1.0
 40
1.0
 40
1.0
 40
1.0
 10
4.9510824636
 20
1.5054718132
 30
0.0
 10
4.9577815195
 20
1.505616032
 30
0.0
 10
4.9677536743
 20
1.5058306379
 30
0.0
 10
4.9809076654
 20
1.5061216212
 30
0.0
 10
4.9904243112
 20
1.5063381039
 30
0.0
 10
4.999581249
 20
1.5065544834
 30
0.0
 10
5.0082946495
 20
1.5067707273
 30
0.0
 10
5.0164847567
 20
1.506986785
 30
0.0
 10
5.0240766271
 20
1.5072025952
 30
0.0
 10
5.0310008124
 20
1.5074180352
 30
0.0
 10
5.0371939879
 20
1.5076330118
 30
0.0
 10
5.0418714629
 20
1.5078182193
 30
0.0
 10
5.0452059485
 20
1.5079686925
 30
0.0
 10
5.047387684
 20
1.5080767822
 30
0.0
 10
5.0493491166
 20
1.5081847131
 30
0.0
 10
5.0510857497
 20
1.5082924301
 30
0.0
 10
5.0525936785
 20
1.5083998052
 30
0.0
 10
5.0538694579
 20
1.508506757
 30
0.0
 10
5.0547857948
 20
1.5085999562
 30
0.0
 10
5.0554002652
 20
1.5086765837
 30
0.0
 10
5.0557722875
 20
1.5087302895
 30
0.0
 10
5.0560845056
 20
1.5087837687
 30
0.0
 10
5.0563370656
 20
1.5088368051
 30
0.0
 10
5.0565297345
 20
1.5088893237
 30
0.0
 10
5.056636803
 20
1.5089298687
 30
0.0
 10
5.0566785606
 20
1.5089522974
 30
0.0
  0
SPLINE
  5
327
100
AcDbEntity
  8
0
100
AcDbSpline
 62
7
  6
CONTINUOUS
 70
0
 71
3
 72
34
 73
30
 74
0
 42
0.0000001
 43
0.0000001
 44
0.0000000001
 40
0.0
 40
0.0
 40
0.0
 40
0.0
 40
0.0006002597
 40
0.0010533421
 40
0.0016353326
 40
0.00235463
 40
0.0032154936
 40
0.0053701298
 40
0.0081095124
 40
0.0114373596
 40
0.0153547011
 40
0.0198605684
 40
0.0306305802
 40
0.043727875
 40
0.0591231121
 40
0.0767815762
 40
0.0966612142
 40
0.1187153883
 40
0.1428910231
 40
0.1691306549
 40
0.2275446144
 40
0.2933961201
 40
0.366052048
 40
0.4448134701
 40
0.5289222443
 40
0.6175693155
 40
0.7099014424
 40
0.8050304781
 40
1.0
 40
1.0
 40
1.0
 40
1.0
 10
4.8456235338
 20
1.5019018132
 30
0.0
 10
4.8456228776
 20
1.5019229318
 30
0.0
 10
4.8456484634
 20
1.5019575244
 30
0.0
 10
4.8456955796
 20
1.5019885951
 30
0.0
 10
4.8457512893
 20
1.5020164608
 30
0.0
 10
4.8458222504
 20
1.5020437639
 30
0.0
 10
4.8459476459
 20
1.5020836305
 30
0.0
 10
4.8461446356
 20
1.5021314874
 30
0.0
 10
4.8464288812
 20
1.5021861941
 30
0.0
 10
4.8467760613
 20
1.5022411345
 30
0.0
 10
4.8471860163
 20
1.5022963347
 30
0.0
 10
4.8478570546
 20
1.5023748502
 30
0.0
 10
4.8488512712
 20
1.502470505
 30
0.0
 10
4.8502289477
 20
1.5025803657
 30
0.0
 10
4.851849719
 20
1.5026906302
 30
0.0
 10
4.8537096724
 20
1.5028012165
 30
0.0
 10
4.8558043698
 20
1.5029120051
 30
0.0
 10
4.858128746
 20
1.503022934
 30
0.0
 10
4.8606772157
 20
1.5031339766
 30
0.0
 10
4.8645048614
 20
1.5032876836
 30
0.0
 10
4.8697991801
 20
1.5034773312
 30
0.0
 10
4.8767271905
 20
1.5036981484
 30
0.0
 10
4.8843717364
 20
1.503919325
 30
0.0
 10
4.8926591642
 20
1.5041407802
 30
0.0
 10
4.9015096527
 20
1.5043624177
 30
0.0
 10
4.9108379597
 20
1.5045841837
 30
0.0
 10
4.9205542759
 20
1.504806038
 30
0.0
 10
4.9340123062
 20
1.505104352
 30
0.0
 10
4.9442212407
 20
1.5053241032
 30
0.0
 10
4.9510824636
 20
1.5054718132
 30
0.0
  0
SPLINE
  5
328
100
AcDbEntity
  8
0
100
AcDbSpline
 62
7
  6
CONTINUOUS
 70
0
 71
3
 72
34
 73
30
 74
0
 42
0.0000001
 43
0.0000001
 44
0.0000000001
 40
0.0
 40
0.0
 40
0.0
 40
0.0
 40
0.0006142913
 40
0.0010795346
 40
0.0016747272
 40
0.0032813798
 40
0.005463086
 40
0.0067727228
 40
0.0082289173
 40
0.0115820987
 40
0.0155237076
 40
0.0200527312
 40
0.0308656694
 40
0.0440013371
 40
0.0594304402
 40
0.0771183403
 40
0.09702309
 40
0.1190981671
 40
0.143290623
 40
0.1695431271
 40
0.2279715262
 40
0.2938232848
 40
0.3664662763
 40
0.4452024291
 40
0.529274297
 40
0.6178732955
 40
0.7101463774
 40
0.8052053471
 40
1.0
 40
1.0
 40
1.0
 40
1.0
 10
5.0568714296
 20
1.5125218132
 30
0.0
 10
5.056870756
 20
1.512500134
 30
0.0
 10
5.0568429068
 20
1.5124662741
 30
0.0
 10
5.0567940379
 20
1.5124351217
 30
0.0
 10
5.0567085113
 20
1.5123939419
 30
0.0
 10
5.0565610342
 20
1.5123466577
 30
0.0
 10
5.0563859222
 20
1.5123043299
 30
0.0
 10
5.0562147513
 20
1.512269452
 30
0.0
 10
5.0560022032
 20
1.5122306054
 30
0.0
 10
5.0556968885
 20
1.5121828549
 30
0.0
 10
5.055283047
 20
1.5121276877
 30
0.0
 10
5.0546066819
 20
1.5120492607
 30
0.0
 10
5.0536056503
 20
1.5119536781
 30
0.0
 10
5.0522195994
 20
1.5118438779
 30
0.0
 10
5.0505901873
 20
1.5117336709
 30
0.0
 10
5.0487213269
 20
1.5116231393
 30
0.0
 10
5.0466174584
 20
1.5115124
 30
0.0
 10
5.0442836489
 20
1.5114015147
 30
0.0
 10
5.0417254872
 20
1.5112905093
 30
0.0
 10
5.0378844144
 20
1.5111368579
 30
0.0
 10
5.0325727141
 20
1.5109472502
 30
0.0
 10
5.0256231781
 20
1.5107264397
 30
0.0
 10
5.0179562943
 20
1.5105052431
 30
0.0
 10
5.0096458535
 20
1.5102837407
 30
0.0
 10
5.000771852
 20
1.510062028
 30
0.0
 10
4.9914197472
 20
1.5098401588
 30
0.0
 10
4.9816796047
 20
1.5096181729
 30
0.0
 10
4.9681906423
 20
1.5093196601
 30
0.0
 10
4.9579587519
 20
1.509099696
 30
0.0
 10
4.9510824636
 20
1.5089518132
 30
0.0
  0
SPLINE
  5
329
100
AcDbEntity
  8
0
100
AcDbSpline
 62
7
  6
CONTINUOUS
 70
0
 71
3
 72
34
 73
30
 74
0
 42
0.0000001
 43
0.0000001
 44
0.0000000001
 40
0.0
 40
0.0
 40
0.0
 40
0.0
 40
0.0006323219
 40
0.0011036826
 40
0.001703717
 40
0.0024405668
 40
0.0033184461
 40
0.0055055548
 40
0.0082754986
 40
0.0116321544
 40
0.0155766611
 40
0.0201081401
 40
0.030924984
 40
0.0440635539
 40
0.0594947317
 40
0.077184006
 40
0.0970895308
 40
0.1191648742
 40
0.1433571836
 40
0.1696091588
 40
0.2280352349
 40
0.2938833267
 40
0.3665215991
 40
0.4452518854
 40
0.5293170578
 40
0.6179086345
 40
0.7101735427
 40
0.805223875
 40
1.0
 40
1.0
 40
1.0
 40
1.0
 10
6.2528774315
 20
1.3840018132
 30
0.0
 10
6.2528767642
 20
1.3839803382
 30
0.0
 10
6.2528503416
 20
1.3839465826
 30
0.0
 10
6.2528029495
 20
1.3839151778
 30
0.0
 10
6.2527475884
 20
1.3838873925
 30
0.0
 10
6.2526775451
 20
1.3838600599
 30
0.0
 10
6.2525545194
 20
1.3838202928
 30
0.0
 10
6.2523619593
 20
1.3837724605
 30
0.0
 10
6.2520847551
 20
1.3837177796
 30
0.0
 10
6.2517469386
 20
1.3836628654
 30
0.0
 10
6.2513486598
 20
1.3836077014
 30
0.0
 10
6.2506977989
 20
1.3835292766
 30
0.0
 10
6.2497344958
 20
1.3834336956
 30
0.0
 10
6.248400676
 20
1.3833238937
 30
0.0
 10
6.2468326991
 20
1.3832136863
 30
0.0
 10
6.2450343305
 20
1.3831031551
 30
0.0
 10
6.2430098394
 20
1.3829924165
 30
0.0
 10
6.240764098
 20
1.3828815317
 30
0.0
 10
6.2383024811
 20
1.3827705269
 30
0.0
 10
6.2346064098
 20
1.3826168769
 30
0.0
 10
6.2294952406
 20
1.38242727
 30
0.0
 10
6.2228080733
 20
1.3822064593
 30
0.0
 10
6.2154306716
 20
1.3819852621
 30
0.0
 10
6.2074340356
 20
1.3817637585
 30
0.0
 10
6.1988951419
 20
1.3815420443
 30
0.0
 10
6.1898962194
 20
1.381320173
 30
0.0
 10
6.1805239317
 20
1.3810981844
 30
0.0
 10
6.1675444506
 20
1.3807996678
 30
0.0
 10
6.1576990226
 20
1.3805796994
 30
0.0
 10
6.1510824636
 20
1.3804318132
 30
0.0
  0
SPLINE
  5
32A
100
AcDbEntity
  8
0
100
AcDbSpline
 62
7
  6
CONTINUOUS
 70
0
 71
3
 72
51
 73
47
 74
0
 42
0.0000001
 43
0.0000001
 44
0.0000000001
 40
0.0
 40
0.0
 40
0.0
 40
0.0
 40
0.000684968
 40
0.0016346805
 40
0.0028576876
 40
0.0043574333
 40
0.0081905664
 40
0.0131349158
 40
0.0191830124
 40
0.0263231523
 40
0.0345402889
 40
0.0438163406
 40
0.0541308098
 40
0.0654603573
 40
0.0910604155
 40
0.1203843916
 40
0.1531655452
 40
0.1891055444
 40
0.227876877
 40
0.2691261104
 40
0.3124775183
 40
0.3575359609
 40
0.403890716
 40
0.4987925149
 40
0.5937329679
 40
0.6401363612
 40
0.6852626552
 40
0.7287014313
 40
0.770057653
 40
0.8089552026
 40
0.8450407592
 40
0.8779867621
 40
0.907494297
 40
0.9332963173
 40
0.9447336819
 40
0.9551601952
 40
0.9645525765
 40
0.9728900912
 40
0.9801545033
 40
0.9863306909
 40
0.9914064048
 40
0.9953740068
 40
0.9969415046
 40
0.9982325793
 40
0.9992499277
 40
1.0
 40
1.0
 40
1.0
 40
1.0
 10
4.8592114766
 20
1.3683648465
 30
0.0
 10
4.8592472122
 20
1.3683870015
 30
0.0
 10
4.8593397449
 20
1.3684275876
 30
0.0
 10
4.8595070879
 20
1.3684801496
 30
0.0
 10
4.8597263688
 20
1.3685332317
 30
0.0
 10
4.860121256
 20
1.3686109847
 30
0.0
 10
4.860745512
 20
1.3687039723
 30
0.0
 10
4.8616493901
 20
1.36881012
 30
0.0
 10
4.862757389
 20
1.368916863
 30
0.0
 10
4.8640669747
 20
1.369024175
 30
0.0
 10
4.865575262
 20
1.3691317696
 30
0.0
 10
4.8672788173
 20
1.3692395823
 30
0.0
 10
4.8691737576
 20
1.3693475436
 30
0.0
 10
4.8720699097
 20
1.3694978241
 30
0.0
 10
4.8761326614
 20
1.3696827781
 30
0.0
 10
4.8815121084
 20
1.3698974323
 30
0.0
 10
4.8875266973
 20
1.3701125199
 30
0.0
 10
4.8941215253
 20
1.3703279476
 30
0.0
 10
4.9012364075
 20
1.3705435932
 30
0.0
 10
4.9088064227
 20
1.3707593953
 30
0.0
 10
4.9167625121
 20
1.3709753035
 30
0.0
 10
4.925032108
 20
1.3711912867
 30
0.0
 10
4.9364652174
 20
1.3714815817
 30
0.0
 10
4.9509595598
 20
1.3718394813
 30
0.0
 10
4.9654568914
 20
1.372197264
 30
0.0
 10
4.9768995313
 20
1.3724873951
 30
0.0
 10
4.9851816479
 20
1.3727032729
 30
0.0
 10
4.9931538422
 20
1.3729190465
 30
0.0
 10
5.0007435481
 20
1.3731346854
 30
0.0
 10
5.0078816965
 20
1.3733501402
 30
0.0
 10
5.0145033474
 20
1.373565351
 30
0.0
 10
5.0205482853
 20
1.3737801997
 30
0.0
 10
5.0259615529
 20
1.3739945948
 30
0.0
 10
5.0300546314
 20
1.3741792405
 30
0.0
 10
5.0329767271
 20
1.3743292035
 30
0.0
 10
5.0348923463
 20
1.3744369973
 30
0.0
 10
5.0366173619
 20
1.3745446387
 30
0.0
 10
5.0381478733
 20
1.3746520652
 30
0.0
 10
5.0394804274
 20
1.3747592178
 30
0.0
 10
5.0406120926
 20
1.3748658265
 30
0.0
 10
5.0415403285
 20
1.3749718769
 30
0.0
 10
5.0421852649
 20
1.3750647002
 30
0.0
 10
5.0425971178
 20
1.3751421085
 30
0.0
 10
5.042829187
 20
1.3751951812
 30
0.0
 10
5.0430094301
 20
1.3752477906
 30
0.0
 10
5.0431107251
 20
1.3752880622
 30
0.0
 10
5.0431512847
 20
1.3753098531
 30
0.0
  0
SPLINE
  5
32B
100
AcDbEntity
  8
0
100
AcDbSpline
 62
7
  6
CONTINUOUS
 70
0
 71
3
 72
35
 73
31
 74
0
 42
0.0000001
 43
0.0000001
 44
0.0000000001
 40
0.0
 40
0.0
 40
0.0
 40
0.0
 40
0.0002792002
 40
0.0006266369
 40
0.0010835477
 40
0.0016684563
 40
0.0023900601
 40
0.0032528024
 40
0.005410315
 40
0.0081518124
 40
0.0114812629
 40
0.0153998382
 40
0.0199066638
 40
0.0306779942
 40
0.0437760358
 40
0.0591715467
 40
0.0768298889
 40
0.0967090859
 40
0.118762564
 40
0.1429373205
 40
0.1691759004
 40
0.2275870636
 40
0.2934351571
 40
0.3660872602
 40
0.4448442559
 40
0.5289483251
 40
0.6175904551
 40
0.7099173165
 40
0.8050410664
 40
1.0
 40
1.0
 40
1.0
 40
1.0
 10
4.8482861995
 20
1.4162218132
 30
0.0
 10
4.848285902
 20
1.4162313889
 30
0.0
 10
4.8482920958
 20
1.4162531721
 30
0.0
 10
4.8483172382
 20
1.4162814204
 30
0.0
 10
4.8483564245
 20
1.4163089162
 30
0.0
 10
4.8484105373
 20
1.4163363056
 30
0.0
 10
4.8484797723
 20
1.4163637992
 30
0.0
 10
4.8486019161
 20
1.4164035779
 30
0.0
 10
4.8487939209
 20
1.4164514946
 30
0.0
 10
4.8490709662
 20
1.416506184
 30
0.0
 10
4.8494093627
 20
1.4165611366
 30
0.0
 10
4.8498089402
 20
1.416616336
 30
0.0
 10
4.8504629764
 20
1.4166948521
 30
0.0
 10
4.8514320406
 20
1.4167905079
 30
0.0
 10
4.8527748974
 20
1.4169003713
 30
0.0
 10
4.8543547122
 20
1.4170106376
 30
0.0
 10
4.8561676707
 20
1.417121225
 30
0.0
 10
4.858209449
 20
1.4172320144
 30
0.0
 10
4.8604751131
 20
1.417342944
 30
0.0
 10
4.8629592204
 20
1.4174539873
 30
0.0
 10
4.8666901986
 20
1.4176076948
 30
0.0
 10
4.8718508294
 20
1.4177973429
 30
0.0
 10
4.8786039272
 20
1.4180181604
 30
0.0
 10
4.8860554843
 20
1.4182393368
 30
0.0
 10
4.8941337087
 20
1.4184607916
 30
0.0
 10
4.9027607916
 20
1.4186824282
 30
0.0
 10
4.9118536439
 20
1.4189041929
 30
0.0
 10
4.9213247238
 20
1.4191260455
 30
0.0
 10
4.9344430995
 20
1.4194243569
 30
0.0
 10
4.9443943933
 20
1.4196441054
 30
0.0
 10
4.9510824636
 20
1.4197918132
 30
0.0
  0
SPLINE
  5
32C
100
AcDbEntity
  8
0
100
AcDbSpline
 62
7
  6
CONTINUOUS
 70
0
 71
3
 72
26
 73
22
 74
0
 42
0.0000001
 43
0.0000001
 44
0.0000000001
 40
0.0
 40
0.0
 40
0.0
 40
0.0
 40
0.0022328927
 40
0.0038303045
 40
0.0058468362
 40
0.0112517953
 40
0.018575984
 40
0.0278611914
 40
0.0391251947
 40
0.0523756602
 40
0.0676129955
 40
0.1040320123
 40
0.1483379941
 40
0.2004545774
 40
0.260288302
 40
0.3277264298
 40
0.4026407788
 40
0.4848866601
 40
0.5743006453
 40
0.773942501
 40
1.0
 40
1.0
 40
1.0
 40
1.0
 10
4.8478424209
 20
1.4305018132
 30
0.0
 10
4.8478418436
 20
1.4305203509
 30
0.0
 10
4.8478609624
 20
1.4305510338
 30
0.0
 10
4.8478992211
 20
1.4305799621
 30
0.0
 10
4.8479648711
 20
1.4306170601
 30
0.0
 10
4.8480799296
 20
1.4306599189
 30
0.0
 10
4.8482561891
 20
1.4307089721
 30
0.0
 10
4.8484825188
 20
1.4307581653
 30
0.0
 10
4.8487588797
 20
1.4308077823
 30
0.0
 10
4.8490853229
 20
1.4308575465
 30
0.0
 10
4.8496198015
 20
1.4309283577
 30
0.0
 10
4.8504122882
 20
1.4310146289
 30
0.0
 10
4.851511263
 20
1.4311137088
 30
0.0
 10
4.8528053655
 20
1.4312131466
 30
0.0
 10
4.8542920654
 20
1.4313128768
 30
0.0
 10
4.8559684899
 20
1.4314127851
 30
0.0
 10
4.857831359
 20
1.4315128241
 30
0.0
 10
4.8598769954
 20
1.4316129603
 30
0.0
 10
4.8629579616
 20
1.4317517231
 30
0.0
 10
4.8672331618
 20
1.4319229351
 30
0.0
 10
4.8707668652
 20
1.4320482977
 30
0.0
 10
4.8726434554
 20
1.4321118132
 30
0.0
  0
SPLINE
  5
32D
100
AcDbEntity
  8
0
100
AcDbSpline
 62
7
  6
CONTINUOUS
 70
0
 71
3
 72
51
 73
47
 74
0
 42
0.0000001
 43
0.0000001
 44
0.0000000001
 40
0.0
 40
0.0
 40
0.0
 40
0.0
 40
0.0006823416
 40
0.0016296379
 40
0.0028504478
 40
0.0043479968
 40
0.0081770329
 40
0.0131178793
 40
0.0191626635
 40
0.0263000748
 40
0.0345146249
 40
0.0437886753
 40
0.0541012889
 40
0.0654295646
 40
0.0910278854
 40
0.1203514134
 40
0.1531333992
 40
0.1890754024
 40
0.2278497553
 40
0.2691029527
 40
0.3124591358
 40
0.3575229739
 40
0.4038835993
 40
0.4987979321
 40
0.5937507193
 40
0.6401597896
 40
0.685291179
 40
0.7287343216
 40
0.7700940457
 40
0.8089940788
 40
0.845080961
 40
0.8780270494
 40
0.9075333468
 40
0.9333326912
 40
0.9447682545
 40
0.9551924258
 40
0.9645822922
 40
0.9729166959
 40
0.9801778166
 40
0.9863500992
 40
0.9914217295
 40
0.995384606
 40
0.9969496742
 40
0.9982382281
 40
0.9992528532
 40
1.0
 40
1.0
 40
1.0
 40
1.0
 10
4.8587673531
 20
1.3826444033
 30
0.0
 10
4.8588031218
 20
1.3826665823
 30
0.0
 10
4.858895844
 20
1.3827071822
 30
0.0
 10
4.8590636038
 20
1.3827597401
 30
0.0
 10
4.8592835729
 20
1.3828128173
 30
0.0
 10
4.8596798981
 20
1.3828905922
 30
0.0
 10
4.8603066164
 20
1.3829835899
 30
0.0
 10
4.8612142321
 20
1.3830897416
 30
0.0
 10
4.8623270276
 20
1.3831965011
 30
0.0
 10
4.863642433
 20
1.3833038196
 30
0.0
 10
4.8651575732
 20
1.3834114321
 30
0.0
 10
4.8668689733
 20
1.3835192534
 30
0.0
 10
4.8687727588
 20
1.3836272321
 30
0.0
 10
4.871682606
 20
1.383777531
 30
0.0
 10
4.8757647653
 20
1.3839625125
 30
0.0
 10
4.8811700973
 20
1.3841771927
 30
0.0
 10
4.8872138592
 20
1.3843923078
 30
0.0
 10
4.893840868
 20
1.3846077631
 30
0.0
 10
4.9009906284
 20
1.3848234367
 30
0.0
 10
4.9085978848
 20
1.385039267
 30
0.0
 10
4.9165932214
 20
1.3852552036
 30
0.0
 10
4.9249036922
 20
1.3854712153
 30
0.0
 10
4.936393411
 20
1.3857615492
 30
0.0
 10
4.9509595526
 20
1.3861194955
 30
0.0
 10
4.965528686
 20
1.3864773255
 30
0.0
 10
4.9770279384
 20
1.3867674963
 30
0.0
 10
4.9853509344
 20
1.386983403
 30
0.0
 10
4.9933623812
 20
1.3871992056
 30
0.0
 10
5.0009893362
 20
1.3874148734
 30
0.0
 10
5.0081623714
 20
1.3876303571
 30
0.0
 10
5.014816211
 20
1.3878455964
 30
0.0
 10
5.0208903313
 20
1.3880604739
 30
0.0
 10
5.0263294937
 20
1.3882748963
 30
0.0
 10
5.030441986
 20
1.3884595704
 30
0.0
 10
5.0333777808
 20
1.3886095537
 30
0.0
 10
5.0353022499
 20
1.3887173651
 30
0.0
 10
5.0370351191
 20
1.3888250165
 30
0.0
 10
5.0385724908
 20
1.3889324617
 30
0.0
 10
5.0399108706
 20
1.3890396213
 30
0.0
 10
5.0410473376
 20
1.3891462485
 30
0.0
 10
5.041979316
 20
1.3892523003
 30
0.0
 10
5.0426267213
 20
1.3893451411
 30
0.0
 10
5.0430400184
 20
1.389422566
 30
0.0
 10
5.0432727791
 20
1.3894756384
 30
0.0
 10
5.0434534402
 20
1.3895282431
 30
0.0
 10
5.0435549206
 20
1.3895685328
 30
0.0
 10
5.0435955162
 20
1.3895903442
 30
0.0
  0
SPLINE
  5
32E
100
AcDbEntity
  8
0
100
AcDbSpline
 62
7
  6
CONTINUOUS
 70
0
 71
3
 72
30
 73
26
 74
0
 42
0.0000001
 43
0.0000001
 44
0.0000000001
 40
0.0
 40
0.0
 40
0.0
 40
0.0
 40
0.190804839
 40
0.2840046011
 40
0.3745886434
 40
0.4617243869
 40
0.5446106596
 40
0.6224858187
 40
0.6946337805
 40
0.760391427
 40
0.8191547936
 40
0.8703843282
 40
0.8930243409
 40
0.9136110892
 40
0.9320971481
 40
0.9484414012
 40
0.9626068396
 40
0.9745634688
 40
0.9842865541
 40
0.9883056223
 40
0.9917611998
 40
0.9946534979
 40
0.9969849705
 40
0.99876173
 40
1.0
 40
1.0
 40
1.0
 40
1.0
 10
6.1510824636
 20
1.4946718132
 30
0.0
 10
6.1443958482
 20
1.4945274031
 30
0.0
 10
6.1344431147
 20
1.494312479
 30
0.0
 10
6.121316106
 20
1.4940209531
 30
0.0
 10
6.1118221919
 20
1.4938040604
 30
0.0
 10
6.1026898863
 20
1.4935872449
 30
0.0
 10
6.0940031861
 20
1.49337054
 30
0.0
 10
6.085842012
 20
1.4931539971
 30
0.0
 10
6.0782814575
 20
1.4929376793
 30
0.0
 10
6.0713911023
 20
1.4927217125
 30
0.0
 10
6.0652343732
 20
1.4925061927
 30
0.0
 10
6.0605889446
 20
1.4923204431
 30
0.0
 10
6.0572814562
 20
1.4921694727
 30
0.0
 10
6.0551209803
 20
1.4920610745
 30
0.0
 10
6.0531814817
 20
1.4919528359
 30
0.0
 10
6.051467445
 20
1.4918448117
 30
0.0
 10
6.0499827606
 20
1.4917371434
 30
0.0
 10
6.0487308527
 20
1.4916299101
 30
0.0
 10
6.047834801
 20
1.4915364007
 30
0.0
 10
6.0472368918
 20
1.4914594099
 30
0.0
 10
6.0468774646
 20
1.4914055658
 30
0.0
 10
6.0465779829
 20
1.491351972
 30
0.0
 10
6.0463381754
 20
1.4912988739
 30
0.0
 10
6.0461583845
 20
1.4912463598
 30
0.0
 10
6.0460599553
 20
1.4912054868
 30
0.0
 10
6.0460230664
 20
1.4911826144
 30
0.0
  0
SPLINE
  5
32F
100
AcDbEntity
  8
0
100
AcDbSpline
 62
7
  6
CONTINUOUS
 70
0
 71
3
 72
52
 73
48
 74
0
 42
0.0000001
 43
0.0000001
 44
0.0000000001
 40
0.0
 40
0.0
 40
0.0
 40
0.0
 40
0.0006797831
 40
0.0016247786
 40
0.0028433374
 40
0.0043386718
 40
0.0061120944
 40
0.0081640255
 40
0.0131012593
 40
0.0191428593
 40
0.0262774534
 40
0.0344895446
 40
0.0437615784
 40
0.0540724345
 40
0.0653993717
 40
0.0909959117
 40
0.1203190755
 40
0.1531019239
 40
0.1890458092
 40
0.2278232058
 40
0.2690804094
 40
0.3124411862
 40
0.3575103604
 40
0.4038769077
 40
0.4988034599
 40
0.5937685001
 40
0.6401831116
 40
0.6853196634
 40
0.7287670974
 40
0.770130202
 40
0.8090327656
 40
0.8451209703
 40
0.8780670655
 40
0.9075721499
 40
0.9333688693
 40
0.9448025084
 40
0.9552244443
 40
0.9646116985
 40
0.9729431107
 40
0.9802009286
 40
0.9863693988
 40
0.9914369398
 40
0.9953951469
 40
0.9969578542
 40
0.9982438574
 40
0.9992556719
 40
1.0
 40
1.0
 40
1.0
 40
1.0
 10
4.8583232227
 20
1.3969239643
 30
0.0
 10
4.8583590267
 20
1.3969461685
 30
0.0
 10
4.8584519483
 20
1.3969867813
 30
0.0
 10
4.8586201297
 20
1.3970393317
 30
0.0
 10
4.8588407871
 20
1.3970923976
 30
0.0
 10
4.8591137305
 20
1.3971458584
 30
0.0
 10
4.8594391312
 20
1.3971995512
 30
0.0
 10
4.8599768009
 20
1.3972761365
 30
0.0
 10
4.8607791225
 20
1.3973692778
 30
0.0
 10
4.8618966544
 20
1.3974761719
 30
0.0
 10
4.863217902
 20
1.3975834594
 30
0.0
 10
4.864739887
 20
1.3976910997
 30
0.0
 10
4.8664591433
 20
1.3977989284
 30
0.0
 10
4.8683717718
 20
1.3979069237
 30
0.0
 10
4.8712953113
 20
1.398057242
 30
0.0
 10
4.8753968754
 20
1.3982422494
 30
0.0
 10
4.8808280972
 20
1.3984569558
 30
0.0
 10
4.8869010347
 20
1.3986720981
 30
0.0
 10
4.8935602251
 20
1.3988875808
 30
0.0
 10
4.9007448675
 20
1.3991032821
 30
0.0
 10
4.9083893668
 20
1.3993191404
 30
0.0
 10
4.9164239487
 20
1.3995351049
 30
0.0
 10
4.9247752942
 20
1.3997511448
 30
0.0
 10
4.9363216195
 20
1.4000415172
 30
0.0
 10
4.9509595611
 20
1.40039951
 30
0.0
 10
4.9656004851
 20
1.4007573867
 30
0.0
 10
4.9771563575
 20
1.4010475968
 30
0.0
 10
4.9855202351
 20
1.4012635323
 30
0.0
 10
4.9935709361
 20
1.4014793635
 30
0.0
 10
5.001235139
 20
1.4016950599
 30
0.0
 10
5.0084430623
 20
1.4019105722
 30
0.0
 10
5.0151290925
 20
1.40212584
 30
0.0
 10
5.0212323932
 20
1.4023407454
 30
0.0
 10
5.0266974492
 20
1.4025551958
 30
0.0
 10
5.0308293502
 20
1.4027398956
 30
0.0
 10
5.0337788425
 20
1.4028899027
 30
0.0
 10
5.0357121511
 20
1.4029977277
 30
0.0
 10
5.0374528773
 20
1.4031053926
 30
0.0
 10
5.0389971053
 20
1.4032128528
 30
0.0
 10
5.040341317
 20
1.4033200227
 30
0.0
 10
5.0414825843
 20
1.4034266658
 30
0.0
 10
5.0424183064
 20
1.4035327204
 30
0.0
 10
5.0430681813
 20
1.4036255798
 30
0.0
 10
5.0434829231
 20
1.4037030178
 30
0.0
 10
5.0437163687
 20
1.4037560874
 30
0.0
 10
5.0438974386
 20
1.4038086981
 30
0.0
 10
5.0439991041
 20
1.4038489996
 30
0.0
 10
5.0440397417
 20
1.4038708306
 30
0.0
  0
SPLINE
  5
330
100
AcDbEntity
  8
0
100
AcDbSpline
 62
7
  6
CONTINUOUS
 70
0
 71
3
 72
52
 73
48
 74
0
 42
0.0000001
 43
0.0000001
 44
0.0000000001
 40
0.0
 40
0.0
 40
0.0
 40
0.0
 40
0.0006773808
 40
0.0016200391
 40
0.002836253
 40
0.004329385
 40
0.0061008862
 40
0.0081509837
 40
0.0130845336
 40
0.0191231438
 40
0.0262547788
 40
0.0344645844
 40
0.0437343985
 40
0.0540436882
 40
0.0653691839
 40
0.0909640144
 40
0.1202867202
 40
0.1530704633
 40
0.189016341
 40
0.2277966471
 40
0.2690577993
 40
0.3124233149
 40
0.3574976815
 40
0.4038699947
 40
0.4988087971
 40
0.5937859938
 40
0.6402060855
 40
0.6853475678
 40
0.728799405
 40
0.7701659216
 40
0.8090708512
 40
0.8451604653
 40
0.8781066726
 40
0.9076104753
 40
0.9334046289
 40
0.9448362822
 40
0.9552561745
 40
0.9646406525
 40
0.9729692621
 40
0.9802235569
 40
0.9863884903
 40
0.991451768
 40
0.9954055988
 40
0.9969658908
 40
0.9982492053
 40
0.9992583544
 40
1.0
 40
1.0
 40
1.0
 40
1.0
 10
4.8578790854
 20
1.4112035296
 30
0.0
 10
4.857914934
 20
1.4112257597
 30
0.0
 10
4.8580080641
 20
1.4112663751
 30
0.0
 10
4.8581766608
 20
1.4113189258
 30
0.0
 10
4.8583979916
 20
1.4113719954
 30
0.0
 10
4.8586718757
 20
1.4114254622
 30
0.0
 10
4.8589984959
 20
1.4114791557
 30
0.0
 10
4.8595383146
 20
1.4115557528
 30
0.0
 10
4.8603439816
 20
1.4116489148
 30
0.0
 10
4.8614662945
 20
1.4117558097
 30
0.0
 10
4.8627933749
 20
1.4118631176
 30
0.0
 10
4.8643221957
 20
1.4119707628
 30
0.0
 10
4.8660493119
 20
1.4120786106
 30
0.0
 10
4.8679707738
 20
1.4121866144
 30
0.0
 10
4.8709080118
 20
1.4123369584
 30
0.0
 10
4.8750289705
 20
1.4125219878
 30
0.0
 10
4.8804860812
 20
1.4127367212
 30
0.0
 10
4.8865881978
 20
1.4129518901
 30
0.0
 10
4.893279573
 20
1.4131674001
 30
0.0
 10
4.9004990966
 20
1.4133831288
 30
0.0
 10
4.9081808419
 20
1.4135990147
 30
0.0
 10
4.9162546728
 20
1.4138150071
 30
0.0
 10
4.9246468918
 20
1.4140310749
 30
0.0
 10
4.9362498195
 20
1.4143214853
 30
0.0
 10
4.9509595635
 20
1.4146795242
 30
0.0
 10
4.9656722864
 20
1.4150374474
 30
0.0
 10
4.9772847666
 20
1.4153276963
 30
0.0
 10
4.9856895225
 20
1.4155436602
 30
0.0
 10
4.9937794787
 20
1.4157595198
 30
0.0
 10
5.0014809333
 20
1.4159752446
 30
0.0
 10
5.0087237452
 20
1.4161907851
 30
0.0
 10
5.0154419692
 20
1.4164060812
 30
0.0
 10
5.0215744573
 20
1.4166210142
 30
0.0
 10
5.0270654098
 20
1.4168354931
 30
0.0
 10
5.0312167112
 20
1.4170202153
 30
0.0
 10
5.0341799081
 20
1.4171702509
 30
0.0
 10
5.0361220501
 20
1.417278084
 30
0.0
 10
5.0378706414
 20
1.4173857696
 30
0.0
 10
5.0394217087
 20
1.4174932347
 30
0.0
 10
5.0407717603
 20
1.4176004267
 30
0.0
 10
5.041917815
 20
1.4177070707
 30
0.0
 10
5.0428572957
 20
1.4178131453
 30
0.0
 10
5.043509639
 20
1.4179060105
 30
0.0
 10
5.0439258263
 20
1.417983462
 30
0.0
 10
5.0441599462
 20
1.4180365401
 30
0.0
 10
5.0443414303
 20
1.4180891507
 30
0.0
 10
5.0444432979
 20
1.4181294599
 30
0.0
 10
5.0444839845
 20
1.4181513124
 30
0.0
  0
SPLINE
  5
331
100
AcDbEntity
  8
0
100
AcDbSpline
 62
7
  6
CONTINUOUS
 70
0
 71
3
 72
30
 73
26
 74
0
 42
0.0000001
 43
0.0000001
 44
0.0000000001
 40
0.0
 40
0.0
 40
0.0
 40
0.0
 40
0.1907868035
 40
0.283978185
 40
0.3745545105
 40
0.4616836273
 40
0.5445644625
 40
0.6224355076
 40
0.6945810982
 40
0.7603380481
 40
0.8191025628
 40
0.8703353825
 40
0.892977761
 40
0.9135673815
 40
0.9320568614
 40
0.948405101
 40
0.9625751028
 40
0.9745368517
 40
0.9842655893
 40
0.9882877033
 40
0.9917464903
 40
0.9946421713
 40
0.9969772117
 40
0.9987577423
 40
1.0
 40
1.0
 40
1.0
 40
1.0
 10
6.1510824636
 20
1.4803918132
 30
0.0
 10
6.1444247064
 20
1.4802474174
 30
0.0
 10
6.1345149121
 20
1.4800325142
 30
0.0
 10
6.1214445141
 20
1.4797410175
 30
0.0
 10
6.1119914756
 20
1.479524146
 30
0.0
 10
6.1028984176
 20
1.4793073517
 30
0.0
 10
6.09424896
 20
1.4790906679
 30
0.0
 10
6.0861226639
 20
1.4788741459
 30
0.0
 10
6.0785942891
 20
1.4786578487
 30
0.0
 10
6.0717331042
 20
1.4784419023
 30
0.0
 10
6.0656022554
 20
1.4782264025
 30
0.0
 10
6.0609762221
 20
1.4780406716
 30
0.0
 10
6.0576824209
 20
1.4778897176
 30
0.0
 10
6.0555307813
 20
1.4777813296
 30
0.0
 10
6.0535991325
 20
1.4776731009
 30
0.0
 10
6.0518919379
 20
1.4775650862
 30
0.0
 10
6.0504130722
 20
1.4774574264
 30
0.0
 10
6.0491659476
 20
1.4773502014
 30
0.0
 10
6.0482732319
 20
1.4772567007
 30
0.0
 10
6.0476774668
 20
1.4771797209
 30
0.0
 10
6.0473192497
 20
1.4771258803
 30
0.0
 10
6.0470207107
 20
1.4770722892
 30
0.0
 10
6.0467815825
 20
1.4770191901
 30
0.0
 10
6.0466022009
 20
1.4769666731
 30
0.0
 10
6.0465039661
 20
1.4769258061
 30
0.0
 10
6.0464671147
 20
1.4769029566
 30
0.0
  0
SPLINE
  5
332
100
AcDbEntity
  8
0
100
AcDbSpline
 62
7
  6
CONTINUOUS
 70
0
 71
3
 72
30
 73
26
 74
0
 42
0.0000001
 43
0.0000001
 44
0.0000000001
 40
0.0
 40
0.0
 40
0.0
 40
0.0
 40
0.1907686117
 40
0.2839514976
 40
0.3745201578
 40
0.4616425274
 40
0.5445178357
 40
0.6223848592
 40
0.6945279283
 40
0.7602841768
 40
0.8190499539
 40
0.8702859318
 40
0.8929307088
 40
0.9135232859
 40
0.9320162546
 40
0.9483685164
 40
0.9625430607
 40
0.9745099234
 40
0.9842443886
 40
0.9882696001
 40
0.9917316437
 40
0.9946307413
 40
0.9969693778
 40
0.998753712
 40
1.0
 40
1.0
 40
1.0
 40
1.0
 10
6.1510824636
 20
1.4661118132
 30
0.0
 10
6.1444535647
 20
1.4659674319
 30
0.0
 10
6.1345867112
 20
1.4657525497
 30
0.0
 10
6.1215729216
 20
1.4654610824
 30
0.0
 10
6.1121607582
 20
1.4652442323
 30
0.0
 10
6.1031069476
 20
1.4650274594
 30
0.0
 10
6.0944947321
 20
1.4648107968
 30
0.0
 10
6.0864033154
 20
1.4645942959
 30
0.0
 10
6.0789071205
 20
1.4643780196
 30
0.0
 10
6.0720751068
 20
1.4641620938
 30
0.0
 10
6.06597014
 20
1.4639466141
 30
0.0
 10
6.0613635035
 20
1.4637609021
 30
0.0
 10
6.0580833924
 20
1.4636099648
 30
0.0
 10
6.0559405855
 20
1.4635015869
 30
0.0
 10
6.0540167829
 20
1.4633933679
 30
0.0
 10
6.0523164312
 20
1.463285363
 30
0.0
 10
6.050843388
 20
1.4631777123
 30
0.0
 10
6.0496010497
 20
1.4630704955
 30
0.0
 10
6.0487116699
 20
1.4629770038
 30
0.0
 10
6.0481180466
 20
1.4629000349
 30
0.0
 10
6.0477610378
 20
1.4628461977
 30
0.0
 10
6.0474634409
 20
1.4627926091
 30
0.0
 10
6.047224992
 20
1.4627395087
 30
0.0
 10
6.0470460195
 20
1.4626869887
 30
0.0
 10
6.0469479788
 20
1.4626461281
 30
0.0
 10
6.0469111644
 20
1.4626233018
 30
0.0
  0
SPLINE
  5
333
100
AcDbEntity
  8
0
100
AcDbSpline
 62
7
  6
CONTINUOUS
 70
0
 71
3
 72
22
 73
18
 74
0
 42
0.0000001
 43
0.0000001
 44
0.0000000001
 40
0.0
 40
0.0
 40
0.0
 40
0.0
 40
0.0047980821
 40
0.0112742335
 40
0.0194838571
 40
0.0294521064
 40
0.0546988335
 40
0.0870351586
 40
0.1264373331
 40
0.1728490178
 40
0.2261999379
 40
0.2864034231
 40
0.353357484
 40
0.4269511506
 40
0.5935246706
 40
0.7849929675
 40
1.0
 40
1.0
 40
1.0
 40
1.0
 10
4.85743498
 20
1.425483099
 30
0.0
 10
4.8574655899
 20
1.4255020747
 30
0.0
 10
4.8575430308
 20
1.4255374162
 30
0.0
 10
4.8576818388
 20
1.4255835606
 30
0.0
 10
4.8578610857
 20
1.4256300988
 30
0.0
 10
4.8581799415
 20
1.4256979428
 30
0.0
 10
4.8586806601
 20
1.425779307
 30
0.0
 10
4.8594027178
 20
1.4258722273
 30
0.0
 10
4.8602846913
 20
1.4259656259
 30
0.0
 10
4.8613250628
 20
1.4260594988
 30
0.0
 10
4.8625221007
 20
1.4261536056
 30
0.0
 10
4.86387373
 20
1.4262478919
 30
0.0
 10
4.8653776224
 20
1.4263423114
 30
0.0
 10
4.8676791381
 20
1.4264738074
 30
0.0
 10
4.8709149945
 20
1.4266357128
 30
0.0
 10
4.8752122291
 20
1.4268235011
 30
0.0
 10
4.8782609382
 20
1.4269423455
 30
0.0
 10
4.8798736657
 20
1.4270024774
 30
0.0
  0
SPLINE
  5
334
100
AcDbEntity
  8
0
100
AcDbSpline
 62
7
  6
CONTINUOUS
 70
0
 71
3
 72
30
 73
26
 74
0
 42
0.0000001
 43
0.0000001
 44
0.0000000001
 40
0.0
 40
0.0
 40
0.0
 40
0.0
 40
0.1907502667
 40
0.2839246319
 40
0.3744854427
 40
0.4616010571
 40
0.5444708489
 40
0.6223336895
 40
0.6944743326
 40
0.7602299017
 40
0.8189968374
 40
0.8702361447
 40
0.8928833405
 40
0.9134788492
 40
0.9319752904
 40
0.9483315939
 40
0.9625107746
 40
0.9744828443
 40
0.9842230642
 40
0.9882513769
 40
0.9917166866
 40
0.9946192252
 40
0.9969614899
 40
0.9987496581
 40
1.0
 40
1.0
 40
1.0
 40
1.0
 10
6.1510824636
 20
1.4518318132
 30
0.0
 10
6.1444824231
 20
1.4516874465
 30
0.0
 10
6.1346585088
 20
1.4514725855
 30
0.0
 10
6.1217013301
 20
1.4511811478
 30
0.0
 10
6.1123300429
 20
1.4509643195
 30
0.0
 10
6.1033154802
 20
1.4507475681
 30
0.0
 10
6.0947405074
 20
1.4505309269
 30
0.0
 10
6.0866839688
 20
1.4503144472
 30
0.0
 10
6.0792199533
 20
1.4500981919
 30
0.0
 10
6.0724171099
 20
1.4498822868
 30
0.0
 10
6.0663380234
 20
1.4496668274
 30
0.0
 10
6.0617507827
 20
1.4494811345
 30
0.0
 10
6.0584843586
 20
1.4493302138
 30
0.0
 10
6.0563503878
 20
1.4492218462
 30
0.0
 10
6.0544344354
 20
1.4491136374
 30
0.0
 10
6.0527409269
 20
1.4490056422
 30
0.0
 10
6.0512737034
 20
1.4488980002
 30
0.0
 10
6.0500361486
 20
1.4487907918
 30
0.0
 10
6.0491501046
 20
1.448697309
 30
0.0
 10
6.0485586254
 20
1.4486203512
 30
0.0
 10
6.0482028266
 20
1.4485665175
 30
0.0
 10
6.0479061726
 20
1.4485129318
 30
0.0
 10
6.0476684032
 20
1.4484598304
 30
0.0
 10
6.0474898404
 20
1.4484073074
 30
0.0
 10
6.0473919942
 20
1.4483664532
 30
0.0
 10
6.0473552174
 20
1.4483436499
 30
0.0
  0
SPLINE
  5
335
100
AcDbEntity
  8
0
100
AcDbSpline
 62
7
  6
CONTINUOUS
 70
0
 71
3
 72
51
 73
47
 74
0
 42
0.0000001
 43
0.0000001
 44
0.0000000001
 40
0.0
 40
0.0
 40
0.0
 40
0.0
 40
0.00068488
 40
0.0016346981
 40
0.0028578089
 40
0.0043574563
 40
0.0081905661
 40
0.0131349565
 40
0.0191829862
 40
0.0263232135
 40
0.0345402364
 40
0.0438164142
 40
0.0541307529
 40
0.0654604505
 40
0.091060515
 40
0.1203844836
 40
0.1531656506
 40
0.1891056341
 40
0.2278769388
 40
0.2691261785
 40
0.3124775604
 40
0.3575359745
 40
0.4038907393
 40
0.4987925092
 40
0.5937329813
 40
0.6401363769
 40
0.685262687
 40
0.7287014806
 40
0.7700577106
 40
0.808955268
 40
0.8450408434
 40
0.8779868475
 40
0.9074943765
 40
0.9332964037
 40
0.9447336419
 40
0.9551602678
 40
0.9645525476
 40
0.9728901449
 40
0.980154488
 40
0.9863307349
 40
0.9914064042
 40
0.9953740269
 40
0.9969415826
 40
0.9982325932
 40
0.9992498774
 40
1.0
 40
1.0
 40
1.0
 40
1.0
 10
6.0592114734
 20
1.3683648464
 30
0.0
 10
6.0592472013
 20
1.3683870036
 30
0.0
 10
6.0593397342
 20
1.3684275945
 30
0.0
 10
6.0595070878
 20
1.3684801475
 30
0.0
 10
6.059726376
 20
1.3685332272
 30
0.0
 10
6.0601212602
 20
1.3686109897
 30
0.0
 10
6.0607455124
 20
1.3687039715
 30
0.0
 10
6.0616493872
 20
1.3688101191
 30
0.0
 10
6.0627573898
 20
1.3689168648
 30
0.0
 10
6.0640669701
 20
1.3690241727
 30
0.0
 10
6.0655752632
 20
1.369131772
 30
0.0
 10
6.0672788116
 20
1.3692395798
 30
0.0
 10
6.0691737606
 20
1.3693475459
 30
0.0
 10
6.0720699145
 20
1.3694978218
 30
0.0
 10
6.0761326753
 20
1.3696827788
 30
0.0
 10
6.0815121232
 20
1.369897432
 30
0.0
 10
6.0875267116
 20
1.3701125199
 30
0.0
 10
6.0941215378
 20
1.3703279475
 30
0.0
 10
6.1012364178
 20
1.3705435932
 30
0.0
 10
6.1088064302
 20
1.3707593953
 30
0.0
 10
6.1167625168
 20
1.3709753035
 30
0.0
 10
6.12503211
 20
1.3711912867
 30
0.0
 10
6.1364652166
 20
1.3714815817
 30
0.0
 10
6.1509595592
 20
1.3718394813
 30
0.0
 10
6.1654568906
 20
1.372197264
 30
0.0
 10
6.1768995329
 20
1.3724873951
 30
0.0
 10
6.1851816518
 20
1.3727032729
 30
0.0
 10
6.1931538488
 20
1.3729190465
 30
0.0
 10
6.2007435569
 20
1.3731346854
 30
0.0
 10
6.2078817075
 20
1.3733501402
 30
0.0
 10
6.2145033602
 20
1.373565351
 30
0.0
 10
6.2205482991
 20
1.3737801995
 30
0.0
 10
6.2259615668
 20
1.3739945954
 30
0.0
 10
6.2300546378
 20
1.3741792387
 30
0.0
 10
6.232976733
 20
1.3743292053
 30
0.0
 10
6.2348923453
 20
1.3744369954
 30
0.0
 10
6.2366173664
 20
1.3745446405
 30
0.0
 10
6.2381478728
 20
1.3746520634
 30
0.0
 10
6.239480431
 20
1.3747592194
 30
0.0
 10
6.2406120931
 20
1.3748658254
 30
0.0
 10
6.2415403313
 20
1.3749718769
 30
0.0
 10
6.2421852692
 20
1.375064703
 30
0.0
 10
6.242597124
 20
1.3751421059
 30
0.0
 10
6.2428291883
 20
1.3751951804
 30
0.0
 10
6.2430094257
 20
1.3752477935
 30
0.0
 10
6.2431107192
 20
1.3752880646
 30
0.0
 10
6.2431512836
 20
1.3753098531
 30
0.0
  0
SPLINE
  5
336
100
AcDbEntity
  8
0
100
AcDbSpline
 62
7
  6
CONTINUOUS
 70
0
 71
3
 72
30
 73
26
 74
0
 42
0.0000001
 43
0.0000001
 44
0.0000000001
 40
0.0
 40
0.0
 40
0.0
 40
0.0
 40
0.1907317555
 40
0.283897492
 40
0.3744504583
 40
0.4615592272
 40
0.5444234084
 40
0.6222821168
 40
0.6944202488
 40
0.7601751024
 40
0.818943287
 40
0.8701858754
 40
0.8928355041
 40
0.9134339921
 40
0.9319339682
 40
0.9482943656
 40
0.9624781981
 40
0.9744554935
 40
0.9842015281
 40
0.9882329798
 40
0.9917015922
 40
0.9946076043
 40
0.9969535286
 40
0.9987455653
 40
1.0
 40
1.0
 40
1.0
 40
1.0
 10
6.1510824636
 20
1.4375518132
 30
0.0
 10
6.1445112818
 20
1.4374074612
 30
0.0
 10
6.1347303083
 20
1.4371926217
 30
0.0
 10
6.1218297396
 20
1.4369012139
 30
0.0
 10
6.1124993284
 20
1.4366844074
 30
0.0
 10
6.1035240139
 20
1.4364676777
 30
0.0
 10
6.0949862838
 20
1.4362510581
 30
0.0
 10
6.0869646241
 20
1.4360345999
 30
0.0
 10
6.0795327884
 20
1.4358183658
 30
0.0
 10
6.0727591159
 20
1.4356024816
 30
0.0
 10
6.0667059106
 20
1.4353870427
 30
0.0
 10
6.062138066
 20
1.4352013689
 30
0.0
 10
6.0588853312
 20
1.4350504652
 30
0.0
 10
6.0567601948
 20
1.434942108
 30
0.0
 10
6.0548520902
 20
1.4348339092
 30
0.0
 10
6.0531654242
 20
1.4347259238
 30
0.0
 10
6.0517040214
 20
1.4346182909
 30
0.0
 10
6.0504712517
 20
1.4345110908
 30
0.0
 10
6.0495885438
 20
1.4344176171
 30
0.0
 10
6.0489992077
 20
1.4343406705
 30
0.0
 10
6.0486446183
 20
1.4342868403
 30
0.0
 10
6.0483489069
 20
1.4342332573
 30
0.0
 10
6.048111817
 20
1.4341801548
 30
0.0
 10
6.0479336636
 20
1.4341276288
 30
0.0
 10
6.0478360117
 20
1.4340867813
 30
0.0
 10
6.0477992722
 20
1.434064001
 30
0.0
  0
SPLINE
  5
337
100
AcDbEntity
  8
0
100
AcDbSpline
 62
7
  6
CONTINUOUS
 70
0
 71
3
 72
11
 73
7
 74
0
 42
0.0000001
 43
0.0000001
 44
0.0000000001
 40
0.0
 40
0.0
 40
0.0
 40
0.0
 40
0.2064003757
 40
0.4495675517
 40
0.7182457798
 40
1.0
 40
1.0
 40
1.0
 40
1.0
 10
6.0726434554
 20
1.4321118132
 30
0.0
 10
6.0780386882
 20
1.4322944214
 30
0.0
 10
6.0897919558
 20
1.4326404381
 30
0.0
 10
6.1085713915
 20
1.4331157885
 30
0.0
 10
6.1293222044
 20
1.4335932857
 30
0.0
 10
6.1437150718
 20
1.4339098011
 30
0.0
 10
6.1510824636
 20
1.4340718132
 30
0.0
  0
SPLINE
  5
338
100
AcDbEntity
  8
0
100
AcDbSpline
 62
7
  6
CONTINUOUS
 70
0
 71
3
 72
22
 73
18
 74
0
 42
0.0000001
 43
0.0000001
 44
0.0000000001
 40
0.0
 40
0.0
 40
0.0
 40
0.0
 40
0.2160352145
 40
0.4082699313
 40
0.5753371154
 40
0.6490667661
 40
0.7160814005
 40
0.776268434
 40
0.8295226112
 40
0.8757582143
 40
0.9148991187
 40
0.9468915816
 40
0.9717042869
 40
0.9814205645
 40
0.9893548115
 40
0.995529868
 40
1.0
 40
1.0
 40
1.0
 40
1.0
 10
6.0728983346
 20
1.4213118132
 30
0.0
 10
6.0711185386
 20
1.4212513773
 30
0.0
 10
6.0677551971
 20
1.4211319513
 30
0.0
 10
6.0630163197
 20
1.4209431873
 30
0.0
 10
6.0594504316
 20
1.4207804103
 30
0.0
 10
6.0569165191
 20
1.420648173
 30
0.0
 10
6.0552629139
 20
1.4205532618
 30
0.0
 10
6.05377839
 20
1.4204584917
 30
0.0
 10
6.0524655239
 20
1.4203639029
 30
0.0
 10
6.0513266417
 20
1.4202695706
 30
0.0
 10
6.0503636406
 20
1.4201757298
 30
0.0
 10
6.049578232
 20
1.4200824064
 30
0.0
 10
6.0490357562
 20
1.4200006628
 30
0.0
 10
6.0486924203
 20
1.4199323224
 30
0.0
 10
6.0485014864
 20
1.4198856472
 30
0.0
 10
6.0483554787
 20
1.4198394265
 30
0.0
 10
6.0482746441
 20
1.4198037724
 30
0.0
 10
6.048243327
 20
1.4197843551
 30
0.0
  0
SPLINE
  5
339
100
AcDbEntity
  8
0
100
AcDbSpline
 62
7
  6
CONTINUOUS
 70
0
 71
3
 72
11
 73
7
 74
0
 42
0.0000001
 43
0.0000001
 44
0.0000000001
 40
0.0
 40
0.0
 40
0.0
 40
0.0
 40
0.281754296
 40
0.5504325176
 40
0.7935996517
 40
1.0
 40
1.0
 40
1.0
 40
1.0
 10
6.1510824636
 20
1.4232718132
 30
0.0
 10
6.1437390058
 20
1.4231098013
 30
0.0
 10
6.1293928977
 20
1.4227932862
 30
0.0
 10
6.1087095045
 20
1.422315789
 30
0.0
 10
6.0899910929
 20
1.4218404385
 30
0.0
 10
6.0782760264
 20
1.4214944216
 30
0.0
 10
6.0728983346
 20
1.4213118132
 30
0.0
  0
SPLINE
  5
33A
100
AcDbEntity
  8
0
100
AcDbSpline
 62
7
  6
CONTINUOUS
 70
0
 71
3
 72
34
 73
30
 74
0
 42
0.0000001
 43
0.0000001
 44
0.0000000001
 40
0.0
 40
0.0
 40
0.0
 40
0.0
 40
0.0006302408
 40
0.0011008904
 40
0.0017003606
 40
0.0024367466
 40
0.003314233
 40
0.005500706
 40
0.0082701486
 40
0.011626399
 40
0.0155705675
 40
0.0201017586
 40
0.0309181501
 40
0.0440563837
 40
0.0594873074
 40
0.0771763894
 40
0.0970818111
 40
0.1191571297
 40
0.1433494715
 40
0.169601508
 40
0.2280277758
 40
0.2938763163
 40
0.3665151699
 40
0.445246058
 40
0.5293120545
 40
0.6179045346
 40
0.7101703601
 40
0.8052217153
 40
1.0
 40
1.0
 40
1.0
 40
1.0
 10
6.2533212089
 20
1.3982818132
 30
0.0
 10
6.253320541
 20
1.3982603158
 30
0.0
 10
6.2532939608
 20
1.398226547
 30
0.0
 10
6.2532464036
 20
1.3981951731
 30
0.0
 10
6.2531908043
 20
1.3981673873
 30
0.0
 10
6.2531204632
 20
1.3981400577
 30
0.0
 10
6.2529969005
 20
1.3981002887
 30
0.0
 10
6.2528035069
 20
1.3980524578
 30
0.0
 10
6.2525251043
 20
1.3979977776
 30
0.0
 10
6.2521858234
 20
1.397942864
 30
0.0
 10
6.2517858154
 20
1.3978877002
 30
0.0
 10
6.2511321206
 20
1.3978092748
 30
0.0
 10
6.2501646252
 20
1.3977136937
 30
0.0
 10
6.2488250022
 20
1.3976038919
 30
0.0
 10
6.2472502005
 20
1.3974936847
 30
0.0
 10
6.2454440013
 20
1.3973831535
 30
0.0
 10
6.2434106916
 20
1.3972724149
 30
0.0
 10
6.2411551644
 20
1.39716153
 30
0.0
 10
6.2386828195
 20
1.3970505251
 30
0.0
 10
6.2349706388
 20
1.396896875
 30
0.0
 10
6.2298371898
 20
1.396707268
 30
0.0
 10
6.2231208708
 20
1.3964864573
 30
0.0
 10
6.2157113048
 20
1.3962652602
 30
0.0
 10
6.2076798011
 20
1.3960437567
 30
0.0
 10
6.1991036723
 20
1.3958220426
 30
0.0
 10
6.1900655049
 20
1.3956001714
 30
0.0
 10
6.1806523429
 20
1.3953781832
 30
0.0
 10
6.167616252
 20
1.395079667
 30
0.0
 10
6.1577278821
 20
1.394859699
 30
0.0
 10
6.1510824636
 20
1.3947118132
 30
0.0
  0
SPLINE
  5
33B
100
AcDbEntity
  8
0
100
AcDbSpline
 62
7
  6
CONTINUOUS
 70
0
 71
3
 72
34
 73
30
 74
0
 42
0.0000001
 43
0.0000001
 44
0.0000000001
 40
0.0
 40
0.0
 40
0.0
 40
0.0
 40
0.0006142913
 40
0.0010795346
 40
0.0016747272
 40
0.0032813798
 40
0.005463086
 40
0.0067727228
 40
0.0082289173
 40
0.0115820987
 40
0.0155237076
 40
0.0200527312
 40
0.0308656694
 40
0.0440013371
 40
0.0594304402
 40
0.0771183403
 40
0.09702309
 40
0.1190981671
 40
0.143290623
 40
0.1695431271
 40
0.2279715262
 40
0.2938232848
 40
0.3664662763
 40
0.4452024291
 40
0.529274297
 40
0.6178732955
 40
0.7101463774
 40
0.8052053471
 40
1.0
 40
1.0
 40
1.0
 40
1.0
 10
6.2568714296
 20
1.5125218132
 30
0.0
 10
6.256870756
 20
1.512500134
 30
0.0
 10
6.2568429068
 20
1.5124662741
 30
0.0
 10
6.2567940379
 20
1.5124351217
 30
0.0
 10
6.2567085113
 20
1.5123939419
 30
0.0
 10
6.2565610342
 20
1.5123466577
 30
0.0
 10
6.2563859222
 20
1.5123043299
 30
0.0
 10
6.2562147513
 20
1.512269452
 30
0.0
 10
6.2560022032
 20
1.5122306054
 30
0.0
 10
6.2556968885
 20
1.5121828549
 30
0.0
 10
6.255283047
 20
1.5121276877
 30
0.0
 10
6.2546066819
 20
1.5120492607
 30
0.0
 10
6.2536056503
 20
1.5119536781
 30
0.0
 10
6.2522195994
 20
1.5118438779
 30
0.0
 10
6.2505901873
 20
1.5117336709
 30
0.0
 10
6.2487213269
 20
1.5116231393
 30
0.0
 10
6.2466174584
 20
1.5115124
 30
0.0
 10
6.2442836489
 20
1.5114015147
 30
0.0
 10
6.2417254872
 20
1.5112905093
 30
0.0
 10
6.2378844144
 20
1.5111368579
 30
0.0
 10
6.2325727141
 20
1.5109472502
 30
0.0
 10
6.2256231781
 20
1.5107264397
 30
0.0
 10
6.2179562943
 20
1.5105052431
 30
0.0
 10
6.2096458535
 20
1.5102837407
 30
0.0
 10
6.200771852
 20
1.510062028
 30
0.0
 10
6.1914197472
 20
1.5098401588
 30
0.0
 10
6.1816796047
 20
1.5096181729
 30
0.0
 10
6.1681906423
 20
1.5093196601
 30
0.0
 10
6.1579587519
 20
1.509099696
 30
0.0
 10
6.1510824636
 20
1.5089518132
 30
0.0
  0
SPLINE
  5
33C
100
AcDbEntity
  8
0
100
AcDbSpline
 62
7
  6
CONTINUOUS
 70
0
 71
3
 72
30
 73
26
 74
0
 42
0.0000001
 43
0.0000001
 44
0.0000000001
 40
0.0
 40
0.0
 40
0.0
 40
0.0
 40
0.1906942791
 40
0.283842561
 40
0.3743796138
 40
0.4614745314
 40
0.5443273826
 40
0.6221776748
 40
0.6943107282
 40
0.7600641608
 40
0.8188348292
 40
0.870084069
 40
0.8927386373
 40
0.9133431641
 40
0.9318502818
 40
0.9482189523
 40
0.9624122013
 40
0.9744000846
 40
0.9841578999
 40
0.9881957115
 40
0.9916710165
 40
0.9945840655
 40
0.9969374024
 40
0.9987372747
 40
1.0
 40
1.0
 40
1.0
 40
1.0
 10
6.1510824636
 20
1.4089918132
 30
0.0
 10
6.1445689984
 20
1.4088474909
 30
0.0
 10
6.134873905
 20
1.4086326948
 30
0.0
 10
6.1220865555
 20
1.4083413476
 30
0.0
 10
6.1128378958
 20
1.4081245854
 30
0.0
 10
6.1039410769
 20
1.4079078997
 30
0.0
 10
6.095477832
 20
1.4076913239
 30
0.0
 10
6.0875259305
 20
1.4074749091
 30
0.0
 10
6.0801584549
 20
1.407258718
 30
0.0
 10
6.0734431249
 20
1.4070428761
 30
0.0
 10
6.0674416831
 20
1.4068274787
 30
0.0
 10
6.0629126321
 20
1.4066418439
 30
0.0
 10
6.0596872755
 20
1.4064909744
 30
0.0
 10
6.0575798085
 20
1.4063826381
 30
0.0
 10
6.0556874011
 20
1.4062744598
 30
0.0
 10
6.0540144219
 20
1.4061664942
 30
0.0
 10
6.0525646621
 20
1.4060588796
 30
0.0
 10
6.0513414631
 20
1.4059516966
 30
0.0
 10
6.0504654278
 20
1.4058582412
 30
0.0
 10
6.0498803781
 20
1.4057813173
 30
0.0
 10
6.0495282077
 20
1.4057274942
 30
0.0
 10
6.0492343817
 20
1.4056739167
 30
0.0
 10
6.048998651
 20
1.4056208122
 30
0.0
 10
6.0488213173
 20
1.4055682802
 30
0.0
 10
6.0487240539
 20
1.4055274464
 30
0.0
 10
6.0486873891
 20
1.4055047123
 30
0.0
  0
SPLINE
  5
33D
100
AcDbEntity
  8
0
100
AcDbSpline
 62
7
  6
CONTINUOUS
 70
0
 71
3
 72
30
 73
26
 74
0
 42
0.0000001
 43
0.0000001
 44
0.0000000001
 40
0.0
 40
0.0
 40
0.0
 40
0.0
 40
0.1906752894
 40
0.2838147199
 40
0.3743437242
 40
0.4614316194
 40
0.5442787156
 40
0.6221247662
 40
0.694255244
 40
0.7600079435
 40
0.8187798887
 40
0.8700324941
 40
0.8926895589
 40
0.9132971419
 40
0.9318078846
 40
0.9481807537
 40
0.962378775
 40
0.9743720205
 40
0.9841358027
 40
0.9881768355
 40
0.99165553
 40
0.9945721434
 40
0.9969292356
 40
0.9987330767
 40
1.0
 40
1.0
 40
1.0
 40
1.0
 10
6.1510824636
 20
1.3947118132
 30
0.0
 10
6.144597857
 20
1.394567506
 30
0.0
 10
6.1349457044
 20
1.3943527319
 30
0.0
 10
6.1222149649
 20
1.3940614154
 30
0.0
 10
6.1130071812
 20
1.3938446755
 30
0.0
 10
6.1041496106
 20
1.3936280122
 30
0.0
 10
6.0957236085
 20
1.3934114585
 30
0.0
 10
6.0878065863
 20
1.3931950657
 30
0.0
 10
6.0804712907
 20
1.3929788965
 30
0.0
 10
6.0737851321
 20
1.392763076
 30
0.0
 10
6.0678095721
 20
1.3925476996
 30
0.0
 10
6.0632999178
 20
1.3923620845
 30
0.0
 10
6.0600882509
 20
1.3922112324
 30
0.0
 10
6.0579896188
 20
1.3921029067
 30
0.0
 10
6.0561050597
 20
1.3919947387
 30
0.0
 10
6.0544389235
 20
1.3918867831
 30
0.0
 10
6.0529949849
 20
1.3917791779
 30
0.0
 10
6.0517765715
 20
1.3916720035
 30
0.0
 10
6.0509038726
 20
1.3915785574
 30
0.0
 10
6.0503209664
 20
1.391501645
 30
0.0
 10
6.0499700055
 20
1.3914478254
 30
0.0
 10
6.0496771224
 20
1.3913942508
 30
0.0
 10
6.0494420715
 20
1.3913411453
 30
0.0
 10
6.0492651478
 20
1.3912886102
 30
0.0
 10
6.0491680786
 20
1.3912477836
 30
0.0
 10
6.0491314513
 20
1.3912250726
 30
0.0
  0
SPLINE
  5
33E
100
AcDbEntity
  8
0
100
AcDbSpline
 62
7
  6
CONTINUOUS
 70
0
 71
3
 72
34
 73
30
 74
0
 42
0.0000001
 43
0.0000001
 44
0.0000000001
 40
0.0
 40
0.0
 40
0.0
 40
0.0
 40
0.0006281802
 40
0.0010981272
 40
0.0016970404
 40
0.0024329695
 40
0.0033100706
 40
0.0054959226
 40
0.0082648754
 40
0.0116207245
 40
0.0155645573
 40
0.0200954639
 40
0.0309114045
 40
0.0440493079
 40
0.0594799963
 40
0.0771689225
 40
0.0970742511
 40
0.1191495326
 40
0.1433418908
 40
0.169593997
 40
0.2280205455
 40
0.2938694912
 40
0.3665088915
 40
0.4452404752
 40
0.5293072125
 40
0.6179005292
 40
0.7101672984
 40
0.8052196211
 40
1.0
 40
1.0
 40
1.0
 40
1.0
 10
6.2537649864
 20
1.4125618132
 30
0.0
 10
6.2537643177
 20
1.4125402933
 30
0.0
 10
6.2537375798
 20
1.4125065115
 30
0.0
 10
6.2536898577
 20
1.4124751684
 30
0.0
 10
6.25363402
 20
1.4124473821
 30
0.0
 10
6.2535633809
 20
1.4124200553
 30
0.0
 10
6.2534392809
 20
1.4123802845
 30
0.0
 10
6.2532450533
 20
1.4123324549
 30
0.0
 10
6.2529654517
 20
1.4122777754
 30
0.0
 10
6.2526247066
 20
1.4122228624
 30
0.0
 10
6.2522229693
 20
1.4121676987
 30
0.0
 10
6.2515664409
 20
1.4120892729
 30
0.0
 10
6.2505947532
 20
1.4119936917
 30
0.0
 10
6.2492493265
 20
1.4118838901
 30
0.0
 10
6.2476676983
 20
1.4117736829
 30
0.0
 10
6.2458536665
 20
1.4116631516
 30
0.0
 10
6.2438115372
 20
1.411552413
 30
0.0
 10
6.2415462249
 20
1.411441528
 30
0.0
 10
6.2390631525
 20
1.411330523
 30
0.0
 10
6.2353348594
 20
1.4111768727
 30
0.0
 10
6.2301791287
 20
1.4109872656
 30
0.0
 10
6.223433657
 20
1.410766455
 30
0.0
 10
6.2159919255
 20
1.4105452579
 30
0.0
 10
6.2079255542
 20
1.4103237545
 30
0.0
 10
6.1993121914
 20
1.4101020406
 30
0.0
 10
6.1902347822
 20
1.4098801697
 30
0.0
 10
6.1807807481
 20
1.4096581818
 30
0.0
 10
6.1676880491
 20
1.409359666
 30
0.0
 10
6.1577567402
 20
1.4091396986
 30
0.0
 10
6.1510824636
 20
1.4089918132
 30
0.0
  0
SPLINE
  5
33F
100
AcDbEntity
  8
0
100
AcDbSpline
 62
7
  6
CONTINUOUS
 70
0
 71
3
 72
34
 73
30
 74
0
 42
0.0000001
 43
0.0000001
 44
0.0000000001
 40
0.0
 40
0.0
 40
0.0
 40
0.0
 40
0.0006002597
 40
0.0010533421
 40
0.0016353326
 40
0.00235463
 40
0.0032154936
 40
0.0053701298
 40
0.0081095124
 40
0.0114373596
 40
0.0153547011
 40
0.0198605684
 40
0.0306305802
 40
0.043727875
 40
0.0591231121
 40
0.0767815762
 40
0.0966612142
 40
0.1187153883
 40
0.1428910231
 40
0.1691306549
 40
0.2275446144
 40
0.2933961201
 40
0.366052048
 40
0.4448134701
 40
0.5289222443
 40
0.6175693155
 40
0.7099014424
 40
0.8050304781
 40
1.0
 40
1.0
 40
1.0
 40
1.0
 10
6.0456235338
 20
1.5019018132
 30
0.0
 10
6.0456228776
 20
1.5019229318
 30
0.0
 10
6.0456484634
 20
1.5019575244
 30
0.0
 10
6.0456955796
 20
1.5019885951
 30
0.0
 10
6.0457512893
 20
1.5020164608
 30
0.0
 10
6.0458222504
 20
1.5020437639
 30
0.0
 10
6.0459476459
 20
1.5020836305
 30
0.0
 10
6.0461446356
 20
1.5021314874
 30
0.0
 10
6.0464288812
 20
1.5021861941
 30
0.0
 10
6.0467760613
 20
1.5022411345
 30
0.0
 10
6.0471860163
 20
1.5022963347
 30
0.0
 10
6.0478570546
 20
1.5023748502
 30
0.0
 10
6.0488512712
 20
1.502470505
 30
0.0
 10
6.0502289477
 20
1.5025803657
 30
0.0
 10
6.051849719
 20
1.5026906302
 30
0.0
 10
6.0537096724
 20
1.5028012165
 30
0.0
 10
6.0558043698
 20
1.5029120051
 30
0.0
 10
6.058128746
 20
1.503022934
 30
0.0
 10
6.0606772157
 20
1.5031339766
 30
0.0
 10
6.0645048614
 20
1.5032876836
 30
0.0
 10
6.0697991801
 20
1.5034773312
 30
0.0
 10
6.0767271905
 20
1.5036981484
 30
0.0
 10
6.0843717364
 20
1.503919325
 30
0.0
 10
6.0926591642
 20
1.5041407802
 30
0.0
 10
6.1015096527
 20
1.5043624177
 30
0.0
 10
6.1108379597
 20
1.5045841837
 30
0.0
 10
6.1205542759
 20
1.504806038
 30
0.0
 10
6.1340123062
 20
1.505104352
 30
0.0
 10
6.1442212407
 20
1.5053241032
 30
0.0
 10
6.1510824636
 20
1.5054718132
 30
0.0
  0
SPLINE
  5
340
100
AcDbEntity
  8
0
100
AcDbSpline
 62
7
  6
CONTINUOUS
 70
0
 71
3
 72
30
 73
26
 74
0
 42
0.0000001
 43
0.0000001
 44
0.0000000001
 40
0.0
 40
0.0
 40
0.0
 40
0.0
 40
0.1906561623
 40
0.2837866986
 40
0.3743075579
 40
0.4613884043
 40
0.5442297686
 40
0.6220714624
 40
0.6941993492
 40
0.7599513651
 40
0.8187245197
 40
0.8699805133
 40
0.8926401123
 40
0.9132507859
 40
0.9317651596
 40
0.9481422363
 40
0.9623450617
 40
0.9743437193
 40
0.984113522
 40
0.9881578052
 40
0.9916399212
 40
0.9945601282
 40
0.9969210033
 40
0.9987288435
 40
1.0
 40
1.0
 40
1.0
 40
1.0
 10
6.1510824636
 20
1.3804318132
 30
0.0
 10
6.1446267148
 20
1.3802875212
 30
0.0
 10
6.1350175009
 20
1.3800727693
 30
0.0
 10
6.1223433703
 20
1.3797814837
 30
0.0
 10
6.1131764613
 20
1.3795647664
 30
0.0
 10
6.1043581363
 20
1.3793481255
 30
0.0
 10
6.0959693761
 20
1.3791315941
 30
0.0
 10
6.0880872331
 20
1.3789152235
 30
0.0
 10
6.0807841182
 20
1.3786990762
 30
0.0
 10
6.0741271316
 20
1.3784832774
 30
0.0
 10
6.0681774546
 20
1.3782679222
 30
0.0
 10
6.0636871994
 20
1.378082327
 30
0.0
 10
6.0604892217
 20
1.3779314923
 30
0.0
 10
6.0583994246
 20
1.3778231773
 30
0.0
 10
6.0565227155
 20
1.3777150198
 30
0.0
 10
6.0548634245
 20
1.3776070745
 30
0.0
 10
6.0534253086
 20
1.3774994787
 30
0.0
 10
6.0522116809
 20
1.377392313
 30
0.0
 10
6.0513423185
 20
1.3772988762
 30
0.0
 10
6.0507615556
 20
1.3772219753
 30
0.0
 10
6.0504118044
 20
1.3771681594
 30
0.0
 10
6.0501198645
 20
1.3771145877
 30
0.0
 10
6.0498854937
 20
1.3770614813
 30
0.0
 10
6.0497089805
 20
1.3770089432
 30
0.0
 10
6.0496121057
 20
1.3769681238
 30
0.0
 10
6.0495755158
 20
1.376945436
 30
0.0
  0
SPLINE
  5
341
100
AcDbEntity
  8
0
100
AcDbSpline
 62
7
  6
CONTINUOUS
 70
0
 71
3
 72
34
 73
30
 74
0
 42
0.0000001
 43
0.0000001
 44
0.0000000001
 40
0.0
 40
0.0
 40
0.0
 40
0.0
 40
0.0597829523
 40
0.1278429834
 40
0.202666994
 40
0.2825882234
 40
0.3658274904
 40
0.4505321331
 40
0.5348172891
 40
0.6168084163
 40
0.6946822176
 40
0.7667085155
 40
0.800022676
 40
0.8312873498
 40
0.8603290398
 40
0.8869865612
 40
0.9111120864
 40
0.9325723826
 40
0.9512494037
 40
0.9670409844
 40
0.9738273516
 40
0.9798621712
 40
0.9851374839
 40
0.9896472411
 40
0.9933872359
 40
0.996355144
 40
0.9985540128
 40
0.999369161
 40
1.0
 40
1.0
 40
1.0
 40
1.0
 10
4.8798736657
 20
1.4270024774
 30
0.0
 10
4.8831631286
 20
1.4271251277
 30
0.0
 10
4.8901983723
 20
1.4273636443
 30
0.0
 10
4.9013525712
 20
1.4276975205
 30
0.0
 10
4.9136160426
 20
1.4280322572
 30
0.0
 10
4.9267155777
 20
1.4283675502
 30
0.0
 10
4.9403593191
 20
1.4287031206
 30
0.0
 10
4.9542434134
 20
1.4290387858
 30
0.0
 10
4.9680587648
 20
1.429374381
 30
0.0
 10
4.9814978932
 20
1.4297097211
 30
0.0
 10
4.9942618205
 20
1.4300446401
 30
0.0
 10
5.0043458789
 20
1.4303299979
 30
0.0
 10
5.011864034
 20
1.4305612031
 30
0.0
 10
5.0170161767
 20
1.4307299616
 30
0.0
 10
5.0218015893
 20
1.4308985699
 30
0.0
 10
5.0261936532
 20
1.4310669851
 30
0.0
 10
5.0301679481
 20
1.4312351452
 30
0.0
 10
5.0337024104
 20
1.4314029069
 30
0.0
 10
5.0367774282
 20
1.4315701809
 30
0.0
 10
5.0390444292
 20
1.4317151391
 30
0.0
 10
5.040615462
 20
1.4318334943
 30
0.0
 10
5.0416083476
 20
1.431917571
 30
0.0
 10
5.0424754063
 20
1.4320014166
 30
0.0
 10
5.0432154365
 20
1.4320849951
 30
0.0
 10
5.0438276352
 20
1.4321679255
 30
0.0
 10
5.0443110856
 20
1.4322503231
 30
0.0
 10
5.0446329626
 20
1.4323226233
 30
0.0
 10
5.0448240862
 20
1.432384136
 30
0.0
 10
5.0448976247
 20
1.4324153507
 30
0.0
 10
5.0449282234
 20
1.4324317898
 30
0.0
  0
SPLINE
  5
342
100
AcDbEntity
  8
0
100
AcDbSpline
 62
7
  6
CONTINUOUS
 70
0
 71
3
 72
30
 73
26
 74
0
 42
0.0000001
 43
0.0000001
 44
0.0000000001
 40
0.0
 40
0.0
 40
0.0
 40
0.0
 40
0.1902992435
 40
0.2832699887
 40
0.3736484451
 40
0.4606078422
 40
0.5433522254
 40
0.6211248008
 40
0.6932143707
 40
0.7589616004
 40
0.8177659196
 40
0.869090701
 40
0.891799185
 40
0.9124685701
 40
0.9310514702
 40
0.9475068699
 40
0.9617975908
 40
0.9738934808
 40
0.983769224
 40
0.9878694183
 40
0.99140915
 40
0.9943882178
 40
0.9968084948
 40
0.998674855
 40
1.0
 40
1.0
 40
1.0
 40
1.0
 10
6.1510824636
 20
1.5197444752
 30
0.0
 10
6.1578054969
 20
1.5198860638
 30
0.0
 10
6.1678130626
 20
1.5200971958
 30
0.0
 10
6.1810134223
 20
1.5203832161
 30
0.0
 10
6.1905628326
 20
1.5205960508
 30
0.0
 10
6.1997507879
 20
1.5208087881
 30
0.0
 10
6.2084931729
 20
1.5210214073
 30
0.0
 10
6.2167099499
 20
1.5212338558
 30
0.0
 10
6.2243258976
 20
1.5214460737
 30
0.0
 10
6.2312713026
 20
1.5216579399
 30
0.0
 10
6.2374825874
 20
1.5218693621
 30
0.0
 10
6.2421731087
 20
1.5220515259
 30
0.0
 10
6.2455163096
 20
1.5221995401
 30
0.0
 10
6.2477032166
 20
1.5223058585
 30
0.0
 10
6.2496688831
 20
1.5224120229
 30
0.0
 10
6.2514087944
 20
1.5225179792
 30
0.0
 10
6.2529190276
 20
1.5226235995
 30
0.0
 10
6.2541961196
 20
1.5227288034
 30
0.0
 10
6.2551129354
 20
1.5228204914
 30
0.0
 10
6.2557272913
 20
1.5228958958
 30
0.0
 10
6.256098835
 20
1.5229487247
 30
0.0
 10
6.2564103156
 20
1.5230013283
 30
0.0
 10
6.2566618877
 20
1.523053481
 30
0.0
 10
6.2568532988
 20
1.5231051171
 30
0.0
 10
6.2569594976
 20
1.5231450243
 30
0.0
 10
6.2570007496
 20
1.5231671816
 30
0.0
  0
SPLINE
  5
343
100
AcDbEntity
  8
0
100
AcDbSpline
 62
7
  6
CONTINUOUS
 70
0
 71
3
 72
30
 73
26
 74
0
 42
0.0000001
 43
0.0000001
 44
0.0000000001
 40
0.0
 40
0.0
 40
0.0
 40
0.0
 40
0.1901748207
 40
0.2830930299
 40
0.3734258257
 40
0.4603469347
 40
0.5430609545
 40
0.6208116469
 40
0.6928886222
 40
0.7586332794
 40
0.8174456995
 40
0.8687901469
 40
0.8915130363
 40
0.9121999886
 40
0.9308036896
 40
0.9472832401
 40
0.9616015665
 40
0.9737286364
 40
0.9836392635
 40
0.9877583564
 40
0.9913180114
 40
0.9943180676
 40
0.9967604707
 40
0.9986501956
 40
1.0
 40
1.0
 40
1.0
 40
1.0
 10
6.1510824636
 20
1.4911918132
 30
0.0
 10
6.1577526621
 20
1.4913360169
 30
0.0
 10
6.1676818793
 20
1.4915506008
 30
0.0
 10
6.1807792599
 20
1.4918415527
 30
0.0
 10
6.1902550294
 20
1.4920580125
 30
0.0
 10
6.1993727193
 20
1.4922743692
 30
0.0
 10
6.2080488748
 20
1.4924905901
 30
0.0
 10
6.2162040996
 20
1.4927066251
 30
0.0
 10
6.2237637852
 20
1.4929224125
 30
0.0
 10
6.2306587941
 20
1.49313783
 30
0.0
 10
6.236826082
 20
1.4933527844
 30
0.0
 10
6.2414841535
 20
1.493537971
 30
0.0
 10
6.2448049473
 20
1.4936884259
 30
0.0
 10
6.2469778431
 20
1.4937965043
 30
0.0
 10
6.2489314205
 20
1.4939044238
 30
0.0
 10
6.2506612045
 20
1.49401213
 30
0.0
 10
6.2521633082
 20
1.4941194952
 30
0.0
 10
6.253434299
 20
1.4942264376
 30
0.0
 10
6.2543472962
 20
1.4943196268
 30
0.0
 10
6.2549596194
 20
1.494396242
 30
0.0
 10
6.255330429
 20
1.4944499436
 30
0.0
 10
6.255641701
 20
1.4945034194
 30
0.0
 10
6.255893579
 20
1.4945564556
 30
0.0
 10
6.2560858342
 20
1.494608976
 30
0.0
 10
6.2561927091
 20
1.494649513
 30
0.0
 10
6.2562344263
 20
1.4946719203
 30
0.0
  0
SPLINE
  5
344
100
AcDbEntity
  8
0
100
AcDbSpline
 62
7
  6
CONTINUOUS
 70
0
 71
3
 72
30
 73
26
 74
0
 42
0.0000001
 43
0.0000001
 44
0.0000000001
 40
0.0
 40
0.0
 40
0.0
 40
0.0
 40
0.1901541849
 40
0.2830630256
 40
0.3733871998
 40
0.4603007512
 40
0.543008559
 40
0.6207548378
 40
0.6928290044
 40
0.7585728736
 40
0.8173868015
 40
0.8687348329
 40
0.8914607225
 40
0.9121506844
 40
0.9307586819
 40
0.9472424214
 40
0.9615662299
 40
0.9736986787
 40
0.9836160758
 40
0.9877383731
 40
0.9913015408
 40
0.9943056591
 40
0.9967521759
 40
0.9986458584
 40
1.0
 40
1.0
 40
1.0
 40
1.0
 10
6.1510824636
 20
1.4769118132
 30
0.0
 10
6.1577237984
 20
1.4770560016
 30
0.0
 10
6.1676100743
 20
1.4772705631
 30
0.0
 10
6.1806508439
 20
1.4775614834
 30
0.0
 10
6.1900857388
 20
1.4777779202
 30
0.0
 10
6.1991641737
 20
1.4779942536
 30
0.0
 10
6.2078030822
 20
1.4782104515
 30
0.0
 10
6.2159234215
 20
1.4784264634
 30
0.0
 10
6.2234509209
 20
1.4786422277
 30
0.0
 10
6.2303167513
 20
1.478857623
 30
0.0
 10
6.2364581501
 20
1.4790725539
 30
0.0
 10
6.2410968301
 20
1.4792577228
 30
0.0
 10
6.2444039272
 20
1.4794081538
 30
0.0
 10
6.2465679975
 20
1.4795162267
 30
0.0
 10
6.2485137143
 20
1.4796241281
 30
0.0
 10
6.2502366642
 20
1.479731832
 30
0.0
 10
6.2517329296
 20
1.4798391768
 30
0.0
 10
6.2529991404
 20
1.4799461217
 30
0.0
 10
6.2539087891
 20
1.4800392884
 30
0.0
 10
6.2545189654
 20
1.4801158973
 30
0.0
 10
6.2548885589
 20
1.4801695982
 30
0.0
 10
6.2551988955
 20
1.4802230666
 30
0.0
 10
6.2554500978
 20
1.4802760978
 30
0.0
 10
6.2556419322
 20
1.4803286254
 30
0.0
 10
6.2557485994
 20
1.4803691584
 30
0.0
 10
6.2557902757
 20
1.48039154
 30
0.0
  0
SPLINE
  5
345
100
AcDbEntity
  8
0
100
AcDbSpline
 62
7
  6
CONTINUOUS
 70
0
 71
3
 72
34
 73
30
 74
0
 42
0.0000001
 43
0.0000001
 44
0.0000000001
 40
0.0
 40
0.0
 40
0.0
 40
0.0
 40
0.0006261396
 40
0.0010953919
 40
0.0016937547
 40
0.0024292331
 40
0.0033059549
 40
0.0054911969
 40
0.0082596683
 40
0.0116151204
 40
0.0155586206
 40
0.0200892462
 40
0.0309047389
 40
0.0440423159
 40
0.05947278
 40
0.0771615714
 40
0.0970668129
 40
0.1191420492
 40
0.1433344102
 40
0.1695865808
 40
0.2280134358
 40
0.2938627675
 40
0.3665026806
 40
0.4452349554
 40
0.5293024206
 40
0.6178965519
 40
0.710164237
 40
0.8052175316
 40
1.0
 40
1.0
 40
1.0
 40
1.0
 10
6.2542087639
 20
1.4268418132
 30
0.0
 10
6.2542080944
 20
1.4268202707
 30
0.0
 10
6.2541811984
 20
1.4267864762
 30
0.0
 10
6.2541333117
 20
1.4267551638
 30
0.0
 10
6.2540772357
 20
1.4267273769
 30
0.0
 10
6.2540062985
 20
1.4267000529
 30
0.0
 10
6.253881661
 20
1.4266602803
 30
0.0
 10
6.2536865991
 20
1.4266124519
 30
0.0
 10
6.2534057985
 20
1.4265577731
 30
0.0
 10
6.2530635889
 20
1.4265028606
 30
0.0
 10
6.2526601224
 20
1.4264476971
 30
0.0
 10
6.2520007605
 20
1.4263692709
 30
0.0
 10
6.2510248808
 20
1.4262736897
 30
0.0
 10
6.2496736501
 20
1.4261638882
 30
0.0
 10
6.2480851944
 20
1.426053681
 30
0.0
 10
6.2462633289
 20
1.4259431497
 30
0.0
 10
6.2442123795
 20
1.4258324109
 30
0.0
 10
6.2419372826
 20
1.4257215259
 30
0.0
 10
6.2394434837
 20
1.4256105209
 30
0.0
 10
6.235699078
 20
1.4254568704
 30
0.0
 10
6.230521065
 20
1.4252672632
 30
0.0
 10
6.2237464413
 20
1.4250464526
 30
0.0
 10
6.2162725455
 20
1.4248252556
 30
0.0
 10
6.2081713075
 20
1.4246037524
 30
0.0
 10
6.1995207112
 20
1.4243820387
 30
0.0
 10
6.1904040615
 20
1.4241601681
 30
0.0
 10
6.1809091556
 20
1.4239381805
 30
0.0
 10
6.167759848
 20
1.4236396652
 30
0.0
 10
6.157785599
 20
1.4234196982
 30
0.0
 10
6.1510824636
 20
1.4232718132
 30
0.0
  0
LINE
  5
346
100
AcDbEntity
  8
0
100
AcDbLine
 62
7
  6
CONTINUOUS
 10
6.1306888655
 20
1.5193118132
 11
6.1510824636
 21
1.5197444752
  0
SPLINE
  5
347
100
AcDbEntity
  8
0
100
AcDbSpline
 62
7
  6
CONTINUOUS
 70
0
 71
3
 72
52
 73
48
 74
0
 42
0.0000001
 43
0.0000001
 44
0.0000000001
 40
0.0
 40
0.0
 40
0.0
 40
0.0
 40
0.0006723184
 40
0.0016102442
 40
0.0028221185
 40
0.0043111209
 40
0.0060785388
 40
0.0081247746
 40
0.0130514992
 40
0.0190837309
 40
0.0262100487
 40
0.0344149468
 40
0.043680834
 40
0.0539865983
 40
0.0653094724
 40
0.0909009286
 40
0.1202228726
 40
0.1530081451
 40
0.1889578719
 40
0.2277441714
 40
0.2690129519
 40
0.312387637
 40
0.3574725832
 40
0.4038562468
 40
0.4988192878
 40
0.5938202493
 40
0.6402513974
 40
0.6854028007
 40
0.7288629692
 40
0.7702363004
 40
0.8091460993
 40
0.8452381971
 40
0.8781845868
 40
0.907686042
 40
0.933474987
 40
0.9449030793
 40
0.9553185294
 40
0.9646980519
 40
0.9730207504
 40
0.980268589
 40
0.9864260575
 40
0.9914813215
 40
0.99542613
 40
0.9969816643
 40
0.9982600519
 40
0.9992639165
 40
1.0
 40
1.0
 40
1.0
 40
1.0
 10
4.8569908699
 20
1.4397626723
 30
0.0
 10
4.8570267882
 20
1.4397849467
 30
0.0
 10
4.8571202928
 20
1.4398255913
 30
0.0
 10
4.8572897144
 20
1.4398781337
 30
0.0
 10
4.8575124172
 20
1.4399312001
 30
0.0
 10
4.8577881965
 20
1.439984672
 30
0.0
 10
4.8581172324
 20
1.4400383788
 30
0.0
 10
4.8586613412
 20
1.4401150059
 30
0.0
 10
4.859473683
 20
1.4402081823
 30
0.0
 10
4.8606055836
 20
1.4403151087
 30
0.0
 10
4.8619443077
 20
1.4404224313
 30
0.0
 10
4.8634868333
 20
1.4405301089
 30
0.0
 10
4.8652296449
 20
1.4406379762
 30
0.0
 10
4.8671687865
 20
1.4407460107
 30
0.0
 10
4.8701334066
 20
1.4408963931
 30
0.0
 10
4.8742931744
 20
1.4410814735
 30
0.0
 10
4.8798020542
 20
1.441296258
 30
0.0
 10
4.8859625154
 20
1.4415114799
 30
0.0
 10
4.8927182535
 20
1.4417270433
 30
0.0
 10
4.9000075376
 20
1.4419428262
 30
0.0
 10
4.9077637667
 20
1.4421587666
 30
0.0
 10
4.9159160929
 20
1.4423748138
 30
0.0
 10
4.9243900646
 20
1.4425909367
 30
0.0
 10
4.9361062175
 20
1.4428814225
 30
0.0
 10
4.9509595512
 20
1.4432395517
 30
0.0
 10
4.9658158736
 20
1.4435975664
 30
0.0
 10
4.9775415799
 20
1.4438878921
 30
0.0
 10
4.9860280949
 20
1.444103912
 30
0.0
 10
4.9941965541
 20
1.4443198276
 30
0.0
 10
5.0019725049
 20
1.4445356083
 30
0.0
 10
5.0092850905
 20
1.4447512046
 30
0.0
 10
5.0160676907
 20
1.4449665562
 30
0.0
 10
5.0222585411
 20
1.4451815442
 30
0.0
 10
5.0278012836
 20
1.4453960767
 30
0.0
 10
5.0319914074
 20
1.4455808521
 30
0.0
 10
5.0349819997
 20
1.4457309295
 30
0.0
 10
5.0369418355
 20
1.4458387938
 30
0.0
 10
5.0387061395
 20
1.4459465024
 30
0.0
 10
5.040270922
 20
1.4460539992
 30
0.0
 10
5.0416326303
 20
1.4461612103
 30
0.0
 10
5.0427882809
 20
1.446267883
 30
0.0
 10
5.0437352499
 20
1.4463739693
 30
0.0
 10
5.0443925283
 20
1.4464668588
 30
0.0
 10
5.0448116025
 20
1.4465443471
 30
0.0
 10
5.0450470976
 20
1.4465974229
 30
0.0
 10
5.0452294157
 20
1.4466500316
 30
0.0
 10
5.0453316639
 20
1.4466903666
 30
0.0
 10
5.0453724284
 20
1.4467122626
 30
0.0
  0
SPLINE
  5
348
100
AcDbEntity
  8
0
100
AcDbSpline
 62
7
  6
CONTINUOUS
 70
0
 71
3
 72
30
 73
26
 74
0
 42
0.0000001
 43
0.0000001
 44
0.0000000001
 40
0.0
 40
0.0
 40
0.0
 40
0.0
 40
0.1901336096
 40
0.2830327061
 40
0.3733481691
 40
0.4602541948
 40
0.5429558811
 40
0.6206975064
 40
0.6927690306
 40
0.75851221
 40
0.8173274564
 40
0.8686792575
 40
0.8914075799
 40
0.9121011653
 40
0.9307127102
 40
0.9472013355
 40
0.9615299758
 40
0.9736686232
 40
0.9835921117
 40
0.9877181338
 40
0.9912850675
 40
0.9942927599
 40
0.996743179
 40
0.9986413339
 40
1.0
 40
1.0
 40
1.0
 40
1.0
 10
6.1510824636
 20
1.4626318132
 30
0.0
 10
6.1576949444
 20
1.4627759863
 30
0.0
 10
6.167538279
 20
1.4629905253
 30
0.0
 10
6.1805224378
 20
1.4632814137
 30
0.0
 10
6.1899164527
 20
1.4634978271
 30
0.0
 10
6.1989556423
 20
1.4637141373
 30
0.0
 10
6.2075573071
 20
1.4639303119
 30
0.0
 10
6.2156427672
 20
1.4641463005
 30
0.0
 10
6.2231380852
 20
1.4643620419
 30
0.0
 10
6.2299747419
 20
1.4645774139
 30
0.0
 10
6.2360902546
 20
1.4647923235
 30
0.0
 10
6.2407095222
 20
1.4649774677
 30
0.0
 10
6.244002928
 20
1.4651278853
 30
0.0
 10
6.2461581463
 20
1.4652359407
 30
0.0
 10
6.2480960183
 20
1.4653438378
 30
0.0
 10
6.2498121068
 20
1.4654515221
 30
0.0
 10
6.2513025583
 20
1.4655588669
 30
0.0
 10
6.2525639684
 20
1.4656657902
 30
0.0
 10
6.2534702847
 20
1.4657589586
 30
0.0
 10
6.2540783149
 20
1.4658355492
 30
0.0
 10
6.2544467003
 20
1.4658892424
 30
0.0
 10
6.254756081
 20
1.4659427113
 30
0.0
 10
6.2550065954
 20
1.4659957474
 30
0.0
 10
6.2551980238
 20
1.4660482716
 30
0.0
 10
6.2553045123
 20
1.4660887921
 30
0.0
 10
6.2553461492
 20
1.4661111565
 30
0.0
  0
SPLINE
  5
349
100
AcDbEntity
  8
0
100
AcDbSpline
 62
7
  6
CONTINUOUS
 70
0
 71
3
 72
52
 73
48
 74
0
 42
0.0000001
 43
0.0000001
 44
0.0000000001
 40
0.0
 40
0.0
 40
0.0
 40
0.0
 40
0.000670017
 40
0.0016055794
 40
0.0028151099
 40
0.0043020792
 40
0.0060676993
 40
0.0081120641
 40
0.0130352004
 40
0.0190645389
 40
0.0261879417
 40
0.0343906754
 40
0.0436543433
 40
0.0539586823
 40
0.0652800439
 40
0.0908698106
 40
0.1201913237
 40
0.1529774849
 40
0.1889291261
 40
0.2277182761
 40
0.2689909414
 40
0.3123702147
 40
0.3574602205
 40
0.4038495459
 40
0.498824467
 40
0.5938372776
 40
0.6402737096
 40
0.6854299251
 40
0.7288943606
 40
0.7702709486
 40
0.8091830462
 40
0.8452765157
 40
0.8782229687
 40
0.9077231764
 40
0.9335096567
 40
0.9449360006
 40
0.9553492743
 40
0.9647262419
 40
0.9730460835
 40
0.9802906171
 40
0.9864445733
 40
0.9914957292
 40
0.9954362694
 40
0.9969892837
 40
0.9982651945
 40
0.999266624
 40
1.0
 40
1.0
 40
1.0
 40
1.0
 10
4.8565467499
 20
1.4540422497
 30
0.0
 10
4.8565827174
 20
1.4540645463
 30
0.0
 10
4.8566764247
 20
1.454105194
 30
0.0
 10
4.8568462525
 20
1.4541577411
 30
0.0
 10
4.8570696247
 20
1.4542108134
 30
0.0
 10
4.8573463529
 20
1.4542642857
 30
0.0
 10
4.8576766136
 20
1.4543179923
 30
0.0
 10
4.8582228685
 20
1.4543946363
 30
0.0
 10
4.8590385504
 20
1.4544878289
 30
0.0
 10
4.8601752294
 20
1.4545947563
 30
0.0
 10
4.8615197877
 20
1.4547021
 30
0.0
 10
4.8630691462
 20
1.4548097803
 30
0.0
 10
4.8648198229
 20
1.4549176689
 30
0.0
 10
4.866767793
 20
1.4550257089
 30
0.0
 10
4.8697461081
 20
1.4551761193
 30
0.0
 10
4.8739252624
 20
1.4553612188
 30
0.0
 10
4.8794600306
 20
1.4555760304
 30
0.0
 10
4.885649671
 20
1.4557912778
 30
0.0
 10
4.8924375945
 20
1.4560068678
 30
0.0
 10
4.8997617623
 20
1.4562226773
 30
0.0
 10
4.9075552399
 20
1.4564386446
 30
0.0
 10
4.9157468173
 20
1.4566547189
 30
0.0
 10
4.9242616652
 20
1.4568708689
 30
0.0
 10
4.9360344226
 20
1.4571613916
 30
0.0
 10
4.9509595617
 20
1.4575195656
 30
0.0
 10
4.9658876796
 20
1.4578776255
 30
0.0
 10
4.9776699938
 20
1.4581679889
 30
0.0
 10
4.9861973841
 20
1.4583840364
 30
0.0
 10
4.9944050947
 20
1.4585999797
 30
0.0
 10
5.002218292
 20
1.458815788
 30
0.0
 10
5.0095657619
 20
1.4590314118
 30
0.0
 10
5.0163805524
 20
1.4592467908
 30
0.0
 10
5.0226005867
 20
1.4594618059
 30
0.0
 10
5.028169224
 20
1.459676365
 30
0.0
 10
5.0323787608
 20
1.4598611659
 30
0.0
 10
5.0353830588
 20
1.4600112654
 30
0.0
 10
5.037351736
 20
1.4601191432
 30
0.0
 10
5.0391238937
 20
1.460226866
 30
0.0
 10
5.040695523
 20
1.4603343732
 30
0.0
 10
5.0420630655
 20
1.4604416012
 30
0.0
 10
5.0432235081
 20
1.4605482774
 30
0.0
 10
5.0441742312
 20
1.460654385
 30
0.0
 10
5.04483397
 20
1.460747269
 30
0.0
 10
5.0452544832
 20
1.4608247854
 30
0.0
 10
5.045490661
 20
1.4608778653
 30
0.0
 10
5.0456734081
 20
1.460930464
 30
0.0
 10
5.0457758627
 20
1.4609708092
 30
0.0
 10
5.0458166664
 20
1.460992731
 30
0.0
  0
SPLINE
  5
34A
100
AcDbEntity
  8
0
100
AcDbSpline
 62
7
  6
CONTINUOUS
 70
0
 71
3
 72
52
 73
48
 74
0
 42
0.0000001
 43
0.0000001
 44
0.0000000001
 40
0.0
 40
0.0
 40
0.0
 40
0.0
 40
0.000660342
 40
0.0015869525
 40
0.0027880672
 40
0.004266866
 40
0.0060246557
 40
0.0080617982
 40
0.0129715961
 40
0.0189888492
 40
0.0261018161
 40
0.0342952042
 40
0.0435511521
 40
0.0538487861
 40
0.0651651036
 40
0.090748412
 40
0.1200683495
 40
0.1528575303
 40
0.1888166818
 40
0.2276172222
 40
0.2689045997
 40
0.3123016927
 40
0.3574119127
 40
0.403823047
 40
0.4988447282
 40
0.5939034132
 40
0.6403610822
 40
0.6855362586
 40
0.7290169404
 40
0.770406681
 40
0.8093280198
 40
0.8454264111
 40
0.8783732896
 40
0.9078688592
 40
0.9336453418
 40
0.9450645993
 40
0.9554695963
 40
0.964836692
 40
0.9731453855
 40
0.9803771456
 40
0.9865170137
 40
0.9915524766
 40
0.9954758912
 40
0.9970196926
 40
0.9982858988
 40
0.9992771766
 40
1.0
 40
1.0
 40
1.0
 40
1.0
 10
6.0547703382
 20
1.5111605981
 30
0.0
 10
6.0548064469
 20
1.5111829905
 30
0.0
 10
6.054900928
 20
1.5112236831
 30
0.0
 10
6.0550724155
 20
1.51127621
 30
0.0
 10
6.0552985227
 20
1.5113292784
 30
0.0
 10
6.0555790225
 20
1.5113827686
 30
0.0
 10
6.0559141169
 20
1.5114364973
 30
0.0
 10
6.0564689553
 20
1.5115131889
 30
0.0
 10
6.0572979973
 20
1.5116064261
 30
0.0
 10
6.0584538392
 20
1.5117134001
 30
0.0
 10
6.0598216898
 20
1.5118207825
 30
0.0
 10
6.0613984408
 20
1.5119285169
 30
0.0
 10
6.0631805094
 20
1.5120364484
 30
0.0
 10
6.0651638334
 20
1.512144544
 30
0.0
 10
6.0681969194
 20
1.5122950312
 30
0.0
 10
6.072453686
 20
1.5124802276
 30
0.0
 10
6.078091991
 20
1.5126951378
 30
0.0
 10
6.0843983228
 20
1.5129104873
 30
0.0
 10
6.0913149715
 20
1.5131261805
 30
0.0
 10
6.0987786562
 20
1.5133420943
 30
0.0
 10
6.1067211013
 20
1.5135581665
 30
0.0
 10
6.1150696684
 20
1.5137743464
 30
0.0
 10
6.1237480163
 20
1.5139906026
 30
0.0
 10
6.1357472124
 20
1.5142812704
 30
0.0
 10
6.1509595361
 20
1.5146396186
 30
0.0
 10
6.1661748574
 20
1.5149978551
 30
0.0
 10
6.1781836147
 20
1.5152883662
 30
0.0
 10
6.1868745209
 20
1.5155045215
 30
0.0
 10
6.1952392408
 20
1.5157205727
 30
0.0
 10
6.2032014346
 20
1.5159364888
 30
0.0
 10
6.2106884521
 20
1.5161522201
 30
0.0
 10
6.2176319983
 20
1.5163677061
 30
0.0
 10
6.2239687616
 20
1.5165828269
 30
0.0
 10
6.2296409766
 20
1.5167974908
 30
0.0
 10
6.233928137
 20
1.5169823883
 30
0.0
 10
6.2369872296
 20
1.5171325776
 30
0.0
 10
6.2389912761
 20
1.5172405058
 30
0.0
 10
6.2407948694
 20
1.5173482847
 30
0.0
 10
6.2423939011
 20
1.5174558386
 30
0.0
 10
6.2437847666
 20
1.5175631191
 30
0.0
 10
6.2449643814
 20
1.5176698325
 30
0.0
 10
6.2459300958
 20
1.5177759816
 30
0.0
 10
6.2465997006
 20
1.5178689004
 30
0.0
 10
6.2470259863
 20
1.5179464858
 30
0.0
 10
6.2472648957
 20
1.5179995707
 30
0.0
 10
6.2474493074
 20
1.5180521663
 30
0.0
 10
6.2475525399
 20
1.5180925531
 30
0.0
 10
6.2475935115
 20
1.5181145616
 30
0.0
  0
SPLINE
  5
34B
100
AcDbEntity
  8
0
100
AcDbSpline
 62
7
  6
CONTINUOUS
 70
0
 71
3
 72
52
 73
48
 74
0
 42
0.0000001
 43
0.0000001
 44
0.0000000001
 40
0.0
 40
0.0
 40
0.0
 40
0.0
 40
0.0006674738
 40
0.0016008322
 40
0.0028083241
 40
0.0042931632
 40
0.006056682
 40
0.0080992636
 40
0.0130191048
 40
0.0190452961
 40
0.0261661694
 40
0.0343664052
 40
0.0436282224
 40
0.0539307059
 40
0.0652509402
 40
0.0908391196
 40
0.1201601911
 40
0.1529470751
 40
0.1889006824
 40
0.227692683
 40
0.2689690026
 40
0.312352863
 40
0.3574479865
 40
0.4038427493
 40
0.4988296262
 40
0.5938540326
 40
0.640295916
 40
0.6854568713
 40
0.7289254548
 40
0.7703054539
 40
0.8092198516
 40
0.8453145678
 40
0.8782611841
 40
0.9077601897
 40
0.933544106
 40
0.944968572
 40
0.9553798459
 40
0.9647542567
 40
0.9730713079
 40
0.9803125653
 40
0.9864629514
 40
0.9915101452
 40
0.9954463088
 40
0.996997127
 40
0.9982705169
 40
0.9992692596
 40
1.0
 40
1.0
 40
1.0
 40
1.0
 10
4.8561026443
 20
1.468321831
 30
0.0
 10
4.8561386392
 20
1.4683441534
 30
0.0
 10
4.8562325373
 20
1.4683848166
 30
0.0
 10
4.8564027869
 20
1.4684373518
 30
0.0
 10
4.8566268501
 20
1.4684904204
 30
0.0
 10
4.8569045155
 20
1.4685439001
 30
0.0
 10
4.8572359761
 20
1.4685976157
 30
0.0
 10
4.8577843788
 20
1.4686742674
 30
0.0
 10
4.8586034041
 20
1.4687674712
 30
0.0
 10
4.8597448812
 20
1.4688744149
 30
0.0
 10
4.861095257
 20
1.4689817633
 30
0.0
 10
4.8626514693
 20
1.4690894625
 30
0.0
 10
4.8644099832
 20
1.4691973567
 30
0.0
 10
4.8663667981
 20
1.4693054154
 30
0.0
 10
4.8693588092
 20
1.4694558409
 30
0.0
 10
4.8735573766
 20
1.4696409681
 30
0.0
 10
4.879118027
 20
1.4698558037
 30
0.0
 10
4.8853368388
 20
1.4700710773
 30
0.0
 10
4.8921569426
 20
1.4702866934
 30
0.0
 10
4.8995159865
 20
1.4705025294
 30
0.0
 10
4.9073467033
 20
1.4707185232
 30
0.0
 10
4.9155775273
 20
1.4709346243
 30
0.0
 10
4.9241332485
 20
1.4711508012
 30
0.0
 10
4.9359626158
 20
1.4714413608
 30
0.0
 10
4.9509595496
 20
1.471799579
 30
0.0
 10
4.965959477
 20
1.4721576838
 30
0.0
 10
4.9777983998
 20
1.4724480845
 30
0.0
 10
4.9863666711
 20
1.4726641593
 30
0.0
 10
4.9946136365
 20
1.47288013
 30
0.0
 10
5.002464087
 20
1.4730959656
 30
0.0
 10
5.009846446
 20
1.4733116167
 30
0.0
 10
5.0166934262
 20
1.4735270228
 30
0.0
 10
5.0229426446
 20
1.4737420646
 30
0.0
 10
5.0285371764
 20
1.4739566508
 30
0.0
 10
5.0327661105
 20
1.4741414744
 30
0.0
 10
5.0357841064
 20
1.4742915993
 30
0.0
 10
5.0377616238
 20
1.4743994875
 30
0.0
 10
5.0395416454
 20
1.4745072268
 30
0.0
 10
5.041120122
 20
1.4746147442
 30
0.0
 10
5.0424934953
 20
1.4747219859
 30
0.0
 10
5.0436587296
 20
1.4748286727
 30
0.0
 10
5.0446132004
 20
1.4749347861
 30
0.0
 10
5.0452754116
 20
1.4750276898
 30
0.0
 10
5.045697373
 20
1.4751052126
 30
0.0
 10
5.0459342313
 20
1.4751582954
 30
0.0
 10
5.0461173846
 20
1.4752108993
 30
0.0
 10
5.0462200275
 20
1.475251255
 30
0.0
 10
5.0462608778
 20
1.475273195
 30
0.0
  0
SPLINE
  5
34C
100
AcDbEntity
  8
0
100
AcDbSpline
 62
7
  6
CONTINUOUS
 70
0
 71
3
 72
30
 73
26
 74
0
 42
0.0000001
 43
0.0000001
 44
0.0000000001
 40
0.0
 40
0.0
 40
0.0
 40
0.0
 40
0.1901127722
 40
0.2830022214
 40
0.3733088857
 40
0.4602072841
 40
0.5429027613
 40
0.6206397586
 40
0.6927085091
 40
0.7584509502
 40
0.817267608
 40
0.8686231202
 40
0.8913541921
 40
0.9120511353
 40
0.9306666498
 40
0.9471598678
 40
0.9614937291
 40
0.9736382383
 40
0.9835682391
 40
0.9876977698
 40
0.9912683893
 40
0.994279948
 40
0.9967344255
 40
0.9986368481
 40
1.0
 40
1.0
 40
1.0
 40
1.0
 10
6.1510824636
 20
1.4483518132
 30
0.0
 10
6.1576660865
 20
1.4484959709
 30
0.0
 10
6.1674664818
 20
1.4487104871
 30
0.0
 10
6.1803940308
 20
1.4490013435
 30
0.0
 10
6.1897471688
 20
1.4492177333
 30
0.0
 10
6.198747109
 20
1.44943402
 30
0.0
 10
6.2073115285
 20
1.4496501711
 30
0.0
 10
6.2153621056
 20
1.4498661364
 30
0.0
 10
6.2228252382
 20
1.4500818544
 30
0.0
 10
6.2296327176
 20
1.4502972033
 30
0.0
 10
6.2357223418
 20
1.4505120901
 30
0.0
 10
6.240322206
 20
1.4506972129
 30
0.0
 10
6.243601917
 20
1.4508476116
 30
0.0
 10
6.2457482962
 20
1.4509556553
 30
0.0
 10
6.2476783151
 20
1.4510635411
 30
0.0
 10
6.2493875555
 20
1.4511712143
 30
0.0
 10
6.2508721804
 20
1.4512785487
 30
0.0
 10
6.2521287999
 20
1.4513854624
 30
0.0
 10
6.2530317755
 20
1.4514786203
 30
0.0
 10
6.253637659
 20
1.4515551984
 30
0.0
 10
6.2540048321
 20
1.4516088873
 30
0.0
 10
6.2543132669
 20
1.4516623527
 30
0.0
 10
6.2545630993
 20
1.4517153887
 30
0.0
 10
6.2547541141
 20
1.4517679148
 30
0.0
 10
6.2548604094
 20
1.4518084268
 30
0.0
 10
6.254902006
 20
1.4518307697
 30
0.0
  0
SPLINE
  5
34D
100
AcDbEntity
  8
0
100
AcDbSpline
 62
7
  6
CONTINUOUS
 70
0
 71
3
 72
34
 73
30
 74
0
 42
0.0000001
 43
0.0000001
 44
0.0000000001
 40
0.0
 40
0.0
 40
0.0
 40
0.0
 40
0.0006241175
 40
0.0010926824
 40
0.0016905005
 40
0.0024255316
 40
0.0033018748
 40
0.0054865044
 40
0.008254493
 40
0.0116095543
 40
0.0155527284
 40
0.0200830764
 40
0.0308981325
 40
0.0440353852
 40
0.059465605
 40
0.0771542125
 40
0.0970593549
 40
0.1191345666
 40
0.1433269579
 40
0.1695791877
 40
0.2280062299
 40
0.2938559936
 40
0.3664964662
 40
0.4452293221
 40
0.5292975833
 40
0.6178925875
 40
0.7101611593
 40
0.805215443
 40
1.0
 40
1.0
 40
1.0
 40
1.0
 10
6.2546525413
 20
1.4411218132
 30
0.0
 10
6.2546518712
 20
1.4411002481
 30
0.0
 10
6.254624817
 20
1.4410664412
 30
0.0
 10
6.2545767659
 20
1.4410351592
 30
0.0
 10
6.2545204516
 20
1.4410073719
 30
0.0
 10
6.2544492166
 20
1.4409800507
 30
0.0
 10
6.2543240421
 20
1.4409402763
 30
0.0
 10
6.2541281467
 20
1.4408924492
 30
0.0
 10
6.2538461476
 20
1.4408377711
 30
0.0
 10
6.2535024737
 20
1.4407828593
 30
0.0
 10
6.2530972779
 20
1.4407276959
 30
0.0
 10
6.2524350822
 20
1.4406492692
 30
0.0
 10
6.2514550102
 20
1.4405536879
 30
0.0
 10
6.2500979763
 20
1.4404438865
 30
0.0
 10
6.2485026956
 20
1.4403336794
 30
0.0
 10
6.2466729994
 20
1.4402231481
 30
0.0
 10
6.2446132314
 20
1.4401124093
 30
0.0
 10
6.2423283488
 20
1.4400015243
 30
0.0
 10
6.2398238218
 20
1.4398905191
 30
0.0
 10
6.2360633067
 20
1.4397368685
 30
0.0
 10
6.230863014
 20
1.4395472612
 30
0.0
 10
6.2240592385
 20
1.4393264506
 30
0.0
 10
6.2165531786
 20
1.4391052537
 30
0.0
 10
6.208417073
 20
1.4388837506
 30
0.0
 10
6.1997292417
 20
1.4386620371
 30
0.0
 10
6.1905733471
 20
1.4384401666
 30
0.0
 10
6.1810375668
 20
1.4382181793
 30
0.0
 10
6.1678316494
 20
1.4379196643
 30
0.0
 10
6.1578144585
 20
1.4376996979
 30
0.0
 10
6.1510824636
 20
1.4375518132
 30
0.0
  0
SPLINE
  5
34E
100
AcDbEntity
  8
0
100
AcDbSpline
 62
7
  6
CONTINUOUS
 70
0
 71
3
 72
30
 73
26
 74
0
 42
0.0000001
 43
0.0000001
 44
0.0000000001
 40
0.0
 40
0.0
 40
0.0
 40
0.0
 40
0.1900917238
 40
0.2829714007
 40
0.3732692264
 40
0.4601598979
 40
0.5428490272
 40
0.6205814452
 40
0.6926474029
 40
0.7583890421
 40
0.8172072003
 40
0.8685664712
 40
0.8913003027
 40
0.9120006243
 40
0.9306201616
 40
0.9471180351
 40
0.9614571703
 40
0.9736075885
 40
0.9835441547
 40
0.9876772231
 40
0.9912515571
 40
0.9942670167
 40
0.996725592
 40
0.9986323231
 40
1.0
 40
1.0
 40
1.0
 40
1.0
 10
6.1510824636
 20
1.4340718132
 30
0.0
 10
6.1576372274
 20
1.4342159552
 30
0.0
 10
6.1673946806
 20
1.4344304485
 30
0.0
 10
6.1802656182
 20
1.4347212724
 30
0.0
 10
6.1895778778
 20
1.4349376385
 30
0.0
 10
6.1985385655
 20
1.4351539015
 30
0.0
 10
6.2070657385
 20
1.4353700289
 30
0.0
 10
6.2150814326
 20
1.4355859704
 30
0.0
 10
6.2225123809
 20
1.435801665
 30
0.0
 10
6.2292906837
 20
1.4360169906
 30
0.0
 10
6.2353544203
 20
1.4362318545
 30
0.0
 10
6.2399348837
 20
1.4364169557
 30
0.0
 10
6.2432008997
 20
1.4365673352
 30
0.0
 10
6.2453384395
 20
1.4366753673
 30
0.0
 10
6.2472606064
 20
1.4367832416
 30
0.0
 10
6.2489630003
 20
1.4368909037
 30
0.0
 10
6.2504417996
 20
1.4369982277
 30
0.0
 10
6.2516936284
 20
1.4371051316
 30
0.0
 10
6.2525932629
 20
1.4371982789
 30
0.0
 10
6.2531969993
 20
1.4372748444
 30
0.0
 10
6.2535629601
 20
1.437328529
 30
0.0
 10
6.253870449
 20
1.4373819909
 30
0.0
 10
6.2541195997
 20
1.4374350268
 30
0.0
 10
6.254310201
 20
1.4374875547
 30
0.0
 10
6.2544163033
 20
1.4375280582
 30
0.0
 10
6.2544578597
 20
1.4375503796
 30
0.0
  0
SPLINE
  5
34F
100
AcDbEntity
  8
0
100
AcDbSpline
 62
7
  6
CONTINUOUS
 70
0
 71
3
 72
35
 73
31
 74
0
 42
0.0000001
 43
0.0000001
 44
0.0000000001
 40
0.0
 40
0.0
 40
0.0
 40
0.0
 40
0.0002769697
 40
0.0006226495
 40
0.0010782521
 40
0.0016621607
 40
0.0023829724
 40
0.0032450683
 40
0.0054015874
 40
0.0081423478
 40
0.0114712303
 40
0.0153893588
 40
0.0198958292
 40
0.030666653
 40
0.0437643846
 40
0.0591597327
 40
0.0768180293
 40
0.0966972679
 40
0.118750861
 40
0.1429257984
 40
0.1691646229
 40
0.2275764474
 40
0.2934253604
 40
0.3660784276
 40
0.4448365298
 40
0.5289417797
 40
0.6175851654
 40
0.7099133471
 40
0.8050384276
 40
1.0
 40
1.0
 40
1.0
 40
1.0
 10
4.8473986446
 20
1.4447818132
 30
0.0
 10
4.8473983469
 20
1.4447913942
 30
0.0
 10
4.8474046258
 20
1.4448132212
 30
0.0
 10
4.8474300034
 20
1.4448414459
 30
0.0
 10
4.8474695237
 20
1.4448689307
 30
0.0
 10
4.847524104
 20
1.4448963126
 30
0.0
 10
4.847593938
 20
1.4449238032
 30
0.0
 10
4.847717155
 20
1.4449635835
 30
0.0
 10
4.8479108284
 20
1.445011498
 30
0.0
 10
4.8481902708
 20
1.4450661854
 30
0.0
 10
4.848531596
 20
1.4451211366
 30
0.0
 10
4.8489346319
 20
1.4451763353
 30
0.0
 10
4.8495943354
 20
1.4452548516
 30
0.0
 10
4.850571784
 20
1.4453505068
 30
0.0
 10
4.8519262481
 20
1.4454603695
 30
0.0
 10
4.8535197159
 20
1.4455706352
 30
0.0
 10
4.8553483396
 20
1.4456812222
 30
0.0
 10
4.857407757
 20
1.4457920113
 30
0.0
 10
4.8596929912
 20
1.4459029407
 30
0.0
 10
4.8621985529
 20
1.4460139837
 30
0.0
 10
4.8659617544
 20
1.446167691
 30
0.0
 10
4.8711669479
 20
1.446357339
 30
0.0
 10
4.8779783501
 20
1.4465781564
 30
0.0
 10
4.8854942367
 20
1.4467993329
 30
0.0
 10
4.8936421957
 20
1.4470207878
 30
0.0
 10
4.902343747
 20
1.4472424247
 30
0.0
 10
4.9115150838
 20
1.4474641898
 30
0.0
 10
4.921067909
 20
1.447686043
 30
0.0
 10
4.9342995021
 20
1.4479843552
 30
0.0
 10
4.944336676
 20
1.4482041047
 30
0.0
 10
4.9510824636
 20
1.4483518132
 30
0.0
  0
SPLINE
  5
350
100
AcDbEntity
  8
0
100
AcDbSpline
 62
7
  6
CONTINUOUS
 70
0
 71
3
 72
30
 73
26
 74
0
 42
0.0000001
 43
0.0000001
 44
0.0000000001
 40
0.0
 40
0.0
 40
0.0
 40
0.0
 40
0.1900705149
 40
0.2829403652
 40
0.373229257
 40
0.4601121863
 40
0.5427950113
 40
0.620522713
 40
0.6925858709
 40
0.7583267896
 40
0.8171463477
 40
0.868509399
 40
0.8912460398
 40
0.9119497829
 40
0.9305733423
 40
0.9470758682
 40
0.9614203075
 40
0.97357669
 40
0.9835198815
 40
0.9876565191
 40
0.9912346038
 40
0.994253995
 40
0.9967166946
 40
0.9986277626
 40
1.0
 40
1.0
 40
1.0
 40
1.0
 10
6.1510824636
 20
1.4197918132
 30
0.0
 10
6.1576083688
 20
1.4199359395
 30
0.0
 10
6.1673228815
 20
1.4201504096
 30
0.0
 10
6.1801372087
 20
1.4204412009
 30
0.0
 10
6.1894085917
 20
1.4206575431
 30
0.0
 10
6.1983300312
 20
1.4208737822
 30
0.0
 10
6.2068199594
 20
1.4210898857
 30
0.0
 10
6.214800771
 20
1.4213058034
 30
0.0
 10
6.222199535
 20
1.4215214743
 30
0.0
 10
6.2289486608
 20
1.4217367765
 30
0.0
 10
6.2349865085
 20
1.4219516172
 30
0.0
 10
6.2395475675
 20
1.4221366966
 30
0.0
 10
6.2427998892
 20
1.4222870569
 30
0.0
 10
6.2449285898
 20
1.4223950772
 30
0.0
 10
6.2468429023
 20
1.4225029399
 30
0.0
 10
6.2485384464
 20
1.4226105906
 30
0.0
 10
6.2500114181
 20
1.422717904
 30
0.0
 10
6.2512584557
 20
1.4228247981
 30
0.0
 10
6.2521547494
 20
1.4229179348
 30
0.0
 10
6.2527563389
 20
1.4229944876
 30
0.0
 10
6.2531210873
 20
1.4230481679
 30
0.0
 10
6.25342763
 20
1.4231016262
 30
0.0
 10
6.2536760983
 20
1.4231546618
 30
0.0
 10
6.2538662853
 20
1.4232071916
 30
0.0
 10
6.2539721942
 20
1.4232476863
 30
0.0
 10
6.2540137102
 20
1.4232699861
 30
0.0
  0
SPLINE
  5
351
100
AcDbEntity
  8
0
100
AcDbSpline
 62
7
  6
CONTINUOUS
 70
0
 71
3
 72
52
 73
48
 74
0
 42
0.0000001
 43
0.0000001
 44
0.0000000001
 40
0.0
 40
0.0
 40
0.0
 40
0.0
 40
0.0006626813
 40
0.0015914542
 40
0.002794703
 40
0.0042755495
 40
0.0060352227
 40
0.0080740882
 40
0.0129872776
 40
0.0190074108
 40
0.0261230579
 40
0.0343186531
 40
0.043576591
 40
0.053875776
 40
0.0651934251
 40
0.09077834
 40
0.1200986543
 40
0.1528870631
 40
0.1888443818
 40
0.2276421093
 40
0.2689258247
 40
0.3123185467
 40
0.3574237915
 40
0.4038295144
 40
0.4988397134
 40
0.5938870806
 40
0.6403395461
 40
0.6855100308
 40
0.7289867195
 40
0.7703732494
 40
0.8092923026
 40
0.8453894823
 40
0.8783362767
 40
0.9078329863
 40
0.933611925
 40
0.9450328695
 40
0.9554399699
 40
0.9648094595
 40
0.9731209353
 40
0.9803558182
 40
0.9864991725
 40
0.9915385017
 40
0.9954661307
 40
0.997012283
 40
0.9982808286
 40
0.99927454
 40
1.0
 40
1.0
 40
1.0
 40
1.0
 10
6.0552144454
 20
1.4968810053
 30
0.0
 10
6.055250516
 20
1.4969033726
 30
0.0
 10
6.0553447959
 20
1.4969440567
 30
0.0
 10
6.0555158666
 20
1.4969965902
 30
0.0
 10
6.0557412943
 20
1.4970496554
 30
0.0
 10
6.0560208542
 20
1.4971031412
 30
0.0
 10
6.0563547355
 20
1.4971568657
 30
0.0
 10
6.0569074277
 20
1.4972335481
 30
0.0
 10
6.0577331272
 20
1.4973267681
 30
0.0
 10
6.058884185
 20
1.4974337375
 30
0.0
 10
6.0602462074
 20
1.4975411046
 30
0.0
 10
6.0618161163
 20
1.4976488305
 30
0.0
 10
6.0635903301
 20
1.4977567474
 30
0.0
 10
6.0655648201
 20
1.4978648325
 30
0.0
 10
6.0685842136
 20
1.4980152978
 30
0.0
 10
6.0728215829
 20
1.4982004724
 30
0.0
 10
6.078434002
 20
1.4984153576
 30
0.0
 10
6.0847111596
 20
1.4986306821
 30
0.0
 10
6.0915956259
 20
1.4988463498
 30
0.0
 10
6.0990244298
 20
1.4990622379
 30
0.0
 10
6.1069296317
 20
1.4992782843
 30
0.0
 10
6.1152389508
 20
1.4994944382
 30
0.0
 10
6.1238764232
 20
1.4997106681
 30
0.0
 10
6.1358190104
 20
1.5000013002
 30
0.0
 10
6.1509595377
 20
1.5003596055
 30
0.0
 10
6.1661030621
 20
1.5007177984
 30
0.0
 10
6.1780552086
 20
1.5010082731
 30
0.0
 10
6.1867052373
 20
1.5012244018
 30
0.0
 10
6.1950307063
 20
1.5014404264
 30
0.0
 10
6.2029556531
 20
1.501656316
 30
0.0
 10
6.2104077852
 20
1.5018720207
 30
0.0
 10
6.2173191433
 20
1.5020874803
 30
0.0
 10
6.2236267255
 20
1.502302575
 30
0.0
 10
6.2292730465
 20
1.5025172135
 30
0.0
 10
6.2335407965
 20
1.5027020859
 30
0.0
 10
6.23658619
 20
1.5028522549
 30
0.0
 10
6.238581392
 20
1.502960169
 30
0.0
 10
6.2403771299
 20
1.5030679357
 30
0.0
 10
6.2419693092
 20
1.5031754767
 30
0.0
 10
6.2433543453
 20
1.5032827451
 30
0.0
 10
6.2445291661
 20
1.5033894493
 30
0.0
 10
6.2454911334
 20
1.5034955862
 30
0.0
 10
6.2461582753
 20
1.5035885023
 30
0.0
 10
6.2465831206
 20
1.5036660637
 30
0.0
 10
6.246821344
 20
1.5037191493
 30
0.0
 10
6.2470053333
 20
1.5037717491
 30
0.0
 10
6.2471083679
 20
1.5038121261
 30
0.0
 10
6.2471493015
 20
1.5038341103
 30
0.0
  0
SPLINE
  5
352
100
AcDbEntity
  8
0
100
AcDbSpline
 62
7
  6
CONTINUOUS
 70
0
 71
3
 72
30
 73
26
 74
0
 42
0.0000001
 43
0.0000001
 44
0.0000000001
 40
0.0
 40
0.0
 40
0.0
 40
0.0
 40
0.1900491452
 40
0.2829091024
 40
0.3731889694
 40
0.4600640779
 40
0.5427405385
 40
0.6204634893
 40
0.6925238024
 40
0.7582639673
 40
0.8170849672
 40
0.8684518225
 40
0.8911912844
 40
0.911898472
 40
0.9305261008
 40
0.9470333347
 40
0.9613831282
 40
0.9735455234
 40
0.9834953955
 40
0.9876356324
 40
0.9912174984
 40
0.9942408559
 40
0.9967077181
 40
0.9986231629
 40
1.0
 40
1.0
 40
1.0
 40
1.0
 10
6.1510824636
 20
1.4055118132
 30
0.0
 10
6.1575795109
 20
1.4056559236
 30
0.0
 10
6.1672510843
 20
1.4058703705
 30
0.0
 10
6.1800088017
 20
1.4061611288
 30
0.0
 10
6.1892393079
 20
1.4063774469
 30
0.0
 10
6.1981214979
 20
1.4065936618
 30
0.0
 10
6.2065741806
 20
1.4068097412
 30
0.0
 10
6.2145201089
 20
1.407025635
 30
0.0
 10
6.221886687
 20
1.4072412819
 30
0.0
 10
6.228606635
 20
1.4074565604
 30
0.0
 10
6.2346185933
 20
1.4076713778
 30
0.0
 10
6.239160248
 20
1.4078564351
 30
0.0
 10
6.2423988744
 20
1.4080067761
 30
0.0
 10
6.2445187355
 20
1.4081147844
 30
0.0
 10
6.2464251942
 20
1.4082226354
 30
0.0
 10
6.2481138894
 20
1.4083302748
 30
0.0
 10
6.2495810339
 20
1.4084375775
 30
0.0
 10
6.2508232803
 20
1.4085444617
 30
0.0
 10
6.2517162328
 20
1.4086375876
 30
0.0
 10
6.2523156752
 20
1.4087141276
 30
0.0
 10
6.252679211
 20
1.4087678035
 30
0.0
 10
6.2529848075
 20
1.4088212583
 30
0.0
 10
6.2532325934
 20
1.4088742936
 30
0.0
 10
6.2534223663
 20
1.4089268252
 30
0.0
 10
6.2535280818
 20
1.408967311
 30
0.0
 10
6.2535695576
 20
1.4089895892
 30
0.0
  0
SPLINE
  5
353
100
AcDbEntity
  8
0
100
AcDbSpline
 62
7
  6
CONTINUOUS
 70
0
 71
3
 72
30
 73
26
 74
0
 42
0.0000001
 43
0.0000001
 44
0.0000000001
 40
0.0
 40
0.0
 40
0.0
 40
0.0
 40
0.1900275578
 40
0.2828774921
 40
0.3731482938
 40
0.4600154765
 40
0.5426854247
 40
0.620403678
 40
0.6924611241
 40
0.7582004624
 40
0.817023002
 40
0.8683937117
 40
0.8911360023
 40
0.911846654
 40
0.9304784098
 40
0.9469904206
 40
0.9613456246
 40
0.9735140811
 40
0.9834706885
 40
0.9876145546
 40
0.9912002314
 40
0.9942275909
 40
0.9966986574
 40
0.9986185223
 40
1.0
 40
1.0
 40
1.0
 40
1.0
 10
6.1510824636
 20
1.3912318132
 30
0.0
 10
6.1575506518
 20
1.3913759076
 30
0.0
 10
6.1671792832
 20
1.3915903309
 30
0.0
 10
6.1798803892
 20
1.3918810559
 30
0.0
 10
6.1890700169
 20
1.3920973496
 30
0.0
 10
6.1979129541
 20
1.3923135402
 30
0.0
 10
6.20632839
 20
1.3925295952
 30
0.0
 10
6.2142394349
 20
1.3927454647
 30
0.0
 10
6.221573828
 20
1.3929610875
 30
0.0
 10
6.2282645988
 20
1.3931763421
 30
0.0
 10
6.2342506687
 20
1.3933911359
 30
0.0
 10
6.238772922
 20
1.3935761712
 30
0.0
 10
6.2419978525
 20
1.3937264925
 30
0.0
 10
6.2441088737
 20
1.3938344888
 30
0.0
 10
6.2460074799
 20
1.3939423281
 30
0.0
 10
6.2476893283
 20
1.394049956
 30
0.0
 10
6.2491506466
 20
1.3941572481
 30
0.0
 10
6.2503881017
 20
1.3942641223
 30
0.0
 10
6.2512777126
 20
1.3943572372
 30
0.0
 10
6.2518750074
 20
1.3944337643
 30
0.0
 10
6.2522373305
 20
1.3944874358
 30
0.0
 10
6.2525419807
 20
1.3945408869
 30
0.0
 10
6.2527890847
 20
1.3945939219
 30
0.0
 10
6.2529784437
 20
1.3946464554
 30
0.0
 10
6.2530839662
 20
1.3946869322
 30
0.0
 10
6.2531254016
 20
1.3947091889
 30
0.0
  0
SPLINE
  5
354
100
AcDbEntity
  8
0
100
AcDbSpline
 62
7
  6
CONTINUOUS
 70
0
 71
3
 72
30
 73
26
 74
0
 42
0.0000001
 43
0.0000001
 44
0.0000000001
 40
0.0
 40
0.0
 40
0.0
 40
0.0
 40
0.190005729
 40
0.2828456847
 40
0.373107332
 40
0.4599665552
 40
0.542629987
 40
0.6203434816
 40
0.6923980159
 40
0.7581365588
 40
0.8169606083
 40
0.8683351553
 40
0.8910804933
 40
0.9117944547
 40
0.9304305957
 40
0.9469471705
 40
0.9613080688
 40
0.973482362
 40
0.9834460393
 40
0.9875934824
 40
0.9911828105
 40
0.9942143363
 40
0.9966898186
 40
0.9986140294
 40
1.0
 40
1.0
 40
1.0
 40
1.0
 10
6.1510824636
 20
1.3769518132
 30
0.0
 10
6.1575217899
 20
1.3770958913
 30
0.0
 10
6.1671074803
 20
1.3773102909
 30
0.0
 10
6.1797519753
 20
1.3776009824
 30
0.0
 10
6.1889007283
 20
1.3778172516
 30
0.0
 10
6.1977044139
 20
1.3780334176
 30
0.0
 10
6.206082604
 20
1.3782494482
 30
0.0
 10
6.2139587646
 20
1.3784652932
 30
0.0
 10
6.2212609714
 20
1.3786808916
 30
0.0
 10
6.2279225629
 20
1.3788961224
 30
0.0
 10
6.2338827416
 20
1.3791108917
 30
0.0
 10
6.2383855959
 20
1.3792959067
 30
0.0
 10
6.2415968288
 20
1.379446205
 30
0.0
 10
6.2436990174
 20
1.3795541929
 30
0.0
 10
6.2455897637
 20
1.3796620157
 30
0.0
 10
6.2472647712
 20
1.3797696378
 30
0.0
 10
6.2487202536
 20
1.3798769121
 30
0.0
 10
6.2499529244
 20
1.3799837839
 30
0.0
 10
6.2508391911
 20
1.3800768817
 30
0.0
 10
6.2514343382
 20
1.3801533962
 30
0.0
 10
6.2517954426
 20
1.3802070678
 30
0.0
 10
6.2520991507
 20
1.3802605135
 30
0.0
 10
6.2523455798
 20
1.3803135441
 30
0.0
 10
6.2525345217
 20
1.380366078
 30
0.0
 10
6.2526398368
 20
1.3804065529
 30
0.0
 10
6.2526812263
 20
1.3804287851
 30
0.0
  0
SPLINE
  5
355
100
AcDbEntity
  8
0
100
AcDbSpline
 62
7
  6
CONTINUOUS
 70
0
 71
3
 72
34
 73
30
 74
0
 42
0.0000001
 43
0.0000001
 44
0.0000000001
 40
0.0
 40
0.0
 40
0.0
 40
0.0
 40
0.000622115
 40
0.0010900006
 40
0.0016872809
 40
0.0024218712
 40
0.0032978427
 40
0.005481873
 40
0.0082493891
 40
0.0116040637
 40
0.0155469143
 40
0.020076988
 40
0.0308916098
 40
0.0440285438
 40
0.0594585353
 40
0.07714699
 40
0.0970520422
 40
0.1191272197
 40
0.1433196284
 40
0.1695719252
 40
0.2279992339
 40
0.2938493922
 40
0.3664903955
 40
0.44522392
 40
0.5292929001
 40
0.6178887154
 40
0.7101581985
 40
0.8052134181
 40
1.0
 40
1.0
 40
1.0
 40
1.0
 10
6.2550963188
 20
1.4554018132
 30
0.0
 10
6.255095648
 20
1.4553802254
 30
0.0
 10
6.2550684352
 20
1.4553464063
 30
0.0
 10
6.2550202201
 20
1.4553151547
 30
0.0
 10
6.2549636674
 20
1.4552873668
 30
0.0
 10
6.2548921344
 20
1.4552600485
 30
0.0
 10
6.2547664226
 20
1.4552202723
 30
0.0
 10
6.2545696933
 20
1.4551724464
 30
0.0
 10
6.2542864953
 20
1.4551177689
 30
0.0
 10
6.2539413571
 20
1.4550628577
 30
0.0
 10
6.2535344319
 20
1.4550076945
 30
0.0
 10
6.2528694026
 20
1.4549292673
 30
0.0
 10
6.2518851384
 20
1.454833686
 30
0.0
 10
6.2505223008
 20
1.4547238848
 30
0.0
 10
6.2489201937
 20
1.4546136777
 30
0.0
 10
6.247082665
 20
1.4545031463
 30
0.0
 10
6.2450140775
 20
1.4543924075
 30
0.0
 10
6.2427194097
 20
1.4542815223
 30
0.0
 10
6.2402041551
 20
1.4541705172
 30
0.0
 10
6.2364275278
 20
1.4540168664
 30
0.0
 10
6.2312049534
 20
1.453827259
 30
0.0
 10
6.2243720253
 20
1.4536064484
 30
0.0
 10
6.2168337998
 20
1.4533852515
 30
0.0
 10
6.2086628265
 20
1.4531637485
 30
0.0
 10
6.1999377611
 20
1.4529420352
 30
0.0
 10
6.1907426246
 20
1.452720165
 30
0.0
 10
6.1811659721
 20
1.4524981779
 30
0.0
 10
6.1679034465
 20
1.4521996634
 30
0.0
 10
6.1578433167
 20
1.4519796975
 30
0.0
 10
6.1510824636
 20
1.4518318132
 30
0.0
  0
SPLINE
  5
356
100
AcDbEntity
  8
0
100
AcDbSpline
 62
7
  6
CONTINUOUS
 70
0
 71
3
 72
52
 73
48
 74
0
 42
0.0000001
 43
0.0000001
 44
0.0000000001
 40
0.0
 40
0.0
 40
0.0
 40
0.0
 40
0.0006650662
 40
0.0015960554
 40
0.0028014288
 40
0.0042843128
 40
0.0060459074
 40
0.0080865523
 40
0.0130031037
 40
0.0190262052
 40
0.026144497
 40
0.0343423769
 40
0.0436022709
 40
0.0539030755
 40
0.0652220156
 40
0.0908085529
 40
0.1201292539
 40
0.1529168857
 40
0.1888723543
 40
0.2276672502
 40
0.2689472715
 40
0.3123355788
 40
0.3574358094
 40
0.4038360717
 40
0.4988346794
 40
0.5938706129
 40
0.6403178272
 40
0.6854835733
 40
0.7289562207
 40
0.7703395068
 40
0.8092562463
 40
0.8453521932
 40
0.8782988985
 40
0.9077967533
 40
0.9335781671
 40
0.9450008835
 40
0.9554100411
 40
0.9647820075
 40
0.9730962342
 40
0.9803343183
 40
0.9864811453
 40
0.9915244212
 40
0.9954562695
 40
0.9970047688
 40
0.998275727
 40
0.9992719217
 40
1.0
 40
1.0
 40
1.0
 40
1.0
 10
6.0556585496
 20
1.4826014163
 30
0.0
 10
6.0556945833
 20
1.4826237597
 30
0.0
 10
6.0557886671
 20
1.4826644333
 30
0.0
 10
6.0559593227
 20
1.4827169723
 30
0.0
 10
6.0561840687
 20
1.4827700364
 30
0.0
 10
6.0564626861
 20
1.4828235181
 30
0.0
 10
6.0567953564
 20
1.4828772378
 30
0.0
 10
6.0573459026
 20
1.4829539089
 30
0.0
 10
6.0581682615
 20
1.4830471156
 30
0.0
 10
6.0593145317
 20
1.4831540761
 30
0.0
 10
6.0606707292
 20
1.4832614314
 30
0.0
 10
6.0622337925
 20
1.4833691457
 30
0.0
 10
6.064000155
 20
1.4834770502
 30
0.0
 10
6.0659658079
 20
1.4835851228
 30
0.0
 10
6.0689715089
 20
1.4837355678
 30
0.0
 10
6.0731894778
 20
1.4839207191
 30
0.0
 10
6.0787760118
 20
1.4841355795
 30
0.0
 10
6.0850239955
 20
1.4843508787
 30
0.0
 10
6.0918762801
 20
1.4845665208
 30
0.0
 10
6.0992702038
 20
1.4847823829
 30
0.0
 10
6.1071381629
 20
1.4849984032
 30
0.0
 10
6.1154082344
 20
1.4852145308
 30
0.0
 10
6.1240048316
 20
1.4854307343
 30
0.0
 10
6.1358908104
 20
1.4857213304
 30
0.0
 10
6.1509595405
 20
1.4860795922
 30
0.0
 10
6.1660312673
 20
1.4864377413
 30
0.0
 10
6.1779268023
 20
1.4867281791
 30
0.0
 10
6.1865359527
 20
1.4869442811
 30
0.0
 10
6.1948221697
 20
1.4871602788
 30
0.0
 10
6.2027098681
 20
1.4873761415
 30
0.0
 10
6.2101271135
 20
1.4875918195
 30
0.0
 10
6.2170062822
 20
1.4878072525
 30
0.0
 10
6.2232846819
 20
1.4880223209
 30
0.0
 10
6.2289051082
 20
1.4882369332
 30
0.0
 10
6.2331534513
 20
1.4884217818
 30
0.0
 10
6.2361851458
 20
1.4885719281
 30
0.0
 10
6.2381715071
 20
1.4886798302
 30
0.0
 10
6.2399593859
 20
1.4887875822
 30
0.0
 10
6.2415447158
 20
1.4888951127
 30
0.0
 10
6.2429239192
 20
1.4890023663
 30
0.0
 10
6.2440939487
 20
1.4891090639
 30
0.0
 10
6.2450521668
 20
1.4892151864
 30
0.0
 10
6.2457168448
 20
1.4893080992
 30
0.0
 10
6.2461402484
 20
1.4893856396
 30
0.0
 10
6.2463777897
 20
1.4894387236
 30
0.0
 10
6.246561359
 20
1.4894913262
 30
0.0
 10
6.2466641953
 20
1.4895316932
 30
0.0
 10
6.2467050869
 20
1.4895536547
 30
0.0
  0
SPLINE
  5
357
100
AcDbEntity
  8
0
100
AcDbSpline
 62
7
  6
CONTINUOUS
 70
0
 71
3
 72
43
 73
39
 74
0
 42
0.0000001
 43
0.0000001
 44
0.0000000001
 40
0.0
 40
0.0
 40
0.0
 40
0.0
 40
0.0161374983
 40
0.0359246653
 40
0.0592087153
 40
0.0858102863
 40
0.1481163824
 40
0.2209124791
 40
0.3019416484
 40
0.3886917203
 40
0.47847331
 40
0.5685042689
 40
0.6559954985
 40
0.6979366434
 40
0.7382377696
 40
0.7765866393
 40
0.8126860103
 40
0.8462562664
 40
0.8770377293
 40
0.904792333
 40
0.9293057553
 40
0.940287077
 40
0.9503893785
 40
0.9595935291
 40
0.9678817322
 40
0.9752387671
 40
0.9816506317
 40
0.9871063439
 40
0.9915965767
 40
0.9934778692
 40
0.9951161235
 40
0.9965113602
 40
0.9976643503
 40
0.9985773792
 40
0.99925564
 40
0.9995107724
 40
0.9997143132
 40
1.0
 40
1.0
 40
1.0
 40
1.0
 10
6.0551036211
 20
1.3633118132
 30
0.0
 10
6.0561634114
 20
1.3633873964
 30
0.0
 10
6.0585243375
 20
1.3635321468
 30
0.0
 10
6.0624176655
 20
1.3637288391
 30
0.0
 10
6.0670006513
 20
1.3639264685
 30
0.0
 10
6.0743820188
 20
1.3642057637
 30
0.0
 10
6.0850231649
 20
1.364544807
 30
0.0
 10
6.0992477321
 20
1.3649365643
 30
0.0
 10
6.1150821868
 20
1.3653297126
 30
0.0
 10
6.1320352424
 20
1.3657238269
 30
0.0
 10
6.149581115
 20
1.3661182903
 30
0.0
 10
6.1671757959
 20
1.3665127667
 30
0.0
 10
6.1816212839
 20
1.3668456508
 30
0.0
 10
6.1927931724
 20
1.3671152951
 30
0.0
 10
6.2007303126
 20
1.3673145969
 30
0.0
 10
6.2082827109
 20
1.3675137828
 30
0.0
 10
6.2153917951
 20
1.3677128215
 30
0.0
 10
6.2220024439
 20
1.3679116661
 30
0.0
 10
6.2280634211
 20
1.3681102315
 30
0.0
 10
6.2335277628
 20
1.3683084486
 30
0.0
 10
6.2376885974
 20
1.3684787977
 30
0.0
 10
6.2406875077
 20
1.3686168325
 30
0.0
 10
6.2426791512
 20
1.368716451
 30
0.0
 10
6.2444932462
 20
1.3688159606
 30
0.0
 10
6.2461263047
 20
1.3689153426
 30
0.0
 10
6.2475751543
 20
1.3690145363
 30
0.0
 10
6.2488370506
 20
1.3691134444
 30
0.0
 10
6.2499095519
 20
1.3692119914
 30
0.0
 10
6.2506836017
 20
1.3692977779
 30
0.0
 10
6.2512062661
 20
1.3693681661
 30
0.0
 10
6.2515260743
 20
1.3694176606
 30
0.0
 10
6.2517972943
 20
1.3694670028
 30
0.0
 10
6.252019949
 20
1.3695159576
 30
0.0
 10
6.2521940355
 20
1.3695647513
 30
0.0
 10
6.2523081475
 20
1.3696074413
 30
0.0
 10
6.2523739149
 20
1.3696441767
 30
0.0
 10
6.2524127504
 20
1.3696730811
 30
0.0
 10
6.2524330889
 20
1.3697030127
 30
0.0
 10
6.2524336672
 20
1.3697218132
 30
0.0
  0
SPLINE
  5
358
100
AcDbEntity
  8
0
100
AcDbSpline
 62
7
  6
CONTINUOUS
 70
0
 71
3
 72
34
 73
30
 74
0
 42
0.0000001
 43
0.0000001
 44
0.0000000001
 40
0.0
 40
0.0
 40
0.0
 40
0.0
 40
0.0006323219
 40
0.0011036826
 40
0.001703717
 40
0.0024405668
 40
0.0033184461
 40
0.0055055548
 40
0.0082754986
 40
0.0116321544
 40
0.0155766611
 40
0.0201081401
 40
0.030924984
 40
0.0440635539
 40
0.0594947317
 40
0.077184006
 40
0.0970895308
 40
0.1191648742
 40
0.1433571836
 40
0.1696091588
 40
0.2280352349
 40
0.2938833267
 40
0.3665215991
 40
0.4452518854
 40
0.5293170578
 40
0.6179086345
 40
0.7101735427
 40
0.805223875
 40
1.0
 40
1.0
 40
1.0
 40
1.0
 10
5.0528774315
 20
1.3840018132
 30
0.0
 10
5.0528767642
 20
1.3839803382
 30
0.0
 10
5.0528503416
 20
1.3839465826
 30
0.0
 10
5.0528029495
 20
1.3839151778
 30
0.0
 10
5.0527475884
 20
1.3838873925
 30
0.0
 10
5.0526775451
 20
1.3838600599
 30
0.0
 10
5.0525545194
 20
1.3838202928
 30
0.0
 10
5.0523619593
 20
1.3837724605
 30
0.0
 10
5.0520847551
 20
1.3837177796
 30
0.0
 10
5.0517469386
 20
1.3836628654
 30
0.0
 10
5.0513486598
 20
1.3836077014
 30
0.0
 10
5.0506977989
 20
1.3835292766
 30
0.0
 10
5.0497344958
 20
1.3834336956
 30
0.0
 10
5.048400676
 20
1.3833238937
 30
0.0
 10
5.0468326991
 20
1.3832136863
 30
0.0
 10
5.0450343305
 20
1.3831031551
 30
0.0
 10
5.0430098394
 20
1.3829924165
 30
0.0
 10
5.040764098
 20
1.3828815317
 30
0.0
 10
5.0383024811
 20
1.3827705269
 30
0.0
 10
5.0346064098
 20
1.3826168769
 30
0.0
 10
5.0294952406
 20
1.38242727
 30
0.0
 10
5.0228080733
 20
1.3822064593
 30
0.0
 10
5.0154306716
 20
1.3819852621
 30
0.0
 10
5.0074340356
 20
1.3817637585
 30
0.0
 10
4.9988951419
 20
1.3815420443
 30
0.0
 10
4.9898962194
 20
1.381320173
 30
0.0
 10
4.9805239317
 20
1.3810981844
 30
0.0
 10
4.9675444506
 20
1.3807996678
 30
0.0
 10
4.9576990226
 20
1.3805796994
 30
0.0
 10
4.9510824636
 20
1.3804318132
 30
0.0
  0
SPLINE
  5
359
100
AcDbEntity
  8
0
100
AcDbSpline
 62
7
  6
CONTINUOUS
 70
0
 71
3
 72
26
 73
22
 74
0
 42
0.0000001
 43
0.0000001
 44
0.0000000001
 40
0.0
 40
0.0
 40
0.0
 40
0.0
 40
0.2019664995
 40
0.3897063855
 40
0.4768024429
 40
0.5586674054
 40
0.6348038575
 40
0.7047501607
 40
0.7680827262
 40
0.824418345
 40
0.873416956
 40
0.9147846455
 40
0.9325285308
 40
0.9482769025
 40
0.9620079409
 40
0.9737025343
 40
0.9833481748
 40
0.9909370209
 40
0.9964740715
 40
0.9984832515
 40
1.0
 40
1.0
 40
1.0
 40
1.0
 10
6.1791918334
 20
1.3633118132
 30
0.0
 10
6.1841141228
 20
1.3634269211
 30
0.0
 10
6.1936118632
 20
1.3636537881
 30
0.0
 10
6.2052317742
 20
1.3639516362
 30
0.0
 10
6.2139242502
 20
1.3641930391
 30
0.0
 10
6.2198967524
 20
1.3643694248
 30
0.0
 10
6.2254509805
 20
1.3645456525
 30
0.0
 10
6.2305531795
 20
1.3647216757
 30
0.0
 10
6.2351723607
 20
1.3648974261
 30
0.0
 10
6.2392804818
 20
1.3650727481
 30
0.0
 10
6.2428526014
 20
1.3652475436
 30
0.0
 10
6.2454838647
 20
1.3653990661
 30
0.0
 10
6.2473046517
 20
1.3655228421
 30
0.0
 10
6.2484525398
 20
1.3656107121
 30
0.0
 10
6.2494525053
 20
1.3656983097
 30
0.0
 10
6.2503030355
 20
1.3657856239
 30
0.0
 10
6.2510030965
 20
1.3658721697
 30
0.0
 10
6.2515515
 20
1.3659581451
 30
0.0
 10
6.2519133134
 20
1.366033478
 30
0.0
 10
6.2521246776
 20
1.3660980729
 30
0.0
 10
6.2522045048
 20
1.3661308803
 30
0.0
 10
6.2522370788
 20
1.3661483777
 30
0.0
  0
SPLINE
  5
35A
100
AcDbEntity
  8
0
100
AcDbSpline
 62
7
  6
CONTINUOUS
 70
0
 71
3
 72
34
 73
30
 74
0
 42
0.0000001
 43
0.0000001
 44
0.0000000001
 40
0.0
 40
0.0
 40
0.0
 40
0.0
 40
0.0006202293
 40
0.0010875557
 40
0.0016843491
 40
0.0032931206
 40
0.0054764361
 40
0.0067869036
 40
0.0082438975
 40
0.0115983144
 40
0.0155405801
 40
0.0200703249
 40
0.0308848175
 40
0.0440211602
 40
0.0594511421
 40
0.0771393184
 40
0.0970444574
 40
0.119119547
 40
0.1433119726
 40
0.1695643116
 40
0.2279920003
 40
0.2938426207
 40
0.366484073
 40
0.4452183508
 40
0.5292880737
 40
0.6178846657
 40
0.7101550897
 40
0.8052114021
 40
1.0
 40
1.0
 40
1.0
 40
1.0
 10
6.2555401191
 20
1.4696818132
 30
0.0
 10
6.2555394492
 20
1.4696601992
 30
0.0
 10
6.2555120527
 20
1.4696263756
 30
0.0
 10
6.2554636653
 20
1.4695951373
 30
0.0
 10
6.2553792414
 20
1.4695539797
 30
0.0
 10
6.2552336007
 20
1.469506664
 30
0.0
 10
6.2550606566
 20
1.4694643339
 30
0.0
 10
6.2548916083
 20
1.4694294546
 30
0.0
 10
6.254681716
 20
1.4693906116
 30
0.0
 10
6.2543802323
 20
1.4693428626
 30
0.0
 10
6.2539715877
 20
1.4692876895
 30
0.0
 10
6.253303725
 20
1.4692092645
 30
0.0
 10
6.2523152703
 20
1.4691136874
 30
0.0
 10
6.2509466217
 20
1.4690038798
 30
0.0
 10
6.2493376952
 20
1.4688936783
 30
0.0
 10
6.247492326
 20
1.4687831428
 30
0.0
 10
6.2454149201
 20
1.4686724063
 30
0.0
 10
6.2431104641
 20
1.4685615196
 30
0.0
 10
6.240584486
 20
1.4684505152
 30
0.0
 10
6.2367917453
 20
1.468296864
 30
0.0
 10
6.2315468861
 20
1.4681072567
 30
0.0
 10
6.224684805
 20
1.467886446
 30
0.0
 10
6.2171144147
 20
1.4676652493
 30
0.0
 10
6.2089085762
 20
1.4674437465
 30
0.0
 10
6.2001462778
 20
1.4672220333
 30
0.0
 10
6.1909119025
 20
1.4670001634
 30
0.0
 10
6.1812943763
 20
1.4667781766
 30
0.0
 10
6.1679752418
 20
1.4664796625
 30
0.0
 10
6.1578721718
 20
1.466259697
 30
0.0
 10
6.1510824636
 20
1.4661118132
 30
0.0
  0
SPLINE
  5
35B
100
AcDbEntity
  8
0
100
AcDbSpline
 62
7
  6
CONTINUOUS
 70
0
 71
3
 72
52
 73
48
 74
0
 42
0.0000001
 43
0.0000001
 44
0.0000000001
 40
0.0
 40
0.0
 40
0.0
 40
0.0
 40
0.000665108
 40
0.0015960536
 40
0.0028013785
 40
0.0042843068
 40
0.0060459512
 40
0.008086561
 40
0.0130030901
 40
0.0190262273
 40
0.0261444751
 40
0.0343424106
 40
0.0436022491
 40
0.0539031166
 40
0.0652219856
 40
0.0908085189
 40
0.1201292273
 40
0.1529168531
 40
0.1888723247
 40
0.2276672358
 40
0.2689472547
 40
0.3123355715
 40
0.3574358219
 40
0.4038360837
 40
0.4988347184
 40
0.593870651
 40
0.6403178695
 40
0.6854836047
 40
0.7289562444
 40
0.770339524
 40
0.8092562503
 40
0.8453521855
 40
0.8782988837
 40
0.907796731
 40
0.9335781372
 40
0.9450010083
 40
0.955410011
 40
0.9647821387
 40
0.9730962066
 40
0.9803344454
 40
0.9864811178
 40
0.9915245521
 40
0.9954562513
 40
0.997004749
 40
0.9982758454
 40
0.9992720247
 40
1.0
 40
1.0
 40
1.0
 40
1.0
 10
4.8556585503
 20
1.4826014163
 30
0.0
 10
4.8556945876
 20
1.4826237589
 30
0.0
 10
4.8557886719
 20
1.48266443
 30
0.0
 10
4.8559593228
 20
1.4827169731
 30
0.0
 10
4.8561840655
 20
1.4827700384
 30
0.0
 10
4.8564626864
 20
1.4828235179
 30
0.0
 10
4.8567953606
 20
1.4828772364
 30
0.0
 10
4.8573459059
 20
1.4829539101
 30
0.0
 10
4.8581682635
 20
1.483047116
 30
0.0
 10
4.8593145317
 20
1.4831540752
 30
0.0
 10
4.8606707321
 20
1.4832614325
 30
0.0
 10
4.8622337927
 20
1.4833691446
 30
0.0
 10
4.864000159
 20
1.4834770514
 30
0.0
 10
4.8659658078
 20
1.4835851219
 30
0.0
 10
4.8689715077
 20
1.4837355689
 30
0.0
 10
4.8731894722
 20
1.4839207189
 30
0.0
 10
4.8787760056
 20
1.4841355797
 30
0.0
 10
4.8850239893
 20
1.4843508787
 30
0.0
 10
4.8918762744
 20
1.4845665208
 30
0.0
 10
4.8992701987
 20
1.4847823829
 30
0.0
 10
4.9071381588
 20
1.4849984032
 30
0.0
 10
4.9154082316
 20
1.4852145308
 30
0.0
 10
4.9240048302
 20
1.4854307344
 30
0.0
 10
4.9358908113
 20
1.4857213304
 30
0.0
 10
4.9509595423
 20
1.4860795922
 30
0.0
 10
4.9660312702
 20
1.4864377413
 30
0.0
 10
4.9779268041
 20
1.4867281792
 30
0.0
 10
4.9865359531
 20
1.4869442811
 30
0.0
 10
4.9948221681
 20
1.4871602788
 30
0.0
 10
5.0027098643
 20
1.4873761416
 30
0.0
 10
5.0101271074
 20
1.4875918196
 30
0.0
 10
5.0170062736
 20
1.4878072524
 30
0.0
 10
5.0232846713
 20
1.4880223212
 30
0.0
 10
5.0289050959
 20
1.4882369324
 30
0.0
 10
5.0331534475
 20
1.4884217843
 30
0.0
 10
5.0361851416
 20
1.4885719257
 30
0.0
 10
5.0381715128
 20
1.4886798332
 30
0.0
 10
5.0399593822
 20
1.4887875788
 30
0.0
 10
5.0415447215
 20
1.4888951167
 30
0.0
 10
5.0429239154
 20
1.4890023617
 30
0.0
 10
5.0440939541
 20
1.489109069
 30
0.0
 10
5.0450521638
 20
1.4892151816
 30
0.0
 10
5.0457168418
 20
1.4893080994
 30
0.0
 10
5.0461402437
 20
1.4893856438
 30
0.0
 10
5.0463777945
 20
1.4894387203
 30
0.0
 10
5.0465613657
 20
1.4894913223
 30
0.0
 10
5.0466641926
 20
1.4895316931
 30
0.0
 10
5.0467050766
 20
1.4895536548
 30
0.0
  0
SPLINE
  5
35C
100
AcDbEntity
  8
0
100
AcDbSpline
 62
7
  6
CONTINUOUS
 70
0
 71
3
 72
52
 73
48
 74
0
 42
0.0000001
 43
0.0000001
 44
0.0000000001
 40
0.0
 40
0.0
 40
0.0
 40
0.0
 40
0.0006628168
 40
0.0015915641
 40
0.0027946577
 40
0.0042755328
 40
0.0060353536
 40
0.0080742132
 40
0.012987244
 40
0.0190075508
 40
0.0261230108
 40
0.034318801
 40
0.0435765508
 40
0.053875931
 40
0.0651933739
 40
0.0907782888
 40
0.1200986263
 40
0.1528870325
 40
0.1888443633
 40
0.2276421232
 40
0.2689258392
 40
0.3123185743
 40
0.3574238468
 40
0.4038295661
 40
0.4988397828
 40
0.5938871297
 40
0.6403395937
 40
0.6855100606
 40
0.7289867314
 40
0.7703732506
 40
0.8092922858
 40
0.8453894472
 40
0.878336233
 40
0.907832934
 40
0.9336118638
 40
0.9450330139
 40
0.9554399131
 40
0.9648095962
 40
0.9731208859
 40
0.9803559377
 40
0.9864991275
 40
0.9915386142
 40
0.9954661039
 40
0.9970122259
 40
0.9982809178
 40
0.9992746824
 40
1.0
 40
1.0
 40
1.0
 40
1.0
 10
4.8552144351
 20
1.4968810054
 30
0.0
 10
4.8552505164
 20
1.4969033719
 30
0.0
 10
4.8553448061
 20
1.4969440494
 30
0.0
 10
4.8555158716
 20
1.4969965884
 30
0.0
 10
4.8557412879
 20
1.4970496604
 30
0.0
 10
4.85602085
 20
1.4971031427
 30
0.0
 10
4.856354743
 20
1.497156863
 30
0.0
 10
4.8569074338
 20
1.4972335476
 30
0.0
 10
4.8577331333
 20
1.4973267727
 30
0.0
 10
4.8588841809
 20
1.4974337326
 30
0.0
 10
4.8602462142
 20
1.4975411094
 30
0.0
 10
4.8618161122
 20
1.4976488263
 30
0.0
 10
4.8635903384
 20
1.4977567512
 30
0.0
 10
4.8655648161
 20
1.4978648294
 30
0.0
 10
4.8685842086
 20
1.4980153011
 30
0.0
 10
4.8728215663
 20
1.4982004714
 30
0.0
 10
4.8784339868
 20
1.498415358
 30
0.0
 10
4.8847111464
 20
1.4986306821
 30
0.0
 10
4.8915956155
 20
1.4988463499
 30
0.0
 10
4.8990244224
 20
1.499062238
 30
0.0
 10
4.9069296272
 20
1.4992782844
 30
0.0
 10
4.915238949
 20
1.4994944382
 30
0.0
 10
4.9238764238
 20
1.4997106682
 30
0.0
 10
4.9358190137
 20
1.5000013003
 30
0.0
 10
4.9509595406
 20
1.5003596055
 30
0.0
 10
4.9661030648
 20
1.5007177985
 30
0.0
 10
4.9780552089
 20
1.5010082731
 30
0.0
 10
4.9867052352
 20
1.5012244019
 30
0.0
 10
4.9950307013
 20
1.5014404264
 30
0.0
 10
5.0029556451
 20
1.501656316
 30
0.0
 10
5.0104077742
 20
1.5018720208
 30
0.0
 10
5.0173191295
 20
1.5020874803
 30
0.0
 10
5.0236267094
 20
1.5023025754
 30
0.0
 10
5.0292730289
 20
1.5025172124
 30
0.0
 10
5.0335407906
 20
1.5027020892
 30
0.0
 10
5.0365861842
 20
1.5028522517
 30
0.0
 10
5.0385813985
 20
1.5029601727
 30
0.0
 10
5.0403771246
 20
1.5030679317
 30
0.0
 10
5.0419693145
 20
1.5031754811
 30
0.0
 10
5.0433543397
 20
1.5032827402
 30
0.0
 10
5.04452917
 20
1.5033894544
 30
0.0
 10
5.0454911289
 20
1.5034955819
 30
0.0
 10
5.0461582697
 20
1.5035885015
 30
0.0
 10
5.0465831125
 20
1.503666068
 30
0.0
 10
5.0468213478
 20
1.5037191488
 30
0.0
 10
5.0470053433
 20
1.5037717414
 30
0.0
 10
5.0471083698
 20
1.5038121251
 30
0.0
 10
5.0471492925
 20
1.5038341103
 30
0.0
  0
SPLINE
  5
35D
100
AcDbEntity
  8
0
100
AcDbSpline
 62
7
  6
CONTINUOUS
 70
0
 71
3
 72
52
 73
48
 74
0
 42
0.0000001
 43
0.0000001
 44
0.0000000001
 40
0.0
 40
0.0
 40
0.0
 40
0.0
 40
0.0006604707
 40
0.0015870556
 40
0.0027880625
 40
0.0042668528
 40
0.0060247798
 40
0.00806191
 40
0.0129715718
 40
0.0189889695
 40
0.026101786
 40
0.0342953296
 40
0.0435511334
 40
0.053848915
 40
0.0651650804
 40
0.0907483938
 40
0.1200683524
 40
0.1528575312
 40
0.1888166921
 40
0.2276172549
 40
0.2689046292
 40
0.3123017307
 40
0.3574119668
 40
0.403823094
 40
0.4988447863
 40
0.5939034587
 40
0.640361126
 40
0.6855362883
 40
0.7290169649
 40
0.7704066992
 40
0.8093280252
 40
0.8454264101
 40
0.8783732827
 40
0.9078688448
 40
0.9336453233
 40
0.9450646802
 40
0.9554695766
 40
0.9648367677
 40
0.9731453664
 40
0.9803772125
 40
0.9865169955
 40
0.9915525406
 40
0.9954758788
 40
0.9970196862
 40
0.9982859527
 40
0.9992772514
 40
1.0
 40
1.0
 40
1.0
 40
1.0
 10
4.8547703266
 20
1.5111605982
 30
0.0
 10
4.8548064451
 20
1.5111829904
 30
0.0
 10
4.8549009359
 20
1.5112236756
 30
0.0
 10
4.8550724205
 20
1.5112762098
 30
0.0
 10
4.855298518
 20
1.5113292808
 30
0.0
 10
4.8555790191
 20
1.5113827712
 30
0.0
 10
4.855914122
 20
1.5114364943
 30
0.0
 10
4.8564689592
 20
1.511513189
 30
0.0
 10
4.8572980007
 20
1.5116064297
 30
0.0
 10
4.8584538341
 20
1.5117133961
 30
0.0
 10
4.8598216938
 20
1.5118207862
 30
0.0
 10
4.8613984363
 20
1.5119285136
 30
0.0
 10
4.8631805149
 20
1.5120364514
 30
0.0
 10
4.8651638296
 20
1.5121445417
 30
0.0
 10
4.8681969154
 20
1.5122950336
 30
0.0
 10
4.8724536742
 20
1.5124802269
 30
0.0
 10
4.8780919808
 20
1.5126951381
 30
0.0
 10
4.8843983146
 20
1.5129104873
 30
0.0
 10
4.8913149653
 20
1.5131261806
 30
0.0
 10
4.898778652
 20
1.5133420943
 30
0.0
 10
4.9067210991
 20
1.5135581666
 30
0.0
 10
4.9150696677
 20
1.5137743465
 30
0.0
 10
4.9237480169
 20
1.5139906026
 30
0.0
 10
4.9357472146
 20
1.5142812705
 30
0.0
 10
4.9509595381
 20
1.5146396187
 30
0.0
 10
4.9661748595
 20
1.5149978551
 30
0.0
 10
4.9781836152
 20
1.5152883662
 30
0.0
 10
4.9868745203
 20
1.5155045215
 30
0.0
 10
4.9952392387
 20
1.5157205727
 30
0.0
 10
5.003201431
 20
1.5159364889
 30
0.0
 10
5.010688447
 20
1.5161522201
 30
0.0
 10
5.0176319918
 20
1.516367706
 30
0.0
 10
5.023968754
 20
1.5165828271
 30
0.0
 10
5.029640968
 20
1.5167974903
 30
0.0
 10
5.0339281341
 20
1.51698239
 30
0.0
 10
5.0369872265
 20
1.5171325761
 30
0.0
 10
5.038991279
 20
1.5172405077
 30
0.0
 10
5.0407948661
 20
1.5173482827
 30
0.0
 10
5.0423939031
 20
1.5174558409
 30
0.0
 10
5.0437847629
 20
1.5175631165
 30
0.0
 10
5.0449643826
 20
1.5176698353
 30
0.0
 10
5.0459300925
 20
1.5177759788
 30
0.0
 10
5.0465996976
 20
1.5178689013
 30
0.0
 10
5.0470259826
 20
1.5179464871
 30
0.0
 10
5.0472648979
 20
1.5179995708
 30
0.0
 10
5.0474493115
 20
1.5180521621
 30
0.0
 10
5.0475525388
 20
1.5180925532
 30
0.0
 10
5.047593505
 20
1.5181145616
 30
0.0
  0
SPLINE
  5
35E
100
AcDbEntity
  8
0
100
AcDbSpline
 62
7
  6
CONTINUOUS
 70
0
 71
3
 72
34
 73
30
 74
0
 42
0.0000001
 43
0.0000001
 44
0.0000000001
 40
0.0
 40
0.0
 40
0.0
 40
0.0
 40
0.0006181668
 40
0.0010847161
 40
0.0016809394
 40
0.0032891371
 40
0.0054719905
 40
0.0067821051
 40
0.0082387278
 40
0.0115926446
 40
0.0155348623
 40
0.0200643999
 40
0.030878175
 40
0.0440144896
 40
0.0594440398
 40
0.0771322006
 40
0.097037086
 40
0.1191122086
 40
0.143304663
 40
0.1695570961
 40
0.227984923
 40
0.2938359098
 40
0.3664779921
 40
0.4452127985
 40
0.5292833007
 40
0.6178807996
 40
0.7101520832
 40
0.805209257
 40
1.0
 40
1.0
 40
1.0
 40
1.0
 10
6.2559838737
 20
1.4839618132
 30
0.0
 10
6.2559832014
 20
1.4839401799
 30
0.0
 10
6.255955671
 20
1.4839063425
 30
0.0
 10
6.2559071287
 20
1.4838751303
 30
0.0
 10
6.2558223374
 20
1.4838339637
 30
0.0
 10
6.2556760746
 20
1.4837866645
 30
0.0
 10
6.2555024034
 20
1.4837443343
 30
0.0
 10
6.2553326512
 20
1.4837094539
 30
0.0
 10
6.255121883
 20
1.4836706085
 30
0.0
 10
6.2548191229
 20
1.4836228581
 30
0.0
 10
6.254408741
 20
1.4835676907
 30
0.0
 10
6.2537380437
 20
1.4834892645
 30
0.0
 10
6.2527453956
 20
1.483393682
 30
0.0
 10
6.2513709505
 20
1.4832838814
 30
0.0
 10
6.2497551909
 20
1.4831736743
 30
0.0
 10
6.2479019976
 20
1.4830631428
 30
0.0
 10
6.2458157713
 20
1.4829524039
 30
0.0
 10
6.2435015333
 20
1.4828415187
 30
0.0
 10
6.2409648242
 20
1.4827305134
 30
0.0
 10
6.2371559746
 20
1.4825768622
 30
0.0
 10
6.2318888383
 20
1.4823872547
 30
0.0
 10
6.2249976063
 20
1.4821664441
 30
0.0
 10
6.2173950525
 20
1.4819452475
 30
0.0
 10
6.2091543449
 20
1.4817237447
 30
0.0
 10
6.2003548111
 20
1.4815020317
 30
0.0
 10
6.1910811893
 20
1.4812801619
 30
0.0
 10
6.1814227908
 20
1.4810581754
 30
0.0
 10
6.1680470468
 20
1.4807596618
 30
0.0
 10
6.157901035
 20
1.4805396967
 30
0.0
 10
6.1510824636
 20
1.4803918132
 30
0.0
  0
SPLINE
  5
35F
100
AcDbEntity
  8
0
100
AcDbSpline
 62
7
  6
CONTINUOUS
 70
0
 71
3
 72
35
 73
31
 74
0
 42
0.0000001
 43
0.0000001
 44
0.0000000001
 40
0.0
 40
0.0
 40
0.0
 40
0.0
 40
0.0002758693
 40
0.0006206843
 40
0.0010756441
 40
0.0016590621
 40
0.0023794853
 40
0.003241264
 40
0.0053972954
 40
0.0081376941
 40
0.0114662989
 40
0.0153842092
 40
0.0198905058
 40
0.030661083
 40
0.0437586626
 40
0.0591539261
 40
0.076812189
 40
0.0966914449
 40
0.1187450991
 40
0.142920133
 40
0.1691590795
 40
0.227571208
 40
0.2934205313
 40
0.3660740826
 40
0.4448327055
 40
0.5289385482
 40
0.6175825612
 40
0.7099113789
 40
0.8050371232
 40
1.0
 40
1.0
 40
1.0
 40
1.0
 10
4.8469548672
 20
1.4590618132
 30
0.0
 10
4.8469545694
 20
1.4590713969
 30
0.0
 10
4.8469608909
 20
1.4590932457
 30
0.0
 10
4.8469863861
 20
1.4591214586
 30
0.0
 10
4.8470260733
 20
1.4591489379
 30
0.0
 10
4.8470808874
 20
1.4591763161
 30
0.0
 10
4.8471510208
 20
1.4592038052
 30
0.0
 10
4.8472747744
 20
1.4592435862
 30
0.0
 10
4.8474692821
 20
1.4592914997
 30
0.0
 10
4.847749923
 20
1.4593461861
 30
0.0
 10
4.8480927126
 20
1.4594011366
 30
0.0
 10
4.8484974778
 20
1.459456335
 30
0.0
 10
4.8491600149
 20
1.4595348513
 30
0.0
 10
4.8501416557
 20
1.4596305063
 30
0.0
 10
4.8515019233
 20
1.4597403685
 30
0.0
 10
4.853102217
 20
1.459850634
 30
0.0
 10
4.8549386725
 20
1.4599612207
 30
0.0
 10
4.857006909
 20
1.4600720097
 30
0.0
 10
4.8593019286
 20
1.4601829389
 30
0.0
 10
4.861818218
 20
1.4602939819
 30
0.0
 10
4.8655975307
 20
1.4604476891
 30
0.0
 10
4.8708250052
 20
1.460637337
 30
0.0
 10
4.8776655595
 20
1.4608581544
 30
0.0
 10
4.8852136106
 20
1.4610793308
 30
0.0
 10
4.893396437
 20
1.4613007858
 30
0.0
 10
4.9021352225
 20
1.4615224229
 30
0.0
 10
4.911345802
 20
1.4617441882
 30
0.0
 10
4.9209395001
 20
1.4619660418
 30
0.0
 10
4.9342277023
 20
1.4622643544
 30
0.0
 10
4.9443078169
 20
1.4624841043
 30
0.0
 10
4.9510824636
 20
1.4626318132
 30
0.0
  0
SPLINE
  5
360
100
AcDbEntity
  8
0
100
AcDbSpline
 62
7
  6
CONTINUOUS
 70
0
 71
3
 72
34
 73
30
 74
0
 42
0.0000001
 43
0.0000001
 44
0.0000000001
 40
0.0
 40
0.0
 40
0.0
 40
0.0
 40
0.0006162203
 40
0.0010821124
 40
0.0016778164
 40
0.003285235
 40
0.00546751
 40
0.0067773835
 40
0.0082337899
 40
0.0115873338
 40
0.0155292397
 40
0.0200585128
 40
0.0308718691
 40
0.0440078759
 40
0.0594372046
 40
0.0771252155
 40
0.0970300134
 40
0.1191051042
 40
0.1432975768
 40
0.1695500742
 40
0.227978154
 40
0.2938295248
 40
0.3664721222
 40
0.4452075711
 40
0.5292787711
 40
0.6178770562
 40
0.7101492198
 40
0.805207299
 40
1.0
 40
1.0
 40
1.0
 40
1.0
 10
6.2564276511
 20
1.4982418132
 30
0.0
 10
6.2564269782
 20
1.498220157
 30
0.0
 10
6.2563992886
 20
1.4981863082
 30
0.0
 10
6.2563505829
 20
1.4981551259
 30
0.0
 10
6.2562654242
 20
1.4981139526
 30
0.0
 10
6.2561185543
 20
1.498066661
 30
0.0
 10
6.2559441629
 20
1.498024332
 30
0.0
 10
6.2557737014
 20
1.4979894529
 30
0.0
 10
6.2555620435
 20
1.497950607
 30
0.0
 10
6.2552580064
 20
1.4979028566
 30
0.0
 10
6.2548458952
 20
1.4978476894
 30
0.0
 10
6.2541723643
 20
1.4977692627
 30
0.0
 10
6.253175524
 20
1.4976736801
 30
0.0
 10
6.2517952752
 20
1.4975638797
 30
0.0
 10
6.2501726893
 20
1.4974536726
 30
0.0
 10
6.2483116637
 20
1.4973431411
 30
0.0
 10
6.2462166179
 20
1.4972324021
 30
0.0
 10
6.2438925945
 20
1.4971215168
 30
0.0
 10
6.2413451579
 20
1.4970105114
 30
0.0
 10
6.2375201963
 20
1.4968568601
 30
0.0
 10
6.2322307783
 20
1.4966672525
 30
0.0
 10
6.2253103937
 20
1.496446442
 30
0.0
 10
6.2176756742
 20
1.4962252453
 30
0.0
 10
6.2094000989
 20
1.4960037426
 30
0.0
 10
6.2005633309
 20
1.4957820298
 30
0.0
 10
6.191250467
 20
1.4955601603
 30
0.0
 10
6.1815511961
 20
1.4953381741
 30
0.0
 10
6.168118844
 20
1.4950396609
 30
0.0
 10
6.1579298931
 20
1.4948196964
 30
0.0
 10
6.1510824636
 20
1.4946718132
 30
0.0
  0
SPLINE
  5
361
100
AcDbEntity
  8
0
100
AcDbSpline
 62
7
  6
CONTINUOUS
 70
0
 71
3
 72
34
 73
30
 74
0
 42
0.0000001
 43
0.0000001
 44
0.0000000001
 40
0.0
 40
0.0
 40
0.0
 40
0.0
 40
0.0006241175
 40
0.0010926824
 40
0.0016905005
 40
0.0024255316
 40
0.0033018748
 40
0.0054865044
 40
0.008254493
 40
0.0116095543
 40
0.0155527284
 40
0.0200830764
 40
0.0308981325
 40
0.0440353852
 40
0.059465605
 40
0.0771542125
 40
0.0970593549
 40
0.1191345666
 40
0.1433269579
 40
0.1695791877
 40
0.2280062299
 40
0.2938559936
 40
0.3664964662
 40
0.4452293221
 40
0.5292975833
 40
0.6178925875
 40
0.7101611593
 40
0.805215443
 40
1.0
 40
1.0
 40
1.0
 40
1.0
 10
5.0546525413
 20
1.4411218132
 30
0.0
 10
5.0546518712
 20
1.4411002481
 30
0.0
 10
5.054624817
 20
1.4410664412
 30
0.0
 10
5.0545767659
 20
1.4410351592
 30
0.0
 10
5.0545204516
 20
1.4410073719
 30
0.0
 10
5.0544492166
 20
1.4409800507
 30
0.0
 10
5.0543240421
 20
1.4409402763
 30
0.0
 10
5.0541281467
 20
1.4408924492
 30
0.0
 10
5.0538461476
 20
1.4408377711
 30
0.0
 10
5.0535024737
 20
1.4407828593
 30
0.0
 10
5.0530972779
 20
1.4407276959
 30
0.0
 10
5.0524350822
 20
1.4406492692
 30
0.0
 10
5.0514550102
 20
1.4405536879
 30
0.0
 10
5.0500979763
 20
1.4404438865
 30
0.0
 10
5.0485026956
 20
1.4403336794
 30
0.0
 10
5.0466729994
 20
1.4402231481
 30
0.0
 10
5.0446132314
 20
1.4401124093
 30
0.0
 10
5.0423283488
 20
1.4400015243
 30
0.0
 10
5.0398238218
 20
1.4398905191
 30
0.0
 10
5.0360633067
 20
1.4397368685
 30
0.0
 10
5.030863014
 20
1.4395472612
 30
0.0
 10
5.0240592385
 20
1.4393264506
 30
0.0
 10
5.0165531786
 20
1.4391052537
 30
0.0
 10
5.008417073
 20
1.4388837506
 30
0.0
 10
4.9997292417
 20
1.4386620371
 30
0.0
 10
4.9905733471
 20
1.4384401666
 30
0.0
 10
4.9810375668
 20
1.4382181793
 30
0.0
 10
4.9678316494
 20
1.4379196643
 30
0.0
 10
4.9578144585
 20
1.4376996979
 30
0.0
 10
4.9510824636
 20
1.4375518132
 30
0.0
  0
SPLINE
  5
362
100
AcDbEntity
  8
0
100
AcDbSpline
 62
7
  6
CONTINUOUS
 70
0
 71
3
 72
33
 73
29
 74
0
 42
0.0000001
 43
0.0000001
 44
0.0000000001
 40
0.0
 40
0.0
 40
0.0
 40
0.0
 40
0.0006313289
 40
0.0010824668
 40
0.0016517374
 40
0.0031771679
 40
0.0052440454
 40
0.0078642333
 40
0.0110427865
 40
0.0147819535
 40
0.0190821251
 40
0.0293611249
 40
0.0418679984
 40
0.0565831116
 40
0.0734811055
 40
0.0925325648
 40
0.1137024309
 40
0.1369530005
 40
0.1622407559
 40
0.2187399281
 40
0.2827838411
 40
0.3538994581
 40
0.4315609069
 40
0.5151941224
 40
0.604180218
 40
0.6978614619
 40
0.7955430426
 40
1.0
 40
1.0
 40
1.0
 40
1.0
 10
6.0451797563
 20
1.5161818132
 30
0.0
 10
6.045179196
 20
1.5161998276
 30
0.0
 10
6.0451977102
 20
1.516229647
 30
0.0
 10
6.0452348222
 20
1.5162577912
 30
0.0
 10
6.0452984706
 20
1.5162938569
 30
0.0
 10
6.0454100419
 20
1.5163355324
 30
0.0
 10
6.0455809668
 20
1.5163832245
 30
0.0
 10
6.0458004544
 20
1.5164310543
 30
0.0
 10
6.0460684684
 20
1.5164792955
 30
0.0
 10
6.0463850694
 20
1.5165276814
 30
0.0
 10
6.0469034908
 20
1.516596531
 30
0.0
 10
6.0476722675
 20
1.5166804126
 30
0.0
 10
6.0487385291
 20
1.51677675
 30
0.0
 10
6.0499943758
 20
1.5168734289
 30
0.0
 10
6.0514375036
 20
1.5169703988
 30
0.0
 10
6.053065256
 20
1.5170675354
 30
0.0
 10
6.05487464
 20
1.5171648055
 30
0.0
 10
6.0568622848
 20
1.5172621663
 30
0.0
 10
6.0598578512
 20
1.5173971182
 30
0.0
 10
6.064017707
 20
1.517563631
 30
0.0
 10
6.0694857409
 20
1.517757323
 30
0.0
 10
6.0755582416
 20
1.517951334
 30
0.0
 10
6.0821902254
 20
1.5181455978
 30
0.0
 10
6.0893325704
 20
1.5183400299
 30
0.0
 10
6.0969324014
 20
1.5185345855
 30
0.0
 10
6.1049334052
 20
1.5187292316
 30
0.0
 10
6.1162301496
 20
1.518992857
 30
0.0
 10
6.1248534444
 20
1.5191842981
 30
0.0
 10
6.1306888655
 20
1.5193118132
 30
0.0
  0
SPLINE
  5
363
100
AcDbEntity
  8
0
100
AcDbSpline
 62
7
  6
CONTINUOUS
 70
0
 71
3
 72
35
 73
31
 74
0
 42
0.0000001
 43
0.0000001
 44
0.0000000001
 40
0.0
 40
0.0
 40
0.0
 40
0.0
 40
0.0002747777
 40
0.0006187367
 40
0.0010730618
 40
0.0016559966
 40
0.0023760373
 40
0.0032375028
 40
0.005393051
 40
0.0081330921
 40
0.0114614274
 40
0.0153791315
 40
0.0198852651
 40
0.0306555937
 40
0.043752988
 40
0.0591481579
 40
0.0768064136
 40
0.0966857163
 40
0.1187394409
 40
0.1429145411
 40
0.1691535596
 40
0.2275660426
 40
0.2934157746
 40
0.3660697262
 40
0.4448289433
 40
0.5289353469
 40
0.6175799389
 40
0.709909461
 40
0.8050358361
 40
1.0
 40
1.0
 40
1.0
 40
1.0
 10
4.8465110887
 20
1.4733418132
 30
0.0
 10
4.8465107908
 20
1.4733513995
 30
0.0
 10
4.8465171552
 20
1.4733732702
 30
0.0
 10
4.8465427679
 20
1.4734014709
 30
0.0
 10
4.8465826222
 20
1.4734289449
 30
0.0
 10
4.8466376701
 20
1.4734563192
 30
0.0
 10
4.8467081031
 20
1.4734838068
 30
0.0
 10
4.8468323932
 20
1.4735235886
 30
0.0
 10
4.8470277351
 20
1.4735715011
 30
0.0
 10
4.8473095746
 20
1.4736261866
 30
0.0
 10
4.847653829
 20
1.4736811366
 30
0.0
 10
4.8480603242
 20
1.4737363347
 30
0.0
 10
4.8487256955
 20
1.4738148511
 30
0.0
 10
4.8497115273
 20
1.4739105058
 30
0.0
 10
4.8510775966
 20
1.4740203676
 30
0.0
 10
4.8526847155
 20
1.4741306325
 30
0.0
 10
4.8545290043
 20
1.4742412192
 30
0.0
 10
4.8566060623
 20
1.4743520082
 30
0.0
 10
4.8589108676
 20
1.4744629373
 30
0.0
 10
4.8614378824
 20
1.47457398
 30
0.0
 10
4.8652333053
 20
1.4747276872
 30
0.0
 10
4.8704830611
 20
1.4749173349
 30
0.0
 10
4.8773527668
 20
1.4751381523
 30
0.0
 10
4.8849329827
 20
1.4753593288
 30
0.0
 10
4.8931506757
 20
1.4755807838
 30
0.0
 10
4.901926696
 20
1.4758024211
 30
0.0
 10
4.9111765187
 20
1.4760241866
 30
0.0
 10
4.9208110902
 20
1.4762460405
 30
0.0
 10
4.9341559033
 20
1.4765443536
 30
0.0
 10
4.9442789579
 20
1.4767641039
 30
0.0
 10
4.9510824636
 20
1.4769118132
 30
0.0
  0
SPLINE
  5
364
100
AcDbEntity
  8
0
100
AcDbSpline
 62
7
  6
CONTINUOUS
 70
0
 71
3
 72
35
 73
31
 74
0
 42
0.0000001
 43
0.0000001
 44
0.0000000001
 40
0.0
 40
0.0
 40
0.0
 40
0.0
 40
0.0002826215
 40
0.0006327635
 40
0.0010916947
 40
0.0016781502
 40
0.0024009804
 40
0.0032647245
 40
0.0054237784
 40
0.00816642
 40
0.0114967518
 40
0.0154160208
 40
0.0199233987
 40
0.0306955168
 40
0.0437940429
 40
0.0591898152
 40
0.0768482441
 40
0.0967273837
 40
0.1187806824
 40
0.1429551538
 40
0.1691933559
 40
0.2276035216
 40
0.2934503422
 40
0.3661009442
 40
0.4448562526
 40
0.5289584818
 40
0.6175986571
 40
0.7099234871
 40
0.8050451652
 40
1.0
 40
1.0
 40
1.0
 40
1.0
 10
6.0496175319
 20
1.3733818132
 30
0.0
 10
6.0496172346
 20
1.373391381
 30
0.0
 10
6.0496233019
 20
1.3734130986
 30
0.0
 10
6.0496480908
 20
1.3734413813
 30
0.0
 10
6.0496867756
 20
1.3734688939
 30
0.0
 10
6.0497401872
 20
1.3734962948
 30
0.0
 10
6.0498085237
 20
1.3735237931
 30
0.0
 10
6.0499290575
 20
1.3735635692
 30
0.0
 10
6.0501185593
 20
1.3736114893
 30
0.0
 10
6.0503920091
 20
1.3736661818
 30
0.0
 10
6.0507260126
 20
1.3737211365
 30
0.0
 10
6.0511204025
 20
1.373776337
 30
0.0
 10
6.0517659375
 20
1.3738548528
 30
0.0
 10
6.0527224251
 20
1.3739505095
 30
0.0
 10
6.0540478712
 20
1.3740603742
 30
0.0
 10
6.0556072072
 20
1.3741706413
 30
0.0
 10
6.0573966689
 20
1.3742812293
 30
0.0
 10
6.0594119889
 20
1.3743920193
 30
0.0
 10
6.0616482975
 20
1.3745029493
 30
0.0
 10
6.0641002226
 20
1.3746139929
 30
0.0
 10
6.0677828664
 20
1.3747677005
 30
0.0
 10
6.0728766535
 20
1.3749573489
 30
0.0
 10
6.0795422947
 20
1.3751781666
 30
0.0
 10
6.0868973579
 20
1.375399343
 30
0.0
 10
6.0948709803
 20
1.3756207975
 30
0.0
 10
6.1033863607
 20
1.3758424336
 30
0.0
 10
6.1123614858
 20
1.3760641976
 30
0.0
 10
6.1217099475
 20
1.3762860494
 30
0.0
 10
6.1346584967
 20
1.3765843594
 30
0.0
 10
6.1444809696
 20
1.3768041066
 30
0.0
 10
6.1510824636
 20
1.3769518132
 30
0.0
  0
SPLINE
  5
365
100
AcDbEntity
  8
0
100
AcDbSpline
 62
7
  6
CONTINUOUS
 70
0
 71
3
 72
30
 73
26
 74
0
 42
0.0000001
 43
0.0000001
 44
0.0000000001
 40
0.0
 40
0.0
 40
0.0
 40
0.0
 40
0.190804839
 40
0.2840046011
 40
0.3745886434
 40
0.4617243869
 40
0.5446106596
 40
0.6224858187
 40
0.6946337805
 40
0.760391427
 40
0.8191547936
 40
0.8703843282
 40
0.8930243409
 40
0.9136110892
 40
0.9320971481
 40
0.9484414012
 40
0.9626068396
 40
0.9745634688
 40
0.9842865541
 40
0.9883056223
 40
0.9917611998
 40
0.9946534979
 40
0.9969849705
 40
0.99876173
 40
1.0
 40
1.0
 40
1.0
 40
1.0
 10
4.9510824636
 20
1.4946718132
 30
0.0
 10
4.9443958482
 20
1.4945274031
 30
0.0
 10
4.9344431147
 20
1.494312479
 30
0.0
 10
4.921316106
 20
1.4940209531
 30
0.0
 10
4.9118221919
 20
1.4938040604
 30
0.0
 10
4.9026898863
 20
1.4935872449
 30
0.0
 10
4.8940031861
 20
1.49337054
 30
0.0
 10
4.885842012
 20
1.4931539971
 30
0.0
 10
4.8782814575
 20
1.4929376793
 30
0.0
 10
4.8713911023
 20
1.4927217125
 30
0.0
 10
4.8652343732
 20
1.4925061927
 30
0.0
 10
4.8605889446
 20
1.4923204431
 30
0.0
 10
4.8572814562
 20
1.4921694727
 30
0.0
 10
4.8551209803
 20
1.4920610745
 30
0.0
 10
4.8531814817
 20
1.4919528359
 30
0.0
 10
4.851467445
 20
1.4918448117
 30
0.0
 10
4.8499827606
 20
1.4917371434
 30
0.0
 10
4.8487308527
 20
1.4916299101
 30
0.0
 10
4.847834801
 20
1.4915364007
 30
0.0
 10
4.8472368918
 20
1.4914594099
 30
0.0
 10
4.8468774646
 20
1.4914055658
 30
0.0
 10
4.8465779829
 20
1.491351972
 30
0.0
 10
4.8463381754
 20
1.4912988739
 30
0.0
 10
4.8461583845
 20
1.4912463598
 30
0.0
 10
4.8460599553
 20
1.4912054868
 30
0.0
 10
4.8460230664
 20
1.4911826144
 30
0.0
  0
SPLINE
  5
366
100
AcDbEntity
  8
0
100
AcDbSpline
 62
7
  6
CONTINUOUS
 70
0
 71
3
 72
35
 73
31
 74
0
 42
0.0000001
 43
0.0000001
 44
0.0000000001
 40
0.0
 40
0.0
 40
0.0
 40
0.0
 40
0.0002814706
 40
0.000630701
 40
0.0010889504
 40
0.0016748833
 40
0.0023972983
 40
0.0032607019
 40
0.00541923
 40
0.0081614811
 40
0.0114915153
 40
0.0154105507
 40
0.0199177418
 40
0.0306895958
 40
0.043787957
 40
0.0591836309
 40
0.076842009
 40
0.0967211622
 40
0.1187745293
 40
0.1429491066
 40
0.1691874307
 40
0.2275978762
 40
0.2934451507
 40
0.3660962796
 40
0.4448521036
 40
0.528954996
 40
0.6175958651
 40
0.7099213686
 40
0.8050437647
 40
1.0
 40
1.0
 40
1.0
 40
1.0
 10
6.0491737544
 20
1.3876618132
 30
0.0
 10
6.049173457
 20
1.3876713836
 30
0.0
 10
6.0491795664
 20
1.3876931231
 30
0.0
 10
6.0492044731
 20
1.3877213944
 30
0.0
 10
6.0492433252
 20
1.3877489013
 30
0.0
 10
6.0492969704
 20
1.3877762984
 30
0.0
 10
6.0493656063
 20
1.387803795
 30
0.0
 10
6.0494866765
 20
1.387843572
 30
0.0
 10
6.0496770122
 20
1.3878914909
 30
0.0
 10
6.0499516602
 20
1.3879461824
 30
0.0
 10
6.050287128
 20
1.3880011363
 30
0.0
 10
6.0506832471
 20
1.3880563365
 30
0.0
 10
6.051331616
 20
1.3881348524
 30
0.0
 10
6.0522922958
 20
1.3882305089
 30
0.0
 10
6.0536235451
 20
1.3883403731
 30
0.0
 10
6.0551897064
 20
1.3884506399
 30
0.0
 10
6.0569869991
 20
1.3885612277
 30
0.0
 10
6.0590111379
 20
1.3886720174
 30
0.0
 10
6.0612572321
 20
1.3887829474
 30
0.0
 10
6.0637198851
 20
1.3888939909
 30
0.0
 10
6.0674186386
 20
1.3890476984
 30
0.0
 10
6.0725347056
 20
1.3892373466
 30
0.0
 10
6.0792294987
 20
1.3894581643
 30
0.0
 10
6.0866167262
 20
1.3896793407
 30
0.0
 10
6.0946252162
 20
1.3899007953
 30
0.0
 10
6.1031778316
 20
1.3901224316
 30
0.0
 10
6.1121922012
 20
1.3903441959
 30
0.0
 10
6.1215815371
 20
1.3905660481
 30
0.0
 10
6.1345866959
 20
1.3908643585
 30
0.0
 10
6.1444521103
 20
1.3910841062
 30
0.0
 10
6.1510824636
 20
1.3912318132
 30
0.0
  0
SPLINE
  5
367
100
AcDbEntity
  8
0
100
AcDbSpline
 62
7
  6
CONTINUOUS
 70
0
 71
3
 72
30
 73
26
 74
0
 42
0.0000001
 43
0.0000001
 44
0.0000000001
 40
0.0
 40
0.0
 40
0.0
 40
0.0
 40
0.1907868035
 40
0.283978185
 40
0.3745545105
 40
0.4616836273
 40
0.5445644625
 40
0.6224355076
 40
0.6945810982
 40
0.7603380481
 40
0.8191025628
 40
0.8703353825
 40
0.892977761
 40
0.9135673815
 40
0.9320568614
 40
0.948405101
 40
0.9625751028
 40
0.9745368517
 40
0.9842655893
 40
0.9882877033
 40
0.9917464903
 40
0.9946421713
 40
0.9969772117
 40
0.9987577423
 40
1.0
 40
1.0
 40
1.0
 40
1.0
 10
4.9510824636
 20
1.4803918132
 30
0.0
 10
4.9444247064
 20
1.4802474174
 30
0.0
 10
4.9345149121
 20
1.4800325142
 30
0.0
 10
4.9214445141
 20
1.4797410175
 30
0.0
 10
4.9119914756
 20
1.479524146
 30
0.0
 10
4.9028984176
 20
1.4793073517
 30
0.0
 10
4.89424896
 20
1.4790906679
 30
0.0
 10
4.8861226639
 20
1.4788741459
 30
0.0
 10
4.8785942891
 20
1.4786578487
 30
0.0
 10
4.8717331042
 20
1.4784419023
 30
0.0
 10
4.8656022554
 20
1.4782264025
 30
0.0
 10
4.8609762221
 20
1.4780406716
 30
0.0
 10
4.8576824209
 20
1.4778897176
 30
0.0
 10
4.8555307813
 20
1.4777813296
 30
0.0
 10
4.8535991325
 20
1.4776731009
 30
0.0
 10
4.8518919379
 20
1.4775650862
 30
0.0
 10
4.8504130722
 20
1.4774574264
 30
0.0
 10
4.8491659476
 20
1.4773502014
 30
0.0
 10
4.8482732319
 20
1.4772567007
 30
0.0
 10
4.8476774668
 20
1.4771797209
 30
0.0
 10
4.8473192497
 20
1.4771258803
 30
0.0
 10
4.8470207107
 20
1.4770722892
 30
0.0
 10
4.8467815825
 20
1.4770191901
 30
0.0
 10
4.8466022009
 20
1.4769666731
 30
0.0
 10
4.8465039661
 20
1.4769258061
 30
0.0
 10
4.8464671147
 20
1.4769029566
 30
0.0
  0
SPLINE
  5
368
100
AcDbEntity
  8
0
100
AcDbSpline
 62
7
  6
CONTINUOUS
 70
0
 71
3
 72
30
 73
26
 74
0
 42
0.0000001
 43
0.0000001
 44
0.0000000001
 40
0.0
 40
0.0
 40
0.0
 40
0.0
 40
0.1907686117
 40
0.2839514976
 40
0.3745201578
 40
0.4616425274
 40
0.5445178357
 40
0.6223848592
 40
0.6945279283
 40
0.7602841768
 40
0.8190499539
 40
0.8702859318
 40
0.8929307088
 40
0.9135232859
 40
0.9320162546
 40
0.9483685164
 40
0.9625430607
 40
0.9745099234
 40
0.9842443886
 40
0.9882696001
 40
0.9917316437
 40
0.9946307413
 40
0.9969693778
 40
0.998753712
 40
1.0
 40
1.0
 40
1.0
 40
1.0
 10
4.9510824636
 20
1.4661118132
 30
0.0
 10
4.9444535647
 20
1.4659674319
 30
0.0
 10
4.9345867112
 20
1.4657525497
 30
0.0
 10
4.9215729216
 20
1.4654610824
 30
0.0
 10
4.9121607582
 20
1.4652442323
 30
0.0
 10
4.9031069476
 20
1.4650274594
 30
0.0
 10
4.8944947321
 20
1.4648107968
 30
0.0
 10
4.8864033154
 20
1.4645942959
 30
0.0
 10
4.8789071205
 20
1.4643780196
 30
0.0
 10
4.8720751068
 20
1.4641620938
 30
0.0
 10
4.86597014
 20
1.4639466141
 30
0.0
 10
4.8613635035
 20
1.4637609021
 30
0.0
 10
4.8580833924
 20
1.4636099648
 30
0.0
 10
4.8559405855
 20
1.4635015869
 30
0.0
 10
4.8540167829
 20
1.4633933679
 30
0.0
 10
4.8523164312
 20
1.463285363
 30
0.0
 10
4.850843388
 20
1.4631777123
 30
0.0
 10
4.8496010497
 20
1.4630704955
 30
0.0
 10
4.8487116699
 20
1.4629770038
 30
0.0
 10
4.8481180466
 20
1.4629000349
 30
0.0
 10
4.8477610378
 20
1.4628461977
 30
0.0
 10
4.8474634409
 20
1.4627926091
 30
0.0
 10
4.847224992
 20
1.4627395087
 30
0.0
 10
4.8470460195
 20
1.4626869887
 30
0.0
 10
4.8469479788
 20
1.4626461281
 30
0.0
 10
4.8469111644
 20
1.4626233018
 30
0.0
  0
SPLINE
  5
369
100
AcDbEntity
  8
0
100
AcDbSpline
 62
7
  6
CONTINUOUS
 70
0
 71
3
 72
35
 73
31
 74
0
 42
0.0000001
 43
0.0000001
 44
0.0000000001
 40
0.0
 40
0.0
 40
0.0
 40
0.0
 40
0.0002803304
 40
0.0006286593
 40
0.0010862357
 40
0.0016716533
 40
0.0023936606
 40
0.0032567324
 40
0.005414752
 40
0.0081566258
 40
0.0114863656
 40
0.0154051685
 40
0.0199121755
 40
0.030683764
 40
0.0437819649
 40
0.0591775642
 40
0.0768359409
 40
0.0967151205
 40
0.118768537
 40
0.1429431954
 40
0.16918165
 40
0.227592496
 40
0.2934401662
 40
0.3660917699
 40
0.4448482243
 40
0.5289516799
 40
0.6175931598
 40
0.7099193602
 40
0.8050424214
 40
1.0
 40
1.0
 40
1.0
 40
1.0
 10
6.048729977
 20
1.4019418132
 30
0.0
 10
6.0487296795
 20
1.4019513862
 30
0.0
 10
6.0487358311
 20
1.4019731476
 30
0.0
 10
6.0487608557
 20
1.4020014075
 30
0.0
 10
6.0487998749
 20
1.4020289088
 30
0.0
 10
6.0488537539
 20
1.402056302
 30
0.0
 10
6.0489226894
 20
1.4020837972
 30
0.0
 10
6.0490442966
 20
1.402123575
 30
0.0
 10
6.049235467
 20
1.4021714928
 30
0.0
 10
6.0495113138
 20
1.4022261833
 30
0.0
 10
6.049848246
 20
1.4022811366
 30
0.0
 10
6.0502460943
 20
1.4023363363
 30
0.0
 10
6.0508972967
 20
1.4024148523
 30
0.0
 10
6.0518621687
 20
1.4025105084
 30
0.0
 10
6.0531992219
 20
1.4026203723
 30
0.0
 10
6.0547722109
 20
1.4027306389
 30
0.0
 10
6.0565773375
 20
1.4028412264
 30
0.0
 10
6.0586102966
 20
1.4029520161
 30
0.0
 10
6.0608661753
 20
1.4030629458
 30
0.0
 10
6.063339555
 20
1.4031739892
 30
0.0
 10
6.067054422
 20
1.4033276967
 30
0.0
 10
6.0721927718
 20
1.4035173449
 30
0.0
 10
6.0789167174
 20
1.4037381625
 30
0.0
 10
6.0863361101
 20
1.4039593389
 30
0.0
 10
6.0943794672
 20
1.4041807936
 30
0.0
 10
6.102969316
 20
1.40440243
 30
0.0
 10
6.1120229256
 20
1.4046241945
 30
0.0
 10
6.1214531326
 20
1.4048460468
 30
0.0
 10
6.1345148993
 20
1.4051443577
 30
0.0
 10
6.1444232523
 20
1.4053641058
 30
0.0
 10
6.1510824636
 20
1.4055118132
 30
0.0
  0
SPLINE
  5
36A
100
AcDbEntity
  8
0
100
AcDbSpline
 62
7
  6
CONTINUOUS
 70
0
 71
3
 72
30
 73
26
 74
0
 42
0.0000001
 43
0.0000001
 44
0.0000000001
 40
0.0
 40
0.0
 40
0.0
 40
0.0
 40
0.1907502667
 40
0.2839246319
 40
0.3744854427
 40
0.4616010571
 40
0.5444708489
 40
0.6223336895
 40
0.6944743326
 40
0.7602299017
 40
0.8189968374
 40
0.8702361447
 40
0.8928833405
 40
0.9134788492
 40
0.9319752904
 40
0.9483315939
 40
0.9625107746
 40
0.9744828443
 40
0.9842230642
 40
0.9882513769
 40
0.9917166866
 40
0.9946192252
 40
0.9969614899
 40
0.9987496581
 40
1.0
 40
1.0
 40
1.0
 40
1.0
 10
4.9510824636
 20
1.4518318132
 30
0.0
 10
4.9444824231
 20
1.4516874465
 30
0.0
 10
4.9346585088
 20
1.4514725855
 30
0.0
 10
4.9217013301
 20
1.4511811478
 30
0.0
 10
4.9123300429
 20
1.4509643195
 30
0.0
 10
4.9033154802
 20
1.4507475681
 30
0.0
 10
4.8947405074
 20
1.4505309269
 30
0.0
 10
4.8866839688
 20
1.4503144472
 30
0.0
 10
4.8792199533
 20
1.4500981919
 30
0.0
 10
4.8724171099
 20
1.4498822868
 30
0.0
 10
4.8663380234
 20
1.4496668274
 30
0.0
 10
4.8617507827
 20
1.4494811345
 30
0.0
 10
4.8584843586
 20
1.4493302138
 30
0.0
 10
4.8563503878
 20
1.4492218462
 30
0.0
 10
4.8544344354
 20
1.4491136374
 30
0.0
 10
4.8527409269
 20
1.4490056422
 30
0.0
 10
4.8512737034
 20
1.4488980002
 30
0.0
 10
4.8500361486
 20
1.4487907918
 30
0.0
 10
4.8491501046
 20
1.448697309
 30
0.0
 10
4.8485586254
 20
1.4486203512
 30
0.0
 10
4.8482028266
 20
1.4485665175
 30
0.0
 10
4.8479061726
 20
1.4485129318
 30
0.0
 10
4.8476684032
 20
1.4484598304
 30
0.0
 10
4.8474898404
 20
1.4484073074
 30
0.0
 10
4.8473919942
 20
1.4483664532
 30
0.0
 10
4.8473552174
 20
1.4483436499
 30
0.0
  0
SPLINE
  5
36B
100
AcDbEntity
  8
0
100
AcDbSpline
 62
7
  6
CONTINUOUS
 70
0
 71
3
 72
35
 73
31
 74
0
 42
0.0000001
 43
0.0000001
 44
0.0000000001
 40
0.0
 40
0.0
 40
0.0
 40
0.0
 40
0.0002792002
 40
0.0006266369
 40
0.0010835477
 40
0.0016684563
 40
0.0023900601
 40
0.0032528024
 40
0.005410315
 40
0.0081518124
 40
0.0114812629
 40
0.0153998382
 40
0.0199066638
 40
0.0306779942
 40
0.0437760358
 40
0.0591715467
 40
0.0768298889
 40
0.0967090859
 40
0.118762564
 40
0.1429373205
 40
0.1691759004
 40
0.2275870636
 40
0.2934351571
 40
0.3660872602
 40
0.4448442559
 40
0.5289483251
 40
0.6175904551
 40
0.7099173165
 40
0.8050410664
 40
1.0
 40
1.0
 40
1.0
 40
1.0
 10
6.0482861995
 20
1.4162218132
 30
0.0
 10
6.048285902
 20
1.4162313889
 30
0.0
 10
6.0482920958
 20
1.4162531721
 30
0.0
 10
6.0483172382
 20
1.4162814204
 30
0.0
 10
6.0483564245
 20
1.4163089162
 30
0.0
 10
6.0484105373
 20
1.4163363056
 30
0.0
 10
6.0484797723
 20
1.4163637992
 30
0.0
 10
6.0486019161
 20
1.4164035779
 30
0.0
 10
6.0487939209
 20
1.4164514946
 30
0.0
 10
6.0490709662
 20
1.416506184
 30
0.0
 10
6.0494093627
 20
1.4165611366
 30
0.0
 10
6.0498089402
 20
1.416616336
 30
0.0
 10
6.0504629764
 20
1.4166948521
 30
0.0
 10
6.0514320406
 20
1.4167905079
 30
0.0
 10
6.0527748974
 20
1.4169003713
 30
0.0
 10
6.0543547122
 20
1.4170106376
 30
0.0
 10
6.0561676707
 20
1.417121225
 30
0.0
 10
6.058209449
 20
1.4172320144
 30
0.0
 10
6.0604751131
 20
1.417342944
 30
0.0
 10
6.0629592204
 20
1.4174539873
 30
0.0
 10
6.0666901986
 20
1.4176076948
 30
0.0
 10
6.0718508294
 20
1.4177973429
 30
0.0
 10
6.0786039272
 20
1.4180181604
 30
0.0
 10
6.0860554843
 20
1.4182393368
 30
0.0
 10
6.0941337087
 20
1.4184607916
 30
0.0
 10
6.1027607916
 20
1.4186824282
 30
0.0
 10
6.1118536439
 20
1.4189041929
 30
0.0
 10
6.1213247238
 20
1.4191260455
 30
0.0
 10
6.1344430995
 20
1.4194243569
 30
0.0
 10
6.1443943933
 20
1.4196441054
 30
0.0
 10
6.1510824636
 20
1.4197918132
 30
0.0
  0
SPLINE
  5
36C
100
AcDbEntity
  8
0
100
AcDbSpline
 62
7
  6
CONTINUOUS
 70
0
 71
3
 72
30
 73
26
 74
0
 42
0.0000001
 43
0.0000001
 44
0.0000000001
 40
0.0
 40
0.0
 40
0.0
 40
0.0
 40
0.1907317555
 40
0.283897492
 40
0.3744504583
 40
0.4615592272
 40
0.5444234084
 40
0.6222821168
 40
0.6944202488
 40
0.7601751024
 40
0.818943287
 40
0.8701858754
 40
0.8928355041
 40
0.9134339921
 40
0.9319339682
 40
0.9482943656
 40
0.9624781981
 40
0.9744554935
 40
0.9842015281
 40
0.9882329798
 40
0.9917015922
 40
0.9946076043
 40
0.9969535286
 40
0.9987455653
 40
1.0
 40
1.0
 40
1.0
 40
1.0
 10
4.9510824636
 20
1.4375518132
 30
0.0
 10
4.9445112818
 20
1.4374074612
 30
0.0
 10
4.9347303083
 20
1.4371926217
 30
0.0
 10
4.9218297396
 20
1.4369012139
 30
0.0
 10
4.9124993284
 20
1.4366844074
 30
0.0
 10
4.9035240139
 20
1.4364676777
 30
0.0
 10
4.8949862838
 20
1.4362510581
 30
0.0
 10
4.8869646241
 20
1.4360345999
 30
0.0
 10
4.8795327884
 20
1.4358183658
 30
0.0
 10
4.8727591159
 20
1.4356024816
 30
0.0
 10
4.8667059106
 20
1.4353870427
 30
0.0
 10
4.862138066
 20
1.4352013689
 30
0.0
 10
4.8588853312
 20
1.4350504652
 30
0.0
 10
4.8567601948
 20
1.434942108
 30
0.0
 10
4.8548520902
 20
1.4348339092
 30
0.0
 10
4.8531654242
 20
1.4347259238
 30
0.0
 10
4.8517040214
 20
1.4346182909
 30
0.0
 10
4.8504712517
 20
1.4345110908
 30
0.0
 10
4.8495885438
 20
1.4344176171
 30
0.0
 10
4.8489992077
 20
1.4343406705
 30
0.0
 10
4.8486446183
 20
1.4342868403
 30
0.0
 10
4.8483489069
 20
1.4342332573
 30
0.0
 10
4.848111817
 20
1.4341801548
 30
0.0
 10
4.8479336636
 20
1.4341276288
 30
0.0
 10
4.8478360117
 20
1.4340867813
 30
0.0
 10
4.8477992722
 20
1.434064001
 30
0.0
  0
SPLINE
  5
36D
100
AcDbEntity
  8
0
100
AcDbSpline
 62
7
  6
CONTINUOUS
 70
0
 71
3
 72
11
 73
7
 74
0
 42
0.0000001
 43
0.0000001
 44
0.0000000001
 40
0.0
 40
0.0
 40
0.0
 40
0.0
 40
0.2064003757
 40
0.4495675517
 40
0.7182457798
 40
1.0
 40
1.0
 40
1.0
 40
1.0
 10
4.8726434554
 20
1.4321118132
 30
0.0
 10
4.8780386882
 20
1.4322944214
 30
0.0
 10
4.8897919558
 20
1.4326404381
 30
0.0
 10
4.9085713915
 20
1.4331157885
 30
0.0
 10
4.9293222044
 20
1.4335932857
 30
0.0
 10
4.9437150718
 20
1.4339098011
 30
0.0
 10
4.9510824636
 20
1.4340718132
 30
0.0
  0
SPLINE
  5
36E
100
AcDbEntity
  8
0
100
AcDbSpline
 62
7
  6
CONTINUOUS
 70
0
 71
3
 72
22
 73
18
 74
0
 42
0.0000001
 43
0.0000001
 44
0.0000000001
 40
0.0
 40
0.0
 40
0.0
 40
0.0
 40
0.2160352145
 40
0.4082699313
 40
0.5753371154
 40
0.6490667661
 40
0.7160814005
 40
0.776268434
 40
0.8295226112
 40
0.8757582143
 40
0.9148991187
 40
0.9468915816
 40
0.9717042869
 40
0.9814205645
 40
0.9893548115
 40
0.995529868
 40
1.0
 40
1.0
 40
1.0
 40
1.0
 10
4.8728983346
 20
1.4213118132
 30
0.0
 10
4.8711185386
 20
1.4212513773
 30
0.0
 10
4.8677551971
 20
1.4211319513
 30
0.0
 10
4.8630163197
 20
1.4209431873
 30
0.0
 10
4.8594504316
 20
1.4207804103
 30
0.0
 10
4.8569165191
 20
1.420648173
 30
0.0
 10
4.8552629139
 20
1.4205532618
 30
0.0
 10
4.85377839
 20
1.4204584917
 30
0.0
 10
4.8524655239
 20
1.4203639029
 30
0.0
 10
4.8513266417
 20
1.4202695706
 30
0.0
 10
4.8503636406
 20
1.4201757298
 30
0.0
 10
4.849578232
 20
1.4200824064
 30
0.0
 10
4.8490357562
 20
1.4200006628
 30
0.0
 10
4.8486924203
 20
1.4199323224
 30
0.0
 10
4.8485014864
 20
1.4198856472
 30
0.0
 10
4.8483554787
 20
1.4198394265
 30
0.0
 10
4.8482746441
 20
1.4198037724
 30
0.0
 10
4.848243327
 20
1.4197843551
 30
0.0
  0
SPLINE
  5
36F
100
AcDbEntity
  8
0
100
AcDbSpline
 62
7
  6
CONTINUOUS
 70
0
 71
3
 72
11
 73
7
 74
0
 42
0.0000001
 43
0.0000001
 44
0.0000000001
 40
0.0
 40
0.0
 40
0.0
 40
0.0
 40
0.281754296
 40
0.5504325176
 40
0.7935996517
 40
1.0
 40
1.0
 40
1.0
 40
1.0
 10
4.9510824636
 20
1.4232718132
 30
0.0
 10
4.9437390058
 20
1.4231098013
 30
0.0
 10
4.9293928977
 20
1.4227932862
 30
0.0
 10
4.9087095045
 20
1.422315789
 30
0.0
 10
4.8899910929
 20
1.4218404385
 30
0.0
 10
4.8782760264
 20
1.4214944216
 30
0.0
 10
4.8728983346
 20
1.4213118132
 30
0.0
  0
LINE
  5
370
100
AcDbEntity
  8
0
100
AcDbLine
 62
7
  6
CONTINUOUS
 10
4.9306888655
 20
1.5193118132
 11
4.9510824636
 21
1.5197444752
  0
SPLINE
  5
371
100
AcDbEntity
  8
0
100
AcDbSpline
 62
7
  6
CONTINUOUS
 70
0
 71
3
 72
30
 73
26
 74
0
 42
0.0000001
 43
0.0000001
 44
0.0000000001
 40
0.0
 40
0.0
 40
0.0
 40
0.0
 40
0.1906942791
 40
0.283842561
 40
0.3743796138
 40
0.4614745314
 40
0.5443273826
 40
0.6221776748
 40
0.6943107282
 40
0.7600641608
 40
0.8188348292
 40
0.870084069
 40
0.8927386373
 40
0.9133431641
 40
0.9318502818
 40
0.9482189523
 40
0.9624122013
 40
0.9744000846
 40
0.9841578999
 40
0.9881957115
 40
0.9916710165
 40
0.9945840655
 40
0.9969374024
 40
0.9987372747
 40
1.0
 40
1.0
 40
1.0
 40
1.0
 10
4.9510824636
 20
1.4089918132
 30
0.0
 10
4.9445689984
 20
1.4088474909
 30
0.0
 10
4.934873905
 20
1.4086326948
 30
0.0
 10
4.9220865555
 20
1.4083413476
 30
0.0
 10
4.9128378958
 20
1.4081245854
 30
0.0
 10
4.9039410769
 20
1.4079078997
 30
0.0
 10
4.895477832
 20
1.4076913239
 30
0.0
 10
4.8875259305
 20
1.4074749091
 30
0.0
 10
4.8801584549
 20
1.407258718
 30
0.0
 10
4.8734431249
 20
1.4070428761
 30
0.0
 10
4.8674416831
 20
1.4068274787
 30
0.0
 10
4.8629126321
 20
1.4066418439
 30
0.0
 10
4.8596872755
 20
1.4064909744
 30
0.0
 10
4.8575798085
 20
1.4063826381
 30
0.0
 10
4.8556874011
 20
1.4062744598
 30
0.0
 10
4.8540144219
 20
1.4061664942
 30
0.0
 10
4.8525646621
 20
1.4060588796
 30
0.0
 10
4.8513414631
 20
1.4059516966
 30
0.0
 10
4.8504654278
 20
1.4058582412
 30
0.0
 10
4.8498803781
 20
1.4057813173
 30
0.0
 10
4.8495282077
 20
1.4057274942
 30
0.0
 10
4.8492343817
 20
1.4056739167
 30
0.0
 10
4.848998651
 20
1.4056208122
 30
0.0
 10
4.8488213173
 20
1.4055682802
 30
0.0
 10
4.8487240539
 20
1.4055274464
 30
0.0
 10
4.8486873891
 20
1.4055047123
 30
0.0
  0
SPLINE
  5
372
100
AcDbEntity
  8
0
100
AcDbSpline
 62
7
  6
CONTINUOUS
 70
0
 71
3
 72
30
 73
26
 74
0
 42
0.0000001
 43
0.0000001
 44
0.0000000001
 40
0.0
 40
0.0
 40
0.0
 40
0.0
 40
0.1908227435
 40
0.2840308473
 40
0.3746224775
 40
0.4617648565
 40
0.5446565408
 40
0.6225356935
 40
0.6946860972
 40
0.7604444051
 40
0.8192065684
 40
0.8704329389
 40
0.8930705857
 40
0.9136544422
 40
0.9321370884
 40
0.9484773943
 40
0.962638339
 40
0.9745899163
 40
0.9843073755
 40
0.9883234066
 40
0.9917757904
 40
0.994664731
 40
0.9969926668
 40
0.9987656876
 40
1.0
 40
1.0
 40
1.0
 40
1.0
 10
6.1510824636
 20
1.5089518132
 30
0.0
 10
6.1443669894
 20
1.5088073889
 30
0.0
 10
6.1343713149
 20
1.5085924441
 30
0.0
 10
6.1211876961
 20
1.5083008893
 30
0.0
 10
6.1116529055
 20
1.5080839754
 30
0.0
 10
6.1024813515
 20
1.5078671389
 30
0.0
 10
6.0937574089
 20
1.5076504131
 30
0.0
 10
6.0855613562
 20
1.5074338495
 30
0.0
 10
6.077968623
 20
1.5072175111
 30
0.0
 10
6.0710490976
 20
1.5070015242
 30
0.0
 10
6.0648664885
 20
1.5067859846
 30
0.0
 10
6.0602016645
 20
1.5066002164
 30
0.0
 10
6.0568804879
 20
1.5064492297
 30
0.0
 10
6.0547111786
 20
1.5063408216
 30
0.0
 10
6.0527638326
 20
1.5062325732
 30
0.0
 10
6.0510429532
 20
1.5061245395
 30
0.0
 10
6.049552448
 20
1.5060168624
 30
0.0
 10
6.0482957557
 20
1.5059096211
 30
0.0
 10
6.0473963687
 20
1.505816103
 30
0.0
 10
6.0467963172
 20
1.5057391013
 30
0.0
 10
6.0464356811
 20
1.5056852539
 30
0.0
 10
6.0461352572
 20
1.5056316574
 30
0.0
 10
6.0458947704
 20
1.5055785607
 30
0.0
 10
6.0457145706
 20
1.5055260495
 30
0.0
 10
6.0456159469
 20
1.5054851705
 30
0.0
 10
6.0455790207
 20
1.505462275
 30
0.0
  0
SPLINE
  5
373
100
AcDbEntity
  8
0
100
AcDbSpline
 62
7
  6
CONTINUOUS
 70
0
 71
3
 72
30
 73
26
 74
0
 42
0.0000001
 43
0.0000001
 44
0.0000000001
 40
0.0
 40
0.0
 40
0.0
 40
0.0
 40
0.1906752894
 40
0.2838147199
 40
0.3743437242
 40
0.4614316194
 40
0.5442787156
 40
0.6221247662
 40
0.694255244
 40
0.7600079435
 40
0.8187798887
 40
0.8700324941
 40
0.8926895589
 40
0.9132971419
 40
0.9318078846
 40
0.9481807537
 40
0.962378775
 40
0.9743720205
 40
0.9841358027
 40
0.9881768355
 40
0.99165553
 40
0.9945721434
 40
0.9969292356
 40
0.9987330767
 40
1.0
 40
1.0
 40
1.0
 40
1.0
 10
4.9510824636
 20
1.3947118132
 30
0.0
 10
4.944597857
 20
1.394567506
 30
0.0
 10
4.9349457044
 20
1.3943527319
 30
0.0
 10
4.9222149649
 20
1.3940614154
 30
0.0
 10
4.9130071812
 20
1.3938446755
 30
0.0
 10
4.9041496106
 20
1.3936280122
 30
0.0
 10
4.8957236085
 20
1.3934114585
 30
0.0
 10
4.8878065863
 20
1.3931950657
 30
0.0
 10
4.8804712907
 20
1.3929788965
 30
0.0
 10
4.8737851321
 20
1.392763076
 30
0.0
 10
4.8678095721
 20
1.3925476996
 30
0.0
 10
4.8632999178
 20
1.3923620845
 30
0.0
 10
4.8600882509
 20
1.3922112324
 30
0.0
 10
4.8579896188
 20
1.3921029067
 30
0.0
 10
4.8561050597
 20
1.3919947387
 30
0.0
 10
4.8544389235
 20
1.3918867831
 30
0.0
 10
4.8529949849
 20
1.3917791779
 30
0.0
 10
4.8517765715
 20
1.3916720035
 30
0.0
 10
4.8509038726
 20
1.3915785574
 30
0.0
 10
4.8503209664
 20
1.391501645
 30
0.0
 10
4.8499700055
 20
1.3914478254
 30
0.0
 10
4.8496771224
 20
1.3913942508
 30
0.0
 10
4.8494420715
 20
1.3913411453
 30
0.0
 10
4.8492651478
 20
1.3912886102
 30
0.0
 10
4.8491680786
 20
1.3912477836
 30
0.0
 10
4.8491314513
 20
1.3912250726
 30
0.0
  0
SPLINE
  5
374
100
AcDbEntity
  8
0
100
AcDbSpline
 62
7
  6
CONTINUOUS
 70
0
 71
3
 72
26
 73
22
 74
0
 42
0.0000001
 43
0.0000001
 44
0.0000000001
 40
0.0
 40
0.0
 40
0.0
 40
0.0
 40
0.0022328927
 40
0.0038303045
 40
0.0058468362
 40
0.0112517953
 40
0.018575984
 40
0.0278611914
 40
0.0391251947
 40
0.0523756602
 40
0.0676129955
 40
0.1040320123
 40
0.1483379941
 40
0.2004545774
 40
0.260288302
 40
0.3277264298
 40
0.4026407788
 40
0.4848866601
 40
0.5743006453
 40
0.773942501
 40
1.0
 40
1.0
 40
1.0
 40
1.0
 10
6.0478424209
 20
1.4305018132
 30
0.0
 10
6.0478418436
 20
1.4305203509
 30
0.0
 10
6.0478609624
 20
1.4305510338
 30
0.0
 10
6.0478992211
 20
1.4305799621
 30
0.0
 10
6.0479648711
 20
1.4306170601
 30
0.0
 10
6.0480799296
 20
1.4306599189
 30
0.0
 10
6.0482561891
 20
1.4307089721
 30
0.0
 10
6.0484825188
 20
1.4307581653
 30
0.0
 10
6.0487588797
 20
1.4308077823
 30
0.0
 10
6.0490853229
 20
1.4308575465
 30
0.0
 10
6.0496198015
 20
1.4309283577
 30
0.0
 10
6.0504122882
 20
1.4310146289
 30
0.0
 10
6.051511263
 20
1.4311137088
 30
0.0
 10
6.0528053655
 20
1.4312131466
 30
0.0
 10
6.0542920654
 20
1.4313128768
 30
0.0
 10
6.0559684899
 20
1.4314127851
 30
0.0
 10
6.057831359
 20
1.4315128241
 30
0.0
 10
6.0598769954
 20
1.4316129603
 30
0.0
 10
6.0629579616
 20
1.4317517231
 30
0.0
 10
6.0672331618
 20
1.4319229351
 30
0.0
 10
6.0707668652
 20
1.4320482977
 30
0.0
 10
6.0726434554
 20
1.4321118132
 30
0.0
  0
SPLINE
  5
375
100
AcDbEntity
  8
0
100
AcDbSpline
 62
7
  6
CONTINUOUS
 70
0
 71
3
 72
34
 73
30
 74
0
 42
0.0000001
 43
0.0000001
 44
0.0000000001
 40
0.0
 40
0.0
 40
0.0
 40
0.0
 40
0.000622115
 40
0.0010900006
 40
0.0016872809
 40
0.0024218712
 40
0.0032978427
 40
0.005481873
 40
0.0082493891
 40
0.0116040637
 40
0.0155469143
 40
0.020076988
 40
0.0308916098
 40
0.0440285438
 40
0.0594585353
 40
0.07714699
 40
0.0970520422
 40
0.1191272197
 40
0.1433196284
 40
0.1695719252
 40
0.2279992339
 40
0.2938493922
 40
0.3664903955
 40
0.44522392
 40
0.5292929001
 40
0.6178887154
 40
0.7101581985
 40
0.8052134181
 40
1.0
 40
1.0
 40
1.0
 40
1.0
 10
5.0550963188
 20
1.4554018132
 30
0.0
 10
5.055095648
 20
1.4553802254
 30
0.0
 10
5.0550684352
 20
1.4553464063
 30
0.0
 10
5.0550202201
 20
1.4553151547
 30
0.0
 10
5.0549636674
 20
1.4552873668
 30
0.0
 10
5.0548921344
 20
1.4552600485
 30
0.0
 10
5.0547664226
 20
1.4552202723
 30
0.0
 10
5.0545696933
 20
1.4551724464
 30
0.0
 10
5.0542864953
 20
1.4551177689
 30
0.0
 10
5.0539413571
 20
1.4550628577
 30
0.0
 10
5.0535344319
 20
1.4550076945
 30
0.0
 10
5.0528694026
 20
1.4549292673
 30
0.0
 10
5.0518851384
 20
1.454833686
 30
0.0
 10
5.0505223008
 20
1.4547238848
 30
0.0
 10
5.0489201937
 20
1.4546136777
 30
0.0
 10
5.047082665
 20
1.4545031463
 30
0.0
 10
5.0450140775
 20
1.4543924075
 30
0.0
 10
5.0427194097
 20
1.4542815223
 30
0.0
 10
5.0402041551
 20
1.4541705172
 30
0.0
 10
5.0364275278
 20
1.4540168664
 30
0.0
 10
5.0312049534
 20
1.453827259
 30
0.0
 10
5.0243720253
 20
1.4536064484
 30
0.0
 10
5.0168337998
 20
1.4533852515
 30
0.0
 10
5.0086628265
 20
1.4531637485
 30
0.0
 10
4.9999377611
 20
1.4529420352
 30
0.0
 10
4.9907426246
 20
1.452720165
 30
0.0
 10
4.9811659721
 20
1.4524981779
 30
0.0
 10
4.9679034465
 20
1.4521996634
 30
0.0
 10
4.9578433167
 20
1.4519796975
 30
0.0
 10
4.9510824636
 20
1.4518318132
 30
0.0
  0
SPLINE
  5
376
100
AcDbEntity
  8
0
100
AcDbSpline
 62
7
  6
CONTINUOUS
 70
0
 71
3
 72
30
 73
26
 74
0
 42
0.0000001
 43
0.0000001
 44
0.0000000001
 40
0.0
 40
0.0
 40
0.0
 40
0.0
 40
0.1906561623
 40
0.2837866986
 40
0.3743075579
 40
0.4613884043
 40
0.5442297686
 40
0.6220714624
 40
0.6941993492
 40
0.7599513651
 40
0.8187245197
 40
0.8699805133
 40
0.8926401123
 40
0.9132507859
 40
0.9317651596
 40
0.9481422363
 40
0.9623450617
 40
0.9743437193
 40
0.984113522
 40
0.9881578052
 40
0.9916399212
 40
0.9945601282
 40
0.9969210033
 40
0.9987288435
 40
1.0
 40
1.0
 40
1.0
 40
1.0
 10
4.9510824636
 20
1.3804318132
 30
0.0
 10
4.9446267148
 20
1.3802875212
 30
0.0
 10
4.9350175009
 20
1.3800727693
 30
0.0
 10
4.9223433703
 20
1.3797814837
 30
0.0
 10
4.9131764613
 20
1.3795647664
 30
0.0
 10
4.9043581363
 20
1.3793481255
 30
0.0
 10
4.8959693761
 20
1.3791315941
 30
0.0
 10
4.8880872331
 20
1.3789152235
 30
0.0
 10
4.8807841182
 20
1.3786990762
 30
0.0
 10
4.8741271316
 20
1.3784832774
 30
0.0
 10
4.8681774546
 20
1.3782679222
 30
0.0
 10
4.8636871994
 20
1.378082327
 30
0.0
 10
4.8604892217
 20
1.3779314923
 30
0.0
 10
4.8583994246
 20
1.3778231773
 30
0.0
 10
4.8565227155
 20
1.3777150198
 30
0.0
 10
4.8548634245
 20
1.3776070745
 30
0.0
 10
4.8534253086
 20
1.3774994787
 30
0.0
 10
4.8522116809
 20
1.377392313
 30
0.0
 10
4.8513423185
 20
1.3772988762
 30
0.0
 10
4.8507615556
 20
1.3772219753
 30
0.0
 10
4.8504118044
 20
1.3771681594
 30
0.0
 10
4.8501198645
 20
1.3771145877
 30
0.0
 10
4.8498854937
 20
1.3770614813
 30
0.0
 10
4.8497089805
 20
1.3770089432
 30
0.0
 10
4.8496121057
 20
1.3769681238
 30
0.0
 10
4.8495755158
 20
1.376945436
 30
0.0
  0
SPLINE
  5
377
100
AcDbEntity
  8
0
100
AcDbSpline
 62
7
  6
CONTINUOUS
 70
0
 71
3
 72
30
 73
26
 74
0
 42
0.0000001
 43
0.0000001
 44
0.0000000001
 40
0.0
 40
0.0
 40
0.0
 40
0.0
 40
0.1901951288
 40
0.2831227139
 40
0.3734641613
 40
0.4603926612
 40
0.5431126765
 40
0.6208679916
 40
0.6929476118
 40
0.7586929354
 40
0.8175040824
 40
0.8688448464
 40
0.8915650364
 40
0.9122487261
 40
0.9308485908
 40
0.9473236874
 40
0.961636902
 40
0.973758226
 40
0.9836625088
 40
0.9877781903
 40
0.9913342591
 40
0.9943305497
 40
0.9967689987
 40
0.9986545655
 40
1.0
 40
1.0
 40
1.0
 40
1.0
 10
6.1510824636
 20
1.5054718132
 30
0.0
 10
6.1577815195
 20
1.505616032
 30
0.0
 10
6.1677536743
 20
1.5058306379
 30
0.0
 10
6.1809076654
 20
1.5061216212
 30
0.0
 10
6.1904243112
 20
1.5063381039
 30
0.0
 10
6.199581249
 20
1.5065544834
 30
0.0
 10
6.2082946495
 20
1.5067707273
 30
0.0
 10
6.2164847567
 20
1.506986785
 30
0.0
 10
6.2240766271
 20
1.5072025952
 30
0.0
 10
6.2310008124
 20
1.5074180352
 30
0.0
 10
6.2371939879
 20
1.5076330118
 30
0.0
 10
6.2418714629
 20
1.5078182193
 30
0.0
 10
6.2452059485
 20
1.5079686925
 30
0.0
 10
6.247387684
 20
1.5080767822
 30
0.0
 10
6.2493491166
 20
1.5081847131
 30
0.0
 10
6.2510857497
 20
1.5082924301
 30
0.0
 10
6.2525936785
 20
1.5083998052
 30
0.0
 10
6.2538694579
 20
1.508506757
 30
0.0
 10
6.2547857948
 20
1.5085999562
 30
0.0
 10
6.2554002652
 20
1.5086765837
 30
0.0
 10
6.2557722875
 20
1.5087302895
 30
0.0
 10
6.2560845056
 20
1.5087837687
 30
0.0
 10
6.2563370656
 20
1.5088368051
 30
0.0
 10
6.2565297345
 20
1.5088893237
 30
0.0
 10
6.256636803
 20
1.5089298687
 30
0.0
 10
6.2566785606
 20
1.5089522974
 30
0.0
  0
SPLINE
  5
378
100
AcDbEntity
  8
0
100
AcDbSpline
 62
7
  6
CONTINUOUS
 70
0
 71
3
 72
52
 73
48
 74
0
 42
0.0000001
 43
0.0000001
 44
0.0000000001
 40
0.0
 40
0.0
 40
0.0
 40
0.0
 40
0.0006674583
 40
0.0016007381
 40
0.0028082603
 40
0.0042931633
 40
0.0060566788
 40
0.0080991735
 40
0.0130190983
 40
0.0190452158
 40
0.0261661519
 40
0.0343663352
 40
0.0436282029
 40
0.053930649
 40
0.065250913
 40
0.0908390832
 40
0.1201601569
 40
0.1529470353
 40
0.1889006386
 40
0.2276926464
 40
0.268968964
 40
0.3123528257
 40
0.3574479597
 40
0.4038427235
 40
0.498829615
 40
0.593854027
 40
0.6402959168
 40
0.6854568723
 40
0.7289254565
 40
0.7703054563
 40
0.8092198516
 40
0.845314565
 40
0.878261179
 40
0.9077601831
 40
0.9335440986
 40
0.9449685824
 40
0.9553798385
 40
0.9647542686
 40
0.9730713016
 40
0.980312577
 40
0.9864629466
 40
0.9915101576
 40
0.9954463058
 40
0.9969971306
 40
0.9982705269
 40
0.9992692647
 40
1.0
 40
1.0
 40
1.0
 40
1.0
 10
6.056102653
 20
1.4683218311
 30
0.0
 10
6.0561386481
 20
1.4683441514
 30
0.0
 10
6.0562325385
 20
1.4683848156
 30
0.0
 10
6.0564027829
 20
1.4684373555
 30
0.0
 10
6.056626848
 20
1.4684904203
 30
0.0
 10
6.0569045195
 20
1.468543899
 30
0.0
 10
6.0572359784
 20
1.4685976145
 30
0.0
 10
6.0577843799
 20
1.4686742712
 30
0.0
 10
6.0586034011
 20
1.4687674679
 30
0.0
 10
6.0597448822
 20
1.4688744173
 30
0.0
 10
6.0610952542
 20
1.4689817616
 30
0.0
 10
6.0626514702
 20
1.4690894638
 30
0.0
 10
6.0644099816
 20
1.4691973559
 30
0.0
 10
6.066366799
 20
1.4693054161
 30
0.0
 10
6.0693588089
 20
1.4694558404
 30
0.0
 10
6.0735573775
 20
1.4696409684
 30
0.0
 10
6.0791180269
 20
1.4698558036
 30
0.0
 10
6.085336838
 20
1.4700710773
 30
0.0
 10
6.0921569413
 20
1.4702866934
 30
0.0
 10
6.0995159849
 20
1.4705025294
 30
0.0
 10
6.1073467018
 20
1.4707185233
 30
0.0
 10
6.1155775261
 20
1.4709346244
 30
0.0
 10
6.1241332477
 20
1.4711508013
 30
0.0
 10
6.1359626161
 20
1.4714413609
 30
0.0
 10
6.1509595506
 20
1.471799579
 30
0.0
 10
6.1659594789
 20
1.4721576838
 30
0.0
 10
6.1777984021
 20
1.4724480845
 30
0.0
 10
6.1863666734
 20
1.4726641593
 30
0.0
 10
6.1946136386
 20
1.47288013
 30
0.0
 10
6.2024640886
 20
1.4730959657
 30
0.0
 10
6.209846447
 20
1.4733116167
 30
0.0
 10
6.2166934264
 20
1.4735270228
 30
0.0
 10
6.2229426441
 20
1.4737420646
 30
0.0
 10
6.2285371753
 20
1.4739566507
 30
0.0
 10
6.2327661103
 20
1.4741414747
 30
0.0
 10
6.235784106
 20
1.474291599
 30
0.0
 10
6.2377616245
 20
1.4743994879
 30
0.0
 10
6.239541645
 20
1.4745072264
 30
0.0
 10
6.2411201227
 20
1.4746147446
 30
0.0
 10
6.242493495
 20
1.4747219854
 30
0.0
 10
6.2436587303
 20
1.4748286733
 30
0.0
 10
6.2446132002
 20
1.4749347855
 30
0.0
 10
6.2452754118
 20
1.4750276903
 30
0.0
 10
6.2456973731
 20
1.4751052127
 30
0.0
 10
6.2459342319
 20
1.4751582951
 30
0.0
 10
6.246117385
 20
1.4752108992
 30
0.0
 10
6.2462200271
 20
1.4752512551
 30
0.0
 10
6.2462608771
 20
1.475273195
 30
0.0
  0
SPLINE
  5
379
100
AcDbEntity
  8
0
100
AcDbSpline
 62
7
  6
CONTINUOUS
 70
0
 71
3
 72
30
 73
26
 74
0
 42
0.0000001
 43
0.0000001
 44
0.0000000001
 40
0.0
 40
0.0
 40
0.0
 40
0.0
 40
0.1901748207
 40
0.2830930299
 40
0.3734258257
 40
0.4603469347
 40
0.5430609545
 40
0.6208116469
 40
0.6928886222
 40
0.7586332794
 40
0.8174456995
 40
0.8687901469
 40
0.8915130363
 40
0.9121999886
 40
0.9308036896
 40
0.9472832401
 40
0.9616015665
 40
0.9737286364
 40
0.9836392635
 40
0.9877583564
 40
0.9913180114
 40
0.9943180676
 40
0.9967604707
 40
0.9986501956
 40
1.0
 40
1.0
 40
1.0
 40
1.0
 10
4.9510824636
 20
1.4911918132
 30
0.0
 10
4.9577526621
 20
1.4913360169
 30
0.0
 10
4.9676818793
 20
1.4915506008
 30
0.0
 10
4.9807792599
 20
1.4918415527
 30
0.0
 10
4.9902550294
 20
1.4920580125
 30
0.0
 10
4.9993727193
 20
1.4922743692
 30
0.0
 10
5.0080488748
 20
1.4924905901
 30
0.0
 10
5.0162040996
 20
1.4927066251
 30
0.0
 10
5.0237637852
 20
1.4929224125
 30
0.0
 10
5.0306587941
 20
1.49313783
 30
0.0
 10
5.036826082
 20
1.4933527844
 30
0.0
 10
5.0414841535
 20
1.493537971
 30
0.0
 10
5.0448049473
 20
1.4936884259
 30
0.0
 10
5.0469778431
 20
1.4937965043
 30
0.0
 10
5.0489314205
 20
1.4939044238
 30
0.0
 10
5.0506612045
 20
1.49401213
 30
0.0
 10
5.0521633082
 20
1.4941194952
 30
0.0
 10
5.053434299
 20
1.4942264376
 30
0.0
 10
5.0543472962
 20
1.4943196268
 30
0.0
 10
5.0549596194
 20
1.494396242
 30
0.0
 10
5.055330429
 20
1.4944499436
 30
0.0
 10
5.055641701
 20
1.4945034194
 30
0.0
 10
5.055893579
 20
1.4945564556
 30
0.0
 10
5.0560858342
 20
1.494608976
 30
0.0
 10
5.0561927091
 20
1.494649513
 30
0.0
 10
5.0562344263
 20
1.4946719203
 30
0.0
  0
SPLINE
  5
37A
100
AcDbEntity
  8
0
100
AcDbSpline
 62
7
  6
CONTINUOUS
 70
0
 71
3
 72
30
 73
26
 74
0
 42
0.0000001
 43
0.0000001
 44
0.0000000001
 40
0.0
 40
0.0
 40
0.0
 40
0.0
 40
0.1901541849
 40
0.2830630256
 40
0.3733871998
 40
0.4603007512
 40
0.543008559
 40
0.6207548378
 40
0.6928290044
 40
0.7585728736
 40
0.8173868015
 40
0.8687348329
 40
0.8914607225
 40
0.9121506844
 40
0.9307586819
 40
0.9472424214
 40
0.9615662299
 40
0.9736986787
 40
0.9836160758
 40
0.9877383731
 40
0.9913015408
 40
0.9943056591
 40
0.9967521759
 40
0.9986458584
 40
1.0
 40
1.0
 40
1.0
 40
1.0
 10
4.9510824636
 20
1.4769118132
 30
0.0
 10
4.9577237984
 20
1.4770560016
 30
0.0
 10
4.9676100743
 20
1.4772705631
 30
0.0
 10
4.9806508439
 20
1.4775614834
 30
0.0
 10
4.9900857388
 20
1.4777779202
 30
0.0
 10
4.9991641737
 20
1.4779942536
 30
0.0
 10
5.0078030822
 20
1.4782104515
 30
0.0
 10
5.0159234215
 20
1.4784264634
 30
0.0
 10
5.0234509209
 20
1.4786422277
 30
0.0
 10
5.0303167513
 20
1.478857623
 30
0.0
 10
5.0364581501
 20
1.4790725539
 30
0.0
 10
5.0410968301
 20
1.4792577228
 30
0.0
 10
5.0444039272
 20
1.4794081538
 30
0.0
 10
5.0465679975
 20
1.4795162267
 30
0.0
 10
5.0485137143
 20
1.4796241281
 30
0.0
 10
5.0502366642
 20
1.479731832
 30
0.0
 10
5.0517329296
 20
1.4798391768
 30
0.0
 10
5.0529991404
 20
1.4799461217
 30
0.0
 10
5.0539087891
 20
1.4800392884
 30
0.0
 10
5.0545189654
 20
1.4801158973
 30
0.0
 10
5.0548885589
 20
1.4801695982
 30
0.0
 10
5.0551988955
 20
1.4802230666
 30
0.0
 10
5.0554500978
 20
1.4802760978
 30
0.0
 10
5.0556419322
 20
1.4803286254
 30
0.0
 10
5.0557485994
 20
1.4803691584
 30
0.0
 10
5.0557902757
 20
1.48039154
 30
0.0
  0
SPLINE
  5
37B
100
AcDbEntity
  8
0
100
AcDbSpline
 62
7
  6
CONTINUOUS
 70
0
 71
3
 72
35
 73
31
 74
0
 42
0.0000001
 43
0.0000001
 44
0.0000000001
 40
0.0
 40
0.0
 40
0.0
 40
0.0
 40
0.0002769697
 40
0.0006226495
 40
0.0010782521
 40
0.0016621607
 40
0.0023829724
 40
0.0032450683
 40
0.0054015874
 40
0.0081423478
 40
0.0114712303
 40
0.0153893588
 40
0.0198958292
 40
0.030666653
 40
0.0437643846
 40
0.0591597327
 40
0.0768180293
 40
0.0966972679
 40
0.118750861
 40
0.1429257984
 40
0.1691646229
 40
0.2275764474
 40
0.2934253604
 40
0.3660784276
 40
0.4448365298
 40
0.5289417797
 40
0.6175851654
 40
0.7099133471
 40
0.8050384276
 40
1.0
 40
1.0
 40
1.0
 40
1.0
 10
6.0473986446
 20
1.4447818132
 30
0.0
 10
6.0473983469
 20
1.4447913942
 30
0.0
 10
6.0474046258
 20
1.4448132212
 30
0.0
 10
6.0474300034
 20
1.4448414459
 30
0.0
 10
6.0474695237
 20
1.4448689307
 30
0.0
 10
6.047524104
 20
1.4448963126
 30
0.0
 10
6.047593938
 20
1.4449238032
 30
0.0
 10
6.047717155
 20
1.4449635835
 30
0.0
 10
6.0479108284
 20
1.445011498
 30
0.0
 10
6.0481902708
 20
1.4450661854
 30
0.0
 10
6.048531596
 20
1.4451211366
 30
0.0
 10
6.0489346319
 20
1.4451763353
 30
0.0
 10
6.0495943354
 20
1.4452548516
 30
0.0
 10
6.050571784
 20
1.4453505068
 30
0.0
 10
6.0519262481
 20
1.4454603695
 30
0.0
 10
6.0535197159
 20
1.4455706352
 30
0.0
 10
6.0553483396
 20
1.4456812222
 30
0.0
 10
6.057407757
 20
1.4457920113
 30
0.0
 10
6.0596929912
 20
1.4459029407
 30
0.0
 10
6.0621985529
 20
1.4460139837
 30
0.0
 10
6.0659617544
 20
1.446167691
 30
0.0
 10
6.0711669479
 20
1.446357339
 30
0.0
 10
6.0779783501
 20
1.4465781564
 30
0.0
 10
6.0854942367
 20
1.4467993329
 30
0.0
 10
6.0936421957
 20
1.4470207878
 30
0.0
 10
6.102343747
 20
1.4472424247
 30
0.0
 10
6.1115150838
 20
1.4474641898
 30
0.0
 10
6.121067909
 20
1.447686043
 30
0.0
 10
6.1342995021
 20
1.4479843552
 30
0.0
 10
6.144336676
 20
1.4482041047
 30
0.0
 10
6.1510824636
 20
1.4483518132
 30
0.0
  0
SPLINE
  5
37C
100
AcDbEntity
  8
0
100
AcDbSpline
 62
7
  6
CONTINUOUS
 70
0
 71
3
 72
52
 73
48
 74
0
 42
0.0000001
 43
0.0000001
 44
0.0000000001
 40
0.0
 40
0.0
 40
0.0
 40
0.0
 40
0.0006698883
 40
0.0016055322
 40
0.0028152039
 40
0.0043021101
 40
0.0060675726
 40
0.0081119895
 40
0.0130352525
 40
0.0190644563
 40
0.026188006
 40
0.0343905723
 40
0.043654417
 40
0.0539585662
 40
0.0652801235
 40
0.0908698906
 40
0.1201913913
 40
0.1529775419
 40
0.1889291745
 40
0.2277183
 40
0.2689909527
 40
0.3123702191
 40
0.3574602022
 40
0.4038495265
 40
0.4988244357
 40
0.5938372723
 40
0.6402737013
 40
0.6854299475
 40
0.7288943967
 40
0.7702709849
 40
0.809183115
 40
0.8452765926
 40
0.8782230405
 40
0.9077232673
 40
0.9335097393
 40
0.9449359474
 40
0.9553493402
 40
0.9647262059
 40
0.973046147
 40
0.9802905985
 40
0.9864446129
 40
0.9914957312
 40
0.9954362864
 40
0.9969893935
 40
0.9982652143
 40
0.9992665487
 40
1.0
 40
1.0
 40
1.0
 40
1.0
 10
6.0565467538
 20
1.4540422497
 30
0.0
 10
6.0565827106
 20
1.4540645483
 30
0.0
 10
6.0566764131
 20
1.4541052022
 30
0.0
 10
6.0568462499
 20
1.4541577404
 30
0.0
 10
6.0570696332
 20
1.4542108086
 30
0.0
 10
6.0573463554
 20
1.4542642846
 30
0.0
 10
6.0576766047
 20
1.454317996
 30
0.0
 10
6.0582228616
 20
1.4543946348
 30
0.0
 10
6.0590385464
 20
1.4544878259
 30
0.0
 10
6.0601752336
 20
1.45459476
 30
0.0
 10
6.0615197826
 20
1.4547020962
 30
0.0
 10
6.0630691504
 20
1.4548097838
 30
0.0
 10
6.0648198162
 20
1.4549176654
 30
0.0
 10
6.0667677974
 20
1.4550257118
 30
0.0
 10
6.0697461131
 20
1.4551761161
 30
0.0
 10
6.0739252786
 20
1.4553612198
 30
0.0
 10
6.0794600454
 20
1.4555760299
 30
0.0
 10
6.0856496836
 20
1.4557912778
 30
0.0
 10
6.0924376041
 20
1.4560068677
 30
0.0
 10
6.0997617688
 20
1.4562226772
 30
0.0
 10
6.1075552434
 20
1.4564386445
 30
0.0
 10
6.1157468179
 20
1.4566547188
 30
0.0
 10
6.1242616637
 20
1.4568708688
 30
0.0
 10
6.1360344184
 20
1.4571613916
 30
0.0
 10
6.1509595579
 20
1.4575195656
 30
0.0
 10
6.1658876761
 20
1.4578776254
 30
0.0
 10
6.1776699933
 20
1.4581679889
 30
0.0
 10
6.1861973861
 20
1.4583840364
 30
0.0
 10
6.1944050992
 20
1.4585999796
 30
0.0
 10
6.2022182992
 20
1.458815788
 30
0.0
 10
6.2095657715
 20
1.4590314117
 30
0.0
 10
6.2163805641
 20
1.4592467908
 30
0.0
 10
6.2226005995
 20
1.4594618057
 30
0.0
 10
6.228169237
 20
1.4596763655
 30
0.0
 10
6.2323787659
 20
1.4598611639
 30
0.0
 10
6.2353830621
 20
1.4600112672
 30
0.0
 10
6.237351732
 20
1.4601191411
 30
0.0
 10
6.2391238967
 20
1.460226868
 30
0.0
 10
6.2406955209
 20
1.4603343711
 30
0.0
 10
6.2420630679
 20
1.4604416028
 30
0.0
 10
6.2432235067
 20
1.4605482765
 30
0.0
 10
6.2441742323
 20
1.4606543839
 30
0.0
 10
6.2448339744
 20
1.4607472735
 30
0.0
 10
6.2452544903
 20
1.4608247814
 30
0.0
 10
6.2454906617
 20
1.4608778638
 30
0.0
 10
6.2456734001
 20
1.4609304688
 30
0.0
 10
6.2457758529
 20
1.4609708123
 30
0.0
 10
6.2458166637
 20
1.460992731
 30
0.0
  0
SPLINE
  5
37D
100
AcDbEntity
  8
0
100
AcDbSpline
 62
7
  6
CONTINUOUS
 70
0
 71
3
 72
34
 73
30
 74
0
 42
0.0000001
 43
0.0000001
 44
0.0000000001
 40
0.0
 40
0.0
 40
0.0
 40
0.0
 40
0.0006021904
 40
0.0010558932
 40
0.0016383557
 40
0.0023580268
 40
0.0032191962
 40
0.0053743043
 40
0.0081140353
 40
0.0114421437
 40
0.0153596827
 40
0.0198657048
 40
0.0306359547
 40
0.0437334304
 40
0.0591287659
 40
0.0767872474
 40
0.096666837
 40
0.1187209262
 40
0.1428964889
 40
0.1691360562
 40
0.2275496822
 40
0.2934007594
 40
0.3660563021
 40
0.4448171458
 40
0.5289253559
 40
0.6175718748
 40
0.7099033159
 40
0.8050317323
 40
1.0
 40
1.0
 40
1.0
 40
1.0
 10
4.8460673122
 20
1.4876218132
 30
0.0
 10
4.8460666567
 20
1.4876429108
 30
0.0
 10
4.8460920814
 20
1.4876774871
 30
0.0
 10
4.846139034
 20
1.4877085919
 30
0.0
 10
4.8461945053
 20
1.4877364564
 30
0.0
 10
4.8462651686
 20
1.4877637628
 30
0.0
 10
4.846390027
 20
1.4878036278
 30
0.0
 10
4.846586183
 20
1.4878514862
 30
0.0
 10
4.8468692298
 20
1.4879061935
 30
0.0
 10
4.847214945
 20
1.4879611345
 30
0.0
 10
4.8476231697
 20
1.488016335
 30
0.0
 10
4.8482913737
 20
1.4880948503
 30
0.0
 10
4.8492813991
 20
1.4881905054
 30
0.0
 10
4.850653274
 20
1.4883003667
 30
0.0
 10
4.8522672208
 20
1.4884106317
 30
0.0
 10
4.8541193415
 20
1.488521218
 30
0.0
 10
4.8562052173
 20
1.4886320067
 30
0.0
 10
4.8585198069
 20
1.4887429356
 30
0.0
 10
4.8610575508
 20
1.4888539784
 30
0.0
 10
4.8648690867
 20
1.4890076855
 30
0.0
 10
4.8701411239
 20
1.4891973332
 30
0.0
 10
4.8770399827
 20
1.4894181505
 30
0.0
 10
4.8846523632
 20
1.489639327
 30
0.0
 10
4.8929049242
 20
1.4898607821
 30
0.0
 10
4.901718178
 20
1.4900824195
 30
0.0
 10
4.911007242
 20
1.4903041852
 30
0.0
 10
4.9206826853
 20
1.4905260393
 30
0.0
 10
4.9340841049
 20
1.4908243528
 30
0.0
 10
4.9442500996
 20
1.4910441036
 30
0.0
 10
4.9510824636
 20
1.4911918132
 30
0.0
  0
SPLINE
  5
37E
100
AcDbEntity
  8
0
100
AcDbSpline
 62
7
  6
CONTINUOUS
 70
0
 71
3
 72
30
 73
26
 74
0
 42
0.0000001
 43
0.0000001
 44
0.0000000001
 40
0.0
 40
0.0
 40
0.0
 40
0.0
 40
0.1901336096
 40
0.2830327061
 40
0.3733481691
 40
0.4602541948
 40
0.5429558811
 40
0.6206975064
 40
0.6927690306
 40
0.75851221
 40
0.8173274564
 40
0.8686792575
 40
0.8914075799
 40
0.9121011653
 40
0.9307127102
 40
0.9472013355
 40
0.9615299758
 40
0.9736686232
 40
0.9835921117
 40
0.9877181338
 40
0.9912850675
 40
0.9942927599
 40
0.996743179
 40
0.9986413339
 40
1.0
 40
1.0
 40
1.0
 40
1.0
 10
4.9510824636
 20
1.4626318132
 30
0.0
 10
4.9576949444
 20
1.4627759863
 30
0.0
 10
4.967538279
 20
1.4629905253
 30
0.0
 10
4.9805224378
 20
1.4632814137
 30
0.0
 10
4.9899164527
 20
1.4634978271
 30
0.0
 10
4.9989556423
 20
1.4637141373
 30
0.0
 10
5.0075573071
 20
1.4639303119
 30
0.0
 10
5.0156427672
 20
1.4641463005
 30
0.0
 10
5.0231380852
 20
1.4643620419
 30
0.0
 10
5.0299747419
 20
1.4645774139
 30
0.0
 10
5.0360902546
 20
1.4647923235
 30
0.0
 10
5.0407095222
 20
1.4649774677
 30
0.0
 10
5.044002928
 20
1.4651278853
 30
0.0
 10
5.0461581463
 20
1.4652359407
 30
0.0
 10
5.0480960183
 20
1.4653438378
 30
0.0
 10
5.0498121068
 20
1.4654515221
 30
0.0
 10
5.0513025583
 20
1.4655588669
 30
0.0
 10
5.0525639684
 20
1.4656657902
 30
0.0
 10
5.0534702847
 20
1.4657589586
 30
0.0
 10
5.0540783149
 20
1.4658355492
 30
0.0
 10
5.0544467003
 20
1.4658892424
 30
0.0
 10
5.054756081
 20
1.4659427113
 30
0.0
 10
5.0550065954
 20
1.4659957474
 30
0.0
 10
5.0551980238
 20
1.4660482716
 30
0.0
 10
5.0553045123
 20
1.4660887921
 30
0.0
 10
5.0553461492
 20
1.4661111565
 30
0.0
  0
SPLINE
  5
37F
100
AcDbEntity
  8
0
100
AcDbSpline
 62
7
  6
CONTINUOUS
 70
0
 71
3
 72
35
 73
31
 74
0
 42
0.0000001
 43
0.0000001
 44
0.0000000001
 40
0.0
 40
0.0
 40
0.0
 40
0.0
 40
0.0002758693
 40
0.0006206843
 40
0.0010756441
 40
0.0016590621
 40
0.0023794853
 40
0.003241264
 40
0.0053972954
 40
0.0081376941
 40
0.0114662989
 40
0.0153842092
 40
0.0198905058
 40
0.030661083
 40
0.0437586626
 40
0.0591539261
 40
0.076812189
 40
0.0966914449
 40
0.1187450991
 40
0.142920133
 40
0.1691590795
 40
0.227571208
 40
0.2934205313
 40
0.3660740826
 40
0.4448327055
 40
0.5289385482
 40
0.6175825612
 40
0.7099113789
 40
0.8050371232
 40
1.0
 40
1.0
 40
1.0
 40
1.0
 10
6.0469548672
 20
1.4590618132
 30
0.0
 10
6.0469545694
 20
1.4590713969
 30
0.0
 10
6.0469608909
 20
1.4590932457
 30
0.0
 10
6.0469863861
 20
1.4591214586
 30
0.0
 10
6.0470260733
 20
1.4591489379
 30
0.0
 10
6.0470808874
 20
1.4591763161
 30
0.0
 10
6.0471510208
 20
1.4592038052
 30
0.0
 10
6.0472747744
 20
1.4592435862
 30
0.0
 10
6.0474692821
 20
1.4592914997
 30
0.0
 10
6.047749923
 20
1.4593461861
 30
0.0
 10
6.0480927126
 20
1.4594011366
 30
0.0
 10
6.0484974778
 20
1.459456335
 30
0.0
 10
6.0491600149
 20
1.4595348513
 30
0.0
 10
6.0501416557
 20
1.4596305063
 30
0.0
 10
6.0515019233
 20
1.4597403685
 30
0.0
 10
6.053102217
 20
1.459850634
 30
0.0
 10
6.0549386725
 20
1.4599612207
 30
0.0
 10
6.057006909
 20
1.4600720097
 30
0.0
 10
6.0593019286
 20
1.4601829389
 30
0.0
 10
6.061818218
 20
1.4602939819
 30
0.0
 10
6.0655975307
 20
1.4604476891
 30
0.0
 10
6.0708250052
 20
1.460637337
 30
0.0
 10
6.0776655595
 20
1.4608581544
 30
0.0
 10
6.0852136106
 20
1.4610793308
 30
0.0
 10
6.093396437
 20
1.4613007858
 30
0.0
 10
6.1021352225
 20
1.4615224229
 30
0.0
 10
6.111345802
 20
1.4617441882
 30
0.0
 10
6.1209395001
 20
1.4619660418
 30
0.0
 10
6.1342277023
 20
1.4622643544
 30
0.0
 10
6.1443078169
 20
1.4624841043
 30
0.0
 10
6.1510824636
 20
1.4626318132
 30
0.0
  0
SPLINE
  5
380
100
AcDbEntity
  8
0
100
AcDbSpline
 62
7
  6
CONTINUOUS
 70
0
 71
3
 72
30
 73
26
 74
0
 42
0.0000001
 43
0.0000001
 44
0.0000000001
 40
0.0
 40
0.0
 40
0.0
 40
0.0
 40
0.1901127722
 40
0.2830022214
 40
0.3733088857
 40
0.4602072841
 40
0.5429027613
 40
0.6206397586
 40
0.6927085091
 40
0.7584509502
 40
0.817267608
 40
0.8686231202
 40
0.8913541921
 40
0.9120511353
 40
0.9306666498
 40
0.9471598678
 40
0.9614937291
 40
0.9736382383
 40
0.9835682391
 40
0.9876977698
 40
0.9912683893
 40
0.994279948
 40
0.9967344255
 40
0.9986368481
 40
1.0
 40
1.0
 40
1.0
 40
1.0
 10
4.9510824636
 20
1.4483518132
 30
0.0
 10
4.9576660865
 20
1.4484959709
 30
0.0
 10
4.9674664818
 20
1.4487104871
 30
0.0
 10
4.9803940308
 20
1.4490013435
 30
0.0
 10
4.9897471688
 20
1.4492177333
 30
0.0
 10
4.998747109
 20
1.44943402
 30
0.0
 10
5.0073115285
 20
1.4496501711
 30
0.0
 10
5.0153621056
 20
1.4498661364
 30
0.0
 10
5.0228252382
 20
1.4500818544
 30
0.0
 10
5.0296327176
 20
1.4502972033
 30
0.0
 10
5.0357223418
 20
1.4505120901
 30
0.0
 10
5.040322206
 20
1.4506972129
 30
0.0
 10
5.043601917
 20
1.4508476116
 30
0.0
 10
5.0457482962
 20
1.4509556553
 30
0.0
 10
5.0476783151
 20
1.4510635411
 30
0.0
 10
5.0493875555
 20
1.4511712143
 30
0.0
 10
5.0508721804
 20
1.4512785487
 30
0.0
 10
5.0521287999
 20
1.4513854624
 30
0.0
 10
5.0530317755
 20
1.4514786203
 30
0.0
 10
5.053637659
 20
1.4515551984
 30
0.0
 10
5.0540048321
 20
1.4516088873
 30
0.0
 10
5.0543132669
 20
1.4516623527
 30
0.0
 10
5.0545630993
 20
1.4517153887
 30
0.0
 10
5.0547541141
 20
1.4517679148
 30
0.0
 10
5.0548604094
 20
1.4518084268
 30
0.0
 10
5.054902006
 20
1.4518307697
 30
0.0
  0
SPLINE
  5
381
100
AcDbEntity
  8
0
100
AcDbSpline
 62
7
  6
CONTINUOUS
 70
0
 71
3
 72
52
 73
48
 74
0
 42
0.0000001
 43
0.0000001
 44
0.0000000001
 40
0.0
 40
0.0
 40
0.0
 40
0.0
 40
0.000672432
 40
0.0016104003
 40
0.0028221774
 40
0.0043111095
 40
0.0060786288
 40
0.0081249319
 40
0.0130514852
 40
0.0190838933
 40
0.0262100376
 40
0.034415106
 40
0.0436808318
 40
0.0539867381
 40
0.0653094706
 40
0.0909009414
 40
0.1202228971
 40
0.1530081656
 40
0.1889579108
 40
0.2277442149
 40
0.2690129809
 40
0.3123876805
 40
0.3574726168
 40
0.4038562541
 40
0.4988192766
 40
0.5938202079
 40
0.6402513238
 40
0.6854027024
 40
0.7288628795
 40
0.7702361868
 40
0.8091459827
 40
0.8452381022
 40
0.8781844854
 40
0.9076859576
 40
0.93347493
 40
0.944902954
 40
0.9553184793
 40
0.9646978925
 40
0.9730207233
 40
0.9802684076
 40
0.986426048
 40
0.9914811272
 40
0.9954261276
 40
0.9969815094
 40
0.9982598371
 40
0.9992638339
 40
1.0
 40
1.0
 40
1.0
 40
1.0
 10
6.056990853
 20
1.4397626723
 30
0.0
 10
6.0570267781
 20
1.4397849494
 30
0.0
 10
6.0571202974
 20
1.4398255856
 30
0.0
 10
6.057289721
 20
1.4398781312
 30
0.0
 10
6.0575124152
 20
1.4399312013
 30
0.0
 10
6.0577881899
 20
1.4399846753
 30
0.0
 10
6.0581172329
 20
1.4400383776
 30
0.0
 10
6.0586613418
 20
1.4401150027
 30
0.0
 10
6.0594736873
 20
1.4402081878
 30
0.0
 10
6.0606055787
 20
1.4403151036
 30
0.0
 10
6.0619443131
 20
1.4404224357
 30
0.0
 10
6.0634868292
 20
1.4405301052
 30
0.0
 10
6.0652296502
 20
1.4406379792
 30
0.0
 10
6.0671687824
 20
1.4407460083
 30
0.0
 10
6.0701334037
 20
1.4408963954
 30
0.0
 10
6.0742931652
 20
1.4410814728
 30
0.0
 10
6.0798020474
 20
1.4412962582
 30
0.0
 10
6.0859625114
 20
1.4415114798
 30
0.0
 10
6.092718252
 20
1.4417270433
 30
0.0
 10
6.100007538
 20
1.4419428262
 30
0.0
 10
6.1077637688
 20
1.4421587666
 30
0.0
 10
6.1159160959
 20
1.4423748138
 30
0.0
 10
6.1243900679
 20
1.4425909367
 30
0.0
 10
6.1361062196
 20
1.4428814225
 30
0.0
 10
6.1509595514
 20
1.4432395517
 30
0.0
 10
6.1658158714
 20
1.4435975664
 30
0.0
 10
6.1775415745
 20
1.4438878921
 30
0.0
 10
6.186028088
 20
1.444103912
 30
0.0
 10
6.1941965463
 20
1.4443198276
 30
0.0
 10
6.2019724974
 20
1.4445356084
 30
0.0
 10
6.2092850841
 20
1.4447512046
 30
0.0
 10
6.2160676863
 20
1.4449665563
 30
0.0
 10
6.2222585399
 20
1.4451815442
 30
0.0
 10
6.2278012858
 20
1.4453960771
 30
0.0
 10
6.231991409
 20
1.4455808509
 30
0.0
 10
6.2349820039
 20
1.4457309309
 30
0.0
 10
6.2369418338
 20
1.4458387918
 30
0.0
 10
6.238706144
 20
1.4459465052
 30
0.0
 10
6.240270919
 20
1.4460539954
 30
0.0
 10
6.2416326362
 20
1.4461612155
 30
0.0
 10
6.2427882778
 20
1.4462678761
 30
0.0
 10
6.2437352562
 20
1.4463739784
 30
0.0
 10
6.2443925282
 20
1.4464668505
 30
0.0
 10
6.2448115996
 20
1.4465443479
 30
0.0
 10
6.2450470886
 20
1.4465974281
 30
0.0
 10
6.2452294173
 20
1.4466500326
 30
0.0
 10
6.2453316825
 20
1.4466903634
 30
0.0
 10
6.2453724511
 20
1.4467122626
 30
0.0
  0
SPLINE
  5
382
100
AcDbEntity
  8
0
100
AcDbSpline
 62
7
  6
CONTINUOUS
 70
0
 71
3
 72
30
 73
26
 74
0
 42
0.0000001
 43
0.0000001
 44
0.0000000001
 40
0.0
 40
0.0
 40
0.0
 40
0.0
 40
0.1900917238
 40
0.2829714007
 40
0.3732692264
 40
0.4601598979
 40
0.5428490272
 40
0.6205814452
 40
0.6926474029
 40
0.7583890421
 40
0.8172072003
 40
0.8685664712
 40
0.8913003027
 40
0.9120006243
 40
0.9306201616
 40
0.9471180351
 40
0.9614571703
 40
0.9736075885
 40
0.9835441547
 40
0.9876772231
 40
0.9912515571
 40
0.9942670167
 40
0.996725592
 40
0.9986323231
 40
1.0
 40
1.0
 40
1.0
 40
1.0
 10
4.9510824636
 20
1.4340718132
 30
0.0
 10
4.9576372274
 20
1.4342159552
 30
0.0
 10
4.9673946806
 20
1.4344304485
 30
0.0
 10
4.9802656182
 20
1.4347212724
 30
0.0
 10
4.9895778778
 20
1.4349376385
 30
0.0
 10
4.9985385655
 20
1.4351539015
 30
0.0
 10
5.0070657385
 20
1.4353700289
 30
0.0
 10
5.0150814326
 20
1.4355859704
 30
0.0
 10
5.0225123809
 20
1.435801665
 30
0.0
 10
5.0292906837
 20
1.4360169906
 30
0.0
 10
5.0353544203
 20
1.4362318545
 30
0.0
 10
5.0399348837
 20
1.4364169557
 30
0.0
 10
5.0432008997
 20
1.4365673352
 30
0.0
 10
5.0453384395
 20
1.4366753673
 30
0.0
 10
5.0472606064
 20
1.4367832416
 30
0.0
 10
5.0489630003
 20
1.4368909037
 30
0.0
 10
5.0504417996
 20
1.4369982277
 30
0.0
 10
5.0516936284
 20
1.4371051316
 30
0.0
 10
5.0525932629
 20
1.4371982789
 30
0.0
 10
5.0531969993
 20
1.4372748444
 30
0.0
 10
5.0535629601
 20
1.437328529
 30
0.0
 10
5.053870449
 20
1.4373819909
 30
0.0
 10
5.0541195997
 20
1.4374350268
 30
0.0
 10
5.054310201
 20
1.4374875547
 30
0.0
 10
5.0544163033
 20
1.4375280582
 30
0.0
 10
5.0544578597
 20
1.4375503796
 30
0.0
  0
SPLINE
  5
383
100
AcDbEntity
  8
0
100
AcDbSpline
 62
7
  6
CONTINUOUS
 70
0
 71
3
 72
30
 73
26
 74
0
 42
0.0000001
 43
0.0000001
 44
0.0000000001
 40
0.0
 40
0.0
 40
0.0
 40
0.0
 40
0.1900705149
 40
0.2829403652
 40
0.373229257
 40
0.4601121863
 40
0.5427950113
 40
0.620522713
 40
0.6925858709
 40
0.7583267896
 40
0.8171463477
 40
0.868509399
 40
0.8912460398
 40
0.9119497829
 40
0.9305733423
 40
0.9470758682
 40
0.9614203075
 40
0.97357669
 40
0.9835198815
 40
0.9876565191
 40
0.9912346038
 40
0.994253995
 40
0.9967166946
 40
0.9986277626
 40
1.0
 40
1.0
 40
1.0
 40
1.0
 10
4.9510824636
 20
1.4197918132
 30
0.0
 10
4.9576083688
 20
1.4199359395
 30
0.0
 10
4.9673228815
 20
1.4201504096
 30
0.0
 10
4.9801372087
 20
1.4204412009
 30
0.0
 10
4.9894085917
 20
1.4206575431
 30
0.0
 10
4.9983300312
 20
1.4208737822
 30
0.0
 10
5.0068199594
 20
1.4210898857
 30
0.0
 10
5.014800771
 20
1.4213058034
 30
0.0
 10
5.022199535
 20
1.4215214743
 30
0.0
 10
5.0289486608
 20
1.4217367765
 30
0.0
 10
5.0349865085
 20
1.4219516172
 30
0.0
 10
5.0395475675
 20
1.4221366966
 30
0.0
 10
5.0427998892
 20
1.4222870569
 30
0.0
 10
5.0449285898
 20
1.4223950772
 30
0.0
 10
5.0468429023
 20
1.4225029399
 30
0.0
 10
5.0485384464
 20
1.4226105906
 30
0.0
 10
5.0500114181
 20
1.422717904
 30
0.0
 10
5.0512584557
 20
1.4228247981
 30
0.0
 10
5.0521547494
 20
1.4229179348
 30
0.0
 10
5.0527563389
 20
1.4229944876
 30
0.0
 10
5.0531210873
 20
1.4230481679
 30
0.0
 10
5.05342763
 20
1.4231016262
 30
0.0
 10
5.0536760983
 20
1.4231546618
 30
0.0
 10
5.0538662853
 20
1.4232071916
 30
0.0
 10
5.0539721942
 20
1.4232476863
 30
0.0
 10
5.0540137102
 20
1.4232699861
 30
0.0
  0
SPLINE
  5
384
100
AcDbEntity
  8
0
100
AcDbSpline
 62
7
  6
CONTINUOUS
 70
0
 71
3
 72
34
 73
30
 74
0
 42
0.0000001
 43
0.0000001
 44
0.0000000001
 40
0.0
 40
0.0
 40
0.0
 40
0.0
 40
0.0006302408
 40
0.0011008904
 40
0.0017003606
 40
0.0024367466
 40
0.003314233
 40
0.005500706
 40
0.0082701486
 40
0.011626399
 40
0.0155705675
 40
0.0201017586
 40
0.0309181501
 40
0.0440563837
 40
0.0594873074
 40
0.0771763894
 40
0.0970818111
 40
0.1191571297
 40
0.1433494715
 40
0.169601508
 40
0.2280277758
 40
0.2938763163
 40
0.3665151699
 40
0.445246058
 40
0.5293120545
 40
0.6179045346
 40
0.7101703601
 40
0.8052217153
 40
1.0
 40
1.0
 40
1.0
 40
1.0
 10
5.0533212089
 20
1.3982818132
 30
0.0
 10
5.053320541
 20
1.3982603158
 30
0.0
 10
5.0532939608
 20
1.398226547
 30
0.0
 10
5.0532464036
 20
1.3981951731
 30
0.0
 10
5.0531908043
 20
1.3981673873
 30
0.0
 10
5.0531204632
 20
1.3981400577
 30
0.0
 10
5.0529969005
 20
1.3981002887
 30
0.0
 10
5.0528035069
 20
1.3980524578
 30
0.0
 10
5.0525251043
 20
1.3979977776
 30
0.0
 10
5.0521858234
 20
1.397942864
 30
0.0
 10
5.0517858154
 20
1.3978877002
 30
0.0
 10
5.0511321206
 20
1.3978092748
 30
0.0
 10
5.0501646252
 20
1.3977136937
 30
0.0
 10
5.0488250022
 20
1.3976038919
 30
0.0
 10
5.0472502005
 20
1.3974936847
 30
0.0
 10
5.0454440013
 20
1.3973831535
 30
0.0
 10
5.0434106916
 20
1.3972724149
 30
0.0
 10
5.0411551644
 20
1.39716153
 30
0.0
 10
5.0386828195
 20
1.3970505251
 30
0.0
 10
5.0349706388
 20
1.396896875
 30
0.0
 10
5.0298371898
 20
1.396707268
 30
0.0
 10
5.0231208708
 20
1.3964864573
 30
0.0
 10
5.0157113048
 20
1.3962652602
 30
0.0
 10
5.0076798011
 20
1.3960437567
 30
0.0
 10
4.9991036723
 20
1.3958220426
 30
0.0
 10
4.9900655049
 20
1.3956001714
 30
0.0
 10
4.9806523429
 20
1.3953781832
 30
0.0
 10
4.967616252
 20
1.395079667
 30
0.0
 10
4.9577278821
 20
1.394859699
 30
0.0
 10
4.9510824636
 20
1.3947118132
 30
0.0
  0
SPLINE
  5
385
100
AcDbEntity
  8
0
100
AcDbSpline
 62
7
  6
CONTINUOUS
 70
0
 71
3
 72
30
 73
26
 74
0
 42
0.0000001
 43
0.0000001
 44
0.0000000001
 40
0.0
 40
0.0
 40
0.0
 40
0.0
 40
0.1900491452
 40
0.2829091024
 40
0.3731889694
 40
0.4600640779
 40
0.5427405385
 40
0.6204634893
 40
0.6925238024
 40
0.7582639673
 40
0.8170849672
 40
0.8684518225
 40
0.8911912844
 40
0.911898472
 40
0.9305261008
 40
0.9470333347
 40
0.9613831282
 40
0.9735455234
 40
0.9834953955
 40
0.9876356324
 40
0.9912174984
 40
0.9942408559
 40
0.9967077181
 40
0.9986231629
 40
1.0
 40
1.0
 40
1.0
 40
1.0
 10
4.9510824636
 20
1.4055118132
 30
0.0
 10
4.9575795109
 20
1.4056559236
 30
0.0
 10
4.9672510843
 20
1.4058703705
 30
0.0
 10
4.9800088017
 20
1.4061611288
 30
0.0
 10
4.9892393079
 20
1.4063774469
 30
0.0
 10
4.9981214979
 20
1.4065936618
 30
0.0
 10
5.0065741806
 20
1.4068097412
 30
0.0
 10
5.0145201089
 20
1.407025635
 30
0.0
 10
5.021886687
 20
1.4072412819
 30
0.0
 10
5.028606635
 20
1.4074565604
 30
0.0
 10
5.0346185933
 20
1.4076713778
 30
0.0
 10
5.039160248
 20
1.4078564351
 30
0.0
 10
5.0423988744
 20
1.4080067761
 30
0.0
 10
5.0445187355
 20
1.4081147844
 30
0.0
 10
5.0464251942
 20
1.4082226354
 30
0.0
 10
5.0481138894
 20
1.4083302748
 30
0.0
 10
5.0495810339
 20
1.4084375775
 30
0.0
 10
5.0508232803
 20
1.4085444617
 30
0.0
 10
5.0517162328
 20
1.4086375876
 30
0.0
 10
5.0523156752
 20
1.4087141276
 30
0.0
 10
5.052679211
 20
1.4087678035
 30
0.0
 10
5.0529848075
 20
1.4088212583
 30
0.0
 10
5.0532325934
 20
1.4088742936
 30
0.0
 10
5.0534223663
 20
1.4089268252
 30
0.0
 10
5.0535280818
 20
1.408967311
 30
0.0
 10
5.0535695576
 20
1.4089895892
 30
0.0
  0
SPLINE
  5
386
100
AcDbEntity
  8
0
100
AcDbSpline
 62
7
  6
CONTINUOUS
 70
0
 71
3
 72
30
 73
26
 74
0
 42
0.0000001
 43
0.0000001
 44
0.0000000001
 40
0.0
 40
0.0
 40
0.0
 40
0.0
 40
0.1900275578
 40
0.2828774921
 40
0.3731482938
 40
0.4600154765
 40
0.5426854247
 40
0.620403678
 40
0.6924611241
 40
0.7582004624
 40
0.817023002
 40
0.8683937117
 40
0.8911360023
 40
0.911846654
 40
0.9304784098
 40
0.9469904206
 40
0.9613456246
 40
0.9735140811
 40
0.9834706885
 40
0.9876145546
 40
0.9912002314
 40
0.9942275909
 40
0.9966986574
 40
0.9986185223
 40
1.0
 40
1.0
 40
1.0
 40
1.0
 10
4.9510824636
 20
1.3912318132
 30
0.0
 10
4.9575506518
 20
1.3913759076
 30
0.0
 10
4.9671792832
 20
1.3915903309
 30
0.0
 10
4.9798803892
 20
1.3918810559
 30
0.0
 10
4.9890700169
 20
1.3920973496
 30
0.0
 10
4.9979129541
 20
1.3923135402
 30
0.0
 10
5.00632839
 20
1.3925295952
 30
0.0
 10
5.0142394349
 20
1.3927454647
 30
0.0
 10
5.021573828
 20
1.3929610875
 30
0.0
 10
5.0282645988
 20
1.3931763421
 30
0.0
 10
5.0342506687
 20
1.3933911359
 30
0.0
 10
5.038772922
 20
1.3935761712
 30
0.0
 10
5.0419978525
 20
1.3937264925
 30
0.0
 10
5.0441088737
 20
1.3938344888
 30
0.0
 10
5.0460074799
 20
1.3939423281
 30
0.0
 10
5.0476893283
 20
1.394049956
 30
0.0
 10
5.0491506466
 20
1.3941572481
 30
0.0
 10
5.0503881017
 20
1.3942641223
 30
0.0
 10
5.0512777126
 20
1.3943572372
 30
0.0
 10
5.0518750074
 20
1.3944337643
 30
0.0
 10
5.0522373305
 20
1.3944874358
 30
0.0
 10
5.0525419807
 20
1.3945408869
 30
0.0
 10
5.0527890847
 20
1.3945939219
 30
0.0
 10
5.0529784437
 20
1.3946464554
 30
0.0
 10
5.0530839662
 20
1.3946869322
 30
0.0
 10
5.0531254016
 20
1.3947091889
 30
0.0
  0
ENDSEC
  0
SECTION
  2
OBJECTS
  0
DICTIONARY
  5
C
100
AcDbDictionary
280
0
281
1
  3
ACAD_GROUP
350
D
  3
ACAD_MLINESTYLE
350
17
  3
ACAD_LAYOUT
350
1A
  3
ACAD_PLOTSETTINGS
350
19
  3
ACAD_PLOTSTYLENAME
350
E
  0
DICTIONARY
  5
D
102
{ACAD_REACTORS
330
C
102
}
100
AcDbDictionary
280
0
281
1
  0
ACDBDICTIONARYWDFLT
  5
E
102
{ACAD_REACTORS
330
C
102
}
100
AcDbDictionary
281
1
  3
Normal
350
F
100
AcDbDictionaryWithDefault
340
F
  0
DICTIONARY
  5
17
102
{ACAD_REACTORS
330
C
102
}
100
AcDbDictionary
280
0
281
1
  3
Standard
350
18
  0
DICTIONARY
  5
19
102
{ACAD_REACTORS
330
C
102
}
100
AcDbDictionary
281
1
  0
DICTIONARY
  5
1A
102
{ACAD_REACTORS
330
C
102
}
100
AcDbDictionary
281
1
  3
Model
350
387
  3
Layout1
350
388
  0
ACDBPLACEHOLDER
  5
F
102
{ACAD_REACTORS
330
E
102
}
  0
MLINESTYLE
  5
18
102
{ACAD_REACTORS
330
17
102
}
100
AcDbMlineStyle
  2
STANDARD
 70
0
  3

 62
256
 51
90.0
 52
90.0
 71
2
 49
0.5
 62
256
  6
BYLAYER
 49
-0.5
 62
256
  6
BYLAYER
  0
LAYOUT
  5
387
102
{ACAD_REACTORS
330
1A
102
}
100
AcDbPlotSettings
  1

  2
none_device
  4
ANSI_A_(11.00_x_8.50_Inches)
  6

 40
0.0
 41
0.0
 42
0.0
 43
0.0
 44
279.4
 45
215.9
 46
0.0
 47
0.0
 48
0.0
 49
0.0
140
0.0
141
0.0
142
1.0
143
1.0
 70
1024
 72
0
 73
0
 74
0
  7

 75
0
147
1.0
148
0.0
149
0.0
100
AcDbLayout
  1
Model
 70
0
 71
0
 10
0.0
 20
0.0
 11
11.0
 21
8.5
 12
0.0
 22
0.0
 32
0.0
 14
0.0
 24
0.0
 34
0.0
 15
0.0
 25
0.0
 35
0.0
146
0.0
 13
0.0
 23
0.0
 33
0.0
 16
1.0
 26
0.0
 36
0.0
 17
0.0
 27
1.0
 37
0.0
 76
0
330
203
345
0
346
0
  0
LAYOUT
  5
388
102
{ACAD_REACTORS
330
1A
102
}
100
AcDbPlotSettings
  1

  2
none_device
  4
ANSI_A_(11.00_x_8.50_Inches)
  6

 40
0.0
 41
0.0
 42
0.0
 43
0.0
 44
279.4
 45
215.9
 46
0.0
 47
0.0
 48
0.0
 49
0.0
140
0.0
141
0.0
142
1.0
143
1.0
 70
0
 72
0
 73
0
 74
0
  7

 75
0
147
1.0
148
0.0
149
0.0
100
AcDbLayout
  1
Layout1
 70
0
 71
1
 10
0.0
 20
0.0
 11
11.0
 21
8.5
 12
0.0
 22
0.0
 32
0.0
 14
0.0
 24
0.0
 34
0.0
 15
0.0
 25
0.0
 35
0.0
146
0.0
 13
0.0
 23
0.0
 33
0.0
 16
1.0
 26
0.0
 36
0.0
 17
0.0
 27
1.0
 37
0.0
 76
0
330
204
345
0
346
0
  0
ENDSEC
  0
EOF
