999
DXF file: E:\BT Custom\CADOUTPUT\_RIGHT.dxf
999
Pro/ENGINEER 2018400 by Parametric Technology Corporation
  0
SECTION
  2
HEADER
  9
$ACADVER
  1
AC1018
  9
$DWGCODEPAGE
  3
ANSI_1252
  9
$EXTMAX
 10
22.0
 20
17.0
 30
0.0
  9
$EXTMIN
 10
0.0
 20
0.0
 30
0.0
  9
$LIMMIN
 10
0.0
 20
0.0
  9
$LIMMAX
 10
22.0
 20
17.0
  9
$VIEWCTR
 10
11.0
 20
8.5
  9
$VIEWSIZE
 40
17.0
  9
$CLAYER
  8
0
  9
$LTSCALE
 40
1.21
  9
$CELTYPE
  6
BYLAYER
  9
$DIMSCALE
 40
1.0
  9
$DIMASZ
 40
0.1
  9
$DIMEXO
 40
0.0625
  9
$DIMDLI
 40
0.836
  9
$DIMEXE
 40
0.125
  9
$DIMCEN
 40
0.198
  9
$DIMLFAC
 40
1.0
  9
$DIMBLK
  1
_FILLED
  9
$DIMALT
 70
1
  9
$DIMALTD
 70
2
  9
$DIMALTTD
 70
2
  9
$DIMALTF
 40
25.4
  9
$DIMTXT
 40
0.08
  9
$DIMTOL
 70
1
  9
$DIMLIM
 70
0
  9
$DIMTFAC
 40
1.0
  9
$DIMTP
 40
0.001
  9
$DIMTM
 40
0.001
  9
$DIMGAP
 40
0.09
  9
$DIMDSEP
 70
46
  9
$AUNITS
 70
0
  9
$PDMODE
 70
3
  9
$PDSIZE
 40
0.06
  9
$HANDSEED
  5
521
  9
$TILEMODE
 70
1
  9
$MEASUREMENT
 70
0
  9
$INSUNITS
 70
1
  0
ENDSEC
  0
SECTION
  2
CLASSES
  0
CLASS
  1
ACDBDICTIONARYWDFLT
  2
AcDbDictionaryWithDefault
  3
AutoCAD 2000
 90
0
 91
1
280
0
281
0
  0
CLASS
  1
ACDBPLACEHOLDER
  2
AcDbPlaceHolder
  3
AutoCAD 2000
 90
0
 91
1
280
0
281
0
  0
CLASS
  1
LAYOUT
  2
AcDbLayout
  3
AutoCAD 2000
 90
0
 91
0
280
0
281
0
  0
ENDSEC
  0
SECTION
  2
TABLES
  0
TABLE
  2
VPORT
  5
8
100
AcDbSymbolTable
 70
2
  0
VPORT
  5
1F4
100
AcDbSymbolTableRecord
100
AcDbViewportTableRecord
  2
*ACTIVE
 70
0
 10
0.0
 20
0.0
 11
1.0
 21
1.0
 12
11.0
 22
8.5
 13
0.0
 23
0.0
 14
1.0
 24
1.0
 15
0.0
 25
0.0
 16
0.0
 26
0.0
 36
1.0
 17
0.0
 27
0.0
 37
0.0
 40
17.0
 41
1.2941176471
 42
50.0
 43
0.0
 44
0.0
 50
0.0
 51
0.0
 71
0
 72
100
 73
1
 74
1
 75
0
 76
0
 77
0
 78
0
  0
ENDTAB
  0
TABLE
  2
LTYPE
  5
5
100
AcDbSymbolTable
 70
6
  0
LTYPE
  5
14
100
AcDbSymbolTableRecord
100
AcDbLinetypeTableRecord
  2
BYBLOCK
 70
0
  3

 72
65
 73
0
 40
0.0
  0
LTYPE
  5
15
100
AcDbSymbolTableRecord
100
AcDbLinetypeTableRecord
  2
BYLAYER
 70
0
  3

 72
65
 73
0
 40
0.0
  0
LTYPE
  5
16
100
AcDbSymbolTableRecord
100
AcDbLinetypeTableRecord
  2
CONTINUOUS
 70
64
  3
Solid line
 72
65
 73
0
 40
0.0
  0
LTYPE
  5
1F5
100
AcDbSymbolTableRecord
100
AcDbLinetypeTableRecord
  2
CENTER
 70
64
  3
____ _ ____ _ ____ _ ____ _ ____ _ ____ _ ____
 72
65
 73
4
 40
0.6
 49
0.375
 74
0
 49
-0.075
 74
0
 49
0.075
 74
0
 49
-0.075
 74
0
  0
LTYPE
  5
1F6
100
AcDbSymbolTableRecord
100
AcDbLinetypeTableRecord
  2
HIDDEN
 70
64
  3
- - - - - - - - - - - - - - - - - - - -
 72
65
 73
2
 40
0.2
 49
0.1
 74
0
 49
-0.1
 74
0
  0
LTYPE
  5
1F7
100
AcDbSymbolTableRecord
100
AcDbLinetypeTableRecord
  2
PHANTOM
 70
64
  3
_____ _ _ _____ _ _ _____ _ _ _____
 72
65
 73
6
 40
0.8
 49
0.45
 74
0
 49
-0.05
 74
0
 49
0.1
 74
0
 49
-0.05
 74
0
 49
0.1
 74
0
 49
-0.05
 74
0
  0
LTYPE
  5
1F8
100
AcDbSymbolTableRecord
100
AcDbLinetypeTableRecord
  2
DOT
 70
64
  3
. . . . . . . . . . . . . . . . . . . .
 72
65
 73
2
 40
0.2
 49
0.1
 74
0
 49
-0.1
 74
0
  0
LTYPE
  5
1F9
100
AcDbSymbolTableRecord
100
AcDbLinetypeTableRecord
  2
DASHED
 70
64
  3
- - - - - - - - - - - - - - - - - - - -
 72
65
 73
2
 40
0.2
 49
0.1
 74
0
 49
-0.1
 74
0
  0
ENDTAB
  0
TABLE
  2
LAYER
  5
2
100
AcDbSymbolTable
 70
36
  0
LAYER
  5
10
100
AcDbSymbolTableRecord
100
AcDbLayerTableRecord
  2
0
 70
0
 62
7
  6
CONTINUOUS
370
-3
390
F
  0
LAYER
  5
1FA
100
AcDbSymbolTableRecord
100
AcDbLayerTableRecord
  2
DEFAULT_1
 70
0
 62
7
  6
CENTER
370
-3
390
F
  0
LAYER
  5
1FB
100
AcDbSymbolTableRecord
100
AcDbLayerTableRecord
  2
DEFAULT_2
 70
0
 62
8
  6
HIDDEN
370
-3
390
F
  0
LAYER
  5
1FC
100
AcDbSymbolTableRecord
100
AcDbLayerTableRecord
  2
DEFAULT_3
 70
0
 62
7
  6
PHANTOM
370
-3
390
F
  0
LAYER
  5
1FD
100
AcDbSymbolTableRecord
100
AcDbLayerTableRecord
  2
ALL_FEATURES
 70
0
 62
7
  6
CONTINUOUS
370
-3
390
F
  0
LAYER
  5
1FE
100
AcDbSymbolTableRecord
100
AcDbLayerTableRecord
  2
AXES_FEATURES
 70
0
 62
7
  6
CONTINUOUS
370
-3
390
F
  0
LAYER
  5
1FF
100
AcDbSymbolTableRecord
100
AcDbLayerTableRecord
  2
DEFAULT_COORDINATE_SYSTEM
 70
0
 62
7
  6
CONTINUOUS
370
-3
390
F
  0
LAYER
  5
200
100
AcDbSymbolTableRecord
100
AcDbLayerTableRecord
  2
DEFAULT_DATUM_AXES
 70
0
 62
7
  6
CONTINUOUS
370
-3
390
F
  0
LAYER
  5
201
100
AcDbSymbolTableRecord
100
AcDbLayerTableRecord
  2
DEFAULT_DATUM_PLANES
 70
0
 62
7
  6
CONTINUOUS
370
-3
390
F
  0
LAYER
  5
202
100
AcDbSymbolTableRecord
100
AcDbLayerTableRecord
  2
DIMENSIONS
 70
0
 62
7
  6
CONTINUOUS
370
-3
390
F
  0
ENDTAB
  0
TABLE
  2
STYLE
  5
3
100
AcDbSymbolTable
 70
1
  0
STYLE
  5
11
100
AcDbSymbolTableRecord
100
AcDbTextStyleTableRecord
  2
STANDARD
 70
0
 40
0.0
 41
0.8
 50
0.0
 71
0
 42
0.2
  3
txt
  4

  0
STYLE
  5
203
100
AcDbSymbolTableRecord
100
AcDbTextStyleTableRecord
  2
TEXTSTYLE_1
 70
0
 40
0.0
 41
0.8
 50
0.0
 71
0
 42
0.2
  3
gdt
  4

  0
ENDTAB
  0
TABLE
  2
VIEW
  5
6
100
AcDbSymbolTable
 70
0
  0
ENDTAB
  0
TABLE
  2
UCS
  5
7
100
AcDbSymbolTable
 70
0
  0
ENDTAB
  0
TABLE
  2
APPID
  5
9
100
AcDbSymbolTable
 70
1
  0
APPID
  5
204
100
AcDbSymbolTableRecord
100
AcDbRegAppTableRecord
  2
ACAD
 70
0
  0
ENDTAB
  0
TABLE
  2
BLOCK_RECORD
  5
1
100
AcDbSymbolTable
 70
0
  0
BLOCK_RECORD
  5
205
100
AcDbSymbolTableRecord
100
AcDbBlockTableRecord
  2
*Model_Space
  0
BLOCK_RECORD
  5
206
100
AcDbSymbolTableRecord
100
AcDbBlockTableRecord
  2
*Paper_Space
  0
BLOCK_RECORD
  5
207
100
AcDbSymbolTableRecord
100
AcDbBlockTableRecord
  2
_FILLED
  0
ENDTAB
  0
TABLE
  2
DIMSTYLE
  5
A
100
AcDbSymbolTable
 70
1
100
AcDbDimStyleTable
 71
0
  0
DIMSTYLE
105
208
100
AcDbSymbolTableRecord
100
AcDbDimStyleTableRecord
  2
STANDARD
 70
0
  3

  4

 40
1.0
 41
0.1
 42
0.0625
 43
0.38
 44
0.125
 45
0.0
 46
0.0
 47
0.001
 48
0.001
140
0.08
141
0.09
142
0.0
143
25.4
144
1.0
145
0.0
146
1.0
147
0.09
 71
1.0
 72
0.0
 73
1
 74
1
 75
0
 76
0
 77
0
 78
4
 79
1
170
1
171
2
172
0
173
0
174
0
175
0
176
0
177
0
178
0
270
2
179
3
271
3
272
3
273
2
274
2
275
0
280
0
281
0
282
0
283
1
284
4
285
0
286
0
287
3
288
0
340
11
278
46
341
207
342
207
343
207
344
207
  0
ENDTAB
  0
ENDSEC
  0
SECTION
  2
BLOCKS
  0
BLOCK
  5
20
100
AcDbEntity
  8
0
100
AcDbBlockBegin
  2
*Model_Space
 70
0
 10
0.0
 20
0.0
 30
0.0
  3
*Model_Space
  1

  0
ENDBLK
  5
21
100
AcDbEntity
  8
0
100
AcDbBlockEnd
  0
BLOCK
  5
1C
100
AcDbEntity
  8
0
100
AcDbBlockBegin
  2
*Paper_Space
 70
0
 10
0.0
 20
0.0
 30
0.0
  3
*Paper_Space
  1

  0
ENDBLK
  5
1D
100
AcDbEntity
  8
0
100
AcDbBlockEnd
  0
BLOCK
  5
209
100
AcDbEntity
  8
0
100
AcDbBlockBegin
  2
_FILLED
 70
64
 10
0.0
 20
0.0
  3
_FILLED
  1

  0
SOLID
  5
20A
100
AcDbEntity
  8
0
  6
BYBLOCK
 62
0
100
AcDbTrace
 10
0.0
 20
0.0
 11
-1.0
 21
0.2
 12
-1.0
 22
-0.2
 13
-1.0
 23
-0.2
  0
ENDBLK
  5
20B
100
AcDbEntity
  8
0
  6
BYBLOCK
 62
0
100
AcDbBlockEnd
  0
ENDSEC
  0
SECTION
  2
ENTITIES
  0
LINE
  5
20C
100
AcDbEntity
  8
0
100
AcDbLine
 62
7
  6
CONTINUOUS
 10
14.6094226038
 20
0.789891804
 11
14.7974226038
 21
0.789891804
  0
LINE
  5
20D
100
AcDbEntity
  8
0
100
AcDbLine
 62
7
  6
CONTINUOUS
 10
11.5694226038
 20
1.279891804
 11
10.9994226038
 21
1.279891804
  0
LINE
  5
20E
100
AcDbEntity
  8
0
100
AcDbLine
 62
9
  6
CONTINUOUS
 10
11.5994226038
 20
1.309891804
 11
10.9694226038
 21
1.309891804
  0
LINE
  5
20F
100
AcDbEntity
  8
0
100
AcDbLine
 62
7
  6
CONTINUOUS
 10
7.2428325282
 20
14.2886025873
 11
6.6459758319
 21
13.691745891
  0
LINE
  5
210
100
AcDbEntity
  8
0
100
AcDbLine
 62
7
  6
CONTINUOUS
 10
14.1944226038
 20
2.929891804
 11
14.4844226038
 21
2.929891804
  0
LINE
  5
211
100
AcDbEntity
  8
0
100
AcDbLine
 62
9
  6
CONTINUOUS
 10
14.1744226038
 20
2.949891804
 11
14.4844226038
 21
2.949891804
  0
LINE
  5
212
100
AcDbEntity
  8
0
100
AcDbLine
 62
7
  6
CONTINUOUS
 10
6.7904497756
 20
13.40750155
 11
6.7657577365
 21
13.3828095109
  0
LINE
  5
213
100
AcDbEntity
  8
0
100
AcDbLine
 62
7
  6
CONTINUOUS
 10
6.8293417933
 20
13.3686095323
 11
6.8046497543
 21
13.3439174932
  0
LINE
  5
214
100
AcDbEntity
  8
0
100
AcDbLine
 62
7
  6
CONTINUOUS
 10
6.9433674199
 20
13.2545839057
 11
6.9186753808
 21
13.2298918666
  0
LINE
  5
215
100
AcDbEntity
  8
0
100
AcDbLine
 62
7
  6
CONTINUOUS
 10
6.9152366559
 20
13.1952081123
 11
6.9049196111
 21
13.1848910675
  0
LINE
  5
216
100
AcDbEntity
  8
0
100
AcDbLine
 62
7
  6
CONTINUOUS
 10
6.9814803098
 20
13.1277168589
 11
6.9717870648
 21
13.1180236138
  0
LINE
  5
217
100
AcDbEntity
  8
0
100
AcDbLine
 62
7
  6
CONTINUOUS
 10
7.0511330355
 20
13.1285031843
 11
7.0355985493
 21
13.1129686981
  0
LINE
  5
218
100
AcDbEntity
  8
0
100
AcDbLine
 62
7
  6
CONTINUOUS
 10
14.1744226038
 20
3.239891804
 11
12.5344226038
 21
3.239891804
  0
LINE
  5
219
100
AcDbEntity
  8
0
100
AcDbLine
 62
7
  6
CONTINUOUS
 10
7.1979237935
 20
12.760724408
 11
7.1974064799
 21
12.760173242
  0
LINE
  5
21A
100
AcDbEntity
  8
0
100
AcDbLine
 62
7
  6
CONTINUOUS
 10
7.1247559972
 20
13.0731953284
 11
7.1000639581
 21
13.0485032893
  0
LINE
  5
21B
100
AcDbEntity
  8
0
100
AcDbLine
 62
7
  6
CONTINUOUS
 10
7.0864875027
 20
13.0322843342
 11
7.0720069235
 21
13.0178037551
  0
LINE
  5
21C
100
AcDbEntity
  8
0
100
AcDbLine
 62
7
  6
CONTINUOUS
 10
7.1106583107
 20
12.998538858
 11
7.1009650657
 21
12.9888456129
  0
LINE
  5
21D
100
AcDbEntity
  8
0
100
AcDbLine
 62
7
  6
CONTINUOUS
 10
7.08087269
 20
12.9407077539
 11
7.0760815031
 21
12.935916567
  0
LINE
  5
21E
100
AcDbEntity
  8
0
100
AcDbLine
 62
7
  6
CONTINUOUS
 10
7.2346780325
 20
12.9492710267
 11
7.2169871266
 21
12.9315801208
  0
LINE
  5
21F
100
AcDbEntity
  8
0
100
AcDbLine
 62
7
  6
CONTINUOUS
 10
7.2169736246
 20
12.9044144543
 11
7.2011849244
 21
12.8886257542
  0
LINE
  5
220
100
AcDbEntity
  8
0
100
AcDbLine
 62
7
  6
CONTINUOUS
 10
7.1799438803
 20
12.7780449966
 11
7.1612153506
 21
12.7593164669
  0
LINE
  5
221
100
AcDbEntity
  8
0
100
AcDbLine
 62
7
  6
CONTINUOUS
 10
7.1974058508
 20
12.7601730049
 11
7.1788823317
 21
12.7416494858
  0
LINE
  5
222
100
AcDbEntity
  8
0
100
AcDbLine
 62
7
  6
CONTINUOUS
 10
7.3135127865
 20
12.8360227721
 11
7.2836503465
 21
12.8061603321
  0
LINE
  5
223
100
AcDbEntity
  8
0
100
AcDbLine
 62
7
  6
CONTINUOUS
 10
7.3611461935
 20
12.8368051321
 11
7.3364541544
 21
12.8121130931
  0
LINE
  5
224
100
AcDbEntity
  8
0
100
AcDbLine
 62
7
  6
CONTINUOUS
 10
7.2514243263
 20
12.7048817358
 11
7.233537204
 21
12.6869946135
  0
LINE
  5
225
100
AcDbEntity
  8
0
100
AcDbLine
 62
7
  6
CONTINUOUS
 10
7.3935634503
 20
12.7156337184
 11
7.3838702053
 21
12.7059404733
  0
LINE
  5
226
100
AcDbEntity
  8
0
100
AcDbLine
 62
7
  6
CONTINUOUS
 10
7.3384612425
 20
12.5914789345
 11
7.3337570628
 21
12.5867747547
  0
LINE
  5
227
100
AcDbEntity
  8
0
100
AcDbLine
 62
7
  6
CONTINUOUS
 10
7.4738799504
 20
12.7156925519
 11
7.4533773229
 21
12.6951899245
  0
LINE
  5
228
100
AcDbEntity
  8
0
100
AcDbLine
 62
7
  6
CONTINUOUS
 10
7.3484960034
 20
12.5794381093
 11
7.3447948558
 21
12.5757369617
  0
LWPOLYLINE
  5
229
100
AcDbEntity
  8
0
100
AcDbPolyline
 62
7
  6
CONTINUOUS
 90
5
 70
0
 10
7.338458801
 20
12.5914796361
 10
7.3395429413
 20
12.5924360499
 10
7.3416004207
 20
12.5937107793
 10
7.3437591889
 20
12.5944973386
 10
7.3458132353
 20
12.5948239098
  0
LINE
  5
22A
100
AcDbEntity
  8
0
100
AcDbLine
 62
7
  6
CONTINUOUS
 10
12.5094226038
 20
3.602391804
 11
12.3594226038
 21
3.602391804
  0
LINE
  5
22B
100
AcDbEntity
  8
0
100
AcDbLine
 62
7
  6
CONTINUOUS
 10
12.5094226038
 20
3.639891804
 11
12.5344226038
 21
3.639891804
  0
LINE
  5
22C
100
AcDbEntity
  8
0
100
AcDbLine
 62
9
  6
CONTINUOUS
 10
11.5694226038
 20
3.697391804
 11
11.5994226038
 21
3.697391804
  0
LINE
  5
22D
100
AcDbEntity
  8
0
100
AcDbLine
 62
7
  6
CONTINUOUS
 10
11.6294226038
 20
3.727391804
 11
12.3094226038
 21
3.727391804
  0
LINE
  5
22E
100
AcDbEntity
  8
0
100
AcDbLine
 62
9
  6
CONTINUOUS
 10
11.6294226038
 20
3.757391804
 11
12.3394226038
 21
3.757391804
  0
LINE
  5
22F
100
AcDbEntity
  8
0
100
AcDbLine
 62
7
  6
CONTINUOUS
 10
12.3594226038
 20
3.839891804
 11
12.3394226038
 21
3.839891804
  0
LINE
  5
230
100
AcDbEntity
  8
0
100
AcDbLine
 62
7
  6
CONTINUOUS
 10
7.3499079636
 20
12.5435595948
 11
7.3148438385
 21
12.4683643357
  0
LINE
  5
231
100
AcDbEntity
  8
0
100
AcDbLine
 62
7
  6
CONTINUOUS
 10
7.5349836731
 20
12.6100079371
 11
7.5073932073
 21
12.5824174713
  0
LINE
  5
232
100
AcDbEntity
  8
0
100
AcDbLine
 62
7
  6
CONTINUOUS
 10
9.4044579583
 20
14.434973691
 11
8.739777584
 21
13.7702933167
  0
LINE
  5
233
100
AcDbEntity
  8
0
100
AcDbLine
 62
7
  6
CONTINUOUS
 10
9.4149468117
 20
14.4244848376
 11
9.1674594383
 21
14.1769974642
  0
LINE
  5
234
100
AcDbEntity
  8
0
100
AcDbLine
 62
7
  6
CONTINUOUS
 10
7.6364284075
 20
12.5615229181
 11
7.6117363684
 21
12.536830879
  0
LINE
  5
235
100
AcDbEntity
  8
0
100
AcDbLine
 62
7
  6
CONTINUOUS
 10
7.6173063111
 20
12.4918908576
 11
7.6076130661
 21
12.4821976125
  0
LINE
  5
236
100
AcDbEntity
  8
0
100
AcDbLine
 62
7
  6
CONTINUOUS
 10
10.0072664892
 20
14.8645410606
 11
9.7794877019
 21
14.6367622732
  0
LINE
  5
237
100
AcDbEntity
  8
0
100
AcDbLine
 62
7
  6
CONTINUOUS
 10
9.9284005587
 20
14.7666302958
 11
9.789010119
 21
14.6272398561
  0
LINE
  5
238
100
AcDbEntity
  8
0
100
AcDbLine
 62
7
  6
CONTINUOUS
 10
11.0227236069
 20
15.814590801
 11
10.2454207387
 21
15.0372879327
  0
LINE
  5
239
100
AcDbEntity
  8
0
100
AcDbLine
 62
7
  6
CONTINUOUS
 10
10.2145890009
 20
15.0064561949
 11
10.2081343686
 21
15.0000015627
  0
LINE
  5
23A
100
AcDbEntity
  8
0
100
AcDbLine
 62
7
  6
CONTINUOUS
 10
10.1761301159
 20
14.96799731
 11
10.158356818
 21
14.950224012
  0
LINE
  5
23B
100
AcDbEntity
  8
0
100
AcDbLine
 62
7
  6
CONTINUOUS
 10
10.1248903688
 20
14.9167575629
 11
10.108709327
 21
14.9005765211
  0
LINE
  5
23C
100
AcDbEntity
  8
0
100
AcDbLine
 62
7
  6
CONTINUOUS
 10
10.0735205731
 20
14.8653877671
 11
10.0589006671
 21
14.8507678612
  0
LINE
  5
23D
100
AcDbEntity
  8
0
100
AcDbLine
 62
7
  6
CONTINUOUS
 10
9.533532224
 20
14.3058994253
 11
9.2860448505
 21
14.0584120519
  0
LINE
  5
23E
100
AcDbEntity
  8
0
100
AcDbLine
 62
7
  6
CONTINUOUS
 10
10.2394545027
 20
14.9997935038
 11
10.2520834298
 21
15.0124224309
  0
LINE
  5
23F
100
AcDbEntity
  8
0
100
AcDbLine
 62
7
  6
CONTINUOUS
 10
10.2152325529
 20
14.9735408706
 11
10.2028102918
 21
14.9611186095
  0
LINE
  5
240
100
AcDbEntity
  8
0
100
AcDbLine
 62
7
  6
CONTINUOUS
 10
10.1659894907
 20
14.9217651722
 11
10.1535681935
 21
14.909343875
  0
LINE
  5
241
100
AcDbEntity
  8
0
100
AcDbLine
 62
7
  6
CONTINUOUS
 10
10.1169713055
 20
14.869763819
 11
10.1045512622
 21
14.8573437756
  0
LINE
  5
242
100
AcDbEntity
  8
0
100
AcDbLine
 62
7
  6
CONTINUOUS
 10
10.0676769244
 20
14.8180447879
 11
10.0607198431
 21
14.8110877067
  0
LINE
  5
243
100
AcDbEntity
  8
0
100
AcDbLine
 62
7
  6
CONTINUOUS
 10
7.6119663421
 20
12.3358653799
 11
7.5983163899
 21
12.3222154277
  0
LINE
  5
244
100
AcDbEntity
  8
0
100
AcDbLine
 62
7
  6
CONTINUOUS
 10
7.752438513
 20
12.4436866865
 11
7.728659537
 21
12.4199077105
  0
LINE
  5
245
100
AcDbEntity
  8
0
100
AcDbLine
 62
7
  6
CONTINUOUS
 10
10.0165233424
 20
14.6785075121
 11
9.8771329027
 21
14.5391170724
  0
LINE
  5
246
100
AcDbEntity
  8
0
100
AcDbLine
 62
7
  6
CONTINUOUS
 10
7.7820035831
 20
12.357922378
 11
7.7569459418
 21
12.3328647368
  0
LINE
  5
247
100
AcDbEntity
  8
0
100
AcDbLine
 62
7
  6
CONTINUOUS
 10
7.7074703114
 20
12.2309296317
 11
7.6985362486
 21
12.2219955689
  0
LINE
  5
248
100
AcDbEntity
  8
0
100
AcDbLine
 62
7
  6
CONTINUOUS
 10
7.7631223469
 20
12.1811588446
 11
7.7512476599
 21
12.1692841576
  0
LINE
  5
249
100
AcDbEntity
  8
0
100
AcDbLine
 62
7
  6
CONTINUOUS
 10
7.8796026371
 20
12.2550817145
 11
7.8571658006
 21
12.232644878
  0
LINE
  5
24A
100
AcDbEntity
  8
0
100
AcDbLine
 62
7
  6
CONTINUOUS
 10
7.9318426114
 20
12.2661087143
 11
7.9071505723
 21
12.2414166752
  0
LWPOLYLINE
  5
24B
100
AcDbEntity
  8
0
100
AcDbPolyline
 62
7
  6
CONTINUOUS
 90
8
 70
0
 10
7.7074705255
 20
12.2309319721
 10
7.7089846306
 20
12.2321880554
 10
7.711151776
 20
12.2333247759
 10
7.7132043265
 20
12.2338717312
 10
7.7148475213
 20
12.2339812334
 10
7.7159550067
 20
12.2338781929
 10
7.7165597109
 20
12.2337442073
 10
7.7167058274
 20
12.2336981492
  0
LINE
  5
24C
100
AcDbEntity
  8
0
100
AcDbLine
 62
7
  6
CONTINUOUS
 10
12.3594226038
 20
4.239891804
 11
12.3394226038
 21
4.239891804
  0
LINE
  5
24D
100
AcDbEntity
  8
0
100
AcDbLine
 62
9
  6
CONTINUOUS
 10
11.6294226038
 20
4.322391804
 11
12.3394226038
 21
4.322391804
  0
LINE
  5
24E
100
AcDbEntity
  8
0
100
AcDbLine
 62
7
  6
CONTINUOUS
 10
11.6294226038
 20
4.352391804
 11
12.3094226038
 21
4.352391804
  0
LINE
  5
24F
100
AcDbEntity
  8
0
100
AcDbLine
 62
9
  6
CONTINUOUS
 10
11.5994226038
 20
4.382391804
 11
11.5694226038
 21
4.382391804
  0
LINE
  5
250
100
AcDbEntity
  8
0
100
AcDbLine
 62
7
  6
CONTINUOUS
 10
12.5094226038
 20
4.439891804
 11
12.5344226038
 21
4.439891804
  0
LINE
  5
251
100
AcDbEntity
  8
0
100
AcDbLine
 62
7
  6
CONTINUOUS
 10
12.5094226038
 20
4.477391804
 11
12.3594226038
 21
4.477391804
  0
LINE
  5
252
100
AcDbEntity
  8
0
100
AcDbLine
 62
7
  6
CONTINUOUS
 10
6.759992122
 20
13.3688900861
 11
6.759992122
 21
13.3573585008
  0
LINE
  5
253
100
AcDbEntity
  8
0
100
AcDbLine
 62
7
  6
CONTINUOUS
 10
6.7988841397
 20
13.3299972236
 11
6.7988841397
 21
13.3184664465
  0
LINE
  5
254
100
AcDbEntity
  8
0
100
AcDbLine
 62
7
  6
CONTINUOUS
 10
6.8991539965
 20
13.1709712377
 11
6.8991539965
 21
13.1594399576
  0
LINE
  5
255
100
AcDbEntity
  8
0
100
AcDbLine
 62
7
  6
CONTINUOUS
 10
6.9129097663
 20
13.215971597
 11
6.9129097663
 21
13.2044408199
  0
LINE
  5
256
100
AcDbEntity
  8
0
100
AcDbLine
 62
7
  6
CONTINUOUS
 10
6.9660214502
 20
13.1041037751
 11
6.9660214502
 21
13.0925725039
  0
LINE
  5
257
100
AcDbEntity
  8
0
100
AcDbLine
 62
7
  6
CONTINUOUS
 10
7.0942983436
 20
13.0345830197
 11
7.0942983436
 21
13.0230522426
  0
LINE
  5
258
100
AcDbEntity
  8
0
100
AcDbLine
 62
7
  6
CONTINUOUS
 10
7.0951994511
 20
12.9749257742
 11
7.0951994511
 21
12.963394503
  0
LINE
  5
259
100
AcDbEntity
  8
0
100
AcDbLine
 62
7
  6
CONTINUOUS
 10
10.7826563731
 20
14.4570034104
 11
10.7826503061
 21
14.4569971736
  0
LINE
  5
25A
100
AcDbEntity
  8
0
100
AcDbLine
 62
7
  6
CONTINUOUS
 10
7.8621757751
 20
12.0797725553
 11
7.8514675186
 21
12.0690642989
  0
LINE
  5
25B
100
AcDbEntity
  8
0
100
AcDbLine
 62
7
  6
CONTINUOUS
 10
7.917228463
 20
12.0234334238
 11
7.9071634284
 21
12.0133683891
  0
LINE
  5
25C
100
AcDbEntity
  8
0
100
AcDbLine
 62
7
  6
CONTINUOUS
 10
8.0487657799
 20
12.1491855457
 11
8.0240737408
 21
12.1244935066
  0
LINE
  5
25D
100
AcDbEntity
  8
0
100
AcDbLine
 62
7
  6
CONTINUOUS
 10
8.0377387802
 20
12.0969455715
 11
8.0153019437
 21
12.0745087349
  0
LINE
  5
25E
100
AcDbEntity
  8
0
100
AcDbLine
 62
7
  6
CONTINUOUS
 10
8.0199011107
 20
11.925666354
 11
8.0073832871
 21
11.9131485304
  0
LINE
  5
25F
100
AcDbEntity
  8
0
100
AcDbLine
 62
7
  6
CONTINUOUS
 10
8.1405794437
 20
11.9993465175
 11
8.1155218024
 21
11.9742888762
  0
LINE
  5
260
100
AcDbEntity
  8
0
100
AcDbLine
 62
7
  6
CONTINUOUS
 10
8.2263437521
 20
11.9697814473
 11
8.2025647761
 21
11.9460024713
  0
LINE
  5
261
100
AcDbEntity
  8
0
100
AcDbLine
 62
7
  6
CONTINUOUS
 10
10.6140074562
 20
14.2969651312
 11
10.626427152
 21
14.309384827
  0
LINE
  5
262
100
AcDbEntity
  8
0
100
AcDbLine
 62
7
  6
CONTINUOUS
 10
10.6658456136
 20
14.3461474524
 11
10.6782663692
 21
14.358568208
  0
LINE
  5
263
100
AcDbEntity
  8
0
100
AcDbLine
 62
7
  6
CONTINUOUS
 10
10.7176537834
 20
14.3953523897
 11
10.7300755093
 21
14.4077741157
  0
LINE
  5
264
100
AcDbEntity
  8
0
100
AcDbLine
 62
7
  6
CONTINUOUS
 10
10.7695039638
 20
14.4445201982
 11
10.7819267232
 21
14.4569429576
  0
LINE
  5
265
100
AcDbEntity
  8
0
100
AcDbLine
 62
7
  6
CONTINUOUS
 10
10.7826503061
 20
14.4569971736
 11
10.7950794966
 21
14.4694263641
  0
LINE
  5
266
100
AcDbEntity
  8
0
100
AcDbLine
 62
7
  6
CONTINUOUS
 10
11.5972478666
 20
15.2400665413
 11
10.8199449984
 21
14.462763673
  0
LINE
  5
267
100
AcDbEntity
  8
0
100
AcDbLine
 62
7
  6
CONTINUOUS
 10
10.7763016711
 20
14.4191203457
 11
10.7577856511
 21
14.4006043257
  0
LINE
  5
268
100
AcDbEntity
  8
0
100
AcDbLine
 62
7
  6
CONTINUOUS
 10
10.7250186981
 20
14.3678373728
 11
10.7080285344
 21
14.350847209
  0
LINE
  5
269
100
AcDbEntity
  8
0
100
AcDbLine
 62
7
  6
CONTINUOUS
 10
10.6737585339
 20
14.3165772086
 11
10.6582865541
 21
14.3011052287
  0
LINE
  5
26A
100
AcDbEntity
  8
0
100
AcDbLine
 62
7
  6
CONTINUOUS
 10
10.6224832631
 20
14.2653019377
 11
10.6144944376
 21
14.2573131122
  0
LINE
  5
26B
100
AcDbEntity
  8
0
100
AcDbLine
 62
7
  6
CONTINUOUS
 10
10.6471981262
 20
14.2246094236
 11
10.4194193389
 21
13.9968306363
  0
LINE
  5
26C
100
AcDbEntity
  8
0
100
AcDbLine
 62
7
  6
CONTINUOUS
 10
8.2745479232
 20
11.8346492455
 11
8.2648546782
 21
11.8249560004
  0
LINE
  5
26D
100
AcDbEntity
  8
0
100
AcDbLine
 62
7
  6
CONTINUOUS
 10
8.3441799837
 20
11.8537713419
 11
8.3194879447
 21
11.8290793028
  0
LINE
  5
26E
100
AcDbEntity
  8
0
100
AcDbLine
 62
7
  6
CONTINUOUS
 10
10.2176307566
 20
13.6218008926
 11
9.5529503823
 21
12.9571205183
  0
LWPOLYLINE
  5
26F
100
AcDbEntity
  8
0
100
AcDbPolyline
 62
7
  6
CONTINUOUS
 90
7
 70
0
 10
8.0199000415
 20
11.925664716
 10
8.0213231412
 20
11.9268562669
 10
8.0234122762
 20
11.9279807704
 10
8.0254024027
 20
11.9285375361
 10
8.0269623684
 20
11.9286590374
 10
8.0279136651
 20
11.9285798701
 10
8.0282118939
 20
11.9285204177
  0
LWPOLYLINE
  5
270
100
AcDbEntity
  8
0
100
AcDbPolyline
 62
7
  6
CONTINUOUS
 90
7
 70
0
 10
7.8621722583
 20
12.0797718034
 10
7.8636263381
 20
12.0809841663
 10
7.8658155763
 20
12.0821367165
 10
7.8678969093
 20
12.0826774609
 10
7.8694919748
 20
12.0827620724
 10
7.8704368836
 20
12.082658793
 10
7.8707395465
 20
12.0825908966
  0
LINE
  5
271
100
AcDbEntity
  8
0
100
AcDbLine
 62
7
  6
CONTINUOUS
 10
14.1744226038
 20
4.839891804
 11
12.5344226038
 21
4.839891804
  0
LINE
  5
272
100
AcDbEntity
  8
0
100
AcDbLine
 62
9
  6
CONTINUOUS
 10
10.9694226038
 20
5.009891804
 11
11.5994226038
 21
5.009891804
  0
LINE
  5
273
100
AcDbEntity
  8
0
100
AcDbLine
 62
7
  6
CONTINUOUS
 10
10.9994226038
 20
5.039891804
 11
11.5694226038
 21
5.039891804
  0
LINE
  5
274
100
AcDbEntity
  8
0
100
AcDbLine
 62
9
  6
CONTINUOUS
 10
14.1744226038
 20
5.129891804
 11
14.4844226038
 21
5.129891804
  0
LINE
  5
275
100
AcDbEntity
  8
0
100
AcDbLine
 62
7
  6
CONTINUOUS
 10
14.1944226038
 20
5.149891804
 11
14.4844226038
 21
5.149891804
  0
LINE
  5
276
100
AcDbEntity
  8
0
100
AcDbLine
 62
7
  6
CONTINUOUS
 10
7.1577559819
 20
12.7509647502
 11
7.1577559819
 21
12.73291053
  0
LINE
  5
277
100
AcDbEntity
  8
0
100
AcDbLine
 62
7
  6
CONTINUOUS
 10
7.175422963
 20
12.7332977691
 11
7.175422963
 21
12.7152435014
  0
LINE
  5
278
100
AcDbEntity
  8
0
100
AcDbLine
 62
7
  6
CONTINUOUS
 10
7.2300778353
 20
12.6786428968
 11
7.2300778353
 21
12.6605886291
  0
LINE
  5
279
100
AcDbEntity
  8
0
100
AcDbLine
 62
7
  6
CONTINUOUS
 10
7.277884732
 20
12.7922404933
 11
7.277884732
 21
12.7807092222
  0
LINE
  5
27A
100
AcDbEntity
  8
0
100
AcDbLine
 62
7
  6
CONTINUOUS
 10
7.3306885398
 20
12.7981928235
 11
7.3306885398
 21
12.7866620463
  0
LINE
  5
27B
100
AcDbEntity
  8
0
100
AcDbLine
 62
7
  6
CONTINUOUS
 10
7.341335487
 20
12.567385245
 11
7.341335487
 21
12.5493309773
  0
LINE
  5
27C
100
AcDbEntity
  8
0
100
AcDbLine
 62
7
  6
CONTINUOUS
 10
7.3729509498
 20
12.383785222
 11
7.3729509498
 21
12.3722539447
  0
LINE
  5
27D
100
AcDbEntity
  8
0
100
AcDbLine
 62
7
  6
CONTINUOUS
 10
7.5016275928
 20
12.5684976325
 11
7.5016275928
 21
12.5569663614
  0
LINE
  5
27E
100
AcDbEntity
  8
0
100
AcDbLine
 62
7
  6
CONTINUOUS
 10
7.5514863306
 20
12.2052498388
 11
7.5514863306
 21
12.1937185638
  0
LINE
  5
27F
100
AcDbEntity
  8
0
100
AcDbLine
 62
7
  6
CONTINUOUS
 10
7.5948570211
 20
12.3138637108
 11
7.5948570211
 21
12.2958094439
  0
LINE
  5
280
100
AcDbEntity
  8
0
100
AcDbLine
 62
7
  6
CONTINUOUS
 10
7.6059707539
 20
12.5229106094
 11
7.6059707539
 21
12.5113798323
  0
LINE
  5
281
100
AcDbEntity
  8
0
100
AcDbLine
 62
7
  6
CONTINUOUS
 10
8.3926650028
 20
11.7523266075
 11
8.3650745369
 21
11.7247361417
  0
LINE
  5
282
100
AcDbEntity
  8
0
100
AcDbLine
 62
7
  6
CONTINUOUS
 10
8.321509906
 20
11.609663986
 11
8.3161888688
 21
11.6043429487
  0
LINE
  5
283
100
AcDbEntity
  8
0
100
AcDbLine
 62
7
  6
CONTINUOUS
 10
8.4983496176
 20
11.6912228847
 11
8.4778469902
 21
11.6707202573
  0
LINE
  5
284
100
AcDbEntity
  8
0
100
AcDbLine
 62
7
  6
CONTINUOUS
 10
8.498290784
 20
11.6109063847
 11
8.488597539
 21
11.6012131396
  0
LINE
  5
285
100
AcDbEntity
  8
0
100
AcDbLine
 62
7
  6
CONTINUOUS
 10
8.4336775793
 20
11.5213919418
 11
8.4164087275
 21
11.50412309
  0
LINE
  5
286
100
AcDbEntity
  8
0
100
AcDbLine
 62
7
  6
CONTINUOUS
 10
8.6194621978
 20
11.5784891278
 11
8.5947701587
 21
11.5537970887
  0
LINE
  5
287
100
AcDbEntity
  8
0
100
AcDbLine
 62
7
  6
CONTINUOUS
 10
8.5114201094
 20
11.4454349884
 11
8.4932584692
 21
11.4272733483
  0
LINE
  5
288
100
AcDbEntity
  8
0
100
AcDbLine
 62
7
  6
CONTINUOUS
 10
8.6186798377
 20
11.5308557208
 11
8.5888173977
 21
11.5009932809
  0
LINE
  5
289
100
AcDbEntity
  8
0
100
AcDbLine
 62
7
  6
CONTINUOUS
 10
8.5536127139
 20
11.404214849
 11
8.5349648412
 21
11.3855669763
  0
LINE
  5
28A
100
AcDbEntity
  8
0
100
AcDbLine
 62
7
  6
CONTINUOUS
 10
8.68707152
 20
11.4343165589
 11
8.6712828198
 21
11.4185278588
  0
LINE
  5
28B
100
AcDbEntity
  8
0
100
AcDbLine
 62
7
  6
CONTINUOUS
 10
8.7319280924
 20
11.4520209669
 11
8.7142371864
 21
11.434330061
  0
LINE
  5
28C
100
AcDbEntity
  8
0
100
AcDbLine
 62
7
  6
CONTINUOUS
 10
8.7233648195
 20
11.2982156243
 11
8.7185736326
 21
11.2934244375
  0
LINE
  5
28D
100
AcDbEntity
  8
0
100
AcDbLine
 62
7
  6
CONTINUOUS
 10
8.7811959236
 20
11.3280012451
 11
8.7715026786
 21
11.318308
  0
LINE
  5
28E
100
AcDbEntity
  8
0
100
AcDbLine
 62
7
  6
CONTINUOUS
 10
8.5536124097
 20
11.4042153855
 11
8.553900972
 21
11.4044945524
  0
LWPOLYLINE
  5
28F
100
AcDbEntity
  8
0
100
AcDbPolyline
 62
7
  6
CONTINUOUS
 90
10
 70
0
 10
8.5114208069
 20
11.4454350012
 10
8.5124683307
 20
11.4463639063
 10
8.5145382292
 20
11.447659367
 10
8.5167251091
 20
11.4484634103
 10
8.5187631764
 20
11.4487914606
 10
8.5204107493
 20
11.4487807573
 10
8.5215805869
 20
11.4486169955
 10
8.5223451664
 20
11.4484307004
 10
8.5227847088
 20
11.4482879371
 10
8.5229596799
 20
11.4482206837
  0
LWPOLYLINE
  5
290
100
AcDbEntity
  8
0
100
AcDbPolyline
 62
7
  6
CONTINUOUS
 90
9
 70
0
 10
8.4336746711
 20
11.5213904265
 10
8.4348964032
 20
11.522449565
 10
8.436949143
 20
11.5236700755
 10
8.439036576
 20
11.5243853693
 10
8.4408981219
 20
11.5246512198
 10
8.4423165752
 20
11.5246251084
 10
8.4432315548
 20
11.5244906504
 10
8.4437075628
 20
11.52437346
 10
8.4438210246
 20
11.5243375404
  0
LWPOLYLINE
  5
291
100
AcDbEntity
  8
0
100
AcDbPolyline
 62
7
  6
CONTINUOUS
 90
9
 70
0
 10
8.553900972
 20
11.4044945524
 10
8.5554235966
 20
11.4056975796
 10
8.5570664719
 20
11.40660954
 10
8.5587677884
 20
11.4072297635
 10
8.5604425396
 20
11.4075686145
 10
8.5619962249
 20
11.4076628796
 10
8.563397156
 20
11.4075697099
 10
8.564624025
 20
11.4073450051
 10
8.5656431052
 20
11.4070496208
  0
LINE
  5
292
100
AcDbEntity
  8
0
100
AcDbLine
 62
7
  6
CONTINUOUS
 10
8.3209699252
 20
11.5648043052
 11
8.2510214013
 21
11.5321867728
  0
LINE
  5
293
100
AcDbEntity
  8
0
100
AcDbLine
 62
7
  6
CONTINUOUS
 10
7.7477882912
 20
12.1609324409
 11
7.7477882912
 21
12.1428781732
  0
LINE
  5
294
100
AcDbEntity
  8
0
100
AcDbLine
 62
7
  6
CONTINUOUS
 10
7.7511803273
 20
12.318944898
 11
7.7511803273
 21
12.3074136269
  0
LINE
  5
295
100
AcDbEntity
  8
0
100
AcDbLine
 62
7
  6
CONTINUOUS
 10
7.8039734876
 20
11.9527626842
 11
7.8039734876
 21
11.9412314069
  0
LINE
  5
296
100
AcDbEntity
  8
0
100
AcDbLine
 62
7
  6
CONTINUOUS
 10
7.9013849577
 20
12.2274964058
 11
7.9013849577
 21
12.2159656285
  0
LINE
  5
297
100
AcDbEntity
  8
0
100
AcDbLine
 62
7
  6
CONTINUOUS
 10
7.9037040596
 20
12.0050166724
 11
7.9037040596
 21
11.9869624047
  0
LINE
  5
298
100
AcDbEntity
  8
0
100
AcDbLine
 62
7
  6
CONTINUOUS
 10
7.9825088684
 20
11.768829265
 11
7.9825088684
 21
11.762696026
  0
LINE
  5
299
100
AcDbEntity
  8
0
100
AcDbLine
 62
7
  6
CONTINUOUS
 10
8.0095363291
 20
12.0605888961
 11
8.0095363291
 21
12.049057625
  0
LINE
  5
29A
100
AcDbEntity
  8
0
100
AcDbLine
 62
7
  6
CONTINUOUS
 10
8.1967991616
 20
11.9320822017
 11
8.1967991616
 21
11.9205514246
  0
LINE
  5
29B
100
AcDbEntity
  8
0
100
AcDbLine
 62
7
  6
CONTINUOUS
 10
8.2590890636
 20
11.8110361617
 11
8.2590890636
 21
11.7995048905
  0
LINE
  5
29C
100
AcDbEntity
  8
0
100
AcDbLine
 62
7
  6
CONTINUOUS
 10
8.3127295
 20
11.595991232
 11
8.3127295
 21
11.5779369643
  0
LINE
  5
29D
100
AcDbEntity
  8
0
100
AcDbLine
 62
7
  6
CONTINUOUS
 10
8.8149413999
 20
11.303830437
 11
8.8004608207
 21
11.2893498579
  0
LINE
  5
29E
100
AcDbEntity
  8
0
100
AcDbLine
 62
7
  6
CONTINUOUS
 10
8.8558523941
 20
11.3420989315
 11
8.831160355
 21
11.3174068925
  0
LINE
  5
29F
100
AcDbEntity
  8
0
100
AcDbLine
 62
7
  6
CONTINUOUS
 10
8.9111602499
 20
11.2684759698
 11
8.8956257638
 21
11.2529414837
  0
LINE
  5
2A0
100
AcDbEntity
  8
0
100
AcDbLine
 62
7
  6
CONTINUOUS
 10
8.9103739245
 20
11.1988232442
 11
8.9006806795
 21
11.1891299991
  0
LINE
  5
2A1
100
AcDbEntity
  8
0
100
AcDbLine
 62
7
  6
CONTINUOUS
 10
8.9778651779
 20
11.1325795902
 11
8.9675481332
 21
11.1222625454
  0
LINE
  5
2A2
100
AcDbEntity
  8
0
100
AcDbLine
 62
7
  6
CONTINUOUS
 10
9.0372409714
 20
11.1607103542
 11
9.0125489323
 21
11.1360183152
  0
LINE
  5
2A3
100
AcDbEntity
  8
0
100
AcDbLine
 62
7
  6
CONTINUOUS
 10
9.1512665979
 20
11.0466847277
 11
9.1265745588
 21
11.0219926886
  0
LWPOLYLINE
  5
2A4
100
AcDbEntity
  8
0
100
AcDbPolyline
 62
7
  6
CONTINUOUS
 90
8
 70
0
 10
7.2004206523
 20
12.7714685396
 10
7.2006492639
 20
12.7704867818
 10
7.2008074797
 20
12.7692476175
 10
7.2008167878
 20
12.7677495122
 10
7.2005868874
 20
12.7660363874
 10
7.2000433897
 20
12.7642115079
 10
7.19915709
 20
12.7624102999
 10
7.1979237935
 20
12.760724408
  0
LWPOLYLINE
  5
2A5
100
AcDbEntity
  8
0
100
AcDbPolyline
 62
7
  6
CONTINUOUS
 90
7
 70
0
 10
7.1829439988
 20
12.7896576291
 10
7.1833578174
 20
12.787430433
 10
7.1833362117
 20
12.7851441519
 10
7.1828588805
 20
12.7828533107
 10
7.1819379028
 20
12.7807006138
 10
7.1806175674
 20
12.7787787558
 10
7.1799432278
 20
12.7780457104
  0
LINE
  5
2A6
100
AcDbEntity
  8
0
100
AcDbLine
 62
7
  6
CONTINUOUS
 10
8.4720813756
 20
11.6567999877
 11
8.4720813756
 21
11.6452692106
  0
LINE
  5
2A7
100
AcDbEntity
  8
0
100
AcDbLine
 62
7
  6
CONTINUOUS
 10
8.4828319244
 20
11.5872933009
 11
8.4828319244
 21
11.5757620297
  0
LINE
  5
2A8
100
AcDbEntity
  8
0
100
AcDbLine
 62
7
  6
CONTINUOUS
 10
8.6655172053
 20
11.40460802
 11
8.6655172053
 21
11.3930767489
  0
LINE
  5
2A9
100
AcDbEntity
  8
0
100
AcDbLine
 62
7
  6
CONTINUOUS
 10
8.7084715719
 20
11.4204097914
 11
8.7084715719
 21
11.4088790143
  0
LINE
  5
2AA
100
AcDbEntity
  8
0
100
AcDbLine
 62
7
  6
CONTINUOUS
 10
8.7946952062
 20
11.2754300191
 11
8.7946952062
 21
11.263898748
  0
LINE
  5
2AB
100
AcDbEntity
  8
0
100
AcDbLine
 62
7
  6
CONTINUOUS
 10
8.8898601492
 20
11.2390212141
 11
8.8898601492
 21
11.227490437
  0
LINE
  5
2AC
100
AcDbEntity
  8
0
100
AcDbLine
 62
7
  6
CONTINUOUS
 10
9.3188050041
 20
10.9025927613
 11
9.2967960914
 21
10.8805838485
  0
LINE
  5
2AD
100
AcDbEntity
  8
0
100
AcDbLine
 62
7
  6
CONTINUOUS
 10
10.0712596529
 20
11.4601754625
 11
9.4744029567
 21
10.8633187663
  0
LINE
  5
2AE
100
AcDbEntity
  8
0
100
AcDbLine
 62
7
  6
CONTINUOUS
 10
7.1821349379
 20
12.7917212047
 11
7.1829439988
 21
12.7896576291
  0
LWPOLYLINE
  5
2AF
100
AcDbEntity
  8
0
100
AcDbPolyline
 62
7
  6
CONTINUOUS
 90
8
 70
0
 10
7.7660029429
 20
12.1894027605
 10
7.7659527386
 20
12.1895493624
 10
7.7660141916
 20
12.1892682761
 10
7.7661060723
 20
12.1883446876
 10
7.7660096982
 20
12.1867928948
 10
7.7654787465
 20
12.1847850646
 10
7.7643678185
 20
12.1826619813
 10
7.7631193336
 20
12.1811552864
  0
LWPOLYLINE
  5
2B0
100
AcDbEntity
  8
0
100
AcDbPolyline
 62
7
  6
CONTINUOUS
 90
8
 70
0
 10
7.6148888244
 20
12.344109704
 10
7.6148433689
 20
12.3442492797
 10
7.6149075742
 20
12.343932812
 10
7.6149859943
 20
12.3429883247
 10
7.6148669375
 20
12.3414320014
 10
7.614316212
 20
12.3394409621
 10
7.6131975438
 20
12.3373417433
 10
7.6119688433
 20
12.3358671768
  0
LINE
  5
2B1
100
AcDbEntity
  8
0
100
AcDbLine
 62
7
  6
CONTINUOUS
 10
9.5141927789
 20
12.9772061086
 11
9.517498764
 21
12.1598875853
  0
LINE
  5
2B2
100
AcDbEntity
  8
0
100
AcDbLine
 62
7
  6
CONTINUOUS
 10
9.0038857757
 20
11.1249955876
 11
9.0038857757
 21
11.1134648104
  0
LINE
  5
2B3
100
AcDbEntity
  8
0
100
AcDbLine
 62
7
  6
CONTINUOUS
 10
14.6094226038
 20
7.289891804
 11
14.7974226038
 21
7.289891804
  0
LWPOLYLINE
  5
2B4
100
AcDbEntity
  8
0
100
AcDbPolyline
 62
7
  6
CONTINUOUS
 90
6
 70
0
 10
7.1999057425
 20
12.7728689119
 10
7.1998743805
 20
12.7729266153
 10
7.1999015765
 20
12.7728719733
 10
7.2000080972
 20
12.7726389435
 10
7.2001907864
 20
12.7721798778
 10
7.2004206523
 20
12.7714685396
  0
LWPOLYLINE
  5
2B5
100
AcDbEntity
  8
0
100
AcDbPolyline
 62
7
  6
CONTINUOUS
 90
8
 70
0
 10
7.9200354673
 20
12.0321852261
 10
7.9200314452
 20
12.0321935571
 10
7.9201278982
 20
12.0317773224
 10
7.9202336722
 20
12.0307874149
 10
7.9201437435
 20
12.0291683014
 10
7.9195900733
 20
12.0270611997
 10
7.9184197161
 20
12.0248571521
 10
7.9172268387
 20
12.0234322122
  0
LWPOLYLINE
  5
2B6
100
AcDbEntity
  8
0
100
AcDbPolyline
 62
7
  6
CONTINUOUS
 90
11
 70
0
 10
7.2543477998
 20
12.7157578993
 10
7.2542937456
 20
12.71587928
 10
7.2543127665
 20
12.7158281479
 10
7.2544165548
 20
12.7155091698
 10
7.2545762025
 20
12.7148615091
 10
7.2547289688
 20
12.7138209662
 10
7.254757061
 20
12.7122934217
 10
7.2544717066
 20
12.7103220858
 10
7.2537095163
 20
12.708137908
 10
7.2524329013
 20
12.7060332807
 10
7.25142555
 20
12.7048830654
  0
LINE
  5
2B7
100
AcDbEntity
  8
0
100
AcDbLine
 62
7
  6
CONTINUOUS
 10
9.7244237768
 20
14.5038261984
 11
9.7244237768
 21
14.4305100336
  0
LINE
  5
2B8
100
AcDbEntity
  8
0
100
AcDbLine
 62
7
  6
CONTINUOUS
 10
10.1086580185
 20
14.8998655463
 11
10.108709327
 21
14.9005765211
  0
LINE
  5
2B9
100
AcDbEntity
  8
0
100
AcDbLine
 62
7
  6
CONTINUOUS
 10
10.0588497922
 20
14.850063845
 11
10.0589006671
 21
14.8507678612
  0
LINE
  5
2BA
100
AcDbEntity
  8
0
100
AcDbLine
 62
7
  6
CONTINUOUS
 10
10.1583057582
 20
14.9495175543
 11
10.158356818
 21
14.950224012
  0
LINE
  5
2BB
100
AcDbEntity
  8
0
100
AcDbLine
 62
7
  6
CONTINUOUS
 10
10.2081343686
 20
15.0000015627
 11
10.2080835027
 21
14.9992976785
  0
LINE
  5
2BC
100
AcDbEntity
  8
0
100
AcDbLine
 62
7
  6
CONTINUOUS
 10
7.0760815031
 20
12.935916567
 11
7.1812284708
 21
12.7932217652
  0
LINE
  5
2BD
100
AcDbEntity
  8
0
100
AcDbLine
 62
7
  6
CONTINUOUS
 10
7.1810121325
 20
12.793520877
 11
7.1821349379
 21
12.7917212047
  0
LINE
  5
2BE
100
AcDbEntity
  8
0
100
AcDbLine
 62
7
  6
CONTINUOUS
 10
10.6224832631
 20
14.2653019377
 11
10.6225374057
 21
14.26605082
  0
LINE
  5
2BF
100
AcDbEntity
  8
0
100
AcDbLine
 62
7
  6
CONTINUOUS
 10
10.6738131144
 20
14.3173317366
 11
10.6737585339
 21
14.3165772086
  0
LINE
  5
2C0
100
AcDbEntity
  8
0
100
AcDbLine
 62
7
  6
CONTINUOUS
 10
10.7250727324
 20
14.3685848358
 11
10.7250186981
 21
14.3678373728
  0
LINE
  5
2C1
100
AcDbEntity
  8
0
100
AcDbLine
 62
7
  6
CONTINUOUS
 10
10.7763558069
 20
14.4198691248
 11
10.7763016711
 21
14.4191203457
  0
LINE
  5
2C2
100
AcDbEntity
  8
0
100
AcDbLine
 62
7
  6
CONTINUOUS
 10
7.3787206625
 20
12.3583313029
 11
7.5314304499
 21
12.2056215155
  0
LINE
  5
2C3
100
AcDbEntity
  8
0
100
AcDbLine
 62
7
  6
CONTINUOUS
 10
7.5572529997
 20
12.1797989658
 11
7.7099688745
 21
12.027083091
  0
LINE
  5
2C4
100
AcDbEntity
  8
0
100
AcDbLine
 62
7
  6
CONTINUOUS
 10
7.8097401602
 20
11.9273118053
 11
7.9624560279
 21
11.7745959375
  0
LINE
  5
2C5
100
AcDbEntity
  8
0
100
AcDbLine
 62
7
  6
CONTINUOUS
 10
7.9882784825
 20
11.7487734829
 11
8.1409884672
 21
11.5960634982
  0
LINE
  5
2C6
100
AcDbEntity
  8
0
100
AcDbLine
 62
9
  6
CONTINUOUS
 10
7.9763756295
 20
11.768829265
 11
7.8039734876
 21
11.9412314069
  0
LINE
  5
2C7
100
AcDbEntity
  8
0
100
AcDbLine
 62
9
  6
CONTINUOUS
 10
7.7238884725
 20
12.0213164219
 11
7.5514863306
 21
12.1937185638
  0
LINE
  5
2C8
100
AcDbEntity
  8
0
100
AcDbLine
 62
9
  6
CONTINUOUS
 10
7.5453530917
 20
12.1998518028
 11
7.3729509498
 21
12.3722539447
  0
LINE
  5
2C9
100
AcDbEntity
  8
0
100
AcDbLine
 62
9
  6
CONTINUOUS
 10
7.7308483877
 20
12.0213164219
 11
7.8039734876
 21
11.948191322
  0
LINE
  5
2CA
100
AcDbEntity
  8
0
100
AcDbLine
 62
9
  6
CONTINUOUS
 10
8.1664422853
 20
11.5902938841
 11
7.8039734876
 21
11.9527626842
  0
LINE
  5
2CB
100
AcDbEntity
  8
0
100
AcDbLine
 62
9
  6
CONTINUOUS
 10
7.7354197475
 20
12.0213164219
 11
7.3729509498
 21
12.383785222
  0
LINE
  5
2CC
100
AcDbEntity
  8
0
100
AcDbLine
 62
7
  6
CONTINUOUS
 10
7.318764954
 20
12.4461258611
 11
8.2287829268
 21
11.5361078884
  0
LINE
  5
2CD
100
AcDbEntity
  8
0
100
AcDbLine
 62
9
  6
CONTINUOUS
 10
8.2510214013
 20
11.5321867728
 11
7.3148438385
 21
12.4683643357
  0
LINE
  5
2CE
100
AcDbEntity
  8
0
100
AcDbLine
 62
9
  6
CONTINUOUS
 10
7.9825088684
 20
11.762696026
 11
8.1549110103
 21
11.5902938841
  0
LINE
  5
2CF
100
AcDbEntity
  8
0
100
AcDbLine
 62
7
  6
CONTINUOUS
 10
6.6733056714
 20
13.548092094
 11
6.6430927884
 21
13.5816469
  0
LWPOLYLINE
  5
2D0
100
AcDbEntity
  8
0
100
AcDbPolyline
 62
7
  6
CONTINUOUS
 90
11
 70
0
 10
8.3238005624
 20
11.6219874483
 10
8.3237989515
 20
11.6219897911
 10
8.3239106255
 20
11.6217818298
 10
8.3241531516
 20
11.6212365472
 10
8.324448382
 20
11.6203542573
 10
8.3247101906
 20
11.619104316
 10
8.3248167617
 20
11.6174311326
 10
8.3245831165
 20
11.6153346094
 10
8.3238326933
 20
11.6130287819
 10
8.3225266148
 20
11.6108290545
 10
8.3215085538
 20
11.6096620191
  0
LINE
  5
2D1
100
AcDbEntity
  8
0
100
AcDbLine
 62
7
  6
CONTINUOUS
 10
10.9694226038
 20
1.309891804
 11
10.9694226038
 21
5.009891804
  0
LINE
  5
2D2
100
AcDbEntity
  8
0
100
AcDbLine
 62
9
  6
CONTINUOUS
 10
10.9994226038
 20
1.279891804
 11
10.9994226038
 21
5.039891804
  0
LINE
  5
2D3
100
AcDbEntity
  8
0
100
AcDbLine
 62
7
  6
CONTINUOUS
 10
9.3307491597
 20
10.8906486058
 11
9.3643039657
 21
10.8604357227
  0
LINE
  5
2D4
100
AcDbEntity
  8
0
100
AcDbLine
 62
7
  6
CONTINUOUS
 10
7.1612141433
 20
12.7245600871
 11
7.2989961109
 21
12.5867781195
  0
LINE
  5
2D5
100
AcDbEntity
  8
0
100
AcDbLine
 62
7
  6
CONTINUOUS
 10
7.3447950914
 20
12.540979139
 11
7.3474613708
 21
12.5383128596
  0
LINE
  5
2D6
100
AcDbEntity
  8
0
100
AcDbLine
 62
7
  6
CONTINUOUS
 10
7.5983175473
 20
12.2874566831
 11
7.663777504
 21
12.2219967264
  0
LINE
  5
2D7
100
AcDbEntity
  8
0
100
AcDbLine
 62
7
  6
CONTINUOUS
 10
7.7512485277
 20
12.1345257027
 11
7.8167090637
 21
12.0690651667
  0
LINE
  5
2D8
100
AcDbEntity
  8
0
100
AcDbLine
 62
7
  6
CONTINUOUS
 10
7.9071639587
 20
11.9786102717
 11
7.9726251697
 21
11.9131490607
  0
LINE
  5
2D9
100
AcDbEntity
  8
0
100
AcDbLine
 62
7
  6
CONTINUOUS
 10
8.316190629
 20
11.5695836014
 11
8.3882175553
 21
11.4975566751
  0
LINE
  5
2DA
100
AcDbEntity
  8
0
100
AcDbLine
 62
7
  6
CONTINUOUS
 10
8.3930400035
 20
11.4927342269
 11
8.5002136686
 21
11.3855605618
  0
LINE
  5
2DB
100
AcDbEntity
  8
0
100
AcDbLine
 62
9
  6
CONTINUOUS
 10
7.341335487
 20
12.5493309773
 11
7.349017174
 21
12.5416492903
  0
LINE
  5
2DC
100
AcDbEntity
  8
0
100
AcDbLine
 62
9
  6
CONTINUOUS
 10
7.9809773027
 20
11.9096891617
 11
7.9037040596
 21
11.9869624047
  0
LINE
  5
2DD
100
AcDbEntity
  8
0
100
AcDbLine
 62
9
  6
CONTINUOUS
 10
7.8250615342
 20
12.0656049301
 11
7.7477882912
 21
12.1428781732
  0
LINE
  5
2DE
100
AcDbEntity
  8
0
100
AcDbLine
 62
9
  6
CONTINUOUS
 10
7.6721302649
 20
12.2185362002
 11
7.5948570211
 21
12.2958094439
  0
LINE
  5
2DF
100
AcDbEntity
  8
0
100
AcDbLine
 62
9
  6
CONTINUOUS
 10
7.3073510784
 20
12.583315386
 11
7.1577559819
 21
12.73291053
  0
LINE
  5
2E0
100
AcDbEntity
  8
0
100
AcDbLine
 62
9
  6
CONTINUOUS
 10
7.3499079636
 20
12.5435595948
 11
7.5948570211
 21
12.298610537
  0
LINE
  5
2E1
100
AcDbEntity
  8
0
100
AcDbLine
 62
9
  6
CONTINUOUS
 10
7.674931358
 20
12.2185362002
 11
7.7477882912
 21
12.145679267
  0
LINE
  5
2E2
100
AcDbEntity
  8
0
100
AcDbLine
 62
9
  6
CONTINUOUS
 10
7.827862628
 20
12.0656049301
 11
7.9037040596
 21
11.9897634985
  0
LINE
  5
2E3
100
AcDbEntity
  8
0
100
AcDbLine
 62
9
  6
CONTINUOUS
 10
7.9837783965
 20
11.9096891617
 11
8.3127295
 21
11.5807380604
  0
LINE
  5
2E4
100
AcDbEntity
  8
0
100
AcDbLine
 62
9
  6
CONTINUOUS
 10
7.341335487
 20
12.567385245
 11
7.3532390174
 21
12.5554817146
  0
LINE
  5
2E5
100
AcDbEntity
  8
0
100
AcDbLine
 62
9
  6
CONTINUOUS
 10
8.5266131245
 20
11.3821076076
 11
8.3127295
 21
11.595991232
  0
LINE
  5
2E6
100
AcDbEntity
  8
0
100
AcDbLine
 62
9
  6
CONTINUOUS
 10
7.9990315704
 20
11.9096891617
 11
7.9037040596
 21
12.0050166724
  0
LINE
  5
2E7
100
AcDbEntity
  8
0
100
AcDbLine
 62
9
  6
CONTINUOUS
 10
7.8431158019
 20
12.0656049301
 11
7.7477882912
 21
12.1609324409
  0
LINE
  5
2E8
100
AcDbEntity
  8
0
100
AcDbLine
 62
9
  6
CONTINUOUS
 10
7.6901845318
 20
12.2185362002
 11
7.5948570211
 21
12.3138637108
  0
LINE
  5
2E9
100
AcDbEntity
  8
0
100
AcDbLine
 62
9
  6
CONTINUOUS
 10
7.325405346
 20
12.583315386
 11
7.1577559819
 21
12.7509647502
  0
LINE
  5
2EA
100
AcDbEntity
  8
0
100
AcDbLine
 62
9
  6
CONTINUOUS
 10
8.5349648412
 20
11.3855669763
 11
8.3161888688
 21
11.6043429487
  0
LINE
  5
2EB
100
AcDbEntity
  8
0
100
AcDbLine
 62
9
  6
CONTINUOUS
 10
8.0073832871
 20
11.9131485304
 11
7.9071634284
 21
12.0133683891
  0
LINE
  5
2EC
100
AcDbEntity
  8
0
100
AcDbLine
 62
9
  6
CONTINUOUS
 10
7.8514675186
 20
12.0690642989
 11
7.7512476599
 21
12.1692841576
  0
LINE
  5
2ED
100
AcDbEntity
  8
0
100
AcDbLine
 62
9
  6
CONTINUOUS
 10
7.6985362486
 20
12.2219955689
 11
7.5983163899
 21
12.3222154277
  0
LINE
  5
2EE
100
AcDbEntity
  8
0
100
AcDbLine
 62
9
  6
CONTINUOUS
 10
7.3527636632
 20
12.5677681543
 11
7.3447948558
 21
12.5757369617
  0
LINE
  5
2EF
100
AcDbEntity
  8
0
100
AcDbLine
 62
9
  6
CONTINUOUS
 10
7.3337570628
 20
12.5867747547
 11
7.1612153506
 21
12.7593164669
  0
LINE
  5
2F0
100
AcDbEntity
  8
0
100
AcDbLine
 62
7
  6
CONTINUOUS
 10
7.3447325042
 20
12.5850857402
 11
7.6029596033
 21
12.3268586411
  0
LINE
  5
2F1
100
AcDbEntity
  8
0
100
AcDbLine
 62
7
  6
CONTINUOUS
 10
7.7031794621
 20
12.2266387824
 11
7.7558908733
 21
12.1739273711
  0
LINE
  5
2F2
100
AcDbEntity
  8
0
100
AcDbLine
 62
7
  6
CONTINUOUS
 10
7.8561107321
 20
12.0737075123
 11
7.9119153543
 21
12.0179028901
  0
LINE
  5
2F3
100
AcDbEntity
  8
0
100
AcDbLine
 62
7
  6
CONTINUOUS
 10
8.0120265006
 20
11.9177917438
 11
8.3208320822
 21
11.6089861622
  0
LINE
  5
2F4
100
AcDbEntity
  8
0
100
AcDbLine
 62
7
  6
CONTINUOUS
 10
7.0725308167
 20
12.9490496272
 11
8.7317066928
 21
11.2898737511
  0
LINE
  5
2F5
100
AcDbEntity
  8
0
100
AcDbLine
 62
7
  6
CONTINUOUS
 10
8.8054528958
 20
11.2378246479
 11
7.0204817135
 21
13.0227958301
  0
LINE
  5
2F6
100
AcDbEntity
  8
0
100
AcDbLine
 62
7
  6
CONTINUOUS
 10
6.9049130165
 20
13.1455275833
 11
6.9657759857
 21
13.0846646142
  0
LINE
  5
2F7
100
AcDbEntity
  8
0
100
AcDbLine
 62
7
  6
CONTINUOUS
 10
6.9717888634
 20
13.0786517365
 11
7.0326350462
 21
13.0178055537
  0
LINE
  5
2F8
100
AcDbEntity
  8
0
100
AcDbLine
 62
7
  6
CONTINUOUS
 10
7.1009668862
 20
12.9494737137
 11
7.1618130252
 21
12.8886275747
  0
LINE
  5
2F9
100
AcDbEntity
  8
0
100
AcDbLine
 62
7
  6
CONTINUOUS
 10
7.2836510144
 20
12.7667895854
 11
7.3444994586
 21
12.7059411412
  0
LINE
  5
2FA
100
AcDbEntity
  8
0
100
AcDbLine
 62
7
  6
CONTINUOUS
 10
7.5073943894
 20
12.5430462105
 11
7.5682418053
 21
12.4821987946
  0
LINE
  5
2FB
100
AcDbEntity
  8
0
100
AcDbLine
 62
7
  6
CONTINUOUS
 10
7.7569470703
 20
12.2934935296
 11
7.8177945934
 21
12.2326460064
  0
LINE
  5
2FC
100
AcDbEntity
  8
0
100
AcDbLine
 62
7
  6
CONTINUOUS
 10
8.015303069
 20
12.0351375308
 11
8.0761505983
 21
11.9742900016
  0
LINE
  5
2FD
100
AcDbEntity
  8
0
100
AcDbLine
 62
7
  6
CONTINUOUS
 10
8.2648558733
 20
11.7855847266
 11
8.3257032631
 21
11.7247373368
  0
LINE
  5
2FE
100
AcDbEntity
  8
0
100
AcDbLine
 62
7
  6
CONTINUOUS
 10
8.4885981692
 20
11.5618424306
 11
8.5494466887
 21
11.5009939111
  0
LINE
  5
2FF
100
AcDbEntity
  8
0
100
AcDbLine
 62
7
  6
CONTINUOUS
 10
8.6712845176
 20
11.3791560822
 11
8.732130902
 21
11.3183096978
  0
LINE
  5
300
100
AcDbEntity
  8
0
100
AcDbLine
 62
7
  6
CONTINUOUS
 10
8.800462628
 20
11.2499779718
 11
8.8613087934
 21
11.1891318064
  0
LINE
  5
301
100
AcDbEntity
  8
0
100
AcDbLine
 62
7
  6
CONTINUOUS
 10
8.8673218135
 20
11.1831187864
 11
8.928172735
 21
11.1222678649
  0
LINE
  5
302
100
AcDbEntity
  8
0
100
AcDbLine
 62
9
  6
CONTINUOUS
 10
8.795804457
 20
11.2574639369
 11
8.7396167576
 21
11.3136516363
  0
LINE
  5
303
100
AcDbEntity
  8
0
100
AcDbLine
 62
9
  6
CONTINUOUS
 10
8.6666264561
 20
11.3866419378
 11
8.5569314767
 21
11.4963369171
  0
LINE
  5
304
100
AcDbEntity
  8
0
100
AcDbLine
 62
9
  6
CONTINUOUS
 10
8.4839411752
 20
11.5693272186
 11
8.3331886159
 21
11.7200797779
  0
LINE
  5
305
100
AcDbEntity
  8
0
100
AcDbLine
 62
9
  6
CONTINUOUS
 10
8.2601983144
 20
11.7930700794
 11
8.0836358814
 21
11.9696325124
  0
LINE
  5
306
100
AcDbEntity
  8
0
100
AcDbLine
 62
9
  6
CONTINUOUS
 10
8.0106455799
 20
12.042622814
 11
7.8252798796
 21
12.2279885143
  0
LINE
  5
307
100
AcDbEntity
  8
0
100
AcDbLine
 62
9
  6
CONTINUOUS
 10
7.7522895781
 20
12.3009788158
 11
7.5757271451
 21
12.4775412488
  0
LINE
  5
308
100
AcDbEntity
  8
0
100
AcDbLine
 62
9
  6
CONTINUOUS
 10
7.5027368436
 20
12.5505315503
 11
7.3519842843
 21
12.7012841096
  0
LINE
  5
309
100
AcDbEntity
  8
0
100
AcDbLine
 62
9
  6
CONTINUOUS
 10
7.2789939828
 20
12.7742744111
 11
7.1692990034
 21
12.8839693904
  0
LINE
  5
30A
100
AcDbEntity
  8
0
100
AcDbLine
 62
9
  6
CONTINUOUS
 10
7.0963087019
 20
12.9569596919
 11
7.0401210025
 21
13.0131473913
  0
LINE
  5
30B
100
AcDbEntity
  8
0
100
AcDbLine
 62
9
  6
CONTINUOUS
 10
8.7460515687
 20
11.3125423855
 11
8.6655172053
 21
11.3930767489
  0
LINE
  5
30C
100
AcDbEntity
  8
0
100
AcDbLine
 62
9
  6
CONTINUOUS
 10
8.5633662878
 20
11.4952276663
 11
8.4828319244
 21
11.5757620297
  0
LINE
  5
30D
100
AcDbEntity
  8
0
100
AcDbLine
 62
9
  6
CONTINUOUS
 10
8.339623427
 20
11.7189705271
 11
8.2590890636
 21
11.7995048905
  0
LINE
  5
30E
100
AcDbEntity
  8
0
100
AcDbLine
 62
9
  6
CONTINUOUS
 10
8.0900706925
 20
11.9685232616
 11
8.0095363291
 21
12.049057625
  0
LINE
  5
30F
100
AcDbEntity
  8
0
100
AcDbLine
 62
9
  6
CONTINUOUS
 10
7.8317146907
 20
12.2268792635
 11
7.7511803273
 21
12.3074136269
  0
LINE
  5
310
100
AcDbEntity
  8
0
100
AcDbLine
 62
9
  6
CONTINUOUS
 10
7.5821619562
 20
12.476431998
 11
7.5016275928
 21
12.5569663614
  0
LINE
  5
311
100
AcDbEntity
  8
0
100
AcDbLine
 62
9
  6
CONTINUOUS
 10
7.3584190954
 20
12.7001748588
 11
7.277884732
 21
12.7807092222
  0
LINE
  5
312
100
AcDbEntity
  8
0
100
AcDbLine
 62
9
  6
CONTINUOUS
 10
7.1757338145
 20
12.8828601396
 11
7.0951994511
 21
12.963394503
  0
LINE
  5
313
100
AcDbEntity
  8
0
100
AcDbLine
 62
9
  6
CONTINUOUS
 10
7.0465558136
 20
13.0120381405
 11
6.8991539965
 21
13.1594399576
  0
LINE
  5
314
100
AcDbEntity
  8
0
100
AcDbLine
 62
9
  6
CONTINUOUS
 10
8.7575828398
 20
11.3125423855
 11
8.6655172053
 21
11.40460802
  0
LINE
  5
315
100
AcDbEntity
  8
0
100
AcDbLine
 62
9
  6
CONTINUOUS
 10
8.3511546982
 20
11.7189705271
 11
8.2590890636
 21
11.8110361617
  0
LINE
  5
316
100
AcDbEntity
  8
0
100
AcDbLine
 62
9
  6
CONTINUOUS
 10
7.8432459618
 20
12.2268792635
 11
7.7511803273
 21
12.318944898
  0
LINE
  5
317
100
AcDbEntity
  8
0
100
AcDbLine
 62
9
  6
CONTINUOUS
 10
7.3699503665
 20
12.7001748588
 11
7.277884732
 21
12.7922404933
  0
LINE
  5
318
100
AcDbEntity
  8
0
100
AcDbLine
 62
9
  6
CONTINUOUS
 10
7.0580870848
 20
13.0120381405
 11
6.8991539965
 21
13.1709712377
  0
LINE
  5
319
100
AcDbEntity
  8
0
100
AcDbLine
 62
9
  6
CONTINUOUS
 10
8.9536282944
 20
11.1164969309
 11
8.7946952062
 21
11.2754300191
  0
LINE
  5
31A
100
AcDbEntity
  8
0
100
AcDbLine
 62
9
  6
CONTINUOUS
 10
8.574897559
 20
11.4952276663
 11
8.4828319244
 21
11.5872933009
  0
LINE
  5
31B
100
AcDbEntity
  8
0
100
AcDbLine
 62
9
  6
CONTINUOUS
 10
8.1016019636
 20
11.9685232616
 11
8.0095363291
 21
12.0605888961
  0
LINE
  5
31C
100
AcDbEntity
  8
0
100
AcDbLine
 62
9
  6
CONTINUOUS
 10
7.5936932273
 20
12.476431998
 11
7.5016275928
 21
12.5684976325
  0
LINE
  5
31D
100
AcDbEntity
  8
0
100
AcDbLine
 62
9
  6
CONTINUOUS
 10
7.1872650857
 20
12.8828601396
 11
7.0951994511
 21
12.9749257742
  0
LINE
  5
31E
100
AcDbEntity
  8
0
100
AcDbLine
 62
9
  6
CONTINUOUS
 10
8.7968150722
 20
11.2843053014
 11
8.7664581221
 21
11.3146622515
  0
LINE
  5
31F
100
AcDbEntity
  8
0
100
AcDbLine
 62
9
  6
CONTINUOUS
 10
8.6676370713
 20
11.4134833023
 11
8.5837728413
 21
11.4973475323
  0
LINE
  5
320
100
AcDbEntity
  8
0
100
AcDbLine
 62
9
  6
CONTINUOUS
 10
8.4849517904
 20
11.5961685832
 11
8.3600299805
 21
11.7210903931
  0
LINE
  5
321
100
AcDbEntity
  8
0
100
AcDbLine
 62
9
  6
CONTINUOUS
 10
8.2612089296
 20
11.819911444
 11
8.110477246
 21
11.9706431277
  0
LINE
  5
322
100
AcDbEntity
  8
0
100
AcDbLine
 62
9
  6
CONTINUOUS
 10
8.0116561951
 20
12.0694641785
 11
7.8521212441
 21
12.2289991295
  0
LINE
  5
323
100
AcDbEntity
  8
0
100
AcDbLine
 62
9
  6
CONTINUOUS
 10
7.7533001933
 20
12.3278201803
 11
7.6025685096
 21
12.478551864
  0
LINE
  5
324
100
AcDbEntity
  8
0
100
AcDbLine
 62
9
  6
CONTINUOUS
 10
7.5037474588
 20
12.5773729148
 11
7.3788256488
 21
12.7022947248
  0
LINE
  5
325
100
AcDbEntity
  8
0
100
AcDbLine
 62
9
  6
CONTINUOUS
 10
7.280004598
 20
12.8011157756
 11
7.196140368
 21
12.8849800056
  0
LINE
  5
326
100
AcDbEntity
  8
0
100
AcDbLine
 62
9
  6
CONTINUOUS
 10
7.0973193171
 20
12.9838010565
 11
7.0669623671
 21
13.0141580065
  0
LINE
  5
327
100
AcDbEntity
  8
0
100
AcDbLine
 62
9
  6
CONTINUOUS
 10
8.9675481332
 20
11.1222625454
 11
8.8004608207
 21
11.2893498579
  0
LINE
  5
328
100
AcDbEntity
  8
0
100
AcDbLine
 62
9
  6
CONTINUOUS
 10
8.7715026786
 20
11.318308
 11
8.6712828198
 21
11.4185278588
  0
LINE
  5
329
100
AcDbEntity
  8
0
100
AcDbLine
 62
9
  6
CONTINUOUS
 10
8.5888173977
 20
11.5009932809
 11
8.488597539
 21
11.6012131396
  0
LINE
  5
32A
100
AcDbEntity
  8
0
100
AcDbLine
 62
9
  6
CONTINUOUS
 10
8.3650745369
 20
11.7247361417
 11
8.2648546782
 21
11.8249560004
  0
LINE
  5
32B
100
AcDbEntity
  8
0
100
AcDbLine
 62
9
  6
CONTINUOUS
 10
8.1155218024
 20
11.9742888762
 11
8.0153019437
 21
12.0745087349
  0
LINE
  5
32C
100
AcDbEntity
  8
0
100
AcDbLine
 62
9
  6
CONTINUOUS
 10
7.8571658006
 20
12.232644878
 11
7.7569459418
 21
12.3328647368
  0
LINE
  5
32D
100
AcDbEntity
  8
0
100
AcDbLine
 62
9
  6
CONTINUOUS
 10
7.6076130661
 20
12.4821976125
 11
7.5073932073
 21
12.5824174713
  0
LINE
  5
32E
100
AcDbEntity
  8
0
100
AcDbLine
 62
9
  6
CONTINUOUS
 10
7.3838702053
 20
12.7059404733
 11
7.2836503465
 21
12.8061603321
  0
LINE
  5
32F
100
AcDbEntity
  8
0
100
AcDbLine
 62
9
  6
CONTINUOUS
 10
7.2011849244
 20
12.8886257542
 11
7.1009650657
 21
12.9888456129
  0
LINE
  5
330
100
AcDbEntity
  8
0
100
AcDbLine
 62
9
  6
CONTINUOUS
 10
7.0720069235
 20
13.0178037551
 11
6.9049196111
 21
13.1848910675
  0
LINE
  5
331
100
AcDbEntity
  8
0
100
AcDbLine
 62
7
  6
CONTINUOUS
 10
7.0801392843
 20
13.0259361158
 11
7.1090974264
 21
12.9969779737
  0
LINE
  5
332
100
AcDbEntity
  8
0
100
AcDbLine
 62
7
  6
CONTINUOUS
 10
7.2093172852
 20
12.8967581149
 11
7.2917827073
 21
12.8142926928
  0
LINE
  5
333
100
AcDbEntity
  8
0
100
AcDbLine
 62
7
  6
CONTINUOUS
 10
7.392002566
 20
12.7140728341
 11
7.515525568
 21
12.590549832
  0
LINE
  5
334
100
AcDbEntity
  8
0
100
AcDbLine
 62
7
  6
CONTINUOUS
 10
7.6157454268
 20
12.4903299733
 11
7.7650783026
 21
12.3409970975
  0
LINE
  5
335
100
AcDbEntity
  8
0
100
AcDbLine
 62
7
  6
CONTINUOUS
 10
7.8652981613
 20
12.2407772387
 11
8.0234343044
 21
12.0826410957
  0
LINE
  5
336
100
AcDbEntity
  8
0
100
AcDbLine
 62
7
  6
CONTINUOUS
 10
8.1236541631
 20
11.9824212369
 11
8.2729870389
 21
11.8330883611
  0
LINE
  5
337
100
AcDbEntity
  8
0
100
AcDbLine
 62
7
  6
CONTINUOUS
 10
8.3732068977
 20
11.7328685024
 11
8.4967298997
 21
11.6093455004
  0
LINE
  5
338
100
AcDbEntity
  8
0
100
AcDbLine
 62
7
  6
CONTINUOUS
 10
8.5969497585
 20
11.5091256416
 11
8.6794151806
 21
11.4266602195
  0
LINE
  5
339
100
AcDbEntity
  8
0
100
AcDbLine
 62
7
  6
CONTINUOUS
 10
8.7796350393
 20
11.3264403608
 11
8.8085931815
 21
11.2974822186
  0
LINE
  5
33A
100
AcDbEntity
  8
0
100
AcDbLine
 62
7
  6
CONTINUOUS
 10
6.7657579572
 20
13.3434392115
 11
6.8822068862
 21
13.2269902825
  0
LINE
  5
33B
100
AcDbEntity
  8
0
100
AcDbLine
 62
7
  6
CONTINUOUS
 10
6.9186788817
 20
13.190518287
 11
6.9962249697
 21
13.112972199
  0
LINE
  5
33C
100
AcDbEntity
  8
0
100
AcDbLine
 62
7
  6
CONTINUOUS
 10
7.1000646207
 20
13.009132548
 11
7.1776163853
 21
12.9315807834
  0
LINE
  5
33D
100
AcDbEntity
  8
0
100
AcDbLine
 62
7
  6
CONTINUOUS
 10
7.3364549475
 20
12.7727422212
 11
7.4140064511
 21
12.6951907176
  0
LINE
  5
33E
100
AcDbEntity
  8
0
100
AcDbLine
 62
7
  6
CONTINUOUS
 10
7.6117377681
 20
12.4974594006
 11
7.6892880586
 21
12.4199091102
  0
LINE
  5
33F
100
AcDbEntity
  8
0
100
AcDbLine
 62
7
  6
CONTINUOUS
 10
7.9071519668
 20
12.202045202
 11
7.9847022676
 21
12.1244949011
  0
LINE
  5
340
100
AcDbEntity
  8
0
100
AcDbLine
 62
7
  6
CONTINUOUS
 10
8.2025661198
 20
11.9066310489
 11
8.2801165222
 21
11.8290806465
  0
LINE
  5
341
100
AcDbEntity
  8
0
100
AcDbLine
 62
7
  6
CONTINUOUS
 10
8.4778478
 20
11.6313493687
 11
8.5553992701
 21
11.5537978986
  0
LINE
  5
342
100
AcDbEntity
  8
0
100
AcDbLine
 62
7
  6
CONTINUOUS
 10
8.7142378095
 20
11.3949593592
 11
8.7917896532
 21
11.3174075155
  0
LINE
  5
343
100
AcDbEntity
  8
0
100
AcDbLine
 62
7
  6
CONTINUOUS
 10
8.8956291107
 20
11.213568058
 11
8.9731755066
 21
11.1360216621
  0
LINE
  5
344
100
AcDbEntity
  8
0
100
AcDbLine
 62
7
  6
CONTINUOUS
 10
9.009647517
 20
11.0995496517
 11
9.0872083534
 21
11.0219888153
  0
LINE
  5
345
100
AcDbEntity
  8
0
100
AcDbLine
 62
9
  6
CONTINUOUS
 10
9.1011235121
 20
11.0162270741
 11
9.0038857757
 21
11.1134648104
  0
LINE
  5
346
100
AcDbEntity
  8
0
100
AcDbLine
 62
9
  6
CONTINUOUS
 10
8.9870978856
 20
11.1302527006
 11
8.8898601492
 21
11.227490437
  0
LINE
  5
347
100
AcDbEntity
  8
0
100
AcDbLine
 62
9
  6
CONTINUOUS
 10
8.8057093083
 20
11.3116412779
 11
8.7084715719
 21
11.4088790143
  0
LINE
  5
348
100
AcDbEntity
  8
0
100
AcDbLine
 62
9
  6
CONTINUOUS
 10
8.569319112
 20
11.5480314742
 11
8.4720813756
 21
11.6452692106
  0
LINE
  5
349
100
AcDbEntity
  8
0
100
AcDbLine
 62
9
  6
CONTINUOUS
 10
8.2940368979
 20
11.8233136882
 11
8.1967991616
 21
11.9205514246
  0
LINE
  5
34A
100
AcDbEntity
  8
0
100
AcDbLine
 62
9
  6
CONTINUOUS
 10
7.9986226941
 20
12.1187278921
 11
7.9013849577
 21
12.2159656285
  0
LINE
  5
34B
100
AcDbEntity
  8
0
100
AcDbLine
 62
9
  6
CONTINUOUS
 10
7.7032084903
 20
12.4141420959
 11
7.6059707539
 21
12.5113798323
  0
LINE
  5
34C
100
AcDbEntity
  8
0
100
AcDbLine
 62
9
  6
CONTINUOUS
 10
7.4279262762
 20
12.68942431
 11
7.3306885398
 21
12.7866620463
  0
LINE
  5
34D
100
AcDbEntity
  8
0
100
AcDbLine
 62
9
  6
CONTINUOUS
 10
7.1915360799
 20
12.9258145063
 11
7.0942983436
 21
13.0230522426
  0
LINE
  5
34E
100
AcDbEntity
  8
0
100
AcDbLine
 62
9
  6
CONTINUOUS
 10
7.0101475026
 20
13.1072030836
 11
6.9129097663
 21
13.2044408199
  0
LINE
  5
34F
100
AcDbEntity
  8
0
100
AcDbLine
 62
9
  6
CONTINUOUS
 10
6.759992122
 20
13.3573585008
 11
6.8961218761
 21
13.2212287101
  0
LINE
  5
350
100
AcDbEntity
  8
0
100
AcDbLine
 62
9
  6
CONTINUOUS
 10
7.0216782797
 20
13.1072030836
 11
6.9201958751
 21
13.2086854882
  0
LINE
  5
351
100
AcDbEntity
  8
0
100
AcDbLine
 62
9
  6
CONTINUOUS
 10
6.759992122
 20
13.3688897345
 11
6.9076526532
 21
13.2212287101
  0
LINE
  5
352
100
AcDbEntity
  8
0
100
AcDbLine
 62
9
  6
CONTINUOUS
 10
9.1126542892
 20
11.0162270741
 11
9.0038857757
 21
11.1249955876
  0
LINE
  5
353
100
AcDbEntity
  8
0
100
AcDbLine
 62
9
  6
CONTINUOUS
 10
8.9986286627
 20
11.1302527006
 11
8.8898601492
 21
11.2390212141
  0
LINE
  5
354
100
AcDbEntity
  8
0
100
AcDbLine
 62
9
  6
CONTINUOUS
 10
8.8172400854
 20
11.3116412779
 11
8.7084715719
 21
11.4204097914
  0
LINE
  5
355
100
AcDbEntity
  8
0
100
AcDbLine
 62
9
  6
CONTINUOUS
 10
8.5808498891
 20
11.5480314742
 11
8.4720813756
 21
11.6567999877
  0
LINE
  5
356
100
AcDbEntity
  8
0
100
AcDbLine
 62
9
  6
CONTINUOUS
 10
8.3055676751
 20
11.8233136882
 11
8.1967991616
 21
11.9320822017
  0
LINE
  5
357
100
AcDbEntity
  8
0
100
AcDbLine
 62
9
  6
CONTINUOUS
 10
8.0101534714
 20
12.1187278921
 11
7.9013849577
 21
12.2274964058
  0
LINE
  5
358
100
AcDbEntity
  8
0
100
AcDbLine
 62
9
  6
CONTINUOUS
 10
7.7147392674
 20
12.4141420959
 11
7.6059707539
 21
12.5229106094
  0
LINE
  5
359
100
AcDbEntity
  8
0
100
AcDbLine
 62
9
  6
CONTINUOUS
 10
7.4394570533
 20
12.68942431
 11
7.3306885398
 21
12.7981928235
  0
LINE
  5
35A
100
AcDbEntity
  8
0
100
AcDbLine
 62
9
  6
CONTINUOUS
 10
7.203066857
 20
12.9258145063
 11
7.0942983436
 21
13.0345830197
  0
LINE
  5
35B
100
AcDbEntity
  8
0
100
AcDbLine
 62
9
  6
CONTINUOUS
 10
6.9201959317
 20
13.2086862764
 11
6.9129097663
 21
13.215971597
  0
LINE
  5
35C
100
AcDbEntity
  8
0
100
AcDbLine
 62
9
  6
CONTINUOUS
 10
9.1265745588
 20
11.0219926886
 11
8.8956257638
 21
11.2529414837
  0
LINE
  5
35D
100
AcDbEntity
  8
0
100
AcDbLine
 62
9
  6
CONTINUOUS
 10
8.831160355
 20
11.3174068925
 11
8.7142371864
 21
11.434330061
  0
LINE
  5
35E
100
AcDbEntity
  8
0
100
AcDbLine
 62
9
  6
CONTINUOUS
 10
8.5947701587
 20
11.5537970887
 11
8.4778469902
 21
11.6707202573
  0
LINE
  5
35F
100
AcDbEntity
  8
0
100
AcDbLine
 62
9
  6
CONTINUOUS
 10
8.3194879447
 20
11.8290793028
 11
8.2025647761
 21
11.9460024713
  0
LINE
  5
360
100
AcDbEntity
  8
0
100
AcDbLine
 62
9
  6
CONTINUOUS
 10
8.0240737408
 20
12.1244935066
 11
7.9071505723
 21
12.2414166752
  0
LINE
  5
361
100
AcDbEntity
  8
0
100
AcDbLine
 62
9
  6
CONTINUOUS
 10
7.728659537
 20
12.4199077105
 11
7.6117363684
 21
12.536830879
  0
LINE
  5
362
100
AcDbEntity
  8
0
100
AcDbLine
 62
9
  6
CONTINUOUS
 10
7.4533773229
 20
12.6951899245
 11
7.3364541544
 21
12.8121130931
  0
LINE
  5
363
100
AcDbEntity
  8
0
100
AcDbLine
 62
9
  6
CONTINUOUS
 10
7.2169871266
 20
12.9315801208
 11
7.1000639581
 21
13.0485032893
  0
LINE
  5
364
100
AcDbEntity
  8
0
100
AcDbLine
 62
9
  6
CONTINUOUS
 10
7.0355985493
 20
13.1129686981
 11
6.7657577365
 21
13.3828095109
  0
LINE
  5
365
100
AcDbEntity
  8
0
100
AcDbLine
 62
7
  6
CONTINUOUS
 10
6.7418181163
 20
13.4561332093
 11
9.237431761
 21
10.9605195646
  0
LINE
  5
366
100
AcDbEntity
  8
0
100
AcDbLine
 62
7
  6
CONTINUOUS
 10
6.7400553966
 20
13.4582404728
 11
9.2389906461
 21
10.9593052233
  0
LINE
  5
367
100
AcDbEntity
  8
0
100
AcDbLine
 62
7
  6
CONTINUOUS
 10
9.3307491597
 20
10.8906486058
 11
6.6733056714
 21
13.548092094
  0
LINE
  5
368
100
AcDbEntity
  8
0
100
AcDbLine
 62
9
  6
CONTINUOUS
 10
6.6430927884
 20
13.5816469
 11
9.3643039657
 21
10.8604357227
  0
LINE
  5
369
100
AcDbEntity
  8
0
100
AcDbLine
 62
9
  6
CONTINUOUS
 10
6.6459758319
 20
13.691745891
 11
9.4744029567
 21
10.8633187663
  0
LINE
  5
36A
100
AcDbEntity
  8
0
100
AcDbLine
 62
9
  6
CONTINUOUS
 10
8.3127295
 20
11.5779369643
 11
8.5085588559
 21
11.3821076076
  0
LINE
  5
36B
100
AcDbEntity
  8
0
100
AcDbLine
 62
7
  6
CONTINUOUS
 10
8.7185736326
 20
11.2934244375
 11
7.0760815031
 21
12.935916567
  0
LINE
  5
36C
100
AcDbEntity
  8
0
100
AcDbLine
 62
9
  6
CONTINUOUS
 10
8.7946952062
 20
11.263898748
 11
8.9420970332
 21
11.1164969309
  0
LINE
  5
36D
100
AcDbEntity
  8
0
100
AcDbLine
 62
7
  6
CONTINUOUS
 10
9.2374317568
 20
10.9605195689
 11
9.2373111871
 21
10.9606427583
  0
LINE
  5
36E
100
AcDbEntity
  8
0
100
AcDbLine
 62
9
  6
CONTINUOUS
 10
11.5694226038
 20
1.279891804
 11
11.5694226038
 21
3.697391804
  0
LINE
  5
36F
100
AcDbEntity
  8
0
100
AcDbLine
 62
9
  6
CONTINUOUS
 10
11.5694226038
 20
4.382391804
 11
11.5694226038
 21
5.039891804
  0
LINE
  5
370
100
AcDbEntity
  8
0
100
AcDbLine
 62
7
  6
CONTINUOUS
 10
11.5994226038
 20
1.309891804
 11
11.5994226038
 21
3.697391804
  0
LINE
  5
371
100
AcDbEntity
  8
0
100
AcDbLine
 62
7
  6
CONTINUOUS
 10
11.5994226038
 20
4.382391804
 11
11.5994226038
 21
5.009891804
  0
LINE
  5
372
100
AcDbEntity
  8
0
100
AcDbLine
 62
9
  6
CONTINUOUS
 10
11.6294226035
 20
3.727391804
 11
11.6294226032
 21
3.757391804
  0
LINE
  5
373
100
AcDbEntity
  8
0
100
AcDbLine
 62
9
  6
CONTINUOUS
 10
11.6294226032
 20
4.322391804
 11
11.6294226035
 21
4.352391804
  0
LINE
  5
374
100
AcDbEntity
  8
0
100
AcDbLine
 62
9
  6
CONTINUOUS
 10
10.0712596529
 20
11.4601754625
 11
7.2428325282
 21
14.2886025873
  0
LINE
  5
375
100
AcDbEntity
  8
0
100
AcDbLine
 62
7
  6
CONTINUOUS
 10
10.2520834298
 20
15.0124224309
 11
10.2454207387
 21
15.0372879327
  0
LINE
  5
376
100
AcDbEntity
  8
0
100
AcDbLine
 62
7
  6
CONTINUOUS
 10
10.0588497922
 20
14.850063845
 11
10.0674288096
 21
14.8179784546
  0
LINE
  5
377
100
AcDbEntity
  8
0
100
AcDbLine
 62
7
  6
CONTINUOUS
 10
10.1086580173
 20
14.8998655451
 11
10.116724211
 21
14.8696977588
  0
LINE
  5
378
100
AcDbEntity
  8
0
100
AcDbLine
 62
7
  6
CONTINUOUS
 10
10.1583057585
 20
14.9495175545
 11
10.165743875
 21
14.9216995048
  0
LINE
  5
379
100
AcDbEntity
  8
0
100
AcDbLine
 62
7
  6
CONTINUOUS
 10
10.2080835027
 20
14.9992976785
 11
10.2149880728
 21
14.973475505
  0
LINE
  5
37A
100
AcDbEntity
  8
0
100
AcDbLine
 62
7
  6
CONTINUOUS
 10
10.6225374057
 20
14.26605082
 11
10.6142548996
 21
14.2970312763
  0
LINE
  5
37B
100
AcDbEntity
  8
0
100
AcDbLine
 62
9
  6
CONTINUOUS
 10
12.3094226038
 20
4.352391804
 11
12.3094226038
 21
3.727391804
  0
LINE
  5
37C
100
AcDbEntity
  8
0
100
AcDbLine
 62
7
  6
CONTINUOUS
 10
12.3394226038
 20
4.322391804
 11
12.3394226038
 21
3.757391804
  0
LINE
  5
37D
100
AcDbEntity
  8
0
100
AcDbLine
 62
7
  6
CONTINUOUS
 10
12.3594226038
 20
4.477391804
 11
12.3594226038
 21
3.602391804
  0
LINE
  5
37E
100
AcDbEntity
  8
0
100
AcDbLine
 62
7
  6
CONTINUOUS
 10
12.5094226038
 20
4.477391804
 11
12.5094226038
 21
3.602391804
  0
LINE
  5
37F
100
AcDbEntity
  8
0
100
AcDbLine
 62
7
  6
CONTINUOUS
 10
12.5344226038
 20
3.239891804
 11
12.5344226038
 21
4.839891804
  0
LINE
  5
380
100
AcDbEntity
  8
0
100
AcDbLine
 62
9
  6
CONTINUOUS
 10
12.5474226038
 20
15.633641804
 11
12.5474226038
 21
16.446141804
  0
LWPOLYLINE
  5
381
100
AcDbEntity
  8
0
100
AcDbPolyline
 62
7
  6
CONTINUOUS
 90
5
 70
0
 10
8.5656431052
 20
11.4070496208
 10
8.5663942495
 20
11.4067605435
 10
8.5668588148
 20
11.4065459107
 10
8.5670880283
 20
11.4064267369
 10
8.5671447158
 20
11.4063950783
  0
LINE
  5
382
100
AcDbEntity
  8
0
100
AcDbLine
 62
7
  6
CONTINUOUS
 10
10.0712596529
 20
11.5733125475
 11
7.3559696134
 21
14.2886025871
  0
LINE
  5
383
100
AcDbEntity
  8
0
100
AcDbLine
 62
9
  6
CONTINUOUS
 10
9.517498764
 20
12.1598875853
 11
7.9425446509
 21
13.7348416983
  0
LINE
  5
384
100
AcDbEntity
  8
0
100
AcDbLine
 62
7
  6
CONTINUOUS
 10
10.6738131146
 20
14.3173317367
 11
10.6660917942
 21
14.3462132602
  0
LINE
  5
385
100
AcDbEntity
  8
0
100
AcDbLine
 62
7
  6
CONTINUOUS
 10
10.7250727324
 20
14.3685848358
 11
10.7178988299
 21
14.3954178973
  0
LINE
  5
386
100
AcDbEntity
  8
0
100
AcDbLine
 62
7
  6
CONTINUOUS
 10
10.7763558069
 20
14.4198691248
 11
10.7697477924
 21
14.4445853814
  0
LINE
  5
387
100
AcDbEntity
  8
0
100
AcDbLine
 62
7
  6
CONTINUOUS
 10
9.1126542892
 20
11.0162270741
 11
9.1011235121
 21
11.0162270741
  0
LINE
  5
388
100
AcDbEntity
  8
0
100
AcDbLine
 62
7
  6
CONTINUOUS
 10
8.9536282944
 20
11.1164969309
 11
8.9420970332
 21
11.1164969309
  0
LINE
  5
389
100
AcDbEntity
  8
0
100
AcDbLine
 62
7
  6
CONTINUOUS
 10
8.9986286627
 20
11.1302527006
 11
8.9870978856
 21
11.1302527006
  0
LINE
  5
38A
100
AcDbEntity
  8
0
100
AcDbLine
 62
7
  6
CONTINUOUS
 10
8.8867608407
 20
11.1833643846
 11
8.8752295696
 21
11.1833643846
  0
LINE
  5
38B
100
AcDbEntity
  8
0
100
AcDbLine
 62
7
  6
CONTINUOUS
 10
8.8172400854
 20
11.3116412779
 11
8.8057093083
 21
11.3116412779
  0
LINE
  5
38C
100
AcDbEntity
  8
0
100
AcDbLine
 62
7
  6
CONTINUOUS
 10
8.7575828398
 20
11.3125423855
 11
8.7460515687
 21
11.3125423855
  0
LINE
  5
38D
100
AcDbEntity
  8
0
100
AcDbLine
 62
7
  6
CONTINUOUS
 10
8.5266131245
 20
11.3821076076
 11
8.5085588559
 21
11.3821076076
  0
LINE
  5
38E
100
AcDbEntity
  8
0
100
AcDbLine
 62
7
  6
CONTINUOUS
 10
8.4849067525
 20
11.4238139796
 11
8.4668524849
 21
11.4238139796
  0
LINE
  5
38F
100
AcDbEntity
  8
0
100
AcDbLine
 62
7
  6
CONTINUOUS
 10
8.574897559
 20
11.4952276663
 11
8.5633662878
 21
11.4952276663
  0
LINE
  5
390
100
AcDbEntity
  8
0
100
AcDbLine
 62
7
  6
CONTINUOUS
 10
8.4080570108
 20
11.5006637213
 11
8.3900027431
 21
11.5006637213
  0
LINE
  5
391
100
AcDbEntity
  8
0
100
AcDbLine
 62
9
  6
CONTINUOUS
 10
9.5141927789
 20
12.9772061086
 11
8.7598631742
 21
13.7315357133
  0
LINE
  5
392
100
AcDbEntity
  8
0
100
AcDbLine
 62
7
  6
CONTINUOUS
 10
9.5529498938
 20
12.9571210069
 11
8.7397780725
 21
13.7702928281
  0
LINE
  5
393
100
AcDbEntity
  8
0
100
AcDbLine
 62
7
  6
CONTINUOUS
 10
8.5808498891
 20
11.5480314742
 11
8.569319112
 21
11.5480314742
  0
LINE
  5
394
100
AcDbEntity
  8
0
100
AcDbLine
 62
7
  6
CONTINUOUS
 10
8.1664422853
 20
11.5902938841
 11
8.1549110103
 21
11.5902938841
  0
LINE
  5
395
100
AcDbEntity
  8
0
100
AcDbLine
 62
7
  6
CONTINUOUS
 10
8.3511546982
 20
11.7189705271
 11
8.339623427
 21
11.7189705271
  0
LINE
  5
396
100
AcDbEntity
  8
0
100
AcDbLine
 62
7
  6
CONTINUOUS
 10
7.9879069068
 20
11.768829265
 11
7.9763756295
 21
11.768829265
  0
LINE
  5
397
100
AcDbEntity
  8
0
100
AcDbLine
 62
7
  6
CONTINUOUS
 10
8.3055676751
 20
11.8233136882
 11
8.2940368979
 21
11.8233136882
  0
LINE
  5
398
100
AcDbEntity
  8
0
100
AcDbLine
 62
7
  6
CONTINUOUS
 10
7.9990315704
 20
11.9096891617
 11
7.9809773027
 21
11.9096891617
  0
LINE
  5
399
100
AcDbEntity
  8
0
100
AcDbLine
 62
7
  6
CONTINUOUS
 10
8.1016019636
 20
11.9685232616
 11
8.0900706925
 21
11.9685232616
  0
LINE
  5
39A
100
AcDbEntity
  8
0
100
AcDbLine
 62
7
  6
CONTINUOUS
 10
7.7354197475
 20
12.0213164219
 11
7.7238884725
 21
12.0213164219
  0
LINE
  5
39B
100
AcDbEntity
  8
0
100
AcDbLine
 62
7
  6
CONTINUOUS
 10
7.8431158019
 20
12.0656049301
 11
7.8250615342
 21
12.0656049301
  0
LINE
  5
39C
100
AcDbEntity
  8
0
100
AcDbLine
 62
7
  6
CONTINUOUS
 10
8.0101534714
 20
12.1187278921
 11
7.9986226941
 21
12.1187278921
  0
LINE
  5
39D
100
AcDbEntity
  8
0
100
AcDbLine
 62
7
  6
CONTINUOUS
 10
9.2860448506
 20
14.0584120519
 11
9.1674594383
 21
14.1769974642
  0
LINE
  5
39E
100
AcDbEntity
  8
0
100
AcDbLine
 62
7
  6
CONTINUOUS
 10
10.2176305692
 20
13.62180108
 11
9.4044581457
 21
14.4349735036
  0
LINE
  5
39F
100
AcDbEntity
  8
0
100
AcDbLine
 62
9
  6
CONTINUOUS
 10
10.1331671074
 20
13.861730631
 11
9.6443876967
 21
14.3505100417
  0
LINE
  5
3A0
100
AcDbEntity
  8
0
100
AcDbLine
 62
9
  6
CONTINUOUS
 10
10.2131670992
 20
13.9417667111
 11
9.7244237768
 21
14.4305100336
  0
LINE
  5
3A1
100
AcDbEntity
  8
0
100
AcDbLine
 62
7
  6
CONTINUOUS
 10
14.1744226038
 20
2.949891804
 11
14.1744226038
 21
5.129891804
  0
LINE
  5
3A2
100
AcDbEntity
  8
0
100
AcDbLine
 62
9
  6
CONTINUOUS
 10
14.1944226038
 20
2.929891804
 11
14.1944226038
 21
5.149891804
  0
LINE
  5
3A3
100
AcDbEntity
  8
0
100
AcDbLine
 62
7
  6
CONTINUOUS
 10
14.3805655015
 20
16.4871067713
 11
14.3805655015
 21
15.5926768367
  0
LINE
  5
3A4
100
AcDbEntity
  8
0
100
AcDbLine
 62
9
  6
CONTINUOUS
 10
14.3807533101
 20
15.5893252335
 11
14.3807533101
 21
16.4904583746
  0
LINE
  5
3A5
100
AcDbEntity
  8
0
100
AcDbLine
 62
7
  6
CONTINUOUS
 10
14.3805655015
 20
16.4871067713
 11
14.3807533101
 21
16.4904583746
  0
LINE
  5
3A6
100
AcDbEntity
  8
0
100
AcDbLine
 62
7
  6
CONTINUOUS
 10
7.5514863306
 20
12.1998518028
 11
7.5453530917
 21
12.1998518028
  0
LINE
  5
3A7
100
AcDbEntity
  8
0
100
AcDbLine
 62
7
  6
CONTINUOUS
 10
7.6901845318
 20
12.2185362002
 11
7.6721302649
 21
12.2185362002
  0
LINE
  5
3A8
100
AcDbEntity
  8
0
100
AcDbLine
 62
7
  6
CONTINUOUS
 10
7.8432459618
 20
12.2268792635
 11
7.8317146907
 21
12.2268792635
  0
LINE
  5
3A9
100
AcDbEntity
  8
0
100
AcDbLine
 62
7
  6
CONTINUOUS
 10
7.7147392674
 20
12.4141420959
 11
7.7032084903
 21
12.4141420959
  0
LINE
  5
3AA
100
AcDbEntity
  8
0
100
AcDbLine
 62
7
  6
CONTINUOUS
 10
7.5936932273
 20
12.476431998
 11
7.5821619562
 21
12.476431998
  0
LINE
  5
3AB
100
AcDbEntity
  8
0
100
AcDbLine
 62
7
  6
CONTINUOUS
 10
7.325405346
 20
12.583315386
 11
7.3073510784
 21
12.583315386
  0
LINE
  5
3AC
100
AcDbEntity
  8
0
100
AcDbLine
 62
7
  6
CONTINUOUS
 10
7.4394570533
 20
12.68942431
 11
7.4279262762
 21
12.68942431
  0
LINE
  5
3AD
100
AcDbEntity
  8
0
100
AcDbLine
 62
7
  6
CONTINUOUS
 10
7.3699503665
 20
12.7001748588
 11
7.3584190954
 21
12.7001748588
  0
LWPOLYLINE
  5
3AE
100
AcDbEntity
  8
0
100
AcDbPolyline
 62
7
  6
CONTINUOUS
 90
7
 70
0
 10
7.3458132353
 20
12.5948239098
 10
7.3475845074
 20
12.5948014073
 10
7.3490396622
 20
12.5945670041
 10
7.350224233
 20
12.5942178105
 10
7.3511080583
 20
12.5938465712
 10
7.3516329915
 20
12.5935673175
 10
7.3517697194
 20
12.5934840685
  0
LINE
  5
3AF
100
AcDbEntity
  8
0
100
AcDbLine
 62
9
  6
CONTINUOUS
 10
9.7244237768
 20
14.5038261984
 11
10.286483264
 21
13.9417667111
  0
LINE
  5
3B0
100
AcDbEntity
  8
0
100
AcDbLine
 62
9
  6
CONTINUOUS
 10
9.7794877019
 20
14.6367622732
 11
9.789010119
 21
14.6272398561
  0
LINE
  5
3B1
100
AcDbEntity
  8
0
100
AcDbLine
 62
9
  6
CONTINUOUS
 10
9.8771329027
 20
14.5391170724
 11
10.4194193389
 21
13.9968306363
  0
LINE
  5
3B2
100
AcDbEntity
  8
0
100
AcDbLine
 62
7
  6
CONTINUOUS
 10
9.9284005587
 20
14.7666302958
 11
10.0165233424
 21
14.6785075121
  0
LINE
  5
3B3
100
AcDbEntity
  8
0
100
AcDbLine
 62
7
  6
CONTINUOUS
 10
10.6471976618
 20
14.224609888
 11
10.0072669536
 21
14.8645405962
  0
LINE
  5
3B4
100
AcDbEntity
  8
0
100
AcDbLine
 62
7
  6
CONTINUOUS
 10
14.3805655015
 20
15.5926768367
 11
14.3807533101
 21
15.5893252335
  0
LINE
  5
3B5
100
AcDbEntity
  8
0
100
AcDbLine
 62
7
  6
CONTINUOUS
 10
14.4844226038
 20
0.904891804
 11
14.4844226038
 21
7.174891804
  0
LINE
  5
3B6
100
AcDbEntity
  8
0
100
AcDbLine
 62
9
  6
CONTINUOUS
 10
14.5170770795
 20
14.8864965916
 11
14.5170770795
 21
17.1932870165
  0
LINE
  5
3B7
100
AcDbEntity
  8
0
100
AcDbLine
 62
9
  6
CONTINUOUS
 10
14.5652493566
 20
14.849891804
 11
14.5652493566
 21
17.229891804
  0
LINE
  5
3B8
100
AcDbEntity
  8
0
100
AcDbLine
 62
7
  6
CONTINUOUS
 10
14.6094226038
 20
0.789891804
 11
14.6094226038
 21
7.289891804
  0
LINE
  5
3B9
100
AcDbEntity
  8
0
100
AcDbLine
 62
7
  6
CONTINUOUS
 10
14.7974226038
 20
17.229891804
 11
14.7974226038
 21
14.849891804
  0
LINE
  5
3BA
100
AcDbEntity
  8
0
100
AcDbLine
 62
7
  6
CONTINUOUS
 10
14.7974226038
 20
0.789891804
 11
14.7974226038
 21
7.289891804
  0
LINE
  5
3BB
100
AcDbEntity
  8
0
100
AcDbLine
 62
7
  6
CONTINUOUS
 10
7.1872650857
 20
12.8828601396
 11
7.1757338145
 21
12.8828601396
  0
LINE
  5
3BC
100
AcDbEntity
  8
0
100
AcDbLine
 62
7
  6
CONTINUOUS
 10
7.203066857
 20
12.9258145063
 11
7.1915360799
 21
12.9258145063
  0
LINE
  5
3BD
100
AcDbEntity
  8
0
100
AcDbLine
 62
7
  6
CONTINUOUS
 10
7.0580870848
 20
13.0120381405
 11
7.0465558136
 21
13.0120381405
  0
LINE
  5
3BE
100
AcDbEntity
  8
0
100
AcDbLine
 62
7
  6
CONTINUOUS
 10
7.0216782797
 20
13.1072030836
 11
7.0101475026
 21
13.1072030836
  0
LINE
  5
3BF
100
AcDbEntity
  8
0
100
AcDbLine
 62
7
  6
CONTINUOUS
 10
6.9076526532
 20
13.2212287101
 11
6.8961218761
 21
13.2212287101
  0
LINE
  5
3C0
100
AcDbEntity
  8
0
100
AcDbLine
 62
7
  6
CONTINUOUS
 10
10.2145890009
 20
15.0064561949
 11
10.3049560993
 21
14.9160890965
  0
LINE
  5
3C1
100
AcDbEntity
  8
0
100
AcDbLine
 62
7
  6
CONTINUOUS
 10
10.7823604731
 20
14.4568875334
 11
10.2394545027
 21
14.9997935038
  0
LINE
  5
3C2
100
AcDbEntity
  8
0
100
AcDbLine
 62
7
  6
CONTINUOUS
 10
10.7950794966
 20
14.4694263641
 11
10.2520834298
 21
15.0124224309
  0
LINE
  5
3C3
100
AcDbEntity
  8
0
100
AcDbLine
 62
7
  6
CONTINUOUS
 10
10.8199449984
 20
14.462763673
 11
10.2454207387
 21
15.0372879327
  0
LINE
  5
3C4
100
AcDbEntity
  8
0
100
AcDbLine
 62
7
  6
CONTINUOUS
 10
10.286483264
 20
13.9417667111
 11
10.2131670992
 21
13.9417667111
  0
LINE
  5
3C5
100
AcDbEntity
  8
0
100
AcDbLine
 62
7
  6
CONTINUOUS
 10
8.7598631742
 20
13.7315357133
 11
7.9425446509
 21
13.7348416983
  0
LINE
  5
3C6
100
AcDbEntity
  8
0
100
AcDbLine
 62
7
  6
CONTINUOUS
 10
10.6575827652
 20
14.3010543679
 11
10.6582865541
 21
14.3011052287
  0
LINE
  5
3C7
100
AcDbEntity
  8
0
100
AcDbLine
 62
7
  6
CONTINUOUS
 10
10.7073305426
 20
14.3507967473
 11
10.7080285344
 21
14.350847209
  0
LINE
  5
3C8
100
AcDbEntity
  8
0
100
AcDbLine
 62
7
  6
CONTINUOUS
 10
10.7570804177
 20
14.4005533643
 11
10.7577856511
 21
14.4006043257
  0
LINE
  5
3C9
100
AcDbEntity
  8
0
100
AcDbLine
 62
7
  6
CONTINUOUS
 10
10.7823604731
 20
14.4568875334
 11
10.7821768077
 21
14.4568760955
  0
LINE
  5
3CA
100
AcDbEntity
  8
0
100
AcDbLine
 62
7
  6
CONTINUOUS
 10
10.6258557507
 20
14.3095375926
 11
10.6575827651
 21
14.3010543679
  0
LINE
  5
3CB
100
AcDbEntity
  8
0
100
AcDbLine
 62
7
  6
CONTINUOUS
 10
10.6776978474
 20
14.3587202093
 11
10.7073305415
 21
14.3507967462
  0
LINE
  5
3CC
100
AcDbEntity
  8
0
100
AcDbLine
 62
7
  6
CONTINUOUS
 10
10.7295096472
 20
14.4079254056
 11
10.7570804176
 21
14.4005533643
  0
LINE
  5
3CD
100
AcDbEntity
  8
0
100
AcDbLine
 62
7
  6
CONTINUOUS
 10
10.1051216606
 20
14.8571912959
 11
10.0742631324
 21
14.8654413739
  0
LINE
  5
3CE
100
AcDbEntity
  8
0
100
AcDbLine
 62
7
  6
CONTINUOUS
 10
10.1541351687
 20
14.9091923081
 11
10.125636445
 21
14.9168115052
  0
LINE
  5
3CF
100
AcDbEntity
  8
0
100
AcDbLine
 62
7
  6
CONTINUOUS
 10
10.7950794966
 20
14.4694263641
 11
10.8199449984
 21
14.462763673
  0
LINE
  5
3D0
100
AcDbEntity
  8
0
100
AcDbLine
 62
9
  6
CONTINUOUS
 10
11.5972478666
 20
15.2400665413
 11
11.0227236069
 21
15.814590801
  0
LINE
  5
3D1
100
AcDbEntity
  8
0
100
AcDbLine
 62
7
  6
CONTINUOUS
 10
10.0742631335
 20
14.865441375
 11
10.0735205731
 21
14.8653877671
  0
LINE
  5
3D2
100
AcDbEntity
  8
0
100
AcDbLine
 62
7
  6
CONTINUOUS
 10
10.1256364447
 20
14.9168115049
 11
10.1248903688
 21
14.9167575629
  0
LINE
  5
3D3
100
AcDbEntity
  8
0
100
AcDbLine
 62
7
  6
CONTINUOUS
 10
10.1768789313
 20
14.9680514455
 11
10.1761301159
 21
14.96799731
  0
LINE
  5
3D4
100
AcDbEntity
  8
0
100
AcDbLine
 62
7
  6
CONTINUOUS
 10
14.7974226038
 20
14.849891804
 11
14.5652493566
 21
14.849891804
  0
LINE
  5
3D5
100
AcDbEntity
  8
0
100
AcDbLine
 62
7
  6
CONTINUOUS
 10
10.2033746336
 20
14.9609677446
 11
10.1768789313
 21
14.9680514455
  0
LINE
  5
3D6
100
AcDbEntity
  8
0
100
AcDbLine
 62
7
  6
CONTINUOUS
 10
10.2145890009
 20
15.0064561949
 11
10.2394545027
 21
14.9997935038
  0
LINE
  5
3D7
100
AcDbEntity
  8
0
100
AcDbLine
 62
7
  6
CONTINUOUS
 10
14.3805655015
 20
15.633641804
 11
12.5474226038
 21
15.633641804
  0
LINE
  5
3D8
100
AcDbEntity
  8
0
100
AcDbLine
 62
7
  6
CONTINUOUS
 10
14.3805655015
 20
16.446141804
 11
12.5474226038
 21
16.446141804
  0
LINE
  5
3D9
100
AcDbEntity
  8
0
100
AcDbLine
 62
7
  6
CONTINUOUS
 10
14.7974226038
 20
17.229891804
 11
14.5652493566
 21
17.229891804
  0
ARC
  5
3DA
100
AcDbEntity
  8
0
100
AcDbCircle
 62
9
  6
CONTINUOUS
 10
11.6294226038
 20
3.697391804
 40
0.06
100
AcDbArc
 50
90.0
 51
180.0
  0
ARC
  5
3DB
100
AcDbEntity
  8
0
100
AcDbCircle
 62
9
  6
CONTINUOUS
 10
11.6294226038
 20
4.382391804
 40
0.06
100
AcDbArc
 50
180.0
 51
270.0
  0
ARC
  5
3DC
100
AcDbEntity
  8
0
100
AcDbCircle
 62
7
  6
CONTINUOUS
 10
11.6294226038
 20
4.382391804
 40
0.03
100
AcDbArc
 50
180.0
 51
270.0
  0
ARC
  5
3DD
100
AcDbEntity
  8
0
100
AcDbCircle
 62
7
  6
CONTINUOUS
 10
12.3094226038
 20
3.757391804
 40
0.03
100
AcDbArc
 50
270.0
 51
360.0
  0
ARC
  5
3DE
100
AcDbEntity
  8
0
100
AcDbCircle
 62
7
  6
CONTINUOUS
 10
11.6294226038
 20
3.697391804
 40
0.03
100
AcDbArc
 50
90.0
 51
180.0
  0
ARC
  5
3DF
100
AcDbEntity
  8
0
100
AcDbCircle
 62
7
  6
CONTINUOUS
 10
11.5694226038
 20
1.309891804
 40
0.03
100
AcDbArc
 50
270.0
 51
360.0
  0
ARC
  5
3E0
100
AcDbEntity
  8
0
100
AcDbCircle
 62
7
  6
CONTINUOUS
 10
10.9994226038
 20
1.309891804
 40
0.03
100
AcDbArc
 50
180.0
 51
270.0
  0
ARC
  5
3E1
100
AcDbEntity
  8
0
100
AcDbCircle
 62
7
  6
CONTINUOUS
 10
10.9994226038
 20
5.009891804
 40
0.03
100
AcDbArc
 50
90.0
 51
180.0
  0
ARC
  5
3E2
100
AcDbEntity
  8
0
100
AcDbCircle
 62
7
  6
CONTINUOUS
 10
11.5694226038
 20
5.009891804
 40
0.03
100
AcDbArc
 50
0.0
 51
90.0
  0
ARC
  5
3E3
100
AcDbEntity
  8
0
100
AcDbCircle
 62
7
  6
CONTINUOUS
 10
12.3094226038
 20
4.322391804
 40
0.03
100
AcDbArc
 50
0.0
 51
90.0
  0
ARC
  5
3E4
100
AcDbEntity
  8
0
100
AcDbCircle
 62
9
  6
CONTINUOUS
 10
8.0583356533
 20
11.9838379709
 40
0.0636317594
100
AcDbArc
 50
240.2225583748
 51
240.5830354159
  0
ARC
  5
3E5
100
AcDbEntity
  8
0
100
AcDbCircle
 62
7
  6
CONTINUOUS
 10
8.0292213685
 20
12.0605893101
 40
0.0196850394
100
AcDbArc
 50
135.0
 51
180.0012049649
  0
ARC
  5
3E6
100
AcDbEntity
  8
0
100
AcDbCircle
 62
7
  6
CONTINUOUS
 10
8.1016023776
 20
11.988208301
 40
0.0196850394
100
AcDbArc
 50
269.9987950343
 51
315.0
  0
ARC
  5
3E7
100
AcDbEntity
  8
0
100
AcDbCircle
 62
7
  6
CONTINUOUS
 10
8.0900711485
 20
11.988208301
 40
0.0196850394
100
AcDbArc
 50
224.9966737578
 51
269.9986727936
  0
ARC
  5
3E8
100
AcDbEntity
  8
0
100
AcDbCircle
 62
7
  6
CONTINUOUS
 10
8.0292213685
 20
12.049058081
 40
0.0196850394
100
AcDbArc
 50
180.0013272063
 51
225.0033262421
  0
ARC
  5
3E9
100
AcDbEntity
  8
0
100
AcDbCircle
 62
7
  6
CONTINUOUS
 10
7.9763765108
 20
11.7885143043
 40
0.0196850394
100
AcDbArc
 50
224.9958251907
 51
269.9974348682
  0
ARC
  5
3EA
100
AcDbEntity
  8
0
100
AcDbCircle
 62
7
  6
CONTINUOUS
 10
7.9879077399
 20
11.7491442256
 40
0.0196850394
100
AcDbArc
 50
45.0039181287
 51
90.0024249216
  0
ARC
  5
3EB
100
AcDbEntity
  8
0
100
AcDbCircle
 62
7
  6
CONTINUOUS
 10
7.7842884482
 20
11.9527635173
 40
0.0196850394
100
AcDbArc
 50
359.9975750785
 51
44.9960818716
  0
ARC
  5
3EC
100
AcDbEntity
  8
0
100
AcDbCircle
 62
7
  6
CONTINUOUS
 10
7.8236585269
 20
11.9412322882
 40
0.0196850394
100
AcDbArc
 50
180.0025651318
 51
225.0041748092
  0
ARC
  5
3ED
100
AcDbEntity
  8
0
100
AcDbCircle
 62
7
  6
CONTINUOUS
 10
7.7238893538
 20
12.0410014613
 40
0.0196850394
100
AcDbArc
 50
224.9958502723
 51
269.9974348102
  0
ARC
  5
3EE
100
AcDbEntity
  8
0
100
AcDbCircle
 62
7
  6
CONTINUOUS
 10
7.7354205829
 20
12.0016313825
 40
0.0196850394
100
AcDbArc
 50
45.00392895
 51
90.0024317524
  0
ARC
  5
3EF
100
AcDbEntity
  8
0
100
AcDbCircle
 62
7
  6
CONTINUOUS
 10
8.0021939078
 20
11.7626969073
 40
0.0196850394
100
AcDbArc
 50
180.0025651901
 51
225.0133822414
  0
ARC
  5
3F0
100
AcDbEntity
  8
0
100
AcDbCircle
 62
7
  6
CONTINUOUS
 10
7.9809773549
 20
11.9215001853
 40
0.0118110236
100
AcDbArc
 50
224.9972333239
 51
269.9997468357
  0
ARC
  5
3F1
100
AcDbEntity
  8
0
100
AcDbCircle
 62
7
  6
CONTINUOUS
 10
7.9990316322
 20
11.9215001853
 40
0.0118110236
100
AcDbArc
 50
269.9997000107
 51
315.0
  0
ARC
  5
3F2
100
AcDbEntity
  8
0
100
AcDbCircle
 62
7
  6
CONTINUOUS
 10
7.9155150833
 20
12.0050167343
 40
0.0118110236
100
AcDbArc
 50
135.0
 51
180.000299988
  0
ARC
  5
3F3
100
AcDbEntity
  8
0
100
AcDbCircle
 62
7
  6
CONTINUOUS
 10
7.9155150833
 20
11.9869624569
 40
0.0118110236
100
AcDbArc
 50
180.0002531656
 51
225.0027666779
  0
ARC
  5
3F4
100
AcDbEntity
  8
0
100
AcDbCircle
 62
7
  6
CONTINUOUS
 10
7.1661114415
 20
12.6494772502
 40
0.2416999432
100
AcDbArc
 50
43.7241564358
 51
44.9889876582
  0
ARC
  5
3F5
100
AcDbEntity
  8
0
100
AcDbCircle
 62
7
  6
CONTINUOUS
 10
7.3142265788
 20
12.5601981607
 40
0.0393700787
100
AcDbArc
 50
334.9999170305
 51
39.208519173
  0
ARC
  5
3F6
100
AcDbEntity
  8
0
100
AcDbCircle
 62
7
  6
CONTINUOUS
 10
7.3503735792
 20
12.7981936682
 40
0.0196850394
100
AcDbArc
 50
135.0
 51
180.0024588141
  0
ARC
  5
3F7
100
AcDbEntity
  8
0
100
AcDbCircle
 62
7
  6
CONTINUOUS
 10
7.3503735792
 20
12.7866624391
 40
0.0196850394
100
AcDbArc
 50
180.00114329
 51
225.0027777387
  0
ARC
  5
3F8
100
AcDbEntity
  8
0
100
AcDbCircle
 62
7
  6
CONTINUOUS
 10
7.2975697713
 20
12.7922409073
 40
0.0196850394
100
AcDbArc
 50
135.0
 51
180.0012047956
  0
ARC
  5
3F9
100
AcDbEntity
  8
0
100
AcDbCircle
 62
7
  6
CONTINUOUS
 10
7.2975697713
 20
12.7807096782
 40
0.0196850394
100
AcDbArc
 50
180.0013272052
 51
225.0026027852
  0
ARC
  5
3FA
100
AcDbEntity
  8
0
100
AcDbCircle
 62
7
  6
CONTINUOUS
 10
7.3532659104
 20
12.3837860551
 40
0.0196850394
100
AcDbArc
 50
359.9975750784
 51
44.9960818714
  0
ARC
  5
3FB
100
AcDbEntity
  8
0
100
AcDbCircle
 62
7
  6
CONTINUOUS
 10
7.3326845567
 20
12.4600451081
 40
0.0196850394
100
AcDbArc
 50
155.0000948195
 51
224.9995434545
  0
ARC
  5
3FC
100
AcDbEntity
  8
0
100
AcDbCircle
 62
7
  6
CONTINUOUS
 10
7.3531465107
 20
12.5493310295
 40
0.0118110236
100
AcDbArc
 50
180.0002531639
 51
225.0004233584
  0
ARC
  5
3FD
100
AcDbEntity
  8
0
100
AcDbCircle
 62
7
  6
CONTINUOUS
 10
7.3531465107
 20
12.5673853068
 40
0.0118110236
100
AcDbArc
 50
135.0
 51
180.0002999894
  0
ARC
  5
3FE
100
AcDbEntity
  8
0
100
AcDbCircle
 62
7
  6
CONTINUOUS
 10
7.1872339866
 20
12.7332978309
 40
0.0118110236
100
AcDbArc
 50
135.0
 51
180.0002999879
  0
ARC
  5
3FF
100
AcDbEntity
  8
0
100
AcDbCircle
 62
7
  6
CONTINUOUS
 10
7.1872339866
 20
12.7152435536
 40
0.0118110236
100
AcDbArc
 50
180.0002531652
 51
224.9692948978
  0
ARC
  5
400
100
AcDbEntity
  8
0
100
AcDbCircle
 62
7
  6
CONTINUOUS
 10
7.1695670055
 20
12.7329105347
 40
0.0118110236
100
AcDbArc
 50
180.0002531643
 51
224.9948564502
  0
ARC
  5
401
100
AcDbEntity
  8
0
100
AcDbCircle
 62
7
  6
CONTINUOUS
 10
7.1695670055
 20
12.750964812
 40
0.0118110236
100
AcDbArc
 50
135.0
 51
180.0002999892
  0
ARC
  5
402
100
AcDbEntity
  8
0
100
AcDbCircle
 62
7
  6
CONTINUOUS
 10
7.3073511306
 20
12.5951264096
 40
0.0118110236
100
AcDbArc
 50
224.9818568019
 51
269.9997468346
  0
ARC
  5
403
100
AcDbEntity
  8
0
100
AcDbCircle
 62
7
  6
CONTINUOUS
 10
7.3254054079
 20
12.5951264096
 40
0.0118110236
100
AcDbArc
 50
269.9997000108
 51
315.0
  0
ARC
  5
404
100
AcDbEntity
  8
0
100
AcDbCircle
 62
7
  6
CONTINUOUS
 10
7.2418888589
 20
12.6786429586
 40
0.0118110236
100
AcDbArc
 50
135.0
 51
180.0002999885
  0
ARC
  5
405
100
AcDbEntity
  8
0
100
AcDbCircle
 62
7
  6
CONTINUOUS
 10
7.2418888589
 20
12.6605886813
 40
0.0118110236
100
AcDbArc
 50
180.0002531654
 51
225.0181431981
  0
ARC
  5
406
100
AcDbEntity
  8
0
100
AcDbCircle
 62
7
  6
CONTINUOUS
 10
6.7025443744
 20
13.6351773485
 40
0.08
100
AcDbArc
 50
135.0
 51
222.0
  0
ARC
  5
407
100
AcDbEntity
  8
0
100
AcDbCircle
 62
7
  6
CONTINUOUS
 10
6.7796771613
 20
13.357358857
 40
0.0196850394
100
AcDbArc
 50
180.0010369649
 51
225.0009085171
  0
ARC
  5
408
100
AcDbEntity
  8
0
100
AcDbCircle
 62
7
  6
CONTINUOUS
 10
7.2030677018
 20
12.9454995456
 40
0.0196850394
100
AcDbArc
 50
269.9975411859
 51
315.0
  0
ARC
  5
409
100
AcDbEntity
  8
0
100
AcDbCircle
 62
7
  6
CONTINUOUS
 10
7.1139833829
 20
13.0345838645
 40
0.0196850394
100
AcDbArc
 50
135.0
 51
180.0024588136
  0
ARC
  5
40A
100
AcDbEntity
  8
0
100
AcDbCircle
 62
7
  6
CONTINUOUS
 10
6.7796771613
 20
13.3688900861
 40
0.0196850394
100
AcDbArc
 50
135.0
 51
180.0010232871
  0
ARC
  5
40B
100
AcDbEntity
  8
0
100
AcDbCircle
 62
7
  6
CONTINUOUS
 10
7.1139833829
 20
13.0230526354
 40
0.0196850394
100
AcDbArc
 50
180.0011432902
 51
225.00183548
  0
ARC
  5
40C
100
AcDbEntity
  8
0
100
AcDbCircle
 62
7
  6
CONTINUOUS
 10
7.1915364727
 20
12.9454995456
 40
0.0196850394
100
AcDbArc
 50
224.99816452
 51
269.9988567098
  0
ARC
  5
40D
100
AcDbEntity
  8
0
100
AcDbCircle
 62
7
  6
CONTINUOUS
 10
7.0216791245
 20
13.1268881229
 40
0.0196850394
100
AcDbArc
 50
269.9975411863
 51
315.0
  0
ARC
  5
40E
100
AcDbEntity
  8
0
100
AcDbCircle
 62
7
  6
CONTINUOUS
 10
6.9325948056
 20
13.2159724418
 40
0.0196850394
100
AcDbArc
 50
135.0
 51
180.0024588143
  0
ARC
  5
40F
100
AcDbEntity
  8
0
100
AcDbCircle
 62
7
  6
CONTINUOUS
 10
6.9325948056
 20
13.2044412127
 40
0.0196850394
100
AcDbArc
 50
180.0011432902
 51
225.0141027316
  0
ARC
  5
410
100
AcDbEntity
  8
0
100
AcDbCircle
 62
7
  6
CONTINUOUS
 10
7.0101478954
 20
13.1268881229
 40
0.0196850394
100
AcDbArc
 50
224.9858972684
 51
269.9988567098
  0
ARC
  5
411
100
AcDbEntity
  8
0
100
AcDbCircle
 62
7
  6
CONTINUOUS
 10
6.907653498
 20
13.2409137495
 40
0.0196850394
100
AcDbArc
 50
269.9975411863
 51
288.7362451431
  0
ARC
  5
412
100
AcDbEntity
  8
0
100
AcDbCircle
 62
7
  6
CONTINUOUS
 10
6.8185691791
 20
13.3299980684
 40
0.0196850394
100
AcDbArc
 50
135.0
 51
180.0024588147
  0
ARC
  5
413
100
AcDbEntity
  8
0
100
AcDbCircle
 62
7
  6
CONTINUOUS
 10
6.8185691791
 20
13.3184668393
 40
0.0196850394
100
AcDbArc
 50
180.0011432896
 51
224.9839638501
  0
ARC
  5
414
100
AcDbEntity
  8
0
100
AcDbCircle
 62
7
  6
CONTINUOUS
 10
6.8961222689
 20
13.2409137495
 40
0.0196850394
100
AcDbArc
 50
225.0160361486
 51
269.9988567095
  0
ARC
  5
415
100
AcDbEntity
  8
0
100
AcDbCircle
 62
7
  6
CONTINUOUS
 10
7.1148844905
 20
12.9749261881
 40
0.0196850394
100
AcDbArc
 50
135.0
 51
180.0012047959
  0
ARC
  5
416
100
AcDbEntity
  8
0
100
AcDbCircle
 62
7
  6
CONTINUOUS
 10
7.1872654996
 20
12.902545179
 40
0.0196850394
100
AcDbArc
 50
269.9987952046
 51
315.0
  0
ARC
  5
417
100
AcDbEntity
  8
0
100
AcDbCircle
 62
7
  6
CONTINUOUS
 10
7.1757342705
 20
12.902545179
 40
0.0196850394
100
AcDbArc
 50
224.9945062516
 51
269.9986727949
  0
ARC
  5
418
100
AcDbEntity
  8
0
100
AcDbCircle
 62
7
  6
CONTINUOUS
 10
7.1148844905
 20
12.963394959
 40
0.0196850394
100
AcDbArc
 50
180.0013272051
 51
225.0054937484
  0
ARC
  5
419
100
AcDbEntity
  8
0
100
AcDbCircle
 62
7
  6
CONTINUOUS
 10
6.9188390359
 20
13.1709716427
 40
0.0196850394
100
AcDbArc
 50
135.0
 51
180.0012049649
  0
ARC
  5
41A
100
AcDbEntity
  8
0
100
AcDbCircle
 62
7
  6
CONTINUOUS
 10
6.9796888159
 20
13.0985906336
 40
0.0196850394
100
AcDbArc
 50
225.0247683211
 51
237.5229746018
  0
ARC
  5
41B
100
AcDbEntity
  8
0
100
AcDbCircle
 62
7
  6
CONTINUOUS
 10
6.9188390359
 20
13.1594404136
 40
0.0196850394
100
AcDbArc
 50
180.0013272064
 51
224.9752316789
  0
ARC
  5
41C
100
AcDbEntity
  8
0
100
AcDbCircle
 62
7
  6
CONTINUOUS
 10
7.0465562696
 20
13.0317231799
 40
0.0196850394
100
AcDbArc
 50
224.9942711131
 51
269.998672795
  0
ARC
  5
41D
100
AcDbEntity
  8
0
100
AcDbCircle
 62
7
  6
CONTINUOUS
 10
7.0580874987
 20
13.0317231799
 40
0.0196850394
100
AcDbArc
 50
269.9987952045
 51
315.0
  0
ARC
  5
41E
100
AcDbEntity
  8
0
100
AcDbCircle
 62
7
  6
CONTINUOUS
 10
6.9857064896
 20
13.104104189
 40
0.0196850394
100
AcDbArc
 50
135.0
 51
180.0012047948
  0
ARC
  5
41F
100
AcDbEntity
  8
0
100
AcDbCircle
 62
7
  6
CONTINUOUS
 10
6.9857064896
 20
13.0925729599
 40
0.0196850394
100
AcDbArc
 50
180.0013272052
 51
225.0057288872
  0
ARC
  5
420
100
AcDbEntity
  8
0
100
AcDbCircle
 62
7
  6
CONTINUOUS
 10
7.0269432595
 20
13.0272956688
 40
0.0078740157
100
AcDbArc
 50
155.0338927671
 51
214.8534612382
  0
ARC
  5
421
100
AcDbEntity
  8
0
100
AcDbCircle
 62
7
  6
CONTINUOUS
 10
6.746825181
 20
13.4622616845
 40
0.0078740157
100
AcDbArc
 50
210.7100596427
 51
225.0
  0
ARC
  5
422
100
AcDbEntity
  8
0
100
AcDbCircle
 62
9
  6
CONTINUOUS
 10
7.9008858248
 20
12.1344407297
 40
0.0606281998
100
AcDbArc
 50
238.6066913889
 51
239.4589013679
  0
ARC
  5
423
100
AcDbEntity
  8
0
100
AcDbCircle
 62
9
  6
CONTINUOUS
 10
7.7479325021
 20
12.2828394875
 40
0.0588367992
100
AcDbArc
 50
236.3516635216
 51
237.5549362902
  0
ARC
  5
424
100
AcDbEntity
  8
0
100
AcDbCircle
 62
7
  6
CONTINUOUS
 10
8.010154316
 20
12.1384129315
 40
0.0196850394
100
AcDbArc
 50
269.9975417674
 51
315.0
  0
ARC
  5
425
100
AcDbEntity
  8
0
100
AcDbCircle
 62
7
  6
CONTINUOUS
 10
7.9210699971
 20
12.2274972503
 40
0.0196850394
100
AcDbArc
 50
135.0
 51
180.0024582326
  0
ARC
  5
426
100
AcDbEntity
  8
0
100
AcDbCircle
 62
7
  6
CONTINUOUS
 10
7.9210699971
 20
12.2159660213
 40
0.0196850394
100
AcDbArc
 50
180.0011432897
 51
225.00468718
  0
ARC
  5
427
100
AcDbEntity
  8
0
100
AcDbCircle
 62
7
  6
CONTINUOUS
 10
7.9986230869
 20
12.1384129315
 40
0.0196850394
100
AcDbArc
 50
224.99531282
 51
269.9988567103
  0
ARC
  5
428
100
AcDbEntity
  8
0
100
AcDbCircle
 62
7
  6
CONTINUOUS
 10
7.7147401122
 20
12.4338271353
 40
0.0196850394
100
AcDbArc
 50
269.9975411861
 51
315.0
  0
ARC
  5
429
100
AcDbEntity
  8
0
100
AcDbCircle
 62
7
  6
CONTINUOUS
 10
7.6256557933
 20
12.5229114542
 40
0.0196850394
100
AcDbArc
 50
135.0
 51
180.0024588139
  0
ARC
  5
42A
100
AcDbEntity
  8
0
100
AcDbCircle
 62
7
  6
CONTINUOUS
 10
7.6256557933
 20
12.5113802251
 40
0.0196850394
100
AcDbArc
 50
180.0011432895
 51
225.0041344961
  0
ARC
  5
42B
100
AcDbEntity
  8
0
100
AcDbCircle
 62
7
  6
CONTINUOUS
 10
7.7032088831
 20
12.4338271353
 40
0.0196850394
100
AcDbArc
 50
224.9958655024
 51
269.9988567095
  0
ARC
  5
42C
100
AcDbEntity
  8
0
100
AcDbCircle
 62
7
  6
CONTINUOUS
 10
7.4394578981
 20
12.7091093493
 40
0.0196850394
100
AcDbArc
 50
269.9975411859
 51
315.0
  0
ARC
  5
42D
100
AcDbEntity
  8
0
100
AcDbCircle
 62
7
  6
CONTINUOUS
 10
7.427926669
 20
12.7091093493
 40
0.0196850394
100
AcDbArc
 50
224.9972222613
 51
269.99885671
  0
ARC
  5
42E
100
AcDbEntity
  8
0
100
AcDbCircle
 62
7
  6
CONTINUOUS
 10
7.5213126321
 20
12.5684980465
 40
0.0196850394
100
AcDbArc
 50
135.0
 51
180.0012047948
  0
ARC
  5
42F
100
AcDbEntity
  8
0
100
AcDbCircle
 62
7
  6
CONTINUOUS
 10
7.5936936412
 20
12.4961170374
 40
0.0196850394
100
AcDbArc
 50
269.9987952044
 51
315.0
  0
ARC
  5
430
100
AcDbEntity
  8
0
100
AcDbCircle
 62
7
  6
CONTINUOUS
 10
7.5821624121
 20
12.4961170374
 40
0.0196850394
100
AcDbArc
 50
224.9952661822
 51
269.998672795
  0
ARC
  5
431
100
AcDbEntity
  8
0
100
AcDbCircle
 62
7
  6
CONTINUOUS
 10
7.5213126321
 20
12.5569668174
 40
0.0196850394
100
AcDbArc
 50
180.0013272057
 51
225.0047338188
  0
ARC
  5
432
100
AcDbEntity
  8
0
100
AcDbCircle
 62
7
  6
CONTINUOUS
 10
7.3584195514
 20
12.7198598982
 40
0.0196850394
100
AcDbArc
 50
224.9973972148
 51
269.9986727948
  0
ARC
  5
433
100
AcDbEntity
  8
0
100
AcDbCircle
 62
7
  6
CONTINUOUS
 10
7.3699507804
 20
12.7198598982
 40
0.0196850394
100
AcDbArc
 50
269.9987952051
 51
315.0
  0
ARC
  5
434
100
AcDbEntity
  8
0
100
AcDbCircle
 62
7
  6
CONTINUOUS
 10
7.8317151467
 20
12.2465643028
 40
0.0196850394
100
AcDbArc
 50
224.9966911052
 51
269.9986727883
  0
ARC
  5
435
100
AcDbEntity
  8
0
100
AcDbCircle
 62
7
  6
CONTINUOUS
 10
7.8432463758
 20
12.2465643028
 40
0.0196850394
100
AcDbArc
 50
269.9987952044
 51
315.0
  0
ARC
  5
436
100
AcDbEntity
  8
0
100
AcDbCircle
 62
7
  6
CONTINUOUS
 10
7.7708653667
 20
12.3189453119
 40
0.0196850394
100
AcDbArc
 50
135.0
 51
180.0012047956
  0
ARC
  5
437
100
AcDbEntity
  8
0
100
AcDbCircle
 62
7
  6
CONTINUOUS
 10
7.7708653667
 20
12.3074140828
 40
0.0196850394
100
AcDbArc
 50
180.0013272117
 51
225.0033088948
  0
ARC
  5
438
100
AcDbEntity
  8
0
100
AcDbCircle
 62
7
  6
CONTINUOUS
 10
7.5318012912
 20
12.2052506742
 40
0.0196850394
100
AcDbArc
 50
359.9975682479
 51
44.9960710504
  0
ARC
  5
439
100
AcDbEntity
  8
0
100
AcDbCircle
 62
7
  6
CONTINUOUS
 10
7.57117137
 20
12.1937194452
 40
0.0196850394
100
AcDbArc
 50
180.0025651901
 51
225.0041497282
  0
ARC
  5
43A
100
AcDbEntity
  8
0
100
AcDbCircle
 62
7
  6
CONTINUOUS
 10
7.545353973
 20
12.2195368421
 40
0.0196850394
100
AcDbArc
 50
224.9862190795
 51
269.9974348681
  0
ARC
  5
43B
100
AcDbEntity
  8
0
100
AcDbCircle
 62
7
  6
CONTINUOUS
 10
7.3926359891
 20
12.372254826
 40
0.0196850394
100
AcDbArc
 50
180.0025651318
 51
225.0137809205
  0
ARC
  5
43C
100
AcDbEntity
  8
0
100
AcDbCircle
 62
7
  6
CONTINUOUS
 10
7.8250615864
 20
12.0774159538
 40
0.0118110236
100
AcDbArc
 50
224.9958316548
 51
269.999746835
  0
ARC
  5
43D
100
AcDbEntity
  8
0
100
AcDbCircle
 62
7
  6
CONTINUOUS
 10
7.8431158638
 20
12.0774159538
 40
0.0118110236
100
AcDbArc
 50
269.9997000112
 51
315.0
  0
ARC
  5
43E
100
AcDbEntity
  8
0
100
AcDbCircle
 62
7
  6
CONTINUOUS
 10
7.7595993148
 20
12.1609325027
 40
0.0118110236
100
AcDbArc
 50
135.0
 51
180.0002999888
  0
ARC
  5
43F
100
AcDbEntity
  8
0
100
AcDbCircle
 62
7
  6
CONTINUOUS
 10
7.7595993148
 20
12.1428782254
 40
0.0118110236
100
AcDbArc
 50
180.0002531649
 51
225.0041683452
  0
ARC
  5
440
100
AcDbEntity
  8
0
100
AcDbCircle
 62
7
  6
CONTINUOUS
 10
7.6721303164
 20
12.2303472238
 40
0.0118110236
100
AcDbArc
 50
224.9936484249
 51
269.9997499651
  0
ARC
  5
441
100
AcDbEntity
  8
0
100
AcDbCircle
 62
7
  6
CONTINUOUS
 10
7.6901845937
 20
12.2303472238
 40
0.0118110236
100
AcDbArc
 50
269.9996996385
 51
315.0
  0
ARC
  5
442
100
AcDbEntity
  8
0
100
AcDbCircle
 62
7
  6
CONTINUOUS
 10
7.6066680447
 20
12.3138637728
 40
0.0118110236
100
AcDbArc
 50
135.0
 51
180.0003003629
  0
ARC
  5
443
100
AcDbEntity
  8
0
100
AcDbCircle
 62
7
  6
CONTINUOUS
 10
7.6066680447
 20
12.2958094954
 40
0.0118110236
100
AcDbArc
 50
180.0002500349
 51
225.0063515751
  0
ARC
  5
444
100
AcDbEntity
  8
0
100
AcDbCircle
 62
7
  6
CONTINUOUS
 10
8.4264938661
 20
11.3776857869
 40
0.249767385
100
AcDbArc
 50
45.0314418219
 51
46.2553661822
  0
ARC
  5
445
100
AcDbEntity
  8
0
100
AcDbCircle
 62
7
  6
CONTINUOUS
 10
8.1549118916
 20
11.6099789235
 40
0.0196850394
100
AcDbArc
 50
224.9866177591
 51
269.9974348102
  0
ARC
  5
446
100
AcDbEntity
  8
0
100
AcDbCircle
 62
7
  6
CONTINUOUS
 10
8.1664431207
 20
11.5706088447
 40
0.0196850394
100
AcDbArc
 50
45.00392895
 51
90.0024317524
  0
ARC
  5
447
100
AcDbEntity
  8
0
100
AcDbCircle
 62
7
  6
CONTINUOUS
 10
8.2427021737
 20
11.550027491
 40
0.0196850394
100
AcDbArc
 50
225.0004565455
 51
294.9999051805
  0
ARC
  5
448
100
AcDbEntity
  8
0
100
AcDbCircle
 62
7
  6
CONTINUOUS
 10
8.3900027953
 20
11.5124747449
 40
0.0118110236
100
AcDbArc
 50
224.9918137509
 51
269.9997466605
  0
ARC
  5
449
100
AcDbEntity
  8
0
100
AcDbCircle
 62
7
  6
CONTINUOUS
 10
8.4080570726
 20
11.5124747449
 40
0.0118110236
100
AcDbArc
 50
269.9997000109
 51
315.0
  0
ARC
  5
44A
100
AcDbEntity
  8
0
100
AcDbCircle
 62
7
  6
CONTINUOUS
 10
8.3245405237
 20
11.5959912938
 40
0.0118110236
100
AcDbArc
 50
135.0
 51
180.0002999879
  0
ARC
  5
44B
100
AcDbEntity
  8
0
100
AcDbCircle
 62
7
  6
CONTINUOUS
 10
8.3245405237
 20
11.5779370165
 40
0.0118110236
100
AcDbArc
 50
180.0002533395
 51
225.0081862491
  0
ARC
  5
44C
100
AcDbEntity
  8
0
100
AcDbCircle
 62
7
  6
CONTINUOUS
 10
8.4013902654
 20
11.5010872748
 40
0.0118110236
100
AcDbArc
 50
181.8824798174
 51
225.0091873219
  0
ARC
  5
44D
100
AcDbEntity
  8
0
100
AcDbCircle
 62
7
  6
CONTINUOUS
 10
8.3965713476
 20
11.5059061926
 40
0.0118110236
100
AcDbArc
 50
224.9886659131
 51
241.8518773465
  0
ARC
  5
44E
100
AcDbEntity
  8
0
100
AcDbCircle
 62
7
  6
CONTINUOUS
 10
8.3055685198
 20
11.8429987276
 40
0.0196850394
100
AcDbArc
 50
269.9975411863
 51
315.0
  0
ARC
  5
44F
100
AcDbEntity
  8
0
100
AcDbCircle
 62
7
  6
CONTINUOUS
 10
8.2164842009
 20
11.9320830465
 40
0.0196850394
100
AcDbArc
 50
135.0
 51
180.0024588147
  0
ARC
  5
450
100
AcDbEntity
  8
0
100
AcDbCircle
 62
7
  6
CONTINUOUS
 10
8.2164842009
 20
11.9205518174
 40
0.0196850394
100
AcDbArc
 50
180.0011432896
 51
225.0039193772
  0
ARC
  5
451
100
AcDbEntity
  8
0
100
AcDbCircle
 62
7
  6
CONTINUOUS
 10
8.2940372907
 20
11.8429987276
 40
0.0196850394
100
AcDbArc
 50
224.9960806215
 51
269.9988567095
  0
ARC
  5
452
100
AcDbEntity
  8
0
100
AcDbCircle
 62
7
  6
CONTINUOUS
 10
8.339623883
 20
11.7386555665
 40
0.0196850394
100
AcDbArc
 50
224.9952407133
 51
269.998672795
  0
ARC
  5
453
100
AcDbEntity
  8
0
100
AcDbCircle
 62
7
  6
CONTINUOUS
 10
8.3511551121
 20
11.7386555665
 40
0.0196850394
100
AcDbArc
 50
269.9987952045
 51
315.0
  0
ARC
  5
454
100
AcDbEntity
  8
0
100
AcDbCircle
 62
7
  6
CONTINUOUS
 10
8.278774103
 20
11.8110365756
 40
0.0196850394
100
AcDbArc
 50
135.0
 51
180.0012047948
  0
ARC
  5
455
100
AcDbEntity
  8
0
100
AcDbCircle
 62
7
  6
CONTINUOUS
 10
8.278774103
 20
11.7995053465
 40
0.0196850394
100
AcDbArc
 50
180.0013272052
 51
225.0047592869
  0
ARC
  5
456
100
AcDbEntity
  8
0
100
AcDbCircle
 62
7
  6
CONTINUOUS
 10
8.7281566113
 20
11.4204106362
 40
0.0196850394
100
AcDbArc
 50
135.0
 51
180.0024588136
  0
ARC
  5
457
100
AcDbEntity
  8
0
100
AcDbCircle
 62
7
  6
CONTINUOUS
 10
8.7281566113
 20
11.4088794071
 40
0.0196850394
100
AcDbArc
 50
180.0011432902
 51
225.0017020294
  0
ARC
  5
458
100
AcDbEntity
  8
0
100
AcDbCircle
 62
7
  6
CONTINUOUS
 10
8.5808507339
 20
11.5677165136
 40
0.0196850394
100
AcDbArc
 50
269.9975411863
 51
315.0
  0
ARC
  5
459
100
AcDbEntity
  8
0
100
AcDbCircle
 62
7
  6
CONTINUOUS
 10
8.5693195048
 20
11.5677165136
 40
0.0196850394
100
AcDbArc
 50
224.9972035029
 51
269.9988567098
  0
ARC
  5
45A
100
AcDbEntity
  8
0
100
AcDbCircle
 62
7
  6
CONTINUOUS
 10
8.5025169638
 20
11.5872937148
 40
0.0196850394
100
AcDbArc
 50
135.0
 51
180.0012047959
  0
ARC
  5
45B
100
AcDbEntity
  8
0
100
AcDbCircle
 62
7
  6
CONTINUOUS
 10
8.5748979729
 20
11.5149127057
 40
0.0196850394
100
AcDbArc
 50
269.9987952047
 51
315.0
  0
ARC
  5
45C
100
AcDbEntity
  8
0
100
AcDbCircle
 62
7
  6
CONTINUOUS
 10
8.5633667438
 20
11.5149127057
 40
0.0196850394
100
AcDbArc
 50
224.9975688172
 51
269.998672795
  0
ARC
  5
45D
100
AcDbEntity
  8
0
100
AcDbCircle
 62
7
  6
CONTINUOUS
 10
8.5025169638
 20
11.5757624857
 40
0.0196850394
100
AcDbArc
 50
180.0013272051
 51
225.0024311828
  0
ARC
  5
45E
100
AcDbEntity
  8
0
100
AcDbCircle
 62
7
  6
CONTINUOUS
 10
8.7460520247
 20
11.3322274249
 40
0.0196850394
100
AcDbArc
 50
224.9949388004
 51
269.9986727947
  0
ARC
  5
45F
100
AcDbEntity
  8
0
100
AcDbCircle
 62
7
  6
CONTINUOUS
 10
8.7575832537
 20
11.3322274249
 40
0.0196850394
100
AcDbArc
 50
269.9987952051
 51
315.0
  0
ARC
  5
460
100
AcDbEntity
  8
0
100
AcDbCircle
 62
7
  6
CONTINUOUS
 10
8.6852022446
 20
11.404608434
 40
0.0196850394
100
AcDbArc
 50
135.0
 51
180.0012047956
  0
ARC
  5
461
100
AcDbEntity
  8
0
100
AcDbCircle
 62
7
  6
CONTINUOUS
 10
8.6852022446
 20
11.3930772049
 40
0.0196850394
100
AcDbArc
 50
180.0013272052
 51
225.0050611996
  0
ARC
  5
462
100
AcDbEntity
  8
0
100
AcDbCircle
 62
7
  6
CONTINUOUS
 10
8.508558909
 20
11.3939186312
 40
0.0118110236
100
AcDbArc
 50
225.046466486
 51
269.9997468347
  0
ARC
  5
463
100
AcDbEntity
  8
0
100
AcDbCircle
 62
7
  6
CONTINUOUS
 10
8.5266131863
 20
11.3939186312
 40
0.0118110236
100
AcDbArc
 50
269.9996999689
 51
315.0
  0
ARC
  5
464
100
AcDbEntity
  8
0
100
AcDbCircle
 62
7
  6
CONTINUOUS
 10
8.466852537
 20
11.4356250032
 40
0.0118110236
100
AcDbArc
 50
224.990812678
 51
269.9997472495
  0
ARC
  5
465
100
AcDbEntity
  8
0
100
AcDbCircle
 62
7
  6
CONTINUOUS
 10
8.4849068143
 20
11.4356250032
 40
0.0118110236
100
AcDbArc
 50
269.9997000847
 51
315.0
  0
ARC
  5
466
100
AcDbEntity
  8
0
100
AcDbCircle
 62
7
  6
CONTINUOUS
 10
8.491766415
 20
11.6568008325
 40
0.0196850394
100
AcDbArc
 50
135.0
 51
180.0024588143
  0
ARC
  5
467
100
AcDbEntity
  8
0
100
AcDbCircle
 62
7
  6
CONTINUOUS
 10
8.491766415
 20
11.6452696034
 40
0.0196850394
100
AcDbArc
 50
180.0011432902
 51
225.0027964971
  0
ARC
  5
468
100
AcDbEntity
  8
0
100
AcDbCircle
 62
7
  6
CONTINUOUS
 10
9.4436121044
 20
11.0254720479
 40
0.5118110236
100
AcDbArc
 50
169.7158850771
 51
249.6710480593
  0
ARC
  5
469
100
AcDbEntity
  8
0
100
AcDbCircle
 62
7
  6
CONTINUOUS
 10
9.0376370572
 20
10.4855686065
 40
0.4724409449
100
AcDbArc
 50
34.4249168973
 51
56.7360171921
  0
ARC
  5
46A
100
AcDbEntity
  8
0
100
AcDbCircle
 62
9
  6
CONTINUOUS
 10
9.4432276554
 20
11.0250790389
 40
0.4449133295
100
AcDbArc
 50
169.6569711084
 51
249.6684952277
  0
ARC
  5
46B
100
AcDbEntity
  8
0
100
AcDbCircle
 62
7
  6
CONTINUOUS
 10
9.3136754696
 20
10.6747524295
 40
0.1377952756
100
AcDbArc
 50
249.6710480599
 51
34.4249168912
  0
ARC
  5
46C
100
AcDbEntity
  8
0
100
AcDbCircle
 62
7
  6
CONTINUOUS
 10
9.4178344142
 20
10.9198873088
 40
0.08
100
AcDbArc
 50
228.0
 51
315.0
  0
ARC
  5
46D
100
AcDbEntity
  8
0
100
AcDbCircle
 62
7
  6
CONTINUOUS
 10
9.112655134
 20
11.0359121134
 40
0.0196850394
100
AcDbArc
 50
269.9975411861
 51
315.0
  0
ARC
  5
46E
100
AcDbEntity
  8
0
100
AcDbCircle
 62
7
  6
CONTINUOUS
 10
9.0235708151
 20
11.1249964323
 40
0.0196850394
100
AcDbArc
 50
161.2637548569
 51
180.0024588139
  0
ARC
  5
46F
100
AcDbEntity
  8
0
100
AcDbCircle
 62
7
  6
CONTINUOUS
 10
9.0235708151
 20
11.1134652032
 40
0.0196850394
100
AcDbArc
 50
180.0011432895
 51
224.9846661657
  0
ARC
  5
470
100
AcDbEntity
  8
0
100
AcDbCircle
 62
7
  6
CONTINUOUS
 10
9.1011239049
 20
11.0359121134
 40
0.0196850394
100
AcDbArc
 50
225.0153338328
 51
269.9988567094
  0
ARC
  5
471
100
AcDbEntity
  8
0
100
AcDbCircle
 62
7
  6
CONTINUOUS
 10
8.9986295075
 20
11.14993774
 40
0.0196850394
100
AcDbArc
 50
269.9975411858
 51
315.0
  0
ARC
  5
472
100
AcDbEntity
  8
0
100
AcDbCircle
 62
7
  6
CONTINUOUS
 10
8.9870982784
 20
11.14993774
 40
0.0196850394
100
AcDbArc
 50
224.9865653997
 51
269.99885671
  0
ARC
  5
473
100
AcDbEntity
  8
0
100
AcDbCircle
 62
7
  6
CONTINUOUS
 10
8.8867612547
 20
11.2030494239
 40
0.0196850394
100
AcDbArc
 50
269.9987952044
 51
315.0
  0
ARC
  5
474
100
AcDbEntity
  8
0
100
AcDbCircle
 62
7
  6
CONTINUOUS
 10
8.8752300256
 20
11.2030494239
 40
0.0196850394
100
AcDbArc
 50
224.9942783704
 51
269.998672795
  0
ARC
  5
475
100
AcDbEntity
  8
0
100
AcDbCircle
 62
7
  6
CONTINUOUS
 10
8.9420974793
 20
11.1361819703
 40
0.0196850394
100
AcDbArc
 50
225.0242762446
 51
269.9986727884
  0
ARC
  5
476
100
AcDbEntity
  8
0
100
AcDbCircle
 62
7
  6
CONTINUOUS
 10
8.9536287083
 20
11.1361819703
 40
0.0196850394
100
AcDbArc
 50
269.9987952044
 51
315.0
  0
ARC
  5
477
100
AcDbEntity
  8
0
100
AcDbCircle
 62
7
  6
CONTINUOUS
 10
8.8812476992
 20
11.1970317503
 40
0.0196850394
100
AcDbArc
 50
212.4770253979
 51
224.9757237554
  0
ARC
  5
478
100
AcDbEntity
  8
0
100
AcDbCircle
 62
7
  6
CONTINUOUS
 10
9.2431176715
 20
10.9662111154
 40
0.0080451031
100
AcDbArc
 50
225.0285947497
 51
239.1370683209
  0
ARC
  5
479
100
AcDbEntity
  8
0
100
AcDbCircle
 62
7
  6
CONTINUOUS
 10
8.9095451886
 20
11.2390220589
 40
0.0196850394
100
AcDbArc
 50
135.0
 51
180.0024588142
  0
ARC
  5
47A
100
AcDbEntity
  8
0
100
AcDbCircle
 62
7
  6
CONTINUOUS
 10
8.9095451886
 20
11.2274908298
 40
0.0196850394
100
AcDbArc
 50
180.00114329
 51
225.0134346003
  0
ARC
  5
47B
100
AcDbEntity
  8
0
100
AcDbCircle
 62
7
  6
CONTINUOUS
 10
8.8172409302
 20
11.3313263173
 40
0.0196850394
100
AcDbArc
 50
269.9975411859
 51
315.0
  0
ARC
  5
47C
100
AcDbEntity
  8
0
100
AcDbCircle
 62
7
  6
CONTINUOUS
 10
8.8057097011
 20
11.3313263173
 40
0.0196850394
100
AcDbArc
 50
224.9982979705
 51
269.9988567098
  0
ARC
  5
47D
100
AcDbEntity
  8
0
100
AcDbCircle
 62
7
  6
CONTINUOUS
 10
8.8143802456
 20
11.275430433
 40
0.0196850394
100
AcDbArc
 50
135.0
 51
180.0012047948
  0
ARC
  5
47E
100
AcDbEntity
  8
0
100
AcDbCircle
 62
7
  6
CONTINUOUS
 10
8.8143802456
 20
11.263899204
 40
0.0196850394
100
AcDbArc
 50
180.0013272057
 51
225.0057216306
  0
ARC
  5
47F
100
AcDbEntity
  8
0
100
AcDbCircle
 62
7
  6
CONTINUOUS
 10
8.8099527344
 20
11.2442861938
 40
0.0078740157
100
AcDbArc
 50
235.1465387618
 51
294.9661125861
  0
ARC
  5
480
100
AcDbEntity
  8
0
100
AcDbCircle
 62
7
  6
CONTINUOUS
 10
9.5974981095
 20
12.1602111759
 40
0.08
100
AcDbArc
 50
180.2317553725
 51
225.0
  0
ARC
  5
481
100
AcDbEntity
  8
0
100
AcDbCircle
 62
7
  6
CONTINUOUS
 10
8.7595395836
 20
13.6515363677
 40
0.08
100
AcDbArc
 50
73.9550243719
 51
89.7682446275
  0
ARC
  5
482
100
AcDbEntity
  8
0
100
AcDbCircle
 62
7
  6
CONTINUOUS
 10
9.4341934334
 20
12.9768825179
 40
0.08
100
AcDbArc
 50
0.2317553725
 51
16.0449756281
  0
ARC
  5
483
100
AcDbEntity
  8
0
100
AcDbCircle
 62
7
  6
CONTINUOUS
 10
9.5672076915
 20
13.7845506259
 40
2.5590551181
100
AcDbArc
 50
222.3528405071
 51
227.6471594929
  0
ARC
  5
484
100
AcDbEntity
  8
0
100
AcDbCircle
 62
7
  6
CONTINUOUS
 10
9.6441671571
 20
13.8615100915
 40
0.489
100
AcDbArc
 50
343.8676339181
 51
0.0258404644
  0
ARC
  5
485
100
AcDbEntity
  8
0
100
AcDbCircle
 62
7
  6
CONTINUOUS
 10
9.6441671571
 20
13.8615100915
 40
0.489
100
AcDbArc
 50
89.9741595356
 51
106.1323660819
  0
ARC
  5
486
100
AcDbEntity
  8
0
100
AcDbCircle
 62
7
  6
CONTINUOUS
 10
9.6444237768
 20
14.4305100336
 40
0.08
100
AcDbArc
 50
269.9741595356
 51
360.0
  0
ARC
  5
487
100
AcDbEntity
  8
0
100
AcDbCircle
 62
7
  6
CONTINUOUS
 10
7.2994010707
 20
14.2320340448
 40
0.08
100
AcDbArc
 50
45.0
 51
135.0
  0
ARC
  5
488
100
AcDbEntity
  8
0
100
AcDbCircle
 62
7
  6
CONTINUOUS
 10
7.9428682416
 20
13.8148410439
 40
0.08
100
AcDbArc
 50
225.0
 51
269.7682446275
  0
ARC
  5
489
100
AcDbEntity
  8
0
100
AcDbCircle
 62
7
  6
CONTINUOUS
 10
10.0146911104
 20
11.516744005
 40
0.08
100
AcDbArc
 50
315.0
 51
45.0
  0
ARC
  5
48A
100
AcDbEntity
  8
0
100
AcDbCircle
 62
9
  6
CONTINUOUS
 10
12.7694229508
 20
16.8959363911
 40
6.9265790663
100
AcDbArc
 50
239.2610109886
 51
240.0308013472
  0
ARC
  5
48B
100
AcDbEntity
  8
0
100
AcDbCircle
 62
7
  6
CONTINUOUS
 10
12.5474226038
 20
14.289891804
 40
2.15625
100
AcDbArc
 50
90.0
 51
135.0
  0
ARC
  5
48C
100
AcDbEntity
  8
0
100
AcDbCircle
 62
7
  6
CONTINUOUS
 10
12.5474226038
 20
14.289891804
 40
1.34375
100
AcDbArc
 50
90.0
 51
135.0
  0
ARC
  5
48D
100
AcDbEntity
  8
0
100
AcDbCircle
 62
7
  6
CONTINUOUS
 10
10.286483264
 20
14.1297667111
 40
0.188
100
AcDbArc
 50
270.0
 51
315.0
  0
ARC
  5
48E
100
AcDbEntity
  8
0
100
AcDbCircle
 62
7
  6
CONTINUOUS
 10
9.9124237768
 20
14.5038261984
 40
0.188
100
AcDbArc
 50
135.0
 51
180.0
  0
ARC
  5
48F
100
AcDbEntity
  8
0
100
AcDbCircle
 62
7
  6
CONTINUOUS
 10
10.2131670992
 20
13.8617667111
 40
0.08
100
AcDbArc
 50
90.0
 51
180.0258404644
  0
ARC
  5
490
100
AcDbEntity
  8
0
100
AcDbCircle
 62
7
  6
CONTINUOUS
 10
14.4844226038
 20
0.7794570214
 40
0.1254347826
100
AcDbArc
 50
4.7718880608
 51
90.0
  0
ARC
  5
491
100
AcDbEntity
  8
0
100
AcDbCircle
 62
7
  6
CONTINUOUS
 10
14.4844226038
 20
7.3003265867
 40
0.1254347826
100
AcDbArc
 50
270.0
 51
355.2281119392
  0
ARC
  5
492
100
AcDbEntity
  8
0
100
AcDbCircle
 62
7
  6
CONTINUOUS
 10
14.1944226038
 20
2.949891804
 40
0.02
100
AcDbArc
 50
180.0
 51
270.0
  0
ARC
  5
493
100
AcDbEntity
  8
0
100
AcDbCircle
 62
7
  6
CONTINUOUS
 10
14.1944226038
 20
5.129891804
 40
0.02
100
AcDbArc
 50
90.0
 51
180.0
  0
ARC
  5
494
100
AcDbEntity
  8
0
100
AcDbCircle
 62
7
  6
CONTINUOUS
 10
12.8996784321
 20
17.1170409295
 40
7.1691060897
100
AcDbArc
 50
219.1377473573
 51
219.2089918143
  0
ARC
  5
495
100
AcDbEntity
  8
0
100
AcDbCircle
 62
7
  6
CONTINUOUS
 10
12.8996979952
 20
17.1170213664
 40
7.1691060897
100
AcDbArc
 50
232.7966470933
 51
234.3230697234
  0
ARC
  5
496
100
AcDbEntity
  8
0
100
AcDbCircle
 62
7
  6
CONTINUOUS
 10
12.8997033999
 20
17.1170658974
 40
7.1643816803
100
AcDbArc
 50
214.8532231336
 51
215.5750973652
  0
ARC
  5
497
100
AcDbEntity
  8
0
100
AcDbCircle
 62
7
  6
CONTINUOUS
 10
12.8997229631
 20
17.1170463343
 40
7.1643816803
100
AcDbArc
 50
234.4249026348
 51
235.1467768664
  0
ARC
  5
498
100
AcDbEntity
  8
0
100
AcDbCircle
 62
7
  6
CONTINUOUS
 10
12.8997033999
 20
17.1170658974
 40
7.1643816803
100
AcDbArc
 50
210.1944718959
 51
210.7102731828
  0
ARC
  5
499
100
AcDbEntity
  8
0
100
AcDbCircle
 62
7
  6
CONTINUOUS
 10
12.8993394013
 20
17.1168161307
 40
7.1633226513
100
AcDbArc
 50
239.270521551
 51
239.7914629
  0
ARC
  5
49A
100
AcDbEntity
  8
0
100
AcDbCircle
 62
9
  6
CONTINUOUS
 10
12.9032217181
 20
17.1229860847
 40
7.150743604
100
AcDbArc
 50
238.2880417734
 51
238.6171785401
  0
ARC
  5
49B
100
AcDbEntity
  8
0
100
AcDbCircle
 62
7
  6
CONTINUOUS
 10
18.8525820196
 20
16.0920657162
 40
4.5
100
AcDbArc
 50
186.4144817261
 51
195.5395954904
  0
ARC
  5
49C
100
AcDbEntity
  8
0
100
AcDbCircle
 62
7
  6
CONTINUOUS
 10
18.8525820196
 20
15.9877178919
 40
4.5
100
AcDbArc
 50
164.4604045096
 51
173.5855182739
  0
ARC
  5
49D
100
AcDbEntity
  8
0
100
AcDbCircle
 62
7
  6
CONTINUOUS
 10
14.5652493566
 20
17.179891804
 40
0.05
100
AcDbArc
 50
90.0
 51
164.4604045097
  0
ARC
  5
49E
100
AcDbEntity
  8
0
100
AcDbCircle
 62
7
  6
CONTINUOUS
 10
14.5652493566
 20
14.899891804
 40
0.05
100
AcDbArc
 50
195.5395954903
 51
270.0
  0
LINE
  5
49F
100
AcDbEntity
  8
0
100
AcDbLine
 62
7
  6
CONTINUOUS
 10
7.2007566481
 20
12.7678945522
 11
7.1985098512
 21
12.7708018011
  0
LINE
  5
4A0
100
AcDbEntity
  8
0
100
AcDbLine
 62
7
  6
CONTINUOUS
 10
7.1985098512
 20
12.7708018011
 11
7.1980067188
 21
12.7714529246
  0
LINE
  5
4A1
100
AcDbEntity
  8
0
100
AcDbLine
 62
7
  6
CONTINUOUS
 10
7.1980067188
 20
12.7714529246
 11
7.1812287288
 21
12.7932214247
  0
SPLINE
  5
4A2
100
AcDbEntity
  8
0
100
AcDbSpline
 62
7
  6
CONTINUOUS
 70
0
 71
3
 72
20
 73
16
 74
0
 42
0.0000001
 43
0.0000001
 44
0.0000000001
 40
0.0
 40
0.0
 40
0.0
 40
0.0
 40
0.2081101159
 40
0.3946826043
 40
0.558020862
 40
0.6967008332
 40
0.7564592109
 40
0.8097023269
 40
0.8564023195
 40
0.896595041
 40
0.9304438918
 40
0.958317914
 40
0.9702495045
 40
0.9810308876
 40
1.0
 40
1.0
 40
1.0
 40
1.0
 10
7.208495554
 20
12.9265360858
 30
0.0
 10
7.209323034
 20
12.9250756126
 30
0.0
 10
7.2108640021
 20
12.9222895635
 30
0.0
 10
7.2129391359
 20
12.9182947521
 30
0.0
 10
7.2146389297
 20
12.9147383856
 30
0.0
 10
7.215781215
 20
12.9120513658
 30
0.0
 10
7.2164803022
 20
12.9101450341
 30
0.0
 10
7.2168741944
 20
12.9089181133
 30
0.0
 10
7.2171636981
 20
12.9078248575
 30
0.0
 10
7.2173481783
 20
12.9068674591
 30
0.0
 10
7.2174272561
 20
12.9060478666
 30
0.0
 10
7.2174044807
 20
12.90545093
 30
0.0
 10
7.2173225865
 20
12.9050500121
 30
0.0
 10
7.2172135703
 20
12.9047316866
 30
0.0
 10
7.2170817992
 20
12.904522661
 30
0.0
 10
7.2169736207
 20
12.9044144597
 30
0.0
  0
SPLINE
  5
4A3
100
AcDbEntity
  8
0
100
AcDbSpline
 62
7
  6
CONTINUOUS
 70
0
 71
3
 72
15
 73
11
 74
0
 42
0.0000001
 43
0.0000001
 44
0.0000000001
 40
0.0
 40
0.0
 40
0.0
 40
0.0
 40
0.3280456282
 40
0.4760916659
 40
0.6114675638
 40
0.7327687557
 40
0.8387001203
 40
0.9281041796
 40
0.9662951388
 40
1.0
 40
1.0
 40
1.0
 40
1.0
 10
6.9134841364
 20
13.2844612656
 30
0.0
 10
6.9159555292
 20
13.2803070005
 30
0.0
 10
6.9195041073
 20
13.2742549506
 30
0.0
 10
6.9239569026
 20
13.2664219301
 30
0.0
 10
6.9268503133
 20
13.2612070523
 30
0.0
 10
6.929383583
 20
13.2565024464
 30
0.0
 10
6.9315289449
 20
13.2523590117
 30
0.0
 10
6.9330451492
 20
13.2492694476
 30
0.0
 10
6.9340377598
 20
13.2471097365
 30
0.0
 10
6.9344600471
 20
13.2461380048
 30
0.0
 10
6.9346513345
 20
13.2456796739
 30
0.0
  0
SPLINE
  5
4A4
100
AcDbEntity
  8
0
100
AcDbSpline
 62
7
  6
CONTINUOUS
 70
0
 71
3
 72
26
 73
22
 74
0
 42
0.0000001
 43
0.0000001
 44
0.0000000001
 40
0.0
 40
0.0
 40
0.0
 40
0.0
 40
0.0089376125
 40
0.0185022266
 40
0.0291563685
 40
0.0412270049
 40
0.0549292905
 40
0.0703968354
 40
0.0877062412
 40
0.1068989598
 40
0.1279864141
 40
0.1509620298
 40
0.2024703403
 40
0.2611162932
 40
0.3264327589
 40
0.3978335189
 40
0.4746287454
 40
0.5560365771
 40
0.6411953544
 40
0.8189765513
 40
1.0
 40
1.0
 40
1.0
 40
1.0
 10
8.0377387941
 20
12.0969455583
 30
0.0
 10
8.0379157136
 20
12.0971224493
 30
0.0
 10
8.0383340313
 20
12.0974395365
 30
0.0
 10
8.0390924129
 20
12.0977587548
 30
0.0
 10
8.0399842202
 20
12.0979338323
 30
0.0
 10
8.04100653
 20
12.0979689909
 30
0.0
 10
8.04215862
 20
12.0978663807
 30
0.0
 10
8.0434390117
 20
12.0976268714
 30
0.0
 10
8.0448455573
 20
12.0972511782
 30
0.0
 10
8.0463752011
 20
12.0967397544
 30
0.0
 10
8.0480245058
 20
12.0960937929
 30
0.0
 10
8.0504722464
 20
12.0950126182
 30
0.0
 10
8.053794497
 20
12.0933182085
 30
0.0
 10
8.0580452933
 20
12.0908539617
 30
0.0
 10
8.0626550221
 20
12.0879091489
 30
0.0
 10
8.0675743238
 20
12.0845130603
 30
0.0
 10
8.0727494723
 20
12.0807003802
 30
0.0
 10
8.0781227438
 20
12.0765117764
 30
0.0
 10
8.0855765021
 20
12.0703988875
 30
0.0
 10
8.0949094197
 20
12.0621865613
 30
0.0
 10
8.1021661439
 20
12.0552378792
 30
0.0
 10
8.1057492036
 20
12.0516548196
 30
0.0
  0
SPLINE
  5
4A5
100
AcDbEntity
  8
0
100
AcDbSpline
 62
7
  6
CONTINUOUS
 70
0
 71
3
 72
20
 73
16
 74
0
 42
0.0000001
 43
0.0000001
 44
0.0000000001
 40
0.0
 40
0.0
 40
0.0
 40
0.0
 40
0.2077353552
 40
0.3947534968
 40
0.5590560884
 40
0.6321369022
 40
0.6989099118
 40
0.7592138393
 40
0.8129202509
 40
0.859942465
 40
0.9002655345
 40
0.9339720826
 40
0.9484306276
 40
0.9613669379
 40
1.0
 40
1.0
 40
1.0
 40
1.0
 10
7.0402271756
 20
13.1577182265
 30
0.0
 10
7.0412640629
 20
13.155781511
 30
0.0
 10
7.0432002694
 20
13.1520827009
 30
0.0
 10
7.0458180804
 20
13.1467811711
 30
0.0
 10
7.0476858647
 20
13.1426990558
 30
0.0
 10
7.048932544
 20
13.1397337403
 30
0.0
 10
7.049705639
 20
13.1377630244
 30
0.0
 10
7.0503517338
 20
13.1359633659
 30
0.0
 10
7.0508687572
 20
13.1343403092
 30
0.0
 10
7.0512552249
 20
13.1328989562
 30
0.0
 10
7.051509881
 20
13.131643118
 30
0.0
 10
7.0516177301
 20
13.1307125119
 30
0.0
 10
7.0516270125
 20
13.1300641263
 30
0.0
 10
7.0515819933
 20
13.129373842
 30
0.0
 10
7.0514218658
 20
13.1287921354
 30
0.0
 10
7.0511330189
 20
13.128503209
 30
0.0
  0
SPLINE
  5
4A6
100
AcDbEntity
  8
0
100
AcDbSpline
 62
7
  6
CONTINUOUS
 70
0
 71
3
 72
15
 73
11
 74
0
 42
0.0000001
 43
0.0000001
 44
0.0000000001
 40
0.0
 40
0.0
 40
0.0
 40
0.0
 40
0.0337040424
 40
0.0718943249
 40
0.1612973978
 40
0.2672282556
 40
0.3885294037
 40
0.5239056372
 40
0.6719523433
 40
1.0
 40
1.0
 40
1.0
 40
1.0
 10
9.0283364277
 20
11.151994399
 30
0.0
 10
9.028794753
 20
11.1518031175
 30
0.0
 10
9.0297664759
 20
11.1513808405
 30
0.0
 10
9.0319261778
 20
11.1503882443
 30
0.0
 10
9.0350157456
 20
11.1488720475
 30
0.0
 10
9.0391592018
 20
11.1467266819
 30
0.0
 10
9.0438638509
 20
11.1441933942
 30
0.0
 10
9.0490787912
 20
11.1412999524
 30
0.0
 10
9.0569119247
 20
11.1368470956
 30
0.0
 10
9.0629640652
 20
11.1332984645
 30
0.0
 10
9.0671183945
 20
11.1308270331
 30
0.0
  0
SPLINE
  5
4A7
100
AcDbEntity
  8
0
100
AcDbSpline
 62
7
  6
CONTINUOUS
 70
0
 71
3
 72
19
 73
15
 74
0
 42
0.0000001
 43
0.0000001
 44
0.0000000001
 40
0.0
 40
0.0
 40
0.0
 40
0.0
 40
0.1965419873
 40
0.3726414963
 40
0.5276848515
 40
0.6613399359
 40
0.72016614
 40
0.7737300421
 40
0.8221577715
 40
0.8656604231
 40
0.9045734792
 40
0.9393974102
 40
0.9708645424
 40
1.0
 40
1.0
 40
1.0
 40
1.0
 10
7.2317161917
 20
12.9662292103
 30
0.0
 10
7.2321671986
 20
12.9651548141
 30
0.0
 10
7.232990596
 20
12.963104169
 30
0.0
 10
7.2340391952
 20
12.9601555552
 30
0.0
 10
7.2348295123
 20
12.9575143576
 30
0.0
 10
7.2352884161
 20
12.9555031733
 30
0.0
 10
7.2355089845
 20
12.9540606151
 30
0.0
 10
7.2355995867
 20
12.9531108896
 30
0.0
 10
7.235622421
 20
12.9522477906
 30
0.0
 10
7.2355770475
 20
12.9514722484
 30
0.0
 10
7.2354631063
 20
12.9507849693
 30
0.0
 10
7.2352795327
 20
12.9501864206
 30
0.0
 10
7.235024775
 20
12.9496779161
 30
0.0
 10
7.2348001428
 20
12.9493932063
 30
0.0
 10
7.2346780085
 20
12.94927106
 30
0.0
  0
SPLINE
  5
4A8
100
AcDbEntity
  8
0
100
AcDbSpline
 62
7
  6
CONTINUOUS
 70
0
 71
3
 72
14
 73
10
 74
0
 42
0.0000001
 43
0.0000001
 44
0.0000000001
 40
0.0
 40
0.0
 40
0.0
 40
0.0
 40
0.3231509364
 40
0.4638377817
 40
0.5914140142
 40
0.7069536939
 40
0.8120160261
 40
0.9087527722
 40
1.0
 40
1.0
 40
1.0
 40
1.0
 10
7.4749015249
 20
12.7230438772
 30
0.0
 10
7.4750436504
 20
12.7222289868
 30
0.0
 10
7.4751940985
 20
12.7210468245
 30
0.0
 10
7.4752112204
 20
12.7195315408
 30
0.0
 10
7.4751331425
 20
12.7185505344
 30
0.0
 10
7.4749643802
 20
12.7176731864
 30
0.0
 10
7.4747038033
 20
12.716900584
 30
0.0
 10
7.474349989
 20
12.7162349438
 30
0.0
 10
7.4740450855
 20
12.715857744
 30
0.0
 10
7.4738799239
 20
12.7156925851
 30
0.0
  0
SPLINE
  5
4A9
100
AcDbEntity
  8
0
100
AcDbSpline
 62
9
  6
CONTINUOUS
 70
0
 71
3
 72
35
 73
31
 74
0
 42
0.0000001
 43
0.0000001
 44
0.0000000001
 40
0.0
 40
0.0
 40
0.0
 40
0.0
 40
0.0217655389
 40
0.0466332011
 40
0.0744208269
 40
0.1049379957
 40
0.1732712466
 40
0.2496908542
 40
0.3320403613
 40
0.418025529
 40
0.505287617
 40
0.5914667909
 40
0.6742578907
 40
0.7514592823
 40
0.8210172411
 40
0.8523395354
 40
0.8810710241
 40
0.9070168537
 40
0.9300007394
 40
0.9498689444
 40
0.966491243
 40
0.9735542315
 40
0.9797723683
 40
0.9851420775
 40
0.9896643937
 40
0.99334975
 40
0.9962298131
 40
0.9973906613
 40
0.9983862758
 40
1.0
 40
1.0
 40
1.0
 40
1.0
 10
7.2579277961
 20
12.7000614473
 30
0.0
 10
7.258624791
 20
12.6993651653
 30
0.0
 10
7.260096858
 20
12.6978520532
 30
0.0
 10
7.26239732
 20
12.6953911116
 30
0.0
 10
7.2649246896
 20
12.692600681
 30
0.0
 10
7.2687189327
 20
12.6883038748
 30
0.0
 10
7.2738731862
 20
12.6822722051
 30
0.0
 10
7.2804276674
 20
12.6743529402
 30
0.0
 10
7.2873754598
 20
12.6657233725
 30
0.0
 10
7.2945244706
 20
12.6566268449
 30
0.0
 10
7.3016769607
 20
12.6473135143
 30
0.0
 10
7.3086394362
 20
12.6380374395
 30
0.0
 10
7.3152247061
 20
12.6290485196
 30
0.0
 10
7.3212570397
 20
12.6205881983
 30
0.0
 10
7.3258370964
 20
12.6139545515
 30
0.0
 10
7.3290970951
 20
12.6090768116
 30
0.0
 10
7.3312224023
 20
12.6058153817
 30
0.0
 10
7.3331002312
 20
12.6028435604
 30
0.0
 10
7.334717847
 20
12.6001823351
 30
0.0
 10
7.3360639012
 20
12.597850697
 30
0.0
 10
7.3369972108
 20
12.5961135586
 30
0.0
 10
7.337593994
 20
12.5948985081
 30
0.0
 10
7.3379433089
 20
12.5941297676
 30
0.0
 10
7.3382189617
 20
12.5934544387
 30
0.0
 10
7.3384210183
 20
12.5928735302
 30
0.0
 10
7.3385491644
 20
12.5923877976
 30
0.0
 10
7.338599298
 20
12.5920400232
 30
0.0
 10
7.3385942119
 20
12.5918112209
 30
0.0
 10
7.3385667544
 20
12.5916430328
 30
0.0
 10
7.338512778
 20
12.5915304979
 30
0.0
 10
7.3384611181
 20
12.5914788585
 30
0.0
  0
SPLINE
  5
4AA
100
AcDbEntity
  8
0
100
AcDbSpline
 62
9
  6
CONTINUOUS
 70
0
 71
3
 72
15
 73
11
 74
0
 42
0.0000001
 43
0.0000001
 44
0.0000000001
 40
0.0
 40
0.0
 40
0.0
 40
0.0
 40
0.1242553036
 40
0.2430432653
 40
0.3551414227
 40
0.4643717356
 40
0.5835680321
 40
0.7137712462
 40
0.8535219093
 40
1.0
 40
1.0
 40
1.0
 40
1.0
 10
7.2598098063
 20
12.7147209233
 30
0.0
 10
7.2602019572
 20
12.7141839239
 30
0.0
 10
7.2608590685
 20
12.7130481137
 30
0.0
 10
7.2614623243
 20
12.7112341043
 30
0.0
 10
7.2617169343
 20
12.7094227338
 30
0.0
 10
7.2616699591
 20
12.7075935295
 30
0.0
 10
7.2613131896
 20
12.7056991771
 30
0.0
 10
7.2605923228
 20
12.7037346685
 30
0.0
 10
7.2594741449
 20
12.7017947933
 30
0.0
 10
7.2584851368
 20
12.7006126611
 30
0.0
 10
7.2579306579
 20
12.7000585835
 30
0.0
  0
LINE
  5
4AB
100
AcDbEntity
  8
0
100
AcDbLine
 62
9
  6
CONTINUOUS
 10
8.4357788156
 20
11.5230097908
 11
8.4367785917
 21
11.5222565034
  0
SPLINE
  5
4AC
100
AcDbEntity
  8
0
100
AcDbSpline
 62
9
  6
CONTINUOUS
 70
0
 71
3
 72
18
 73
14
 74
0
 42
0.0000001
 43
0.0000001
 44
0.0000000001
 40
0.0
 40
0.0
 40
0.0
 40
0.0
 40
0.1412565404
 40
0.2893803379
 40
0.4385088584
 40
0.5826657946
 40
0.7159768073
 40
0.7768984129
 40
0.8331393266
 40
0.8841173238
 40
0.929271824
 40
0.9680824909
 40
1.0
 40
1.0
 40
1.0
 40
1.0
 10
8.4367785917
 20
11.5222565034
 30
0.0
 10
8.4409778306
 20
11.5190893796
 30
0.0
 10
8.4495417889
 20
11.5125497994
 30
0.0
 10
8.4624201203
 20
11.5025121053
 30
0.0
 10
8.4752875679
 20
11.4922859149
 30
0.0
 10
8.4876259403
 20
11.4822817085
 30
0.0
 10
8.4973253532
 20
11.4742387947
 30
0.0
 10
8.5044433236
 20
11.468212422
 30
0.0
 10
8.5091896063
 20
11.4641294974
 30
0.0
 10
8.5134561256
 20
11.4603894708
 30
0.0
 10
8.5171960223
 20
11.457033642
 30
0.0
 10
8.5203630871
 20
11.4541029167
 30
0.0
 10
8.5222582575
 20
11.4522736154
 30
0.0
 10
8.52309684
 20
11.4514314827
 30
0.0
  0
SPLINE
  5
4AD
100
AcDbEntity
  8
0
100
AcDbSpline
 62
9
  6
CONTINUOUS
 70
0
 71
3
 72
16
 73
12
 74
0
 42
0.0000001
 43
0.0000001
 44
0.0000000001
 40
0.0
 40
0.0
 40
0.0
 40
0.0
 40
0.1269081444
 40
0.247598044
 40
0.3607570751
 40
0.4702890172
 40
0.5890466441
 40
0.7180089143
 40
0.8557926805
 40
0.9272971833
 40
1.0
 40
1.0
 40
1.0
 40
1.0
 10
8.5230977385
 20
11.4514328179
 30
0.0
 10
8.5225423538
 20
11.4518436528
 30
0.0
 10
8.5213732539
 20
11.4525364378
 30
0.0
 10
8.5195100889
 20
11.4531909098
 30
0.0
 10
8.5176556984
 20
11.4534896053
 30
0.0
 10
8.5157893754
 20
11.4534807038
 30
0.0
 10
8.513862808
 20
11.4531568307
 30
0.0
 10
8.5118714451
 20
11.4524628609
 30
0.0
 10
8.5102573913
 20
11.4515545586
 30
0.0
 10
8.5090301189
 20
11.4506298294
 30
0.0
 10
8.5084491707
 20
11.4500997562
 30
0.0
 10
8.5081694331
 20
11.4498198084
 30
0.0
  0
LINE
  5
4AE
100
AcDbEntity
  8
0
100
AcDbLine
 62
7
  6
CONTINUOUS
 10
7.7532104964
 20
12.4447349056
 11
7.7524384882
 21
12.4436867143
  0
SPLINE
  5
4AF
100
AcDbEntity
  8
0
100
AcDbSpline
 62
7
  6
CONTINUOUS
 70
0
 71
3
 72
30
 73
26
 74
0
 42
0.0000001
 43
0.0000001
 44
0.0000000001
 40
0.0
 40
0.0
 40
0.0
 40
0.0
 40
0.0017746597
 40
0.0038809937
 40
0.0064491176
 40
0.0095499999
 40
0.0132223226
 40
0.0174864903
 40
0.0223530715
 40
0.0278273545
 40
0.040602895
 40
0.0557982385
 40
0.0733742125
 40
0.0932746554
 40
0.1154321174
 40
0.1397695601
 40
0.1946337456
 40
0.2571041802
 40
0.3263238237
 40
0.4013596469
 40
0.481215039
 40
0.5648390446
 40
0.651135804
 40
0.8271834084
 40
1.0
 40
1.0
 40
1.0
 40
1.0
 10
8.8149413993
 20
11.3038304374
 30
0.0
 10
8.8149815651
 20
11.3038706027
 30
0.0
 10
8.8150883244
 20
11.3039398968
 30
0.0
 10
8.8152887771
 20
11.3039962152
 30
0.0
 10
8.815537919
 20
11.3040159728
 30
0.0
 10
8.8158370615
 20
11.3039998511
 30
0.0
 10
8.816186901
 20
11.3039481431
 30
0.0
 10
8.8165875131
 20
11.3038607807
 30
0.0
 10
8.8170386869
 20
11.3037378144
 30
0.0
 10
8.8177442625
 20
11.3035145541
 30
0.0
 10
8.818748084
 20
11.3031409546
 30
0.0
 10
8.8200918008
 20
11.3025748462
 30
0.0
 10
8.8216242697
 20
11.3018715963
 30
0.0
 10
8.8233395483
 20
11.3010339681
 30
0.0
 10
8.8252310836
 20
11.3000650274
 30
0.0
 10
8.8280950685
 20
11.29854072
 30
0.0
 10
8.8320546446
 20
11.2963297832
 30
0.0
 10
8.8372119788
 20
11.2933198682
 30
0.0
 10
8.8428754028
 20
11.2898977843
 30
0.0
 10
8.8489674648
 20
11.2861103444
 30
0.0
 10
8.8554062193
 20
11.2820082517
 30
0.0
 10
8.8621060682
 20
11.2776459257
 30
0.0
 10
8.8713300526
 20
11.271518431
 30
0.0
 10
8.8828301018
 20
11.2636590027
 30
0.0
 10
8.8919405595
 20
11.2572012913
 30
0.0
 10
8.89642151
 20
11.2539581439
 30
0.0
  0
SPLINE
  5
4B0
100
AcDbEntity
  8
0
100
AcDbSpline
 62
9
  6
CONTINUOUS
 70
0
 71
3
 72
11
 73
7
 74
0
 42
0.0000001
 43
0.0000001
 44
0.0000000001
 40
0.0
 40
0.0
 40
0.0
 40
0.0
 40
0.3115701092
 40
0.5818659629
 40
0.8113754359
 40
1.0
 40
1.0
 40
1.0
 40
1.0
 10
7.2598083837
 20
12.714719939
 30
0.0
 10
7.2592957185
 20
12.7152353861
 30
0.0
 10
7.2583302209
 20
12.7161900289
 30
0.0
 10
7.2569547789
 20
12.7174912264
 30
0.0
 10
7.2557569908
 20
12.7185618381
 30
0.0
 10
7.2550043007
 20
12.7191833833
 30
0.0
 10
7.2546556853
 20
12.7194520309
 30
0.0
  0
SPLINE
  5
4B1
100
AcDbEntity
  8
0
100
AcDbSpline
 62
9
  6
CONTINUOUS
 70
0
 71
3
 72
22
 73
18
 74
0
 42
0.0000001
 43
0.0000001
 44
0.0000000001
 40
0.0
 40
0.0
 40
0.0
 40
0.0
 40
0.2250451956
 40
0.3200611623
 40
0.4035970814
 40
0.475893268
 40
0.5373243572
 40
0.5885119247
 40
0.630533221
 40
0.6653175761
 40
0.6961713496
 40
0.7276530955
 40
0.7640664602
 40
0.8082552237
 40
0.8617996567
 40
0.9255556751
 40
1.0
 40
1.0
 40
1.0
 40
1.0
 10
7.2546556853
 20
12.7194520309
 30
0.0
 10
7.2544356033
 20
12.7196216289
 30
0.0
 10
7.2541173464
 20
12.7198564367
 30
0.0
 10
7.2536999925
 20
12.7201289054
 30
0.0
 10
7.2534328941
 20
12.7202859575
 30
0.0
 10
7.2531936483
 20
12.7204077364
 30
0.0
 10
7.252982086
 20
12.7204944432
 30
0.0
 10
7.2527977302
 20
12.720546324
 30
0.0
 10
7.2526395968
 20
12.7205633347
 30
0.0
 10
7.2525059474
 20
12.7205439282
 30
0.0
 10
7.2523986553
 20
12.720483222
 30
0.0
 10
7.2523249102
 20
12.7203822254
 30
0.0
 10
7.2522844893
 20
12.720248069
 30
0.0
 10
7.2522729762
 20
12.7200819869
 30
0.0
 10
7.2522890784
 20
12.719882754
 30
0.0
 10
7.2523325177
 20
12.7196497492
 30
0.0
 10
7.2523762993
 20
12.7194846937
 30
0.0
 10
7.2524021715
 20
12.7193964989
 30
0.0
  0
SPLINE
  5
4B2
100
AcDbEntity
  8
0
100
AcDbSpline
 62
9
  6
CONTINUOUS
 70
0
 71
3
 72
11
 73
7
 74
0
 42
0.0000001
 43
0.0000001
 44
0.0000000001
 40
0.0
 40
0.0
 40
0.0
 40
0.0
 40
0.1737574007
 40
0.3979714776
 40
0.6733575426
 40
1.0
 40
1.0
 40
1.0
 40
1.0
 10
7.2524021715
 20
12.7193964989
 30
0.0
 10
7.252479353
 20
12.7191333985
 30
0.0
 10
7.2526999709
 20
12.718543995
 30
0.0
 10
7.25314231
 20
12.7175775876
 30
0.0
 10
7.2537408656
 20
12.7164188167
 30
0.0
 10
7.2542047018
 20
12.7155896188
 30
0.0
 10
7.2544614771
 20
12.7151426922
 30
0.0
  0
SPLINE
  5
4B3
100
AcDbEntity
  8
0
100
AcDbSpline
 62
9
  6
CONTINUOUS
 70
0
 71
3
 72
12
 73
8
 74
0
 42
0.0000001
 43
0.0000001
 44
0.0000000001
 40
0.0
 40
0.0
 40
0.0
 40
0.0
 40
0.3404146921
 40
0.6209350262
 40
0.8402708028
 40
0.9273993238
 40
1.0
 40
1.0
 40
1.0
 40
1.0
 10
7.3511118996
 20
12.5938196086
 30
0.0
 10
7.3515366336
 20
12.593424814
 30
0.0
 10
7.3523201075
 20
12.5927138222
 30
0.0
 10
7.3534153983
 20
12.5917919667
 30
0.0
 10
7.354216321
 20
12.591191214
 30
0.0
 10
7.3547622772
 20
12.5908458614
 30
0.0
 10
7.3550022986
 20
12.5907168003
 30
0.0
 10
7.3551143669
 20
12.5906644991
 30
0.0
  0
SPLINE
  5
4B4
100
AcDbEntity
  8
0
100
AcDbSpline
 62
9
  6
CONTINUOUS
 70
0
 71
3
 72
19
 73
15
 74
0
 42
0.0000001
 43
0.0000001
 44
0.0000000001
 40
0.0
 40
0.0
 40
0.0
 40
0.0
 40
0.117177242
 40
0.1620218349
 40
0.1993367275
 40
0.2315532163
 40
0.2623457138
 40
0.2958651422
 40
0.3354068074
 40
0.383025226
 40
0.4399007821
 40
0.5838128757
 40
0.7701365991
 40
1.0
 40
1.0
 40
1.0
 40
1.0
 10
7.3551143669
 20
12.5906644991
 30
0.0
 10
7.355236163
 20
12.5906076579
 30
0.0
 10
7.3554103699
 20
12.5905372307
 30
0.0
 10
7.3556370321
 20
12.5905002585
 30
0.0
 10
7.3557694338
 20
12.5905063567
 30
0.0
 10
7.3558798564
 20
12.5905464384
 30
0.0
 10
7.355963843
 20
12.5906228507
 30
0.0
 10
7.3560179848
 20
12.5907312685
 30
0.0
 10
7.3560449842
 20
12.5908681259
 30
0.0
 10
7.3560470803
 20
12.591033943
 30
0.0
 10
7.3560144273
 20
12.5913175224
 30
0.0
 10
7.3559019801
 20
12.5917488053
 30
0.0
 10
7.3556814277
 20
12.5923525356
 30
0.0
 10
7.3554893846
 20
12.5927899502
 30
0.0
 10
7.3553786644
 20
12.5930292384
 30
0.0
  0
LINE
  5
4B5
100
AcDbEntity
  8
0
100
AcDbLine
 62
9
  6
CONTINUOUS
 10
7.3553786644
 20
12.5930292384
 11
7.3540999246
 21
12.5954768997
  0
SPLINE
  5
4B6
100
AcDbEntity
  8
0
100
AcDbSpline
 62
9
  6
CONTINUOUS
 70
0
 71
3
 72
25
 73
21
 74
0
 42
0.0000001
 43
0.0000001
 44
0.0000000001
 40
0.0
 40
0.0
 40
0.0
 40
0.0
 40
0.0150010719
 40
0.0325940247
 40
0.0526764782
 40
0.0751423078
 40
0.1267161006
 40
0.1862762145
 40
0.2526409487
 40
0.3244195858
 40
0.4001606249
 40
0.478304644
 40
0.6353770755
 40
0.7110352233
 40
0.7826334101
 40
0.8486849323
 40
0.9077877904
 40
0.9586203436
 40
0.9805737397
 40
1.0
 40
1.0
 40
1.0
 40
1.0
 10
7.3540999246
 20
12.5954768997
 30
0.0
 10
7.3537253441
 20
12.5961393976
 30
0.0
 10
7.3528843376
 20
12.5975635225
 30
0.0
 10
7.3514707578
 20
12.5998317166
 30
0.0
 10
7.3498105294
 20
12.6023918483
 30
0.0
 10
7.3471555513
 20
12.6063610358
 30
0.0
 10
7.3432880917
 20
12.6119279909
 30
0.0
 10
7.3380319077
 20
12.6192403359
 30
0.0
 10
7.3320730607
 20
12.6273089633
 30
0.0
 10
7.3255346426
 20
12.635969248
 30
0.0
 10
7.3185502671
 20
12.6450410013
 30
0.0
 10
7.3088186486
 20
12.6574580593
 30
0.0
 10
7.298937004
 20
12.6697516728
 30
0.0
 10
7.2891066466
 20
12.681657772
 30
0.0
 10
7.2821364629
 20
12.6899363241
 30
0.0
 10
7.2756248166
 20
12.6975022833
 30
0.0
 10
7.2697122494
 20
12.7041928735
 30
0.0
 10
7.2651972816
 20
12.7091320057
 30
0.0
 10
7.2619755476
 20
12.7125243224
 30
0.0
 10
7.2605060955
 20
12.7140238488
 30
0.0
 10
7.2598083837
 20
12.714719939
 30
0.0
  0
SPLINE
  5
4B7
100
AcDbEntity
  8
0
100
AcDbSpline
 62
9
  6
CONTINUOUS
 70
0
 71
3
 72
39
 73
35
 74
0
 42
0.0000001
 43
0.0000001
 44
0.0000000001
 40
0.0
 40
0.0
 40
0.0
 40
0.0
 40
0.1029197004
 40
0.20630652
 40
0.3083760175
 40
0.4073856246
 40
0.5016466985
 40
0.5895725257
 40
0.6697198472
 40
0.706471269
 40
0.7408161823
 40
0.7726239882
 40
0.801774233
 40
0.8281681145
 40
0.8517207713
 40
0.8723674068
 40
0.8900711809
 40
0.9048458006
 40
0.9111616752
 40
0.9167910663
 40
0.921770313
 40
0.9261540625
 40
0.9300251235
 40
0.9335050359
 40
0.9367608674
 40
0.9399959733
 40
0.9434175528
 40
0.9472012525
 40
0.9514773398
 40
0.9563357573
 40
0.9618371649
 40
0.9680226502
 40
0.9825412439
 40
1.0
 40
1.0
 40
1.0
 40
1.0
 10
7.9937309374
 20
11.9807973854
 30
0.0
 10
7.9911863543
 20
11.9833434475
 30
0.0
 10
7.9860403277
 20
11.9884020244
 30
0.0
 10
7.9782251291
 20
11.9958356817
 30
0.0
 10
7.9703889111
 20
12.0030467865
 30
0.0
 10
7.9626689412
 20
12.0099106723
 30
0.0
 10
7.9551985617
 20
12.0163084119
 30
0.0
 10
7.9481065826
 20
12.0221308212
 30
0.0
 10
7.9424608354
 20
12.0265420901
 30
0.0
 10
7.9382184922
 20
12.0297022117
 30
0.0
 10
7.935295775
 20
12.031802827
 30
0.0
 10
7.9325513291
 20
12.0336949476
 30
0.0
 10
7.92999644
 20
12.0353707724
 30
0.0
 10
7.9276418555
 20
12.0368238472
 30
0.0
 10
7.9254973308
 20
12.0380484949
 30
0.0
 10
7.9235717402
 20
12.039040356
 30
0.0
 10
7.9218728741
 20
12.0397954832
 30
0.0
 10
7.9205911986
 20
12.0402486036
 30
0.0
 10
7.9196843532
 20
12.0404771792
 30
0.0
 10
7.9191004711
 20
12.040578591
 30
0.0
 10
7.9185767097
 20
12.0406193202
 30
0.0
 10
7.9181128436
 20
12.0405989486
 30
0.0
 10
7.9177085895
 20
12.0405165293
 30
0.0
 10
7.9173643904
 20
12.040370079
 30
0.0
 10
7.9170830323
 20
12.040157461
 30
0.0
 10
7.9168690483
 20
12.0398795961
 30
0.0
 10
7.9167240245
 20
12.0395409083
 30
0.0
 10
7.9166460183
 20
12.039144636
 30
0.0
 10
7.9166328361
 20
12.0386914449
 30
0.0
 10
7.9166834069
 20
12.03818099
 30
0.0
 10
7.9167973768
 20
12.0376128947
 30
0.0
 10
7.9170479118
 20
12.0367304981
 30
0.0
 10
7.9175364366
 20
12.0354854278
 30
0.0
 10
7.9180283394
 20
12.0344801416
 30
0.0
 10
7.9183114887
 20
12.033939137
 30
0.0
  0
LINE
  5
4B8
100
AcDbEntity
  8
0
100
AcDbLine
 62
9
  6
CONTINUOUS
 10
7.9183114887
 20
12.033939137
 11
7.9202095982
 21
12.0306780981
  0
SPLINE
  5
4B9
100
AcDbEntity
  8
0
100
AcDbSpline
 62
9
  6
CONTINUOUS
 70
0
 71
3
 72
38
 73
34
 74
0
 42
0.0000001
 43
0.0000001
 44
0.0000000001
 40
0.0
 40
0.0
 40
0.0
 40
0.0
 40
0.0254069657
 40
0.0478193936
 40
0.0672140536
 40
0.0836339172
 40
0.0971896591
 40
0.1029618162
 40
0.1081182853
 40
0.1127277736
 40
0.1168904153
 40
0.1207444676
 40
0.1244629854
 40
0.1282377288
 40
0.1322522292
 40
0.1366586834
 40
0.1415711897
 40
0.1532015451
 40
0.1675583035
 40
0.1848321262
 40
0.205110177
 40
0.2284098777
 40
0.2547138175
 40
0.2839714406
 40
0.3161157627
 40
0.351059854
 40
0.3887056234
 40
0.4716191456
 40
0.5637883651
 40
0.6640333931
 40
0.7711009198
 40
0.8835885053
 40
1.0
 40
1.0
 40
1.0
 40
1.0
 10
8.0270821709
 20
11.9284103547
 30
0.0
 10
8.0276766048
 20
11.9280752141
 30
0.0
 10
8.0288059302
 20
11.9274626633
 30
0.0
 10
8.0304295395
 20
11.9266718544
 30
0.0
 10
8.0318735509
 20
11.9260680697
 30
0.0
 10
8.0331340718
 20
11.9256520077
 30
0.0
 10
8.0340763881
 20
11.9254502184
 30
0.0
 10
8.0347328202
 20
11.9253971964
 30
0.0
 10
8.035150989
 20
11.925407783
 30
0.0
 10
8.0355217746
 20
11.9254669634
 30
0.0
 10
8.0358449435
 20
11.925575912
 30
0.0
 10
8.036119468
 20
11.9257357672
 30
0.0
 10
8.0363431191
 20
11.9259469274
 30
0.0
 10
8.0365137633
 20
11.9262078328
 30
0.0
 10
8.036631094
 20
11.9265159596
 30
0.0
 10
8.0366965389
 20
11.9268696528
 30
0.0
 10
8.0367170598
 20
11.9274335214
 30
0.0
 10
8.0365974601
 20
11.9282605182
 30
0.0
 10
8.0362678432
 20
11.9293767624
 30
0.0
 10
8.0357429006
 20
11.9306702848
 30
0.0
 10
8.0350225823
 20
11.9321384021
 30
0.0
 10
8.034107811
 20
11.9337781176
 30
0.0
 10
8.0330005216
 20
11.9355842976
 30
0.0
 10
8.0317038939
 20
11.9375514244
 30
0.0
 10
8.030221704
 20
11.9396729459
 30
0.0
 10
8.0285586639
 20
11.9419420055
 30
0.0
 10
8.0260242853
 20
11.9452620955
 30
0.0
 10
8.0224403867
 20
11.949713204
 30
0.0
 10
8.0176531926
 20
11.9553503758
 30
0.0
 10
8.0123134009
 20
11.9613667929
 30
0.0
 10
8.0064896513
 20
11.9676811091
 30
0.0
 10
8.0002586602
 20
11.9742086051
 30
0.0
 10
7.9959430473
 20
11.9785877117
 30
0.0
 10
7.9937309374
 20
11.9807973854
 30
0.0
  0
SPLINE
  5
4BA
100
AcDbEntity
  8
0
100
AcDbSpline
 62
9
  6
CONTINUOUS
 70
0
 71
3
 72
49
 73
45
 74
0
 42
0.0000001
 43
0.0000001
 44
0.0000000001
 40
0.0
 40
0.0
 40
0.0
 40
0.0
 40
0.0299558704
 40
0.063319866
 40
0.0997041961
 40
0.1387791315
 40
0.2235748407
 40
0.3148177626
 40
0.4095451902
 40
0.5046528239
 40
0.551375003
 40
0.5970392852
 40
0.6412823145
 40
0.6837538103
 40
0.7241047315
 40
0.7620057388
 40
0.7971472399
 40
0.8292397433
 40
0.8580420884
 40
0.8833628963
 40
0.8946675192
 40
0.9050413686
 40
0.91446403
 40
0.9229100596
 40
0.9303538093
 40
0.9367758548
 40
0.9421670543
 40
0.9465334435
 40
0.9483475169
 40
0.9499292873
 40
0.9512952523
 40
0.9524700053
 40
0.9534908316
 40
0.9544127567
 40
0.9553081932
 40
0.9562546943
 40
0.9573178727
 40
0.9585442754
 40
0.9615932028
 40
0.9655418305
 40
0.9704457882
 40
0.9763282863
 40
0.983199768
 40
1.0
 40
1.0
 40
1.0
 40
1.0
 10
8.4393682727
 20
11.53516005
 30
0.0
 10
8.4382543019
 20
11.5362780404
 30
0.0
 10
8.4358723702
 20
11.538614089
 30
0.0
 10
8.4320640706
 20
11.542232368
 30
0.0
 10
8.4278566772
 20
11.5461274114
 30
0.0
 10
8.4215980442
 20
11.5517946582
 30
0.0
 10
8.413086514
 20
11.5592788353
 30
0.0
 10
8.4022298283
 20
11.568533448
 30
0.0
 10
8.3908261856
 20
11.5779816564
 30
0.0
 10
8.3811213894
 20
11.5858019306
 30
0.0
 10
8.3733660645
 20
11.5919203589
 30
0.0
 10
8.3676828099
 20
11.5963383084
 30
0.0
 10
8.3621442942
 20
11.6005772362
 30
0.0
 10
8.3567955032
 20
11.6046031233
 30
0.0
 10
8.3516798914
 20
11.6083827953
 30
0.0
 10
8.3468397466
 20
11.611884961
 30
0.0
 10
8.3423153259
 20
11.6150806714
 30
0.0
 10
8.3381433861
 20
11.6179438121
 30
0.0
 10
8.3343565446
 20
11.6204526719
 30
0.0
 10
8.3314446406
 20
11.6222981432
 30
0.0
 10
8.32932594
 20
11.6235799281
 30
0.0
 10
8.3279105283
 20
11.6244056482
 30
0.0
 10
8.3266111231
 20
11.6251308512
 30
0.0
 10
8.3254314482
 20
11.6257531662
 30
0.0
 10
8.324375454
 20
11.6262700714
 30
0.0
 10
8.3234467261
 20
11.6266795142
 30
0.0
 10
8.3226485401
 20
11.6269799849
 30
0.0
 10
8.322061341
 20
11.6271488001
 30
0.0
 10
8.3216584966
 20
11.627221339
 30
0.0
 10
8.3214083301
 20
11.6272447716
 30
0.0
 10
8.3211905857
 20
11.6272409576
 30
0.0
 10
8.3210046355
 20
11.6272097101
 30
0.0
 10
8.3208500026
 20
11.6271501583
 30
0.0
 10
8.3207275808
 20
11.6270606937
 30
0.0
 10
8.3206401871
 20
11.6269413445
 30
0.0
 10
8.3205891424
 20
11.6267950754
 30
0.0
 10
8.3205726883
 20
11.6266241487
 30
0.0
 10
8.3205967794
 20
11.6263428062
 30
0.0
 10
8.3207228679
 20
11.6259245345
 30
0.0
 10
8.3209881519
 20
11.6253555802
 30
0.0
 10
8.3213803907
 20
11.6246845603
 30
0.0
 10
8.3218996198
 20
11.6239121928
 30
0.0
 10
8.3228267698
 20
11.6226607429
 30
0.0
 10
8.3236239783
 20
11.6217003745
 30
0.0
 10
8.32420234
 20
11.6210303388
 30
0.0
  0
SPLINE
  5
4BB
100
AcDbEntity
  8
0
100
AcDbSpline
 62
9
  6
CONTINUOUS
 70
0
 71
3
 72
31
 73
27
 74
0
 42
0.0000001
 43
0.0000001
 44
0.0000000001
 40
0.0
 40
0.0
 40
0.0
 40
0.0
 40
0.0810856249
 40
0.1490440418
 40
0.178068105
 40
0.2037871469
 40
0.2262292539
 40
0.2454522767
 40
0.2615635491
 40
0.2747680431
 40
0.2854657459
 40
0.2944070269
 40
0.3028293754
 40
0.3121800236
 40
0.3235493412
 40
0.3375545174
 40
0.3545196818
 40
0.3746201502
 40
0.3979560931
 40
0.4245869238
 40
0.4878451631
 40
0.5644341759
 40
0.6542058947
 40
0.756920045
 40
0.8722884264
 40
1.0
 40
1.0
 40
1.0
 40
1.0
 10
8.4429192487
 20
11.5244707444
 30
0.0
 10
8.4434788207
 20
11.5241610853
 30
0.0
 10
8.4445155087
 20
11.52360639
 30
0.0
 10
8.4457807968
 20
11.5229951688
 30
0.0
 10
8.4466718371
 20
11.5226170085
 30
0.0
 10
8.4472414147
 20
11.5224015279
 30
0.0
 10
8.4477476857
 20
11.5222388421
 30
0.0
 10
8.4481903979
 20
11.5221289301
 30
0.0
 10
8.4485697005
 20
11.522071605
 30
0.0
 10
8.4488866405
 20
11.5220670943
 30
0.0
 10
8.4491436322
 20
11.5221164895
 30
0.0
 10
8.4493417424
 20
11.5222273897
 30
0.0
 10
8.4494673375
 20
11.5224052043
 30
0.0
 10
8.4495132687
 20
11.5226352939
 30
0.0
 10
8.4494905539
 20
11.5229103025
 30
0.0
 10
8.4494036778
 20
11.523233967
 30
0.0
 10
8.4492529163
 20
11.5236081906
 30
0.0
 10
8.4490379594
 20
11.5240337932
 30
0.0
 10
8.448758517
 20
11.5245108773
 30
0.0
 10
8.4482708531
 20
11.5252593014
 30
0.0
 10
8.4474912197
 20
11.5263170027
 30
0.0
 10
8.4463489839
 20
11.5277228851
 30
0.0
 10
8.4449548112
 20
11.5293234056
 30
0.0
 10
8.4433131955
 20
11.5311127487
 30
0.0
 10
8.4414288499
 20
11.5330846742
 30
0.0
 10
8.4400811669
 20
11.5344484263
 30
0.0
 10
8.4393682727
 20
11.53516005
 30
0.0
  0
SPLINE
  5
4BC
100
AcDbEntity
  8
0
100
AcDbSpline
 62
9
  6
CONTINUOUS
 70
0
 71
3
 72
36
 73
32
 74
0
 42
0.0000001
 43
0.0000001
 44
0.0000000001
 40
0.0
 40
0.0
 40
0.0
 40
0.0
 40
0.1203179994
 40
0.235065695
 40
0.3431398807
 40
0.4435488805
 40
0.5353890239
 40
0.6178706296
 40
0.6903277511
 40
0.7225726158
 40
0.7520423229
 40
0.7786598747
 40
0.8023677529
 40
0.823173318
 40
0.8411232261
 40
0.8563041264
 40
0.8688754827
 40
0.8742746934
 40
0.8791528618
 40
0.8876641032
 40
0.8915708355
 40
0.8954365762
 40
0.8994230325
 40
0.9036774997
 40
0.908321168
 40
0.9134470929
 40
0.9253906485
 40
0.9398777012
 40
0.9570941089
 40
0.9771267802
 40
1.0
 40
1.0
 40
1.0
 40
1.0
 10
7.6572389792
 20
12.3172893435
 30
0.0
 10
7.6554050997
 20
12.3191281936
 30
0.0
 10
7.6517951033
 20
12.3226938154
 30
0.0
 10
7.6464472241
 20
12.3278183796
 30
0.0
 10
7.6413305311
 20
12.3325618286
 30
0.0
 10
7.6364953548
 20
12.3368800856
 30
0.0
 10
7.6319885076
 20
12.3407348728
 30
0.0
 10
7.6278519934
 20
12.3440917721
 30
0.0
 10
7.6246346611
 20
12.3465374772
 30
0.0
 10
7.6222712811
 20
12.3482116963
 30
0.0
 10
7.6206868707
 20
12.3492727422
 30
0.0
 10
7.6192257285
 20
12.3501853002
 30
0.0
 10
7.6178915777
 20
12.3509461456
 30
0.0
 10
7.61668756
 20
12.3515543941
 30
0.0
 10
7.615615192
 20
12.3520106281
 30
0.0
 10
7.6146754393
 20
12.3523153299
 30
0.0
 10
7.6139694258
 20
12.3524505403
 30
0.0
 10
7.6134755201
 20
12.3524710217
 30
0.0
 10
7.6130708427
 20
12.3524406671
 30
0.0
 10
7.6127038264
 20
12.3523343619
 30
0.0
 10
7.6124092716
 20
12.3521382195
 30
0.0
 10
7.6122307625
 20
12.3519551422
 30
0.0
 10
7.612089574
 20
12.3517332497
 30
0.0
 10
7.611985496
 20
12.3514738933
 30
0.0
 10
7.6119178246
 20
12.3511777987
 30
0.0
 10
7.6118733256
 20
12.3507101954
 30
0.0
 10
7.6119201415
 20
12.3500266904
 30
0.0
 10
7.6121124485
 20
12.3491028033
 30
0.0
 10
7.6124444748
 20
12.3480351822
 30
0.0
 10
7.6129159921
 20
12.3468253943
 30
0.0
 10
7.6132977031
 20
12.3459811726
 30
0.0
 10
7.6135098502
 20
12.3455353674
 30
0.0
  0
LINE
  5
4BD
100
AcDbEntity
  8
0
100
AcDbLine
 62
9
  6
CONTINUOUS
 10
7.6135098502
 20
12.3455353674
 11
7.6148857326
 21
12.3428753452
  0
SPLINE
  5
4BE
100
AcDbEntity
  8
0
100
AcDbSpline
 62
9
  6
CONTINUOUS
 70
0
 71
3
 72
40
 73
36
 74
0
 42
0.0000001
 43
0.0000001
 44
0.0000000001
 40
0.0
 40
0.0
 40
0.0
 40
0.0
 40
0.0196979996
 40
0.0361728177
 40
0.0432164592
 40
0.0494797825
 40
0.0549860211
 40
0.0597752654
 40
0.0639120813
 40
0.0674974192
 40
0.0706858628
 40
0.0736955614
 40
0.0767853541
 40
0.0801976561
 40
0.0841146929
 40
0.0886572776
 40
0.0939016152
 40
0.0998911726
 40
0.1066497572
 40
0.1141902365
 40
0.13163828
 40
0.1522554161
 40
0.1759957882
 40
0.2027664416
 40
0.232446609
 40
0.2649009762
 40
0.2999882434
 40
0.3375504601
 40
0.4193518145
 40
0.5086719598
 40
0.6036797608
 40
0.7023931812
 40
0.8027676877
 40
0.9026900982
 40
1.0
 40
1.0
 40
1.0
 40
1.0
 10
7.7163671064
 20
12.233186746
 30
0.0
 10
7.7170306863
 20
12.2327654158
 30
0.0
 10
7.7182666223
 20
12.2320184582
 30
0.0
 10
7.7197987558
 20
12.2312222297
 30
0.0
 10
7.7208920305
 20
12.2307548358
 30
0.0
 10
7.7215995457
 20
12.2305020734
 30
0.0
 10
7.7222379115
 20
12.2303282506
 30
0.0
 10
7.7228072357
 20
12.2302333787
 30
0.0
 10
7.7233082052
 20
12.230217644
 30
0.0
 10
7.7237418524
 20
12.2302825132
 30
0.0
 10
7.7241076461
 20
12.2304319325
 30
0.0
 10
7.7243996023
 20
12.2306696777
 30
0.0
 10
7.7246101468
 20
12.2309919514
 30
0.0
 10
7.7247393368
 20
12.2313910898
 30
0.0
 10
7.7247917354
 20
12.2318642895
 30
0.0
 10
7.7247698024
 20
12.2324122011
 30
0.0
 10
7.7246742437
 20
12.2330354436
 30
0.0
 10
7.7245056459
 20
12.2337340144
 30
0.0
 10
7.7242644378
 20
12.2345073325
 30
0.0
 10
7.723824375
 20
12.2356957743
 30
0.0
 10
7.7230815568
 20
12.2373590829
 30
0.0
 10
7.7219474792
 20
12.2395501275
 30
0.0
 10
7.7205349255
 20
12.242012832
 30
0.0
 10
7.7188510544
 20
12.2447344803
 30
0.0
 10
7.7169043766
 20
12.2477008296
 30
0.0
 10
7.7147045291
 20
12.250896752
 30
0.0
 10
7.7122616598
 20
12.2543062758
 30
0.0
 10
7.7085899551
 20
12.2592567762
 30
0.0
 10
7.7034815304
 20
12.2658346041
 30
0.0
 10
7.6967729368
 20
12.2740680979
 30
0.0
 10
7.6894611775
 20
12.2826775685
 30
0.0
 10
7.6817010191
 20
12.291482225
 30
0.0
 10
7.6736559893
 20
12.3002948084
 30
0.0
 10
7.6654963973
 20
12.308924439
 30
0.0
 10
7.6599863032
 20
12.3145451295
 30
0.0
 10
7.6572389792
 20
12.3172893435
 30
0.0
  0
SPLINE
  5
4BF
100
AcDbEntity
  8
0
100
AcDbSpline
 62
9
  6
CONTINUOUS
 70
0
 71
3
 72
18
 73
14
 74
0
 42
0.0000001
 43
0.0000001
 44
0.0000000001
 40
0.0
 40
0.0
 40
0.0
 40
0.0
 40
0.0231397219
 40
0.0534103493
 40
0.0905676399
 40
0.1343147694
 40
0.1842882976
 40
0.2400732562
 40
0.367195308
 40
0.51152782
 40
0.6684341311
 40
0.8329621073
 40
1.0
 40
1.0
 40
1.0
 40
1.0
 10
7.198995586
 20
12.7589936574
 30
0.0
 10
7.199409844
 20
12.758579964
 30
0.0
 10
7.2003370901
 20
12.7575963133
 30
0.0
 10
7.2018617087
 20
12.7558856147
 30
0.0
 10
7.2036940199
 20
12.7537512988
 30
0.0
 10
7.2058195122
 20
12.7512121484
 30
0.0
 10
7.2082199878
 20
12.7482887807
 30
0.0
 10
7.2119248049
 20
12.7437072051
 30
0.0
 10
7.2170692655
 20
12.7372198676
 30
0.0
 10
7.2237278002
 20
12.7286685996
 30
0.0
 10
7.2308999861
 20
12.7193182262
 30
0.0
 10
7.2383595269
 20
12.7094646153
 30
0.0
 10
7.2433831229
 20
12.7027462075
 30
0.0
 10
7.2459038009
 20
12.6993540575
 30
0.0
  0
SPLINE
  5
4C0
100
AcDbEntity
  8
0
100
AcDbSpline
 62
9
  6
CONTINUOUS
 70
0
 71
3
 72
16
 73
12
 74
0
 42
0.0000001
 43
0.0000001
 44
0.0000000001
 40
0.0
 40
0.0
 40
0.0
 40
0.0
 40
0.1302554677
 40
0.2533692191
 40
0.3679048715
 40
0.4778700757
 40
0.5961283817
 40
0.7235574568
 40
0.8588626902
 40
0.9288776149
 40
1.0
 40
1.0
 40
1.0
 40
1.0
 10
7.2002627908
 20
12.7742679388
 30
0.0
 10
7.200698083
 20
12.7736883173
 30
0.0
 10
7.2014374346
 20
12.7724752293
 30
0.0
 10
7.2021587663
 20
12.7705476466
 30
0.0
 10
7.2025151963
 20
12.7686370287
 30
0.0
 10
7.2025562426
 20
12.7667221521
 30
0.0
 10
7.2022757593
 20
12.7647534818
 30
0.0
 10
7.201616798
 20
12.7627265708
 30
0.0
 10
7.2007256698
 20
12.7610897945
 30
0.0
 10
7.1998077563
 20
12.7598529555
 30
0.0
 10
7.1992786943
 20
12.7592702881
 30
0.0
 10
7.1989987125
 20
12.758990529
 30
0.0
  0
SPLINE
  5
4C1
100
AcDbEntity
  8
0
100
AcDbSpline
 62
9
  6
CONTINUOUS
 70
0
 71
3
 72
29
 73
25
 74
0
 42
0.0000001
 43
0.0000001
 44
0.0000000001
 40
0.0
 40
0.0
 40
0.0
 40
0.0
 40
0.1014398367
 40
0.1872768005
 40
0.2578564536
 40
0.3135736259
 40
0.3359962366
 40
0.3548679006
 40
0.3702867014
 40
0.3824326709
 40
0.3985503008
 40
0.4052966309
 40
0.4135141517
 40
0.4243421201
 40
0.438282643
 40
0.4555593571
 40
0.4762804468
 40
0.5005013932
 40
0.5282509538
 40
0.5943780046
 40
0.6746838672
 40
0.7691154671
 40
0.8775898293
 40
1.0
 40
1.0
 40
1.0
 40
1.0
 10
7.2002613501
 20
12.7742669726
 30
0.0
 10
7.2001204599
 20
12.7744093488
 30
0.0
 10
7.199858125
 20
12.7746700216
 30
0.0
 10
7.1994884428
 20
12.7750202349
 30
0.0
 10
7.1991748453
 20
12.775298075
 30
0.0
 10
7.1989459221
 20
12.7754822934
 30
0.0
 10
7.1987890333
 20
12.7755925168
 30
0.0
 10
7.1986940738
 20
12.7756515741
 30
0.0
 10
7.1986116303
 20
12.775693594
 30
0.0
 10
7.19853257
 20
12.7757229519
 30
0.0
 10
7.198453606
 20
12.7757298151
 30
0.0
 10
7.1984099803
 20
12.7756814094
 30
0.0
 10
7.198398453
 20
12.7756305931
 30
0.0
 10
7.1984001139
 20
12.7755652308
 30
0.0
 10
7.1984149782
 20
12.7754832996
 30
0.0
 10
7.1984428573
 20
12.7753845227
 30
0.0
 10
7.1984839545
 20
12.7752686702
 30
0.0
 10
7.1985382761
 20
12.775135771
 30
0.0
 10
7.1986341632
 20
12.774923161
 30
0.0
 10
7.1987888631
 20
12.7746158283
 30
0.0
 10
7.1990171875
 20
12.7741985531
 30
0.0
 10
7.1992977014
 20
12.7737147145
 30
0.0
 10
7.199630047
 20
12.7731649756
 30
0.0
 10
7.1998714657
 20
12.7727782228
 30
0.0
 10
7.2000005548
 20
12.7725738707
 30
0.0
  0
SPLINE
  5
4C2
100
AcDbEntity
  8
0
100
AcDbSpline
 62
7
  6
CONTINUOUS
 70
0
 71
3
 72
20
 73
16
 74
0
 42
0.0000001
 43
0.0000001
 44
0.0000000001
 40
0.0
 40
0.0
 40
0.0
 40
0.0
 40
0.0386330553
 40
0.0515693714
 40
0.0660279302
 40
0.099734492
 40
0.1400575753
 40
0.1870798174
 40
0.2407862448
 40
0.3010902133
 40
0.3678632364
 40
0.4409440756
 40
0.6052466801
 40
0.7922647756
 40
1.0
 40
1.0
 40
1.0
 40
1.0
 10
8.9111602744
 20
11.2684759534
 30
0.0
 10
8.9114492013
 20
11.2687648009
 30
0.0
 10
8.9120309093
 20
11.2689249281
 30
0.0
 10
8.9127211951
 20
11.268969947
 30
0.0
 10
8.9133695823
 20
11.2689606639
 30
0.0
 10
8.9143001906
 20
11.2688528144
 30
0.0
 10
8.9155560318
 20
11.268598157
 30
0.0
 10
8.916997388
 20
11.2682116875
 30
0.0
 10
8.9186204487
 20
11.2676946625
 30
0.0
 10
8.9204201111
 20
11.2670485652
 30
0.0
 10
8.9223908316
 20
11.2662754682
 30
0.0
 10
8.925356153
 20
11.2650287851
 30
0.0
 10
8.9294382758
 20
11.2631609962
 30
0.0
 10
8.934739814
 20
11.2605431797
 30
0.0
 10
8.9384386294
 20
11.2586069695
 30
0.0
 10
8.9403753473
 20
11.2575700804
 30
0.0
  0
LINE
  5
4C3
100
AcDbEntity
  8
0
100
AcDbLine
 62
9
  6
CONTINUOUS
 10
7.2538619119
 20
12.708558818
 11
7.250558289
 21
12.712799117
  0
SPLINE
  5
4C4
100
AcDbEntity
  8
0
100
AcDbSpline
 62
9
  6
CONTINUOUS
 70
0
 71
3
 72
15
 73
11
 74
0
 42
0.0000001
 43
0.0000001
 44
0.0000000001
 40
0.0
 40
0.0
 40
0.0
 40
0.0
 40
0.3190798372
 40
0.4692537766
 40
0.6086377579
 40
0.7340583656
 40
0.8426652747
 40
0.9320276061
 40
0.9688056439
 40
1.0
 40
1.0
 40
1.0
 40
1.0
 10
7.250558289
 20
12.712799117
 30
0.0
 10
7.2455482192
 20
12.7192172509
 30
0.0
 10
7.23814111
 20
12.7286257084
 30
0.0
 10
7.2284464504
 20
12.740759187
 30
0.0
 10
7.2217917716
 20
12.7489960844
 30
0.0
 10
7.2157561646
 20
12.75636934
 30
0.0
 10
7.2104765964
 20
12.7627115619
 30
0.0
 10
7.2065937497
 20
12.7672731615
 30
0.0
 10
7.2039482964
 20
12.7702931548
 30
0.0
 10
7.2027893437
 20
12.7715837028
 30
0.0
 10
7.2022517502
 20
12.7721707327
 30
0.0
  0
LINE
  5
4C5
100
AcDbEntity
  8
0
100
AcDbLine
 62
9
  6
CONTINUOUS
 10
7.2022517502
 20
12.7721707327
 11
7.2002613501
 21
12.7742669726
  0
SPLINE
  5
4C6
100
AcDbEntity
  8
0
100
AcDbSpline
 62
9
  6
CONTINUOUS
 70
0
 71
3
 72
37
 73
33
 74
0
 42
0.0000001
 43
0.0000001
 44
0.0000000001
 40
0.0
 40
0.0
 40
0.0
 40
0.0
 40
0.1123817095
 40
0.2221243788
 40
0.327739953
 40
0.4278667378
 40
0.5212490655
 40
0.6067727638
 40
0.6832929384
 40
0.7178141915
 40
0.7496750409
 40
0.7788106575
 40
0.805169954
 40
0.8287137098
 40
0.8494167394
 40
0.8672805304
 40
0.8823447982
 40
0.8947252502
 40
0.9046747163
 40
0.9088997208
 40
0.9127526079
 40
0.9163770187
 40
0.9199467614
 40
0.9236444637
 40
0.9276341868
 40
0.9320463789
 40
0.9369770176
 40
0.9424935002
 40
0.9486420925
 40
0.9629479941
 40
0.9800520206
 40
1.0
 40
1.0
 40
1.0
 40
1.0
 10
7.8238591376
 20
12.150669185
 30
0.0
 10
7.821612235
 20
12.1529218218
 30
0.0
 10
7.8171338529
 20
12.1573370989
 30
0.0
 10
7.8104247427
 20
12.1637471697
 30
0.0
 10
7.8038653454
 20
12.169810034
 30
0.0
 10
7.7975453571
 20
12.1754476351
 30
0.0
 10
7.7915469336
 20
12.1805890792
 30
0.0
 10
7.7859506685
 20
12.1851699774
 30
0.0
 10
7.7815480515
 20
12.1885755969
 30
0.0
 10
7.7782790432
 20
12.1909596253
 30
0.0
 10
7.7760598259
 20
12.1925053325
 30
0.0
 10
7.7739951571
 20
12.1938673534
 30
0.0
 10
7.772090681
 20
12.1950429402
 30
0.0
 10
7.7703516889
 20
12.1960297867
 30
0.0
 10
7.7687828724
 20
12.1968259106
 30
0.0
 10
7.7673886727
 20
12.1974300917
 30
0.0
 10
7.7661713589
 20
12.1978417479
 30
0.0
 10
7.7651329743
 20
12.1980610902
 30
0.0
 10
7.7643735166
 20
12.1980838949
 30
0.0
 10
7.7638706673
 20
12.1979843965
 30
0.0
 10
7.763560497
 20
12.1978619833
 30
0.0
 10
7.7632982792
 20
12.1976866775
 30
0.0
 10
7.7630867779
 20
12.1974584082
 30
0.0
 10
7.762927534
 20
12.1971794731
 30
0.0
 10
7.7628199717
 20
12.1968522298
 30
0.0
 10
7.7627627719
 20
12.1964777329
 30
0.0
 10
7.7627549917
 20
12.1960561459
 30
0.0
 10
7.762796066
 20
12.1955874006
 30
0.0
 10
7.7629223996
 20
12.1948623645
 30
0.0
 10
7.7632157401
 20
12.1938375158
 30
0.0
 10
7.763741453
 20
12.1924807006
 30
0.0
 10
7.7641844178
 20
12.1915290338
 30
0.0
 10
7.7644345084
 20
12.1910226764
 30
0.0
  0
LINE
  5
4C7
100
AcDbEntity
  8
0
100
AcDbLine
 62
9
  6
CONTINUOUS
 10
7.7644345084
 20
12.1910226764
 11
7.7660223512
 21
12.1880923286
  0
SPLINE
  5
4C8
100
AcDbEntity
  8
0
100
AcDbSpline
 62
7
  6
CONTINUOUS
 70
0
 71
3
 72
21
 73
17
 74
0
 42
0.0000001
 43
0.0000001
 44
0.0000000001
 40
0.0
 40
0.0
 40
0.0
 40
0.0
 40
0.0108362188
 40
0.0217858765
 40
0.0452561482
 40
0.0726724259
 40
0.1054058516
 40
0.1442339452
 40
0.1895703787
 40
0.2416107149
 40
0.3004248002
 40
0.3659796784
 40
0.4381885962
 40
0.6018944967
 40
0.7899167895
 40
1.0
 40
1.0
 40
1.0
 40
1.0
 10
7.3135127885
 20
12.8360227695
 30
0.0
 10
7.313587811
 20
12.8360977827
 30
0.0
 10
7.3137526098
 20
12.8362353808
 30
0.0
 10
7.314140584
 20
12.8364539336
 30
0.0
 10
7.3147387446
 20
12.8366031018
 30
0.0
 10
7.3155634545
 20
12.8365813934
 30
0.0
 10
7.3165146734
 20
12.8363772488
 30
0.0
 10
7.3175947077
 20
12.8359917377
 30
0.0
 10
7.3188036966
 20
12.835425615
 30
0.0
 10
7.3201395268
 20
12.8346793093
 30
0.0
 10
7.3215986889
 20
12.8337539953
 30
0.0
 10
7.3231771509
 20
12.8326519696
 30
0.0
 10
7.3255342293
 20
12.8308746929
 30
0.0
 10
7.3287292422
 20
12.8282219787
 30
0.0
 10
7.3328035281
 20
12.8245250834
 30
0.0
 10
7.3355975746
 20
12.8218064486
 30
0.0
 10
7.337051956
 20
12.8203520672
 30
0.0
  0
SPLINE
  5
4C9
100
AcDbEntity
  8
0
100
AcDbSpline
 62
9
  6
CONTINUOUS
 70
0
 71
3
 72
39
 73
35
 74
0
 42
0.0000001
 43
0.0000001
 44
0.0000000001
 40
0.0
 40
0.0
 40
0.0
 40
0.0
 40
0.0221195132
 40
0.0412048071
 40
0.0572665829
 40
0.0641828923
 40
0.0703754456
 40
0.0758740935
 40
0.0807256124
 40
0.0850015062
 40
0.0888106224
 40
0.0923098733
 40
0.0956982688
 40
0.0991919414
 40
0.1029877259
 40
0.1072403222
 40
0.1120603857
 40
0.1175238217
 40
0.1236797782
 40
0.1381741252
 40
0.1556814149
 40
0.176227394
 40
0.1997894571
 40
0.226322118
 40
0.2557608465
 40
0.2880090426
 40
0.3229532999
 40
0.4003799776
 40
0.4868225069
 40
0.580850276
 40
0.6808823174
 40
0.785273506
 40
0.8922611502
 40
1.0
 40
1.0
 40
1.0
 40
1.0
 10
7.8700772241
 20
12.0822237906
 30
0.0
 10
7.8707157647
 20
12.0818472708
 30
0.0
 10
7.8719192189
 20
12.0811687861
 30
0.0
 10
7.8736404849
 20
12.0803178485
 30
0.0
 10
7.8749484191
 20
12.07978603
 30
0.0
 10
7.8758824773
 20
12.0794955899
 30
0.0
 10
7.87648976
 20
12.07935132
 30
0.0
 10
7.8770389376
 20
12.0792695254
 30
0.0
 10
7.877529967
 20
12.0792505633
 30
0.0
 10
7.877963056
 20
12.0792952586
 30
0.0
 10
7.8783381222
 20
12.0794054749
 30
0.0
 10
7.878653598
 20
12.0795831847
 30
0.0
 10
7.8789057065
 20
12.0798287269
 30
0.0
 10
7.8790914721
 20
12.0801387588
 30
0.0
 10
7.8792115181
 20
12.0805092802
 30
0.0
 10
7.8792679648
 20
12.0809386911
 30
0.0
 10
7.8792622368
 20
12.0814270572
 30
0.0
 10
7.8791948739
 20
12.0819747314
 30
0.0
 10
7.8790127877
 20
12.0828315805
 30
0.0
 10
7.8786147922
 20
12.0840501319
 30
0.0
 10
7.8779225359
 20
12.0856707079
 30
0.0
 10
7.8769926158
 20
12.0875155966
 30
0.0
 10
7.875828226
 20
12.0895775286
 30
0.0
 10
7.874432467
 20
12.0918488136
 30
0.0
 10
7.8728096942
 20
12.09432054
 30
0.0
 10
7.8709659442
 20
12.0969831375
 30
0.0
 10
7.868123567
 20
12.1009090656
 30
0.0
 10
7.8640676988
 20
12.1061967392
 30
0.0
 10
7.8586188155
 20
12.1129065875
 30
0.0
 10
7.8525255807
 20
12.1200657354
 30
0.0
 10
7.845892436
 20
12.1275524406
 30
0.0
 10
7.8388304594
 20
12.1352371235
 30
0.0
 10
7.8314597018
 20
12.1429865734
 30
0.0
 10
7.8264135935
 20
12.1481174613
 30
0.0
 10
7.8238591376
 20
12.150669185
 30
0.0
  0
SPLINE
  5
4CA
100
AcDbEntity
  8
0
100
AcDbSpline
 62
7
  6
CONTINUOUS
 70
0
 71
3
 72
26
 73
22
 74
0
 42
0.0000001
 43
0.0000001
 44
0.0000000001
 40
0.0
 40
0.0
 40
0.0
 40
0.0
 40
0.0096979163
 40
0.0197997087
 40
0.0307107468
 40
0.042750934
 40
0.0561523308
 40
0.0710780262
 40
0.0876371585
 40
0.1058984887
 40
0.1259055123
 40
0.1476797881
 40
0.1965274668
 40
0.2523581658
 40
0.3149325379
 40
0.3839000774
 40
0.4588226073
 40
0.5391825134
 40
0.6243923776
 40
0.8066968712
 40
1.0
 40
1.0
 40
1.0
 40
1.0
 10
7.7820035929
 20
12.3579223677
 30
0.0
 10
7.7821518733
 20
12.3580706249
 30
0.0
 10
7.7824904046
 20
12.3583395674
 30
0.0
 10
7.7830920018
 20
12.3586311767
 30
0.0
 10
7.7837865707
 20
12.3588147428
 30
0.0
 10
7.7845714432
 20
12.3588920588
 30
0.0
 10
7.7854457627
 20
12.3588648943
 30
0.0
 10
7.7864087947
 20
12.3587338143
 30
0.0
 10
7.7874595436
 20
12.3584992233
 30
0.0
 10
7.7885966804
 20
12.3581615141
 30
0.0
 10
7.7898185012
 20
12.3577209827
 30
0.0
 10
7.7916281233
 20
12.3569676812
 30
0.0
 10
7.7940831321
 20
12.3557582217
 30
0.0
 10
7.7972252865
 20
12.3539651
 30
0.0
 10
7.8006441722
 20
12.3517891404
 30
0.0
 10
7.8043137302
 20
12.3492453864
 30
0.0
 10
7.808205304
 20
12.346351906
 30
0.0
 10
7.8122878687
 20
12.3431305279
 30
0.0
 10
7.8180726916
 20
12.3383222082
 30
0.0
 10
7.8255104411
 20
12.3316876679
 30
0.0
 10
7.8313565278
 20
12.3260474954
 30
0.0
 10
7.8343118852
 20
12.3230921379
 30
0.0
  0
SPLINE
  5
4CB
100
AcDbEntity
  8
0
100
AcDbSpline
 62
7
  6
CONTINUOUS
 70
0
 71
3
 72
13
 73
9
 74
0
 42
0.0000001
 43
0.0000001
 44
0.0000000001
 40
0.0
 40
0.0
 40
0.0
 40
0.0
 40
0.1161934859
 40
0.2380446424
 40
0.4926901948
 40
0.7511478712
 40
0.8776198058
 40
1.0
 40
1.0
 40
1.0
 40
1.0
 10
8.3198886811
 20
11.8296830301
 30
0.0
 10
8.3218882533
 20
11.8283026645
 30
0.0
 10
8.3259459275
 20
11.8254181341
 30
0.0
 10
8.3341967018
 20
11.8192466131
 30
0.0
 10
8.3445566851
 20
11.810934892
 30
0.0
 10
8.354637868
 20
11.8021397636
 30
0.0
 10
8.362401547
 20
11.7949092493
 30
0.0
 10
8.3661279453
 20
11.7912760779
 30
0.0
 10
8.3679375196
 20
11.7894665035
 30
0.0
  0
SPLINE
  5
4CC
100
AcDbEntity
  8
0
100
AcDbSpline
 62
7
  6
CONTINUOUS
 70
0
 71
3
 72
19
 73
15
 74
0
 42
0.0000001
 43
0.0000001
 44
0.0000000001
 40
0.0
 40
0.0
 40
0.0
 40
0.0
 40
0.0291354409
 40
0.0606025532
 40
0.0954264707
 40
0.1343395409
 40
0.1778422028
 40
0.2262699255
 40
0.2798338517
 40
0.3386600836
 40
0.4723151949
 40
0.6273585854
 40
0.8034580754
 40
1.0
 40
1.0
 40
1.0
 40
1.0
 10
8.7319281255
 20
11.452020943
 30
0.0
 10
8.7320502721
 20
11.4521430774
 30
0.0
 10
8.7323349828
 20
11.4523677097
 30
0.0
 10
8.7328434884
 20
11.452622468
 30
0.0
 10
8.7334420387
 20
11.4528060418
 30
0.0
 10
8.7341293198
 20
11.4529199824
 30
0.0
 10
8.7349048643
 20
11.4529653553
 30
0.0
 10
8.7357679657
 20
11.4529425207
 30
0.0
 10
8.736717694
 20
11.4528519172
 30
0.0
 10
8.7381602563
 20
11.4526313469
 30
0.0
 10
8.7401714464
 20
11.4521724408
 30
0.0
 10
8.7428126508
 20
11.4513821197
 30
0.0
 10
8.7457612717
 20
11.4503335163
 30
0.0
 10
8.7478119215
 20
11.449510116
 30
0.0
 10
8.7488863201
 20
11.4490591076
 30
0.0
  0
SPLINE
  5
4CD
100
AcDbEntity
  8
0
100
AcDbSpline
 62
7
  6
CONTINUOUS
 70
0
 71
3
 72
20
 73
16
 74
0
 42
0.0000001
 43
0.0000001
 44
0.0000000001
 40
0.0
 40
0.0
 40
0.0
 40
0.0
 40
0.0189691757
 40
0.0297506905
 40
0.0416823524
 40
0.0695563388
 40
0.1034056554
 40
0.1435984897
 40
0.1902987835
 40
0.2435423027
 40
0.3033006717
 40
0.4419807993
 40
0.6053186581
 40
0.7918904154
 40
1.0
 40
1.0
 40
1.0
 40
1.0
 10
8.6870715229
 20
11.4343165568
 30
0.0
 10
8.687179724
 20
11.4344247398
 30
0.0
 10
8.687388759
 20
11.4345565099
 30
0.0
 10
8.6877070936
 20
11.4346655217
 30
0.0
 10
8.6881080197
 20
11.4347474152
 30
0.0
 10
8.6887049703
 20
11.4347701952
 30
0.0
 10
8.6895245796
 20
11.4346911005
 30
0.0
 10
8.6904820006
 20
11.4345066176
 30
0.0
 10
8.6915752792
 20
11.4342170999
 30
0.0
 10
8.6928022232
 20
11.4338231923
 30
0.0
 10
8.6947085897
 20
11.4331240894
 30
0.0
 10
8.6973956473
 20
11.4319817745
 30
0.0
 10
8.7009520618
 20
11.4302819486
 30
0.0
 10
8.7049469235
 20
11.4282067791
 30
0.0
 10
8.7077330069
 20
11.4266657852
 30
0.0
 10
8.7091934992
 20
11.4258382914
 30
0.0
  0
SPLINE
  5
4CE
100
AcDbEntity
  8
0
100
AcDbSpline
 62
7
  6
CONTINUOUS
 70
0
 71
3
 72
14
 73
10
 74
0
 42
0.0000001
 43
0.0000001
 44
0.0000000001
 40
0.0
 40
0.0
 40
0.0
 40
0.0
 40
0.0912471569
 40
0.1879838288
 40
0.293046149
 40
0.4085858434
 40
0.5361620624
 40
0.676848953
 40
1.0
 40
1.0
 40
1.0
 40
1.0
 10
8.4983496507
 20
11.6912228583
 30
0.0
 10
8.4985148102
 20
11.6913880203
 30
0.0
 10
8.4988920116
 20
11.6916929244
 30
0.0
 10
8.4995576541
 20
11.6920467401
 30
0.0
 10
8.50033026
 20
11.6923073167
 30
0.0
 10
8.5012076118
 20
11.6924760783
 30
0.0
 10
8.5021886224
 20
11.6925541557
 30
0.0
 10
8.5037039126
 20
11.6925370311
 30
0.0
 10
8.50488608
 20
11.6923865811
 30
0.0
 10
8.5057009738
 20
11.6922444539
 30
0.0
  0
SPLINE
  5
4CF
100
AcDbEntity
  8
0
100
AcDbSpline
 62
9
  6
CONTINUOUS
 70
0
 71
3
 72
33
 73
29
 74
0
 42
0.0000001
 43
0.0000001
 44
0.0000000001
 40
0.0
 40
0.0
 40
0.0
 40
0.0
 40
0.0019763383
 40
0.0043615926
 40
0.0073385853
 40
0.010999782
 40
0.0153911748
 40
0.0205343866
 40
0.0264392461
 40
0.0331086952
 40
0.048723336
 40
0.0673216178
 40
0.0888089082
 40
0.1130678924
 40
0.1399591139
 40
0.1693271253
 40
0.2010011695
 40
0.2347959702
 40
0.3079490758
 40
0.3870809004
 40
0.4703376855
 40
0.5557529094
 40
0.6412848619
 40
0.7248600798
 40
0.8044233873
 40
0.8779959615
 40
0.9437334484
 40
1.0
 40
1.0
 40
1.0
 40
1.0
 10
8.3215097816
 20
11.6096638466
 30
0.0
 10
8.321570374
 20
11.6097244611
 30
0.0
 10
8.3217375109
 20
11.6098254509
 30
0.0
 10
8.3220529255
 20
11.6098886763
 30
0.0
 10
8.3224459804
 20
11.6098844322
 30
0.0
 10
8.3229199902
 20
11.6098134379
 30
0.0
 10
8.3234761138
 20
11.6096761579
 30
0.0
 10
8.3241142922
 20
11.6094724074
 30
0.0
 10
8.324833861
 20
11.6092023284
 30
0.0
 10
8.3259609499
 20
11.6087283853
 30
0.0
 10
8.3275613964
 20
11.6079635556
 30
0.0
 10
8.3296970063
 20
11.6068340903
 30
0.0
 10
8.3321234683
 20
11.6054555307
 30
0.0
 10
8.3348256563
 20
11.6038362493
 30
0.0
 10
8.3377869797
 20
11.6019857983
 30
0.0
 10
8.3409893633
 20
11.5999152489
 30
0.0
 10
8.3444134733
 20
11.597636935
 30
0.0
 10
8.3493799341
 20
11.5942496502
 30
0.0
 10
8.3559757645
 20
11.5895997927
 30
0.0
 10
8.3642257823
 20
11.5835763523
 30
0.0
 10
8.3728107788
 20
11.5771119343
 30
0.0
 10
8.3815257645
 20
11.5703605205
 30
0.0
 10
8.3901601406
 20
11.5634841154
 30
0.0
 10
8.3985020833
 20
11.5566494877
 30
0.0
 10
8.406344926
 20
11.5500257637
 30
0.0
 10
8.4134924166
 20
11.5437794558
 30
0.0
 10
8.4197661774
 20
11.5380712148
 30
0.0
 10
8.4235840319
 20
11.5344066056
 30
0.0
 10
8.4253087207
 20
11.5326805227
 30
0.0
  0
SPLINE
  5
4D0
100
AcDbEntity
  8
0
100
AcDbSpline
 62
9
  6
CONTINUOUS
 70
0
 71
3
 72
19
 73
15
 74
0
 42
0.0000001
 43
0.0000001
 44
0.0000000001
 40
0.0
 40
0.0
 40
0.0
 40
0.0
 40
0.1843245156
 40
0.3593417195
 40
0.5207872354
 40
0.664661425
 40
0.7873404181
 40
0.8397312283
 40
0.8856911556
 40
0.9249254545
 40
0.9571805411
 40
0.9822553149
 40
0.9920511522
 40
1.0
 40
1.0
 40
1.0
 40
1.0
 10
8.5068854448
 20
11.4408661356
 30
0.0
 10
8.5097681314
 20
11.4387048036
 30
0.0
 10
8.5153808799
 20
11.4344818379
 30
0.0
 10
8.5234929928
 20
11.428331997
 30
0.0
 10
8.5309512135
 20
11.422628526
 30
0.0
 10
8.5375705771
 20
11.4175124269
 30
0.0
 10
8.5424783384
 20
11.413667736
 30
0.0
 10
8.5458593331
 20
11.4109779271
 30
0.0
 10
8.5479534994
 20
11.4092905845
 30
0.0
 10
8.5497296041
 20
11.407835885
 30
0.0
 10
8.5511760392
 20
11.4066231852
 30
0.0
 10
8.5521664911
 20
11.4057623285
 30
0.0
 10
8.5527834788
 20
11.4051967053
 30
0.0
 10
8.5530334891
 20
11.4049561852
 30
0.0
 10
8.5531431396
 20
11.4048461038
 30
0.0
  0
LINE
  5
4D1
100
AcDbEntity
  8
0
100
AcDbLine
 62
7
  6
CONTINUOUS
 10
8.22634378
 20
11.9697814226
 11
8.2273919878
 21
11.9705534399
  0
SPLINE
  5
4D2
100
AcDbEntity
  8
0
100
AcDbSpline
 62
9
  6
CONTINUOUS
 70
0
 71
3
 72
18
 73
14
 74
0
 42
0.0000001
 43
0.0000001
 44
0.0000000001
 40
0.0
 40
0.0
 40
0.0
 40
0.0
 40
0.1339373564
 40
0.2785736839
 40
0.4273080559
 40
0.5732921257
 40
0.7096915024
 40
0.7722396396
 40
0.829992544
 40
0.8822449771
 40
0.9283553587
 40
0.9677657183
 40
1.0
 40
1.0
 40
1.0
 40
1.0
 10
8.4263864315
 20
11.5141950771
 30
0.0
 10
8.430186447
 20
11.5115152015
 30
0.0
 10
8.438042087
 20
11.5058732903
 30
0.0
 10
8.449976997
 20
11.4970617442
 30
0.0
 10
8.4621389537
 20
11.487855364
 30
0.0
 10
8.4739643692
 20
11.4786800113
 30
0.0
 10
8.483329588
 20
11.471216353
 30
0.0
 10
8.4902300851
 20
11.4655765614
 30
0.0
 10
8.4948332352
 20
11.4617426017
 30
0.0
 10
8.4989593936
 20
11.4582281373
 30
0.0
 10
8.5025583017
 20
11.4550772656
 30
0.0
 10
8.5055847906
 20
11.4523286424
 30
0.0
 10
8.5073821143
 20
11.4506084004
 30
0.0
 10
8.5081727903
 20
11.4498164531
 30
0.0
  0
SPLINE
  5
4D3
100
AcDbEntity
  8
0
100
AcDbSpline
 62
9
  6
CONTINUOUS
 70
0
 71
3
 72
26
 73
22
 74
0
 42
0.0000001
 43
0.0000001
 44
0.0000000001
 40
0.0
 40
0.0
 40
0.0
 40
0.0
 40
0.1978417205
 40
0.3836198773
 40
0.4702078322
 40
0.5517165745
 40
0.6275534371
 40
0.6971847391
 40
0.7601425235
 40
0.8160304103
 40
0.8645435823
 40
0.8859729651
 40
0.9054986581
 40
0.9231219835
 40
0.9388638375
 40
0.9527658631
 40
0.9649048452
 40
0.9754145501
 40
0.9845114027
 40
0.9925391377
 40
1.0
 40
1.0
 40
1.0
 40
1.0
 10
7.9842725945
 20
11.9737166488
 30
0.0
 10
7.9871227099
 20
11.9708679258
 30
0.0
 10
7.9925773477
 20
11.9652717293
 30
0.0
 10
7.9990625648
 20
11.9582219752
 30
0.0
 10
8.0038051141
 20
11.9527937394
 30
0.0
 10
8.0070033183
 20
11.9489910097
 30
0.0
 10
8.0099032575
 20
11.945389987
 30
0.0
 10
8.0124826941
 20
11.9420175765
 30
0.0
 10
8.0147231826
 20
11.9388993518
 30
0.0
 10
8.0166092675
 20
11.9360588672
 30
0.0
 10
8.0179256951
 20
11.9338580408
 30
0.0
 10
8.0187814086
 20
11.93224872
 30
0.0
 10
8.0193001612
 20
11.9311738497
 30
0.0
 10
8.0197222724
 20
11.9301821694
 30
0.0
 10
8.0200473325
 20
11.9292752395
 30
0.0
 10
8.0202750583
 20
11.9284542221
 30
0.0
 10
8.0204051408
 20
11.9277197226
 30
0.0
 10
8.0204372838
 20
11.927071706
 30
0.0
 10
8.0203696835
 20
11.9265092754
 30
0.0
 10
8.0201982258
 20
11.9260332227
 30
0.0
 10
8.0200087954
 20
11.9257741041
 30
0.0
 10
8.0199013516
 20
11.9256666374
 30
0.0
  0
SPLINE
  5
4D4
100
AcDbEntity
  8
0
100
AcDbSpline
 62
9
  6
CONTINUOUS
 70
0
 71
3
 72
17
 73
13
 74
0
 42
0.0000001
 43
0.0000001
 44
0.0000000001
 40
0.0
 40
0.0
 40
0.0
 40
0.0
 40
0.0232903767
 40
0.0527215333
 40
0.08811112
 40
0.1288027498
 40
0.2220255675
 40
0.3299560884
 40
0.4631688447
 40
0.6224309681
 40
0.8039438465
 40
1.0
 40
1.0
 40
1.0
 40
1.0
 10
7.9937331032
 20
11.9807996801
 30
0.0
 10
7.9936406963
 20
11.9808076638
 30
0.0
 10
7.9934287979
 20
11.9807868071
 30
0.0
 10
7.9930912994
 20
11.9806886675
 30
0.0
 10
7.9927026997
 20
11.9805269062
 30
0.0
 10
7.9921014009
 20
11.9802210954
 30
0.0
 10
7.9912802646
 20
11.9797152125
 30
0.0
 10
7.9901915744
 20
11.9789478146
 30
0.0
 10
7.9889327772
 20
11.9779680904
 30
0.0
 10
7.9874897767
 20
11.9767505759
 30
0.0
 10
7.9859053407
 20
11.9753146967
 30
0.0
 10
7.9848246921
 20
11.9742687276
 30
0.0
 10
7.9842726472
 20
11.9737165963
 30
0.0
  0
SPLINE
  5
4D5
100
AcDbEntity
  8
0
100
AcDbSpline
 62
9
  6
CONTINUOUS
 70
0
 71
3
 72
27
 73
23
 74
0
 42
0.0000001
 43
0.0000001
 44
0.0000000001
 40
0.0
 40
0.0
 40
0.0
 40
0.0
 40
0.0072841153
 40
0.0152023319
 40
0.0242720905
 40
0.0348361299
 40
0.0471050235
 40
0.0611998599
 40
0.0771899623
 40
0.0951110951
 40
0.1149727248
 40
0.1367707225
 40
0.1860900053
 40
0.2428216717
 40
0.306593545
 40
0.3769420579
 40
0.4533239123
 40
0.5351229767
 40
0.6216640843
 40
0.7122168901
 40
0.8059992115
 40
1.0
 40
1.0
 40
1.0
 40
1.0
 10
7.76312224
 20
12.1811586728
 30
0.0
 10
7.7632379154
 20
12.1812743614
 30
0.0
 10
7.7635205422
 20
12.1814773266
 30
0.0
 10
7.7640425115
 20
12.1816540688
 30
0.0
 10
7.7646621997
 20
12.1817155987
 30
0.0
 10
7.7653794157
 20
12.1816664569
 30
0.0
 10
7.7661951502
 20
12.1815083242
 30
0.0
 10
7.7671093521
 20
12.181241782
 30
0.0
 10
7.7681210683
 20
12.1808669851
 30
0.0
 10
7.7692286782
 20
12.1803842747
 30
0.0
 10
7.7704302844
 20
12.1797944954
 30
0.0
 10
7.7722298379
 20
12.1788257388
 30
0.0
 10
7.7746907505
 20
12.17734305
 30
0.0
 10
7.7778656652
 20
12.1752277378
 30
0.0
 10
7.7813462826
 20
12.1727245755
 30
0.0
 10
7.7851032749
 20
12.1698536246
 30
0.0
 10
7.7891046214
 20
12.1666382878
 30
0.0
 10
7.7933159089
 20
12.1631056922
 30
0.0
 10
7.7977004765
 20
12.1592860915
 30
0.0
 10
7.8022196735
 20
12.1552126503
 30
0.0
 10
7.8084421709
 20
12.1494256846
 30
0.0
 10
7.8130746084
 20
12.1449164229
 30
0.0
 10
7.816154721
 20
12.1418345224
 30
0.0
  0
SPLINE
  5
4D6
100
AcDbEntity
  8
0
100
AcDbSpline
 62
9
  6
CONTINUOUS
 70
0
 71
3
 72
28
 73
24
 74
0
 42
0.0000001
 43
0.0000001
 44
0.0000000001
 40
0.0
 40
0.0
 40
0.0
 40
0.0
 40
0.1720536757
 40
0.347642505
 40
0.4336789968
 40
0.5169417148
 40
0.5962950339
 40
0.6706759814
 40
0.7391093035
 40
0.8007218979
 40
0.8547578919
 40
0.8787373829
 40
0.9006052645
 40
0.9203110242
 40
0.9378222946
 40
0.9531262914
 40
0.9662411713
 40
0.9772348433
 40
0.9862597178
 40
0.9901315456
 40
0.9936512066
 40
0.996904212
 40
1.0
 40
1.0
 40
1.0
 40
1.0
 10
7.6512549183
 20
12.3067343252
 30
0.0
 10
7.6551427273
 20
12.3028484647
 30
0.0
 10
7.6628480356
 20
12.2948457636
 30
0.0
 10
7.6721254384
 20
12.2845516087
 30
0.0
 10
7.679294298
 20
12.2761834
 30
0.0
 10
7.6843546239
 20
12.2700590369
 30
0.0
 10
7.6890647916
 20
12.2641301438
 30
0.0
 10
7.693361285
 20
12.2584796321
 30
0.0
 10
7.6971864879
 20
12.2531849732
 30
0.0
 10
7.7004897146
 20
12.2483180873
 30
0.0
 10
7.7028595547
 20
12.2445369028
 30
0.0
 10
7.704449538
 20
12.2417696963
 30
0.0
 10
7.7054388392
 20
12.2399233595
 30
0.0
 10
7.7062704039
 20
12.2382281921
 30
0.0
 10
7.7069418846
 20
12.2366896731
 30
0.0
 10
7.707451603
 20
12.2353126328
 30
0.0
 10
7.7077986371
 20
12.2341003837
 30
0.0
 10
7.7079826447
 20
12.2330557949
 30
0.0
 10
7.7080003915
 20
12.2322872419
 30
0.0
 10
7.7079171775
 20
12.2317679431
 30
0.0
 10
7.7078150745
 20
12.2314420362
 30
0.0
 10
7.7076695261
 20
12.2311604019
 30
0.0
 10
7.7075413843
 20
12.2310009662
 30
0.0
 10
7.7074715416
 20
12.2309309362
 30
0.0
  0
SPLINE
  5
4D7
100
AcDbEntity
  8
0
100
AcDbSpline
 62
9
  6
CONTINUOUS
 70
0
 71
3
 72
17
 73
13
 74
0
 42
0.0000001
 43
0.0000001
 44
0.0000000001
 40
0.0
 40
0.0
 40
0.0
 40
0.0
 40
0.0686898004
 40
0.1087667831
 40
0.1524889118
 40
0.1992823019
 40
0.2482164163
 40
0.3553923169
 40
0.485268725
 40
0.6388307073
 40
0.812725316
 40
1.0
 40
1.0
 40
1.0
 40
1.0
 10
7.6572402393
 20
12.3172904497
 30
0.0
 10
7.6573450399
 20
12.317023776
 30
0.0
 10
7.6573914907
 20
12.316555994
 30
0.0
 10
7.65732047
 20
12.3159248842
 30
0.0
 10
7.6571999344
 20
12.3153921151
 30
0.0
 10
7.657022564
 20
12.3148377222
 30
0.0
 10
7.656710578
 20
12.3140503417
 30
0.0
 10
7.6561760731
 20
12.3129815024
 30
0.0
 10
7.6553246037
 20
12.3115904945
 30
0.0
 10
7.6542096769
 20
12.3100404914
 30
0.0
 10
7.6528405761
 20
12.3083846711
 30
0.0
 10
7.6518084386
 20
12.3072855634
 30
0.0
 10
7.6512559888
 20
12.3067332526
 30
0.0
  0
SPLINE
  5
4D8
100
AcDbEntity
  8
0
100
AcDbSpline
 62
7
  6
CONTINUOUS
 70
0
 71
3
 72
32
 73
28
 74
0
 42
0.0000001
 43
0.0000001
 44
0.0000000001
 40
0.0
 40
0.0
 40
0.0
 40
0.0
 40
0.2231985787
 40
0.3256322542
 40
0.4215960615
 40
0.5108472954
 40
0.5931518597
 40
0.6682994198
 40
0.7360970328
 40
0.7963741222
 40
0.8489795149
 40
0.8723649348
 40
0.8937862068
 40
0.9132324816
 40
0.9306938842
 40
0.946162098
 40
0.9596334485
 40
0.9711083627
 40
0.980592814
 40
0.9845943287
 40
0.9881074509
 40
0.9911393342
 40
0.9937014336
 40
0.9958131885
 40
0.9975099954
 40
0.998860834
 40
1.0
 40
1.0
 40
1.0
 40
1.0
 10
10.3049560993
 20
14.9160890965
 30
0.0
 10
10.2979446122
 20
14.9225893933
 30
0.0
 10
10.2876993969
 20
14.9320557993
 30
0.0
 10
10.2743890127
 20
14.9442620033
 30
0.0
 10
10.2652833905
 20
14.9525637206
 30
0.0
 10
10.2567884097
 20
14.9602552855
 30
0.0
 10
10.2489250514
 20
14.9673157776
 30
0.0
 10
10.2417129157
 20
14.9737258284
 30
0.0
 10
10.2351697584
 20
14.9794679711
 30
0.0
 10
10.2293116581
 20
14.9845264166
 30
0.0
 10
10.2248539513
 20
14.9882953282
 30
0.0
 10
10.2216375019
 20
14.9909537545
 30
0.0
 10
10.219500801
 20
14.9926888023
 30
0.0
 10
10.2175447695
 20
14.9942435804
 30
0.0
 10
10.2157705713
 20
14.9956170361
 30
0.0
 10
10.2141792628
 20
14.9968082402
 30
0.0
 10
10.2127718085
 20
14.9978166348
 30
0.0
 10
10.2115489957
 20
14.99864165
 30
0.0
 10
10.2106395084
 20
14.9992048914
 30
0.0
 10
10.2100026712
 20
14.9995583074
 30
0.0
 10
10.2095991418
 20
14.9997617839
 30
0.0
 10
10.2092419823
 20
14.9999193005
 30
0.0
 10
10.2089309928
 20
15.0000310222
 30
0.0
 10
10.2086655812
 20
15.0000973455
 30
0.0
 10
10.2084443815
 20
15.0001181912
 30
0.0
 10
10.2082641712
 20
15.0000925043
 30
0.0
 10
10.2081688956
 20
15.0000360467
 30
0.0
 10
10.2081343964
 20
15.0000015349
 30
0.0
  0
SPLINE
  5
4D9
100
AcDbEntity
  8
0
100
AcDbSpline
 62
9
  6
CONTINUOUS
 70
0
 71
3
 72
25
 73
21
 74
0
 42
0.0000001
 43
0.0000001
 44
0.0000000001
 40
0.0
 40
0.0
 40
0.0
 40
0.0
 40
0.0077503024
 40
0.0159677311
 40
0.025126514
 40
0.0355686484
 40
0.0475218891
 40
0.0611337965
 40
0.0764947053
 40
0.0936589622
 40
0.1335015901
 40
0.1807420207
 40
0.2352888785
 40
0.2969376723
 40
0.3654083862
 40
0.4403523986
 40
0.5213641656
 40
0.6079908518
 40
0.7960192269
 40
1.0
 40
1.0
 40
1.0
 40
1.0
 10
7.6119685188
 20
12.3358674804
 30
0.0
 10
7.6120601145
 20
12.3359586911
 30
0.0
 10
7.6122766074
 20
12.3361206084
 30
0.0
 10
7.6126706727
 20
12.3362747251
 30
0.0
 10
7.6131322948
 20
12.3363450143
 30
0.0
 10
7.6136603601
 20
12.3363345205
 30
0.0
 10
7.6142554506
 20
12.336244744
 30
0.0
 10
7.6149177466
 20
12.3360760297
 30
0.0
 10
7.6156470493
 20
12.3358286778
 30
0.0
 10
7.6167644393
 20
12.335370728
 30
0.0
 10
7.6183194762
 20
12.3345877265
 30
0.0
 10
7.6203540725
 20
12.3333855105
 30
0.0
 10
7.6226290395
 20
12.331882158
 30
0.0
 10
7.6251314672
 20
12.3300855959
 30
0.0
 10
7.6278467256
 20
12.3280052021
 30
0.0
 10
7.630758689
 20
12.3256527753
 30
0.0
 10
7.6338499466
 20
12.3230420398
 30
0.0
 10
7.6383085168
 20
12.3191288142
 30
0.0
 10
7.6441731926
 20
12.313710781
 30
0.0
 10
7.6488500036
 20
12.3091407183
 30
0.0
 10
7.6512549168
 20
12.3067343266
 30
0.0
  0
SPLINE
  5
4DA
100
AcDbEntity
  8
0
100
AcDbSpline
 62
9
  6
CONTINUOUS
 70
0
 71
3
 72
27
 73
23
 74
0
 42
0.0000001
 43
0.0000001
 44
0.0000000001
 40
0.0
 40
0.0
 40
0.0
 40
0.0
 40
0.1862895644
 40
0.2780718929
 40
0.3676441049
 40
0.4540554475
 40
0.5364084096
 40
0.6138617629
 40
0.6856421319
 40
0.7510537021
 40
0.8094891133
 40
0.860444159
 40
0.882995567
 40
0.9035462
 40
0.9220773882
 40
0.9385832188
 40
0.9530826331
 40
0.9656272788
 40
0.9763195035
 40
0.9853523914
 40
0.9930625007
 40
1.0
 40
1.0
 40
1.0
 40
1.0
 10
7.8161547225
 20
12.1418345209
 30
0.0
 10
7.8196116099
 20
12.1383792717
 30
0.0
 10
7.8246923723
 20
12.1331413658
 30
0.0
 10
7.8312442772
 20
12.1260619319
 30
0.0
 10
7.8359332442
 20
12.1208300075
 30
0.0
 10
7.8403708349
 20
12.1157063149
 30
0.0
 10
7.8445102407
 20
12.1107463511
 30
0.0
 10
7.8483070768
 20
12.1060020371
 30
0.0
 10
7.8517224858
 20
12.1015236258
 30
0.0
 10
7.8547226462
 20
12.097358168
 30
0.0
 10
7.8572777535
 20
12.0935485297
 30
0.0
 10
7.8590838396
 20
12.0905933637
 30
0.0
 10
7.8602755868
 20
12.0884320116
 30
0.0
 10
7.8610070151
 20
12.086989403
 30
0.0
 10
7.8616118376
 20
12.085661724
 30
0.0
 10
7.8620887471
 20
12.0844519311
 30
0.0
 10
7.862437043
 20
12.0833625986
 30
0.0
 10
7.8626564247
 20
12.0823954711
 30
0.0
 10
7.8627463696
 20
12.0815510225
 30
0.0
 10
7.8627053324
 20
12.0808279516
 30
0.0
 10
7.8625276227
 20
12.0802250209
 30
0.0
 10
7.8623045655
 20
12.0799014267
 30
0.0
 10
7.8621758668
 20
12.0797727146
 30
0.0
  0
SPLINE
  5
4DB
100
AcDbEntity
  8
0
100
AcDbSpline
 62
9
  6
CONTINUOUS
 70
0
 71
3
 72
18
 73
14
 74
0
 42
0.0000001
 43
0.0000001
 44
0.0000000001
 40
0.0
 40
0.0
 40
0.0
 40
0.0
 40
0.019228855
 40
0.046095831
 40
0.0798661725
 40
0.1195847179
 40
0.1641357587
 40
0.2121707864
 40
0.3205371937
 40
0.45505845
 40
0.6164448815
 40
0.800746036
 40
1.0
 40
1.0
 40
1.0
 40
1.0
 10
7.8238603598
 20
12.1506703697
 30
0.0
 10
7.8238403123
 20
12.150597734
 30
0.0
 10
7.823765045
 20
12.150431941
 30
0.0
 10
7.8236068851
 20
12.1501620931
 30
0.0
 10
7.8233869885
 20
12.1498356469
 30
0.0
 10
7.8231138872
 20
12.1494623014
 30
0.0
 10
7.8227963486
 20
12.149052376
 30
0.0
 10
7.8223017179
 20
12.1484396023
 30
0.0
 10
7.8215640542
 20
12.1475701864
 30
0.0
 10
7.8205121001
 20
12.1463855216
 30
0.0
 10
7.8192360269
 20
12.1450023602
 30
0.0
 10
7.8177617088
 20
12.1434574057
 30
0.0
 10
7.8167071351
 20
12.1423863392
 30
0.0
 10
7.8161550032
 20
12.1418342382
 30
0.0
  0
SPLINE
  5
4DC
100
AcDbEntity
  8
0
100
AcDbSpline
 62
7
  6
CONTINUOUS
 70
0
 71
3
 72
45
 73
41
 74
0
 42
0.0000001
 43
0.0000001
 44
0.0000000001
 40
0.0
 40
0.0
 40
0.0
 40
0.0
 40
0.0292395303
 40
0.0608108606
 40
0.1301997436
 40
0.2065621465
 40
0.2881307768
 40
0.3730179658
 40
0.4592597136
 40
0.5448613311
 40
0.6278436268
 40
0.6677496588
 40
0.7062890289
 40
0.7432389783
 40
0.7783860138
 40
0.8115271304
 40
0.8424711144
 40
0.8710395912
 40
0.8970681756
 40
0.9204074724
 40
0.9409240491
 40
0.9500867677
 40
0.9585016026
 40
0.9661567608
 40
0.9730420654
 40
0.9791481469
 40
0.9844677845
 40
0.9889949908
 40
0.9909603596
 40
0.9927267113
 40
0.9942941899
 40
0.9956633116
 40
0.9968353804
 40
0.9978128911
 40
0.998600441
 40
0.9992072831
 40
0.9994492549
 40
0.9996560742
 40
0.99983568
 40
1.0
 40
1.0
 40
1.0
 40
1.0
 10
10.1243748617
 20
14.7474326881
 30
0.0
 10
10.1291718681
 20
14.7430618711
 30
0.0
 10
10.1391290105
 20
14.7339503461
 30
0.0
 10
10.1603843411
 20
14.7143728999
 30
0.0
 10
10.1892270223
 20
14.6875955723
 30
0.0
 10
10.2260893333
 20
14.6531473374
 30
0.0
 10
10.2653869846
 20
14.616267353
 30
0.0
 10
10.3062368881
 20
14.5778372828
 30
0.0
 10
10.3477202795
 20
14.5387742655
 30
0.0
 10
10.3889042836
 20
14.5000100228
 30
0.0
 10
10.422629016
 20
14.4683255749
 30
0.0
 10
10.4487740354
 20
14.443828348
 30
0.0
 10
10.4674836543
 20
14.426338115
 30
0.0
 10
10.485445725
 20
14.4095949531
 30
0.0
 10
10.5025597719
 20
14.3936992455
 30
0.0
 10
10.5187302161
 20
14.3787464153
 30
0.0
 10
10.5338669304
 20
14.3648263756
 30
0.0
 10
10.5478857732
 20
14.3520229973
 30
0.0
 10
10.560708988
 20
14.3404135179
 30
0.0
 10
10.5722658035
 20
14.3300683096
 30
0.0
 10
10.5810914332
 20
14.3222848373
 30
0.0
 10
10.587477249
 20
14.3167434323
 30
0.0
 10
10.5917299571
 20
14.3130994447
 30
0.0
 10
10.5956238128
 20
14.3098136979
 30
0.0
 10
10.5991535348
 20
14.3068912734
 30
0.0
 10
10.6023144248
 20
14.304336556
 30
0.0
 10
10.6051022215
 20
14.3021534712
 30
0.0
 10
10.607199439
 20
14.300579738
 30
0.0
 10
10.6086910013
 20
14.2995140936
 30
0.0
 10
10.6096606477
 20
14.2988482873
 30
0.0
 10
10.6105347306
 20
14.2982775459
 30
0.0
 10
10.6113130349
 20
14.2978019698
 30
0.0
 10
10.6119953312
 20
14.2974215441
 30
0.0
 10
10.6125818666
 20
14.2971356583
 30
0.0
 10
10.6130726807
 20
14.2969440815
 30
0.0
 10
10.6134271629
 20
14.296854841
 30
0.0
 10
10.6136617374
 20
14.2968402417
 30
0.0
 10
10.6138013294
 20
14.2968545553
 30
0.0
 10
10.6139183602
 20
14.29689411
 30
0.0
 10
10.6139816285
 20
14.296939382
 30
0.0
 10
10.6140074152
 20
14.2969651723
 30
0.0
  0
SPLINE
  5
4DD
100
AcDbEntity
  8
0
100
AcDbSpline
 62
9
  6
CONTINUOUS
 70
0
 71
3
 72
28
 73
24
 74
0
 42
0.0000001
 43
0.0000001
 44
0.0000000001
 40
0.0
 40
0.0
 40
0.0
 40
0.0
 40
0.0033162795
 40
0.0067543327
 40
0.0143447679
 40
0.0233652032
 40
0.0341490514
 40
0.0468744102
 40
0.0616338173
 40
0.0784675806
 40
0.0973826128
 40
0.1183667086
 40
0.141388141
 40
0.1933624822
 40
0.2528532147
 40
0.3192728256
 40
0.3919261226
 40
0.4700242544
 40
0.5526963882
 40
0.6390007522
 40
0.7279400823
 40
0.8184663873
 40
1.0
 40
1.0
 40
1.0
 40
1.0
 10
7.9172282259
 20
12.023433144
 30
0.0
 10
7.9172946133
 20
12.0234995456
 30
0.0
 10
7.9174428735
 20
12.0236223492
 30
0.0
 10
7.9177985098
 20
12.0238223452
 30
0.0
 10
7.918354837
 20
12.0239719179
 30
0.0
 10
7.9191342682
 20
12.0239952189
 30
0.0
 10
7.9200504209
 20
12.0238764492
 30
0.0
 10
7.9211039312
 20
12.0236164658
 30
0.0
 10
7.9222941682
 20
12.0232157094
 30
0.0
 10
7.9236187119
 20
12.0226746445
 30
0.0
 10
7.9250744189
 20
12.0219943308
 30
0.0
 10
7.9266573903
 20
12.0211761881
 30
0.0
 10
7.9290295507
 20
12.0198495408
 30
0.0
 10
7.932272366
 20
12.0178505172
 30
0.0
 10
7.9364508672
 20
12.015036904
 30
0.0
 10
7.9410120127
 20
12.0117486317
 30
0.0
 10
7.9459036268
 20
12.0080219175
 30
0.0
 10
7.9510689707
 20
12.0038981218
 30
0.0
 10
7.9564473955
 20
11.9994241256
 30
0.0
 10
7.9619762042
 20
11.9946528996
 30
0.0
 10
7.9675894759
 20
11.989640801
 30
0.0
 10
7.9751029758
 20
11.9827107195
 30
0.0
 10
7.9806392698
 20
11.9773522087
 30
0.0
 10
7.9842725945
 20
11.9737166488
 30
0.0
  0
SPLINE
  5
4DE
100
AcDbEntity
  8
0
100
AcDbSpline
 62
9
  6
CONTINUOUS
 70
0
 71
3
 72
19
 73
15
 74
0
 42
0.0000001
 43
0.0000001
 44
0.0000000001
 40
0.0
 40
0.0
 40
0.0
 40
0.0
 40
0.2232264625
 40
0.4179964185
 40
0.5838824047
 40
0.7206907513
 40
0.7782511066
 40
0.8286526813
 40
0.8720061191
 40
0.9085134735
 40
0.9385423608
 40
0.9627669176
 40
0.9824766402
 40
1.0
 40
1.0
 40
1.0
 40
1.0
 10
8.5081727909
 20
11.4498164525
 30
0.0
 10
8.5084679644
 20
11.4495215956
 30
0.0
 10
8.5090158579
 20
11.4489645948
 30
0.0
 10
8.5097623231
 20
11.4481683357
 30
0.0
 10
8.5103759786
 20
11.4474696119
 30
0.0
 10
8.5107973051
 20
11.4469438381
 30
0.0
 10
8.5110634345
 20
11.4465715862
 30
0.0
 10
8.5112173548
 20
11.446334182
 30
0.0
 10
8.5113375154
 20
11.4461222188
 30
0.0
 10
8.5114240577
 20
11.4459356178
 30
0.0
 10
8.5114772243
 20
11.445773947
 30
0.0
 10
8.5114970224
 20
11.44563611
 30
0.0
 10
8.5114816066
 20
11.4455200003
 30
0.0
 10
8.5114435695
 20
11.4454585566
 30
0.0
 10
8.5114204648
 20
11.4454353438
 30
0.0
  0
LINE
  5
4DF
100
AcDbEntity
  8
0
100
AcDbLine
 62
9
  6
CONTINUOUS
 10
8.5531431399
 20
11.4048461036
 11
8.5536128541
 21
11.4042149691
  0
SPLINE
  5
4E0
100
AcDbEntity
  8
0
100
AcDbSpline
 62
7
  6
CONTINUOUS
 70
0
 71
3
 72
21
 73
17
 74
0
 42
0.0000001
 43
0.0000001
 44
0.0000000001
 40
0.0
 40
0.0
 40
0.0
 40
0.0
 40
0.0454621946
 40
0.0912805906
 40
0.1377936718
 40
0.185375282
 40
0.2344236469
 40
0.2853665523
 40
0.3386697734
 40
0.3948460486
 40
0.4544484557
 40
0.5180592368
 40
0.6593703398
 40
0.7379946587
 40
0.8217729814
 40
1.0
 40
1.0
 40
1.0
 40
1.0
 10
9.7770636989
 20
14.5271706523
 30
0.0
 10
9.77586723
 20
14.5283671212
 30
0.0
 10
9.7735839405
 20
14.5308919644
 30
0.0
 10
9.7705391998
 20
14.5350291026
 30
0.0
 10
9.7678832546
 20
14.5395185902
 30
0.0
 10
9.7656400514
 20
14.544360747
 30
0.0
 10
9.7638360568
 20
14.5495581717
 30
0.0
 10
9.7625074056
 20
14.555116413
 30
0.0
 10
9.7616984402
 20
14.5610419072
 30
0.0
 10
9.7614620838
 20
14.5673404872
 30
0.0
 10
9.7618644749
 20
14.5740160926
 30
0.0
 10
9.7634075462
 20
14.5837525807
 30
0.0
 10
9.7666206529
 20
14.5938865851
 30
0.0
 10
9.7715057605
 20
14.6040950609
 30
0.0
 10
9.7780601456
 20
14.6149649941
 30
0.0
 10
9.7843195605
 20
14.6225492975
 30
0.0
 10
9.789010119
 20
14.6272398561
 30
0.0
  0
SPLINE
  5
4E1
100
AcDbEntity
  8
0
100
AcDbSpline
 62
7
  6
CONTINUOUS
 70
0
 71
3
 72
21
 73
17
 74
0
 42
0.0000001
 43
0.0000001
 44
0.0000000001
 40
0.0
 40
0.0
 40
0.0
 40
0.0
 40
0.1782281523
 40
0.2620067723
 40
0.3406312391
 40
0.4819417773
 40
0.5455523504
 40
0.6051546057
 40
0.6613307224
 40
0.7146338363
 40
0.7655766674
 40
0.8146249843
 40
0.8622065046
 40
0.9087194528
 40
0.9545377962
 40
1.0
 40
1.0
 40
1.0
 40
1.0
 10
9.8771329027
 20
14.5391170724
 30
0.0
 10
9.8724423144
 20
14.5344264841
 30
0.0
 10
9.8648579627
 20
14.5281670419
 30
0.0
 10
9.8539879708
 20
14.5216126404
 30
0.0
 10
9.8437794895
 20
14.5167275548
 30
0.0
 10
9.8336455039
 20
14.5135144689
 30
0.0
 10
9.8239090475
 20
14.5119714161
 30
0.0
 10
9.8172334607
 20
14.5115690421
 30
0.0
 10
9.8109348969
 20
14.5118053999
 30
0.0
 10
9.8050094148
 20
14.512614364
 30
0.0
 10
9.7994511857
 20
14.5139430271
 30
0.0
 10
9.7942537648
 20
14.515747009
 30
0.0
 10
9.7894116248
 20
14.5179902244
 30
0.0
 10
9.7849221416
 20
14.5206461557
 30
0.0
 10
9.7807850106
 20
14.5236908956
 30
0.0
 10
9.7782601681
 20
14.5259741832
 30
0.0
 10
9.7770636989
 20
14.5271706523
 30
0.0
  0
SPLINE
  5
4E2
100
AcDbEntity
  8
0
100
AcDbSpline
 62
9
  6
CONTINUOUS
 70
0
 71
3
 72
16
 73
12
 74
0
 42
0.0000001
 43
0.0000001
 44
0.0000000001
 40
0.0
 40
0.0
 40
0.0
 40
0.0
 40
0.1313660918
 40
0.2552895073
 40
0.3702909873
 40
0.4804074225
 40
0.5985042254
 40
0.7254231205
 40
0.8598965276
 40
0.9294100457
 40
1.0
 40
1.0
 40
1.0
 40
1.0
 10
8.5685373039
 20
11.4059934097
 30
0.0
 10
8.5679493481
 20
11.4064371268
 30
0.0
 10
8.5667210914
 20
11.4071924898
 30
0.0
 10
8.5647713755
 20
11.4079367754
 30
0.0
 10
8.5628414653
 20
11.4083130324
 30
0.0
 10
8.5609099477
 20
11.4083712384
 30
0.0
 10
8.5589268631
 20
11.4081056812
 30
0.0
 10
8.5568877605
 20
11.4074587974
 30
0.0
 10
8.5552431259
 20
11.4065736014
 30
0.0
 10
8.5540029726
 20
11.4056580206
 30
0.0
 10
8.5534197059
 20
11.4051292999
 30
0.0
 10
8.5531399374
 20
11.4048493041
 30
0.0
  0
SPLINE
  5
4E3
100
AcDbEntity
  8
0
100
AcDbSpline
 62
9
  6
CONTINUOUS
 70
0
 71
3
 72
22
 73
18
 74
0
 42
0.0000001
 43
0.0000001
 44
0.0000000001
 40
0.0
 40
0.0
 40
0.0
 40
0.0
 40
0.2200238059
 40
0.4137436046
 40
0.5799492425
 40
0.652497143
 40
0.7179151062
 40
0.776172701
 40
0.8272673973
 40
0.8712551274
 40
0.8906340357
 40
0.9083072886
 40
0.9387119773
 40
0.9630934736
 40
0.9827038428
 40
0.9914557756
 40
1.0
 40
1.0
 40
1.0
 40
1.0
 10
8.4253087216
 20
11.5326805218
 30
0.0
 10
8.4260576651
 20
11.5319321731
 30
0.0
 10
8.4274530592
 20
11.5305118132
 30
0.0
 10
8.4293587889
 20
11.5284727303
 30
0.0
 10
8.4307299945
 20
11.526906492
 30
0.0
 10
8.4316545065
 20
11.5257715814
 30
0.0
 10
8.432230225
 20
11.5250229997
 30
0.0
 10
8.432719766
 20
11.5243389112
 30
0.0
 10
8.4331224889
 20
11.5237203159
 30
0.0
 10
8.4333961299
 20
11.5232417561
 30
0.0
 10
8.4335683032
 20
11.5228916916
 30
0.0
 10
8.4336972431
 20
11.5225937434
 30
0.0
 10
8.4338095451
 20
11.5222623963
 30
0.0
 10
8.433866251
 20
11.5219066655
 30
0.0
 10
8.4338355647
 20
11.5216488021
 30
0.0
 10
8.4337590931
 20
11.5214869538
 30
0.0
 10
8.4337067513
 20
11.5214211353
 30
0.0
 10
8.4336776839
 20
11.5213920581
 30
0.0
  0
SPLINE
  5
4E4
100
AcDbEntity
  8
0
100
AcDbSpline
 62
9
  6
CONTINUOUS
 70
0
 71
3
 72
14
 73
10
 74
0
 42
0.0000001
 43
0.0000001
 44
0.0000000001
 40
0.0
 40
0.0
 40
0.0
 40
0.0
 40
0.1179267611
 40
0.2322575441
 40
0.3419556787
 40
0.4505934469
 40
0.7033767661
 40
0.8478016706
 40
1.0
 40
1.0
 40
1.0
 40
1.0
 10
8.4393692579
 20
11.5351614298
 30
0.0
 10
8.4388735502
 20
11.5355116352
 30
0.0
 10
8.4378120493
 20
11.5360882236
 30
0.0
 10
8.4361090582
 20
11.5365757337
 30
0.0
 10
8.4343947369
 20
11.5367308288
 30
0.0
 10
8.4319688305
 20
11.5365468857
 30
0.0
 10
8.4294494848
 20
11.5357078055
 30
0.0
 10
8.4270290228
 20
11.5342320338
 30
0.0
 10
8.4258598048
 20
11.5332372193
 30
0.0
 10
8.425306097
 20
11.5326831444
 30
0.0
  0
LINE
  5
4E5
100
AcDbEntity
  8
0
100
AcDbLine
 62
9
  6
CONTINUOUS
 10
9.2290543608
 20
10.9425083843
 11
9.2389906607
 21
10.9593053118
  0
LINE
  5
4E6
100
AcDbEntity
  8
0
100
AcDbLine
 62
7
  6
CONTINUOUS
 10
9.3175528162
 20
10.9039059325
 11
9.3093521457
 21
10.8954756529
  0
SPLINE
  5
4E7
100
AcDbEntity
  8
0
100
AcDbSpline
 62
9
  6
CONTINUOUS
 70
0
 71
3
 72
15
 73
11
 74
0
 42
0.0000001
 43
0.0000001
 44
0.0000000001
 40
0.0
 40
0.0
 40
0.0
 40
0.0
 40
0.1249905254
 40
0.2499956734
 40
0.3749960092
 40
0.4999971089
 40
0.6249989733
 40
0.7500076629
 40
0.8750023069
 40
1.0
 40
1.0
 40
1.0
 40
1.0
 10
9.2187447345
 20
10.9791739454
 30
0.0
 10
9.2179280355
 20
10.9776281941
 30
0.0
 10
9.2165877675
 20
10.9743716965
 30
0.0
 10
9.2155308915
 20
10.9692037749
 30
0.0
 10
9.2154689958
 20
10.9639267078
 30
0.0
 10
9.2164082395
 20
10.9587339442
 30
0.0
 10
9.2183148602
 20
10.9538134631
 30
0.0
 10
9.2211154125
 20
10.9493408842
 30
0.0
 10
9.224704306
 20
10.9454754403
 30
0.0
 10
9.2275473228
 20
10.9433946304
 30
0.0
 10
9.2290548872
 20
10.9425092238
 30
0.0
  0
LINE
  5
4E8
100
AcDbEntity
  8
0
100
AcDbLine
 62
7
  6
CONTINUOUS
 10
9.3093586571
 20
10.8954819885
 11
9.2463968854
 21
10.8324973488
  0
SPLINE
  5
4E9
100
AcDbEntity
  8
0
100
AcDbSpline
 62
9
  6
CONTINUOUS
 70
0
 71
3
 72
13
 73
9
 74
0
 42
0.0000001
 43
0.0000001
 44
0.0000000001
 40
0.0
 40
0.0
 40
0.0
 40
0.0
 40
0.2499554179
 40
0.3749762022
 40
0.4999988507
 40
0.6250211825
 40
0.7500420867
 40
1.0
 40
1.0
 40
1.0
 40
1.0
 10
9.2463968854
 20
10.8324973488
 30
0.0
 10
9.2587961602
 20
10.8250701636
 30
0.0
 10
9.2767989567
 20
10.8128837079
 30
0.0
 10
9.2993650717
 20
10.7947948808
 30
0.0
 10
9.3155456185
 20
10.7803366875
 30
0.0
 10
9.3309304875
 20
10.7650345939
 30
0.0
 10
9.3503163792
 20
10.7435722039
 30
0.0
 10
9.3635526555
 20
10.7263284107
 30
0.0
 10
9.3717182271
 20
10.7144022753
 30
0.0
  0
SPLINE
  5
4EA
100
AcDbEntity
  8
0
100
AcDbSpline
 62
9
  6
CONTINUOUS
 70
0
 71
3
 72
23
 73
19
 74
0
 42
0.0000001
 43
0.0000001
 44
0.0000000001
 40
0.0
 40
0.0
 40
0.0
 40
0.0
 40
0.0625000622
 40
0.1249986376
 40
0.1875006799
 40
0.2500017607
 40
0.3125022737
 40
0.3750021404
 40
0.4375018209
 40
0.5000016773
 40
0.5625014421
 40
0.6250008588
 40
0.6875003139
 40
0.7500003097
 40
0.8125008167
 40
0.875002287
 40
0.9375003436
 40
1.0
 40
1.0
 40
1.0
 40
1.0
 10
9.3717182271
 20
10.7144022753
 30
0.0
 10
9.3738347215
 20
10.7113356623
 30
0.0
 10
9.377566659
 20
10.7048409727
 30
0.0
 10
9.3815505689
 20
10.6943498464
 30
0.0
 10
9.3838430944
 20
10.6833616123
 30
0.0
 10
9.3843907694
 20
10.6721501252
 30
0.0
 10
9.3831589464
 20
10.6609927548
 30
0.0
 10
9.3801913516
 20
10.650167445
 30
0.0
 10
9.3755556958
 20
10.6399447197
 30
0.0
 10
9.369374198
 20
10.6305753958
 30
0.0
 10
9.3617924679
 20
10.6222981882
 30
0.0
 10
9.3530065695
 20
10.6153124604
 30
0.0
 10
9.3432300019
 20
10.6097978347
 30
0.0
 10
9.3327086556
 20
10.6058858574
 30
0.0
 10
9.3217014522
 20
10.6036866185
 30
0.0
 10
9.3104858365
 20
10.6032340935
 30
0.0
 10
9.2993404487
 20
10.6045431664
 30
0.0
 10
9.2921325171
 20
10.6065811249
 30
0.0
 10
9.2886428343
 20
10.60788711
 30
0.0
  0
SPLINE
  5
4EB
100
AcDbEntity
  8
0
100
AcDbSpline
 62
7
  6
CONTINUOUS
 70
0
 71
3
 72
37
 73
33
 74
0
 42
0.0000001
 43
0.0000001
 44
0.0000000001
 40
0.0
 40
0.0
 40
0.0
 40
0.0
 40
0.1917060812
 40
0.2855296879
 40
0.3768714065
 40
0.4648813137
 40
0.5487264574
 40
0.627594015
 40
0.7006952115
 40
0.767275247
 40
0.7978967903
 40
0.8266253556
 40
0.8533825088
 40
0.8780915053
 40
0.9006816292
 40
0.9210902127
 40
0.9392558257
 40
0.9551225786
 40
0.9686373483
 40
0.9744983171
 40
0.979758775
 40
0.9844175945
 40
0.9884736675
 40
0.9919259153
 40
0.9947719378
 40
0.9970060392
 40
0.9978917855
 40
0.9986224376
 40
0.999197491
 40
0.9996167965
 40
0.9998814049
 40
1.0
 40
1.0
 40
1.0
 40
1.0
 10
9.2464333261
 20
10.8325107638
 30
0.0
 10
9.2495785568
 20
10.8356583519
 30
0.0
 10
9.2542815348
 20
10.8403280547
 30
0.0
 10
9.2605249652
 20
10.8464550324
 30
0.0
 10
9.2650676165
 20
10.8508786881
 30
0.0
 10
9.2694604611
 20
10.8551241319
 30
0.0
 10
9.273660106
 20
10.8591527867
 30
0.0
 10
9.2776237836
 20
10.8629274927
 30
0.0
 10
9.2813097137
 20
10.8664127093
 30
0.0
 10
9.2841914732
 20
10.8691184386
 30
0.0
 10
9.2863278161
 20
10.8711133794
 30
0.0
 10
9.2877910274
 20
10.8724748386
 30
0.0
 10
9.2891560918
 20
10.8737403107
 30
0.0
 10
9.2904188914
 20
10.8749065158
 30
0.0
 10
9.2915755828
 20
10.8759704174
 30
0.0
 10
9.292622596
 20
10.8769292068
 30
0.0
 10
9.2935566008
 20
10.8777803241
 30
0.0
 10
9.2943744771
 20
10.8785213061
 30
0.0
 10
9.2949826528
 20
10.879068366
 30
0.0
 10
9.2954092402
 20
10.8794491746
 30
0.0
 10
9.295683194
 20
10.8796922949
 30
0.0
 10
9.2959265767
 20
10.8799067471
 30
0.0
 10
9.2961393007
 20
10.8800925005
 30
0.0
 10
9.2963212549
 20
10.8802495281
 30
0.0
 10
9.2964722233
 20
10.8803776849
 30
0.0
 10
9.296578887
 20
10.8804660662
 30
0.0
 10
9.296648637
 20
10.8805218516
 30
0.0
 10
9.2966889591
 20
10.8805530802
 30
0.0
 10
9.2967209309
 20
10.8805766126
 30
0.0
 10
9.2967457343
 20
10.8805935582
 30
0.0
 10
9.2967607547
 20
10.8806018252
 30
0.0
 10
9.2967706897
 20
10.8806060574
 30
0.0
 10
9.2967729917
 20
10.8806045481
 30
0.0
  0
LINE
  5
4EC
100
AcDbEntity
  8
0
100
AcDbLine
 62
9
  6
CONTINUOUS
 10
9.37171811
 20
10.7144021951
 11
9.4273381945
 21
10.7526515474
  0
LINE
  5
4ED
100
AcDbEntity
  8
0
100
AcDbLine
 62
9
  6
CONTINUOUS
 10
9.0026388852
 20
11.1307256061
 11
9.004420758
 21
11.1293328008
  0
SPLINE
  5
4EE
100
AcDbEntity
  8
0
100
AcDbSpline
 62
9
  6
CONTINUOUS
 70
0
 71
3
 72
38
 73
34
 74
0
 42
0.0000001
 43
0.0000001
 44
0.0000000001
 40
0.0
 40
0.0
 40
0.0
 40
0.0
 40
0.1955079634
 40
0.2908085144
 40
0.3832665155
 40
0.4719932155
 40
0.556143501
 40
0.6349162833
 40
0.7075599574
 40
0.7733813601
 40
0.8035354782
 40
0.8317536066
 40
0.8579701614
 40
0.8821208166
 40
0.9041488636
 40
0.9240025078
 40
0.9416324009
 40
0.9569986316
 40
0.970063754
 40
0.975722934
 40
0.9807958338
 40
0.9852796243
 40
0.9891714864
 40
0.9924686308
 40
0.9951690032
 40
0.9962951133
 40
0.9972717179
 40
0.998098747
 40
0.9987761639
 40
0.9993040017
 40
0.9996824757
 40
0.9999124549
 40
1.0
 40
1.0
 40
1.0
 40
1.0
 10
9.2886429909
 20
10.6078875326
 30
0.0
 10
9.2871397714
 20
10.6038297422
 30
0.0
 10
9.284905913
 20
10.597793197
 30
0.0
 10
9.2819662515
 20
10.5898357946
 30
0.0
 10
9.2798478344
 20
10.5840945679
 30
0.0
 10
9.2778171445
 20
10.5785840307
 30
0.0
 10
9.2758935797
 20
10.5733568318
 30
0.0
 10
9.2740954614
 20
10.5684627818
 30
0.0
 10
9.2724399272
 20
10.5639485435
 30
0.0
 10
9.2711573772
 20
10.5604437041
 30
0.0
 10
9.2702144878
 20
10.5578616333
 30
0.0
 10
9.2695731684
 20
10.5561026509
 30
0.0
 10
9.2689783064
 20
10.5544681645
 30
0.0
 10
9.2684313153
 20
10.5529620561
 30
0.0
 10
9.2679334976
 20
10.5515879232
 30
0.0
 10
9.2674860386
 20
10.5503490536
 30
0.0
 10
9.2670899947
 20
10.5492483869
 30
0.0
 10
9.2667463076
 20
10.5482885669
 30
0.0
 10
9.2664933954
 20
10.5475776715
 30
0.0
 10
9.2663180007
 20
10.5470810164
 30
0.0
 10
9.2662064412
 20
10.5467632494
 30
0.0
 10
9.2661084897
 20
10.5464821637
 30
0.0
 10
9.2660242013
 20
10.546237938
 30
0.0
 10
9.2659536325
 20
10.5460307417
 30
0.0
 10
9.2659036401
 20
10.5458811962
 30
0.0
 10
9.2658706569
 20
10.5457801461
 30
0.0
 10
9.2658508911
 20
10.5457183546
 30
0.0
 10
9.2658346178
 20
10.5456659973
 30
0.0
 10
9.2658216454
 20
10.5456226737
 30
0.0
 10
9.2658124531
 20
10.5455894855
 30
0.0
 10
9.2658057878
 20
10.5455637779
 30
0.0
 10
9.2658039833
 20
10.5455509611
 30
0.0
 10
9.2658025109
 20
10.5455412868
 30
0.0
 10
9.265804328
 20
10.5455406139
 30
0.0
  0
SPLINE
  5
4EF
100
AcDbEntity
  8
0
100
AcDbSpline
 62
9
  6
CONTINUOUS
 70
0
 71
3
 72
17
 73
13
 74
0
 42
0.0000001
 43
0.0000001
 44
0.0000000001
 40
0.0
 40
0.0
 40
0.0
 40
0.0
 40
0.0177172363
 40
0.037523256
 40
0.0617326862
 40
0.0916546229
 40
0.1710382211
 40
0.2784782514
 40
0.4148937558
 40
0.5805864591
 40
0.7756318381
 40
1.0
 40
1.0
 40
1.0
 40
1.0
 10
7.1974063183
 20
12.760173476
 30
0.0
 10
7.1974148706
 20
12.7601819261
 30
0.0
 10
7.1974372961
 20
12.7601958717
 30
0.0
 10
7.1974795903
 20
12.7602018005
 30
0.0
 10
7.1975296749
 20
12.7601949241
 30
0.0
 10
7.1976161007
 20
12.7601667381
 30
0.0
 10
7.1977460061
 20
12.7600959204
 30
0.0
 10
7.1979260822
 20
12.7599705701
 30
0.0
 10
7.1981427914
 20
12.7597962385
 30
0.0
 10
7.1983959447
 20
12.7595731702
 30
0.0
 10
7.1986853241
 20
12.7593012312
 30
0.0
 10
7.1988880597
 20
12.7591014505
 30
0.0
 10
7.1989955857
 20
12.7589936577
 30
0.0
  0
LINE
  5
4F0
100
AcDbEntity
  8
0
100
AcDbLine
 62
9
  6
CONTINUOUS
 10
7.1799438809
 20
12.7780449867
 11
7.1945755311
 21
12.7581947555
  0
LINE
  5
4F1
100
AcDbEntity
  8
0
100
AcDbLine
 62
9
  6
CONTINUOUS
 10
7.1945755311
 20
12.7581947555
 11
7.1948892317
 21
12.7577707138
  0
SPLINE
  5
4F2
100
AcDbEntity
  8
0
100
AcDbSpline
 62
9
  6
CONTINUOUS
 70
0
 71
3
 72
19
 73
15
 74
0
 42
0.0000001
 43
0.0000001
 44
0.0000000001
 40
0.0
 40
0.0
 40
0.0
 40
0.0
 40
0.0174162984
 40
0.0371061314
 40
0.0613975754
 40
0.0915689044
 40
0.1282674575
 40
0.1718323552
 40
0.2224509495
 40
0.280228502
 40
0.4173874709
 40
0.5833448635
 40
0.7777829312
 40
1.0
 40
1.0
 40
1.0
 40
1.0
 10
7.2514255577
 20
12.7048829103
 30
0.0
 10
7.2514598722
 20
12.7049168978
 30
0.0
 10
7.2515510958
 20
12.7049726541
 30
0.0
 10
7.2517233478
 20
12.7049942861
 30
0.0
 10
7.251928193
 20
12.7049637359
 30
0.0
 10
7.2521687972
 20
12.7048835507
 30
0.0
 10
7.2524466954
 20
12.70475381
 30
0.0
 10
7.2527624154
 20
12.7045742108
 30
0.0
 10
7.2531159861
 20
12.7043445983
 30
0.0
 10
7.2536699916
 20
12.7039483556
 30
0.0
 10
7.2544517278
 20
12.703322442
 30
0.0
 10
7.2554892609
 20
12.702412491
 30
0.0
 10
7.2566684823
 20
12.7013077242
 30
0.0
 10
7.2574923257
 20
12.7004974637
 30
0.0
 10
7.2579277955
 20
12.700061448
 30
0.0
  0
SPLINE
  5
4F3
100
AcDbEntity
  8
0
100
AcDbSpline
 62
7
  6
CONTINUOUS
 70
0
 71
3
 72
62
 73
58
 74
0
 42
0.0000001
 43
0.0000001
 44
0.0000000001
 40
0.0
 40
0.0
 40
0.0
 40
0.0
 40
0.00017321
 40
0.0003735802
 40
0.0006193801
 40
0.0009207007
 40
0.0012830014
 40
0.0017093874
 40
0.0022017369
 40
0.0027612464
 40
0.0040843787
 40
0.0056823637
 40
0.0075566505
 40
0.0097077503
 40
0.0121353439
 40
0.0148386119
 40
0.0178165484
 40
0.0210679231
 40
0.0283840235
 40
0.0367719619
 40
0.0462135179
 40
0.0566881245
 40
0.0681722108
 40
0.080640274
 40
0.1084131944
 40
0.1397559796
 40
0.1743845183
 40
0.2119845595
 40
0.2522144924
 40
0.2947087069
 40
0.3390808443
 40
0.3849273799
 40
0.4318313858
 40
0.4793662086
 40
0.5270995188
 40
0.5745970859
 40
0.6214269335
 40
0.6671630529
 40
0.7113895592
 40
0.7537042129
 40
0.7937223487
 40
0.8310802545
 40
0.8654385736
 40
0.8964855115
 40
0.923939703
 40
0.9362407307
 40
0.9475532038
 40
0.9578519759
 40
0.967114005
 40
0.9753190465
 40
0.9824495111
 40
0.9884907692
 40
0.9934320074
 40
0.9954880182
 40
0.997267305
 40
0.9987706542
 40
1.0
 40
1.0
 40
1.0
 40
1.0
 10
10.7763016711
 20
14.4191203457
 30
0.0
 10
10.7762685058
 20
14.4190871805
 30
0.0
 10
10.7761800445
 20
14.4190316705
 30
0.0
 10
10.7760130932
 20
14.4189992113
 30
0.0
 10
10.7758097254
 20
14.4190082781
 30
0.0
 10
10.7755677573
 20
14.4190574271
 30
0.0
 10
10.7752859607
 20
14.4191464677
 30
0.0
 10
10.7749637758
 20
14.4192756588
 30
0.0
 10
10.7746009715
 20
14.4194451489
 30
0.0
 10
10.7740303869
 20
14.4197421655
 30
0.0
 10
10.7732176414
 20
14.4202204884
 30
0.0
 10
10.7721274807
 20
14.4209263683
 30
0.0
 10
10.7708752771
 20
14.4217931312
 30
0.0
 10
10.7694616179
 20
14.4228203872
 30
0.0
 10
10.7678872275
 20
14.4240077404
 30
0.0
 10
10.766152937
 20
14.4253545058
 30
0.0
 10
10.7642596294
 20
14.4268599116
 30
0.0
 10
10.7614105556
 20
14.4291700155
 30
0.0
 10
10.7574635663
 20
14.432451676
 30
0.0
 10
10.7522781162
 20
14.4368648042
 30
0.0
 10
10.7464855534
 20
14.4418837175
 30
0.0
 10
10.7400983365
 20
14.4474962656
 30
0.0
 10
10.7331301495
 20
14.453688974
 30
0.0
 10
10.7227038261
 20
14.4630416087
 30
0.0
 10
10.708350832
 20
14.4760696777
 30
0.0
 10
10.689646511
 20
14.4932315024
 30
0.0
 10
10.6690577317
 20
14.5122751702
 30
0.0
 10
10.646765129
 20
14.5330206021
 30
0.0
 10
10.6229648798
 20
14.5552722895
 30
0.0
 10
10.5978667662
 20
14.5788208167
 30
0.0
 10
10.571692346
 20
14.6034449201
 30
0.0
 10
10.5446729371
 20
14.6289134969
 30
0.0
 10
10.5170475339
 20
14.6549877276
 30
0.0
 10
10.4890606206
 20
14.6814232752
 30
0.0
 10
10.4609599811
 20
14.7079724895
 30
0.0
 10
10.4329944142
 20
14.7343867008
 30
0.0
 10
10.4054115136
 20
14.7604184499
 30
0.0
 10
10.3784553742
 20
14.7858237906
 30
0.0
 10
10.3523644244
 20
14.8103644731
 30
0.0
 10
10.3273692157
 20
14.8338101647
 30
0.0
 10
10.3036903796
 20
14.8559405369
 30
0.0
 10
10.2815365881
 20
14.8765472938
 30
0.0
 10
10.2611027717
 20
14.8954361991
 30
0.0
 10
10.2425681564
 20
14.9124285988
 30
0.0
 10
10.228364834
 20
14.9253066631
 30
0.0
 10
10.218064271
 20
14.9345329098
 30
0.0
 10
10.2111948173
 20
14.9406269935
 30
0.0
 10
10.204908781
 20
14.9461385055
 30
0.0
 10
10.199219639
 20
14.951054197
 30
0.0
 10
10.1941396183
 20
14.9553622263
 30
0.0
 10
10.1896797252
 20
14.959052588
 30
0.0
 10
10.1858493187
 20
14.9621163139
 30
0.0
 10
10.1830407482
 20
14.9642568868
 30
0.0
 10
10.1811081959
 20
14.9656403894
 30
0.0
 10
10.1799115529
 20
14.9664519122
 30
0.0
 10
10.1788772191
 20
14.9671026432
 30
0.0
 10
10.1782319015
 20
14.9674660133
 30
0.0
 10
10.1779351292
 20
14.9676168149
 30
0.0
  0
LINE
  5
4F4
100
AcDbEntity
  8
0
100
AcDbLine
 62
7
  6
CONTINUOUS
 10
10.1779351292
 20
14.9676168149
 11
10.1768790292
 21
14.9680513474
  0
SPLINE
  5
4F5
100
AcDbEntity
  8
0
100
AcDbSpline
 62
7
  6
CONTINUOUS
 70
0
 71
3
 72
63
 73
59
 74
0
 42
0.0000001
 43
0.0000001
 44
0.0000000001
 40
0.0
 40
0.0
 40
0.0
 40
0.0
 40
0.0001684698
 40
0.0003647613
 40
0.0006072555
 40
0.0009058949
 40
0.0012659795
 40
0.0016904953
 40
0.0021812377
 40
0.0027393455
 40
0.0040601435
 40
0.0056562434
 40
0.0075289711
 40
0.009678761
 40
0.0121052424
 40
0.0148075602
 40
0.0177846829
 40
0.0210353608
 40
0.0283503652
 40
0.0367375335
 40
0.0461785896
 40
0.0566529272
 40
0.0681369464
 40
0.0806051224
 40
0.0940291077
 40
0.1083787783
 40
0.1397228064
 40
0.1743530483
 40
0.2119551865
 40
0.2521875486
 40
0.294684473
 40
0.339059545
 40
0.3849091905
 40
0.4318164301
 40
0.4793545612
 40
0.5270912027
 40
0.5745920757
 40
0.6214251522
 40
0.667164372
 40
0.7113938001
 40
0.7537111428
 40
0.7937316819
 40
0.8310916481
 40
0.865451621
 40
0.8964997375
 40
0.9239545451
 40
0.936255634
 40
0.9475679806
 40
0.9578664146
 40
0.9671278622
 40
0.9753320367
 40
0.9824612871
 40
0.9885008896
 40
0.9934398743
 40
0.9954944457
 40
0.9972720131
 40
0.9987732705
 40
1.0
 40
1.0
 40
1.0
 40
1.0
 10
10.158356818
 20
14.950224012
 30
0.0
 10
10.1583890726
 20
14.9502562666
 30
0.0
 10
10.1584759825
 20
14.950309903
 30
0.0
 10
10.1586401549
 20
14.9503392755
 30
0.0
 10
10.1588405858
 20
14.9503273407
 30
0.0
 10
10.1590796554
 20
14.9502754019
 30
0.0
 10
10.1593585909
 20
14.9501836049
 30
0.0
 10
10.1596779446
 20
14.9500516594
 30
0.0
 10
10.1600379345
 20
14.9498794119
 30
0.0
 10
10.1606047121
 20
14.9495784073
 30
0.0
 10
10.1614126904
 20
14.9490952577
 30
0.0
 10
10.1624972684
 20
14.9483839189
 30
0.0
 10
10.1637439005
 20
14.9475116691
 30
0.0
 10
10.1651519956
 20
14.9464789047
 30
0.0
 10
10.1667208242
 20
14.9452860296
 30
0.0
 10
10.1684495539
 20
14.9439337328
 30
0.0
 10
10.1703373009
 20
14.9424227886
 30
0.0
 10
10.1731787202
 20
14.9401049344
 30
0.0
 10
10.1771162241
 20
14.9368137388
 30
0.0
 10
10.1822906039
 20
14.9323896014
 30
0.0
 10
10.188072088
 20
14.9273596549
 30
0.0
 10
10.1944482253
 20
14.9217360612
 30
0.0
 10
10.2014053066
 20
14.9155322726
 30
0.0
 10
10.2089282085
 20
14.9087631867
 30
0.0
 10
10.2170006879
 20
14.9014449997
 30
0.0
 10
10.2288257323
 20
14.8906568623
 30
0.0
 10
10.2448326482
 20
14.8759333854
 30
0.0
 10
10.2653993907
 20
14.856867757
 30
0.0
 10
10.2876698311
 20
14.8361002009
 30
0.0
 10
10.311447911
 20
14.8138263818
 30
0.0
 10
10.3365238126
 20
14.7902556717
 30
0.0
 10
10.3626759871
 20
14.765609347
 30
0.0
 10
10.3896731111
 20
14.7401185053
 30
0.0
 10
10.4172761887
 20
14.7140219647
 30
0.0
 10
10.4452407319
 20
14.6875640589
 30
0.0
 10
10.4733189577
 20
14.6609924388
 30
0.0
 10
10.5012620709
 20
14.6345557788
 30
0.0
 10
10.5288224804
 20
14.6085015411
 30
0.0
 10
10.5557560941
 20
14.5830736761
 30
0.0
 10
10.5818244869
 20
14.5585104383
 30
0.0
 10
10.6067971109
 20
14.5350421658
 30
0.0
 10
10.630453339
 20
14.5128891939
 30
0.0
 10
10.6525845041
 20
14.4922598273
 30
0.0
 10
10.6729956843
 20
14.4733483164
 30
0.0
 10
10.69150766
 20
14.4563333279
 30
0.0
 10
10.7056915535
 20
14.4434357777
 30
0.0
 10
10.7159763806
 20
14.4341936918
 30
0.0
 10
10.7228344197
 20
14.428088214
 30
0.0
 10
10.7291090416
 20
14.4225653174
 30
0.0
 10
10.73478677
 20
14.4176382564
 30
0.0
 10
10.7398553802
 20
14.4133188814
 30
0.0
 10
10.7443038688
 20
14.4096172203
 30
0.0
 10
10.7481228759
 20
14.4065422531
 30
0.0
 10
10.7509215989
 20
14.4043917959
 30
0.0
 10
10.7528461632
 20
14.4030000944
 30
0.0
 10
10.7540370526
 20
14.4021829207
 30
0.0
 10
10.7550656192
 20
14.4015265757
 30
0.0
 10
10.755706924
 20
14.4011589264
 30
0.0
 10
10.7560017114
 20
14.4010058782
 30
0.0
  0
LINE
  5
4F6
100
AcDbEntity
  8
0
100
AcDbLine
 62
7
  6
CONTINUOUS
 10
10.7560017114
 20
14.4010058782
 11
10.7570803191
 21
14.4005534629
  0
SPLINE
  5
4F7
100
AcDbEntity
  8
0
100
AcDbSpline
 62
7
  6
CONTINUOUS
 70
0
 71
3
 72
62
 73
58
 74
0
 42
0.0000001
 43
0.0000001
 44
0.0000000001
 40
0.0
 40
0.0
 40
0.0
 40
0.0
 40
0.00017306
 40
0.0003732997
 40
0.0006189929
 40
0.0009202262
 40
0.0012824544
 40
0.001708779
 40
0.0022010755
 40
0.0027605387
 40
0.004083594
 40
0.0056815168
 40
0.0075557525
 40
0.0097068099
 40
0.012134368
 40
0.0148376064
 40
0.0178155184
 40
0.0210668731
 40
0.0283829458
 40
0.0367708709
 40
0.0462124247
 40
0.0566870365
 40
0.0681711384
 40
0.0806392298
 40
0.1084122225
 40
0.1397551068
 40
0.1743837729
 40
0.2119839551
 40
0.2522140615
 40
0.294708445
 40
0.3390807808
 40
0.3849275098
 40
0.4318317265
 40
0.4793667506
 40
0.527100261
 40
0.5745980175
 40
0.6214280387
 40
0.6671643262
 40
0.711390969
 40
0.7537057535
 40
0.7937239703
 40
0.8310819412
 40
0.8654402776
 40
0.8964871971
 40
0.9239413197
 40
0.9362422902
 40
0.9475546957
 40
0.9578533848
 40
0.9671153098
 40
0.9753202272
 40
0.9824505446
 40
0.9884916266
 40
0.9934326495
 40
0.9954885328
 40
0.9972676743
 40
0.998770855
 40
1.0
 40
1.0
 40
1.0
 40
1.0
 10
10.7250186981
 20
14.3678373728
 30
0.0
 10
10.7249855618
 20
14.3678042364
 30
0.0
 10
10.7248971502
 20
14.3677487857
 30
0.0
 10
10.7247302872
 20
14.3677164249
 30
0.0
 10
10.7245270136
 20
14.3677255842
 30
0.0
 10
10.7242851393
 20
14.367774824
 30
0.0
 10
10.7240034361
 20
14.3678639551
 30
0.0
 10
10.7236813444
 20
14.3679932372
 30
0.0
 10
10.7233186333
 20
14.3681628191
 30
0.0
 10
10.7227481757
 20
14.3684599695
 30
0.0
 10
10.7219355911
 20
14.3689384564
 30
0.0
 10
10.7208456215
 20
14.3696445249
 30
0.0
 10
10.7195936112
 20
14.37051148
 30
0.0
 10
10.7181801477
 20
14.3715389319
 30
0.0
 10
10.7166059555
 20
14.3727264844
 30
0.0
 10
10.7148718659
 20
14.3740734523
 30
0.0
 10
10.7129787617
 20
14.3755790637
 30
0.0
 10
10.7101299715
 20
14.3778894594
 30
0.0
 10
10.7061833405
 20
14.3811714875
 30
0.0
 10
10.7009983183
 20
14.385585052
 30
0.0
 10
10.6952061946
 20
14.3906044137
 30
0.0
 10
10.6888194275
 20
14.3962174221
 30
0.0
 10
10.6818517004
 20
14.4024106034
 30
0.0
 10
10.6714260252
 20
14.4117639115
 30
0.0
 10
10.6570738604
 20
14.4247928417
 30
0.0
 10
10.6383705475
 20
14.4419557123
 30
0.0
 10
10.6177828191
 20
14.4610004729
 30
0.0
 10
10.595491307
 20
14.4817470472
 30
0.0
 10
10.5716921929
 20
14.5039999215
 30
0.0
 10
10.546595254
 20
14.527549684
 30
0.0
 10
10.5204220542
 20
14.5521750653
 30
0.0
 10
10.4934039052
 20
14.5776449681
 30
0.0
 10
10.4657798075
 20
14.6037205669
 30
0.0
 10
10.4377942431
 20
14.6301575266
 30
0.0
 10
10.4096949996
 20
14.6567081931
 30
0.0
 10
10.3817308758
 20
14.6831238972
 30
0.0
 10
10.3541494621
 20
14.7091571776
 30
0.0
 10
10.327194849
 20
14.7345640786
 30
0.0
 10
10.301105455
 20
14.7591063472
 30
0.0
 10
10.2761118323
 20
14.7825536374
 30
0.0
 10
10.2524346012
 20
14.8046856186
 30
0.0
 10
10.2302824335
 20
14.8252939819
 30
0.0
 10
10.2098502481
 20
14.8441844886
 30
0.0
 10
10.1913172688
 20
14.8611784735
 30
0.0
 10
10.1771153459
 20
14.8740578909
 30
0.0
 10
10.1668159111
 20
14.883285223
 30
0.0
 10
10.1599472741
 20
14.8893800786
 30
0.0
 10
10.1536620505
 20
14.8948923544
 30
0.0
 10
10.1479737169
 20
14.8998087992
 30
0.0
 10
10.1428944994
 20
14.9041175705
 30
0.0
 10
10.1384354025
 20
14.9078086613
 30
0.0
 10
10.1346057845
 20
14.910873102
 30
0.0
 10
10.1317978871
 20
14.9130142954
 30
0.0
 10
10.1298658752
 20
14.9143983058
 30
0.0
 10
10.1286696201
 20
14.9152101744
 30
0.0
 10
10.1276356726
 20
14.9158612456
 30
0.0
 10
10.1269906213
 20
14.9162248739
 30
0.0
 10
10.1266939803
 20
14.9163758103
 30
0.0
  0
LINE
  5
4F8
100
AcDbEntity
  8
0
100
AcDbLine
 62
7
  6
CONTINUOUS
 10
10.1266939803
 20
14.9163758103
 11
10.125636543
 21
14.916811407
  0
SPLINE
  5
4F9
100
AcDbEntity
  8
0
100
AcDbSpline
 62
7
  6
CONTINUOUS
 70
0
 71
3
 72
63
 73
59
 74
0
 42
0.0000001
 43
0.0000001
 44
0.0000000001
 40
0.0
 40
0.0
 40
0.0
 40
0.0
 40
0.0001689139
 40
0.0003655716
 40
0.0006083502
 40
0.0009072106
 40
0.0012674702
 40
0.0016921274
 40
0.0021829862
 40
0.0027411911
 40
0.0040621401
 40
0.0056583506
 40
0.0075311605
 40
0.0096810118
 40
0.012107539
 40
0.0148098905
 40
0.0177870373
 40
0.0210377318
 40
0.0283527525
 40
0.0367399225
 40
0.0461809699
 40
0.0566552902
 40
0.068139291
 40
0.0806074529
 40
0.094031424
 40
0.1083810795
 40
0.1397250956
 40
0.1743553556
 40
0.2119575319
 40
0.2521899795
 40
0.2946869989
 40
0.3390622134
 40
0.3849120137
 40
0.4318194414
 40
0.4793577644
 40
0.5270946086
 40
0.5745956788
 40
0.6214289394
 40
0.6671683363
 40
0.7113979028
 40
0.7537153668
 40
0.7937359621
 40
0.8310959456
 40
0.8654558626
 40
0.8965038526
 40
0.9239584417
 40
0.9362593799
 40
0.9475715502
 40
0.9578697753
 40
0.9671309735
 40
0.9753348542
 40
0.9824637578
 40
0.9885029453
 40
0.9934414217
 40
0.9954956898
 40
0.9972729096
 40
0.9987737603
 40
1.0
 40
1.0
 40
1.0
 40
1.0
 10
10.108709327
 20
14.9005765211
 30
0.0
 10
10.1087416665
 20
14.9006088605
 30
0.0
 10
10.1088287158
 20
14.9006626716
 30
0.0
 10
10.1089931394
 20
14.9006923235
 30
0.0
 10
10.1091938241
 20
14.9006806348
 30
0.0
 10
10.1094331323
 20
14.9006289257
 30
0.0
 10
10.1097122922
 20
14.9005373458
 30
0.0
 10
10.1100318569
 20
14.9004056078
 30
0.0
 10
10.110392046
 20
14.9002335587
 30
0.0
 10
10.1109590769
 20
14.8999328284
 30
0.0
 10
10.1117673459
 20
14.8994499828
 30
0.0
 10
10.112852227
 20
14.8987389504
 30
0.0
 10
10.1140991221
 20
14.8978669725
 30
0.0
 10
10.1155074409
 20
14.8968344451
 30
0.0
 10
10.1170764548
 20
14.8956417718
 30
0.0
 10
10.1188053321
 20
14.8942896415
 30
0.0
 10
10.1206931897
 20
14.8927788288
 30
0.0
 10
10.1235347088
 20
14.8904611108
 30
0.0
 10
10.1274722399
 20
14.887169985
 30
0.0
 10
10.1326465171
 20
14.8827457929
 30
0.0
 10
10.138427764
 20
14.877715661
 30
0.0
 10
10.1448035336
 20
14.8720917541
 30
0.0
 10
10.151760122
 20
14.8658875261
 30
0.0
 10
10.1592824102
 20
14.8591178778
 30
0.0
 10
10.1673541581
 20
14.8517990097
 30
0.0
 10
10.1791780425
 20
14.8410097758
 30
0.0
 10
10.195183232
 20
14.8262846394
 30
0.0
 10
10.2157475571
 20
14.8072166608
 30
0.0
 10
10.238015215
 20
14.7864463626
 30
0.0
 10
10.261790174
 20
14.7641694435
 30
0.0
 10
10.2868626532
 20
14.7405953004
 30
0.0
 10
10.3130111285
 20
14.7159452457
 30
0.0
 10
10.3400043136
 20
14.6904504023
 30
0.0
 10
10.3676032364
 20
14.6643496258
 30
0.0
 10
10.3955634418
 20
14.6378872801
 30
0.0
 10
10.4236371685
 20
14.6113110487
 30
0.0
 10
10.4515756441
 20
14.5848696311
 30
0.0
 10
10.4791313017
 20
14.558810516
 30
0.0
 10
10.50606007
 20
14.5333776827
 30
0.0
 10
10.5321235509
 20
14.5088094092
 30
0.0
 10
10.5570912128
 20
14.4853360669
 30
0.0
 10
10.5807424573
 20
14.4631780141
 30
0.0
 10
10.6028686351
 20
14.442543588
 30
0.0
 10
10.6232748536
 20
14.4236270632
 30
0.0
 10
10.6417819136
 20
14.4066071377
 30
0.0
 10
10.6559616501
 20
14.3937054093
 30
0.0
 10
10.6662431627
 20
14.3844599958
 30
0.0
 10
10.6730988239
 20
14.3783521588
 30
0.0
 10
10.6793710981
 20
14.3728269414
 30
0.0
 10
10.6850465117
 20
14.3678976026
 30
0.0
 10
10.6901128436
 20
14.3635759968
 30
0.0
 10
10.6945590945
 20
14.3598721583
 30
0.0
 10
10.6983759078
 20
14.3567950717
 30
0.0
 10
10.7011727741
 20
14.3546427934
 30
0.0
 10
10.7030958596
 20
14.3532496138
 30
0.0
 10
10.7042856971
 20
14.3524314354
 30
0.0
 10
10.7053132229
 20
14.3517741061
 30
0.0
 10
10.7059538115
 20
14.3514057168
 30
0.0
 10
10.7062482466
 20
14.3512522838
 30
0.0
  0
LINE
  5
4FA
100
AcDbEntity
  8
0
100
AcDbLine
 62
7
  6
CONTINUOUS
 10
10.7062482466
 20
14.3512522838
 11
10.7073304429
 21
14.3507968449
  0
SPLINE
  5
4FB
100
AcDbEntity
  8
0
100
AcDbSpline
 62
7
  6
CONTINUOUS
 70
0
 71
3
 72
63
 73
59
 74
0
 42
0.0000001
 43
0.0000001
 44
0.0000000001
 40
0.0
 40
0.0
 40
0.0
 40
0.0
 40
0.0001681859
 40
0.0003642327
 40
0.0006065282
 40
0.0009050061
 40
0.0012649566
 40
0.0016893588
 40
0.0021800031
 40
0.0027380249
 40
0.0040586788
 40
0.0056546611
 40
0.0075272906
 40
0.009676997
 40
0.0121034067
 40
0.0148056625
 40
0.0177827315
 40
0.0210333627
 40
0.0283482918
 40
0.0367354049
 40
0.0461764224
 40
0.0566507357
 40
0.0681347432
 40
0.0806029188
 40
0.0940269142
 40
0.1083766046
 40
0.1397206973
 40
0.1743510333
 40
0.2119532913
 40
0.252185793
 40
0.2946828758
 40
0.3390581182
 40
0.3849079443
 40
0.4318153702
 40
0.47935369
 40
0.5270905188
 40
0.574591576
 40
0.6214248297
 40
0.667164217
 40
0.7113938007
 40
0.7537112839
 40
0.7937319468
 40
0.8310920176
 40
0.8654520724
 40
0.8965002473
 40
0.9239550862
 40
0.9362561794
 40
0.9475685225
 40
0.9578669441
 40
0.9671283694
 40
0.9753325103
 40
0.982461714
 40
0.9885012539
 40
0.993440155
 40
0.9954946738
 40
0.9972721793
 40
0.9987733622
 40
1.0
 40
1.0
 40
1.0
 40
1.0
 10
10.0589006671
 20
14.8507678612
 30
0.0
 10
10.0589328672
 20
14.8508000613
 30
0.0
 10
10.0590196844
 20
14.850853585
 30
0.0
 10
10.0591836891
 20
14.8508827713
 30
0.0
 10
10.059383942
 20
14.8508706629
 30
0.0
 10
10.0596228353
 20
14.8508185543
 30
0.0
 10
10.0599015959
 20
14.8507265887
 30
0.0
 10
10.0602207757
 20
14.8505944736
 30
0.0
 10
10.0605805917
 20
14.8504220556
 30
0.0
 10
10.0611471328
 20
14.8501208031
 30
0.0
 10
10.0619548129
 20
14.8496373512
 30
0.0
 10
10.0630390389
 20
14.8489256671
 30
0.0
 10
10.0642853168
 20
14.8480530673
 30
0.0
 10
10.0656930552
 20
14.8470199485
 30
0.0
 10
10.0672615244
 20
14.8458267154
 30
0.0
 10
10.0689898922
 20
14.8444740569
 30
0.0
 10
10.0708772748
 20
14.8429627481
 30
0.0
 10
10.0737181889
 20
14.8406443799
 30
0.0
 10
10.0776550604
 20
14.8373525449
 30
0.0
 10
10.0828286941
 20
14.8329276601
 30
0.0
 10
10.0886094241
 20
14.8278969561
 30
0.0
 10
10.0949848
 20
14.8222725963
 30
0.0
 10
10.1019411136
 20
14.8160680339
 30
0.0
 10
10.1094632423
 20
14.8092981677
 30
0.0
 10
10.1175349439
 20
14.8019791947
 30
0.0
 10
10.1293589173
 20
14.791189968
 30
0.0
 10
10.1453644987
 20
14.7764651349
 30
0.0
 10
10.1659296723
 20
14.7573979161
 30
0.0
 10
10.1881985433
 20
14.7366287671
 30
0.0
 10
10.2119750596
 20
14.714353359
 30
0.0
 10
10.2370494092
 20
14.6907810716
 30
0.0
 10
10.2632000497
 20
14.6661331881
 30
0.0
 10
10.2901956631
 20
14.6406408134
 30
0.0
 10
10.3177972598
 20
14.6145427723
 30
0.0
 10
10.3457603577
 20
14.588083406
 30
0.0
 10
10.3738371763
 20
14.5615103681
 30
0.0
 10
10.4017789196
 20
14.5350723323
 30
0.0
 10
10.4293379969
 20
14.5090167613
 30
0.0
 10
10.456270316
 20
14.4835876056
 30
0.0
 10
10.4823374519
 20
14.45902312
 30
0.0
 10
10.507308857
 20
14.4355536423
 30
0.0
 10
10.5309639045
 20
14.413399508
 30
0.0
 10
10.5530939276
 20
14.3927690218
 30
0.0
 10
10.5735040051
 20
14.3738564342
 30
0.0
 10
10.5920149176
 20
14.3568404121
 30
0.0
 10
10.606197933
 20
14.3439420056
 30
0.0
 10
10.6164820714
 20
14.334699247
 30
0.0
 10
10.6233396213
 20
14.3285932956
 30
0.0
 10
10.6296137642
 20
14.3230699359
 30
0.0
 10
10.6352910239
 20
14.3181424226
 30
0.0
 10
10.6403591762
 20
14.3138226061
 30
0.0
 10
10.6448072173
 20
14.3101205151
 30
0.0
 10
10.6486257879
 20
14.3070451298
 30
0.0
 10
10.6514241424
 20
14.3048943133
 30
0.0
 10
10.6533484137
 20
14.3035023197
 30
0.0
 10
10.6545390949
 20
14.302684947
 30
0.0
 10
10.6555674557
 20
14.3020284067
 30
0.0
 10
10.6562086187
 20
14.3016606103
 30
0.0
 10
10.6565033363
 20
14.3015074856
 30
0.0
  0
LINE
  5
4FC
100
AcDbEntity
  8
0
100
AcDbLine
 62
7
  6
CONTINUOUS
 10
10.6565033363
 20
14.3015074856
 11
10.6575826666
 21
14.3010544666
  0
SPLINE
  5
4FD
100
AcDbEntity
  8
0
100
AcDbSpline
 62
7
  6
CONTINUOUS
 70
0
 71
3
 72
62
 73
58
 74
0
 42
0.0000001
 43
0.0000001
 44
0.0000000001
 40
0.0
 40
0.0
 40
0.0
 40
0.0
 40
0.0001738679
 40
0.0003748115
 40
0.0006210822
 40
0.0009227889
 40
0.0012854123
 40
0.0017120735
 40
0.0022046619
 40
0.0027643818
 40
0.0040878702
 40
0.0056861489
 40
0.0075606843
 40
0.0097119984
 40
0.0121397787
 40
0.0148432109
 40
0.0178212929
 40
0.0210727968
 40
0.0283891145
 40
0.0367772251
 40
0.046218916
 40
0.0566936253
 40
0.0681777863
 40
0.0806458992
 40
0.1084188536
 40
0.1397615987
 40
0.1743900352
 40
0.2119899234
 40
0.2522196616
 40
0.2947136497
 40
0.3390855372
 40
0.3849318082
 40
0.4318355426
 40
0.4793700949
 40
0.5271031419
 40
0.5746004595
 40
0.6214300762
 40
0.6671659869
 40
0.7113923093
 40
0.7537068046
 40
0.7937248068
 40
0.8310826009
 40
0.8654408245
 40
0.8964876753
 40
0.9239417754
 40
0.9362427501
 40
0.9475551614
 40
0.9578538591
 40
0.9671157955
 40
0.9753207193
 40
0.9824510307
 40
0.9884920851
 40
0.9934330435
 40
0.9954888719
 40
0.9972679366
 40
0.9987710092
 40
1.0
 40
1.0
 40
1.0
 40
1.0
 10
10.6737585339
 20
14.3165772086
 30
0.0
 10
10.6737252425
 20
14.3165439171
 30
0.0
 10
10.6736365637
 20
14.316488148
 30
0.0
 10
10.6734692261
 20
14.3164552592
 30
0.0
 10
10.6732654462
 20
14.3164639209
 30
0.0
 10
10.6730230674
 20
14.3165126728
 30
0.0
 10
10.672740862
 20
14.316601318
 30
0.0
 10
10.6724182693
 20
14.316730111
 30
0.0
 10
10.6720550567
 20
14.3168991995
 30
0.0
 10
10.6714839156
 20
14.3171956316
 30
0.0
 10
10.6706704655
 20
14.317673238
 30
0.0
 10
10.6695794694
 20
14.3183782962
 30
0.0
 10
10.6683264216
 20
14.3192442223
 30
0.0
 10
10.6669119094
 20
14.3202706277
 30
0.0
 10
10.6653366566
 20
14.3214571179
 30
0.0
 10
10.6636014949
 20
14.3228030089
 30
0.0
 10
10.6617073073
 20
14.3243075295
 30
0.0
 10
10.6588570102
 20
14.3266163822
 30
0.0
 10
10.6549084838
 20
14.3298964784
 30
0.0
 10
10.649721212
 20
14.3343077683
 30
0.0
 10
10.6439268012
 20
14.3393248106
 30
0.0
 10
10.6375377133
 20
14.3449354591
 30
0.0
 10
10.6305676355
 20
14.3511262429
 30
0.0
 10
10.6201386835
 20
14.3604761763
 30
0.0
 10
10.6057824055
 20
14.3735008733
 30
0.0
 10
10.5870742257
 20
14.3906587449
 30
0.0
 10
10.5664815793
 20
14.4096984391
 30
0.0
 10
10.5441851251
 20
14.4304399051
 30
0.0
 10
10.5203810635
 20
14.4526876624
 30
0.0
 10
10.4952791997
 20
14.4762323229
 30
0.0
 10
10.4691011147
 20
14.5008526503
 30
0.0
 10
10.4420781492
 20
14.5263175693
 30
0.0
 10
10.4144493203
 20
14.5523882876
 30
0.0
 10
10.3864591352
 20
14.5788204947
 30
0.0
 10
10.3583554009
 20
14.6053665673
 30
0.0
 10
10.3303869395
 20
14.6317778614
 30
0.0
 10
10.3028013684
 20
14.6578069437
 30
0.0
 10
10.2758428068
 20
14.683209893
 30
0.0
 10
10.2497497076
 20
14.7077484837
 30
0.0
 10
10.2247526474
 20
14.7311924069
 30
0.0
 10
10.2010722831
 20
14.753321357
 30
0.0
 10
10.1789173127
 20
14.7739270601
 30
0.0
 10
10.1584826926
 20
14.7928153005
 30
0.0
 10
10.1399476758
 20
14.8098074443
 30
0.0
 10
10.1257443706
 20
14.8226856567
 30
0.0
 10
10.1154440733
 20
14.8319122789
 30
0.0
 10
10.1085749335
 20
14.8380067476
 30
0.0
 10
10.1022893335
 20
14.8435187622
 30
0.0
 10
10.0966007535
 20
14.8484350755
 30
0.0
 10
10.091521424
 20
14.8527438471
 30
0.0
 10
10.0870623543
 20
14.8564350706
 30
0.0
 10
10.0832329074
 20
14.8594997785
 30
0.0
 10
10.0804252802
 20
14.8616413273
 30
0.0
 10
10.0784935728
 20
14.8630257209
 30
0.0
 10
10.0772975791
 20
14.8638378886
 30
0.0
 10
10.0762639335
 20
14.864489293
 30
0.0
 10
10.0756191162
 20
14.864853204
 30
0.0
 10
10.0753225978
 20
14.8650042983
 30
0.0
  0
LINE
  5
4FE
100
AcDbEntity
  8
0
100
AcDbLine
 62
7
  6
CONTINUOUS
 10
10.0753225978
 20
14.8650042983
 11
10.0742632305
 21
14.8654412757
  0
SPLINE
  5
4FF
100
AcDbEntity
  8
0
100
AcDbSpline
 62
7
  6
CONTINUOUS
 70
0
 71
3
 72
33
 73
29
 74
0
 42
0.0000001
 43
0.0000001
 44
0.0000000001
 40
0.0
 40
0.0
 40
0.0
 40
0.0
 40
0.2188949704
 40
0.3202608098
 40
0.4157329054
 40
0.5049526538
 40
0.5875879311
 40
0.6633322579
 40
0.7319042034
 40
0.7930511964
 40
0.8465497164
 40
0.8703690087
 40
0.8922068596
 40
0.9120437029
 40
0.929863556
 40
0.9456531893
 40
0.9594013725
 40
0.9711026668
 40
0.9807571222
 40
0.9848196511
 40
0.9883760129
 40
0.9914315463
 40
0.9939951295
 40
0.99608243
 40
0.9977234792
 40
0.9983959091
 40
0.9989859251
 40
1.0
 40
1.0
 40
1.0
 40
1.0
 10
10.4875894104
 20
14.3842181394
 30
0.0
 10
10.4972025482
 20
14.3752417712
 30
0.0
 10
10.5112845343
 20
14.3621269978
 30
0.0
 10
10.5296157152
 20
14.3451578824
 30
0.0
 10
10.5422566839
 20
14.3335116856
 30
0.0
 10
10.5541008645
 20
14.3226617082
 30
0.0
 10
10.5651056665
 20
14.3126503892
 30
0.0
 10
10.5752316933
 20
14.3035168952
 30
0.0
 10
10.5844427882
 20
14.2952969769
 30
0.0
 10
10.5927062398
 20
14.2880230293
 30
0.0
 10
10.5989998327
 20
14.2825813211
 30
0.0
 10
10.6035436564
 20
14.2787277375
 30
0.0
 10
10.6065637359
 20
14.2762047011
 30
0.0
 10
10.6093275848
 20
14.2739374183
 30
0.0
 10
10.6118328126
 20
14.2719281321
 30
0.0
 10
10.6140772279
 20
14.2701787863
 30
0.0
 10
10.6160588939
 20
14.2686908683
 30
0.0
 10
10.6177761371
 20
14.2674657619
 30
0.0
 10
10.619049233
 20
14.266621039
 30
0.0
 10
10.6199374235
 20
14.2660837937
 30
0.0
 10
10.6204975845
 20
14.2657710381
 30
0.0
 10
10.6209909332
 20
14.2655244624
 30
0.0
 10
10.6214177762
 20
14.265343653
 30
0.0
 10
10.6217783753
 20
14.2652284313
 30
0.0
 10
10.6220407453
 20
14.2651831147
 30
0.0
 10
10.6222158931
 20
14.265186795
 30
0.0
 10
10.6223506994
 20
14.2652110989
 30
0.0
 10
10.6224401399
 20
14.2652588907
 30
0.0
 10
10.6224832237
 20
14.2653019771
 30
0.0
  0
SPLINE
  5
500
100
AcDbEntity
  8
0
100
AcDbSpline
 62
7
  6
CONTINUOUS
 70
0
 71
3
 72
23
 73
19
 74
0
 42
0.0000001
 43
0.0000001
 44
0.0000000001
 40
0.0
 40
0.0
 40
0.0
 40
0.0
 40
0.2028837465
 40
0.3885214089
 40
0.4736669684
 40
0.5531228541
 40
0.6265252884
 40
0.6935637647
 40
0.7539997661
 40
0.8076640077
 40
0.8544943809
 40
0.8945600892
 40
0.9281465512
 40
0.9427076756
 40
0.955936412
 40
0.9791070624
 40
0.989672472
 40
1.0
 40
1.0
 40
1.0
 40
1.0
 10
8.3679375196
 20
11.7894665035
 30
0.0
 10
8.3701474755
 20
11.7872565476
 30
0.0
 10
8.3743146725
 20
11.7829588895
 30
0.0
 10
8.3792003623
 20
11.777536323
 30
0.0
 10
8.3826705841
 20
11.7734044695
 30
0.0
 10
8.3849554763
 20
11.7705365565
 30
0.0
 10
8.386986938
 20
11.7678251383
 30
0.0
 10
8.3887548003
 20
11.7652845062
 30
0.0
 10
8.3902510344
 20
11.7629279801
 30
0.0
 10
8.391469098
 20
11.7607672213
 30
0.0
 10
8.3924050304
 20
11.7588121842
 30
0.0
 10
8.3930557474
 20
11.7570710507
 30
0.0
 10
8.3933745347
 20
11.7557441381
 30
0.0
 10
8.3934647352
 20
11.754801007
 30
0.0
 10
8.393453776
 20
11.754015602
 30
0.0
 10
8.3933029801
 20
11.7532930526
 30
0.0
 10
8.3929829722
 20
11.7526901135
 30
0.0
 10
8.3927774851
 20
11.7524391142
 30
0.0
 10
8.3926649978
 20
11.7523266117
 30
0.0
  0
SPLINE
  5
501
100
AcDbEntity
  8
0
100
AcDbSpline
 62
7
  6
CONTINUOUS
 70
0
 71
3
 72
26
 73
22
 74
0
 42
0.0000001
 43
0.0000001
 44
0.0000000001
 40
0.0
 40
0.0
 40
0.0
 40
0.0
 40
0.1810232424
 40
0.3588042972
 40
0.4439629988
 40
0.525370779
 40
0.6021659644
 40
0.6735666946
 40
0.7388831582
 40
0.7975291271
 40
0.8490374615
 40
0.8720130539
 40
0.8931005402
 40
0.9122932545
 40
0.9296027027
 40
0.9450703247
 40
0.9587726542
 40
0.9708433929
 40
0.9814976154
 40
0.9910623049
 40
1.0
 40
1.0
 40
1.0
 40
1.0
 10
7.8343118852
 20
12.3230921379
 30
0.0
 10
7.8378949408
 20
12.3195090824
 30
0.0
 10
7.8448436163
 20
12.3122523654
 30
0.0
 10
7.8530559352
 20
12.3029194573
 30
0.0
 10
7.8591688199
 20
12.2954657055
 30
0.0
 10
7.8633574218
 20
12.2900924386
 30
0.0
 10
7.867170101
 20
12.2849172936
 30
0.0
 10
7.8705661894
 20
12.2799979943
 30
0.0
 10
7.8735110032
 20
12.2753882667
 30
0.0
 10
7.8759752517
 20
12.2711374703
 30
0.0
 10
7.8776696661
 20
12.2678152215
 30
0.0
 10
7.8787508406
 20
12.2653674799
 30
0.0
 10
7.8793968065
 20
12.2637181768
 30
0.0
 10
7.8799082313
 20
12.2621885312
 30
0.0
 10
7.8802839276
 20
12.2607819833
 30
0.0
 10
7.8805234442
 20
12.2595015881
 30
0.0
 10
7.880626053
 20
12.2583494918
 30
0.0
 10
7.8805909015
 20
12.2573271756
 30
0.0
 10
7.8804158249
 20
12.2564353603
 30
0.0
 10
7.8800966041
 20
12.2556769728
 30
0.0
 10
7.8797795165
 20
12.2552586496
 30
0.0
 10
7.8796026241
 20
12.2550817283
 30
0.0
  0
SPLINE
  5
502
100
AcDbEntity
  8
0
100
AcDbSpline
 62
7
  6
CONTINUOUS
 70
0
 71
3
 72
30
 73
26
 74
0
 42
0.0000001
 43
0.0000001
 44
0.0000000001
 40
0.0
 40
0.0
 40
0.0
 40
0.0
 40
0.172815989
 40
0.3488628039
 40
0.4351593545
 40
0.518783482
 40
0.5986392855
 40
0.6736757166
 40
0.7428960029
 40
0.8053669167
 40
0.8602312977
 40
0.8845686952
 40
0.9067261743
 40
0.9266264731
 40
0.9442024047
 40
0.9593975594
 40
0.9721730333
 40
0.9776472569
 40
0.982513734
 40
0.9867778186
 40
0.9904501379
 40
0.9935510028
 40
0.996119065
 40
0.9982253503
 40
1.0
 40
1.0
 40
1.0
 40
1.0
 10
7.0366152522
 20
13.1137643855
 30
0.0
 10
7.0398583856
 20
13.1092834539
 30
0.0
 10
7.0463160656
 20
13.1001730389
 30
0.0
 10
7.0541754595
 20
13.0886730413
 30
0.0
 10
7.0603029352
 20
13.079449088
 30
0.0
 10
7.0646652644
 20
13.072749236
 30
0.0
 10
7.0687673743
 20
13.0663104562
 30
0.0
 10
7.0725548397
 20
13.0602183537
 30
0.0
 10
7.0759769498
 20
13.0545548868
 30
0.0
 10
7.0789868825
 20
13.0493975194
 30
0.0
 10
7.081197828
 20
13.045437929
 30
0.0
 10
7.0827221324
 20
13.0425739392
 30
0.0
 10
7.0836910716
 20
13.0406824111
 30
0.0
 10
7.0845286917
 20
13.0389671363
 30
0.0
 10
7.0852319384
 20
13.0374346805
 30
0.0
 10
7.085798037
 20
13.0360909711
 30
0.0
 10
7.0861716334
 20
13.0350871601
 30
0.0
 10
7.0863948905
 20
13.0343815918
 30
0.0
 10
7.0865178517
 20
13.0339304251
 30
0.0
 10
7.0866052091
 20
13.0335298185
 30
0.0
 10
7.0866569183
 20
13.033179983
 30
0.0
 10
7.0866730415
 20
13.0328808433
 30
0.0
 10
7.0866532808
 20
13.0326317057
 30
0.0
 10
7.0865969585
 20
13.0324312582
 30
0.0
 10
7.0865276659
 20
13.0323245015
 30
0.0
 10
7.0864875028
 20
13.0322843341
 30
0.0
  0
SPLINE
  5
503
100
AcDbEntity
  8
0
100
AcDbSpline
 62
7
  6
CONTINUOUS
 70
0
 71
3
 72
63
 73
59
 74
0
 42
0.0000001
 43
0.0000001
 44
0.0000000001
 40
0.0
 40
0.0
 40
0.0
 40
0.0
 40
0.0001853606
 40
0.0003973874
 40
0.0006545979
 40
0.0009675732
 40
0.0013421477
 40
0.0017816744
 40
0.0022881885
 40
0.0028629883
 40
0.0042204841
 40
0.0058584434
 40
0.0077784208
 40
0.0099808436
 40
0.0124655854
 40
0.0152320033
 40
0.0182788725
 40
0.0216047883
 40
0.0290873006
 40
0.0376636361
 40
0.0473151702
 40
0.0580198376
 40
0.0824888118
 40
0.1108453651
 40
0.1428267123
 40
0.178135742
 40
0.216443997
 40
0.2573949007
 40
0.3006071977
 40
0.3456785063
 40
0.3921892077
 40
0.4397062235
 40
0.4877873108
 40
0.535984897
 40
0.583850594
 40
0.6309390653
 40
0.6768124367
 40
0.7210442512
 40
0.7632234569
 40
0.8029583573
 40
0.8398801162
 40
0.8736464302
 40
0.903944619
 40
0.9177044199
 40
0.9304949269
 40
0.9422868548
 40
0.9530532119
 40
0.9627695648
 40
0.9714142389
 40
0.9789681233
 40
0.9854155986
 40
0.9907441956
 40
0.9929865871
 40
0.9949470799
 40
0.9966259266
 40
0.9980246952
 40
0.999146856
 40
1.0
 40
1.0
 40
1.0
 40
1.0
 10
10.067676963
 20
14.8180447492
 30
0.0
 10
10.0677099793
 20
14.8180777743
 30
0.0
 10
10.0677966461
 20
14.8181336056
 30
0.0
 10
10.0679599151
 20
14.8181694422
 30
0.0
 10
10.0681581036
 20
14.8181654143
 30
0.0
 10
10.0683929849
 20
14.818123077
 30
0.0
 10
10.0686657173
 20
14.81804271
 30
0.0
 10
10.0689768319
 20
14.817924131
 30
0.0
 10
10.0693265554
 20
14.8177672266
 30
0.0
 10
10.0698755348
 20
14.817490973
 30
0.0
 10
10.0706564868
 20
14.8170435674
 30
0.0
 10
10.0717027019
 20
14.8163806117
 30
0.0
 10
10.0729030555
 20
14.8155646558
 30
0.0
 10
10.0742569553
 20
14.8145961163
 30
0.0
 10
10.0757637051
 20
14.8134753304
 30
0.0
 10
10.0774225062
 20
14.8122029316
 30
0.0
 10
10.0792324871
 20
14.8107797274
 30
0.0
 10
10.0819547744
 20
14.8085948349
 30
0.0
 10
10.0857238644
 20
14.805489051
 30
0.0
 10
10.0906728737
 20
14.8013100828
 30
0.0
 10
10.0961982811
 20
14.7965560004
 30
0.0
 10
10.104704637
 20
14.7891281093
 30
0.0
 10
10.1166650454
 20
14.7784919334
 30
0.0
 10
10.1325201216
 20
14.7641702436
 30
0.0
 10
10.1503102039
 20
14.747917173
 30
0.0
 10
10.1698760886
 20
14.7298911632
 30
0.0
 10
10.1910419244
 20
14.7102669971
 30
0.0
 10
10.2136172235
 20
14.6892346544
 30
0.0
 10
10.2373984453
 20
14.6669972639
 30
0.0
 10
10.2621709247
 20
14.6437692105
 30
0.0
 10
10.2877108238
 20
14.6197741127
 30
0.0
 10
10.3137872455
 20
14.5952426937
 30
0.0
 10
10.3401643364
 20
14.5704106567
 30
0.0
 10
10.3666035297
 20
14.5455164331
 30
0.0
 10
10.3928657093
 20
14.5207990049
 30
0.0
 10
10.4187134804
 20
14.4964956269
 30
0.0
 10
10.4439133365
 20
14.4728396458
 30
0.0
 10
10.4682378486
 20
14.4500583005
 30
0.0
 10
10.4914677616
 20
14.4283705961
 30
0.0
 10
10.5133940205
 20
14.4079852793
 30
0.0
 10
10.5338196622
 20
14.3890987826
 30
0.0
 10
10.5525617409
 20
14.3718935934
 30
0.0
 10
10.5670682946
 20
14.3587035123
 30
0.0
 10
10.5777139129
 20
14.3491227609
 30
0.0
 10
10.5849195844
 20
14.3426894275
 30
0.0
 10
10.5915907842
 20
14.3367899464
 30
0.0
 10
10.5977128795
 20
14.3314388292
 30
0.0
 10
10.6032724591
 20
14.3266492098
 30
0.0
 10
10.6082573689
 20
14.3224328885
 30
0.0
 10
10.6126567177
 20
14.3187999687
 30
0.0
 10
10.6164610066
 20
14.3157594461
 30
0.0
 10
10.619268767
 20
14.3136161916
 30
0.0
 10
10.6212171719
 20
14.3122124029
 30
0.0
 10
10.6224392614
 20
14.3113740735
 30
0.0
 10
10.6235075499
 20
14.3106883037
 30
0.0
 10
10.6244218835
 20
14.310154613
 30
0.0
 10
10.6251817014
 20
14.3097728324
 30
0.0
 10
10.6256481027
 20
14.3095931006
 30
0.0
 10
10.6258557471
 20
14.3095375963
 30
0.0
  0
SPLINE
  5
504
100
AcDbEntity
  8
0
100
AcDbSpline
 62
9
  6
CONTINUOUS
 70
0
 71
3
 72
12
 73
8
 74
0
 42
0.0000001
 43
0.0000001
 44
0.0000000001
 40
0.0
 40
0.0
 40
0.0
 40
0.0
 40
0.3418218444
 40
0.6224516434
 40
0.8417286972
 40
0.9284259298
 40
1.0
 40
1.0
 40
1.0
 40
1.0
 10
8.5222864727
 20
11.4484263002
 30
0.0
 10
8.5227319667
 20
11.4481619963
 30
0.0
 10
8.5235485413
 20
11.447689429
 30
0.0
 10
8.524673726
 20
11.4470882645
 30
0.0
 10
8.5254782722
 20
11.4467080526
 30
0.0
 10
8.5260119309
 20
11.4465012024
 30
0.0
 10
8.5262410708
 20
11.4464292016
 30
0.0
 10
8.5263461749
 20
11.4464024162
 30
0.0
  0
SPLINE
  5
505
100
AcDbEntity
  8
0
100
AcDbSpline
 62
9
  6
CONTINUOUS
 70
0
 71
3
 72
18
 73
14
 74
0
 42
0.0000001
 43
0.0000001
 44
0.0000000001
 40
0.0
 40
0.0
 40
0.0
 40
0.0
 40
0.1564489586
 40
0.2737819981
 40
0.3200039569
 40
0.3600492947
 40
0.3966934219
 40
0.4335121466
 40
0.4740517793
 40
0.5210123091
 40
0.6402877208
 40
0.7990125225
 40
1.0
 40
1.0
 40
1.0
 40
1.0
 10
8.5263461749
 20
11.4464024162
 30
0.0
 10
8.5264321683
 20
11.4463805011
 30
0.0
 10
8.5265843488
 20
11.4463487858
 30
0.0
 10
8.5267678987
 20
11.4463411939
 30
0.0
 10
8.5268814202
 20
11.4463660257
 30
0.0
 10
8.526945053
 20
11.44639648
 30
0.0
 10
8.5269930592
 20
11.4464410926
 30
0.0
 10
8.527023669
 20
11.4464993414
 30
0.0
 10
8.5270368878
 20
11.4465694191
 30
0.0
 10
8.5270323844
 20
11.4466873069
 30
0.0
 10
8.5269795837
 20
11.4468660966
 30
0.0
 10
8.5268622122
 20
11.4471114034
 30
0.0
 10
8.5267562227
 20
11.4472861722
 30
0.0
 10
8.5266943054
 20
11.4473818981
 30
0.0
  0
SPLINE
  5
506
100
AcDbEntity
  8
0
100
AcDbSpline
 62
9
  6
CONTINUOUS
 70
0
 71
3
 72
12
 73
8
 74
0
 42
0.0000001
 43
0.0000001
 44
0.0000000001
 40
0.0
 40
0.0
 40
0.0
 40
0.0
 40
0.0766000672
 40
0.1669964518
 40
0.3894503493
 40
0.6674232244
 40
1.0
 40
1.0
 40
1.0
 40
1.0
 10
8.5266943054
 20
11.4473818981
 30
0.0
 10
8.5266190917
 20
11.4474981807
 30
0.0
 10
8.5264460204
 20
11.4477458071
 30
0.0
 10
8.5260163795
 20
11.4483038084
 30
0.0
 10
8.5253204081
 20
11.4491149439
 30
0.0
 10
8.5242953443
 20
11.4502184727
 30
0.0
 10
8.5235219763
 20
11.4510062887
 30
0.0
 10
8.52309684
 20
11.4514314827
 30
0.0
  0
LINE
  5
507
100
AcDbEntity
  8
0
100
AcDbLine
 62
7
  6
CONTINUOUS
 10
10.105121683
 20
14.8571912735
 11
10.1073030048
 21
14.8561320349
  0
SPLINE
  5
508
100
AcDbEntity
  8
0
100
AcDbSpline
 62
7
  6
CONTINUOUS
 70
0
 71
3
 72
58
 73
54
 74
0
 42
0.0000001
 43
0.0000001
 44
0.0000000001
 40
0.0
 40
0.0
 40
0.0
 40
0.0
 40
0.0016130376
 40
0.0034964564
 40
0.0056506413
 40
0.0080754739
 40
0.0137341233
 40
0.0204632636
 40
0.028250252
 40
0.0370787983
 40
0.0469303156
 40
0.0577833232
 40
0.0823967983
 40
0.1107024466
 40
0.142449599
 40
0.1773563613
 40
0.2151124514
 40
0.2553820373
 40
0.2978068181
 40
0.3420093085
 40
0.4341617538
 40
0.5285672255
 40
0.575567473
 40
0.6218747664
 40
0.667077522
 40
0.7107741022
 40
0.7525764962
 40
0.7921135722
 40
0.8290346915
 40
0.8630125595
 40
0.8937464723
 40
0.9209649241
 40
0.9444283575
 40
0.9546865785
 40
0.9639319573
 40
0.9721450031
 40
0.9793084178
 40
0.982492107
 40
0.9854084173
 40
0.9880559982
 40
0.9904339984
 40
0.9925419221
 40
0.9943795969
 40
0.9959474951
 40
0.9972474657
 40
0.9977981939
 40
0.9982837351
 40
0.9987053569
 40
0.9990650491
 40
0.9993661109
 40
0.9996142601
 40
0.9998196908
 40
1.0
 40
1.0
 40
1.0
 40
1.0
 10
10.1073030048
 20
14.8561320349
 30
0.0
 10
10.1076514643
 20
14.8559217408
 30
0.0
 10
10.1083959737
 20
14.8554479618
 30
0.0
 10
10.1095745867
 20
14.8546454369
 30
0.0
 10
10.110900635
 20
14.8536963211
 30
0.0
 10
10.1129733949
 20
14.8521546138
 30
0.0
 10
10.1159217105
 20
14.8498569173
 30
0.0
 10
10.1198767445
 20
14.8466518847
 30
0.0
 10
10.124400914
 20
14.8428797336
 30
0.0
 10
10.1294849217
 20
14.8385494653
 30
0.0
 10
10.1351180218
 20
14.8336712097
 30
0.0
 10
10.1437124693
 20
14.8261289472
 30
0.0
 10
10.1557192564
 20
14.8154163117
 30
0.0
 10
10.1715568761
 20
14.8010794868
 30
0.0
 10
10.1892345043
 20
14.7849058242
 30
0.0
 10
10.2086009186
 20
14.7670458651
 30
0.0
 10
10.2294897711
 20
14.7476650523
 30
0.0
 10
10.2517213706
 20
14.7269426163
 30
0.0
 10
10.2751041659
 20
14.7050697882
 30
0.0
 10
10.3080060764
 20
14.6742101589
 30
0.0
 10
10.3504165191
 20
14.6343164737
 30
0.0
 10
10.3933126273
 20
14.5939088489
 30
0.0
 10
10.4277969147
 20
14.561441606
 30
0.0
 10
10.4532529324
 20
14.5374958722
 30
0.0
 10
10.4781190044
 20
14.5141395901
 30
0.0
 10
10.5021806102
 20
14.4915871197
 30
0.0
 10
10.5252304016
 20
14.4700455968
 30
0.0
 10
10.5470700716
 20
14.4497130592
 30
0.0
 10
10.5675120404
 20
14.4307766862
 30
0.0
 10
10.5863811792
 20
14.4134111142
 30
0.0
 10
10.6035161328
 20
14.3977766604
 30
0.0
 10
10.6187711319
 20
14.3840183464
 30
0.0
 10
10.6302710704
 20
14.3738109708
 30
0.0
 10
10.6384452672
 20
14.3666892379
 30
0.0
 10
10.6437523492
 20
14.3621346997
 30
0.0
 10
10.6485048362
 20
14.358133365
 30
0.0
 10
10.6521240931
 20
14.3551611911
 30
0.0
 10
10.6547380515
 20
14.3530713965
 30
0.0
 10
10.6564759595
 20
14.3517107041
 30
0.0
 10
10.6580688078
 20
14.3504947211
 30
0.0
 10
10.6595158106
 20
14.3494241264
 30
0.0
 10
10.6608162592
 20
14.3484994679
 30
0.0
 10
10.6619694997
 20
14.3477210679
 30
0.0
 10
10.6629750232
 20
14.347089317
 30
0.0
 10
10.663725905
 20
14.3466636655
 30
0.0
 10
10.6642540101
 20
14.346401436
 30
0.0
 10
10.6645906657
 20
14.3462527954
 30
0.0
 10
10.6648903341
 20
14.3461408735
 30
0.0
 10
10.6651532398
 20
14.3460655723
 30
0.0
 10
10.6653799043
 20
14.3460267353
 30
0.0
 10
10.6655714362
 20
14.3460246267
 30
0.0
 10
10.6657294361
 20
14.3460607665
 30
0.0
 10
10.6658133967
 20
14.3461153293
 30
0.0
 10
10.665845569
 20
14.3461474969
 30
0.0
  0
LINE
  5
509
100
AcDbEntity
  8
0
100
AcDbLine
 62
7
  6
CONTINUOUS
 10
10.1541351745
 20
14.9091923023
 11
10.1567853706
 21
14.9078415841
  0
SPLINE
  5
50A
100
AcDbEntity
  8
0
100
AcDbSpline
 62
7
  6
CONTINUOUS
 70
0
 71
3
 72
57
 73
53
 74
0
 42
0.0000001
 43
0.0000001
 44
0.0000000001
 40
0.0
 40
0.0
 40
0.0
 40
0.0
 40
0.0017304569
 40
0.0037299219
 40
0.0085354899
 40
0.0144124886
 40
0.0213506653
 40
0.0293367642
 40
0.0383540486
 40
0.0483835721
 40
0.0594035169
 40
0.0843168046
 40
0.1128758996
 40
0.1448295147
 40
0.1798959565
 40
0.2177657091
 40
0.2581043629
 40
0.3005556187
 40
0.3447444607
 40
0.436761725
 40
0.5309125428
 40
0.5777509327
 40
0.6238791574
 40
0.6688901949
 40
0.7123869931
 40
0.7539859371
 40
0.7933204386
 40
0.8300439263
 40
0.8638332491
 40
0.8943913226
 40
0.9214500797
 40
0.9447729831
 40
0.9549689007
 40
0.9641577717
 40
0.9723202485
 40
0.9794393308
 40
0.9826031981
 40
0.9855013254
 40
0.9881323856
 40
0.9904954724
 40
0.9925901305
 40
0.9944162328
 40
0.9959742301
 40
0.9972659041
 40
0.9978130884
 40
0.9982954875
 40
0.9987143631
 40
0.9990716925
 40
0.9993707318
 40
0.9996171467
 40
0.9998210691
 40
1.0
 40
1.0
 40
1.0
 40
1.0
 10
10.1567853706
 20
14.9078415841
 30
0.0
 10
10.1571562313
 20
14.907607452
 30
0.0
 10
10.1579455405
 20
14.9070868262
 30
0.0
 10
10.159718571
 20
14.9058470631
 30
0.0
 10
10.1622930274
 20
14.9039214059
 30
0.0
 10
10.1658013237
 20
14.9011575816
 30
0.0
 10
10.1698842818
 20
14.8978219209
 30
0.0
 10
10.1745334702
 20
14.8939223318
 30
0.0
 10
10.1797391902
 20
14.8894676188
 30
0.0
 10
10.1854905737
 20
14.8844683104
 30
0.0
 10
10.1942347466
 20
14.8767711901
 30
0.0
 10
10.2064193098
 20
14.8658752714
 30
0.0
 10
10.2224585001
 20
14.8513314534
 30
0.0
 10
10.2403206772
 20
14.8349676846
 30
0.0
 10
10.2598540484
 20
14.8169351089
 30
0.0
 10
10.2808919934
 20
14.7973995003
 30
0.0
 10
10.3032547892
 20
14.776540143
 30
0.0
 10
10.3267510994
 20
14.7545480724
 30
0.0
 10
10.3597700734
 20
14.7235628478
 30
0.0
 10
10.4022880502
 20
14.6835516
 30
0.0
 10
10.4452681482
 20
14.6430515933
 30
0.0
 10
10.4797925704
 20
14.610537296
 30
0.0
 10
10.5052612998
 20
14.5865733355
 30
0.0
 10
10.5301306629
 20
14.5632082922
 30
0.0
 10
10.5541876073
 20
14.5406550606
 30
0.0
 10
10.5772262822
 20
14.5191192815
 30
0.0
 10
10.5990498248
 20
14.4987975485
 30
0.0
 10
10.6194721047
 20
14.4798755951
 30
0.0
 10
10.6383193317
 20
14.4625267192
 30
0.0
 10
10.6554314421
 20
14.4469099502
 30
0.0
 10
10.6706638281
 20
14.4331691527
 30
0.0
 10
10.6821454891
 20
14.4229757128
 30
0.0
 10
10.6903059318
 20
14.4158642343
 30
0.0
 10
10.6956036471
 20
14.4113165382
 30
0.0
 10
10.7003475343
 20
14.40732131
 30
0.0
 10
10.703960085
 20
14.4043536917
 30
0.0
 10
10.7065691094
 20
14.402267108
 30
0.0
 10
10.7083036785
 20
14.4009085108
 30
0.0
 10
10.7098934266
 20
14.3996943803
 30
0.0
 10
10.7113375759
 20
14.3986254045
 30
0.0
 10
10.7126354204
 20
14.3977021215
 30
0.0
 10
10.7137863178
 20
14.396924837
 30
0.0
 10
10.714789755
 20
14.3962939407
 30
0.0
 10
10.715539049
 20
14.3958688218
 30
0.0
 10
10.7160660077
 20
14.3956068787
 30
0.0
 10
10.7164019136
 20
14.3954583758
 30
0.0
 10
10.7167009042
 20
14.3953465217
 30
0.0
 10
10.7169631999
 20
14.395271213
 30
0.0
 10
10.7171893193
 20
14.3952323003
 30
0.0
 10
10.7173803661
 20
14.3952300546
 30
0.0
 10
10.7175379451
 20
14.3952659872
 30
0.0
 10
10.717621671
 20
14.3953203676
 30
0.0
 10
10.7176537382
 20
14.395352435
 30
0.0
  0
SPLINE
  5
50B
100
AcDbEntity
  8
0
100
AcDbSpline
 62
7
  6
CONTINUOUS
 70
0
 71
3
 72
11
 73
7
 74
0
 42
0.0000001
 43
0.0000001
 44
0.0000000001
 40
0.0
 40
0.0
 40
0.0
 40
0.0
 40
0.174829789
 40
0.3989433883
 40
0.6737634963
 40
1.0
 40
1.0
 40
1.0
 40
1.0
 10
10.2033746363
 20
14.9609677419
 30
0.0
 10
10.2035523419
 20
14.9609202335
 30
0.0
 10
10.20394729
 20
14.960773642
 30
0.0
 10
10.2045861227
 20
14.9604655673
 30
0.0
 10
10.2053437115
 20
14.9600405345
 30
0.0
 10
10.2058815483
 20
14.9597076312
 30
0.0
 10
10.20617075
 20
14.9595227477
 30
0.0
  0
SPLINE
  5
50C
100
AcDbEntity
  8
0
100
AcDbSpline
 62
7
  6
CONTINUOUS
 70
0
 71
3
 72
57
 73
53
 74
0
 42
0.0000001
 43
0.0000001
 44
0.0000000001
 40
0.0
 40
0.0
 40
0.0
 40
0.0
 40
0.0017625579
 40
0.0037937727
 40
0.0086614649
 40
0.0145984079
 40
0.0215941158
 40
0.0296351579
 40
0.0387046427
 40
0.0487835112
 40
0.0598498881
 40
0.0848469988
 40
0.113477467
 40
0.1454898589
 40
0.1806023837
 40
0.2185057016
 40
0.258865697
 40
0.3013265204
 40
0.3455138057
 40
0.4374975688
 40
0.5315806907
 40
0.5783750914
 40
0.6244542025
 40
0.6694122086
 40
0.7128532916
 40
0.7543952134
 40
0.7936724974
 40
0.8303399556
 40
0.8640754655
 40
0.8945831459
 40
0.9215958947
 40
0.9448780741
 40
0.9550558903
 40
0.9642282487
 40
0.9723758858
 40
0.979481877
 40
0.9826398772
 40
0.9855325886
 40
0.9881586835
 40
0.9905172633
 40
0.9926078698
 40
0.9944303683
 40
0.995985202
 40
0.9972741397
 40
0.9978201034
 40
0.9983013708
 40
0.9987191928
 40
0.9990755312
 40
0.9993736209
 40
0.9996190994
 40
0.9998220634
 40
1.0
 40
1.0
 40
1.0
 40
1.0
 10
10.20617075
 20
14.9595227477
 30
0.0
 10
10.2065488683
 20
14.9592810207
 30
0.0
 10
10.2073528499
 20
14.9587452292
 30
0.0
 10
10.209155707
 20
14.9574747583
 30
0.0
 10
10.2117684557
 20
14.9555102079
 30
0.0
 10
10.2153238114
 20
14.9526989231
 30
0.0
 10
10.2194550435
 20
14.9493145104
 30
0.0
 10
10.2241536249
 20
14.945364978
 30
0.0
 10
10.2294097664
 20
14.9408592575
 30
0.0
 10
10.2352125084
 20
14.935807976
 30
0.0
 10
10.244026629
 20
14.9280397129
 30
0.0
 10
10.2563003924
 20
14.9170533236
 30
0.0
 10
10.2724483348
 20
14.9023995227
 30
0.0
 10
10.290420817
 20
14.885924163
 30
0.0
 10
10.3100653491
 20
14.8677790939
 30
0.0
 10
10.3312146227
 20
14.8481307902
 30
0.0
 10
10.3536882595
 20
14.827159198
 30
0.0
 10
10.3772942958
 20
14.8050559828
 30
0.0
 10
10.4104555293
 20
14.7739263269
 30
0.0
 10
10.453144426
 20
14.7337415494
 30
0.0
 10
10.4962901769
 20
14.6930736644
 30
0.0
 10
10.5309396196
 20
14.6604324628
 30
0.0
 10
10.556495504
 20
14.6363798137
 30
0.0
 10
10.5814471399
 20
14.6129309514
 30
0.0
 10
10.6055811811
 20
14.5902990655
 30
0.0
 10
10.6286914984
 20
14.5686900752
 30
0.0
 10
10.6505810206
 20
14.5483007846
 30
0.0
 10
10.6710633948
 20
14.5293171489
 30
0.0
 10
10.6899646847
 20
14.511912615
 30
0.0
 10
10.7071246688
 20
14.49624637
 30
0.0
 10
10.722398632
 20
14.4824623877
 30
0.0
 10
10.7339109454
 20
14.4722369106
 30
0.0
 10
10.7420926857
 20
14.4651030022
 30
0.0
 10
10.7474039519
 20
14.4605409354
 30
0.0
 10
10.7521597537
 20
14.4565329706
 30
0.0
 10
10.755781207
 20
14.4535557447
 30
0.0
 10
10.7583965351
 20
14.4514622851
 30
0.0
 10
10.7601352208
 20
14.4500991567
 30
0.0
 10
10.7617286735
 20
14.4488809075
 30
0.0
 10
10.7631761143
 20
14.4478082247
 30
0.0
 10
10.7644768374
 20
14.4468816469
 30
0.0
 10
10.7656301993
 20
14.4461014809
 30
0.0
 10
10.7666356877
 20
14.4454681164
 30
0.0
 10
10.7673864346
 20
14.4450411828
 30
0.0
 10
10.7679143569
 20
14.4447779887
 30
0.0
 10
10.7682508244
 20
14.4446287114
 30
0.0
 10
10.7685502715
 20
14.4445161852
 30
0.0
 10
10.7688129177
 20
14.4444403058
 30
0.0
 10
10.7690392831
 20
14.4444009191
 30
0.0
 10
10.7692304765
 20
14.444398289
 30
0.0
 10
10.7693881316
 20
14.4444339212
 30
0.0
 10
10.7694718809
 20
14.4444882085
 30
0.0
 10
10.7695039174
 20
14.4445202446
 30
0.0
  0
SPLINE
  5
50D
100
AcDbEntity
  8
0
100
AcDbSpline
 62
7
  6
CONTINUOUS
 70
0
 71
3
 72
57
 73
53
 74
0
 42
0.0000001
 43
0.0000001
 44
0.0000000001
 40
0.0
 40
0.0
 40
0.0
 40
0.0
 40
0.0001800507
 40
0.0003849245
 40
0.0006320894
 40
0.0009316955
 40
0.0012894105
 40
0.0017085171
 40
0.0021910197
 40
0.0027382022
 40
0.0040296264
 40
0.0055871075
 40
0.0074123216
 40
0.0095057686
 40
0.0118673994
 40
0.0144967664
 40
0.0173928444
 40
0.0205543575
 40
0.02766798
 40
0.0358236772
 40
0.0450046388
 40
0.0551912636
 40
0.0784917216
 40
0.1055225454
 40
0.1360471168
 40
0.1697973554
 40
0.2064764044
 40
0.2457614565
 40
0.2873065296
 40
0.3307458196
 40
0.3756966822
 40
0.42176332
 40
0.4685400516
 40
0.5625740236
 40
0.6544955114
 40
0.6986494939
 40
0.7410774706
 40
0.7814065695
 40
0.8192826636
 40
0.8543733438
 40
0.8863710387
 40
0.9149957143
 40
0.9399975648
 40
0.9510707623
 40
0.9611596838
 40
0.9702425689
 40
0.9783005415
 40
0.9853168465
 40
0.9912781803
 40
0.9961741134
 40
0.9982209047
 40
1.0
 40
1.0
 40
1.0
 40
1.0
 10
10.1169713444
 20
14.86976378
 30
0.0
 10
10.1170034315
 20
14.8697958751
 30
0.0
 10
10.1170870232
 20
14.869850379
 30
0.0
 10
10.117244302
 20
14.8698868294
 30
0.0
 10
10.1174348877
 20
14.8698852803
 30
0.0
 10
10.117660323
 20
14.8698472632
 30
0.0
 10
10.1179216988
 20
14.8697730825
 30
0.0
 10
10.1182195247
 20
14.8696625872
 30
0.0
 10
10.1185540254
 20
14.8695156752
 30
0.0
 10
10.1190786284
 20
14.8692563223
 30
0.0
 10
10.1198244279
 20
14.8688349939
 30
0.0
 10
10.1208229722
 20
14.8682093013
 30
0.0
 10
10.121968044
 20
14.8674381678
 30
0.0
 10
10.1232591136
 20
14.8665219665
 30
0.0
 10
10.1246955594
 20
14.8654609829
 30
0.0
 10
10.1262766656
 20
14.8642557597
 30
0.0
 10
10.1280016561
 20
14.8629070105
 30
0.0
 10
10.1305960383
 20
14.860835417
 30
0.0
 10
10.1341879383
 20
14.8578888218
 30
0.0
 10
10.138904291
 20
14.8539215551
 30
0.0
 10
10.1441707396
 20
14.8494054679
 30
0.0
 10
10.1522822442
 20
14.8423433475
 30
0.0
 10
10.1636938077
 20
14.8322203572
 30
0.0
 10
10.1788317227
 20
14.8185742645
 30
0.0
 10
10.1958360244
 20
14.803065319
 30
0.0
 10
10.2145629126
 20
14.7858365795
 30
0.0
 10
10.2348532894
 20
14.7670461027
 30
0.0
 10
10.2565345181
 20
14.746866031
 30
0.0
 10
10.2794217889
 20
14.7254807733
 30
0.0
 10
10.3033197319
 20
14.7030854281
 30
0.0
 10
10.3280241574
 20
14.6798839726
 30
0.0
 10
10.3533238138
 20
14.6560874984
 30
0.0
 10
10.3876203805
 20
14.62379867
 30
0.0
 10
10.4303209262
 20
14.5835747868
 30
0.0
 10
10.472566224
 20
14.5438317486
 30
0.0
 10
10.5053801078
 20
14.513047356
 30
0.0
 10
10.5287379726
 20
14.4911904728
 30
0.0
 10
10.5509757654
 20
14.47045263
 30
0.0
 10
10.5719043273
 20
14.4510226918
 30
0.0
 10
10.591346016
 20
14.4330778717
 30
0.0
 10
10.6091361355
 20
14.4167820438
 30
0.0
 10
10.6251246432
 20
14.4022846182
 30
0.0
 10
10.637280778
 20
14.391412896
 30
0.0
 10
10.6460138446
 20
14.3837230364
 30
0.0
 10
10.6517663219
 20
14.3787201689
 30
0.0
 10
10.6569794562
 20
14.3742555611
 30
0.0
 10
10.6616424732
 20
14.3703396545
 30
0.0
 10
10.6657457718
 20
14.3669812268
 30
0.0
 10
10.6692809681
 20
14.3641881406
 30
0.0
 10
10.671881701
 20
14.3622336907
 30
0.0
 10
10.6736787942
 20
14.3609671201
 30
0.0
 10
10.6744812125
 20
14.360431906
 30
0.0
 10
10.6748588633
 20
14.360190084
 30
0.0
  0
SPLINE
  5
50E
100
AcDbEntity
  8
0
100
AcDbSpline
 62
7
  6
CONTINUOUS
 70
0
 71
3
 72
11
 73
7
 74
0
 42
0.0000001
 43
0.0000001
 44
0.0000000001
 40
0.0
 40
0.0
 40
0.0
 40
0.0
 40
0.3265166326
 40
0.6014298808
 40
0.8254488451
 40
1.0
 40
1.0
 40
1.0
 40
1.0
 10
10.6748588633
 20
14.360190084
 30
0.0
 10
10.6751527291
 20
14.3600019123
 30
0.0
 10
10.6756991095
 20
14.3596631434
 30
0.0
 10
10.6764685395
 20
14.359230667
 30
0.0
 10
10.6771169167
 20
14.3589173875
 30
0.0
 10
10.6775176324
 20
14.3587683955
 30
0.0
 10
10.6776978454
 20
14.3587202113
 30
0.0
  0
SPLINE
  5
50F
100
AcDbEntity
  8
0
100
AcDbSpline
 62
7
  6
CONTINUOUS
 70
0
 71
3
 72
58
 73
54
 74
0
 42
0.0000001
 43
0.0000001
 44
0.0000000001
 40
0.0
 40
0.0
 40
0.0
 40
0.0
 40
0.0001798085
 40
0.0003848754
 40
0.0006328507
 40
0.0009339265
 40
0.0012938048
 40
0.0017157674
 40
0.0022017925
 40
0.0027531391
 40
0.0040547256
 40
0.0056247144
 40
0.0074649177
 40
0.0095757749
 40
0.0119570939
 40
0.0146083613
 40
0.0175286959
 40
0.0207167274
 40
0.0278897313
 40
0.0361134149
 40
0.0453703147
 40
0.0556407501
 40
0.0791301046
 40
0.106375325
 40
0.1371354916
 40
0.1711379276
 40
0.208080666
 40
0.2476355197
 40
0.2894508889
 40
0.333155056
 40
0.3783595508
 40
0.424662489
 40
0.4716524142
 40
0.566020438
 40
0.6581176508
 40
0.7022883434
 40
0.7446802366
 40
0.7849172757
 40
0.822642671
 40
0.8575222113
 40
0.8892471554
 40
0.9175372386
 40
0.942143202
 40
0.9529959159
 40
0.9628496685
 40
0.9716830774
 40
0.9794776785
 40
0.9862172844
 40
0.991889307
 40
0.9943219088
 40
0.9964845734
 40
0.9983771576
 40
1.0
 40
1.0
 40
1.0
 40
1.0
 10
10.1659895356
 20
14.9217651273
 30
0.0
 10
10.1660217827
 20
14.9217973701
 30
0.0
 10
10.1661060624
 20
14.9218520121
 30
0.0
 10
10.1662647024
 20
14.9218879163
 30
0.0
 10
10.1664570737
 20
14.9218853356
 30
0.0
 10
10.1666848157
 20
14.9218457893
 30
0.0
 10
10.1669490459
 20
14.9217695366
 30
0.0
 10
10.1672502878
 20
14.9216564178
 30
0.0
 10
10.1675887643
 20
14.9215063328
 30
0.0
 10
10.1681198152
 20
14.9212416996
 30
0.0
 10
10.1688749731
 20
14.9208124126
 30
0.0
 10
10.1698863296
 20
14.9201755461
 30
0.0
 10
10.1710463658
 20
14.9193910577
 30
0.0
 10
10.1723545601
 20
14.9184593503
 30
0.0
 10
10.1738102457
 20
14.9173807563
 30
0.0
 10
10.1754126999
 20
14.9161558351
 30
0.0
 10
10.1771611238
 20
14.9147852808
 30
0.0
 10
10.179790908
 20
14.9126805435
 30
0.0
 10
10.1834321024
 20
14.9096874765
 30
0.0
 10
10.1882134141
 20
14.9056584791
 30
0.0
 10
10.1935525843
 20
14.9010729529
 30
0.0
 10
10.2017757205
 20
14.8939037021
 30
0.0
 10
10.2133438389
 20
14.8836297226
 30
0.0
 10
10.2286882696
 20
14.8697835954
 30
0.0
 10
10.2459218936
 20
14.8540518477
 30
0.0
 10
10.2648975186
 20
14.8365809205
 30
0.0
 10
10.2854523718
 20
14.817532548
 30
0.0
 10
10.3074098706
 20
14.7970828177
 30
0.0
 10
10.3305810404
 20
14.7754203046
 30
0.0
 10
10.3547662004
 20
14.7527444192
 30
0.0
 10
10.379756711
 20
14.7292635891
 30
0.0
 10
10.4053368515
 20
14.705193376
 30
0.0
 10
10.4399829315
 20
14.6725634169
 30
0.0
 10
10.4830732308
 20
14.6319598938
 30
0.0
 10
10.5256711876
 20
14.5918764282
 30
0.0
 10
10.5587138745
 20
14.5608736597
 30
0.0
 10
10.5821942475
 20
14.5389012123
 30
0.0
 10
10.6045176263
 20
14.5180847268
 30
0.0
 10
10.6254923042
 20
14.4986155967
 30
0.0
 10
10.6449385161
 20
14.4806731318
 30
0.0
 10
10.6626899353
 20
14.4644227661
 30
0.0
 10
10.6785954022
 20
14.4500149877
 30
0.0
 10
10.6906549715
 20
14.4392466432
 30
0.0
 10
10.6992887112
 20
14.4316625201
 30
0.0
 10
10.7049492446
 20
14.4267550157
 30
0.0
 10
10.7100593045
 20
14.4223968411
 30
0.0
 10
10.7146081625
 20
14.4185981179
 30
0.0
 10
10.7185865447
 20
14.41536783
 30
0.0
 10
10.7215534168
 20
14.4130497872
 30
0.0
 10
10.7236403178
 20
14.4114923483
 30
0.0
 10
10.7249765413
 20
14.4105320386
 30
0.0
 10
10.7261650036
 20
14.4097186502
 30
0.0
 10
10.7269159143
 20
14.4092375786
 30
0.0
 10
10.727267513
 20
14.4090236449
 30
0.0
  0
LINE
  5
510
100
AcDbEntity
  8
0
100
AcDbLine
 62
7
  6
CONTINUOUS
 10
10.727267513
 20
14.4090236449
 11
10.7295096277
 21
14.407925425
  0
SPLINE
  5
511
100
AcDbEntity
  8
0
100
AcDbSpline
 62
7
  6
CONTINUOUS
 70
0
 71
3
 72
62
 73
58
 74
0
 42
0.0000001
 43
0.0000001
 44
0.0000000001
 40
0.0
 40
0.0
 40
0.0
 40
0.0
 40
0.000179332
 40
0.0003841777
 40
0.0006322831
 40
0.000933842
 40
0.0012945357
 40
0.0017176574
 40
0.0022051834
 40
0.0027583555
 40
0.0040645078
 40
0.0056401923
 40
0.0074872098
 40
0.009606066
 40
0.0119964942
 40
0.014657904
 40
0.0175894537
 40
0.0207898038
 40
0.0279904472
 40
0.0362457701
 40
0.0455380779
 40
0.0558476202
 40
0.0794252042
 40
0.106770589
 40
0.1376408954
 40
0.1717611457
 40
0.2088270689
 40
0.2485077976
 40
0.2904491604
 40
0.3342766081
 40
0.3795988964
 40
0.4260113636
 40
0.4730997061
 40
0.5204436994
 40
0.5676208304
 40
0.6142103042
 40
0.6597965428
 40
0.7039731747
 40
0.7463464291
 40
0.7865388629
 40
0.8241926128
 40
0.858972718
 40
0.8905700594
 40
0.918704503
 40
0.9313937365
 40
0.9431267027
 40
0.9538786209
 40
0.9636239256
 40
0.9723379916
 40
0.9800126024
 40
0.9866426851
 40
0.9895499663
 40
0.992172158
 40
0.9945028585
 40
0.9965621769
 40
0.9983829695
 40
1.0
 40
1.0
 40
1.0
 40
1.0
 10
10.2152325882
 20
14.9735408353
 30
0.0
 10
10.2152649209
 20
14.9735731576
 30
0.0
 10
10.2153496126
 20
14.9736278572
 30
0.0
 10
10.2155090752
 20
14.973663359
 30
0.0
 10
10.2157025367
 20
14.9736600665
 30
0.0
 10
10.2159316922
 20
14.9736194961
 30
0.0
 10
10.2161976781
 20
14.9735419008
 30
0.0
 10
10.2165010243
 20
14.9734270913
 30
0.0
 10
10.2168419593
 20
14.9732749647
 30
0.0
 10
10.2173770235
 20
14.9730069319
 30
0.0
 10
10.2181380273
 20
14.9725725262
 30
0.0
 10
10.2191573893
 20
14.9719284965
 30
0.0
 10
10.2203267998
 20
14.9711354863
 30
0.0
 10
10.2216457285
 20
14.9701938829
 30
0.0
 10
10.2231135026
 20
14.9691040444
 30
0.0
 10
10.2247293816
 20
14.9678665531
 30
0.0
 10
10.2264925587
 20
14.9664820987
 30
0.0
 10
10.2291446589
 20
14.9643562165
 30
0.0
 10
10.2328169675
 20
14.9613334964
 30
0.0
 10
10.2376393482
 20
14.9572651045
 30
0.0
 10
10.2430245538
 20
14.9526352315
 30
0.0
 10
10.2513185584
 20
14.9453974351
 30
0.0
 10
10.2629863334
 20
14.9350266509
 30
0.0
 10
10.2784626391
 20
14.921051949
 30
0.0
 10
10.2958433039
 20
14.9051764557
 30
0.0
 10
10.3149791889
 20
14.8875485543
 30
0.0
 10
10.3357053622
 20
14.8683321348
 30
0.0
 10
10.357842961
 20
14.847705565
 30
0.0
 10
10.3812005682
 20
14.82585986
 30
0.0
 10
10.4055759885
 20
14.8029969448
 30
0.0
 10
10.4307579831
 20
14.7793278468
 30
0.0
 10
10.456528189
 20
14.7550707631
 30
0.0
 10
10.4826630442
 20
14.7304491156
 30
0.0
 10
10.5089357834
 20
14.7056895439
 30
0.0
 10
10.5351184766
 20
14.6810198585
 30
0.0
 10
10.5609840278
 20
14.6566670316
 30
0.0
 10
10.5863082392
 20
14.6328551262
 30
0.0
 10
10.610871761
 20
14.6098033325
 30
0.0
 10
10.6344620815
 20
14.5877239649
 30
0.0
 10
10.6568753781
 20
14.5668205897
 30
0.0
 10
10.6779183415
 20
14.5472861619
 30
0.0
 10
10.697409848
 20
14.5293012911
 30
0.0
 10
10.7151825932
 20
14.5130325872
 30
0.0
 10
10.7288671537
 20
14.5006387759
 30
0.0
 10
10.738849293
 20
14.4917013368
 30
0.0
 10
10.7455566066
 20
14.4857497427
 30
0.0
 10
10.7517323434
 20
14.4803300145
 30
0.0
 10
10.7573621577
 20
14.4754552337
 30
0.0
 10
10.7624334307
 20
14.4711341626
 30
0.0
 10
10.7669409171
 20
14.4673763412
 30
0.0
 10
10.7703564708
 20
14.4646213082
 30
0.0
 10
10.772797473
 20
14.4627105176
 30
0.0
 10
10.7743877733
 20
14.461491332
 30
0.0
 10
10.7758177282
 20
14.4604184437
 30
0.0
 10
10.7771012837
 20
14.4594910881
 30
0.0
 10
10.7782618966
 20
14.4587051658
 30
0.0
 10
10.7790099294
 20
14.4582474119
 30
0.0
 10
10.7793687458
 20
14.4580444584
 30
0.0
  0
LINE
  5
512
100
AcDbEntity
  8
0
100
AcDbLine
 62
7
  6
CONTINUOUS
 10
10.7793687458
 20
14.4580444584
 11
10.7817079117
 21
14.4570013975
  0
SPLINE
  5
513
100
AcDbEntity
  8
0
100
AcDbSpline
 62
7
  6
CONTINUOUS
 70
0
 71
3
 72
41
 73
37
 74
0
 42
0.0000001
 43
0.0000001
 44
0.0000000001
 40
0.0
 40
0.0
 40
0.0
 40
0.0
 40
0.0001758165
 40
0.0003962273
 40
0.0009754298
 40
0.0017429478
 40
0.0027006183
 40
0.0038490892
 40
0.0051884213
 40
0.0084387978
 40
0.0124489607
 40
0.0172135793
 40
0.0227262675
 40
0.0289794838
 40
0.0359642964
 40
0.0436713073
 40
0.0520895785
 40
0.0612076508
 40
0.0814921583
 40
0.1044143869
 40
0.1298505099
 40
0.1576642909
 40
0.1877078618
 40
0.2198226631
 40
0.2538403949
 40
0.2895837167
 40
0.3268674952
 40
0.3654997625
 40
0.4460137011
 40
0.5294920919
 40
0.6142589852
 40
0.6986300174
 40
0.7809458089
 40
0.8596037867
 40
0.9330881159
 40
1.0
 40
1.0
 40
1.0
 40
1.0
 10
10.7821767667
 20
14.456876089
 30
0.0
 10
10.7821392668
 20
14.4568861196
 30
0.0
 10
10.7820566869
 20
14.456915792
 30
0.0
 10
10.7818613212
 20
14.4570067145
 30
0.0
 10
10.7815622655
 20
14.4571819266
 30
0.0
 10
10.7811389916
 20
14.4574643121
 30
0.0
 10
10.7806250295
 20
14.4578365853
 30
0.0
 10
10.7800205554
 20
14.4582985001
 30
0.0
 10
10.7790285128
 20
14.459086599
 30
0.0
 10
10.7775677782
 20
14.4602999369
 30
0.0
 10
10.7755540473
 20
14.4620303401
 30
0.0
 10
10.7731858404
 20
14.4641142924
 30
0.0
 10
10.7704665061
 20
14.4665486422
 30
0.0
 10
10.7673999461
 20
14.4693299122
 30
0.0
 10
10.7639903569
 20
14.4724540215
 30
0.0
 10
10.7602424575
 20
14.4759164188
 30
0.0
 10
10.7561612755
 20
14.4797120995
 30
0.0
 10
10.7500625924
 20
14.4854160697
 30
0.0
 10
10.7416536996
 20
14.4933379444
 30
0.0
 10
10.7306578555
 20
14.5037678024
 30
0.0
 10
10.7184862386
 20
14.5153735764
 30
0.0
 10
10.7052026997
 20
14.5280915814
 30
0.0
 10
10.6908765073
 20
14.5418527564
 30
0.0
 10
10.6755818748
 20
14.5565829976
 30
0.0
 10
10.6593975949
 20
14.5722035975
 30
0.0
 10
10.6424065899
 20
14.5886316943
 30
0.0
 10
10.6246954581
 20
14.6057807216
 30
0.0
 10
10.5998970383
 20
14.6298203423
 30
0.0
 10
10.567797717
 20
14.6609818852
 30
0.0
 10
10.5284113771
 20
14.6992606013
 30
0.0
 10
10.488424455
 20
14.738143246
 30
0.0
 10
10.4486208829
 20
14.7768462454
 30
0.0
 10
10.409773159
 20
14.8145975047
 30
0.0
 10
10.3726275182
 20
14.8506512771
 30
0.0
 10
10.3378895598
 20
14.884302506
 30
0.0
 10
10.3155938798
 20
14.9058377847
 30
0.0
 10
10.3049560993
 20
14.9160890965
 30
0.0
  0
SPLINE
  5
514
100
AcDbEntity
  8
0
100
AcDbSpline
 62
7
  6
CONTINUOUS
 70
0
 71
3
 72
21
 73
17
 74
0
 42
0.0000001
 43
0.0000001
 44
0.0000000001
 40
0.0
 40
0.0
 40
0.0
 40
0.0
 40
0.2100832774
 40
0.3981054503
 40
0.561811415
 40
0.6340203062
 40
0.6995751908
 40
0.7583892793
 40
0.8104295939
 40
0.855766065
 40
0.8945941087
 40
0.9273275801
 40
0.9547438257
 40
0.9782141132
 40
0.9891637785
 40
1.0
 40
1.0
 40
1.0
 40
1.0
 10
8.6030091328
 20
11.5543948903
 30
0.0
 10
8.6044635147
 20
11.5529405084
 30
0.0
 10
8.6071821494
 20
11.5501464625
 30
0.0
 10
8.6108790444
 20
11.5460721762
 30
0.0
 10
8.6135317586
 20
11.5428771642
 30
0.0
 10
8.6153090351
 20
11.5405200851
 30
0.0
 10
8.6164110609
 20
11.5389416234
 30
0.0
 10
8.6173363753
 20
11.5374824616
 30
0.0
 10
8.6180826799
 20
11.5361466307
 30
0.0
 10
8.6186488045
 20
11.5349376428
 30
0.0
 10
8.6190343129
 20
11.5338576074
 30
0.0
 10
8.6192384606
 20
11.5329063894
 30
0.0
 10
8.6192601664
 20
11.5320816791
 30
0.0
 10
8.6191109991
 20
11.5314835187
 30
0.0
 10
8.6188924477
 20
11.5310955434
 30
0.0
 10
8.6187548492
 20
11.5309307446
 30
0.0
 10
8.6186798356
 20
11.5308557225
 30
0.0
  0
LINE
  5
515
100
AcDbEntity
  8
0
100
AcDbLine
 62
9
  6
CONTINUOUS
 10
10.7826501116
 20
14.4569971059
 11
10.782458297
 21
14.4568996467
  0
SPLINE
  5
516
100
AcDbEntity
  8
0
100
AcDbSpline
 62
9
  6
CONTINUOUS
 70
0
 71
3
 72
9
 73
5
 74
0
 42
0.0000001
 43
0.0000001
 44
0.0000000001
 40
0.0
 40
0.0
 40
0.0
 40
0.0
 40
0.239042751
 40
1.0
 40
1.0
 40
1.0
 40
1.0
 10
10.782458297
 20
14.4568996467
 30
0.0
 10
10.7824506044
 20
14.4568980388
 30
0.0
 10
10.7824182745
 20
14.4568920292
 30
0.0
 10
10.7823854597
 20
14.4568887766
 30
0.0
 10
10.7823604731
 20
14.4568875334
 30
0.0
  0
LINE
  5
517
100
AcDbEntity
  8
0
100
AcDbLine
 62
9
  6
CONTINUOUS
 10
8.5685363522
 20
11.4059919704
 11
8.5646393869
 21
11.4094684326
  0
SPLINE
  5
518
100
AcDbEntity
  8
0
100
AcDbSpline
 62
9
  6
CONTINUOUS
 70
0
 71
3
 72
13
 73
9
 74
0
 42
0.0000001
 43
0.0000001
 44
0.0000000001
 40
0.0
 40
0.0
 40
0.0
 40
0.0
 40
0.0745397393
 40
0.1666487143
 40
0.2748713226
 40
0.397601114
 40
0.6804021869
 40
1.0
 40
1.0
 40
1.0
 40
1.0
 10
8.5646393869
 20
11.4094684326
 30
0.0
 10
8.5635671495
 20
11.4103813828
 30
0.0
 10
8.5611533567
 20
11.4124029623
 30
0.0
 10
8.5571438459
 20
11.4157032276
 30
0.0
 10
8.5524079146
 20
11.4195533934
 30
0.0
 10
8.5448490439
 20
11.4256421746
 30
0.0
 10
8.5341308588
 20
11.4341745834
 30
0.0
 10
8.5251890444
 20
11.4412151566
 30
0.0
 10
8.5204371987
 20
11.4449404612
 30
0.0
  0
LINE
  5
519
100
AcDbEntity
  8
0
100
AcDbLine
 62
9
  6
CONTINUOUS
 10
8.5204371987
 20
11.4449404612
 11
8.5161922654
 21
11.4482640019
  0
SPLINE
  5
51A
100
AcDbEntity
  8
0
100
AcDbSpline
 62
9
  6
CONTINUOUS
 70
0
 71
3
 72
28
 73
24
 74
0
 42
0.0000001
 43
0.0000001
 44
0.0000000001
 40
0.0
 40
0.0
 40
0.0
 40
0.0
 40
0.1349915662
 40
0.2561839979
 40
0.3635119197
 40
0.4569260756
 40
0.5363874134
 40
0.601875913
 40
0.6534160769
 40
0.6739982841
 40
0.6911671653
 40
0.7049946875
 40
0.7156252258
 40
0.7288160394
 40
0.7344389287
 40
0.7419124724
 40
0.7522051497
 40
0.7656987923
 40
0.7825663774
 40
0.8029005924
 40
0.8541738507
 40
0.919814813
 40
1.0
 40
1.0
 40
1.0
 40
1.0
 10
8.5669124426
 20
11.4064963798
 30
0.0
 10
8.5670431725
 20
11.4064095462
 30
0.0
 10
8.5672918585
 20
11.4062456394
 30
0.0
 10
8.5676468619
 20
11.4060163268
 30
0.0
 10
8.5679635841
 20
11.405816877
 30
0.0
 10
8.5682418118
 20
11.4056474027
 30
0.0
 10
8.5684813106
 20
11.4055079422
 30
0.0
 10
8.5686819361
 20
11.4053986021
 30
0.0
 10
8.5688254752
 20
11.4053278304
 30
0.0
 10
8.5689212422
 20
11.4052874553
 30
0.0
 10
8.5689774476
 20
11.4052670166
 30
0.0
 10
8.5690247412
 20
11.4052541236
 30
0.0
 10
8.569066395
 20
11.4052472745
 30
0.0
 10
8.569107362
 20
11.4052522027
 30
0.0
 10
8.5691183672
 20
11.4052834009
 30
0.0
 10
8.5691134741
 20
11.4053106035
 30
0.0
 10
8.5691000003
 20
11.4053444474
 30
0.0
 10
8.5690767245
 20
11.4053857115
 30
0.0
 10
8.5690438351
 20
11.4054346495
 30
0.0
 10
8.5689817906
 20
11.4055167452
 30
0.0
 10
8.5688779729
 20
11.4056380609
 30
0.0
 10
8.5687216904
 20
11.4058056811
 30
0.0
 10
8.5686024955
 20
11.4059262772
 30
0.0
 10
8.5685363522
 20
11.4059919704
 30
0.0
  0
SPLINE
  5
51B
100
AcDbEntity
  8
0
100
AcDbSpline
 62
7
  6
CONTINUOUS
 70
0
 71
3
 72
26
 73
22
 74
0
 42
0.0000001
 43
0.0000001
 44
0.0000000001
 40
0.0
 40
0.0
 40
0.0
 40
0.0
 40
0.193303111
 40
0.3756076394
 40
0.4608174946
 40
0.5411773904
 40
0.6160999375
 40
0.6850674691
 40
0.7476418264
 40
0.8034725634
 40
0.8523202452
 40
0.8740945351
 40
0.8941015247
 40
0.9123628668
 40
0.9289219996
 40
0.9438476526
 40
0.9572490572
 40
0.969289245
 40
0.9802002581
 40
0.9903020658
 40
1.0
 40
1.0
 40
1.0
 40
1.0
 10
8.1057492036
 20
12.0516548196
 30
0.0
 10
8.1087045608
 20
12.0486994624
 30
0.0
 10
8.1143447335
 20
12.0428533753
 30
0.0
 10
8.1209792742
 20
12.035415626
 30
0.0
 10
8.125787594
 20
12.0296308026
 30
0.0
 10
8.1290089717
 20
12.0255482377
 30
0.0
 10
8.1319024527
 20
12.0216566643
 30
0.0
 10
8.1344462065
 20
12.0179871063
 30
0.0
 10
8.1366221654
 20
12.0145682197
 30
0.0
 10
8.138415289
 20
12.0114260657
 30
0.0
 10
8.1396247473
 20
12.008971055
 30
0.0
 10
8.1403780502
 20
12.0071614339
 30
0.0
 10
8.1408185793
 20
12.0059396124
 30
0.0
 10
8.1411562894
 20
12.0048024765
 30
0.0
 10
8.1413908817
 20
12.0037517284
 30
0.0
 10
8.1415219583
 20
12.0027886967
 30
0.0
 10
8.1415491247
 20
12.0019143783
 30
0.0
 10
8.1414718114
 20
12.0011295055
 30
0.0
 10
8.14128824
 20
12.0004349382
 30
0.0
 10
8.140996634
 20
11.9998333398
 30
0.0
 10
8.1407276923
 20
11.9994948064
 30
0.0
 10
8.1405794346
 20
11.9993465261
 30
0.0
  0
SPLINE
  5
51C
100
AcDbEntity
  8
0
100
AcDbSpline
 62
7
  6
CONTINUOUS
 70
0
 71
3
 72
13
 73
9
 74
0
 42
0.0000001
 43
0.0000001
 44
0.0000000001
 40
0.0
 40
0.0
 40
0.0
 40
0.0
 40
0.122379777
 40
0.2488511021
 40
0.5073079133
 40
0.7619535236
 40
0.8838053229
 40
1.0
 40
1.0
 40
1.0
 40
1.0
 10
7.5721235692
 20
12.585280454
 30
0.0
 10
7.5739330856
 20
12.5834709375
 30
0.0
 10
7.5775661398
 20
12.5797446628
 30
0.0
 10
7.5847964285
 20
12.5719812423
 30
0.0
 10
7.5935913059
 20
12.5619003879
 30
0.0
 10
7.6019028208
 20
12.5515407309
 30
0.0
 10
7.6080742278
 20
12.54329019
 30
0.0
 10
7.6109587229
 20
12.5392326184
 30
0.0
 10
7.6123390766
 20
12.5372330921
 30
0.0
  0
SPLINE
  5
51D
100
AcDbEntity
  8
0
100
AcDbSpline
 62
7
  6
CONTINUOUS
 70
0
 71
3
 72
23
 73
19
 74
0
 42
0.0000001
 43
0.0000001
 44
0.0000000001
 40
0.0
 40
0.0
 40
0.0
 40
0.0
 40
0.0103275348
 40
0.0208929403
 40
0.0440636153
 40
0.0572923375
 40
0.0718534369
 40
0.1054399263
 40
0.1455055897
 40
0.1923359937
 40
0.246000213
 40
0.3064362282
 40
0.3734747071
 40
0.4468771371
 40
0.5263330431
 40
0.6114785717
 40
0.797116254
 40
1.0
 40
1.0
 40
1.0
 40
1.0
 10
7.534983678
 20
12.6100079314
 30
0.0
 10
7.535096181
 20
12.6101204183
 30
0.0
 10
7.53534718
 20
12.6103259056
 30
0.0
 10
7.5359501181
 20
12.6106459168
 30
0.0
 10
7.5366726688
 20
12.6107967085
 30
0.0
 10
7.5374580733
 20
12.6108076694
 30
0.0
 10
7.5384012045
 20
12.6107174704
 30
0.0
 10
7.5397281157
 20
12.61039868
 30
0.0
 10
7.5414692503
 20
12.6097479661
 30
0.0
 10
7.5434242861
 20
12.6088120317
 30
0.0
 10
7.5455850458
 20
12.6075939694
 30
0.0
 10
7.5479415715
 20
12.6060977346
 30
0.0
 10
7.5504822038
 20
12.6043298723
 30
0.0
 10
7.5531936224
 20
12.6022984107
 30
0.0
 10
7.5560615348
 20
12.6000135182
 30
0.0
 10
7.5601933889
 20
12.596543297
 30
0.0
 10
7.5656159549
 20
12.5916576069
 30
0.0
 10
7.5699136133
 20
12.5874904098
 30
0.0
 10
7.5721235692
 20
12.5852804539
 30
0.0
  0
ELLIPSE
  5
51E
100
AcDbEntity
  8
0
100
AcDbEllipse
 62
7
  6
CONTINUOUS
 10
9.9312525103
 20
14.1485954446
 30
0.0
 11
-0.0
 21
0.6181264952
 31
0.0
 40
0.2679491924
 41
-0.5408188012
 42
0.0172200256
  0
ENDSEC
  0
SECTION
  2
OBJECTS
  0
DICTIONARY
  5
C
100
AcDbDictionary
280
0
281
1
  3
ACAD_GROUP
350
D
  3
ACAD_MLINESTYLE
350
17
  3
ACAD_LAYOUT
350
1A
  3
ACAD_PLOTSETTINGS
350
19
  3
ACAD_PLOTSTYLENAME
350
E
  0
DICTIONARY
  5
D
102
{ACAD_REACTORS
330
C
102
}
100
AcDbDictionary
280
0
281
1
  0
ACDBDICTIONARYWDFLT
  5
E
102
{ACAD_REACTORS
330
C
102
}
100
AcDbDictionary
281
1
  3
Normal
350
F
100
AcDbDictionaryWithDefault
340
F
  0
DICTIONARY
  5
17
102
{ACAD_REACTORS
330
C
102
}
100
AcDbDictionary
280
0
281
1
  3
Standard
350
18
  0
DICTIONARY
  5
19
102
{ACAD_REACTORS
330
C
102
}
100
AcDbDictionary
281
1
  0
DICTIONARY
  5
1A
102
{ACAD_REACTORS
330
C
102
}
100
AcDbDictionary
281
1
  3
Model
350
51F
  3
Layout1
350
520
  0
ACDBPLACEHOLDER
  5
F
102
{ACAD_REACTORS
330
E
102
}
  0
MLINESTYLE
  5
18
102
{ACAD_REACTORS
330
17
102
}
100
AcDbMlineStyle
  2
STANDARD
 70
0
  3

 62
256
 51
90.0
 52
90.0
 71
2
 49
0.5
 62
256
  6
BYLAYER
 49
-0.5
 62
256
  6
BYLAYER
  0
LAYOUT
  5
51F
102
{ACAD_REACTORS
330
1A
102
}
100
AcDbPlotSettings
  1

  2
none_device
  4
ANSI_C_(22.00_x_17.00_Inches)
  6

 40
0.0
 41
0.0
 42
0.0
 43
0.0
 44
558.8
 45
431.8
 46
0.0
 47
0.0
 48
0.0
 49
0.0
140
0.0
141
0.0
142
1.0
143
1.0
 70
1024
 72
0
 73
0
 74
0
  7

 75
0
147
1.0
148
0.0
149
0.0
100
AcDbLayout
  1
Model
 70
0
 71
0
 10
0.0
 20
0.0
 11
22.0
 21
17.0
 12
0.0
 22
0.0
 32
0.0
 14
0.0
 24
0.0
 34
0.0
 15
0.0
 25
0.0
 35
0.0
146
0.0
 13
0.0
 23
0.0
 33
0.0
 16
1.0
 26
0.0
 36
0.0
 17
0.0
 27
1.0
 37
0.0
 76
0
330
205
345
0
346
0
  0
LAYOUT
  5
520
102
{ACAD_REACTORS
330
1A
102
}
100
AcDbPlotSettings
  1

  2
none_device
  4
ANSI_C_(22.00_x_17.00_Inches)
  6

 40
0.0
 41
0.0
 42
0.0
 43
0.0
 44
558.8
 45
431.8
 46
0.0
 47
0.0
 48
0.0
 49
0.0
140
0.0
141
0.0
142
1.0
143
1.0
 70
0
 72
0
 73
0
 74
0
  7

 75
0
147
1.0
148
0.0
149
0.0
100
AcDbLayout
  1
Layout1
 70
0
 71
1
 10
0.0
 20
0.0
 11
22.0
 21
17.0
 12
0.0
 22
0.0
 32
0.0
 14
0.0
 24
0.0
 34
0.0
 15
0.0
 25
0.0
 35
0.0
146
0.0
 13
0.0
 23
0.0
 33
0.0
 16
1.0
 26
0.0
 36
0.0
 17
0.0
 27
1.0
 37
0.0
 76
0
330
206
345
0
346
0
  0
ENDSEC
  0
EOF
