999
DXF file: 3-2024tr_TOP.dxf
999
Pro/ENGINEER 2018400 by Parametric Technology Corporation
  0
SECTION
  2
HEADER
  9
$ACADVER
  1
AC1027
  9
$DWGCODEPAGE
  3
ANSI_1252
  9
$EXTMAX
 10
11.0
 20
8.5
 30
0.0
  9
$EXTMIN
 10
0.0
 20
0.0
 30
0.0
  9
$LIMMIN
 10
0.0
 20
0.0
  9
$LIMMAX
 10
11.0
 20
8.5
  9
$VIEWCTR
 10
5.5
 20
4.25
  9
$VIEWSIZE
 40
8.5
  9
$CLAYER
  8
0
  9
$LTSCALE
 40
0.605
  9
$CELTYPE
  6
BYLAYER
  9
$DIMSCALE
 40
1.0
  9
$DIMASZ
 40
0.1
  9
$DIMEXO
 40
0.0625
  9
$DIMDLI
 40
0.418
  9
$DIMEXE
 40
0.125
  9
$DIMCEN
 40
0.099
  9
$DIMLFAC
 40
1.0
  9
$DIMBLK
  1
_FILLED
  9
$DIMALT
 70
1
  9
$DIMALTD
 70
2
  9
$DIMALTTD
 70
2
  9
$DIMALTF
 40
25.4
  9
$DIMTXT
 40
0.08
  9
$DIMTOL
 70
1
  9
$DIMLIM
 70
0
  9
$DIMTFAC
 40
1.0
  9
$DIMTP
 40
0.001
  9
$DIMTM
 40
0.001
  9
$DIMGAP
 40
0.09
  9
$DIMDSEP
 70
46
  9
$AUNITS
 70
0
  9
$PDMODE
 70
3
  9
$PDSIZE
 40
0.3125
  9
$HANDSEED
  5
404
  9
$TILEMODE
 70
1
  9
$MEASUREMENT
 70
0
  9
$INSUNITS
 70
1
  0
ENDSEC
  0
SECTION
  2
CLASSES
  0
CLASS
  1
ACDBDICTIONARYWDFLT
  2
AcDbDictionaryWithDefault
  3
AutoCAD 2000
 90
0
 91
1
280
0
281
0
  0
CLASS
  1
ACDBPLACEHOLDER
  2
AcDbPlaceHolder
  3
AutoCAD 2000
 90
0
 91
1
280
0
281
0
  0
CLASS
  1
LAYOUT
  2
AcDbLayout
  3
AutoCAD 2000
 90
0
 91
0
280
0
281
0
  0
ENDSEC
  0
SECTION
  2
TABLES
  0
TABLE
  2
VPORT
  5
8
100
AcDbSymbolTable
 70
2
  0
VPORT
  5
1F4
100
AcDbSymbolTableRecord
100
AcDbViewportTableRecord
  2
*ACTIVE
 70
0
 10
0.0
 20
0.0
 11
1.0
 21
1.0
 12
5.5
 22
4.25
 13
0.0
 23
0.0
 14
1.0
 24
1.0
 15
0.0
 25
0.0
 16
0.0
 26
0.0
 36
1.0
 17
0.0
 27
0.0
 37
0.0
 40
8.5
 41
1.2941176471
 42
50.0
 43
0.0
 44
0.0
 50
0.0
 51
0.0
 71
0
 72
100
 73
1
 74
1
 75
0
 76
0
 77
0
 78
0
  0
ENDTAB
  0
TABLE
  2
LTYPE
  5
5
100
AcDbSymbolTable
 70
6
  0
LTYPE
  5
14
100
AcDbSymbolTableRecord
100
AcDbLinetypeTableRecord
  2
BYBLOCK
 70
0
  3

 72
65
 73
0
 40
0.0
  0
LTYPE
  5
15
100
AcDbSymbolTableRecord
100
AcDbLinetypeTableRecord
  2
BYLAYER
 70
0
  3

 72
65
 73
0
 40
0.0
  0
LTYPE
  5
16
100
AcDbSymbolTableRecord
100
AcDbLinetypeTableRecord
  2
CONTINUOUS
 70
64
  3
Solid line
 72
65
 73
0
 40
0.0
  0
LTYPE
  5
1F5
100
AcDbSymbolTableRecord
100
AcDbLinetypeTableRecord
  2
CENTER
 70
64
  3
____ _ ____ _ ____ _ ____ _ ____ _ ____ _ ____
 72
65
 73
4
 40
0.6
 49
0.375
 74
0
 49
-0.075
 74
0
 49
0.075
 74
0
 49
-0.075
 74
0
  0
LTYPE
  5
1F6
100
AcDbSymbolTableRecord
100
AcDbLinetypeTableRecord
  2
HIDDEN
 70
64
  3
- - - - - - - - - - - - - - - - - - - -
 72
65
 73
2
 40
0.2
 49
0.1
 74
0
 49
-0.1
 74
0
  0
LTYPE
  5
1F7
100
AcDbSymbolTableRecord
100
AcDbLinetypeTableRecord
  2
PHANTOM
 70
64
  3
_____ _ _ _____ _ _ _____ _ _ _____
 72
65
 73
6
 40
0.8
 49
0.45
 74
0
 49
-0.05
 74
0
 49
0.1
 74
0
 49
-0.05
 74
0
 49
0.1
 74
0
 49
-0.05
 74
0
  0
LTYPE
  5
1F8
100
AcDbSymbolTableRecord
100
AcDbLinetypeTableRecord
  2
DOT
 70
64
  3
. . . . . . . . . . . . . . . . . . . .
 72
65
 73
2
 40
0.2
 49
0.1
 74
0
 49
-0.1
 74
0
  0
LTYPE
  5
1F9
100
AcDbSymbolTableRecord
100
AcDbLinetypeTableRecord
  2
DASHED
 70
64
  3
- - - - - - - - - - - - - - - - - - - -
 72
65
 73
2
 40
0.2
 49
0.1
 74
0
 49
-0.1
 74
0
  0
ENDTAB
  0
TABLE
  2
LAYER
  5
2
100
AcDbSymbolTable
 70
36
  0
LAYER
  5
10
100
AcDbSymbolTableRecord
100
AcDbLayerTableRecord
  2
0
 70
0
 62
7
  6
CONTINUOUS
370
-3
390
F
  0
LAYER
  5
1FA
100
AcDbSymbolTableRecord
100
AcDbLayerTableRecord
  2
DEFAULT_1
 70
0
 62
7
  6
CENTER
370
-3
390
F
  0
LAYER
  5
1FB
100
AcDbSymbolTableRecord
100
AcDbLayerTableRecord
  2
DEFAULT_2
 70
0
 62
8
  6
HIDDEN
370
-3
390
F
  0
LAYER
  5
1FC
100
AcDbSymbolTableRecord
100
AcDbLayerTableRecord
  2
DEFAULT_3
 70
0
 62
7
  6
PHANTOM
370
-3
390
F
  0
LAYER
  5
1FD
100
AcDbSymbolTableRecord
100
AcDbLayerTableRecord
  2
1_PLATE
 70
0
 62
7
  6
CONTINUOUS
370
-3
390
F
  0
LAYER
  5
1FE
100
AcDbSymbolTableRecord
100
AcDbLayerTableRecord
  2
2-266_ASSY_PLANES
 70
0
 62
7
  6
CONTINUOUS
370
-3
390
F
  0
LAYER
  5
1FF
100
AcDbSymbolTableRecord
100
AcDbLayerTableRecord
  2
ALL_ASSEMBLY_MEMBERS
 70
0
 62
7
  6
CONTINUOUS
370
-3
390
F
  0
LAYER
  5
200
100
AcDbSymbolTableRecord
100
AcDbLayerTableRecord
  2
ALL_FEATURES
 70
0
 62
7
  6
CONTINUOUS
370
-3
390
F
  0
LAYER
  5
201
100
AcDbSymbolTableRecord
100
AcDbLayerTableRecord
  2
AXES_FEATURES
 70
0
 62
7
  6
CONTINUOUS
370
-3
390
F
  0
LAYER
  5
202
100
AcDbSymbolTableRecord
100
AcDbLayerTableRecord
  2
CHAMFER_FEATURES
 70
0
 62
7
  6
CONTINUOUS
370
-3
390
F
  0
LAYER
  5
203
100
AcDbSymbolTableRecord
100
AcDbLayerTableRecord
  2
CUT_FEATURES
 70
0
 62
7
  6
CONTINUOUS
370
-3
390
F
  0
LAYER
  5
204
100
AcDbSymbolTableRecord
100
AcDbLayerTableRecord
  2
DATUM_CURVES
 70
0
 62
7
  6
CONTINUOUS
370
-3
390
F
  0
LAYER
  5
205
100
AcDbSymbolTableRecord
100
AcDbLayerTableRecord
  2
DATUM_PLANES
 70
0
 62
7
  6
CONTINUOUS
370
-3
390
F
  0
LAYER
  5
206
100
AcDbSymbolTableRecord
100
AcDbLayerTableRecord
  2
DEFAULT_COORDINATE_SYSTEM
 70
0
 62
7
  6
CONTINUOUS
370
-3
390
F
  0
LAYER
  5
207
100
AcDbSymbolTableRecord
100
AcDbLayerTableRecord
  2
DEFAULT_DATUM_AXES
 70
0
 62
7
  6
CONTINUOUS
370
-3
390
F
  0
LAYER
  5
208
100
AcDbSymbolTableRecord
100
AcDbLayerTableRecord
  2
DEFAULT_DATUM_CURVES
 70
0
 62
7
  6
CONTINUOUS
370
-3
390
F
  0
LAYER
  5
209
100
AcDbSymbolTableRecord
100
AcDbLayerTableRecord
  2
DEFAULT_DATUM_PLANES
 70
0
 62
7
  6
CONTINUOUS
370
-3
390
F
  0
LAYER
  5
20A
100
AcDbSymbolTableRecord
100
AcDbLayerTableRecord
  2
DEFAULT_SURFACES
 70
0
 62
7
  6
CONTINUOUS
370
-3
390
F
  0
LAYER
  5
20B
100
AcDbSymbolTableRecord
100
AcDbLayerTableRecord
  2
DIMENSIONS
 70
0
 62
7
  6
CONTINUOUS
370
-3
390
F
  0
LAYER
  5
20C
100
AcDbSymbolTableRecord
100
AcDbLayerTableRecord
  2
HOLE_FEATURES
 70
0
 62
7
  6
CONTINUOUS
370
-3
390
F
  0
LAYER
  5
20D
100
AcDbSymbolTableRecord
100
AcDbLayerTableRecord
  2
NOTES
 70
0
 62
7
  6
CONTINUOUS
370
-3
390
F
  0
LAYER
  5
20E
100
AcDbSymbolTableRecord
100
AcDbLayerTableRecord
  2
PART_REFERENCE_DIMENSIONS
 70
0
 62
7
  6
CONTINUOUS
370
-3
390
F
  0
LAYER
  5
20F
100
AcDbSymbolTableRecord
100
AcDbLayerTableRecord
  2
PLATED_SURFACE_AREA
 70
0
 62
7
  6
CONTINUOUS
370
-3
390
F
  0
LAYER
  5
210
100
AcDbSymbolTableRecord
100
AcDbLayerTableRecord
  2
PROTRUSION
 70
0
 62
7
  6
CONTINUOUS
370
-3
390
F
  0
LAYER
  5
211
100
AcDbSymbolTableRecord
100
AcDbLayerTableRecord
  2
PROTRUSION_FEATURES
 70
0
 62
7
  6
CONTINUOUS
370
-3
390
F
  0
LAYER
  5
212
100
AcDbSymbolTableRecord
100
AcDbLayerTableRecord
  2
QUILT
 70
0
 62
7
  6
CONTINUOUS
370
-3
390
F
  0
LAYER
  5
213
100
AcDbSymbolTableRecord
100
AcDbLayerTableRecord
  2
QUILTS
 70
0
 62
7
  6
CONTINUOUS
370
-3
390
F
  0
LAYER
  5
214
100
AcDbSymbolTableRecord
100
AcDbLayerTableRecord
  2
REFERENCE_DIMENSIONS
 70
0
 62
7
  6
CONTINUOUS
370
-3
390
F
  0
LAYER
  5
215
100
AcDbSymbolTableRecord
100
AcDbLayerTableRecord
  2
ROUND_FEATURES
 70
0
 62
7
  6
CONTINUOUS
370
-3
390
F
  0
LAYER
  5
216
100
AcDbSymbolTableRecord
100
AcDbLayerTableRecord
  2
SHELL_FEATURES
 70
0
 62
7
  6
CONTINUOUS
370
-3
390
F
  0
LAYER
  5
217
100
AcDbSymbolTableRecord
100
AcDbLayerTableRecord
  2
XSEC_DATUMS
 70
0
 62
7
  6
CONTINUOUS
370
-3
390
F
  0
ENDTAB
  0
TABLE
  2
STYLE
  5
3
100
AcDbSymbolTable
 70
1
  0
STYLE
  5
11
100
AcDbSymbolTableRecord
100
AcDbTextStyleTableRecord
  2
STANDARD
 70
0
 40
0.0
 41
0.8
 50
0.0
 71
0
 42
0.2
  3
txt
  4

  0
STYLE
  5
218
100
AcDbSymbolTableRecord
100
AcDbTextStyleTableRecord
  2
TEXTSTYLE_1
 70
0
 40
0.0
 41
0.8
 50
0.0
 71
0
 42
0.2
  3
gdt
  4

  0
ENDTAB
  0
TABLE
  2
VIEW
  5
6
100
AcDbSymbolTable
 70
0
  0
ENDTAB
  0
TABLE
  2
UCS
  5
7
100
AcDbSymbolTable
 70
0
  0
ENDTAB
  0
TABLE
  2
APPID
  5
9
100
AcDbSymbolTable
 70
1
  0
APPID
  5
219
100
AcDbSymbolTableRecord
100
AcDbRegAppTableRecord
  2
ACAD
 70
0
  0
ENDTAB
  0
TABLE
  2
BLOCK_RECORD
  5
1
100
AcDbSymbolTable
 70
0
  0
BLOCK_RECORD
  5
21A
100
AcDbSymbolTableRecord
100
AcDbBlockTableRecord
  2
*Model_Space
  0
BLOCK_RECORD
  5
21B
100
AcDbSymbolTableRecord
100
AcDbBlockTableRecord
  2
*Paper_Space
  0
BLOCK_RECORD
  5
21C
100
AcDbSymbolTableRecord
100
AcDbBlockTableRecord
  2
_FILLED
  0
ENDTAB
  0
TABLE
  2
DIMSTYLE
  5
A
100
AcDbSymbolTable
 70
1
100
AcDbDimStyleTable
 71
0
  0
DIMSTYLE
105
21D
100
AcDbSymbolTableRecord
100
AcDbDimStyleTableRecord
  2
STANDARD
 70
0
  3

  4

 40
1.0
 41
0.1
 42
0.0625
 43
0.38
 44
0.125
 45
0.0
 46
0.0
 47
0.001
 48
0.001
140
0.08
141
0.09
142
0.0
143
25.4
144
1.0
145
0.0
146
1.0
147
0.09
 71
1.0
 72
0.0
 73
1
 74
1
 75
0
 76
0
 77
0
 78
4
 79
1
170
1
171
2
172
0
173
0
174
0
175
0
176
0
177
0
178
0
270
2
179
3
271
3
272
3
273
2
274
2
275
0
280
0
281
0
282
0
283
1
284
4
285
0
286
0
287
3
288
0
340
11
278
46
341
21C
342
21C
343
21C
344
21C
  0
ENDTAB
  0
ENDSEC
  0
SECTION
  2
BLOCKS
  0
BLOCK
  5
20
100
AcDbEntity
  8
0
100
AcDbBlockBegin
  2
*Model_Space
 70
0
 10
0.0
 20
0.0
 30
0.0
  3
*Model_Space
  1

  0
ENDBLK
  5
21
100
AcDbEntity
  8
0
100
AcDbBlockEnd
  0
BLOCK
  5
1C
100
AcDbEntity
  8
0
100
AcDbBlockBegin
  2
*Paper_Space
 70
0
 10
0.0
 20
0.0
 30
0.0
  3
*Paper_Space
  1

  0
ENDBLK
  5
1D
100
AcDbEntity
  8
0
100
AcDbBlockEnd
  0
BLOCK
  5
21E
100
AcDbEntity
  8
0
100
AcDbBlockBegin
  2
_FILLED
 70
64
 10
0.0
 20
0.0
  3
_FILLED
  1

  0
SOLID
  5
21F
100
AcDbEntity
  8
0
  6
BYBLOCK
 62
0
100
AcDbTrace
 10
0.0
 20
0.0
 11
-1.0
 21
0.2
 12
-1.0
 22
-0.2
 13
-1.0
 23
-0.2
  0
ENDBLK
  5
220
100
AcDbEntity
  8
0
  6
BYBLOCK
 62
0
100
AcDbBlockEnd
  0
ENDSEC
  0
SECTION
  2
ENTITIES
  0
MTEXT
  5
221
100
AcDbEntity
  8
0
100
AcDbMText
 62
2
  6
CONTINUOUS
  7
STANDARD
 71
3
 72
1
 10
5.1195263975
 20
3.5145196789
 30
0.0
 11
1.0
 21
0.0
 31
0.0
 73
2
 44
0.9
  1
SCALE  .500
 40
0.08
 41
0.704
  0
LINE
  5
222
100
AcDbEntity
  8
0
100
AcDbLine
 62
7
  6
CONTINUOUS
 10
0.0
 20
0.0
 11
0.0
 21
8.5
  0
LINE
  5
223
100
AcDbEntity
  8
0
100
AcDbLine
 62
7
  6
CONTINUOUS
 10
0.0
 20
0.0
 11
11.0
 21
0.0
  0
LINE
  5
224
100
AcDbEntity
  8
0
100
AcDbLine
 62
7
  6
CONTINUOUS
 10
0.0
 20
8.5
 11
11.0
 21
8.5
  0
LINE
  5
225
100
AcDbEntity
  8
0
100
AcDbLine
 62
7
  6
CONTINUOUS
 10
11.0
 20
0.0
 11
11.0
 21
8.5
  0
LINE
  5
226
100
AcDbEntity
  8
1_PLATE
100
AcDbLine
 62
7
  6
CONTINUOUS
 10
3.2445263975
 20
5.6212150726
 11
3.2445263975
 21
5.5457150726
  0
LINE
  5
227
100
AcDbEntity
  8
ALL_ASSEMBLY_MEMBERS
100
AcDbLine
 62
7
  6
CONTINUOUS
 10
4.6345263975
 20
3.6095196789
 11
5.6045263975
 21
3.6095196789
  0
LINE
  5
228
100
AcDbEntity
  8
ALL_ASSEMBLY_MEMBERS
100
AcDbLine
 62
7
  6
CONTINUOUS
 10
4.6195263975
 20
3.6245196791
 11
5.6195263975
 21
3.6245196789
  0
LINE
  5
229
100
AcDbEntity
  8
ALL_ASSEMBLY_MEMBERS
100
AcDbLine
 62
7
  6
CONTINUOUS
 10
4.9482763975
 20
3.9095196789
 11
4.6195263975
 21
3.9095196789
  0
LINE
  5
22A
100
AcDbEntity
  8
ALL_ASSEMBLY_MEMBERS
100
AcDbLine
 62
7
  6
CONTINUOUS
 10
5.2907763975
 20
3.9095196789
 11
5.6195263975
 21
3.9095196788
  0
LINE
  5
22B
100
AcDbEntity
  8
ALL_ASSEMBLY_MEMBERS
100
AcDbLine
 62
7
  6
CONTINUOUS
 10
5.6045263975
 20
3.9245196789
 11
5.2907763975
 21
3.9245196789
  0
LINE
  5
22C
100
AcDbEntity
  8
ALL_ASSEMBLY_MEMBERS
100
AcDbLine
 62
7
  6
CONTINUOUS
 10
4.9482763975
 20
3.9245196789
 11
4.6345263975
 21
3.9245196789
  0
LINE
  5
22D
100
AcDbEntity
  8
ALL_ASSEMBLY_MEMBERS
100
AcDbLine
 62
7
  6
CONTINUOUS
 10
4.9782763975
 20
3.9395196789
 11
4.9632763975
 21
3.9395196789
  0
LINE
  5
22E
100
AcDbEntity
  8
ALL_ASSEMBLY_MEMBERS
100
AcDbLine
 62
7
  6
CONTINUOUS
 10
5.2607763975
 20
3.9395196789
 11
5.2757763975
 21
3.9395196789
  0
LINE
  5
22F
100
AcDbEntity
  8
ALL_ASSEMBLY_MEMBERS
100
AcDbLine
 62
7
  6
CONTINUOUS
 10
4.6195263975
 20
3.9095196789
 11
4.6195263975
 21
3.6245196789
  0
LINE
  5
230
100
AcDbEntity
  8
ALL_ASSEMBLY_MEMBERS
100
AcDbLine
 62
7
  6
CONTINUOUS
 10
4.6270263975
 20
5.1943700726
 11
4.6270263975
 21
5.3430649185
  0
LINE
  5
231
100
AcDbEntity
  8
ALL_ASSEMBLY_MEMBERS
100
AcDbLine
 62
7
  6
CONTINUOUS
 10
4.6345263975
 20
3.6095196789
 11
4.6345263974
 21
3.9245196789
  0
LINE
  5
232
100
AcDbEntity
  8
ALL_ASSEMBLY_MEMBERS
100
AcDbLine
 62
7
  6
CONTINUOUS
 10
4.6345263975
 20
4.4660196789
 11
4.6345263975
 21
4.9975196789
  0
LINE
  5
233
100
AcDbEntity
  8
ALL_ASSEMBLY_MEMBERS
100
AcDbLine
 62
7
  6
CONTINUOUS
 10
4.6347763975
 20
5.1451574742
 11
4.6347763975
 21
5.056574797
  0
LINE
  5
234
100
AcDbEntity
  8
ALL_ASSEMBLY_MEMBERS
100
AcDbLine
 62
7
  6
CONTINUOUS
 10
4.6349452965
 20
5.1451574742
 11
4.6349452965
 21
5.056574797
  0
LINE
  5
235
100
AcDbEntity
  8
ALL_ASSEMBLY_MEMBERS
100
AcDbLine
 62
7
  6
CONTINUOUS
 10
4.6372429329
 20
5.1943700726
 11
4.6372429329
 21
5.1451574742
  0
LINE
  5
236
100
AcDbEntity
  8
ALL_ASSEMBLY_MEMBERS
100
AcDbLine
 62
7
  6
CONTINUOUS
 10
4.6372429329
 20
5.056574797
 11
4.6372429329
 21
4.9975196789
  0
LINE
  5
237
100
AcDbEntity
  8
ALL_ASSEMBLY_MEMBERS
100
AcDbLine
 62
7
  6
CONTINUOUS
 10
4.6374126961
 20
5.1451574742
 11
4.6374126961
 21
5.056574797
  0
LINE
  5
238
100
AcDbEntity
  8
ALL_ASSEMBLY_MEMBERS
100
AcDbLine
 62
7
  6
CONTINUOUS
 10
4.6495321984
 20
5.0839349069
 11
4.6495321984
 21
5.0784628854
  0
LINE
  5
239
100
AcDbEntity
  8
ALL_ASSEMBLY_MEMBERS
100
AcDbLine
 62
7
  6
CONTINUOUS
 10
4.6498370047
 20
5.1204150525
 11
4.6498370047
 21
5.1149430311
  0
LINE
  5
23A
100
AcDbEntity
  8
ALL_ASSEMBLY_MEMBERS
100
AcDbLine
 62
7
  6
CONTINUOUS
 10
4.6510860853
 20
5.0839349069
 11
4.6510860853
 21
5.0784628854
  0
LINE
  5
23B
100
AcDbEntity
  8
ALL_ASSEMBLY_MEMBERS
100
AcDbLine
 62
7
  6
CONTINUOUS
 10
4.6514058085
 20
5.1204150525
 11
4.6514058085
 21
5.1167670382
  0
LINE
  5
23C
100
AcDbEntity
  8
ALL_ASSEMBLY_MEMBERS
100
AcDbLine
 62
7
  6
CONTINUOUS
 10
4.6534131127
 20
5.0839349069
 11
4.6534131127
 21
5.0784628854
  0
LINE
  5
23D
100
AcDbEntity
  8
ALL_ASSEMBLY_MEMBERS
100
AcDbLine
 62
7
  6
CONTINUOUS
 10
4.6537323115
 20
5.1204150525
 11
4.6537323115
 21
5.1167670382
  0
LINE
  5
23E
100
AcDbEntity
  8
ALL_ASSEMBLY_MEMBERS
100
AcDbLine
 62
7
  6
CONTINUOUS
 10
4.6599685918
 20
5.1204150525
 11
4.6599685918
 21
5.1167670382
  0
LINE
  5
23F
100
AcDbEntity
  8
ALL_ASSEMBLY_MEMBERS
100
AcDbLine
 62
7
  6
CONTINUOUS
 10
4.6603622965
 20
5.0839349069
 11
4.6603622965
 21
5.0784628854
  0
LINE
  5
240
100
AcDbEntity
  8
ALL_ASSEMBLY_MEMBERS
100
AcDbLine
 62
7
  6
CONTINUOUS
 10
4.6619665757
 20
5.1204150525
 11
4.6619665757
 21
5.1149430311
  0
LINE
  5
241
100
AcDbEntity
  8
ALL_ASSEMBLY_MEMBERS
100
AcDbLine
 62
7
  6
CONTINUOUS
 10
4.6623750074
 20
5.0839349069
 11
4.6623750074
 21
5.0784628854
  0
LINE
  5
242
100
AcDbEntity
  8
ALL_ASSEMBLY_MEMBERS
100
AcDbLine
 62
7
  6
CONTINUOUS
 10
4.6642845441
 20
5.1204150525
 11
4.6642845441
 21
5.1149430311
  0
LINE
  5
243
100
AcDbEntity
  8
ALL_ASSEMBLY_MEMBERS
100
AcDbLine
 62
7
  6
CONTINUOUS
 10
4.6646929091
 20
5.0839349069
 11
4.6646929091
 21
5.0784628854
  0
LINE
  5
244
100
AcDbEntity
  8
ALL_ASSEMBLY_MEMBERS
100
AcDbLine
 62
7
  6
CONTINUOUS
 10
4.6657484542
 20
5.1423031435
 11
4.6657484542
 21
5.0948789524
  0
LINE
  5
245
100
AcDbEntity
  8
ALL_ASSEMBLY_MEMBERS
100
AcDbLine
 62
7
  6
CONTINUOUS
 10
4.6679525529
 20
5.1331831077
 11
4.6679525529
 21
5.1039989881
  0
LINE
  5
246
100
AcDbEntity
  8
ALL_ASSEMBLY_MEMBERS
100
AcDbLine
 62
7
  6
CONTINUOUS
 10
4.670270957
 20
5.1331831077
 11
4.670270957
 21
5.1094710096
  0
LINE
  5
247
100
AcDbEntity
  8
ALL_ASSEMBLY_MEMBERS
100
AcDbLine
 62
7
  6
CONTINUOUS
 10
4.6806037946
 20
5.0857589141
 11
4.6806037946
 21
5.0821108997
  0
LINE
  5
248
100
AcDbEntity
  8
ALL_ASSEMBLY_MEMBERS
100
AcDbLine
 62
7
  6
CONTINUOUS
 10
4.6821926079
 20
5.1423031435
 11
4.6821926079
 21
5.1331831077
  0
LINE
  5
249
100
AcDbEntity
  8
ALL_ASSEMBLY_MEMBERS
100
AcDbLine
 62
7
  6
CONTINUOUS
 10
4.6832667413
 20
5.0875829212
 11
4.6832667413
 21
5.0802868926
  0
LINE
  5
24A
100
AcDbEntity
  8
ALL_ASSEMBLY_MEMBERS
100
AcDbLine
 62
7
  6
CONTINUOUS
 10
4.684521379
 20
5.1423031435
 11
4.684521379
 21
5.1331831077
  0
LINE
  5
24B
100
AcDbEntity
  8
ALL_ASSEMBLY_MEMBERS
100
AcDbLine
 62
7
  6
CONTINUOUS
 10
4.6855967065
 20
5.0875829212
 11
4.6855967065
 21
5.0802868926
  0
LINE
  5
24C
100
AcDbEntity
  8
ALL_ASSEMBLY_MEMBERS
100
AcDbLine
 62
7
  6
CONTINUOUS
 10
4.9632763975
 20
4.2795196789
 11
5.2757763975
 21
4.279519679
  0
LINE
  5
24D
100
AcDbEntity
  8
ALL_ASSEMBLY_MEMBERS
100
AcDbLine
 62
7
  6
CONTINUOUS
 10
5.2607763975
 20
4.2945196789
 11
4.9782763975
 21
4.2945196789
  0
LINE
  5
24E
100
AcDbEntity
  8
ALL_ASSEMBLY_MEMBERS
100
AcDbLine
 62
7
  6
CONTINUOUS
 10
4.7157763975
 20
4.3100196789
 11
4.7157763975
 21
4.4660196789
  0
LINE
  5
24F
100
AcDbEntity
  8
ALL_ASSEMBLY_MEMBERS
100
AcDbLine
 62
7
  6
CONTINUOUS
 10
4.8311008203
 20
5.1451574742
 11
4.8311008203
 21
5.056574797
  0
LINE
  5
250
100
AcDbEntity
  8
ALL_ASSEMBLY_MEMBERS
100
AcDbLine
 62
7
  6
CONTINUOUS
 10
5.0588801131
 20
5.1423031435
 11
5.0506287597
 21
5.1295350934
  0
LINE
  5
251
100
AcDbEntity
  8
ALL_ASSEMBLY_MEMBERS
100
AcDbLine
 62
7
  6
CONTINUOUS
 10
5.0588801131
 20
5.1277110863
 11
5.0506287597
 21
5.1149430311
  0
LINE
  5
252
100
AcDbEntity
  8
ALL_ASSEMBLY_MEMBERS
100
AcDbLine
 62
7
  6
CONTINUOUS
 10
5.0877598498
 20
5.1350071149
 11
5.0836341731
 21
5.1295350934
  0
LINE
  5
253
100
AcDbEntity
  8
ALL_ASSEMBLY_MEMBERS
100
AcDbLine
 62
7
  6
CONTINUOUS
 10
5.0960112031
 20
5.1313591006
 11
5.0918855265
 21
5.1277110863
  0
LINE
  5
254
100
AcDbEntity
  8
ALL_ASSEMBLY_MEMBERS
100
AcDbLine
 62
7
  6
CONTINUOUS
 10
5.156521125
 20
5.1313591006
 11
5.1523954484
 21
5.1277110863
  0
LINE
  5
255
100
AcDbEntity
  8
ALL_ASSEMBLY_MEMBERS
100
AcDbLine
 62
7
  6
CONTINUOUS
 10
5.0946359789
 20
5.1404791363
 11
5.0877598498
 21
5.1350071149
  0
LINE
  5
256
100
AcDbEntity
  8
ALL_ASSEMBLY_MEMBERS
100
AcDbLine
 62
7
  6
CONTINUOUS
 10
5.1551459047
 20
5.1404791363
 11
5.1482697717
 21
5.1350071149
  0
LINE
  5
257
100
AcDbEntity
  8
ALL_ASSEMBLY_MEMBERS
100
AcDbLine
 62
7
  6
CONTINUOUS
 10
5.1180148147
 20
5.0638708263
 11
5.1111386856
 21
5.0583988043
  0
LINE
  5
258
100
AcDbEntity
  8
ALL_ASSEMBLY_MEMBERS
100
AcDbLine
 62
7
  6
CONTINUOUS
 10
5.5232763975
 20
4.3100196789
 11
4.7157763975
 21
4.3100196789
  0
LINE
  5
259
100
AcDbEntity
  8
ALL_ASSEMBLY_MEMBERS
100
AcDbLine
 62
7
  6
CONTINUOUS
 10
4.8520633727
 20
5.1451574742
 11
4.8520633727
 21
5.056574797
  0
LINE
  5
25A
100
AcDbEntity
  8
ALL_ASSEMBLY_MEMBERS
100
AcDbLine
 62
7
  6
CONTINUOUS
 10
4.8534786149
 20
5.1451574742
 11
4.8534786149
 21
5.056574797
  0
LINE
  5
25B
100
AcDbEntity
  8
ALL_ASSEMBLY_MEMBERS
100
AcDbLine
 62
7
  6
CONTINUOUS
 10
4.9482763975
 20
3.9095196789
 11
4.9482763975
 21
3.9245196789
  0
LINE
  5
25C
100
AcDbEntity
  8
ALL_ASSEMBLY_MEMBERS
100
AcDbLine
 62
7
  6
CONTINUOUS
 10
4.9632763975
 20
4.2795196789
 11
4.9632763975
 21
3.9395196789
  0
LINE
  5
25D
100
AcDbEntity
  8
ALL_ASSEMBLY_MEMBERS
100
AcDbLine
 62
7
  6
CONTINUOUS
 10
4.9782763975
 20
3.9395196789
 11
4.9782763977
 21
4.2945196789
  0
LINE
  5
25E
100
AcDbEntity
  8
ALL_ASSEMBLY_MEMBERS
100
AcDbLine
 62
7
  6
CONTINUOUS
 10
5.0808837226
 20
5.1222390648
 11
5.0795084964
 21
5.1167670382
  0
LINE
  5
25F
100
AcDbEntity
  8
ALL_ASSEMBLY_MEMBERS
100
AcDbLine
 62
7
  6
CONTINUOUS
 10
5.0836341731
 20
5.1295350934
 11
5.0808837226
 21
5.1222390648
  0
LINE
  5
260
100
AcDbEntity
  8
ALL_ASSEMBLY_MEMBERS
100
AcDbLine
 62
7
  6
CONTINUOUS
 10
5.0918855265
 20
5.1277110863
 11
5.0863846255
 21
5.1167670382
  0
LINE
  5
261
100
AcDbEntity
  8
ALL_ASSEMBLY_MEMBERS
100
AcDbLine
 62
7
  6
CONTINUOUS
 10
5.119390035
 20
5.0821108997
 11
5.1138891341
 21
5.0711668555
  0
LINE
  5
262
100
AcDbEntity
  8
ALL_ASSEMBLY_MEMBERS
100
AcDbLine
 62
7
  6
CONTINUOUS
 10
5.1523954484
 20
5.1277110863
 11
5.1468945514
 21
5.1167670382
  0
LINE
  5
263
100
AcDbEntity
  8
ALL_ASSEMBLY_MEMBERS
100
AcDbLine
 62
7
  6
CONTINUOUS
 10
5.1482697717
 20
5.1350071149
 11
5.144144095
 21
5.1295350934
  0
LINE
  5
264
100
AcDbEntity
  8
ALL_ASSEMBLY_MEMBERS
100
AcDbLine
 62
7
  6
CONTINUOUS
 10
5.1221404913
 20
5.0693428484
 11
5.1180148147
 21
5.0638708263
  0
LINE
  5
265
100
AcDbEntity
  8
ALL_ASSEMBLY_MEMBERS
100
AcDbLine
 62
7
  6
CONTINUOUS
 10
5.1826504133
 20
5.0693428484
 11
5.1785247366
 21
5.0638708263
  0
LINE
  5
266
100
AcDbEntity
  8
ALL_ASSEMBLY_MEMBERS
100
AcDbLine
 62
7
  6
CONTINUOUS
 10
5.1138891341
 20
5.0711668555
 11
5.1097634574
 21
5.0675188412
  0
LINE
  5
267
100
AcDbEntity
  8
ALL_ASSEMBLY_MEMBERS
100
AcDbLine
 62
7
  6
CONTINUOUS
 10
5.1743990599
 20
5.0711668555
 11
5.1702733832
 21
5.0675188412
  0
LINE
  5
268
100
AcDbEntity
  8
ALL_ASSEMBLY_MEMBERS
100
AcDbLine
 62
7
  6
CONTINUOUS
 10
5.1785247366
 20
5.0638708263
 11
5.1716486114
 21
5.0583988043
  0
LINE
  5
269
100
AcDbEntity
  8
ALL_ASSEMBLY_MEMBERS
100
AcDbLine
 62
7
  6
CONTINUOUS
 10
5.6045224461
 20
4.4660196789
 11
4.6345303489
 21
4.4660196789
  0
LINE
  5
26A
100
AcDbEntity
  8
ALL_ASSEMBLY_MEMBERS
100
AcDbLine
 62
7
  6
CONTINUOUS
 10
5.0405263975
 20
4.3100196789
 11
5.0405263975
 21
4.2945196789
  0
LINE
  5
26B
100
AcDbEntity
  8
ALL_ASSEMBLY_MEMBERS
100
AcDbLine
 62
7
  6
CONTINUOUS
 10
5.0506287597
 20
5.1295350934
 11
5.0506287597
 21
5.1149430311
  0
LINE
  5
26C
100
AcDbEntity
  8
ALL_ASSEMBLY_MEMBERS
100
AcDbLine
 62
7
  6
CONTINUOUS
 10
5.0588801131
 20
5.1277110863
 11
5.0588801131
 21
5.056574797
  0
LINE
  5
26D
100
AcDbEntity
  8
ALL_ASSEMBLY_MEMBERS
100
AcDbLine
 62
7
  6
CONTINUOUS
 10
5.0671314664
 20
5.1423031435
 11
5.0671314664
 21
5.056574797
  0
LINE
  5
26E
100
AcDbEntity
  8
ALL_ASSEMBLY_MEMBERS
100
AcDbLine
 62
7
  6
CONTINUOUS
 10
5.0781332702
 20
5.1076470025
 11
5.0781332702
 21
5.0912309381
  0
LINE
  5
26F
100
AcDbEntity
  8
ALL_ASSEMBLY_MEMBERS
100
AcDbLine
 62
7
  6
CONTINUOUS
 10
5.0850093974
 20
5.1058229953
 11
5.0850093974
 21
5.0930549452
  0
LINE
  5
270
100
AcDbEntity
  8
ALL_ASSEMBLY_MEMBERS
100
AcDbLine
 62
7
  6
CONTINUOUS
 10
5.0900263975
 20
4.7274398827
 11
5.0900263975
 21
4.7329678891
  0
LINE
  5
271
100
AcDbEntity
  8
ALL_ASSEMBLY_MEMBERS
100
AcDbLine
 62
7
  6
CONTINUOUS
 10
5.1095269129
 20
5.3293700726
 11
5.1095269129
 21
5.2493700726
  0
LINE
  5
272
100
AcDbEntity
  8
ALL_ASSEMBLY_MEMBERS
100
AcDbLine
 62
7
  6
CONTINUOUS
 10
5.1207652632
 20
5.1058229953
 11
5.1207652632
 21
5.0930549452
  0
LINE
  5
273
100
AcDbEntity
  8
ALL_ASSEMBLY_MEMBERS
100
AcDbLine
 62
7
  6
CONTINUOUS
 10
5.1276413883
 20
5.1076470025
 11
5.1276413883
 21
5.0912309381
  0
LINE
  5
274
100
AcDbEntity
  8
ALL_ASSEMBLY_MEMBERS
100
AcDbLine
 62
7
  6
CONTINUOUS
 10
5.1295258822
 20
5.3293700726
 11
5.1295258822
 21
5.2493700726
  0
LINE
  5
275
100
AcDbEntity
  8
ALL_ASSEMBLY_MEMBERS
100
AcDbLine
 62
7
  6
CONTINUOUS
 10
5.138643198
 20
5.1076470025
 11
5.138643198
 21
5.0912309381
  0
LINE
  5
276
100
AcDbEntity
  8
ALL_ASSEMBLY_MEMBERS
100
AcDbLine
 62
7
  6
CONTINUOUS
 10
5.0863846255
 20
5.1167670382
 11
5.0850093974
 21
5.1058229953
  0
LINE
  5
277
100
AcDbEntity
  8
ALL_ASSEMBLY_MEMBERS
100
AcDbLine
 62
7
  6
CONTINUOUS
 10
5.1207652632
 20
5.0930549452
 11
5.119390035
 21
5.0821108997
  0
LINE
  5
278
100
AcDbEntity
  8
ALL_ASSEMBLY_MEMBERS
100
AcDbLine
 62
7
  6
CONTINUOUS
 10
5.1468945514
 20
5.1167670382
 11
5.1455193232
 21
5.1058229953
  0
LINE
  5
279
100
AcDbEntity
  8
ALL_ASSEMBLY_MEMBERS
100
AcDbLine
 62
7
  6
CONTINUOUS
 10
5.1812751851
 20
5.0930549452
 11
5.1798999648
 21
5.0821108997
  0
LINE
  5
27A
100
AcDbEntity
  8
ALL_ASSEMBLY_MEMBERS
100
AcDbLine
 62
7
  6
CONTINUOUS
 10
5.0795084964
 20
5.1167670382
 11
5.0781332702
 21
5.1076470025
  0
LINE
  5
27B
100
AcDbEntity
  8
ALL_ASSEMBLY_MEMBERS
100
AcDbLine
 62
7
  6
CONTINUOUS
 10
5.1276413883
 20
5.0912309381
 11
5.126266168
 21
5.0821108997
  0
LINE
  5
27C
100
AcDbEntity
  8
ALL_ASSEMBLY_MEMBERS
100
AcDbLine
 62
7
  6
CONTINUOUS
 10
5.1400184184
 20
5.1167670382
 11
5.138643198
 21
5.1076470025
  0
LINE
  5
27D
100
AcDbEntity
  8
ALL_ASSEMBLY_MEMBERS
100
AcDbLine
 62
7
  6
CONTINUOUS
 10
5.1881513102
 20
5.0912309381
 11
5.1867760899
 21
5.0821108997
  0
LINE
  5
27E
100
AcDbEntity
  8
ALL_ASSEMBLY_MEMBERS
100
AcDbLine
 62
7
  6
CONTINUOUS
 10
5.126266168
 20
5.0821108997
 11
5.1248909398
 21
5.0766388783
  0
LINE
  5
27F
100
AcDbEntity
  8
ALL_ASSEMBLY_MEMBERS
100
AcDbLine
 62
7
  6
CONTINUOUS
 10
5.1413936465
 20
5.1222390648
 11
5.1400184184
 21
5.1167670382
  0
LINE
  5
280
100
AcDbEntity
  8
ALL_ASSEMBLY_MEMBERS
100
AcDbLine
 62
7
  6
CONTINUOUS
 10
5.1867760899
 20
5.0821108997
 11
5.1854008696
 21
5.0766388783
  0
LINE
  5
281
100
AcDbEntity
  8
ALL_ASSEMBLY_MEMBERS
100
AcDbLine
 62
7
  6
CONTINUOUS
 10
5.144144095
 20
5.1295350934
 11
5.1413936465
 21
5.1222390648
  0
LINE
  5
282
100
AcDbEntity
  8
ALL_ASSEMBLY_MEMBERS
100
AcDbLine
 62
7
  6
CONTINUOUS
 10
5.1248909398
 20
5.0766388783
 11
5.1221404913
 21
5.0693428484
  0
LINE
  5
283
100
AcDbEntity
  8
ALL_ASSEMBLY_MEMBERS
100
AcDbLine
 62
7
  6
CONTINUOUS
 10
5.1854008696
 20
5.0766388783
 11
5.1826504133
 21
5.0693428484
  0
LINE
  5
284
100
AcDbEntity
  8
ALL_ASSEMBLY_MEMBERS
100
AcDbLine
 62
7
  6
CONTINUOUS
 10
5.1798999648
 20
5.0821108997
 11
5.1743990599
 21
5.0711668555
  0
LINE
  5
285
100
AcDbEntity
  8
ALL_ASSEMBLY_MEMBERS
100
AcDbLine
 62
7
  6
CONTINUOUS
 10
5.1460426635
 20
4.7342696789
 11
5.1249330041
 21
4.7342696789
  0
LINE
  5
286
100
AcDbEntity
  8
ALL_ASSEMBLY_MEMBERS
100
AcDbLine
 62
7
  6
CONTINUOUS
 10
5.1141197909
 20
4.7342696789
 11
5.0930101316
 21
4.7342696789
  0
LINE
  5
287
100
AcDbEntity
  8
ALL_ASSEMBLY_MEMBERS
100
AcDbLine
 62
7
  6
CONTINUOUS
 10
5.0795084964
 20
5.0821108997
 11
5.0781332702
 21
5.0912309381
  0
LINE
  5
288
100
AcDbEntity
  8
ALL_ASSEMBLY_MEMBERS
100
AcDbLine
 62
7
  6
CONTINUOUS
 10
5.0863846255
 20
5.0821108997
 11
5.0850093974
 21
5.0930549452
  0
LINE
  5
289
100
AcDbEntity
  8
ALL_ASSEMBLY_MEMBERS
100
AcDbLine
 62
7
  6
CONTINUOUS
 10
5.1455193232
 20
5.1058229953
 11
5.1455193232
 21
5.0930549452
  0
LINE
  5
28A
100
AcDbEntity
  8
ALL_ASSEMBLY_MEMBERS
100
AcDbLine
 62
7
  6
CONTINUOUS
 10
5.1490263975
 20
4.7274398827
 11
5.1490263975
 21
4.7329678891
  0
LINE
  5
28B
100
AcDbEntity
  8
ALL_ASSEMBLY_MEMBERS
100
AcDbLine
 62
7
  6
CONTINUOUS
 10
5.1812751851
 20
5.1058229953
 11
5.1812751851
 21
5.0930549452
  0
LINE
  5
28C
100
AcDbEntity
  8
ALL_ASSEMBLY_MEMBERS
100
AcDbLine
 62
7
  6
CONTINUOUS
 10
5.1881513102
 20
5.1076470025
 11
5.1881513102
 21
5.0912309381
  0
LINE
  5
28D
100
AcDbEntity
  8
ALL_ASSEMBLY_MEMBERS
100
AcDbLine
 62
7
  6
CONTINUOUS
 10
5.1985263975
 20
4.3100196789
 11
5.1985263975
 21
4.2945196789
  0
LINE
  5
28E
100
AcDbEntity
  8
ALL_ASSEMBLY_MEMBERS
100
AcDbLine
 62
7
  6
CONTINUOUS
 10
5.2607763975
 20
3.9395196789
 11
5.2607763975
 21
4.2945196789
  0
LINE
  5
28F
100
AcDbEntity
  8
ALL_ASSEMBLY_MEMBERS
100
AcDbLine
 62
7
  6
CONTINUOUS
 10
5.2757763975
 20
3.9395196789
 11
5.2757763975
 21
4.2795196789
  0
LINE
  5
290
100
AcDbEntity
  8
ALL_ASSEMBLY_MEMBERS
100
AcDbLine
 62
7
  6
CONTINUOUS
 10
5.0918855265
 20
5.0711668555
 11
5.0863846255
 21
5.0821108997
  0
LINE
  5
291
100
AcDbEntity
  8
ALL_ASSEMBLY_MEMBERS
100
AcDbLine
 62
7
  6
CONTINUOUS
 10
5.0836341731
 20
5.0693428484
 11
5.0808837226
 21
5.0766388783
  0
LINE
  5
292
100
AcDbEntity
  8
ALL_ASSEMBLY_MEMBERS
100
AcDbLine
 62
7
  6
CONTINUOUS
 10
5.144144095
 20
5.0693428484
 11
5.1413936465
 21
5.0766388783
  0
LINE
  5
293
100
AcDbEntity
  8
ALL_ASSEMBLY_MEMBERS
100
AcDbLine
 62
7
  6
CONTINUOUS
 10
5.1248909398
 20
5.1222390648
 11
5.1221404913
 21
5.1295350934
  0
LINE
  5
294
100
AcDbEntity
  8
ALL_ASSEMBLY_MEMBERS
100
AcDbLine
 62
7
  6
CONTINUOUS
 10
5.0808837226
 20
5.0766388783
 11
5.0795084964
 21
5.0821108997
  0
LINE
  5
295
100
AcDbEntity
  8
ALL_ASSEMBLY_MEMBERS
100
AcDbLine
 62
7
  6
CONTINUOUS
 10
5.126266168
 20
5.1167670382
 11
5.1248909398
 21
5.1222390648
  0
LINE
  5
296
100
AcDbEntity
  8
ALL_ASSEMBLY_MEMBERS
100
AcDbLine
 62
7
  6
CONTINUOUS
 10
5.1413936465
 20
5.0766388783
 11
5.1400184184
 21
5.0821108997
  0
LINE
  5
297
100
AcDbEntity
  8
ALL_ASSEMBLY_MEMBERS
100
AcDbLine
 62
7
  6
CONTINUOUS
 10
5.1867760899
 20
5.1167670382
 11
5.1854008696
 21
5.1222390648
  0
LINE
  5
298
100
AcDbEntity
  8
ALL_ASSEMBLY_MEMBERS
100
AcDbLine
 62
7
  6
CONTINUOUS
 10
5.1276413883
 20
5.1076470025
 11
5.126266168
 21
5.1167670382
  0
LINE
  5
299
100
AcDbEntity
  8
ALL_ASSEMBLY_MEMBERS
100
AcDbLine
 62
7
  6
CONTINUOUS
 10
5.1400184184
 20
5.0821108997
 11
5.138643198
 21
5.0912309381
  0
LINE
  5
29A
100
AcDbEntity
  8
ALL_ASSEMBLY_MEMBERS
100
AcDbLine
 62
7
  6
CONTINUOUS
 10
5.1881513102
 20
5.1076470025
 11
5.1867760899
 21
5.1167670382
  0
LINE
  5
29B
100
AcDbEntity
  8
ALL_ASSEMBLY_MEMBERS
100
AcDbLine
 62
7
  6
CONTINUOUS
 10
5.1207652632
 20
5.1058229953
 11
5.119390035
 21
5.1167670382
  0
LINE
  5
29C
100
AcDbEntity
  8
ALL_ASSEMBLY_MEMBERS
100
AcDbLine
 62
7
  6
CONTINUOUS
 10
5.1468945514
 20
5.0821108997
 11
5.1455193232
 21
5.0930549452
  0
LINE
  5
29D
100
AcDbEntity
  8
ALL_ASSEMBLY_MEMBERS
100
AcDbLine
 62
7
  6
CONTINUOUS
 10
5.1812751851
 20
5.1058229953
 11
5.1798999648
 21
5.1167670382
  0
LINE
  5
29E
100
AcDbEntity
  8
ALL_ASSEMBLY_MEMBERS
100
AcDbLine
 62
7
  6
CONTINUOUS
 10
5.2907763975
 20
3.9095196789
 11
5.2907763974
 21
3.9245196789
  0
LINE
  5
29F
100
AcDbEntity
  8
ALL_ASSEMBLY_MEMBERS
100
AcDbLine
 62
7
  6
CONTINUOUS
 10
5.3855741801
 20
5.1451574742
 11
5.3855741801
 21
5.056574797
  0
LINE
  5
2A0
100
AcDbEntity
  8
ALL_ASSEMBLY_MEMBERS
100
AcDbLine
 62
7
  6
CONTINUOUS
 10
5.3869894224
 20
5.1451574742
 11
5.3869894224
 21
5.056574797
  0
LINE
  5
2A1
100
AcDbEntity
  8
ALL_ASSEMBLY_MEMBERS
100
AcDbLine
 62
7
  6
CONTINUOUS
 10
5.4079519747
 20
5.1451574742
 11
5.4079519747
 21
5.056574797
  0
LINE
  5
2A2
100
AcDbEntity
  8
ALL_ASSEMBLY_MEMBERS
100
AcDbLine
 62
7
  6
CONTINUOUS
 10
4.6345263975
 20
4.9975196789
 11
5.6045263975
 21
4.9975196789
  0
LINE
  5
2A3
100
AcDbEntity
  8
ALL_ASSEMBLY_MEMBERS
100
AcDbLine
 62
7
  6
CONTINUOUS
 10
5.0946359789
 20
5.0583988043
 11
5.0877598498
 21
5.0638708263
  0
LINE
  5
2A4
100
AcDbEntity
  8
ALL_ASSEMBLY_MEMBERS
100
AcDbLine
 62
7
  6
CONTINUOUS
 10
5.1551459047
 20
5.0583988043
 11
5.1482697717
 21
5.0638708263
  0
LINE
  5
2A5
100
AcDbEntity
  8
ALL_ASSEMBLY_MEMBERS
100
AcDbLine
 62
7
  6
CONTINUOUS
 10
5.0960112031
 20
5.0675188412
 11
5.0918855265
 21
5.0711668555
  0
LINE
  5
2A6
100
AcDbEntity
  8
ALL_ASSEMBLY_MEMBERS
100
AcDbLine
 62
7
  6
CONTINUOUS
 10
5.156521125
 20
5.0675188412
 11
5.1523954484
 21
5.0711668555
  0
LINE
  5
2A7
100
AcDbEntity
  8
ALL_ASSEMBLY_MEMBERS
100
AcDbLine
 62
7
  6
CONTINUOUS
 10
5.1138891341
 20
5.1277110863
 11
5.1097634574
 21
5.1313591006
  0
LINE
  5
2A8
100
AcDbEntity
  8
ALL_ASSEMBLY_MEMBERS
100
AcDbLine
 62
7
  6
CONTINUOUS
 10
5.0877598498
 20
5.0638708263
 11
5.0836341731
 21
5.0693428484
  0
LINE
  5
2A9
100
AcDbEntity
  8
ALL_ASSEMBLY_MEMBERS
100
AcDbLine
 62
7
  6
CONTINUOUS
 10
5.1482697717
 20
5.0638708263
 11
5.144144095
 21
5.0693428484
  0
LINE
  5
2AA
100
AcDbEntity
  8
ALL_ASSEMBLY_MEMBERS
100
AcDbLine
 62
7
  6
CONTINUOUS
 10
5.1221404913
 20
5.1295350934
 11
5.1180148147
 21
5.1350071149
  0
LINE
  5
2AB
100
AcDbEntity
  8
ALL_ASSEMBLY_MEMBERS
100
AcDbLine
 62
7
  6
CONTINUOUS
 10
5.1826504133
 20
5.1295350934
 11
5.1785247366
 21
5.1350071149
  0
LINE
  5
2AC
100
AcDbEntity
  8
ALL_ASSEMBLY_MEMBERS
100
AcDbLine
 62
7
  6
CONTINUOUS
 10
5.119390035
 20
5.1167670382
 11
5.1138891341
 21
5.1277110863
  0
LINE
  5
2AD
100
AcDbEntity
  8
ALL_ASSEMBLY_MEMBERS
100
AcDbLine
 62
7
  6
CONTINUOUS
 10
5.1523954484
 20
5.0711668555
 11
5.1468945514
 21
5.0821108997
  0
LINE
  5
2AE
100
AcDbEntity
  8
ALL_ASSEMBLY_MEMBERS
100
AcDbLine
 62
7
  6
CONTINUOUS
 10
5.1798999648
 20
5.1167670382
 11
5.1743990599
 21
5.1277110863
  0
LINE
  5
2AF
100
AcDbEntity
  8
ALL_ASSEMBLY_MEMBERS
100
AcDbLine
 62
7
  6
CONTINUOUS
 10
5.1854008696
 20
5.1222390648
 11
5.1826504133
 21
5.1295350934
  0
LINE
  5
2B0
100
AcDbEntity
  8
ALL_ASSEMBLY_MEMBERS
100
AcDbLine
 62
7
  6
CONTINUOUS
 10
5.5232763975
 20
4.3100196789
 11
5.5232763975
 21
4.4660196789
  0
LINE
  5
2B1
100
AcDbEntity
  8
ALL_ASSEMBLY_MEMBERS
100
AcDbLine
 62
7
  6
CONTINUOUS
 10
5.5445119207
 20
5.1295350934
 11
5.5445119207
 21
5.1149430311
  0
LINE
  5
2B2
100
AcDbEntity
  8
ALL_ASSEMBLY_MEMBERS
100
AcDbLine
 62
7
  6
CONTINUOUS
 10
5.5468536008
 20
5.1295350934
 11
5.5468536008
 21
5.1149430311
  0
LINE
  5
2B3
100
AcDbEntity
  8
ALL_ASSEMBLY_MEMBERS
100
AcDbLine
 62
7
  6
CONTINUOUS
 10
5.5495154434
 20
5.12167334
 11
5.5495154434
 21
5.056574797
  0
LINE
  5
2B4
100
AcDbEntity
  8
ALL_ASSEMBLY_MEMBERS
100
AcDbLine
 62
7
  6
CONTINUOUS
 10
5.5518501931
 20
5.1277110863
 11
5.5518501931
 21
5.056574797
  0
LINE
  5
2B5
100
AcDbEntity
  8
ALL_ASSEMBLY_MEMBERS
100
AcDbLine
 62
7
  6
CONTINUOUS
 10
5.5566192508
 20
5.1423031435
 11
5.5566192508
 21
5.056574797
  0
LINE
  5
2B6
100
AcDbEntity
  8
ALL_ASSEMBLY_MEMBERS
100
AcDbLine
 62
7
  6
CONTINUOUS
 10
5.5603036072
 20
5.1295350934
 11
5.5603036072
 21
5.1149430311
  0
LINE
  5
2B7
100
AcDbEntity
  8
ALL_ASSEMBLY_MEMBERS
100
AcDbLine
 62
7
  6
CONTINUOUS
 10
5.5626268681
 20
5.1295350934
 11
5.5626268681
 21
5.1149430311
  0
LINE
  5
2B8
100
AcDbEntity
  8
ALL_ASSEMBLY_MEMBERS
100
AcDbLine
 62
7
  6
CONTINUOUS
 10
5.5645505695
 20
5.120649324
 11
5.5645505695
 21
5.056574797
  0
LINE
  5
2B9
100
AcDbEntity
  8
ALL_ASSEMBLY_MEMBERS
100
AcDbLine
 62
7
  6
CONTINUOUS
 10
5.5668708596
 20
5.1277110863
 11
5.5668708596
 21
5.056574797
  0
LINE
  5
2BA
100
AcDbEntity
  8
ALL_ASSEMBLY_MEMBERS
100
AcDbLine
 62
7
  6
CONTINUOUS
 10
5.5708914976
 20
5.1423031435
 11
5.5708914976
 21
5.056574797
  0
LINE
  5
2BB
100
AcDbEntity
  8
ALL_ASSEMBLY_MEMBERS
100
AcDbLine
 62
7
  6
CONTINUOUS
 10
5.5735879492
 20
5.1423031435
 11
5.5735879492
 21
5.0948789524
  0
LINE
  5
2BC
100
AcDbEntity
  8
ALL_ASSEMBLY_MEMBERS
100
AcDbLine
 62
7
  6
CONTINUOUS
 10
5.1702733832
 20
5.0675188412
 11
5.1633972581
 21
5.0656948341
  0
LINE
  5
2BD
100
AcDbEntity
  8
ALL_ASSEMBLY_MEMBERS
100
AcDbLine
 62
7
  6
CONTINUOUS
 10
5.1097634574
 20
5.0675188412
 11
5.1028873322
 21
5.0656948341
  0
LINE
  5
2BE
100
AcDbEntity
  8
ALL_ASSEMBLY_MEMBERS
100
AcDbLine
 62
7
  6
CONTINUOUS
 10
5.1633972581
 20
5.1331831077
 11
5.156521125
 21
5.1313591006
  0
LINE
  5
2BF
100
AcDbEntity
  8
ALL_ASSEMBLY_MEMBERS
100
AcDbLine
 62
7
  6
CONTINUOUS
 10
5.1028873322
 20
5.1331831077
 11
5.0960112031
 21
5.1313591006
  0
LINE
  5
2C0
100
AcDbEntity
  8
ALL_ASSEMBLY_MEMBERS
100
AcDbLine
 62
7
  6
CONTINUOUS
 10
5.1716486114
 20
5.0583988043
 11
5.1633972581
 21
5.056574797
  0
LINE
  5
2C1
100
AcDbEntity
  8
ALL_ASSEMBLY_MEMBERS
100
AcDbLine
 62
7
  6
CONTINUOUS
 10
5.1111386856
 20
5.0583988043
 11
5.1028873322
 21
5.056574797
  0
LINE
  5
2C2
100
AcDbEntity
  8
ALL_ASSEMBLY_MEMBERS
100
AcDbLine
 62
7
  6
CONTINUOUS
 10
5.1633972581
 20
5.1423031435
 11
5.1551459047
 21
5.1404791363
  0
LINE
  5
2C3
100
AcDbEntity
  8
ALL_ASSEMBLY_MEMBERS
100
AcDbLine
 62
7
  6
CONTINUOUS
 10
5.1028873322
 20
5.1423031435
 11
5.0946359789
 21
5.1404791363
  0
LINE
  5
2C4
100
AcDbEntity
  8
ALL_ASSEMBLY_MEMBERS
100
AcDbLine
 62
7
  6
CONTINUOUS
 10
5.6042763975
 20
5.056574797
 11
5.601640099
 21
5.056574797
  0
LINE
  5
2C5
100
AcDbEntity
  8
ALL_ASSEMBLY_MEMBERS
100
AcDbLine
 62
7
  6
CONTINUOUS
 10
5.5871826373
 20
5.056574797
 11
5.5819180067
 21
5.056574797
  0
LINE
  5
2C6
100
AcDbEntity
  8
ALL_ASSEMBLY_MEMBERS
100
AcDbLine
 62
7
  6
CONTINUOUS
 10
5.5708914976
 20
5.056574797
 11
5.5645505695
 21
5.056574797
  0
LINE
  5
2C7
100
AcDbEntity
  8
ALL_ASSEMBLY_MEMBERS
100
AcDbLine
 62
7
  6
CONTINUOUS
 10
5.5566192508
 20
5.056574797
 11
5.5495154434
 21
5.056574797
  0
LINE
  5
2C8
100
AcDbEntity
  8
ALL_ASSEMBLY_MEMBERS
100
AcDbLine
 62
7
  6
CONTINUOUS
 10
5.4079519747
 20
5.056574797
 11
5.3855741801
 21
5.056574797
  0
LINE
  5
2C9
100
AcDbEntity
  8
ALL_ASSEMBLY_MEMBERS
100
AcDbLine
 62
7
  6
CONTINUOUS
 10
5.0671314664
 20
5.056574797
 11
5.0588801131
 21
5.056574797
  0
LINE
  5
2CA
100
AcDbEntity
  8
ALL_ASSEMBLY_MEMBERS
100
AcDbLine
 62
7
  6
CONTINUOUS
 10
4.6349452965
 20
5.056574797
 11
4.6374126961
 21
5.056574797
  0
LINE
  5
2CB
100
AcDbEntity
  8
ALL_ASSEMBLY_MEMBERS
100
AcDbLine
 62
7
  6
CONTINUOUS
 10
4.6544170687
 20
5.056574797
 11
4.6588784237
 21
5.056574797
  0
LINE
  5
2CC
100
AcDbEntity
  8
ALL_ASSEMBLY_MEMBERS
100
AcDbLine
 62
7
  6
CONTINUOUS
 10
4.6725818126
 20
5.056574797
 11
4.6778236564
 21
5.056574797
  0
LINE
  5
2CD
100
AcDbEntity
  8
ALL_ASSEMBLY_MEMBERS
100
AcDbLine
 62
7
  6
CONTINUOUS
 10
4.8311008203
 20
5.056574797
 11
4.8534786149
 21
5.056574797
  0
LINE
  5
2CE
100
AcDbEntity
  8
ALL_ASSEMBLY_MEMBERS
100
AcDbLine
 62
7
  6
CONTINUOUS
 10
5.581616885
 20
5.0583988043
 11
5.5792970337
 21
5.0583988043
  0
LINE
  5
2CF
100
AcDbEntity
  8
ALL_ASSEMBLY_MEMBERS
100
AcDbLine
 62
7
  6
CONTINUOUS
 10
4.6584232459
 20
5.0583988043
 11
4.6607424941
 21
5.0583988043
  0
LINE
  5
2D0
100
AcDbEntity
  8
ALL_ASSEMBLY_MEMBERS
100
AcDbLine
 62
7
  6
CONTINUOUS
 10
4.6780153362
 20
5.0583988043
 11
4.6803399565
 21
5.0583988043
  0
LINE
  5
2D1
100
AcDbEntity
  8
ALL_ASSEMBLY_MEMBERS
100
AcDbLine
 62
7
  6
CONTINUOUS
 10
5.5788386918
 20
5.0638708263
 11
5.5765202539
 21
5.0638708263
  0
LINE
  5
2D2
100
AcDbEntity
  8
ALL_ASSEMBLY_MEMBERS
100
AcDbLine
 62
7
  6
CONTINUOUS
 10
4.6603622965
 20
5.0638708263
 11
4.6626806828
 21
5.0638708263
  0
LINE
  5
2D3
100
AcDbEntity
  8
ALL_ASSEMBLY_MEMBERS
100
AcDbLine
 62
7
  6
CONTINUOUS
 10
4.6806037946
 20
5.0638708263
 11
4.6829308922
 21
5.0638708263
  0
LINE
  5
2D4
100
AcDbEntity
  8
ALL_ASSEMBLY_MEMBERS
100
AcDbLine
 62
7
  6
CONTINUOUS
 10
5.5871826373
 20
5.0656948341
 11
5.5842400688
 21
5.0656948341
  0
LINE
  5
2D5
100
AcDbEntity
  8
ALL_ASSEMBLY_MEMBERS
100
AcDbLine
 62
7
  6
CONTINUOUS
 10
4.6755011268
 20
5.0656948341
 11
4.6725818126
 21
5.0656948341
  0
LINE
  5
2D6
100
AcDbEntity
  8
ALL_ASSEMBLY_MEMBERS
100
AcDbLine
 62
7
  6
CONTINUOUS
 10
4.6561937313
 20
5.0656948341
 11
4.6547664833
 21
5.0656948341
  0
LINE
  5
2D7
100
AcDbEntity
  8
ALL_ASSEMBLY_MEMBERS
100
AcDbLine
 62
7
  6
CONTINUOUS
 10
5.5890194652
 20
5.0675188412
 11
5.5866905604
 21
5.0675188412
  0
LINE
  5
2D8
100
AcDbEntity
  8
ALL_ASSEMBLY_MEMBERS
100
AcDbLine
 62
7
  6
CONTINUOUS
 10
4.6533866022
 20
5.0675188412
 11
4.6557102841
 21
5.0675188412
  0
LINE
  5
2D9
100
AcDbEntity
  8
ALL_ASSEMBLY_MEMBERS
100
AcDbLine
 62
7
  6
CONTINUOUS
 10
4.6706947097
 20
5.0675188412
 11
4.6730142054
 21
5.0675188412
  0
LINE
  5
2DA
100
AcDbEntity
  8
ALL_ASSEMBLY_MEMBERS
100
AcDbLine
 62
7
  6
CONTINUOUS
 10
4.6615610875
 20
5.0693428484
 11
4.6638791378
 21
5.0693428484
  0
LINE
  5
2DB
100
AcDbEntity
  8
ALL_ASSEMBLY_MEMBERS
100
AcDbLine
 62
7
  6
CONTINUOUS
 10
5.5903312473
 20
5.0711668555
 11
5.5879996503
 21
5.0711668555
  0
LINE
  5
2DC
100
AcDbEntity
  8
ALL_ASSEMBLY_MEMBERS
100
AcDbLine
 62
7
  6
CONTINUOUS
 10
5.5770974931
 20
5.0711668555
 11
5.5747795226
 21
5.0711668555
  0
LINE
  5
2DD
100
AcDbEntity
  8
ALL_ASSEMBLY_MEMBERS
100
AcDbLine
 62
7
  6
CONTINUOUS
 10
4.6520541846
 20
5.0711668555
 11
4.6543796852
 21
5.0711668555
  0
LINE
  5
2DE
100
AcDbEntity
  8
ALL_ASSEMBLY_MEMBERS
100
AcDbLine
 62
7
  6
CONTINUOUS
 10
4.6693103645
 20
5.0711668555
 11
4.6716292464
 21
5.0711668555
  0
LINE
  5
2DF
100
AcDbEntity
  8
ALL_ASSEMBLY_MEMBERS
100
AcDbLine
 62
7
  6
CONTINUOUS
 10
4.6821926079
 20
5.0711668555
 11
4.684521379
 21
5.0711668555
  0
LINE
  5
2E0
100
AcDbEntity
  8
ALL_ASSEMBLY_MEMBERS
100
AcDbLine
 62
7
  6
CONTINUOUS
 10
5.5911743116
 20
5.0766388783
 11
5.5888407533
 21
5.0766388783
  0
LINE
  5
2E1
100
AcDbEntity
  8
ALL_ASSEMBLY_MEMBERS
100
AcDbLine
 62
7
  6
CONTINUOUS
 10
5.5794067153
 20
5.0784628854
 11
5.5735879492
 21
5.0784628854
  0
LINE
  5
2E2
100
AcDbEntity
  8
ALL_ASSEMBLY_MEMBERS
100
AcDbLine
 62
7
  6
CONTINUOUS
 10
4.6510860853
 20
5.0784628854
 11
4.6534131127
 21
5.0784628854
  0
LINE
  5
2E3
100
AcDbEntity
  8
ALL_ASSEMBLY_MEMBERS
100
AcDbLine
 62
7
  6
CONTINUOUS
 10
4.6623750074
 20
5.0784628854
 11
4.6646929091
 21
5.0784628854
  0
LINE
  5
2E4
100
AcDbEntity
  8
ALL_ASSEMBLY_MEMBERS
100
AcDbLine
 62
7
  6
CONTINUOUS
 10
4.6657484542
 20
5.0784628854
 11
4.6707207563
 21
5.0784628854
  0
LINE
  5
2E5
100
AcDbEntity
  8
ALL_ASSEMBLY_MEMBERS
100
AcDbLine
 62
7
  6
CONTINUOUS
 10
4.6832667413
 20
5.0802868926
 11
4.6855967065
 21
5.0802868926
  0
LINE
  5
2E6
100
AcDbEntity
  8
ALL_ASSEMBLY_MEMBERS
100
AcDbLine
 62
7
  6
CONTINUOUS
 10
5.5915863804
 20
5.0821108997
 11
5.5892517911
 21
5.0821108997
  0
LINE
  5
2E7
100
AcDbEntity
  8
ALL_ASSEMBLY_MEMBERS
100
AcDbLine
 62
7
  6
CONTINUOUS
 10
4.6510860853
 20
5.0839349069
 11
4.6534131127
 21
5.0839349069
  0
LINE
  5
2E8
100
AcDbEntity
  8
ALL_ASSEMBLY_MEMBERS
100
AcDbLine
 62
7
  6
CONTINUOUS
 10
4.6623750074
 20
5.0839349069
 11
4.6646929091
 21
5.0839349069
  0
LINE
  5
2E9
100
AcDbEntity
  8
ALL_ASSEMBLY_MEMBERS
100
AcDbLine
 62
7
  6
CONTINUOUS
 10
5.5915863804
 20
5.0857589141
 11
5.5892517911
 21
5.0857589141
  0
LINE
  5
2EA
100
AcDbEntity
  8
ALL_ASSEMBLY_MEMBERS
100
AcDbLine
 62
7
  6
CONTINUOUS
 10
4.6832667413
 20
5.0875829212
 11
4.6855967065
 21
5.0875829212
  0
LINE
  5
2EB
100
AcDbEntity
  8
ALL_ASSEMBLY_MEMBERS
100
AcDbLine
 62
7
  6
CONTINUOUS
 10
5.5911743116
 20
5.0912309381
 11
5.5888407533
 21
5.0912309381
  0
LINE
  5
2EC
100
AcDbEntity
  8
ALL_ASSEMBLY_MEMBERS
100
AcDbLine
 62
7
  6
CONTINUOUS
 10
4.6520541846
 20
5.0912309381
 11
4.6543796852
 21
5.0912309381
  0
LINE
  5
2ED
100
AcDbEntity
  8
ALL_ASSEMBLY_MEMBERS
100
AcDbLine
 62
7
  6
CONTINUOUS
 10
4.6615610875
 20
5.0930549452
 11
4.6638791378
 21
5.0930549452
  0
LINE
  5
2EE
100
AcDbEntity
  8
ALL_ASSEMBLY_MEMBERS
100
AcDbLine
 62
7
  6
CONTINUOUS
 10
5.57996855
 20
5.0948789524
 11
5.5735879492
 21
5.0948789524
  0
LINE
  5
2EF
100
AcDbEntity
  8
ALL_ASSEMBLY_MEMBERS
100
AcDbLine
 62
7
  6
CONTINUOUS
 10
4.6533866022
 20
5.0948789524
 11
4.6557102841
 21
5.0948789524
  0
LINE
  5
2F0
100
AcDbEntity
  8
ALL_ASSEMBLY_MEMBERS
100
AcDbLine
 62
7
  6
CONTINUOUS
 10
4.6657484542
 20
5.0948789524
 11
4.67117352
 21
5.0948789524
  0
LINE
  5
2F1
100
AcDbEntity
  8
ALL_ASSEMBLY_MEMBERS
100
AcDbLine
 62
7
  6
CONTINUOUS
 10
5.5903312473
 20
5.0967029595
 11
5.5879996503
 21
5.0967029595
  0
LINE
  5
2F2
100
AcDbEntity
  8
ALL_ASSEMBLY_MEMBERS
100
AcDbLine
 62
7
  6
CONTINUOUS
 10
4.6561937313
 20
5.0967029595
 11
4.6547664833
 21
5.0967029595
  0
LINE
  5
2F3
100
AcDbEntity
  8
ALL_ASSEMBLY_MEMBERS
100
AcDbLine
 62
7
  6
CONTINUOUS
 10
4.6821926079
 20
5.0967029595
 11
4.684521379
 21
5.0967029595
  0
LINE
  5
2F4
100
AcDbEntity
  8
ALL_ASSEMBLY_MEMBERS
100
AcDbLine
 62
7
  6
CONTINUOUS
 10
4.6599685918
 20
5.0985269667
 11
4.6622871202
 21
5.0985269667
  0
LINE
  5
2F5
100
AcDbEntity
  8
ALL_ASSEMBLY_MEMBERS
100
AcDbLine
 62
7
  6
CONTINUOUS
 10
5.5890194652
 20
5.1003509738
 11
5.5866905604
 21
5.1003509738
  0
LINE
  5
2F6
100
AcDbEntity
  8
ALL_ASSEMBLY_MEMBERS
100
AcDbLine
 62
7
  6
CONTINUOUS
 10
4.6591900222
 20
5.1003509738
 11
4.6615088802
 21
5.1003509738
  0
LINE
  5
2F7
100
AcDbEntity
  8
ALL_ASSEMBLY_MEMBERS
100
AcDbLine
 62
7
  6
CONTINUOUS
 10
4.6706947097
 20
5.1003509738
 11
4.6730142054
 21
5.1003509738
  0
LINE
  5
2F8
100
AcDbEntity
  8
ALL_ASSEMBLY_MEMBERS
100
AcDbLine
 62
7
  6
CONTINUOUS
 10
5.5871826373
 20
5.102174981
 11
5.5842400688
 21
5.102174981
  0
LINE
  5
2F9
100
AcDbEntity
  8
ALL_ASSEMBLY_MEMBERS
100
AcDbLine
 62
7
  6
CONTINUOUS
 10
4.6755011268
 20
5.102174981
 11
4.6725818126
 21
5.102174981
  0
LINE
  5
2FA
100
AcDbEntity
  8
ALL_ASSEMBLY_MEMBERS
100
AcDbLine
 62
7
  6
CONTINUOUS
 10
4.6599685918
 20
5.102174981
 11
4.6622871202
 21
5.102174981
  0
LINE
  5
2FB
100
AcDbEntity
  8
ALL_ASSEMBLY_MEMBERS
100
AcDbLine
 62
7
  6
CONTINUOUS
 10
4.6561937313
 20
5.1039989881
 11
4.6547664833
 21
5.1039989881
  0
LINE
  5
2FC
100
AcDbEntity
  8
ALL_ASSEMBLY_MEMBERS
100
AcDbLine
 62
7
  6
CONTINUOUS
 10
4.6806037946
 20
5.1039989881
 11
4.6829308922
 21
5.1039989881
  0
LINE
  5
2FD
100
AcDbEntity
  8
ALL_ASSEMBLY_MEMBERS
100
AcDbLine
 62
7
  6
CONTINUOUS
 10
4.6533866022
 20
5.1058229953
 11
4.6557102841
 21
5.1058229953
  0
LINE
  5
2FE
100
AcDbEntity
  8
ALL_ASSEMBLY_MEMBERS
100
AcDbLine
 62
7
  6
CONTINUOUS
 10
4.6611585454
 20
5.1076470025
 11
4.6634766926
 21
5.1076470025
  0
LINE
  5
2FF
100
AcDbEntity
  8
ALL_ASSEMBLY_MEMBERS
100
AcDbLine
 62
7
  6
CONTINUOUS
 10
5.581616885
 20
5.1094710096
 11
5.5792970337
 21
5.1094710096
  0
LINE
  5
300
100
AcDbEntity
  8
ALL_ASSEMBLY_MEMBERS
100
AcDbLine
 62
7
  6
CONTINUOUS
 10
4.6780153362
 20
5.1094710096
 11
4.6803399565
 21
5.1094710096
  0
LINE
  5
301
100
AcDbEntity
  8
ALL_ASSEMBLY_MEMBERS
100
AcDbLine
 62
7
  6
CONTINUOUS
 10
5.5871826373
 20
5.1112950168
 11
5.5819180067
 21
5.1112950168
  0
LINE
  5
302
100
AcDbEntity
  8
ALL_ASSEMBLY_MEMBERS
100
AcDbLine
 62
7
  6
CONTINUOUS
 10
4.6520541846
 20
5.1112950168
 11
4.6543796852
 21
5.1112950168
  0
LINE
  5
303
100
AcDbEntity
  8
ALL_ASSEMBLY_MEMBERS
100
AcDbLine
 62
7
  6
CONTINUOUS
 10
4.6725818126
 20
5.1112950168
 11
4.6778236564
 21
5.1112950168
  0
LINE
  5
304
100
AcDbEntity
  8
ALL_ASSEMBLY_MEMBERS
100
AcDbLine
 62
7
  6
CONTINUOUS
 10
5.5626268681
 20
5.1149430311
 11
5.5603036072
 21
5.1149430311
  0
LINE
  5
305
100
AcDbEntity
  8
ALL_ASSEMBLY_MEMBERS
100
AcDbLine
 62
7
  6
CONTINUOUS
 10
5.5468536008
 20
5.1149430311
 11
5.5445119207
 21
5.1149430311
  0
LINE
  5
306
100
AcDbEntity
  8
ALL_ASSEMBLY_MEMBERS
100
AcDbLine
 62
7
  6
CONTINUOUS
 10
4.6619665757
 20
5.1149430311
 11
4.6642845441
 21
5.1149430311
  0
LINE
  5
307
100
AcDbEntity
  8
ALL_ASSEMBLY_MEMBERS
100
AcDbLine
 62
7
  6
CONTINUOUS
 10
4.6514058085
 20
5.1167670382
 11
4.6537323115
 21
5.1167670382
  0
LINE
  5
308
100
AcDbEntity
  8
ALL_ASSEMBLY_MEMBERS
100
AcDbLine
 62
7
  6
CONTINUOUS
 10
4.6514058085
 20
5.1204150525
 11
4.6537323115
 21
5.1204150525
  0
LINE
  5
309
100
AcDbEntity
  8
ALL_ASSEMBLY_MEMBERS
100
AcDbLine
 62
7
  6
CONTINUOUS
 10
4.6619665757
 20
5.1204150525
 11
4.6642845441
 21
5.1204150525
  0
LINE
  5
30A
100
AcDbEntity
  8
ALL_ASSEMBLY_MEMBERS
100
AcDbLine
 62
7
  6
CONTINUOUS
 10
4.6520541846
 20
5.1258870791
 11
4.6543796852
 21
5.1258870791
  0
LINE
  5
30B
100
AcDbEntity
  8
ALL_ASSEMBLY_MEMBERS
100
AcDbLine
 62
7
  6
CONTINUOUS
 10
5.5626268681
 20
5.1295350934
 11
5.5603036072
 21
5.1295350934
  0
LINE
  5
30C
100
AcDbEntity
  8
ALL_ASSEMBLY_MEMBERS
100
AcDbLine
 62
7
  6
CONTINUOUS
 10
5.5468536008
 20
5.1295350934
 11
5.5445119207
 21
5.1295350934
  0
LINE
  5
30D
100
AcDbEntity
  8
ALL_ASSEMBLY_MEMBERS
100
AcDbLine
 62
7
  6
CONTINUOUS
 10
4.6611585454
 20
5.1295350934
 11
4.6634766926
 21
5.1295350934
  0
LINE
  5
30E
100
AcDbEntity
  8
ALL_ASSEMBLY_MEMBERS
100
AcDbLine
 62
7
  6
CONTINUOUS
 10
4.6533866022
 20
5.1313591006
 11
4.6557102841
 21
5.1313591006
  0
LINE
  5
30F
100
AcDbEntity
  8
ALL_ASSEMBLY_MEMBERS
100
AcDbLine
 62
7
  6
CONTINUOUS
 10
5.5927846472
 20
5.1331831077
 11
5.5788386918
 21
5.1331831077
  0
LINE
  5
310
100
AcDbEntity
  8
ALL_ASSEMBLY_MEMBERS
100
AcDbLine
 62
7
  6
CONTINUOUS
 10
4.6561937313
 20
5.1331831077
 11
4.6547664833
 21
5.1331831077
  0
LINE
  5
311
100
AcDbEntity
  8
ALL_ASSEMBLY_MEMBERS
100
AcDbLine
 62
7
  6
CONTINUOUS
 10
4.6679525529
 20
5.1331831077
 11
4.684521379
 21
5.1331831077
  0
LINE
  5
312
100
AcDbEntity
  8
ALL_ASSEMBLY_MEMBERS
100
AcDbLine
 62
7
  6
CONTINUOUS
 10
4.6599685918
 20
5.1350071149
 11
4.6622871202
 21
5.1350071149
  0
LINE
  5
313
100
AcDbEntity
  8
ALL_ASSEMBLY_MEMBERS
100
AcDbLine
 62
7
  6
CONTINUOUS
 10
4.6580442805
 20
5.1404791363
 11
4.6603637465
 21
5.1404791363
  0
LINE
  5
314
100
AcDbEntity
  8
ALL_ASSEMBLY_MEMBERS
100
AcDbLine
 62
7
  6
CONTINUOUS
 10
5.5927846472
 20
5.1423031435
 11
5.5735879492
 21
5.1423031435
  0
LINE
  5
315
100
AcDbEntity
  8
ALL_ASSEMBLY_MEMBERS
100
AcDbLine
 62
7
  6
CONTINUOUS
 10
5.5708914976
 20
5.1423031435
 11
5.5645505695
 21
5.1423031435
  0
LINE
  5
316
100
AcDbEntity
  8
ALL_ASSEMBLY_MEMBERS
100
AcDbLine
 62
7
  6
CONTINUOUS
 10
5.5566192508
 20
5.1423031435
 11
5.5495154434
 21
5.1423031435
  0
LINE
  5
317
100
AcDbEntity
  8
ALL_ASSEMBLY_MEMBERS
100
AcDbLine
 62
7
  6
CONTINUOUS
 10
5.0671314664
 20
5.1423031435
 11
5.0588801131
 21
5.1423031435
  0
LINE
  5
318
100
AcDbEntity
  8
ALL_ASSEMBLY_MEMBERS
100
AcDbLine
 62
7
  6
CONTINUOUS
 10
4.6547664833
 20
5.1423031435
 11
4.6585145137
 21
5.1423031435
  0
LINE
  5
319
100
AcDbEntity
  8
ALL_ASSEMBLY_MEMBERS
100
AcDbLine
 62
7
  6
CONTINUOUS
 10
4.6657484542
 20
5.1423031435
 11
4.684521379
 21
5.1423031435
  0
LINE
  5
31A
100
AcDbEntity
  8
ALL_ASSEMBLY_MEMBERS
100
AcDbLine
 62
7
  6
CONTINUOUS
 10
5.6042763975
 20
5.1451574742
 11
5.601640099
 21
5.1451574742
  0
LINE
  5
31B
100
AcDbEntity
  8
ALL_ASSEMBLY_MEMBERS
100
AcDbLine
 62
7
  6
CONTINUOUS
 10
5.4079519747
 20
5.1451574742
 11
5.3855741801
 21
5.1451574742
  0
LINE
  5
31C
100
AcDbEntity
  8
ALL_ASSEMBLY_MEMBERS
100
AcDbLine
 62
7
  6
CONTINUOUS
 10
4.6349452965
 20
5.1451574742
 11
4.6374126961
 21
5.1451574742
  0
LINE
  5
31D
100
AcDbEntity
  8
ALL_ASSEMBLY_MEMBERS
100
AcDbLine
 62
7
  6
CONTINUOUS
 10
4.8311008203
 20
5.1451574742
 11
4.8534786149
 21
5.1451574742
  0
LINE
  5
31E
100
AcDbEntity
  8
ALL_ASSEMBLY_MEMBERS
100
AcDbLine
 62
7
  6
CONTINUOUS
 10
5.1028873322
 20
5.056574797
 11
5.0946359789
 21
5.0583988043
  0
LINE
  5
31F
100
AcDbEntity
  8
ALL_ASSEMBLY_MEMBERS
100
AcDbLine
 62
7
  6
CONTINUOUS
 10
5.1633972581
 20
5.056574797
 11
5.1551459047
 21
5.0583988043
  0
LINE
  5
320
100
AcDbEntity
  8
ALL_ASSEMBLY_MEMBERS
100
AcDbLine
 62
7
  6
CONTINUOUS
 10
5.1111386856
 20
5.1404791363
 11
5.1028873322
 21
5.1423031435
  0
LINE
  5
321
100
AcDbEntity
  8
ALL_ASSEMBLY_MEMBERS
100
AcDbLine
 62
7
  6
CONTINUOUS
 10
5.1716486114
 20
5.1404791363
 11
5.1633972581
 21
5.1423031435
  0
LINE
  5
322
100
AcDbEntity
  8
ALL_ASSEMBLY_MEMBERS
100
AcDbLine
 62
7
  6
CONTINUOUS
 10
5.1028873322
 20
5.0656948341
 11
5.0960112031
 21
5.0675188412
  0
LINE
  5
323
100
AcDbEntity
  8
ALL_ASSEMBLY_MEMBERS
100
AcDbLine
 62
7
  6
CONTINUOUS
 10
5.1633972581
 20
5.0656948341
 11
5.156521125
 21
5.0675188412
  0
LINE
  5
324
100
AcDbEntity
  8
ALL_ASSEMBLY_MEMBERS
100
AcDbLine
 62
7
  6
CONTINUOUS
 10
5.1097634574
 20
5.1313591006
 11
5.1028873322
 21
5.1331831077
  0
LINE
  5
325
100
AcDbEntity
  8
ALL_ASSEMBLY_MEMBERS
100
AcDbLine
 62
7
  6
CONTINUOUS
 10
5.1702733832
 20
5.1313591006
 11
5.1633972581
 21
5.1331831077
  0
LINE
  5
326
100
AcDbEntity
  8
ALL_ASSEMBLY_MEMBERS
100
AcDbLine
 62
7
  6
CONTINUOUS
 10
5.1180148147
 20
5.1350071149
 11
5.1111386856
 21
5.1404791363
  0
LINE
  5
327
100
AcDbEntity
  8
ALL_ASSEMBLY_MEMBERS
100
AcDbLine
 62
7
  6
CONTINUOUS
 10
5.1785247366
 20
5.1350071149
 11
5.1716486114
 21
5.1404791363
  0
LINE
  5
328
100
AcDbEntity
  8
ALL_ASSEMBLY_MEMBERS
100
AcDbLine
 62
7
  6
CONTINUOUS
 10
5.1743990599
 20
5.1277110863
 11
5.1702733832
 21
5.1313591006
  0
LINE
  5
329
100
AcDbEntity
  8
ALL_ASSEMBLY_MEMBERS
100
AcDbLine
 62
7
  6
CONTINUOUS
 10
5.5759057664
 20
5.1423031435
 11
5.5759057664
 21
5.0948789524
  0
LINE
  5
32A
100
AcDbEntity
  8
ALL_ASSEMBLY_MEMBERS
100
AcDbLine
 62
7
  6
CONTINUOUS
 10
5.5788386918
 20
5.1331831077
 11
5.5788386918
 21
5.1039989881
  0
LINE
  5
32B
100
AcDbEntity
  8
ALL_ASSEMBLY_MEMBERS
100
AcDbLine
 62
7
  6
CONTINUOUS
 10
5.5892517911
 20
5.0857589141
 11
5.5892517911
 21
5.0821108997
  0
LINE
  5
32C
100
AcDbEntity
  8
ALL_ASSEMBLY_MEMBERS
100
AcDbLine
 62
7
  6
CONTINUOUS
 10
5.5915863804
 20
5.0857589141
 11
5.5915863804
 21
5.0821108997
  0
LINE
  5
32D
100
AcDbEntity
  8
ALL_ASSEMBLY_MEMBERS
100
AcDbLine
 62
7
  6
CONTINUOUS
 10
5.5927846472
 20
5.1423031435
 11
5.5927846472
 21
5.1331831077
  0
LINE
  5
32E
100
AcDbEntity
  8
ALL_ASSEMBLY_MEMBERS
100
AcDbLine
 62
7
  6
CONTINUOUS
 10
5.5935517832
 20
5.0875829212
 11
5.5935517832
 21
5.0802868926
  0
LINE
  5
32F
100
AcDbEntity
  8
ALL_ASSEMBLY_MEMBERS
100
AcDbLine
 62
7
  6
CONTINUOUS
 10
5.601640099
 20
5.1451574742
 11
5.601640099
 21
5.056574797
  0
LINE
  5
330
100
AcDbEntity
  8
ALL_ASSEMBLY_MEMBERS
100
AcDbLine
 62
7
  6
CONTINUOUS
 10
5.6018098621
 20
5.1943700726
 11
5.6018098621
 21
5.1451574742
  0
LINE
  5
331
100
AcDbEntity
  8
ALL_ASSEMBLY_MEMBERS
100
AcDbLine
 62
7
  6
CONTINUOUS
 10
5.6018098621
 20
5.056574797
 11
5.6018098621
 21
4.9975196789
  0
LINE
  5
332
100
AcDbEntity
  8
ALL_ASSEMBLY_MEMBERS
100
AcDbLine
 62
7
  6
CONTINUOUS
 10
5.6041074985
 20
5.1451574742
 11
5.6041074985
 21
5.056574797
  0
LINE
  5
333
100
AcDbEntity
  8
ALL_ASSEMBLY_MEMBERS
100
AcDbLine
 62
7
  6
CONTINUOUS
 10
5.6042763975
 20
5.1451574742
 11
5.6042763975
 21
5.056574797
  0
LINE
  5
334
100
AcDbEntity
  8
ALL_ASSEMBLY_MEMBERS
100
AcDbLine
 62
7
  6
CONTINUOUS
 10
5.6045263976
 20
3.6095196789
 11
5.6045263975
 21
3.9245196789
  0
LINE
  5
335
100
AcDbEntity
  8
ALL_ASSEMBLY_MEMBERS
100
AcDbLine
 62
7
  6
CONTINUOUS
 10
5.6045263975
 20
4.4660196789
 11
5.6045263975
 21
4.9975196789
  0
LINE
  5
336
100
AcDbEntity
  8
ALL_ASSEMBLY_MEMBERS
100
AcDbLine
 62
7
  6
CONTINUOUS
 10
5.6120263975
 20
5.1943700726
 11
5.6120263975
 21
5.3430649185
  0
LINE
  5
337
100
AcDbEntity
  8
ALL_ASSEMBLY_MEMBERS
100
AcDbLine
 62
7
  6
CONTINUOUS
 10
5.6195263975
 20
3.6245196789
 11
5.6195263975
 21
3.9095196789
  0
LINE
  5
338
100
AcDbEntity
  8
ALL_ASSEMBLY_MEMBERS
100
AcDbLine
 62
7
  6
CONTINUOUS
 10
4.6270263975
 20
5.1943700726
 11
5.6120263975
 21
5.1943700726
  0
LINE
  5
339
100
AcDbEntity
  8
ALL_ASSEMBLY_MEMBERS
100
AcDbLine
 62
7
  6
CONTINUOUS
 10
5.1295258822
 20
5.2493700726
 11
5.1095269129
 21
5.2493700726
  0
LINE
  5
33A
100
AcDbEntity
  8
ALL_ASSEMBLY_MEMBERS
100
AcDbLine
 62
7
  6
CONTINUOUS
 10
5.1095269129
 20
5.3293700726
 11
5.1295258822
 21
5.3293700726
  0
LINE
  5
33B
100
AcDbEntity
  8
1_PLATE
100
AcDbLine
 62
7
  6
CONTINUOUS
 10
3.9320263975
 20
5.3430649185
 11
6.3070263975
 21
5.3430649185
  0
LINE
  5
33C
100
AcDbEntity
  8
1_PLATE
100
AcDbLine
 62
7
  6
CONTINUOUS
 10
3.6235263975
 20
5.3742985277
 11
6.6155263975
 21
5.3742985277
  0
LINE
  5
33D
100
AcDbEntity
  8
1_PLATE
100
AcDbLine
 62
7
  6
CONTINUOUS
 10
6.698190405
 20
5.4055624962
 11
3.54086239
 21
5.4055624962
  0
LINE
  5
33E
100
AcDbEntity
  8
1_PLATE
100
AcDbLine
 62
7
  6
CONTINUOUS
 10
3.3695263975
 20
5.4207150726
 11
6.8695263975
 21
5.4207150726
  0
LINE
  5
33F
100
AcDbEntity
  8
1_PLATE
100
AcDbLine
 62
7
  6
CONTINUOUS
 10
6.9945263975
 20
5.5457150726
 11
3.2445263975
 21
5.5457150726
  0
LINE
  5
340
100
AcDbEntity
  8
1_PLATE
100
AcDbLine
 62
7
  6
CONTINUOUS
 10
6.9945263975
 20
5.6212150726
 11
3.2445263975
 21
5.6212150726
  0
LINE
  5
341
100
AcDbEntity
  8
1_PLATE
100
AcDbLine
 62
7
  6
CONTINUOUS
 10
6.9945263975
 20
5.6212150726
 11
6.9945263975
 21
5.5457150726
  0
ARC
  5
342
100
AcDbEntity
  8
1_PLATE
100
AcDbCircle
 62
7
  6
CONTINUOUS
 10
3.9320263975
 20
5.5307150726
 40
0.1876501541
100
AcDbArc
 50
236.5042044368
 51
270.0
  0
ARC
  5
343
100
AcDbEntity
  8
1_PLATE
100
AcDbCircle
 62
7
  6
CONTINUOUS
 10
6.3070263975
 20
5.5307150726
 40
0.1876501541
100
AcDbArc
 50
270.0
 51
303.4957955632
  0
ARC
  5
344
100
AcDbEntity
  8
1_PLATE
100
AcDbCircle
 62
7
  6
CONTINUOUS
 10
6.7810263975
 20
5.3117150726
 40
0.1251764377
100
AcDbArc
 50
119.3590794693
 51
131.4337707006
  0
ARC
  5
345
100
AcDbEntity
  8
1_PLATE
100
AcDbCircle
 62
7
  6
CONTINUOUS
 10
3.4580263975
 20
5.3117150726
 40
0.1251764377
100
AcDbArc
 50
48.5662292994
 51
60.6409205307
  0
ARC
  5
346
100
AcDbEntity
  8
1_PLATE
100
AcDbCircle
 62
7
  6
CONTINUOUS
 10
6.8695263975
 20
5.5457150726
 40
0.125
100
AcDbArc
 50
270.0
 51
360.0
  0
ARC
  5
347
100
AcDbEntity
  8
1_PLATE
100
AcDbCircle
 62
7
  6
CONTINUOUS
 10
3.3695263975
 20
5.5457150726
 40
0.125
100
AcDbArc
 50
180.0
 51
270.0
  0
ARC
  5
348
100
AcDbEntity
  8
1_PLATE
100
AcDbCircle
 62
7
  6
CONTINUOUS
 10
6.6155263975
 20
5.4992150726
 40
0.124916545
100
AcDbArc
 50
270.0
 51
311.4337707007
  0
ARC
  5
349
100
AcDbEntity
  8
1_PLATE
100
AcDbCircle
 62
7
  6
CONTINUOUS
 10
3.6235263975
 20
5.4992150726
 40
0.124916545
100
AcDbArc
 50
228.5662292994
 51
270.0
  0
CIRCLE
  5
34A
100
AcDbEntity
  8
ALL_ASSEMBLY_MEMBERS
100
AcDbCircle
 62
7
  6
CONTINUOUS
 10
5.1195263975
 20
4.6695196789
 40
0.07
  0
CIRCLE
  5
34B
100
AcDbEntity
  8
ALL_ASSEMBLY_MEMBERS
100
AcDbCircle
 62
7
  6
CONTINUOUS
 10
5.1195263975
 20
4.6695196789
 40
0.065
  0
CIRCLE
  5
34C
100
AcDbEntity
  8
ALL_ASSEMBLY_MEMBERS
100
AcDbCircle
 62
7
  6
CONTINUOUS
 10
5.1195263975
 20
4.6695196789
 40
0.0445454545
  0
ARC
  5
34D
100
AcDbEntity
  8
ALL_ASSEMBLY_MEMBERS
100
AcDbCircle
 62
7
  6
CONTINUOUS
 10
4.9482763975
 20
3.9395196789
 40
0.03
100
AcDbArc
 50
270.0
 51
360.0
  0
ARC
  5
34E
100
AcDbEntity
  8
ALL_ASSEMBLY_MEMBERS
100
AcDbCircle
 62
7
  6
CONTINUOUS
 10
5.2907763975
 20
3.9395196789
 40
0.03
100
AcDbArc
 50
180.0
 51
270.0
  0
ARC
  5
34F
100
AcDbEntity
  8
ALL_ASSEMBLY_MEMBERS
100
AcDbCircle
 62
7
  6
CONTINUOUS
 10
5.6045263975
 20
3.9095196789
 40
0.015
100
AcDbArc
 50
0.0
 51
90.0
  0
ARC
  5
350
100
AcDbEntity
  8
ALL_ASSEMBLY_MEMBERS
100
AcDbCircle
 62
7
  6
CONTINUOUS
 10
5.6045263975
 20
3.6245196789
 40
0.015
100
AcDbArc
 50
270.0
 51
360.0
  0
ARC
  5
351
100
AcDbEntity
  8
ALL_ASSEMBLY_MEMBERS
100
AcDbCircle
 62
7
  6
CONTINUOUS
 10
4.6345263975
 20
3.6245196789
 40
0.015
100
AcDbArc
 50
180.0
 51
270.0
  0
ARC
  5
352
100
AcDbEntity
  8
ALL_ASSEMBLY_MEMBERS
100
AcDbCircle
 62
7
  6
CONTINUOUS
 10
4.6345263975
 20
3.9095196789
 40
0.015
100
AcDbArc
 50
90.0
 51
180.0
  0
ARC
  5
353
100
AcDbEntity
  8
ALL_ASSEMBLY_MEMBERS
100
AcDbCircle
 62
7
  6
CONTINUOUS
 10
4.9782763975
 20
4.2795196789
 40
0.015
100
AcDbArc
 50
90.0
 51
180.0
  0
ARC
  5
354
100
AcDbEntity
  8
ALL_ASSEMBLY_MEMBERS
100
AcDbCircle
 62
7
  6
CONTINUOUS
 10
5.2607763975
 20
4.2795196789
 40
0.015
100
AcDbArc
 50
0.0
 51
90.0
  0
ARC
  5
355
100
AcDbEntity
  8
ALL_ASSEMBLY_MEMBERS
100
AcDbCircle
 62
7
  6
CONTINUOUS
 10
5.2907763975
 20
3.9395196789
 40
0.015
100
AcDbArc
 50
180.0
 51
270.0
  0
ARC
  5
356
100
AcDbEntity
  8
ALL_ASSEMBLY_MEMBERS
100
AcDbCircle
 62
7
  6
CONTINUOUS
 10
4.9482763975
 20
3.9395196789
 40
0.015
100
AcDbArc
 50
270.0
 51
360.0
  0
SPLINE
  5
357
100
AcDbEntity
  8
ALL_ASSEMBLY_MEMBERS
100
AcDbSpline
 62
7
  6
CONTINUOUS
 70
0
 71
3
 72
19
 73
15
 74
0
 42
0.0000001
 43
0.0000001
 44
0.0000000001
 40
0.0
 40
0.0
 40
0.0
 40
0.0
 40
0.1249158798
 40
0.1874766357
 40
0.2500078059
 40
0.3749226349
 40
0.4998388355
 40
0.5623760549
 40
0.624922107
 40
0.6874570601
 40
0.7499641082
 40
0.8124888753
 40
0.8750775682
 40
1.0
 40
1.0
 40
1.0
 40
1.0
 10
5.1295258822
 20
5.3293700726
 30
0.0
 10
5.1295258822
 20
5.3300237615
 30
0.0
 10
5.1294287678
 20
5.331008354
 30
0.0
 10
5.1291103475
 20
5.3322788632
 30
0.0
 10
5.1286688902
 20
5.3335124708
 30
0.0
 10
5.1278930279
 20
5.3349638769
 30
0.0
 10
5.1268482521
 20
5.3362356294
 30
0.0
 10
5.1258773387
 20
5.3371150914
 30
0.0
 10
5.1250872819
 20
5.3377007399
 30
0.0
 10
5.1242438258
 20
5.3382060678
 30
0.0
 10
5.1233544681
 20
5.3386250895
 30
0.0
 10
5.1224279278
 20
5.3389549444
 30
0.0
 10
5.1211582205
 20
5.3392755692
 30
0.0
 10
5.1201738874
 20
5.3393797934
 30
0.0
 10
5.1195201642
 20
5.3393797934
 30
0.0
  0
SPLINE
  5
358
100
AcDbEntity
  8
ALL_ASSEMBLY_MEMBERS
100
AcDbSpline
 62
7
  6
CONTINUOUS
 70
0
 71
3
 72
19
 73
15
 74
0
 42
0.0000001
 43
0.0000001
 44
0.0000000001
 40
0.0
 40
0.0
 40
0.0
 40
0.0
 40
0.1249852322
 40
0.1876498082
 40
0.2502234468
 40
0.3127340834
 40
0.3752485557
 40
0.4377807889
 40
0.5003042382
 40
0.6251763742
 40
0.750059398
 40
0.8125725634
 40
0.8751106733
 40
1.0
 40
1.0
 40
1.0
 40
1.0
 10
5.1195201642
 20
5.3393797934
 30
0.0
 10
5.11886662
 20
5.3393797934
 30
0.0
 10
5.1178821735
 20
5.3392756215
 30
0.0
 10
5.1166131964
 20
5.3389520438
 30
0.0
 10
5.1156875727
 20
5.3386199963
 30
0.0
 10
5.1147991725
 20
5.3382004258
 30
0.0
 10
5.1139568372
 20
5.337695005
 30
0.0
 10
5.1131681973
 20
5.3371091444
 30
0.0
 10
5.1121990881
 20
5.3362297749
 30
0.0
 10
5.1111563808
 20
5.3349586161
 30
0.0
 10
5.1103821279
 20
5.3335083842
 30
0.0
 10
5.1099416128
 20
5.3322759292
 30
0.0
 10
5.1096237767
 20
5.3310066874
 30
0.0
 10
5.1095269129
 20
5.3300231153
 30
0.0
 10
5.1095269129
 20
5.3293700726
 30
0.0
  0
SPLINE
  5
359
100
AcDbEntity
  8
ALL_ASSEMBLY_MEMBERS
100
AcDbSpline
 62
7
  6
CONTINUOUS
 70
0
 71
3
 72
19
 73
15
 74
0
 42
0.0000001
 43
0.0000001
 44
0.0000000001
 40
0.0
 40
0.0
 40
0.0
 40
0.0
 40
0.1248897374
 40
0.1874284864
 40
0.2499423405
 40
0.3748263175
 40
0.4996987803
 40
0.5622219563
 40
0.6247539668
 40
0.6872683074
 40
0.7497784126
 40
0.8123512284
 40
0.8750150897
 40
1.0
 40
1.0
 40
1.0
 40
1.0
 10
5.1095269129
 20
5.2493700726
 30
0.0
 10
5.1095269129
 20
5.2487170255
 30
0.0
 10
5.1096237783
 20
5.2477334444
 30
0.0
 10
5.1099416208
 20
5.2464641901
 30
0.0
 10
5.110382145
 20
5.2452317208
 30
0.0
 10
5.1111564147
 20
5.2437814792
 30
0.0
 10
5.1121991373
 20
5.2425103189
 30
0.0
 10
5.1131682553
 20
5.2416309535
 30
0.0
 10
5.1139569007
 20
5.2410451002
 30
0.0
 10
5.1147992339
 20
5.2405396786
 30
0.0
 10
5.1156876341
 20
5.2401201172
 30
0.0
 10
5.1166132572
 20
5.2397880895
 30
0.0
 10
5.117882233
 20
5.2394645297
 30
0.0
 10
5.1188666765
 20
5.2393603547
 30
0.0
 10
5.1195202212
 20
5.2393603547
 30
0.0
  0
SPLINE
  5
35A
100
AcDbEntity
  8
ALL_ASSEMBLY_MEMBERS
100
AcDbSpline
 62
7
  6
CONTINUOUS
 70
0
 71
3
 72
19
 73
15
 74
0
 42
0.0000001
 43
0.0000001
 44
0.0000000001
 40
0.0
 40
0.0
 40
0.0
 40
0.0
 40
0.1249225465
 40
0.1875115499
 40
0.2500366903
 40
0.3125439719
 40
0.3750791332
 40
0.4376254688
 40
0.5001629066
 40
0.625079081
 40
0.7499938268
 40
0.8125248195
 40
0.8750850005
 40
1.0
 40
1.0
 40
1.0
 40
1.0
 10
5.1195202212
 20
5.2393603547
 30
0.0
 10
5.1201739427
 20
5.2393603547
 30
0.0
 10
5.1211582751
 20
5.2394645785
 30
0.0
 10
5.1224279787
 20
5.2397852167
 30
0.0
 10
5.1233545166
 20
5.2401150816
 30
0.0
 10
5.1242438747
 20
5.2405341036
 30
0.0
 10
5.1250873286
 20
5.241039436
 30
0.0
 10
5.1258773829
 20
5.2416250882
 30
0.0
 10
5.1268482877
 20
5.2425045564
 30
0.0
 10
5.127893056
 20
5.2437763078
 30
0.0
 10
5.128668907
 20
5.2452277118
 30
0.0
 10
5.1291103548
 20
5.246461313
 30
0.0
 10
5.1294287734
 20
5.2477318089
 30
0.0
 10
5.1295258822
 20
5.2487163907
 30
0.0
 10
5.1295258822
 20
5.2493700726
 30
0.0
  0
SPLINE
  5
35B
100
AcDbEntity
  8
ALL_ASSEMBLY_MEMBERS
100
AcDbSpline
 62
7
  6
CONTINUOUS
 70
0
 71
3
 72
23
 73
19
 74
0
 42
0.0000001
 43
0.0000001
 44
0.0000000001
 40
0.0
 40
0.0
 40
0.0
 40
0.0
 40
0.0625894612
 40
0.1251103516
 40
0.1875527937
 40
0.2499535372
 40
0.3123715312
 40
0.3748506607
 40
0.4374005927
 40
0.4999981737
 40
0.5625959114
 40
0.6251459903
 40
0.6876251787
 40
0.7500426322
 40
0.8124429849
 40
0.8748853777
 40
0.9374080387
 40
1.0
 40
1.0
 40
1.0
 40
1.0
 10
5.1195263975
 20
4.5820196789
 30
0.0
 10
5.1140214778
 20
4.5820196789
 30
0.0
 10
5.1029788358
 20
4.5832583335
 30
0.0
 10
5.0872706361
 20
4.5886880055
 30
0.0
 10
5.0730810909
 20
4.5973032565
 30
0.0
 10
5.06093862
 20
4.6085896715
 30
0.0
 10
5.0511944158
 20
4.6219939091
 30
0.0
 10
5.0440844572
 20
4.6369695975
 30
0.0
 10
5.0397603122
 20
4.6529852731
 30
0.0
 10
5.0383092875
 20
4.6695192055
 30
0.0
 10
5.0397601457
 20
4.6860531658
 30
0.0
 10
5.0440841407
 20
4.7020689159
 30
0.0
 10
5.0511939444
 20
4.7170446437
 30
0.0
 10
5.0609379472
 20
4.7304489321
 30
0.0
 10
5.0730802221
 20
4.7417354219
 30
0.0
 10
5.0872697222
 20
4.7503509816
 30
0.0
 10
5.1029782463
 20
4.7557808756
 30
0.0
 10
5.1140212579
 20
4.7570196789
 30
0.0
 10
5.1195263975
 20
4.7570196789
 30
0.0
  0
SPLINE
  5
35C
100
AcDbEntity
  8
ALL_ASSEMBLY_MEMBERS
100
AcDbSpline
 62
7
  6
CONTINUOUS
 70
0
 71
3
 72
23
 73
19
 74
0
 42
0.0000001
 43
0.0000001
 44
0.0000000001
 40
0.0
 40
0.0
 40
0.0
 40
0.0
 40
0.0625897451
 40
0.1251108001
 40
0.1875532231
 40
0.2499539339
 40
0.3123718958
 40
0.3748510232
 40
0.4374009447
 40
0.4999985106
 40
0.5625962383
 40
0.6251463022
 40
0.6876254857
 40
0.7500429124
 40
0.8124432601
 40
0.8748856248
 40
0.9374081845
 40
1.0
 40
1.0
 40
1.0
 40
1.0
 10
5.1195263975
 20
4.7570196789
 30
0.0
 10
5.1250313422
 20
4.7570196789
 30
0.0
 10
5.136074023
 20
4.7557810083
 30
0.0
 10
5.1517822553
 20
4.7503513129
 30
0.0
 10
5.1659717941
 20
4.7417360311
 30
0.0
 10
5.1781142457
 20
4.7304496073
 30
0.0
 10
5.1878584301
 20
4.7170453625
 30
0.0
 10
5.1949683713
 20
4.7020696704
 30
0.0
 10
5.1992924991
 20
4.6860539927
 30
0.0
 10
5.2007435074
 20
4.6695200621
 30
0.0
 10
5.1992926338
 20
4.6529861067
 30
0.0
 10
5.1949686251
 20
4.6369703631
 30
0.0
 10
5.1878588091
 20
4.6219946456
 30
0.0
 10
5.1781147965
 20
4.6085903686
 30
0.0
 10
5.1659725158
 20
4.5973038924
 30
0.0
 10
5.1517830173
 20
4.5886883537
 30
0.0
 10
5.1360745145
 20
4.5832584734
 30
0.0
 10
5.1250315243
 20
4.5820196789
 30
0.0
 10
5.1195263975
 20
4.5820196789
 30
0.0
  0
ELLIPSE
  5
35D
100
AcDbEntity
  8
ALL_ASSEMBLY_MEMBERS
100
AcDbEllipse
 62
7
  6
CONTINUOUS
 10
5.1195263975
 20
5.0940772319
 30
0.0
 11
0.4356620756
 21
0.3097087495
 31
0.0
 40
0.6863174071
 41
-3.9803437747
 42
-3.9676270558
  0
ELLIPSE
  5
35E
100
AcDbEntity
  8
ALL_ASSEMBLY_MEMBERS
100
AcDbEllipse
 62
7
  6
CONTINUOUS
 10
5.1195263975
 20
5.1043397504
 30
0.0
 11
0.4845296417
 21
0.0531218498
 31
0.0
 40
0.2751161207
 41
2.7138845034
 42
2.7266070117
  0
ELLIPSE
  5
35F
100
AcDbEntity
  8
ALL_ASSEMBLY_MEMBERS
100
AcDbEllipse
 62
7
  6
CONTINUOUS
 10
5.1195263975
 20
5.063530064
 30
0.0
 11
0.4845296416
 21
-0.0531218552
 31
0.0
 40
0.2751161442
 41
-2.726607006
 42
-2.7138844977
  0
ELLIPSE
  5
360
100
AcDbEntity
  8
ALL_ASSEMBLY_MEMBERS
100
AcDbEllipse
 62
7
  6
CONTINUOUS
 10
5.1195263975
 20
5.0737925834
 30
0.0
 11
-0.4356620527
 21
0.3097088087
 31
0.0
 40
0.6863174268
 41
0.8260345095
 42
0.8387512283
  0
ELLIPSE
  5
361
100
AcDbEntity
  8
ALL_ASSEMBLY_MEMBERS
100
AcDbEllipse
 62
7
  6
CONTINUOUS
 10
5.1195263975
 20
5.0859191459
 30
0.0
 11
-0.2110172983
 21
0.9517381511
 31
0.0
 40
0.4585406789
 41
1.4848993014
 42
1.4925274221
  0
ELLIPSE
  5
362
100
AcDbEntity
  8
ALL_ASSEMBLY_MEMBERS
100
AcDbEllipse
 62
7
  6
CONTINUOUS
 10
5.1195263975
 20
5.0932953352
 30
0.0
 11
-0.1839239125
 21
1.4338152941
 31
0.0
 40
0.3128035903
 41
1.5410292945
 42
1.5461141727
  0
ELLIPSE
  5
363
100
AcDbEntity
  8
ALL_ASSEMBLY_MEMBERS
100
AcDbEllipse
 62
7
  6
CONTINUOUS
 10
5.1195263975
 20
5.0542647492
 30
0.0
 11
0.4841680723
 21
0.069531332
 31
0.0
 40
0.3415053426
 41
2.6695629887
 42
2.6797561081
  0
ELLIPSE
  5
364
100
AcDbEntity
  8
ALL_ASSEMBLY_MEMBERS
100
AcDbEllipse
 62
7
  6
CONTINUOUS
 10
5.1195263975
 20
5.0321745788
 30
0.0
 11
0.4021127937
 21
0.3867250719
 31
0.0
 40
0.7000252448
 41
-4.164805553
 42
-4.15715572
  0
ELLIPSE
  5
365
100
AcDbEntity
  8
ALL_ASSEMBLY_MEMBERS
100
AcDbEllipse
 62
7
  6
CONTINUOUS
 10
5.1195263975
 20
4.9834341288
 30
0.0
 11
0.2001645895
 21
1.0730713555
 31
0.0
 40
0.4114299686
 41
1.5606800957
 42
1.5657826121
  0
ELLIPSE
  5
366
100
AcDbEntity
  8
ALL_ASSEMBLY_MEMBERS
100
AcDbEllipse
 62
7
  6
CONTINUOUS
 10
5.1195263975
 20
4.8902299561
 30
0.0
 11
0.173492527
 21
2.1521377604
 31
0.0
 40
0.2103210759
 41
1.498485551
 42
1.5010376571
  0
ELLIPSE
  5
367
100
AcDbEntity
  8
ALL_ASSEMBLY_MEMBERS
100
AcDbEllipse
 62
7
  6
CONTINUOUS
 10
5.1195263975
 20
5.2776399473
 30
0.0
 11
-0.1734925196
 21
2.1521387659
 31
0.0
 40
0.210320979
 41
-4.6426302942
 42
-4.6400781881
  0
ELLIPSE
  5
368
100
AcDbEntity
  8
ALL_ASSEMBLY_MEMBERS
100
AcDbEllipse
 62
7
  6
CONTINUOUS
 10
5.1195263975
 20
5.1844356658
 30
0.0
 11
-0.2001646079
 21
1.0730711015
 31
0.0
 40
0.4114300582
 41
-4.7073753074
 42
-4.7022727909
  0
ELLIPSE
  5
369
100
AcDbEntity
  8
ALL_ASSEMBLY_MEMBERS
100
AcDbEllipse
 62
7
  6
CONTINUOUS
 10
5.1195263975
 20
5.1356952363
 30
0.0
 11
-0.4021127937
 21
0.3867250719
 31
0.0
 40
0.7000252448
 41
1.0155630664
 42
1.0232128994
  0
ELLIPSE
  5
36A
100
AcDbEntity
  8
ALL_ASSEMBLY_MEMBERS
100
AcDbEllipse
 62
7
  6
CONTINUOUS
 10
5.1195263975
 20
5.1136050659
 30
0.0
 11
0.4841680723
 21
-0.069531332
 31
0.0
 40
0.3415053426
 41
-2.6797561081
 42
-2.6695629887
  0
ELLIPSE
  5
36B
100
AcDbEntity
  8
ALL_ASSEMBLY_MEMBERS
100
AcDbEllipse
 62
7
  6
CONTINUOUS
 10
5.1195263975
 20
5.1130889765
 30
0.0
 11
0.4841680714
 21
0.0695313633
 31
0.0
 40
0.3415054598
 41
2.7840417005
 42
2.7942212431
  0
ELLIPSE
  5
36C
100
AcDbEntity
  8
ALL_ASSEMBLY_MEMBERS
100
AcDbEllipse
 62
7
  6
CONTINUOUS
 10
5.1195263975
 20
5.1276209467
 30
0.0
 11
0.3546536662
 21
0.4793660332
 31
0.0
 40
0.6893673371
 41
-4.2104130135
 42
-4.2002376741
  0
ELLIPSE
  5
36D
100
AcDbEntity
  8
ALL_ASSEMBLY_MEMBERS
100
AcDbEllipse
 62
7
  6
CONTINUOUS
 10
5.1195263975
 20
5.1439468533
 30
0.0
 11
0.2001647206
 21
1.0730695455
 31
0.0
 40
0.4114306072
 41
-4.6105355829
 42
-4.6054491537
  0
ELLIPSE
  5
36E
100
AcDbEntity
  8
ALL_ASSEMBLY_MEMBERS
100
AcDbEllipse
 62
7
  6
CONTINUOUS
 10
5.1195263975
 20
5.0932352121
 30
0.0
 11
-0.200164647
 21
1.0730705612
 31
0.0
 40
0.4114302488
 41
1.4638566668
 42
1.468943096
  0
ELLIPSE
  5
36F
100
AcDbEntity
  8
ALL_ASSEMBLY_MEMBERS
100
AcDbEllipse
 62
7
  6
CONTINUOUS
 10
5.1195263975
 20
5.1095611491
 30
0.0
 11
-0.3546536662
 21
0.4793660332
 31
0.0
 40
0.6893673371
 41
1.0586450205
 42
1.06882036
  0
ELLIPSE
  5
370
100
AcDbEntity
  8
ALL_ASSEMBLY_MEMBERS
100
AcDbEllipse
 62
7
  6
CONTINUOUS
 10
5.1195263975
 20
5.1240931194
 30
0.0
 11
0.4841680714
 21
-0.0695313633
 31
0.0
 40
0.3415054598
 41
-2.7942212431
 42
-2.7840417005
  0
ELLIPSE
  5
371
100
AcDbEntity
  8
ALL_ASSEMBLY_MEMBERS
100
AcDbEllipse
 62
7
  6
CONTINUOUS
 10
5.1195263975
 20
5.0747848224
 30
0.0
 11
0.4841680714
 21
0.0695313633
 31
0.0
 40
0.3415054598
 41
2.7840417005
 42
2.7942212431
  0
ELLIPSE
  5
372
100
AcDbEntity
  8
ALL_ASSEMBLY_MEMBERS
100
AcDbEllipse
 62
7
  6
CONTINUOUS
 10
5.1195263975
 20
5.0820508089
 30
0.0
 11
0.4668511673
 21
0.2089255909
 31
0.0
 40
0.6246664746
 41
2.5502781873
 42
2.5604535267
  0
ELLIPSE
  5
373
100
AcDbEntity
  8
ALL_ASSEMBLY_MEMBERS
100
AcDbEllipse
 62
7
  6
CONTINUOUS
 10
5.1195263975
 20
5.1001907292
 30
0.0
 11
0.2110171867
 21
0.9517391668
 31
0.0
 40
0.4585402462
 41
-4.5883562274
 42
-4.5807268405
  0
ELLIPSE
  5
374
100
AcDbEntity
  8
ALL_ASSEMBLY_MEMBERS
100
AcDbEllipse
 62
7
  6
CONTINUOUS
 10
5.1195263975
 20
5.0622070593
 30
0.0
 11
-0.211017168
 21
0.9517393376
 31
0.0
 40
0.4585401734
 41
1.4391342299
 42
1.4467636167
  0
ELLIPSE
  5
375
100
AcDbEntity
  8
ALL_ASSEMBLY_MEMBERS
100
AcDbEllipse
 62
7
  6
CONTINUOUS
 10
5.1195263975
 20
5.0803469848
 30
0.0
 11
0.4668511673
 21
-0.2089255909
 31
0.0
 40
0.6246664746
 41
-2.5604535267
 42
-2.5502781873
  0
ELLIPSE
  5
376
100
AcDbEntity
  8
ALL_ASSEMBLY_MEMBERS
100
AcDbEllipse
 62
7
  6
CONTINUOUS
 10
5.1195263975
 20
5.0876129712
 30
0.0
 11
0.4841680714
 21
-0.0695313633
 31
0.0
 40
0.3415054598
 41
-2.7942212431
 42
-2.7840417005
  0
ELLIPSE
  5
377
100
AcDbEntity
  8
ALL_ASSEMBLY_MEMBERS
100
AcDbEllipse
 62
7
  6
CONTINUOUS
 10
5.1195263975
 20
5.0712269561
 30
0.0
 11
0.4668512029
 21
-0.2089254365
 31
0.0
 40
0.6246663258
 41
-2.6063101801
 42
-2.6012078026
  0
ELLIPSE
  5
378
100
AcDbEntity
  8
ALL_ASSEMBLY_MEMBERS
100
AcDbEllipse
 62
7
  6
CONTINUOUS
 10
5.1195263975
 20
5.0402789239
 30
0.0
 11
-0.2578960711
 21
0.7014332479
 31
0.0
 40
0.5851642007
 41
1.2648458323
 42
1.272503669
  0
ELLIPSE
  5
379
100
AcDbEntity
  8
ALL_ASSEMBLY_MEMBERS
100
AcDbEllipse
 62
7
  6
CONTINUOUS
 10
5.1195263975
 20
4.9729108434
 30
0.0
 11
-0.1839239562
 21
1.4338136914
 31
0.0
 40
0.3128039274
 41
1.4315508783
 42
1.436659149
  0
ELLIPSE
  5
37A
100
AcDbEntity
  8
ALL_ASSEMBLY_MEMBERS
100
AcDbEllipse
 62
7
  6
CONTINUOUS
 10
5.1195263975
 20
5.1970338566
 30
0.0
 11
0.3259986888
 21
0.53452672
 31
0.0
 40
0.6711697407
 41
-1.3248817727
 42
-1.3025825674
  0
ELLIPSE
  5
37B
100
AcDbEntity
  8
ALL_ASSEMBLY_MEMBERS
100
AcDbEllipse
 62
7
  6
CONTINUOUS
 10
5.1195263975
 20
5.2979553866
 30
0.0
 11
0.1770586083
 21
1.7931568303
 31
0.0
 40
0.2516550235
 41
-4.5935119134
 42
-4.5884036427
  0
ELLIPSE
  5
37C
100
AcDbEntity
  8
ALL_ASSEMBLY_MEMBERS
100
AcDbEllipse
 62
7
  6
CONTINUOUS
 10
5.1195263975
 20
5.1969031719
 30
0.0
 11
0.2578960711
 21
0.7014332479
 31
0.0
 40
0.5851642007
 41
-4.4140963225
 42
-4.4064384859
  0
ELLIPSE
  5
37D
100
AcDbEntity
  8
ALL_ASSEMBLY_MEMBERS
100
AcDbEllipse
 62
7
  6
CONTINUOUS
 10
5.1195263975
 20
5.1721447473
 30
0.0
 11
0.4356621873
 21
0.3097084593
 31
0.0
 40
0.6863173103
 41
-3.8709533301
 42
-3.8582013196
  0
ELLIPSE
  5
37E
100
AcDbEntity
  8
ALL_ASSEMBLY_MEMBERS
100
AcDbEllipse
 62
7
  6
CONTINUOUS
 10
5.1195263975
 20
5.15103434
 30
0.0
 11
0.4845296421
 21
0.0531218233
 31
0.0
 40
0.2751160055
 41
2.8232569308
 42
2.835996958
  0
ELLIPSE
  5
37F
100
AcDbEntity
  8
ALL_ASSEMBLY_MEMBERS
100
AcDbEllipse
 62
7
  6
CONTINUOUS
 10
5.1195263975
 20
5.1544736643
 30
0.0
 11
0.3259987817
 21
0.5345265359
 31
0.0
 40
0.671169814
 41
-1.2507643659
 42
-1.2286210799
  0
ELLIPSE
  5
380
100
AcDbEntity
  8
ALL_ASSEMBLY_MEMBERS
100
AcDbEllipse
 62
7
  6
CONTINUOUS
 10
5.1195263975
 20
5.0833553486
 30
0.0
 11
0.4630591816
 21
0.2245111552
 31
0.0
 40
0.6386464466
 41
-0.6183052266
 42
-0.6035566623
  0
ELLIPSE
  5
381
100
AcDbEntity
  8
ALL_ASSEMBLY_MEMBERS
100
AcDbEllipse
 62
7
  6
CONTINUOUS
 10
5.1195263975
 20
5.0946857695
 30
0.0
 11
0.4846322909
 21
0.0448829864
 31
0.0
 40
0.2379966242
 41
-0.3253141803
 42
-0.3105556307
  0
ELLIPSE
  5
382
100
AcDbEntity
  8
ALL_ASSEMBLY_MEMBERS
100
AcDbEllipse
 62
7
  6
CONTINUOUS
 10
5.1195263975
 20
5.0731840456
 30
0.0
 11
0.4846322909
 21
-0.0448829864
 31
0.0
 40
0.2379966242
 41
0.3105556307
 42
0.3253141803
  0
ELLIPSE
  5
383
100
AcDbEntity
  8
ALL_ASSEMBLY_MEMBERS
100
AcDbEllipse
 62
7
  6
CONTINUOUS
 10
5.1195263975
 20
5.0826260601
 30
0.0
 11
0.4734427814
 21
-0.1768432279
 31
0.0
 40
0.588594106
 41
0.5196885314
 42
0.5307507159
  0
ELLIPSE
  5
384
100
AcDbEntity
  8
ALL_ASSEMBLY_MEMBERS
100
AcDbEllipse
 62
7
  6
CONTINUOUS
 10
5.1195263975
 20
5.1055444588
 30
0.0
 11
-0.207495773
 21
0.9858241387
 31
0.0
 40
0.4443956471
 41
-1.6987885097
 42
-1.6914161614
  0
ELLIPSE
  5
385
100
AcDbEntity
  8
ALL_ASSEMBLY_MEMBERS
100
AcDbEllipse
 62
7
  6
CONTINUOUS
 10
5.1195263975
 20
5.0483946125
 30
0.0
 11
0.4847035227
 21
0.0351495033
 31
0.0
 40
0.1909698234
 41
-0.2802019056
 42
-0.2617015349
  0
ELLIPSE
  5
386
100
AcDbEntity
  8
ALL_ASSEMBLY_MEMBERS
100
AcDbEllipse
 62
7
  6
CONTINUOUS
 10
5.1195263975
 20
5.0283862289
 30
0.0
 11
0.4782981758
 21
0.1456294577
 31
0.0
 40
0.5412725914
 41
-0.4111891223
 42
-0.3926539211
  0
ELLIPSE
  5
387
100
AcDbEntity
  8
ALL_ASSEMBLY_MEMBERS
100
AcDbEllipse
 62
7
  6
CONTINUOUS
 10
5.1195263975
 20
4.9850161956
 30
0.0
 11
0.2800134072
 21
0.636735321
 31
0.0
 40
0.6214444929
 41
-1.1842741772
 42
-1.1731335909
  0
ELLIPSE
  5
388
100
AcDbEntity
  8
ALL_ASSEMBLY_MEMBERS
100
AcDbEllipse
 62
7
  6
CONTINUOUS
 10
5.1195263975
 20
4.9096346677
 30
0.0
 11
0.190868369
 21
1.2357421379
 31
0.0
 40
0.3605861895
 41
-1.3842710587
 42
-1.3768349866
  0
ELLIPSE
  5
389
100
AcDbEntity
  8
ALL_ASSEMBLY_MEMBERS
100
AcDbEllipse
 62
7
  6
CONTINUOUS
 10
5.1195263975
 20
5.25823517
 30
0.0
 11
-0.1908683611
 21
1.2357423122
 31
0.0
 40
0.3605861413
 41
-1.7647576494
 42
-1.7573215773
  0
ELLIPSE
  5
38A
100
AcDbEntity
  8
ALL_ASSEMBLY_MEMBERS
100
AcDbEllipse
 62
7
  6
CONTINUOUS
 10
5.1195263975
 20
5.182853612
 30
0.0
 11
-0.2800134331
 21
0.6367352539
 31
0.0
 40
0.6214445296
 41
-1.968459128
 42
-1.9573185418
  0
ELLIPSE
  5
38B
100
AcDbEntity
  8
ALL_ASSEMBLY_MEMBERS
100
AcDbEllipse
 62
7
  6
CONTINUOUS
 10
5.1195263975
 20
5.1394835824
 30
0.0
 11
0.4782981788
 21
-0.1456294353
 31
0.0
 40
0.541272552
 41
0.3926538838
 42
0.411189085
  0
ELLIPSE
  5
38C
100
AcDbEntity
  8
ALL_ASSEMBLY_MEMBERS
100
AcDbEllipse
 62
7
  6
CONTINUOUS
 10
5.1195263975
 20
5.1194752005
 30
0.0
 11
0.4847035227
 21
-0.0351495
 31
0.0
 40
0.1909698069
 41
0.2617015324
 42
0.2802019031
  0
ELLIPSE
  5
38D
100
AcDbEntity
  8
ALL_ASSEMBLY_MEMBERS
100
AcDbEllipse
 62
7
  6
CONTINUOUS
 10
5.1195263975
 20
5.0474787981
 30
0.0
 11
0.484529642
 21
-0.0531218287
 31
0.0
 40
0.275116029
 41
-2.8385463295
 42
-2.8258040739
  0
ELLIPSE
  5
38E
100
AcDbEntity
  8
ALL_ASSEMBLY_MEMBERS
100
AcDbEllipse
 62
7
  6
CONTINUOUS
 10
5.1195263975
 20
5.0256387834
 30
0.0
 11
-0.4356621459
 21
0.3097085669
 31
0.0
 40
0.6863173461
 41
0.7140568349
 42
0.7268114943
  0
ELLIPSE
  5
38F
100
AcDbEntity
  8
ALL_ASSEMBLY_MEMBERS
100
AcDbEllipse
 62
7
  6
CONTINUOUS
 10
5.1195263975
 20
5.0001507506
 30
0.0
 11
-0.2578960294
 21
0.701433387
 31
0.0
 40
0.5851641221
 41
1.2622921148
 42
1.2699517446
  0
ELLIPSE
  5
390
100
AcDbEntity
  8
ALL_ASSEMBLY_MEMBERS
100
AcDbEllipse
 62
7
  6
CONTINUOUS
 10
5.1195263975
 20
4.8963626154
 30
0.0
 11
-0.1770586193
 21
1.7931559956
 31
0.0
 40
0.2516551382
 41
1.4442558639
 42
1.4493654161
  0
ELLIPSE
  5
391
100
AcDbEntity
  8
ALL_ASSEMBLY_MEMBERS
100
AcDbEllipse
 62
7
  6
CONTINUOUS
 10
5.1195263975
 20
5.2660352025
 30
0.0
 11
0.177058616
 21
1.7931562471
 31
0.0
 40
0.2516551037
 41
-4.5909580771
 42
-4.5858485249
  0
ELLIPSE
  5
392
100
AcDbEntity
  8
ALL_ASSEMBLY_MEMBERS
100
AcDbEllipse
 62
7
  6
CONTINUOUS
 10
5.1195263975
 20
5.1449490102
 30
0.0
 11
0.3546537589
 21
0.4793658574
 31
0.0
 40
0.6893673822
 41
-4.1543810131
 42
-4.1441693573
  0
ELLIPSE
  5
393
100
AcDbEntity
  8
ALL_ASSEMBLY_MEMBERS
100
AcDbEllipse
 62
7
  6
CONTINUOUS
 10
5.1195263975
 20
5.1294749915
 30
0.0
 11
0.4668512029
 21
0.2089254365
 31
0.0
 40
0.6246663258
 41
2.6012078026
 42
2.6063101801
  0
ELLIPSE
  5
394
100
AcDbEntity
  8
ALL_ASSEMBLY_MEMBERS
100
AcDbEllipse
 62
7
  6
CONTINUOUS
 10
5.1195263975
 20
5.074388922
 30
0.0
 11
0.4817044942
 21
-0.0691776629
 31
0.0
 40
0.3415058114
 41
-2.7050160301
 42
-2.6947853447
  0
ELLIPSE
  5
395
100
AcDbEntity
  8
ALL_ASSEMBLY_MEMBERS
100
AcDbEllipse
 62
7
  6
CONTINUOUS
 10
5.1195263975
 20
5.0420428326
 30
0.0
 11
0.4644757236
 21
-0.2078624458
 31
0.0
 40
0.6246664002
 41
-2.6016242452
 42
-2.5913732513
  0
ELLIPSE
  5
396
100
AcDbEntity
  8
ALL_ASSEMBLY_MEMBERS
100
AcDbEllipse
 62
7
  6
CONTINUOUS
 10
5.1195263975
 20
5.0420428326
 30
0.0
 11
0.4668511851
 21
-0.2089255137
 31
0.0
 40
0.6246664002
 41
-2.601207666
 42
-2.5910091369
  0
ELLIPSE
  5
397
100
AcDbEntity
  8
ALL_ASSEMBLY_MEMBERS
100
AcDbEllipse
 62
7
  6
CONTINUOUS
 10
5.1195263975
 20
5.0547808392
 30
0.0
 11
0.4817044969
 21
-0.0691775694
 31
0.0
 40
0.3415054598
 41
-2.8149612884
 42
-2.8098396765
  0
ELLIPSE
  5
398
100
AcDbEntity
  8
ALL_ASSEMBLY_MEMBERS
100
AcDbEllipse
 62
7
  6
CONTINUOUS
 10
5.1195263975
 20
5.0547808392
 30
0.0
 11
0.4841680714
 21
-0.0695313633
 31
0.0
 40
0.3415054598
 41
-2.8145971741
 42
-2.804406043
  0
ELLIPSE
  5
399
100
AcDbEntity
  8
ALL_ASSEMBLY_MEMBERS
100
AcDbEllipse
 62
7
  6
CONTINUOUS
 10
5.1195263975
 20
5.074388922
 30
0.0
 11
0.4841680686
 21
-0.0695314572
 31
0.0
 40
0.3415058114
 41
-2.7052120566
 42
-2.6950335265
  0
ELLIPSE
  5
39A
100
AcDbEntity
  8
ALL_ASSEMBLY_MEMBERS
100
AcDbEllipse
 62
7
  6
CONTINUOUS
 10
5.1195263975
 20
5.2116258861
 30
0.0
 11
0.3259988447
 21
0.534526411
 31
0.0
 40
0.6711698637
 41
-1.3248813381
 42
-1.3025821329
  0
ELLIPSE
  5
39B
100
AcDbEntity
  8
ALL_ASSEMBLY_MEMBERS
100
AcDbEllipse
 62
7
  6
CONTINUOUS
 10
5.1195263975
 20
5.2116258861
 30
0.0
 11
0.3243400769
 21
0.5318066001
 31
0.0
 40
0.6711698637
 41
-1.3256157268
 42
-1.3032004624
  0
ELLIPSE
  5
39C
100
AcDbEntity
  8
ALL_ASSEMBLY_MEMBERS
100
AcDbEllipse
 62
7
  6
CONTINUOUS
 10
5.1195263975
 20
5.1204390821
 30
0.0
 11
0.4820642286
 21
-0.0528514816
 31
0.0
 40
0.2751158134
 41
-2.6982804374
 42
-2.6854723786
  0
ELLIPSE
  5
39D
100
AcDbEntity
  8
ALL_ASSEMBLY_MEMBERS
100
AcDbEllipse
 62
7
  6
CONTINUOUS
 10
5.1195263975
 20
5.1204390821
 30
0.0
 11
0.4845296428
 21
-0.0531217792
 31
0.0
 40
0.2751158134
 41
-2.6986070031
 42
-2.6858644385
  0
ELLIPSE
  5
39E
100
AcDbEntity
  8
ALL_ASSEMBLY_MEMBERS
100
AcDbEllipse
 62
7
  6
CONTINUOUS
 10
5.1195263975
 20
5.1423752647
 30
0.0
 11
-0.4334453124
 21
0.30813287
 31
0.0
 40
0.6863174071
 41
0.879885828
 42
0.8927065257
  0
ELLIPSE
  5
39F
100
AcDbEntity
  8
ALL_ASSEMBLY_MEMBERS
100
AcDbEllipse
 62
7
  6
CONTINUOUS
 10
5.1195263975
 20
5.1423752647
 30
0.0
 11
-0.4356620756
 21
0.3097087495
 31
0.0
 40
0.6863174071
 41
0.879493768
 42
0.8922487784
  0
ELLIPSE
  5
3A0
100
AcDbEntity
  8
ALL_ASSEMBLY_MEMBERS
100
AcDbEllipse
 62
7
  6
CONTINUOUS
 10
5.1195263975
 20
5.1892795702
 30
0.0
 11
-0.2099434945
 21
0.9468962978
 31
0.0
 40
0.4585403189
 41
1.5591997581
 42
1.5668991476
  0
ELLIPSE
  5
3A1
100
AcDbEntity
  8
ALL_ASSEMBLY_MEMBERS
100
AcDbEllipse
 62
7
  6
CONTINUOUS
 10
5.1195263975
 20
5.1892795702
 30
0.0
 11
-0.2110172055
 21
0.951738996
 31
0.0
 40
0.4585403189
 41
1.5587420108
 42
1.5664018812
  0
ELLIPSE
  5
3A2
100
AcDbEntity
  8
ALL_ASSEMBLY_MEMBERS
100
AcDbEllipse
 62
7
  6
CONTINUOUS
 10
5.1195263975
 20
5.1690657108
 30
0.0
 11
0.3259989376
 21
0.5345262269
 31
0.0
 40
0.6711699369
 41
-1.2507639313
 42
-1.2286206453
  0
ELLIPSE
  5
3A3
100
AcDbEntity
  8
ALL_ASSEMBLY_MEMBERS
100
AcDbEllipse
 62
7
  6
CONTINUOUS
 10
5.1195263975
 20
5.1690657108
 30
0.0
 11
0.3243401693
 21
0.5318064169
 31
0.0
 40
0.6711699369
 41
-1.2511147927
 42
-1.2288578778
  0
ELLIPSE
  5
3A4
100
AcDbEntity
  8
ALL_ASSEMBLY_MEMBERS
100
AcDbEllipse
 62
7
  6
CONTINUOUS
 10
5.1195263975
 20
5.0934808931
 30
0.0
 11
0.4817044942
 21
0.0691776629
 31
0.0
 40
0.3415058114
 41
8.9779706519
 42
8.9882013373
  0
ELLIPSE
  5
3A5
100
AcDbEntity
  8
ALL_ASSEMBLY_MEMBERS
100
AcDbEllipse
 62
7
  6
CONTINUOUS
 10
5.1195263975
 20
5.1350311512
 30
0.0
 11
0.4820642278
 21
-0.0528515343
 31
0.0
 40
0.2751160439
 41
-2.8133316337
 42
-2.8005427031
  0
ELLIPSE
  5
3A6
100
AcDbEntity
  8
ALL_ASSEMBLY_MEMBERS
100
AcDbEllipse
 62
7
  6
CONTINUOUS
 10
5.1195263975
 20
5.0934808931
 30
0.0
 11
0.4841680686
 21
0.0695314572
 31
0.0
 40
0.3415058114
 41
2.6950335265
 42
2.7052120566
  0
ELLIPSE
  5
3A7
100
AcDbEntity
  8
ALL_ASSEMBLY_MEMBERS
100
AcDbEllipse
 62
7
  6
CONTINUOUS
 10
5.1195263975
 20
5.1350311512
 30
0.0
 11
0.484529642
 21
-0.0531218322
 31
0.0
 40
0.2751160439
 41
-2.8130721217
 42
-2.8003483937
  0
ELLIPSE
  5
3A8
100
AcDbEntity
  8
ALL_ASSEMBLY_MEMBERS
100
AcDbEllipse
 62
7
  6
CONTINUOUS
 10
5.1195263975
 20
5.079740761
 30
0.0
 11
0.3528493905
 21
0.4769263331
 31
0.0
 40
0.6893674814
 41
-4.2792623293
 42
-4.2690356602
  0
ELLIPSE
  5
3A9
100
AcDbEntity
  8
ALL_ASSEMBLY_MEMBERS
100
AcDbEllipse
 62
7
  6
CONTINUOUS
 10
5.1195263975
 20
5.1241351857
 30
0.0
 11
-0.4334454607
 21
0.308132485
 31
0.0
 40
0.686317278
 41
0.7648147469
 42
0.777597438
  0
ELLIPSE
  5
3AA
100
AcDbEntity
  8
ALL_ASSEMBLY_MEMBERS
100
AcDbEllipse
 62
7
  6
CONTINUOUS
 10
5.1195263975
 20
5.1241351857
 30
0.0
 11
-0.4356622246
 21
0.3097083626
 31
0.0
 40
0.686317278
 41
0.7650090563
 42
0.7777266395
  0
ELLIPSE
  5
3AB
100
AcDbEntity
  8
ALL_ASSEMBLY_MEMBERS
100
AcDbEllipse
 62
7
  6
CONTINUOUS
 10
5.1195263975
 20
5.079740761
 30
0.0
 11
0.3546539631
 21
0.4793654706
 31
0.0
 40
0.6893674814
 41
-4.2790663028
 42
-4.2688917277
  0
ELLIPSE
  5
3AC
100
AcDbEntity
  8
ALL_ASSEMBLY_MEMBERS
100
AcDbEllipse
 62
7
  6
CONTINUOUS
 10
5.1195263975
 20
5.1168872295
 30
0.0
 11
-0.2565838281
 21
0.6978641712
 31
0.0
 40
0.5851642007
 41
1.3334926163
 42
1.3411601046
  0
ELLIPSE
  5
3AD
100
AcDbEntity
  8
ALL_ASSEMBLY_MEMBERS
100
AcDbEllipse
 62
7
  6
CONTINUOUS
 10
5.1195263975
 20
5.2702843187
 30
0.0
 11
-0.176157672
 21
1.7840339535
 31
0.0
 40
0.251654861
 41
-4.6398114528
 42
-4.6346753393
  0
ELLIPSE
  5
3AE
100
AcDbEntity
  8
ALL_ASSEMBLY_MEMBERS
100
AcDbEllipse
 62
7
  6
CONTINUOUS
 10
5.1195263975
 20
5.1168872295
 30
0.0
 11
-0.2578960711
 21
0.7014332479
 31
0.0
 40
0.5851642007
 41
1.3336218178
 42
1.3412502738
  0
ELLIPSE
  5
3AF
100
AcDbEntity
  8
ALL_ASSEMBLY_MEMBERS
100
AcDbEllipse
 62
7
  6
CONTINUOUS
 10
5.1195263975
 20
5.1124002166
 30
0.0
 11
0.4846322902
 21
-0.0448830582
 31
0.0
 40
0.2379969588
 41
0.2735943692
 42
0.2883920801
  0
ELLIPSE
  5
3B0
100
AcDbEntity
  8
ALL_ASSEMBLY_MEMBERS
100
AcDbEllipse
 62
7
  6
CONTINUOUS
 10
5.1195263975
 20
5.1124002166
 30
0.0
 11
0.4821663537
 21
-0.0446546814
 31
0.0
 40
0.2379969588
 41
6.5562793864
 42
6.5711534012
  0
ELLIPSE
  5
3B1
100
AcDbEntity
  8
ALL_ASSEMBLY_MEMBERS
100
AcDbEllipse
 62
7
  6
CONTINUOUS
 10
5.1195263975
 20
5.097915431
 30
0.0
 11
-0.1761576992
 21
1.7840318986
 31
0.0
 40
0.2516551449
 41
1.5282335062
 42
1.533344561
  0
ELLIPSE
  5
3B2
100
AcDbEntity
  8
ALL_ASSEMBLY_MEMBERS
100
AcDbEllipse
 62
7
  6
CONTINUOUS
 10
5.1195263975
 20
5.1324822571
 30
0.0
 11
0.4734427814
 21
-0.1768432279
 31
0.0
 40
0.588594106
 41
0.4568564648
 42
0.4679686539
  0
ELLIPSE
  5
3B3
100
AcDbEntity
  8
ALL_ASSEMBLY_MEMBERS
100
AcDbEllipse
 62
7
  6
CONTINUOUS
 10
5.1195263975
 20
5.1324822571
 30
0.0
 11
0.47103378
 21
-0.175943403
 31
0.0
 40
0.588594106
 41
0.4562987307
 42
0.467468364
  0
ELLIPSE
  5
3B4
100
AcDbEntity
  8
ALL_ASSEMBLY_MEMBERS
100
AcDbEllipse
 62
7
  6
CONTINUOUS
 10
5.1195263975
 20
5.1772062256
 30
0.0
 11
-0.2501318493
 21
0.728790877
 31
0.0
 40
0.569753021
 41
-1.8799443451
 42
-1.8725288025
  0
ELLIPSE
  5
3B5
100
AcDbEntity
  8
ALL_ASSEMBLY_MEMBERS
100
AcDbEllipse
 62
7
  6
CONTINUOUS
 10
5.1195263975
 20
5.1772062256
 30
0.0
 11
-0.2488591127
 21
0.7250825974
 31
0.0
 40
0.569753021
 41
-1.880540491
 42
-1.8730865367
  0
ELLIPSE
  5
3B6
100
AcDbEntity
  8
ALL_ASSEMBLY_MEMBERS
100
AcDbEllipse
 62
7
  6
CONTINUOUS
 10
5.1195263975
 20
5.2631825773
 30
0.0
 11
-0.1826258381
 21
1.484169538
 31
0.0
 40
0.3025481177
 41
-1.7277547305
 42
-1.7240446013
  0
ELLIPSE
  5
3B7
100
AcDbEntity
  8
ALL_ASSEMBLY_MEMBERS
100
AcDbEllipse
 62
7
  6
CONTINUOUS
 10
5.1195263975
 20
5.2631825773
 30
0.0
 11
-0.1816965899
 21
1.4766176932
 31
0.0
 40
0.3025481177
 41
-1.7283701194
 42
-1.7246407472
  0
ELLIPSE
  5
3B8
100
AcDbEntity
  8
ALL_ASSEMBLY_MEMBERS
100
AcDbEllipse
 62
7
  6
CONTINUOUS
 10
5.1195263975
 20
4.9046873194
 30
0.0
 11
0.1826258551
 21
1.4841688429
 31
0.0
 40
0.3025482548
 41
-1.4175480146
 42
-1.4138378854
  0
ELLIPSE
  5
3B9
100
AcDbEntity
  8
ALL_ASSEMBLY_MEMBERS
100
AcDbEllipse
 62
7
  6
CONTINUOUS
 10
5.1195263975
 20
4.9046873194
 30
0.0
 11
0.1816966067
 21
1.4766170017
 31
0.0
 40
0.3025482548
 41
-1.4169518687
 42
-1.4132224965
  0
ELLIPSE
  5
3BA
100
AcDbEntity
  8
ALL_ASSEMBLY_MEMBERS
100
AcDbEllipse
 62
7
  6
CONTINUOUS
 10
5.1195263975
 20
4.9906635707
 30
0.0
 11
0.250131799
 21
0.7287910644
 31
0.0
 40
0.5697529161
 41
-1.269063972
 42
-1.2616484294
  0
ELLIPSE
  5
3BB
100
AcDbEntity
  8
ALL_ASSEMBLY_MEMBERS
100
AcDbEllipse
 62
7
  6
CONTINUOUS
 10
5.1195263975
 20
4.9906635707
 30
0.0
 11
0.2488590627
 21
0.7250827838
 31
0.0
 40
0.5697529161
 41
-1.2685062378
 42
-1.2610522835
  0
ELLIPSE
  5
3BC
100
AcDbEntity
  8
ALL_ASSEMBLY_MEMBERS
100
AcDbEllipse
 62
7
  6
CONTINUOUS
 10
5.1195263975
 20
5.0353875579
 30
0.0
 11
0.4734427814
 21
0.1768432279
 31
0.0
 40
0.588594106
 41
-0.4679686539
 42
-0.4568564648
  0
ELLIPSE
  5
3BD
100
AcDbEntity
  8
ALL_ASSEMBLY_MEMBERS
100
AcDbEllipse
 62
7
  6
CONTINUOUS
 10
5.1195263975
 20
5.0353875579
 30
0.0
 11
0.47103378
 21
0.175943403
 31
0.0
 40
0.588594106
 41
-0.467468364
 42
-0.4562987307
  0
ELLIPSE
  5
3BE
100
AcDbEntity
  8
ALL_ASSEMBLY_MEMBERS
100
AcDbEllipse
 62
7
  6
CONTINUOUS
 10
5.1195263975
 20
5.0554695985
 30
0.0
 11
0.4846322902
 21
0.0448830582
 31
0.0
 40
0.2379969588
 41
-0.2883920801
 42
-0.2735943692
  0
ELLIPSE
  5
3BF
100
AcDbEntity
  8
ALL_ASSEMBLY_MEMBERS
100
AcDbEllipse
 62
7
  6
CONTINUOUS
 10
5.1195263975
 20
5.0554695985
 30
0.0
 11
0.4821663537
 21
0.0446546814
 31
0.0
 40
0.2379969588
 41
-0.287968094
 42
-0.2730940792
  0
ELLIPSE
  5
3C0
100
AcDbEntity
  8
ALL_ASSEMBLY_MEMBERS
100
AcDbEllipse
 62
7
  6
CONTINUOUS
 10
5.1195263975
 20
5.2702843187
 30
0.0
 11
-0.1770585927
 21
1.7931580129
 31
0.0
 40
0.251654861
 41
-4.6403087193
 42
-4.6351990007
  0
ELLIPSE
  5
3C1
100
AcDbEntity
  8
ALL_ASSEMBLY_MEMBERS
100
AcDbEllipse
 62
7
  6
CONTINUOUS
 10
5.1195263975
 20
5.097915431
 30
0.0
 11
-0.17705862
 21
1.7931559474
 31
0.0
 40
0.2516551449
 41
1.5283236754
 42
1.5334087178
  0
ELLIPSE
  5
3C2
100
AcDbEntity
  8
ALL_ASSEMBLY_MEMBERS
100
AcDbEllipse
 62
7
  6
CONTINUOUS
 10
5.1195263975
 20
5.1329427182
 30
0.0
 11
0.182988122
 21
1.4265173665
 31
0.0
 40
0.3128040763
 41
-4.6596770866
 42
-4.6545660318
  0
ELLIPSE
  5
3C3
100
AcDbEntity
  8
ALL_ASSEMBLY_MEMBERS
100
AcDbEllipse
 62
7
  6
CONTINUOUS
 10
5.1195263975
 20
5.1440971026
 30
0.0
 11
0.4817044969
 21
0.0691775694
 31
0.0
 40
0.3415054598
 41
9.0930249837
 42
9.0981465956
  0
ELLIPSE
  5
3C4
100
AcDbEntity
  8
ALL_ASSEMBLY_MEMBERS
100
AcDbEllipse
 62
7
  6
CONTINUOUS
 10
5.1195263975
 20
5.1329427182
 30
0.0
 11
0.1839239755
 21
1.4338129838
 31
0.0
 40
0.3128040763
 41
-4.6597412434
 42
-4.654656201
  0
ELLIPSE
  5
3C5
100
AcDbEntity
  8
ALL_ASSEMBLY_MEMBERS
100
AcDbEllipse
 62
7
  6
CONTINUOUS
 10
5.1195263975
 20
5.1440971026
 30
0.0
 11
0.4841680714
 21
0.0695313633
 31
0.0
 40
0.3415054598
 41
2.804406043
 42
2.8145971741
  0
ELLIPSE
  5
3C6
100
AcDbEntity
  8
ALL_ASSEMBLY_MEMBERS
100
AcDbEllipse
 62
7
  6
CONTINUOUS
 10
5.1195263975
 20
5.1202948664
 30
0.0
 11
0.2565838281
 21
0.6978641712
 31
0.0
 40
0.5851642007
 41
-4.4827527582
 42
-4.4750852699
  0
ELLIPSE
  5
3C7
100
AcDbEntity
  8
ALL_ASSEMBLY_MEMBERS
100
AcDbEllipse
 62
7
  6
CONTINUOUS
 10
5.1195263975
 20
5.1202948664
 30
0.0
 11
0.2578960711
 21
0.7014332479
 31
0.0
 40
0.5851642007
 41
-4.4828429274
 42
-4.4752144714
  0
ELLIPSE
  5
3C8
100
AcDbEntity
  8
ALL_ASSEMBLY_MEMBERS
100
AcDbEllipse
 62
7
  6
CONTINUOUS
 10
5.1195263975
 20
5.0836563795
 30
0.0
 11
-0.207495773
 21
0.9858241387
 31
0.0
 40
0.4443956471
 41
-1.6766755349
 42
-1.6693064443
  0
ELLIPSE
  5
3C9
100
AcDbEntity
  8
ALL_ASSEMBLY_MEMBERS
100
AcDbEllipse
 62
7
  6
CONTINUOUS
 10
5.1195263975
 20
5.0836563795
 30
0.0
 11
-0.2064399799
 21
0.9808080064
 31
0.0
 40
0.4443956471
 41
-1.676740052
 42
-1.6693332706
  0
ELLIPSE
  5
3CA
100
AcDbEntity
  8
ALL_ASSEMBLY_MEMBERS
100
AcDbEllipse
 62
7
  6
CONTINUOUS
 10
5.1195263975
 20
5.0794932081
 30
0.0
 11
-0.2800134072
 21
0.636735321
 31
0.0
 40
0.6214444929
 41
-1.8612406191
 42
-1.8501855787
  0
ELLIPSE
  5
3CB
100
AcDbEntity
  8
ALL_ASSEMBLY_MEMBERS
100
AcDbEllipse
 62
7
  6
CONTINUOUS
 10
5.1195263975
 20
5.0794932081
 30
0.0
 11
-0.2785886254
 21
0.6334954443
 31
0.0
 40
0.6214444929
 41
-1.8613616941
 42
-1.8502500958
  0
ELLIPSE
  5
3CC
100
AcDbEntity
  8
ALL_ASSEMBLY_MEMBERS
100
AcDbEllipse
 62
7
  6
CONTINUOUS
 10
5.1195263975
 20
5.0709009008
 30
0.0
 11
0.4782981758
 21
-0.1456294577
 31
0.0
 40
0.5412725914
 41
0.4702996175
 42
0.4887317785
  0
ELLIPSE
  5
3CD
100
AcDbEntity
  8
ALL_ASSEMBLY_MEMBERS
100
AcDbEllipse
 62
7
  6
CONTINUOUS
 10
5.1195263975
 20
5.0709009008
 30
0.0
 11
0.475864469
 21
-0.1448884567
 31
0.0
 40
0.5412725914
 41
0.4700841696
 42
0.4886107035
  0
ELLIPSE
  5
3CE
100
AcDbEntity
  8
ALL_ASSEMBLY_MEMBERS
100
AcDbEllipse
 62
7
  6
CONTINUOUS
 10
5.1195263975
 20
5.0625661651
 30
0.0
 11
0.4847035229
 21
-0.0351494601
 31
0.0
 40
0.1909696071
 41
0.3023654898
 42
0.3208119973
  0
ELLIPSE
  5
3CF
100
AcDbEntity
  8
ALL_ASSEMBLY_MEMBERS
100
AcDbEllipse
 62
7
  6
CONTINUOUS
 10
5.1195263975
 20
5.0625661651
 30
0.0
 11
0.482237224
 21
-0.0349706104
 31
0.0
 40
0.1909696071
 41
0.3020554476
 42
0.3205965494
  0
ELLIPSE
  5
3D0
100
AcDbEntity
  8
ALL_ASSEMBLY_MEMBERS
100
AcDbEllipse
 62
7
  6
CONTINUOUS
 10
5.1195263975
 20
5.1695731135
 30
0.0
 11
0.3528491689
 21
0.4769267529
 31
0.0
 40
0.6893673732
 41
-4.1693178615
 42
-4.1590668675
  0
ELLIPSE
  5
3D1
100
AcDbEntity
  8
ALL_ASSEMBLY_MEMBERS
100
AcDbEllipse
 62
7
  6
CONTINUOUS
 10
5.1195263975
 20
5.1112349194
 30
0.0
 11
0.4644757768
 21
0.2078622154
 31
0.0
 40
0.6246661769
 41
2.545321506
 42
2.5504339689
  0
ELLIPSE
  5
3D2
100
AcDbEntity
  8
ALL_ASSEMBLY_MEMBERS
100
AcDbEllipse
 62
7
  6
CONTINUOUS
 10
5.1195263975
 20
5.1112349194
 30
0.0
 11
0.4668512386
 21
0.2089252821
 31
0.0
 40
0.6246661769
 41
2.5451923044
 42
2.5502787336
  0
ELLIPSE
  5
3D3
100
AcDbEntity
  8
ALL_ASSEMBLY_MEMBERS
100
AcDbEllipse
 62
7
  6
CONTINUOUS
 10
5.1195263975
 20
5.1695731135
 30
0.0
 11
0.3546537404
 21
0.4793658925
 31
0.0
 40
0.6893673732
 41
-4.1696819759
 42
-4.1594834467
  0
ELLIPSE
  5
3D4
100
AcDbEntity
  8
ALL_ASSEMBLY_MEMBERS
100
AcDbEllipse
 62
7
  6
CONTINUOUS
 10
5.1195263975
 20
5.0894670283
 30
0.0
 11
0.4644757768
 21
-0.2078622154
 31
0.0
 40
0.6246661769
 41
-2.5504339689
 42
-2.545321506
  0
ELLIPSE
  5
3D5
100
AcDbEntity
  8
ALL_ASSEMBLY_MEMBERS
100
AcDbEllipse
 62
7
  6
CONTINUOUS
 10
5.1195263975
 20
5.0894670283
 30
0.0
 11
0.4668512386
 21
-0.2089252821
 31
0.0
 40
0.6246661769
 41
-2.5502787336
 42
-2.5451923044
  0
ELLIPSE
  5
3D6
100
AcDbEntity
  8
ALL_ASSEMBLY_MEMBERS
100
AcDbEllipse
 62
7
  6
CONTINUOUS
 10
5.1195263975
 20
5.0849370494
 30
0.0
 11
-0.3528490951
 21
0.4769268928
 31
0.0
 40
0.6893673371
 41
1.0737775876
 42
1.0840006492
  0
ELLIPSE
  5
3D7
100
AcDbEntity
  8
ALL_ASSEMBLY_MEMBERS
100
AcDbEllipse
 62
7
  6
CONTINUOUS
 10
5.1195263975
 20
5.0849370494
 30
0.0
 11
-0.3546536662
 21
0.4793660332
 31
0.0
 40
0.6893673371
 41
1.0739067891
 42
1.0840778115
  0
ELLIPSE
  5
3D8
100
AcDbEntity
  8
ALL_ASSEMBLY_MEMBERS
100
AcDbEllipse
 62
7
  6
CONTINUOUS
 10
5.1195263975
 20
5.2132592138
 30
0.0
 11
0.1991461286
 21
1.0676108832
 31
0.0
 40
0.4114301116
 41
-4.5541034629
 42
-4.5489748047
  0
ELLIPSE
  5
3D9
100
AcDbEntity
  8
ALL_ASSEMBLY_MEMBERS
100
AcDbEllipse
 62
7
  6
CONTINUOUS
 10
5.1195263975
 20
5.0659953043
 30
0.0
 11
-0.1761577058
 21
1.7840313981
 31
0.0
 40
0.251655214
 41
1.5307890648
 42
1.5358999382
  0
ELLIPSE
  5
3DA
100
AcDbEntity
  8
ALL_ASSEMBLY_MEMBERS
100
AcDbEllipse
 62
7
  6
CONTINUOUS
 10
5.1195263975
 20
5.2132592138
 30
0.0
 11
0.2001646188
 21
1.0730709503
 31
0.0
 40
0.4114301116
 41
-4.5545200421
 42
-4.5494176646
  0
ELLIPSE
  5
3DB
100
AcDbEntity
  8
ALL_ASSEMBLY_MEMBERS
100
AcDbEllipse
 62
7
  6
CONTINUOUS
 10
5.1195263975
 20
5.0659953043
 30
0.0
 11
-0.1770586266
 21
1.7931554444
 31
0.0
 40
0.251655214
 41
1.530866227
 42
1.5359510908
  0
ELLIPSE
  5
3DC
100
AcDbEntity
  8
ALL_ASSEMBLY_MEMBERS
100
AcDbEllipse
 62
7
  6
CONTINUOUS
 10
5.1195263975
 20
5.0964024855
 30
0.0
 11
0.1761577091
 21
1.7840311479
 31
0.0
 40
0.2516552486
 41
1.6056927228
 42
1.6108035962
  0
ELLIPSE
  5
3DD
100
AcDbEntity
  8
ALL_ASSEMBLY_MEMBERS
100
AcDbEllipse
 62
7
  6
CONTINUOUS
 10
5.1195263975
 20
5.0964024855
 30
0.0
 11
0.1770586299
 21
1.7931551929
 31
0.0
 40
0.2516552486
 41
-4.677543737
 42
-4.6724588732
  0
ELLIPSE
  5
3DE
100
AcDbEntity
  8
ALL_ASSEMBLY_MEMBERS
100
AcDbEllipse
 62
7
  6
CONTINUOUS
 10
5.1195263975
 20
5.0801667082
 30
0.0
 11
0.2565838006
 21
0.6978642627
 31
0.0
 40
0.5851641487
 41
-4.4853083988
 42
-4.4776413078
  0
ELLIPSE
  5
3DF
100
AcDbEntity
  8
ALL_ASSEMBLY_MEMBERS
100
AcDbEllipse
 62
7
  6
CONTINUOUS
 10
5.1195263975
 20
5.0801667082
 30
0.0
 11
0.2578960435
 21
0.70143334
 31
0.0
 40
0.5851641487
 41
-4.485385561
 42
-4.4777574963
  0
ELLIPSE
  5
3E0
100
AcDbEntity
  8
ALL_ASSEMBLY_MEMBERS
100
AcDbEllipse
 62
7
  6
CONTINUOUS
 10
5.1195263975
 20
5.1053036493
 30
0.0
 11
0.4847035229
 21
0.0351494568
 31
0.0
 40
0.1909695906
 41
-0.3208119948
 42
-0.3023654873
  0
ELLIPSE
  5
3E1
100
AcDbEntity
  8
ALL_ASSEMBLY_MEMBERS
100
AcDbEllipse
 62
7
  6
CONTINUOUS
 10
5.1195263975
 20
5.1053036493
 30
0.0
 11
0.482237224
 21
0.0349706071
 31
0.0
 40
0.1909695906
 41
-0.3205965469
 42
-0.3020554451
  0
ELLIPSE
  5
3E2
100
AcDbEntity
  8
ALL_ASSEMBLY_MEMBERS
100
AcDbEllipse
 62
7
  6
CONTINUOUS
 10
5.1195263975
 20
5.0969689143
 30
0.0
 11
0.4782981788
 21
0.1456294353
 31
0.0
 40
0.541272552
 41
-0.4887317412
 42
-0.4702995801
  0
ELLIPSE
  5
3E3
100
AcDbEntity
  8
ALL_ASSEMBLY_MEMBERS
100
AcDbEllipse
 62
7
  6
CONTINUOUS
 10
5.1195263975
 20
5.0969689143
 30
0.0
 11
0.4758644719
 21
0.1448884344
 31
0.0
 40
0.541272552
 41
-0.4732157386
 42
-0.4700841322
  0
ELLIPSE
  5
3E4
100
AcDbEntity
  8
ALL_ASSEMBLY_MEMBERS
100
AcDbEllipse
 62
7
  6
CONTINUOUS
 10
5.1195263975
 20
5.0736483589
 30
0.0
 11
0.4334452897
 21
0.3081329288
 31
0.0
 40
0.6863174268
 41
-3.9217468707
 42
-3.9089651839
  0
ELLIPSE
  5
3E5
100
AcDbEntity
  8
ALL_ASSEMBLY_MEMBERS
100
AcDbEllipse
 62
7
  6
CONTINUOUS
 10
5.1195263975
 20
5.0736483589
 30
0.0
 11
0.4356620527
 21
0.3097088087
 31
0.0
 40
0.6863174268
 41
-3.9218630593
 42
-3.9091464651
  0
ELLIPSE
  5
3E6
100
AcDbEntity
  8
ALL_ASSEMBLY_MEMBERS
100
AcDbEllipse
 62
7
  6
CONTINUOUS
 10
5.1195263975
 20
5.0239229637
 30
0.0
 11
-0.1991462019
 21
1.0676098726
 31
0.0
 40
0.41143047
 41
1.4073819844
 42
1.4125106426
  0
ELLIPSE
  5
3E7
100
AcDbEntity
  8
ALL_ASSEMBLY_MEMBERS
100
AcDbEllipse
 62
7
  6
CONTINUOUS
 10
5.1195263975
 20
5.0239229637
 30
0.0
 11
-0.2001646924
 21
1.0730699345
 31
0.0
 40
0.41143047
 41
1.4078248443
 42
1.4129272218
  0
ELLIPSE
  5
3E8
100
AcDbEntity
  8
ALL_ASSEMBLY_MEMBERS
100
AcDbEllipse
 62
7
  6
CONTINUOUS
 10
5.1195263975
 20
5.0634819863
 30
0.0
 11
0.482064228
 21
0.0528515221
 31
0.0
 40
0.2751159905
 41
2.797985741
 42
2.8107732586
  0
ELLIPSE
  5
3E9
100
AcDbEntity
  8
ALL_ASSEMBLY_MEMBERS
100
AcDbEllipse
 62
7
  6
CONTINUOUS
 10
5.1195263975
 20
5.0634819863
 30
0.0
 11
0.4845296422
 21
0.0531218199
 31
0.0
 40
0.2751159905
 41
2.7978044598
 42
2.8105267963
  0
ELLIPSE
  5
3EA
100
AcDbEntity
  8
ALL_ASSEMBLY_MEMBERS
100
AcDbEllipse
 62
7
  6
CONTINUOUS
 10
5.1195263975
 20
4.8975855207
 30
0.0
 11
0.1761576753
 21
1.7840337033
 31
0.0
 40
0.2516548955
 41
1.4930826931
 42
1.4982188066
  0
ELLIPSE
  5
3EB
100
AcDbEntity
  8
ALL_ASSEMBLY_MEMBERS
100
AcDbEllipse
 62
7
  6
CONTINUOUS
 10
5.1195263975
 20
5.0676089824
 30
0.0
 11
-0.3528491689
 21
0.4769267529
 31
0.0
 40
0.6893673732
 41
1.017474214
 42
1.0277252079
  0
ELLIPSE
  5
3EC
100
AcDbEntity
  8
ALL_ASSEMBLY_MEMBERS
100
AcDbEllipse
 62
7
  6
CONTINUOUS
 10
5.1195263975
 20
5.0676089824
 30
0.0
 11
-0.3546537404
 21
0.4793658925
 31
0.0
 40
0.6893673732
 41
1.0178907931
 42
1.0280893223
  0
ELLIPSE
  5
3ED
100
AcDbEntity
  8
ALL_ASSEMBLY_MEMBERS
100
AcDbEllipse
 62
7
  6
CONTINUOUS
 10
5.1195263975
 20
5.0930849933
 30
0.0
 11
0.4817044969
 21
-0.0691775694
 31
0.0
 40
0.3415054598
 41
-2.8149612884
 42
-2.8098396765
  0
ELLIPSE
  5
3EE
100
AcDbEntity
  8
ALL_ASSEMBLY_MEMBERS
100
AcDbEllipse
 62
7
  6
CONTINUOUS
 10
5.1195263975
 20
4.8975855207
 30
0.0
 11
0.177058596
 21
1.7931577614
 31
0.0
 40
0.2516548955
 41
1.4936063544
 42
1.498716073
  0
ELLIPSE
  5
3EF
100
AcDbEntity
  8
ALL_ASSEMBLY_MEMBERS
100
AcDbEllipse
 62
7
  6
CONTINUOUS
 10
5.1195263975
 20
5.0930849933
 30
0.0
 11
0.4841680714
 21
-0.0695313633
 31
0.0
 40
0.3415054598
 41
-2.8145971741
 42
-2.804406043
  0
ELLIPSE
  5
3F0
100
AcDbEntity
  8
ALL_ASSEMBLY_MEMBERS
100
AcDbEllipse
 62
7
  6
CONTINUOUS
 10
5.1195263975
 20
4.9785902368
 30
0.0
 11
0.2099434851
 21
0.9468963828
 31
0.0
 40
0.4585402825
 41
-4.7084918227
 42
-4.7007924332
  0
ELLIPSE
  5
3F1
100
AcDbEntity
  8
ALL_ASSEMBLY_MEMBERS
100
AcDbEllipse
 62
7
  6
CONTINUOUS
 10
5.1195263975
 20
4.9785902368
 30
0.0
 11
0.2110171961
 21
0.9517390814
 31
0.0
 40
0.4585402825
 41
-4.7079945563
 42
-4.7003346858
  0
ELLIPSE
  5
3F2
100
AcDbEntity
  8
ALL_ASSEMBLY_MEMBERS
100
AcDbEllipse
 62
7
  6
CONTINUOUS
 10
5.1195263975
 20
5.0254945464
 30
0.0
 11
0.4334452897
 21
0.3081329288
 31
0.0
 40
0.6863174268
 41
-4.0342992866
 42
-4.0214785888
  0
ELLIPSE
  5
3F3
100
AcDbEntity
  8
ALL_ASSEMBLY_MEMBERS
100
AcDbEllipse
 62
7
  6
CONTINUOUS
 10
5.1195263975
 20
5.0254945464
 30
0.0
 11
0.4356620527
 21
0.3097088087
 31
0.0
 40
0.6863174268
 41
-4.0338415392
 42
-4.0210865289
  0
ELLIPSE
  5
3F4
100
AcDbEntity
  8
ALL_ASSEMBLY_MEMBERS
100
AcDbEllipse
 62
7
  6
CONTINUOUS
 10
5.1195263975
 20
5.0474307309
 30
0.0
 11
0.4820642285
 21
0.052851487
 31
0.0
 40
0.2751158369
 41
2.6854723729
 42
2.6982804317
  0
ELLIPSE
  5
3F5
100
AcDbEntity
  8
ALL_ASSEMBLY_MEMBERS
100
AcDbEllipse
 62
7
  6
CONTINUOUS
 10
5.1195263975
 20
5.0474307309
 30
0.0
 11
0.4845296427
 21
0.0531217846
 31
0.0
 40
0.2751158369
 41
2.6858644329
 42
2.6986069975
  0
ELLIPSE
  5
3F6
100
AcDbEntity
  8
ALL_ASSEMBLY_MEMBERS
100
AcDbEllipse
 62
7
  6
CONTINUOUS
 10
5.1195263975
 20
5.1076169544
 30
0.0
 11
0.4817044969
 21
0.0691775694
 31
0.0
 40
0.3415054598
 41
9.0930249837
 42
9.0981465956
  0
ELLIPSE
  5
3F7
100
AcDbEntity
  8
ALL_ASSEMBLY_MEMBERS
100
AcDbEllipse
 62
7
  6
CONTINUOUS
 10
5.1195263975
 20
5.1151833303
 30
0.0
 11
-0.182988171
 21
1.4265155693
 31
0.0
 40
0.3128044563
 41
1.5564159305
 42
1.5615284492
  0
ELLIPSE
  5
3F8
100
AcDbEntity
  8
ALL_ASSEMBLY_MEMBERS
100
AcDbEllipse
 62
7
  6
CONTINUOUS
 10
5.1195263975
 20
5.1076169544
 30
0.0
 11
0.4841680714
 21
0.0695313633
 31
0.0
 40
0.3415054598
 41
2.804406043
 42
2.8145971741
  0
ELLIPSE
  5
3F9
100
AcDbEntity
  8
ALL_ASSEMBLY_MEMBERS
100
AcDbEllipse
 62
7
  6
CONTINUOUS
 10
5.1195263975
 20
5.1151833303
 30
0.0
 11
-0.1839240248
 21
1.4338111775
 31
0.0
 40
0.3128044563
 41
1.556285014
 42
1.5613714981
  0
ELLIPSE
  5
3FA
100
AcDbEntity
  8
ALL_ASSEMBLY_MEMBERS
100
AcDbEllipse
 62
7
  6
CONTINUOUS
 10
5.1195263975
 20
5.120354961
 30
0.0
 11
0.4644757236
 21
0.2078624458
 31
0.0
 40
0.6246664002
 41
2.5913732513
 42
2.6016242452
  0
ELLIPSE
  5
3FB
100
AcDbEntity
  8
ALL_ASSEMBLY_MEMBERS
100
AcDbEllipse
 62
7
  6
CONTINUOUS
 10
5.1195263975
 20
5.120354961
 30
0.0
 11
0.4668511851
 21
0.2089255137
 31
0.0
 40
0.6246664002
 41
2.5910091369
 42
2.601207666
  0
ELLIPSE
  5
3FC
100
AcDbEntity
  8
ALL_ASSEMBLY_MEMBERS
100
AcDbEllipse
 62
7
  6
CONTINUOUS
 10
5.1195263975
 20
5.1688950124
 30
0.0
 11
0.2099434699
 21
0.946896522
 31
0.0
 40
0.4585402229
 41
-4.5293809328
 42
-4.5216870953
  0
ELLIPSE
  5
3FD
100
AcDbEntity
  8
ALL_ASSEMBLY_MEMBERS
100
AcDbEllipse
 62
7
  6
CONTINUOUS
 10
5.1195263975
 20
5.1688950124
 30
0.0
 11
0.2110171808
 21
0.9517392213
 31
0.0
 40
0.4585402229
 41
-4.529797512
 42
-4.5221431086
  0
ELLIPSE
  5
3FE
100
AcDbEntity
  8
ALL_ASSEMBLY_MEMBERS
100
AcDbEllipse
 62
7
  6
CONTINUOUS
 10
5.1195263975
 20
5.0858390392
 30
0.0
 11
-0.4000667381
 21
0.3847573131
 31
0.0
 40
0.7000252448
 41
0.972439552
 42
0.9801098693
  0
ELLIPSE
  5
3FF
100
AcDbEntity
  8
ALL_ASSEMBLY_MEMBERS
100
AcDbEllipse
 62
7
  6
CONTINUOUS
 10
5.1195263975
 20
4.9935027948
 30
0.0
 11
-0.2099434885
 21
0.9468963521
 31
0.0
 40
0.4585402957
 41
1.3800943987
 42
1.3877882363
  0
ELLIPSE
  5
400
100
AcDbEntity
  8
ALL_ASSEMBLY_MEMBERS
100
AcDbEllipse
 62
7
  6
CONTINUOUS
 10
5.1195263975
 20
5.0858390392
 30
0.0
 11
-0.4021127937
 21
0.3867250719
 31
0.0
 40
0.7000252448
 41
0.9722826009
 42
0.9799138428
  0
ELLIPSE
  5
401
100
AcDbEntity
  8
ALL_ASSEMBLY_MEMBERS
100
AcDbEllipse
 62
7
  6
CONTINUOUS
 10
5.1195263975
 20
4.9935027948
 30
0.0
 11
-0.2110171995
 21
0.9517390505
 31
0.0
 40
0.4585402957
 41
1.380550412
 42
1.3882048155
  0
ENDSEC
  0
SECTION
  2
OBJECTS
  0
DICTIONARY
  5
C
100
AcDbDictionary
280
0
281
1
  3
ACAD_GROUP
350
D
  3
ACAD_MLINESTYLE
350
17
  3
ACAD_LAYOUT
350
1A
  3
ACAD_PLOTSETTINGS
350
19
  3
ACAD_PLOTSTYLENAME
350
E
  0
DICTIONARY
  5
D
102
{ACAD_REACTORS
330
C
102
}
100
AcDbDictionary
280
0
281
1
  0
ACDBDICTIONARYWDFLT
  5
E
102
{ACAD_REACTORS
330
C
102
}
100
AcDbDictionary
281
1
  3
Normal
350
F
100
AcDbDictionaryWithDefault
340
F
  0
DICTIONARY
  5
17
102
{ACAD_REACTORS
330
C
102
}
100
AcDbDictionary
280
0
281
1
  3
Standard
350
18
  0
DICTIONARY
  5
19
102
{ACAD_REACTORS
330
C
102
}
100
AcDbDictionary
281
1
  0
DICTIONARY
  5
1A
102
{ACAD_REACTORS
330
C
102
}
100
AcDbDictionary
281
1
  3
Model
350
402
  3
Layout1
350
403
  0
ACDBPLACEHOLDER
  5
F
102
{ACAD_REACTORS
330
E
102
}
  0
MLINESTYLE
  5
18
102
{ACAD_REACTORS
330
17
102
}
100
AcDbMlineStyle
  2
STANDARD
 70
0
  3

 62
256
 51
90.0
 52
90.0
 71
2
 49
0.5
 62
256
  6
BYLAYER
 49
-0.5
 62
256
  6
BYLAYER
  0
LAYOUT
  5
402
102
{ACAD_REACTORS
330
1A
102
}
100
AcDbPlotSettings
  1

  2
none_device
  4
ANSI_A_(11.00_x_8.50_Inches)
  6

 40
0.0
 41
0.0
 42
0.0
 43
0.0
 44
279.4
 45
215.9
 46
0.0
 47
0.0
 48
0.0
 49
0.0
140
0.0
141
0.0
142
1.0
143
1.0
 70
1024
 72
0
 73
0
 74
0
  7

 75
0
147
1.0
148
0.0
149
0.0
100
AcDbLayout
  1
Model
 70
0
 71
0
 10
0.0
 20
0.0
 11
11.0
 21
8.5
 12
0.0
 22
0.0
 32
0.0
 14
0.0
 24
0.0
 34
0.0
 15
0.0
 25
0.0
 35
0.0
146
0.0
 13
0.0
 23
0.0
 33
0.0
 16
1.0
 26
0.0
 36
0.0
 17
0.0
 27
1.0
 37
0.0
 76
0
330
21A
345
0
346
0
  0
LAYOUT
  5
403
102
{ACAD_REACTORS
330
1A
102
}
100
AcDbPlotSettings
  1

  2
none_device
  4
ANSI_A_(11.00_x_8.50_Inches)
  6

 40
0.0
 41
0.0
 42
0.0
 43
0.0
 44
279.4
 45
215.9
 46
0.0
 47
0.0
 48
0.0
 49
0.0
140
0.0
141
0.0
142
1.0
143
1.0
 70
0
 72
0
 73
0
 74
0
  7

 75
0
147
1.0
148
0.0
149
0.0
100
AcDbLayout
  1
Layout1
 70
0
 71
1
 10
0.0
 20
0.0
 11
11.0
 21
8.5
 12
0.0
 22
0.0
 32
0.0
 14
0.0
 24
0.0
 34
0.0
 15
0.0
 25
0.0
 35
0.0
146
0.0
 13
0.0
 23
0.0
 33
0.0
 16
1.0
 26
0.0
 36
0.0
 17
0.0
 27
1.0
 37
0.0
 76
0
330
21B
345
0
346
0
  0
ENDSEC
  0
EOF
