999
DXF file: E:\BT Custom\CADOUTPUT\_RIGHT.dxf
999
Pro/ENGINEER 2018400 by Parametric Technology Corporation
  0
SECTION
  2
HEADER
  9
$ACADVER
  1
AC1018
  9
$DWGCODEPAGE
  3
ANSI_1252
  9
$EXTMAX
 10
22.0
 20
17.0
 30
0.0
  9
$EXTMIN
 10
0.0
 20
0.0
 30
0.0
  9
$LIMMIN
 10
0.0
 20
0.0
  9
$LIMMAX
 10
22.0
 20
17.0
  9
$VIEWCTR
 10
11.0
 20
8.5
  9
$VIEWSIZE
 40
17.0
  9
$CLAYER
  8
0
  9
$LTSCALE
 40
1.21
  9
$CELTYPE
  6
BYLAYER
  9
$DIMSCALE
 40
1.0
  9
$DIMASZ
 40
0.1
  9
$DIMEXO
 40
0.0625
  9
$DIMDLI
 40
0.836
  9
$DIMEXE
 40
0.125
  9
$DIMCEN
 40
0.198
  9
$DIMLFAC
 40
1.0
  9
$DIMBLK
  1
_FILLED
  9
$DIMALT
 70
1
  9
$DIMALTD
 70
2
  9
$DIMALTTD
 70
2
  9
$DIMALTF
 40
25.4
  9
$DIMTXT
 40
0.08
  9
$DIMTOL
 70
1
  9
$DIMLIM
 70
0
  9
$DIMTFAC
 40
1.0
  9
$DIMTP
 40
0.001
  9
$DIMTM
 40
0.001
  9
$DIMGAP
 40
0.09
  9
$DIMDSEP
 70
46
  9
$AUNITS
 70
0
  9
$PDMODE
 70
3
  9
$PDSIZE
 40
0.06
  9
$HANDSEED
  5
268
  9
$TILEMODE
 70
1
  9
$MEASUREMENT
 70
0
  9
$INSUNITS
 70
1
  0
ENDSEC
  0
SECTION
  2
CLASSES
  0
CLASS
  1
ACDBDICTIONARYWDFLT
  2
AcDbDictionaryWithDefault
  3
AutoCAD 2000
 90
0
 91
1
280
0
281
0
  0
CLASS
  1
ACDBPLACEHOLDER
  2
AcDbPlaceHolder
  3
AutoCAD 2000
 90
0
 91
1
280
0
281
0
  0
CLASS
  1
LAYOUT
  2
AcDbLayout
  3
AutoCAD 2000
 90
0
 91
0
280
0
281
0
  0
ENDSEC
  0
SECTION
  2
TABLES
  0
TABLE
  2
VPORT
  5
8
100
AcDbSymbolTable
 70
2
  0
VPORT
  5
1F4
100
AcDbSymbolTableRecord
100
AcDbViewportTableRecord
  2
*ACTIVE
 70
0
 10
0.0
 20
0.0
 11
1.0
 21
1.0
 12
11.0
 22
8.5
 13
0.0
 23
0.0
 14
1.0
 24
1.0
 15
0.0
 25
0.0
 16
0.0
 26
0.0
 36
1.0
 17
0.0
 27
0.0
 37
0.0
 40
17.0
 41
1.2941176471
 42
50.0
 43
0.0
 44
0.0
 50
0.0
 51
0.0
 71
0
 72
100
 73
1
 74
1
 75
0
 76
0
 77
0
 78
0
  0
ENDTAB
  0
TABLE
  2
LTYPE
  5
5
100
AcDbSymbolTable
 70
6
  0
LTYPE
  5
14
100
AcDbSymbolTableRecord
100
AcDbLinetypeTableRecord
  2
BYBLOCK
 70
0
  3

 72
65
 73
0
 40
0.0
  0
LTYPE
  5
15
100
AcDbSymbolTableRecord
100
AcDbLinetypeTableRecord
  2
BYLAYER
 70
0
  3

 72
65
 73
0
 40
0.0
  0
LTYPE
  5
16
100
AcDbSymbolTableRecord
100
AcDbLinetypeTableRecord
  2
CONTINUOUS
 70
64
  3
Solid line
 72
65
 73
0
 40
0.0
  0
LTYPE
  5
1F5
100
AcDbSymbolTableRecord
100
AcDbLinetypeTableRecord
  2
CENTER
 70
64
  3
____ _ ____ _ ____ _ ____ _ ____ _ ____ _ ____
 72
65
 73
4
 40
0.6
 49
0.375
 74
0
 49
-0.075
 74
0
 49
0.075
 74
0
 49
-0.075
 74
0
  0
LTYPE
  5
1F6
100
AcDbSymbolTableRecord
100
AcDbLinetypeTableRecord
  2
HIDDEN
 70
64
  3
- - - - - - - - - - - - - - - - - - - -
 72
65
 73
2
 40
0.2
 49
0.1
 74
0
 49
-0.1
 74
0
  0
LTYPE
  5
1F7
100
AcDbSymbolTableRecord
100
AcDbLinetypeTableRecord
  2
PHANTOM
 70
64
  3
_____ _ _ _____ _ _ _____ _ _ _____
 72
65
 73
6
 40
0.8
 49
0.45
 74
0
 49
-0.05
 74
0
 49
0.1
 74
0
 49
-0.05
 74
0
 49
0.1
 74
0
 49
-0.05
 74
0
  0
LTYPE
  5
1F8
100
AcDbSymbolTableRecord
100
AcDbLinetypeTableRecord
  2
DOT
 70
64
  3
. . . . . . . . . . . . . . . . . . . .
 72
65
 73
2
 40
0.2
 49
0.1
 74
0
 49
-0.1
 74
0
  0
LTYPE
  5
1F9
100
AcDbSymbolTableRecord
100
AcDbLinetypeTableRecord
  2
DASHED
 70
64
  3
- - - - - - - - - - - - - - - - - - - -
 72
65
 73
2
 40
0.2
 49
0.1
 74
0
 49
-0.1
 74
0
  0
ENDTAB
  0
TABLE
  2
LAYER
  5
2
100
AcDbSymbolTable
 70
36
  0
LAYER
  5
10
100
AcDbSymbolTableRecord
100
AcDbLayerTableRecord
  2
0
 70
0
 62
7
  6
CONTINUOUS
370
-3
390
F
  0
LAYER
  5
1FA
100
AcDbSymbolTableRecord
100
AcDbLayerTableRecord
  2
DEFAULT_1
 70
0
 62
7
  6
CENTER
370
-3
390
F
  0
LAYER
  5
1FB
100
AcDbSymbolTableRecord
100
AcDbLayerTableRecord
  2
DEFAULT_2
 70
0
 62
8
  6
HIDDEN
370
-3
390
F
  0
LAYER
  5
1FC
100
AcDbSymbolTableRecord
100
AcDbLayerTableRecord
  2
DEFAULT_3
 70
0
 62
7
  6
PHANTOM
370
-3
390
F
  0
LAYER
  5
1FD
100
AcDbSymbolTableRecord
100
AcDbLayerTableRecord
  2
ALL_FEATURES
 70
0
 62
7
  6
CONTINUOUS
370
-3
390
F
  0
LAYER
  5
1FE
100
AcDbSymbolTableRecord
100
AcDbLayerTableRecord
  2
AXES_FEATURES
 70
0
 62
7
  6
CONTINUOUS
370
-3
390
F
  0
LAYER
  5
1FF
100
AcDbSymbolTableRecord
100
AcDbLayerTableRecord
  2
DIMENSIONS
 70
0
 62
7
  6
CONTINUOUS
370
-3
390
F
  0
ENDTAB
  0
TABLE
  2
STYLE
  5
3
100
AcDbSymbolTable
 70
1
  0
STYLE
  5
11
100
AcDbSymbolTableRecord
100
AcDbTextStyleTableRecord
  2
STANDARD
 70
0
 40
0.0
 41
0.8
 50
0.0
 71
0
 42
0.2
  3
txt
  4

  0
STYLE
  5
200
100
AcDbSymbolTableRecord
100
AcDbTextStyleTableRecord
  2
TEXTSTYLE_1
 70
0
 40
0.0
 41
0.8
 50
0.0
 71
0
 42
0.2
  3
gdt
  4

  0
ENDTAB
  0
TABLE
  2
VIEW
  5
6
100
AcDbSymbolTable
 70
0
  0
ENDTAB
  0
TABLE
  2
UCS
  5
7
100
AcDbSymbolTable
 70
0
  0
ENDTAB
  0
TABLE
  2
APPID
  5
9
100
AcDbSymbolTable
 70
1
  0
APPID
  5
201
100
AcDbSymbolTableRecord
100
AcDbRegAppTableRecord
  2
ACAD
 70
0
  0
ENDTAB
  0
TABLE
  2
BLOCK_RECORD
  5
1
100
AcDbSymbolTable
 70
0
  0
BLOCK_RECORD
  5
202
100
AcDbSymbolTableRecord
100
AcDbBlockTableRecord
  2
*Model_Space
  0
BLOCK_RECORD
  5
203
100
AcDbSymbolTableRecord
100
AcDbBlockTableRecord
  2
*Paper_Space
  0
BLOCK_RECORD
  5
204
100
AcDbSymbolTableRecord
100
AcDbBlockTableRecord
  2
_FILLED
  0
ENDTAB
  0
TABLE
  2
DIMSTYLE
  5
A
100
AcDbSymbolTable
 70
1
100
AcDbDimStyleTable
 71
0
  0
DIMSTYLE
105
205
100
AcDbSymbolTableRecord
100
AcDbDimStyleTableRecord
  2
STANDARD
 70
0
  3

  4

 40
1.0
 41
0.1
 42
0.0625
 43
0.38
 44
0.125
 45
0.0
 46
0.0
 47
0.001
 48
0.001
140
0.08
141
0.09
142
0.0
143
25.4
144
1.0
145
0.0
146
1.0
147
0.09
 71
1.0
 72
0.0
 73
1
 74
1
 75
0
 76
0
 77
0
 78
4
 79
1
170
1
171
2
172
0
173
0
174
0
175
0
176
0
177
0
178
0
270
2
179
3
271
3
272
3
273
2
274
2
275
0
280
0
281
0
282
0
283
1
284
4
285
0
286
0
287
3
288
0
340
11
278
46
341
204
342
204
343
204
344
204
  0
ENDTAB
  0
ENDSEC
  0
SECTION
  2
BLOCKS
  0
BLOCK
  5
20
100
AcDbEntity
  8
0
100
AcDbBlockBegin
  2
*Model_Space
 70
0
 10
0.0
 20
0.0
 30
0.0
  3
*Model_Space
  1

  0
ENDBLK
  5
21
100
AcDbEntity
  8
0
100
AcDbBlockEnd
  0
BLOCK
  5
1C
100
AcDbEntity
  8
0
100
AcDbBlockBegin
  2
*Paper_Space
 70
0
 10
0.0
 20
0.0
 30
0.0
  3
*Paper_Space
  1

  0
ENDBLK
  5
1D
100
AcDbEntity
  8
0
100
AcDbBlockEnd
  0
BLOCK
  5
206
100
AcDbEntity
  8
0
100
AcDbBlockBegin
  2
_FILLED
 70
64
 10
0.0
 20
0.0
  3
_FILLED
  1

  0
SOLID
  5
207
100
AcDbEntity
  8
0
  6
BYBLOCK
 62
0
100
AcDbTrace
 10
0.0
 20
0.0
 11
-1.0
 21
0.2
 12
-1.0
 22
-0.2
 13
-1.0
 23
-0.2
  0
ENDBLK
  5
208
100
AcDbEntity
  8
0
  6
BYBLOCK
 62
0
100
AcDbBlockEnd
  0
ENDSEC
  0
SECTION
  2
ENTITIES
  0
LINE
  5
209
100
AcDbEntity
  8
0
100
AcDbLine
 62
7
  6
CONTINUOUS
 10
5.3249834891
 20
9.914891804
 11
5.3249834891
 21
10.914891804
  0
LINE
  5
20A
100
AcDbEntity
  8
0
100
AcDbLine
 62
7
  6
CONTINUOUS
 10
5.7274834891
 20
9.9113328501
 11
5.7274834891
 21
9.8964176908
  0
LINE
  5
20B
100
AcDbEntity
  8
0
100
AcDbLine
 62
7
  6
CONTINUOUS
 10
5.7401421394
 20
9.8891129864
 11
5.7401421402
 21
9.8817332783
  0
LINE
  5
20C
100
AcDbEntity
  8
0
100
AcDbLine
 62
7
  6
CONTINUOUS
 10
5.7499834891
 20
9.871891804
 11
5.7499834891
 21
9.846891804
  0
LINE
  5
20D
100
AcDbEntity
  8
0
100
AcDbLine
 62
7
  6
CONTINUOUS
 10
5.7274834891
 20
9.9113540391
 11
5.7275962938
 21
9.9114818246
  0
LINE
  5
20E
100
AcDbEntity
  8
0
100
AcDbLine
 62
7
  6
CONTINUOUS
 10
6.7899834891
 20
9.871891804
 11
6.7899834891
 21
9.846891804
  0
LINE
  5
20F
100
AcDbEntity
  8
0
100
AcDbLine
 62
7
  6
CONTINUOUS
 10
6.7998504163
 20
9.8989518823
 11
6.7998504163
 21
9.9087973557
  0
LINE
  5
210
100
AcDbEntity
  8
0
100
AcDbLine
 62
7
  6
CONTINUOUS
 10
6.7899834891
 20
9.871891804
 11
6.8107518477
 21
9.8926601627
  0
LINE
  5
211
100
AcDbEntity
  8
0
100
AcDbLine
 62
7
  6
CONTINUOUS
 10
5.7335339474
 20
9.914891804
 11
5.7275962983
 21
9.9114627722
  0
LINE
  5
212
100
AcDbEntity
  8
0
100
AcDbLine
 62
7
  6
CONTINUOUS
 10
5.7274834891
 20
9.896407898
 11
5.7275921412
 21
9.8962824882
  0
LINE
  5
213
100
AcDbEntity
  8
0
100
AcDbLine
 62
7
  6
CONTINUOUS
 10
6.8107572036
 20
9.8926655185
 11
6.8107245799
 21
9.8927471809
  0
LINE
  5
214
100
AcDbEntity
  8
0
100
AcDbLine
 62
7
  6
CONTINUOUS
 10
6.7997421803
 20
9.9086725352
 11
6.8105120577
 21
9.914891804
  0
LINE
  5
215
100
AcDbEntity
  8
0
100
AcDbLine
 62
7
  6
CONTINUOUS
 10
5.7499834891
 20
9.871891804
 11
5.7401422446
 21
9.8817330486
  0
LINE
  5
216
100
AcDbEntity
  8
0
100
AcDbLine
 62
7
  6
CONTINUOUS
 10
13.0299834891
 20
7.104891804
 11
15.5099834891
 21
7.104891804
  0
LINE
  5
217
100
AcDbEntity
  8
0
100
AcDbLine
 62
9
  6
CONTINUOUS
 10
15.3799834891
 20
7.394891804
 11
13.1599834891
 21
7.394891804
  0
LINE
  5
218
100
AcDbEntity
  8
0
100
AcDbLine
 62
7
  6
CONTINUOUS
 10
13.1799834891
 20
7.414891804
 11
15.3599834891
 21
7.414891804
  0
LINE
  5
219
100
AcDbEntity
  8
0
100
AcDbLine
 62
7
  6
CONTINUOUS
 10
5.7275921435
 20
9.8962924964
 11
5.7402599988
 21
9.8889769728
  0
LINE
  5
21A
100
AcDbEntity
  8
0
100
AcDbLine
 62
7
  6
CONTINUOUS
 10
6.8107213596
 20
9.8927439609
 11
6.7997287038
 21
9.8990920477
  0
LINE
  5
21B
100
AcDbEntity
  8
0
100
AcDbLine
 62
9
  6
CONTINUOUS
 10
15.5099834891
 20
7.924891804
 11
15.0699834891
 21
7.924891804
  0
LINE
  5
21C
100
AcDbEntity
  8
0
100
AcDbLine
 62
9
  6
CONTINUOUS
 10
13.4699834891
 20
7.924891804
 11
13.0299834891
 21
7.924891804
  0
LINE
  5
21D
100
AcDbEntity
  8
0
100
AcDbLine
 62
7
  6
CONTINUOUS
 10
13.0699834891
 20
7.964891804
 11
13.4699834891
 21
7.964891804
  0
LINE
  5
21E
100
AcDbEntity
  8
0
100
AcDbLine
 62
7
  6
CONTINUOUS
 10
15.0699834891
 20
7.964891804
 11
15.4699834891
 21
7.964891804
  0
LINE
  5
21F
100
AcDbEntity
  8
0
100
AcDbLine
 62
9
  6
CONTINUOUS
 10
13.4574834891
 20
7.994891804
 11
13.4699834891
 21
7.994891804
  0
LINE
  5
220
100
AcDbEntity
  8
0
100
AcDbLine
 62
9
  6
CONTINUOUS
 10
15.0699834891
 20
7.994891804
 11
15.0824834891
 21
7.994891804
  0
LINE
  5
221
100
AcDbEntity
  8
0
100
AcDbLine
 62
7
  6
CONTINUOUS
 10
15.0699834891
 20
9.054891804
 11
13.4699834891
 21
9.054891804
  0
LINE
  5
222
100
AcDbEntity
  8
0
100
AcDbLine
 62
7
  6
CONTINUOUS
 10
14.7074834891
 20
9.079891804
 11
13.8324834891
 21
9.079891804
  0
LINE
  5
223
100
AcDbEntity
  8
0
100
AcDbLine
 62
7
  6
CONTINUOUS
 10
14.7074834891
 20
9.229891804
 11
13.8324834891
 21
9.229891804
  0
LINE
  5
224
100
AcDbEntity
  8
0
100
AcDbLine
 62
7
  6
CONTINUOUS
 10
14.5524834891
 20
9.249891804
 11
13.9874834891
 21
9.249891804
  0
LINE
  5
225
100
AcDbEntity
  8
0
100
AcDbLine
 62
9
  6
CONTINUOUS
 10
13.9574834891
 20
9.279891804
 11
14.5824834891
 21
9.279891804
  0
LINE
  5
226
100
AcDbEntity
  8
0
100
AcDbLine
 62
7
  6
CONTINUOUS
 10
5.7499850664
 20
9.846891804
 11
6.7899819118
 21
9.846891804
  0
LINE
  5
227
100
AcDbEntity
  8
0
100
AcDbLine
 62
7
  6
CONTINUOUS
 10
6.7899834891
 20
9.871891804
 11
5.7499834891
 21
9.871891804
  0
LINE
  5
228
100
AcDbEntity
  8
0
100
AcDbLine
 62
7
  6
CONTINUOUS
 10
5.7812674073
 20
9.8817618036
 11
5.7401136149
 21
9.8817618036
  0
LINE
  5
229
100
AcDbEntity
  8
0
100
AcDbLine
 62
9
  6
CONTINUOUS
 10
15.0824834891
 20
9.884891804
 11
14.5824834891
 21
9.884891804
  0
LINE
  5
22A
100
AcDbEntity
  8
0
100
AcDbLine
 62
9
  6
CONTINUOUS
 10
13.9574834891
 20
9.884891804
 11
13.4574834891
 21
9.884891804
  0
LINE
  5
22B
100
AcDbEntity
  8
0
100
AcDbLine
 62
7
  6
CONTINUOUS
 10
16.0949834891
 20
9.914891804
 11
14.5824834891
 21
9.914891804
  0
LINE
  5
22C
100
AcDbEntity
  8
0
100
AcDbLine
 62
7
  6
CONTINUOUS
 10
13.9574834891
 20
9.914891804
 11
5.3249834891
 21
9.914891804
  0
LINE
  5
22D
100
AcDbEntity
  8
0
100
AcDbLine
 62
9
  6
CONTINUOUS
 10
14.5824834891
 20
9.959891804
 11
13.9574834891
 21
9.959891804
  0
LINE
  5
22E
100
AcDbEntity
  8
0
100
AcDbLine
 62
7
  6
CONTINUOUS
 10
14.5524834891
 20
9.989891804
 11
13.9874834891
 21
9.989891804
  0
LINE
  5
22F
100
AcDbEntity
  8
0
100
AcDbLine
 62
9
  6
CONTINUOUS
 10
13.9574834891
 20
10.019891804
 11
14.5824834891
 21
10.019891804
  0
LINE
  5
230
100
AcDbEntity
  8
0
100
AcDbLine
 62
9
  6
CONTINUOUS
 10
14.5824834891
 20
10.589891804
 11
13.9574834891
 21
10.589891804
  0
LINE
  5
231
100
AcDbEntity
  8
0
100
AcDbLine
 62
7
  6
CONTINUOUS
 10
13.9874834891
 20
10.619891804
 11
14.5524834891
 21
10.619891804
  0
LINE
  5
232
100
AcDbEntity
  8
0
100
AcDbLine
 62
7
  6
CONTINUOUS
 10
5.3249834891
 20
10.914891804
 11
16.0949834891
 21
10.914891804
  0
LINE
  5
233
100
AcDbEntity
  8
0
100
AcDbLine
 62
7
  6
CONTINUOUS
 10
13.0299834891
 20
7.104891804
 11
13.0299834891
 21
7.924891804
  0
LINE
  5
234
100
AcDbEntity
  8
0
100
AcDbLine
 62
9
  6
CONTINUOUS
 10
13.0699834891
 20
7.964891804
 11
13.0699834891
 21
7.104891804
  0
LINE
  5
235
100
AcDbEntity
  8
0
100
AcDbLine
 62
7
  6
CONTINUOUS
 10
13.1599834891
 20
7.104891804
 11
13.1599834891
 21
7.394891804
  0
LINE
  5
236
100
AcDbEntity
  8
0
100
AcDbLine
 62
9
  6
CONTINUOUS
 10
13.1799834891
 20
7.414891804
 11
13.1799834891
 21
7.104891804
  0
LINE
  5
237
100
AcDbEntity
  8
0
100
AcDbLine
 62
7
  6
CONTINUOUS
 10
13.4574834891
 20
7.994891804
 11
13.4574834891
 21
9.884891804
  0
LINE
  5
238
100
AcDbEntity
  8
0
100
AcDbLine
 62
7
  6
CONTINUOUS
 10
13.4699834891
 20
9.054891804
 11
13.4699834891
 21
7.414891804
  0
LINE
  5
239
100
AcDbEntity
  8
0
100
AcDbLine
 62
9
  6
CONTINUOUS
 10
13.4874834891
 20
9.914891804
 11
13.4874834892
 21
9.054891804
  0
LINE
  5
23A
100
AcDbEntity
  8
0
100
AcDbLine
 62
7
  6
CONTINUOUS
 10
13.8324834891
 20
9.229891804
 11
13.8324834891
 21
9.079891804
  0
LINE
  5
23B
100
AcDbEntity
  8
0
100
AcDbLine
 62
7
  6
CONTINUOUS
 10
13.8699834891
 20
9.079891804
 11
13.8699834891
 21
9.054891804
  0
LINE
  5
23C
100
AcDbEntity
  8
0
100
AcDbLine
 62
7
  6
CONTINUOUS
 10
13.9574834891
 20
9.279891804
 11
13.9574834891
 21
10.589891804
  0
LINE
  5
23D
100
AcDbEntity
  8
0
100
AcDbLine
 62
9
  6
CONTINUOUS
 10
13.9874834891
 20
10.619891804
 11
13.9874834891
 21
9.249891804
  0
LINE
  5
23E
100
AcDbEntity
  8
0
100
AcDbLine
 62
7
  6
CONTINUOUS
 10
14.0699834891
 20
9.249891804
 11
14.0699834891
 21
9.229891804
  0
LINE
  5
23F
100
AcDbEntity
  8
0
100
AcDbLine
 62
7
  6
CONTINUOUS
 10
14.4699834891
 20
9.249891804
 11
14.4699834891
 21
9.229891804
  0
LINE
  5
240
100
AcDbEntity
  8
0
100
AcDbLine
 62
9
  6
CONTINUOUS
 10
14.5524834891
 20
9.249891804
 11
14.5524834891
 21
10.619891804
  0
LINE
  5
241
100
AcDbEntity
  8
0
100
AcDbLine
 62
7
  6
CONTINUOUS
 10
14.5824834891
 20
9.279891804
 11
14.5824834891
 21
10.589891804
  0
LINE
  5
242
100
AcDbEntity
  8
0
100
AcDbLine
 62
7
  6
CONTINUOUS
 10
14.6699834891
 20
9.079891804
 11
14.6699834891
 21
9.054891804
  0
LINE
  5
243
100
AcDbEntity
  8
0
100
AcDbLine
 62
7
  6
CONTINUOUS
 10
14.7074834891
 20
9.229891804
 11
14.7074834891
 21
9.079891804
  0
LINE
  5
244
100
AcDbEntity
  8
0
100
AcDbLine
 62
9
  6
CONTINUOUS
 10
15.0524834893
 20
9.054891804
 11
15.0524834891
 21
9.914891804
  0
LINE
  5
245
100
AcDbEntity
  8
0
100
AcDbLine
 62
7
  6
CONTINUOUS
 10
15.0699834891
 20
9.054891804
 11
15.0699834891
 21
7.414891804
  0
LINE
  5
246
100
AcDbEntity
  8
0
100
AcDbLine
 62
7
  6
CONTINUOUS
 10
15.0824834891
 20
9.884891804
 11
15.0824834891
 21
7.994891804
  0
LINE
  5
247
100
AcDbEntity
  8
0
100
AcDbLine
 62
9
  6
CONTINUOUS
 10
15.3599834891
 20
7.104891804
 11
15.3599834891
 21
7.414891804
  0
LINE
  5
248
100
AcDbEntity
  8
0
100
AcDbLine
 62
7
  6
CONTINUOUS
 10
15.3799834891
 20
7.394891804
 11
15.3799834891
 21
7.104891804
  0
LINE
  5
249
100
AcDbEntity
  8
0
100
AcDbLine
 62
9
  6
CONTINUOUS
 10
15.4699834891
 20
7.104891804
 11
15.4699834891
 21
7.964891804
  0
LINE
  5
24A
100
AcDbEntity
  8
0
100
AcDbLine
 62
7
  6
CONTINUOUS
 10
15.5099834891
 20
7.924891804
 11
15.5099834891
 21
7.104891804
  0
LINE
  5
24B
100
AcDbEntity
  8
0
100
AcDbLine
 62
7
  6
CONTINUOUS
 10
16.0949834891
 20
10.914891804
 11
16.0949834891
 21
9.914891804
  0
ARC
  5
24C
100
AcDbEntity
  8
0
100
AcDbCircle
 62
7
  6
CONTINUOUS
 10
13.0699834891
 20
7.924891804
 40
0.04
100
AcDbArc
 50
90.0
 51
180.0
  0
ARC
  5
24D
100
AcDbEntity
  8
0
100
AcDbCircle
 62
7
  6
CONTINUOUS
 10
15.4699834891
 20
7.924891804
 40
0.04
100
AcDbArc
 50
0.0
 51
90.0
  0
ARC
  5
24E
100
AcDbEntity
  8
0
100
AcDbCircle
 62
7
  6
CONTINUOUS
 10
13.9874834891
 20
9.279891804
 40
0.03
100
AcDbArc
 50
180.0
 51
270.0
  0
ARC
  5
24F
100
AcDbEntity
  8
0
100
AcDbCircle
 62
7
  6
CONTINUOUS
 10
14.5524834891
 20
10.589891804
 40
0.03
100
AcDbArc
 50
0.0
 51
90.0
  0
ARC
  5
250
100
AcDbEntity
  8
0
100
AcDbCircle
 62
7
  6
CONTINUOUS
 10
14.5524834891
 20
9.279891804
 40
0.03
100
AcDbArc
 50
270.0
 51
360.0
  0
ARC
  5
251
100
AcDbEntity
  8
0
100
AcDbCircle
 62
7
  6
CONTINUOUS
 10
14.5524834891
 20
10.019891804
 40
0.03
100
AcDbArc
 50
270.0
 51
360.0
  0
ARC
  5
252
100
AcDbEntity
  8
0
100
AcDbCircle
 62
7
  6
CONTINUOUS
 10
13.9874834891
 20
10.019891804
 40
0.03
100
AcDbArc
 50
180.0
 51
270.0
  0
ARC
  5
253
100
AcDbEntity
  8
0
100
AcDbCircle
 62
7
  6
CONTINUOUS
 10
13.9874834891
 20
10.589891804
 40
0.03
100
AcDbArc
 50
90.0
 51
180.0
  0
ARC
  5
254
100
AcDbEntity
  8
0
100
AcDbCircle
 62
7
  6
CONTINUOUS
 10
15.0524834891
 20
7.994891804
 40
0.03
100
AcDbArc
 50
306.415838019
 51
360.0
  0
ARC
  5
255
100
AcDbEntity
  8
0
100
AcDbCircle
 62
7
  6
CONTINUOUS
 10
13.4874834891
 20
9.884891804
 40
0.03
100
AcDbArc
 50
90.0
 51
180.0
  0
ARC
  5
256
100
AcDbEntity
  8
0
100
AcDbCircle
 62
7
  6
CONTINUOUS
 10
15.0524834891
 20
9.884891804
 40
0.03
100
AcDbArc
 50
0.0
 51
90.0
  0
ARC
  5
257
100
AcDbEntity
  8
0
100
AcDbCircle
 62
7
  6
CONTINUOUS
 10
13.4874834891
 20
7.994891804
 40
0.03
100
AcDbArc
 50
180.0
 51
233.584161981
  0
ARC
  5
258
100
AcDbEntity
  8
0
100
AcDbCircle
 62
7
  6
CONTINUOUS
 10
13.1799834891
 20
7.394891804
 40
0.02
100
AcDbArc
 50
90.0
 51
180.0
  0
ARC
  5
259
100
AcDbEntity
  8
0
100
AcDbCircle
 62
7
  6
CONTINUOUS
 10
15.3599834891
 20
7.394891804
 40
0.02
100
AcDbArc
 50
0.0
 51
90.0
  0
SPLINE
  5
25A
100
AcDbEntity
  8
0
100
AcDbSpline
 62
7
  6
CONTINUOUS
 70
0
 71
3
 72
16
 73
12
 74
0
 42
0.0000001
 43
0.0000001
 44
0.0000000001
 40
0.0
 40
0.0
 40
0.0
 40
0.0
 40
0.0078448406
 40
0.0213648638
 40
0.0700640065
 40
0.1490635276
 40
0.2585917231
 40
0.3985956876
 40
0.5689430381
 40
0.7694704337
 40
1.0
 40
1.0
 40
1.0
 40
1.0
 10
6.7998504163
 20
9.8989586863
 30
0.0
 10
6.7998504159
 20
9.8989265631
 30
0.0
 10
6.7997883995
 20
9.898848732
 30
0.0
 10
6.7995309399
 20
9.8987292534
 30
0.0
 10
6.7989632163
 20
9.8985867772
 30
0.0
 10
6.7980072369
 20
9.8984310416
 30
0.0
 10
6.7966701039
 20
9.8982690814
 30
0.0
 10
6.7949589907
 20
9.8981056991
 30
0.0
 10
6.7928732817
 20
9.897940846
 30
0.0
 10
6.790416235
 20
9.8977753781
 30
0.0
 10
6.7886541334
 20
9.8976719141
 30
0.0
 10
6.7877116124
 20
9.8976195113
 30
0.0
  0
SPLINE
  5
25B
100
AcDbEntity
  8
0
100
AcDbSpline
 62
7
  6
CONTINUOUS
 70
0
 71
3
 72
24
 73
20
 74
0
 42
0.0000001
 43
0.0000001
 44
0.0000000001
 40
0.0
 40
0.0
 40
0.0
 40
0.0
 40
0.0104531676
 40
0.0240344407
 40
0.0406815846
 40
0.0603189442
 40
0.1079752132
 40
0.1657188382
 40
0.2322038585
 40
0.3057387176
 40
0.38445367
 40
0.4664350986
 40
0.6319093842
 40
0.7112661541
 40
0.7857380773
 40
0.8534016794
 40
0.9126113796
 40
0.9619245045
 40
1.0
 40
1.0
 40
1.0
 40
1.0
 10
6.7877116124
 20
9.8976195113
 30
0.0
 10
6.7842098085
 20
9.8974248159
 30
0.0
 10
6.7761536651
 20
9.8970621307
 30
0.0
 10
6.7625128191
 20
9.8965790719
 30
0.0
 10
6.7457889901
 20
9.8960925773
 30
0.0
 10
6.7176340409
 20
9.8953955855
 30
0.0
 10
6.6756901922
 20
9.8945548859
 30
0.0
 10
6.6180280359
 20
9.8935864225
 30
0.0
 10
6.551682149
 20
9.8926150471
 30
0.0
 10
6.4782994364
 20
9.8916396325
 30
0.0
 10
6.3997170241
 20
9.8906618225
 30
0.0
 10
6.2902891462
 20
9.8893533152
 30
0.0
 10
6.1806456033
 20
9.8880706343
 30
0.0
 10
6.0735222839
 20
9.8867482394
 30
0.0
 10
5.9992143077
 20
9.8857729571
 30
0.0
 10
5.9316666206
 20
9.8847997224
 30
0.0
 10
5.8725609649
 20
9.8838319624
 30
0.0
 10
5.8233840906
 20
9.8828740649
 30
0.0
 10
5.7940722186
 20
9.8821529893
 30
0.0
 10
5.7813032472
 20
9.8817617407
 30
0.0
  0
SPLINE
  5
25C
100
AcDbEntity
  8
0
100
AcDbSpline
 62
7
  6
CONTINUOUS
 70
0
 71
3
 72
16
 73
12
 74
0
 42
0.0000001
 43
0.0000001
 44
0.0000000001
 40
0.0
 40
0.0
 40
0.0
 40
0.0
 40
0.1703083702
 40
0.3361345325
 40
0.4926520428
 40
0.635604084
 40
0.7609716088
 40
0.865291827
 40
0.9457030958
 40
0.9762220445
 40
1.0
 40
1.0
 40
1.0
 40
1.0
 10
6.2699834891
 20
9.8864257402
 30
0.0
 10
6.2998053841
 20
9.8866514352
 30
0.0
 10
6.3586644032
 20
9.8870852267
 30
0.0
 10
6.4449303696
 20
9.8877392788
 30
0.0
 10
6.5264057973
 20
9.8883962229
 30
0.0
 10
6.6007962937
 20
9.8890476737
 30
0.0
 10
6.6660461917
 20
9.8896946015
 30
0.0
 10
6.7203439218
 20
9.890336608
 30
0.0
 10
6.7580325495
 20
9.8908958322
 30
0.0
 10
6.7816165809
 20
9.8913710781
 30
0.0
 10
6.7911215784
 20
9.8916124872
 30
0.0
 10
6.7952833517
 20
9.8917412507
 30
0.0
  0
SPLINE
  5
25D
100
AcDbEntity
  8
0
100
AcDbSpline
 62
7
  6
CONTINUOUS
 70
0
 71
3
 72
18
 73
14
 74
0
 42
0.0000001
 43
0.0000001
 44
0.0000000001
 40
0.0
 40
0.0
 40
0.0
 40
0.0
 40
0.2264297495
 40
0.4240182399
 40
0.5926732456
 40
0.7323064579
 40
0.8428376444
 40
0.8871706284
 40
0.9242090914
 40
0.9539560686
 40
0.9764296085
 40
0.9916914052
 40
1.0
 40
1.0
 40
1.0
 40
1.0
 10
6.7952833517
 20
9.8917412507
 30
0.0
 10
6.7964543694
 20
9.8917774815
 30
0.0
 10
6.7986471384
 20
9.8918490409
 30
0.0
 10
6.8017115845
 20
9.8919633708
 30
0.0
 10
6.8043266268
 20
9.892077161
 30
0.0
 10
6.8064906773
 20
9.8921904048
 30
0.0
 10
6.8080114176
 20
9.8922893615
 30
0.0
 10
6.8090008232
 20
9.892371586
 30
0.0
 10
6.809573318
 20
9.8924281584
 30
0.0
 10
6.8100309122
 20
9.8924847064
 30
0.0
 10
6.8103779655
 20
9.8925389527
 30
0.0
 10
6.810605977
 20
9.8925939737
 30
0.0
 10
6.8107270695
 20
9.8926352516
 30
0.0
 10
6.8107575303
 20
9.8926655874
 30
0.0
  0
SPLINE
  5
25E
100
AcDbEntity
  8
0
100
AcDbSpline
 62
7
  6
CONTINUOUS
 70
0
 71
3
 72
14
 73
10
 74
0
 42
0.0000001
 43
0.0000001
 44
0.0000000001
 40
0.0
 40
0.0
 40
0.0
 40
0.0
 40
0.0713023916
 40
0.1628187721
 40
0.2724971665
 40
0.3979908863
 40
0.5365780795
 40
0.6852414026
 40
1.0
 40
1.0
 40
1.0
 40
1.0
 10
5.7812674073
 20
9.8817618036
 30
0.0
 10
5.7928812513
 20
9.8819912451
 30
0.0
 10
5.8194033386
 20
9.8824160588
 30
0.0
 10
5.8637931458
 20
9.8829834065
 30
0.0
 10
5.917012032
 20
9.8835541541
 30
0.0
 10
5.9778997134
 20
9.8841275804
 30
0.0
 10
6.0451388119
 20
9.8847012159
 30
0.0
 10
6.1432109865
 20
9.8854860302
 30
0.0
 10
6.2187065855
 20
9.8860376716
 30
0.0
 10
6.2699834891
 20
9.8864257402
 30
0.0
  0
SPLINE
  5
25F
100
AcDbEntity
  8
0
100
AcDbSpline
 62
7
  6
CONTINUOUS
 70
0
 71
3
 72
22
 73
18
 74
0
 42
0.0000001
 43
0.0000001
 44
0.0000000001
 40
0.0
 40
0.0
 40
0.0
 40
0.0
 40
0.1838267113
 40
0.3614626212
 40
0.5268772469
 40
0.6032525236
 40
0.6745377339
 40
0.7400939765
 40
0.7993893506
 40
0.8519517679
 40
0.8973100493
 40
0.9350479578
 40
0.9648993328
 40
0.9767927947
 40
0.9866252827
 40
0.9943679196
 40
1.0
 40
1.0
 40
1.0
 40
1.0
 10
6.2699834857
 20
9.9062504187
 30
0.0
 10
6.2368994792
 20
9.9058682951
 30
0.0
 10
6.1718456481
 20
9.9051169026
 30
0.0
 10
6.0770219355
 20
9.9039848015
 30
0.0
 10
6.001537356
 20
9.9030198743
 30
0.0
 10
5.9451937157
 20
9.9022349209
 30
0.0
 10
5.9068219724
 20
9.901662691
 30
0.0
 10
5.8715247312
 20
9.9010909108
 30
0.0
 10
5.8395977894
 20
9.9005201134
 30
0.0
 10
5.8113068152
 20
9.8999510101
 30
0.0
 10
5.7868966678
 20
9.8993849547
 30
0.0
 10
5.7665754789
 20
9.8988211317
 30
0.0
 10
5.7522778951
 20
9.8983287315
 30
0.0
 10
5.7430037291
 20
9.897918523
 30
0.0
 10
5.7377070931
 20
9.8976370213
 30
0.0
 10
5.7335394611
 20
9.8973580811
 30
0.0
 10
5.7311409543
 20
9.8971452331
 30
0.0
 10
5.730134175
 20
9.8970270254
 30
0.0
  0
SPLINE
  5
260
100
AcDbEntity
  8
0
100
AcDbSpline
 62
7
  6
CONTINUOUS
 70
0
 71
3
 72
12
 73
8
 74
0
 42
0.0000001
 43
0.0000001
 44
0.0000000001
 40
0.0
 40
0.0
 40
0.0
 40
0.0
 40
0.4229338283
 40
0.7274137091
 40
0.9153807162
 40
0.9682234671
 40
1.0
 40
1.0
 40
1.0
 40
1.0
 10
5.730134175
 20
9.8970270254
 30
0.0
 10
5.729748955
 20
9.8969817961
 30
0.0
 10
5.7290864228
 20
9.8968961112
 30
0.0
 10
5.7282615596
 20
9.8967513727
 30
0.0
 10
5.7277732943
 20
9.8966202831
 30
0.0
 10
5.7275513238
 20
9.8965080768
 30
0.0
 10
5.7275002621
 20
9.8964370334
 30
0.0
 10
5.7275004623
 20
9.8964078923
 30
0.0
  0
SPLINE
  5
261
100
AcDbEntity
  8
0
100
AcDbSpline
 62
7
  6
CONTINUOUS
 70
0
 71
3
 72
18
 73
14
 74
0
 42
0.0000001
 43
0.0000001
 44
0.0000000001
 40
0.0
 40
0.0
 40
0.0
 40
0.0
 40
0.0204254384
 40
0.0481182151
 40
0.0829079203
 40
0.1244927937
 40
0.1725508648
 40
0.2267588426
 40
0.3519867009
 40
0.4963829951
 40
0.6557359193
 40
0.825270023
 40
1.0
 40
1.0
 40
1.0
 40
1.0
 10
6.802530189
 20
9.9148918065
 30
0.0
 10
6.7989104287
 20
9.9146723244
 30
0.0
 10
6.7903760051
 20
9.9142747546
 30
0.0
 10
6.7756655242
 20
9.9137515325
 30
0.0
 10
6.7571963751
 20
9.91322461
 30
0.0
 10
6.7351105137
 20
9.9126929617
 30
0.0
 10
6.7095762255
 20
9.9121591848
 30
0.0
 10
6.6691930482
 20
9.9114094062
 30
0.0
 10
6.6117058482
 20
9.9104965767
 30
0.0
 10
6.5355509927
 20
9.9094385824
 30
0.0
 10
6.4515291896
 20
9.9083779707
 30
0.0
 10
6.3621214767
 20
9.9073144743
 30
0.0
 10
6.3010036264
 20
9.9066087045
 30
0.0
 10
6.2699834857
 20
9.9062504187
 30
0.0
  0
SPLINE
  5
262
100
AcDbEntity
  8
0
100
AcDbSpline
 62
7
  6
CONTINUOUS
 70
0
 71
3
 72
14
 73
10
 74
0
 42
0.0000001
 43
0.0000001
 44
0.0000000001
 40
0.0
 40
0.0
 40
0.0
 40
0.0
 40
0.0410126629
 40
0.105598679
 40
0.1942517818
 40
0.3070931566
 40
0.4441328921
 40
0.6053367524
 40
1.0
 40
1.0
 40
1.0
 40
1.0
 10
6.7997424823
 20
9.9086727097
 30
0.0
 10
6.7996459955
 20
9.9086169918
 30
0.0
 10
6.7993700296
 20
9.90852685
 30
0.0
 10
6.7988565209
 20
9.9084106752
 30
0.0
 10
6.7981422142
 20
9.9082936588
 30
0.0
 10
6.797230478
 20
9.9081744201
 30
0.0
 10
6.7961199508
 20
9.9080546539
 30
0.0
 10
6.7942454345
 20
9.9078823324
 30
0.0
 10
6.7927392207
 20
9.9077716899
 30
0.0
 10
6.7916694809
 20
9.9076993812
 30
0.0
  0
SPLINE
  5
263
100
AcDbEntity
  8
0
100
AcDbSpline
 62
7
  6
CONTINUOUS
 70
0
 71
3
 72
28
 73
24
 74
0
 42
0.0000001
 43
0.0000001
 44
0.0000000001
 40
0.0
 40
0.0
 40
0.0
 40
0.0
 40
0.0095348881
 40
0.0227117048
 40
0.0394562387
 40
0.0596259635
 40
0.0830601275
 40
0.1095977583
 40
0.1712018364
 40
0.2425687954
 40
0.3216234976
 40
0.4059952999
 40
0.4932073253
 40
0.5806621555
 40
0.6657791493
 40
0.7460319322
 40
0.8190483999
 40
0.8826614182
 40
0.9349957693
 40
0.9564377203
 40
0.9744910273
 40
0.989045001
 40
1.0
 40
1.0
 40
1.0
 40
1.0
 10
6.7916694809
 20
9.9076993812
 30
0.0
 10
6.7883708879
 20
9.9074764139
 30
0.0
 10
6.7805051353
 20
9.9070785662
 30
0.0
 10
6.7668341093
 20
9.9065566024
 30
0.0
 10
6.749473317
 20
9.906031009
 30
0.0
 10
6.7285548667
 20
9.9055000943
 30
0.0
 10
6.7042398457
 20
9.904966923
 30
0.0
 10
6.6655593668
 20
9.9042163357
 30
0.0
 10
6.6102588809
 20
9.9033037211
 30
0.0
 10
6.5367488127
 20
9.9022465374
 30
0.0
 10
6.4553435794
 20
9.9011867165
 30
0.0
 10
6.3684438569
 20
9.9001237915
 30
0.0
 10
6.2786312781
 20
9.8990603033
 30
0.0
 10
6.1885603001
 20
9.8979964252
 30
0.0
 10
6.1009025196
 20
9.8969336207
 30
0.0
 10
6.0182514512
 20
9.8958725614
 30
0.0
 10
5.9430572362
 20
9.8948157713
 30
0.0
 10
5.8775444659
 20
9.8937641657
 30
0.0
 10
5.8299147661
 20
9.8928493099
 30
0.0
 10
5.7980828648
 20
9.8920892183
 30
0.0
 10
5.7793491982
 20
9.8915605904
 30
0.0
 10
5.7642535241
 20
9.8910362645
 30
0.0
 10
5.7554169572
 20
9.8906402047
 30
0.0
 10
5.7516245803
 20
9.890424114
 30
0.0
  0
SPLINE
  5
264
100
AcDbEntity
  8
0
100
AcDbSpline
 62
7
  6
CONTINUOUS
 70
0
 71
3
 72
16
 73
12
 74
0
 42
0.0000001
 43
0.0000001
 44
0.0000000001
 40
0.0
 40
0.0
 40
0.0
 40
0.0
 40
0.2311368242
 40
0.4319069699
 40
0.6020990281
 40
0.7416678664
 40
0.8506972916
 40
0.9293559832
 40
0.9781026881
 40
0.9918533164
 40
1.0
 40
1.0
 40
1.0
 40
1.0
 10
5.7516245803
 20
9.890424114
 30
0.0
 10
5.7507293925
 20
9.8903731059
 30
0.0
 10
5.7490569041
 20
9.8902724297
 30
0.0
 10
5.7467267934
 20
9.8901113319
 30
0.0
 10
5.7447525723
 20
9.8899508307
 30
0.0
 10
5.743136209
 20
9.8897915559
 30
0.0
 10
5.7418749466
 20
9.8896339767
 30
0.0
 10
5.7409731764
 20
9.8894814316
 30
0.0
 10
5.7404364318
 20
9.889343353
 30
0.0
 10
5.7401918094
 20
9.889225598
 30
0.0
 10
5.740131611
 20
9.8891514788
 30
0.0
 10
5.7401301466
 20
9.8891199097
 30
0.0
  0
SPLINE
  5
265
100
AcDbEntity
  8
0
100
AcDbSpline
 62
7
  6
CONTINUOUS
 70
0
 71
3
 72
22
 73
18
 74
0
 42
0.0000001
 43
0.0000001
 44
0.0000000001
 40
0.0
 40
0.0
 40
0.0
 40
0.0
 40
0.0033665754
 40
0.0085000623
 40
0.0154480386
 40
0.024229438
 40
0.0473270167
 40
0.0778378063
 40
0.1157748262
 40
0.1610798261
 40
0.2136666991
 40
0.2734477932
 40
0.3403346296
 40
0.4142382346
 40
0.5827382621
 40
0.7782315979
 40
1.0
 40
1.0
 40
1.0
 40
1.0
 10
5.7276291888
 20
9.9114817666
 30
0.0
 10
5.7277109811
 20
9.9115290059
 30
0.0
 10
5.7279383966
 20
9.9116085387
 30
0.0
 10
5.7283589497
 20
9.9117104939
 30
0.0
 10
5.7289358147
 20
9.9118135189
 30
0.0
 10
5.730014161
 20
9.9119672069
 30
0.0
 10
5.7317557176
 20
9.9121492152
 30
0.0
 10
5.7343157007
 20
9.9123570362
 30
0.0
 10
5.7375004943
 20
9.91256591
 30
0.0
 10
5.7413055746
 20
9.9127762157
 30
0.0
 10
5.7457243097
 20
9.9129871767
 30
0.0
 10
5.7507491164
 20
9.913198657
 30
0.0
 10
5.7563724508
 20
9.9134104864
 30
0.0
 10
5.7650449844
 20
9.9137063495
 30
0.0
 10
5.7773254404
 20
9.9140704335
 30
0.0
 10
5.7937543975
 20
9.914492158
 30
0.0
 10
5.8054582521
 20
9.9147575285
 30
0.0
 10
5.8116788173
 20
9.914891804
 30
0.0
  0
ENDSEC
  0
SECTION
  2
OBJECTS
  0
DICTIONARY
  5
C
100
AcDbDictionary
280
0
281
1
  3
ACAD_GROUP
350
D
  3
ACAD_MLINESTYLE
350
17
  3
ACAD_LAYOUT
350
1A
  3
ACAD_PLOTSETTINGS
350
19
  3
ACAD_PLOTSTYLENAME
350
E
  0
DICTIONARY
  5
D
102
{ACAD_REACTORS
330
C
102
}
100
AcDbDictionary
280
0
281
1
  0
ACDBDICTIONARYWDFLT
  5
E
102
{ACAD_REACTORS
330
C
102
}
100
AcDbDictionary
281
1
  3
Normal
350
F
100
AcDbDictionaryWithDefault
340
F
  0
DICTIONARY
  5
17
102
{ACAD_REACTORS
330
C
102
}
100
AcDbDictionary
280
0
281
1
  3
Standard
350
18
  0
DICTIONARY
  5
19
102
{ACAD_REACTORS
330
C
102
}
100
AcDbDictionary
281
1
  0
DICTIONARY
  5
1A
102
{ACAD_REACTORS
330
C
102
}
100
AcDbDictionary
281
1
  3
Model
350
266
  3
Layout1
350
267
  0
ACDBPLACEHOLDER
  5
F
102
{ACAD_REACTORS
330
E
102
}
  0
MLINESTYLE
  5
18
102
{ACAD_REACTORS
330
17
102
}
100
AcDbMlineStyle
  2
STANDARD
 70
0
  3

 62
256
 51
90.0
 52
90.0
 71
2
 49
0.5
 62
256
  6
BYLAYER
 49
-0.5
 62
256
  6
BYLAYER
  0
LAYOUT
  5
266
102
{ACAD_REACTORS
330
1A
102
}
100
AcDbPlotSettings
  1

  2
none_device
  4
ANSI_C_(22.00_x_17.00_Inches)
  6

 40
0.0
 41
0.0
 42
0.0
 43
0.0
 44
558.8
 45
431.8
 46
0.0
 47
0.0
 48
0.0
 49
0.0
140
0.0
141
0.0
142
1.0
143
1.0
 70
1024
 72
0
 73
0
 74
0
  7

 75
0
147
1.0
148
0.0
149
0.0
100
AcDbLayout
  1
Model
 70
0
 71
0
 10
0.0
 20
0.0
 11
22.0
 21
17.0
 12
0.0
 22
0.0
 32
0.0
 14
0.0
 24
0.0
 34
0.0
 15
0.0
 25
0.0
 35
0.0
146
0.0
 13
0.0
 23
0.0
 33
0.0
 16
1.0
 26
0.0
 36
0.0
 17
0.0
 27
1.0
 37
0.0
 76
0
330
202
345
0
346
0
  0
LAYOUT
  5
267
102
{ACAD_REACTORS
330
1A
102
}
100
AcDbPlotSettings
  1

  2
none_device
  4
ANSI_C_(22.00_x_17.00_Inches)
  6

 40
0.0
 41
0.0
 42
0.0
 43
0.0
 44
558.8
 45
431.8
 46
0.0
 47
0.0
 48
0.0
 49
0.0
140
0.0
141
0.0
142
1.0
143
1.0
 70
0
 72
0
 73
0
 74
0
  7

 75
0
147
1.0
148
0.0
149
0.0
100
AcDbLayout
  1
Layout1
 70
0
 71
1
 10
0.0
 20
0.0
 11
22.0
 21
17.0
 12
0.0
 22
0.0
 32
0.0
 14
0.0
 24
0.0
 34
0.0
 15
0.0
 25
0.0
 35
0.0
146
0.0
 13
0.0
 23
0.0
 33
0.0
 16
1.0
 26
0.0
 36
0.0
 17
0.0
 27
1.0
 37
0.0
 76
0
330
203
345
0
346
0
  0
ENDSEC
  0
EOF
