999
DXF file: E:\BT Custom\CADOUTPUT\_RIGHT.dxf
999
Pro/ENGINEER 2018400 by Parametric Technology Corporation
  0
SECTION
  2
HEADER
  9
$ACADVER
  1
AC1018
  9
$DWGCODEPAGE
  3
ANSI_1252
  9
$EXTMAX
 10
22.0
 20
17.0
 30
0.0
  9
$EXTMIN
 10
0.0
 20
0.0
 30
0.0
  9
$LIMMIN
 10
0.0
 20
0.0
  9
$LIMMAX
 10
22.0
 20
17.0
  9
$VIEWCTR
 10
11.0
 20
8.5
  9
$VIEWSIZE
 40
17.0
  9
$CLAYER
  8
0
  9
$LTSCALE
 40
1.21
  9
$CELTYPE
  6
BYLAYER
  9
$DIMSCALE
 40
1.0
  9
$DIMASZ
 40
0.1
  9
$DIMEXO
 40
0.0625
  9
$DIMDLI
 40
0.836
  9
$DIMEXE
 40
0.125
  9
$DIMCEN
 40
0.198
  9
$DIMLFAC
 40
1.0
  9
$DIMBLK
  1
_FILLED
  9
$DIMALT
 70
1
  9
$DIMALTD
 70
2
  9
$DIMALTTD
 70
2
  9
$DIMALTF
 40
25.4
  9
$DIMTXT
 40
0.08
  9
$DIMTOL
 70
1
  9
$DIMLIM
 70
0
  9
$DIMTFAC
 40
1.0
  9
$DIMTP
 40
0.001
  9
$DIMTM
 40
0.001
  9
$DIMGAP
 40
0.09
  9
$DIMDSEP
 70
46
  9
$AUNITS
 70
0
  9
$PDMODE
 70
3
  9
$PDSIZE
 40
0.06
  9
$HANDSEED
  5
599
  9
$TILEMODE
 70
1
  9
$MEASUREMENT
 70
0
  9
$INSUNITS
 70
1
  0
ENDSEC
  0
SECTION
  2
CLASSES
  0
CLASS
  1
ACDBDICTIONARYWDFLT
  2
AcDbDictionaryWithDefault
  3
AutoCAD 2000
 90
0
 91
1
280
0
281
0
  0
CLASS
  1
ACDBPLACEHOLDER
  2
AcDbPlaceHolder
  3
AutoCAD 2000
 90
0
 91
1
280
0
281
0
  0
CLASS
  1
LAYOUT
  2
AcDbLayout
  3
AutoCAD 2000
 90
0
 91
0
280
0
281
0
  0
ENDSEC
  0
SECTION
  2
TABLES
  0
TABLE
  2
VPORT
  5
8
100
AcDbSymbolTable
 70
2
  0
VPORT
  5
1F4
100
AcDbSymbolTableRecord
100
AcDbViewportTableRecord
  2
*ACTIVE
 70
0
 10
0.0
 20
0.0
 11
1.0
 21
1.0
 12
11.0
 22
8.5
 13
0.0
 23
0.0
 14
1.0
 24
1.0
 15
0.0
 25
0.0
 16
0.0
 26
0.0
 36
1.0
 17
0.0
 27
0.0
 37
0.0
 40
17.0
 41
1.2941176471
 42
50.0
 43
0.0
 44
0.0
 50
0.0
 51
0.0
 71
0
 72
100
 73
1
 74
1
 75
0
 76
0
 77
0
 78
0
  0
ENDTAB
  0
TABLE
  2
LTYPE
  5
5
100
AcDbSymbolTable
 70
6
  0
LTYPE
  5
14
100
AcDbSymbolTableRecord
100
AcDbLinetypeTableRecord
  2
BYBLOCK
 70
0
  3

 72
65
 73
0
 40
0.0
  0
LTYPE
  5
15
100
AcDbSymbolTableRecord
100
AcDbLinetypeTableRecord
  2
BYLAYER
 70
0
  3

 72
65
 73
0
 40
0.0
  0
LTYPE
  5
16
100
AcDbSymbolTableRecord
100
AcDbLinetypeTableRecord
  2
CONTINUOUS
 70
64
  3
Solid line
 72
65
 73
0
 40
0.0
  0
LTYPE
  5
1F5
100
AcDbSymbolTableRecord
100
AcDbLinetypeTableRecord
  2
CENTER
 70
64
  3
____ _ ____ _ ____ _ ____ _ ____ _ ____ _ ____
 72
65
 73
4
 40
0.6
 49
0.375
 74
0
 49
-0.075
 74
0
 49
0.075
 74
0
 49
-0.075
 74
0
  0
LTYPE
  5
1F6
100
AcDbSymbolTableRecord
100
AcDbLinetypeTableRecord
  2
HIDDEN
 70
64
  3
- - - - - - - - - - - - - - - - - - - -
 72
65
 73
2
 40
0.2
 49
0.1
 74
0
 49
-0.1
 74
0
  0
LTYPE
  5
1F7
100
AcDbSymbolTableRecord
100
AcDbLinetypeTableRecord
  2
PHANTOM
 70
64
  3
_____ _ _ _____ _ _ _____ _ _ _____
 72
65
 73
6
 40
0.8
 49
0.45
 74
0
 49
-0.05
 74
0
 49
0.1
 74
0
 49
-0.05
 74
0
 49
0.1
 74
0
 49
-0.05
 74
0
  0
LTYPE
  5
1F8
100
AcDbSymbolTableRecord
100
AcDbLinetypeTableRecord
  2
DOT
 70
64
  3
. . . . . . . . . . . . . . . . . . . .
 72
65
 73
2
 40
0.2
 49
0.1
 74
0
 49
-0.1
 74
0
  0
LTYPE
  5
1F9
100
AcDbSymbolTableRecord
100
AcDbLinetypeTableRecord
  2
DASHED
 70
64
  3
- - - - - - - - - - - - - - - - - - - -
 72
65
 73
2
 40
0.2
 49
0.1
 74
0
 49
-0.1
 74
0
  0
ENDTAB
  0
TABLE
  2
LAYER
  5
2
100
AcDbSymbolTable
 70
36
  0
LAYER
  5
10
100
AcDbSymbolTableRecord
100
AcDbLayerTableRecord
  2
0
 70
0
 62
7
  6
CONTINUOUS
370
-3
390
F
  0
LAYER
  5
1FA
100
AcDbSymbolTableRecord
100
AcDbLayerTableRecord
  2
DEFAULT_1
 70
0
 62
7
  6
CENTER
370
-3
390
F
  0
LAYER
  5
1FB
100
AcDbSymbolTableRecord
100
AcDbLayerTableRecord
  2
DEFAULT_2
 70
0
 62
8
  6
HIDDEN
370
-3
390
F
  0
LAYER
  5
1FC
100
AcDbSymbolTableRecord
100
AcDbLayerTableRecord
  2
DEFAULT_3
 70
0
 62
7
  6
PHANTOM
370
-3
390
F
  0
LAYER
  5
1FD
100
AcDbSymbolTableRecord
100
AcDbLayerTableRecord
  2
ALL_FEATURES
 70
0
 62
7
  6
CONTINUOUS
370
-3
390
F
  0
LAYER
  5
1FE
100
AcDbSymbolTableRecord
100
AcDbLayerTableRecord
  2
AXES_FEATURES
 70
0
 62
7
  6
CONTINUOUS
370
-3
390
F
  0
LAYER
  5
1FF
100
AcDbSymbolTableRecord
100
AcDbLayerTableRecord
  2
DEFAULT_COORDINATE_SYSTEM
 70
0
 62
7
  6
CONTINUOUS
370
-3
390
F
  0
LAYER
  5
200
100
AcDbSymbolTableRecord
100
AcDbLayerTableRecord
  2
DEFAULT_DATUM_AXES
 70
0
 62
7
  6
CONTINUOUS
370
-3
390
F
  0
LAYER
  5
201
100
AcDbSymbolTableRecord
100
AcDbLayerTableRecord
  2
DEFAULT_DATUM_PLANES
 70
0
 62
7
  6
CONTINUOUS
370
-3
390
F
  0
LAYER
  5
202
100
AcDbSymbolTableRecord
100
AcDbLayerTableRecord
  2
DIMENSIONS
 70
0
 62
7
  6
CONTINUOUS
370
-3
390
F
  0
ENDTAB
  0
TABLE
  2
STYLE
  5
3
100
AcDbSymbolTable
 70
1
  0
STYLE
  5
11
100
AcDbSymbolTableRecord
100
AcDbTextStyleTableRecord
  2
STANDARD
 70
0
 40
0.0
 41
0.8
 50
0.0
 71
0
 42
0.2
  3
txt
  4

  0
STYLE
  5
203
100
AcDbSymbolTableRecord
100
AcDbTextStyleTableRecord
  2
TEXTSTYLE_1
 70
0
 40
0.0
 41
0.8
 50
0.0
 71
0
 42
0.2
  3
gdt
  4

  0
ENDTAB
  0
TABLE
  2
VIEW
  5
6
100
AcDbSymbolTable
 70
0
  0
ENDTAB
  0
TABLE
  2
UCS
  5
7
100
AcDbSymbolTable
 70
0
  0
ENDTAB
  0
TABLE
  2
APPID
  5
9
100
AcDbSymbolTable
 70
1
  0
APPID
  5
204
100
AcDbSymbolTableRecord
100
AcDbRegAppTableRecord
  2
ACAD
 70
0
  0
ENDTAB
  0
TABLE
  2
BLOCK_RECORD
  5
1
100
AcDbSymbolTable
 70
0
  0
BLOCK_RECORD
  5
205
100
AcDbSymbolTableRecord
100
AcDbBlockTableRecord
  2
*Model_Space
  0
BLOCK_RECORD
  5
206
100
AcDbSymbolTableRecord
100
AcDbBlockTableRecord
  2
*Paper_Space
  0
BLOCK_RECORD
  5
207
100
AcDbSymbolTableRecord
100
AcDbBlockTableRecord
  2
_FILLED
  0
ENDTAB
  0
TABLE
  2
DIMSTYLE
  5
A
100
AcDbSymbolTable
 70
1
100
AcDbDimStyleTable
 71
0
  0
DIMSTYLE
105
208
100
AcDbSymbolTableRecord
100
AcDbDimStyleTableRecord
  2
STANDARD
 70
0
  3

  4

 40
1.0
 41
0.1
 42
0.0625
 43
0.38
 44
0.125
 45
0.0
 46
0.0
 47
0.001
 48
0.001
140
0.08
141
0.09
142
0.0
143
25.4
144
1.0
145
0.0
146
1.0
147
0.09
 71
1.0
 72
0.0
 73
1
 74
1
 75
0
 76
0
 77
0
 78
4
 79
1
170
1
171
2
172
0
173
0
174
0
175
0
176
0
177
0
178
0
270
2
179
3
271
3
272
3
273
2
274
2
275
0
280
0
281
0
282
0
283
1
284
4
285
0
286
0
287
3
288
0
340
11
278
46
341
207
342
207
343
207
344
207
  0
ENDTAB
  0
ENDSEC
  0
SECTION
  2
BLOCKS
  0
BLOCK
  5
20
100
AcDbEntity
  8
0
100
AcDbBlockBegin
  2
*Model_Space
 70
0
 10
0.0
 20
0.0
 30
0.0
  3
*Model_Space
  1

  0
ENDBLK
  5
21
100
AcDbEntity
  8
0
100
AcDbBlockEnd
  0
BLOCK
  5
1C
100
AcDbEntity
  8
0
100
AcDbBlockBegin
  2
*Paper_Space
 70
0
 10
0.0
 20
0.0
 30
0.0
  3
*Paper_Space
  1

  0
ENDBLK
  5
1D
100
AcDbEntity
  8
0
100
AcDbBlockEnd
  0
BLOCK
  5
209
100
AcDbEntity
  8
0
100
AcDbBlockBegin
  2
_FILLED
 70
64
 10
0.0
 20
0.0
  3
_FILLED
  1

  0
SOLID
  5
20A
100
AcDbEntity
  8
0
  6
BYBLOCK
 62
0
100
AcDbTrace
 10
0.0
 20
0.0
 11
-1.0
 21
0.2
 12
-1.0
 22
-0.2
 13
-1.0
 23
-0.2
  0
ENDBLK
  5
20B
100
AcDbEntity
  8
0
  6
BYBLOCK
 62
0
100
AcDbBlockEnd
  0
ENDSEC
  0
SECTION
  2
ENTITIES
  0
LINE
  5
20C
100
AcDbEntity
  8
0
100
AcDbLine
 62
7
  6
CONTINUOUS
 10
9.6447351723
 20
-2.830108196
 11
8.8876835162
 21
-2.830108196
  0
LINE
  5
20D
100
AcDbEntity
  8
0
100
AcDbLine
 62
7
  6
CONTINUOUS
 10
15.5177997941
 20
-1.360108196
 11
15.8277997941
 21
-1.360108196
  0
LINE
  5
20E
100
AcDbEntity
  8
0
100
AcDbLine
 62
9
  6
CONTINUOUS
 10
15.4777997941
 20
-1.320108196
 11
15.8277997941
 21
-1.320108196
  0
LINE
  5
20F
100
AcDbEntity
  8
0
100
AcDbLine
 62
7
  6
CONTINUOUS
 10
5.6009539808
 20
18.3125809735
 11
6.222274208
 21
18.9339012007
  0
LINE
  5
210
100
AcDbEntity
  8
0
100
AcDbLine
 62
7
  6
CONTINUOUS
 10
6.0518022322
 20
17.5559599714
 11
6.0349055623
 21
17.5414209764
  0
LINE
  5
211
100
AcDbEntity
  8
0
100
AcDbLine
 62
7
  6
CONTINUOUS
 10
14.3577997941
 20
-0.985108196
 11
15.4777997941
 21
-0.985108196
  0
LINE
  5
212
100
AcDbEntity
  8
0
100
AcDbLine
 62
9
  6
CONTINUOUS
 10
14.2977997941
 20
-0.925108196
 11
15.4777997941
 21
-0.925108196
  0
LINE
  5
213
100
AcDbEntity
  8
0
100
AcDbLine
 62
7
  6
CONTINUOUS
 10
14.2977997941
 20
-0.750108196
 11
12.077774424
 21
-0.750108196
  0
LINE
  5
214
100
AcDbEntity
  8
0
100
AcDbLine
 62
7
  6
CONTINUOUS
 10
6.0546579954
 20
17.552038808
 11
6.0546700997
 21
17.5520569696
  0
LINE
  5
215
100
AcDbEntity
  8
0
100
AcDbLine
 62
7
  6
CONTINUOUS
 10
5.9072564866
 20
17.7152805567
 11
5.8858841282
 21
17.6904424104
  0
LINE
  5
216
100
AcDbEntity
  8
0
100
AcDbLine
 62
7
  6
CONTINUOUS
 10
5.9771596706
 20
17.6456703371
 11
5.9556518162
 21
17.6206747225
  0
LINE
  5
217
100
AcDbEntity
  8
0
100
AcDbLine
 62
7
  6
CONTINUOUS
 10
6.1135719378
 20
17.5090982301
 11
6.0921380093
 21
17.4841885294
  0
LINE
  5
218
100
AcDbEntity
  8
0
100
AcDbLine
 62
7
  6
CONTINUOUS
 10
6.1762123004
 20
17.3934580107
 11
6.1563982236
 21
17.3704308404
  0
LINE
  5
219
100
AcDbEntity
  8
0
100
AcDbLine
 62
7
  6
CONTINUOUS
 10
6.2207201126
 20
17.3493279419
 11
6.2007313295
 21
17.3260977345
  0
LINE
  5
21A
100
AcDbEntity
  8
0
100
AcDbLine
 62
7
  6
CONTINUOUS
 10
6.3104958398
 20
17.3114917448
 11
6.2893776061
 21
17.2869489326
  0
LINE
  5
21B
100
AcDbEntity
  8
0
100
AcDbLine
 62
7
  6
CONTINUOUS
 10
6.3445246669
 20
17.2121752027
 11
6.3307094193
 21
17.1961196447
  0
LINE
  5
21C
100
AcDbEntity
  8
0
100
AcDbLine
 62
7
  6
CONTINUOUS
 10
7.3218252527
 20
17.9192029697
 11
7.4851669192
 21
18.0825446362
  0
LINE
  5
21D
100
AcDbEntity
  8
0
100
AcDbLine
 62
7
  6
CONTINUOUS
 10
6.1892156265
 20
17.4202716026
 11
6.1713917554
 21
17.4049347833
  0
LINE
  5
21E
100
AcDbEntity
  8
0
100
AcDbLine
 62
7
  6
CONTINUOUS
 10
6.2960406337
 20
17.260659236
 11
6.2799850756
 21
17.2468439884
  0
LINE
  5
21F
100
AcDbEntity
  8
0
100
AcDbLine
 62
7
  6
CONTINUOUS
 10
6.3872300639
 20
17.2236987292
 11
6.3686313522
 21
17.2076951865
  0
LINE
  5
220
100
AcDbEntity
  8
0
100
AcDbLine
 62
7
  6
CONTINUOUS
 10
6.427286929
 20
17.1317723928
 11
6.4099631654
 21
17.1168658986
  0
LINE
  5
221
100
AcDbEntity
  8
0
100
AcDbLine
 62
7
  6
CONTINUOUS
 10
6.5458965239
 20
16.9613058711
 11
6.5336416648
 21
16.9507609923
  0
LINE
  5
222
100
AcDbEntity
  8
0
100
AcDbLine
 62
7
  6
CONTINUOUS
 10
6.6374524206
 20
16.9750571597
 11
6.6180040357
 21
16.958322503
  0
LINE
  5
223
100
AcDbEntity
  8
0
100
AcDbLine
 62
7
  6
CONTINUOUS
 10
6.6348457463
 20
16.9256899208
 11
6.6167284471
 21
16.9101006169
  0
LINE
  5
224
100
AcDbEntity
  8
0
100
AcDbLine
 62
7
  6
CONTINUOUS
 10
6.6708814409
 20
16.8485190424
 11
6.6520701093
 21
16.8323325478
  0
LINE
  5
225
100
AcDbEntity
  8
0
100
AcDbLine
 62
7
  6
CONTINUOUS
 10
14.2977997941
 20
-0.000108196
 11
12.077774424
 21
-0.000108196
  0
LINE
  5
226
100
AcDbEntity
  8
0
100
AcDbLine
 62
9
  6
CONTINUOUS
 10
14.2977997941
 20
0.174891804
 11
15.4777997941
 21
0.174891804
  0
LINE
  5
227
100
AcDbEntity
  8
0
100
AcDbLine
 62
7
  6
CONTINUOUS
 10
14.3577997941
 20
0.234891804
 11
15.4777997941
 21
0.234891804
  0
LINE
  5
228
100
AcDbEntity
  8
0
100
AcDbLine
 62
7
  6
CONTINUOUS
 10
6.4714149421
 20
17.0561758088
 11
6.4714162683
 21
17.0561776895
  0
LINE
  5
229
100
AcDbEntity
  8
0
100
AcDbLine
 62
7
  6
CONTINUOUS
 10
6.4741038145
 20
17.0529278066
 11
6.4543879187
 21
17.0300147384
  0
LINE
  5
22A
100
AcDbEntity
  8
0
100
AcDbLine
 62
7
  6
CONTINUOUS
 10
6.5596715629
 20
17.0618901614
 11
6.5387502896
 21
17.0375762491
  0
LINE
  5
22B
100
AcDbEntity
  8
0
100
AcDbLine
 62
7
  6
CONTINUOUS
 10
6.5512899486
 20
17.005409921
 11
6.537474701
 21
16.989354363
  0
LINE
  5
22C
100
AcDbEntity
  8
0
100
AcDbLine
 62
7
  6
CONTINUOUS
 10
6.583361242
 20
16.923841153
 11
6.5728163632
 21
16.9115862939
  0
LINE
  5
22D
100
AcDbEntity
  8
0
100
AcDbLine
 62
7
  6
CONTINUOUS
 10
6.7473633327
 20
16.7486983642
 11
6.7256191825
 21
16.7234281356
  0
LINE
  5
22E
100
AcDbEntity
  8
0
100
AcDbLine
 62
7
  6
CONTINUOUS
 10
6.8497206801
 20
16.7706348383
 11
6.829357277
 21
16.7469692617
  0
LINE
  5
22F
100
AcDbEntity
  8
0
100
AcDbLine
 62
7
  6
CONTINUOUS
 10
6.8262092068
 20
16.7422906561
 11
6.8069364623
 21
16.7198926017
  0
LINE
  5
230
100
AcDbEntity
  8
0
100
AcDbLine
 62
7
  6
CONTINUOUS
 10
6.8060881844
 20
16.7014477708
 11
6.795389034
 21
16.6890136231
  0
LINE
  5
231
100
AcDbEntity
  8
0
100
AcDbLine
 62
7
  6
CONTINUOUS
 10
6.8257699677
 20
16.6390851918
 11
6.818458841
 21
16.630588477
  0
LINE
  5
232
100
AcDbEntity
  8
0
100
AcDbLine
 62
7
  6
CONTINUOUS
 10
8.6045169538
 20
18.1270923634
 11
8.2233863987
 21
17.7459618083
  0
LINE
  5
233
100
AcDbEntity
  8
0
100
AcDbLine
 62
7
  6
CONTINUOUS
 10
8.0649944798
 20
17.5875698893
 11
8.1951021275
 21
17.7176775371
  0
LINE
  5
234
100
AcDbEntity
  8
0
100
AcDbLine
 62
7
  6
CONTINUOUS
 10
9.2116297005
 20
18.3841872534
 11
9.2876436795
 21
18.4602012324
  0
LINE
  5
235
100
AcDbEntity
  8
0
100
AcDbLine
 62
7
  6
CONTINUOUS
 10
9.2116297005
 20
18.359438516
 11
9.0162314489
 21
18.1640402644
  0
LINE
  5
236
100
AcDbEntity
  8
0
100
AcDbLine
 62
7
  6
CONTINUOUS
 10
10.0727707113
 20
19.1799208869
 11
9.4884908027
 21
18.5956409784
  0
LINE
  5
237
100
AcDbEntity
  8
0
100
AcDbLine
 62
7
  6
CONTINUOUS
 10
9.4565280622
 20
18.5636782379
 11
9.4387034997
 21
18.5458536753
  0
LINE
  5
238
100
AcDbEntity
  8
0
100
AcDbLine
 62
7
  6
CONTINUOUS
 10
9.4052980675
 20
18.5124482431
 11
9.3890445216
 21
18.4961946973
  0
LINE
  5
239
100
AcDbEntity
  8
0
100
AcDbLine
 62
7
  6
CONTINUOUS
 10
9.3539397589
 20
18.4610899345
 11
9.3392265247
 21
18.4463767003
  0
LINE
  5
23A
100
AcDbEntity
  8
0
100
AcDbLine
 62
7
  6
CONTINUOUS
 10
6.8133270887
 20
16.6514488994
 11
6.8048729286
 21
16.6441743895
  0
LINE
  5
23B
100
AcDbEntity
  8
0
100
AcDbLine
 62
7
  6
CONTINUOUS
 10
6.9289689127
 20
16.6852327694
 11
6.9086110231
 21
16.6677155156
  0
LINE
  5
23C
100
AcDbEntity
  8
0
100
AcDbLine
 62
7
  6
CONTINUOUS
 10
6.9051968841
 20
16.656993437
 11
6.8861902084
 21
16.6406388556
  0
LINE
  5
23D
100
AcDbEntity
  8
0
100
AcDbLine
 62
7
  6
CONTINUOUS
 10
6.8942875601
 20
16.6266635248
 11
6.8746427802
 21
16.609759877
  0
LINE
  5
23E
100
AcDbEntity
  8
0
100
AcDbLine
 62
7
  6
CONTINUOUS
 10
6.9198118004
 20
16.570350333
 11
6.8977125872
 21
16.5513347309
  0
LINE
  5
23F
100
AcDbEntity
  8
0
100
AcDbLine
 62
7
  6
CONTINUOUS
 10
7.1617009838
 20
16.3065942086
 11
7.1513552514
 21
16.2976920667
  0
LINE
  5
240
100
AcDbEntity
  8
0
100
AcDbLine
 62
7
  6
CONTINUOUS
 10
7.190038882
 20
16.3232470377
 11
7.1745141283
 21
16.3098885288
  0
LINE
  5
241
100
AcDbEntity
  8
0
100
AcDbLine
 62
7
  6
CONTINUOUS
 10
7.2199239595
 20
16.3440007024
 11
7.1999850756
 21
16.3268439884
  0
LINE
  5
242
100
AcDbEntity
  8
0
100
AcDbLine
 62
7
  6
CONTINUOUS
 10
7.2490017834
 20
16.3668603624
 11
7.2277513946
 21
16.3485751441
  0
LINE
  5
243
100
AcDbEntity
  8
0
100
AcDbLine
 62
7
  6
CONTINUOUS
 10
7.1741180088
 20
16.298287345
 11
7.1539616667
 21
16.2809435158
  0
LINE
  5
244
100
AcDbEntity
  8
0
100
AcDbLine
 62
9
  6
CONTINUOUS
 10
15.4777997941
 20
0.569891804
 11
15.8277997941
 21
0.569891804
  0
LINE
  5
245
100
AcDbEntity
  8
0
100
AcDbLine
 62
7
  6
CONTINUOUS
 10
15.5177997941
 20
0.609891804
 11
15.8277997941
 21
0.609891804
  0
LINE
  5
246
100
AcDbEntity
  8
0
100
AcDbLine
 62
7
  6
CONTINUOUS
 10
7.0935153987
 20
16.4018322296
 11
7.0721015052
 21
16.3769458128
  0
LINE
  5
247
100
AcDbEntity
  8
0
100
AcDbLine
 62
7
  6
CONTINUOUS
 10
7.1144530912
 20
16.4114473151
 11
7.0952603822
 21
16.3891422749
  0
LINE
  5
248
100
AcDbEntity
  8
0
100
AcDbLine
 62
7
  6
CONTINUOUS
 10
7.1393508877
 20
16.4277366804
 11
7.1207313295
 21
16.4060977345
  0
LINE
  5
249
100
AcDbEntity
  8
0
100
AcDbLine
 62
7
  6
CONTINUOUS
 10
7.1682408471
 20
16.4507736887
 11
7.1484976485
 21
16.4278288902
  0
LINE
  5
24A
100
AcDbEntity
  8
0
100
AcDbLine
 62
7
  6
CONTINUOUS
 10
7.4296503969
 20
16.0444712972
 11
7.4115127602
 21
16.0233924222
  0
LINE
  5
24B
100
AcDbEntity
  8
0
100
AcDbLine
 62
7
  6
CONTINUOUS
 10
7.4393676726
 20
16.0546176878
 11
7.418583828
 21
16.03046349
  0
LINE
  5
24C
100
AcDbEntity
  8
0
100
AcDbLine
 62
7
  6
CONTINUOUS
 10
7.4547592657
 20
16.0696385658
 11
7.4362614976
 21
16.0481411596
  0
LINE
  5
24D
100
AcDbEntity
  8
0
100
AcDbLine
 62
7
  6
CONTINUOUS
 10
7.4753892925
 20
16.0901740234
 11
7.457474701
 21
16.069354363
  0
LINE
  5
24E
100
AcDbEntity
  8
0
100
AcDbLine
 62
7
  6
CONTINUOUS
 10
7.5012681014
 20
16.1162360871
 11
7.4822234383
 21
16.0941031003
  0
LINE
  5
24F
100
AcDbEntity
  8
0
100
AcDbLine
 62
7
  6
CONTINUOUS
 10
9.4955737084
 20
18.5692369044
 11
9.4831514199
 21
18.5568146159
  0
LINE
  5
250
100
AcDbEntity
  8
0
100
AcDbLine
 62
7
  6
CONTINUOUS
 10
9.4463137637
 20
18.5174781075
 11
9.4338924258
 21
18.5050567697
  0
LINE
  5
251
100
AcDbEntity
  8
0
100
AcDbLine
 62
7
  6
CONTINUOUS
 10
9.3972756963
 20
18.4654966662
 11
9.384855595
 21
18.453076565
  0
LINE
  5
252
100
AcDbEntity
  8
0
100
AcDbLine
 62
7
  6
CONTINUOUS
 10
9.3479651178
 20
18.4137937797
 11
9.341008125
 21
18.4068367869
  0
LINE
  5
253
100
AcDbEntity
  8
0
100
AcDbLine
 62
7
  6
CONTINUOUS
 10
8.6682925965
 20
17.5683419738
 11
8.9157799699
 21
17.8158293472
  0
LINE
  5
254
100
AcDbEntity
  8
0
100
AcDbLine
 62
7
  6
CONTINUOUS
 10
9.0357160579
 20
17.2009185124
 11
9.2832034313
 21
17.4484058858
  0
LINE
  5
255
100
AcDbEntity
  8
0
100
AcDbLine
 62
7
  6
CONTINUOUS
 10
9.8944643932
 20
17.8925453787
 11
9.9068841517
 21
17.9049651373
  0
LINE
  5
256
100
AcDbEntity
  8
0
100
AcDbLine
 62
7
  6
CONTINUOUS
 10
9.9462848149
 20
17.9417453926
 11
9.9587056186
 21
17.9541661964
  0
LINE
  5
257
100
AcDbEntity
  8
0
100
AcDbLine
 62
7
  6
CONTINUOUS
 10
9.9980756516
 20
17.9909677205
 11
10.0104974123
 21
18.0033894812
  0
LINE
  5
258
100
AcDbEntity
  8
0
100
AcDbLine
 62
7
  6
CONTINUOUS
 10
10.049907937
 20
18.0401534153
 11
10.0623307124
 21
18.0525761907
  0
LINE
  5
259
100
AcDbEntity
  8
0
100
AcDbLine
 62
7
  6
CONTINUOUS
 10
10.647294971
 20
18.6053966272
 11
10.0878816431
 21
18.0459832993
  0
LINE
  5
25A
100
AcDbEntity
  8
0
100
AcDbLine
 62
7
  6
CONTINUOUS
 10
10.0566943754
 20
18.0147960315
 11
10.0381369983
 21
17.9962386544
  0
LINE
  5
25B
100
AcDbEntity
  8
0
100
AcDbLine
 62
7
  6
CONTINUOUS
 10
10.0054217314
 20
17.9635233876
 11
9.9883698567
 21
17.9464715129
  0
LINE
  5
25C
100
AcDbEntity
  8
0
100
AcDbLine
 62
7
  6
CONTINUOUS
 10
9.954171592
 20
17.9122732482
 11
9.9386176499
 21
17.8967193061
  0
LINE
  5
25D
100
AcDbEntity
  8
0
100
AcDbLine
 62
7
  6
CONTINUOUS
 10
9.9029065477
 20
17.8610082039
 11
9.8948716278
 21
17.852973284
  0
LINE
  5
25E
100
AcDbEntity
  8
0
100
AcDbLine
 62
7
  6
CONTINUOUS
 10
9.6314143485
 20
17.5488573648
 11
9.8268126001
 21
17.7442556164
  0
LINE
  5
25F
100
AcDbEntity
  8
0
100
AcDbLine
 62
7
  6
CONTINUOUS
 10
9.8515613375
 20
17.7442556164
 11
9.9275753164
 21
17.8202695954
  0
LINE
  5
260
100
AcDbEntity
  8
0
100
AcDbLine
 62
7
  6
CONTINUOUS
 10
7.5836144112
 20
16.0338976656
 11
7.5614771844
 21
16.0148493542
  0
LINE
  5
261
100
AcDbEntity
  8
0
100
AcDbLine
 62
7
  6
CONTINUOUS
 10
7.5575645066
 20
16.0080293192
 11
7.5367284471
 21
15.9901006169
  0
LINE
  5
262
100
AcDbEntity
  8
0
100
AcDbLine
 62
7
  6
CONTINUOUS
 10
7.5370284114
 20
15.9873987439
 11
7.5155152437
 21
15.9688874135
  0
LINE
  5
263
100
AcDbEntity
  8
0
100
AcDbLine
 62
7
  6
CONTINUOUS
 10
7.5219859269
 20
15.9719885591
 11
7.4978375741
 21
15.9512097439
  0
LINE
  5
264
100
AcDbEntity
  8
0
100
AcDbLine
 62
7
  6
CONTINUOUS
 10
7.5118453583
 20
15.962276293
 11
7.4907665063
 21
15.9441386761
  0
LINE
  5
265
100
AcDbEntity
  8
0
100
AcDbLine
 62
7
  6
CONTINUOUS
 10
7.9181434478
 20
15.7008630415
 11
7.8952029743
 21
15.6811235644
  0
LINE
  5
266
100
AcDbEntity
  8
0
100
AcDbLine
 62
7
  6
CONTINUOUS
 10
7.8951036026
 20
15.671970641
 11
7.8734718186
 21
15.6533572454
  0
LINE
  5
267
100
AcDbEntity
  8
0
100
AcDbLine
 62
7
  6
CONTINUOUS
 10
7.8788204365
 20
15.6470781788
 11
7.856516359
 21
15.6278862981
  0
LINE
  5
268
100
AcDbEntity
  8
0
100
AcDbLine
 62
7
  6
CONTINUOUS
 10
7.8689857957
 20
15.6259515667
 11
7.8443198969
 21
15.6047274212
  0
LINE
  5
269
100
AcDbEntity
  8
0
100
AcDbLine
 62
7
  6
CONTINUOUS
 10
7.7656614426
 20
15.7067439403
 11
7.7483175999
 21
15.6865875826
  0
LINE
  5
26A
100
AcDbEntity
  8
0
100
AcDbLine
 62
7
  6
CONTINUOUS
 10
7.8342498107
 20
15.781645555
 11
7.8159492282
 21
15.7603773105
  0
LINE
  5
26B
100
AcDbEntity
  8
0
100
AcDbLine
 62
7
  6
CONTINUOUS
 10
7.8113664305
 20
15.7525401643
 11
7.7942180725
 21
15.7326109915
  0
LINE
  5
26C
100
AcDbEntity
  8
0
100
AcDbLine
 62
7
  6
CONTINUOUS
 10
7.7906211218
 20
15.7226647979
 11
7.7772626129
 21
15.7071400442
  0
LINE
  5
26D
100
AcDbEntity
  8
0
100
AcDbLine
 62
7
  6
CONTINUOUS
 10
7.7739682926
 20
15.6943268997
 11
7.7650661508
 21
15.6839811673
  0
LINE
  5
26E
100
AcDbEntity
  8
0
100
AcDbLine
 62
7
  6
CONTINUOUS
 10
8.0377244171
 20
15.4524377163
 11
8.018708815
 21
15.4303385031
  0
LINE
  5
26F
100
AcDbEntity
  8
0
100
AcDbLine
 62
7
  6
CONTINUOUS
 10
8.0940333818
 20
15.4269085634
 11
8.0771339611
 21
15.4072686961
  0
LINE
  5
270
100
AcDbEntity
  8
0
100
AcDbLine
 62
7
  6
CONTINUOUS
 10
8.1243839112
 20
15.437841848
 11
8.1080129397
 21
15.4188161243
  0
LINE
  5
271
100
AcDbEntity
  8
0
100
AcDbLine
 62
7
  6
CONTINUOUS
 10
8.1525943573
 20
15.4615803059
 11
8.1350895997
 21
15.441236939
  0
LINE
  5
272
100
AcDbEntity
  8
0
100
AcDbLine
 62
7
  6
CONTINUOUS
 10
8.1188229835
 20
15.3459530046
 11
8.1115484736
 21
15.3374988445
  0
LINE
  5
273
100
AcDbEntity
  8
0
100
AcDbLine
 62
7
  6
CONTINUOUS
 10
9.5944664475
 20
17.1371428697
 11
9.2133358924
 21
16.7560123146
  0
LINE
  5
274
100
AcDbEntity
  8
0
100
AcDbLine
 62
7
  6
CONTINUOUS
 10
9.0549439734
 20
16.5976203957
 11
9.1850516212
 21
16.7277280434
  0
LINE
  5
275
100
AcDbEntity
  8
0
100
AcDbLine
 62
7
  6
CONTINUOUS
 10
8.1064592759
 20
15.3583958836
 11
8.0979625611
 21
15.351084757
  0
LINE
  5
276
100
AcDbEntity
  8
0
100
AcDbLine
 62
7
  6
CONTINUOUS
 10
8.1688218549
 20
15.3387141003
 11
8.1563877072
 21
15.3280149499
  0
LINE
  5
277
100
AcDbEntity
  8
0
100
AcDbLine
 62
7
  6
CONTINUOUS
 10
8.2095690112
 20
15.3587527512
 11
8.1872666858
 21
15.3395623782
  0
LINE
  5
278
100
AcDbEntity
  8
0
100
AcDbLine
 62
7
  6
CONTINUOUS
 10
8.2380100074
 20
15.3823475296
 11
8.2143433458
 21
15.3619831929
  0
LINE
  5
279
100
AcDbEntity
  8
0
100
AcDbLine
 62
7
  6
CONTINUOUS
 10
8.2160724483
 20
15.2799892486
 11
8.1908022197
 21
15.2582450984
  0
LINE
  5
27A
100
AcDbEntity
  8
0
100
AcDbLine
 62
7
  6
CONTINUOUS
 10
8.3912152371
 20
15.1159871579
 11
8.378960378
 21
15.1054422791
  0
LINE
  5
27B
100
AcDbEntity
  8
0
100
AcDbLine
 62
7
  6
CONTINUOUS
 10
8.4727840051
 20
15.0839158645
 11
8.4567284471
 21
15.0701006169
  0
LINE
  5
27C
100
AcDbEntity
  8
0
100
AcDbLine
 62
7
  6
CONTINUOUS
 10
8.5291888712
 20
15.0922326219
 11
8.5049503332
 21
15.0713762055
  0
LINE
  5
27D
100
AcDbEntity
  8
0
100
AcDbLine
 62
7
  6
CONTINUOUS
 10
8.5206207596
 20
15.0070041061
 11
8.4973888225
 21
14.9870138346
  0
LINE
  5
27E
100
AcDbEntity
  8
0
100
AcDbLine
 62
7
  6
CONTINUOUS
 10
8.5235517736
 20
15.0040421841
 11
8.5235498929
 21
15.004040858
  0
LINE
  5
27F
100
AcDbEntity
  8
0
100
AcDbLine
 62
7
  6
CONTINUOUS
 10
8.3158992536
 20
15.2035144775
 11
8.2997066319
 21
15.1846960252
  0
LINE
  5
280
100
AcDbEntity
  8
0
100
AcDbLine
 62
7
  6
CONTINUOUS
 10
8.3930687731
 20
15.1674772035
 11
8.377474701
 21
15.149354363
  0
LINE
  5
281
100
AcDbEntity
  8
0
100
AcDbLine
 62
7
  6
CONTINUOUS
 10
8.4424452325
 20
15.1700945935
 11
8.4256965871
 21
15.1506299516
  0
LINE
  5
282
100
AcDbEntity
  8
0
100
AcDbLine
 62
7
  6
CONTINUOUS
 10
8.4286799552
 20
15.0785224398
 11
8.4181350764
 21
15.0662675807
  0
LINE
  5
283
100
AcDbEntity
  8
0
100
AcDbLine
 62
7
  6
CONTINUOUS
 10
8.5991445164
 20
14.9599105665
 11
8.5842399827
 21
14.9425890813
  0
LINE
  5
284
100
AcDbEntity
  8
0
100
AcDbLine
 62
7
  6
CONTINUOUS
 10
8.6910675004
 20
14.9198498054
 11
8.6750692706
 21
14.9012572681
  0
LINE
  5
285
100
AcDbEntity
  8
0
100
AcDbLine
 62
7
  6
CONTINUOUS
 10
8.7280333201
 20
14.8286665496
 11
8.7142180725
 21
14.8126109915
  0
LINE
  5
286
100
AcDbEntity
  8
0
100
AcDbLine
 62
7
  6
CONTINUOUS
 10
8.8876491394
 20
14.721845555
 11
8.8723088674
 21
14.7040176713
  0
LINE
  5
287
100
AcDbEntity
  8
0
100
AcDbLine
 62
7
  6
CONTINUOUS
 10
9.3865770538
 20
15.8544511686
 11
9.5499187202
 21
16.0177928351
  0
LINE
  5
288
100
AcDbEntity
  8
0
100
AcDbLine
 62
7
  6
CONTINUOUS
 10
8.6795492868
 20
14.8771505828
 11
8.6634937288
 21
14.8633353352
  0
LINE
  5
289
100
AcDbEntity
  8
0
100
AcDbLine
 62
7
  6
CONTINUOUS
 10
8.7789870719
 20
14.843226081
 11
8.7543230167
 21
14.822003522
  0
LINE
  5
28A
100
AcDbEntity
  8
0
100
AcDbLine
 62
7
  6
CONTINUOUS
 10
8.8167020269
 20
14.7533460293
 11
8.7934718186
 21
14.7333572454
  0
LINE
  5
28B
100
AcDbEntity
  8
0
100
AcDbLine
 62
7
  6
CONTINUOUS
 10
8.8608320948
 20
14.7088382163
 11
8.8378049245
 21
14.6890241395
  0
LINE
  5
28C
100
AcDbEntity
  8
0
100
AcDbLine
 62
7
  6
CONTINUOUS
 10
8.9764787009
 20
14.6462033493
 11
8.9515626135
 21
14.6247639252
  0
LINE
  5
28D
100
AcDbEntity
  8
0
100
AcDbLine
 62
7
  6
CONTINUOUS
 10
9.1130443994
 20
14.5097855677
 11
9.0880488066
 21
14.4882777321
  0
LINE
  5
28E
100
AcDbEntity
  8
0
100
AcDbLine
 62
7
  6
CONTINUOUS
 10
9.1826564969
 20
14.4398839996
 11
9.1578164945
 21
14.4185100441
  0
LINE
  5
28F
100
AcDbEntity
  8
0
100
AcDbLine
 62
7
  6
CONTINUOUS
 10
9.0194310537
 20
14.5872960156
 11
9.019412892
 21
14.5872839113
  0
LINE
  5
290
100
AcDbEntity
  8
0
100
AcDbLine
 62
7
  6
CONTINUOUS
 10
6.2175512938
 20
17.3519770313
 11
6.2175525298
 21
17.3520535363
  0
LINE
  5
291
100
AcDbEntity
  8
0
100
AcDbLine
 62
7
  6
CONTINUOUS
 10
9.0235632002
 20
14.5846944514
 11
9.0087950605
 21
14.5675314782
  0
LINE
  5
292
100
AcDbEntity
  8
0
100
AcDbLine
 62
7
  6
CONTINUOUS
 10
9.7799550576
 20
14.1335798967
 11
10.4012752848
 21
14.7549001239
  0
LINE
  5
293
100
AcDbEntity
  8
0
100
AcDbLine
 62
7
  6
CONTINUOUS
 10
8.3119825827
 20
15.2060665375
 11
8.3120002876
 21
15.2061242825
  0
LINE
  5
294
100
AcDbEntity
  8
0
100
AcDbLine
 62
7
  6
CONTINUOUS
 10
15.5477997941
 20
4.874891804
 11
15.8277997941
 21
4.874891804
  0
LINE
  5
295
100
AcDbEntity
  8
0
100
AcDbLine
 62
9
  6
CONTINUOUS
 10
15.5177997941
 20
4.904891804
 11
15.8277997941
 21
4.904891804
  0
LINE
  5
296
100
AcDbEntity
  8
0
100
AcDbLine
 62
7
  6
CONTINUOUS
 10
12.4977997941
 20
5.421891804
 11
12.8877997941
 21
5.421891804
  0
LINE
  5
297
100
AcDbEntity
  8
0
100
AcDbLine
 62
9
  6
CONTINUOUS
 10
12.4677997941
 20
5.451891804
 11
12.9177997941
 21
5.451891804
  0
LINE
  5
298
100
AcDbEntity
  8
0
100
AcDbLine
 62
7
  6
CONTINUOUS
 10
14.7676327354
 20
5.831891804
 11
14.4326327354
 21
5.831891804
  0
LINE
  5
299
100
AcDbEntity
  8
0
100
AcDbLine
 62
7
  6
CONTINUOUS
 10
14.9667997941
 20
5.981891804
 11
14.8076327354
 21
5.981891804
  0
LINE
  5
29A
100
AcDbEntity
  8
0
100
AcDbLine
 62
7
  6
CONTINUOUS
 10
14.9867997941
 20
6.074891804
 11
15.5177997941
 21
6.074891804
  0
LINE
  5
29B
100
AcDbEntity
  8
0
100
AcDbLine
 62
7
  6
CONTINUOUS
 10
14.9867997941
 20
6.428891804
 11
15.5177997941
 21
6.428891804
  0
LINE
  5
29C
100
AcDbEntity
  8
0
100
AcDbLine
 62
7
  6
CONTINUOUS
 10
14.9667997941
 20
6.521891804
 11
14.8076327354
 21
6.521891804
  0
LINE
  5
29D
100
AcDbEntity
  8
0
100
AcDbLine
 62
7
  6
CONTINUOUS
 10
5.6786238576
 20
17.9647574972
 11
5.5931894094
 21
18.2836031987
  0
LINE
  5
29E
100
AcDbEntity
  8
0
100
AcDbLine
 62
7
  6
CONTINUOUS
 10
9.004800967
 20
18.0261702054
 11
9.004800967
 21
18.0994863702
  0
LINE
  5
29F
100
AcDbEntity
  8
0
100
AcDbLine
 62
7
  6
CONTINUOUS
 10
9.3889931977
 20
18.4954835199
 11
9.3890445216
 21
18.4961946973
  0
LINE
  5
2A0
100
AcDbEntity
  8
0
100
AcDbLine
 62
7
  6
CONTINUOUS
 10
9.3391756287
 20
18.44567239
 11
9.3392265247
 21
18.4463767003
  0
LINE
  5
2A1
100
AcDbEntity
  8
0
100
AcDbLine
 62
7
  6
CONTINUOUS
 10
9.4386524211
 20
18.5451469559
 11
9.4387034997
 21
18.5458536753
  0
LINE
  5
2A2
100
AcDbEntity
  8
0
100
AcDbLine
 62
7
  6
CONTINUOUS
 10
9.4884399154
 20
18.5949367989
 11
9.4884908027
 21
18.5956409784
  0
LINE
  5
2A3
100
AcDbEntity
  8
0
100
AcDbLine
 62
7
  6
CONTINUOUS
 10
14.7676327354
 20
6.671891804
 11
14.4326327354
 21
6.671891804
  0
LINE
  5
2A4
100
AcDbEntity
  8
0
100
AcDbLine
 62
7
  6
CONTINUOUS
 10
15.1977997941
 20
7.371891804
 11
15.5177997941
 21
7.371891804
  0
LINE
  5
2A5
100
AcDbEntity
  8
0
100
AcDbLine
 62
9
  6
CONTINUOUS
 10
15.1677997941
 20
7.401891804
 11
15.5177997941
 21
7.401891804
  0
LINE
  5
2A6
100
AcDbEntity
  8
0
100
AcDbLine
 62
7
  6
CONTINUOUS
 10
9.2116297005
 20
18.359438516
 11
9.2116297005
 21
18.3841872534
  0
LINE
  5
2A7
100
AcDbEntity
  8
0
100
AcDbLine
 62
7
  6
CONTINUOUS
 10
9.9542261441
 20
17.9130273951
 11
9.954171592
 21
17.9122732482
  0
LINE
  5
2A8
100
AcDbEntity
  8
0
100
AcDbLine
 62
7
  6
CONTINUOUS
 10
10.0054757448
 20
17.964270565
 11
10.0054217314
 21
17.9635233876
  0
LINE
  5
2A9
100
AcDbEntity
  8
0
100
AcDbLine
 62
7
  6
CONTINUOUS
 10
10.056748489
 20
18.0155445069
 11
10.0566943754
 21
18.0147960315
  0
LINE
  5
2AA
100
AcDbEntity
  8
0
100
AcDbLine
 62
7
  6
CONTINUOUS
 10
13.5277997941
 20
7.751891804
 11
15.1677997941
 21
7.751891804
  0
LINE
  5
2AB
100
AcDbEntity
  8
0
100
AcDbLine
 62
9
  6
CONTINUOUS
 10
13.4977997941
 20
7.781891804
 11
15.1677997941
 21
7.781891804
  0
LINE
  5
2AC
100
AcDbEntity
  8
0
100
AcDbLine
 62
7
  6
CONTINUOUS
 10
12.9777997941
 20
8.096891804
 11
13.4677997941
 21
8.096891804
  0
LINE
  5
2AD
100
AcDbEntity
  8
0
100
AcDbLine
 62
7
  6
CONTINUOUS
 10
13.4677997941
 20
8.160391804
 11
13.4977997941
 21
8.160391804
  0
LINE
  5
2AE
100
AcDbEntity
  8
0
100
AcDbLine
 62
7
  6
CONTINUOUS
 10
8.5950185307
 20
14.9620249789
 11
8.5949379516
 21
14.9624216518
  0
LINE
  5
2AF
100
AcDbEntity
  8
0
100
AcDbLine
 62
9
  6
CONTINUOUS
 10
12.9177997941
 20
8.3154728208
 11
12.8877997941
 21
8.3154728208
  0
LINE
  5
2B0
100
AcDbEntity
  8
0
100
AcDbLine
 62
9
  6
CONTINUOUS
 10
12.9177997941
 20
8.5283107873
 11
12.8877997941
 21
8.5283107873
  0
LINE
  5
2B1
100
AcDbEntity
  8
0
100
AcDbLine
 62
7
  6
CONTINUOUS
 10
13.4677997941
 20
8.683391804
 11
13.4977997941
 21
8.683391804
  0
LINE
  5
2B2
100
AcDbEntity
  8
0
100
AcDbLine
 62
7
  6
CONTINUOUS
 10
12.9777997941
 20
8.746891804
 11
13.4677997941
 21
8.746891804
  0
LINE
  5
2B3
100
AcDbEntity
  8
0
100
AcDbLine
 62
9
  6
CONTINUOUS
 10
12.4677997941
 20
9.041891804
 11
12.9177997941
 21
9.041891804
  0
LINE
  5
2B4
100
AcDbEntity
  8
0
100
AcDbLine
 62
9
  6
CONTINUOUS
 10
13.4977997941
 20
9.061891804
 11
15.1677997941
 21
9.061891804
  0
LINE
  5
2B5
100
AcDbEntity
  8
0
100
AcDbLine
 62
7
  6
CONTINUOUS
 10
12.4977997941
 20
9.071891804
 11
12.8877997941
 21
9.071891804
  0
LINE
  5
2B6
100
AcDbEntity
  8
0
100
AcDbLine
 62
7
  6
CONTINUOUS
 10
13.5277997941
 20
9.091891804
 11
15.1677997941
 21
9.091891804
  0
LINE
  5
2B7
100
AcDbEntity
  8
0
100
AcDbLine
 62
9
  6
CONTINUOUS
 10
15.1677997941
 20
9.441891804
 11
15.5177997941
 21
9.441891804
  0
LINE
  5
2B8
100
AcDbEntity
  8
0
100
AcDbLine
 62
7
  6
CONTINUOUS
 10
15.1977997941
 20
9.471891804
 11
15.5177997941
 21
9.471891804
  0
LINE
  5
2B9
100
AcDbEntity
  8
0
100
AcDbLine
 62
9
  6
CONTINUOUS
 10
12.1277997941
 20
19.218641804
 11
12.1277997941
 21
20.031141804
  0
LINE
  5
2BA
100
AcDbEntity
  8
0
100
AcDbLine
 62
7
  6
CONTINUOUS
 10
12.4677997941
 20
5.451891804
 11
12.4677997941
 21
9.041891804
  0
LINE
  5
2BB
100
AcDbEntity
  8
0
100
AcDbLine
 62
9
  6
CONTINUOUS
 10
12.4977997941
 20
5.421891804
 11
12.4977997941
 21
9.071891804
  0
LINE
  5
2BC
100
AcDbEntity
  8
0
100
AcDbLine
 62
9
  6
CONTINUOUS
 10
15.5177997941
 20
10.344891804
 11
15.8277997941
 21
10.344891804
  0
LINE
  5
2BD
100
AcDbEntity
  8
0
100
AcDbLine
 62
7
  6
CONTINUOUS
 10
15.5477997941
 20
10.374891804
 11
15.8277997941
 21
10.374891804
  0
LINE
  5
2BE
100
AcDbEntity
  8
0
100
AcDbLine
 62
7
  6
CONTINUOUS
 10
9.3391756287
 20
18.4456723899
 11
9.3477170863
 21
18.4137274688
  0
LINE
  5
2BF
100
AcDbEntity
  8
0
100
AcDbLine
 62
7
  6
CONTINUOUS
 10
9.3889931965
 20
18.4954835187
 11
9.3970286708
 21
18.4654306246
  0
LINE
  5
2C0
100
AcDbEntity
  8
0
100
AcDbLine
 62
7
  6
CONTINUOUS
 10
9.4386524215
 20
18.5451469562
 11
9.4460681965
 21
18.5174124533
  0
LINE
  5
2C1
100
AcDbEntity
  8
0
100
AcDbLine
 62
7
  6
CONTINUOUS
 10
9.4884399154
 20
18.5949367989
 11
9.4953292613
 21
18.5691715478
  0
LINE
  5
2C2
100
AcDbEntity
  8
0
100
AcDbLine
 62
7
  6
CONTINUOUS
 10
9.9029606678
 20
17.8617567819
 11
9.8947117628
 21
17.8926115042
  0
LINE
  5
2C3
100
AcDbEntity
  8
0
100
AcDbLine
 62
7
  6
CONTINUOUS
 10
9.9542261443
 20
17.9130273953
 11
9.9465309393
 21
17.9418111854
  0
LINE
  5
2C4
100
AcDbEntity
  8
0
100
AcDbLine
 62
7
  6
CONTINUOUS
 10
10.0054757448
 20
17.964270565
 11
9.9983206574
 21
17.9910332172
  0
LINE
  5
2C5
100
AcDbEntity
  8
0
100
AcDbLine
 62
7
  6
CONTINUOUS
 10
10.056748489
 20
18.0155445069
 11
10.0501517415
 21
18.040218592
  0
LINE
  5
2C6
100
AcDbEntity
  8
0
100
AcDbLine
 62
9
  6
CONTINUOUS
 10
12.8877997941
 20
9.071891804
 11
12.8877997941
 21
8.5283107873
  0
LINE
  5
2C7
100
AcDbEntity
  8
0
100
AcDbLine
 62
9
  6
CONTINUOUS
 10
12.8877997941
 20
8.3154728208
 11
12.8877997941
 21
5.421891804
  0
LINE
  5
2C8
100
AcDbEntity
  8
0
100
AcDbLine
 62
7
  6
CONTINUOUS
 10
12.9177997941
 20
9.041891804
 11
12.9177997941
 21
8.5283107871
  0
LINE
  5
2C9
100
AcDbEntity
  8
0
100
AcDbLine
 62
7
  6
CONTINUOUS
 10
12.9177997941
 20
8.3154728194
 11
12.9177997941
 21
5.451891804
  0
LINE
  5
2CA
100
AcDbEntity
  8
0
100
AcDbLine
 62
9
  6
CONTINUOUS
 10
12.9777997941
 20
8.746891804
 11
12.9777997941
 21
8.096891804
  0
LINE
  5
2CB
100
AcDbEntity
  8
0
100
AcDbLine
 62
7
  6
CONTINUOUS
 10
7.8071811155
 20
15.6080973979
 11
7.7490811612
 21
15.6661973522
  0
LINE
  5
2CC
100
AcDbEntity
  8
0
100
AcDbLine
 62
7
  6
CONTINUOUS
 10
7.4703762759
 20
15.9449022375
 11
7.4122763216
 21
16.0030021918
  0
LINE
  5
2CD
100
AcDbEntity
  8
0
100
AcDbLine
 62
7
  6
CONTINUOUS
 10
7.1335714363
 20
16.2817070771
 11
7.075471482
 21
16.3398070314
  0
LINE
  5
2CE
100
AcDbEntity
  8
0
100
AcDbLine
 62
7
  6
CONTINUOUS
 10
8.1704119893
 20
15.2590086598
 11
8.112312035
 21
15.317108614
  0
LINE
  5
2CF
100
AcDbEntity
  8
0
100
AcDbLine
 62
7
  6
CONTINUOUS
 10
8.0775723307
 20
15.3518483183
 11
8.0194723764
 21
15.4099482726
  0
LINE
  5
2D0
100
AcDbEntity
  8
0
100
AcDbLine
 62
7
  6
CONTINUOUS
 10
7.8239296665
 20
15.6054909825
 11
7.7658297122
 21
15.6635909368
  0
LINE
  5
2D1
100
AcDbEntity
  8
0
100
AcDbLine
 62
7
  6
CONTINUOUS
 10
7.4774473437
 20
15.9519733053
 11
7.4193473894
 21
16.0100732596
  0
LINE
  5
2D2
100
AcDbEntity
  8
0
100
AcDbLine
 62
7
  6
CONTINUOUS
 10
7.1309650209
 20
16.2984556281
 11
7.0728650666
 21
16.3565555824
  0
LINE
  5
2D3
100
AcDbEntity
  8
0
100
AcDbLine
 62
7
  6
CONTINUOUS
 10
6.8773223567
 20
16.5520982923
 11
6.8192224024
 21
16.6101982466
  0
LINE
  5
2D4
100
AcDbEntity
  8
0
100
AcDbLine
 62
7
  6
CONTINUOUS
 10
6.7844826981
 20
16.6449379509
 11
6.7263827439
 21
16.7030379052
  0
LINE
  5
2D5
100
AcDbEntity
  8
0
100
AcDbLine
 62
9
  6
CONTINUOUS
 10
7.7614737921
 20
15.6734313904
 11
7.7483175999
 21
15.6865875826
  0
LINE
  5
2D6
100
AcDbEntity
  8
0
100
AcDbLine
 62
9
  6
CONTINUOUS
 10
7.4907665063
 20
15.9441386761
 11
7.4872877972
 21
15.9476173852
  0
LINE
  5
2D7
100
AcDbEntity
  8
0
100
AcDbLine
 62
9
  6
CONTINUOUS
 10
7.4149914693
 20
16.0199137131
 11
7.4115127602
 21
16.0233924222
  0
LINE
  5
2D8
100
AcDbEntity
  8
0
100
AcDbLine
 62
9
  6
CONTINUOUS
 10
7.1539616667
 20
16.2809435158
 11
7.1408054745
 21
16.294099708
  0
LINE
  5
2D9
100
AcDbEntity
  8
0
100
AcDbLine
 62
9
  6
CONTINUOUS
 10
8.1908022197
 20
15.2582450984
 11
8.1115484736
 21
15.3374988445
  0
LINE
  5
2DA
100
AcDbEntity
  8
0
100
AcDbLine
 62
9
  6
CONTINUOUS
 10
8.0979625611
 20
15.351084757
 11
8.018708815
 21
15.4303385031
  0
LINE
  5
2DB
100
AcDbEntity
  8
0
100
AcDbLine
 62
9
  6
CONTINUOUS
 10
7.8443198969
 20
15.6047274212
 11
7.7650661508
 21
15.6839811673
  0
LINE
  5
2DC
100
AcDbEntity
  8
0
100
AcDbLine
 62
9
  6
CONTINUOUS
 10
7.4978375741
 20
15.9512097439
 11
7.418583828
 21
16.03046349
  0
LINE
  5
2DD
100
AcDbEntity
  8
0
100
AcDbLine
 62
9
  6
CONTINUOUS
 10
7.1513552514
 20
16.2976920667
 11
7.0721015052
 21
16.3769458128
  0
LINE
  5
2DE
100
AcDbEntity
  8
0
100
AcDbLine
 62
9
  6
CONTINUOUS
 10
6.8977125872
 20
16.5513347309
 11
6.818458841
 21
16.630588477
  0
LINE
  5
2DF
100
AcDbEntity
  8
0
100
AcDbLine
 62
9
  6
CONTINUOUS
 10
6.8048729286
 20
16.6441743895
 11
6.7256191825
 21
16.7234281356
  0
LINE
  5
2E0
100
AcDbEntity
  8
0
100
AcDbLine
 62
7
  6
CONTINUOUS
 10
8.4769985921
 20
14.987777396
 11
8.4188986378
 21
15.0458773503
  0
LINE
  5
2E1
100
AcDbEntity
  8
0
100
AcDbLine
 62
7
  6
CONTINUOUS
 10
8.3585701476
 20
15.1062058405
 11
8.3004701933
 21
15.1643057948
  0
LINE
  5
2E2
100
AcDbEntity
  8
0
100
AcDbLine
 62
7
  6
CONTINUOUS
 10
8.1359974767
 20
15.3287785113
 11
8.0778975225
 21
15.3868784656
  0
LINE
  5
2E3
100
AcDbEntity
  8
0
100
AcDbLine
 62
7
  6
CONTINUOUS
 10
7.8361261286
 20
15.6286498595
 11
7.7780261743
 21
15.6867498138
  0
LINE
  5
2E4
100
AcDbEntity
  8
0
100
AcDbLine
 62
7
  6
CONTINUOUS
 10
7.4951250132
 20
15.9696509749
 11
7.4370250589
 21
16.0277509291
  0
LINE
  5
2E5
100
AcDbEntity
  8
0
100
AcDbLine
 62
7
  6
CONTINUOUS
 10
7.1541238979
 20
16.3106520902
 11
7.0960239436
 21
16.3687520445
  0
LINE
  5
2E6
100
AcDbEntity
  8
0
100
AcDbLine
 62
7
  6
CONTINUOUS
 10
6.8542525497
 20
16.6105234384
 11
6.7961525954
 21
16.6686233927
  0
LINE
  5
2E7
100
AcDbEntity
  8
0
100
AcDbLine
 62
7
  6
CONTINUOUS
 10
6.6316798789
 20
16.8330961092
 11
6.5735799246
 21
16.8911960635
  0
LINE
  5
2E8
100
AcDbEntity
  8
0
100
AcDbLine
 62
7
  6
CONTINUOUS
 10
6.5132514344
 20
16.9515245537
 11
6.4551514801
 21
17.009624508
  0
LINE
  5
2E9
100
AcDbEntity
  8
0
100
AcDbLine
 62
7
  6
CONTINUOUS
 10
7.5073552058
 20
15.9584126733
 11
7.5973857361
 21
15.868382143
  0
LINE
  5
2EA
100
AcDbEntity
  8
0
100
AcDbLine
 62
7
  6
CONTINUOUS
 10
7.4257867574
 20
16.0399811217
 11
7.3357562271
 21
16.130011652
  0
LINE
  5
2EB
100
AcDbEntity
  8
0
100
AcDbLine
 62
7
  6
CONTINUOUS
 10
7.1729877374
 20
16.2973147859
 11
7.4278840304
 21
16.0424184929
  0
LINE
  5
2EC
100
AcDbEntity
  8
0
100
AcDbLine
 62
7
  6
CONTINUOUS
 10
7.509792577
 20
15.9605099463
 11
7.76468887
 21
15.7056136533
  0
LINE
  5
2ED
100
AcDbEntity
  8
0
100
AcDbLine
 62
9
  6
CONTINUOUS
 10
7.1731146882
 20
16.2974240226
 11
7.4279932671
 21
16.0425454437
  0
LINE
  5
2EE
100
AcDbEntity
  8
0
100
AcDbLine
 62
9
  6
CONTINUOUS
 10
7.5099195278
 20
15.960619183
 11
7.7647981067
 21
15.7057406041
  0
LINE
  5
2EF
100
AcDbEntity
  8
0
100
AcDbLine
 62
9
  6
CONTINUOUS
 10
7.9066582646
 20
15.5690921917
 11
7.8586728337
 21
15.6170776225
  0
LINE
  5
2F0
100
AcDbEntity
  8
0
100
AcDbLine
 62
9
  6
CONTINUOUS
 10
7.7739393186
 20
15.7018111376
 11
7.5121905109
 21
15.9635599453
  0
LINE
  5
2F1
100
AcDbEntity
  8
0
100
AcDbLine
 62
9
  6
CONTINUOUS
 10
7.4309340294
 20
16.0448164268
 11
7.1691852217
 21
16.3065652345
  0
LINE
  5
2F2
100
AcDbEntity
  8
0
100
AcDbLine
 62
9
  6
CONTINUOUS
 10
7.0844517066
 20
16.3912987496
 11
7.0364662758
 21
16.4392841805
  0
LINE
  5
2F3
100
AcDbEntity
  8
0
100
AcDbLine
 62
9
  6
CONTINUOUS
 10
8.4973888225
 20
14.9870138346
 11
8.4181350764
 21
15.0662675807
  0
LINE
  5
2F4
100
AcDbEntity
  8
0
100
AcDbLine
 62
9
  6
CONTINUOUS
 10
8.378960378
 20
15.1054422791
 11
8.2997066319
 21
15.1846960252
  0
LINE
  5
2F5
100
AcDbEntity
  8
0
100
AcDbLine
 62
9
  6
CONTINUOUS
 10
8.1563877072
 20
15.3280149499
 11
8.0771339611
 21
15.4072686961
  0
LINE
  5
2F6
100
AcDbEntity
  8
0
100
AcDbLine
 62
9
  6
CONTINUOUS
 10
7.856516359
 20
15.6278862981
 11
7.7772626129
 21
15.7071400442
  0
LINE
  5
2F7
100
AcDbEntity
  8
0
100
AcDbLine
 62
9
  6
CONTINUOUS
 10
7.5155152437
 20
15.9688874135
 11
7.4362614976
 21
16.0481411596
  0
LINE
  5
2F8
100
AcDbEntity
  8
0
100
AcDbLine
 62
9
  6
CONTINUOUS
 10
7.1745141283
 20
16.3098885288
 11
7.0952603822
 21
16.3891422749
  0
LINE
  5
2F9
100
AcDbEntity
  8
0
100
AcDbLine
 62
9
  6
CONTINUOUS
 10
6.8746427802
 20
16.609759877
 11
6.795389034
 21
16.6890136231
  0
LINE
  5
2FA
100
AcDbEntity
  8
0
100
AcDbLine
 62
9
  6
CONTINUOUS
 10
6.6520701093
 20
16.8323325478
 11
6.5728163632
 21
16.9115862939
  0
LINE
  5
2FB
100
AcDbEntity
  8
0
100
AcDbLine
 62
9
  6
CONTINUOUS
 10
6.5336416648
 20
16.9507609923
 11
6.4543879187
 21
17.0300147384
  0
LINE
  5
2FC
100
AcDbEntity
  8
0
100
AcDbLine
 62
7
  6
CONTINUOUS
 10
6.9190201322
 20
16.5696691302
 11
7.0904359045
 21
16.3982533579
  0
LINE
  5
2FD
100
AcDbEntity
  8
0
100
AcDbLine
 62
7
  6
CONTINUOUS
 10
7.1768181787
 20
16.3118710837
 11
7.4369182273
 21
16.0517710351
  0
LINE
  5
2FE
100
AcDbEntity
  8
0
100
AcDbLine
 62
7
  6
CONTINUOUS
 10
7.5191451192
 20
15.9695441432
 11
7.7792451678
 21
15.7094440946
  0
LINE
  5
2FF
100
AcDbEntity
  8
0
100
AcDbLine
 62
7
  6
CONTINUOUS
 10
7.865627442
 20
15.6230618204
 11
8.0370432143
 21
15.4516460481
  0
LINE
  5
300
100
AcDbEntity
  8
0
100
AcDbLine
 62
9
  6
CONTINUOUS
 10
6.9225922849
 20
16.5671189591
 11
7.090908571
 21
16.398802673
  0
LINE
  5
301
100
AcDbEntity
  8
0
100
AcDbLine
 62
9
  6
CONTINUOUS
 10
7.1773674938
 20
16.3123437502
 11
7.4373908938
 21
16.0523203502
  0
LINE
  5
302
100
AcDbEntity
  8
0
100
AcDbLine
 62
9
  6
CONTINUOUS
 10
7.5196944343
 20
15.9700168097
 11
7.7797178343
 21
15.7099934097
  0
LINE
  5
303
100
AcDbEntity
  8
0
100
AcDbLine
 62
9
  6
CONTINUOUS
 10
7.8661767571
 20
15.6235344869
 11
8.0344930431
 21
15.4552182008
  0
LINE
  5
304
100
AcDbEntity
  8
0
100
AcDbLine
 62
9
  6
CONTINUOUS
 10
8.2196618244
 20
15.2766805226
 11
8.1628052905
 21
15.3335370565
  0
LINE
  5
305
100
AcDbEntity
  8
0
100
AcDbLine
 62
9
  6
CONTINUOUS
 10
8.0826560676
 20
15.4136862794
 11
7.8629339423
 21
15.6334084047
  0
LINE
  5
306
100
AcDbEntity
  8
0
100
AcDbLine
 62
9
  6
CONTINUOUS
 10
7.7827847195
 20
15.7135576275
 11
7.521932827
 21
15.97440952
  0
LINE
  5
307
100
AcDbEntity
  8
0
100
AcDbLine
 62
9
  6
CONTINUOUS
 10
7.4417836041
 20
16.0545587429
 11
7.1809317116
 21
16.3154106354
  0
LINE
  5
308
100
AcDbEntity
  8
0
100
AcDbLine
 62
9
  6
CONTINUOUS
 10
7.1007824888
 20
16.3955598582
 11
6.8810603634
 21
16.6152819835
  0
LINE
  5
309
100
AcDbEntity
  8
0
100
AcDbLine
 62
9
  6
CONTINUOUS
 10
6.8009111406
 20
16.6954312064
 11
6.7440546067
 21
16.7522877403
  0
LINE
  5
30A
100
AcDbEntity
  8
0
100
AcDbLine
 62
7
  6
CONTINUOUS
 10
8.8174146941
 20
14.6897877009
 11
8.7149816339
 21
14.7922207611
  0
LINE
  5
30B
100
AcDbEntity
  8
0
100
AcDbLine
 62
7
  6
CONTINUOUS
 10
8.6431034983
 20
14.8640988966
 11
8.5850035441
 21
14.9221988509
  0
LINE
  5
30C
100
AcDbEntity
  8
0
100
AcDbLine
 62
7
  6
CONTINUOUS
 10
8.4363382167
 20
15.0708641783
 11
8.3782382624
 21
15.1289641326
  0
LINE
  5
30D
100
AcDbEntity
  8
0
100
AcDbLine
 62
7
  6
CONTINUOUS
 10
8.1668764554
 20
15.3403259396
 11
8.1087765011
 21
15.3984258939
  0
LINE
  5
30E
100
AcDbEntity
  8
0
100
AcDbLine
 62
7
  6
CONTINUOUS
 10
7.8530815881
 20
15.6541208068
 11
7.7949816339
 21
15.7122207611
  0
LINE
  5
30F
100
AcDbEntity
  8
0
100
AcDbLine
 62
7
  6
CONTINUOUS
 10
7.5163382167
 20
15.9908641783
 11
7.4582382624
 21
16.0489641326
  0
LINE
  5
310
100
AcDbEntity
  8
0
100
AcDbLine
 62
7
  6
CONTINUOUS
 10
7.1795948452
 20
16.3276075498
 11
7.1214948909
 21
16.3857075041
  0
LINE
  5
311
100
AcDbEntity
  8
0
100
AcDbLine
 62
7
  6
CONTINUOUS
 10
6.865799978
 20
16.641402417
 11
6.8077000237
 21
16.6995023713
  0
LINE
  5
312
100
AcDbEntity
  8
0
100
AcDbLine
 62
7
  6
CONTINUOUS
 10
6.5963382167
 20
16.9108641783
 11
6.5382382624
 21
16.9689641326
  0
LINE
  5
313
100
AcDbEntity
  8
0
100
AcDbLine
 62
7
  6
CONTINUOUS
 10
6.389572935
 20
17.11762946
 11
6.3314729807
 21
17.1757294143
  0
LINE
  5
314
100
AcDbEntity
  8
0
100
AcDbLine
 62
7
  6
CONTINUOUS
 10
6.2595948452
 20
17.2476075498
 11
6.157161785
 21
17.35004061
  0
LINE
  5
315
100
AcDbEntity
  8
0
100
AcDbLine
 62
7
  6
CONTINUOUS
 10
6.6689814945
 20
16.8468842048
 11
6.8034835309
 21
16.7123821684
  0
LINE
  5
316
100
AcDbEntity
  8
0
100
AcDbLine
 62
7
  6
CONTINUOUS
 10
6.8918026369
 20
16.6240630623
 11
7.1098120392
 21
16.40605366
  0
LINE
  5
317
100
AcDbEntity
  8
0
100
AcDbLine
 62
7
  6
CONTINUOUS
 10
7.1924746423
 20
16.323391057
 11
7.4508131545
 21
16.0650525447
  0
LINE
  5
318
100
AcDbEntity
  8
0
100
AcDbLine
 62
7
  6
CONTINUOUS
 10
7.5324266288
 20
15.9834390704
 11
7.790765141
 21
15.7251005582
  0
LINE
  5
319
100
AcDbEntity
  8
0
100
AcDbLine
 62
7
  6
CONTINUOUS
 10
7.8734277441
 20
15.6424379551
 11
8.0914371464
 21
15.4244285529
  0
LINE
  5
31A
100
AcDbEntity
  8
0
100
AcDbLine
 62
7
  6
CONTINUOUS
 10
8.1797562525
 20
15.3361094468
 11
8.3142582889
 21
15.2016074104
  0
LINE
  5
31B
100
AcDbEntity
  8
0
100
AcDbLine
 62
9
  6
CONTINUOUS
 10
6.6734406216
 20
16.8446084986
 11
6.8039173604
 21
16.7141317599
  0
LINE
  5
31C
100
AcDbEntity
  8
0
100
AcDbLine
 62
9
  6
CONTINUOUS
 10
6.8928943474
 20
16.6251547728
 11
7.1108218714
 21
16.4072272488
  0
LINE
  5
31D
100
AcDbEntity
  8
0
100
AcDbLine
 62
9
  6
CONTINUOUS
 10
7.1942242338
 20
16.3238248864
 11
7.4518229867
 21
16.0662261335
  0
LINE
  5
31E
100
AcDbEntity
  8
0
100
AcDbLine
 62
9
  6
CONTINUOUS
 10
7.5336002176
 20
15.9844489026
 11
7.7911989705
 21
15.7268501497
  0
LINE
  5
31F
100
AcDbEntity
  8
0
100
AcDbLine
 62
9
  6
CONTINUOUS
 10
7.8746013329
 20
15.6434477873
 11
8.0925288569
 21
15.4255202633
  0
LINE
  5
320
100
AcDbEntity
  8
0
100
AcDbLine
 62
9
  6
CONTINUOUS
 10
8.181505844
 20
15.3365432763
 11
8.3119825827
 21
15.2060665375
  0
LINE
  5
321
100
AcDbEntity
  8
0
100
AcDbLine
 62
9
  6
CONTINUOUS
 10
8.8378049245
 20
14.6890241395
 11
8.7142180725
 21
14.8126109915
  0
LINE
  5
322
100
AcDbEntity
  8
0
100
AcDbLine
 62
9
  6
CONTINUOUS
 10
8.6634937288
 20
14.8633353352
 11
8.5842399827
 21
14.9425890813
  0
LINE
  5
323
100
AcDbEntity
  8
0
100
AcDbLine
 62
9
  6
CONTINUOUS
 10
8.4567284471
 20
15.0701006169
 11
8.377474701
 21
15.149354363
  0
LINE
  5
324
100
AcDbEntity
  8
0
100
AcDbLine
 62
9
  6
CONTINUOUS
 10
8.1872666858
 20
15.3395623782
 11
8.1080129397
 21
15.4188161243
  0
LINE
  5
325
100
AcDbEntity
  8
0
100
AcDbLine
 62
9
  6
CONTINUOUS
 10
7.8734718186
 20
15.6533572454
 11
7.7942180725
 21
15.7326109915
  0
LINE
  5
326
100
AcDbEntity
  8
0
100
AcDbLine
 62
9
  6
CONTINUOUS
 10
7.5367284471
 20
15.9901006169
 11
7.457474701
 21
16.069354363
  0
LINE
  5
327
100
AcDbEntity
  8
0
100
AcDbLine
 62
9
  6
CONTINUOUS
 10
7.1999850756
 20
16.3268439884
 11
7.1207313295
 21
16.4060977345
  0
LINE
  5
328
100
AcDbEntity
  8
0
100
AcDbLine
 62
9
  6
CONTINUOUS
 10
6.8861902084
 20
16.6406388556
 11
6.8069364623
 21
16.7198926017
  0
LINE
  5
329
100
AcDbEntity
  8
0
100
AcDbLine
 62
9
  6
CONTINUOUS
 10
6.6167284471
 20
16.9101006169
 11
6.537474701
 21
16.989354363
  0
LINE
  5
32A
100
AcDbEntity
  8
0
100
AcDbLine
 62
9
  6
CONTINUOUS
 10
6.4099631654
 20
17.1168658986
 11
6.3307094193
 21
17.1961196447
  0
LINE
  5
32B
100
AcDbEntity
  8
0
100
AcDbLine
 62
9
  6
CONTINUOUS
 10
6.2799850756
 20
17.2468439884
 11
6.1563982236
 21
17.3704308404
  0
LINE
  5
32C
100
AcDbEntity
  8
0
100
AcDbLine
 62
9
  6
CONTINUOUS
 10
8.5380277357
 20
14.9895630152
 11
8.5235498929
 21
15.004040858
  0
LINE
  5
32D
100
AcDbEntity
  8
0
100
AcDbLine
 62
9
  6
CONTINUOUS
 10
8.5208311343
 20
15.0067596166
 11
8.4571092906
 21
15.0704814604
  0
LINE
  5
32E
100
AcDbEntity
  8
0
100
AcDbLine
 62
9
  6
CONTINUOUS
 10
8.3778555445
 20
15.1497352065
 11
8.1876475293
 21
15.3399432217
  0
LINE
  5
32F
100
AcDbEntity
  8
0
100
AcDbLine
 62
9
  6
CONTINUOUS
 10
8.1083937831
 20
15.4191969678
 11
7.873852662
 21
15.6537380889
  0
LINE
  5
330
100
AcDbEntity
  8
0
100
AcDbLine
 62
9
  6
CONTINUOUS
 10
7.7945989159
 20
15.732991835
 11
7.5371092906
 21
15.9904814604
  0
LINE
  5
331
100
AcDbEntity
  8
0
100
AcDbLine
 62
9
  6
CONTINUOUS
 10
7.4578555445
 20
16.0697352065
 11
7.2003659191
 21
16.3272248318
  0
LINE
  5
332
100
AcDbEntity
  8
0
100
AcDbLine
 62
9
  6
CONTINUOUS
 10
7.121112173
 20
16.406478578
 11
6.8865710519
 21
16.6410196991
  0
LINE
  5
333
100
AcDbEntity
  8
0
100
AcDbLine
 62
9
  6
CONTINUOUS
 10
6.8073173058
 20
16.7202734452
 11
6.6171092906
 21
16.9104814604
  0
LINE
  5
334
100
AcDbEntity
  8
0
100
AcDbLine
 62
9
  6
CONTINUOUS
 10
6.5378555445
 20
16.9897352065
 11
6.4741337007
 21
17.0534570502
  0
LINE
  5
335
100
AcDbEntity
  8
0
100
AcDbLine
 62
9
  6
CONTINUOUS
 10
6.4714149421
 20
17.0561758088
 11
6.4569370993
 21
17.0706536517
  0
LINE
  5
336
100
AcDbEntity
  8
0
100
AcDbLine
 62
7
  6
CONTINUOUS
 10
6.7440546067
 20
16.7522877403
 11
6.7446718088
 21
16.7516153635
  0
LINE
  5
337
100
AcDbEntity
  8
0
100
AcDbLine
 62
7
  6
CONTINUOUS
 10
7.3357562271
 20
16.130011652
 11
7.3099826311
 21
16.1603198922
  0
LINE
  5
338
100
AcDbEntity
  8
0
100
AcDbLine
 62
7
  6
CONTINUOUS
 10
13.4677997941
 20
8.746891804
 11
13.4677997941
 21
8.096891804
  0
LINE
  5
339
100
AcDbEntity
  8
0
100
AcDbLine
 62
7
  6
CONTINUOUS
 10
13.4977997941
 20
7.781891804
 11
13.4977997941
 21
9.061891804
  0
LINE
  5
33A
100
AcDbEntity
  8
0
100
AcDbLine
 62
9
  6
CONTINUOUS
 10
13.5277997941
 20
7.751891804
 11
13.5277997941
 21
9.091891804
  0
LINE
  5
33B
100
AcDbEntity
  8
0
100
AcDbLine
 62
7
  6
CONTINUOUS
 10
7.5973857361
 20
15.868382143
 11
7.6276939763
 21
15.842608547
  0
LINE
  5
33C
100
AcDbEntity
  8
0
100
AcDbLine
 62
7
  6
CONTINUOUS
 10
8.2196618244
 20
15.2766805226
 11
8.2189894476
 21
15.2772977247
  0
LINE
  5
33D
100
AcDbEntity
  8
0
100
AcDbLine
 62
7
  6
CONTINUOUS
 10
6.3017702465
 20
17.2514916413
 11
6.3429346003
 21
17.2103272875
  0
LINE
  5
33E
100
AcDbEntity
  8
0
100
AcDbLine
 62
7
  6
CONTINUOUS
 10
6.4241708082
 20
17.1290910796
 11
6.549699882
 21
17.0035620058
  0
LINE
  5
33F
100
AcDbEntity
  8
0
100
AcDbLine
 62
7
  6
CONTINUOUS
 10
6.6309360899
 20
16.9223257979
 11
6.8191616433
 21
16.7341002445
  0
LINE
  5
340
100
AcDbEntity
  8
0
100
AcDbLine
 62
7
  6
CONTINUOUS
 10
6.9003978512
 20
16.6528640366
 11
7.1329565105
 21
16.4203053773
  0
LINE
  5
341
100
AcDbEntity
  8
0
100
AcDbLine
 62
7
  6
CONTINUOUS
 10
7.2141927184
 20
16.3390691694
 11
7.469699882
 21
16.0835620058
  0
LINE
  5
342
100
AcDbEntity
  8
0
100
AcDbLine
 62
7
  6
CONTINUOUS
 10
7.5509360899
 20
16.0023257979
 11
7.8064432535
 21
15.7468186343
  0
LINE
  5
343
100
AcDbEntity
  8
0
100
AcDbLine
 62
7
  6
CONTINUOUS
 10
7.8876794614
 20
15.6655824264
 11
8.1202381207
 21
15.4330237671
  0
LINE
  5
344
100
AcDbEntity
  8
0
100
AcDbLine
 62
7
  6
CONTINUOUS
 10
8.2014743286
 20
15.3517875592
 11
8.3890472276
 21
15.1642146602
  0
LINE
  5
345
100
AcDbEntity
  8
0
100
AcDbLine
 62
7
  6
CONTINUOUS
 10
8.4709360899
 20
15.0823257979
 11
8.5964651637
 21
14.9567967241
  0
LINE
  5
346
100
AcDbEntity
  8
0
100
AcDbLine
 62
7
  6
CONTINUOUS
 10
8.6777013716
 20
14.8755605162
 11
8.7188657253
 21
14.8343961624
  0
LINE
  5
347
100
AcDbEntity
  8
0
100
AcDbLine
 62
7
  6
CONTINUOUS
 10
9.1374262641
 20
14.4192736055
 11
9.0793263098
 21
14.4773735598
  0
LINE
  5
348
100
AcDbEntity
  8
0
100
AcDbLine
 62
7
  6
CONTINUOUS
 10
9.0676585762
 20
14.4890412935
 11
9.0095586219
 21
14.5471412478
  0
LINE
  5
349
100
AcDbEntity
  8
0
100
AcDbLine
 62
7
  6
CONTINUOUS
 10
8.931172383
 20
14.6255274866
 11
8.8730724288
 21
14.6836274409
  0
LINE
  5
34A
100
AcDbEntity
  8
0
100
AcDbLine
 62
7
  6
CONTINUOUS
 10
8.7339327863
 20
14.8227670833
 11
8.675832832
 21
14.8808670376
  0
LINE
  5
34B
100
AcDbEntity
  8
0
100
AcDbLine
 62
7
  6
CONTINUOUS
 10
8.4845601028
 20
15.0721397669
 11
8.4264601485
 21
15.1302397212
  0
LINE
  5
34C
100
AcDbEntity
  8
0
100
AcDbLine
 62
7
  6
CONTINUOUS
 10
8.1939531153
 20
15.3627467543
 11
8.1358531611
 21
15.4208467086
  0
LINE
  5
34D
100
AcDbEntity
  8
0
100
AcDbLine
 62
7
  6
CONTINUOUS
 10
7.8748127439
 20
15.6818871258
 11
7.8167127896
 21
15.73998708
  0
LINE
  5
34E
100
AcDbEntity
  8
0
100
AcDbLine
 62
7
  6
CONTINUOUS
 10
7.541086954
 20
16.0156129156
 11
7.4829869997
 21
16.0737128699
  0
LINE
  5
34F
100
AcDbEntity
  8
0
100
AcDbLine
 62
7
  6
CONTINUOUS
 10
7.2073611641
 20
16.3493387055
 11
7.1492612099
 21
16.4074386598
  0
LINE
  5
350
100
AcDbEntity
  8
0
100
AcDbLine
 62
7
  6
CONTINUOUS
 10
6.8882207927
 20
16.668479077
 11
6.8301208384
 21
16.7265790313
  0
LINE
  5
351
100
AcDbEntity
  8
0
100
AcDbLine
 62
7
  6
CONTINUOUS
 10
6.5976138053
 20
16.9590860644
 11
6.539513851
 21
17.0171860187
  0
LINE
  5
352
100
AcDbEntity
  8
0
100
AcDbLine
 62
7
  6
CONTINUOUS
 10
6.3482411217
 20
17.2084587479
 11
6.2901411674
 21
17.2665587022
  0
LINE
  5
353
100
AcDbEntity
  8
0
100
AcDbLine
 62
7
  6
CONTINUOUS
 10
6.151001525
 20
17.4056983447
 11
6.0929015707
 21
17.4637982989
  0
LINE
  5
354
100
AcDbEntity
  8
0
100
AcDbLine
 62
7
  6
CONTINUOUS
 10
6.0145153319
 20
17.5421845378
 11
5.9564153776
 21
17.6002844921
  0
LINE
  5
355
100
AcDbEntity
  8
0
100
AcDbLine
 62
7
  6
CONTINUOUS
 10
5.9447476439
 20
17.6119522257
 11
5.8866476896
 21
17.67005218
  0
LINE
  5
356
100
AcDbEntity
  8
0
100
AcDbLine
 62
9
  6
CONTINUOUS
 10
6.429637689
 20
17.1274058206
 11
6.5378533039
 21
17.0191902058
  0
LINE
  5
357
100
AcDbEntity
  8
0
100
AcDbLine
 62
9
  6
CONTINUOUS
 10
6.6334795552
 20
16.9235639545
 11
6.8209106434
 21
16.7361328662
  0
LINE
  5
358
100
AcDbEntity
  8
0
100
AcDbLine
 62
9
  6
CONTINUOUS
 10
6.9024304729
 20
16.6546130367
 11
7.1347055106
 21
16.422337999
  0
LINE
  5
359
100
AcDbEntity
  8
0
100
AcDbLine
 62
9
  6
CONTINUOUS
 10
7.2162253401
 20
16.3408181695
 11
7.4714488821
 21
16.0855946275
  0
LINE
  5
35A
100
AcDbEntity
  8
0
100
AcDbLine
 62
9
  6
CONTINUOUS
 10
7.5529687116
 20
16.004074798
 11
7.8081922536
 21
15.7488512561
  0
LINE
  5
35B
100
AcDbEntity
  8
0
100
AcDbLine
 62
9
  6
CONTINUOUS
 10
7.8897120831
 20
15.6673314265
 11
8.1219871208
 21
15.4350563888
  0
LINE
  5
35C
100
AcDbEntity
  8
0
100
AcDbLine
 62
9
  6
CONTINUOUS
 10
8.2035069503
 20
15.3535365593
 11
8.3909380386
 21
15.1661054711
  0
LINE
  5
35D
100
AcDbEntity
  8
0
100
AcDbLine
 62
9
  6
CONTINUOUS
 10
8.4865642899
 20
15.0704792198
 11
8.5947799047
 21
14.9622636049
  0
LINE
  5
35E
100
AcDbEntity
  8
0
100
AcDbLine
 62
9
  6
CONTINUOUS
 10
8.8617076753
 20
14.7078206498
 11
8.8193511154
 21
14.7501772097
  0
LINE
  5
35F
100
AcDbEntity
  8
0
100
AcDbLine
 62
9
  6
CONTINUOUS
 10
8.8125235266
 20
14.7570047985
 11
8.7500552089
 21
14.8194731162
  0
LINE
  5
360
100
AcDbEntity
  8
0
100
AcDbLine
 62
9
  6
CONTINUOUS
 10
8.6725388649
 20
14.8969894603
 11
8.5006825254
 21
15.0688457997
  0
LINE
  5
361
100
AcDbEntity
  8
0
100
AcDbLine
 62
9
  6
CONTINUOUS
 10
8.4231661813
 20
15.1463621438
 11
8.210075538
 21
15.3594527872
  0
LINE
  5
362
100
AcDbEntity
  8
0
100
AcDbLine
 62
9
  6
CONTINUOUS
 10
8.1325591939
 20
15.4369691312
 11
7.8909351665
 21
15.6785931586
  0
LINE
  5
363
100
AcDbEntity
  8
0
100
AcDbLine
 62
9
  6
CONTINUOUS
 10
7.8134188225
 20
15.7561095027
 11
7.5572093766
 21
16.0123189485
  0
LINE
  5
364
100
AcDbEntity
  8
0
100
AcDbLine
 62
9
  6
CONTINUOUS
 10
7.4796930326
 20
16.0898352926
 11
7.2234835868
 21
16.3460447384
  0
LINE
  5
365
100
AcDbEntity
  8
0
100
AcDbLine
 62
9
  6
CONTINUOUS
 10
7.1459672427
 20
16.4235610824
 11
6.9043432153
 21
16.6651851098
  0
LINE
  5
366
100
AcDbEntity
  8
0
100
AcDbLine
 62
9
  6
CONTINUOUS
 10
6.8268268712
 20
16.7427014539
 11
6.6146049289
 21
16.9549233962
  0
LINE
  5
367
100
AcDbEntity
  8
0
100
AcDbLine
 62
9
  6
CONTINUOUS
 10
6.5362198838
 20
17.0333084413
 11
6.3643635444
 21
17.2051647808
  0
LINE
  5
368
100
AcDbEntity
  8
0
100
AcDbLine
 62
9
  6
CONTINUOUS
 10
6.2868472003
 20
17.2826811248
 11
6.2243788826
 21
17.3451494425
  0
LINE
  5
369
100
AcDbEntity
  8
0
100
AcDbLine
 62
9
  6
CONTINUOUS
 10
6.2175512938
 20
17.3519770313
 11
6.1751947339
 21
17.3943335912
  0
LINE
  5
36A
100
AcDbEntity
  8
0
100
AcDbLine
 62
9
  6
CONTINUOUS
 10
9.1578164945
 20
14.4185100441
 11
9.0087950605
 21
14.5675314782
  0
LINE
  5
36B
100
AcDbEntity
  8
0
100
AcDbLine
 62
9
  6
CONTINUOUS
 10
8.9515626135
 20
14.6247639252
 11
8.8723088674
 21
14.7040176713
  0
LINE
  5
36C
100
AcDbEntity
  8
0
100
AcDbLine
 62
9
  6
CONTINUOUS
 10
8.7543230167
 20
14.822003522
 11
8.6750692706
 21
14.9012572681
  0
LINE
  5
36D
100
AcDbEntity
  8
0
100
AcDbLine
 62
9
  6
CONTINUOUS
 10
8.5049503332
 20
15.0713762055
 11
8.4256965871
 21
15.1506299516
  0
LINE
  5
36E
100
AcDbEntity
  8
0
100
AcDbLine
 62
9
  6
CONTINUOUS
 10
8.2143433458
 20
15.3619831929
 11
8.1350895997
 21
15.441236939
  0
LINE
  5
36F
100
AcDbEntity
  8
0
100
AcDbLine
 62
9
  6
CONTINUOUS
 10
7.8952029743
 20
15.6811235644
 11
7.8159492282
 21
15.7603773105
  0
LINE
  5
370
100
AcDbEntity
  8
0
100
AcDbLine
 62
9
  6
CONTINUOUS
 10
7.5614771844
 20
16.0148493542
 11
7.4822234383
 21
16.0941031003
  0
LINE
  5
371
100
AcDbEntity
  8
0
100
AcDbLine
 62
9
  6
CONTINUOUS
 10
7.2277513946
 20
16.3485751441
 11
7.1484976485
 21
16.4278288902
  0
LINE
  5
372
100
AcDbEntity
  8
0
100
AcDbLine
 62
9
  6
CONTINUOUS
 10
6.9086110231
 20
16.6677155156
 11
6.829357277
 21
16.7469692617
  0
LINE
  5
373
100
AcDbEntity
  8
0
100
AcDbLine
 62
9
  6
CONTINUOUS
 10
6.6180040357
 20
16.958322503
 11
6.5387502896
 21
17.0375762491
  0
LINE
  5
374
100
AcDbEntity
  8
0
100
AcDbLine
 62
9
  6
CONTINUOUS
 10
6.3686313522
 20
17.2076951865
 11
6.2893776061
 21
17.2869489326
  0
LINE
  5
375
100
AcDbEntity
  8
0
100
AcDbLine
 62
9
  6
CONTINUOUS
 10
6.1713917554
 20
17.4049347833
 11
6.0921380093
 21
17.4841885294
  0
LINE
  5
376
100
AcDbEntity
  8
0
100
AcDbLine
 62
9
  6
CONTINUOUS
 10
6.0349055623
 20
17.5414209764
 11
5.8858841282
 21
17.6904424104
  0
LINE
  5
377
100
AcDbEntity
  8
0
100
AcDbLine
 62
9
  6
CONTINUOUS
 10
8.9740877588
 20
14.6245650778
 11
8.9635629986
 21
14.635089838
  0
LINE
  5
378
100
AcDbEntity
  8
0
100
AcDbLine
 62
9
  6
CONTINUOUS
 10
8.8826347801
 20
14.7160180564
 11
8.7663234018
 21
14.8323294347
  0
LINE
  5
379
100
AcDbEntity
  8
0
100
AcDbLine
 62
9
  6
CONTINUOUS
 10
8.6853951834
 20
14.9132576532
 11
8.5169507183
 21
15.0817021182
  0
LINE
  5
37A
100
AcDbEntity
  8
0
100
AcDbLine
 62
9
  6
CONTINUOUS
 10
8.4360224999
 20
15.1626303367
 11
8.2263437309
 21
15.3723091057
  0
LINE
  5
37B
100
AcDbEntity
  8
0
100
AcDbLine
 62
9
  6
CONTINUOUS
 10
8.1454155124
 20
15.4532373241
 11
7.9072033594
 21
15.6914494771
  0
LINE
  5
37C
100
AcDbEntity
  8
0
100
AcDbLine
 62
9
  6
CONTINUOUS
 10
7.826275141
 20
15.7723776956
 11
7.5734775695
 21
16.025175267
  0
LINE
  5
37D
100
AcDbEntity
  8
0
100
AcDbLine
 62
9
  6
CONTINUOUS
 10
7.4925493511
 20
16.1061034854
 11
7.2397517797
 21
16.3589010569
  0
LINE
  5
37E
100
AcDbEntity
  8
0
100
AcDbLine
 62
9
  6
CONTINUOUS
 10
7.1588235612
 20
16.4398292753
 11
6.9206114082
 21
16.6780414283
  0
LINE
  5
37F
100
AcDbEntity
  8
0
100
AcDbLine
 62
9
  6
CONTINUOUS
 10
6.8396831898
 20
16.7589696468
 11
6.6300044208
 21
16.9686484158
  0
LINE
  5
380
100
AcDbEntity
  8
0
100
AcDbLine
 62
9
  6
CONTINUOUS
 10
6.5490762023
 20
17.0495766342
 11
6.3806317373
 21
17.2180210993
  0
LINE
  5
381
100
AcDbEntity
  8
0
100
AcDbLine
 62
9
  6
CONTINUOUS
 10
6.2997035188
 20
17.2989493177
 11
6.1833921405
 21
17.415260696
  0
LINE
  5
382
100
AcDbEntity
  8
0
100
AcDbLine
 62
9
  6
CONTINUOUS
 10
6.1024639221
 20
17.4961889145
 11
6.0919391619
 21
17.5067136747
  0
LINE
  5
383
100
AcDbEntity
  8
0
100
AcDbLine
 62
7
  6
CONTINUOUS
 10
6.048118714
 20
17.5527904325
 11
6.1035074655
 21
17.4974016811
  0
LINE
  5
384
100
AcDbEntity
  8
0
100
AcDbLine
 62
7
  6
CONTINUOUS
 10
6.1846049072
 20
17.4163042394
 11
6.3007470622
 21
17.3001620844
  0
LINE
  5
385
100
AcDbEntity
  8
0
100
AcDbLine
 62
7
  6
CONTINUOUS
 10
6.3818445039
 20
17.2190646427
 11
6.5501197457
 21
17.0507894008
  0
LINE
  5
386
100
AcDbEntity
  8
0
100
AcDbLine
 62
7
  6
CONTINUOUS
 10
6.6312171874
 20
16.9696919591
 11
6.8407267331
 21
16.7601824134
  0
LINE
  5
387
100
AcDbEntity
  8
0
100
AcDbLine
 62
7
  6
CONTINUOUS
 10
6.9218241748
 20
16.6790849717
 11
7.1598671046
 21
16.441042042
  0
LINE
  5
388
100
AcDbEntity
  8
0
100
AcDbLine
 62
7
  6
CONTINUOUS
 10
7.2409645463
 20
16.3599446003
 11
7.4935928945
 21
16.1073162521
  0
LINE
  5
389
100
AcDbEntity
  8
0
100
AcDbLine
 62
7
  6
CONTINUOUS
 10
7.5746903362
 20
16.0262188104
 11
7.8273186844
 21
15.7735904622
  0
LINE
  5
38A
100
AcDbEntity
  8
0
100
AcDbLine
 62
7
  6
CONTINUOUS
 10
7.9084161261
 20
15.6924930205
 11
8.1464590558
 21
15.4544500908
  0
LINE
  5
38B
100
AcDbEntity
  8
0
100
AcDbLine
 62
7
  6
CONTINUOUS
 10
8.2275564975
 20
15.373352649
 11
8.4370660432
 21
15.1638431033
  0
LINE
  5
38C
100
AcDbEntity
  8
0
100
AcDbLine
 62
7
  6
CONTINUOUS
 10
8.5181634849
 20
15.0827456616
 11
8.6864387268
 21
14.9144704198
  0
LINE
  5
38D
100
AcDbEntity
  8
0
100
AcDbLine
 62
7
  6
CONTINUOUS
 10
8.7675361685
 20
14.8333729781
 11
8.8836783235
 21
14.7172308231
  0
LINE
  5
38E
100
AcDbEntity
  8
0
100
AcDbLine
 62
7
  6
CONTINUOUS
 10
8.9647757652
 20
14.6361333814
 11
9.0201645166
 21
14.5807446299
  0
LINE
  5
38F
100
AcDbEntity
  8
0
100
AcDbLine
 62
9
  6
CONTINUOUS
 10
6.0546700997
 20
17.5520569696
 11
6.1061982547
 21
17.5005288146
  0
LINE
  5
390
100
AcDbEntity
  8
0
100
AcDbLine
 62
9
  6
CONTINUOUS
 10
6.1911593215
 20
17.4155677478
 11
6.3034378515
 21
17.3032892178
  0
LINE
  5
391
100
AcDbEntity
  8
0
100
AcDbLine
 62
9
  6
CONTINUOUS
 10
6.3849716374
 20
17.2217554319
 11
6.552810535
 21
17.0539165343
  0
LINE
  5
392
100
AcDbEntity
  8
0
100
AcDbLine
 62
9
  6
CONTINUOUS
 10
6.6343443209
 20
16.9723827484
 11
6.8434175224
 21
16.7633095469
  0
LINE
  5
393
100
AcDbEntity
  8
0
100
AcDbLine
 62
9
  6
CONTINUOUS
 10
6.9249513083
 20
16.681775761
 11
7.1625578939
 21
16.4441691754
  0
LINE
  5
394
100
AcDbEntity
  8
0
100
AcDbLine
 62
9
  6
CONTINUOUS
 10
7.2440916798
 20
16.3626353895
 11
7.4962836838
 21
16.1104433856
  0
LINE
  5
395
100
AcDbEntity
  8
0
100
AcDbLine
 62
9
  6
CONTINUOUS
 10
7.5778174697
 20
16.0289095997
 11
7.8300094736
 21
15.7767175957
  0
LINE
  5
396
100
AcDbEntity
  8
0
100
AcDbLine
 62
9
  6
CONTINUOUS
 10
7.9115432595
 20
15.6951838098
 11
8.1491498451
 21
15.4575772242
  0
LINE
  5
397
100
AcDbEntity
  8
0
100
AcDbLine
 62
9
  6
CONTINUOUS
 10
8.230683631
 20
15.3760434383
 11
8.4397568325
 21
15.1669702368
  0
LINE
  5
398
100
AcDbEntity
  8
0
100
AcDbLine
 62
9
  6
CONTINUOUS
 10
8.5212906184
 20
15.0854364509
 11
8.689129516
 21
14.9175975533
  0
LINE
  5
399
100
AcDbEntity
  8
0
100
AcDbLine
 62
9
  6
CONTINUOUS
 10
8.7706633019
 20
14.8360637674
 11
8.8829418319
 21
14.7237852374
  0
LINE
  5
39A
100
AcDbEntity
  8
0
100
AcDbLine
 62
9
  6
CONTINUOUS
 10
8.9679028987
 20
14.6388241706
 11
9.0194310537
 21
14.5872960156
  0
LINE
  5
39B
100
AcDbEntity
  8
0
100
AcDbLine
 62
7
  6
CONTINUOUS
 10
5.6820939458
 20
17.9567309975
 11
9.4241050816
 21
14.2147198617
  0
LINE
  5
39C
100
AcDbEntity
  8
0
100
AcDbLine
 62
9
  6
CONTINUOUS
 10
9.4321315813
 20
14.2112497735
 11
5.6786238576
 21
17.9647574972
  0
LINE
  5
39D
100
AcDbEntity
  8
0
100
AcDbLine
 62
9
  6
CONTINUOUS
 10
9.7509772828
 20
14.1258153253
 11
5.5931894094
 21
18.2836031987
  0
LINE
  5
39E
100
AcDbEntity
  8
0
100
AcDbLine
 62
9
  6
CONTINUOUS
 10
9.7799550576
 20
14.1335798967
 11
5.6009539808
 21
18.3125809735
  0
LINE
  5
39F
100
AcDbEntity
  8
0
100
AcDbLine
 62
7
  6
CONTINUOUS
 10
14.2977997941
 20
-0.925108196
 11
14.2977997941
 21
0.174891804
  0
LINE
  5
3A0
100
AcDbEntity
  8
0
100
AcDbLine
 62
9
  6
CONTINUOUS
 10
14.3577997941
 20
-0.985108196
 11
14.3577997941
 21
0.234891804
  0
LINE
  5
3A1
100
AcDbEntity
  8
0
100
AcDbLine
 62
7
  6
CONTINUOUS
 10
14.4126327354
 20
5.851891804
 11
14.4126327354
 21
6.651891804
  0
LINE
  5
3A2
100
AcDbEntity
  8
0
100
AcDbLine
 62
9
  6
CONTINUOUS
 10
14.4326327354
 20
5.831891804
 11
14.4326327354
 21
6.671891804
  0
LINE
  5
3A3
100
AcDbEntity
  8
0
100
AcDbLine
 62
9
  6
CONTINUOUS
 10
14.7676327354
 20
5.831891804
 11
14.7676327354
 21
6.671891804
  0
LINE
  5
3A4
100
AcDbEntity
  8
0
100
AcDbLine
 62
7
  6
CONTINUOUS
 10
14.7876327354
 20
5.851891804
 11
14.7876327354
 21
6.651891804
  0
LINE
  5
3A5
100
AcDbEntity
  8
0
100
AcDbLine
 62
9
  6
CONTINUOUS
 10
14.8076327354
 20
6.521891804
 11
14.8076327354
 21
5.981891804
  0
LINE
  5
3A6
100
AcDbEntity
  8
0
100
AcDbLine
 62
9
  6
CONTINUOUS
 10
14.9667997941
 20
5.981891804
 11
14.9667997941
 21
6.521891804
  0
LINE
  5
3A7
100
AcDbEntity
  8
0
100
AcDbLine
 62
7
  6
CONTINUOUS
 10
14.9867997941
 20
6.001891804
 11
14.9867997941
 21
6.501891804
  0
LINE
  5
3A8
100
AcDbEntity
  8
0
100
AcDbLine
 62
9
  6
CONTINUOUS
 10
10.4012752848
 20
14.7549001239
 11
6.222274208
 21
18.9339012007
  0
LINE
  5
3A9
100
AcDbEntity
  8
0
100
AcDbLine
 62
7
  6
CONTINUOUS
 10
6.2647006149
 20
18.9339012007
 11
10.4012752848
 21
14.7973265308
  0
LINE
  5
3AA
100
AcDbEntity
  8
0
100
AcDbLine
 62
9
  6
CONTINUOUS
 10
7.3218252527
 20
17.9192029697
 11
9.3865770538
 21
15.8544511686
  0
LINE
  5
3AB
100
AcDbEntity
  8
0
100
AcDbLine
 62
9
  6
CONTINUOUS
 10
9.5499187202
 20
16.0177928351
 11
7.4851669192
 21
18.0825446362
  0
LINE
  5
3AC
100
AcDbEntity
  8
0
100
AcDbLine
 62
7
  6
CONTINUOUS
 10
7.5275933261
 20
18.0825446362
 11
9.5499187202
 21
16.060219242
  0
LINE
  5
3AD
100
AcDbEntity
  8
0
100
AcDbLine
 62
9
  6
CONTINUOUS
 10
8.0649944798
 20
17.5875698893
 11
9.0549439734
 21
16.5976203957
  0
LINE
  5
3AE
100
AcDbEntity
  8
0
100
AcDbLine
 62
9
  6
CONTINUOUS
 10
9.1850516212
 20
16.7277280434
 11
8.1951021275
 21
17.7176775371
  0
LINE
  5
3AF
100
AcDbEntity
  8
0
100
AcDbLine
 62
7
  6
CONTINUOUS
 10
8.2233863987
 20
17.7176775371
 11
9.1850516212
 21
16.7560123146
  0
LINE
  5
3B0
100
AcDbEntity
  8
0
100
AcDbLine
 62
7
  6
CONTINUOUS
 10
15.1677997941
 20
7.401891804
 11
15.1677997941
 21
9.441891804
  0
LINE
  5
3B1
100
AcDbEntity
  8
0
100
AcDbLine
 62
9
  6
CONTINUOUS
 10
15.1977997941
 20
7.371891804
 11
15.1977997941
 21
9.471891804
  0
LINE
  5
3B2
100
AcDbEntity
  8
0
100
AcDbLine
 62
7
  6
CONTINUOUS
 10
15.4777997941
 20
-1.320108196
 11
15.4777997941
 21
0.569891804
  0
LINE
  5
3B3
100
AcDbEntity
  8
0
100
AcDbLine
 62
7
  6
CONTINUOUS
 10
15.4777997941
 20
18.439891804
 11
15.4777997941
 21
20.809891804
  0
LINE
  5
3B4
100
AcDbEntity
  8
0
100
AcDbLine
 62
9
  6
CONTINUOUS
 10
15.5177997941
 20
-1.360108196
 11
15.5177997941
 21
0.609891804
  0
LINE
  5
3B5
100
AcDbEntity
  8
0
100
AcDbLine
 62
7
  6
CONTINUOUS
 10
15.5177997941
 20
4.904891804
 11
15.5177997941
 21
10.344891804
  0
LINE
  5
3B6
100
AcDbEntity
  8
0
100
AcDbLine
 62
9
  6
CONTINUOUS
 10
15.5177997941
 20
18.399891804
 11
15.5177997941
 21
20.849891804
  0
LINE
  5
3B7
100
AcDbEntity
  8
0
100
AcDbLine
 62
9
  6
CONTINUOUS
 10
15.5477997941
 20
4.874891804
 11
15.5477997941
 21
10.374891804
  0
LINE
  5
3B8
100
AcDbEntity
  8
0
100
AcDbLine
 62
7
  6
CONTINUOUS
 10
15.8277997941
 20
-1.360108196
 11
15.8277997941
 21
0.609891804
  0
LINE
  5
3B9
100
AcDbEntity
  8
0
100
AcDbLine
 62
7
  6
CONTINUOUS
 10
15.8277997941
 20
4.874891804
 11
15.8277997941
 21
10.374891804
  0
LINE
  5
3BA
100
AcDbEntity
  8
0
100
AcDbLine
 62
7
  6
CONTINUOUS
 10
15.8277997941
 20
18.399891804
 11
15.8277997941
 21
20.849891804
  0
LINE
  5
3BB
100
AcDbEntity
  8
0
100
AcDbLine
 62
7
  6
CONTINUOUS
 10
9.4321315813
 20
14.2112497735
 11
9.7509772828
 21
14.1258153253
  0
LINE
  5
3BC
100
AcDbEntity
  8
0
100
AcDbLine
 62
9
  6
CONTINUOUS
 10
8.2233863987
 20
17.7459618083
 11
9.2133358924
 21
16.7560123146
  0
LINE
  5
3BD
100
AcDbEntity
  8
0
100
AcDbLine
 62
7
  6
CONTINUOUS
 10
9.0357160579
 20
17.2009185124
 11
8.6682925965
 21
17.5683419738
  0
LINE
  5
3BE
100
AcDbEntity
  8
0
100
AcDbLine
 62
7
  6
CONTINUOUS
 10
9.5944664475
 20
17.1371428697
 11
8.6045169538
 21
18.1270923634
  0
LINE
  5
3BF
100
AcDbEntity
  8
0
100
AcDbLine
 62
9
  6
CONTINUOUS
 10
9.4135442976
 20
17.4573908028
 11
8.9247648869
 21
17.9461702135
  0
LINE
  5
3C0
100
AcDbEntity
  8
0
100
AcDbLine
 62
9
  6
CONTINUOUS
 10
9.4935442895
 20
17.5374268829
 11
9.004800967
 21
18.0261702054
  0
LINE
  5
3C1
100
AcDbEntity
  8
0
100
AcDbLine
 62
9
  6
CONTINUOUS
 10
9.004800967
 20
18.0994863702
 11
9.5668604542
 21
17.5374268829
  0
LINE
  5
3C2
100
AcDbEntity
  8
0
100
AcDbLine
 62
7
  6
CONTINUOUS
 10
8.8194276213
 20
14.7501784466
 11
8.8193511154
 21
14.7501772097
  0
LINE
  5
3C3
100
AcDbEntity
  8
0
100
AcDbLine
 62
9
  6
CONTINUOUS
 10
9.0722392608
 20
18.2200480763
 11
9.6874221604
 21
17.6048651767
  0
LINE
  5
3C4
100
AcDbEntity
  8
0
100
AcDbLine
 62
7
  6
CONTINUOUS
 10
9.9275753164
 20
17.8202695954
 11
9.2876436795
 21
18.4602012324
  0
LINE
  5
3C5
100
AcDbEntity
  8
0
100
AcDbLine
 62
7
  6
CONTINUOUS
 10
8.0344470429
 20
15.4552113325
 11
8.0344930431
 21
15.4552182008
  0
LINE
  5
3C6
100
AcDbEntity
  8
0
100
AcDbLine
 62
9
  6
CONTINUOUS
 10
10.647294971
 20
18.6053966272
 11
10.0727707113
 21
19.1799208869
  0
LINE
  5
3C7
100
AcDbEntity
  8
0
100
AcDbLine
 62
7
  6
CONTINUOUS
 10
9.4935442895
 20
17.5374268829
 11
9.5668604542
 21
17.5374268829
  0
LINE
  5
3C8
100
AcDbEntity
  8
0
100
AcDbLine
 62
7
  6
CONTINUOUS
 10
9.9063129227
 20
17.9051178566
 11
9.937913564
 21
17.896668424
  0
LINE
  5
3C9
100
AcDbEntity
  8
0
100
AcDbLine
 62
7
  6
CONTINUOUS
 10
9.9581372288
 20
17.954318162
 11
9.987671491
 21
17.9464210235
  0
LINE
  5
3CA
100
AcDbEntity
  8
0
100
AcDbLine
 62
7
  6
CONTINUOUS
 10
10.0099316456
 20
18.0035407453
 11
10.0374314871
 21
17.9961876729
  0
LINE
  5
3CB
100
AcDbEntity
  8
0
100
AcDbLine
 62
7
  6
CONTINUOUS
 10
10.0617677128
 20
18.0527267188
 11
10.0871774675
 21
18.0459324095
  0
LINE
  5
3CC
100
AcDbEntity
  8
0
100
AcDbLine
 62
7
  6
CONTINUOUS
 10
9.937913564
 20
17.896668424
 11
9.9386176499
 21
17.8967193061
  0
LINE
  5
3CD
100
AcDbEntity
  8
0
100
AcDbLine
 62
7
  6
CONTINUOUS
 10
9.9876714924
 20
17.9464210249
 11
9.9883698567
 21
17.9464715129
  0
LINE
  5
3CE
100
AcDbEntity
  8
0
100
AcDbLine
 62
7
  6
CONTINUOUS
 10
10.0374314871
 20
17.9961876729
 11
10.0381369983
 21
17.9962386544
  0
LINE
  5
3CF
100
AcDbEntity
  8
0
100
AcDbLine
 62
7
  6
CONTINUOUS
 10
10.0871774676
 20
18.0459324095
 11
10.0878816431
 21
18.0459832993
  0
LINE
  5
3D0
100
AcDbEntity
  8
0
100
AcDbLine
 62
7
  6
CONTINUOUS
 10
9.3546821006
 20
18.4611435274
 11
9.3539397589
 21
18.4610899345
  0
LINE
  5
3D1
100
AcDbEntity
  8
0
100
AcDbLine
 62
7
  6
CONTINUOUS
 10
9.4060438766
 20
18.5125021654
 11
9.4052980675
 21
18.5124482431
  0
LINE
  5
3D2
100
AcDbEntity
  8
0
100
AcDbLine
 62
7
  6
CONTINUOUS
 10
9.8515613375
 20
17.7442556164
 11
9.8268126001
 21
17.7442556164
  0
LINE
  5
3D3
100
AcDbEntity
  8
0
100
AcDbLine
 62
7
  6
CONTINUOUS
 10
15.5177997941
 20
18.399891804
 11
15.8277997941
 21
18.399891804
  0
LINE
  5
3D4
100
AcDbEntity
  8
0
100
AcDbLine
 62
9
  6
CONTINUOUS
 10
15.4777997941
 20
18.439891804
 11
15.8277997941
 21
18.439891804
  0
LINE
  5
3D5
100
AcDbEntity
  8
0
100
AcDbLine
 62
7
  6
CONTINUOUS
 10
9.3854258354
 20
18.4529241275
 11
9.3546820993
 21
18.4611435261
  0
LINE
  5
3D6
100
AcDbEntity
  8
0
100
AcDbLine
 62
7
  6
CONTINUOUS
 10
9.4344592902
 20
18.5049052325
 11
9.4060438769
 21
18.5125021657
  0
LINE
  5
3D7
100
AcDbEntity
  8
0
100
AcDbLine
 62
7
  6
CONTINUOUS
 10
9.4837156868
 20
18.556663771
 11
9.4572765735
 21
18.5637323512
  0
LINE
  5
3D8
100
AcDbEntity
  8
0
100
AcDbLine
 62
7
  6
CONTINUOUS
 10
9.4572765735
 20
18.5637323512
 11
9.4565280622
 21
18.5636782379
  0
LINE
  5
3D9
100
AcDbEntity
  8
0
100
AcDbLine
 62
7
  6
CONTINUOUS
 10
15.4777997941
 20
19.218641804
 11
12.1277997941
 21
19.218641804
  0
LINE
  5
3DA
100
AcDbEntity
  8
0
100
AcDbLine
 62
7
  6
CONTINUOUS
 10
15.4777997941
 20
20.031141804
 11
12.1277997941
 21
20.031141804
  0
LINE
  5
3DB
100
AcDbEntity
  8
0
100
AcDbLine
 62
9
  6
CONTINUOUS
 10
15.4777997941
 20
20.809891804
 11
15.8277997941
 21
20.809891804
  0
LINE
  5
3DC
100
AcDbEntity
  8
0
100
AcDbLine
 62
7
  6
CONTINUOUS
 10
15.5177997941
 20
20.849891804
 11
15.8277997941
 21
20.849891804
  0
ARC
  5
3DD
100
AcDbEntity
  8
0
100
AcDbCircle
 62
7
  6
CONTINUOUS
 10
6.1373744519
 20
13.330224879
 40
2.8491650654
100
AcDbArc
 50
46.9633057603
 51
47.5447967937
  0
ARC
  5
3DE
100
AcDbEntity
  8
0
100
AcDbCircle
 62
7
  6
CONTINUOUS
 10
4.9156286112
 20
14.7793838077
 40
2.6882447381
100
AcDbArc
 50
42.2891951464
 51
43.0494904249
  0
ARC
  5
3DF
100
AcDbEntity
  8
0
100
AcDbCircle
 62
7
  6
CONTINUOUS
 10
6.9775877502
 20
13.6372975108
 40
2.0604316344
100
AcDbArc
 50
47.2276192755
 51
48.6818234543
  0
ARC
  5
3E0
100
AcDbEntity
  8
0
100
AcDbCircle
 62
7
  6
CONTINUOUS
 10
6.775206883
 20
14.0268987895
 40
1.904609587
100
AcDbArc
 50
47.6131419469
 51
47.7810118968
  0
ARC
  5
3E1
100
AcDbEntity
  8
0
100
AcDbCircle
 62
7
  6
CONTINUOUS
 10
7.5286537567
 20
14.2632699664
 40
1.2264542492
100
AcDbArc
 50
48.9013426836
 51
49.064510913
  0
ARC
  5
3E2
100
AcDbEntity
  8
0
100
AcDbCircle
 62
7
  6
CONTINUOUS
 10
8.0058510393
 20
14.1802767772
 40
0.9787286007
100
AcDbArc
 50
47.1308833506
 51
47.5041634478
  0
ARC
  5
3E3
100
AcDbEntity
  8
0
100
AcDbCircle
 62
7
  6
CONTINUOUS
 10
7.11398735
 20
14.9967325076
 40
0.9637615613
100
AcDbArc
 50
46.9095955767
 51
47.198715791
  0
ARC
  5
3E4
100
AcDbEntity
  8
0
100
AcDbCircle
 62
7
  6
CONTINUOUS
 10
7.7088975736
 20
14.4714929782
 40
0.9510553281
100
AcDbArc
 50
49.0485598492
 51
49.4568237324
  0
ARC
  5
3E5
100
AcDbEntity
  8
0
100
AcDbCircle
 62
7
  6
CONTINUOUS
 10
8.2513222845
 20
14.1448575925
 40
0.8304643496
100
AcDbArc
 50
47.4861808618
 51
48.0800075882
  0
ARC
  5
3E6
100
AcDbEntity
  8
0
100
AcDbCircle
 62
7
  6
CONTINUOUS
 10
8.8949262902
 20
14.8538738272
 40
0.1284257244
100
AcDbArc
 50
232.0666001411
 51
232.380529699
  0
ARC
  5
3E7
100
AcDbEntity
  8
0
100
AcDbCircle
 62
7
  6
CONTINUOUS
 10
8.9068892301
 20
14.5191641397
 40
0.125
100
AcDbArc
 50
53.2386408115
 51
57.4803903978
  0
ARC
  5
3E8
100
AcDbEntity
  8
0
100
AcDbCircle
 62
7
  6
CONTINUOUS
 10
9.7587418541
 20
14.1547931001
 40
0.03
100
AcDbArc
 50
255.0
 51
315.0
  0
ARC
  5
3E9
100
AcDbEntity
  8
0
100
AcDbCircle
 62
7
  6
CONTINUOUS
 10
9.4398961526
 20
14.2402275483
 40
0.03
100
AcDbArc
 50
238.2395482929
 51
255.0
  0
ARC
  5
3EA
100
AcDbEntity
  8
0
100
AcDbCircle
 62
7
  6
CONTINUOUS
 10
8.4876051938
 20
14.9983839977
 40
0.015
100
AcDbArc
 50
225.0
 51
310.7108466712
  0
ARC
  5
3EB
100
AcDbEntity
  8
0
100
AcDbCircle
 62
7
  6
CONTINUOUS
 10
8.8280212958
 20
14.7003943026
 40
0.015
100
AcDbArc
 50
225.0
 51
310.7108466712
  0
ARC
  5
3EC
100
AcDbEntity
  8
0
100
AcDbCircle
 62
7
  6
CONTINUOUS
 10
8.7255882356
 20
14.8028273628
 40
0.015
100
AcDbArc
 50
139.2891533288
 51
225.0
  0
ARC
  5
3ED
100
AcDbEntity
  8
0
100
AcDbCircle
 62
7
  6
CONTINUOUS
 10
8.7836881899
 20
14.7447274085
 40
0.015
100
AcDbArc
 50
225.0
 51
310.7108466712
  0
ARC
  5
3EE
100
AcDbEntity
  8
0
100
AcDbCircle
 62
7
  6
CONTINUOUS
 10
8.5956101458
 20
14.9328054526
 40
0.015
100
AcDbArc
 50
139.2891533288
 51
225.0
  0
ARC
  5
3EF
100
AcDbEntity
  8
0
100
AcDbCircle
 62
7
  6
CONTINUOUS
 10
8.6537101001
 20
14.8747054983
 40
0.015
100
AcDbArc
 50
225.0
 51
310.7108466712
  0
ARC
  5
3F0
100
AcDbEntity
  8
0
100
AcDbCircle
 62
7
  6
CONTINUOUS
 10
9.0899329115
 20
14.4879801615
 40
0.015
100
AcDbArc
 50
191.5559404584
 51
225.0
  0
ARC
  5
3F1
100
AcDbEntity
  8
0
100
AcDbCircle
 62
7
  6
CONTINUOUS
 10
9.1480328658
 20
14.4298802073
 40
0.015
100
AcDbArc
 50
225.0
 51
310.7108466712
  0
ARC
  5
3F2
100
AcDbEntity
  8
0
100
AcDbCircle
 62
7
  6
CONTINUOUS
 10
9.0201652236
 20
14.5577478495
 40
0.015
100
AcDbArc
 50
139.2891533288
 51
225.0
  0
ARC
  5
3F3
100
AcDbEntity
  8
0
100
AcDbCircle
 62
7
  6
CONTINUOUS
 10
9.0782651779
 20
14.4996478952
 40
0.015
100
AcDbArc
 50
225.0
 51
310.7108466712
  0
ARC
  5
3F4
100
AcDbEntity
  8
0
100
AcDbCircle
 62
7
  6
CONTINUOUS
 10
8.8836790305
 20
14.6942340426
 40
0.015
100
AcDbArc
 50
139.2891533288
 51
225.0
  0
ARC
  5
3F5
100
AcDbEntity
  8
0
100
AcDbCircle
 62
7
  6
CONTINUOUS
 10
8.9417789848
 20
14.6361340883
 40
0.015
100
AcDbArc
 50
225.0
 51
310.7108466712
  0
ARC
  5
3F6
100
AcDbEntity
  8
0
100
AcDbCircle
 62
7
  6
CONTINUOUS
 10
8.6864394337
 20
14.8914736393
 40
0.015
100
AcDbArc
 50
139.2891533288
 51
225.0
  0
ARC
  5
3F7
100
AcDbEntity
  8
0
100
AcDbCircle
 62
7
  6
CONTINUOUS
 10
8.744539388
 20
14.8333736851
 40
0.015
100
AcDbArc
 50
225.0
 51
310.7108466712
  0
ARC
  5
3F8
100
AcDbEntity
  8
0
100
AcDbCircle
 62
7
  6
CONTINUOUS
 10
12.077774424
 20
-3.213108196
 40
3.213
100
AcDbArc
 50
90.0
 51
173.1538786425
  0
ARC
  5
3F9
100
AcDbEntity
  8
0
100
AcDbCircle
 62
7
  6
CONTINUOUS
 10
12.077774424
 20
-3.213108196
 40
2.463
100
AcDbArc
 50
90.0
 51
171.0541218225
  0
ARC
  5
3FA
100
AcDbEntity
  8
0
100
AcDbCircle
 62
7
  6
CONTINUOUS
 10
14.3577997941
 20
0.174891804
 40
0.06
100
AcDbArc
 50
90.0
 51
180.0
  0
ARC
  5
3FB
100
AcDbEntity
  8
0
100
AcDbCircle
 62
7
  6
CONTINUOUS
 10
14.3577997941
 20
-0.925108196
 40
0.06
100
AcDbArc
 50
180.0
 51
270.0
  0
ARC
  5
3FC
100
AcDbEntity
  8
0
100
AcDbCircle
 62
7
  6
CONTINUOUS
 10
12.8877997941
 20
5.451891804
 40
0.03
100
AcDbArc
 50
270.0
 51
360.0
  0
ARC
  5
3FD
100
AcDbEntity
  8
0
100
AcDbCircle
 62
7
  6
CONTINUOUS
 10
12.4977997941
 20
5.451891804
 40
0.03
100
AcDbArc
 50
180.0
 51
270.0
  0
ARC
  5
3FE
100
AcDbEntity
  8
0
100
AcDbCircle
 62
7
  6
CONTINUOUS
 10
14.7676327354
 20
5.851891804
 40
0.02
100
AcDbArc
 50
270.0
 51
360.0
  0
ARC
  5
3FF
100
AcDbEntity
  8
0
100
AcDbCircle
 62
7
  6
CONTINUOUS
 10
14.4326327354
 20
5.851891804
 40
0.02
100
AcDbArc
 50
180.0
 51
270.0
  0
ARC
  5
400
100
AcDbEntity
  8
0
100
AcDbCircle
 62
7
  6
CONTINUOUS
 10
12.9777997941
 20
8.036891804
 40
0.06
100
AcDbArc
 50
90.0
 51
179.999999999
  0
ARC
  5
401
100
AcDbEntity
  8
0
100
AcDbCircle
 62
7
  6
CONTINUOUS
 10
12.9777997941
 20
8.806891804
 40
0.06
100
AcDbArc
 50
180.000000001
 51
270.0
  0
ARC
  5
402
100
AcDbEntity
  8
0
100
AcDbCircle
 62
7
  6
CONTINUOUS
 10
13.5277997941
 20
9.061891804
 40
0.03
100
AcDbArc
 50
90.0
 51
180.0
  0
ARC
  5
403
100
AcDbEntity
  8
0
100
AcDbCircle
 62
7
  6
CONTINUOUS
 10
13.5277997941
 20
7.781891804
 40
0.03
100
AcDbArc
 50
180.0
 51
270.0
  0
ARC
  5
404
100
AcDbEntity
  8
0
100
AcDbCircle
 62
7
  6
CONTINUOUS
 10
12.8877997941
 20
9.041891804
 40
0.03
100
AcDbArc
 50
0.0
 51
90.0
  0
ARC
  5
405
100
AcDbEntity
  8
0
100
AcDbCircle
 62
7
  6
CONTINUOUS
 10
12.4977997941
 20
9.041891804
 40
0.03
100
AcDbArc
 50
90.0
 51
180.0
  0
ARC
  5
406
100
AcDbEntity
  8
0
100
AcDbCircle
 62
7
  6
CONTINUOUS
 10
10.3800620814
 20
14.7761133273
 40
0.03
100
AcDbArc
 50
315.0
 51
45.0
  0
ARC
  5
407
100
AcDbEntity
  8
0
100
AcDbCircle
 62
7
  6
CONTINUOUS
 10
14.7676327354
 20
6.651891804
 40
0.02
100
AcDbArc
 50
0.0
 51
90.0
  0
ARC
  5
408
100
AcDbEntity
  8
0
100
AcDbCircle
 62
7
  6
CONTINUOUS
 10
14.8076327354
 20
6.541891804
 40
0.02
100
AcDbArc
 50
180.0
 51
270.0
  0
ARC
  5
409
100
AcDbEntity
  8
0
100
AcDbCircle
 62
7
  6
CONTINUOUS
 10
14.8076327354
 20
5.961891804
 40
0.02
100
AcDbArc
 50
90.0
 51
180.0
  0
ARC
  5
40A
100
AcDbEntity
  8
0
100
AcDbCircle
 62
7
  6
CONTINUOUS
 10
14.4326327354
 20
6.651891804
 40
0.02
100
AcDbArc
 50
90.0
 51
180.0
  0
ARC
  5
40B
100
AcDbEntity
  8
0
100
AcDbCircle
 62
7
  6
CONTINUOUS
 10
6.4148071874
 20
15.6007269507
 40
1.0311110336
100
AcDbArc
 50
42.8026059747
 51
43.0603184953
  0
ARC
  5
40C
100
AcDbEntity
  8
0
100
AcDbCircle
 62
7
  6
CONTINUOUS
 10
5.8188332256
 20
16.1379040079
 40
1.1096269725
100
AcDbArc
 50
40.674015002
 51
41.0403194256
  0
ARC
  5
40D
100
AcDbEntity
  8
0
100
AcDbCircle
 62
7
  6
CONTINUOUS
 10
5.8717632608
 20
16.3147901556
 40
0.9779889479
100
AcDbArc
 50
40.7423562711
 51
40.8889032545
  0
ARC
  5
40E
100
AcDbEntity
  8
0
100
AcDbCircle
 62
7
  6
CONTINUOUS
 10
5.688340778
 20
16.5459810354
 40
0.9431750532
100
AcDbArc
 50
39.6649183631
 51
39.8687702178
  0
ARC
  5
40F
100
AcDbEntity
  8
0
100
AcDbCircle
 62
7
  6
CONTINUOUS
 10
6.4752917408
 20
16.2890043724
 40
0.53826439
100
AcDbArc
 50
40.3216754631
 51
40.5451342184
  0
ARC
  5
410
100
AcDbEntity
  8
0
100
AcDbCircle
 62
7
  6
CONTINUOUS
 10
6.8919796419
 20
16.1771873329
 40
0.301920371
100
AcDbArc
 50
46.283891002
 51
47.2723293552
  0
ARC
  5
411
100
AcDbEntity
  8
0
100
AcDbCircle
 62
7
  6
CONTINUOUS
 10
6.7358121518
 20
16.5354607117
 40
0.2085689629
100
AcDbArc
 50
37.4948431536
 51
38.0846329721
  0
ARC
  5
412
100
AcDbEntity
  8
0
100
AcDbCircle
 62
7
  6
CONTINUOUS
 10
6.9877272487
 20
16.2584955411
 40
0.1986933591
100
AcDbArc
 50
48.0137092944
 51
48.8801007367
  0
ARC
  5
413
100
AcDbEntity
  8
0
100
AcDbCircle
 62
7
  6
CONTINUOUS
 10
7.0355349734
 20
16.293797671
 40
0.1695593025
100
AcDbArc
 50
49.5055834942
 51
49.8848385521
  0
ARC
  5
414
100
AcDbEntity
  8
0
100
AcDbCircle
 62
7
  6
CONTINUOUS
 10
6.5203435047
 20
16.899139609
 40
0.1396340409
100
AcDbArc
 50
35.1359232824
 51
35.4909972674
  0
ARC
  5
415
100
AcDbEntity
  8
0
100
AcDbCircle
 62
7
  6
CONTINUOUS
 10
6.9362460718
 20
16.6754407986
 40
0.0663931954
100
AcDbArc
 50
229.0594092855
 51
229.2352823031
  0
ARC
  5
416
100
AcDbEntity
  8
0
100
AcDbCircle
 62
7
  6
CONTINUOUS
 10
6.9340349751
 20
16.6728485983
 40
0.0629861274
100
AcDbArc
 50
229.2189905134
 51
229.8303286534
  0
ARC
  5
417
100
AcDbEntity
  8
0
100
AcDbCircle
 62
7
  6
CONTINUOUS
 10
6.6690650856
 20
16.9658484344
 40
0.0552657871
100
AcDbArc
 50
229.2548204358
 51
229.9168976436
  0
ARC
  5
418
100
AcDbEntity
  8
0
100
AcDbCircle
 62
7
  6
CONTINUOUS
 10
6.6631209587
 20
16.9587540462
 40
0.0460103832
100
AcDbArc
 50
229.8918131582
 51
230.8168623342
  0
ARC
  5
419
100
AcDbEntity
  8
0
100
AcDbCircle
 62
7
  6
CONTINUOUS
 10
7.0860780837
 20
16.3504136331
 40
0.015
100
AcDbArc
 50
154.4065391848
 51
225.0
  0
ARC
  5
41A
100
AcDbEntity
  8
0
100
AcDbCircle
 62
7
  6
CONTINUOUS
 10
7.144178038
 20
16.2923136789
 40
0.015
100
AcDbArc
 50
225.0
 51
310.7108466712
  0
ARC
  5
41B
100
AcDbEntity
  8
0
100
AcDbCircle
 62
7
  6
CONTINUOUS
 10
6.7369893456
 20
16.7136445069
 40
0.015
100
AcDbArc
 50
139.2891533288
 51
225.0
  0
ARC
  5
41C
100
AcDbEntity
  8
0
100
AcDbCircle
 62
7
  6
CONTINUOUS
 10
6.7950892999
 20
16.6555445526
 40
0.015
100
AcDbArc
 50
225.0
 51
310.7108466712
  0
ARC
  5
41D
100
AcDbEntity
  8
0
100
AcDbCircle
 62
7
  6
CONTINUOUS
 10
7.0834716684
 20
16.3671621841
 40
0.015
100
AcDbArc
 50
139.2891533288
 51
225.0
  0
ARC
  5
41E
100
AcDbEntity
  8
0
100
AcDbCircle
 62
7
  6
CONTINUOUS
 10
7.1415716226
 20
16.3090622298
 40
0.015
100
AcDbArc
 50
225.0
 51
310.7108466712
  0
ARC
  5
41F
100
AcDbEntity
  8
0
100
AcDbCircle
 62
7
  6
CONTINUOUS
 10
6.8298290042
 20
16.6208048483
 40
0.015
100
AcDbArc
 50
139.2891533288
 51
225.0
  0
ARC
  5
420
100
AcDbEntity
  8
0
100
AcDbCircle
 62
7
  6
CONTINUOUS
 10
6.8879289584
 20
16.562704894
 40
0.015
100
AcDbArc
 50
225.0
 51
310.7108466712
  0
ARC
  5
421
100
AcDbEntity
  8
0
100
AcDbCircle
 62
7
  6
CONTINUOUS
 10
6.5238580361
 20
16.9621311554
 40
0.015
100
AcDbArc
 50
225.0
 51
310.7108466712
  0
ARC
  5
422
100
AcDbEntity
  8
0
100
AcDbCircle
 62
7
  6
CONTINUOUS
 10
7.1066305453
 20
16.3793586462
 40
0.015
100
AcDbArc
 50
139.2891533288
 51
225.0
  0
ARC
  5
423
100
AcDbEntity
  8
0
100
AcDbCircle
 62
7
  6
CONTINUOUS
 10
7.1647304996
 20
16.3212586919
 40
0.015
100
AcDbArc
 50
225.0
 51
310.7108466712
  0
ARC
  5
424
100
AcDbEntity
  8
0
100
AcDbCircle
 62
7
  6
CONTINUOUS
 10
6.8067591971
 20
16.6792299944
 40
0.015
100
AcDbArc
 50
139.2891533288
 51
225.0
  0
ARC
  5
425
100
AcDbEntity
  8
0
100
AcDbCircle
 62
7
  6
CONTINUOUS
 10
6.8648591514
 20
16.6211300401
 40
0.015
100
AcDbArc
 50
225.0
 51
310.7108466712
  0
ARC
  5
426
100
AcDbEntity
  8
0
100
AcDbCircle
 62
7
  6
CONTINUOUS
 10
6.5841865263
 20
16.9018026652
 40
0.015
100
AcDbArc
 50
139.2891533288
 51
225.0
  0
ARC
  5
427
100
AcDbEntity
  8
0
100
AcDbCircle
 62
7
  6
CONTINUOUS
 10
6.6422864806
 20
16.8437027109
 40
0.015
100
AcDbArc
 50
225.0
 51
310.7108466712
  0
ARC
  5
428
100
AcDbEntity
  8
0
100
AcDbCircle
 62
7
  6
CONTINUOUS
 10
7.1321014926
 20
16.3963141058
 40
0.015
100
AcDbArc
 50
139.2891533288
 51
225.0
  0
ARC
  5
429
100
AcDbEntity
  8
0
100
AcDbCircle
 62
7
  6
CONTINUOUS
 10
6.8183066254
 20
16.710108973
 40
0.015
100
AcDbArc
 50
139.2891533288
 51
225.0
  0
ARC
  5
42A
100
AcDbEntity
  8
0
100
AcDbCircle
 62
7
  6
CONTINUOUS
 10
6.8764065797
 20
16.6520090187
 40
0.015
100
AcDbArc
 50
225.0
 51
310.7108466712
  0
ARC
  5
42B
100
AcDbEntity
  8
0
100
AcDbCircle
 62
7
  6
CONTINUOUS
 10
6.6069448184
 20
16.92147078
 40
0.015
100
AcDbArc
 50
225.0
 51
310.7108466712
  0
ARC
  5
42C
100
AcDbEntity
  8
0
100
AcDbCircle
 62
7
  6
CONTINUOUS
 10
7.1598678116
 20
16.4180452615
 40
0.015
100
AcDbArc
 50
139.2891533288
 51
225.0
  0
ARC
  5
42D
100
AcDbEntity
  8
0
100
AcDbCircle
 62
7
  6
CONTINUOUS
 10
6.8407274401
 20
16.737185633
 40
0.015
100
AcDbArc
 50
139.2891533288
 51
225.0
  0
ARC
  5
42E
100
AcDbEntity
  8
0
100
AcDbCircle
 62
7
  6
CONTINUOUS
 10
6.8988273944
 20
16.6790856787
 40
0.015
100
AcDbArc
 50
225.0
 51
310.7108466712
  0
ARC
  5
42F
100
AcDbEntity
  8
0
100
AcDbCircle
 62
7
  6
CONTINUOUS
 10
7.7887631408
 20
15.0459536321
 40
0.4883095281
100
AcDbArc
 50
49.4407119225
 51
49.9068570355
  0
ARC
  5
430
100
AcDbEntity
  8
0
100
AcDbCircle
 62
7
  6
CONTINUOUS
 10
7.7005034117
 20
15.4977249417
 40
0.2326854595
100
AcDbArc
 50
41.6595556803
 51
41.9573168279
  0
ARC
  5
431
100
AcDbEntity
  8
0
100
AcDbCircle
 62
7
  6
CONTINUOUS
 10
8.0074777626
 20
15.2744210474
 40
0.2009958842
100
AcDbArc
 50
51.888921457
 51
52.526311876
  0
ARC
  5
432
100
AcDbEntity
  8
0
100
AcDbCircle
 62
7
  6
CONTINUOUS
 10
8.0300789781
 20
15.4205548743
 40
0.015
100
AcDbArc
 50
139.2891533288
 51
225.0
  0
ARC
  5
433
100
AcDbEntity
  8
0
100
AcDbCircle
 62
7
  6
CONTINUOUS
 10
7.7598576338
 20
15.5670466015
 40
0.1712822218
100
AcDbArc
 50
40.0787520193
 51
40.4527199148
  0
ARC
  5
434
100
AcDbEntity
  8
0
100
AcDbCircle
 62
7
  6
CONTINUOUS
 10
7.7773539593
 20
15.5817782393
 40
0.1484099133
100
AcDbArc
 50
39.5841437158
 51
40.0759605945
  0
ARC
  5
435
100
AcDbEntity
  8
0
100
AcDbCircle
 62
7
  6
CONTINUOUS
 10
7.759687763
 20
15.6768039539
 40
0.015
100
AcDbArc
 50
139.2891533288
 51
225.0
  0
ARC
  5
436
100
AcDbEntity
  8
0
100
AcDbCircle
 62
7
  6
CONTINUOUS
 10
7.8177877172
 20
15.6187039996
 40
0.015
100
AcDbArc
 50
225.0
 51
295.5934608152
  0
ARC
  5
437
100
AcDbEntity
  8
0
100
AcDbCircle
 62
7
  6
CONTINUOUS
 10
7.4809828776
 20
15.9555088392
 40
0.015
100
AcDbArc
 50
225.0
 51
310.7108466712
  0
ARC
  5
438
100
AcDbEntity
  8
0
100
AcDbCircle
 62
7
  6
CONTINUOUS
 10
7.7764363139
 20
15.6741975385
 40
0.015
100
AcDbArc
 50
139.2891533288
 51
225.0
  0
ARC
  5
439
100
AcDbEntity
  8
0
100
AcDbCircle
 62
7
  6
CONTINUOUS
 10
7.8345362682
 20
15.6160975843
 40
0.015
100
AcDbArc
 50
225.0
 51
310.7108466712
  0
ARC
  5
43A
100
AcDbEntity
  8
0
100
AcDbCircle
 62
7
  6
CONTINUOUS
 10
7.4880539454
 20
15.962579907
 40
0.015
100
AcDbArc
 50
225.0
 51
310.7108466712
  0
ARC
  5
43B
100
AcDbEntity
  8
0
100
AcDbCircle
 62
7
  6
CONTINUOUS
 10
7.788632776
 20
15.6973564155
 40
0.015
100
AcDbArc
 50
139.2891533288
 51
225.0
  0
ARC
  5
43C
100
AcDbEntity
  8
0
100
AcDbCircle
 62
7
  6
CONTINUOUS
 10
7.8467327303
 20
15.6392564612
 40
0.015
100
AcDbArc
 50
225.0
 51
310.7108466712
  0
ARC
  5
43D
100
AcDbEntity
  8
0
100
AcDbCircle
 62
7
  6
CONTINUOUS
 10
7.5057316149
 20
15.9802575766
 40
0.015
100
AcDbArc
 50
225.0
 51
310.7108466712
  0
ARC
  5
43E
100
AcDbEntity
  8
0
100
AcDbCircle
 62
7
  6
CONTINUOUS
 10
7.8055882356
 20
15.7228273628
 40
0.015
100
AcDbArc
 50
139.2891533288
 51
225.0
  0
ARC
  5
43F
100
AcDbEntity
  8
0
100
AcDbCircle
 62
7
  6
CONTINUOUS
 10
7.8636881899
 20
15.6647274085
 40
0.015
100
AcDbArc
 50
225.0
 51
310.7108466712
  0
ARC
  5
440
100
AcDbEntity
  8
0
100
AcDbCircle
 62
7
  6
CONTINUOUS
 10
7.8273193913
 20
15.7505936818
 40
0.015
100
AcDbArc
 50
139.2891533288
 51
225.0
  0
ARC
  5
441
100
AcDbEntity
  8
0
100
AcDbCircle
 62
7
  6
CONTINUOUS
 10
7.8854193456
 20
15.6924937275
 40
0.015
100
AcDbArc
 50
225.0
 51
310.7108466712
  0
ARC
  5
442
100
AcDbEntity
  8
0
100
AcDbCircle
 62
7
  6
CONTINUOUS
 10
8.6680981916
 20
15.0255522714
 40
0.0969810753
100
AcDbArc
 50
223.4935596099
 51
223.6680434921
  0
ARC
  5
443
100
AcDbEntity
  8
0
100
AcDbCircle
 62
7
  6
CONTINUOUS
 10
8.142814887
 20
15.4688719914
 40
0.0663932011
100
AcDbArc
 50
220.7647176988
 51
220.9405911403
  0
ARC
  5
444
100
AcDbEntity
  8
0
100
AcDbCircle
 62
7
  6
CONTINUOUS
 10
8.4347834879
 20
15.203020155
 40
0.057315943
100
AcDbArc
 50
220.0949435316
 51
220.733339183
  0
ARC
  5
445
100
AcDbEntity
  8
0
100
AcDbCircle
 62
7
  6
CONTINUOUS
 10
8.1229186367
 20
15.3277152158
 40
0.015
100
AcDbArc
 50
139.2891533288
 51
225.0
  0
ARC
  5
446
100
AcDbEntity
  8
0
100
AcDbCircle
 62
7
  6
CONTINUOUS
 10
8.181018591
 20
15.2696152615
 40
0.015
100
AcDbArc
 50
225.0
 51
310.7108466712
  0
ARC
  5
447
100
AcDbEntity
  8
0
100
AcDbCircle
 62
7
  6
CONTINUOUS
 10
8.0881789324
 20
15.3624549201
 40
0.015
100
AcDbArc
 50
225.0
 51
310.7108466712
  0
ARC
  5
448
100
AcDbEntity
  8
0
100
AcDbCircle
 62
7
  6
CONTINUOUS
 10
8.4295052395
 20
15.056483952
 40
0.015
100
AcDbArc
 50
139.2891533288
 51
225.0
  0
ARC
  5
449
100
AcDbEntity
  8
0
100
AcDbCircle
 62
7
  6
CONTINUOUS
 10
8.311076795
 20
15.1749123965
 40
0.015
100
AcDbArc
 50
139.2891533288
 51
225.0
  0
ARC
  5
44A
100
AcDbEntity
  8
0
100
AcDbCircle
 62
7
  6
CONTINUOUS
 10
8.3691767493
 20
15.1168124422
 40
0.015
100
AcDbArc
 50
225.0
 51
310.7108466712
  0
ARC
  5
44B
100
AcDbEntity
  8
0
100
AcDbCircle
 62
7
  6
CONTINUOUS
 10
8.0885041242
 20
15.3974850673
 40
0.015
100
AcDbArc
 50
139.2891533288
 51
225.0
  0
ARC
  5
44C
100
AcDbEntity
  8
0
100
AcDbCircle
 62
7
  6
CONTINUOUS
 10
8.1466040785
 20
15.3393851131
 40
0.015
100
AcDbArc
 50
225.0
 51
310.7108466712
  0
ARC
  5
44D
100
AcDbEntity
  8
0
100
AcDbCircle
 62
7
  6
CONTINUOUS
 10
8.3888448641
 20
15.1395707343
 40
0.015
100
AcDbArc
 50
139.2891533288
 51
225.0
  0
ARC
  5
44E
100
AcDbEntity
  8
0
100
AcDbCircle
 62
7
  6
CONTINUOUS
 10
8.4469448184
 20
15.08147078
 40
0.015
100
AcDbArc
 50
225.0
 51
310.7108466712
  0
ARC
  5
44F
100
AcDbEntity
  8
0
100
AcDbCircle
 62
7
  6
CONTINUOUS
 10
8.1193831028
 20
15.4090324956
 40
0.015
100
AcDbArc
 50
139.2891533288
 51
225.0
  0
ARC
  5
450
100
AcDbEntity
  8
0
100
AcDbCircle
 62
7
  6
CONTINUOUS
 10
8.1774830571
 20
15.3509325413
 40
0.015
100
AcDbArc
 50
225.0
 51
310.7108466712
  0
ARC
  5
451
100
AcDbEntity
  8
0
100
AcDbCircle
 62
7
  6
CONTINUOUS
 10
8.4370667502
 20
15.1408463229
 40
0.015
100
AcDbArc
 50
139.2891533288
 51
225.0
  0
ARC
  5
452
100
AcDbEntity
  8
0
100
AcDbCircle
 62
7
  6
CONTINUOUS
 10
8.4951667045
 20
15.0827463686
 40
0.015
100
AcDbArc
 50
225.0
 51
310.7108466712
  0
ARC
  5
453
100
AcDbEntity
  8
0
100
AcDbCircle
 62
7
  6
CONTINUOUS
 10
8.1464597628
 20
15.4314533103
 40
0.015
100
AcDbArc
 50
139.2891533288
 51
225.0
  0
ARC
  5
454
100
AcDbEntity
  8
0
100
AcDbCircle
 62
7
  6
CONTINUOUS
 10
8.2045597171
 20
15.373353356
 40
0.015
100
AcDbArc
 50
225.0
 51
310.7108466712
  0
ARC
  5
455
100
AcDbEntity
  8
0
100
AcDbCircle
 62
7
  6
CONTINUOUS
 10
8.5957075631
 20
16.2938066624
 40
1.0
100
AcDbArc
 50
226.4451003487
 51
232.6351766403
  0
ARC
  5
456
100
AcDbEntity
  8
0
100
AcDbCircle
 62
7
  6
CONTINUOUS
 10
7.5642871437
 20
16.0246944021
 40
0.0488136254
100
AcDbArc
 50
233.2442979737
 51
234.1006046735
  0
ARC
  5
457
100
AcDbEntity
  8
0
100
AcDbCircle
 62
7
  6
CONTINUOUS
 10
7.4228829233
 20
16.0136087935
 40
0.015
100
AcDbArc
 50
139.2891533288
 51
225.0
  0
ARC
  5
458
100
AcDbEntity
  8
0
100
AcDbCircle
 62
7
  6
CONTINUOUS
 10
7.4299539911
 20
16.0206798613
 40
0.015
100
AcDbArc
 50
139.2891533288
 51
225.0
  0
ARC
  5
459
100
AcDbEntity
  8
0
100
AcDbCircle
 62
7
  6
CONTINUOUS
 10
7.4476316607
 20
16.0383575309
 40
0.015
100
AcDbArc
 50
139.2891533288
 51
225.0
  0
ARC
  5
45A
100
AcDbEntity
  8
0
100
AcDbCircle
 62
7
  6
CONTINUOUS
 10
7.4688448641
 20
16.0595707343
 40
0.015
100
AcDbArc
 50
139.2891533288
 51
225.0
  0
ARC
  5
45B
100
AcDbEntity
  8
0
100
AcDbCircle
 62
7
  6
CONTINUOUS
 10
7.5269448184
 20
16.00147078
 40
0.015
100
AcDbArc
 50
225.0
 51
310.7108466712
  0
ARC
  5
45C
100
AcDbEntity
  8
0
100
AcDbCircle
 62
7
  6
CONTINUOUS
 10
7.1902014469
 20
16.3382141515
 40
0.015
100
AcDbArc
 50
225.0
 51
310.7108466712
  0
ARC
  5
45D
100
AcDbEntity
  8
0
100
AcDbCircle
 62
7
  6
CONTINUOUS
 10
7.4935936014
 20
16.0843194716
 40
0.015
100
AcDbArc
 50
139.2891533288
 51
225.0
  0
ARC
  5
45E
100
AcDbEntity
  8
0
100
AcDbCircle
 62
7
  6
CONTINUOUS
 10
7.5516935557
 20
16.0262195173
 40
0.015
100
AcDbArc
 50
225.0
 51
310.7108466712
  0
ARC
  5
45F
100
AcDbEntity
  8
0
100
AcDbCircle
 62
7
  6
CONTINUOUS
 10
7.2179677659
 20
16.3599453072
 40
0.015
100
AcDbArc
 50
225.0
 51
310.7108466712
  0
ARC
  5
460
100
AcDbEntity
  8
0
100
AcDbCircle
 62
7
  6
CONTINUOUS
 10
5.7972385933
 20
17.3681890219
 40
0.3166927947
100
AcDbArc
 50
36.8979802694
 51
37.7586486365
  0
ARC
  5
461
100
AcDbEntity
  8
0
100
AcDbCircle
 62
7
  6
CONTINUOUS
 10
5.9865382238
 20
17.439515146
 40
0.125
100
AcDbArc
 50
32.5196096022
 51
36.7613591885
  0
ARC
  5
462
100
AcDbEntity
  8
0
100
AcDbCircle
 62
7
  6
CONTINUOUS
 10
6.138611272
 20
17.6395429348
 40
0.1215224262
100
AcDbArc
 50
223.9131852673
 51
224.0881257336
  0
ARC
  5
463
100
AcDbEntity
  8
0
100
AcDbCircle
 62
7
  6
CONTINUOUS
 10
6.4918971725
 20
17.1996426329
 40
0.0954881587
100
AcDbArc
 50
226.3305843885
 51
226.5077443809
  0
ARC
  5
464
100
AcDbEntity
  8
0
100
AcDbCircle
 62
7
  6
CONTINUOUS
 10
6.4657580818
 20
17.0202311097
 40
0.015
100
AcDbArc
 50
139.2891533288
 51
225.0
  0
ARC
  5
465
100
AcDbEntity
  8
0
100
AcDbCircle
 62
7
  6
CONTINUOUS
 10
6.2121014926
 20
17.3163141058
 40
0.015
100
AcDbArc
 50
139.2891533288
 51
225.0
  0
ARC
  5
466
100
AcDbEntity
  8
0
100
AcDbCircle
 62
7
  6
CONTINUOUS
 10
6.2702014469
 20
17.2582141515
 40
0.015
100
AcDbArc
 50
225.0
 51
310.7108466712
  0
ARC
  5
467
100
AcDbEntity
  8
0
100
AcDbCircle
 62
7
  6
CONTINUOUS
 10
6.1677683867
 20
17.3606472117
 40
0.015
100
AcDbArc
 50
139.2891533288
 51
225.0
  0
ARC
  5
468
100
AcDbEntity
  8
0
100
AcDbCircle
 62
7
  6
CONTINUOUS
 10
6.5488448641
 20
16.9795707343
 40
0.015
100
AcDbArc
 50
139.2891533288
 51
225.0
  0
ARC
  5
469
100
AcDbEntity
  8
0
100
AcDbCircle
 62
7
  6
CONTINUOUS
 10
6.3420795824
 20
17.186336016
 40
0.015
100
AcDbArc
 50
139.2891533288
 51
225.0
  0
ARC
  5
46A
100
AcDbEntity
  8
0
100
AcDbCircle
 62
7
  6
CONTINUOUS
 10
6.4001795367
 20
17.1282360617
 40
0.015
100
AcDbArc
 50
225.0
 51
310.7108466712
  0
ARC
  5
46B
100
AcDbEntity
  8
0
100
AcDbCircle
 62
7
  6
CONTINUOUS
 10
5.9670219793
 20
17.6108910938
 40
0.015
100
AcDbArc
 50
139.2891533288
 51
225.0
  0
ARC
  5
46C
100
AcDbEntity
  8
0
100
AcDbCircle
 62
7
  6
CONTINUOUS
 10
6.0251219336
 20
17.5527911395
 40
0.015
100
AcDbArc
 50
225.0
 51
310.7108466712
  0
ARC
  5
46D
100
AcDbEntity
  8
0
100
AcDbCircle
 62
7
  6
CONTINUOUS
 10
5.8972542913
 20
17.6806587817
 40
0.015
100
AcDbArc
 50
139.2891533288
 51
225.0
  0
ARC
  5
46E
100
AcDbEntity
  8
0
100
AcDbCircle
 62
7
  6
CONTINUOUS
 10
5.9553542456
 20
17.6225588274
 40
0.015
100
AcDbArc
 50
225.0
 51
258.4440595416
  0
ARC
  5
46F
100
AcDbEntity
  8
0
100
AcDbCircle
 62
7
  6
CONTINUOUS
 10
6.5501204527
 20
17.0277926204
 40
0.015
100
AcDbArc
 50
139.2891533288
 51
225.0
  0
ARC
  5
470
100
AcDbEntity
  8
0
100
AcDbCircle
 62
7
  6
CONTINUOUS
 10
6.608220407
 20
16.9696926661
 40
0.015
100
AcDbArc
 50
225.0
 51
310.7108466712
  0
ARC
  5
471
100
AcDbEntity
  8
0
100
AcDbCircle
 62
7
  6
CONTINUOUS
 10
6.3007477692
 20
17.2771653039
 40
0.015
100
AcDbArc
 50
139.2891533288
 51
225.0
  0
ARC
  5
472
100
AcDbEntity
  8
0
100
AcDbCircle
 62
7
  6
CONTINUOUS
 10
6.3588477234
 20
17.2190653496
 40
0.015
100
AcDbArc
 50
225.0
 51
310.7108466712
  0
ARC
  5
473
100
AcDbEntity
  8
0
100
AcDbCircle
 62
7
  6
CONTINUOUS
 10
6.1035081724
 20
17.4744049007
 40
0.015
100
AcDbArc
 50
139.2891533288
 51
225.0
  0
ARC
  5
474
100
AcDbEntity
  8
0
100
AcDbCircle
 62
7
  6
CONTINUOUS
 10
6.1616081267
 20
17.4163049464
 40
0.015
100
AcDbArc
 50
225.0
 51
310.7108466712
  0
ARC
  5
475
100
AcDbEntity
  8
0
100
AcDbCircle
 62
7
  6
CONTINUOUS
 10
5.6221671842
 20
18.29136777
 40
0.03
100
AcDbArc
 50
135.0
 51
195.0
  0
ARC
  5
476
100
AcDbEntity
  8
0
100
AcDbCircle
 62
7
  6
CONTINUOUS
 10
5.7076016324
 20
17.9725220685
 40
0.03
100
AcDbArc
 50
195.0
 51
211.7604517071
  0
ARC
  5
477
100
AcDbEntity
  8
0
100
AcDbCircle
 62
7
  6
CONTINUOUS
 10
6.2434874114
 20
18.9126879973
 40
0.03
100
AcDbArc
 50
45.0
 51
135.0
  0
ARC
  5
478
100
AcDbEntity
  8
0
100
AcDbCircle
 62
7
  6
CONTINUOUS
 10
7.7611807465
 20
17.128333479
 40
1.0
100
AcDbArc
 50
217.3648233597
 51
223.5548996513
  0
ARC
  5
479
100
AcDbEntity
  8
0
100
AcDbCircle
 62
7
  6
CONTINUOUS
 10
7.4807536885
 20
17.4285084608
 40
1.0
100
AcDbArc
 50
215.6259245929
 51
222.549018051
  0
ARC
  5
47A
100
AcDbEntity
  8
0
100
AcDbCircle
 62
7
  6
CONTINUOUS
 10
7.2054038088
 20
17.7338260159
 40
1.0
100
AcDbArc
 50
217.7862094089
 51
221.542266468
  0
ARC
  5
47B
100
AcDbEntity
  8
0
100
AcDbCircle
 62
7
  6
CONTINUOUS
 10
7.3006120493
 20
17.9404161731
 40
0.03
100
AcDbArc
 50
225.0
 51
315.0
  0
ARC
  5
47C
100
AcDbEntity
  8
0
100
AcDbCircle
 62
7
  6
CONTINUOUS
 10
8.0437812763
 20
17.6087830928
 40
0.03
100
AcDbArc
 50
225.0
 51
315.0
  0
ARC
  5
47D
100
AcDbEntity
  8
0
100
AcDbCircle
 62
7
  6
CONTINUOUS
 10
8.2375285344
 20
17.7318196727
 40
0.02
100
AcDbArc
 50
135.0
 51
225.0
  0
ARC
  5
47E
100
AcDbEntity
  8
0
100
AcDbCircle
 62
7
  6
CONTINUOUS
 10
8.2092442631
 20
17.7035354014
 40
0.02
100
AcDbArc
 50
45.0
 51
135.0
  0
ARC
  5
47F
100
AcDbEntity
  8
0
100
AcDbCircle
 62
7
  6
CONTINUOUS
 10
6.9351466664
 20
18.0443019041
 40
1.0
100
AcDbArc
 50
219.9064874448
 51
220.3758736767
  0
ARC
  5
480
100
AcDbEntity
  8
0
100
AcDbCircle
 62
7
  6
CONTINUOUS
 10
6.9351466664
 20
18.0443019041
 40
1.0
100
AcDbArc
 50
212.5196096022
 51
213.3992494667
  0
ARC
  5
481
100
AcDbEntity
  8
0
100
AcDbCircle
 62
7
  6
CONTINUOUS
 10
7.0082557763
 20
17.9592196739
 40
1.0
100
AcDbArc
 50
224.4373403101
 51
225.0
  0
ARC
  5
482
100
AcDbEntity
  8
0
100
AcDbCircle
 62
7
  6
CONTINUOUS
 10
7.5063801226
 20
18.0613314327
 40
0.03
100
AcDbArc
 50
45.0
 51
135.0
  0
ARC
  5
483
100
AcDbEntity
  8
0
100
AcDbCircle
 62
7
  6
CONTINUOUS
 10
8.8958825449
 20
16.0133796044
 40
1.0
100
AcDbArc
 50
227.450981949
 51
234.3740754071
  0
ARC
  5
484
100
AcDbEntity
  8
0
100
AcDbCircle
 62
7
  6
CONTINUOUS
 10
9.2012001
 20
15.7380297247
 40
1.0
100
AcDbArc
 50
228.457733532
 51
232.2137905911
  0
ARC
  5
485
100
AcDbEntity
  8
0
100
AcDbCircle
 62
7
  6
CONTINUOUS
 10
9.5116759882
 20
15.4677725823
 40
1.0
100
AcDbArc
 50
229.6241263233
 51
230.0935125552
  0
ARC
  5
486
100
AcDbEntity
  8
0
100
AcDbCircle
 62
7
  6
CONTINUOUS
 10
9.5116759882
 20
15.4677725823
 40
1.0
100
AcDbArc
 50
236.6007505333
 51
237.4803903978
  0
ARC
  5
487
100
AcDbEntity
  8
0
100
AcDbCircle
 62
7
  6
CONTINUOUS
 10
9.426593758
 20
15.5408816922
 40
1.0
100
AcDbArc
 50
225.0
 51
225.5626596899
  0
ARC
  5
488
100
AcDbEntity
  8
0
100
AcDbCircle
 62
7
  6
CONTINUOUS
 10
9.4077902572
 20
15.8332379652
 40
0.03
100
AcDbArc
 50
135.0
 51
225.0
  0
ARC
  5
489
100
AcDbEntity
  8
0
100
AcDbCircle
 62
7
  6
CONTINUOUS
 10
9.5287055168
 20
16.0390060385
 40
0.03
100
AcDbArc
 50
315.0
 51
45.0
  0
ARC
  5
48A
100
AcDbEntity
  8
0
100
AcDbCircle
 62
7
  6
CONTINUOUS
 10
9.0761571769
 20
16.5764071922
 40
0.03
100
AcDbArc
 50
135.0
 51
225.0
  0
ARC
  5
48B
100
AcDbEntity
  8
0
100
AcDbCircle
 62
7
  6
CONTINUOUS
 10
9.1991937568
 20
16.7701544503
 40
0.02
100
AcDbArc
 50
225.0
 51
315.0
  0
ARC
  5
48C
100
AcDbEntity
  8
0
100
AcDbCircle
 62
7
  6
CONTINUOUS
 10
9.1709094855
 20
16.741870179
 40
0.02
100
AcDbArc
 50
315.0
 51
45.0
  0
ARC
  5
48D
100
AcDbEntity
  8
0
100
AcDbCircle
 62
7
  6
CONTINUOUS
 10
12.1277997941
 20
17.124891804
 40
2.90625
100
AcDbArc
 50
90.0
 51
135.0
  0
ARC
  5
48E
100
AcDbEntity
  8
0
100
AcDbCircle
 62
7
  6
CONTINUOUS
 10
12.1277997941
 20
17.124891804
 40
2.09375
100
AcDbArc
 50
90.0
 51
135.0
  0
ARC
  5
48F
100
AcDbEntity
  8
0
100
AcDbCircle
 62
7
  6
CONTINUOUS
 10
8.9245443473
 20
17.4571702632
 40
0.489
100
AcDbArc
 50
345.394893546
 51
0.0258404644
  0
ARC
  5
490
100
AcDbEntity
  8
0
100
AcDbCircle
 62
7
  6
CONTINUOUS
 10
8.9245443473
 20
17.4571702632
 40
0.489
100
AcDbArc
 50
89.9741595356
 51
104.605106454
  0
ARC
  5
491
100
AcDbEntity
  8
0
100
AcDbCircle
 62
7
  6
CONTINUOUS
 10
9.192800967
 20
18.0994863702
 40
0.188
100
AcDbArc
 50
159.9175653171
 51
180.0
  0
ARC
  5
492
100
AcDbEntity
  8
0
100
AcDbCircle
 62
7
  6
CONTINUOUS
 10
9.5668604542
 20
17.7254268829
 40
0.188
100
AcDbArc
 50
270.0
 51
290.0824346829
  0
ARC
  5
493
100
AcDbEntity
  8
0
100
AcDbCircle
 62
7
  6
CONTINUOUS
 10
9.4935442895
 20
17.4574268829
 40
0.08
100
AcDbArc
 50
90.0
 51
180.0258404644
  0
ARC
  5
494
100
AcDbEntity
  8
0
100
AcDbCircle
 62
7
  6
CONTINUOUS
 10
8.924800967
 20
18.0261702054
 40
0.08
100
AcDbArc
 50
269.9741595356
 51
360.0
  0
ARC
  5
495
100
AcDbEntity
  8
0
100
AcDbCircle
 62
7
  6
CONTINUOUS
 10
15.5177997941
 20
-1.320108196
 40
0.04
100
AcDbArc
 50
180.0
 51
270.0
  0
ARC
  5
496
100
AcDbEntity
  8
0
100
AcDbCircle
 62
7
  6
CONTINUOUS
 10
15.5177997941
 20
0.569891804
 40
0.04
100
AcDbArc
 50
90.0
 51
180.0
  0
ARC
  5
497
100
AcDbEntity
  8
0
100
AcDbCircle
 62
7
  6
CONTINUOUS
 10
15.5477997941
 20
10.344891804
 40
0.03
100
AcDbArc
 50
90.0
 51
180.0
  0
ARC
  5
498
100
AcDbEntity
  8
0
100
AcDbCircle
 62
7
  6
CONTINUOUS
 10
15.5477997941
 20
4.904891804
 40
0.03
100
AcDbArc
 50
180.0
 51
270.0
  0
ARC
  5
499
100
AcDbEntity
  8
0
100
AcDbCircle
 62
7
  6
CONTINUOUS
 10
15.1977997941
 20
9.441891804
 40
0.03
100
AcDbArc
 50
90.0
 51
180.0
  0
ARC
  5
49A
100
AcDbEntity
  8
0
100
AcDbCircle
 62
7
  6
CONTINUOUS
 10
15.1977997941
 20
7.401891804
 40
0.03
100
AcDbArc
 50
180.0
 51
270.0
  0
ARC
  5
49B
100
AcDbEntity
  8
0
100
AcDbCircle
 62
7
  6
CONTINUOUS
 10
14.9667997941
 20
6.001891804
 40
0.02
100
AcDbArc
 50
270.0
 51
360.0
  0
ARC
  5
49C
100
AcDbEntity
  8
0
100
AcDbCircle
 62
7
  6
CONTINUOUS
 10
14.9667997941
 20
6.501891804
 40
0.02
100
AcDbArc
 50
0.0
 51
90.0
  0
ARC
  5
49D
100
AcDbEntity
  8
0
100
AcDbCircle
 62
7
  6
CONTINUOUS
 10
24.7187228826
 20
33.2513487985
 40
24.3989285714
100
AcDbArc
 50
221.542266468
 51
221.6004864405
  0
ARC
  5
49E
100
AcDbEntity
  8
0
100
AcDbCircle
 62
7
  6
CONTINUOUS
 10
24.7187228826
 20
33.2513487985
 40
24.3989285714
100
AcDbArc
 50
228.3995135595
 51
228.457733532
  0
ARC
  5
49F
100
AcDbEntity
  8
0
100
AcDbCircle
 62
7
  6
CONTINUOUS
 10
24.7187228826
 20
33.2513487985
 40
24.3989285714
100
AcDbArc
 50
226.2854429774
 51
226.4451003487
  0
ARC
  5
4A0
100
AcDbEntity
  8
0
100
AcDbCircle
 62
7
  6
CONTINUOUS
 10
24.7187228826
 20
33.2513487985
 40
24.3989285714
100
AcDbArc
 50
230.4468717286
 51
230.7535485216
  0
ARC
  5
4A1
100
AcDbEntity
  8
0
100
AcDbCircle
 62
7
  6
CONTINUOUS
 10
24.7187228826
 20
33.2513487985
 40
24.3989285714
100
AcDbArc
 50
223.5548996513
 51
223.7145570226
  0
ARC
  5
4A2
100
AcDbEntity
  8
0
100
AcDbCircle
 62
7
  6
CONTINUOUS
 10
24.7187228826
 20
33.2513487985
 40
24.3989285714
100
AcDbArc
 50
219.2464514784
 51
219.5531282714
  0
ARC
  5
4A3
100
AcDbEntity
  8
0
100
AcDbCircle
 62
7
  6
CONTINUOUS
 10
15.5177997941
 20
20.809891804
 40
0.04
100
AcDbArc
 50
90.0
 51
180.0
  0
ARC
  5
4A4
100
AcDbEntity
  8
0
100
AcDbCircle
 62
7
  6
CONTINUOUS
 10
15.5177997941
 20
18.439891804
 40
0.04
100
AcDbArc
 50
180.0
 51
270.0
  0
LINE
  5
4A5
100
AcDbEntity
  8
0
100
AcDbLine
 62
7
  6
CONTINUOUS
 10
9.9029065378
 20
17.8610082136
 11
9.9029606202
 21
17.8617568294
  0
LINE
  5
4A6
100
AcDbEntity
  8
0
100
AcDbLine
 62
7
  6
CONTINUOUS
 10
6.0540432432
 20
17.5533555532
 11
6.0526466459
 21
17.555404123
  0
LINE
  5
4A7
100
AcDbEntity
  8
0
100
AcDbLine
 62
7
  6
CONTINUOUS
 10
6.0526466459
 20
17.555404123
 11
6.0504996654
 21
17.5583288535
  0
SPLINE
  5
4A8
100
AcDbEntity
  8
0
100
AcDbSpline
 62
7
  6
CONTINUOUS
 70
0
 71
3
 72
35
 73
31
 74
0
 42
0.0000001
 43
0.0000001
 44
0.0000000001
 40
0.0
 40
0.0
 40
0.0
 40
0.0
 40
0.0567339945
 40
0.1229395026
 40
0.1969990842
 40
0.2771125642
 40
0.3613393472
 40
0.4476405491
 40
0.5339243947
 40
0.6180918659
 40
0.698085667
 40
0.7719381117
 40
0.8059833956
 40
0.8378225829
 40
0.8672556428
 40
0.8941004345
 40
0.9181886477
 40
0.9393707695
 40
0.9575157572
 40
0.9725127098
 40
0.9788026367
 40
0.9842750954
 40
0.988922286
 40
0.9927403418
 40
0.9957297408
 40
0.9969156178
 40
0.9978979904
 40
0.9986812135
 40
0.9992749117
 40
1.0
 40
1.0
 40
1.0
 40
1.0
 10
6.0476150149
 20
17.5621116191
 30
0.0
 10
6.0463041014
 20
17.5638081469
 30
0.0
 10
6.0434388402
 20
17.5674654358
 30
0.0
 10
6.0387981422
 20
17.5732867285
 30
0.0
 10
6.0335636556
 20
17.5797643299
 30
0.0
 10
6.0278626184
 20
17.5867403146
 30
0.0
 10
6.0218331749
 20
17.5940452125
 30
0.0
 10
6.0156214066
 20
17.6015018376
 30
0.0
 10
6.0093780542
 20
17.6089291098
 30
0.0
 10
6.0032551658
 20
17.6161461361
 30
0.0
 10
5.9974025979
 20
17.6229762832
 30
0.0
 10
5.992752595
 20
17.6283423659
 30
0.0
 10
5.9892735574
 20
17.6323150385
 30
0.0
 10
5.9868899468
 20
17.6350156696
 30
0.0
 10
5.9846752534
 20
17.6375024113
 30
0.0
 10
5.9826434097
 20
17.6397597132
 30
0.0
 10
5.9808071542
 20
17.6417734818
 30
0.0
 10
5.9791781363
 20
17.6435312083
 30
0.0
 10
5.9777666258
 20
17.6450219394
 30
0.0
 10
5.9767262911
 20
17.6460889585
 30
0.0
 10
5.9760073889
 20
17.6468001887
 30
0.0
 10
5.9755599888
 20
17.6472296317
 30
0.0
 10
5.9751727471
 20
17.6475867283
 30
0.0
 10
5.9748461444
 20
17.6478709513
 30
0.0
 10
5.9746101594
 20
17.6480597132
 30
0.0
 10
5.9744506097
 20
17.6481720361
 30
0.0
 10
5.9743564378
 20
17.6482313274
 30
0.0
 10
5.9742760273
 20
17.6482723104
 30
0.0
 10
5.9742044029
 20
17.6483000682
 30
0.0
 10
5.9741439465
 20
17.6483014444
 30
0.0
 10
5.9741245668
 20
17.6482820729
 30
0.0
  0
SPLINE
  5
4A9
100
AcDbEntity
  8
0
100
AcDbSpline
 62
7
  6
CONTINUOUS
 70
0
 71
3
 72
37
 73
33
 74
0
 42
0.0000001
 43
0.0000001
 44
0.0000000001
 40
0.0
 40
0.0
 40
0.0
 40
0.0
 40
0.1447348684
 40
0.2254474939
 40
0.3095841891
 40
0.3954534417
 40
0.4813286205
 40
0.5654823599
 40
0.6462156065
 40
0.7218915751
 40
0.757346112
 40
0.7909671197
 40
0.8225804783
 40
0.8520242608
 40
0.879144684
 40
0.9038022144
 40
0.9258667112
 40
0.9452249532
 40
0.9617740913
 40
0.9689686919
 40
0.9754297093
 40
0.9811485203
 40
0.9861187477
 40
0.9903342596
 40
0.9937890982
 40
0.9964791525
 40
0.9975370195
 40
0.9984034685
 40
0.9990788672
 40
0.9995643674
 40
0.9998638936
 40
1.0
 40
1.0
 40
1.0
 40
1.0
 10
5.9711772491
 20
17.6386526339
 30
0.0
 10
5.9680110292
 20
17.6425331565
 30
0.0
 10
5.9630640188
 20
17.6485653505
 30
0.0
 10
5.9562519293
 20
17.6568331997
 30
0.0
 10
5.9507251113
 20
17.6635207129
 30
0.0
 10
5.9450750237
 20
17.6703380922
 30
0.0
 10
5.939415248
 20
17.6771481979
 30
0.0
 10
5.9338597773
 20
17.6838138903
 30
0.0
 10
5.9285207917
 20
17.6902005645
 30
0.0
 10
5.9242542674
 20
17.6952873358
 30
0.0
 10
5.9210297263
 20
17.6991202872
 30
0.0
 10
5.9187838849
 20
17.7017840765
 30
0.0
 10
5.916669104
 20
17.7042863085
 30
0.0
 10
5.9146963354
 20
17.70661404
 30
0.0
 10
5.9128757671
 20
17.7087552471
 30
0.0
 10
5.911216912
 20
17.7106987733
 30
0.0
 10
5.9097283897
 20
17.7124345422
 30
0.0
 10
5.9084180333
 20
17.7139534679
 30
0.0
 10
5.9074394234
 20
17.7150790135
 30
0.0
 10
5.9067502409
 20
17.7158647959
 30
0.0
 10
5.9063064435
 20
17.7163673023
 30
0.0
 10
5.9059116921
 20
17.7168104285
 30
0.0
 10
5.9055665023
 20
17.7171936272
 30
0.0
 10
5.9052713327
 20
17.7175164514
 30
0.0
 10
5.9050266573
 20
17.717778454
 30
0.0
 10
5.9048536115
 20
17.7179579509
 30
0.0
 10
5.9047403381
 20
17.7180703636
 30
0.0
 10
5.9046748633
 20
17.7181323663
 30
0.0
 10
5.9046231838
 20
17.7181790274
 30
0.0
 10
5.9045821285
 20
17.7182107428
 30
0.0
 10
5.9045581416
 20
17.7182277982
 30
0.0
 10
5.904539745
 20
17.7182326282
 30
0.0
 10
5.9045364228
 20
17.7182292898
 30
0.0
  0
SPLINE
  5
4AA
100
AcDbEntity
  8
0
100
AcDbSpline
 62
7
  6
CONTINUOUS
 70
0
 71
3
 72
9
 73
5
 74
0
 42
0.0000001
 43
0.0000001
 44
0.0000000001
 40
0.0
 40
0.0
 40
0.0
 40
0.0
 40
0.5176113014
 40
1.0
 40
1.0
 40
1.0
 40
1.0
 10
7.545092527
 20
16.0777184429
 30
0.0
 10
7.5412784327
 20
16.0815325372
 30
0.0
 10
7.533821687
 20
16.0888135682
 30
0.0
 10
7.5261829665
 20
16.0959042806
 30
0.0
 10
7.5224420527
 20
16.0992621425
 30
0.0
  0
SPLINE
  5
4AB
100
AcDbEntity
  8
0
100
AcDbSpline
 62
7
  6
CONTINUOUS
 70
0
 71
3
 72
24
 73
20
 74
0
 42
0.0000001
 43
0.0000001
 44
0.0000000001
 40
0.0
 40
0.0
 40
0.0
 40
0.0
 40
0.2123625917
 40
0.4045298371
 40
0.4920167065
 40
0.5733030932
 40
0.6480593822
 40
0.7159908352
 40
0.7768494313
 40
0.8304203809
 40
0.8765523695
 40
0.9151484192
 40
0.9462322306
 40
0.9590181175
 40
0.9700352631
 40
0.9793908321
 40
0.987265904
 40
0.9939692096
 40
1.0
 40
1.0
 40
1.0
 40
1.0
 10
7.5224420527
 20
16.0992621425
 30
0.0
 10
7.5207498124
 20
16.1007811054
 30
0.0
 10
7.517503792
 20
16.103649699
 30
0.0
 10
7.5134902327
 20
16.1070633552
 30
0.0
 10
7.5105003187
 20
16.1095126183
 30
0.0
 10
7.5084602958
 20
16.1111370917
 30
0.0
 10
7.506560243
 20
16.112600733
 30
0.0
 10
7.5048081831
 20
16.1138974469
 30
0.0
 10
7.5032115942
 20
16.115022122
 30
0.0
 10
7.5017770557
 20
16.1159702889
 30
0.0
 10
7.5005105886
 20
16.1167389449
 30
0.0
 10
7.4994171778
 20
16.1173251946
 30
0.0
 10
7.4986078414
 20
16.1176828648
 30
0.0
 10
7.4980487384
 20
16.1178657298
 30
0.0
 10
7.4977024933
 20
16.1179468986
 30
0.0
 10
7.4974010894
 20
16.1179815318
 30
0.0
 10
7.4971435254
 20
16.1179689984
 30
0.0
 10
7.4969289136
 20
16.1179071829
 30
0.0
 10
7.4968139226
 20
16.1178281548
 30
0.0
 10
7.4967682708
 20
16.1177824804
 30
0.0
  0
SPLINE
  5
4AC
100
AcDbEntity
  8
0
100
AcDbSpline
 62
7
  6
CONTINUOUS
 70
0
 71
3
 72
16
 73
12
 74
0
 42
0.0000001
 43
0.0000001
 44
0.0000000001
 40
0.0
 40
0.0
 40
0.0
 40
0.0
 40
0.0413933024
 40
0.0683748764
 40
0.1008386241
 40
0.184040979
 40
0.2932516776
 40
0.429286241
 40
0.5924124916
 40
0.7826710252
 40
1.0
 40
1.0
 40
1.0
 40
1.0
 10
6.1914951851
 20
17.4159036114
 30
0.0
 10
6.1915217741
 20
17.4159302004
 30
0.0
 10
6.1915453333
 20
17.4159931085
 30
0.0
 10
6.1915492271
 20
17.416084226
 30
0.0
 10
6.191536448
 20
17.4162137955
 30
0.0
 10
6.1914833504
 20
17.4164118989
 30
0.0
 10
6.1913766957
 20
17.416690784
 30
0.0
 10
6.1912206018
 20
17.417027576
 30
0.0
 10
6.1910153508
 20
17.4174220648
 30
0.0
 10
6.1907607895
 20
17.4178738025
 30
0.0
 10
6.190570928
 20
17.4181917194
 30
0.0
 10
6.1904681299
 20
17.4183602716
 30
0.0
  0
SPLINE
  5
4AD
100
AcDbEntity
  8
0
100
AcDbSpline
 62
7
  6
CONTINUOUS
 70
0
 71
3
 72
38
 73
34
 74
0
 42
0.0000001
 43
0.0000001
 44
0.0000000001
 40
0.0
 40
0.0
 40
0.0
 40
0.0
 40
0.0148698126
 40
0.0334750047
 40
0.055675852
 40
0.0813000303
 40
0.1419842089
 40
0.2136212654
 40
0.2939637759
 40
0.3804927891
 40
0.4704939198
 40
0.5611336618
 40
0.6495431209
 40
0.7329059721
 40
0.8085505752
 40
0.8427060265
 40
0.8740434332
 40
0.9023089957
 40
0.9272779428
 40
0.9487526004
 40
0.9581262329
 40
0.9665666495
 40
0.9740597853
 40
0.9805925623
 40
0.98615613
 40
0.9907476855
 40
0.9943702499
 40
0.9958234704
 40
0.9970443633
 40
0.9980427994
 40
0.9988372993
 40
0.9994651072
 40
1.0
 40
1.0
 40
1.0
 40
1.0
 10
6.1904681299
 20
17.4183602716
 30
0.0
 10
6.1901501325
 20
17.4188816744
 30
0.0
 10
6.1894025526
 20
17.420036038
 30
0.0
 10
6.1881056156
 20
17.4219194999
 30
0.0
 10
6.1865140369
 20
17.4241357534
 30
0.0
 10
6.1838620077
 20
17.4277175302
 30
0.0
 10
6.1799116498
 20
17.4328635914
 30
0.0
 10
6.1744925978
 20
17.4397138932
 30
0.0
 10
6.1683277646
 20
17.447326887
 30
0.0
 10
6.1616107842
 20
17.4554626012
 30
0.0
 10
6.1545524844
 20
17.4638644251
 30
0.0
 10
6.1473754809
 20
17.4722669049
 30
0.0
 10
6.1403074245
 20
17.4804034078
 30
0.0
 10
6.1335739604
 20
17.4880142248
 30
0.0
 10
6.128255013
 20
17.4939008264
 30
0.0
 10
6.1243242551
 20
17.4981612882
 30
0.0
 10
6.1216906059
 20
17.5009707025
 30
0.0
 10
6.1192909326
 20
17.5034821038
 30
0.0
 10
6.1171448006
 20
17.5056752111
 30
0.0
 10
6.1155162476
 20
17.5072889122
 30
0.0
 10
6.1143508261
 20
17.5084050458
 30
0.0
 10
6.1135905113
 20
17.5091138138
 30
0.0
 10
6.1129051437
 20
17.5097317088
 30
0.0
 10
6.1122961058
 20
17.5102575513
 30
0.0
 10
6.111764647
 20
17.5106906015
 30
0.0
 10
6.1113118171
 20
17.5110301561
 30
0.0
 10
6.1109802636
 20
17.5112495691
 30
0.0
 10
6.1107534187
 20
17.511374098
 30
0.0
 10
6.1106160668
 20
17.5114368612
 30
0.0
 10
6.1104984003
 20
17.5114763849
 30
0.0
 10
6.1103997405
 20
17.5114927128
 30
0.0
 10
6.1103181979
 20
17.511485205
 30
0.0
 10
6.1102750711
 20
17.5114601927
 30
0.0
 10
6.1102595368
 20
17.5114446584
 30
0.0
  0
LINE
  5
4AE
100
AcDbEntity
  8
0
100
AcDbLine
 62
7
  6
CONTINUOUS
 10
6.0546700997
 20
17.5520569696
 11
6.0540432432
 21
17.5533555532
  0
LINE
  5
4AF
100
AcDbEntity
  8
0
100
AcDbLine
 62
7
  6
CONTINUOUS
 10
8.8617076753
 20
14.7078206498
 11
8.8638767614
 21
14.7059614685
  0
SPLINE
  5
4B0
100
AcDbEntity
  8
0
100
AcDbSpline
 62
7
  6
CONTINUOUS
 70
0
 71
3
 72
21
 73
17
 74
0
 42
0.0000001
 43
0.0000001
 44
0.0000000001
 40
0.0
 40
0.0
 40
0.0
 40
0.0
 40
0.2289621337
 40
0.4298150471
 40
0.6014204724
 40
0.7429710737
 40
0.8022645745
 40
0.8538099318
 40
0.8975439033
 40
0.9334308769
 40
0.9614610137
 40
0.9725365922
 40
0.9816639298
 40
0.9888681712
 40
0.9942062251
 40
1.0
 40
1.0
 40
1.0
 40
1.0
 10
8.8125235266
 20
14.7570047985
 30
0.0
 10
8.8130708027
 20
14.7565018157
 30
0.0
 10
8.8140963517
 20
14.7555556211
 30
0.0
 10
8.8155239292
 20
14.754223638
 30
0.0
 10
8.8167349945
 20
14.7530756458
 30
0.0
 10
8.8176032249
 20
14.7522340507
 30
0.0
 10
8.818183538
 20
14.7516555987
 30
0.0
 10
8.8185347803
 20
14.7512971866
 30
0.0
 10
8.8188280728
 20
14.7509884661
 30
0.0
 10
8.8190631218
 20
14.750729723
 30
0.0
 10
8.8192209565
 20
14.7505444208
 30
0.0
 10
8.8193168654
 20
14.7504203109
 30
0.0
 10
8.8193681455
 20
14.7503481717
 30
0.0
 10
8.819405484
 20
14.7502868662
 30
0.0
 10
8.8194303727
 20
14.7502368202
 30
0.0
 10
8.8194405982
 20
14.7501915452
 30
0.0
 10
8.8194273155
 20
14.750178228
 30
0.0
  0
LINE
  5
4B1
100
AcDbEntity
  8
0
100
AcDbLine
 62
7
  6
CONTINUOUS
 10
8.5208311343
 20
15.0067596166
 11
8.5235517595
 21
15.0040421714
  0
LINE
  5
4B2
100
AcDbEntity
  8
0
100
AcDbLine
 62
7
  6
CONTINUOUS
 10
9.1856033337
 20
14.4371623721
 11
9.1766322874
 21
14.4450719078
  0
SPLINE
  5
4B3
100
AcDbEntity
  8
0
100
AcDbSpline
 62
7
  6
CONTINUOUS
 70
0
 71
3
 72
23
 73
19
 74
0
 42
0.0000001
 43
0.0000001
 44
0.0000000001
 40
0.0
 40
0.0
 40
0.0
 40
0.0
 40
0.0058797327
 40
0.0113454188
 40
0.0187400521
 40
0.0281197403
 40
0.0395066865
 40
0.052906369
 40
0.0683179334
 40
0.1051574656
 40
0.1499654147
 40
0.2026260489
 40
0.2630062661
 40
0.3309502357
 40
0.4062605196
 40
0.5781455562
 40
0.7768302693
 40
1.0
 40
1.0
 40
1.0
 40
1.0
 10
9.1156561395
 20
14.5067504973
 30
0.0
 10
9.1156848729
 20
14.5067792796
 30
0.0
 10
9.1156605022
 20
14.506877947
 30
0.0
 10
9.1156039156
 20
14.506985302
 30
0.0
 10
9.1155193958
 20
14.5071177201
 30
0.0
 10
9.1154038449
 20
14.5072731921
 30
0.0
 10
9.1152553375
 20
14.5074576121
 30
0.0
 10
9.1150744799
 20
14.5076686613
 30
0.0
 10
9.1147714435
 20
14.5080069737
 30
0.0
 10
9.1143103292
 20
14.5084950047
 30
0.0
 10
9.113658043
 20
14.5091565627
 30
0.0
 10
9.1128795754
 20
14.5099221655
 30
0.0
 10
9.1119770033
 20
14.5107896738
 30
0.0
 10
9.1109527584
 20
14.5117565821
 30
0.0
 10
9.1093568837
 20
14.5132414285
 30
0.0
 10
9.1070796727
 20
14.5153214541
 30
0.0
 10
9.1040241175
 20
14.5180655595
 30
0.0
 10
9.1018403131
 20
14.5200008877
 30
0.0
 10
9.1006824361
 20
14.5210217591
 30
0.0
  0
SPLINE
  5
4B4
100
AcDbEntity
  8
0
100
AcDbSpline
 62
7
  6
CONTINUOUS
 70
0
 71
3
 72
13
 73
9
 74
0
 42
0.0000001
 43
0.0000001
 44
0.0000000001
 40
0.0
 40
0.0
 40
0.0
 40
0.0
 40
0.1095663454
 40
0.1948423131
 40
0.3043710397
 40
0.4392663656
 40
0.6000399948
 40
1.0
 40
1.0
 40
1.0
 40
1.0
 10
8.8832776904
 20
14.7241211053
 30
0.0
 10
8.8833250651
 20
14.7241684635
 30
0.0
 10
8.8834619325
 20
14.7241819427
 30
0.0
 10
8.883640626
 20
14.7241495103
 30
0.0
 10
8.8838355752
 20
14.7240911174
 30
0.0
 10
8.8840657604
 20
14.7240006392
 30
0.0
 10
8.8844530521
 20
14.7238239624
 30
0.0
 10
8.8847555807
 20
14.7236622558
 30
0.0
 10
8.8849690431
 20
14.7235429795
 30
0.0
  0
SPLINE
  5
4B5
100
AcDbEntity
  8
0
100
AcDbSpline
 62
7
  6
CONTINUOUS
 70
0
 71
3
 72
15
 73
11
 74
0
 42
0.0000001
 43
0.0000001
 44
0.0000000001
 40
0.0
 40
0.0
 40
0.0
 40
0.0
 40
0.0278236464
 40
0.0608149304
 40
0.1420188777
 40
0.2428592698
 40
0.3623397857
 40
0.4992572936
 40
0.6522259414
 40
1.0
 40
1.0
 40
1.0
 40
1.0
 10
8.8849690431
 20
14.7235429795
 30
0.0
 10
8.8852066132
 20
14.7234102324
 30
0.0
 10
8.885719257
 20
14.7231082395
 30
0.0
 10
8.8868954866
 20
14.7223690985
 30
0.0
 10
8.8886390712
 20
14.7211919867
 30
0.0
 10
8.8910425039
 20
14.719482585
 30
0.0
 10
8.8938542966
 20
14.7174080069
 30
0.0
 10
8.8970454598
 20
14.7149895105
 30
0.0
 10
8.9019775111
 20
14.7111717658
 30
0.0
 10
8.9058118271
 20
14.7081241043
 30
0.0
 10
8.9084627715
 20
14.7059926393
 30
0.0
  0
SPLINE
  5
4B6
100
AcDbEntity
  8
0
100
AcDbSpline
 62
7
  6
CONTINUOUS
 70
0
 71
3
 72
11
 73
7
 74
0
 42
0.0000001
 43
0.0000001
 44
0.0000000001
 40
0.0
 40
0.0
 40
0.0
 40
0.0
 40
0.2405021629
 40
0.499256244
 40
0.75842451
 40
1.0
 40
1.0
 40
1.0
 40
1.0
 10
8.9084627715
 20
14.7059926393
 30
0.0
 10
8.912419863
 20
14.7028109799
 30
0.0
 10
8.9205783419
 20
14.6961364476
 30
0.0
 10
8.9328420603
 20
14.6858408459
 30
0.0
 10
8.9449989735
 20
14.6753845607
 30
0.0
 10
8.9529261808
 20
14.6683893758
 30
0.0
 10
8.9567216556
 20
14.6649825396
 30
0.0
  0
SPLINE
  5
4B7
100
AcDbEntity
  8
0
100
AcDbSpline
 62
7
  6
CONTINUOUS
 70
0
 71
3
 72
24
 73
20
 74
0
 42
0.0000001
 43
0.0000001
 44
0.0000000001
 40
0.0
 40
0.0
 40
0.0
 40
0.0
 40
0.0031386386
 40
0.0050773787
 40
0.0073868391
 40
0.0133041919
 40
0.0211210083
 40
0.0309226737
 40
0.0427478422
 40
0.0566113154
 40
0.0725121617
 40
0.1103934798
 40
0.1562946825
 40
0.2100403057
 40
0.2714238949
 40
0.4160457439
 40
0.5877101107
 40
0.7834953108
 40
1.0
 40
1.0
 40
1.0
 40
1.0
 10
8.978818704
 20
14.6428854855
 30
0.0
 10
8.9788419596
 20
14.6429087186
 30
0.0
 10
8.9788638473
 20
14.6429621704
 30
0.0
 10
8.9788641053
 20
14.6430395563
 30
0.0
 10
8.9788466638
 20
14.6431451241
 30
0.0
 10
8.9787871083
 20
14.6433034034
 30
0.0
 10
8.9786727116
 20
14.6435219539
 30
0.0
 10
8.9785082126
 20
14.6437831273
 30
0.0
 10
8.9782937108
 20
14.6440868089
 30
0.0
 10
8.9780289557
 20
14.6444328101
 30
0.0
 10
8.9775824128
 20
14.6449829439
 30
0.0
 10
8.9768967824
 20
14.6457706454
 30
0.0
 10
8.9759210307
 20
14.6468303346
 30
0.0
 10
8.9747536423
 20
14.6480477
 30
0.0
 10
8.9728407158
 20
14.6499821857
 30
0.0
 10
8.9700075035
 20
14.6527428812
 30
0.0
 10
8.9661080697
 20
14.6564251918
 30
0.0
 10
8.9616114854
 20
14.6605710465
 30
0.0
 10
8.9584091271
 20
14.6634678572
 30
0.0
 10
8.9567216556
 20
14.6649825396
 30
0.0
  0
SPLINE
  5
4B8
100
AcDbEntity
  8
0
100
AcDbSpline
 62
7
  6
CONTINUOUS
 70
0
 71
3
 72
17
 73
13
 74
0
 42
0.0000001
 43
0.0000001
 44
0.0000000001
 40
0.0
 40
0.0
 40
0.0
 40
0.0
 40
0.0197920902
 40
0.0424557919
 40
0.0696200802
 40
0.1022346005
 40
0.185683787
 40
0.2950845372
 40
0.4311569391
 40
0.5940675726
 40
0.7837642064
 40
1.0
 40
1.0
 40
1.0
 40
1.0
 10
8.6865454658
 20
14.9218680349
 30
0.0
 10
8.6865675662
 20
14.9218901549
 30
0.0
 10
8.6866247862
 20
14.921928252
 30
0.0
 10
8.6867320576
 20
14.9219575429
 30
0.0
 10
8.6868628426
 20
14.9219639251
 30
0.0
 10
8.6870885031
 20
14.9219407033
 30
0.0
 10
8.6874338739
 20
14.9218465517
 30
0.0
 10
8.6879180185
 20
14.9216570147
 30
0.0
 10
8.6885013836
 20
14.9213803535
 30
0.0
 10
8.6891827615
 20
14.9210170216
 30
0.0
 10
8.6899608661
 20
14.9205670783
 30
0.0
 10
8.6905075392
 20
14.9202316556
 30
0.0
 10
8.6907969833
 20
14.9200501991
 30
0.0
  0
SPLINE
  5
4B9
100
AcDbEntity
  8
0
100
AcDbSpline
 62
7
  6
CONTINUOUS
 70
0
 71
3
 72
17
 73
13
 74
0
 42
0.0000001
 43
0.0000001
 44
0.0000000001
 40
0.0
 40
0.0
 40
0.0
 40
0.0
 40
0.0315457233
 40
0.0693958998
 40
0.1132326877
 40
0.1626777503
 40
0.2766323619
 40
0.4072940597
 40
0.550097355
 40
0.7000309123
 40
0.8517923823
 40
1.0
 40
1.0
 40
1.0
 40
1.0
 10
8.6907969833
 20
14.9200501991
 30
0.0
 10
8.6914915159
 20
14.919614787
 30
0.0
 10
8.6929979316
 20
14.9186227699
 30
0.0
 10
8.6954113687
 20
14.9169392722
 30
0.0
 10
8.6981673964
 20
14.9149350634
 30
0.0
 10
8.7024740674
 20
14.9117018087
 30
0.0
 10
8.708497809
 20
14.9069992368
 30
0.0
 10
8.7163264704
 20
14.9006692268
 30
0.0
 10
8.724784303
 20
14.8936321025
 30
0.0
 10
8.7335720898
 20
14.8861357527
 30
0.0
 10
8.7423777851
 20
14.8784452635
 30
0.0
 10
8.7481881131
 20
14.8732487868
 30
0.0
 10
8.7510417227
 20
14.8706624725
 30
0.0
  0
SPLINE
  5
4BA
100
AcDbEntity
  8
0
100
AcDbSpline
 62
7
  6
CONTINUOUS
 70
0
 71
3
 72
27
 73
23
 74
0
 42
0.0000001
 43
0.0000001
 44
0.0000000001
 40
0.0
 40
0.0
 40
0.0
 40
0.0
 40
0.0017647229
 40
0.0036596528
 40
0.0058223176
 40
0.0083467348
 40
0.0146890854
 40
0.022954435
 40
0.0332423691
 40
0.0455957812
 40
0.0600323338
 40
0.0765507633
 40
0.1157738864
 40
0.1631053639
 40
0.2182877909
 40
0.2810104117
 40
0.3508967499
 40
0.4275281026
 40
0.5104354266
 40
0.5991061519
 40
0.7915104092
 40
1.0
 40
1.0
 40
1.0
 40
1.0
 10
8.7810715687
 20
14.8396175278
 30
0.0
 10
8.7810896522
 20
14.8396356245
 30
0.0
 10
8.7811212354
 20
14.8396795521
 30
0.0
 10
8.7811478329
 20
14.8397607214
 30
0.0
 10
8.7811552658
 20
14.8398565268
 30
0.0
 10
8.7811393468
 20
14.8400162094
 30
0.0
 10
8.7810658883
 20
14.8402554075
 30
0.0
 10
8.7809145905
 20
14.8405834425
 30
0.0
 10
8.7806923221
 20
14.8409730254
 30
0.0
 10
8.7803990473
 20
14.8414236888
 30
0.0
 10
8.7800345585
 20
14.8419350828
 30
0.0
 10
8.7794177502
 20
14.8427443057
 30
0.0
 10
8.7784665356
 20
14.8438973059
 30
0.0
 10
8.7771093409
 20
14.8454402953
 30
0.0
 10
8.775485966
 20
14.8472019965
 30
0.0
 10
8.7736061446
 20
14.8491713454
 30
0.0
 10
8.7714811596
 20
14.8513361007
 30
0.0
 10
8.7691240387
 20
14.8536826853
 30
0.0
 10
8.7665493692
 20
14.8561964677
 30
0.0
 10
8.7627428106
 20
14.8598507297
 30
0.0
 10
8.7575672169
 20
14.8647073687
 30
0.0
 10
8.7532812431
 20
14.8686327261
 30
0.0
 10
8.7510417227
 20
14.8706624725
 30
0.0
  0
SPLINE
  5
4BB
100
AcDbEntity
  8
0
100
AcDbSpline
 62
7
  6
CONTINUOUS
 70
0
 71
3
 72
19
 73
15
 74
0
 42
0.0000001
 43
0.0000001
 44
0.0000000001
 40
0.0
 40
0.0
 40
0.0
 40
0.0
 40
0.016186398
 40
0.0358934262
 40
0.0609488392
 40
0.0922327922
 40
0.1301608062
 40
0.1749395462
 40
0.2266711588
 40
0.2853820701
 40
0.4236357955
 40
0.5893314741
 40
0.7817497397
 40
1.0
 40
1.0
 40
1.0
 40
1.0
 10
8.4378142817
 20
15.1718821659
 30
0.0
 10
8.4378569419
 20
15.1719248088
 30
0.0
 10
8.437977638
 20
15.1719938435
 30
0.0
 10
8.4382056926
 20
15.1720246492
 30
0.0
 10
8.4384893247
 20
15.1719999147
 30
0.0
 10
8.4388321934
 20
15.1719200294
 30
0.0
 10
8.4392354622
 20
15.1717852648
 30
0.0
 10
8.4396992739
 20
15.1715951808
 30
0.0
 10
8.4402232555
 20
15.1713497732
 30
0.0
 10
8.4410472108
 20
15.1709251564
 30
0.0
 10
8.4422193296
 20
15.1702511786
 30
0.0
 10
8.4437863462
 20
15.1692679
 30
0.0
 10
8.4455727477
 20
15.1680750567
 30
0.0
 10
8.4468268072
 20
15.167197773
 30
0.0
 10
8.4474894117
 20
15.1667261546
 30
0.0
  0
SPLINE
  5
4BC
100
AcDbEntity
  8
0
100
AcDbSpline
 62
7
  6
CONTINUOUS
 70
0
 71
3
 72
13
 73
9
 74
0
 42
0.0000001
 43
0.0000001
 44
0.0000000001
 40
0.0
 40
0.0
 40
0.0
 40
0.0
 40
0.0889480151
 40
0.1924082794
 40
0.3085399008
 40
0.4352580325
 40
0.711128699
 40
1.0
 40
1.0
 40
1.0
 40
1.0
 10
8.4474894117
 20
15.1667261546
 30
0.0
 10
8.4489100241
 20
15.1657150134
 30
0.0
 10
8.451945688
 20
15.1634752821
 30
0.0
 10
8.4567325493
 20
15.1597773811
 30
0.0
 10
8.4620329917
 20
15.1555347846
 30
0.0
 10
8.469880851
 20
15.1490677554
 30
0.0
 10
8.4801801273
 20
15.1402528831
 30
0.0
 10
8.4884439802
 20
15.1328843167
 30
0.0
 10
8.4926318375
 20
15.1290723577
 30
0.0
  0
SPLINE
  5
4BD
100
AcDbEntity
  8
0
100
AcDbSpline
 62
7
  6
CONTINUOUS
 70
0
 71
3
 72
28
 73
24
 74
0
 42
0.0000001
 43
0.0000001
 44
0.0000000001
 40
0.0
 40
0.0
 40
0.0
 40
0.0
 40
0.0019203876
 40
0.0039784941
 40
0.0063135327
 40
0.0090216001
 40
0.0157719953
 40
0.0245114887
 40
0.035349253
 40
0.0483256348
 40
0.0634525341
 40
0.0807250585
 40
0.1001209786
 40
0.1216115222
 40
0.1707297494
 40
0.2277163632
 40
0.2921250975
 40
0.3634350119
 40
0.4410563581
 40
0.5243461478
 40
0.6126075864
 40
0.8010236727
 40
1.0
 40
1.0
 40
1.0
 40
1.0
 10
8.5310572166
 20
15.0883485266
 30
0.0
 10
8.531082766
 20
15.0883740601
 30
0.0
 10
8.5311276549
 20
15.0884356375
 30
0.0
 10
8.531167128
 20
15.0885490423
 30
0.0
 10
8.5311808629
 20
15.0886828136
 30
0.0
 10
8.5311648951
 20
15.088904859
 30
0.0
 10
8.5310730817
 20
15.0892372752
 30
0.0
 10
8.5308772887
 20
15.0896926908
 30
0.0
 10
8.5305863138
 20
15.0902322091
 30
0.0
 10
8.5302003483
 20
15.0908550147
 30
0.0
 10
8.5297193001
 20
15.0915602848
 30
0.0
 10
8.5291438282
 20
15.0923465509
 30
0.0
 10
8.5284749569
 20
15.0932122924
 30
0.0
 10
8.5274118471
 20
15.0945299084
 30
0.0
 10
8.525855039
 20
15.0963569712
 30
0.0
 10
8.5237158359
 20
15.098746841
 30
0.0
 10
8.5212474509
 20
15.1014013536
 30
0.0
 10
8.5184703634
 20
15.104298089
 30
0.0
 10
8.5154077058
 20
15.1074125081
 30
0.0
 10
8.5120852251
 20
15.1107181898
 30
0.0
 10
8.5072396002
 20
15.1154472187
 30
0.0
 10
8.5007546819
 20
15.1216113579
 30
0.0
 10
8.4953995503
 20
15.1265530724
 30
0.0
 10
8.4926318375
 20
15.1290723577
 30
0.0
  0
SPLINE
  5
4BE
100
AcDbEntity
  8
0
100
AcDbSpline
 62
7
  6
CONTINUOUS
 70
0
 71
3
 72
26
 73
22
 74
0
 42
0.0000001
 43
0.0000001
 44
0.0000000001
 40
0.0
 40
0.0
 40
0.0
 40
0.0
 40
0.0044825398
 40
0.0071075442
 40
0.0100992324
 40
0.0173789953
 40
0.0265913687
 40
0.0378474874
 40
0.0511915876
 40
0.0666387111
 40
0.0841847985
 40
0.1254811733
 40
0.1748382515
 40
0.2318978695
 40
0.296223797
 40
0.3673106797
 40
0.4445858124
 40
0.5274260351
 40
0.6151569603
 40
0.8023496333
 40
1.0
 40
1.0
 40
1.0
 40
1.0
 10
8.1479548361
 20
15.4632367507
 30
0.0
 10
8.1480149922
 20
15.4632969365
 30
0.0
 10
8.1481399439
 20
15.4633637964
 30
0.0
 10
8.1483283528
 20
15.4634002219
 30
0.0
 10
8.1485739632
 20
15.4634098043
 30
0.0
 10
8.1489422413
 20
15.4633554312
 30
0.0
 10
8.1494488712
 20
15.4632086261
 30
0.0
 10
8.1500473573
 20
15.4629747003
 30
0.0
 10
8.1507369527
 20
15.462653915
 30
0.0
 10
8.1515167071
 20
15.4622462322
 30
0.0
 10
8.1527425644
 20
15.4615485298
 30
0.0
 10
8.1544827203
 20
15.4604556749
 30
0.0
 10
8.1568017418
 20
15.4588785817
 30
0.0
 10
8.1594319008
 20
15.4569837294
 30
0.0
 10
8.1623513698
 20
15.4547863364
 30
0.0
 10
8.1655358643
 20
15.4523039289
 30
0.0
 10
8.1689590148
 20
15.4495567759
 30
0.0
 10
8.1725923996
 20
15.4465673585
 30
0.0
 10
8.177790226
 20
15.4421958104
 30
0.0
 10
8.1845702184
 20
15.4363202181
 30
0.0
 10
8.1900110028
 20
15.4314441334
 30
0.0
 10
8.1927857519
 20
15.4289184433
 30
0.0
  0
SPLINE
  5
4BF
100
AcDbEntity
  8
0
100
AcDbSpline
 62
7
  6
CONTINUOUS
 70
0
 71
3
 72
28
 73
24
 74
0
 42
0.0000001
 43
0.0000001
 44
0.0000000001
 40
0.0
 40
0.0
 40
0.0
 40
0.0
 40
0.0020120581
 40
0.0041799841
 40
0.0066486413
 40
0.0095175933
 40
0.0166760392
 40
0.0259357634
 40
0.0374022527
 40
0.0511124959
 40
0.0670667661
 40
0.0852497616
 40
0.1056284803
 40
0.1281590735
 40
0.1794646912
 40
0.238660445
 40
0.3051332067
 40
0.3781785549
 40
0.4570085073
 40
0.5407648024
 40
0.6285328981
 40
0.8122063811
 40
1.0
 40
1.0
 40
1.0
 40
1.0
 10
8.2397024582
 20
15.378207784
 30
0.0
 10
8.239735486
 20
15.3782408249
 30
0.0
 10
8.2397935004
 20
15.378320855
 30
0.0
 10
8.2398445346
 20
15.3784683395
 30
0.0
 10
8.2398626071
 20
15.3786428273
 30
0.0
 10
8.2398426692
 20
15.3789332931
 30
0.0
 10
8.2397253836
 20
15.3793688547
 30
0.0
 10
8.2394748438
 20
15.3799665661
 30
0.0
 10
8.2391022258
 20
15.3806749788
 30
0.0
 10
8.2386079376
 20
15.3814925057
 30
0.0
 10
8.2379922878
 20
15.3824176242
 30
0.0
 10
8.2372564621
 20
15.3834477871
 30
0.0
 10
8.2364021882
 20
15.3845803553
 30
0.0
 10
8.2350481454
 20
15.386298656
 30
0.0
 10
8.2330712085
 20
15.3886726808
 30
0.0
 10
8.2303637431
 20
15.3917641107
 30
0.0
 10
8.2272563636
 20
15.3951750712
 30
0.0
 10
8.2237827094
 20
15.3988680769
 30
0.0
 10
8.2199805598
 20
15.4028023033
 30
0.0
 10
8.2158917187
 20
15.4069342638
 30
0.0
 10
8.2100283638
 20
15.4127343475
 30
0.0
 10
8.2023367362
 20
15.4201201824
 30
0.0
 10
8.1960103054
 20
15.4259833229
 30
0.0
 10
8.1927857519
 20
15.4289184433
 30
0.0
  0
SPLINE
  5
4C0
100
AcDbEntity
  8
0
100
AcDbSpline
 62
7
  6
CONTINUOUS
 70
0
 71
3
 72
25
 73
21
 74
0
 42
0.0000001
 43
0.0000001
 44
0.0000000001
 40
0.0
 40
0.0
 40
0.0
 40
0.0
 40
0.0052122652
 40
0.0112946429
 40
0.0187900628
 40
0.0279881525
 40
0.0390353207
 40
0.052008147
 40
0.0669465472
 40
0.0838638786
 40
0.1236171977
 40
0.171170527
 40
0.2263064925
 40
0.2887445677
 40
0.3581360104
 40
0.4340877663
 40
0.5161577442
 40
0.603858103
 40
0.7940175517
 40
1.0
 40
1.0
 40
1.0
 40
1.0
 10
7.8296354952
 20
15.7831981107
 30
0.0
 10
7.8296897365
 20
15.7832523283
 30
0.0
 10
7.8298356742
 20
15.7833427492
 30
0.0
 10
7.8301110786
 20
15.7833947386
 30
0.0
 10
7.8304476926
 20
15.783379009
 30
0.0
 10
7.8308487379
 20
15.7832976354
 30
0.0
 10
7.8313156374
 20
15.7831510795
 30
0.0
 10
7.8318486138
 20
15.7829390302
 30
0.0
 10
7.8324472495
 20
15.7826614677
 30
0.0
 10
7.8333834349
 20
15.7821774936
 30
0.0
 10
7.8347076896
 20
15.7814023111
 30
0.0
 10
7.836468194
 20
15.780264368
 30
0.0
 10
7.8384648236
 20
15.778879311
 30
0.0
 10
7.8406853604
 20
15.7772550522
 30
0.0
 10
7.8431163989
 20
15.7754009085
 30
0.0
 10
7.8457430893
 20
15.7733278019
 30
0.0
 10
7.8485494595
 20
15.7710481365
 30
0.0
 10
7.8526189679
 20
15.7676588775
 30
0.0
 10
7.8580136794
 20
15.7630127539
 30
0.0
 10
7.8623625014
 20
15.7591313431
 30
0.0
 10
7.8646081788
 20
15.7570960164
 30
0.0
  0
SPLINE
  5
4C1
100
AcDbEntity
  8
0
100
AcDbSpline
 62
7
  6
CONTINUOUS
 70
0
 71
3
 72
28
 73
24
 74
0
 42
0.0000001
 43
0.0000001
 44
0.0000000001
 40
0.0
 40
0.0
 40
0.0
 40
0.0
 40
0.0020513027
 40
0.004288078
 40
0.0068650017
 40
0.0098839682
 40
0.0174675523
 40
0.0273140522
 40
0.0395134808
 40
0.0540925994
 40
0.07103835
 40
0.0903184258
 40
0.1118848858
 40
0.1356742846
 40
0.1896276094
 40
0.251492681
 40
0.3204502412
 40
0.3955698513
 40
0.47582535
 40
0.5601100364
 40
0.6472565828
 40
0.8252624555
 40
1.0
 40
1.0
 40
1.0
 40
1.0
 10
7.9197409913
 20
15.6965269921
 30
0.0
 10
7.9197809301
 20
15.6965669161
 30
0.0
 10
7.9198507361
 20
15.696665045
 30
0.0
 10
7.9199098688
 20
15.6968467908
 30
0.0
 10
7.9199282044
 20
15.6970630303
 30
0.0
 10
7.9198977541
 20
15.6974257692
 30
0.0
 10
7.91974525
 20
15.6979716392
 30
0.0
 10
7.9194268087
 20
15.6987233741
 30
0.0
 10
7.9189571193
 20
15.6996166934
 30
0.0
 10
7.9183368927
 20
15.700648747
 30
0.0
 10
7.9175670291
 20
15.701816829
 30
0.0
 10
7.9166496249
 20
15.7031169317
 30
0.0
 10
7.915587432
 20
15.7045447115
 30
0.0
 10
7.9139108651
 20
15.706704425
 30
0.0
 10
7.9114747211
 20
15.709677864
 30
0.0
 10
7.908155011
 20
15.7135325483
 30
0.0
 10
7.9043716679
 20
15.7177554707
 30
0.0
 10
7.9001765439
 20
15.7222880175
 30
0.0
 10
7.8956274209
 20
15.7270669336
 30
0.0
 10
7.8907875442
 20
15.732025419
 30
0.0
 10
7.8839886959
 20
15.7388313459
 30
0.0
 10
7.8752896093
 20
15.7472575219
 30
0.0
 10
7.8681725147
 20
15.7538655489
 30
0.0
 10
7.8646081788
 20
15.7570960164
 30
0.0
  0
SPLINE
  5
4C2
100
AcDbEntity
  8
0
100
AcDbSpline
 62
7
  6
CONTINUOUS
 70
0
 71
3
 72
27
 73
23
 74
0
 42
0.0000001
 43
0.0000001
 44
0.0000000001
 40
0.0
 40
0.0
 40
0.0
 40
0.0
 40
0.0022755108
 40
0.0046984518
 40
0.0073917567
 40
0.0104456392
 40
0.017852929
 40
0.0272160202
 40
0.0386575289
 40
0.0522321742
 40
0.0679530336
 40
0.0858126975
 40
0.1278552399
 40
0.1780722472
 40
0.2360522293
 40
0.301288196
 40
0.373186145
 40
0.4510813585
 40
0.5342445383
 40
0.6218888111
 40
0.8072226415
 40
1.0
 40
1.0
 40
1.0
 40
1.0
 10
7.585156557
 20
16.0293941942
 30
0.0
 10
7.5851905464
 20
16.0294281995
 30
0.0
 10
7.5852514743
 20
16.0295082513
 30
0.0
 10
7.5853127954
 20
16.0296532955
 30
0.0
 10
7.5853462732
 20
16.029823638
 30
0.0
 10
7.5853551941
 20
16.0301023446
 30
0.0
 10
7.5852878122
 20
16.0305189171
 30
0.0
 10
7.5851097214
 20
16.0310886578
 30
0.0
 10
7.584828174
 20
16.0317592275
 30
0.0
 10
7.5844431215
 20
16.0325294674
 30
0.0
 10
7.5839548369
 20
16.0333983173
 30
0.0
 10
7.5831204762
 20
16.0347613379
 30
0.0
 10
7.5818162136
 20
16.036689406
 30
0.0
 10
7.5799383018
 20
16.0392493266
 30
0.0
 10
7.5776872276
 20
16.0421414033
 30
0.0
 10
7.5750836936
 20
16.0453381739
 30
0.0
 10
7.5721516759
 20
16.0488091024
 30
0.0
 10
7.5689187766
 20
16.0525209109
 30
0.0
 10
7.5654156557
 20
16.0564379404
 30
0.0
 10
7.5603338144
 20
16.0619878709
 30
0.0
 10
7.5535708419
 20
16.0691377679
 30
0.0
 10
7.5479727204
 20
16.0748382495
 30
0.0
 10
7.545092527
 20
16.0777184429
 30
0.0
  0
SPLINE
  5
4C3
100
AcDbEntity
  8
0
100
AcDbSpline
 62
7
  6
CONTINUOUS
 70
0
 71
3
 72
23
 73
19
 74
0
 42
0.0000001
 43
0.0000001
 44
0.0000000001
 40
0.0
 40
0.0
 40
0.0
 40
0.0
 40
0.2129548154
 40
0.4053262586
 40
0.5743867065
 40
0.6494141912
 40
0.7177404583
 40
0.7791294342
 40
0.8333576311
 40
0.8802394898
 40
0.9196080022
 40
0.951331746
 40
0.9642961014
 40
0.9753142944
 40
0.9843821488
 40
0.9915030483
 40
0.9966916534
 40
1.0
 40
1.0
 40
1.0
 40
1.0
 10
6.9042791587
 20
16.5882311677
 30
0.0
 10
6.9056138196
 20
16.5867614174
 30
0.0
 10
6.908149584
 20
16.583959834
 30
0.0
 10
6.9117268599
 20
16.5799751608
 30
0.0
 10
6.9144298568
 20
16.5769336663
 30
0.0
 10
6.9163530978
 20
16.5747464021
 30
0.0
 10
6.917607608
 20
16.5733077962
 30
0.0
 10
6.918728243
 20
16.5720097482
 30
0.0
 10
6.9197110419
 20
16.5708568567
 30
0.0
 10
6.9205525947
 20
16.5698533561
 30
0.0
 10
6.9212499393
 20
16.569002831
 30
0.0
 10
6.9217372828
 20
16.5683890675
 30
0.0
 10
6.922051704
 20
16.5679757259
 30
0.0
 10
6.9222338398
 20
16.56772713
 30
0.0
 10
6.9223784254
 20
16.5675188054
 30
0.0
 10
6.9224861301
 20
16.5673507399
 30
0.0
 10
6.9225561128
 20
16.5672235119
 30
0.0
 10
6.9225871275
 20
16.5671493676
 30
0.0
 10
6.9225922849
 20
16.5671189591
 30
0.0
  0
LINE
  5
4C4
100
AcDbEntity
  8
0
100
AcDbLine
 62
7
  6
CONTINUOUS
 10
6.7448495627
 20
16.7514227186
 11
6.7446718458
 21
16.7516153233
  0
SPLINE
  5
4C5
100
AcDbEntity
  8
0
100
AcDbSpline
 62
7
  6
CONTINUOUS
 70
0
 71
3
 72
22
 73
18
 74
0
 42
0.0000001
 43
0.0000001
 44
0.0000000001
 40
0.0
 40
0.0
 40
0.0
 40
0.0
 40
0.0070213246
 40
0.0145476854
 40
0.0230240078
 40
0.0327648413
 40
0.0567664202
 40
0.0875021352
 40
0.1253375302
 40
0.1704184677
 40
0.2227576827
 40
0.2823088534
 40
0.3489778628
 40
0.4226173309
 40
0.5901272029
 40
0.7832848942
 40
1.0
 40
1.0
 40
1.0
 40
1.0
 10
7.1639010904
 20
16.4523668925
 30
0.0
 10
7.1639365617
 20
16.4524023457
 30
0.0
 10
7.1640213858
 20
16.4524652022
 30
0.0
 10
7.1641765674
 20
16.4525242742
 30
0.0
 10
7.164359649
 20
16.4525509388
 30
0.0
 10
7.1646621464
 20
16.4525440049
 30
0.0
 10
7.1651152172
 20
16.4524441508
 30
0.0
 10
7.1657359589
 20
16.4522141174
 30
0.0
 10
7.1664693717
 20
16.4518639933
 30
0.0
 10
7.1673138332
 20
16.4513939522
 30
0.0
 10
7.1682678588
 20
16.4508043595
 30
0.0
 10
7.169328901
 20
16.4500963237
 30
0.0
 10
7.1704941722
 20
16.4492714442
 30
0.0
 10
7.1722598947
 20
16.4479611267
 30
0.0
 10
7.1746974798
 20
16.4460414642
 30
0.0
 10
7.1778688527
 20
16.443404631
 30
0.0
 10
7.1800805884
 20
16.4414862214
 30
0.0
 10
7.1812416754
 20
16.4404625198
 30
0.0
  0
LINE
  5
4C6
100
AcDbEntity
  8
0
100
AcDbLine
 62
7
  6
CONTINUOUS
 10
7.1666800829
 20
16.3063322142
 11
7.1681733257
 21
16.3047364856
  0
LINE
  5
4C7
100
AcDbEntity
  8
0
100
AcDbLine
 62
7
  6
CONTINUOUS
 10
7.1713322812
 20
16.3013407859
 11
7.1770419748
 21
16.2948892223
  0
SPLINE
  5
4C8
100
AcDbEntity
  8
0
100
AcDbSpline
 62
7
  6
CONTINUOUS
 70
0
 71
3
 72
32
 73
28
 74
0
 42
0.0000001
 43
0.0000001
 44
0.0000000001
 40
0.0
 40
0.0
 40
0.0
 40
0.0
 40
0.0019924843
 40
0.0042705196
 40
0.0070203429
 40
0.010348439
 40
0.0143133347
 40
0.0189459737
 40
0.0242627332
 40
0.0302721994
 40
0.0443765693
 40
0.0612411437
 40
0.0808133642
 40
0.1030113141
 40
0.1277380443
 40
0.1548757209
 40
0.1842958533
 40
0.215852632
 40
0.2847422798
 40
0.3601642877
 40
0.4405878304
 40
0.5243637102
 40
0.6950131249
 40
0.7783486769
 40
0.8580361976
 40
0.9324286676
 40
1.0
 40
1.0
 40
1.0
 40
1.0
 10
7.2505722272
 20
16.3622613774
 30
0.0
 10
7.2506216854
 20
16.3623108267
 30
0.0
 10
7.2507056585
 20
16.3624400968
 30
0.0
 10
7.2507625809
 20
16.3626831021
 30
0.0
 10
7.2507620775
 20
16.3629781059
 30
0.0
 10
7.2507062285
 20
16.3633271409
 30
0.0
 10
7.2505954412
 20
16.3637314097
 30
0.0
 10
7.2504296599
 20
16.3641912063
 30
0.0
 10
7.2502089106
 20
16.3647063162
 30
0.0
 10
7.2498199465
 20
16.3655100184
 30
0.0
 10
7.2491892782
 20
16.3666455136
 30
0.0
 10
7.2482552992
 20
16.3681542391
 30
0.0
 10
7.2471111069
 20
16.3698654307
 30
0.0
 10
7.2457622655
 20
16.3717705914
 30
0.0
 10
7.2442150188
 20
16.3738598774
 30
0.0
 10
7.2424770519
 20
16.3761227774
 30
0.0
 10
7.2405569655
 20
16.37854764
 30
0.0
 10
7.2376816868
 20
16.3820850248
 30
0.0
 10
7.2337060626
 20
16.386808171
 30
0.0
 10
7.2285184358
 20
16.3927513147
 30
0.0
 10
7.222889403
 20
16.3990014009
 30
0.0
 10
7.2149011499
 20
16.4076234236
 30
0.0
 10
7.2066723329
 20
16.4161606765
 30
0.0
 10
7.1983775472
 20
16.4244298528
 30
0.0
 10
7.1923917765
 20
16.4302284565
 30
0.0
 10
7.1867178791
 20
16.435552291
 30
0.0
 10
7.1830207539
 20
16.4388939505
 30
0.0
 10
7.1812416754
 20
16.4404625198
 30
0.0
  0
SPLINE
  5
4C9
100
AcDbEntity
  8
0
100
AcDbSpline
 62
7
  6
CONTINUOUS
 70
0
 71
3
 72
19
 73
15
 74
0
 42
0.0000001
 43
0.0000001
 44
0.0000000001
 40
0.0
 40
0.0
 40
0.0
 40
0.0
 40
0.0169926875
 40
0.0368966169
 40
0.0617987483
 40
0.0927675718
 40
0.1303385338
 40
0.1747854243
 40
0.2262262147
 40
0.2847030737
 40
0.4227264704
 40
0.5885043048
 40
0.781331575
 40
1.0
 40
1.0
 40
1.0
 40
1.0
 10
6.8455818714
 20
16.7723283706
 30
0.0
 10
6.8456320412
 20
16.7723785609
 30
0.0
 10
6.8457695704
 20
16.7724605994
 30
0.0
 10
6.8460296661
 20
16.7724949725
 30
0.0
 10
6.8463458215
 20
16.7724583029
 30
0.0
 10
6.8467225951
 20
16.7723526957
 30
0.0
 10
6.8471616176
 20
16.7721782065
 30
0.0
 10
6.8476632153
 20
16.7719343769
 30
0.0
 10
6.8482270252
 20
16.7716213094
 30
0.0
 10
6.849110645
 20
16.7710810644
 30
0.0
 10
6.8503602927
 20
16.7702266631
 30
0.0
 10
6.8520215885
 20
16.768984427
 30
0.0
 10
6.8539065151
 20
16.7674808807
 30
0.0
 10
6.8552242589
 20
16.7663775827
 30
0.0
 10
6.8559191406
 20
16.7657850546
 30
0.0
  0
SPLINE
  5
4CA
100
AcDbEntity
  8
0
100
AcDbSpline
 62
7
  6
CONTINUOUS
 70
0
 71
3
 72
33
 73
29
 74
0
 42
0.0000001
 43
0.0000001
 44
0.0000000001
 40
0.0
 40
0.0
 40
0.0
 40
0.0
 40
0.0018962699
 40
0.0041588514
 40
0.0069947861
 40
0.0105076245
 40
0.0147485359
 40
0.019743787
 40
0.0255051268
 40
0.032035506
 40
0.0473945567
 40
0.0657736852
 40
0.0870863699
 40
0.111218781
 40
0.1380370925
 40
0.167385588
 40
0.1990942973
 40
0.2329743093
 40
0.3064311088
 40
0.3859947975
 40
0.4697376885
 40
0.5556144578
 40
0.6415134866
 40
0.7253134741
 40
0.8049411445
 40
0.8784309119
 40
0.9439778525
 40
1.0
 40
1.0
 40
1.0
 40
1.0
 10
6.9306108052
 20
16.6805807839
 30
0.0
 10
6.9306617912
 20
16.6806317729
 30
0.0
 10
6.9307455747
 20
16.6807726647
 30
0.0
 10
6.9307879273
 20
16.6810389214
 30
0.0
 10
6.9307649724
 20
16.6813672331
 30
0.0
 10
6.9306780724
 20
16.6817613968
 30
0.0
 10
6.9305274721
 20
16.6822227535
 30
0.0
 10
6.9303127479
 20
16.6827514458
 30
0.0
 10
6.9300339867
 20
16.6833470082
 30
0.0
 10
6.9295502719
 20
16.6842808207
 30
0.0
 10
6.9287797089
 20
16.6856049894
 30
0.0
 10
6.9276530802
 20
16.6873697115
 30
0.0
 10
6.926285208
 20
16.689374857
 30
0.0
 10
6.9246840914
 20
16.6916082994
 30
0.0
 10
6.9228588837
 20
16.6940563686
 30
0.0
 10
6.9208204478
 20
16.6967042731
 30
0.0
 10
6.9185809207
 20
16.6995358371
 30
0.0
 10
6.9152538922
 20
16.7036452933
 30
0.0
 10
6.9106970444
 20
16.7090997975
 30
0.0
 10
6.9048116412
 20
16.7159133299
 30
0.0
 10
6.8985134912
 20
16.7229930614
 30
0.0
 10
6.8919572684
 20
16.7301644084
 30
0.0
 10
6.885304934
 20
16.7372496718
 30
0.0
 10
6.8787217817
 20
16.7440727713
 30
0.0
 10
6.8723719312
 20
16.7504639687
 30
0.0
 10
6.8664140306
 20
16.756264752
 30
0.0
 10
6.8609967577
 20
16.7613319329
 30
0.0
 10
6.8575401268
 20
16.7644028338
 30
0.0
 10
6.8559191406
 20
16.7657850546
 30
0.0
  0
SPLINE
  5
4CB
100
AcDbEntity
  8
0
100
AcDbSpline
 62
7
  6
CONTINUOUS
 70
0
 71
3
 72
17
 73
13
 74
0
 42
0.0000001
 43
0.0000001
 44
0.0000000001
 40
0.0
 40
0.0
 40
0.0
 40
0.0
 40
0.0213279645
 40
0.0446811852
 40
0.071937095
 40
0.1042949317
 40
0.1868065692
 40
0.2952600128
 40
0.4306767813
 40
0.5934107816
 40
0.7833175325
 40
1.0
 40
1.0
 40
1.0
 40
1.0
 10
6.5557226031
 20
17.0636831409
 30
0.0
 10
6.5557519069
 20
17.0637124241
 30
0.0
 10
6.5558250011
 20
17.0637629292
 30
0.0
 10
6.5559612982
 20
17.0638012059
 30
0.0
 10
6.556123501
 20
17.0638060497
 30
0.0
 10
6.5563976466
 20
17.0637664055
 30
0.0
 10
6.556810267
 20
17.0636234198
 30
0.0
 10
6.5573794073
 20
17.0633431654
 30
0.0
 10
6.5580584529
 20
17.0629384081
 30
0.0
 10
6.5588456054
 20
17.0624096739
 30
0.0
 10
6.5597390151
 20
17.0617575844
 30
0.0
 10
6.560362971
 20
17.0612732852
 30
0.0
 10
6.5606926041
 20
17.0610115911
 30
0.0
  0
SPLINE
  5
4CC
100
AcDbEntity
  8
0
100
AcDbSpline
 62
7
  6
CONTINUOUS
 70
0
 71
3
 72
19
 73
15
 74
0
 42
0.0000001
 43
0.0000001
 44
0.0000000001
 40
0.0
 40
0.0
 40
0.0
 40
0.0
 40
0.0166711874
 40
0.036758173
 40
0.062065057
 40
0.0934929334
 40
0.1314913707
 40
0.1762763652
 40
0.2279502299
 40
0.2865571366
 40
0.4245354843
 40
0.5898769338
 40
0.7819808946
 40
1.0
 40
1.0
 40
1.0
 40
1.0
 10
6.6392562877
 20
16.9704401555
 30
0.0
 10
6.6392972686
 20
16.9704811249
 30
0.0
 10
6.6393642908
 20
16.970595457
 30
0.0
 10
6.6393976423
 20
16.9708114397
 30
0.0
 10
6.6393791712
 20
16.9710791156
 30
0.0
 10
6.6393094785
 20
16.9714016983
 30
0.0
 10
6.6391887373
 20
16.9717803028
 30
0.0
 10
6.6390166693
 20
16.9722151181
 30
0.0
 10
6.6387933043
 20
16.9727058395
 30
0.0
 10
6.6384054197
 20
16.9734768615
 30
0.0
 10
6.6377870189
 20
16.9745731132
 30
0.0
 10
6.6368820261
 20
16.9760384865
 30
0.0
 10
6.6357814428
 20
16.9777090234
 30
0.0
 10
6.6349708109
 20
16.9788817812
 30
0.0
 10
6.634534693
 20
16.9795015272
 30
0.0
  0
SPLINE
  5
4CD
100
AcDbEntity
  8
0
100
AcDbSpline
 62
7
  6
CONTINUOUS
 70
0
 71
3
 72
22
 73
18
 74
0
 42
0.0000001
 43
0.0000001
 44
0.0000000001
 40
0.0
 40
0.0
 40
0.0
 40
0.0
 40
0.0469398876
 40
0.1013555588
 40
0.1623203308
 40
0.228786162
 40
0.3735381716
 40
0.5255534587
 40
0.6009513951
 40
0.6741531364
 40
0.7438551835
 40
0.8088153599
 40
0.8678806734
 40
0.9200082349
 40
0.9642959759
 40
0.9832640071
 40
1.0
 40
1.0
 40
1.0
 40
1.0
 10
6.6340344837
 20
16.9802076463
 30
0.0
 10
6.633041736
 20
16.9816001433
 30
0.0
 10
6.6308484052
 20
16.9845714757
 30
0.0
 10
6.6272339113
 20
16.9892524357
 30
0.0
 10
6.6230962844
 20
16.9944270187
 30
0.0
 10
6.6167952076
 20
17.0020843748
 30
0.0
 10
6.6081989392
 20
17.0121472837
 30
0.0
 10
6.5991874504
 20
17.0222795718
 30
0.0
 10
6.5917871056
 20
17.0303535605
 30
0.0
 10
6.5863518428
 20
17.0361600783
 30
0.0
 10
6.581114229
 20
17.0416300909
 30
0.0
 10
6.5761683274
 20
17.0466656183
 30
0.0
 10
6.5716032747
 20
17.0511768844
 30
0.0
 10
6.5675010267
 20
17.0550836251
 30
0.0
 10
6.5643877619
 20
17.0579094137
 30
0.0
 10
6.5621761882
 20
17.0598076006
 30
0.0
 10
6.5611701474
 20
17.0606324719
 30
0.0
 10
6.5606926041
 20
17.0610115911
 30
0.0
  0
SPLINE
  5
4CE
100
AcDbEntity
  8
0
100
AcDbSpline
 62
7
  6
CONTINUOUS
 70
0
 71
3
 72
12
 73
8
 74
0
 42
0.0000001
 43
0.0000001
 44
0.0000000001
 40
0.0
 40
0.0
 40
0.0
 40
0.0
 40
0.3231718473
 40
0.4559946045
 40
0.6126752016
 40
0.7938814584
 40
1.0
 40
1.0
 40
1.0
 40
1.0
 10
6.3069915844
 20
17.3136975163
 30
0.0
 10
6.3071129748
 20
17.3138189317
 30
0.0
 10
6.3074228082
 20
17.3137650493
 30
0.0
 10
6.3077150894
 20
17.3136521536
 30
0.0
 10
6.3079439114
 20
17.3135440994
 30
0.0
 10
6.3081963739
 20
17.3134050987
 30
0.0
 10
6.3083723565
 20
17.3132978788
 30
0.0
 10
6.3084648823
 20
17.3132393129
 30
0.0
  0
SPLINE
  5
4CF
100
AcDbEntity
  8
0
100
AcDbSpline
 62
7
  6
CONTINUOUS
 70
0
 71
3
 72
17
 73
13
 74
0
 42
0.0000001
 43
0.0000001
 44
0.0000000001
 40
0.0
 40
0.0
 40
0.0
 40
0.0
 40
0.0195767426
 40
0.0420543063
 40
0.0690757366
 40
0.1015968119
 40
0.1849734369
 40
0.294379291
 40
0.4305426873
 40
0.5936346137
 40
0.783532189
 40
1.0
 40
1.0
 40
1.0
 40
1.0
 10
6.3892421336
 20
17.2191713649
 30
0.0
 10
6.3892645652
 20
17.2191937999
 30
0.0
 10
6.3893031057
 20
17.2192520952
 30
0.0
 10
6.389332276
 20
17.2193614562
 30
0.0
 10
6.3893379159
 20
17.2194949654
 30
0.0
 10
6.3893126529
 20
17.2197257802
 30
0.0
 10
6.3892141872
 20
17.2200792309
 30
0.0
 10
6.3890176563
 20
17.2205750498
 30
0.0
 10
6.3887315077
 20
17.221172819
 30
0.0
 10
6.3883562492
 20
17.2218712504
 30
0.0
 10
6.3878920706
 20
17.2226690251
 30
0.0
 10
6.38754629
 20
17.2232295559
 30
0.0
 10
6.3873592711
 20
17.2235263472
 30
0.0
  0
SPLINE
  5
4D0
100
AcDbEntity
  8
0
100
AcDbSpline
 62
7
  6
CONTINUOUS
 70
0
 71
3
 72
13
 73
9
 74
0
 42
0.0000001
 43
0.0000001
 44
0.0000000001
 40
0.0
 40
0.0
 40
0.0
 40
0.0
 40
0.0798498457
 40
0.1741560913
 40
0.2822674567
 40
0.4034286376
 40
0.6813518148
 40
1.0
 40
1.0
 40
1.0
 40
1.0
 10
6.3873592711
 20
17.2235263472
 30
0.0
 10
6.3869627903
 20
17.2241555463
 30
0.0
 10
6.3860709979
 20
17.2255108093
 30
0.0
 10
6.384571817
 20
17.2276705997
 30
0.0
 10
6.382807511
 20
17.2301140892
 30
0.0
 10
6.3799863284
 20
17.2339031717
 30
0.0
 10
6.3758965781
 20
17.2391915439
 30
0.0
 10
6.3724243431
 20
17.2435295502
 30
0.0
 10
6.3705548174
 20
17.2458344827
 30
0.0
  0
SPLINE
  5
4D1
100
AcDbEntity
  8
0
100
AcDbSpline
 62
7
  6
CONTINUOUS
 70
0
 71
3
 72
18
 73
14
 74
0
 42
0.0000001
 43
0.0000001
 44
0.0000000001
 40
0.0
 40
0.0
 40
0.0
 40
0.0
 40
0.1391597981
 40
0.287621589
 40
0.4385921698
 40
0.5851086094
 40
0.7203629381
 40
0.7817681794
 40
0.8380500369
 40
0.8885533428
 40
0.9326964155
 40
0.9699793717
 40
1.0
 40
1.0
 40
1.0
 40
1.0
 10
6.3705548174
 20
17.2458344827
 30
0.0
 10
6.3679469558
 20
17.249049707
 30
0.0
 10
6.3624972911
 20
17.2556468169
 30
0.0
 10
6.3540452346
 20
17.2655874044
 30
0.0
 10
6.3453184549
 20
17.2755802164
 30
0.0
 10
6.3367206347
 20
17.285162422
 30
0.0
 10
6.3297901436
 20
17.2926595405
 30
0.0
 10
6.3246033268
 20
17.2981112417
 30
0.0
 10
6.3211147178
 20
17.3016981671
 30
0.0
 10
6.3179417256
 20
17.3048751701
 30
0.0
 10
6.3151219569
 20
17.3076055648
 30
0.0
 10
6.3126887975
 20
17.3098579915
 30
0.0
 10
6.3111765409
 20
17.3111713941
 30
0.0
 10
6.3104852006
 20
17.3117367728
 30
0.0
  0
LINE
  5
4D2
100
AcDbEntity
  8
0
100
AcDbLine
 62
7
  6
CONTINUOUS
 10
6.3104852006
 20
17.3117367728
 11
6.3084648823
 21
17.3132393129
  0
SPLINE
  5
4D3
100
AcDbEntity
  8
0
100
AcDbSpline
 62
7
  6
CONTINUOUS
 70
0
 71
3
 72
18
 73
14
 74
0
 42
0.0000001
 43
0.0000001
 44
0.0000000001
 40
0.0
 40
0.0
 40
0.0
 40
0.0
 40
0.0083529891
 40
0.0219091566
 40
0.0424005336
 40
0.0702954252
 40
0.1057661322
 40
0.1488785856
 40
0.2581036159
 40
0.3980038724
 40
0.5684672872
 40
0.7692344793
 40
1.0
 40
1.0
 40
1.0
 40
1.0
 10
6.2175523121
 20
17.3520532314
 30
0.0
 10
6.2175587124
 20
17.3520596151
 30
0.0
 10
6.2175851105
 20
17.3520641413
 30
0.0
 10
6.2176281201
 20
17.3520480342
 30
0.0
 10
6.2176876227
 20
17.3520167044
 30
0.0
 10
6.2177629347
 20
17.3519659226
 30
0.0
 10
6.2178550742
 20
17.3518966771
 30
0.0
 10
6.2180126897
 20
17.3517682889
 30
0.0
 10
6.2182496227
 20
17.3515586538
 30
0.0
 10
6.2185809523
 20
17.3512481105
 30
0.0
 10
6.218977084
 20
17.3508619884
 30
0.0
 10
6.2194373534
 20
17.3504008964
 30
0.0
 10
6.2197638753
 20
17.3500669954
 30
0.0
 10
6.2199378144
 20
17.3498877913
 30
0.0
  0
LINE
  5
4D4
100
AcDbEntity
  8
0
100
AcDbLine
 62
7
  6
CONTINUOUS
 10
6.2199378144
 20
17.3498877913
 11
6.2243788826
 21
17.3451494425
  0
SPLINE
  5
4D5
100
AcDbEntity
  8
0
100
AcDbSpline
 62
7
  6
CONTINUOUS
 70
0
 71
3
 72
12
 73
8
 74
0
 42
0.0000001
 43
0.0000001
 44
0.0000000001
 40
0.0
 40
0.0
 40
0.0
 40
0.0
 40
0.2455722981
 40
0.5250267166
 40
0.7914941031
 40
0.9055236484
 40
1.0
 40
1.0
 40
1.0
 40
1.0
 10
9.1059809788
 20
14.5038404829
 30
0.0
 10
9.1118097508
 20
14.4990848418
 30
0.0
 10
9.1242350299
 20
14.4888727255
 30
0.0
 10
9.1429055465
 20
14.4734039217
 30
0.0
 10
9.1584247859
 20
14.4604477717
 30
0.0
 10
9.1695572289
 20
14.4510791554
 30
0.0
 10
9.1744300856
 20
14.4469497333
 30
0.0
 10
9.1766322874
 20
14.4450719078
 30
0.0
  0
SPLINE
  5
4D6
100
AcDbEntity
  8
0
100
AcDbSpline
 62
7
  6
CONTINUOUS
 70
0
 71
3
 72
20
 73
16
 74
0
 42
0.0000001
 43
0.0000001
 44
0.0000000001
 40
0.0
 40
0.0
 40
0.0
 40
0.0
 40
0.003949091
 40
0.0093005792
 40
0.0250040247
 40
0.0478589095
 40
0.0780400208
 40
0.1155983592
 40
0.1605191722
 40
0.212763105
 40
0.2722816379
 40
0.4128759991
 40
0.5816037966
 40
0.7776474134
 40
1.0
 40
1.0
 40
1.0
 40
1.0
 10
9.0194310537
 20
14.5872960156
 30
0.0
 10
9.0194435312
 20
14.5873014727
 30
0.0
 10
9.0194761927
 20
14.5873061552
 30
0.0
 10
9.019562049
 20
14.5872960071
 30
0.0
 10
9.019706254
 20
14.5872457375
 30
0.0
 10
9.0199208581
 20
14.5871455336
 30
0.0
 10
9.020195331
 20
14.5869956769
 30
0.0
 10
9.0205290054
 20
14.5867966813
 30
0.0
 10
9.0209216253
 20
14.5865481626
 30
0.0
 10
9.0213725791
 20
14.5862504777
 30
0.0
 10
9.022091767
 20
14.5857603948
 30
0.0
 10
9.0231300456
 20
14.5850254804
 30
0.0
 10
9.0245375677
 20
14.5839977147
 30
0.0
 10
9.0261596679
 20
14.5827859148
 30
0.0
 10
9.0273084091
 20
14.5819128223
 30
0.0
 10
9.0279174346
 20
14.581446921
 30
0.0
  0
LINE
  5
4D7
100
AcDbEntity
  8
0
100
AcDbLine
 62
7
  6
CONTINUOUS
 10
9.0279174346
 20
14.581446921
 11
9.0359807645
 21
14.5751484839
  0
LINE
  5
4D8
100
AcDbEntity
  8
0
100
AcDbLine
 62
7
  6
CONTINUOUS
 10
9.0359807645
 20
14.5751484839
 11
9.0371321272
 21
14.5742336522
  0
SPLINE
  5
4D9
100
AcDbEntity
  8
0
100
AcDbSpline
 62
7
  6
CONTINUOUS
 70
0
 71
3
 72
13
 73
9
 74
0
 42
0.0000001
 43
0.0000001
 44
0.0000000001
 40
0.0
 40
0.0
 40
0.0
 40
0.0
 40
0.1111455643
 40
0.2345840467
 40
0.5022080863
 40
0.7687554281
 40
0.8908144033
 40
1.0
 40
1.0
 40
1.0
 40
1.0
 10
9.0371321272
 20
14.5742336522
 30
0.0
 10
9.039535083
 20
14.5723212682
 30
0.0
 10
9.044588045
 20
14.5682614476
 30
0.0
 10
9.0553467944
 20
14.5594974045
 30
0.0
 10
9.0693352225
 20
14.5478999865
 30
0.0
 10
9.0831817085
 20
14.5361923943
 30
0.0
 10
9.0936060742
 20
14.5272190906
 30
0.0
 10
9.0984194865
 20
14.5230169456
 30
0.0
 10
9.1006824361
 20
14.5210217591
 30
0.0
  0
LINE
  5
4DA
100
AcDbEntity
  8
0
100
AcDbLine
 62
7
  6
CONTINUOUS
 10
8.2128305183
 20
15.2829805886
 11
8.2157171756
 21
15.2803170598
  0
LINE
  5
4DB
100
AcDbEntity
  8
0
100
AcDbLine
 62
7
  6
CONTINUOUS
 10
8.2157171756
 20
15.2803170598
 11
8.2189894074
 21
15.2772977617
  0
LINE
  5
4DC
100
AcDbEntity
  8
0
100
AcDbLine
 62
7
  6
CONTINUOUS
 10
8.1603098255
 20
15.331441858
 11
8.2128305183
 21
15.2829805886
  0
SPLINE
  5
4DD
100
AcDbEntity
  8
0
100
AcDbSpline
 62
7
  6
CONTINUOUS
 70
0
 71
3
 72
23
 73
19
 74
0
 42
0.0000001
 43
0.0000001
 44
0.0000000001
 40
0.0
 40
0.0
 40
0.0
 40
0.0
 40
0.0033344735
 40
0.0085413179
 40
0.0156730589
 40
0.0247448387
 40
0.0357604038
 40
0.0487158304
 40
0.0804050276
 40
0.1197204535
 40
0.166534717
 40
0.2206869132
 40
0.2819971805
 40
0.3502494905
 40
0.4252154876
 40
0.5942241234
 40
0.7867010005
 40
1.0
 40
1.0
 40
1.0
 40
1.0
 10
8.0344930431
 20
15.4552182008
 30
0.0
 10
8.0345228551
 20
15.4552131446
 30
0.0
 10
8.0345954225
 20
15.4551830471
 30
0.0
 10
8.0347197829
 20
15.4551150027
 30
0.0
 10
8.0348837251
 20
15.4550104222
 30
0.0
 10
8.0350867008
 20
15.4548700723
 30
0.0
 10
8.0353287249
 20
15.4546933212
 30
0.0
 10
8.0357308635
 20
15.4543882804
 30
0.0
 10
8.0363277239
 20
15.4539154634
 30
0.0
 10
8.0371545876
 20
15.4532388373
 30
0.0
 10
8.0381300012
 20
15.4524222105
 30
0.0
 10
8.0392505817
 20
15.4514683681
 30
0.0
 10
8.0405123407
 20
15.4503805132
 30
0.0
 10
8.0419109441
 20
15.4491623713
 30
0.0
 10
8.044038266
 20
15.4472939462
 30
0.0
 10
8.0469980023
 20
15.4446662839
 30
0.0
 10
8.0508781875
 20
15.4411860523
 30
0.0
 10
8.0536073853
 20
15.4387179671
 30
0.0
 10
8.0550398805
 20
15.4374182602
 30
0.0
  0
LINE
  5
4DE
100
AcDbEntity
  8
0
100
AcDbLine
 62
7
  6
CONTINUOUS
 10
8.0591670389
 20
15.4336624501
 11
8.0605995051
 21
15.4323540294
  0
SPLINE
  5
4DF
100
AcDbEntity
  8
0
100
AcDbSpline
 62
7
  6
CONTINUOUS
 70
0
 71
3
 72
21
 73
17
 74
0
 42
0.0000001
 43
0.0000001
 44
0.0000000001
 40
0.0
 40
0.0
 40
0.0
 40
0.0
 40
0.2256671613
 40
0.4245885567
 40
0.5954102052
 40
0.7369603866
 40
0.7964727852
 40
0.8483428353
 40
0.8925031575
 40
0.9116815305
 40
0.928921793
 40
0.9575897902
 40
0.9785842996
 40
0.9862981234
 40
0.9922705886
 40
1.0
 40
1.0
 40
1.0
 40
1.0
 10
7.8628379045
 20
15.6331989968
 30
0.0
 10
7.8635448932
 20
15.6324574182
 30
0.0
 10
7.8648701859
 20
15.6310574704
 30
0.0
 10
7.8667103309
 20
15.6290770591
 30
0.0
 10
7.8682696318
 20
15.6273572533
 30
0.0
 10
7.8693828482
 20
15.6260875689
 30
0.0
 10
7.8701222354
 20
15.6252088355
 30
0.0
 10
7.8705676535
 20
15.6246607673
 30
0.0
 10
7.8708884173
 20
15.6242474964
 30
0.0
 10
7.8711053785
 20
15.6239528889
 30
0.0
 10
7.8712758447
 20
15.6237115114
 30
0.0
 10
7.8714422148
 20
15.623457039
 30
0.0
 10
7.8715689002
 20
15.6232293192
 30
0.0
 10
7.8716259698
 20
15.6230810782
 30
0.0
 10
7.8716496008
 20
15.6229890678
 30
0.0
 10
7.8716435882
 20
15.6229165468
 30
0.0
 10
7.8716187856
 20
15.6228917198
 30
0.0
  0
SPLINE
  5
4E0
100
AcDbEntity
  8
0
100
AcDbSpline
 62
7
  6
CONTINUOUS
 70
0
 71
3
 72
17
 73
13
 74
0
 42
0.0000001
 43
0.0000001
 44
0.0000000001
 40
0.0
 40
0.0
 40
0.0
 40
0.0
 40
0.4234015961
 40
0.5919261691
 40
0.7310844392
 40
0.7895815628
 40
0.8406861871
 40
0.8844197089
 40
0.9208396247
 40
0.9500787616
 40
0.9724499544
 40
1.0
 40
1.0
 40
1.0
 40
1.0
 10
7.5208956478
 20
15.9733328352
 30
0.0
 10
7.5214375726
 20
15.9726880209
 30
0.0
 10
7.5221868914
 20
15.9717792504
 30
0.0
 10
7.5230759295
 20
15.9706280893
 30
0.0
 10
7.5235047901
 20
15.9700390311
 30
0.0
 10
7.5237820711
 20
15.9696290372
 30
0.0
 10
7.5239456574
 20
15.9693715925
 30
0.0
 10
7.52407722
 20
15.9691456872
 30
0.0
 10
7.5241768959
 20
15.9689528029
 30
0.0
 10
7.5242447044
 20
15.9687890946
 30
0.0
 10
7.5242879708
 20
15.9686428747
 30
0.0
 10
7.5242868796
 20
15.9685245598
 30
0.0
 10
7.5242481475
 20
15.9684857831
 30
0.0
  0
SPLINE
  5
4E1
100
AcDbEntity
  8
0
100
AcDbSpline
 62
7
  6
CONTINUOUS
 70
0
 71
3
 72
19
 73
15
 74
0
 42
0.0000001
 43
0.0000001
 44
0.0000000001
 40
0.0
 40
0.0
 40
0.0
 40
0.0
 40
0.2294561428
 40
0.4296425422
 40
0.6000410263
 40
0.7402812017
 40
0.8500900125
 40
0.8935248846
 40
0.9293219815
 40
0.9575338562
 40
0.9782878856
 40
0.9859732731
 40
0.9919852956
 40
1.0
 40
1.0
 40
1.0
 40
1.0
 10
7.5115537796
 20
15.9628856417
 30
0.0
 10
7.5118135757
 20
15.9625968611
 30
0.0
 10
7.5122981995
 20
15.9620544844
 30
0.0
 10
7.5129679802
 20
15.9612907586
 30
0.0
 10
7.5135301601
 20
15.9606336088
 30
0.0
 10
7.5139833286
 20
15.9600847069
 30
0.0
 10
7.5142898959
 20
15.9596935654
 30
0.0
 10
7.5144778763
 20
15.9594345192
 30
0.0
 10
7.5145798063
 20
15.959283818
 30
0.0
 10
7.5146539807
 20
15.9591608577
 30
0.0
 10
7.5146971838
 20
15.9590751225
 30
0.0
 10
7.5147158239
 20
15.9590193796
 30
0.0
 10
7.5147230298
 20
15.9589840348
 30
0.0
 10
7.5147193668
 20
15.9589569297
 30
0.0
 10
7.5147097683
 20
15.9589473402
 30
0.0
  0
LINE
  5
4E2
100
AcDbEntity
  8
0
100
AcDbLine
 62
7
  6
CONTINUOUS
 10
8.5949377767
 20
14.9624212937
 11
8.5960551444
 21
14.9620201842
  0
SPLINE
  5
4E3
100
AcDbEntity
  8
0
100
AcDbSpline
 62
7
  6
CONTINUOUS
 70
0
 71
3
 72
15
 73
11
 74
0
 42
0.0000001
 43
0.0000001
 44
0.0000000001
 40
0.0
 40
0.0
 40
0.0
 40
0.0
 40
0.0239400847
 40
0.0536319762
 40
0.1299895147
 40
0.2282542571
 40
0.3472934305
 40
0.4857167509
 40
0.6418953581
 40
1.0
 40
1.0
 40
1.0
 40
1.0
 10
8.5960551444
 20
14.9620201842
 30
0.0
 10
8.5962684781
 20
14.961896708
 30
0.0
 10
8.5967381066
 20
14.9616058174
 30
0.0
 10
8.597852289
 20
14.9608640803
 30
0.0
 10
8.5995615858
 20
14.959636944
 30
0.0
 10
8.6019758517
 20
14.9578165548
 30
0.0
 10
8.6048642127
 20
14.9555641666
 30
0.0
 10
8.6081922997
 20
14.9529066017
 30
0.0
 10
8.6134059496
 20
14.9486660759
 30
0.0
 10
8.6174765214
 20
14.9452792048
 30
0.0
 10
8.6202995782
 20
14.9429074868
 30
0.0
  0
SPLINE
  5
4E4
100
AcDbEntity
  8
0
100
AcDbSpline
 62
7
  6
CONTINUOUS
 70
0
 71
3
 72
11
 73
7
 74
0
 42
0.0000001
 43
0.0000001
 44
0.0000000001
 40
0.0
 40
0.0
 40
0.0
 40
0.0
 40
0.2418345052
 40
0.5006074988
 40
0.7590922595
 40
1.0
 40
1.0
 40
1.0
 40
1.0
 10
8.6202995782
 20
14.9429074868
 30
0.0
 10
8.6241357888
 20
14.9396845938
 30
0.0
 10
8.6320329024
 20
14.9329606345
 30
0.0
 10
8.6439044427
 20
14.9226451194
 30
0.0
 10
8.6556628489
 20
14.9122297643
 30
0.0
 10
8.6633381678
 20
14.9052911681
 30
0.0
 10
8.6670180609
 20
14.9019192396
 30
0.0
  0
SPLINE
  5
4E5
100
AcDbEntity
  8
0
100
AcDbSpline
 62
7
  6
CONTINUOUS
 70
0
 71
3
 72
17
 73
13
 74
0
 42
0.0000001
 43
0.0000001
 44
0.0000000001
 40
0.0
 40
0.0
 40
0.0
 40
0.0
 40
0.018095062
 40
0.0392398434
 40
0.0651789292
 40
0.0968716831
 40
0.179268278
 40
0.2884597467
 40
0.4250893717
 40
0.5893226674
 40
0.7810355914
 40
1.0
 40
1.0
 40
1.0
 40
1.0
 10
8.3887035515
 20
15.1697176756
 30
0.0
 10
8.3887216259
 20
15.1697357549
 30
0.0
 10
8.3887699457
 20
15.1697662205
 30
0.0
 10
8.3888610696
 20
15.1697858798
 30
0.0
 10
8.3889729471
 20
15.1697846085
 30
0.0
 10
8.3891686687
 20
15.1697526482
 30
0.0
 10
8.3894694683
 20
15.1696529938
 30
0.0
 10
8.3898931929
 20
15.169464207
 30
0.0
 10
8.3904063832
 20
15.1691946291
 30
0.0
 10
8.3910080326
 20
15.1688446906
 30
0.0
 10
8.3916971164
 20
15.1684145089
 30
0.0
 10
8.3921819244
 20
15.1680956879
 30
0.0
 10
8.3924388994
 20
15.1679234615
 30
0.0
  0
SPLINE
  5
4E6
100
AcDbEntity
  8
0
100
AcDbSpline
 62
7
  6
CONTINUOUS
 70
0
 71
3
 72
14
 73
10
 74
0
 42
0.0000001
 43
0.0000001
 44
0.0000000001
 40
0.0
 40
0.0
 40
0.0
 40
0.0
 40
0.0727221434
 40
0.1629822329
 40
0.2697262991
 40
0.3916850772
 40
0.527397285
 40
0.6752305537
 40
1.0
 40
1.0
 40
1.0
 40
1.0
 10
8.3924388994
 20
15.1679234615
 30
0.0
 10
8.3932148425
 20
15.1674034192
 30
0.0
 10
8.3949247954
 20
15.1661947105
 30
0.0
 10
8.3976998689
 20
15.1641202725
 30
0.0
 10
8.4009346581
 20
15.1616056869
 30
0.0
 10
8.4045894875
 20
15.158681114
 30
0.0
 10
8.4086197028
 20
15.1553814671
 30
0.0
 10
8.4146192059
 20
15.1503754846
 30
0.0
 10
8.4192325059
 20
15.146429449
 30
0.0
 10
8.4223860127
 20
15.1436986329
 30
0.0
  0
SPLINE
  5
4E7
100
AcDbEntity
  8
0
100
AcDbSpline
 62
7
  6
CONTINUOUS
 70
0
 71
3
 72
20
 73
16
 74
0
 42
0.0000001
 43
0.0000001
 44
0.0000000001
 40
0.0
 40
0.0
 40
0.0
 40
0.0
 40
0.0139862416
 40
0.0319123212
 40
0.0556737879
 40
0.0860682563
 40
0.1234347261
 40
0.1679270761
 40
0.2784710582
 40
0.3444971265
 40
0.417618446
 40
0.4977658745
 40
0.5848389863
 40
0.7792970224
 40
1.0
 40
1.0
 40
1.0
 40
1.0
 10
8.1199339023
 20
15.4398716051
 30
0.0
 10
8.1199723754
 20
15.4399100584
 30
0.0
 10
8.1200893684
 20
15.439968305
 30
0.0
 10
8.1203087375
 20
15.439975873
 30
0.0
 10
8.1205856893
 20
15.439925998
 30
0.0
 10
8.120925145
 20
15.4398165952
 30
0.0
 10
8.1213282292
 20
15.4396480932
 30
0.0
 10
8.1220005171
 20
15.4393187872
 30
0.0
 10
8.1227463551
 20
15.4388894933
 30
0.0
 10
8.1235709231
 20
15.4383766041
 30
0.0
 10
8.12428545
 20
15.4379107784
 30
0.0
 10
8.1250596524
 20
15.4373869505
 30
0.0
 10
8.1262131084
 20
15.4365817846
 30
0.0
 10
8.1277933547
 20
15.435433394
 30
0.0
 10
8.1290817834
 20
15.4344601213
 30
0.0
 10
8.1297630625
 20
15.4339379773
 30
0.0
  0
SPLINE
  5
4E8
100
AcDbEntity
  8
0
100
AcDbSpline
 62
7
  6
CONTINUOUS
 70
0
 71
3
 72
17
 73
13
 74
0
 42
0.0000001
 43
0.0000001
 44
0.0000000001
 40
0.0
 40
0.0
 40
0.0
 40
0.0
 40
0.0201741248
 40
0.0429337773
 40
0.0700239479
 40
0.1024918047
 40
0.1856469928
 40
0.2948576181
 40
0.4308739876
 40
0.5938846101
 40
0.7837063808
 40
1.0
 40
1.0
 40
1.0
 40
1.0
 10
7.8069450575
 20
15.754472551
 30
0.0
 10
7.8069745968
 20
15.7545020723
 30
0.0
 10
7.8070502824
 20
15.7545527987
 30
0.0
 10
7.80719201
 20
15.7545906849
 30
0.0
 10
7.8073633355
 20
15.7545962044
 30
0.0
 10
7.8076571957
 20
15.7545585317
 30
0.0
 10
7.8081042222
 20
15.7544199755
 30
0.0
 10
7.8087272533
 20
15.7541471231
 30
0.0
 10
7.8094751539
 20
15.7537522295
 30
0.0
 10
7.8103458087
 20
15.753236027
 30
0.0
 10
7.8113371656
 20
15.7525990778
 30
0.0
 10
7.8120318594
 20
15.7521254612
 30
0.0
 10
7.8123992296
 20
15.7518695015
 30
0.0
  0
SPLINE
  5
4E9
100
AcDbEntity
  8
0
100
AcDbSpline
 62
7
  6
CONTINUOUS
 70
0
 71
3
 72
19
 73
15
 74
0
 42
0.0000001
 43
0.0000001
 44
0.0000000001
 40
0.0
 40
0.0
 40
0.0
 40
0.0
 40
0.0174911419
 40
0.0379512841
 40
0.0633122553
 40
0.0945967062
 40
0.1323368549
 40
0.1768121987
 40
0.2281581489
 40
0.2864397842
 40
0.4238716998
 40
0.5889669502
 40
0.7812311543
 40
1.0
 40
1.0
 40
1.0
 40
1.0
 10
7.4710667176
 20
16.0920809749
 30
0.0
 10
7.4711047221
 20
16.0921189935
 30
0.0
 10
7.471207798
 20
16.0921818986
 30
0.0
 10
7.4714024786
 20
16.0922146593
 30
0.0
 10
7.4716401852
 20
16.0921979019
 30
0.0
 10
7.4719236969
 20
16.0921330437
 30
0.0
 10
7.4722542176
 20
16.0920202185
 30
0.0
 10
7.4726320697
 20
16.0918591443
 30
0.0
 10
7.473057121
 20
16.0916498415
 30
0.0
 10
7.4737237206
 20
16.0912859137
 30
0.0
 10
7.474668984
 20
16.0907049335
 30
0.0
 10
7.4759295027
 20
16.0898538664
 30
0.0
 10
7.4773653749
 20
16.0888173869
 30
0.0
 10
7.478371805
 20
16.0880537391
 30
0.0
 10
7.4789037915
 20
16.0876425812
 30
0.0
  0
SPLINE
  5
4EA
100
AcDbEntity
  8
0
100
AcDbSpline
 62
7
  6
CONTINUOUS
 70
0
 71
3
 72
19
 73
15
 74
0
 42
0.0000001
 43
0.0000001
 44
0.0000000001
 40
0.0
 40
0.0
 40
0.0
 40
0.0
 40
0.0152668349
 40
0.0338961369
 40
0.057953252
 40
0.0883932515
 40
0.1256641003
 40
0.1699852094
 40
0.221442884
 40
0.2800588294
 40
0.4186870833
 40
0.5854313503
 40
0.7795201529
 40
1.0
 40
1.0
 40
1.0
 40
1.0
 10
7.1351884672
 20
16.4296893952
 30
0.0
 10
7.1352304379
 20
16.4297313932
 30
0.0
 10
7.1353516075
 20
16.4297976088
 30
0.0
 10
7.1355801837
 20
16.4298134621
 30
0.0
 10
7.1358619892
 20
16.4297662208
 30
0.0
 10
7.136202324
 20
16.4296559256
 30
0.0
 10
7.1366025135
 20
16.4294825878
 30
0.0
 10
7.1370628029
 20
16.4292455666
 30
0.0
 10
7.1375828077
 20
16.4289449703
 30
0.0
 10
7.1384017374
 20
16.4284299635
 30
0.0
 10
7.1395653348
 20
16.4276226549
 30
0.0
 10
7.1411190599
 20
16.4264564089
 30
0.0
 10
7.1428894066
 20
16.4250499336
 30
0.0
 10
7.1441306672
 20
16.4240207773
 30
0.0
 10
7.1447864437
 20
16.423468305
 30
0.0
  0
SPLINE
  5
4EB
100
AcDbEntity
  8
0
100
AcDbSpline
 62
7
  6
CONTINUOUS
 70
0
 71
3
 72
17
 73
13
 74
0
 42
0.0000001
 43
0.0000001
 44
0.0000000001
 40
0.0
 40
0.0
 40
0.0
 40
0.0
 40
0.0200398852
 40
0.0423694295
 40
0.0688960793
 40
0.1007821045
 40
0.1829013397
 40
0.2914291662
 40
0.427269618
 40
0.5907035215
 40
0.781675755
 40
1.0
 40
1.0
 40
1.0
 40
1.0
 10
6.8221997785
 20
16.7442904232
 30
0.0
 10
6.8222234765
 20
16.7443141194
 30
0.0
 10
6.822283907
 20
16.7443546151
 30
0.0
 10
6.8223972434
 20
16.744382852
 30
0.0
 10
6.8225331699
 20
16.7443828837
 30
0.0
 10
6.8227655685
 20
16.7443432739
 30
0.0
 10
6.8231172443
 20
16.7442148691
 30
0.0
 10
6.8236053634
 20
16.7439695815
 30
0.0
 10
6.8241906415
 20
16.7436184284
 30
0.0
 10
6.8248718305
 20
16.7431619075
 30
0.0
 10
6.8256477704
 20
16.7426001364
 30
0.0
 10
6.8261910503
 20
16.7421836737
 30
0.0
 10
6.8264785552
 20
16.7419586352
 30
0.0
  0
LINE
  5
4EC
100
AcDbEntity
  8
0
100
AcDbLine
 62
7
  6
CONTINUOUS
 10
6.4714162555
 20
17.0561776754
 11
6.4741337007
 21
17.0534570502
  0
LINE
  5
4ED
100
AcDbEntity
  8
0
100
AcDbLine
 62
7
  6
CONTINUOUS
 10
8.8575054469
 20
14.7114318536
 11
8.8617076753
 21
14.7078206498
  0
LINE
  5
4EE
100
AcDbEntity
  8
0
100
AcDbLine
 62
7
  6
CONTINUOUS
 10
8.8127100711
 20
14.7499275459
 11
8.8164500197
 21
14.7467135144
  0
LINE
  5
4EF
100
AcDbEntity
  8
0
100
AcDbLine
 62
7
  6
CONTINUOUS
 10
8.8164500197
 20
14.7467135144
 11
8.8167595777
 21
14.7464474873
  0
LINE
  5
4F0
100
AcDbEntity
  8
0
100
AcDbLine
 62
7
  6
CONTINUOUS
 10
8.8167595777
 20
14.7464474873
 11
8.8575054469
 21
14.7114318536
  0
LINE
  5
4F1
100
AcDbEntity
  8
0
100
AcDbLine
 62
7
  6
CONTINUOUS
 10
8.5129083717
 20
15.0140777274
 11
8.5208311343
 21
15.0067596166
  0
LINE
  5
4F2
100
AcDbEntity
  8
0
100
AcDbLine
 62
7
  6
CONTINUOUS
 10
8.4528964058
 20
15.0677936384
 11
8.4538633621
 21
15.0669412451
  0
SPLINE
  5
4F3
100
AcDbEntity
  8
0
100
AcDbSpline
 62
7
  6
CONTINUOUS
 70
0
 71
3
 72
12
 73
8
 74
0
 42
0.0000001
 43
0.0000001
 44
0.0000000001
 40
0.0
 40
0.0
 40
0.0
 40
0.0
 40
0.2577537267
 40
0.5320097404
 40
0.7897904207
 40
0.9026041064
 40
1.0
 40
1.0
 40
1.0
 40
1.0
 10
8.4538633621
 20
15.0669412451
 30
0.0
 10
8.4589705561
 20
15.0624376813
 30
0.0
 10
8.4694898291
 20
15.053117155
 30
0.0
 10
8.485058934
 20
15.03922743
 30
0.0
 10
8.4977323969
 20
15.0278437157
 30
0.0
 10
8.5069012843
 20
15.01955038
 30
0.0
 10
8.5110090065
 20
15.0158133948
 30
0.0
 10
8.5129083717
 20
15.0140777274
 30
0.0
  0
SPLINE
  5
4F4
100
AcDbEntity
  8
0
100
AcDbSpline
 62
7
  6
CONTINUOUS
 70
0
 71
3
 72
13
 73
9
 74
0
 42
0.0000001
 43
0.0000001
 44
0.0000000001
 40
0.0
 40
0.0
 40
0.0
 40
0.0
 40
0.1116337023
 40
0.236241813
 40
0.5066253224
 40
0.7736207726
 40
0.8940584869
 40
1.0
 40
1.0
 40
1.0
 40
1.0
 10
8.7414468295
 20
14.8187543536
 30
0.0
 10
8.743890936
 20
14.8167144933
 30
0.0
 10
8.7490487708
 20
14.8123803855
 30
0.0
 10
8.7600653658
 20
14.8030332029
 30
0.0
 10
8.7743858497
 20
14.7907321893
 30
0.0
 10
8.7885325292
 20
14.7784120004
 30
0.0
 10
8.7990829731
 20
14.7691035417
 30
0.0
 10
8.803901719
 20
14.7648073814
 30
0.0
 10
8.8061490637
 20
14.7627882367
 30
0.0
  0
LINE
  5
4F5
100
AcDbEntity
  8
0
100
AcDbLine
 62
7
  6
CONTINUOUS
 10
8.6717054727
 20
14.897596474
 11
8.6726002906
 21
14.8967642762
  0
SPLINE
  5
4F6
100
AcDbEntity
  8
0
100
AcDbSpline
 62
7
  6
CONTINUOUS
 70
0
 71
3
 72
17
 73
13
 74
0
 42
0.0000001
 43
0.0000001
 44
0.0000000001
 40
0.0
 40
0.0
 40
0.0
 40
0.0
 40
0.2181192484
 40
0.4089599188
 40
0.5722764499
 40
0.7080660082
 40
0.8165854494
 40
0.8987368298
 40
0.9306889396
 40
0.957325189
 40
0.9797978312
 40
1.0
 40
1.0
 40
1.0
 40
1.0
 10
8.209388025
 20
15.3590336673
 30
0.0
 10
8.2096083377
 20
15.3587511904
 30
0.0
 10
8.2100160564
 20
15.3582173427
 30
0.0
 10
8.2105658231
 20
15.3574547991
 30
0.0
 10
8.2110123102
 20
15.3567851443
 30
0.0
 10
8.2113554701
 20
15.3562096547
 30
0.0
 10
8.211594819
 20
15.3557295317
 30
0.0
 10
8.211719442
 20
15.3553834263
 30
0.0
 10
8.2117572233
 20
15.3551546506
 30
0.0
 10
8.2117565287
 20
15.3550206354
 30
0.0
 10
8.2117281761
 20
15.3549087871
 30
0.0
 10
8.2116880192
 20
15.3548491086
 30
0.0
 10
8.2116645517
 20
15.3548256532
 30
0.0
  0
SPLINE
  5
4F7
100
AcDbEntity
  8
0
100
AcDbSpline
 62
7
  6
CONTINUOUS
 70
0
 71
3
 72
21
 73
17
 74
0
 42
0.0000001
 43
0.0000001
 44
0.0000000001
 40
0.0
 40
0.0
 40
0.0
 40
0.0
 40
0.2236664414
 40
0.420390225
 40
0.5890970183
 40
0.7289536401
 40
0.7878561045
 40
0.8393477221
 40
0.8834148708
 40
0.9200803734
 40
0.9494578109
 40
0.971840973
 40
0.9806248266
 40
0.9880125189
 40
0.9943086889
 40
1.0
 40
1.0
 40
1.0
 40
1.0
 10
7.8743444807
 20
15.6523916989
 30
0.0
 10
7.874912662
 20
15.6517529603
 30
0.0
 10
7.8759735368
 20
15.650546121
 30
0.0
 10
7.8774336105
 20
15.6488319297
 30
0.0
 10
7.8786553644
 20
15.6473360584
 30
0.0
 10
7.8795131473
 20
15.6462234806
 30
0.0
 10
7.8800708586
 20
15.6454463065
 30
0.0
 10
7.8804013212
 20
15.6449569551
 30
0.0
 10
7.8806682912
 20
15.6445277068
 30
0.0
 10
7.8808718649
 20
15.6441589455
 30
0.0
 10
7.8810119374
 20
15.6438511193
 30
0.0
 10
7.8810824184
 20
15.6436292001
 30
0.0
 10
7.8811008645
 20
15.6434825347
 30
0.0
 10
7.8810972519
 20
15.6433961825
 30
0.0
 10
7.8810767009
 20
15.6433240787
 30
0.0
 10
7.8810500997
 20
15.6432854593
 30
0.0
 10
7.8810347111
 20
15.6432700848
 30
0.0
  0
SPLINE
  5
4F8
100
AcDbEntity
  8
0
100
AcDbSpline
 62
7
  6
CONTINUOUS
 70
0
 71
3
 72
19
 73
15
 74
0
 42
0.0000001
 43
0.0000001
 44
0.0000000001
 40
0.0
 40
0.0
 40
0.0
 40
0.0
 40
0.2202004837
 40
0.4137952005
 40
0.5799366734
 40
0.7180404299
 40
0.7764638222
 40
0.8277927585
 40
0.8720810904
 40
0.9094443832
 40
0.9401162877
 40
0.9645866222
 40
0.9838675526
 40
1.0
 40
1.0
 40
1.0
 40
1.0
 10
7.8917319385
 20
15.6763466285
 30
0.0
 10
7.8922126287
 20
15.6757650299
 30
0.0
 10
7.8931069177
 20
15.6746645933
 30
0.0
 10
7.8943261019
 20
15.6730950617
 30
0.0
 10
7.8953331075
 20
15.6717178098
 30
0.0
 10
7.8960267332
 20
15.6706859464
 30
0.0
 10
7.8964663985
 20
15.6699591156
 30
0.0
 10
7.8967216521
 20
15.6694969117
 30
0.0
 10
7.8969213136
 20
15.669087017
 30
0.0
 10
7.8970654125
 20
15.6687296853
 30
0.0
 10
7.8971543183
 20
15.6684245979
 30
0.0
 10
7.8971879569
 20
15.6681704628
 30
0.0
 10
7.8971655059
 20
15.6679631735
 30
0.0
 10
7.8971025866
 20
15.6678534532
 30
0.0
 10
7.8970635096
 20
15.6678143539
 30
0.0
  0
LINE
  5
4F9
100
AcDbEntity
  8
0
100
AcDbLine
 62
7
  6
CONTINUOUS
 10
7.5356623635
 20
15.9891740252
 11
7.5385898699
 21
15.9851236124
  0
SPLINE
  5
4FA
100
AcDbEntity
  8
0
100
AcDbSpline
 62
7
  6
CONTINUOUS
 70
0
 71
3
 72
14
 73
10
 74
0
 42
0.0000001
 43
0.0000001
 44
0.0000000001
 40
0.0
 40
0.0
 40
0.0
 40
0.0
 40
0.39014642
 40
0.5474814167
 40
0.6801593277
 40
0.7890169582
 40
0.8757047657
 40
0.9436776418
 40
1.0
 40
1.0
 40
1.0
 40
1.0
 10
7.5385898699
 20
15.9851236124
 30
0.0
 10
7.5387164532
 20
15.9849130957
 30
0.0
 10
7.5388872544
 20
15.9846130975
 30
0.0
 10
7.5390696856
 20
15.9842254124
 30
0.0
 10
7.5391609509
 20
15.9839911753
 30
0.0
 10
7.5392171857
 20
15.9837918059
 30
0.0
 10
7.5392382774
 20
15.9836264056
 30
0.0
 10
7.5392238979
 20
15.9834922907
 30
0.0
 10
7.5391836435
 20
15.98342132
 30
0.0
 10
7.5391585725
 20
15.9833962408
 30
0.0
  0
SPLINE
  5
4FB
100
AcDbEntity
  8
0
100
AcDbSpline
 62
7
  6
CONTINUOUS
 70
0
 71
3
 72
19
 73
15
 74
0
 42
0.0000001
 43
0.0000001
 44
0.0000000001
 40
0.0
 40
0.0
 40
0.0
 40
0.0
 40
0.2188260585
 40
0.4111852863
 40
0.5763496337
 40
0.7138490536
 40
0.7721549341
 40
0.8235029863
 40
0.8679682551
 40
0.9056948766
 40
0.9369503209
 40
0.962249043
 40
0.9826176796
 40
1.0
 40
1.0
 40
1.0
 40
1.0
 10
7.5549351562
 20
16.0116350562
 30
0.0
 10
7.555353001
 20
16.0110957424
 30
0.0
 10
7.5561291884
 20
16.0100753347
 30
0.0
 10
7.5571831041
 20
16.0086196658
 30
0.0
 10
7.5580488499
 20
16.0073416925
 30
0.0
 10
7.5586402644
 20
16.0063834614
 30
0.0
 10
7.559011096
 20
16.005707807
 30
0.0
 10
7.559224467
 20
16.0052770794
 30
0.0
 10
7.5593888521
 20
16.0048942688
 30
0.0
 10
7.559504311
 20
16.0045595016
 30
0.0
 10
7.5595711284
 20
16.0042724727
 30
0.0
 10
7.5595890325
 20
16.0040319745
 30
0.0
 10
7.5595566347
 20
16.0038351675
 30
0.0
 10
7.559493333
 20
16.0037310005
 30
0.0
 10
7.5594550222
 20
16.0036926703
 30
0.0
  0
SPLINE
  5
4FC
100
AcDbEntity
  8
0
100
AcDbSpline
 62
7
  6
CONTINUOUS
 70
0
 71
3
 72
13
 73
9
 74
0
 42
0.0000001
 43
0.0000001
 44
0.0000000001
 40
0.0
 40
0.0
 40
0.0
 40
0.0
 40
0.3814210662
 40
0.6676477262
 40
0.7770424516
 40
0.8660816775
 40
0.9382461125
 40
1.0
 40
1.0
 40
1.0
 40
1.0
 10
7.1969743889
 20
16.324754709
 30
0.0
 10
7.197053046
 20
16.3246062664
 30
0.0
 10
7.1971833251
 20
16.3243425357
 30
0.0
 10
7.1973043475
 20
16.3240207159
 30
0.0
 10
7.1973467554
 20
16.3238109528
 30
0.0
 10
7.1973522437
 20
16.3236912398
 30
0.0
 10
7.1973338588
 20
16.3235934146
 30
0.0
 10
7.1973017937
 20
16.3235415904
 30
0.0
 10
7.1972825597
 20
16.323522359
 30
0.0
  0
SPLINE
  5
4FD
100
AcDbEntity
  8
0
100
AcDbSpline
 62
7
  6
CONTINUOUS
 70
0
 71
3
 72
16
 73
12
 74
0
 42
0.0000001
 43
0.0000001
 44
0.0000000001
 40
0.0
 40
0.0
 40
0.0
 40
0.0
 40
0.2169131208
 40
0.4072565561
 40
0.570713151
 40
0.7071490795
 40
0.7652694656
 40
0.8167360897
 40
0.8616758624
 40
0.9002956096
 40
1.0
 40
1.0
 40
1.0
 40
1.0
 10
7.2192956456
 20
16.3449502921
 30
0.0
 10
7.2195471949
 20
16.3445881553
 30
0.0
 10
7.2200125831
 20
16.343903386
 30
0.0
 10
7.2206381774
 20
16.3429261809
 30
0.0
 10
7.2211447978
 20
16.3420676976
 30
0.0
 10
7.2214835615
 20
16.341423167
 30
0.0
 10
7.2216898776
 20
16.3409671261
 30
0.0
 10
7.2218055031
 20
16.3406756682
 30
0.0
 10
7.2218911137
 20
16.340412329
 30
0.0
 10
7.2219763676
 20
16.3400599267
 30
0.0
 10
7.2219899193
 20
16.3397143156
 30
0.0
 10
7.2218466022
 20
16.3395710076
 30
0.0
  0
SPLINE
  5
4FE
100
AcDbEntity
  8
0
100
AcDbSpline
 62
7
  6
CONTINUOUS
 70
0
 71
3
 72
20
 73
16
 74
0
 42
0.0000001
 43
0.0000001
 44
0.0000000001
 40
0.0
 40
0.0
 40
0.0
 40
0.0
 40
0.2206966936
 40
0.4151718382
 40
0.5022431684
 40
0.5823943625
 40
0.6555292639
 40
0.721560595
 40
0.8321058987
 40
0.8766071177
 40
0.9139702601
 40
0.9443550387
 40
0.9681118171
 40
0.9860311002
 40
1.0
 40
1.0
 40
1.0
 40
1.0
 10
6.9012924623
 20
16.6624145583
 30
0.0
 10
6.9018161529
 20
16.6617315075
 30
0.0
 10
6.9027923539
 20
16.6604396473
 30
0.0
 10
6.9039443031
 20
16.6588552718
 30
0.0
 10
6.9047519784
 20
16.6576987367
 30
0.0
 10
6.9052774697
 20
16.6569224684
 30
0.0
 10
6.9057448455
 20
16.6562060341
 30
0.0
 10
6.9062594412
 20
16.6553792738
 30
0.0
 10
6.9066901492
 20
16.6546314424
 30
0.0
 10
6.9070207171
 20
16.6539574401
 30
0.0
 10
6.9071898669
 20
16.6535533366
 30
0.0
 10
6.9072996977
 20
16.6532130524
 30
0.0
 10
6.9073498673
 20
16.6529354643
 30
0.0
 10
6.9073425813
 20
16.6527155866
 30
0.0
 10
6.9072842327
 20
16.652598317
 30
0.0
 10
6.9072457015
 20
16.652559805
 30
0.0
  0
LINE
  5
4FF
100
AcDbEntity
  8
0
100
AcDbLine
 62
7
  6
CONTINUOUS
 10
6.8841637726
 20
16.6390789698
 11
6.8843156928
 21
16.6389014433
  0
SPLINE
  5
500
100
AcDbEntity
  8
0
100
AcDbSpline
 62
7
  6
CONTINUOUS
 70
0
 71
3
 72
18
 73
14
 74
0
 42
0.0000001
 43
0.0000001
 44
0.0000000001
 40
0.0
 40
0.0
 40
0.0
 40
0.0
 40
0.2057759321
 40
0.3908141219
 40
0.5536788837
 40
0.6931202955
 40
0.8080992866
 40
0.8561459303
 40
0.8977955389
 40
0.9329922782
 40
0.9617104405
 40
0.983993059
 40
1.0
 40
1.0
 40
1.0
 40
1.0
 10
6.885677209
 20
16.6373035556
 30
0.0
 10
6.8864840224
 20
16.6363527928
 30
0.0
 10
6.8880096489
 20
16.6345413819
 30
0.0
 10
6.8901468043
 20
16.6319548623
 30
0.0
 10
6.8920010038
 20
16.6296561875
 30
0.0
 10
6.8935578179
 20
16.6276634733
 30
0.0
 10
6.894655418
 20
16.6261952233
 30
0.0
 10
6.895371466
 20
16.6251824334
 30
0.0
 10
6.8957945599
 20
16.6245547912
 30
0.0
 10
6.8961360911
 20
16.6240138293
 30
0.0
 10
6.8963961258
 20
16.6235603263
 30
0.0
 10
6.8965742664
 20
16.6231954973
 30
0.0
 10
6.896653618
 20
16.6229757352
 30
0.0
 10
6.8966732476
 20
16.6228807438
 30
0.0
  0
LINE
  5
501
100
AcDbEntity
  8
0
100
AcDbLine
 62
7
  6
CONTINUOUS
 10
6.8966732476
 20
16.6228807438
 11
6.8966417724
 21
16.6226243931
  0
SPLINE
  5
502
100
AcDbEntity
  8
0
100
AcDbSpline
 62
7
  6
CONTINUOUS
 70
0
 71
3
 72
22
 73
18
 74
0
 42
0.0000001
 43
0.0000001
 44
0.0000000001
 40
0.0
 40
0.0
 40
0.0
 40
0.0
 40
0.2099637672
 40
0.4026501673
 40
0.5738128949
 40
0.7196913464
 40
0.782128799
 40
0.8371048563
 40
0.8843231429
 40
0.9235519766
 40
0.9401117666
 40
0.9546167064
 40
0.9670617726
 40
0.977451206
 40
0.9858119406
 40
0.9922172388
 40
1.0
 40
1.0
 40
1.0
 40
1.0
 10
6.612738603
 20
16.9530831326
 30
0.0
 10
6.6145754863
 20
16.9509506826
 30
0.0
 10
6.6180801413
 20
16.946845731
 30
0.0
 10
6.6230135919
 20
16.9409442178
 30
0.0
 10
6.6273292986
 20
16.9356466705
 30
0.0
 10
6.6304778649
 20
16.9316508762
 30
0.0
 10
6.6326098417
 20
16.9288380846
 30
0.0
 10
6.6339158318
 20
16.9270590123
 30
0.0
 10
6.6350067231
 20
16.9255084172
 30
0.0
 10
6.6357702131
 20
16.9243575679
 30
0.0
 10
6.6362647395
 20
16.9235553213
 30
0.0
 10
6.6365570514
 20
16.9230506897
 30
0.0
 10
6.6367921539
 20
16.9226081279
 30
0.0
 10
6.6369698429
 20
16.9222308168
 30
0.0
 10
6.6370907614
 20
16.9219115611
 30
0.0
 10
6.6371654447
 20
16.9216293131
 30
0.0
 10
6.6371656036
 20
16.9214031547
 30
0.0
 10
6.6370918309
 20
16.9213293882
 30
0.0
  0
SPLINE
  5
503
100
AcDbEntity
  8
0
100
AcDbSpline
 62
7
  6
CONTINUOUS
 70
0
 71
3
 72
11
 73
7
 74
0
 42
0.0000001
 43
0.0000001
 44
0.0000000001
 40
0.0
 40
0.0
 40
0.0
 40
0.0
 40
0.2501783317
 40
0.5099486466
 40
0.7646647948
 40
1.0
 40
1.0
 40
1.0
 40
1.0
 10
6.6165702458
 20
16.9100492433
 30
0.0
 10
6.6198132658
 20
16.9065493855
 30
0.0
 10
6.626394312
 20
16.8993882709
 30
0.0
 10
6.6361885326
 20
16.8885827425
 30
0.0
 10
6.6457207252
 20
16.8779222234
 30
0.0
 10
6.6518990593
 20
16.870909173
 30
0.0
 10
6.6548494172
 20
16.8675268267
 30
0.0
  0
LINE
  5
504
100
AcDbEntity
  8
0
100
AcDbLine
 62
7
  6
CONTINUOUS
 10
6.6548494172
 20
16.8675268267
 11
6.6557668399
 21
16.8664739381
  0
SPLINE
  5
505
100
AcDbEntity
  8
0
100
AcDbSpline
 62
7
  6
CONTINUOUS
 70
0
 71
3
 72
23
 73
19
 74
0
 42
0.0000001
 43
0.0000001
 44
0.0000000001
 40
0.0
 40
0.0
 40
0.0
 40
0.0
 40
0.2220175868
 40
0.4198157786
 40
0.5912148167
 40
0.6664111021
 40
0.7343269201
 40
0.7947688777
 40
0.8475818658
 40
0.8926239887
 40
0.9297805324
 40
0.9589822467
 40
0.9705885028
 40
0.9802020488
 40
0.9878433561
 40
0.9935593236
 40
0.9974733798
 40
1.0
 40
1.0
 40
1.0
 40
1.0
 10
6.6604076107
 20
16.8611083859
 30
0.0
 10
6.6614256226
 20
16.8599230771
 30
0.0
 10
6.6633449002
 20
16.857676857
 30
0.0
 10
6.6660269132
 20
16.8544958681
 30
0.0
 10
6.6680228518
 20
16.852088048
 30
0.0
 10
6.6694198682
 20
16.8503712063
 30
0.0
 10
6.6703160683
 20
16.849253617
 30
0.0
 10
6.6711049092
 20
16.8482519068
 30
0.0
 10
6.6717842358
 20
16.8473689381
 30
0.0
 10
6.6723523526
 20
16.8466072598
 30
0.0
 10
6.6728077153
 20
16.8459690125
 30
0.0
 10
6.6731125783
 20
16.8455125768
 30
0.0
 10
6.6732966229
 20
16.8452091156
 30
0.0
 10
6.6733948206
 20
16.8450312284
 30
0.0
 10
6.6734650153
 20
16.844885489
 30
0.0
 10
6.6735061847
 20
16.8447706352
 30
0.0
 10
6.6735232386
 20
16.8446867383
 30
0.0
 10
6.6735107035
 20
16.8446385404
 30
0.0
 10
6.6734981302
 20
16.8446259671
 30
0.0
  0
LINE
  5
506
100
AcDbEntity
  8
0
100
AcDbLine
 62
7
  6
CONTINUOUS
 10
6.3641736594
 20
17.2051882939
 11
6.3649326803
 21
17.2043721634
  0
SPLINE
  5
507
100
AcDbEntity
  8
0
100
AcDbSpline
 62
7
  6
CONTINUOUS
 70
0
 71
3
 72
12
 73
8
 74
0
 42
0.0000001
 43
0.0000001
 44
0.0000000001
 40
0.0
 40
0.0
 40
0.0
 40
0.0
 40
0.1119700343
 40
0.2335393869
 40
0.4940588517
 40
0.7575831483
 40
1.0
 40
1.0
 40
1.0
 40
1.0
 10
6.3649326803
 20
17.2043721634
 30
0.0
 10
6.3667522643
 20
17.2024130298
 30
0.0
 10
6.3705283284
 20
17.1983090452
 30
0.0
 10
6.3784529151
 20
17.1895688244
 30
0.0
 10
6.3886980885
 20
17.178048022
 30
0.0
 10
6.4007092284
 20
17.1642375288
 30
0.0
 10
6.4085307649
 20
17.1550288807
 30
0.0
 10
6.4122414658
 20
17.1505858445
 30
0.0
  0
SPLINE
  5
508
100
AcDbEntity
  8
0
100
AcDbSpline
 62
7
  6
CONTINUOUS
 70
0
 71
3
 72
22
 73
18
 74
0
 42
0.0000001
 43
0.0000001
 44
0.0000000001
 40
0.0
 40
0.0
 40
0.0
 40
0.0
 40
0.21203907
 40
0.4031663455
 40
0.5709810552
 40
0.6454772209
 40
0.7133797506
 40
0.7744810889
 40
0.8285850193
 40
0.8755349594
 40
0.9151908507
 40
0.947449583
 40
0.9722617579
 40
0.9818799004
 40
0.9896629549
 40
0.9956624372
 40
1.0
 40
1.0
 40
1.0
 40
1.0
 10
6.4143879945
 20
17.1480064671
 30
0.0
 10
6.4155433494
 20
17.1466129305
 30
0.0
 10
6.4177319865
 20
17.1439565281
 30
0.0
 10
6.4208024957
 20
17.140170606
 30
0.0
 10
6.4231056649
 20
17.1372743642
 30
0.0
 10
6.4247330105
 20
17.1351850085
 30
0.0
 10
6.4257897829
 20
17.1338060627
 30
0.0
 10
6.4267288729
 20
17.1325563446
 30
0.0
 10
6.4275473358
 20
17.1314398266
 30
0.0
 10
6.4282426294
 20
17.1304601984
 30
0.0
 10
6.4288129289
 20
17.1296206918
 30
0.0
 10
6.4292563664
 20
17.1289240253
 30
0.0
 10
6.429540806
 20
17.1284302305
 30
0.0
 10
6.4296991912
 20
17.1281064225
 30
0.0
 10
6.4297754819
 20
17.127921432
 30
0.0
 10
6.4298201667
 20
17.1277733057
 30
0.0
 10
6.4298313322
 20
17.1276844171
 30
0.0
 10
6.4298283317
 20
17.1276475088
 30
0.0
  0
SPLINE
  5
509
100
AcDbEntity
  8
0
100
AcDbSpline
 62
7
  6
CONTINUOUS
 70
0
 71
3
 72
9
 73
5
 74
0
 42
0.0000001
 43
0.0000001
 44
0.0000000001
 40
0.0
 40
0.0
 40
0.0
 40
0.0
 40
0.2891453179
 40
1.0
 40
1.0
 40
1.0
 40
1.0
 10
6.4298283317
 20
17.1276475088
 30
0.0
 10
6.4298276202
 20
17.1276387574
 30
0.0
 10
6.4298236716
 20
17.1276088029
 30
0.0
 10
6.429810727
 20
17.1275788587
 30
0.0
 10
6.4297954634
 20
17.127563595
 30
0.0
  0
SPLINE
  5
50A
100
AcDbEntity
  8
0
100
AcDbSpline
 62
7
  6
CONTINUOUS
 70
0
 71
3
 72
15
 73
11
 74
0
 42
0.0000001
 43
0.0000001
 44
0.0000000001
 40
0.0
 40
0.0
 40
0.0
 40
0.0
 40
0.0299472891
 40
0.0672717961
 40
0.1621638264
 40
0.2801831036
 40
0.4157453134
 40
0.56246297
 40
0.7134422206
 40
1.0
 40
1.0
 40
1.0
 40
1.0
 10
6.4741337007
 20
17.0534570502
 30
0.0
 10
6.4747490972
 20
17.0528039862
 30
0.0
 10
6.4761243786
 20
17.0513302882
 30
0.0
 10
6.4794211929
 20
17.0477607915
 30
0.0
 10
6.4844776809
 20
17.0422243088
 30
0.0
 10
6.4914889191
 20
17.034486799
 30
0.0
 10
6.4995164765
 20
17.0255746908
 30
0.0
 10
6.5081819874
 20
17.0159080944
 30
0.0
 10
6.5198389009
 20
17.0028469959
 30
0.0
 10
6.5285389701
 20
16.9930393972
 30
0.0
 10
6.5342181347
 20
16.9865994966
 30
0.0
  0
LINE
  5
50B
100
AcDbEntity
  8
0
100
AcDbLine
 62
7
  6
CONTINUOUS
 10
6.5342181347
 20
16.9865994966
 11
6.5351856345
 21
16.9855019952
  0
SPLINE
  5
50C
100
AcDbEntity
  8
0
100
AcDbSpline
 62
7
  6
CONTINUOUS
 70
0
 71
3
 72
15
 73
11
 74
0
 42
0.0000001
 43
0.0000001
 44
0.0000000001
 40
0.0
 40
0.0
 40
0.0
 40
0.0
 40
0.089220531
 40
0.2003334286
 40
0.3281604562
 40
0.4667632659
 40
0.6097415014
 40
0.7505183114
 40
0.8826284459
 40
1.0
 40
1.0
 40
1.0
 40
1.0
 10
6.2243788826
 20
17.3451494425
 30
0.0
 10
6.226273631
 20
17.3430878405
 30
0.0
 10
6.2304922187
 20
17.3384258871
 30
0.0
 10
6.2373430074
 20
17.3307360866
 30
0.0
 10
6.2451736005
 20
17.3218438115
 30
0.0
 10
6.2536201702
 20
17.3121616615
 30
0.0
 10
6.2622918868
 20
17.3021367565
 30
0.0
 10
6.270789491
 20
17.2922308022
 30
0.0
 10
6.2787224057
 20
17.282899401
 30
0.0
 10
6.2837624257
 20
17.2769075918
 30
0.0
 10
6.2861227037
 20
17.2740796158
 30
0.0
  0
LINE
  5
50D
100
AcDbEntity
  8
0
100
AcDbLine
 62
7
  6
CONTINUOUS
 10
6.1751947339
 20
17.3943335912
 11
6.2140874055
 21
17.3490761602
  0
LINE
  5
50E
100
AcDbEntity
  8
0
100
AcDbLine
 62
7
  6
CONTINUOUS
 10
6.2140874055
 20
17.3490761602
 11
6.2172985243
 21
17.345339601
  0
SPLINE
  5
50F
100
AcDbEntity
  8
0
100
AcDbSpline
 62
7
  6
CONTINUOUS
 70
0
 71
3
 72
23
 73
19
 74
0
 42
0.0000001
 43
0.0000001
 44
0.0000000001
 40
0.0
 40
0.0
 40
0.0
 40
0.0
 40
0.0026141225
 40
0.0065731974
 40
0.0123029555
 40
0.0199368003
 40
0.0295273683
 40
0.0410952817
 40
0.0701785273
 40
0.1071791578
 40
0.152039833
 40
0.2046540957
 40
0.2649013058
 40
0.3326387466
 40
0.4076911258
 40
0.5789917181
 40
0.7770889238
 40
1.0
 40
1.0
 40
1.0
 40
1.0
 10
8.3120000951
 20
15.2061240063
 30
0.0
 10
8.3120120041
 20
15.2061358767
 30
0.0
 10
8.3120563864
 20
15.2061486481
 30
0.0
 10
8.3121345485
 20
15.2061347568
 30
0.0
 10
8.3122403932
 20
15.2060987492
 30
0.0
 10
8.3123743885
 20
15.206036438
 30
0.0
 10
8.3125375331
 20
15.2059486438
 30
0.0
 10
8.3128154287
 20
15.2057835597
 30
0.0
 10
8.3132329326
 20
15.2055090385
 30
0.0
 10
8.3138162923
 20
15.2050979299
 30
0.0
 10
8.3145121924
 20
15.2045841165
 30
0.0
 10
8.31531887
 20
15.203968866
 30
0.0
 10
8.3162341729
 20
15.2032535363
 30
0.0
 10
8.3172557439
 20
15.2024399039
 30
0.0
 10
8.318826662
 20
15.2011695294
 30
0.0
 10
8.3210325039
 20
15.1993509346
 30
0.0
 10
8.323951067
 20
15.1969020271
 30
0.0
 10
8.3260137165
 20
15.1951473493
 30
0.0
 10
8.3271033963
 20
15.1942154683
 30
0.0
  0
LINE
  5
510
100
AcDbEntity
  8
0
100
AcDbLine
 62
7
  6
CONTINUOUS
 10
8.3348727618
 20
15.1874998843
 11
8.336099988
 21
15.1864281565
  0
LINE
  5
511
100
AcDbEntity
  8
0
100
AcDbLine
 62
7
  6
CONTINUOUS
 10
8.336099988
 20
15.1864281565
 11
8.3379662919
 21
15.1847935306
  0
LINE
  5
512
100
AcDbEntity
  8
0
100
AcDbLine
 62
7
  6
CONTINUOUS
 10
8.3768011687
 20
15.1497723794
 11
8.377387655
 21
15.1492292153
  0
SPLINE
  5
513
100
AcDbEntity
  8
0
100
AcDbSpline
 62
7
  6
CONTINUOUS
 70
0
 71
3
 72
18
 73
14
 74
0
 42
0.0000001
 43
0.0000001
 44
0.0000000001
 40
0.0
 40
0.0
 40
0.0
 40
0.0
 40
0.0152915681
 40
0.0340918439
 40
0.0582686418
 40
0.0887007161
 40
0.1258134081
 40
0.1698291771
 40
0.2789950197
 40
0.4166751158
 40
0.5828617101
 40
0.7773906781
 40
1.0
 40
1.0
 40
1.0
 40
1.0
 10
8.0899984506
 20
15.429267713
 30
0.0
 10
8.0900137653
 20
15.4292830462
 30
0.0
 10
8.0900578388
 20
15.4293075084
 30
0.0
 10
8.0901411169
 20
15.4293162446
 30
0.0
 10
8.0902448936
 20
15.4293039421
 30
0.0
 10
8.0903708196
 20
15.4292705834
 30
0.0
 10
8.0905194378
 20
15.4292162272
 30
0.0
 10
8.0907662903
 20
15.4291072858
 30
0.0
 10
8.0911305817
 20
15.4289134514
 30
0.0
 10
8.0916320833
 20
15.4286113448
 30
0.0
 10
8.0922234757
 20
15.4282248924
 30
0.0
 10
8.0929035494
 20
15.427754767
 30
0.0
 10
8.0933831344
 20
15.4274090415
 30
0.0
 10
8.0936377149
 20
15.4272227114
 30
0.0
  0
LINE
  5
514
100
AcDbEntity
  8
0
100
AcDbLine
 62
7
  6
CONTINUOUS
 10
8.0936377149
 20
15.4272227114
 11
8.1032501424
 21
15.4195096802
  0
LINE
  5
515
100
AcDbEntity
  8
0
100
AcDbLine
 62
7
  6
CONTINUOUS
 10
8.1062788658
 20
15.4169387526
 11
8.1064565394
 21
15.4167867048
  0
SPLINE
  5
516
100
AcDbEntity
  8
0
100
AcDbSpline
 62
7
  6
CONTINUOUS
 70
0
 71
3
 72
13
 73
9
 74
0
 42
0.0000001
 43
0.0000001
 44
0.0000000001
 40
0.0
 40
0.0
 40
0.0
 40
0.0
 40
0.0620840278
 40
0.1344771572
 40
0.2236244236
 40
0.3330331794
 40
0.6191016865
 40
1.0
 40
1.0
 40
1.0
 40
1.0
 10
7.7908964688
 20
15.729908451
 30
0.0
 10
7.7909155505
 20
15.7299275176
 30
0.0
 10
7.7909667946
 20
15.7299593696
 30
0.0
 10
7.7910634989
 20
15.7299779836
 30
0.0
 10
7.791181774
 20
15.7299730618
 30
0.0
 10
7.7913888443
 20
15.7299319935
 30
0.0
 10
7.7917063874
 20
15.7298135803
 30
0.0
 10
7.7919665949
 20
15.7296858162
 30
0.0
 10
7.7921129991
 20
15.7296086473
 30
0.0
  0
SPLINE
  5
517
100
AcDbEntity
  8
0
100
AcDbSpline
 62
7
  6
CONTINUOUS
 70
0
 71
3
 72
15
 73
11
 74
0
 42
0.0000001
 43
0.0000001
 44
0.0000000001
 40
0.0
 40
0.0
 40
0.0
 40
0.0
 40
0.1003723092
 40
0.138836396
 40
0.1835554548
 40
0.2925730319
 40
0.4285094605
 40
0.5917251905
 40
0.7822538778
 40
1.0
 40
1.0
 40
1.0
 40
1.0
 10
7.4507703072
 20
16.0717845061
 30
0.0
 10
7.4508557564
 20
16.0718700204
 30
0.0
 10
7.4510607293
 20
16.0718653617
 30
0.0
 10
7.4512701452
 20
16.0718145906
 30
0.0
 10
7.4514918642
 20
16.0717420288
 30
0.0
 10
7.4518105785
 20
16.0716008109
 30
0.0
 10
7.4522448899
 20
16.0713692111
 30
0.0
 10
7.4527502741
 20
16.0710650495
 30
0.0
 10
7.4533267315
 20
16.070688663
 30
0.0
 10
7.4537308183
 20
16.0704083759
 30
0.0
 10
7.453944763
 20
16.0702566994
 30
0.0
  0
LINE
  5
518
100
AcDbEntity
  8
0
100
AcDbLine
 62
7
  6
CONTINUOUS
 10
7.453944763
 20
16.0702566994
 11
7.4566417175
 21
16.0682140792
  0
SPLINE
  5
519
100
AcDbEntity
  8
0
100
AcDbSpline
 62
7
  6
CONTINUOUS
 70
0
 71
3
 72
20
 73
16
 74
0
 42
0.0000001
 43
0.0000001
 44
0.0000000001
 40
0.0
 40
0.0
 40
0.0
 40
0.0
 40
0.0127448131
 40
0.0204704204
 40
0.0295136478
 40
0.0522239139
 40
0.0817466783
 40
0.1184194048
 40
0.1623813998
 40
0.2136897954
 40
0.2723606813
 40
0.4116650783
 40
0.579833728
 40
0.7762202199
 40
1.0
 40
1.0
 40
1.0
 40
1.0
 10
7.1106441637
 20
16.4136606324
 30
0.0
 10
7.1106731293
 20
16.4136895743
 30
0.0
 10
7.1107371059
 20
16.4137188348
 30
0.0
 10
7.1108316185
 20
16.4137268209
 30
0.0
 10
7.1109586711
 20
16.4137171273
 30
0.0
 10
7.1111497776
 20
16.4136648935
 30
0.0
 10
7.1114138258
 20
16.4135552391
 30
0.0
 10
7.1117285708
 20
16.4133926641
 30
0.0
 10
7.1120938355
 20
16.4131772855
 30
0.0
 10
7.1125093915
 20
16.412908887
 30
0.0
 10
7.1131684892
 20
16.4124537131
 30
0.0
 10
7.1141111873
 20
16.4117494673
 30
0.0
 10
7.1153781175
 20
16.4107415629
 30
0.0
 10
7.1168308236
 20
16.4095320026
 30
0.0
 10
7.117853598
 20
16.4086508907
 30
0.0
 10
7.1183953383
 20
16.4081782098
 30
0.0
  0
LINE
  5
51A
100
AcDbEntity
  8
0
100
AcDbLine
 62
7
  6
CONTINUOUS
 10
6.7446718458
 20
16.7516153233
 11
6.7454872251
 21
16.7507316376
  0
LINE
  5
51B
100
AcDbEntity
  8
0
100
AcDbLine
 62
7
  6
CONTINUOUS
 10
6.7454872251
 20
16.7507316376
 11
6.7471089416
 21
16.7489740661
  0
LINE
  5
51C
100
AcDbEntity
  8
0
100
AcDbLine
 62
7
  6
CONTINUOUS
 10
6.7471089416
 20
16.7489740661
 11
6.7988160218
 21
16.6929356551
  0
LINE
  5
51D
100
AcDbEntity
  8
0
100
AcDbLine
 62
7
  6
CONTINUOUS
 10
8.2189894074
 20
15.2772977617
 11
8.2181057217
 21
15.278113141
  0
SPLINE
  5
51E
100
AcDbEntity
  8
0
100
AcDbSpline
 62
7
  6
CONTINUOUS
 70
0
 71
3
 72
17
 73
13
 74
0
 42
0.0000001
 43
0.0000001
 44
0.0000000001
 40
0.0
 40
0.0
 40
0.0
 40
0.0
 40
0.0277022462
 40
0.0501187464
 40
0.0793868326
 40
0.1158110537
 40
0.1595324941
 40
0.2106197517
 40
0.2691044836
 40
0.408228277
 40
0.5766799945
 40
1.0
 40
1.0
 40
1.0
 40
1.0
 10
7.4358598777
 20
16.0568740529
 30
0.0
 10
7.4358981379
 20
16.0569123257
 30
0.0
 10
7.4360145818
 20
16.0569142109
 30
0.0
 10
7.4361588431
 20
16.0568721008
 30
0.0
 10
7.4363199314
 20
16.0568059991
 30
0.0
 10
7.4365096718
 20
16.056708635
 30
0.0
 10
7.4367317771
 20
16.056580012
 30
0.0
 10
7.4369848542
 20
16.0564199462
 30
0.0
 10
7.437387846
 20
16.0561484527
 30
0.0
 10
7.437966739
 20
16.0557283243
 30
0.0
 10
7.439098014
 20
16.0548570078
 30
0.0
 10
7.4399909016
 20
16.0541222459
 30
0.0
 10
7.4406244782
 20
16.0535907821
 30
0.0
  0
LINE
  5
51F
100
AcDbEntity
  8
0
100
AcDbLine
 62
7
  6
CONTINUOUS
 10
7.4406244782
 20
16.0535907821
 11
7.4407163994
 21
16.0535135941
  0
SPLINE
  5
520
100
AcDbEntity
  8
0
100
AcDbSpline
 62
7
  6
CONTINUOUS
 70
0
 71
3
 72
20
 73
16
 74
0
 42
0.0000001
 43
0.0000001
 44
0.0000000001
 40
0.0
 40
0.0
 40
0.0
 40
0.0
 40
0.0091865926
 40
0.0155827893
 40
0.0235681364
 40
0.0447803654
 40
0.0733675521
 40
0.1094921808
 40
0.1532050271
 40
0.2045139637
 40
0.2634051671
 40
0.4037549332
 40
0.5737967607
 40
0.7728791962
 40
1.0
 40
1.0
 40
1.0
 40
1.0
 10
7.0902658237
 20
16.4042446809
 30
0.0
 10
7.0902842295
 20
16.4042630672
 30
0.0
 10
7.0903323899
 20
16.4042747537
 30
0.0
 10
7.0903979722
 20
16.4042664256
 30
0.0
 10
7.0904958494
 20
16.4042398907
 30
0.0
 10
7.0906452314
 20
16.4041718434
 30
0.0
 10
7.0908566925
 20
16.404051175
 30
0.0
 10
7.0911137506
 20
16.403882967
 30
0.0
 10
7.0914163782
 20
16.403667577
 30
0.0
 10
7.0917641992
 20
16.4034048071
 30
0.0
 10
7.0923211234
 20
16.4029651005
 30
0.0
 10
7.0931252106
 20
16.4022961999
 30
0.0
 10
7.0942151002
 20
16.4013506943
 30
0.0
 10
7.0954737542
 20
16.4002250322
 30
0.0
 10
7.0963642862
 20
16.399410282
 30
0.0
 10
7.0968369955
 20
16.3989741114
 30
0.0
  0
LINE
  5
521
100
AcDbEntity
  8
0
100
AcDbLine
 62
7
  6
CONTINUOUS
 10
7.7622633098
 20
15.7096678874
 11
7.7688226116
 21
15.7038584703
  0
LINE
  5
522
100
AcDbEntity
  8
0
100
AcDbLine
 62
7
  6
CONTINUOUS
 10
7.7723824875
 20
15.7005451175
 11
7.7737083279
 21
15.6993040968
  0
SPLINE
  5
523
100
AcDbEntity
  8
0
100
AcDbSpline
 62
7
  6
CONTINUOUS
 70
0
 71
3
 72
19
 73
15
 74
0
 42
0.0000001
 43
0.0000001
 44
0.0000000001
 40
0.0
 40
0.0
 40
0.0
 40
0.0
 40
0.0080396978
 40
0.0140559047
 40
0.0217444781
 40
0.0425079368
 40
0.0707307692
 40
0.1065342832
 40
0.1499640902
 40
0.2597418927
 40
0.3999802675
 40
0.5703639297
 40
0.7705266572
 40
1.0
 40
1.0
 40
1.0
 40
1.0
 10
7.4263214601
 20
16.0473356484
 30
0.0
 10
7.42633098
 20
16.0473451854
 30
0.0
 10
7.4263578266
 20
16.0473489424
 30
0.0
 10
7.4263929091
 20
16.0473418985
 30
0.0
 10
7.4264481618
 20
16.0473235579
 30
0.0
 10
7.4265331507
 20
16.0472808858
 30
0.0
 10
7.4266550097
 20
16.0472075613
 30
0.0
 10
7.4268043271
 20
16.0471067681
 30
0.0
 10
7.4270609151
 20
16.0469208923
 30
0.0
 10
7.4274483281
 20
16.046617661
 30
0.0
 10
7.4279919351
 20
16.0461692967
 30
0.0
 10
7.4286427499
 20
16.0456130142
 30
0.0
 10
7.4293991158
 20
16.0449501806
 30
0.0
 10
7.4299362504
 20
16.0444705367
 30
0.0
 10
7.4302222639
 20
16.0442133842
 30
0.0
  0
LINE
  5
524
100
AcDbEntity
  8
0
100
AcDbLine
 62
7
  6
CONTINUOUS
 10
8.8638767614
 20
14.7059614685
 11
8.8637896515
 21
14.7060359542
  0
LINE
  5
525
100
AcDbEntity
  8
0
100
AcDbLine
 62
7
  6
CONTINUOUS
 10
8.8637896515
 20
14.7060359542
 11
8.8630909351
 21
14.7066339109
  0
LINE
  5
526
100
AcDbEntity
  8
0
100
AcDbLine
 62
7
  6
CONTINUOUS
 10
6.1733355526
 20
17.3965026773
 11
6.1751947339
 21
17.3943335912
  0
LINE
  5
527
100
AcDbEntity
  8
0
100
AcDbLine
 62
7
  6
CONTINUOUS
 10
5.97628581
 20
17.6447061448
 11
5.9761758966
 21
17.6448598386
  0
LINE
  5
528
100
AcDbEntity
  8
0
100
AcDbLine
 62
7
  6
CONTINUOUS
 10
5.9761758966
 20
17.6448598386
 11
5.9747390924
 21
17.6469651028
  0
SPLINE
  5
529
100
AcDbEntity
  8
0
100
AcDbSpline
 62
9
  6
CONTINUOUS
 70
0
 71
3
 72
21
 73
17
 74
0
 42
0.0000001
 43
0.0000001
 44
0.0000000001
 40
0.0
 40
0.0
 40
0.0
 40
0.0
 40
0.1249939975
 40
0.1874938078
 40
0.2499953385
 40
0.3124971533
 40
0.3749984233
 40
0.4374993375
 40
0.5000000673
 40
0.562500779
 40
0.625001647
 40
0.6875028692
 40
0.7500046596
 40
0.8125061809
 40
0.8750059913
 40
1.0
 40
1.0
 40
1.0
 40
1.0
 10
12.8877997941
 20
8.5283107873
 30
0.0
 10
12.8877997919
 20
8.5194422392
 30
0.0
 10
12.8879374028
 20
8.5061392656
 30
0.0
 10
12.8882429047
 20
8.4884043529
 30
0.0
 10
12.8884944501
 20
8.4751030306
 30
0.0
 10
12.8887311681
 20
8.4618013377
 30
0.0
 10
12.8889106805
 20
8.4484987421
 30
0.0
 10
12.8890166446
 20
8.4351954305
 30
0.0
 10
12.8890525173
 20
8.4218917886
 30
0.0
 10
12.8890169911
 20
8.4085881491
 30
0.0
 10
12.8889111806
 20
8.3952848433
 30
0.0
 10
12.8887312752
 20
8.381982261
 30
0.0
 10
12.8884943869
 20
8.3686805774
 30
0.0
 10
12.8882427999
 20
8.3553792581
 30
0.0
 10
12.8879373499
 20
8.3376443442
 30
0.0
 10
12.8877998086
 20
8.3243413697
 30
0.0
 10
12.8877997941
 20
8.3154728208
 30
0.0
  0
LINE
  5
52A
100
AcDbEntity
  8
0
100
AcDbLine
 62
7
  6
CONTINUOUS
 10
6.429399063
 20
17.1276444466
 11
6.4261768242
 21
17.1303690861
  0
SPLINE
  5
52B
100
AcDbEntity
  8
0
100
AcDbSpline
 62
7
  6
CONTINUOUS
 70
0
 71
3
 72
17
 73
13
 74
0
 42
0.0000001
 43
0.0000001
 44
0.0000000001
 40
0.0
 40
0.0
 40
0.0
 40
0.0
 40
0.2087949715
 40
0.3923988827
 40
0.5507284348
 40
0.6840009026
 40
0.7928666699
 40
0.8787917513
 40
0.9141770513
 40
0.9453859058
 40
0.9735023143
 40
1.0
 40
1.0
 40
1.0
 40
1.0
 10
7.245880023
 20
16.3640444579
 30
0.0
 10
7.2461833542
 20
16.3638447583
 30
0.0
 10
7.2467586851
 20
16.363477319
 30
0.0
 10
7.2475848843
 20
16.3629919937
 30
0.0
 10
7.2483174836
 20
16.3626084501
 30
0.0
 10
7.2489554646
 20
16.3623267539
 30
0.0
 10
7.2494978277
 20
16.3621468167
 30
0.0
 10
7.2498950823
 20
16.362076433
 30
0.0
 10
7.2501612085
 20
16.3620818863
 30
0.0
 10
7.2503240602
 20
16.362112479
 30
0.0
 10
7.2504629876
 20
16.3621705073
 30
0.0
 10
7.2505396347
 20
16.3622287908
 30
0.0
 10
7.2505722272
 20
16.3622613774
 30
0.0
  0
SPLINE
  5
52C
100
AcDbEntity
  8
0
100
AcDbSpline
 62
7
  6
CONTINUOUS
 70
0
 71
3
 72
16
 73
12
 74
0
 42
0.0000001
 43
0.0000001
 44
0.0000000001
 40
0.0
 40
0.0
 40
0.0
 40
0.0
 40
0.2073414029
 40
0.3899498096
 40
0.5477975555
 40
0.6810973602
 40
0.7904403406
 40
0.8772702812
 40
0.9132111188
 40
0.9449799387
 40
1.0
 40
1.0
 40
1.0
 40
1.0
 10
7.1654423708
 20
16.4477410104
 30
0.0
 10
7.1652628344
 20
16.4480409346
 30
0.0
 10
7.1649329759
 20
16.4486097568
 30
0.0
 10
7.1644996997
 20
16.449425653
 30
0.0
 10
7.1641596982
 20
16.4501487754
 30
0.0
 10
7.1639129289
 20
16.4507780955
 30
0.0
 10
7.1637596586
 20
16.45131285
 30
0.0
 10
7.1637054441
 20
16.4517031289
 30
0.0
 10
7.1637189642
 20
16.4519643551
 30
0.0
 10
7.1637612768
 20
16.45216719
 30
0.0
 10
7.1638354842
 20
16.4523013198
 30
0.0
 10
7.1639010904
 20
16.4523668925
 30
0.0
  0
SPLINE
  5
52D
100
AcDbEntity
  8
0
100
AcDbSpline
 62
7
  6
CONTINUOUS
 70
0
 71
3
 72
17
 73
13
 74
0
 42
0.0000001
 43
0.0000001
 44
0.0000000001
 40
0.0
 40
0.0
 40
0.0
 40
0.0
 40
0.2114667559
 40
0.3970625863
 40
0.5567137498
 40
0.6905444576
 40
0.7991019253
 40
0.8838167008
 40
0.9182255008
 40
0.948216084
 40
0.9749381387
 40
1.0
 40
1.0
 40
1.0
 40
1.0
 10
6.9260369123
 20
16.6825540234
 30
0.0
 10
6.9263345477
 20
16.6823434137
 30
0.0
 10
6.92689861
 20
16.6819552045
 30
0.0
 10
6.9277082271
 20
16.6814390382
 30
0.0
 10
6.9284247799
 20
16.6810274274
 30
0.0
 10
6.9290472125
 20
16.6807204661
 30
0.0
 10
6.9295744933
 20
16.6805183609
 30
0.0
 10
6.9299600608
 20
16.6804299755
 30
0.0
 10
6.9302179673
 20
16.6804227575
 30
0.0
 10
6.930374478
 20
16.6804452417
 30
0.0
 10
6.9305074887
 20
16.6804960663
 30
0.0
 10
6.9305802506
 20
16.6805502275
 30
0.0
 10
6.9306108052
 20
16.6805807839
 30
0.0
  0
SPLINE
  5
52E
100
AcDbEntity
  8
0
100
AcDbSpline
 62
7
  6
CONTINUOUS
 70
0
 71
3
 72
17
 73
13
 74
0
 42
0.0000001
 43
0.0000001
 44
0.0000000001
 40
0.0
 40
0.0
 40
0.0
 40
0.0
 40
0.2090579647
 40
0.3930943624
 40
0.5520005067
 40
0.6858760594
 40
0.7952583343
 40
0.8813967355
 40
0.9166203501
 40
0.9473910837
 40
0.9747109391
 40
1.0
 40
1.0
 40
1.0
 40
1.0
 10
6.8471763561
 20
16.7677217048
 30
0.0
 10
6.8469965849
 20
16.7680237202
 30
0.0
 10
6.8466658825
 20
16.7685960333
 30
0.0
 10
6.846229614
 20
16.7694154001
 30
0.0
 10
6.8458851669
 20
16.7701396027
 30
0.0
 10
6.8456327243
 20
16.7707676108
 30
0.0
 10
6.845472318
 20
16.7712983371
 30
0.0
 10
6.8454102012
 20
16.7716839024
 30
0.0
 10
6.8454163967
 20
16.7719403652
 30
0.0
 10
6.8454448662
 20
16.7720955038
 30
0.0
 10
6.8454980494
 20
16.7722264674
 30
0.0
 10
6.845551814
 20
16.772298301
 30
0.0
 10
6.8455818714
 20
16.7723283706
 30
0.0
  0
LINE
  5
52F
100
AcDbEntity
  8
0
100
AcDbLine
 62
7
  6
CONTINUOUS
 10
8.5977431016
 20
14.9588028124
 11
8.5950185307
 21
14.9620249789
  0
SPLINE
  5
530
100
AcDbEntity
  8
0
100
AcDbSpline
 62
7
  6
CONTINUOUS
 70
0
 71
3
 72
19
 73
15
 74
0
 42
0.0000001
 43
0.0000001
 44
0.0000000001
 40
0.0
 40
0.0
 40
0.0
 40
0.0
 40
0.2308376182
 40
0.4320626355
 40
0.6031650007
 40
0.7437228923
 40
0.8534797034
 40
0.8967495486
 40
0.9322663766
 40
0.9600638829
 40
0.9802398397
 40
0.9875537393
 40
0.9931212577
 40
1.0
 40
1.0
 40
1.0
 40
1.0
 10
8.7279474931
 20
14.8285944698
 30
0.0
 10
8.7276749222
 20
14.8288539337
 30
0.0
 10
8.7271661268
 20
14.8293410321
 30
0.0
 10
8.7264610999
 20
14.8300264788
 30
0.0
 10
8.7258674903
 20
14.8306153512
 30
0.0
 10
8.7253867489
 20
14.8311061625
 30
0.0
 10
8.7250590395
 20
14.8314550952
 30
0.0
 10
8.7248556726
 20
14.8316856201
 30
0.0
 10
8.7247443786
 20
14.8318190667
 30
0.0
 10
8.7246619555
 20
14.8319275574
 30
0.0
 10
8.7246121861
 20
14.8320026147
 30
0.0
 10
8.7245884918
 20
14.8320516562
 30
0.0
 10
8.7245779622
 20
14.8320810527
 30
0.0
 10
8.7245779338
 20
14.8321054804
 30
0.0
 10
8.7245858644
 20
14.8321134087
 30
0.0
  0
SPLINE
  5
531
100
AcDbEntity
  8
0
100
AcDbSpline
 62
7
  6
CONTINUOUS
 70
0
 71
3
 72
17
 73
13
 74
0
 42
0.0000001
 43
0.0000001
 44
0.0000000001
 40
0.0
 40
0.0
 40
0.0
 40
0.0
 40
0.2153970302
 40
0.4041195015
 40
0.5658613083
 40
0.7006629944
 40
0.8089884292
 40
0.8920101874
 40
0.9249418155
 40
0.9530183161
 40
0.9774381692
 40
1.0
 40
1.0
 40
1.0
 40
1.0
 10
6.6348345082
 20
16.9726829715
 30
0.0
 10
6.6351261158
 20
16.9724578004
 30
0.0
 10
6.6356781528
 20
16.9720416531
 30
0.0
 10
6.6364690607
 20
16.9714833757
 30
0.0
 10
6.6371666339
 20
16.9710331036
 30
0.0
 10
6.6377695735
 20
16.970691045
 30
0.0
 10
6.6382766611
 20
16.9704573666
 30
0.0
 10
6.6386456186
 20
16.9703427233
 30
0.0
 10
6.6388914231
 20
16.9703163439
 30
0.0
 10
6.6390382191
 20
16.9703262385
 30
0.0
 10
6.6391621283
 20
16.9703653574
 30
0.0
 10
6.6392289961
 20
16.9704128715
 30
0.0
 10
6.6392562877
 20
16.9704401555
 30
0.0
  0
SPLINE
  5
532
100
AcDbEntity
  8
0
100
AcDbSpline
 62
7
  6
CONTINUOUS
 70
0
 71
3
 72
17
 73
13
 74
0
 42
0.0000001
 43
0.0000001
 44
0.0000000001
 40
0.0
 40
0.0
 40
0.0
 40
0.0
 40
0.2115864277
 40
0.3975889133
 40
0.5578751716
 40
0.6925259488
 40
0.8019117689
 40
0.8870955593
 40
0.9214074801
 40
0.9509228869
 40
0.9766253264
 40
1.0
 40
1.0
 40
1.0
 40
1.0
 10
6.5573086925
 20
17.0593734858
 30
0.0
 10
6.5571372575
 20
17.059660071
 30
0.0
 10
6.5568213965
 20
17.0602024001
 30
0.0
 10
6.5564024076
 20
17.0609770424
 30
0.0
 10
6.5560691123
 20
17.0616592901
 30
0.0
 10
6.5558214986
 20
17.0622480814
 30
0.0
 10
6.5556597944
 20
17.0627423983
 30
0.0
 10
6.5555906218
 20
17.0630992072
 30
0.0
 10
6.555587249
 20
17.0633350384
 30
0.0
 10
6.5556072652
 20
17.0634756945
 30
0.0
 10
6.5556502738
 20
17.0635932568
 30
0.0
 10
6.5556965071
 20
17.0636570633
 30
0.0
 10
6.5557226031
 20
17.0636831409
 30
0.0
  0
LINE
  5
533
100
AcDbEntity
  8
0
100
AcDbLine
 62
7
  6
CONTINUOUS
 10
6.3850013098
 20
17.2217568941
 11
6.3877690331
 21
17.2196297634
  0
SPLINE
  5
534
100
AcDbEntity
  8
0
100
AcDbSpline
 62
7
  6
CONTINUOUS
 70
0
 71
3
 72
12
 73
8
 74
0
 42
0.0000001
 43
0.0000001
 44
0.0000000001
 40
0.0
 40
0.0
 40
0.0
 40
0.0
 40
0.2061410807
 40
0.3873645929
 40
0.5440557817
 40
0.6768810928
 40
1.0
 40
1.0
 40
1.0
 40
1.0
 10
6.3877690331
 20
17.2196297634
 30
0.0
 10
6.3878615554
 20
17.2195711881
 30
0.0
 10
6.3880375297
 20
17.21946395
 30
0.0
 10
6.3882899761
 20
17.2193249205
 30
0.0
 10
6.3885187788
 20
17.2192168383
 30
0.0
 10
6.3888109924
 20
17.219103919
 30
0.0
 10
6.3891207708
 20
17.2190499838
 30
0.0
 10
6.3892421336
 20
17.2191713649
 30
0.0
  0
SPLINE
  5
535
100
AcDbEntity
  8
0
100
AcDbSpline
 62
7
  6
CONTINUOUS
 70
0
 71
3
 72
17
 73
13
 74
0
 42
0.0000001
 43
0.0000001
 44
0.0000000001
 40
0.0
 40
0.0
 40
0.0
 40
0.0
 40
0.2160839747
 40
0.4056626123
 40
0.5685046273
 40
0.7045052083
 40
0.8138898172
 40
0.8974123176
 40
0.9300835769
 40
0.9573206178
 40
0.9800840519
 40
1.0
 40
1.0
 40
1.0
 40
1.0
 10
6.3087746928
 20
17.3095005574
 30
0.0
 10
6.3085962037
 20
17.3097860919
 30
0.0
 10
6.3082663184
 20
17.3103254234
 30
0.0
 10
6.30782396
 20
17.3110931664
 30
0.0
 10
6.3074669075
 20
17.3117655212
 30
0.0
 10
6.3071953405
 20
17.3123413082
 30
0.0
 10
6.3070096326
 20
17.312819325
 30
0.0
 10
6.3069177022
 20
17.313160445
 30
0.0
 10
6.3068955448
 20
17.3133834309
 30
0.0
 10
6.3069023731
 20
17.3135127718
 30
0.0
 10
6.3069317983
 20
17.3136189093
 30
0.0
 10
6.306969641
 20
17.3136755684
 30
0.0
 10
6.3069915844
 20
17.3136975163
 30
0.0
  0
SPLINE
  5
536
100
AcDbEntity
  8
0
100
AcDbSpline
 62
7
  6
CONTINUOUS
 70
0
 71
3
 72
14
 73
10
 74
0
 42
0.0000001
 43
0.0000001
 44
0.0000000001
 40
0.0
 40
0.0
 40
0.0
 40
0.0
 40
0.3973472629
 40
0.5562366356
 40
0.6891105681
 40
0.7968809914
 40
0.8813384773
 40
0.9463073376
 40
1.0
 40
1.0
 40
1.0
 40
1.0
 10
6.1902981808
 20
17.4164288885
 30
0.0
 10
6.1904434563
 20
17.4163220021
 30
0.0
 10
6.1906504369
 20
17.4161768008
 30
0.0
 10
6.1909195813
 20
17.4160171035
 30
0.0
 10
6.1910816138
 20
17.4159352683
 30
0.0
 10
6.1912195493
 20
17.4158817482
 30
0.0
 10
6.1913341108
 20
17.4158564704
 30
0.0
 10
6.1914280684
 20
17.4158595025
 30
0.0
 10
6.1914779517
 20
17.415886378
 30
0.0
 10
6.1914951851
 20
17.4159036114
 30
0.0
  0
SPLINE
  5
537
100
AcDbEntity
  8
0
100
AcDbSpline
 62
7
  6
CONTINUOUS
 70
0
 71
3
 72
16
 73
12
 74
0
 42
0.0000001
 43
0.0000001
 44
0.0000000001
 40
0.0
 40
0.0
 40
0.0
 40
0.0
 40
0.2211075078
 40
0.4146053131
 40
0.5801945293
 40
0.7177396318
 40
0.8272522168
 40
0.9091304398
 40
0.9401399532
 40
0.9650128222
 40
1.0
 40
1.0
 40
1.0
 40
1.0
 10
6.1121334645
 20
17.5076583058
 30
0.0
 10
6.1119589656
 20
17.5079228814
 30
0.0
 10
6.1116354721
 20
17.5084214673
 30
0.0
 10
6.1111970578
 20
17.509128275
 30
0.0
 10
6.1108383217
 20
17.5097432787
 30
0.0
 10
6.1105592999
 20
17.5102650708
 30
0.0
 10
6.1103608015
 20
17.5106931089
 30
0.0
 10
6.1102514499
 20
17.5109932502
 30
0.0
 10
6.110211433
 20
17.5111878687
 30
0.0
 10
6.1102018216
 20
17.5113161903
 30
0.0
 10
6.1102240746
 20
17.5114091962
 30
0.0
 10
6.1102595368
 20
17.5114446584
 30
0.0
  0
LINE
  5
538
100
AcDbEntity
  8
0
100
AcDbLine
 62
7
  6
CONTINUOUS
 10
6.0513252973
 20
17.5549920111
 11
6.0542256856
 21
17.5522274097
  0
LINE
  5
539
100
AcDbEntity
  8
0
100
AcDbLine
 62
7
  6
CONTINUOUS
 10
6.0542256856
 20
17.5522274097
 11
6.0546579349
 21
17.5520387624
  0
LINE
  5
53A
100
AcDbEntity
  8
0
100
AcDbLine
 62
7
  6
CONTINUOUS
 10
6.1876270667
 20
17.4187422397
 11
6.1886657805
 21
17.4177873224
  0
LINE
  5
53B
100
AcDbEntity
  8
0
100
AcDbLine
 62
7
  6
CONTINUOUS
 10
6.1886657805
 20
17.4177873224
 11
6.1902981808
 21
17.4164288885
  0
SPLINE
  5
53C
100
AcDbEntity
  8
0
100
AcDbSpline
 62
9
  6
CONTINUOUS
 70
0
 71
3
 72
11
 73
7
 74
0
 42
0.0000001
 43
0.0000001
 44
0.0000000001
 40
0.0
 40
0.0
 40
0.0
 40
0.0
 40
0.2497311373
 40
0.4999999985
 40
0.7502688665
 40
1.0
 40
1.0
 40
1.0
 40
1.0
 10
12.9177997941
 20
8.5283107873
 30
0.0
 10
12.9177997926
 20
8.5105928054
 30
0.0
 10
12.9183240165
 20
8.4751213183
 30
0.0
 10
12.9187966443
 20
8.4218918039
 30
0.0
 10
12.9183240049
 20
8.3686622898
 30
0.0
 10
12.9177998042
 20
8.3331908024
 30
0.0
 10
12.9177997941
 20
8.3154728208
 30
0.0
  0
LINE
  5
53D
100
AcDbEntity
  8
0
100
AcDbLine
 62
7
  6
CONTINUOUS
 10
8.8838029726
 20
14.7229240967
 11
8.8851614075
 21
14.7212916953
  0
LINE
  5
53E
100
AcDbEntity
  8
0
100
AcDbLine
 62
7
  6
CONTINUOUS
 10
8.8851614075
 20
14.7212916953
 11
8.8861163237
 21
14.7202529827
  0
SPLINE
  5
53F
100
AcDbEntity
  8
0
100
AcDbSpline
 62
7
  6
CONTINUOUS
 70
0
 71
3
 72
16
 73
12
 74
0
 42
0.0000001
 43
0.0000001
 44
0.0000000001
 40
0.0
 40
0.0
 40
0.0
 40
0.0
 40
0.0148613537
 40
0.0355068801
 40
0.0955712214
 40
0.1815031592
 40
0.2935549262
 40
0.4316547459
 40
0.5956068476
 40
0.7851720349
 40
1.0
 40
1.0
 40
1.0
 40
1.0
 10
6.6734406216
 20
16.8446084986
 30
0.0
 10
6.6734180357
 20
16.8446095506
 30
0.0
 10
6.6733649589
 20
16.8446234313
 30
0.0
 10
6.673232509
 20
16.8446835248
 30
0.0
 10
6.6730190352
 20
16.844822419
 30
0.0
 10
6.6727061414
 20
16.8450592095
 30
0.0
 10
6.6723125724
 20
16.8453860491
 30
0.0
 10
6.6718389607
 20
16.8458015121
 30
0.0
 10
6.6712861083
 20
16.8463053697
 30
0.0
 10
6.6706549459
 20
16.8468964244
 30
0.0
 10
6.6702101898
 20
16.8473215612
 30
0.0
 10
6.6699747783
 20
16.8475482951
 30
0.0
  0
SPLINE
  5
540
100
AcDbEntity
  8
0
100
AcDbSpline
 62
7
  6
CONTINUOUS
 70
0
 71
3
 72
16
 73
12
 74
0
 42
0.0000001
 43
0.0000001
 44
0.0000000001
 40
0.0
 40
0.0
 40
0.0
 40
0.0
 40
0.2148279692
 40
0.4043931625
 40
0.5683452628
 40
0.7064450767
 40
0.8184968406
 40
0.9044287779
 40
0.9644931194
 40
0.9851386459
 40
1.0
 40
1.0
 40
1.0
 40
1.0
 10
8.3149223791
 20
15.2026006943
 30
0.0
 10
8.3146956453
 20
15.2028361057
 30
0.0
 10
8.3142705085
 20
15.2032808619
 30
0.0
 10
8.3136794538
 20
15.2039120243
 30
0.0
 10
8.3131755962
 20
15.2044648766
 30
0.0
 10
8.3127601332
 20
15.2049384883
 30
0.0
 10
8.3124332936
 20
15.2053320573
 30
0.0
 10
8.3121965031
 20
15.2056449511
 30
0.0
 10
8.3120576089
 20
15.2058584249
 30
0.0
 10
8.3119975154
 20
15.2059908748
 30
0.0
 10
8.3119836347
 20
15.2060439516
 30
0.0
 10
8.3119825827
 20
15.2060665375
 30
0.0
  0
SPLINE
  5
541
100
AcDbEntity
  8
0
100
AcDbSpline
 62
7
  6
CONTINUOUS
 70
0
 71
3
 72
18
 73
14
 74
0
 42
0.0000001
 43
0.0000001
 44
0.0000000001
 40
0.0
 40
0.0
 40
0.0
 40
0.0
 40
0.0075434774
 40
0.0133314469
 40
0.0208124014
 40
0.0412118336
 40
0.0691309753
 40
0.1479326188
 40
0.2575397526
 40
0.3978244489
 40
0.5685580792
 40
0.769431107
 40
1.0
 40
1.0
 40
1.0
 40
1.0
 10
6.9225850889
 20
16.5670726311
 30
0.0
 10
6.9225775171
 20
16.5670650593
 30
0.0
 10
6.9225554273
 20
16.5670631184
 30
0.0
 10
6.9225275463
 20
16.5670707305
 30
0.0
 10
6.9224828564
 20
16.5670887914
 30
0.0
 10
6.9224143825
 20
16.5671287132
 30
0.0
 10
6.9222654406
 20
16.567230824
 30
0.0
 10
6.9220258261
 20
16.5674232986
 30
0.0
 10
6.9216729916
 20
16.5677285857
 30
0.0
 10
6.9212310245
 20
16.5681301505
 30
0.0
 10
6.9207003852
 20
16.568626572
 30
0.0
 10
6.9200821784
 20
16.5692169349
 30
0.0
 10
6.9196423823
 20
16.5696431587
 30
0.0
 10
6.9194079452
 20
16.5698715501
 30
0.0
  0
SPLINE
  5
542
100
AcDbEntity
  8
0
100
AcDbSpline
 62
7
  6
CONTINUOUS
 70
0
 71
3
 72
18
 73
14
 74
0
 42
0.0000001
 43
0.0000001
 44
0.0000000001
 40
0.0
 40
0.0
 40
0.0
 40
0.0
 40
0.230550731
 40
0.431427316
 40
0.6022052663
 40
0.7425165729
 40
0.8521468163
 40
0.9309790268
 40
0.9588935362
 40
0.9792754228
 40
0.9867428048
 40
0.9925130355
 40
1.0
 40
1.0
 40
1.0
 40
1.0
 10
8.0373144318
 20
15.4519632837
 30
0.0
 10
8.0370806538
 20
15.4522030024
 30
0.0
 10
8.0366443344
 20
15.4526527063
 30
0.0
 10
8.0360398639
 20
15.4532848319
 30
0.0
 10
8.0355314683
 20
15.4538274266
 30
0.0
 10
8.035120073
 20
15.4542792998
 30
0.0
 10
8.0348071773
 20
15.4546399741
 30
0.0
 10
8.03460977
 20
15.4548848201
 30
0.0
 10
8.0345048972
 20
15.4550369494
 30
0.0
 10
8.0344638494
 20
15.4551068153
 30
0.0
 10
8.0344451914
 20
15.4551523961
 30
0.0
 10
8.0344372879
 20
15.4551807397
 30
0.0
 10
8.0344390805
 20
15.4552032626
 30
0.0
 10
8.0344467529
 20
15.4552109679
 30
0.0
  0
LINE
  5
543
100
AcDbEntity
  8
0
100
AcDbLine
 62
7
  6
CONTINUOUS
 10
5.9741245668
 20
17.6482820729
 11
5.9747390924
 21
17.6469651028
  0
SPLINE
  5
544
100
AcDbEntity
  8
0
100
AcDbSpline
 62
7
  6
CONTINUOUS
 70
0
 71
3
 72
61
 73
57
 74
0
 42
0.0000001
 43
0.0000001
 44
0.0000000001
 40
0.0
 40
0.0
 40
0.0
 40
0.0
 40
0.0001679449
 40
0.0003636276
 40
0.0006053711
 40
0.0009030852
 40
0.0012620508
 40
0.0016852423
 40
0.0021744475
 40
0.0027308028
 40
0.0040474996
 40
0.0056386697
 40
0.0075055864
 40
0.0096486626
 40
0.0120676561
 40
0.0147616748
 40
0.0177296086
 40
0.0209702291
 40
0.0282629335
 40
0.0366244748
 40
0.046037104
 40
0.0564799151
 40
0.0679299077
 40
0.0803612823
 40
0.1080545555
 40
0.1393102798
 40
0.1738460314
 40
0.2113493627
 40
0.2514806832
 40
0.2938764329
 40
0.3381524509
 40
0.3839074044
 40
0.4307265797
 40
0.4781854923
 40
0.5732996976
 40
0.6200926939
 40
0.6658086843
 40
0.7100333027
 40
0.7523656893
 40
0.7924222542
 40
0.8298401262
 40
0.8642804846
 40
0.8954317645
 40
0.9230124933
 40
0.9353848703
 40
0.9467742654
 40
0.9571549707
 40
0.9665041851
 40
0.9748011152
 40
0.9820282224
 40
0.9881702788
 40
0.9932161679
 40
0.995325612
 40
0.9971589156
 40
0.9987165704
 40
1.0
 40
1.0
 40
1.0
 40
1.0
 10
9.4884908027
 20
18.5956409784
 30
0.0
 10
9.488522949
 20
18.5956731246
 30
0.0
 10
9.4886095689
 20
18.5957265795
 30
0.0
 10
9.4887731925
 20
18.5957558488
 30
0.0
 10
9.4889729529
 20
18.5957439496
 30
0.0
 10
9.4892112218
 20
18.5956921816
 30
0.0
 10
9.4894892212
 20
18.5956006914
 30
0.0
 10
9.4898075002
 20
18.5954691905
 30
0.0
 10
9.4901662756
 20
18.5952975268
 30
0.0
 10
9.4907311498
 20
18.5949975405
 30
0.0
 10
9.4915364174
 20
18.5945159984
 30
0.0
 10
9.4926173578
 20
18.5938070212
 30
0.0
 10
9.493859799
 20
18.5929376759
 30
0.0
 10
9.4952631683
 20
18.5919083537
 30
0.0
 10
9.4968267394
 20
18.590719427
 30
0.0
 10
9.4985496927
 20
18.5893715939
 30
0.0
 10
9.5004311301
 20
18.5878656495
 30
0.0
 10
9.5032631042
 20
18.5855554332
 30
0.0
 10
9.5071875247
 20
18.5822750251
 30
0.0
 10
9.5123448529
 20
18.5778653225
 30
0.0
 10
9.5181073286
 20
18.5728516889
 30
0.0
 10
9.5244627148
 20
18.5672461841
 30
0.0
 10
9.5313972856
 20
18.5610622207
 30
0.0
 10
9.5417751536
 20
18.551723675
 30
0.0
 10
9.5560643007
 20
18.538716983
 30
0.0
 10
9.5746891394
 20
18.5215851693
 30
0.0
 10
9.5951943895
 20
18.5025754491
 30
0.0
 10
9.6174005688
 20
18.4818667775
 30
0.0
 10
9.6411127166
 20
18.4596534678
 30
0.0
 10
9.6661223418
 20
18.4361436601
 30
0.0
 10
9.6922092093
 20
18.4115573065
 30
0.0
 10
9.719143358
 20
18.3861241651
 30
0.0
 10
9.7466871396
 20
18.360081708
 30
0.0
 10
9.7839264662
 20
18.3248458123
 30
0.0
 10
9.8211541802
 20
18.289607954
 30
0.0
 10
9.8580592327
 20
18.254715545
 30
0.0
 10
9.8849710625
 20
18.2293047171
 30
0.0
 10
9.9110284852
 20
18.2047477929
 30
0.0
 10
9.9360018077
 20
18.1812742675
 30
0.0
 10
9.9596711237
 20
18.15910376
 30
0.0
 10
9.9818283274
 20
18.1384440221
 30
0.0
 10
10.0022789
 20
18.1194889161
 30
0.0
 10
10.0208438514
 20
18.1024169002
 30
0.0
 10
10.0350801717
 20
18.0894631532
 30
0.0
 10
10.0454136487
 20
18.0801692185
 30
0.0
 10
10.0523133675
 20
18.0740200734
 30
0.0
 10
10.0586330373
 20
18.0684502371
 30
0.0
 10
10.0643590074
 20
18.0634730569
 30
0.0
 10
10.0694790996
 20
18.0591004472
 30
0.0
 10
10.0739821457
 20
18.0553425748
 30
0.0
 10
10.0778587785
 20
18.0522085221
 30
0.0
 10
10.0807070975
 20
18.0500067476
 30
0.0
 10
10.0826725303
 20
18.0485721384
 30
0.0
 10
10.0838953696
 20
18.0477223414
 30
0.0
 10
10.0849565613
 20
18.0470328302
 30
0.0
 10
10.0856195592
 20
18.0466421091
 30
0.0
 10
10.0859252559
 20
18.0464770405
 30
0.0
  0
LINE
  5
545
100
AcDbEntity
  8
0
100
AcDbLine
 62
7
  6
CONTINUOUS
 10
10.0859252559
 20
18.0464770405
 11
10.0871773437
 21
18.0459325335
  0
SPLINE
  5
546
100
AcDbEntity
  8
0
100
AcDbSpline
 62
7
  6
CONTINUOUS
 70
0
 71
3
 72
18
 73
14
 74
0
 42
0.0000001
 43
0.0000001
 44
0.0000000001
 40
0.0
 40
0.0
 40
0.0
 40
0.0
 40
0.022955024
 40
0.043826942
 40
0.0719640653
 40
0.107601488
 40
0.1508399493
 40
0.2017112194
 40
0.2602194046
 40
0.400096812
 40
0.5702901758
 40
0.7704099885
 40
1.0
 40
1.0
 40
1.0
 40
1.0
 10
9.0194128465
 20
14.5872838508
 30
0.0
 10
9.0193865351
 20
14.5872574915
 30
0.0
 10
9.0194048427
 20
14.5871683611
 30
0.0
 10
9.0194546744
 20
14.5870702544
 30
0.0
 10
9.0195283289
 20
14.5869512098
 30
0.0
 10
9.0196299456
 20
14.5868114752
 30
0.0
 10
9.0197607437
 20
14.5866460602
 30
0.0
 10
9.0199203749
 20
14.5864568705
 30
0.0
 10
9.0201881716
 20
14.5861537343
 30
0.0
 10
9.0205962768
 20
14.5857165352
 30
0.0
 10
9.0211741417
 20
14.5851237913
 30
0.0
 10
9.0218644511
 20
14.5844375794
 30
0.0
 10
9.0223646181
 20
14.5839518564
 30
0.0
 10
9.0226329619
 20
14.583693497
 30
0.0
  0
SPLINE
  5
547
100
AcDbEntity
  8
0
100
AcDbSpline
 62
7
  6
CONTINUOUS
 70
0
 71
3
 72
17
 73
13
 74
0
 42
0.0000001
 43
0.0000001
 44
0.0000000001
 40
0.0
 40
0.0
 40
0.0
 40
0.0
 40
0.0269244155
 40
0.055526774
 40
0.0872147306
 40
0.1230306728
 40
0.2095954725
 40
0.3187189879
 40
0.4518672655
 40
0.6097112264
 40
0.7924434815
 40
1.0
 40
1.0
 40
1.0
 40
1.0
 10
7.4967682708
 20
16.1177824804
 30
0.0
 10
7.4967349796
 20
16.1177491728
 30
0.0
 10
7.4966751836
 20
16.1176710665
 30
0.0
 10
7.4966142612
 20
16.11752988
 30
0.0
 10
7.4965800587
 20
16.1173643467
 30
0.0
 10
7.4965685844
 20
16.1170942369
 30
0.0
 10
7.4966296147
 20
16.1166908706
 30
0.0
 10
7.4967967126
 20
16.1161396434
 30
0.0
 10
7.4970631428
 20
16.115491587
 30
0.0
 10
7.4974289974
 20
16.1147477235
 30
0.0
 10
7.4978940992
 20
16.1139090382
 30
0.0
 10
7.4982475188
 20
16.1133248416
 30
0.0
 10
7.4984397846
 20
16.1130169063
 30
0.0
  0
SPLINE
  5
548
100
AcDbEntity
  8
0
100
AcDbSpline
 62
7
  6
CONTINUOUS
 70
0
 71
3
 72
18
 73
14
 74
0
 42
0.0000001
 43
0.0000001
 44
0.0000000001
 40
0.0
 40
0.0
 40
0.0
 40
0.0
 40
0.2247499874
 40
0.4209285915
 40
0.5882315466
 40
0.7264215292
 40
0.8354835289
 40
0.879188627
 40
0.9157882076
 40
0.9454728169
 40
0.9686371194
 40
0.9861513843
 40
1.0
 40
1.0
 40
1.0
 40
1.0
 10
7.4381612412
 20
16.0532987834
 30
0.0
 10
7.4379573062
 20
16.0535503919
 30
0.0
 10
7.4375784322
 20
16.0540241351
 30
0.0
 10
7.4370608864
 20
16.0546955357
 30
0.0
 10
7.4366331012
 20
16.0552784595
 30
0.0
 10
7.4362959178
 20
16.0557717176
 30
0.0
 10
7.4360762231
 20
16.0561292799
 30
0.0
 10
7.4359494619
 20
16.0563710793
 30
0.0
 10
7.4358845243
 20
16.0565157959
 30
0.0
 10
7.4358420947
 20
16.0566378074
 30
0.0
 10
7.4358222486
 20
16.0567376509
 30
0.0
 10
7.4358243068
 20
16.0568174232
 30
0.0
 10
7.4358457686
 20
16.0568599391
 30
0.0
 10
7.4358598777
 20
16.0568740529
 30
0.0
  0
SPLINE
  5
549
100
AcDbEntity
  8
0
100
AcDbSpline
 62
7
  6
CONTINUOUS
 70
0
 71
3
 72
16
 73
12
 74
0
 42
0.0000001
 43
0.0000001
 44
0.0000000001
 40
0.0
 40
0.0
 40
0.0
 40
0.0
 40
0.4232689419
 40
0.5913920344
 40
0.7301698924
 40
0.8394920448
 40
0.8831749336
 40
0.9196289586
 40
0.9490079356
 40
0.9716298549
 40
1.0
 40
1.0
 40
1.0
 40
1.0
 10
7.092494516
 20
16.4008194646
 30
0.0
 10
7.0921303437
 20
16.4012761398
 30
0.0
 10
7.0916275369
 20
16.4019192224
 30
0.0
 10
7.0910330274
 20
16.4027328803
 30
0.0
 10
7.0907080385
 20
16.4032066149
 30
0.0
 10
7.0904945379
 20
16.4035482171
 30
0.0
 10
7.0903696821
 20
16.4037782295
 30
0.0
 10
7.0903047547
 20
16.4039143713
 30
0.0
 10
7.0902612837
 20
16.4040298504
 30
0.0
 10
7.090234391
 20
16.4041342137
 30
0.0
 10
7.0902381258
 20
16.4042170122
 30
0.0
 10
7.0902658237
 20
16.4042446809
 30
0.0
  0
SPLINE
  5
54A
100
AcDbEntity
  8
0
100
AcDbSpline
 62
7
  6
CONTINUOUS
 70
0
 71
3
 72
18
 73
14
 74
0
 42
0.0000001
 43
0.0000001
 44
0.0000000001
 40
0.0
 40
0.0
 40
0.0
 40
0.0
 40
0.2294600995
 40
0.4295201047
 40
0.5997579756
 40
0.7398053206
 40
0.8494634249
 40
0.8928710388
 40
0.928671902
 40
0.9569175873
 40
0.9777594935
 40
0.9916098591
 40
1.0
 40
1.0
 40
1.0
 40
1.0
 10
7.4290858934
 20
16.043834214
 30
0.0
 10
7.4288570759
 20
16.0440905122
 30
0.0
 10
7.4284304763
 20
16.0445718111
 30
0.0
 10
7.4278414214
 20
16.0452496858
 30
0.0
 10
7.4273477194
 20
16.0458329978
 30
0.0
 10
7.42695044
 20
16.0463204275
 30
0.0
 10
7.4266824343
 20
16.0466681503
 30
0.0
 10
7.426518558
 20
16.0468986657
 30
0.0
 10
7.4264301993
 20
16.0470332076
 30
0.0
 10
7.4263656505
 20
16.0471427209
 30
0.0
 10
7.4263260523
 20
16.0472287492
 30
0.0
 10
7.4263064482
 20
16.0472898229
 30
0.0
 10
7.4263125848
 20
16.0473267572
 30
0.0
 10
7.4263214601
 20
16.0473356484
 30
0.0
  0
LINE
  5
54B
100
AcDbEntity
  8
0
100
AcDbLine
 62
7
  6
CONTINUOUS
 10
7.1770419748
 20
16.2948892223
 11
7.1737690459
 21
16.297915722
  0
LINE
  5
54C
100
AcDbEntity
  8
0
100
AcDbLine
 62
7
  6
CONTINUOUS
 10
6.2994874928
 20
17.2572117803
 11
6.2990833277
 21
17.2574625826
  0
LINE
  5
54D
100
AcDbEntity
  8
0
100
AcDbLine
 62
7
  6
CONTINUOUS
 10
6.2990833277
 20
17.2574625826
 11
6.2959685673
 21
17.2605733949
  0
LINE
  5
54E
100
AcDbEntity
  8
0
100
AcDbLine
 62
7
  6
CONTINUOUS
 10
9.1823818687
 20
14.4395587084
 11
9.1856033337
 21
14.4371623721
  0
SPLINE
  5
54F
100
AcDbEntity
  8
0
100
AcDbSpline
 62
7
  6
CONTINUOUS
 70
0
 71
3
 72
18
 73
14
 74
0
 42
0.0000001
 43
0.0000001
 44
0.0000000001
 40
0.0
 40
0.0
 40
0.0
 40
0.0
 40
0.2265438234
 40
0.4243049995
 40
0.5929502196
 40
0.732209053
 40
0.8418860568
 40
0.8856476567
 40
0.9220782098
 40
0.9512776818
 40
0.9734630407
 40
0.9891719877
 40
1.0
 40
1.0
 40
1.0
 40
1.0
 10
9.1121612622
 20
14.5088537246
 30
0.0
 10
9.1124142786
 20
14.5086727958
 30
0.0
 10
9.1128897697
 20
14.5083361535
 30
0.0
 10
9.1135602798
 20
14.507874338
 30
0.0
 10
9.1141387638
 20
14.5074903116
 30
0.0
 10
9.1146239973
 20
14.5071848078
 30
0.0
 10
9.1149715897
 20
14.5069827142
 30
0.0
 10
9.1152032423
 20
14.5068629966
 30
0.0
 10
9.11533972
 20
14.5068001308
 30
0.0
 10
9.1154523264
 20
14.5067566684
 30
0.0
 10
9.1155416821
 20
14.5067330785
 30
0.0
 10
9.115608677
 20
14.5067268304
 30
0.0
 10
9.1156456358
 20
14.5067399757
 30
0.0
 10
9.1156561395
 20
14.5067504973
 30
0.0
  0
SPLINE
  5
550
100
AcDbEntity
  8
0
100
AcDbSpline
 62
7
  6
CONTINUOUS
 70
0
 71
3
 72
17
 73
13
 74
0
 42
0.0000001
 43
0.0000001
 44
0.0000000001
 40
0.0
 40
0.0
 40
0.0
 40
0.0
 40
0.2211682029
 40
0.4147480988
 40
0.5804112411
 40
0.7179763844
 40
0.8274956641
 40
0.8718524613
 40
0.9094027642
 40
0.940369234
 40
0.9651789761
 40
1.0
 40
1.0
 40
1.0
 40
1.0
 10
8.974981846
 20
14.6447927397
 30
0.0
 10
8.9752500599
 20
14.6446154723
 30
0.0
 10
8.9757555282
 20
14.644286788
 30
0.0
 10
8.9764720831
 20
14.6438412438
 30
0.0
 10
8.9770954636
 20
14.6434763599
 30
0.0
 10
8.9776244215
 20
14.6431928742
 30
0.0
 10
8.9780084388
 20
14.6430129903
 30
0.0
 10
8.9782687073
 20
14.6429138979
 30
0.0
 10
8.9784254016
 20
14.6428654223
 30
0.0
 10
8.9785591267
 20
14.6428376803
 30
0.0
 10
8.9786887914
 20
14.6428275043
 30
0.0
 10
8.9787828948
 20
14.6428497108
 30
0.0
 10
8.978818704
 20
14.6428854855
 30
0.0
  0
SPLINE
  5
551
100
AcDbEntity
  8
0
100
AcDbSpline
 62
7
  6
CONTINUOUS
 70
0
 71
3
 72
14
 73
10
 74
0
 42
0.0000001
 43
0.0000001
 44
0.0000000001
 40
0.0
 40
0.0
 40
0.0
 40
0.0
 40
0.397124973
 40
0.5560077066
 40
0.6889483369
 40
0.7968088992
 40
0.881326794
 40
0.9463052052
 40
1.0
 40
1.0
 40
1.0
 40
1.0
 10
8.8838029726
 20
14.7229240967
 30
0.0
 10
8.8836961462
 20
14.7230692906
 30
0.0
 10
8.88355102
 20
14.7232761967
 30
0.0
 10
8.8833913737
 20
14.7235452842
 30
0.0
 10
8.8833094918
 20
14.7237073685
 30
0.0
 10
8.883255897
 20
14.7238453788
 30
0.0
 10
8.8832305399
 20
14.7239599965
 30
0.0
 10
8.8832335558
 20
14.7240539954
 30
0.0
 10
8.8832604534
 20
14.7241038743
 30
0.0
 10
8.8832776904
 20
14.7241211053
 30
0.0
  0
SPLINE
  5
552
100
AcDbEntity
  8
0
100
AcDbSpline
 62
7
  6
CONTINUOUS
 70
0
 71
3
 72
17
 73
13
 74
0
 42
0.0000001
 43
0.0000001
 44
0.0000000001
 40
0.0
 40
0.0
 40
0.0
 40
0.0
 40
0.2158446569
 40
0.4051908033
 40
0.5678520982
 40
0.7037710111
 40
0.8131352006
 40
0.8967396411
 40
0.929515782
 40
0.9569049783
 40
0.9798604847
 40
1.0
 40
1.0
 40
1.0
 40
1.0
 10
8.7769768313
 20
14.8413369081
 30
0.0
 10
8.77725512
 20
14.8411638749
 30
0.0
 10
8.7777807496
 20
14.8408441653
 30
0.0
 10
8.7785290891
 20
14.840415822
 30
0.0
 10
8.7791846069
 20
14.840070468
 30
0.0
 10
8.7797461602
 20
14.8398081564
 30
0.0
 10
8.780212665
 20
14.8396293457
 30
0.0
 10
8.7805457823
 20
14.8395416392
 30
0.0
 10
8.7807636784
 20
14.8395214308
 30
0.0
 10
8.7808903266
 20
14.8395289531
 30
0.0
 10
8.780994379
 20
14.8395585
 30
0.0
 10
8.7810499562
 20
14.8395958995
 30
0.0
 10
8.7810715687
 20
14.8396175278
 30
0.0
  0
SPLINE
  5
553
100
AcDbEntity
  8
0
100
AcDbSpline
 62
7
  6
CONTINUOUS
 70
0
 71
3
 72
17
 73
13
 74
0
 42
0.0000001
 43
0.0000001
 44
0.0000000001
 40
0.0
 40
0.0
 40
0.0
 40
0.0
 40
0.2201068913
 40
0.4125744451
 40
0.5770021748
 40
0.7132407039
 40
0.8215582911
 40
0.9027860964
 40
0.9339625773
 40
0.9596161329
 40
0.9809470211
 40
1.0
 40
1.0
 40
1.0
 40
1.0
 10
8.6891113684
 20
14.9176502735
 30
0.0
 10
8.6888699315
 20
14.9179341605
 30
0.0
 10
8.6884224637
 20
14.9184706561
 30
0.0
 10
8.6878163384
 20
14.9192370403
 30
0.0
 10
8.6873212656
 20
14.9199095689
 30
0.0
 10
8.6869376611
 20
14.9204867359
 30
0.0
 10
8.6866661282
 20
14.9209671437
 30
0.0
 10
8.6865190025
 20
14.9213130858
 30
0.0
 10
8.6864676476
 20
14.9215418881
 30
0.0
 10
8.6864610993
 20
14.9216749813
 30
0.0
 10
8.6864842205
 20
14.9217861565
 30
0.0
 10
8.6865226651
 20
14.921845214
 30
0.0
 10
8.6865454658
 20
14.9218680349
 30
0.0
  0
SPLINE
  5
554
100
AcDbEntity
  8
0
100
AcDbSpline
 62
7
  6
CONTINUOUS
 70
0
 71
3
 72
17
 73
13
 74
0
 42
0.0000001
 43
0.0000001
 44
0.0000000001
 40
0.0
 40
0.0
 40
0.0
 40
0.0
 40
0.2116834236
 40
0.3977950777
 40
0.558157106
 40
0.6928310258
 40
0.8022268203
 40
0.8873735578
 40
0.9216349696
 40
0.9510844168
 40
0.9767099016
 40
1.0
 40
1.0
 40
1.0
 40
1.0
 10
8.5267120728
 20
15.0899558596
 30
0.0
 10
8.5270011255
 20
15.0897825703
 30
0.0
 10
8.5275481564
 20
15.0894632461
 30
0.0
 10
8.528329455
 20
15.0890394656
 30
0.0
 10
8.5290175032
 20
15.0887021929
 30
0.0
 10
8.5296112344
 20
15.0884515005
 30
0.0
 10
8.5301095551
 20
15.0882874932
 30
0.0
 10
8.5304691925
 20
15.0882169071
 30
0.0
 10
8.5307068305
 20
15.0882129951
 30
0.0
 10
8.5308484506
 20
15.0882328543
 30
0.0
 10
8.5309667732
 20
15.0882759089
 30
0.0
 10
8.5310309891
 20
15.0883223154
 30
0.0
 10
8.5310572166
 20
15.0883485266
 30
0.0
  0
SPLINE
  5
555
100
AcDbEntity
  8
0
100
AcDbSpline
 62
7
  6
CONTINUOUS
 70
0
 71
3
 72
16
 73
12
 74
0
 42
0.0000001
 43
0.0000001
 44
0.0000000001
 40
0.0
 40
0.0
 40
0.0
 40
0.0
 40
0.4038253175
 40
0.5654814751
 40
0.7002836921
 40
0.8086213012
 40
0.8917123955
 40
0.9247008808
 40
0.9528443365
 40
0.9773434101
 40
1.0
 40
1.0
 40
1.0
 40
1.0
 10
8.4400278097
 20
15.1674983198
 30
0.0
 10
8.43961016
 20
15.1680403189
 30
0.0
 10
8.4390396086
 20
15.1688113629
 30
0.0
 10
8.4383970927
 20
15.1698093195
 30
0.0
 10
8.4380592333
 20
15.1704070414
 30
0.0
 10
8.4378286959
 20
15.170909974
 30
0.0
 10
8.4377159177
 20
15.1712759716
 30
0.0
 10
8.4376903528
 20
15.1715198629
 30
0.0
 10
8.4377005619
 20
15.1716656061
 30
0.0
 10
8.4377397888
 20
15.1717886334
 30
0.0
 10
8.4377871306
 20
15.1718550259
 30
0.0
 10
8.4378142817
 20
15.1718821659
 30
0.0
  0
SPLINE
  5
556
100
AcDbEntity
  8
0
100
AcDbSpline
 62
7
  6
CONTINUOUS
 70
0
 71
3
 72
16
 73
12
 74
0
 42
0.0000001
 43
0.0000001
 44
0.0000000001
 40
0.0
 40
0.0
 40
0.0
 40
0.0
 40
0.2089054197
 40
0.3927938901
 40
0.551606296
 40
0.6854695682
 40
0.7948874555
 40
0.8811625299
 40
0.9165088528
 40
0.9474316222
 40
1.0
 40
1.0
 40
1.0
 40
1.0
 10
8.2351698418
 20
15.3797583103
 30
0.0
 10
8.2354667461
 20
15.3795824485
 30
0.0
 10
8.2360293617
 20
15.3792590292
 30
0.0
 10
8.2368349442
 20
15.3788327546
 30
0.0
 10
8.2375471174
 20
15.3784965933
 30
0.0
 10
8.2381648261
 20
15.3782505635
 30
0.0
 10
8.238687239
 20
15.3780950026
 30
0.0
 10
8.2390666893
 20
15.3780355201
 30
0.0
 10
8.2393195709
 20
15.3780430547
 30
0.0
 10
8.2395127846
 20
15.378078657
 30
0.0
 10
8.239641069
 20
15.3781463703
 30
0.0
 10
8.2397024582
 20
15.378207784
 30
0.0
  0
SPLINE
  5
557
100
AcDbEntity
  8
0
100
AcDbSpline
 62
7
  6
CONTINUOUS
 70
0
 71
3
 72
17
 73
13
 74
0
 42
0.0000001
 43
0.0000001
 44
0.0000000001
 40
0.0
 40
0.0
 40
0.0
 40
0.0
 40
0.2116884564
 40
0.3974838109
 40
0.557262383
 40
0.6911490809
 40
0.799723892
 40
0.8843453602
 40
0.918658304
 40
0.9485286268
 40
0.975104679
 40
1.0
 40
1.0
 40
1.0
 40
1.0
 10
8.1499746553
 20
15.458597182
 30
0.0
 10
8.1497599652
 20
15.4588993499
 30
0.0
 10
8.1493641605
 20
15.459472001
 30
0.0
 10
8.1488375526
 20
15.4602937979
 30
0.0
 10
8.1484173167
 20
15.4610209807
 30
0.0
 10
8.1481036023
 20
15.4616524945
 30
0.0
 10
8.1478964088
 20
15.4621871639
 30
0.0
 10
8.1478050135
 20
15.4625780315
 30
0.0
 10
8.1477965794
 20
15.4628393706
 30
0.0
 10
8.1478186317
 20
15.4629977813
 30
0.0
 10
8.147869464
 20
15.4631323533
 30
0.0
 10
8.1479240193
 20
15.4632059187
 30
0.0
 10
8.1479548361
 20
15.4632367507
 30
0.0
  0
SPLINE
  5
558
100
AcDbEntity
  8
0
100
AcDbSpline
 62
7
  6
CONTINUOUS
 70
0
 71
3
 72
16
 73
12
 74
0
 42
0.0000001
 43
0.0000001
 44
0.0000000001
 40
0.0
 40
0.0
 40
0.0
 40
0.0
 40
0.2074334185
 40
0.3901453802
 40
0.548055226
 40
0.6813757199
 40
0.7907322434
 40
0.8775174912
 40
0.9134099372
 40
0.9451196259
 40
1.0
 40
1.0
 40
1.0
 40
1.0
 10
7.9150860508
 20
15.6980856827
 30
0.0
 10
7.9153879534
 20
15.6979045973
 30
0.0
 10
7.9159605626
 20
15.6975718475
 30
0.0
 10
7.9167818125
 20
15.6971345585
 30
0.0
 10
7.917509639
 20
15.6967912641
 30
0.0
 10
7.9181429983
 20
15.6965419818
 30
0.0
 10
7.9186810357
 20
15.696386772
 30
0.0
 10
7.919073684
 20
15.6963314504
 30
0.0
 10
7.9193364252
 20
15.6963446043
 30
0.0
 10
7.9195402632
 20
15.6963868018
 30
0.0
 10
7.9196751187
 20
15.6964611441
 30
0.0
 10
7.9197409913
 20
15.6965269921
 30
0.0
  0
SPLINE
  5
559
100
AcDbEntity
  8
0
100
AcDbSpline
 62
7
  6
CONTINUOUS
 70
0
 71
3
 72
17
 73
13
 74
0
 42
0.0000001
 43
0.0000001
 44
0.0000000001
 40
0.0
 40
0.0
 40
0.0
 40
0.0
 40
0.2086834711
 40
0.3921678876
 40
0.55042484
 40
0.6836688244
 40
0.7925186981
 40
0.8785013854
 40
0.9139430234
 40
0.9452198975
 40
0.9734139773
 40
1.0
 40
1.0
 40
1.0
 40
1.0
 10
7.8313959263
 20
15.7785403472
 30
0.0
 10
7.8311982244
 20
15.7788413342
 30
0.0
 10
7.8308345112
 20
15.7794121855
 30
0.0
 10
7.8303543461
 20
15.7802320476
 30
0.0
 10
7.8299750493
 20
15.7809590789
 30
0.0
 10
7.8296966255
 20
15.7815922786
 30
0.0
 10
7.8295192156
 20
15.7821307668
 30
0.0
 10
7.8294502522
 20
15.7825252122
 30
0.0
 10
7.8294562238
 20
15.782789541
 30
0.0
 10
7.8294869641
 20
15.7829513922
 30
0.0
 10
7.829544965
 20
15.7830894826
 30
0.0
 10
7.8296030478
 20
15.7831656774
 30
0.0
 10
7.8296354952
 20
15.7831981107
 30
0.0
  0
SPLINE
  5
55A
100
AcDbEntity
  8
0
100
AcDbSpline
 62
7
  6
CONTINUOUS
 70
0
 71
3
 72
17
 73
13
 74
0
 42
0.0000001
 43
0.0000001
 44
0.0000000001
 40
0.0
 40
0.0
 40
0.0
 40
0.0
 40
0.2072829257
 40
0.3897603649
 40
0.5474239211
 40
0.6804973203
 40
0.7896126278
 40
0.8762985913
 40
0.9122389606
 40
0.9440851499
 40
0.9728717752
 40
1.0
 40
1.0
 40
1.0
 40
1.0
 10
7.5804705319
 20
16.0310161882
 30
0.0
 10
7.58077304
 20
16.0308283515
 30
0.0
 10
7.5813469225
 20
16.0304831747
 30
0.0
 10
7.5821709254
 20
16.0300293918
 30
0.0
 10
7.5829019323
 20
16.0296729004
 30
0.0
 10
7.5835389665
 20
16.0294137269
 30
0.0
 10
7.5840811762
 20
16.0292520148
 30
0.0
 10
7.584478067
 20
16.029194124
 30
0.0
 10
7.5847439878
 20
16.0292067406
 30
0.0
 10
7.584907199
 20
16.0292412284
 30
0.0
 10
7.5850464957
 20
16.0293019589
 30
0.0
 10
7.585123612
 20
16.0293612337
 30
0.0
 10
7.585156557
 20
16.0293941942
 30
0.0
  0
LINE
  5
55B
100
AcDbEntity
  8
0
100
AcDbLine
 62
7
  6
CONTINUOUS
 10
7.7653213045
 20
15.7063629142
 11
7.7622633098
 21
15.7096678874
  0
SPLINE
  5
55C
100
AcDbEntity
  8
0
100
AcDbSpline
 62
7
  6
CONTINUOUS
 70
0
 71
3
 72
18
 73
14
 74
0
 42
0.0000001
 43
0.0000001
 44
0.0000000001
 40
0.0
 40
0.0
 40
0.0
 40
0.0
 40
0.020545022
 40
0.0436970945
 40
0.0711274791
 40
0.1038508828
 40
0.1424605455
 40
0.1873111111
 40
0.2964612622
 40
0.4321801295
 40
0.5947236165
 40
0.7840801694
 40
1.0
 40
1.0
 40
1.0
 40
1.0
 10
8.2116645517
 20
15.3548256532
 30
0.0
 10
8.211641423
 20
15.3548025365
 30
0.0
 10
8.2115825111
 20
15.3547625706
 30
0.0
 10
8.2114724276
 20
15.3547311128
 30
0.0
 10
8.2113392791
 20
15.3547238118
 30
0.0
 10
8.2111824586
 20
15.3547397453
 30
0.0
 10
8.2110013964
 20
15.3547786382
 30
0.0
 10
8.21070767
 20
15.3548672924
 30
0.0
 10
8.2102800427
 20
15.3550421079
 30
0.0
 10
8.2096987402
 20
15.3553300553
 30
0.0
 10
8.2090211784
 20
15.3557091153
 30
0.0
 10
8.2082488137
 20
15.3561786692
 30
0.0
 10
8.2077069721
 20
15.3565288205
 30
0.0
 10
8.2074202369
 20
15.3567182696
 30
0.0
  0
SPLINE
  5
55D
100
AcDbEntity
  8
0
100
AcDbSpline
 62
7
  6
CONTINUOUS
 70
0
 71
3
 72
17
 73
13
 74
0
 42
0.0000001
 43
0.0000001
 44
0.0000000001
 40
0.0
 40
0.0
 40
0.0
 40
0.0
 40
0.0223373588
 40
0.0469540119
 40
0.0754756827
 40
0.1089537959
 40
0.1930288487
 40
0.3020599459
 40
0.437075766
 40
0.5984084964
 40
0.7861069343
 40
1.0
 40
1.0
 40
1.0
 40
1.0
 10
7.8970635096
 20
15.6678143539
 30
0.0
 10
7.8970376506
 20
15.66778848
 30
0.0
 10
7.8969736573
 20
15.6677431458
 30
0.0
 10
7.8968550262
 20
15.6677040428
 30
0.0
 10
7.8967130071
 20
15.6676902506
 30
0.0
 10
7.8964735704
 20
15.6677057399
 30
0.0
 10
7.8961113563
 20
15.6677963419
 30
0.0
 10
7.895609625
 20
15.6679899447
 30
0.0
 10
7.8950108815
 20
15.668278098
 30
0.0
 10
7.8943162526
 20
15.6686604829
 30
0.0
 10
7.8935269168
 20
15.6691370905
 30
0.0
 10
7.8929744373
 20
15.6694940253
 30
0.0
 10
7.8926823714
 20
15.6696874016
 30
0.0
  0
SPLINE
  5
55E
100
AcDbEntity
  8
0
100
AcDbSpline
 62
7
  6
CONTINUOUS
 70
0
 71
3
 72
17
 73
13
 74
0
 42
0.0000001
 43
0.0000001
 44
0.0000000001
 40
0.0
 40
0.0
 40
0.0
 40
0.0
 40
0.0228001004
 40
0.0477185947
 40
0.0764103684
 40
0.1099648702
 40
0.1940099947
 40
0.3028694897
 40
0.4376783441
 40
0.5988051857
 40
0.7862910551
 40
1.0
 40
1.0
 40
1.0
 40
1.0
 10
7.5594550222
 20
16.0036926703
 30
0.0
 10
7.5594280137
 20
16.0036656481
 30
0.0
 10
7.5593617259
 20
16.0036182295
 30
0.0
 10
7.5592390841
 20
16.0035769267
 30
0.0
 10
7.559092859
 20
16.0035622437
 30
0.0
 10
7.5588474669
 20
16.0035781625
 30
0.0
 10
7.5584773753
 20
16.0036726453
 30
0.0
 10
7.5579663061
 20
16.003874873
 30
0.0
 10
7.5573578089
 20
16.0041760678
 30
0.0
 10
7.5566530011
 20
16.004575859
 30
0.0
 10
7.5558530478
 20
16.005074195
 30
0.0
 10
7.5552937753
 20
16.0054474081
 30
0.0
 10
7.5549982224
 20
16.0056496166
 30
0.0
  0
SPLINE
  5
55F
100
AcDbEntity
  8
0
100
AcDbSpline
 62
7
  6
CONTINUOUS
 70
0
 71
3
 72
17
 73
13
 74
0
 42
0.0000001
 43
0.0000001
 44
0.0000000001
 40
0.0
 40
0.0
 40
0.0
 40
0.0
 40
0.0219792855
 40
0.0460764413
 40
0.074040186
 40
0.1070075089
 40
0.1903261747
 40
0.2989982456
 40
0.4341044726
 40
0.5960044169
 40
0.7846900129
 40
1.0
 40
1.0
 40
1.0
 40
1.0
 10
7.2218466022
 20
16.3395710076
 30
0.0
 10
7.2218202259
 20
16.339544633
 30
0.0
 10
7.221754876
 20
16.3394987232
 30
0.0
 10
7.2216334482
 20
16.3394610888
 30
0.0
 10
7.2214885483
 20
16.339451242
 30
0.0
 10
7.2212441926
 20
16.3394758591
 30
0.0
 10
7.2208755929
 20
16.3395844556
 30
0.0
 10
7.2203662955
 20
16.3398063599
 30
0.0
 10
7.2197588478
 20
16.3401317626
 30
0.0
 10
7.2190544701
 20
16.3405602799
 30
0.0
 10
7.2182543404
 20
16.3410917783
 30
0.0
 10
7.2176949002
 20
16.3414882776
 30
0.0
 10
7.2173991615
 20
16.3417028801
 30
0.0
  0
SPLINE
  5
560
100
AcDbEntity
  8
0
100
AcDbSpline
 62
7
  6
CONTINUOUS
 70
0
 71
3
 72
17
 73
13
 74
0
 42
0.0000001
 43
0.0000001
 44
0.0000000001
 40
0.0
 40
0.0
 40
0.0
 40
0.0
 40
0.019870952
 40
0.0420591298
 40
0.068478298
 40
0.1002857049
 40
0.1823410419
 40
0.2908973202
 40
0.4268197731
 40
0.5903789824
 40
0.7815073181
 40
1.0
 40
1.0
 40
1.0
 40
1.0
 10
6.9072457015
 20
16.652559805
 30
0.0
 10
6.9072217557
 20
16.6525358712
 30
0.0
 10
6.9071605044
 20
16.652495049
 30
0.0
 10
6.9070455716
 20
16.6524670542
 30
0.0
 10
6.9069076539
 20
16.6524677813
 30
0.0
 10
6.9066715112
 20
16.6525092539
 30
0.0
 10
6.9063140042
 20
16.6526416021
 30
0.0
 10
6.9058175179
 20
16.6528932853
 30
0.0
 10
6.905221912
 20
16.6532529657
 30
0.0
 10
6.904528525
 20
16.6537201188
 30
0.0
 10
6.9037385749
 20
16.6542945934
 30
0.0
 10
6.9031854244
 20
16.6547202694
 30
0.0
 10
6.9028926901
 20
16.6549502444
 30
0.0
  0
SPLINE
  5
561
100
AcDbEntity
  8
0
100
AcDbSpline
 62
7
  6
CONTINUOUS
 70
0
 71
3
 72
15
 73
11
 74
0
 42
0.0000001
 43
0.0000001
 44
0.0000000001
 40
0.0
 40
0.0
 40
0.0
 40
0.0
 40
0.0481539198
 40
0.1098917794
 40
0.1931747333
 40
0.3012865224
 40
0.4356181543
 40
0.5967283007
 40
0.7848373557
 40
1.0
 40
1.0
 40
1.0
 40
1.0
 10
6.6370918309
 20
16.9213293882
 30
0.0
 10
6.6370652915
 20
16.9213028511
 30
0.0
 10
6.6369828794
 20
16.9212640397
 30
0.0
 10
6.6368297237
 20
16.9212706786
 30
0.0
 10
6.6366388948
 20
16.921323343
 30
0.0
 10
6.636405389
 20
16.9214244672
 30
0.0
 10
6.6361283678
 20
16.9215738376
 30
0.0
 10
6.6358076601
 20
16.921772107
 30
0.0
 10
6.6354436221
 20
16.9220191756
 30
0.0
 10
6.6351893386
 20
16.9222039998
 30
0.0
 10
6.6350548651
 20
16.9223041933
 30
0.0
  0
LINE
  5
562
100
AcDbEntity
  8
0
100
AcDbLine
 62
7
  6
CONTINUOUS
 10
8.8193511154
 20
14.7501772097
 11
8.8165333832
 21
14.7521500895
  0
SPLINE
  5
563
100
AcDbEntity
  8
0
100
AcDbSpline
 62
7
  6
CONTINUOUS
 70
0
 71
3
 72
17
 73
13
 74
0
 42
0.0000001
 43
0.0000001
 44
0.0000000001
 40
0.0
 40
0.0
 40
0.0
 40
0.0
 40
0.2215079175
 40
0.4150409152
 40
0.5802725708
 40
0.7170029541
 40
0.8254278368
 40
0.9062971578
 40
0.9370250682
 40
0.9619698683
 40
0.9822735624
 40
1.0
 40
1.0
 40
1.0
 40
1.0
 10
8.3909380386
 20
15.1661054711
 30
0.0
 10
8.390730949
 20
15.166351599
 30
0.0
 10
8.3903469603
 20
15.166816197
 30
0.0
 10
8.3898257072
 20
15.167478412
 30
0.0
 10
8.3893987568
 20
15.1680577124
 30
0.0
 10
8.3890664257
 20
15.1685528813
 30
0.0
 10
8.3888293395
 20
15.1689628491
 30
0.0
 10
8.3886981753
 20
15.1692560044
 30
0.0
 10
8.3886490391
 20
15.1694486934
 30
0.0
 10
8.3886396803
 20
15.1695593309
 30
0.0
 10
8.3886551161
 20
15.1696509686
 30
0.0
 10
8.3886853522
 20
15.1696994713
 30
0.0
 10
8.3887035515
 20
15.1697176756
 30
0.0
  0
SPLINE
  5
564
100
AcDbEntity
  8
0
100
AcDbSpline
 62
7
  6
CONTINUOUS
 70
0
 71
3
 72
18
 73
14
 74
0
 42
0.0000001
 43
0.0000001
 44
0.0000000001
 40
0.0
 40
0.0
 40
0.0
 40
0.0
 40
0.2244103395
 40
0.4203911617
 40
0.5875095064
 40
0.7254600006
 40
0.8342827062
 40
0.8778924915
 40
0.9144353586
 40
0.9441406364
 40
0.9674690141
 40
0.9853896676
 40
1.0
 40
1.0
 40
1.0
 40
1.0
 10
8.0925288569
 20
15.4255202633
 30
0.0
 10
8.0923037869
 20
15.4257813437
 30
0.0
 10
8.0918855933
 20
15.4262734185
 30
0.0
 10
8.0913144712
 20
15.4269722136
 30
0.0
 10
8.0908426352
 20
15.4275804213
 30
0.0
 10
8.0904712477
 20
15.4280965608
 30
0.0
 10
8.090229808
 20
15.4284721603
 30
0.0
 10
8.0900911227
 20
15.4287273313
 30
0.0
 10
8.0900203967
 20
15.4288807057
 30
0.0
 10
8.0899746564
 20
15.4290108261
 30
0.0
 10
8.0899538755
 20
15.4291183232
 30
0.0
 10
8.0899578925
 20
15.429205522
 30
0.0
 10
8.0899825913
 20
15.4292518346
 30
0.0
 10
8.0899984506
 20
15.429267713
 30
0.0
  0
SPLINE
  5
565
100
AcDbEntity
  8
0
100
AcDbSpline
 62
7
  6
CONTINUOUS
 70
0
 71
3
 72
17
 73
13
 74
0
 42
0.0000001
 43
0.0000001
 44
0.0000000001
 40
0.0
 40
0.0
 40
0.0
 40
0.0
 40
0.2182701659
 40
0.4092400324
 40
0.5726990814
 40
0.7085853896
 40
0.8171179664
 40
0.8992213467
 40
0.9311068365
 40
0.9576367783
 40
0.9799641104
 40
1.0
 40
1.0
 40
1.0
 40
1.0
 10
8.1222660652
 20
15.4355928964
 30
0.0
 10
8.1220410732
 20
15.4358803315
 30
0.0
 10
8.1216246344
 20
15.4364235268
 30
0.0
 10
8.1210628478
 20
15.4371994138
 30
0.0
 10
8.1206062282
 20
15.4378806924
 30
0.0
 10
8.1202549017
 20
15.438466028
 30
0.0
 10
8.1200095252
 20
15.4389541828
 30
0.0
 10
8.1198811426
 20
15.439305854
 30
0.0
 10
8.1198415163
 20
15.4395382281
 30
0.0
 10
8.1198414848
 20
15.4396741571
 30
0.0
 10
8.1198696989
 20
15.4397875012
 30
0.0
 10
8.1199102034
 20
15.4398479183
 30
0.0
 10
8.1199339023
 20
15.4398716051
 30
0.0
  0
SPLINE
  5
566
100
AcDbEntity
  8
0
100
AcDbSpline
 62
7
  6
CONTINUOUS
 70
0
 71
3
 72
14
 73
10
 74
0
 42
0.0000001
 43
0.0000001
 44
0.0000000001
 40
0.0
 40
0.0
 40
0.0
 40
0.0
 40
0.3939667028
 40
0.5522632085
 40
0.6852534268
 40
0.7937736351
 40
0.8794543066
 40
0.9457322921
 40
1.0
 40
1.0
 40
1.0
 40
1.0
 10
7.7915073529
 20
15.7282628715
 30
0.0
 10
7.7913776973
 20
15.7284640839
 30
0.0
 10
7.791202144
 20
15.728750583
 30
0.0
 10
7.7910118682
 20
15.7291211428
 30
0.0
 10
7.7909154265
 20
15.729344341
 30
0.0
 10
7.7908540243
 20
15.7295339157
 30
0.0
 10
7.7908276781
 20
15.7296907204
 30
0.0
 10
7.7908363909
 20
15.7298177956
 30
0.0
 10
7.7908731446
 20
15.7298851454
 30
0.0
 10
7.7908964688
 20
15.729908451
 30
0.0
  0
SPLINE
  5
567
100
AcDbEntity
  8
0
100
AcDbSpline
 62
7
  6
CONTINUOUS
 70
0
 71
3
 72
17
 73
13
 74
0
 42
0.0000001
 43
0.0000001
 44
0.0000000001
 40
0.0
 40
0.0
 40
0.0
 40
0.0
 40
0.2151820364
 40
0.4037657793
 40
0.5655661502
 40
0.7006316416
 40
0.8093045268
 40
0.8926550045
 40
0.9256731786
 40
0.9537168273
 40
0.9779126069
 40
1.0
 40
1.0
 40
1.0
 40
1.0
 10
7.8090436936
 20
15.7500709912
 30
0.0
 10
7.8088319577
 20
15.7503635194
 30
0.0
 10
7.8084407812
 20
15.7509169048
 30
0.0
 10
7.8079165859
 20
15.7517083886
 30
0.0
 10
7.8074942034
 20
15.7524052843
 30
0.0
 10
7.807173652
 20
15.7530063639
 30
0.0
 10
7.8069552974
 20
15.7535104594
 30
0.0
 10
7.8068489523
 20
15.7538754254
 30
0.0
 10
7.8068253697
 20
15.7541174112
 30
0.0
 10
7.806835545
 20
15.7542610505
 30
0.0
 10
7.8068731642
 20
15.754381503
 30
0.0
 10
7.8069188393
 20
15.7544463488
 30
0.0
 10
7.8069450575
 20
15.754472551
 30
0.0
  0
SPLINE
  5
568
100
AcDbEntity
  8
0
100
AcDbSpline
 62
7
  6
CONTINUOUS
 70
0
 71
3
 72
17
 73
13
 74
0
 42
0.0000001
 43
0.0000001
 44
0.0000000001
 40
0.0
 40
0.0
 40
0.0
 40
0.0
 40
0.2196640177
 40
0.4118701415
 40
0.5763383488
 40
0.7129273577
 40
0.8218166513
 40
0.9036729237
 40
0.9350564981
 40
0.9607322095
 40
0.9817522879
 40
1.0
 40
1.0
 40
1.0
 40
1.0
 10
7.4530198594
 20
16.0676217418
 30
0.0
 10
7.4528070149
 20
16.0679059436
 30
0.0
 10
7.4524127081
 20
16.0684424335
 30
0.0
 10
7.4518793517
 20
16.0692064115
 30
0.0
 10
7.4514442041
 20
16.0698746721
 30
0.0
 10
7.4511074964
 20
16.0704459221
 30
0.0
 10
7.4508698074
 20
16.0709188607
 30
0.0
 10
7.4507418812
 20
16.0712562717
 30
0.0
 10
7.4506980779
 20
16.0714771245
 30
0.0
 10
7.4506933564
 20
16.0716039869
 30
0.0
 10
7.4507144555
 20
16.071708311
 30
0.0
 10
7.4507494584
 20
16.0717636414
 30
0.0
 10
7.4507703072
 20
16.0717845061
 30
0.0
  0
SPLINE
  5
569
100
AcDbEntity
  8
0
100
AcDbSpline
 62
7
  6
CONTINUOUS
 70
0
 71
3
 72
17
 73
13
 74
0
 42
0.0000001
 43
0.0000001
 44
0.0000000001
 40
0.0
 40
0.0
 40
0.0
 40
0.0
 40
0.2136914892
 40
0.401191977
 40
0.562303437
 40
0.6970984447
 40
0.8059782945
 40
0.8900176438
 40
0.9235672899
 40
0.9522620913
 40
0.9771911568
 40
1.0
 40
1.0
 40
1.0
 40
1.0
 10
7.473021822
 20
16.0876268848
 30
0.0
 10
7.472819792
 20
16.0879222361
 30
0.0
 10
7.4724468898
 20
16.0884811727
 30
0.0
 10
7.4719489264
 20
16.0892805836
 30
0.0
 10
7.4715494915
 20
16.0899849494
 30
0.0
 10
7.471248629
 20
16.0905930879
 30
0.0
 10
7.4710465201
 20
16.0911038114
 30
0.0
 10
7.4709521716
 20
16.0914737004
 30
0.0
 10
7.4709363742
 20
16.0917189254
 30
0.0
 10
7.4709511026
 20
16.0918650587
 30
0.0
 10
7.470992353
 20
16.0919876595
 30
0.0
 10
7.4710397148
 20
16.0920539621
 30
0.0
 10
7.4710667176
 20
16.0920809749
 30
0.0
  0
SPLINE
  5
56A
100
AcDbEntity
  8
0
100
AcDbSpline
 62
7
  6
CONTINUOUS
 70
0
 71
3
 72
17
 73
13
 74
0
 42
0.0000001
 43
0.0000001
 44
0.0000000001
 40
0.0
 40
0.0
 40
0.0
 40
0.0
 40
0.2140750053
 40
0.4019560887
 40
0.563435206
 40
0.6985085164
 40
0.8075537505
 40
0.8915661722
 40
0.9249569255
 40
0.9533578996
 40
0.9778273854
 40
1.0
 40
1.0
 40
1.0
 40
1.0
 10
7.1371087641
 20
16.4252370044
 30
0.0
 10
7.1369113124
 20
16.4255340437
 30
0.0
 10
7.1365467759
 20
16.4260959562
 30
0.0
 10
7.1360596893
 20
16.4268986918
 30
0.0
 10
7.1356685474
 20
16.427604975
 30
0.0
 10
7.135373514
 20
16.4282136338
 30
0.0
 10
7.1351748078
 20
16.428723416
 30
0.0
 10
7.1350810359
 20
16.4290912818
 30
0.0
 10
7.1350641993
 20
16.4293343591
 30
0.0
 10
7.1350775439
 20
16.4294783197
 30
0.0
 10
7.1351166596
 20
16.4295984776
 30
0.0
 10
7.1351623533
 20
16.4296632643
 30
0.0
 10
7.1351884672
 20
16.4296893952
 30
0.0
  0
SPLINE
  5
56B
100
AcDbEntity
  8
0
100
AcDbSpline
 62
7
  6
CONTINUOUS
 70
0
 71
3
 72
17
 73
13
 74
0
 42
0.0000001
 43
0.0000001
 44
0.0000000001
 40
0.0
 40
0.0
 40
0.0
 40
0.0
 40
0.2200287492
 40
0.4125227254
 40
0.5772228254
 40
0.7140321979
 40
0.8230441333
 40
0.9048771912
 40
0.9361683443
 40
0.9616471292
 40
0.9823079779
 40
1.0
 40
1.0
 40
1.0
 40
1.0
 10
7.1127455138
 20
16.4096873566
 30
0.0
 10
7.1125473755
 20
16.409960326
 30
0.0
 10
7.1121802795
 20
16.4104753175
 30
0.0
 10
7.1116835745
 20
16.4112077719
 30
0.0
 10
7.111278119
 20
16.4118475201
 30
0.0
 10
7.1109640016
 20
16.4123932995
 30
0.0
 10
7.1107418474
 20
16.412843984
 30
0.0
 10
7.1106217703
 20
16.4131643213
 30
0.0
 10
7.1105798063
 20
16.4133731627
 30
0.0
 10
7.1105744949
 20
16.4134923972
 30
0.0
 10
7.110592953
 20
16.4135898534
 30
0.0
 10
7.110624978
 20
16.4136414625
 30
0.0
 10
7.1106441637
 20
16.4136606324
 30
0.0
  0
LINE
  5
56C
100
AcDbEntity
  8
0
100
AcDbLine
 62
7
  6
CONTINUOUS
 10
6.6350548651
 20
16.9223041933
 11
6.6340515431
 21
16.9230899966
  0
SPLINE
  5
56D
100
AcDbEntity
  8
0
100
AcDbSpline
 62
7
  6
CONTINUOUS
 70
0
 71
3
 72
17
 73
13
 74
0
 42
0.0000001
 43
0.0000001
 44
0.0000000001
 40
0.0
 40
0.0
 40
0.0
 40
0.0
 40
0.2161290654
 40
0.405657739
 40
0.5683721966
 40
0.7041829301
 40
0.8133344508
 40
0.8966703703
 40
0.9293233243
 40
0.9566375094
 40
0.9796336474
 40
1.0
 40
1.0
 40
1.0
 40
1.0
 10
6.824145754
 20
16.7399654834
 30
0.0
 10
6.8239517295
 20
16.7402579145
 30
0.0
 10
6.8235930803
 20
16.7408104901
 30
0.0
 10
6.8231118047
 20
16.7415981592
 30
0.0
 10
6.8227230357
 20
16.7422889338
 30
0.0
 10
6.8224269565
 20
16.742881579
 30
0.0
 10
6.8222240055
 20
16.7433748525
 30
0.0
 10
6.8221229798
 20
16.7437282575
 30
0.0
 10
6.8220978982
 20
16.7439602373
 30
0.0
 10
6.822104619
 20
16.7440955575
 30
0.0
 10
6.8221360126
 20
16.7442073073
 30
0.0
 10
6.8221763934
 20
16.7442670399
 30
0.0
 10
6.8221997785
 20
16.7442904232
 30
0.0
  0
LINE
  5
56E
100
AcDbEntity
  8
0
100
AcDbLine
 62
7
  6
CONTINUOUS
 10
6.4297954634
 20
17.127563595
 11
6.429399063
 21
17.1276444466
  0
LINE
  5
56F
100
AcDbEntity
  8
0
100
AcDbLine
 62
7
  6
CONTINUOUS
 10
6.2187240269
 20
17.3502132735
 11
6.2175512938
 21
17.3519770313
  0
LINE
  5
570
100
AcDbEntity
  8
0
100
AcDbLine
 62
7
  6
CONTINUOUS
 10
6.2199378135
 20
17.3486254783
 11
6.2187240269
 21
17.3502132735
  0
LINE
  5
571
100
AcDbEntity
  8
0
100
AcDbLine
 62
7
  6
CONTINUOUS
 10
6.4737775737
 20
17.0532085254
 11
6.4716569505
 21
17.0557962688
  0
LINE
  5
572
100
AcDbEntity
  8
0
100
AcDbLine
 62
7
  6
CONTINUOUS
 10
6.4716569505
 20
17.0557962688
 11
6.4714149421
 21
17.0561758088
  0
LINE
  5
573
100
AcDbEntity
  8
0
100
AcDbLine
 62
7
  6
CONTINUOUS
 10
6.4740181232
 20
17.0529239034
 11
6.4737775737
 21
17.0532085254
  0
SPLINE
  5
574
100
AcDbEntity
  8
0
100
AcDbSpline
 62
7
  6
CONTINUOUS
 70
0
 71
3
 72
17
 73
13
 74
0
 42
0.0000001
 43
0.0000001
 44
0.0000000001
 40
0.0
 40
0.0
 40
0.0
 40
0.0
 40
0.017638499
 40
0.0382528224
 40
0.0636913335
 40
0.0949519305
 40
0.1767736291
 40
0.2858065838
 40
0.4226257879
 40
0.5873706858
 40
0.7799316313
 40
1.0
 40
1.0
 40
1.0
 40
1.0
 10
7.8810347111
 20
15.6432700848
 30
0.0
 10
7.8810154433
 20
15.6432508346
 30
0.0
 10
7.880963533
 20
15.6432187465
 30
0.0
 10
7.8808655546
 20
15.643200365
 30
0.0
 10
7.8807456429
 20
15.6432059053
 30
0.0
 10
7.8805354739
 20
15.6432484832
 30
0.0
 10
7.8802130289
 20
15.643369931
 30
0.0
 10
7.8797593052
 20
15.6435942444
 30
0.0
 10
7.8792097273
 20
15.6439111823
 30
0.0
 10
7.8785654958
 20
15.6443202124
 30
0.0
 10
7.877827872
 20
15.6448211864
 30
0.0
 10
7.8773092128
 20
15.6451913506
 30
0.0
 10
7.8770343199
 20
15.6453911227
 30
0.0
  0
SPLINE
  5
575
100
AcDbEntity
  8
0
100
AcDbSpline
 62
7
  6
CONTINUOUS
 70
0
 71
3
 72
15
 73
11
 74
0
 42
0.0000001
 43
0.0000001
 44
0.0000000001
 40
0.0
 40
0.0
 40
0.0
 40
0.0
 40
0.0975983739
 40
0.1358045108
 40
0.1803997294
 40
0.2894958063
 40
0.4258479848
 40
0.5897582207
 40
0.7811949308
 40
1.0
 40
1.0
 40
1.0
 40
1.0
 10
7.5391585725
 20
15.9833962408
 30
0.0
 10
7.5390664648
 20
15.9833041031
 30
0.0
 10
7.5388418147
 20
15.9833181019
 30
0.0
 10
7.5386157925
 20
15.9833787067
 30
0.0
 10
7.5383721448
 20
15.9834645819
 30
0.0
 10
7.5380216366
 20
15.9836278389
 30
0.0
 10
7.5375429104
 20
15.9838927619
 30
0.0
 10
7.5369850391
 20
15.9842386523
 30
0.0
 10
7.5363480314
 20
15.9846651029
 30
0.0
 10
7.5359012239
 20
15.9849818062
 30
0.0
 10
7.5356646004
 20
15.9851530308
 30
0.0
  0
SPLINE
  5
576
100
AcDbEntity
  8
0
100
AcDbSpline
 62
7
  6
CONTINUOUS
 70
0
 71
3
 72
61
 73
57
 74
0
 42
0.0000001
 43
0.0000001
 44
0.0000000001
 40
0.0
 40
0.0
 40
0.0
 40
0.0
 40
0.0001729095
 40
0.0003728659
 40
0.000618075
 40
0.0009186009
 40
0.0012798916
 40
0.0017050461
 40
0.0021959386
 40
0.0027537661
 40
0.0040729155
 40
0.0056660674
 40
0.0075346243
 40
0.0096790798
 40
0.0120992452
 40
0.0147942659
 40
0.0177630587
 40
0.0210044152
 40
0.0282982793
 40
0.0366606384
 40
0.046073802
 40
0.0565169056
 40
0.0679669782
 40
0.0803982424
 40
0.1080907975
 40
0.1393452375
 40
0.173879217
 40
0.2113803708
 40
0.2515091579
 40
0.2939020895
 40
0.3381750472
 40
0.3839267659
 40
0.4307425706
 40
0.4781980463
 40
0.5733053653
 40
0.6200950252
 40
0.6658078089
 40
0.7100294167
 40
0.7523590299
 40
0.7924131275
 40
0.8298288823
 40
0.864267551
 40
0.8954176275
 40
0.9229977344
 40
0.935370053
 40
0.9467595798
 40
0.9571406314
 40
0.9664904383
 40
0.9747882481
 40
0.9820165822
 40
0.9881603028
 40
0.993208443
 40
0.9953193164
 40
0.9971543186
 40
0.9987140261
 40
1.0
 40
1.0
 40
1.0
 40
1.0
 10
10.0566943754
 20
18.0147960315
 30
0.0
 10
10.0566612757
 20
18.0147629319
 30
0.0
 10
10.0565730308
 20
18.0147075154
 30
0.0
 10
10.0564064974
 20
18.0146750139
 30
0.0
 10
10.0562036607
 20
18.014683908
 30
0.0
 10
10.0559623547
 20
18.0147327521
 30
0.0
 10
10.0556813566
 20
18.0148213528
 30
0.0
 10
10.0553601094
 20
18.0149499652
 30
0.0
 10
10.0549983825
 20
18.0151187364
 30
0.0
 10
10.054429515
 20
18.0154145383
 30
0.0
 10
10.0536192449
 20
18.0158910138
 30
0.0
 10
10.052532444
 20
18.0165942579
 30
0.0
 10
10.0512841515
 20
18.0174578377
 30
0.0
 10
10.0498749359
 20
18.0184813689
 30
0.0
 10
10.0483055187
 20
18.0196644879
 30
0.0
 10
10.0465767182
 20
18.0210065006
 30
0.0
 10
10.0446894316
 20
18.0225066144
 30
0.0
 10
10.0418494027
 20
18.0248086677
 30
0.0
 10
10.0379149963
 20
18.0280790273
 30
0.0
 10
10.0327460059
 20
18.0324771178
 30
0.0
 10
10.026971855
 20
18.0374791084
 30
0.0
 10
10.0206047813
 20
18.043072944
 30
0.0
 10
10.0136585131
 20
18.0492452189
 30
0.0
 10
10.0032645126
 20
18.0585675133
 30
0.0
 10
9.9889554126
 20
18.0715541748
 30
0.0
 10
9.9703072731
 20
18.0886627121
 30
0.0
 10
9.9497786821
 20
18.1076490969
 30
0.0
 10
9.9275491304
 20
18.1283343841
 30
0.0
 10
9.9038135848
 20
18.1505242769
 30
0.0
 10
9.8787805442
 20
18.1740106406
 30
0.0
 10
9.8526702453
 20
18.1985735328
 30
0.0
 10
9.8257126554
 20
18.2239831982
 30
0.0
 10
9.7981454229
 20
18.2500021724
 30
0.0
 10
9.7608747979
 20
18.2852067311
 30
0.0
 10
9.7236159779
 20
18.3204134807
 30
0.0
 10
9.686679484
 20
18.3552744133
 30
0.0
 10
9.6597441942
 20
18.3806617837
 30
0.0
 10
9.6336633205
 20
18.4051952665
 30
0.0
 10
9.6086665566
 20
18.4286453742
 30
0.0
 10
9.5849738159
 20
18.4507924924
 30
0.0
 10
9.5627932069
 20
18.4714288801
 30
0.0
 10
9.542319259
 20
18.4903606867
 30
0.0
 10
9.5237309671
 20
18.5074094682
 30
0.0
 10
9.5094746568
 20
18.5203432177
 30
0.0
 10
9.499125014
 20
18.5296209274
 30
0.0
 10
9.4922135749
 20
18.5357584078
 30
0.0
 10
9.4858821945
 20
18.5413165991
 30
0.0
 10
9.4801445254
 20
18.5462821614
 30
0.0
 10
9.475012747
 20
18.5506431867
 30
0.0
 10
9.4704980315
 20
18.5543895311
 30
0.0
 10
9.4666097448
 20
18.5575121219
 30
0.0
 10
9.4637513738
 20
18.5597038365
 30
0.0
 10
9.4617777954
 20
18.5611301217
 30
0.0
 10
9.4605490899
 20
18.561974168
 30
0.0
 10
9.4594820234
 20
18.562657965
 30
0.0
 10
9.4588149377
 20
18.5630443583
 30
0.0
 10
9.4585072125
 20
18.5632071635
 30
0.0
  0
LINE
  5
577
100
AcDbEntity
  8
0
100
AcDbLine
 62
7
  6
CONTINUOUS
 10
9.4585072125
 20
18.5632071635
 11
9.4572766975
 21
18.5637322269
  0
SPLINE
  5
578
100
AcDbEntity
  8
0
100
AcDbSpline
 62
7
  6
CONTINUOUS
 70
0
 71
3
 72
61
 73
57
 74
0
 42
0.0000001
 43
0.0000001
 44
0.0000000001
 40
0.0
 40
0.0
 40
0.0
 40
0.0
 40
0.0001682391
 40
0.0003641753
 40
0.0006061248
 40
0.0009040063
 40
0.0012631109
 40
0.0016864203
 40
0.0021757273
 40
0.0027321719
 40
0.0040490187
 40
0.0056403115
 40
0.0075073311
 40
0.0096504949
 40
0.0120695641
 40
0.0147636486
 40
0.0177316401
 40
0.0209723111
 40
0.0282650989
 40
0.0366267037
 40
0.04603938
 40
0.0564822237
 40
0.0679322368
 40
0.0803636221
 40
0.1080568868
 40
0.1393125668
 40
0.1738482492
 40
0.2113514803
 40
0.2514826853
 40
0.2938782988
 40
0.3381541699
 40
0.3839089643
 40
0.4307279746
 40
0.478186717
 40
0.5733005788
 40
0.6200934046
 40
0.6658092329
 40
0.7100336949
 40
0.7523659361
 40
0.7924223685
 40
0.829840121
 40
0.8642803775
 40
0.8954315733
 40
0.9230122385
 40
0.9353845927
 40
0.9467739715
 40
0.9571546674
 40
0.9665038801
 40
0.9748008175
 40
0.982027943
 40
0.9881700316
 40
0.9932159708
 40
0.9953254492
 40
0.9971587951
 40
0.9987165028
 40
1.0
 40
1.0
 40
1.0
 40
1.0
 10
9.4387034997
 20
18.5458536753
 30
0.0
 10
9.4387357024
 20
18.545885878
 30
0.0
 10
9.4388224185
 20
18.5459394495
 30
0.0
 10
9.4389862157
 20
18.5459689115
 30
0.0
 10
9.4391861602
 20
18.5459571918
 30
0.0
 10
9.4394246116
 20
18.5459055994
 30
0.0
 10
9.4397027919
 20
18.5458142833
 30
0.0
 10
9.4400212507
 20
18.5456829573
 30
0.0
 10
9.4403802058
 20
18.5455114696
 30
0.0
 10
9.4409453243
 20
18.5452117386
 30
0.0
 10
9.4417508998
 20
18.5447305077
 30
0.0
 10
9.4428322033
 20
18.5440218853
 30
0.0
 10
9.4440750097
 20
18.5431528994
 30
0.0
 10
9.4454787465
 20
18.5421239405
 30
0.0
 10
9.4470426875
 20
18.5409353807
 30
0.0
 10
9.4487660132
 20
18.5395879173
 30
0.0
 10
9.4506478254
 20
18.5380823456
 30
0.0
 10
9.453480319
 20
18.5357726537
 30
0.0
 10
9.4574053889
 20
18.5324928967
 30
0.0
 10
9.4625634826
 20
18.5280839538
 30
0.0
 10
9.4683267311
 20
18.5230710885
 30
0.0
 10
9.4746828968
 20
18.5174663595
 30
0.0
 10
9.4816182529
 20
18.511283178
 30
0.0
 10
9.4919972104
 20
18.501945725
 30
0.0
 10
9.5062877139
 20
18.4889403898
 30
0.0
 10
9.5249141442
 20
18.4718101601
 30
0.0
 10
9.5454209892
 20
18.4528020308
 30
0.0
 10
9.5676287617
 20
18.4320949486
 30
0.0
 10
9.5913424932
 20
18.4098832211
 30
0.0
 10
9.6163536882
 20
18.3863749798
 30
0.0
 10
9.6424421042
 20
18.3617901713
 30
0.0
 10
9.6693777748
 20
18.3363585462
 30
0.0
 10
9.6969230451
 20
18.3103175709
 30
0.0
 10
9.7341643046
 20
18.2750835968
 30
0.0
 10
9.7713938554
 20
18.2398475598
 30
0.0
 10
9.80830068
 20
18.2049569065
 30
0.0
 10
9.8352137888
 20
18.1795473451
 30
0.0
 10
9.8612724477
 20
18.1549916437
 30
0.0
 10
9.886246963
 20
18.1315192983
 30
0.0
 10
9.9099174279
 20
18.1093499276
 30
0.0
 10
9.9320757365
 20
18.0886912836
 30
0.0
 10
9.9525273689
 20
18.0697372288
 30
0.0
 10
9.9710933346
 20
18.0526662214
 30
0.0
 10
9.9853304868
 20
18.0397133079
 30
0.0
 10
9.9956646121
 20
18.0304200272
 30
0.0
 10
10.0025647888
 20
18.0242713431
 30
0.0
 10
10.0088849046
 20
18.0187019577
 30
0.0
 10
10.0146113086
 20
18.0137252178
 30
0.0
 10
10.0197318227
 20
18.0093530378
 30
0.0
 10
10.0242352785
 20
18.0055955838
 30
0.0
 10
10.028112309
 20
18.0024619378
 30
0.0
 10
10.030960962
 20
18.0002605114
 30
0.0
 10
10.0329266592
 20
17.9988261844
 30
0.0
 10
10.0341496853
 20
17.9979765806
 30
0.0
 10
10.0352110611
 20
17.9972872592
 30
0.0
 10
10.0358741857
 20
17.9968966794
 30
0.0
 10
10.0361799448
 20
17.9967316841
 30
0.0
  0
LINE
  5
579
100
AcDbEntity
  8
0
100
AcDbLine
 62
7
  6
CONTINUOUS
 10
10.0361799448
 20
17.9967316841
 11
10.0374313633
 21
17.9961877969
  0
SPLINE
  5
57A
100
AcDbEntity
  8
0
100
AcDbSpline
 62
7
  6
CONTINUOUS
 70
0
 71
3
 72
61
 73
57
 74
0
 42
0.0000001
 43
0.0000001
 44
0.0000000001
 40
0.0
 40
0.0
 40
0.0
 40
0.0
 40
0.0001727615
 40
0.000372589
 40
0.0006176924
 40
0.0009181317
 40
0.0012793501
 40
0.0017044431
 40
0.0021952822
 40
0.0027530627
 40
0.0040721329
 40
0.0056652196
 40
0.0075337217
 40
0.0096781301
 40
0.0120982549
 40
0.01479324
 40
0.0177620016
 40
0.0210033306
 40
0.0282971493
 40
0.0366594737
 40
0.0460726116
 40
0.0565156979
 40
0.0679657605
 40
0.0803970212
 40
0.1080895862
 40
0.1393440573
 40
0.1738780874
 40
0.2113793075
 40
0.2515081777
 40
0.2939012059
 40
0.3381742723
 40
0.3839261128
 40
0.4307420459
 40
0.4781976609
 40
0.5733052696
 40
0.6200950765
 40
0.6658080036
 40
0.7100297504
 40
0.7523594909
 40
0.7924137073
 40
0.8298295596
 40
0.8642683136
 40
0.8954184473
 40
0.9229985849
 40
0.9353709058
 40
0.9467604235
 40
0.9571414544
 40
0.9664912275
 40
0.9747889875
 40
0.9820172522
 40
0.9881608783
 40
0.9932088897
 40
0.995319681
 40
0.9971545853
 40
0.9987141741
 40
1.0
 40
1.0
 40
1.0
 40
1.0
 10
10.0054217314
 20
17.9635233876
 30
0.0
 10
10.0053886602
 20
17.9634903164
 30
0.0
 10
10.0053004644
 20
17.9634349584
 30
0.0
 10
10.0051340183
 20
17.9634025537
 30
0.0
 10
10.0049312748
 20
17.9634115389
 30
0.0
 10
10.0046900617
 20
17.9634604721
 30
0.0
 10
10.0044091562
 20
17.9635491615
 30
0.0
 10
10.0040880014
 20
17.9636778632
 30
0.0
 10
10.0037263671
 20
17.9638467242
 30
0.0
 10
10.0031576261
 20
17.9641426569
 30
0.0
 10
10.0023475165
 20
17.9646192925
 30
0.0
 10
10.0012609062
 20
17.9653227203
 30
0.0
 10
10.000012807
 20
17.9661864869
 30
0.0
 10
9.9986037875
 20
17.9672102082
 30
0.0
 10
9.9970345692
 20
17.9683935202
 30
0.0
 10
9.9953059707
 20
17.9697357287
 30
0.0
 10
9.9934188889
 20
17.971236041
 30
0.0
 10
9.9905791463
 20
17.9735383754
 30
0.0
 10
9.9866451026
 20
17.9768090879
 30
0.0
 10
9.9814765467
 20
17.9812075959
 30
0.0
 10
9.9757028421
 20
17.9862100149
 30
0.0
 10
9.9693362263
 20
17.9918042899
 30
0.0
 10
9.9623904274
 20
17.997977015
 30
0.0
 10
9.9519970896
 20
18.0072999491
 30
0.0
 10
9.937688839
 20
18.0202874271
 30
0.0
 10
9.919041734
 20
18.0373969539
 30
0.0
 10
9.898514222
 20
18.056384372
 30
0.0
 10
9.8762857927
 20
18.077070737
 30
0.0
 10
9.8525514125
 20
18.0992617519
 30
0.0
 10
9.8275195793
 20
18.1227492825
 30
0.0
 10
9.801410529
 20
18.1473133871
 30
0.0
 10
9.7744542287
 20
18.1727243102
 30
0.0
 10
9.7468883254
 20
18.1987445887
 30
0.0
 10
9.7096195251
 20
18.2339509507
 30
0.0
 10
9.6723625981
 20
18.2691595823
 30
0.0
 10
9.6354280956
 20
18.3040225085
 30
0.0
 10
9.6084943208
 20
18.329411404
 30
0.0
 10
9.5824149871
 20
18.3539464419
 30
0.0
 10
9.5574197813
 20
18.377398129
 30
0.0
 10
9.533728612
 20
18.3995468426
 30
0.0
 10
9.5115495796
 20
18.420184837
 30
0.0
 10
9.4910772087
 20
18.4391182526
 30
0.0
 10
9.4724904864
 20
18.4561686402
 30
0.0
 10
9.4582355135
 20
18.4691037655
 30
0.0
 10
9.4478869437
 20
18.4783825845
 30
0.0
 10
9.4409762775
 20
18.4845208588
 30
0.0
 10
9.4346456642
 20
18.4900798378
 30
0.0
 10
9.4289087553
 20
18.4950461806
 30
0.0
 10
9.4237777292
 20
18.499407978
 30
0.0
 10
9.4192637574
 20
18.5031550839
 30
0.0
 10
9.4153762051
 20
18.5062784242
 30
0.0
 10
9.4125184606
 20
18.5084707887
 30
0.0
 10
9.4105453845
 20
18.5098976056
 30
0.0
 10
9.4093170376
 20
18.5107420174
 30
0.0
 10
9.4082503276
 20
18.5114261753
 30
0.0
 10
9.4075834883
 20
18.5118128393
 30
0.0
 10
9.4072758848
 20
18.5119757854
 30
0.0
  0
LINE
  5
57B
100
AcDbEntity
  8
0
100
AcDbLine
 62
7
  6
CONTINUOUS
 10
9.4072758848
 20
18.5119757854
 11
9.4060440009
 21
18.5125020415
  0
SPLINE
  5
57C
100
AcDbEntity
  8
0
100
AcDbSpline
 62
7
  6
CONTINUOUS
 70
0
 71
3
 72
61
 73
57
 74
0
 42
0.0000001
 43
0.0000001
 44
0.0000000001
 40
0.0
 40
0.0
 40
0.0
 40
0.0
 40
0.0001686766
 40
0.0003649736
 40
0.0006072031
 40
0.0009053023
 40
0.001264579
 40
0.0016880274
 40
0.0021774485
 40
0.0027339879
 40
0.0040509813
 40
0.0056423804
 40
0.0075094778
 40
0.0096526985
 40
0.0120718085
 40
0.0147659215
 40
0.0177339314
 40
0.0209746128
 40
0.0282674029
 40
0.0366289925
 40
0.046041642
 40
0.0564844514
 40
0.067934426
 40
0.0803657714
 40
0.108058959
 40
0.1393145747
 40
0.1738502145
 40
0.211353427
 40
0.2514846427
 40
0.2938802979
 40
0.3381562373
 40
0.3839111305
 40
0.4307302601
 40
0.4781891433
 40
0.5733033223
 40
0.6200963124
 40
0.6658122949
 40
0.7100368964
 40
0.7523692509
 40
0.7924257691
 40
0.8298435611
 40
0.8642838133
 40
0.89543494
 40
0.9230154639
 40
0.9353877145
 40
0.9467769634
 40
0.9571575
 40
0.9665065202
 40
0.9748032253
 40
0.9820300694
 40
0.988171813
 40
0.9932173207
 40
0.9953265379
 40
0.997159582
 40
0.998716934
 40
1.0
 40
1.0
 40
1.0
 40
1.0
 10
9.3890445216
 20
18.4961946973
 30
0.0
 10
9.3890768079
 20
18.4962269835
 30
0.0
 10
9.3891636613
 20
18.496280727
 30
0.0
 10
9.3893277055
 20
18.4963104641
 30
0.0
 10
9.3895278998
 20
18.4962989871
 30
0.0
 10
9.389766586
 20
18.4962476211
 30
0.0
 10
9.3900449868
 20
18.4961565192
 30
0.0
 10
9.3903636531
 20
18.4960253981
 30
0.0
 10
9.3907228039
 20
18.4958541063
 30
0.0
 10
9.3912881712
 20
18.4955546465
 30
0.0
 10
9.3920940318
 20
18.4950737164
 30
0.0
 10
9.3931756324
 20
18.4943653977
 30
0.0
 10
9.394418696
 20
18.4934966817
 30
0.0
 10
9.3958226512
 20
18.4924679589
 30
0.0
 10
9.3973867725
 20
18.4912796007
 30
0.0
 10
9.3991102412
 20
18.4899323047
 30
0.0
 10
9.4009921596
 20
18.488426866
 30
0.0
 10
9.4038247472
 20
18.486117314
 30
0.0
 10
9.4077498376
 20
18.4828376339
 30
0.0
 10
9.4129078221
 20
18.478428648
 30
0.0
 10
9.4186708282
 20
18.4734156118
 30
0.0
 10
9.4250266226
 20
18.4678105867
 30
0.0
 10
9.4319614827
 20
18.4616269866
 30
0.0
 10
9.4423395881
 20
18.4522887873
 30
0.0
 10
9.4566287258
 20
18.4392822129
 30
0.0
 10
9.4752531427
 20
18.4221501143
 30
0.0
 10
9.4957575784
 20
18.4031397074
 30
0.0
 10
9.5179625783
 20
18.3824299661
 30
0.0
 10
9.5416732057
 20
18.3602152254
 30
0.0
 10
9.5666809961
 20
18.3367036459
 30
0.0
 10
9.5927657387
 20
18.3121152028
 30
0.0
 10
9.6196974967
 20
18.2866796779
 30
0.0
 10
9.6472386461
 20
18.2606345675
 30
0.0
 10
9.6844741726
 20
18.2253948002
 30
0.0
 10
9.7216977193
 20
18.1901526684
 30
0.0
 10
9.758598252
 20
18.1552555989
 30
0.0
 10
9.7855065824
 20
18.1298411531
 30
0.0
 10
9.8115603985
 20
18.1052804981
 30
0.0
 10
9.8365300306
 20
18.0818031552
 30
0.0
 10
9.8601955938
 20
18.0596287714
 30
0.0
 10
9.8823490068
 20
18.0389651238
 30
0.0
 10
9.9027957723
 20
18.0200061045
 30
0.0
 10
9.9213569249
 20
18.0029301973
 30
0.0
 10
9.9355900108
 20
17.9899731334
 30
0.0
 10
9.9459208979
 20
17.9806765427
 30
0.0
 10
9.9528187536
 20
17.9745255071
 30
0.0
 10
9.9591365792
 20
17.9689538059
 30
0.0
 10
9.9648607274
 20
17.9639747899
 30
0.0
 10
9.9699790231
 20
17.9596003777
 30
0.0
 10
9.9744803017
 20
17.9558407418
 30
0.0
 10
9.9783551989
 20
17.952704969
 30
0.0
 10
9.9812020474
 20
17.9505017165
 30
0.0
 10
9.983166308
 20
17.9490659087
 30
0.0
 10
9.9843883136
 20
17.9482152934
 30
0.0
 10
9.9854486803
 20
17.9475249795
 30
0.0
 10
9.9861111098
 20
17.9471336592
 30
0.0
 10
9.986416526
 20
17.94696828
 30
0.0
  0
LINE
  5
57D
100
AcDbEntity
  8
0
100
AcDbLine
 62
7
  6
CONTINUOUS
 10
9.986416526
 20
17.94696828
 11
9.9876713672
 21
17.9464211474
  0
SPLINE
  5
57E
100
AcDbEntity
  8
0
100
AcDbSpline
 62
7
  6
CONTINUOUS
 70
0
 71
3
 72
61
 73
57
 74
0
 42
0.0000001
 43
0.0000001
 44
0.0000000001
 40
0.0
 40
0.0
 40
0.0
 40
0.0
 40
0.0001679591
 40
0.0003636538
 40
0.0006054069
 40
0.0009031284
 40
0.0012620998
 40
0.0016852961
 40
0.002174505
 40
0.0027308633
 40
0.0040475641
 40
0.0056387363
 40
0.0075056537
 40
0.0096487294
 40
0.0120677215
 40
0.0147617376
 40
0.017729668
 40
0.020970284
 40
0.028262977
 40
0.036624504
 40
0.0460371164
 40
0.0564799091
 40
0.0679298814
 40
0.0803612329
 40
0.1080544543
 40
0.1393101232
 40
0.1738458123
 40
0.2113490783
 40
0.2514803293
 40
0.2938760109
 40
0.3381519558
 40
0.3839068472
 40
0.4307259552
 40
0.4781848153
 40
0.573298937
 40
0.6200919106
 40
0.6658078823
 40
0.7100324984
 40
0.7523648872
 40
0.7924214767
 40
0.8298393737
 40
0.8642797877
 40
0.8954311274
 40
0.9230119372
 40
0.93538436
 40
0.9467738015
 40
0.9571545562
 40
0.9665038242
 40
0.9748008106
 40
0.9820279768
 40
0.9881700935
 40
0.9932160442
 40
0.9953255193
 40
0.9971588542
 40
0.9987165402
 40
1.0
 40
1.0
 40
1.0
 40
1.0
 10
9.3392265247
 20
18.4463767003
 30
0.0
 10
9.3392586737
 20
18.4464088493
 30
0.0
 10
9.3393452982
 20
18.4464623099
 30
0.0
 10
9.3395089299
 20
18.4464915885
 30
0.0
 10
9.3397086988
 20
18.446479698
 30
0.0
 10
9.3399469759
 20
18.4464279386
 30
0.0
 10
9.3402249832
 20
18.4463364567
 30
0.0
 10
9.3405432699
 20
18.4462049643
 30
0.0
 10
9.3409020528
 20
18.4460333092
 30
0.0
 10
9.3414669369
 20
18.4457333352
 30
0.0
 10
9.3422722164
 20
18.4452518083
 30
0.0
 10
9.3433531703
 20
18.4445428483
 30
0.0
 10
9.3445956244
 20
18.4436735204
 30
0.0
 10
9.3459990061
 20
18.4426442158
 30
0.0
 10
9.347562589
 20
18.4414553069
 30
0.0
 10
9.3492855535
 20
18.4401074916
 30
0.0
 10
9.3511670016
 20
18.4386015654
 30
0.0
 10
9.3539989895
 20
18.4362913745
 30
0.0
 10
9.3579234255
 20
18.4330109981
 30
0.0
 10
9.3630807696
 20
18.4286013326
 30
0.0
 10
9.3688432594
 20
18.4235877363
 30
0.0
 10
9.3751986579
 20
18.4179822689
 30
0.0
 10
9.3821332391
 20
18.4117983431
 30
0.0
 10
9.3925111185
 20
18.40245985
 30
0.0
 10
9.406800275
 20
18.3894532226
 30
0.0
 10
9.425425118
 20
18.3723214837
 30
0.0
 10
9.4459303666
 20
18.3533118373
 30
0.0
 10
9.4681365382
 20
18.3326032386
 30
0.0
 10
9.4918486739
 20
18.3103899991
 30
0.0
 10
9.5168582819
 20
18.2868802596
 30
0.0
 10
9.5429451302
 20
18.2622939691
 30
0.0
 10
9.5698792563
 20
18.236860887
 30
0.0
 10
9.5974230159
 20
18.2108184818
 30
0.0
 10
9.634662316
 20
18.1755826428
 30
0.0
 10
9.6718900052
 20
18.1403448254
 30
0.0
 10
9.7087950322
 20
18.1054524435
 30
0.0
 10
9.7357068492
 20
18.0800416227
 30
0.0
 10
9.7617642604
 20
18.0554846969
 30
0.0
 10
9.7867375764
 20
18.0320111581
 30
0.0
 10
9.8104068876
 20
18.009840628
 30
0.0
 10
9.8325640936
 20
17.9891808535
 30
0.0
 10
9.8530146721
 20
17.9702257005
 30
0.0
 10
9.8715796369
 20
17.953153623
 30
0.0
 10
9.8858159695
 20
17.9401998163
 30
0.0
 10
9.8961494589
 20
17.9309058266
 30
0.0
 10
9.9030491892
 20
17.9247566376
 30
0.0
 10
9.9093688714
 20
17.9191867549
 30
0.0
 10
9.915094855
 20
17.9142095253
 30
0.0
 10
9.9202149621
 20
17.9098368634
 30
0.0
 10
9.9247180239
 20
17.9060789363
 30
0.0
 10
9.9285946731
 20
17.9029448265
 30
0.0
 10
9.9314430052
 20
17.9007430017
 30
0.0
 10
9.9334084484
 20
17.8993083503
 30
0.0
 10
9.9346312966
 20
17.8984585219
 30
0.0
 10
9.9356924974
 20
17.8977689789
 30
0.0
 10
9.9363555008
 20
17.8973782348
 30
0.0
 10
9.9366612003
 20
17.8972131542
 30
0.0
  0
LINE
  5
57F
100
AcDbEntity
  8
0
100
AcDbLine
 62
7
  6
CONTINUOUS
 10
9.9366612003
 20
17.8972131542
 11
9.9379134402
 21
17.896668548
  0
SPLINE
  5
580
100
AcDbEntity
  8
0
100
AcDbSpline
 62
7
  6
CONTINUOUS
 70
0
 71
3
 72
61
 73
57
 74
0
 42
0.0000001
 43
0.0000001
 44
0.0000000001
 40
0.0
 40
0.0
 40
0.0
 40
0.0
 40
0.0001735576
 40
0.0003740791
 40
0.0006197521
 40
0.0009206586
 40
0.0012822673
 40
0.0017076929
 40
0.0021988207
 40
0.0027568553
 40
0.0040763548
 40
0.0056697952
 40
0.0075385957
 40
0.0096832606
 40
0.0121036082
 40
0.0147987887
 40
0.0177677225
 40
0.0210092039
 40
0.0283032768
 40
0.0366657991
 40
0.046079088
 40
0.0565222846
 40
0.0679724223
 40
0.0804037272
 40
0.1080962955
 40
0.1393506718
 40
0.1738845278
 40
0.2113854984
 40
0.2515140666
 40
0.2939067421
 40
0.338179423
 40
0.3839308527
 40
0.4307463634
 40
0.4782015481
 40
0.5733083225
 40
0.6200977379
 40
0.665810305
 40
0.7100317234
 40
0.7523611773
 40
0.7924151484
 40
0.8298307986
 40
0.8642693949
 40
0.8954194089
 40
0.9229994595
 40
0.9353717454
 40
0.9467612314
 40
0.9571422316
 40
0.9664919717
 40
0.9747896922
 40
0.9820179047
 40
0.9881614566
 40
0.9932093578
 40
0.9953200724
 40
0.9971548793
 40
0.9987143419
 40
1.0
 40
1.0
 40
1.0
 40
1.0
 10
9.954171592
 20
17.9122732482
 30
0.0
 10
9.954138368
 20
17.9122400242
 30
0.0
 10
9.9540499088
 20
17.9121843526
 30
0.0
 10
9.9538829952
 20
17.912151428
 30
0.0
 10
9.9536797529
 20
17.9121599231
 30
0.0
 10
9.9534380424
 20
17.9122083759
 30
0.0
 10
9.953156642
 20
17.9122965869
 30
0.0
 10
9.9528349934
 20
17.9124248071
 30
0.0
 10
9.9524728645
 20
17.9125931826
 30
0.0
 10
9.9519034494
 20
17.9128884084
 30
0.0
 10
9.9510924861
 20
17.9133641777
 30
0.0
 10
9.9500048632
 20
17.9140666119
 30
0.0
 10
9.9487557402
 20
17.9149293666
 30
0.0
 10
9.9473456856
 20
17.9159520591
 30
0.0
 10
9.9457754205
 20
17.9171343271
 30
0.0
 10
9.9440457633
 20
17.9184754774
 30
0.0
 10
9.9421576115
 20
17.9199747182
 30
0.0
 10
9.9393163801
 20
17.9222755372
 30
0.0
 10
9.935380463
 20
17.9255443536
 30
0.0
 10
9.9302096824
 20
17.92994063
 30
0.0
 10
9.9244337161
 20
17.9349407739
 30
0.0
 10
9.9180648047
 20
17.9405327341
 30
0.0
 10
9.9111166795
 20
17.946703109
 30
0.0
 10
9.9007200975
 20
17.9560227358
 30
0.0
 10
9.8864077737
 20
17.9690060664
 30
0.0
 10
9.8677558467
 20
17.9861106974
 30
0.0
 10
9.8472234621
 20
18.0050931534
 30
0.0
 10
9.8249901322
 20
18.0257745184
 30
0.0
 10
9.8012508484
 20
18.0479605217
 30
0.0
 10
9.7762141301
 20
18.0714430582
 30
0.0
 10
9.750100237
 20
18.096002212
 30
0.0
 10
9.7231391575
 20
18.1214082558
 30
0.0
 10
9.6955685622
 20
18.1474237519
 30
0.0
 10
9.6582936451
 20
18.182623902
 30
0.0
 10
9.6210309045
 20
18.2178266571
 30
0.0
 10
9.584090892
 20
18.2526840405
 30
0.0
 10
9.5571532143
 20
18.2780690404
 30
0.0
 10
9.5310702174
 20
18.3026004492
 30
0.0
 10
9.5060716193
 20
18.3260488033
 30
0.0
 10
9.4823773589
 20
18.3481945102
 30
0.0
 10
9.4601955679
 20
18.3688298525
 30
0.0
 10
9.4397208028
 20
18.3877609986
 30
0.0
 10
9.4211320829
 20
18.4048095263
 30
0.0
 10
9.4068757586
 20
18.4177434202
 30
0.0
 10
9.3965263494
 20
18.4270214995
 30
0.0
 10
9.3896151972
 20
18.4331593599
 30
0.0
 10
9.383284223
 20
18.4387180473
 30
0.0
 10
9.3775470827
 20
18.4436842238
 30
0.0
 10
9.3724159587
 20
18.4480459825
 30
0.0
 10
9.3679020268
 20
18.4517931788
 30
0.0
 10
9.3640146564
 20
18.4549167406
 30
0.0
 10
9.3611571889
 20
18.4571094184
 30
0.0
 10
9.3591844213
 20
18.4585365808
 30
0.0
 10
9.3579563389
 20
18.4593812647
 30
0.0
 10
9.3568899333
 20
18.4600657279
 30
0.0
 10
9.3562233291
 20
18.4604526524
 30
0.0
 10
9.3559158491
 20
18.4606157439
 30
0.0
  0
LINE
  5
581
100
AcDbEntity
  8
0
100
AcDbLine
 62
7
  6
CONTINUOUS
 10
9.3559158491
 20
18.4606157439
 11
9.3546822233
 21
18.4611434019
  0
SPLINE
  5
582
100
AcDbEntity
  8
0
100
AcDbSpline
 62
7
  6
CONTINUOUS
 70
0
 71
3
 72
14
 73
10
 74
0
 42
0.0000001
 43
0.0000001
 44
0.0000000001
 40
0.0
 40
0.0
 40
0.0
 40
0.0
 40
0.0542897546
 40
0.1205831838
 40
0.2062522569
 40
0.3147528714
 40
0.4477427433
 40
0.6060632768
 40
1.0
 40
1.0
 40
1.0
 40
1.0
 10
7.1972825597
 20
16.323522359
 30
0.0
 10
7.1972592485
 20
16.3234990511
 30
0.0
 10
7.1971918953
 20
16.3234623628
 30
0.0
 10
7.1970649001
 20
16.3234536255
 30
0.0
 10
7.1969081898
 20
16.3234798936
 30
0.0
 10
7.1967187376
 20
16.3235412032
 30
0.0
 10
7.1964956668
 20
16.3236375616
 30
0.0
 10
7.1961253414
 20
16.3238277087
 30
0.0
 10
7.1958390015
 20
16.3240031062
 30
0.0
 10
7.1956379177
 20
16.3241326484
 30
0.0
  0
SPLINE
  5
583
100
AcDbEntity
  8
0
100
AcDbSpline
 62
7
  6
CONTINUOUS
 70
0
 71
3
 72
18
 73
14
 74
0
 42
0.0000001
 43
0.0000001
 44
0.0000000001
 40
0.0
 40
0.0
 40
0.0
 40
0.0
 40
0.015674272
 40
0.0344062452
 40
0.0582793942
 40
0.0883247044
 40
0.1250447418
 40
0.1687006501
 40
0.277321601
 40
0.4148011517
 40
0.5812423205
 40
0.7764168953
 40
1.0
 40
1.0
 40
1.0
 40
1.0
 10
6.8966417724
 20
16.6226243931
 30
0.0
 10
6.8966272296
 20
16.6226098509
 30
0.0
 10
6.8965862717
 20
16.6225865359
 30
0.0
 10
6.89650885
 20
16.6225792195
 30
0.0
 10
6.8964140859
 20
16.6225934409
 30
0.0
 10
6.8963002455
 20
16.6226288833
 30
0.0
 10
6.8961667311
 20
16.6226855323
 30
0.0
 10
6.8959456495
 20
16.622798181
 30
0.0
 10
6.8956211195
 20
16.6229971161
 30
0.0
 10
6.8951762558
 20
16.6233056978
 30
0.0
 10
6.8946529642
 20
16.6236996406
 30
0.0
 10
6.8940523551
 20
16.6241781112
 30
0.0
 10
6.8936297561
 20
16.6245293204
 30
0.0
 10
6.8934055662
 20
16.6247185311
 30
0.0
  0
SPLINE
  5
584
100
AcDbEntity
  8
0
100
AcDbSpline
 62
7
  6
CONTINUOUS
 70
0
 71
3
 72
32
 73
28
 74
0
 42
0.0000001
 43
0.0000001
 44
0.0000000001
 40
0.0
 40
0.0
 40
0.0
 40
0.0
 40
0.2187250916
 40
0.3200484531
 40
0.4155001196
 40
0.5047189168
 40
0.587367432
 40
0.6631350821
 40
0.7317378839
 40
0.7929199831
 40
0.846453939
 40
0.8702908938
 40
0.8921449058
 40
0.9119978036
 40
0.9298322538
 40
0.9456343118
 40
0.9593942194
 40
0.9711047786
 40
0.9807658117
 40
0.9848311615
 40
0.988389755
 40
0.9914465431
 40
0.9940101725
 40
0.9960964778
 40
0.99773559
 40
0.9989906279
 40
1.0
 40
1.0
 40
1.0
 40
1.0
 10
9.7665702028
 20
17.981274709
 30
0.0
 10
9.7762798439
 20
17.9722056764
 30
0.0
 10
9.7905046253
 20
17.9589538186
 30
0.0
 10
9.8090231445
 20
17.9418050328
 30
0.0
 10
9.8217973826
 20
17.9300313003
 30
0.0
 10
9.833768504
 20
17.9190601065
 30
0.0
 10
9.8448929418
 20
17.9089348701
 30
0.0
 10
9.8551303634
 20
17.8996957049
 30
0.0
 10
9.8644437867
 20
17.8913791721
 30
0.0
 10
9.8727997187
 20
17.8840184263
 30
0.0
 10
9.8791640112
 20
17.8785109349
 30
0.0
 10
9.8837589373
 20
17.8746101877
 30
0.0
 10
9.8868130926
 20
17.8720559686
 30
0.0
 10
9.8896080732
 20
17.8697604026
 30
0.0
 10
9.8921414554
 20
17.8677258059
 30
0.0
 10
9.894411027
 20
17.8659541965
 30
0.0
 10
9.896414737
 20
17.8644470476
 30
0.0
 10
9.8981509223
 20
17.8632058172
 30
0.0
 10
9.8994379059
 20
17.8623497202
 30
0.0
 10
9.9003356529
 20
17.8618049281
 30
0.0
 10
9.9009017542
 20
17.8614876471
 30
0.0
 10
9.9014002621
 20
17.8612372972
 30
0.0
 10
9.9018313214
 20
17.8610537251
 30
0.0
 10
9.9021956558
 20
17.8609360404
 30
0.0
 10
9.9024950383
 20
17.8608842786
 30
0.0
 10
9.9027354786
 20
17.8608975123
 30
0.0
 10
9.9028631749
 20
17.8609648663
 30
0.0
 10
9.9029065378
 20
17.8610082136
 30
0.0
  0
SPLINE
  5
585
100
AcDbEntity
  8
0
100
AcDbSpline
 62
7
  6
CONTINUOUS
 70
0
 71
3
 72
44
 73
40
 74
0
 42
0.0000001
 43
0.0000001
 44
0.0000000001
 40
0.0
 40
0.0
 40
0.0
 40
0.0
 40
0.0608114437
 40
0.1302003361
 40
0.2065628126
 40
0.2881313836
 40
0.3730183911
 40
0.4592599953
 40
0.5448614366
 40
0.6278436503
 40
0.6677496457
 40
0.7062889795
 40
0.7432389171
 40
0.7783859872
 40
0.8115271384
 40
0.8424711172
 40
0.8710396373
 40
0.8970683106
 40
0.9204077074
 40
0.9409243629
 40
0.9500870145
 40
0.9585018839
 40
0.9661571262
 40
0.9730423004
 40
0.9791485864
 40
0.9844680661
 40
0.988995368
 40
0.9909608083
 40
0.9927270748
 40
0.9942944305
 40
0.995663553
 40
0.996835713
 40
0.9978132499
 40
0.9986006751
 40
0.999207383
 40
0.9994493273
 40
0.9996561336
 40
0.9998357195
 40
1.0
 40
1.0
 40
1.0
 40
1.0
 10
9.4046859585
 20
18.3431589533
 30
0.0
 10
9.4146655634
 20
18.3340656981
 30
0.0
 10
9.435948487
 20
18.3145045145
 30
0.0
 10
9.4695578649
 20
18.2833023194
 30
0.0
 10
9.5064310296
 20
18.2488427923
 30
0.0
 10
9.5457404899
 20
18.2119510898
 30
0.0
 10
9.5866025832
 20
18.173508773
 30
0.0
 10
9.6280983608
 20
18.1344333562
 30
0.0
 10
9.6692946731
 20
18.0956567884
 30
0.0
 10
9.7030294817
 20
18.0639622515
 30
0.0
 10
9.7291823163
 20
18.0394572029
 30
0.0
 10
9.7478975267
 20
18.0219613749
 30
0.0
 10
9.7658649694
 20
18.0052128381
 30
0.0
 10
9.7829841378
 20
17.9893120066
 30
0.0
 10
9.7991594135
 20
17.9743543435
 30
0.0
 10
9.8143006426
 20
17.9604297899
 30
0.0
 10
9.8283236643
 20
17.9476222347
 30
0.0
 10
9.8411507052
 20
17.9360089304
 30
0.0
 10
9.852710963
 20
17.9256602832
 30
0.0
 10
9.8615391877
 20
17.9178742115
 30
0.0
 10
9.8679268718
 20
17.9123309525
 30
0.0
 10
9.8721808191
 20
17.9086857305
 30
0.0
 10
9.8760757828
 20
17.9053988562
 30
0.0
 10
9.8796065571
 20
17.9024754249
 30
0.0
 10
9.8827683054
 20
17.8999197986
 30
0.0
 10
9.8855569276
 20
17.8977359397
 30
0.0
 10
9.8876547227
 20
17.8961616222
 30
0.0
 10
9.8891466963
 20
17.8950955465
 30
0.0
 10
9.890116587
 20
17.8944295063
 30
0.0
 10
9.890990878
 20
17.8938585773
 30
0.0
 10
9.8917693834
 20
17.8933828029
 30
0.0
 10
9.8924518705
 20
17.8930021701
 30
0.0
 10
9.8930385482
 20
17.8927161195
 30
0.0
 10
9.8935294553
 20
17.8925244673
 30
0.0
 10
9.8938839826
 20
17.8924352139
 30
0.0
 10
9.8941185871
 20
17.8924205763
 30
0.0
 10
9.8942582118
 20
17.892434851
 30
0.0
 10
9.8943752793
 20
17.8924743628
 30
0.0
 10
9.8944385761
 20
17.8925196153
 30
0.0
 10
9.8944643721
 20
17.8925453997
 30
0.0
  0
SPLINE
  5
586
100
AcDbEntity
  8
0
100
AcDbSpline
 62
7
  6
CONTINUOUS
 70
0
 71
3
 72
58
 73
54
 74
0
 42
0.0000001
 43
0.0000001
 44
0.0000000001
 40
0.0
 40
0.0
 40
0.0
 40
0.0
 40
0.0001827672
 40
0.0003911542
 40
0.000643049
 40
0.0009487721
 40
0.0013140903
 40
0.0017423523
 40
0.002794916
 40
0.0041159914
 40
0.0057093416
 40
0.0075766505
 40
0.0097185931
 40
0.0121350836
 40
0.0148253383
 40
0.0177883299
 40
0.021022894
 40
0.0283004006
 40
0.0366427985
 40
0.0460326719
 40
0.0564491604
 40
0.0802680789
 40
0.1078870607
 40
0.139057862
 40
0.1734996686
 40
0.210901613
 40
0.2509260217
 40
0.2932113647
 40
0.3373756112
 40
0.3830199007
 40
0.4297318273
 40
0.4770896324
 40
0.5720302312
 40
0.6187560686
 40
0.6644214043
 40
0.7086144381
 40
0.7509365739
 40
0.7910064745
 40
0.8284631792
 40
0.862969585
 40
0.8942155775
 40
0.9219207714
 40
0.9458375531
 40
0.956307416
 40
0.9657536843
 40
0.974155488
 40
0.9814954319
 40
0.9877582771
 40
0.9929330942
 40
0.9951100858
 40
0.9970130673
 40
0.99864256
 40
1.0
 40
1.0
 40
1.0
 40
1.0
 10
9.3479651219
 20
18.4137937756
 30
0.0
 10
9.3479976341
 20
18.4138262789
 30
0.0
 10
9.3480825757
 20
18.4138813681
 30
0.0
 10
9.348242431
 20
18.4139176384
 30
0.0
 10
9.3484362393
 20
18.4139151761
 30
0.0
 10
9.3486656292
 20
18.4138755171
 30
0.0
 10
9.3489317345
 20
18.4137989729
 30
0.0
 10
9.3493668427
 20
18.4136357442
 30
0.0
 10
9.3500027103
 20
18.4133291113
 30
0.0
 10
9.3508709211
 20
18.4128366317
 30
0.0
 10
9.3518891448
 20
18.4121957307
 30
0.0
 10
9.3530569633
 20
18.4114066319
 30
0.0
 10
9.3543738699
 20
18.4104692667
 30
0.0
 10
9.3558391972
 20
18.4093840902
 30
0.0
 10
9.357452188
 20
18.4081517027
 30
0.0
 10
9.3592120101
 20
18.4067728514
 30
0.0
 10
9.3618587749
 20
18.4046554038
 30
0.0
 10
9.3655231758
 20
18.4016443612
 30
0.0
 10
9.3703346351
 20
18.3975913807
 30
0.0
 10
9.3757067863
 20
18.3929789625
 30
0.0
 10
9.3839792112
 20
18.3857689424
 30
0.0
 10
9.3956140073
 20
18.3754386685
 30
0.0
 10
9.4110430107
 20
18.3615200878
 30
0.0
 10
9.4283653513
 20
18.3457117445
 30
0.0
 10
9.4474306955
 20
18.3281632266
 30
0.0
 10
9.4680728651
 20
18.3090396603
 30
0.0
 10
9.4901116748
 20
18.2885207329
 30
0.0
 10
9.5133543976
 20
18.2667987667
 30
0.0
 10
9.5375975294
 20
18.2440769926
 30
0.0
 10
9.562628577
 20
18.2205676919
 30
0.0
 10
9.5882280182
 20
18.1964902104
 30
0.0
 10
9.6228463496
 20
18.1639029036
 30
0.0
 10
9.6574603065
 20
18.1313058445
 30
0.0
 10
9.6917840262
 20
18.0990215661
 30
0.0
 10
9.7168260919
 20
18.0755005759
 30
0.0
 10
9.7410842035
 20
18.0527629211
 30
0.0
 10
9.7643461524
 20
18.0310206096
 30
0.0
 10
9.7864087079
 20
18.010476599
 30
0.0
 10
9.8070794752
 20
17.9913228874
 30
0.0
 10
9.8261786128
 20
17.9737388254
 30
0.0
 10
9.8435402693
 20
17.9578892337
 30
0.0
 10
9.8590144491
 20
17.9439233742
 30
0.0
 10
9.8706904901
 20
17.9335496071
 30
0.0
 10
9.8789989068
 20
17.9263013969
 30
0.0
 10
9.8844006243
 20
17.9216580987
 30
0.0
 10
9.8892432618
 20
17.9175725392
 30
0.0
 10
9.8935164196
 20
17.9140542398
 30
0.0
 10
9.8972113593
 20
17.9111116643
 30
0.0
 10
9.8999383658
 20
17.9090391459
 30
0.0
 10
9.9018308176
 20
17.9076832021
 30
0.0
 10
9.9030177275
 20
17.9068743043
 30
0.0
 10
9.9040553575
 20
17.9062134652
 30
0.0
 10
9.9047062423
 20
17.9058372641
 30
0.0
 10
9.9050077651
 20
17.9056770441
 30
0.0
  0
LINE
  5
587
100
AcDbEntity
  8
0
100
AcDbLine
 62
7
  6
CONTINUOUS
 10
9.9050077651
 20
17.9056770441
 11
9.906312864
 21
17.9051179153
  0
LINE
  5
588
100
AcDbEntity
  8
0
100
AcDbLine
 62
7
  6
CONTINUOUS
 10
9.3854258899
 20
18.452924073
 11
9.3865604116
 21
18.4524538053
  0
SPLINE
  5
589
100
AcDbEntity
  8
0
100
AcDbSpline
 62
7
  6
CONTINUOUS
 70
0
 71
3
 72
59
 73
55
 74
0
 42
0.0000001
 43
0.0000001
 44
0.0000000001
 40
0.0
 40
0.0
 40
0.0
 40
0.0
 40
0.001300472
 40
0.0028739889
 40
0.0047223062
 40
0.0068461201
 40
0.0119193904
 40
0.0180874542
 40
0.0253395793
 40
0.0336606381
 40
0.0430332644
 40
0.0534365412
 40
0.0648477685
 40
0.0772410816
 40
0.1048611064
 40
0.1360476332
 40
0.170518678
 40
0.2079621253
 40
0.2480385956
 40
0.2903848941
 40
0.3346169856
 40
0.3803339279
 40
0.427121209
 40
0.5222045552
 40
0.5696389196
 40
0.6164282041
 40
0.6621485658
 40
0.7063861527
 40
0.7487406285
 40
0.7888288451
 40
0.8262885239
 40
0.8607812496
 40
0.891995976
 40
0.9196516409
 40
0.9435001678
 40
0.9539288818
 40
0.9633293074
 40
0.9716806349
 40
0.9789655144
 40
0.9822031611
 40
0.9851689486
 40
0.9878616364
 40
0.9902801189
 40
0.992423689
 40
0.9942923447
 40
0.9958866727
 40
0.9972082583
 40
0.9982609048
 40
0.9986890586
 40
0.9990541344
 40
0.999359446
 40
0.9996107211
 40
0.9998182573
 40
1.0
 40
1.0
 40
1.0
 40
1.0
 10
9.3865604116
 20
18.4524538053
 30
0.0
 10
9.3868529744
 20
18.4523038916
 30
0.0
 10
9.3874864043
 20
18.4519470594
 30
0.0
 10
9.3884982377
 20
18.451313294
 30
0.0
 10
9.389661019
 20
18.4505299074
 30
0.0
 10
9.3915250423
 20
18.4492054073
 30
0.0
 10
9.3942203799
 20
18.4471674017
 30
0.0
 10
9.3978820235
 20
18.4442608192
 30
0.0
 10
9.4021285933
 20
18.4407718811
 30
0.0
 10
9.4069513266
 20
18.4367090855
 30
0.0
 10
9.4123397051
 20
18.4320819205
 30
0.0
 10
9.4182823324
 20
18.4269015508
 30
0.0
 10
9.4247663642
 20
18.4211804835
 30
0.0
 10
9.4344713067
 20
18.4125321227
 30
0.0
 10
9.4478330356
 20
18.4004739665
 30
0.0
 10
9.4652472905
 20
18.3845770864
 30
0.0
 10
9.4844202301
 20
18.3669239729
 30
0.0
 10
9.5051843355
 20
18.3476816036
 30
0.0
 10
9.5273576337
 20
18.3270312824
 30
0.0
 10
9.5507455024
 20
18.3051672683
 30
0.0
 10
9.5751423948
 20
18.2822948132
 30
0.0
 10
9.600333664
 20
18.2586283586
 30
0.0
 10
9.6348703022
 20
18.2261359709
 30
0.0
 10
9.6697027687
 20
18.1933244738
 30
0.0
 10
9.7045421963
 20
18.1605196312
 30
0.0
 10
9.7303069024
 20
18.1362793487
 30
0.0
 10
9.7554997048
 20
18.1126104954
 30
0.0
 10
9.7798991009
 20
18.089734394
 30
0.0
 10
9.8032908265
 20
18.0678650967
 30
0.0
 10
9.8254697759
 20
18.0472074349
 30
0.0
 10
9.8462418057
 20
18.0279551464
 30
0.0
 10
9.8654255468
 20
18.0102891041
 30
0.0
 10
9.8828537964
 20
17.9943754573
 30
0.0
 10
9.8983754414
 20
17.9803645768
 30
0.0
 10
9.9100788377
 20
17.9699657955
 30
0.0
 10
9.9183990775
 20
17.9627078954
 30
0.0
 10
9.9238016795
 20
17.9580648927
 30
0.0
 10
9.9286399427
 20
17.9539849111
 30
0.0
 10
9.9323243829
 20
17.9509536003
 30
0.0
 10
9.9349853664
 20
17.9488217348
 30
0.0
 10
9.9367544796
 20
17.9474334119
 30
0.0
 10
9.9383758463
 20
17.946192449
 30
0.0
 10
9.9398486257
 20
17.9450996164
 30
0.0
 10
9.9411720724
 20
17.9441554945
 30
0.0
 10
9.9423455264
 20
17.9433605084
 30
0.0
 10
9.9433684725
 20
17.9427146056
 30
0.0
 10
9.9442404901
 20
17.9422180376
 30
0.0
 10
9.9448789745
 20
17.9419085436
 30
0.0
 10
9.9453157557
 20
17.9417434385
 30
0.0
 10
9.9455827683
 20
17.9416658089
 30
0.0
 10
9.9458128422
 20
17.9416252681
 30
0.0
 10
9.9460071166
 20
17.9416221231
 30
0.0
 10
9.9461672723
 20
17.9416579054
 30
0.0
 10
9.9462523303
 20
17.9417129065
 30
0.0
 10
9.9462848116
 20
17.941745396
 30
0.0
  0
LINE
  5
58A
100
AcDbEntity
  8
0
100
AcDbLine
 62
7
  6
CONTINUOUS
 10
9.4344593354
 20
18.5049051872
 11
9.4352679442
 21
18.5045945925
  0
SPLINE
  5
58B
100
AcDbEntity
  8
0
100
AcDbSpline
 62
7
  6
CONTINUOUS
 70
0
 71
3
 72
59
 73
55
 74
0
 42
0.0000001
 43
0.0000001
 44
0.0000000001
 40
0.0
 40
0.0
 40
0.0
 40
0.0
 40
0.0011835188
 40
0.0026405197
 40
0.0043735722
 40
0.0063838111
 40
0.0112359319
 40
0.0171918593
 40
0.0242415897
 40
0.0323705006
 40
0.0415616107
 40
0.0517943408
 40
0.0630462481
 40
0.0752916479
 40
0.1026505989
 40
0.1336230206
 40
0.167926871
 40
0.2052494821
 40
0.245250283
 40
0.2875642092
 40
0.3318050605
 40
0.3775689176
 40
0.4244381818
 40
0.5197755651
 40
0.5673738545
 40
0.6143456718
 40
0.6602627509
 40
0.7047063886
 40
0.7472716744
 40
0.7875707844
 40
0.8252368895
 40
0.8599273514
 40
0.8913269308
 40
0.9191509382
 40
0.9431478253
 40
0.9536423501
 40
0.9631024055
 40
0.9715071139
 40
0.9788386017
 40
0.9820970205
 40
0.9850818659
 40
0.9877917845
 40
0.9902256125
 40
0.9923827855
 40
0.9942632276
 40
0.9958674035
 40
0.9971968301
 40
0.9982554307
 40
0.9986858177
 40
0.9990526003
 40
0.9993590681
 40
0.9996109343
 40
0.9998185331
 40
1.0
 40
1.0
 40
1.0
 40
1.0
 10
9.4352679442
 20
18.5045945925
 30
0.0
 10
9.4355403485
 20
18.5044668916
 30
0.0
 10
9.4361340354
 20
18.5041521686
 30
0.0
 10
9.4370864579
 20
18.5035781703
 30
0.0
 10
9.4381918812
 20
18.5028527565
 30
0.0
 10
9.4399843533
 20
18.5016029846
 30
0.0
 10
9.4425949538
 20
18.499651853
 30
0.0
 10
9.4461608804
 20
18.4968424105
 30
0.0
 10
9.4503205662
 20
18.4934420393
 30
0.0
 10
9.455065385
 20
18.4894590986
 30
0.0
 10
9.4603848864
 20
18.4849028663
 30
0.0
 10
9.4662677442
 20
18.4797844098
 30
0.0
 10
9.472701153
 20
18.4741161672
 30
0.0
 10
9.4823573657
 20
18.4655205782
 30
0.0
 10
9.4956805821
 20
18.453505342
 30
0.0
 10
9.5130750041
 20
18.4376326032
 30
0.0
 10
9.5322632839
 20
18.4199685953
 30
0.0
 10
9.5530766183
 20
18.4006815594
 30
0.0
 10
9.575331343
 20
18.3799544573
 30
0.0
 10
9.5988307953
 20
18.3579835771
 30
0.0
 10
9.6233670072
 20
18.3349765812
 30
0.0
 10
9.6487226458
 20
18.3111505951
 30
0.0
 10
9.6835199478
 20
18.2784047317
 30
0.0
 10
9.7186354996
 20
18.2453166335
 30
0.0
 10
9.7537759614
 20
18.2122169615
 30
0.0
 10
9.7797813043
 20
18.1877411385
 30
0.0
 10
9.8052191375
 20
18.1638324006
 30
0.0
 10
9.8298642266
 20
18.140715802
 30
0.0
 10
9.853498571
 20
18.1186091297
 30
0.0
 10
9.8759134344
 20
18.0977208447
 30
0.0
 10
9.8969111687
 20
18.0782481882
 30
0.0
 10
9.9163070576
 20
18.0603753758
 30
0.0
 10
9.9339308007
 20
18.0442716535
 30
0.0
 10
9.9496284086
 20
18.0300902557
 30
0.0
 10
9.9614651536
 20
18.019562851
 30
0.0
 10
9.9698804456
 20
18.0122137531
 30
0.0
 10
9.9753449398
 20
18.0075116744
 30
0.0
 10
9.9802384847
 20
18.0033791998
 30
0.0
 10
9.9839648595
 20
18.0003083908
 30
0.0
 10
9.9866559663
 20
17.9981483724
 30
0.0
 10
9.9884450233
 20
17.996741522
 30
0.0
 10
9.9900845415
 20
17.9954838238
 30
0.0
 10
9.9915736831
 20
17.994376069
 30
0.0
 10
9.9929116846
 20
17.9934188099
 30
0.0
 10
9.9940978852
 20
17.9926124886
 30
0.0
 10
9.9951317229
 20
17.9919570888
 30
0.0
 10
9.9960127913
 20
17.9914528967
 30
0.0
 10
9.996657696
 20
17.9911382017
 30
0.0
 10
9.9970987458
 20
17.9909698754
 30
0.0
 10
9.9973682147
 20
17.9908904767
 30
0.0
 10
9.9976002763
 20
17.9908486183
 30
0.0
 10
9.9977960854
 20
17.990844598
 30
0.0
 10
9.9979573949
 20
17.9908799664
 30
0.0
 10
9.9980430139
 20
17.990935122
 30
0.0
 10
9.9980756244
 20
17.9909677478
 30
0.0
  0
SPLINE
  5
58C
100
AcDbEntity
  8
0
100
AcDbSpline
 62
7
  6
CONTINUOUS
 70
0
 71
3
 72
12
 73
8
 74
0
 42
0.0000001
 43
0.0000001
 44
0.0000000001
 40
0.0
 40
0.0
 40
0.0
 40
0.0
 40
0.074502627
 40
0.1629444783
 40
0.3829730304
 40
0.6617756634
 40
1.0
 40
1.0
 40
1.0
 40
1.0
 10
9.4837156992
 20
18.5566637586
 30
0.0
 10
9.4838239847
 20
18.5566348183
 30
0.0
 10
9.4840570174
 20
18.5565573128
 30
0.0
 10
9.4845885683
 20
18.5563341858
 30
0.0
 10
9.4853720315
 20
18.5559228906
 30
0.0
 10
9.486449295
 20
18.5552701546
 30
0.0
 10
9.4872225867
 20
18.5547560897
 30
0.0
 10
9.487642539
 20
18.5544687527
 30
0.0
  0
SPLINE
  5
58D
100
AcDbEntity
  8
0
100
AcDbSpline
 62
7
  6
CONTINUOUS
 70
0
 71
3
 72
53
 73
49
 74
0
 42
0.0000001
 43
0.0000001
 44
0.0000000001
 40
0.0
 40
0.0
 40
0.0
 40
0.0
 40
0.0043039131
 40
0.0096652277
 40
0.0160765478
 40
0.0235257264
 40
0.0319983265
 40
0.0414764722
 40
0.0633678817
 40
0.0890130836
 40
0.1181910647
 40
0.1506494646
 40
0.1861069297
 40
0.2242560168
 40
0.2647656182
 40
0.3514427713
 40
0.4431359351
 40
0.5366695276
 40
0.583113942
 40
0.6288054145
 40
0.6733479268
 40
0.7163554167
 40
0.7574554185
 40
0.7962920481
 40
0.8325292803
 40
0.8658538659
 40
0.8959780323
 40
0.9226422607
 40
0.9456176273
 40
0.9556595938
 40
0.9647085281
 40
0.972746009
 40
0.9797553696
 40
0.9828703836
 40
0.98572364
 40
0.9883138622
 40
0.9906402908
 40
0.9927024687
 40
0.9945002558
 40
0.9960341214
 40
0.997305898
 40
0.9983195218
 40
0.9987321077
 40
0.999084162
 40
0.9993789033
 40
0.9996219252
 40
0.9998232204
 40
1.0
 40
1.0
 40
1.0
 40
1.0
 10
9.487642539
 20
18.5544687527
 30
0.0
 10
9.4885454583
 20
18.5538509633
 30
0.0
 10
9.4905342567
 20
18.5524070208
 30
0.0
 10
9.4937686094
 20
18.5499087578
 30
0.0
 10
9.4975737674
 20
18.5468431703
 30
0.0
 10
9.5019420746
 20
18.5432171873
 30
0.0
 10
9.5068644437
 20
18.5390387754
 30
0.0
 10
9.5145290256
 20
18.5324185437
 30
0.0
 10
9.5253972888
 20
18.5228301382
 30
0.0
 10
9.5399061021
 20
18.5098004094
 30
0.0
 10
9.5563185452
 20
18.4948709998
 30
0.0
 10
9.5744979305
 20
18.4781778013
 30
0.0
 10
9.5942920777
 20
18.4598717755
 30
0.0
 10
9.615535106
 20
18.4401183407
 30
0.0
 10
9.6462526131
 20
18.4114342255
 30
0.0
 10
9.6868260028
 20
18.3733624217
 30
0.0
 10
9.7371492052
 20
18.3259835649
 30
0.0
 10
9.7800027384
 20
18.2855902536
 30
0.0
 10
9.8143577275
 20
18.2532289261
 30
0.0
 10
9.8396593213
 20
18.2294188064
 30
0.0
 10
9.8643426341
 20
18.2062265078
 30
0.0
 10
9.8881999448
 20
18.1838595927
 30
0.0
 10
9.9110307034
 20
18.1625184054
 30
0.0
 10
9.9326432948
 20
18.1423942957
 30
0.0
 10
9.9528566444
 20
18.1236679462
 30
0.0
 10
9.9715018051
 20
18.1065078172
 30
0.0
 10
9.9884232414
 20
18.091068421
 30
0.0
 10
10.0034805057
 20
18.0774894654
 30
0.0
 10
10.0148275419
 20
18.0674192617
 30
0.0
 10
10.0228907083
 20
18.0603957504
 30
0.0
 10
10.0281244271
 20
18.0559053699
 30
0.0
 10
10.0328106369
 20
18.0519611091
 30
0.0
 10
10.0363791814
 20
18.0490317643
 30
0.0
 10
10.0389563428
 20
18.0469723682
 30
0.0
 10
10.040669697
 20
18.0456316225
 30
0.0
 10
10.0422400111
 20
18.0444335737
 30
0.0
 10
10.0436665321
 20
18.0433788754
 30
0.0
 10
10.0449485867
 20
18.0424680055
 30
0.0
 10
10.046085533
 20
18.0417014016
 30
0.0
 10
10.0470768934
 20
18.0410790505
 30
0.0
 10
10.0479223054
 20
18.0406011184
 30
0.0
 10
10.0485415797
 20
18.0403037926
 30
0.0
 10
10.0489654376
 20
18.0401457467
 30
0.0
 10
10.0492247594
 20
18.0400717837
 30
0.0
 10
10.0494483592
 20
18.0400337263
 30
0.0
 10
10.0496373378
 20
18.0400318885
 30
0.0
 10
10.0497932527
 20
18.0400677632
 30
0.0
 10
10.0498761089
 20
18.0401216931
 30
0.0
 10
10.0499078822
 20
18.0401534702
 30
0.0
  0
SPLINE
  5
58E
100
AcDbEntity
  8
0
100
AcDbSpline
 62
7
  6
CONTINUOUS
 70
0
 71
3
 72
16
 73
12
 74
0
 42
0.0000001
 43
0.0000001
 44
0.0000000001
 40
0.0
 40
0.0
 40
0.0
 40
0.0
 40
0.0284435105
 40
0.0510833067
 40
0.0804679761
 40
0.1169207188
 40
0.1606003145
 40
0.2699249917
 40
0.4086862518
 40
0.5767753982
 40
1.0
 40
1.0
 40
1.0
 40
1.0
 10
7.8716187856
 20
15.6228917198
 30
0.0
 10
7.8715912403
 20
15.6228641473
 30
0.0
 10
7.8715089305
 20
15.6228602934
 30
0.0
 10
7.8714051137
 20
15.622886852
 30
0.0
 10
7.8712903666
 20
15.6229298665
 30
0.0
 10
7.8711551062
 20
15.6229941774
 30
0.0
 10
7.8709266007
 20
15.6231179279
 30
0.0
 10
7.8705872789
 20
15.6233296696
 30
0.0
 10
7.8701167445
 20
15.623652034
 30
0.0
 10
7.8693086291
 20
15.624241847
 30
0.0
 10
7.8686699794
 20
15.6247407913
 30
0.0
 10
7.8682164426
 20
15.6251021852
 30
0.0
  0
SPLINE
  5
58F
100
AcDbEntity
  8
0
100
AcDbSpline
 62
7
  6
CONTINUOUS
 70
0
 71
3
 72
57
 73
53
 74
0
 42
0.0000001
 43
0.0000001
 44
0.0000000001
 40
0.0
 40
0.0
 40
0.0
 40
0.0
 40
0.0001818449
 40
0.000389341
 40
0.0006403645
 40
0.0009452013
 40
0.0013095863
 40
0.001736844
 40
0.0027871217
 40
0.0041055458
 40
0.0056958624
 40
0.0075597089
 40
0.0096977232
 40
0.0121098682
 40
0.0147953721
 40
0.0177531776
 40
0.020982093
 40
0.0282471017
 40
0.036575377
 40
0.0459496144
 40
0.0563489964
 40
0.0801296882
 40
0.1077057715
 40
0.1388299003
 40
0.1732221476
 40
0.2105727644
 40
0.2505450092
 40
0.292778556
 40
0.3368924246
 40
0.3824888664
 40
0.4291566576
 40
0.4764749859
 40
0.5713551295
 40
0.663716774
 40
0.7079087194
 40
0.7502399191
 40
0.790329456
 40
0.8278169555
 40
0.8623655345
 40
0.8936652745
 40
0.9214358154
 40
0.9454293112
 40
0.9559417224
 40
0.9654332412
 40
0.9738828981
 40
0.9812731972
 40
0.9875887801
 40
0.9928185094
 40
0.9950236722
 40
0.9969552207
 40
0.9986135756
 40
1.0
 40
1.0
 40
1.0
 40
1.0
 10
9.3972756966
 20
18.465496666
 30
0.0
 10
9.3973081883
 20
18.4655291552
 30
0.0
 10
9.3973931768
 20
18.4655841844
 30
0.0
 10
9.3975531553
 20
18.4656201966
 30
0.0
 10
9.3977471635
 20
18.4656173851
 30
0.0
 10
9.3979768552
 20
18.4655772831
 30
0.0
 10
9.3982433674
 20
18.4655001991
 30
0.0
 10
9.3986792373
 20
18.4653360429
 30
0.0
 10
9.3993163069
 20
18.4650280037
 30
0.0
 10
9.4001862718
 20
18.4645335227
 30
0.0
 10
9.4012066821
 20
18.4638901901
 30
0.0
 10
9.4023771125
 20
18.4630982393
 30
0.0
 10
9.4036970569
 20
18.4621576073
 30
0.0
 10
9.4051658478
 20
18.4610687341
 30
0.0
 10
9.4067827344
 20
18.4598322169
 30
0.0
 10
9.4085468762
 20
18.4584488137
 30
0.0
 10
9.4112002535
 20
18.4563244457
 30
0.0
 10
9.4148739757
 20
18.4533036887
 30
0.0
 10
9.4196979151
 20
18.4492377821
 30
0.0
 10
9.4250842487
 20
18.4446107324
 30
0.0
 10
9.43337898
 20
18.4373778022
 30
0.0
 10
9.4450458615
 20
18.4270146996
 30
0.0
 10
9.4605183595
 20
18.4130517548
 30
0.0
 10
9.4778907352
 20
18.397192503
 30
0.0
 10
9.4970124971
 20
18.3795866883
 30
0.0
 10
9.517717241
 20
18.3603996586
 30
0.0
 10
9.5398245479
 20
18.3398113326
 30
0.0
 10
9.5631413863
 20
18.3180143335
 30
0.0
 10
9.5874639315
 20
18.295212211
 30
0.0
 10
9.6125793225
 20
18.2716176086
 30
0.0
 10
9.6382676263
 20
18.2474502934
 30
0.0
 10
9.6730122406
 20
18.2147354515
 30
0.0
 10
9.7161542143
 20
18.1740964595
 30
0.0
 10
9.7587522243
 20
18.134032096
 30
0.0
 10
9.7917252896
 20
18.1031150414
 30
0.0
 10
9.8150938602
 20
18.0812649613
 30
0.0
 10
9.8372632734
 20
18.060612882
 30
0.0
 10
9.858040509
 20
18.0413514771
 30
0.0
 10
9.8772450923
 20
18.0236607258
 30
0.0
 10
9.8947105154
 20
18.0077061233
 30
0.0
 10
9.910286117
 20
17.9936376043
 30
0.0
 10
9.9220447864
 20
17.9831798985
 30
0.0
 10
9.9304175349
 20
17.9758660856
 30
0.0
 10
9.9358661699
 20
17.9711752005
 30
0.0
 10
9.9407546343
 20
17.9670431619
 30
0.0
 10
9.9450724531
 20
17.9634795965
 30
0.0
 10
9.9488108048
 20
17.9604930525
 30
0.0
 10
9.9515730637
 20
17.9583845695
 30
0.0
 10
9.953492924
 20
17.9570003307
 30
0.0
 10
9.9546999626
 20
17.9561710257
 30
0.0
 10
9.9557573427
 20
17.955490205
 30
0.0
 10
9.9564211603
 20
17.9551004596
 30
0.0
 10
9.956729073
 20
17.9549333831
 30
0.0
  0
LINE
  5
590
100
AcDbEntity
  8
0
100
AcDbLine
 62
7
  6
CONTINUOUS
 10
9.956729073
 20
17.9549333831
 11
9.9581371718
 21
17.954318219
  0
SPLINE
  5
591
100
AcDbEntity
  8
0
100
AcDbSpline
 62
7
  6
CONTINUOUS
 70
0
 71
3
 72
56
 73
52
 74
0
 42
0.0000001
 43
0.0000001
 44
0.0000000001
 40
0.0
 40
0.0
 40
0.0
 40
0.0
 40
0.0001801496
 40
0.0003857427
 40
0.0006345027
 40
0.0009366288
 40
0.0012978106
 40
0.0017213493
 40
0.0027625949
 40
0.0040696747
 40
0.0056462983
 40
0.0074941559
 40
0.0096139373
 40
0.0120054993
 40
0.0146680833
 40
0.0176007158
 40
0.0208022796
 40
0.028005836
 40
0.0362640935
 40
0.0455599514
 40
0.0558730691
 40
0.0794590253
 40
0.1068138919
 40
0.1376947112
 40
0.1718262894
 40
0.208904199
 40
0.2485973629
 40
0.2905513078
 40
0.3343913447
 40
0.379725811
 40
0.4261499178
 40
0.4732489655
 40
0.5677877182
 40
0.6599739947
 40
0.7041525315
 40
0.7465252059
 40
0.7867142272
 40
0.8243615933
 40
0.8591321723
 40
0.8907167136
 40
0.918834922
 40
0.9432378819
 40
0.9539776296
 40
0.9637111152
 40
0.972416945
 40
0.9800770791
 40
0.9866754788
 40
0.9922000925
 40
0.9966420671
 40
0.9984563476
 40
1.0
 40
1.0
 40
1.0
 40
1.0
 10
9.4463137759
 20
18.5174780953
 30
0.0
 10
9.4463461089
 20
18.517510415
 30
0.0
 10
9.446430691
 20
18.5175651492
 30
0.0
 10
9.4465899018
 20
18.5176009275
 30
0.0
 10
9.4467829894
 20
18.5175980577
 30
0.0
 10
9.4470116067
 20
18.51755806
 30
0.0
 10
9.4472768903
 20
18.517481236
 30
0.0
 10
9.4477107958
 20
18.5173176654
 30
0.0
 10
9.4483450062
 20
18.51701078
 30
0.0
 10
9.4492110966
 20
18.5165182601
 30
0.0
 10
9.4502269812
 20
18.5158775296
 30
0.0
 10
9.4513922598
 20
18.5150887983
 30
0.0
 10
9.4527064259
 20
18.5141519893
 30
0.0
 10
9.4541688222
 20
18.5130675684
 30
0.0
 10
9.4557786915
 20
18.5118361256
 30
0.0
 10
9.4575352223
 20
18.5104583876
 30
0.0
 10
9.4601772349
 20
18.5083426677
 30
0.0
 10
9.4638353838
 20
18.5053341619
 30
0.0
 10
9.4686390449
 20
18.5012846435
 30
0.0
 10
9.4740030568
 20
18.4966760381
 30
0.0
 10
9.4822642494
 20
18.489471251
 30
0.0
 10
9.4938853802
 20
18.4791472961
 30
0.0
 10
9.5092993701
 20
18.4652351789
 30
0.0
 10
9.5266095673
 20
18.4494304271
 30
0.0
 10
9.5456674345
 20
18.4318808375
 30
0.0
 10
9.5663086822
 20
18.4127496533
 30
0.0
 10
9.5883551425
 20
18.3922145478
 30
0.0
 10
9.6116161547
 20
18.3704657805
 30
0.0
 10
9.6358902911
 20
18.3477045072
 30
0.0
 10
9.6609671547
 20
18.3241409135
 30
0.0
 10
9.6866292126
 20
18.2999923703
 30
0.0
 10
9.7213704443
 20
18.2672717018
 30
0.0
 10
9.7645556778
 20
18.2265785534
 30
0.0
 10
9.8072305681
 20
18.1864244861
 30
0.0
 10
9.8403097927
 20
18.1553905321
 30
0.0
 10
9.8637954063
 20
18.13341638
 30
0.0
 10
9.8861078714
 20
18.1126143207
 30
0.0
 10
9.9070546584
 20
18.0931765594
 30
0.0
 10
9.9264554036
 20
18.0752829909
 30
0.0
 10
9.9441433887
 20
18.0590994031
 30
0.0
 10
9.9599673002
 20
18.0447764187
 30
0.0
 10
9.9719479181
 20
18.0340903716
 30
0.0
 10
9.9805097848
 20
18.0265813046
 30
0.0
 10
9.9861094896
 20
18.0217362857
 30
0.0
 10
9.991154426
 20
18.0174447878
 30
0.0
 10
9.9956339716
 20
18.013716998
 30
0.0
 10
9.999538764
 20
18.0105611752
 30
0.0
 10
10.0028607174
 20
18.0079848388
 30
0.0
 10
10.0052757417
 20
18.006221026
 30
0.0
 10
10.0069183537
 20
18.0051162214
 30
0.0
 10
10.0076412973
 20
18.0046645691
 30
0.0
 10
10.0079788085
 20
18.0044657259
 30
0.0
  0
LINE
  5
592
100
AcDbEntity
  8
0
100
AcDbLine
 62
7
  6
CONTINUOUS
 10
10.0079788085
 20
18.0044657259
 11
10.0099316026
 21
18.0035407882
  0
SPLINE
  5
593
100
AcDbEntity
  8
0
100
AcDbSpline
 62
7
  6
CONTINUOUS
 70
0
 71
3
 72
54
 73
50
 74
0
 42
0.0000001
 43
0.0000001
 44
0.0000000001
 40
0.0
 40
0.0
 40
0.0
 40
0.0
 40
0.0001782533
 40
0.0003815524
 40
0.0006273849
 40
0.0009258436
 40
0.0012825741
 40
0.0017008603
 40
0.0027290228
 40
0.0040194248
 40
0.0055758527
 40
0.0074001067
 40
0.0094928296
 40
0.0118537561
 40
0.0144822561
 40
0.0173774991
 40
0.0205383582
 40
0.0276503848
 40
0.0358044645
 40
0.04498361
 40
0.0551683901
 40
0.0784645884
 40
0.105490506
 40
0.1360095235
 40
0.1697536328
 40
0.2064260616
 40
0.2457041585
 40
0.2872420887
 40
0.330674236
 40
0.3756181782
 40
0.4216782585
 40
0.4684491073
 40
0.5624739265
 40
0.6543910404
 40
0.740974566
 40
0.7813069845
 40
0.819188053
 40
0.8542854965
 40
0.8862916411
 40
0.9149264038
 40
0.9399399206
 40
0.9611149655
 40
0.9702048122
 40
0.9782700862
 40
0.9852938427
 40
0.9912628334
 40
0.9961664615
 40
0.9982171064
 40
1.0
 40
1.0
 40
1.0
 40
1.0
 10
9.4955737524
 20
18.5692368605
 30
0.0
 10
9.4956058507
 20
18.569268947
 30
0.0
 10
9.4956897405
 20
18.5693233194
 30
0.0
 10
9.4958476341
 20
18.5693590391
 30
0.0
 10
9.4960390935
 20
18.5693564663
 30
0.0
 10
9.4962657447
 20
18.5693171076
 30
0.0
 10
9.4965287196
 20
18.5692412597
 30
0.0
 10
9.4969587834
 20
18.5690795825
 30
0.0
 10
9.4975873022
 20
18.5687760483
 30
0.0
 10
9.4984455385
 20
18.5682887497
 30
0.0
 10
9.4994521245
 20
18.5676546576
 30
0.0
 10
9.5006066937
 20
18.566873943
 30
0.0
 10
9.5019087409
 20
18.5659465481
 30
0.0
 10
9.5033576176
 20
18.564872962
 30
0.0
 10
9.5049525818
 20
18.5636537298
 30
0.0
 10
9.5066928665
 20
18.5622895285
 30
0.0
 10
9.5093104875
 20
18.5601944334
 30
0.0
 10
9.5129349866
 20
18.5572149776
 30
0.0
 10
9.5176945472
 20
18.5532041414
 30
0.0
 10
9.5230096992
 20
18.5486390194
 30
0.0
 10
9.5311967195
 20
18.5415008877
 30
0.0
 10
9.5427154157
 20
18.5312701757
 30
0.0
 10
9.5579964447
 20
18.5174802741
 30
0.0
 10
9.575162361
 20
18.5018090264
 30
0.0
 10
9.5940679514
 20
18.4844009028
 30
0.0
 10
9.6145525788
 20
18.4654155046
 30
0.0
 10
9.6364419386
 20
18.4450266456
 30
0.0
 10
9.6595494463
 20
18.4234205127
 30
0.0
 10
9.6836778608
 20
18.4007940785
 30
0.0
 10
9.7086210303
 20
18.3773532867
 30
0.0
 10
9.7341656877
 20
18.3533112408
 30
0.0
 10
9.7687954086
 20
18.3206885824
 30
0.0
 10
9.8119121523
 20
18.2800475546
 30
0.0
 10
9.8624365066
 20
18.2324867084
 30
0.0
 10
9.9030743143
 20
18.1943681032
 30
0.0
 10
9.9337505115
 20
18.1657401302
 30
0.0
 10
9.9548862817
 20
18.1461028068
 30
0.0
 10
9.9745210459
 20
18.1279646559
 30
0.0
 10
9.9924885855
 20
18.1114913897
 30
0.0
 10
10.0086369944
 20
18.0968335203
 30
0.0
 10
10.0228306218
 20
18.0841258314
 30
0.0
 10
10.0334060435
 20
18.0748379155
 30
0.0
 10
10.0408131253
 20
18.0684832297
 30
0.0
 10
10.0455238556
 20
18.064519686
 30
0.0
 10
10.0496693603
 20
18.0611190716
 30
0.0
 10
10.0532411746
 20
18.0582894018
 30
0.0
 10
10.0558689169
 20
18.056307963
 30
0.0
 10
10.0576847709
 20
18.0550226048
 30
0.0
 10
10.0584956246
 20
18.0544789418
 30
0.0
 10
10.0588772562
 20
18.0542331269
 30
0.0
  0
SPLINE
  5
594
100
AcDbEntity
  8
0
100
AcDbSpline
 62
7
  6
CONTINUOUS
 70
0
 71
3
 72
11
 73
7
 74
0
 42
0.0000001
 43
0.0000001
 44
0.0000000001
 40
0.0
 40
0.0
 40
0.0
 40
0.0
 40
0.3275068636
 40
0.602745087
 40
0.8264272915
 40
1.0
 40
1.0
 40
1.0
 40
1.0
 10
10.0588772562
 20
18.0542331269
 30
0.0
 10
10.0591772687
 20
18.0540398842
 30
0.0
 10
10.0597346091
 20
18.0536921925
 30
0.0
 10
10.0605187923
 20
18.0532485052
 30
0.0
 10
10.0611780333
 20
18.0529278118
 30
0.0
 10
10.0615849952
 20
18.0527755822
 30
0.0
 10
10.061767706
 20
18.0527267254
 30
0.0
  0
SPLINE
  5
595
100
AcDbEntity
  8
0
100
AcDbSpline
 62
7
  6
CONTINUOUS
 70
0
 71
3
 72
18
 73
14
 74
0
 42
0.0000001
 43
0.0000001
 44
0.0000000001
 40
0.0
 40
0.0
 40
0.0
 40
0.0
 40
0.0139339015
 40
0.0315146819
 40
0.0547311516
 40
0.0844466105
 40
0.1210551462
 40
0.1647548597
 40
0.2737921689
 40
0.4119567029
 40
0.5791949978
 40
0.7753028364
 40
1.0
 40
1.0
 40
1.0
 40
1.0
 10
7.5242481475
 20
15.9684857831
 30
0.0
 10
7.5242341597
 20
15.9684717792
 30
0.0
 10
7.5241921371
 20
15.9684503943
 30
0.0
 10
7.5241132103
 20
15.9684480428
 30
0.0
 10
7.5240145178
 20
15.9684673375
 30
0.0
 10
7.5238939983
 20
15.9685088459
 30
0.0
 10
7.5237511341
 20
15.9685725078
 30
0.0
 10
7.5235125297
 20
15.9686969128
 30
0.0
 10
7.5231597515
 20
15.9689128182
 30
0.0
 10
7.522673208
 20
15.9692444338
 30
0.0
 10
7.5220982735
 20
15.9696652882
 30
0.0
 10
7.5214361385
 20
15.9701746104
 30
0.0
 10
7.5209689595
 20
15.9705475573
 30
0.0
 10
7.5207208265
 20
15.9707483239
 30
0.0
  0
SPLINE
  5
596
100
AcDbEntity
  8
0
100
AcDbSpline
 62
7
  6
CONTINUOUS
 70
0
 71
3
 72
18
 73
14
 74
0
 42
0.0000001
 43
0.0000001
 44
0.0000000001
 40
0.0
 40
0.0
 40
0.0
 40
0.0
 40
0.0084407361
 40
0.0223251672
 40
0.0431883032
 40
0.0714403864
 40
0.1072309269
 40
0.150625158
 40
0.2602734596
 40
0.400301302
 40
0.5704957125
 40
0.7705434837
 40
1.0
 40
1.0
 40
1.0
 40
1.0
 10
7.5147097683
 20
15.9589473402
 30
0.0
 10
7.5147009657
 20
15.9589385458
 30
0.0
 10
7.5146645228
 20
15.9589323267
 30
0.0
 10
7.5146041493
 20
15.9589514729
 30
0.0
 10
7.5145192877
 20
15.9589902921
 30
0.0
 10
7.5144113136
 20
15.9590536391
 30
0.0
 10
7.5142787315
 20
15.9591403936
 30
0.0
 10
7.5140516023
 20
15.9593013946
 30
0.0
 10
7.5137090445
 20
15.9595648687
 30
0.0
 10
7.5132289166
 20
15.9599555307
 30
0.0
 10
7.5126543729
 20
15.9604411113
 30
0.0
 10
7.5119867161
 20
15.9610205986
 30
0.0
 10
7.5115126645
 20
15.9614403309
 30
0.0
 10
7.5112602241
 20
15.9616654758
 30
0.0
  0
ENDSEC
  0
SECTION
  2
OBJECTS
  0
DICTIONARY
  5
C
100
AcDbDictionary
280
0
281
1
  3
ACAD_GROUP
350
D
  3
ACAD_MLINESTYLE
350
17
  3
ACAD_LAYOUT
350
1A
  3
ACAD_PLOTSETTINGS
350
19
  3
ACAD_PLOTSTYLENAME
350
E
  0
DICTIONARY
  5
D
102
{ACAD_REACTORS
330
C
102
}
100
AcDbDictionary
280
0
281
1
  0
ACDBDICTIONARYWDFLT
  5
E
102
{ACAD_REACTORS
330
C
102
}
100
AcDbDictionary
281
1
  3
Normal
350
F
100
AcDbDictionaryWithDefault
340
F
  0
DICTIONARY
  5
17
102
{ACAD_REACTORS
330
C
102
}
100
AcDbDictionary
280
0
281
1
  3
Standard
350
18
  0
DICTIONARY
  5
19
102
{ACAD_REACTORS
330
C
102
}
100
AcDbDictionary
281
1
  0
DICTIONARY
  5
1A
102
{ACAD_REACTORS
330
C
102
}
100
AcDbDictionary
281
1
  3
Model
350
597
  3
Layout1
350
598
  0
ACDBPLACEHOLDER
  5
F
102
{ACAD_REACTORS
330
E
102
}
  0
MLINESTYLE
  5
18
102
{ACAD_REACTORS
330
17
102
}
100
AcDbMlineStyle
  2
STANDARD
 70
0
  3

 62
256
 51
90.0
 52
90.0
 71
2
 49
0.5
 62
256
  6
BYLAYER
 49
-0.5
 62
256
  6
BYLAYER
  0
LAYOUT
  5
597
102
{ACAD_REACTORS
330
1A
102
}
100
AcDbPlotSettings
  1

  2
none_device
  4
ANSI_C_(22.00_x_17.00_Inches)
  6

 40
0.0
 41
0.0
 42
0.0
 43
0.0
 44
558.8
 45
431.8
 46
0.0
 47
0.0
 48
0.0
 49
0.0
140
0.0
141
0.0
142
1.0
143
1.0
 70
1024
 72
0
 73
0
 74
0
  7

 75
0
147
1.0
148
0.0
149
0.0
100
AcDbLayout
  1
Model
 70
0
 71
0
 10
0.0
 20
0.0
 11
22.0
 21
17.0
 12
0.0
 22
0.0
 32
0.0
 14
0.0
 24
0.0
 34
0.0
 15
0.0
 25
0.0
 35
0.0
146
0.0
 13
0.0
 23
0.0
 33
0.0
 16
1.0
 26
0.0
 36
0.0
 17
0.0
 27
1.0
 37
0.0
 76
0
330
205
345
0
346
0
  0
LAYOUT
  5
598
102
{ACAD_REACTORS
330
1A
102
}
100
AcDbPlotSettings
  1

  2
none_device
  4
ANSI_C_(22.00_x_17.00_Inches)
  6

 40
0.0
 41
0.0
 42
0.0
 43
0.0
 44
558.8
 45
431.8
 46
0.0
 47
0.0
 48
0.0
 49
0.0
140
0.0
141
0.0
142
1.0
143
1.0
 70
0
 72
0
 73
0
 74
0
  7

 75
0
147
1.0
148
0.0
149
0.0
100
AcDbLayout
  1
Layout1
 70
0
 71
1
 10
0.0
 20
0.0
 11
22.0
 21
17.0
 12
0.0
 22
0.0
 32
0.0
 14
0.0
 24
0.0
 34
0.0
 15
0.0
 25
0.0
 35
0.0
146
0.0
 13
0.0
 23
0.0
 33
0.0
 16
1.0
 26
0.0
 36
0.0
 17
0.0
 27
1.0
 37
0.0
 76
0
330
206
345
0
346
0
  0
ENDSEC
  0
EOF
