999
DXF file: E:\BT Custom\CADOUTPUT\_RIGHT.dxf
999
Pro/ENGINEER 2018400 by Parametric Technology Corporation
  0
SECTION
  2
HEADER
  9
$ACADVER
  1
AC1018
  9
$DWGCODEPAGE
  3
ANSI_1252
  9
$EXTMAX
 10
22.0
 20
17.0
 30
0.0
  9
$EXTMIN
 10
0.0
 20
0.0
 30
0.0
  9
$LIMMIN
 10
0.0
 20
0.0
  9
$LIMMAX
 10
22.0
 20
17.0
  9
$VIEWCTR
 10
11.0
 20
8.5
  9
$VIEWSIZE
 40
17.0
  9
$CLAYER
  8
0
  9
$LTSCALE
 40
1.21
  9
$CELTYPE
  6
BYLAYER
  9
$DIMSCALE
 40
1.0
  9
$DIMASZ
 40
0.1
  9
$DIMEXO
 40
0.0625
  9
$DIMDLI
 40
0.836
  9
$DIMEXE
 40
0.125
  9
$DIMCEN
 40
0.198
  9
$DIMLFAC
 40
1.0
  9
$DIMBLK
  1
_FILLED
  9
$DIMALT
 70
1
  9
$DIMALTD
 70
2
  9
$DIMALTTD
 70
2
  9
$DIMALTF
 40
25.4
  9
$DIMTXT
 40
0.08
  9
$DIMTOL
 70
1
  9
$DIMLIM
 70
0
  9
$DIMTFAC
 40
1.0
  9
$DIMTP
 40
0.001
  9
$DIMTM
 40
0.001
  9
$DIMGAP
 40
0.09
  9
$DIMDSEP
 70
46
  9
$AUNITS
 70
0
  9
$PDMODE
 70
3
  9
$PDSIZE
 40
0.06
  9
$HANDSEED
  5
4D8
  9
$TILEMODE
 70
1
  9
$MEASUREMENT
 70
0
  9
$INSUNITS
 70
1
  0
ENDSEC
  0
SECTION
  2
CLASSES
  0
CLASS
  1
ACDBDICTIONARYWDFLT
  2
AcDbDictionaryWithDefault
  3
AutoCAD 2000
 90
0
 91
1
280
0
281
0
  0
CLASS
  1
ACDBPLACEHOLDER
  2
AcDbPlaceHolder
  3
AutoCAD 2000
 90
0
 91
1
280
0
281
0
  0
CLASS
  1
LAYOUT
  2
AcDbLayout
  3
AutoCAD 2000
 90
0
 91
0
280
0
281
0
  0
ENDSEC
  0
SECTION
  2
TABLES
  0
TABLE
  2
VPORT
  5
8
100
AcDbSymbolTable
 70
2
  0
VPORT
  5
1F4
100
AcDbSymbolTableRecord
100
AcDbViewportTableRecord
  2
*ACTIVE
 70
0
 10
0.0
 20
0.0
 11
1.0
 21
1.0
 12
11.0
 22
8.5
 13
0.0
 23
0.0
 14
1.0
 24
1.0
 15
0.0
 25
0.0
 16
0.0
 26
0.0
 36
1.0
 17
0.0
 27
0.0
 37
0.0
 40
17.0
 41
1.2941176471
 42
50.0
 43
0.0
 44
0.0
 50
0.0
 51
0.0
 71
0
 72
100
 73
1
 74
1
 75
0
 76
0
 77
0
 78
0
  0
ENDTAB
  0
TABLE
  2
LTYPE
  5
5
100
AcDbSymbolTable
 70
6
  0
LTYPE
  5
14
100
AcDbSymbolTableRecord
100
AcDbLinetypeTableRecord
  2
BYBLOCK
 70
0
  3

 72
65
 73
0
 40
0.0
  0
LTYPE
  5
15
100
AcDbSymbolTableRecord
100
AcDbLinetypeTableRecord
  2
BYLAYER
 70
0
  3

 72
65
 73
0
 40
0.0
  0
LTYPE
  5
16
100
AcDbSymbolTableRecord
100
AcDbLinetypeTableRecord
  2
CONTINUOUS
 70
64
  3
Solid line
 72
65
 73
0
 40
0.0
  0
LTYPE
  5
1F5
100
AcDbSymbolTableRecord
100
AcDbLinetypeTableRecord
  2
CENTER
 70
64
  3
____ _ ____ _ ____ _ ____ _ ____ _ ____ _ ____
 72
65
 73
4
 40
0.6
 49
0.375
 74
0
 49
-0.075
 74
0
 49
0.075
 74
0
 49
-0.075
 74
0
  0
LTYPE
  5
1F6
100
AcDbSymbolTableRecord
100
AcDbLinetypeTableRecord
  2
HIDDEN
 70
64
  3
- - - - - - - - - - - - - - - - - - - -
 72
65
 73
2
 40
0.2
 49
0.1
 74
0
 49
-0.1
 74
0
  0
LTYPE
  5
1F7
100
AcDbSymbolTableRecord
100
AcDbLinetypeTableRecord
  2
PHANTOM
 70
64
  3
_____ _ _ _____ _ _ _____ _ _ _____
 72
65
 73
6
 40
0.8
 49
0.45
 74
0
 49
-0.05
 74
0
 49
0.1
 74
0
 49
-0.05
 74
0
 49
0.1
 74
0
 49
-0.05
 74
0
  0
LTYPE
  5
1F8
100
AcDbSymbolTableRecord
100
AcDbLinetypeTableRecord
  2
DOT
 70
64
  3
. . . . . . . . . . . . . . . . . . . .
 72
65
 73
2
 40
0.2
 49
0.1
 74
0
 49
-0.1
 74
0
  0
LTYPE
  5
1F9
100
AcDbSymbolTableRecord
100
AcDbLinetypeTableRecord
  2
DASHED
 70
64
  3
- - - - - - - - - - - - - - - - - - - -
 72
65
 73
2
 40
0.2
 49
0.1
 74
0
 49
-0.1
 74
0
  0
ENDTAB
  0
TABLE
  2
LAYER
  5
2
100
AcDbSymbolTable
 70
36
  0
LAYER
  5
10
100
AcDbSymbolTableRecord
100
AcDbLayerTableRecord
  2
0
 70
0
 62
7
  6
CONTINUOUS
370
-3
390
F
  0
LAYER
  5
1FA
100
AcDbSymbolTableRecord
100
AcDbLayerTableRecord
  2
DEFAULT_1
 70
0
 62
7
  6
CENTER
370
-3
390
F
  0
LAYER
  5
1FB
100
AcDbSymbolTableRecord
100
AcDbLayerTableRecord
  2
DEFAULT_2
 70
0
 62
8
  6
HIDDEN
370
-3
390
F
  0
LAYER
  5
1FC
100
AcDbSymbolTableRecord
100
AcDbLayerTableRecord
  2
DEFAULT_3
 70
0
 62
7
  6
PHANTOM
370
-3
390
F
  0
LAYER
  5
1FD
100
AcDbSymbolTableRecord
100
AcDbLayerTableRecord
  2
ALL_FEATURES
 70
0
 62
7
  6
CONTINUOUS
370
-3
390
F
  0
LAYER
  5
1FE
100
AcDbSymbolTableRecord
100
AcDbLayerTableRecord
  2
AXES_FEATURES
 70
0
 62
7
  6
CONTINUOUS
370
-3
390
F
  0
LAYER
  5
1FF
100
AcDbSymbolTableRecord
100
AcDbLayerTableRecord
  2
DEFAULT_COORDINATE_SYSTEM
 70
0
 62
7
  6
CONTINUOUS
370
-3
390
F
  0
LAYER
  5
200
100
AcDbSymbolTableRecord
100
AcDbLayerTableRecord
  2
DEFAULT_DATUM_AXES
 70
0
 62
7
  6
CONTINUOUS
370
-3
390
F
  0
LAYER
  5
201
100
AcDbSymbolTableRecord
100
AcDbLayerTableRecord
  2
DEFAULT_DATUM_PLANES
 70
0
 62
7
  6
CONTINUOUS
370
-3
390
F
  0
LAYER
  5
202
100
AcDbSymbolTableRecord
100
AcDbLayerTableRecord
  2
DIMENSIONS
 70
0
 62
7
  6
CONTINUOUS
370
-3
390
F
  0
ENDTAB
  0
TABLE
  2
STYLE
  5
3
100
AcDbSymbolTable
 70
1
  0
STYLE
  5
11
100
AcDbSymbolTableRecord
100
AcDbTextStyleTableRecord
  2
STANDARD
 70
0
 40
0.0
 41
0.8
 50
0.0
 71
0
 42
0.2
  3
txt
  4

  0
STYLE
  5
203
100
AcDbSymbolTableRecord
100
AcDbTextStyleTableRecord
  2
TEXTSTYLE_1
 70
0
 40
0.0
 41
0.8
 50
0.0
 71
0
 42
0.2
  3
gdt
  4

  0
ENDTAB
  0
TABLE
  2
VIEW
  5
6
100
AcDbSymbolTable
 70
0
  0
ENDTAB
  0
TABLE
  2
UCS
  5
7
100
AcDbSymbolTable
 70
0
  0
ENDTAB
  0
TABLE
  2
APPID
  5
9
100
AcDbSymbolTable
 70
1
  0
APPID
  5
204
100
AcDbSymbolTableRecord
100
AcDbRegAppTableRecord
  2
ACAD
 70
0
  0
ENDTAB
  0
TABLE
  2
BLOCK_RECORD
  5
1
100
AcDbSymbolTable
 70
0
  0
BLOCK_RECORD
  5
205
100
AcDbSymbolTableRecord
100
AcDbBlockTableRecord
  2
*Model_Space
  0
BLOCK_RECORD
  5
206
100
AcDbSymbolTableRecord
100
AcDbBlockTableRecord
  2
*Paper_Space
  0
BLOCK_RECORD
  5
207
100
AcDbSymbolTableRecord
100
AcDbBlockTableRecord
  2
_FILLED
  0
ENDTAB
  0
TABLE
  2
DIMSTYLE
  5
A
100
AcDbSymbolTable
 70
1
100
AcDbDimStyleTable
 71
0
  0
DIMSTYLE
105
208
100
AcDbSymbolTableRecord
100
AcDbDimStyleTableRecord
  2
STANDARD
 70
0
  3

  4

 40
1.0
 41
0.1
 42
0.0625
 43
0.38
 44
0.125
 45
0.0
 46
0.0
 47
0.001
 48
0.001
140
0.08
141
0.09
142
0.0
143
25.4
144
1.0
145
0.0
146
1.0
147
0.09
 71
1.0
 72
0.0
 73
1
 74
1
 75
0
 76
0
 77
0
 78
4
 79
1
170
1
171
2
172
0
173
0
174
0
175
0
176
0
177
0
178
0
270
2
179
3
271
3
272
3
273
2
274
2
275
0
280
0
281
0
282
0
283
1
284
4
285
0
286
0
287
3
288
0
340
11
278
46
341
207
342
207
343
207
344
207
  0
ENDTAB
  0
ENDSEC
  0
SECTION
  2
BLOCKS
  0
BLOCK
  5
20
100
AcDbEntity
  8
0
100
AcDbBlockBegin
  2
*Model_Space
 70
0
 10
0.0
 20
0.0
 30
0.0
  3
*Model_Space
  1

  0
ENDBLK
  5
21
100
AcDbEntity
  8
0
100
AcDbBlockEnd
  0
BLOCK
  5
1C
100
AcDbEntity
  8
0
100
AcDbBlockBegin
  2
*Paper_Space
 70
0
 10
0.0
 20
0.0
 30
0.0
  3
*Paper_Space
  1

  0
ENDBLK
  5
1D
100
AcDbEntity
  8
0
100
AcDbBlockEnd
  0
BLOCK
  5
209
100
AcDbEntity
  8
0
100
AcDbBlockBegin
  2
_FILLED
 70
64
 10
0.0
 20
0.0
  3
_FILLED
  1

  0
SOLID
  5
20A
100
AcDbEntity
  8
0
  6
BYBLOCK
 62
0
100
AcDbTrace
 10
0.0
 20
0.0
 11
-1.0
 21
0.2
 12
-1.0
 22
-0.2
 13
-1.0
 23
-0.2
  0
ENDBLK
  5
20B
100
AcDbEntity
  8
0
  6
BYBLOCK
 62
0
100
AcDbBlockEnd
  0
ENDSEC
  0
SECTION
  2
ENTITIES
  0
LINE
  5
20C
100
AcDbEntity
  8
0
100
AcDbLine
 62
7
  6
CONTINUOUS
 10
12.5227997941
 20
1.583891804
 11
12.9127997941
 21
1.583891804
  0
LINE
  5
20D
100
AcDbEntity
  8
0
100
AcDbLine
 62
9
  6
CONTINUOUS
 10
12.4927997941
 20
1.613891804
 11
12.9427997941
 21
1.613891804
  0
LINE
  5
20E
100
AcDbEntity
  8
0
100
AcDbLine
 62
7
  6
CONTINUOUS
 10
15.5727997941
 20
1.833891804
 11
15.8527997941
 21
1.833891804
  0
LINE
  5
20F
100
AcDbEntity
  8
0
100
AcDbLine
 62
9
  6
CONTINUOUS
 10
15.5427997941
 20
1.863891804
 11
15.8527997941
 21
1.863891804
  0
LINE
  5
210
100
AcDbEntity
  8
0
100
AcDbLine
 62
7
  6
CONTINUOUS
 10
5.5759539808
 20
13.8985809735
 11
6.197274208
 21
14.5199012007
  0
LINE
  5
211
100
AcDbEntity
  8
0
100
AcDbLine
 62
7
  6
CONTINUOUS
 10
5.8821109715
 20
13.3011114444
 11
5.8608841282
 21
13.2764424104
  0
LINE
  5
212
100
AcDbEntity
  8
0
100
AcDbLine
 62
7
  6
CONTINUOUS
 10
5.9517222141
 20
13.2311619417
 11
5.9306518162
 21
13.2066747225
  0
LINE
  5
213
100
AcDbEntity
  8
0
100
AcDbLine
 62
7
  6
CONTINUOUS
 10
6.087902636
 20
13.0943203928
 11
6.0671380093
 21
13.0701885294
  0
LINE
  5
214
100
AcDbEntity
  8
0
100
AcDbLine
 62
7
  6
CONTINUOUS
 10
6.1510727831
 20
12.9792958689
 11
6.1313982236
 21
12.9564308404
  0
LINE
  5
215
100
AcDbEntity
  8
0
100
AcDbLine
 62
7
  6
CONTINUOUS
 10
6.1953070504
 20
12.9348478966
 11
6.1757313295
 21
12.9120977345
  0
LINE
  5
216
100
AcDbEntity
  8
0
100
AcDbLine
 62
7
  6
CONTINUOUS
 10
6.0265457977
 20
13.1417393185
 11
6.0099055623
 21
13.1274209764
  0
LINE
  5
217
100
AcDbEntity
  8
0
100
AcDbLine
 62
7
  6
CONTINUOUS
 10
6.1633782673
 20
13.0055510842
 11
6.1463917554
 21
12.9909347833
  0
LINE
  5
218
100
AcDbEntity
  8
0
100
AcDbLine
 62
7
  6
CONTINUOUS
 10
6.2847010131
 20
12.8965680273
 11
6.2643776061
 21
12.8729489326
  0
LINE
  5
219
100
AcDbEntity
  8
0
100
AcDbLine
 62
7
  6
CONTINUOUS
 10
6.3195246669
 20
12.7981752027
 11
6.3057094193
 21
12.7821196447
  0
LINE
  5
21A
100
AcDbEntity
  8
0
100
AcDbLine
 62
7
  6
CONTINUOUS
 10
6.4492009382
 20
12.63904068
 11
6.4293879187
 21
12.6160147384
  0
LINE
  5
21B
100
AcDbEntity
  8
0
100
AcDbLine
 62
7
  6
CONTINUOUS
 10
6.5335169669
 20
12.6465483336
 11
6.5137502896
 21
12.6235762491
  0
LINE
  5
21C
100
AcDbEntity
  8
0
100
AcDbLine
 62
7
  6
CONTINUOUS
 10
6.5262899486
 20
12.591409921
 11
6.512474701
 21
12.575354363
  0
LINE
  5
21D
100
AcDbEntity
  8
0
100
AcDbLine
 62
7
  6
CONTINUOUS
 10
6.558361242
 20
12.509841153
 11
6.5478163632
 21
12.4975862939
  0
LINE
  5
21E
100
AcDbEntity
  8
0
100
AcDbLine
 62
7
  6
CONTINUOUS
 10
7.2968252527
 20
13.5052029697
 11
7.4601669192
 21
13.6685446362
  0
LINE
  5
21F
100
AcDbEntity
  8
0
100
AcDbLine
 62
7
  6
CONTINUOUS
 10
6.2710406337
 20
12.846659236
 11
6.2549850756
 21
12.8328439884
  0
LINE
  5
220
100
AcDbEntity
  8
0
100
AcDbLine
 62
7
  6
CONTINUOUS
 10
6.3611190135
 20
12.8087427091
 11
6.3436313522
 21
12.7936951865
  0
LINE
  5
221
100
AcDbEntity
  8
0
100
AcDbLine
 62
7
  6
CONTINUOUS
 10
6.4016037907
 20
12.7171845761
 11
6.3849631654
 21
12.7028658986
  0
LINE
  5
222
100
AcDbEntity
  8
0
100
AcDbLine
 62
7
  6
CONTINUOUS
 10
6.5208965239
 20
12.5473058711
 11
6.5086416648
 21
12.5367609923
  0
LINE
  5
223
100
AcDbEntity
  8
0
100
AcDbLine
 62
7
  6
CONTINUOUS
 10
6.6111265571
 20
12.5599163005
 11
6.5930040357
 21
12.544322503
  0
LINE
  5
224
100
AcDbEntity
  8
0
100
AcDbLine
 62
7
  6
CONTINUOUS
 10
15.2227997941
 20
3.533891804
 11
15.5427997941
 21
3.533891804
  0
LINE
  5
225
100
AcDbEntity
  8
0
100
AcDbLine
 62
9
  6
CONTINUOUS
 10
15.1927997941
 20
3.563891804
 11
15.5427997941
 21
3.563891804
  0
LINE
  5
226
100
AcDbEntity
  8
0
100
AcDbLine
 62
7
  6
CONTINUOUS
 10
6.7223568724
 20
12.3346908563
 11
6.7006191825
 21
12.3094281356
  0
LINE
  5
227
100
AcDbEntity
  8
0
100
AcDbLine
 62
7
  6
CONTINUOUS
 10
6.8234767274
 20
12.3551891635
 11
6.804357277
 21
12.3329692617
  0
LINE
  5
228
100
AcDbEntity
  8
0
100
AcDbLine
 62
7
  6
CONTINUOUS
 10
6.8001645849
 20
12.3270766361
 11
6.7819364623
 21
12.3058926017
  0
LINE
  5
229
100
AcDbEntity
  8
0
100
AcDbLine
 62
7
  6
CONTINUOUS
 10
6.7811105613
 20
12.2874737764
 11
6.770389034
 21
12.2750136231
  0
LINE
  5
22A
100
AcDbEntity
  8
0
100
AcDbLine
 62
7
  6
CONTINUOUS
 10
6.8007699677
 20
12.2250851918
 11
6.793458841
 21
12.216588477
  0
LINE
  5
22B
100
AcDbEntity
  8
0
100
AcDbLine
 62
7
  6
CONTINUOUS
 10
8.5795169538
 20
13.7130923634
 11
8.1983863987
 21
13.3319618083
  0
LINE
  5
22C
100
AcDbEntity
  8
0
100
AcDbLine
 62
7
  6
CONTINUOUS
 10
8.0399944798
 20
13.1735698893
 11
8.1701021275
 21
13.3036775371
  0
LINE
  5
22D
100
AcDbEntity
  8
0
100
AcDbLine
 62
7
  6
CONTINUOUS
 10
6.6088939745
 20
12.5108709544
 11
6.5917284471
 21
12.4961006169
  0
LINE
  5
22E
100
AcDbEntity
  8
0
100
AcDbLine
 62
7
  6
CONTINUOUS
 10
6.6453639769
 20
12.4340737827
 11
6.6270701093
 21
12.4183325478
  0
LINE
  5
22F
100
AcDbEntity
  8
0
100
AcDbLine
 62
7
  6
CONTINUOUS
 10
6.7883270887
 20
12.2374488994
 11
6.7798729286
 21
12.2301743895
  0
LINE
  5
230
100
AcDbEntity
  8
0
100
AcDbLine
 62
7
  6
CONTINUOUS
 10
6.9024751472
 20
12.2699474363
 11
6.8836110231
 21
12.2537155156
  0
LINE
  5
231
100
AcDbEntity
  8
0
100
AcDbLine
 62
7
  6
CONTINUOUS
 10
6.8790412403
 20
12.2419990458
 11
6.8611902084
 21
12.2266388556
  0
LINE
  5
232
100
AcDbEntity
  8
0
100
AcDbLine
 62
7
  6
CONTINUOUS
 10
6.8685033192
 20
12.2119887129
 11
6.8496427802
 21
12.195759877
  0
LINE
  5
233
100
AcDbEntity
  8
0
100
AcDbLine
 62
7
  6
CONTINUOUS
 10
6.8946458736
 20
12.1562075588
 11
6.8727125872
 21
12.1373347309
  0
LINE
  5
234
100
AcDbEntity
  8
0
100
AcDbLine
 62
7
  6
CONTINUOUS
 10
13.5527997941
 20
3.913891804
 11
15.1927997941
 21
3.913891804
  0
LINE
  5
235
100
AcDbEntity
  8
0
100
AcDbLine
 62
9
  6
CONTINUOUS
 10
13.5227997941
 20
3.943891804
 11
15.1927997941
 21
3.943891804
  0
LINE
  5
236
100
AcDbEntity
  8
0
100
AcDbLine
 62
7
  6
CONTINUOUS
 10
13.0027997941
 20
4.258891804
 11
13.4927997941
 21
4.258891804
  0
LINE
  5
237
100
AcDbEntity
  8
0
100
AcDbLine
 62
7
  6
CONTINUOUS
 10
7.0680683399
 20
11.9873126747
 11
7.0471015052
 21
11.9629458128
  0
LINE
  5
238
100
AcDbEntity
  8
0
100
AcDbLine
 62
7
  6
CONTINUOUS
 10
7.0886517376
 20
11.9965160123
 11
7.0702603822
 21
11.9751422749
  0
LINE
  5
239
100
AcDbEntity
  8
0
100
AcDbLine
 62
7
  6
CONTINUOUS
 10
7.1132647316
 20
12.012474391
 11
7.0957313295
 21
11.9920977345
  0
LINE
  5
23A
100
AcDbEntity
  8
0
100
AcDbLine
 62
7
  6
CONTINUOUS
 10
7.1419082497
 20
12.0352249944
 11
7.1234976485
 21
12.0138288902
  0
LINE
  5
23B
100
AcDbEntity
  8
0
100
AcDbLine
 62
7
  6
CONTINUOUS
 10
7.4044284041
 20
11.6302133057
 11
7.3865127602
 21
11.6093924222
  0
LINE
  5
23C
100
AcDbEntity
  8
0
100
AcDbLine
 62
7
  6
CONTINUOUS
 10
7.4137821694
 20
11.6399372381
 11
7.393583828
 21
11.61646349
  0
LINE
  5
23D
100
AcDbEntity
  8
0
100
AcDbLine
 62
7
  6
CONTINUOUS
 10
7.4288996881
 20
11.6546395973
 11
7.4112614976
 21
11.6341411596
  0
LINE
  5
23E
100
AcDbEntity
  8
0
100
AcDbLine
 62
7
  6
CONTINUOUS
 10
7.4492647248
 20
11.6748670934
 11
7.432474701
 21
11.655354363
  0
LINE
  5
23F
100
AcDbEntity
  8
0
100
AcDbLine
 62
7
  6
CONTINUOUS
 10
7.4748949418
 20
11.700640253
 11
7.4572234383
 21
11.6801031003
  0
LINE
  5
240
100
AcDbEntity
  8
0
100
AcDbLine
 62
7
  6
CONTINUOUS
 10
9.1866297005
 20
13.9701872534
 11
9.2626436795
 21
14.0462012324
  0
LINE
  5
241
100
AcDbEntity
  8
0
100
AcDbLine
 62
7
  6
CONTINUOUS
 10
9.1866297005
 20
13.945438516
 11
8.9912314489
 21
13.7500402644
  0
LINE
  5
242
100
AcDbEntity
  8
0
100
AcDbLine
 62
7
  6
CONTINUOUS
 10
10.0477707113
 20
14.7659208869
 11
9.4634908027
 21
14.1816409784
  0
LINE
  5
243
100
AcDbEntity
  8
0
100
AcDbLine
 62
7
  6
CONTINUOUS
 10
9.4315280622
 20
14.1496782379
 11
9.4137034997
 21
14.1318536753
  0
LINE
  5
244
100
AcDbEntity
  8
0
100
AcDbLine
 62
7
  6
CONTINUOUS
 10
9.3802980675
 20
14.0984482431
 11
9.3640445216
 21
14.0821946973
  0
LINE
  5
245
100
AcDbEntity
  8
0
100
AcDbLine
 62
7
  6
CONTINUOUS
 10
9.3289397589
 20
14.0470899345
 11
9.3142265247
 21
14.0323767003
  0
LINE
  5
246
100
AcDbEntity
  8
0
100
AcDbLine
 62
7
  6
CONTINUOUS
 10
9.4705737084
 20
14.1552369044
 11
9.4581514199
 21
14.1428146159
  0
LINE
  5
247
100
AcDbEntity
  8
0
100
AcDbLine
 62
7
  6
CONTINUOUS
 10
9.4213137637
 20
14.1034781075
 11
9.4088924258
 21
14.0910567697
  0
LINE
  5
248
100
AcDbEntity
  8
0
100
AcDbLine
 62
7
  6
CONTINUOUS
 10
9.3722756963
 20
14.0514966662
 11
9.359855595
 21
14.039076565
  0
LINE
  5
249
100
AcDbEntity
  8
0
100
AcDbLine
 62
7
  6
CONTINUOUS
 10
9.3229651178
 20
13.9997937797
 11
9.316008125
 21
13.9928367869
  0
LINE
  5
24A
100
AcDbEntity
  8
0
100
AcDbLine
 62
7
  6
CONTINUOUS
 10
8.6432925965
 20
13.1543419738
 11
8.8907799699
 21
13.4018293472
  0
LINE
  5
24B
100
AcDbEntity
  8
0
100
AcDbLine
 62
7
  6
CONTINUOUS
 10
7.1367406038
 20
11.8926283002
 11
7.1263552514
 21
11.8836920667
  0
LINE
  5
24C
100
AcDbEntity
  8
0
100
AcDbLine
 62
7
  6
CONTINUOUS
 10
7.1650926705
 20
11.9092933209
 11
7.1495141283
 21
11.8958885288
  0
LINE
  5
24D
100
AcDbEntity
  8
0
100
AcDbLine
 62
7
  6
CONTINUOUS
 10
7.1936364537
 20
11.9288928486
 11
7.1749850756
 21
11.9128439884
  0
LINE
  5
24E
100
AcDbEntity
  8
0
100
AcDbLine
 62
7
  6
CONTINUOUS
 10
7.2224321356
 20
11.9515097352
 11
7.2027513946
 21
11.9345751441
  0
LINE
  5
24F
100
AcDbEntity
  8
0
100
AcDbLine
 62
7
  6
CONTINUOUS
 10
7.1489213592
 20
11.8841181349
 11
7.1289616667
 21
11.8669435158
  0
LINE
  5
250
100
AcDbEntity
  8
0
100
AcDbLine
 62
7
  6
CONTINUOUS
 10
13.4927997941
 20
4.322391804
 11
13.5227997941
 21
4.322391804
  0
LINE
  5
251
100
AcDbEntity
  8
0
100
AcDbLine
 62
9
  6
CONTINUOUS
 10
12.9427997941
 20
4.4774728208
 11
12.9127997941
 21
4.4774728208
  0
LINE
  5
252
100
AcDbEntity
  8
0
100
AcDbLine
 62
9
  6
CONTINUOUS
 10
12.9427997941
 20
4.6903107873
 11
12.9127997941
 21
4.6903107873
  0
LINE
  5
253
100
AcDbEntity
  8
0
100
AcDbLine
 62
7
  6
CONTINUOUS
 10
13.4927997941
 20
4.845391804
 11
13.5227997941
 21
4.845391804
  0
LINE
  5
254
100
AcDbEntity
  8
0
100
AcDbLine
 62
7
  6
CONTINUOUS
 10
7.740492219
 20
11.2925472751
 11
7.7233175999
 21
11.2725875826
  0
LINE
  5
255
100
AcDbEntity
  8
0
100
AcDbLine
 62
7
  6
CONTINUOUS
 10
7.8078838193
 20
11.3660580515
 11
7.7909492282
 21
11.3463773105
  0
LINE
  5
256
100
AcDbEntity
  8
0
100
AcDbLine
 62
7
  6
CONTINUOUS
 10
7.7852669327
 20
11.3372623696
 11
7.7692180725
 21
11.3186109915
  0
LINE
  5
257
100
AcDbEntity
  8
0
100
AcDbLine
 62
7
  6
CONTINUOUS
 10
7.765667405
 20
11.3087185864
 11
7.7522626129
 21
11.2931400442
  0
LINE
  5
258
100
AcDbEntity
  8
0
100
AcDbLine
 62
7
  6
CONTINUOUS
 10
7.7490023843
 20
11.2803665197
 11
7.7400661508
 21
11.2699811673
  0
LINE
  5
259
100
AcDbEntity
  8
0
100
AcDbLine
 62
7
  6
CONTINUOUS
 10
9.0107160579
 20
12.7869185124
 11
9.2582034313
 21
13.0344058858
  0
LINE
  5
25A
100
AcDbEntity
  8
0
100
AcDbLine
 62
7
  6
CONTINUOUS
 10
9.8694643932
 20
13.4785453787
 11
9.8818841517
 21
13.4909651373
  0
LINE
  5
25B
100
AcDbEntity
  8
0
100
AcDbLine
 62
7
  6
CONTINUOUS
 10
9.9212848149
 20
13.5277453926
 11
9.9337056186
 21
13.5401661964
  0
LINE
  5
25C
100
AcDbEntity
  8
0
100
AcDbLine
 62
7
  6
CONTINUOUS
 10
9.9730756516
 20
13.5769677205
 11
9.9854974123
 21
13.5893894812
  0
LINE
  5
25D
100
AcDbEntity
  8
0
100
AcDbLine
 62
7
  6
CONTINUOUS
 10
10.024907937
 20
13.6261534153
 11
10.0373307124
 21
13.6385761907
  0
LINE
  5
25E
100
AcDbEntity
  8
0
100
AcDbLine
 62
7
  6
CONTINUOUS
 10
10.622294971
 20
14.1913966272
 11
10.0628816431
 21
13.6319832993
  0
LINE
  5
25F
100
AcDbEntity
  8
0
100
AcDbLine
 62
7
  6
CONTINUOUS
 10
10.0316943754
 20
13.6007960315
 11
10.0131369983
 21
13.5822386544
  0
LINE
  5
260
100
AcDbEntity
  8
0
100
AcDbLine
 62
7
  6
CONTINUOUS
 10
9.9804217314
 20
13.5495233876
 11
9.9633698567
 21
13.5324715129
  0
LINE
  5
261
100
AcDbEntity
  8
0
100
AcDbLine
 62
7
  6
CONTINUOUS
 10
9.929171592
 20
13.4982732482
 11
9.9136176499
 21
13.4827193061
  0
LINE
  5
262
100
AcDbEntity
  8
0
100
AcDbLine
 62
7
  6
CONTINUOUS
 10
9.8779065477
 20
13.4470082039
 11
9.8698716278
 21
13.438973284
  0
LINE
  5
263
100
AcDbEntity
  8
0
100
AcDbLine
 62
7
  6
CONTINUOUS
 10
9.6064143485
 20
13.1348573648
 11
9.8018126001
 21
13.3302556164
  0
LINE
  5
264
100
AcDbEntity
  8
0
100
AcDbLine
 62
7
  6
CONTINUOUS
 10
9.8265613375
 20
13.3302556164
 11
9.9025753164
 21
13.4062695954
  0
LINE
  5
265
100
AcDbEntity
  8
0
100
AcDbLine
 62
7
  6
CONTINUOUS
 10
7.5570143371
 20
11.6185208577
 11
7.5364771844
 21
11.6008493542
  0
LINE
  5
266
100
AcDbEntity
  8
0
100
AcDbLine
 62
7
  6
CONTINUOUS
 10
7.5312411775
 20
11.5928906408
 11
7.5117284471
 21
11.5761006169
  0
LINE
  5
267
100
AcDbEntity
  8
0
100
AcDbLine
 62
7
  6
CONTINUOUS
 10
7.5110136813
 20
11.572525604
 11
7.4905152437
 21
11.5548874135
  0
LINE
  5
268
100
AcDbEntity
  8
0
100
AcDbLine
 62
7
  6
CONTINUOUS
 10
7.4963113222
 20
11.5574080853
 11
7.4728375741
 21
11.5372097439
  0
LINE
  5
269
100
AcDbEntity
  8
0
100
AcDbLine
 62
7
  6
CONTINUOUS
 10
7.4865873898
 20
11.54805432
 11
7.4657665063
 21
11.5301386761
  0
LINE
  5
26A
100
AcDbEntity
  8
0
100
AcDbLine
 62
7
  6
CONTINUOUS
 10
7.8915990785
 20
11.2855341656
 11
7.8702029743
 21
11.2671235644
  0
LINE
  5
26B
100
AcDbEntity
  8
0
100
AcDbLine
 62
7
  6
CONTINUOUS
 10
7.8688484751
 20
11.2568906475
 11
7.8484718186
 21
11.2393572454
  0
LINE
  5
26C
100
AcDbEntity
  8
0
100
AcDbLine
 62
7
  6
CONTINUOUS
 10
7.8528900964
 20
11.2322776535
 11
7.831516359
 21
11.2138862981
  0
LINE
  5
26D
100
AcDbEntity
  8
0
100
AcDbLine
 62
7
  6
CONTINUOUS
 10
7.8436867588
 20
11.2116942558
 11
7.8193198969
 21
11.1907274212
  0
LINE
  5
26E
100
AcDbEntity
  8
0
100
AcDbLine
 62
7
  6
CONTINUOUS
 10
13.0027997941
 20
4.908891804
 11
13.4927997941
 21
4.908891804
  0
LINE
  5
26F
100
AcDbEntity
  8
0
100
AcDbLine
 62
9
  6
CONTINUOUS
 10
12.4927997941
 20
5.203891804
 11
12.9427997941
 21
5.203891804
  0
LINE
  5
270
100
AcDbEntity
  8
0
100
AcDbLine
 62
9
  6
CONTINUOUS
 10
13.5227997941
 20
5.223891804
 11
15.1927997941
 21
5.223891804
  0
LINE
  5
271
100
AcDbEntity
  8
0
100
AcDbLine
 62
7
  6
CONTINUOUS
 10
12.5227997941
 20
5.233891804
 11
12.9127997941
 21
5.233891804
  0
LINE
  5
272
100
AcDbEntity
  8
0
100
AcDbLine
 62
7
  6
CONTINUOUS
 10
13.5527997941
 20
5.253891804
 11
15.1927997941
 21
5.253891804
  0
LINE
  5
273
100
AcDbEntity
  8
0
100
AcDbLine
 62
7
  6
CONTINUOUS
 10
5.6536238576
 20
13.5507574972
 11
5.5681894094
 21
13.8696031987
  0
LINE
  5
274
100
AcDbEntity
  8
0
100
AcDbLine
 62
7
  6
CONTINUOUS
 10
8.0125816429
 20
11.0382717895
 11
7.993708815
 21
11.0163385031
  0
LINE
  5
275
100
AcDbEntity
  8
0
100
AcDbLine
 62
7
  6
CONTINUOUS
 10
8.068362797
 20
11.0121292351
 11
8.0521339611
 21
10.9932686961
  0
LINE
  5
276
100
AcDbEntity
  8
0
100
AcDbLine
 62
7
  6
CONTINUOUS
 10
8.0983731299
 20
11.0226671562
 11
8.0830129397
 21
11.0048161243
  0
LINE
  5
277
100
AcDbEntity
  8
0
100
AcDbLine
 62
7
  6
CONTINUOUS
 10
8.1263215204
 20
11.0461010631
 11
8.1100895997
 21
11.027236939
  0
LINE
  5
278
100
AcDbEntity
  8
0
100
AcDbLine
 62
7
  6
CONTINUOUS
 10
8.0938229835
 20
10.9319530046
 11
8.0865484736
 21
10.9234988445
  0
LINE
  5
279
100
AcDbEntity
  8
0
100
AcDbLine
 62
7
  6
CONTINUOUS
 10
8.2904478668
 20
10.7889898928
 11
8.2747066319
 21
10.7706960252
  0
LINE
  5
27A
100
AcDbEntity
  8
0
100
AcDbLine
 62
7
  6
CONTINUOUS
 10
9.5694664475
 20
12.7231428697
 11
9.1883358924
 21
12.3420123146
  0
LINE
  5
27B
100
AcDbEntity
  8
0
100
AcDbLine
 62
7
  6
CONTINUOUS
 10
9.0299439734
 20
12.1836203957
 11
9.1600516212
 21
12.3137280434
  0
LINE
  5
27C
100
AcDbEntity
  8
0
100
AcDbLine
 62
7
  6
CONTINUOUS
 10
8.0814592759
 20
10.9443958836
 11
8.0729625611
 21
10.937084757
  0
LINE
  5
27D
100
AcDbEntity
  8
0
100
AcDbLine
 62
7
  6
CONTINUOUS
 10
8.1438478605
 20
10.9247364772
 11
8.1313877072
 21
10.9140149499
  0
LINE
  5
27E
100
AcDbEntity
  8
0
100
AcDbLine
 62
7
  6
CONTINUOUS
 10
8.1834507202
 20
10.9437905008
 11
8.1622666858
 21
10.9255623782
  0
LINE
  5
27F
100
AcDbEntity
  8
0
100
AcDbLine
 62
7
  6
CONTINUOUS
 10
8.2115632476
 20
10.9671026433
 11
8.1893433458
 21
10.9479831929
  0
LINE
  5
280
100
AcDbEntity
  8
0
100
AcDbLine
 62
7
  6
CONTINUOUS
 10
8.1910649404
 20
10.8659827883
 11
8.1658022197
 21
10.8442450984
  0
LINE
  5
281
100
AcDbEntity
  8
0
100
AcDbLine
 62
9
  6
CONTINUOUS
 10
15.1927997941
 20
5.603891804
 11
15.5427997941
 21
5.603891804
  0
LINE
  5
282
100
AcDbEntity
  8
0
100
AcDbLine
 62
7
  6
CONTINUOUS
 10
15.2227997941
 20
5.633891804
 11
15.5427997941
 21
5.633891804
  0
LINE
  5
283
100
AcDbEntity
  8
0
100
AcDbLine
 62
7
  6
CONTINUOUS
 10
8.3672450385
 20
10.7525198904
 11
8.352474701
 21
10.735354363
  0
LINE
  5
284
100
AcDbEntity
  8
0
100
AcDbLine
 62
7
  6
CONTINUOUS
 10
8.4162903846
 20
10.754752473
 11
8.4006965871
 21
10.7366299516
  0
LINE
  5
285
100
AcDbEntity
  8
0
100
AcDbLine
 62
7
  6
CONTINUOUS
 10
8.4036799552
 20
10.6645224398
 11
8.3931350764
 21
10.6522675807
  0
LINE
  5
286
100
AcDbEntity
  8
0
100
AcDbLine
 62
7
  6
CONTINUOUS
 10
8.5735586602
 20
10.5452297066
 11
8.5592399827
 21
10.5285890813
  0
LINE
  5
287
100
AcDbEntity
  8
0
100
AcDbLine
 62
7
  6
CONTINUOUS
 10
8.6651167932
 20
10.5047449294
 11
8.6500692706
 21
10.4872572681
  0
LINE
  5
288
100
AcDbEntity
  8
0
100
AcDbLine
 62
7
  6
CONTINUOUS
 10
8.7030333201
 20
10.4146665496
 11
8.6892180725
 21
10.3986109915
  0
LINE
  5
289
100
AcDbEntity
  8
0
100
AcDbLine
 62
7
  6
CONTINUOUS
 10
9.3615770538
 20
11.4404511686
 11
9.5249187202
 21
11.6037928351
  0
LINE
  5
28A
100
AcDbEntity
  8
0
100
AcDbLine
 62
7
  6
CONTINUOUS
 10
8.3662152371
 20
10.7019871579
 11
8.353960378
 21
10.6914422791
  0
LINE
  5
28B
100
AcDbEntity
  8
0
100
AcDbLine
 62
7
  6
CONTINUOUS
 10
8.4477840051
 20
10.6699158645
 11
8.4317284471
 21
10.6561006169
  0
LINE
  5
28C
100
AcDbEntity
  8
0
100
AcDbLine
 62
7
  6
CONTINUOUS
 10
8.5029224177
 20
10.6771428828
 11
8.4799503332
 21
10.6573762055
  0
LINE
  5
28D
100
AcDbEntity
  8
0
100
AcDbLine
 62
7
  6
CONTINUOUS
 10
8.4954147641
 20
10.5928268541
 11
8.4723888225
 21
10.5730138346
  0
LINE
  5
28E
100
AcDbEntity
  8
0
100
AcDbLine
 62
7
  6
CONTINUOUS
 10
8.6545492868
 20
10.4631505828
 11
8.6384937288
 21
10.4493353352
  0
LINE
  5
28F
100
AcDbEntity
  8
0
100
AcDbLine
 62
7
  6
CONTINUOUS
 10
8.7529421113
 20
10.428326929
 11
8.7293230167
 21
10.408003522
  0
LINE
  5
290
100
AcDbEntity
  8
0
100
AcDbLine
 62
7
  6
CONTINUOUS
 10
8.979800967
 20
13.6121702054
 11
8.979800967
 21
13.6854863702
  0
LINE
  5
291
100
AcDbEntity
  8
0
100
AcDbLine
 62
7
  6
CONTINUOUS
 10
9.3141756287
 20
14.03167239
 11
9.3142265247
 21
14.0323767003
  0
LINE
  5
292
100
AcDbEntity
  8
0
100
AcDbLine
 62
7
  6
CONTINUOUS
 10
8.8619251683
 20
10.3070041832
 11
8.8473088674
 21
10.2900176713
  0
LINE
  5
293
100
AcDbEntity
  8
0
100
AcDbLine
 62
7
  6
CONTINUOUS
 10
8.9981134026
 20
10.1701717136
 11
8.9837950605
 21
10.1535314782
  0
LINE
  5
294
100
AcDbEntity
  8
0
100
AcDbLine
 62
7
  6
CONTINUOUS
 10
8.7912219807
 20
10.3389329663
 11
8.7684718186
 21
10.3193572454
  0
LINE
  5
295
100
AcDbEntity
  8
0
100
AcDbLine
 62
7
  6
CONTINUOUS
 10
8.835669953
 20
10.294698699
 11
8.8128049245
 21
10.2750241395
  0
LINE
  5
296
100
AcDbEntity
  8
0
100
AcDbLine
 62
7
  6
CONTINUOUS
 10
8.9506944769
 20
10.2315285519
 11
8.9265626135
 21
10.2107639252
  0
LINE
  5
297
100
AcDbEntity
  8
0
100
AcDbLine
 62
7
  6
CONTINUOUS
 10
9.0875360258
 20
10.09534813
 11
9.0630488066
 21
10.0742777321
  0
LINE
  5
298
100
AcDbEntity
  8
0
100
AcDbLine
 62
7
  6
CONTINUOUS
 10
9.1574855285
 20
10.0257368874
 11
9.1328164945
 21
10.0045100441
  0
LINE
  5
299
100
AcDbEntity
  8
0
100
AcDbLine
 62
7
  6
CONTINUOUS
 10
9.1866297005
 20
13.945438516
 11
9.1866297005
 21
13.9701872534
  0
LINE
  5
29A
100
AcDbEntity
  8
0
100
AcDbLine
 62
7
  6
CONTINUOUS
 10
9.3639931981
 20
14.0814835203
 11
9.3640445216
 21
14.0821946973
  0
LINE
  5
29B
100
AcDbEntity
  8
0
100
AcDbLine
 62
7
  6
CONTINUOUS
 10
9.413652421
 20
14.1311469557
 11
9.4137034997
 21
14.1318536753
  0
LINE
  5
29C
100
AcDbEntity
  8
0
100
AcDbLine
 62
7
  6
CONTINUOUS
 10
9.4634399154
 20
14.1809367989
 11
9.4634908027
 21
14.1816409784
  0
LINE
  5
29D
100
AcDbEntity
  8
0
100
AcDbLine
 62
7
  6
CONTINUOUS
 10
9.8779065477
 20
13.4470082039
 11
9.8779606678
 21
13.4477567818
  0
LINE
  5
29E
100
AcDbEntity
  8
0
100
AcDbLine
 62
7
  6
CONTINUOUS
 10
9.7549550576
 20
9.7195798967
 11
10.3762752848
 21
10.3409001239
  0
LINE
  5
29F
100
AcDbEntity
  8
0
100
AcDbLine
 62
9
  6
CONTINUOUS
 10
15.5427997941
 20
7.303891804
 11
15.8527997941
 21
7.303891804
  0
LINE
  5
2A0
100
AcDbEntity
  8
0
100
AcDbLine
 62
7
  6
CONTINUOUS
 10
15.5727997941
 20
7.333891804
 11
15.8527997941
 21
7.333891804
  0
LINE
  5
2A1
100
AcDbEntity
  8
0
100
AcDbLine
 62
7
  6
CONTINUOUS
 10
9.929226144
 20
13.499027395
 11
9.929171592
 21
13.4982732482
  0
LINE
  5
2A2
100
AcDbEntity
  8
0
100
AcDbLine
 62
7
  6
CONTINUOUS
 10
9.9804757449
 20
13.550270565
 11
9.9804217314
 21
13.5495233876
  0
LINE
  5
2A3
100
AcDbEntity
  8
0
100
AcDbLine
 62
7
  6
CONTINUOUS
 10
10.031748489
 20
13.6015445069
 11
10.0316943754
 21
13.6007960315
  0
LINE
  5
2A4
100
AcDbEntity
  8
0
100
AcDbLine
 62
7
  6
CONTINUOUS
 10
7.7821811155
 20
11.1940973979
 11
7.7240811612
 21
11.2521973522
  0
LINE
  5
2A5
100
AcDbEntity
  8
0
100
AcDbLine
 62
7
  6
CONTINUOUS
 10
7.4453762759
 20
11.5309022375
 11
7.3872763216
 21
11.5890021918
  0
LINE
  5
2A6
100
AcDbEntity
  8
0
100
AcDbLine
 62
7
  6
CONTINUOUS
 10
7.1085714363
 20
11.8677070771
 11
7.050471482
 21
11.9258070314
  0
LINE
  5
2A7
100
AcDbEntity
  8
0
100
AcDbLine
 62
7
  6
CONTINUOUS
 10
6.7190546067
 20
12.3382877403
 11
6.7223568724
 21
12.3346908563
  0
LINE
  5
2A8
100
AcDbEntity
  8
0
100
AcDbLine
 62
7
  6
CONTINUOUS
 10
6.1501299775
 20
12.9803983477
 11
6.1510727831
 21
12.9792958689
  0
LINE
  5
2A9
100
AcDbEntity
  8
0
100
AcDbLine
 62
7
  6
CONTINUOUS
 10
7.3107562271
 20
11.716011652
 11
7.2849826311
 21
11.7463198922
  0
LINE
  5
2AA
100
AcDbEntity
  8
0
100
AcDbLine
 62
7
  6
CONTINUOUS
 10
7.5723857361
 20
11.454382143
 11
7.6026939763
 21
11.428608547
  0
LINE
  5
2AB
100
AcDbEntity
  8
0
100
AcDbLine
 62
7
  6
CONTINUOUS
 10
8.8367724318
 20
10.2937558934
 11
8.835669953
 21
10.294698699
  0
LINE
  5
2AC
100
AcDbEntity
  8
0
100
AcDbLine
 62
7
  6
CONTINUOUS
 10
8.1946618244
 20
10.8626805226
 11
8.1910649404
 21
10.8659827883
  0
LINE
  5
2AD
100
AcDbEntity
  8
0
100
AcDbLine
 62
7
  6
CONTINUOUS
 10
8.1454119893
 20
10.8450086598
 11
8.087312035
 21
10.903108614
  0
LINE
  5
2AE
100
AcDbEntity
  8
0
100
AcDbLine
 62
7
  6
CONTINUOUS
 10
8.0525723307
 20
10.9378483183
 11
7.9944723764
 21
10.9959482726
  0
LINE
  5
2AF
100
AcDbEntity
  8
0
100
AcDbLine
 62
7
  6
CONTINUOUS
 10
7.7989296665
 20
11.1914909825
 11
7.7408297122
 21
11.2495909368
  0
LINE
  5
2B0
100
AcDbEntity
  8
0
100
AcDbLine
 62
7
  6
CONTINUOUS
 10
7.4524473437
 20
11.5379733053
 11
7.3943473894
 21
11.5960732596
  0
LINE
  5
2B1
100
AcDbEntity
  8
0
100
AcDbLine
 62
7
  6
CONTINUOUS
 10
7.1059650209
 20
11.8844556281
 11
7.0478650666
 21
11.9425555824
  0
LINE
  5
2B2
100
AcDbEntity
  8
0
100
AcDbLine
 62
7
  6
CONTINUOUS
 10
6.8523223567
 20
12.1380982923
 11
6.7942224024
 21
12.1961982466
  0
LINE
  5
2B3
100
AcDbEntity
  8
0
100
AcDbLine
 62
7
  6
CONTINUOUS
 10
6.7594826981
 20
12.2309379509
 11
6.7013827439
 21
12.2890379052
  0
LINE
  5
2B4
100
AcDbEntity
  8
0
100
AcDbLine
 62
9
  6
CONTINUOUS
 10
7.7365426798
 20
11.2593625026
 11
7.7233175999
 21
11.2725875826
  0
LINE
  5
2B5
100
AcDbEntity
  8
0
100
AcDbLine
 62
9
  6
CONTINUOUS
 10
7.4657665063
 20
11.5301386761
 11
7.4622189095
 21
11.533686273
  0
LINE
  5
2B6
100
AcDbEntity
  8
0
100
AcDbLine
 62
9
  6
CONTINUOUS
 10
7.3900603571
 20
11.6058448254
 11
7.3865127602
 21
11.6093924222
  0
LINE
  5
2B7
100
AcDbEntity
  8
0
100
AcDbLine
 62
9
  6
CONTINUOUS
 10
7.1289616667
 20
11.8669435158
 11
7.1157365867
 21
11.8801685957
  0
LINE
  5
2B8
100
AcDbEntity
  8
0
100
AcDbLine
 62
9
  6
CONTINUOUS
 10
8.1658022197
 20
10.8442450984
 11
8.0865484736
 21
10.9234988445
  0
LINE
  5
2B9
100
AcDbEntity
  8
0
100
AcDbLine
 62
9
  6
CONTINUOUS
 10
8.0729625611
 20
10.937084757
 11
7.993708815
 21
11.0163385031
  0
LINE
  5
2BA
100
AcDbEntity
  8
0
100
AcDbLine
 62
9
  6
CONTINUOUS
 10
7.8193198969
 20
11.1907274212
 11
7.7400661508
 21
11.2699811673
  0
LINE
  5
2BB
100
AcDbEntity
  8
0
100
AcDbLine
 62
9
  6
CONTINUOUS
 10
7.4728375741
 20
11.5372097439
 11
7.393583828
 21
11.61646349
  0
LINE
  5
2BC
100
AcDbEntity
  8
0
100
AcDbLine
 62
9
  6
CONTINUOUS
 10
7.1263552514
 20
11.8836920667
 11
7.0471015052
 21
11.9629458128
  0
LINE
  5
2BD
100
AcDbEntity
  8
0
100
AcDbLine
 62
9
  6
CONTINUOUS
 10
6.8727125872
 20
12.1373347309
 11
6.793458841
 21
12.216588477
  0
LINE
  5
2BE
100
AcDbEntity
  8
0
100
AcDbLine
 62
9
  6
CONTINUOUS
 10
6.7798729286
 20
12.2301743895
 11
6.7006191825
 21
12.3094281356
  0
LINE
  5
2BF
100
AcDbEntity
  8
0
100
AcDbLine
 62
7
  6
CONTINUOUS
 10
8.4519985921
 20
10.573777396
 11
8.3938986378
 21
10.6318773503
  0
LINE
  5
2C0
100
AcDbEntity
  8
0
100
AcDbLine
 62
7
  6
CONTINUOUS
 10
8.3335701476
 20
10.6922058405
 11
8.2754701933
 21
10.7503057948
  0
LINE
  5
2C1
100
AcDbEntity
  8
0
100
AcDbLine
 62
7
  6
CONTINUOUS
 10
8.1109974767
 20
10.9147785113
 11
8.0528975225
 21
10.9728784656
  0
LINE
  5
2C2
100
AcDbEntity
  8
0
100
AcDbLine
 62
7
  6
CONTINUOUS
 10
7.8111261286
 20
11.2146498595
 11
7.7530261743
 21
11.2727498138
  0
LINE
  5
2C3
100
AcDbEntity
  8
0
100
AcDbLine
 62
7
  6
CONTINUOUS
 10
7.4701250132
 20
11.5556509749
 11
7.4120250589
 21
11.6137509291
  0
LINE
  5
2C4
100
AcDbEntity
  8
0
100
AcDbLine
 62
7
  6
CONTINUOUS
 10
7.1291238979
 20
11.8966520902
 11
7.0710239436
 21
11.9547520445
  0
LINE
  5
2C5
100
AcDbEntity
  8
0
100
AcDbLine
 62
7
  6
CONTINUOUS
 10
6.8292525497
 20
12.1965234384
 11
6.7711525954
 21
12.2546233927
  0
LINE
  5
2C6
100
AcDbEntity
  8
0
100
AcDbLine
 62
7
  6
CONTINUOUS
 10
6.6066798789
 20
12.4190961092
 11
6.5485799246
 21
12.4771960635
  0
LINE
  5
2C7
100
AcDbEntity
  8
0
100
AcDbLine
 62
7
  6
CONTINUOUS
 10
6.4882514344
 20
12.5375245537
 11
6.4301514801
 21
12.595624508
  0
LINE
  5
2C8
100
AcDbEntity
  8
0
100
AcDbLine
 62
7
  6
CONTINUOUS
 10
7.4823552058
 20
11.5444126733
 11
7.5723857361
 21
11.454382143
  0
LINE
  5
2C9
100
AcDbEntity
  8
0
100
AcDbLine
 62
7
  6
CONTINUOUS
 10
7.4007867574
 20
11.6259811217
 11
7.3107562271
 21
11.716011652
  0
LINE
  5
2CA
100
AcDbEntity
  8
0
100
AcDbLine
 62
7
  6
CONTINUOUS
 10
7.1480528738
 20
11.8832496495
 11
7.4027588109
 21
11.6285437124
  0
LINE
  5
2CB
100
AcDbEntity
  8
0
100
AcDbLine
 62
7
  6
CONTINUOUS
 10
7.4849177965
 20
11.5463847268
 11
7.7396237336
 21
11.2916787897
  0
LINE
  5
2CC
100
AcDbEntity
  8
0
100
AcDbLine
 62
9
  6
CONTINUOUS
 10
7.1481709676
 20
11.8833677433
 11
7.4028769046
 21
11.6286618062
  0
LINE
  5
2CD
100
AcDbEntity
  8
0
100
AcDbLine
 62
9
  6
CONTINUOUS
 10
7.4850358903
 20
11.5465028205
 11
7.7397418274
 21
11.2917968835
  0
LINE
  5
2CE
100
AcDbEntity
  8
0
100
AcDbLine
 62
9
  6
CONTINUOUS
 10
7.8816582646
 20
11.1550921917
 11
7.8336728337
 21
11.2030776225
  0
LINE
  5
2CF
100
AcDbEntity
  8
0
100
AcDbLine
 62
9
  6
CONTINUOUS
 10
7.7489393186
 20
11.2878111376
 11
7.4871905109
 21
11.5495599453
  0
LINE
  5
2D0
100
AcDbEntity
  8
0
100
AcDbLine
 62
9
  6
CONTINUOUS
 10
7.4059340294
 20
11.6308164268
 11
7.1441852217
 21
11.8925652345
  0
LINE
  5
2D1
100
AcDbEntity
  8
0
100
AcDbLine
 62
9
  6
CONTINUOUS
 10
7.0594517066
 20
11.9772987496
 11
7.0114662758
 21
12.0252841805
  0
LINE
  5
2D2
100
AcDbEntity
  8
0
100
AcDbLine
 62
9
  6
CONTINUOUS
 10
8.4723888225
 20
10.5730138346
 11
8.3931350764
 21
10.6522675807
  0
LINE
  5
2D3
100
AcDbEntity
  8
0
100
AcDbLine
 62
9
  6
CONTINUOUS
 10
8.353960378
 20
10.6914422791
 11
8.2747066319
 21
10.7706960252
  0
LINE
  5
2D4
100
AcDbEntity
  8
0
100
AcDbLine
 62
9
  6
CONTINUOUS
 10
8.1313877072
 20
10.9140149499
 11
8.0521339611
 21
10.9932686961
  0
LINE
  5
2D5
100
AcDbEntity
  8
0
100
AcDbLine
 62
9
  6
CONTINUOUS
 10
7.831516359
 20
11.2138862981
 11
7.7522626129
 21
11.2931400442
  0
LINE
  5
2D6
100
AcDbEntity
  8
0
100
AcDbLine
 62
9
  6
CONTINUOUS
 10
7.4905152437
 20
11.5548874135
 11
7.4112614976
 21
11.6341411596
  0
LINE
  5
2D7
100
AcDbEntity
  8
0
100
AcDbLine
 62
9
  6
CONTINUOUS
 10
7.1495141283
 20
11.8958885288
 11
7.0702603822
 21
11.9751422749
  0
LINE
  5
2D8
100
AcDbEntity
  8
0
100
AcDbLine
 62
9
  6
CONTINUOUS
 10
6.8496427802
 20
12.195759877
 11
6.770389034
 21
12.2750136231
  0
LINE
  5
2D9
100
AcDbEntity
  8
0
100
AcDbLine
 62
9
  6
CONTINUOUS
 10
6.6270701093
 20
12.4183325478
 11
6.5478163632
 21
12.4975862939
  0
LINE
  5
2DA
100
AcDbEntity
  8
0
100
AcDbLine
 62
9
  6
CONTINUOUS
 10
6.5086416648
 20
12.5367609923
 11
6.4293879187
 21
12.6160147384
  0
LINE
  5
2DB
100
AcDbEntity
  8
0
100
AcDbLine
 62
7
  6
CONTINUOUS
 10
6.8940637886
 20
12.1556254738
 11
7.0654359045
 21
11.9842533579
  0
LINE
  5
2DC
100
AcDbEntity
  8
0
100
AcDbLine
 62
7
  6
CONTINUOUS
 10
7.1518181787
 20
11.8978710837
 11
7.4117670968
 21
11.6379221656
  0
LINE
  5
2DD
100
AcDbEntity
  8
0
100
AcDbLine
 62
7
  6
CONTINUOUS
 10
7.4942962497
 20
11.5553930127
 11
7.7542451678
 21
11.2954440946
  0
LINE
  5
2DE
100
AcDbEntity
  8
0
100
AcDbLine
 62
7
  6
CONTINUOUS
 10
7.840627442
 20
11.2090618204
 11
8.0119995579
 21
11.0376897045
  0
LINE
  5
2DF
100
AcDbEntity
  8
0
100
AcDbLine
 62
9
  6
CONTINUOUS
 10
6.8945747794
 20
12.1561364646
 11
7.065908571
 21
11.984802673
  0
LINE
  5
2E0
100
AcDbEntity
  8
0
100
AcDbLine
 62
9
  6
CONTINUOUS
 10
7.1523674938
 20
11.8983437502
 11
7.4122780876
 21
11.6384331564
  0
LINE
  5
2E1
100
AcDbEntity
  8
0
100
AcDbLine
 62
9
  6
CONTINUOUS
 10
7.4948072404
 20
11.5559040035
 11
7.7547178343
 21
11.2959934097
  0
LINE
  5
2E2
100
AcDbEntity
  8
0
100
AcDbLine
 62
9
  6
CONTINUOUS
 10
7.8411767571
 20
11.2095344869
 11
8.0125105487
 21
11.0382006953
  0
LINE
  5
2E3
100
AcDbEntity
  8
0
100
AcDbLine
 62
9
  6
CONTINUOUS
 10
8.1946618244
 20
10.8626805226
 11
8.1378052905
 21
10.9195370565
  0
LINE
  5
2E4
100
AcDbEntity
  8
0
100
AcDbLine
 62
9
  6
CONTINUOUS
 10
8.0576560676
 20
10.9996862794
 11
7.8379339423
 21
11.2194084047
  0
LINE
  5
2E5
100
AcDbEntity
  8
0
100
AcDbLine
 62
9
  6
CONTINUOUS
 10
7.7577847195
 20
11.2995576275
 11
7.496932827
 21
11.56040952
  0
LINE
  5
2E6
100
AcDbEntity
  8
0
100
AcDbLine
 62
9
  6
CONTINUOUS
 10
7.4167836041
 20
11.6405587429
 11
7.1559317116
 21
11.9014106354
  0
LINE
  5
2E7
100
AcDbEntity
  8
0
100
AcDbLine
 62
9
  6
CONTINUOUS
 10
7.0757824888
 20
11.9815598582
 11
6.8560603634
 21
12.2012819835
  0
LINE
  5
2E8
100
AcDbEntity
  8
0
100
AcDbLine
 62
9
  6
CONTINUOUS
 10
6.7759111406
 20
12.2814312064
 11
6.7190546067
 21
12.3382877403
  0
LINE
  5
2E9
100
AcDbEntity
  8
0
100
AcDbLine
 62
7
  6
CONTINUOUS
 10
8.7924146941
 20
10.2757877009
 11
8.6899816339
 21
10.3782207611
  0
LINE
  5
2EA
100
AcDbEntity
  8
0
100
AcDbLine
 62
7
  6
CONTINUOUS
 10
8.6181034983
 20
10.4500988966
 11
8.5600035441
 21
10.5081988509
  0
LINE
  5
2EB
100
AcDbEntity
  8
0
100
AcDbLine
 62
7
  6
CONTINUOUS
 10
8.4113382167
 20
10.6568641783
 11
8.3532382624
 21
10.7149641326
  0
LINE
  5
2EC
100
AcDbEntity
  8
0
100
AcDbLine
 62
7
  6
CONTINUOUS
 10
8.1418764554
 20
10.9263259396
 11
8.0837765011
 21
10.9844258939
  0
LINE
  5
2ED
100
AcDbEntity
  8
0
100
AcDbLine
 62
7
  6
CONTINUOUS
 10
7.8280815881
 20
11.2401208068
 11
7.7699816339
 21
11.2982207611
  0
LINE
  5
2EE
100
AcDbEntity
  8
0
100
AcDbLine
 62
7
  6
CONTINUOUS
 10
7.4913382167
 20
11.5768641783
 11
7.4332382624
 21
11.6349641326
  0
LINE
  5
2EF
100
AcDbEntity
  8
0
100
AcDbLine
 62
7
  6
CONTINUOUS
 10
7.1545948452
 20
11.9136075498
 11
7.0964948909
 21
11.9717075041
  0
LINE
  5
2F0
100
AcDbEntity
  8
0
100
AcDbLine
 62
7
  6
CONTINUOUS
 10
6.840799978
 20
12.227402417
 11
6.7827000237
 21
12.2855023713
  0
LINE
  5
2F1
100
AcDbEntity
  8
0
100
AcDbLine
 62
7
  6
CONTINUOUS
 10
6.5713382167
 20
12.4968641783
 11
6.5132382624
 21
12.5549641326
  0
LINE
  5
2F2
100
AcDbEntity
  8
0
100
AcDbLine
 62
7
  6
CONTINUOUS
 10
6.364572935
 20
12.70362946
 11
6.3064729807
 21
12.7617294143
  0
LINE
  5
2F3
100
AcDbEntity
  8
0
100
AcDbLine
 62
7
  6
CONTINUOUS
 10
6.2345948452
 20
12.8336075498
 11
6.132161785
 21
12.93604061
  0
LINE
  5
2F4
100
AcDbEntity
  8
0
100
AcDbLine
 62
7
  6
CONTINUOUS
 10
6.6440779467
 20
12.4327877525
 11
6.7785504155
 21
12.2983152838
  0
LINE
  5
2F5
100
AcDbEntity
  8
0
100
AcDbLine
 62
7
  6
CONTINUOUS
 10
6.8666901528
 20
12.2101755465
 11
7.0848120392
 21
11.99205366
  0
LINE
  5
2F6
100
AcDbEntity
  8
0
100
AcDbLine
 62
7
  6
CONTINUOUS
 10
7.1674077577
 20
11.9094579415
 11
7.4258131545
 21
11.6510525447
  0
LINE
  5
2F7
100
AcDbEntity
  8
0
100
AcDbLine
 62
7
  6
CONTINUOUS
 10
7.5074266288
 20
11.5694390704
 11
7.7658320256
 21
11.3110336736
  0
LINE
  5
2F8
100
AcDbEntity
  8
0
100
AcDbLine
 62
7
  6
CONTINUOUS
 10
7.8484277441
 20
11.2284379551
 11
8.0665496306
 21
11.0103160687
  0
LINE
  5
2F9
100
AcDbEntity
  8
0
100
AcDbLine
 62
7
  6
CONTINUOUS
 10
8.1546893679
 20
10.9221763314
 11
8.2891618366
 21
10.7877038626
  0
LINE
  5
2FA
100
AcDbEntity
  8
0
100
AcDbLine
 62
9
  6
CONTINUOUS
 10
6.6451696572
 20
12.433879463
 11
6.7788805334
 21
12.3001685869
  0
LINE
  5
2FB
100
AcDbEntity
  8
0
100
AcDbLine
 62
9
  6
CONTINUOUS
 10
7.1692610608
 20
11.9097880594
 11
7.4266546055
 21
11.6523945147
  0
LINE
  5
2FC
100
AcDbEntity
  8
0
100
AcDbLine
 62
9
  6
CONTINUOUS
 10
7.5087685988
 20
11.5702805214
 11
7.7661621435
 21
11.3128869767
  0
LINE
  5
2FD
100
AcDbEntity
  8
0
100
AcDbLine
 62
9
  6
CONTINUOUS
 10
8.156542671
 20
10.9225064493
 11
8.2902535471
 21
10.7887955731
  0
LINE
  5
2FE
100
AcDbEntity
  8
0
100
AcDbLine
 62
9
  6
CONTINUOUS
 10
8.8128049245
 20
10.2750241395
 11
8.6892180725
 21
10.3986109915
  0
LINE
  5
2FF
100
AcDbEntity
  8
0
100
AcDbLine
 62
9
  6
CONTINUOUS
 10
8.6384937288
 20
10.4493353352
 11
8.5592399827
 21
10.5285890813
  0
LINE
  5
300
100
AcDbEntity
  8
0
100
AcDbLine
 62
9
  6
CONTINUOUS
 10
8.4317284471
 20
10.6561006169
 11
8.352474701
 21
10.735354363
  0
LINE
  5
301
100
AcDbEntity
  8
0
100
AcDbLine
 62
9
  6
CONTINUOUS
 10
8.1622666858
 20
10.9255623782
 11
8.0830129397
 21
11.0048161243
  0
LINE
  5
302
100
AcDbEntity
  8
0
100
AcDbLine
 62
9
  6
CONTINUOUS
 10
7.8484718186
 20
11.2393572454
 11
7.7692180725
 21
11.3186109915
  0
LINE
  5
303
100
AcDbEntity
  8
0
100
AcDbLine
 62
9
  6
CONTINUOUS
 10
7.5117284471
 20
11.5761006169
 11
7.432474701
 21
11.655354363
  0
LINE
  5
304
100
AcDbEntity
  8
0
100
AcDbLine
 62
9
  6
CONTINUOUS
 10
7.1749850756
 20
11.9128439884
 11
7.0957313295
 21
11.9920977345
  0
LINE
  5
305
100
AcDbEntity
  8
0
100
AcDbLine
 62
9
  6
CONTINUOUS
 10
6.8611902084
 20
12.2266388556
 11
6.7819364623
 21
12.3058926017
  0
LINE
  5
306
100
AcDbEntity
  8
0
100
AcDbLine
 62
9
  6
CONTINUOUS
 10
6.5917284471
 20
12.4961006169
 11
6.512474701
 21
12.575354363
  0
LINE
  5
307
100
AcDbEntity
  8
0
100
AcDbLine
 62
9
  6
CONTINUOUS
 10
6.3849631654
 20
12.7028658986
 11
6.3057094193
 21
12.7821196447
  0
LINE
  5
308
100
AcDbEntity
  8
0
100
AcDbLine
 62
9
  6
CONTINUOUS
 10
6.2549850756
 20
12.8328439884
 11
6.1313982236
 21
12.9564308404
  0
LINE
  5
309
100
AcDbEntity
  8
0
100
AcDbLine
 62
9
  6
CONTINUOUS
 10
8.5130277357
 20
10.5755630152
 11
8.4321092906
 21
10.6564814604
  0
LINE
  5
30A
100
AcDbEntity
  8
0
100
AcDbLine
 62
9
  6
CONTINUOUS
 10
8.3528555445
 20
10.7357352065
 11
8.1626475293
 21
10.9259432217
  0
LINE
  5
30B
100
AcDbEntity
  8
0
100
AcDbLine
 62
9
  6
CONTINUOUS
 10
8.0833937831
 20
11.0051969678
 11
7.848852662
 21
11.2397380889
  0
LINE
  5
30C
100
AcDbEntity
  8
0
100
AcDbLine
 62
9
  6
CONTINUOUS
 10
7.7695989159
 20
11.318991835
 11
7.5121092906
 21
11.5764814604
  0
LINE
  5
30D
100
AcDbEntity
  8
0
100
AcDbLine
 62
9
  6
CONTINUOUS
 10
7.4328555445
 20
11.6557352065
 11
7.1753659191
 21
11.9132248318
  0
LINE
  5
30E
100
AcDbEntity
  8
0
100
AcDbLine
 62
9
  6
CONTINUOUS
 10
7.096112173
 20
11.992478578
 11
6.8615710519
 21
12.2270196991
  0
LINE
  5
30F
100
AcDbEntity
  8
0
100
AcDbLine
 62
9
  6
CONTINUOUS
 10
6.7823173058
 20
12.3062734452
 11
6.5921092906
 21
12.4964814604
  0
LINE
  5
310
100
AcDbEntity
  8
0
100
AcDbLine
 62
9
  6
CONTINUOUS
 10
6.514154143
 20
12.5744366079
 11
6.4319370993
 21
12.6566536517
  0
LINE
  5
311
100
AcDbEntity
  8
0
100
AcDbLine
 62
7
  6
CONTINUOUS
 10
6.2768855882
 20
12.8373762996
 11
6.3179346003
 21
12.7963272875
  0
LINE
  5
312
100
AcDbEntity
  8
0
100
AcDbLine
 62
7
  6
CONTINUOUS
 10
6.3991708082
 20
12.7150910796
 11
6.524699882
 21
12.5895620058
  0
LINE
  5
313
100
AcDbEntity
  8
0
100
AcDbLine
 62
7
  6
CONTINUOUS
 10
6.6061424539
 20
12.5081194339
 11
6.7941616433
 21
12.3201002445
  0
LINE
  5
314
100
AcDbEntity
  8
0
100
AcDbLine
 62
7
  6
CONTINUOUS
 10
6.8756520411
 20
12.2386098466
 11
7.1079565105
 21
12.0063053773
  0
LINE
  5
315
100
AcDbEntity
  8
0
100
AcDbLine
 62
7
  6
CONTINUOUS
 10
7.1891927184
 20
11.9250691694
 11
7.444699882
 21
11.6695620058
  0
LINE
  5
316
100
AcDbEntity
  8
0
100
AcDbLine
 62
7
  6
CONTINUOUS
 10
7.5259360899
 20
11.5883257979
 11
7.7811332254
 21
11.3331286623
  0
LINE
  5
317
100
AcDbEntity
  8
0
100
AcDbLine
 62
7
  6
CONTINUOUS
 10
7.8626794614
 20
11.2515824264
 11
8.0949839307
 21
11.019277957
  0
LINE
  5
318
100
AcDbEntity
  8
0
100
AcDbLine
 62
7
  6
CONTINUOUS
 10
8.1764743286
 20
10.9377875592
 11
8.364493518
 21
10.7497683698
  0
LINE
  5
319
100
AcDbEntity
  8
0
100
AcDbLine
 62
7
  6
CONTINUOUS
 10
8.4459360899
 20
10.6683257979
 11
8.5714651637
 21
10.5427967241
  0
LINE
  5
31A
100
AcDbEntity
  8
0
100
AcDbLine
 62
7
  6
CONTINUOUS
 10
8.6527013716
 20
10.4615605162
 11
8.6937503837
 21
10.4205115041
  0
LINE
  5
31B
100
AcDbEntity
  8
0
100
AcDbLine
 62
7
  6
CONTINUOUS
 10
9.1124262641
 20
10.0052736055
 11
9.0543263098
 21
10.0633735598
  0
LINE
  5
31C
100
AcDbEntity
  8
0
100
AcDbLine
 62
7
  6
CONTINUOUS
 10
9.0426585762
 20
10.0750412935
 11
8.9845586219
 21
10.1331412478
  0
LINE
  5
31D
100
AcDbEntity
  8
0
100
AcDbLine
 62
7
  6
CONTINUOUS
 10
8.906172383
 20
10.2115274866
 11
8.8480724288
 21
10.2696274409
  0
LINE
  5
31E
100
AcDbEntity
  8
0
100
AcDbLine
 62
7
  6
CONTINUOUS
 10
8.7089327863
 20
10.4087670833
 11
8.650832832
 21
10.4668670376
  0
LINE
  5
31F
100
AcDbEntity
  8
0
100
AcDbLine
 62
7
  6
CONTINUOUS
 10
8.4595601028
 20
10.6581397669
 11
8.4014601485
 21
10.7162397212
  0
LINE
  5
320
100
AcDbEntity
  8
0
100
AcDbLine
 62
7
  6
CONTINUOUS
 10
8.1689531153
 20
10.9487467543
 11
8.1108531611
 21
11.0068467086
  0
LINE
  5
321
100
AcDbEntity
  8
0
100
AcDbLine
 62
7
  6
CONTINUOUS
 10
7.8498127439
 20
11.2678871258
 11
7.7917127896
 21
11.32598708
  0
LINE
  5
322
100
AcDbEntity
  8
0
100
AcDbLine
 62
7
  6
CONTINUOUS
 10
7.516086954
 20
11.6016129156
 11
7.4579869997
 21
11.6597128699
  0
LINE
  5
323
100
AcDbEntity
  8
0
100
AcDbLine
 62
7
  6
CONTINUOUS
 10
7.1823611641
 20
11.9353387055
 11
7.1242612099
 21
11.9934386598
  0
LINE
  5
324
100
AcDbEntity
  8
0
100
AcDbLine
 62
7
  6
CONTINUOUS
 10
6.8632207927
 20
12.254479077
 11
6.8051208384
 21
12.3125790313
  0
LINE
  5
325
100
AcDbEntity
  8
0
100
AcDbLine
 62
7
  6
CONTINUOUS
 10
6.5726138053
 20
12.5450860644
 11
6.514513851
 21
12.6031860187
  0
LINE
  5
326
100
AcDbEntity
  8
0
100
AcDbLine
 62
7
  6
CONTINUOUS
 10
6.3232411217
 20
12.7944587479
 11
6.2651411674
 21
12.8525587022
  0
LINE
  5
327
100
AcDbEntity
  8
0
100
AcDbLine
 62
7
  6
CONTINUOUS
 10
6.126001525
 20
12.9916983447
 11
6.0679015707
 21
13.0497982989
  0
LINE
  5
328
100
AcDbEntity
  8
0
100
AcDbLine
 62
7
  6
CONTINUOUS
 10
5.9895153319
 20
13.1281845378
 11
5.9314153776
 21
13.1862844921
  0
LINE
  5
329
100
AcDbEntity
  8
0
100
AcDbLine
 62
7
  6
CONTINUOUS
 10
5.9197476439
 20
13.1979522257
 11
5.8616476896
 21
13.25605218
  0
LINE
  5
32A
100
AcDbEntity
  8
0
100
AcDbLine
 62
9
  6
CONTINUOUS
 10
6.4012313621
 20
12.7168121475
 11
6.513083786
 21
12.6049597236
  0
LINE
  5
32B
100
AcDbEntity
  8
0
100
AcDbLine
 62
9
  6
CONTINUOUS
 10
6.6080332649
 20
12.5100102448
 11
6.7959106434
 21
12.3221328662
  0
LINE
  5
32C
100
AcDbEntity
  8
0
100
AcDbLine
 62
9
  6
CONTINUOUS
 10
6.8775428521
 20
12.2405006576
 11
7.1097055106
 21
12.008337999
  0
LINE
  5
32D
100
AcDbEntity
  8
0
100
AcDbLine
 62
9
  6
CONTINUOUS
 10
7.1913935574
 20
11.9266499523
 11
7.4464488821
 21
11.6715946275
  0
LINE
  5
32E
100
AcDbEntity
  8
0
100
AcDbLine
 62
9
  6
CONTINUOUS
 10
7.5279687116
 20
11.590074798
 11
7.7830240364
 21
11.3350194733
  0
LINE
  5
32F
100
AcDbEntity
  8
0
100
AcDbLine
 62
9
  6
CONTINUOUS
 10
7.8647120831
 20
11.2533314265
 11
8.0968747417
 21
11.021168768
  0
LINE
  5
330
100
AcDbEntity
  8
0
100
AcDbLine
 62
9
  6
CONTINUOUS
 10
8.1785069503
 20
10.9395365593
 11
8.3663843289
 21
10.7516591808
  0
LINE
  5
331
100
AcDbEntity
  8
0
100
AcDbLine
 62
9
  6
CONTINUOUS
 10
8.4613338077
 20
10.6567097019
 11
8.5731862316
 21
10.544857278
  0
LINE
  5
332
100
AcDbEntity
  8
0
100
AcDbLine
 62
9
  6
CONTINUOUS
 10
8.8367724318
 20
10.2937558934
 11
8.725025045
 21
10.4055032801
  0
LINE
  5
333
100
AcDbEntity
  8
0
100
AcDbLine
 62
9
  6
CONTINUOUS
 10
8.6466701638
 20
10.4838581613
 11
8.4756523615
 21
10.6548759636
  0
LINE
  5
334
100
AcDbEntity
  8
0
100
AcDbLine
 62
9
  6
CONTINUOUS
 10
8.3981963452
 20
10.7323319799
 11
8.1850942723
 21
10.9454340529
  0
LINE
  5
335
100
AcDbEntity
  8
0
100
AcDbLine
 62
9
  6
CONTINUOUS
 10
8.1075893578
 20
11.0229389673
 11
7.8659050026
 21
11.2646233225
  0
LINE
  5
336
100
AcDbEntity
  8
0
100
AcDbLine
 62
9
  6
CONTINUOUS
 10
7.7884489864
 20
11.3420793388
 11
7.5321792128
 21
11.5983491124
  0
LINE
  5
337
100
AcDbEntity
  8
0
100
AcDbLine
 62
9
  6
CONTINUOUS
 10
7.4547231965
 20
11.6758051287
 11
7.1984534229
 21
11.9320749023
  0
LINE
  5
338
100
AcDbEntity
  8
0
100
AcDbLine
 62
9
  6
CONTINUOUS
 10
7.1209974066
 20
12.0095309185
 11
6.8793130514
 21
12.2512152737
  0
LINE
  5
339
100
AcDbEntity
  8
0
100
AcDbLine
 62
9
  6
CONTINUOUS
 10
6.801808137
 20
12.3287201882
 11
6.588706064
 21
12.5418222611
  0
LINE
  5
33A
100
AcDbEntity
  8
0
100
AcDbLine
 62
9
  6
CONTINUOUS
 10
6.5112500477
 20
12.6192782774
 11
6.3402322454
 21
12.7902960797
  0
LINE
  5
33B
100
AcDbEntity
  8
0
100
AcDbLine
 62
9
  6
CONTINUOUS
 10
6.2618773642
 20
12.8686509609
 11
6.1501299775
 21
12.9803983477
  0
LINE
  5
33C
100
AcDbEntity
  8
0
100
AcDbLine
 62
9
  6
CONTINUOUS
 10
9.1328164945
 20
10.0045100441
 11
8.9837950605
 21
10.1535314782
  0
LINE
  5
33D
100
AcDbEntity
  8
0
100
AcDbLine
 62
9
  6
CONTINUOUS
 10
8.9265626135
 20
10.2107639252
 11
8.8473088674
 21
10.2900176713
  0
LINE
  5
33E
100
AcDbEntity
  8
0
100
AcDbLine
 62
9
  6
CONTINUOUS
 10
8.7293230167
 20
10.408003522
 11
8.6500692706
 21
10.4872572681
  0
LINE
  5
33F
100
AcDbEntity
  8
0
100
AcDbLine
 62
9
  6
CONTINUOUS
 10
8.4799503332
 20
10.6573762055
 11
8.4006965871
 21
10.7366299516
  0
LINE
  5
340
100
AcDbEntity
  8
0
100
AcDbLine
 62
9
  6
CONTINUOUS
 10
8.1893433458
 20
10.9479831929
 11
8.1100895997
 21
11.027236939
  0
LINE
  5
341
100
AcDbEntity
  8
0
100
AcDbLine
 62
9
  6
CONTINUOUS
 10
7.8702029743
 20
11.2671235644
 11
7.7909492282
 21
11.3463773105
  0
LINE
  5
342
100
AcDbEntity
  8
0
100
AcDbLine
 62
9
  6
CONTINUOUS
 10
7.5364771844
 20
11.6008493542
 11
7.4572234383
 21
11.6801031003
  0
LINE
  5
343
100
AcDbEntity
  8
0
100
AcDbLine
 62
9
  6
CONTINUOUS
 10
7.2027513946
 20
11.9345751441
 11
7.1234976485
 21
12.0138288902
  0
LINE
  5
344
100
AcDbEntity
  8
0
100
AcDbLine
 62
9
  6
CONTINUOUS
 10
6.8836110231
 20
12.2537155156
 11
6.804357277
 21
12.3329692617
  0
LINE
  5
345
100
AcDbEntity
  8
0
100
AcDbLine
 62
9
  6
CONTINUOUS
 10
6.5930040357
 20
12.544322503
 11
6.5137502896
 21
12.6235762491
  0
LINE
  5
346
100
AcDbEntity
  8
0
100
AcDbLine
 62
9
  6
CONTINUOUS
 10
6.3436313522
 20
12.7936951865
 11
6.2643776061
 21
12.8729489326
  0
LINE
  5
347
100
AcDbEntity
  8
0
100
AcDbLine
 62
9
  6
CONTINUOUS
 10
6.1463917554
 20
12.9909347833
 11
6.0671380093
 21
13.0701885294
  0
LINE
  5
348
100
AcDbEntity
  8
0
100
AcDbLine
 62
9
  6
CONTINUOUS
 10
6.0099055623
 20
13.1274209764
 11
5.8608841282
 21
13.2764424104
  0
LINE
  5
349
100
AcDbEntity
  8
0
100
AcDbLine
 62
9
  6
CONTINUOUS
 10
8.9490877588
 20
10.2105650778
 11
8.9385629986
 21
10.221089838
  0
LINE
  5
34A
100
AcDbEntity
  8
0
100
AcDbLine
 62
9
  6
CONTINUOUS
 10
8.8572869108
 20
10.3023659257
 11
8.7413234018
 21
10.4183294347
  0
LINE
  5
34B
100
AcDbEntity
  8
0
100
AcDbLine
 62
9
  6
CONTINUOUS
 10
8.6603951834
 20
10.4992576532
 11
8.4919507183
 21
10.6677021182
  0
LINE
  5
34C
100
AcDbEntity
  8
0
100
AcDbLine
 62
9
  6
CONTINUOUS
 10
8.4110224999
 20
10.7486303367
 11
8.2013437309
 21
10.9583091057
  0
LINE
  5
34D
100
AcDbEntity
  8
0
100
AcDbLine
 62
9
  6
CONTINUOUS
 10
8.1204155124
 20
11.0392373241
 11
7.8822033594
 21
11.2774494771
  0
LINE
  5
34E
100
AcDbEntity
  8
0
100
AcDbLine
 62
9
  6
CONTINUOUS
 10
7.801275141
 20
11.3583776956
 11
7.5484775695
 21
11.611175267
  0
LINE
  5
34F
100
AcDbEntity
  8
0
100
AcDbLine
 62
9
  6
CONTINUOUS
 10
7.4675493511
 20
11.6921034854
 11
7.2147517797
 21
11.9449010569
  0
LINE
  5
350
100
AcDbEntity
  8
0
100
AcDbLine
 62
9
  6
CONTINUOUS
 10
7.1338235612
 20
12.0258292753
 11
6.8956114082
 21
12.2640414283
  0
LINE
  5
351
100
AcDbEntity
  8
0
100
AcDbLine
 62
9
  6
CONTINUOUS
 10
6.8146831898
 20
12.3449696468
 11
6.6050044208
 21
12.5546484158
  0
LINE
  5
352
100
AcDbEntity
  8
0
100
AcDbLine
 62
9
  6
CONTINUOUS
 10
6.5240762023
 20
12.6355766342
 11
6.3556317373
 21
12.8040210993
  0
LINE
  5
353
100
AcDbEntity
  8
0
100
AcDbLine
 62
9
  6
CONTINUOUS
 10
6.2747035188
 20
12.8849493177
 11
6.1587400098
 21
13.0009128267
  0
LINE
  5
354
100
AcDbEntity
  8
0
100
AcDbLine
 62
9
  6
CONTINUOUS
 10
6.0774639221
 20
13.0821889145
 11
6.0669391619
 21
13.0927136747
  0
LINE
  5
355
100
AcDbEntity
  8
0
100
AcDbLine
 62
7
  6
CONTINUOUS
 10
6.023118714
 20
13.1387904325
 11
6.0785074655
 21
13.0834016811
  0
LINE
  5
356
100
AcDbEntity
  8
0
100
AcDbLine
 62
7
  6
CONTINUOUS
 10
6.1598681648
 20
13.0020409817
 11
6.2757470622
 21
12.8861620844
  0
LINE
  5
357
100
AcDbEntity
  8
0
100
AcDbLine
 62
7
  6
CONTINUOUS
 10
6.3571427255
 20
12.8047664211
 11
6.5251197457
 21
12.6367894008
  0
LINE
  5
358
100
AcDbEntity
  8
0
100
AcDbLine
 62
7
  6
CONTINUOUS
 10
6.6062171874
 20
12.5556919591
 11
6.8157267331
 21
12.3461824134
  0
LINE
  5
359
100
AcDbEntity
  8
0
100
AcDbLine
 62
7
  6
CONTINUOUS
 10
6.8968241748
 20
12.2650849717
 11
7.1348671046
 21
12.027042042
  0
LINE
  5
35A
100
AcDbEntity
  8
0
100
AcDbLine
 62
7
  6
CONTINUOUS
 10
7.2159645463
 20
11.9459446003
 11
7.4685928945
 21
11.6933162521
  0
LINE
  5
35B
100
AcDbEntity
  8
0
100
AcDbLine
 62
7
  6
CONTINUOUS
 10
7.5496903362
 20
11.6122188104
 11
7.8023186844
 21
11.3595904622
  0
LINE
  5
35C
100
AcDbEntity
  8
0
100
AcDbLine
 62
7
  6
CONTINUOUS
 10
7.8834161261
 20
11.2784930205
 11
8.1214590558
 21
11.0404500908
  0
LINE
  5
35D
100
AcDbEntity
  8
0
100
AcDbLine
 62
7
  6
CONTINUOUS
 10
8.2025564975
 20
10.959352649
 11
8.4117235291
 21
10.7501856175
  0
LINE
  5
35E
100
AcDbEntity
  8
0
100
AcDbLine
 62
7
  6
CONTINUOUS
 10
8.4931634849
 20
10.6687456616
 11
8.6611405052
 21
10.5007686414
  0
LINE
  5
35F
100
AcDbEntity
  8
0
100
AcDbLine
 62
7
  6
CONTINUOUS
 10
8.7425361685
 20
10.4193729781
 11
8.8584150658
 21
10.3034940807
  0
LINE
  5
360
100
AcDbEntity
  8
0
100
AcDbLine
 62
7
  6
CONTINUOUS
 10
8.9397757652
 20
10.2221333814
 11
8.9949254178
 21
10.1669837288
  0
LINE
  5
361
100
AcDbEntity
  8
0
100
AcDbLine
 62
9
  6
CONTINUOUS
 10
6.0262667743
 20
13.1414602951
 11
6.0811982547
 21
13.0865288146
  0
LINE
  5
362
100
AcDbEntity
  8
0
100
AcDbLine
 62
9
  6
CONTINUOUS
 10
6.1627771262
 20
13.0049499431
 11
6.2784378515
 21
12.8892892178
  0
LINE
  5
363
100
AcDbEntity
  8
0
100
AcDbLine
 62
9
  6
CONTINUOUS
 10
6.3600516869
 20
12.8076753824
 11
6.527810535
 21
12.6399165343
  0
LINE
  5
364
100
AcDbEntity
  8
0
100
AcDbLine
 62
9
  6
CONTINUOUS
 10
6.609468663
 20
12.5582584063
 11
6.8184175224
 21
12.3493095469
  0
LINE
  5
365
100
AcDbEntity
  8
0
100
AcDbLine
 62
9
  6
CONTINUOUS
 10
6.9001273901
 20
12.2675996792
 11
7.1375578939
 21
12.0301691754
  0
LINE
  5
366
100
AcDbEntity
  8
0
100
AcDbLine
 62
9
  6
CONTINUOUS
 10
7.2190916798
 20
11.9486353895
 11
7.4712836838
 21
11.6964433856
  0
LINE
  5
367
100
AcDbEntity
  8
0
100
AcDbLine
 62
9
  6
CONTINUOUS
 10
7.5528174697
 20
11.6149095997
 11
7.8050094736
 21
11.3627175957
  0
LINE
  5
368
100
AcDbEntity
  8
0
100
AcDbLine
 62
9
  6
CONTINUOUS
 10
7.8865432595
 20
11.2811838098
 11
8.1239737633
 21
11.043753306
  0
LINE
  5
369
100
AcDbEntity
  8
0
100
AcDbLine
 62
9
  6
CONTINUOUS
 10
8.205683631
 20
10.9620434383
 11
8.4146324904
 21
10.7530945789
  0
LINE
  5
36A
100
AcDbEntity
  8
0
100
AcDbLine
 62
9
  6
CONTINUOUS
 10
8.4962906184
 20
10.6714364509
 11
8.6640494665
 21
10.5036776028
  0
LINE
  5
36B
100
AcDbEntity
  8
0
100
AcDbLine
 62
9
  6
CONTINUOUS
 10
8.7456633019
 20
10.4220637674
 11
8.8613240272
 21
10.3064030421
  0
LINE
  5
36C
100
AcDbEntity
  8
0
100
AcDbLine
 62
9
  6
CONTINUOUS
 10
8.9429028987
 20
10.2248241706
 11
8.9978343792
 21
10.1698926902
  0
LINE
  5
36D
100
AcDbEntity
  8
0
100
AcDbLine
 62
7
  6
CONTINUOUS
 10
5.6570939458
 20
13.5427309975
 11
9.3991050816
 21
9.8007198617
  0
LINE
  5
36E
100
AcDbEntity
  8
0
100
AcDbLine
 62
9
  6
CONTINUOUS
 10
9.4071315813
 20
9.7972497735
 11
5.6536238576
 21
13.5507574972
  0
LINE
  5
36F
100
AcDbEntity
  8
0
100
AcDbLine
 62
9
  6
CONTINUOUS
 10
9.7259772828
 20
9.7118153253
 11
5.5681894094
 21
13.8696031987
  0
LINE
  5
370
100
AcDbEntity
  8
0
100
AcDbLine
 62
9
  6
CONTINUOUS
 10
9.7549550576
 20
9.7195798967
 11
5.5759539808
 21
13.8985809735
  0
LINE
  5
371
100
AcDbEntity
  8
0
100
AcDbLine
 62
7
  6
CONTINUOUS
 10
9.3141756287
 20
14.0316723899
 11
9.3227170863
 21
13.9997274688
  0
LINE
  5
372
100
AcDbEntity
  8
0
100
AcDbLine
 62
7
  6
CONTINUOUS
 10
9.3639931965
 20
14.0814835187
 11
9.3720286708
 21
14.0514306246
  0
LINE
  5
373
100
AcDbEntity
  8
0
100
AcDbLine
 62
7
  6
CONTINUOUS
 10
9.4136524215
 20
14.1311469562
 11
9.4210681965
 21
14.1034124533
  0
LINE
  5
374
100
AcDbEntity
  8
0
100
AcDbLine
 62
7
  6
CONTINUOUS
 10
9.4071315813
 20
9.7972497735
 11
9.7259772828
 21
9.7118153253
  0
LINE
  5
375
100
AcDbEntity
  8
0
100
AcDbLine
 62
7
  6
CONTINUOUS
 10
9.4634399154
 20
14.1809367989
 11
9.4703292613
 21
14.1551715478
  0
LINE
  5
376
100
AcDbEntity
  8
0
100
AcDbLine
 62
7
  6
CONTINUOUS
 10
9.8779606678
 20
13.4477567819
 11
9.8697117628
 21
13.4786115042
  0
LINE
  5
377
100
AcDbEntity
  8
0
100
AcDbLine
 62
7
  6
CONTINUOUS
 10
9.9292261443
 20
13.4990273953
 11
9.9215309393
 21
13.5278111854
  0
LINE
  5
378
100
AcDbEntity
  8
0
100
AcDbLine
 62
7
  6
CONTINUOUS
 10
9.9804757448
 20
13.550270565
 11
9.9733206574
 21
13.5770332172
  0
LINE
  5
379
100
AcDbEntity
  8
0
100
AcDbLine
 62
7
  6
CONTINUOUS
 10
10.031748489
 20
13.6015445069
 11
10.0251517415
 21
13.626218592
  0
LINE
  5
37A
100
AcDbEntity
  8
0
100
AcDbLine
 62
9
  6
CONTINUOUS
 10
10.3762752848
 20
10.3409001239
 11
6.197274208
 21
14.5199012007
  0
LINE
  5
37B
100
AcDbEntity
  8
0
100
AcDbLine
 62
7
  6
CONTINUOUS
 10
6.2397006149
 20
14.5199012007
 11
10.3762752848
 21
10.3833265308
  0
LINE
  5
37C
100
AcDbEntity
  8
0
100
AcDbLine
 62
9
  6
CONTINUOUS
 10
7.2968252527
 20
13.5052029697
 11
9.3615770538
 21
11.4404511686
  0
LINE
  5
37D
100
AcDbEntity
  8
0
100
AcDbLine
 62
9
  6
CONTINUOUS
 10
9.5249187202
 20
11.6037928351
 11
7.4601669192
 21
13.6685446362
  0
LINE
  5
37E
100
AcDbEntity
  8
0
100
AcDbLine
 62
7
  6
CONTINUOUS
 10
7.5025933261
 20
13.6685446362
 11
9.5249187202
 21
11.646219242
  0
LINE
  5
37F
100
AcDbEntity
  8
0
100
AcDbLine
 62
9
  6
CONTINUOUS
 10
8.0399944798
 20
13.1735698893
 11
9.0299439734
 21
12.1836203957
  0
LINE
  5
380
100
AcDbEntity
  8
0
100
AcDbLine
 62
9
  6
CONTINUOUS
 10
9.1600516212
 20
12.3137280434
 11
8.1701021275
 21
13.3036775371
  0
LINE
  5
381
100
AcDbEntity
  8
0
100
AcDbLine
 62
7
  6
CONTINUOUS
 10
8.1983863987
 20
13.3036775371
 11
9.1600516212
 21
12.3420123146
  0
LINE
  5
382
100
AcDbEntity
  8
0
100
AcDbLine
 62
9
  6
CONTINUOUS
 10
8.1983863987
 20
13.3319618083
 11
9.1883358924
 21
12.3420123146
  0
LINE
  5
383
100
AcDbEntity
  8
0
100
AcDbLine
 62
9
  6
CONTINUOUS
 10
12.1027997941
 20
14.804641804
 11
12.1027997941
 21
15.617141804
  0
LINE
  5
384
100
AcDbEntity
  8
0
100
AcDbLine
 62
7
  6
CONTINUOUS
 10
12.4927997941
 20
1.613891804
 11
12.4927997941
 21
5.203891804
  0
LINE
  5
385
100
AcDbEntity
  8
0
100
AcDbLine
 62
9
  6
CONTINUOUS
 10
12.5227997941
 20
1.583891804
 11
12.5227997941
 21
5.233891804
  0
LINE
  5
386
100
AcDbEntity
  8
0
100
AcDbLine
 62
7
  6
CONTINUOUS
 10
9.0107160579
 20
12.7869185124
 11
8.6432925965
 21
13.1543419738
  0
LINE
  5
387
100
AcDbEntity
  8
0
100
AcDbLine
 62
7
  6
CONTINUOUS
 10
9.5694664475
 20
12.7231428697
 11
8.5795169538
 21
13.7130923634
  0
LINE
  5
388
100
AcDbEntity
  8
0
100
AcDbLine
 62
9
  6
CONTINUOUS
 10
12.9127997941
 20
5.233891804
 11
12.9127997941
 21
4.6903107873
  0
LINE
  5
389
100
AcDbEntity
  8
0
100
AcDbLine
 62
9
  6
CONTINUOUS
 10
12.9127997941
 20
4.4774728208
 11
12.9127997941
 21
1.583891804
  0
LINE
  5
38A
100
AcDbEntity
  8
0
100
AcDbLine
 62
7
  6
CONTINUOUS
 10
12.9427997941
 20
5.203891804
 11
12.9427997941
 21
4.6903107871
  0
LINE
  5
38B
100
AcDbEntity
  8
0
100
AcDbLine
 62
7
  6
CONTINUOUS
 10
12.9427997941
 20
4.4774728194
 11
12.9427997941
 21
1.613891804
  0
LINE
  5
38C
100
AcDbEntity
  8
0
100
AcDbLine
 62
9
  6
CONTINUOUS
 10
13.0027997941
 20
4.908891804
 11
13.0027997941
 21
4.258891804
  0
LINE
  5
38D
100
AcDbEntity
  8
0
100
AcDbLine
 62
9
  6
CONTINUOUS
 10
9.3885442976
 20
13.0433908028
 11
8.8997648869
 21
13.5321702135
  0
LINE
  5
38E
100
AcDbEntity
  8
0
100
AcDbLine
 62
9
  6
CONTINUOUS
 10
9.4685442895
 20
13.1234268829
 11
8.979800967
 21
13.6121702054
  0
LINE
  5
38F
100
AcDbEntity
  8
0
100
AcDbLine
 62
9
  6
CONTINUOUS
 10
8.979800967
 20
13.6854863702
 11
9.5418604542
 21
13.1234268829
  0
LINE
  5
390
100
AcDbEntity
  8
0
100
AcDbLine
 62
9
  6
CONTINUOUS
 10
9.0472392608
 20
13.8060480763
 11
9.6624221604
 21
13.1908651767
  0
LINE
  5
391
100
AcDbEntity
  8
0
100
AcDbLine
 62
7
  6
CONTINUOUS
 10
13.4927997941
 20
4.908891804
 11
13.4927997941
 21
4.258891804
  0
LINE
  5
392
100
AcDbEntity
  8
0
100
AcDbLine
 62
7
  6
CONTINUOUS
 10
13.5227997941
 20
3.943891804
 11
13.5227997941
 21
5.223891804
  0
LINE
  5
393
100
AcDbEntity
  8
0
100
AcDbLine
 62
9
  6
CONTINUOUS
 10
13.5527997941
 20
3.913891804
 11
13.5527997941
 21
5.253891804
  0
LINE
  5
394
100
AcDbEntity
  8
0
100
AcDbLine
 62
7
  6
CONTINUOUS
 10
9.9025753164
 20
13.4062695954
 11
9.2626436795
 21
14.0462012324
  0
LINE
  5
395
100
AcDbEntity
  8
0
100
AcDbLine
 62
9
  6
CONTINUOUS
 10
10.622294971
 20
14.1913966272
 11
10.0477707113
 21
14.7659208869
  0
LINE
  5
396
100
AcDbEntity
  8
0
100
AcDbLine
 62
7
  6
CONTINUOUS
 10
9.4685442895
 20
13.1234268829
 11
9.5418604542
 21
13.1234268829
  0
LINE
  5
397
100
AcDbEntity
  8
0
100
AcDbLine
 62
7
  6
CONTINUOUS
 10
9.8813129227
 20
13.4911178566
 11
9.912913564
 21
13.482668424
  0
LINE
  5
398
100
AcDbEntity
  8
0
100
AcDbLine
 62
7
  6
CONTINUOUS
 10
9.9331372288
 20
13.540318162
 11
9.962671491
 21
13.5324210235
  0
LINE
  5
399
100
AcDbEntity
  8
0
100
AcDbLine
 62
7
  6
CONTINUOUS
 10
9.9849316456
 20
13.5895407453
 11
10.0124314871
 21
13.5821876729
  0
LINE
  5
39A
100
AcDbEntity
  8
0
100
AcDbLine
 62
7
  6
CONTINUOUS
 10
15.1927997941
 20
3.563891804
 11
15.1927997941
 21
5.603891804
  0
LINE
  5
39B
100
AcDbEntity
  8
0
100
AcDbLine
 62
9
  6
CONTINUOUS
 10
15.2227997941
 20
3.533891804
 11
15.2227997941
 21
5.633891804
  0
LINE
  5
39C
100
AcDbEntity
  8
0
100
AcDbLine
 62
7
  6
CONTINUOUS
 10
15.5027997941
 20
14.025891804
 11
15.5027997941
 21
16.395891804
  0
LINE
  5
39D
100
AcDbEntity
  8
0
100
AcDbLine
 62
7
  6
CONTINUOUS
 10
15.5427997941
 20
1.863891804
 11
15.5427997941
 21
7.303891804
  0
LINE
  5
39E
100
AcDbEntity
  8
0
100
AcDbLine
 62
9
  6
CONTINUOUS
 10
15.5427997941
 20
13.985891804
 11
15.5427997941
 21
16.435891804
  0
LINE
  5
39F
100
AcDbEntity
  8
0
100
AcDbLine
 62
9
  6
CONTINUOUS
 10
15.5727997941
 20
1.833891804
 11
15.5727997941
 21
7.333891804
  0
LINE
  5
3A0
100
AcDbEntity
  8
0
100
AcDbLine
 62
7
  6
CONTINUOUS
 10
9.912913564
 20
13.482668424
 11
9.9136176499
 21
13.4827193061
  0
LINE
  5
3A1
100
AcDbEntity
  8
0
100
AcDbLine
 62
7
  6
CONTINUOUS
 10
9.9626714929
 20
13.5324210254
 11
9.9633698567
 21
13.5324715129
  0
LINE
  5
3A2
100
AcDbEntity
  8
0
100
AcDbLine
 62
7
  6
CONTINUOUS
 10
10.0124314871
 20
13.5821876729
 11
10.0131369983
 21
13.5822386544
  0
LINE
  5
3A3
100
AcDbEntity
  8
0
100
AcDbLine
 62
7
  6
CONTINUOUS
 10
10.0621774676
 20
13.6319324095
 11
10.0628816431
 21
13.6319832993
  0
LINE
  5
3A4
100
AcDbEntity
  8
0
100
AcDbLine
 62
7
  6
CONTINUOUS
 10
9.8265613375
 20
13.3302556164
 11
9.8018126001
 21
13.3302556164
  0
LINE
  5
3A5
100
AcDbEntity
  8
0
100
AcDbLine
 62
7
  6
CONTINUOUS
 10
10.0367677128
 20
13.6387267188
 11
10.0621774675
 21
13.6319324095
  0
LINE
  5
3A6
100
AcDbEntity
  8
0
100
AcDbLine
 62
7
  6
CONTINUOUS
 10
9.3604258354
 20
14.0389241275
 11
9.3296820993
 21
14.0471435261
  0
LINE
  5
3A7
100
AcDbEntity
  8
0
100
AcDbLine
 62
7
  6
CONTINUOUS
 10
9.4094592902
 20
14.0909052325
 11
9.3810438769
 21
14.0985021657
  0
LINE
  5
3A8
100
AcDbEntity
  8
0
100
AcDbLine
 62
7
  6
CONTINUOUS
 10
9.4587156868
 20
14.142663771
 11
9.4322765735
 21
14.1497323512
  0
LINE
  5
3A9
100
AcDbEntity
  8
0
100
AcDbLine
 62
7
  6
CONTINUOUS
 10
15.8527997941
 20
1.833891804
 11
15.8527997941
 21
7.333891804
  0
LINE
  5
3AA
100
AcDbEntity
  8
0
100
AcDbLine
 62
7
  6
CONTINUOUS
 10
15.8527997941
 20
13.985891804
 11
15.8527997941
 21
16.435891804
  0
LINE
  5
3AB
100
AcDbEntity
  8
0
100
AcDbLine
 62
7
  6
CONTINUOUS
 10
9.3296821012
 20
14.047143528
 11
9.3289397589
 21
14.0470899345
  0
LINE
  5
3AC
100
AcDbEntity
  8
0
100
AcDbLine
 62
7
  6
CONTINUOUS
 10
9.3810438765
 20
14.0985021653
 11
9.3802980675
 21
14.0984482431
  0
LINE
  5
3AD
100
AcDbEntity
  8
0
100
AcDbLine
 62
7
  6
CONTINUOUS
 10
9.4322765736
 20
14.1497323512
 11
9.4315280622
 21
14.1496782379
  0
LINE
  5
3AE
100
AcDbEntity
  8
0
100
AcDbLine
 62
7
  6
CONTINUOUS
 10
15.5427997941
 20
13.985891804
 11
15.8527997941
 21
13.985891804
  0
LINE
  5
3AF
100
AcDbEntity
  8
0
100
AcDbLine
 62
9
  6
CONTINUOUS
 10
15.5027997941
 20
14.025891804
 11
15.8527997941
 21
14.025891804
  0
LINE
  5
3B0
100
AcDbEntity
  8
0
100
AcDbLine
 62
7
  6
CONTINUOUS
 10
15.5027997941
 20
14.804641804
 11
12.1027997941
 21
14.804641804
  0
LINE
  5
3B1
100
AcDbEntity
  8
0
100
AcDbLine
 62
7
  6
CONTINUOUS
 10
15.5027997941
 20
15.617141804
 11
12.1027997941
 21
15.617141804
  0
LINE
  5
3B2
100
AcDbEntity
  8
0
100
AcDbLine
 62
9
  6
CONTINUOUS
 10
15.5027997941
 20
16.395891804
 11
15.8527997941
 21
16.395891804
  0
LINE
  5
3B3
100
AcDbEntity
  8
0
100
AcDbLine
 62
7
  6
CONTINUOUS
 10
15.5427997941
 20
16.435891804
 11
15.8527997941
 21
16.435891804
  0
ARC
  5
3B4
100
AcDbEntity
  8
0
100
AcDbCircle
 62
7
  6
CONTINUOUS
 10
5.1200973449
 20
6.8981582242
 40
5.0045662476
100
AcDbArc
 50
48.2546480544
 51
48.6134643057
  0
ARC
  5
3B5
100
AcDbEntity
  8
0
100
AcDbCircle
 62
7
  6
CONTINUOUS
 10
6.2271261375
 20
6.5900366511
 40
4.5157998732
100
AcDbArc
 50
50.2831511704
 51
50.8041976693
  0
ARC
  5
3B6
100
AcDbEntity
  8
0
100
AcDbCircle
 62
7
  6
CONTINUOUS
 10
2.7545062521
 20
9.2637001012
 40
5.0046011085
100
AcDbArc
 50
41.3865448126
 51
41.7453511537
  0
ARC
  5
3B7
100
AcDbEntity
  8
0
100
AcDbCircle
 62
7
  6
CONTINUOUS
 10
2.4463901395
 20
10.3707350503
 40
4.5158265805
100
AcDbArc
 50
39.1958083952
 51
39.7168477953
  0
ARC
  5
3B8
100
AcDbEntity
  8
0
100
AcDbCircle
 62
7
  6
CONTINUOUS
 10
5.1996130431
 20
11.2051045452
 40
1.898298358
100
AcDbArc
 50
42.1180883584
 51
42.8449495589
  0
ARC
  5
3B9
100
AcDbEntity
  8
0
100
AcDbCircle
 62
7
  6
CONTINUOUS
 10
7.119806743
 20
9.4069341607
 40
1.8119332425
100
AcDbArc
 50
47.1377271849
 51
47.8992346702
  0
ARC
  5
3BA
100
AcDbEntity
  8
0
100
AcDbCircle
 62
7
  6
CONTINUOUS
 10
7.2129117393
 20
10.7105377391
 40
0.7856785431
100
AcDbArc
 50
46.9957941101
 51
47.341281756
  0
ARC
  5
3BB
100
AcDbEntity
  8
0
100
AcDbCircle
 62
7
  6
CONTINUOUS
 10
6.6357469413
 20
11.4203499402
 40
0.6918159293
100
AcDbArc
 50
42.635234494
 51
43.0276375878
  0
ARC
  5
3BC
100
AcDbEntity
  8
0
100
AcDbCircle
 62
7
  6
CONTINUOUS
 10
7.8460957653
 20
10.7243490443
 40
0.3643012092
100
AcDbArc
 50
49.8267237046
 51
50.4509918518
  0
ARC
  5
3BD
100
AcDbEntity
  8
0
100
AcDbCircle
 62
7
  6
CONTINUOUS
 10
7.7925647301
 20
11.2055340874
 40
0.0927700279
100
AcDbArc
 50
38.3157292137
 51
39.0422032556
  0
ARC
  5
3BE
100
AcDbEntity
  8
0
100
AcDbCircle
 62
7
  6
CONTINUOUS
 10
7.8049321132
 20
11.2152995054
 40
0.0770119977
100
AcDbArc
 50
37.7609482646
 51
38.3199709492
  0
ARC
  5
3BF
100
AcDbEntity
  8
0
100
AcDbCircle
 62
7
  6
CONTINUOUS
 10
7.734687763
 20
11.2628039539
 40
0.015
100
AcDbArc
 50
139.2891533288
 51
225.0
  0
ARC
  5
3C0
100
AcDbEntity
  8
0
100
AcDbCircle
 62
7
  6
CONTINUOUS
 10
7.7927877172
 20
11.2047039996
 40
0.015
100
AcDbArc
 50
225.0
 51
295.6144598813
  0
ARC
  5
3C1
100
AcDbEntity
  8
0
100
AcDbCircle
 62
7
  6
CONTINUOUS
 10
7.3978829233
 20
11.5996087935
 40
0.015
100
AcDbArc
 50
139.2891533288
 51
225.0
  0
ARC
  5
3C2
100
AcDbEntity
  8
0
100
AcDbCircle
 62
7
  6
CONTINUOUS
 10
7.4559828776
 20
11.5415088392
 40
0.015
100
AcDbArc
 50
225.0
 51
310.7108466712
  0
ARC
  5
3C3
100
AcDbEntity
  8
0
100
AcDbCircle
 62
7
  6
CONTINUOUS
 10
7.119178038
 20
11.8783136789
 40
0.015
100
AcDbArc
 50
225.0
 51
310.7108466712
  0
ARC
  5
3C4
100
AcDbEntity
  8
0
100
AcDbCircle
 62
7
  6
CONTINUOUS
 10
7.7514363139
 20
11.2601975385
 40
0.015
100
AcDbArc
 50
139.2891533288
 51
225.0
  0
ARC
  5
3C5
100
AcDbEntity
  8
0
100
AcDbCircle
 62
7
  6
CONTINUOUS
 10
7.8095362682
 20
11.2020975843
 40
0.015
100
AcDbArc
 50
225.0
 51
310.7108466712
  0
ARC
  5
3C6
100
AcDbEntity
  8
0
100
AcDbCircle
 62
7
  6
CONTINUOUS
 10
7.4049539911
 20
11.6066798613
 40
0.015
100
AcDbArc
 50
139.2891533288
 51
225.0
  0
ARC
  5
3C7
100
AcDbEntity
  8
0
100
AcDbCircle
 62
7
  6
CONTINUOUS
 10
7.4630539454
 20
11.548579907
 40
0.015
100
AcDbArc
 50
225.0
 51
310.7108466712
  0
ARC
  5
3C8
100
AcDbEntity
  8
0
100
AcDbCircle
 62
7
  6
CONTINUOUS
 10
7.763632776
 20
11.2833564155
 40
0.015
100
AcDbArc
 50
139.2891533288
 51
225.0
  0
ARC
  5
3C9
100
AcDbEntity
  8
0
100
AcDbCircle
 62
7
  6
CONTINUOUS
 10
7.8217327303
 20
11.2252564612
 40
0.015
100
AcDbArc
 50
225.0
 51
310.7108466712
  0
ARC
  5
3CA
100
AcDbEntity
  8
0
100
AcDbCircle
 62
7
  6
CONTINUOUS
 10
7.4226316607
 20
11.6243575309
 40
0.015
100
AcDbArc
 50
139.2891533288
 51
225.0
  0
ARC
  5
3CB
100
AcDbEntity
  8
0
100
AcDbCircle
 62
7
  6
CONTINUOUS
 10
7.4807316149
 20
11.5662575766
 40
0.015
100
AcDbArc
 50
225.0
 51
310.7108466712
  0
ARC
  5
3CC
100
AcDbEntity
  8
0
100
AcDbCircle
 62
7
  6
CONTINUOUS
 10
7.7805882356
 20
11.3088273628
 40
0.015
100
AcDbArc
 50
139.2891533288
 51
225.0
  0
ARC
  5
3CD
100
AcDbEntity
  8
0
100
AcDbCircle
 62
7
  6
CONTINUOUS
 10
7.8386881899
 20
11.2507274085
 40
0.015
100
AcDbArc
 50
225.0
 51
310.7108466712
  0
ARC
  5
3CE
100
AcDbEntity
  8
0
100
AcDbCircle
 62
7
  6
CONTINUOUS
 10
7.4438448641
 20
11.6455707343
 40
0.015
100
AcDbArc
 50
139.2891533288
 51
225.0
  0
ARC
  5
3CF
100
AcDbEntity
  8
0
100
AcDbCircle
 62
7
  6
CONTINUOUS
 10
7.5019448184
 20
11.58747078
 40
0.015
100
AcDbArc
 50
225.0
 51
310.7108466712
  0
ARC
  5
3D0
100
AcDbEntity
  8
0
100
AcDbCircle
 62
7
  6
CONTINUOUS
 10
7.8023193913
 20
11.3365936818
 40
0.015
100
AcDbArc
 50
139.2891533288
 51
225.0
  0
ARC
  5
3D1
100
AcDbEntity
  8
0
100
AcDbCircle
 62
7
  6
CONTINUOUS
 10
7.8604193456
 20
11.2784937275
 40
0.015
100
AcDbArc
 50
225.0
 51
310.7108466712
  0
ARC
  5
3D2
100
AcDbEntity
  8
0
100
AcDbCircle
 62
7
  6
CONTINUOUS
 10
7.4685936014
 20
11.6703194716
 40
0.015
100
AcDbArc
 50
139.2891533288
 51
225.0
  0
ARC
  5
3D3
100
AcDbEntity
  8
0
100
AcDbCircle
 62
7
  6
CONTINUOUS
 10
7.5266935557
 20
11.6122195173
 40
0.015
100
AcDbArc
 50
225.0
 51
310.7108466712
  0
ARC
  5
3D4
100
AcDbEntity
  8
0
100
AcDbCircle
 62
7
  6
CONTINUOUS
 10
6.5977674983
 20
12.0039533622
 40
0.3420968018
100
AcDbArc
 50
39.5287227356
 51
40.1935403424
  0
ARC
  5
3D5
100
AcDbEntity
  8
0
100
AcDbCircle
 62
7
  6
CONTINUOUS
 10
5.9615382238
 20
13.025515146
 40
0.125
100
AcDbArc
 50
32.5196096022
 51
37.3821196857
  0
ARC
  5
3D6
100
AcDbEntity
  8
0
100
AcDbCircle
 62
7
  6
CONTINUOUS
 10
6.4407580818
 20
12.6062311097
 40
0.015
100
AcDbArc
 50
139.2891533288
 51
225.0
  0
ARC
  5
3D7
100
AcDbEntity
  8
0
100
AcDbCircle
 62
7
  6
CONTINUOUS
 10
6.4988580361
 20
12.5481311554
 40
0.015
100
AcDbArc
 50
225.0
 51
310.7108466712
  0
ARC
  5
3D8
100
AcDbEntity
  8
0
100
AcDbCircle
 62
7
  6
CONTINUOUS
 10
6.5591865263
 20
12.4878026652
 40
0.015
100
AcDbArc
 50
139.2891533288
 51
225.0
  0
ARC
  5
3D9
100
AcDbEntity
  8
0
100
AcDbCircle
 62
7
  6
CONTINUOUS
 10
6.6172864806
 20
12.4297027109
 40
0.015
100
AcDbArc
 50
225.0
 51
310.7108466712
  0
ARC
  5
3DA
100
AcDbEntity
  8
0
100
AcDbCircle
 62
7
  6
CONTINUOUS
 10
6.1871014926
 20
12.9023141058
 40
0.015
100
AcDbArc
 50
139.2891533288
 51
225.0
  0
ARC
  5
3DB
100
AcDbEntity
  8
0
100
AcDbCircle
 62
7
  6
CONTINUOUS
 10
6.2452014469
 20
12.8442141515
 40
0.015
100
AcDbArc
 50
225.0
 51
310.7108466712
  0
ARC
  5
3DC
100
AcDbEntity
  8
0
100
AcDbCircle
 62
7
  6
CONTINUOUS
 10
6.1427683867
 20
12.9466472117
 40
0.015
100
AcDbArc
 50
139.2891533288
 51
225.0
  0
ARC
  5
3DD
100
AcDbEntity
  8
0
100
AcDbCircle
 62
7
  6
CONTINUOUS
 10
6.5238448641
 20
12.5655707343
 40
0.015
100
AcDbArc
 50
139.2891533288
 51
225.0
  0
ARC
  5
3DE
100
AcDbEntity
  8
0
100
AcDbCircle
 62
7
  6
CONTINUOUS
 10
6.5819448184
 20
12.50747078
 40
0.015
100
AcDbArc
 50
225.0
 51
310.7108466712
  0
ARC
  5
3DF
100
AcDbEntity
  8
0
100
AcDbCircle
 62
7
  6
CONTINUOUS
 10
6.3170795824
 20
12.772336016
 40
0.015
100
AcDbArc
 50
139.2891533288
 51
225.0
  0
ARC
  5
3E0
100
AcDbEntity
  8
0
100
AcDbCircle
 62
7
  6
CONTINUOUS
 10
6.3751795367
 20
12.7142360617
 40
0.015
100
AcDbArc
 50
225.0
 51
310.7108466712
  0
ARC
  5
3E1
100
AcDbEntity
  8
0
100
AcDbCircle
 62
7
  6
CONTINUOUS
 10
6.0001219336
 20
13.1387911395
 40
0.015
100
AcDbArc
 50
225.0
 51
310.7108466712
  0
ARC
  5
3E2
100
AcDbEntity
  8
0
100
AcDbCircle
 62
7
  6
CONTINUOUS
 10
6.5251204527
 20
12.6137926204
 40
0.015
100
AcDbArc
 50
139.2891533288
 51
225.0
  0
ARC
  5
3E3
100
AcDbEntity
  8
0
100
AcDbCircle
 62
7
  6
CONTINUOUS
 10
6.583220407
 20
12.5556926661
 40
0.015
100
AcDbArc
 50
225.0
 51
310.7108466712
  0
ARC
  5
3E4
100
AcDbEntity
  8
0
100
AcDbCircle
 62
7
  6
CONTINUOUS
 10
6.2757477692
 20
12.8631653039
 40
0.015
100
AcDbArc
 50
139.2891533288
 51
225.0
  0
ARC
  5
3E5
100
AcDbEntity
  8
0
100
AcDbCircle
 62
7
  6
CONTINUOUS
 10
6.3338477234
 20
12.8050653496
 40
0.015
100
AcDbArc
 50
225.0
 51
310.7108466712
  0
ARC
  5
3E6
100
AcDbEntity
  8
0
100
AcDbCircle
 62
7
  6
CONTINUOUS
 10
6.0785081724
 20
13.0604049007
 40
0.015
100
AcDbArc
 50
139.2891533288
 51
225.0
  0
ARC
  5
3E7
100
AcDbEntity
  8
0
100
AcDbCircle
 62
7
  6
CONTINUOUS
 10
6.1366081267
 20
13.0023049464
 40
0.015
100
AcDbArc
 50
225.0
 51
310.7108466712
  0
ARC
  5
3E8
100
AcDbEntity
  8
0
100
AcDbCircle
 62
7
  6
CONTINUOUS
 10
6.2184874114
 20
14.4986879973
 40
0.03
100
AcDbArc
 50
45.0
 51
135.0
  0
ARC
  5
3E9
100
AcDbEntity
  8
0
100
AcDbCircle
 62
7
  6
CONTINUOUS
 10
5.6826016324
 20
13.5585220685
 40
0.03
100
AcDbArc
 50
195.0
 51
211.7604517071
  0
ARC
  5
3EA
100
AcDbEntity
  8
0
100
AcDbCircle
 62
7
  6
CONTINUOUS
 10
5.5971671842
 20
13.87736777
 40
0.03
100
AcDbArc
 50
135.0
 51
195.0
  0
ARC
  5
3EB
100
AcDbEntity
  8
0
100
AcDbCircle
 62
7
  6
CONTINUOUS
 10
5.9420219793
 20
13.1968910938
 40
0.015
100
AcDbArc
 50
139.2891533288
 51
225.0
  0
ARC
  5
3EC
100
AcDbEntity
  8
0
100
AcDbCircle
 62
7
  6
CONTINUOUS
 10
5.8722542913
 20
13.2666587817
 40
0.015
100
AcDbArc
 50
139.2891533288
 51
225.0
  0
ARC
  5
3ED
100
AcDbEntity
  8
0
100
AcDbCircle
 62
7
  6
CONTINUOUS
 10
5.9303542456
 20
13.2085588274
 40
0.015
100
AcDbArc
 50
225.0
 51
258.527106598
  0
ARC
  5
3EE
100
AcDbEntity
  8
0
100
AcDbCircle
 62
7
  6
CONTINUOUS
 10
7.7361807465
 20
12.714333479
 40
1.0
100
AcDbArc
 50
217.3648233597
 51
223.5548996513
  0
ARC
  5
3EF
100
AcDbEntity
  8
0
100
AcDbCircle
 62
7
  6
CONTINUOUS
 10
7.4557536885
 20
13.0145084608
 40
1.0
100
AcDbArc
 50
215.6146107376
 51
222.549018051
  0
ARC
  5
3F0
100
AcDbEntity
  8
0
100
AcDbCircle
 62
7
  6
CONTINUOUS
 10
7.0597546519
 20
11.9335006638
 40
0.0962157782
100
AcDbArc
 50
50.9702541803
 51
51.6704505063
  0
ARC
  5
3F1
100
AcDbEntity
  8
0
100
AcDbCircle
 62
7
  6
CONTINUOUS
 10
7.0702216356
 20
11.9467033891
 40
0.0793673636
100
AcDbArc
 50
51.6868954147
 51
52.2060023211
  0
ARC
  5
3F2
100
AcDbEntity
  8
0
100
AcDbCircle
 62
7
  6
CONTINUOUS
 10
7.0610780837
 20
11.9364136331
 40
0.015
100
AcDbArc
 50
154.3855401187
 51
225.0
  0
ARC
  5
3F3
100
AcDbEntity
  8
0
100
AcDbCircle
 62
7
  6
CONTINUOUS
 10
6.7119893456
 20
12.2996445069
 40
0.015
100
AcDbArc
 50
139.2891533288
 51
225.0
  0
ARC
  5
3F4
100
AcDbEntity
  8
0
100
AcDbCircle
 62
7
  6
CONTINUOUS
 10
6.7700892999
 20
12.2415445526
 40
0.015
100
AcDbArc
 50
225.0
 51
310.7108466712
  0
ARC
  5
3F5
100
AcDbEntity
  8
0
100
AcDbCircle
 62
7
  6
CONTINUOUS
 10
7.0584716684
 20
11.9531621841
 40
0.015
100
AcDbArc
 50
139.2891533288
 51
225.0
  0
ARC
  5
3F6
100
AcDbEntity
  8
0
100
AcDbCircle
 62
7
  6
CONTINUOUS
 10
7.1165716226
 20
11.8950622298
 40
0.015
100
AcDbArc
 50
225.0
 51
310.7108466712
  0
ARC
  5
3F7
100
AcDbEntity
  8
0
100
AcDbCircle
 62
7
  6
CONTINUOUS
 10
6.8048290042
 20
12.2068048483
 40
0.015
100
AcDbArc
 50
139.2891533288
 51
225.0
  0
ARC
  5
3F8
100
AcDbEntity
  8
0
100
AcDbCircle
 62
7
  6
CONTINUOUS
 10
6.8629289584
 20
12.148704894
 40
0.015
100
AcDbArc
 50
225.0
 51
310.7108466712
  0
ARC
  5
3F9
100
AcDbEntity
  8
0
100
AcDbCircle
 62
7
  6
CONTINUOUS
 10
7.0816305453
 20
11.9653586462
 40
0.015
100
AcDbArc
 50
139.2891533288
 51
225.0
  0
ARC
  5
3FA
100
AcDbEntity
  8
0
100
AcDbCircle
 62
7
  6
CONTINUOUS
 10
7.1397304996
 20
11.9072586919
 40
0.015
100
AcDbArc
 50
225.0
 51
310.7108466712
  0
ARC
  5
3FB
100
AcDbEntity
  8
0
100
AcDbCircle
 62
7
  6
CONTINUOUS
 10
6.7817591971
 20
12.2652299944
 40
0.015
100
AcDbArc
 50
139.2891533288
 51
225.0
  0
ARC
  5
3FC
100
AcDbEntity
  8
0
100
AcDbCircle
 62
7
  6
CONTINUOUS
 10
6.8398591514
 20
12.2071300401
 40
0.015
100
AcDbArc
 50
225.0
 51
310.7108466712
  0
ARC
  5
3FD
100
AcDbEntity
  8
0
100
AcDbCircle
 62
7
  6
CONTINUOUS
 10
7.1071014926
 20
11.9823141058
 40
0.015
100
AcDbArc
 50
139.2891533288
 51
225.0
  0
ARC
  5
3FE
100
AcDbEntity
  8
0
100
AcDbCircle
 62
7
  6
CONTINUOUS
 10
7.1652014469
 20
11.9242141515
 40
0.015
100
AcDbArc
 50
225.0
 51
310.7108466712
  0
ARC
  5
3FF
100
AcDbEntity
  8
0
100
AcDbCircle
 62
7
  6
CONTINUOUS
 10
6.7933066254
 20
12.296108973
 40
0.015
100
AcDbArc
 50
139.2891533288
 51
225.0
  0
ARC
  5
400
100
AcDbEntity
  8
0
100
AcDbCircle
 62
7
  6
CONTINUOUS
 10
6.8514065797
 20
12.2380090187
 40
0.015
100
AcDbArc
 50
225.0
 51
310.7108466712
  0
ARC
  5
401
100
AcDbEntity
  8
0
100
AcDbCircle
 62
7
  6
CONTINUOUS
 10
7.1348678116
 20
12.0040452615
 40
0.015
100
AcDbArc
 50
139.2891533288
 51
225.0
  0
ARC
  5
402
100
AcDbEntity
  8
0
100
AcDbCircle
 62
7
  6
CONTINUOUS
 10
7.1929677659
 20
11.9459453072
 40
0.015
100
AcDbArc
 50
225.0
 51
310.7108466712
  0
ARC
  5
403
100
AcDbEntity
  8
0
100
AcDbCircle
 62
7
  6
CONTINUOUS
 10
6.8157274401
 20
12.323185633
 40
0.015
100
AcDbArc
 50
139.2891533288
 51
225.0
  0
ARC
  5
404
100
AcDbEntity
  8
0
100
AcDbCircle
 62
7
  6
CONTINUOUS
 10
6.8738273944
 20
12.2650856787
 40
0.015
100
AcDbArc
 50
225.0
 51
310.7108466712
  0
ARC
  5
405
100
AcDbEntity
  8
0
100
AcDbCircle
 62
7
  6
CONTINUOUS
 10
7.1804038088
 20
13.3198260159
 40
1.0
100
AcDbArc
 50
217.7862094089
 51
221.542266468
  0
ARC
  5
406
100
AcDbEntity
  8
0
100
AcDbCircle
 62
7
  6
CONTINUOUS
 10
6.9101466664
 20
13.6303019041
 40
1.0
100
AcDbArc
 50
219.9084855398
 51
220.5343308342
  0
ARC
  5
407
100
AcDbEntity
  8
0
100
AcDbCircle
 62
7
  6
CONTINUOUS
 10
6.9101466664
 20
13.6303019041
 40
1.0
100
AcDbArc
 50
212.5196096022
 51
213.3992494667
  0
ARC
  5
408
100
AcDbEntity
  8
0
100
AcDbCircle
 62
7
  6
CONTINUOUS
 10
6.9832557763
 20
13.5452196739
 40
1.0
100
AcDbArc
 50
224.442736359
 51
225.0
  0
ARC
  5
409
100
AcDbEntity
  8
0
100
AcDbCircle
 62
7
  6
CONTINUOUS
 10
7.4813801226
 20
13.6473314327
 40
0.03
100
AcDbArc
 50
45.0
 51
135.0
  0
ARC
  5
40A
100
AcDbEntity
  8
0
100
AcDbCircle
 62
7
  6
CONTINUOUS
 10
7.2756120493
 20
13.5264161731
 40
0.03
100
AcDbArc
 50
225.0
 51
315.0
  0
ARC
  5
40B
100
AcDbEntity
  8
0
100
AcDbCircle
 62
7
  6
CONTINUOUS
 10
13.0027997941
 20
4.198891804
 40
0.06
100
AcDbArc
 50
90.0
 51
179.999999999
  0
ARC
  5
40C
100
AcDbEntity
  8
0
100
AcDbCircle
 62
7
  6
CONTINUOUS
 10
13.0027997941
 20
4.968891804
 40
0.06
100
AcDbArc
 50
180.000000001
 51
270.0
  0
ARC
  5
40D
100
AcDbEntity
  8
0
100
AcDbCircle
 62
7
  6
CONTINUOUS
 10
13.5527997941
 20
5.223891804
 40
0.03
100
AcDbArc
 50
90.0
 51
180.0
  0
ARC
  5
40E
100
AcDbEntity
  8
0
100
AcDbCircle
 62
7
  6
CONTINUOUS
 10
13.5527997941
 20
3.943891804
 40
0.03
100
AcDbArc
 50
180.0
 51
270.0
  0
ARC
  5
40F
100
AcDbEntity
  8
0
100
AcDbCircle
 62
7
  6
CONTINUOUS
 10
12.9127997941
 20
1.613891804
 40
0.03
100
AcDbArc
 50
270.0
 51
360.0
  0
ARC
  5
410
100
AcDbEntity
  8
0
100
AcDbCircle
 62
7
  6
CONTINUOUS
 10
12.5227997941
 20
1.613891804
 40
0.03
100
AcDbArc
 50
180.0
 51
270.0
  0
ARC
  5
411
100
AcDbEntity
  8
0
100
AcDbCircle
 62
7
  6
CONTINUOUS
 10
12.9127997941
 20
5.203891804
 40
0.03
100
AcDbArc
 50
0.0
 51
90.0
  0
ARC
  5
412
100
AcDbEntity
  8
0
100
AcDbCircle
 62
7
  6
CONTINUOUS
 10
12.5227997941
 20
5.203891804
 40
0.03
100
AcDbArc
 50
90.0
 51
180.0
  0
ARC
  5
413
100
AcDbEntity
  8
0
100
AcDbCircle
 62
7
  6
CONTINUOUS
 10
8.4045052395
 20
10.642483952
 40
0.015
100
AcDbArc
 50
139.2891533288
 51
225.0
  0
ARC
  5
414
100
AcDbEntity
  8
0
100
AcDbCircle
 62
7
  6
CONTINUOUS
 10
8.4626051938
 20
10.5843839977
 40
0.015
100
AcDbArc
 50
225.0
 51
310.7108466712
  0
ARC
  5
415
100
AcDbEntity
  8
0
100
AcDbCircle
 62
7
  6
CONTINUOUS
 10
8.8030212958
 20
10.2863943026
 40
0.015
100
AcDbArc
 50
225.0
 51
310.7108466712
  0
ARC
  5
416
100
AcDbEntity
  8
0
100
AcDbCircle
 62
7
  6
CONTINUOUS
 10
8.7005882356
 20
10.3888273628
 40
0.015
100
AcDbArc
 50
139.2891533288
 51
225.0
  0
ARC
  5
417
100
AcDbEntity
  8
0
100
AcDbCircle
 62
7
  6
CONTINUOUS
 10
8.7586881899
 20
10.3307274085
 40
0.015
100
AcDbArc
 50
225.0
 51
310.7108466712
  0
ARC
  5
418
100
AcDbEntity
  8
0
100
AcDbCircle
 62
7
  6
CONTINUOUS
 10
8.5706101458
 20
10.5188054526
 40
0.015
100
AcDbArc
 50
139.2891533288
 51
225.0
  0
ARC
  5
419
100
AcDbEntity
  8
0
100
AcDbCircle
 62
7
  6
CONTINUOUS
 10
8.6287101001
 20
10.4607054983
 40
0.015
100
AcDbArc
 50
225.0
 51
310.7108466712
  0
ARC
  5
41A
100
AcDbEntity
  8
0
100
AcDbCircle
 62
7
  6
CONTINUOUS
 10
8.4219448184
 20
10.66747078
 40
0.015
100
AcDbArc
 50
225.0
 51
310.7108466712
  0
ARC
  5
41B
100
AcDbEntity
  8
0
100
AcDbCircle
 62
7
  6
CONTINUOUS
 10
8.8586790305
 20
10.2802340426
 40
0.015
100
AcDbArc
 50
139.2891533288
 51
225.0
  0
ARC
  5
41C
100
AcDbEntity
  8
0
100
AcDbCircle
 62
7
  6
CONTINUOUS
 10
8.6614394337
 20
10.4774736393
 40
0.015
100
AcDbArc
 50
139.2891533288
 51
225.0
  0
ARC
  5
41D
100
AcDbEntity
  8
0
100
AcDbCircle
 62
7
  6
CONTINUOUS
 10
8.719539388
 20
10.4193736851
 40
0.015
100
AcDbArc
 50
225.0
 51
310.7108466712
  0
ARC
  5
41E
100
AcDbEntity
  8
0
100
AcDbCircle
 62
7
  6
CONTINUOUS
 10
8.4701667045
 20
10.6687463686
 40
0.015
100
AcDbArc
 50
225.0
 51
310.7108466712
  0
ARC
  5
41F
100
AcDbEntity
  8
0
100
AcDbCircle
 62
7
  6
CONTINUOUS
 10
8.0979186367
 20
10.9137152158
 40
0.015
100
AcDbArc
 50
139.2891533288
 51
225.0
  0
ARC
  5
420
100
AcDbEntity
  8
0
100
AcDbCircle
 62
7
  6
CONTINUOUS
 10
8.156018591
 20
10.8556152615
 40
0.015
100
AcDbArc
 50
225.0
 51
310.7108466712
  0
ARC
  5
421
100
AcDbEntity
  8
0
100
AcDbCircle
 62
7
  6
CONTINUOUS
 10
8.0050789781
 20
11.0065548743
 40
0.015
100
AcDbArc
 50
139.2891533288
 51
225.0
  0
ARC
  5
422
100
AcDbEntity
  8
0
100
AcDbCircle
 62
7
  6
CONTINUOUS
 10
8.0631789324
 20
10.9484549201
 40
0.015
100
AcDbArc
 50
225.0
 51
310.7108466712
  0
ARC
  5
423
100
AcDbEntity
  8
0
100
AcDbCircle
 62
7
  6
CONTINUOUS
 10
8.286076795
 20
10.7609123965
 40
0.015
100
AcDbArc
 50
139.2891533288
 51
225.0
  0
ARC
  5
424
100
AcDbEntity
  8
0
100
AcDbCircle
 62
7
  6
CONTINUOUS
 10
8.3441767493
 20
10.7028124422
 40
0.015
100
AcDbArc
 50
225.0
 51
310.7108466712
  0
ARC
  5
425
100
AcDbEntity
  8
0
100
AcDbCircle
 62
7
  6
CONTINUOUS
 10
8.0635041242
 20
10.9834850673
 40
0.015
100
AcDbArc
 50
139.2891533288
 51
225.0
  0
ARC
  5
426
100
AcDbEntity
  8
0
100
AcDbCircle
 62
7
  6
CONTINUOUS
 10
8.1216040785
 20
10.9253851131
 40
0.015
100
AcDbArc
 50
225.0
 51
310.7108466712
  0
ARC
  5
427
100
AcDbEntity
  8
0
100
AcDbCircle
 62
7
  6
CONTINUOUS
 10
8.3638448641
 20
10.7255707343
 40
0.015
100
AcDbArc
 50
139.2891533288
 51
225.0
  0
ARC
  5
428
100
AcDbEntity
  8
0
100
AcDbCircle
 62
7
  6
CONTINUOUS
 10
8.0943831028
 20
10.9950324956
 40
0.015
100
AcDbArc
 50
139.2891533288
 51
225.0
  0
ARC
  5
429
100
AcDbEntity
  8
0
100
AcDbCircle
 62
7
  6
CONTINUOUS
 10
8.1524830571
 20
10.9369325413
 40
0.015
100
AcDbArc
 50
225.0
 51
310.7108466712
  0
ARC
  5
42A
100
AcDbEntity
  8
0
100
AcDbCircle
 62
7
  6
CONTINUOUS
 10
8.4120667502
 20
10.7268463229
 40
0.015
100
AcDbArc
 50
139.2891533288
 51
225.0
  0
ARC
  5
42B
100
AcDbEntity
  8
0
100
AcDbCircle
 62
7
  6
CONTINUOUS
 10
8.1214597628
 20
11.0174533103
 40
0.015
100
AcDbArc
 50
139.2891533288
 51
225.0
  0
ARC
  5
42C
100
AcDbEntity
  8
0
100
AcDbCircle
 62
7
  6
CONTINUOUS
 10
8.1795597171
 20
10.959353356
 40
0.015
100
AcDbArc
 50
225.0
 51
310.7108466712
  0
ARC
  5
42D
100
AcDbEntity
  8
0
100
AcDbCircle
 62
7
  6
CONTINUOUS
 10
8.8818892301
 20
10.1051641397
 40
0.125
100
AcDbArc
 50
52.6178803143
 51
57.4803903978
  0
ARC
  5
42E
100
AcDbEntity
  8
0
100
AcDbCircle
 62
7
  6
CONTINUOUS
 10
9.4148961526
 20
9.8262275483
 40
0.03
100
AcDbArc
 50
238.2395482929
 51
255.0
  0
ARC
  5
42F
100
AcDbEntity
  8
0
100
AcDbCircle
 62
7
  6
CONTINUOUS
 10
9.7337418541
 20
9.7407931001
 40
0.03
100
AcDbArc
 50
255.0
 51
315.0
  0
ARC
  5
430
100
AcDbEntity
  8
0
100
AcDbCircle
 62
7
  6
CONTINUOUS
 10
9.0649329115
 20
10.0739801615
 40
0.015
100
AcDbArc
 50
191.472893402
 51
225.0
  0
ARC
  5
431
100
AcDbEntity
  8
0
100
AcDbCircle
 62
7
  6
CONTINUOUS
 10
9.1230328658
 20
10.0158802073
 40
0.015
100
AcDbArc
 50
225.0
 51
310.7108466712
  0
ARC
  5
432
100
AcDbEntity
  8
0
100
AcDbCircle
 62
7
  6
CONTINUOUS
 10
8.9951652236
 20
10.1437478495
 40
0.015
100
AcDbArc
 50
139.2891533288
 51
225.0
  0
ARC
  5
433
100
AcDbEntity
  8
0
100
AcDbCircle
 62
7
  6
CONTINUOUS
 10
9.0532651779
 20
10.0856478952
 40
0.015
100
AcDbArc
 50
225.0
 51
310.7108466712
  0
ARC
  5
434
100
AcDbEntity
  8
0
100
AcDbCircle
 62
7
  6
CONTINUOUS
 10
8.9167789848
 20
10.2221340883
 40
0.015
100
AcDbArc
 50
225.0
 51
310.7108466712
  0
ARC
  5
435
100
AcDbEntity
  8
0
100
AcDbCircle
 62
7
  6
CONTINUOUS
 10
8.8708825449
 20
11.5993796044
 40
1.0
100
AcDbArc
 50
227.450981949
 51
234.3853892624
  0
ARC
  5
436
100
AcDbEntity
  8
0
100
AcDbCircle
 62
7
  6
CONTINUOUS
 10
9.1762001
 20
11.3240297247
 40
1.0
100
AcDbArc
 50
228.457733532
 51
232.2137905911
  0
ARC
  5
437
100
AcDbEntity
  8
0
100
AcDbCircle
 62
7
  6
CONTINUOUS
 10
9.4866759882
 20
11.0537725823
 40
1.0
100
AcDbArc
 50
229.4656691658
 51
230.0915144602
  0
ARC
  5
438
100
AcDbEntity
  8
0
100
AcDbCircle
 62
7
  6
CONTINUOUS
 10
9.4866759882
 20
11.0537725823
 40
1.0
100
AcDbArc
 50
236.6007505333
 51
237.4803903978
  0
ARC
  5
439
100
AcDbEntity
  8
0
100
AcDbCircle
 62
7
  6
CONTINUOUS
 10
9.401593758
 20
11.1268816922
 40
1.0
100
AcDbArc
 50
225.0
 51
225.557263641
  0
ARC
  5
43A
100
AcDbEntity
  8
0
100
AcDbCircle
 62
7
  6
CONTINUOUS
 10
9.5037055168
 20
11.6250060385
 40
0.03
100
AcDbArc
 50
315.0
 51
45.0
  0
ARC
  5
43B
100
AcDbEntity
  8
0
100
AcDbCircle
 62
7
  6
CONTINUOUS
 10
9.3827902572
 20
11.4192379652
 40
0.03
100
AcDbArc
 50
135.0
 51
225.0
  0
ARC
  5
43C
100
AcDbEntity
  8
0
100
AcDbCircle
 62
7
  6
CONTINUOUS
 10
8.5707075631
 20
11.8798066624
 40
1.0
100
AcDbArc
 50
226.4451003487
 51
232.6351766403
  0
ARC
  5
43D
100
AcDbEntity
  8
0
100
AcDbCircle
 62
7
  6
CONTINUOUS
 10
8.8995443473
 20
13.0431702632
 40
0.489
100
AcDbArc
 50
345.394893546
 51
0.0258404644
  0
ARC
  5
43E
100
AcDbEntity
  8
0
100
AcDbCircle
 62
7
  6
CONTINUOUS
 10
8.8995443473
 20
13.0431702632
 40
0.489
100
AcDbArc
 50
89.9741595356
 51
104.605106454
  0
ARC
  5
43F
100
AcDbEntity
  8
0
100
AcDbCircle
 62
7
  6
CONTINUOUS
 10
9.167800967
 20
13.6854863702
 40
0.188
100
AcDbArc
 50
159.9175653171
 51
180.0
  0
ARC
  5
440
100
AcDbEntity
  8
0
100
AcDbCircle
 62
7
  6
CONTINUOUS
 10
9.5418604542
 20
13.3114268829
 40
0.188
100
AcDbArc
 50
270.0
 51
290.0824346829
  0
ARC
  5
441
100
AcDbEntity
  8
0
100
AcDbCircle
 62
7
  6
CONTINUOUS
 10
9.4685442895
 20
13.0434268829
 40
0.08
100
AcDbArc
 50
90.0
 51
180.0258404644
  0
ARC
  5
442
100
AcDbEntity
  8
0
100
AcDbCircle
 62
7
  6
CONTINUOUS
 10
8.899800967
 20
13.6121702054
 40
0.08
100
AcDbArc
 50
269.9741595356
 51
360.0
  0
ARC
  5
443
100
AcDbEntity
  8
0
100
AcDbCircle
 62
7
  6
CONTINUOUS
 10
8.0187812763
 20
13.1947830928
 40
0.03
100
AcDbArc
 50
225.0
 51
315.0
  0
ARC
  5
444
100
AcDbEntity
  8
0
100
AcDbCircle
 62
7
  6
CONTINUOUS
 10
9.0511571769
 20
12.1624071922
 40
0.03
100
AcDbArc
 50
135.0
 51
225.0
  0
ARC
  5
445
100
AcDbEntity
  8
0
100
AcDbCircle
 62
7
  6
CONTINUOUS
 10
9.1741937568
 20
12.3561544503
 40
0.02
100
AcDbArc
 50
225.0
 51
315.0
  0
ARC
  5
446
100
AcDbEntity
  8
0
100
AcDbCircle
 62
7
  6
CONTINUOUS
 10
8.2125285344
 20
13.3178196727
 40
0.02
100
AcDbArc
 50
135.0
 51
225.0
  0
ARC
  5
447
100
AcDbEntity
  8
0
100
AcDbCircle
 62
7
  6
CONTINUOUS
 10
8.1842442631
 20
13.2895354014
 40
0.02
100
AcDbArc
 50
45.0
 51
135.0
  0
ARC
  5
448
100
AcDbEntity
  8
0
100
AcDbCircle
 62
7
  6
CONTINUOUS
 10
9.1459094855
 20
12.327870179
 40
0.02
100
AcDbArc
 50
315.0
 51
45.0
  0
ARC
  5
449
100
AcDbEntity
  8
0
100
AcDbCircle
 62
7
  6
CONTINUOUS
 10
10.3550620814
 20
10.3621133273
 40
0.03
100
AcDbArc
 50
315.0
 51
45.0
  0
ARC
  5
44A
100
AcDbEntity
  8
0
100
AcDbCircle
 62
7
  6
CONTINUOUS
 10
12.1027997941
 20
12.710891804
 40
2.90625
100
AcDbArc
 50
90.0
 51
135.0
  0
ARC
  5
44B
100
AcDbEntity
  8
0
100
AcDbCircle
 62
7
  6
CONTINUOUS
 10
12.1027997941
 20
12.710891804
 40
2.09375
100
AcDbArc
 50
90.0
 51
135.0
  0
ARC
  5
44C
100
AcDbEntity
  8
0
100
AcDbCircle
 62
7
  6
CONTINUOUS
 10
15.5427997941
 20
14.025891804
 40
0.04
100
AcDbArc
 50
180.0
 51
270.0
  0
ARC
  5
44D
100
AcDbEntity
  8
0
100
AcDbCircle
 62
7
  6
CONTINUOUS
 10
15.5727997941
 20
7.303891804
 40
0.03
100
AcDbArc
 50
90.0
 51
180.0
  0
ARC
  5
44E
100
AcDbEntity
  8
0
100
AcDbCircle
 62
7
  6
CONTINUOUS
 10
15.5727997941
 20
1.863891804
 40
0.03
100
AcDbArc
 50
180.0
 51
270.0
  0
ARC
  5
44F
100
AcDbEntity
  8
0
100
AcDbCircle
 62
7
  6
CONTINUOUS
 10
15.2227997941
 20
5.603891804
 40
0.03
100
AcDbArc
 50
90.0
 51
180.0
  0
ARC
  5
450
100
AcDbEntity
  8
0
100
AcDbCircle
 62
7
  6
CONTINUOUS
 10
15.2227997941
 20
3.563891804
 40
0.03
100
AcDbArc
 50
180.0
 51
270.0
  0
ARC
  5
451
100
AcDbEntity
  8
0
100
AcDbCircle
 62
7
  6
CONTINUOUS
 10
24.6937228826
 20
28.8373487985
 40
24.3989285714
100
AcDbArc
 50
226.2854429774
 51
226.4451003487
  0
ARC
  5
452
100
AcDbEntity
  8
0
100
AcDbCircle
 62
7
  6
CONTINUOUS
 10
24.6937228826
 20
28.8373487985
 40
24.3989285714
100
AcDbArc
 50
228.3998844708
 51
228.457733532
  0
ARC
  5
453
100
AcDbEntity
  8
0
100
AcDbCircle
 62
7
  6
CONTINUOUS
 10
24.6937228826
 20
28.8373487985
 40
24.3989285714
100
AcDbArc
 50
223.5548996513
 51
223.7145570226
  0
ARC
  5
454
100
AcDbEntity
  8
0
100
AcDbCircle
 62
7
  6
CONTINUOUS
 10
24.6937228826
 20
28.8373487985
 40
24.3989285714
100
AcDbArc
 50
221.542266468
 51
221.6001155292
  0
ARC
  5
455
100
AcDbEntity
  8
0
100
AcDbCircle
 62
7
  6
CONTINUOUS
 10
24.6937228826
 20
28.8373487985
 40
24.3989285714
100
AcDbArc
 50
230.4471965673
 51
230.7535485216
  0
ARC
  5
456
100
AcDbEntity
  8
0
100
AcDbCircle
 62
7
  6
CONTINUOUS
 10
24.6937228826
 20
28.8373487985
 40
24.3989285714
100
AcDbArc
 50
219.2464514784
 51
219.5528034327
  0
ARC
  5
457
100
AcDbEntity
  8
0
100
AcDbCircle
 62
7
  6
CONTINUOUS
 10
15.5427997941
 20
16.395891804
 40
0.04
100
AcDbArc
 50
90.0
 51
180.0
  0
SPLINE
  5
458
100
AcDbEntity
  8
0
100
AcDbSpline
 62
7
  6
CONTINUOUS
 70
0
 71
3
 72
15
 73
11
 74
0
 42
0.0000001
 43
0.0000001
 44
0.0000000001
 40
0.0
 40
0.0
 40
0.0
 40
0.0
 40
0.0942833264
 40
0.1316901787
 40
0.1756142565
 40
0.2838775451
 40
0.4201789411
 40
0.5848986269
 40
0.7781680409
 40
1.0
 40
1.0
 40
1.0
 40
1.0
 10
7.4963112654
 20
11.557408142
 30
0.0
 10
7.4963558281
 20
11.557446543
 30
0.0
 10
7.4963527897
 20
11.5575507635
 30
0.0
 10
7.4963257264
 20
11.5576534099
 30
0.0
 10
7.4962866209
 20
11.5577662197
 30
0.0
 10
7.4962107974
 20
11.5579291724
 30
0.0
 10
7.4960870176
 20
11.5581529219
 30
0.0
 10
7.49592448
 20
11.5584150327
 30
0.0
 10
7.4957232643
 20
11.5587157653
 30
0.0
 10
7.4955736251
 20
11.5589271788
 30
0.0
 10
7.4954925925
 20
11.5590393843
 30
0.0
  0
LINE
  5
459
100
AcDbEntity
  8
0
100
AcDbLine
 62
7
  6
CONTINUOUS
 10
7.1489213375
 20
11.8841181574
 11
7.1447025669
 21
11.888936593
  0
SPLINE
  5
45A
100
AcDbEntity
  8
0
100
AcDbSpline
 62
7
  6
CONTINUOUS
 70
0
 71
3
 72
32
 73
28
 74
0
 42
0.0000001
 43
0.0000001
 44
0.0000000001
 40
0.0
 40
0.0
 40
0.0
 40
0.0
 40
0.0003653955
 40
0.0012741335
 40
0.0027727696
 40
0.0048679682
 40
0.007561234
 40
0.0108526506
 40
0.0147416042
 40
0.0192258134
 40
0.0299671174
 40
0.0430502644
 40
0.058447445
 40
0.0761201614
 40
0.0960229568
 40
0.1181099246
 40
0.1423276411
 40
0.1686141369
 40
0.2271386037
 40
0.2931103295
 40
0.3658887538
 40
0.4447619582
 40
0.5289654929
 40
0.6176829596
 40
0.7100454514
 40
0.8051655443
 40
1.0
 40
1.0
 40
1.0
 40
1.0
 10
8.4954147635
 20
10.5928268547
 30
0.0
 10
8.4954201509
 20
10.5928314972
 30
0.0
 10
8.4954068153
 20
10.5928623383
 30
0.0
 10
8.4953789994
 20
10.5929000369
 30
0.0
 10
8.4953215598
 20
10.5929714064
 30
0.0
 10
8.4952407415
 20
10.593061018
 30
0.0
 10
8.4951328323
 20
10.5931763367
 30
0.0
 10
8.4949992334
 20
10.593314149
 30
0.0
 10
8.4948394315
 20
10.5934755319
 30
0.0
 10
8.4945754532
 20
10.5937376343
 30
0.0
 10
8.4941806475
 20
10.5941220047
 30
0.0
 10
8.4936294866
 20
10.5946501737
 30
0.0
 10
8.4929773796
 20
10.5952679828
 30
0.0
 10
8.4922259236
 20
10.5959738983
 30
0.0
 10
8.4913769464
 20
10.5967661629
 30
0.0
 10
8.4904325016
 20
10.5976428295
 30
0.0
 10
8.4893948894
 20
10.5986017516
 30
0.0
 10
8.4878337851
 20
10.6000391274
 30
0.0
 10
8.485670004
 20
10.6020217108
 30
0.0
 10
8.4828328789
 20
10.6046088446
 30
0.0
 10
8.479697574
 20
10.6074567598
 30
0.0
 10
8.4762945933
 20
10.6105377391
 30
0.0
 10
8.472657007
 20
10.6138218054
 30
0.0
 10
8.4688202027
 20
10.617276991
 30
0.0
 10
8.464821399
 20
10.620869787
 30
0.0
 10
8.4592809191
 20
10.6258370161
 30
0.0
 10
8.4550731792
 20
10.6295977998
 30
0.0
 10
8.4522433528
 20
10.632122111
 30
0.0
  0
LINE
  5
45B
100
AcDbEntity
  8
0
100
AcDbLine
 62
7
  6
CONTINUOUS
 10
8.1910649404
 20
10.8659827883
 11
8.1480113913
 21
10.9057080161
  0
SPLINE
  5
45C
100
AcDbEntity
  8
0
100
AcDbSpline
 62
7
  6
CONTINUOUS
 70
0
 71
3
 72
60
 73
56
 74
0
 42
0.0000001
 43
0.0000001
 44
0.0000000001
 40
0.0
 40
0.0
 40
0.0
 40
0.0
 40
0.0001674961
 40
0.000362522
 40
0.0006032901
 40
0.0008996673
 40
0.0012569174
 40
0.0016780064
 40
0.0021647161
 40
0.0027181788
 40
0.0040279796
 40
0.0056108137
 40
0.007467879
 40
0.0095995103
 40
0.0120055637
 40
0.0146853181
 40
0.0176375483
 40
0.0208608979
 40
0.0281149368
 40
0.0364324655
 40
0.0457957166
 40
0.0561843023
 40
0.0675751381
 40
0.0799431267
 40
0.1074972919
 40
0.1386000647
 40
0.1729720683
 40
0.2103041624
 40
0.2502603053
 40
0.2924806335
 40
0.3365848516
 40
0.382175483
 40
0.4288417839
 40
0.4761630654
 40
0.5710627507
 40
0.6177858298
 40
0.6634610052
 40
0.7076767431
 40
0.7500345864
 40
0.790152969
 40
0.8276705784
 40
0.8622496739
 40
0.8935792399
 40
0.9213778227
 40
0.9453963747
 40
0.9559198222
 40
0.9654209413
 40
0.9738788185
 40
0.9812755074
 40
0.9875953908
 40
0.9928268339
 40
0.99503161
 40
0.99696182
 40
0.9986176473
 40
1.0
 40
1.0
 40
1.0
 40
1.0
 10
9.4634908027
 20
14.1816409784
 30
0.0
 10
9.4635228486
 20
14.1816730242
 30
0.0
 10
9.4636091148
 20
14.1817263455
 30
0.0
 10
9.4637720556
 20
14.1817557351
 30
0.0
 10
9.4639709388
 20
14.1817441771
 30
0.0
 10
9.464208102
 20
14.1816929791
 30
0.0
 10
9.4644847582
 20
14.1816022926
 30
0.0
 10
9.4648014521
 20
14.1814718361
 30
0.0
 10
9.4651583982
 20
14.1813014605
 30
0.0
 10
9.4657203376
 20
14.181003649
 30
0.0
 10
9.4665213741
 20
14.180525409
 30
0.0
 10
9.46759656
 20
14.179821094
 30
0.0
 10
9.468832302
 20
14.1789573508
 30
0.0
 10
9.4702280217
 20
14.1779345868
 30
0.0
 10
9.4717830261
 20
14.176753132
 30
0.0
 10
9.473496517
 20
14.1754136437
 30
0.0
 10
9.4753675947
 20
14.1739169467
 30
0.0
 10
9.478183945
 20
14.171620846
 30
0.0
 10
9.4820866745
 20
14.1683602454
 30
0.0
 10
9.4872154776
 20
14.1639768636
 30
0.0
 10
9.4929461913
 20
14.1589928122
 30
0.0
 10
9.4992666338
 20
14.1534200321
 30
0.0
 10
9.5061633394
 20
14.1472717543
 30
0.0
 10
9.5164851893
 20
14.1379861897
 30
0.0
 10
9.5306983335
 20
14.1250517957
 30
0.0
 10
9.5492257337
 20
14.1080130508
 30
0.0
 10
9.5696265542
 20
14.0891033904
 30
0.0
 10
9.5917232848
 20
14.0684997908
 30
0.0
 10
9.6153230741
 20
14.0463944612
 30
0.0
 10
9.6402196508
 20
14.0229933223
 30
0.0
 10
9.6661950645
 20
13.9985140429
 30
0.0
 10
9.6930216951
 20
13.9731840411
 30
0.0
 10
9.720464226
 20
13.9472384592
 30
0.0
 10
9.7575879385
 20
13.9121127714
 30
0.0
 10
9.7947157754
 20
13.8769690902
 30
0.0
 10
9.8315393173
 20
13.8421518453
 30
0.0
 10
9.8584143582
 20
13.8167734661
 30
0.0
 10
9.8844536413
 20
13.7922303592
 30
0.0
 10
9.9094289691
 20
13.7687505256
 30
0.0
 10
9.9331216931
 20
13.7465523496
 30
0.0
 10
9.9553246846
 20
13.7258425731
 30
0.0
 10
9.9758442073
 20
13.706814455
 30
0.0
 10
9.9945014787
 20
13.6896457782
 30
0.0
 10
10.0111346376
 20
13.6744976805
 30
0.0
 10
10.0236858236
 20
13.6632285879
 30
0.0
 10
10.0326179938
 20
13.6553400727
 30
0.0
 10
10.0384280248
 20
13.6502769199
 30
0.0
 10
10.0436376658
 20
13.6458128589
 30
0.0
 10
10.0482357016
 20
13.6419583104
 30
0.0
 10
10.052212589
 20
13.6387225237
 30
0.0
 10
10.0551472536
 20
13.6364323456
 30
0.0
 10
10.0571838558
 20
13.6349238542
 30
0.0
 10
10.058462312
 20
13.6340177479
 30
0.0
 10
10.0595803007
 20
13.6332709398
 30
0.0
 10
10.0602810923
 20
13.6328404854
 30
0.0
 10
10.0606057853
 20
13.6326548252
 30
0.0
  0
LINE
  5
45D
100
AcDbEntity
  8
0
100
AcDbLine
 62
7
  6
CONTINUOUS
 10
10.0606057853
 20
13.6326548252
 11
10.0621772926
 21
13.6319325846
  0
SPLINE
  5
45E
100
AcDbEntity
  8
0
100
AcDbSpline
 62
7
  6
CONTINUOUS
 70
0
 71
3
 72
30
 73
26
 74
0
 42
0.0000001
 43
0.0000001
 44
0.0000000001
 40
0.0
 40
0.0
 40
0.0
 40
0.0
 40
0.0005674187
 40
0.0010088313
 40
0.0015813933
 40
0.0031465566
 40
0.0052908426
 40
0.0113415671
 40
0.0197511079
 40
0.0305118385
 40
0.0435999505
 40
0.0589857239
 40
0.0766365579
 40
0.096508623
 40
0.1185539753
 40
0.1689550151
 40
0.2273539513
 40
0.2931921872
 40
0.3658401349
 40
0.4445968633
 40
0.5287091682
 40
0.617372359
 40
0.7097274012
 40
0.8048920555
 40
1.0
 40
1.0
 40
1.0
 40
1.0
 10
6.8946457653
 20
12.1562076749
 30
0.0
 10
6.8946541386
 20
12.1562148605
 30
0.0
 10
6.8946574776
 20
12.1562377047
 30
0.0
 10
6.8946515361
 20
12.1562671288
 30
0.0
 10
6.8946358911
 20
12.1563152557
 30
0.0
 10
6.8945992733
 20
12.1563900655
 30
0.0
 10
6.8945037959
 20
12.1565542717
 30
0.0
 10
6.894320968
 20
12.1568207255
 30
0.0
 10
6.8940287514
 20
12.1572146027
 30
0.0
 10
6.8936424223
 20
12.1577088926
 30
0.0
 10
6.8931632713
 20
12.1583026181
 30
0.0
 10
6.89259204
 20
12.1589941393
 30
0.0
 10
6.8919300978
 20
12.1597817729
 30
0.0
 10
6.8911789874
 20
12.1606635936
 30
0.0
 10
6.8900076461
 20
12.1620239963
 30
0.0
 10
6.8883344401
 20
12.1639408545
 30
0.0
 10
6.8860855091
 20
12.1664854356
 30
0.0
 10
6.8835363188
 20
12.1693419325
 30
0.0
 10
6.8807113284
 20
12.1724828384
 30
0.0
 10
6.8776376173
 20
12.1758779429
 30
0.0
 10
6.8743446555
 20
12.1794946191
 30
0.0
 10
6.8708640815
 20
12.1832980659
 30
0.0
 10
6.8672293389
 20
12.1872517397
 30
0.0
 10
6.8621819773
 20
12.1927183965
 30
0.0
 10
6.8583401952
 20
12.19685382
 30
0.0
 10
6.8557525624
 20
12.1996284522
 30
0.0
  0
SPLINE
  5
45F
100
AcDbEntity
  8
0
100
AcDbSpline
 62
7
  6
CONTINUOUS
 70
0
 71
3
 72
22
 73
18
 74
0
 42
0.0000001
 43
0.0000001
 44
0.0000000001
 40
0.0
 40
0.0
 40
0.0
 40
0.0
 40
0.0038965962
 40
0.0085572638
 40
0.0145762227
 40
0.0222364951
 40
0.0316734305
 40
0.0429576685
 40
0.0712073894
 40
0.1071492881
 40
0.1508108562
 40
0.2021777349
 40
0.2612172145
 40
0.4020898291
 40
0.5727563717
 40
0.7724036371
 40
1.0
 40
1.0
 40
1.0
 40
1.0
 10
7.8436867397
 20
11.2116942742
 30
0.0
 10
7.8436961557
 20
11.2117023907
 30
0.0
 10
7.8437117993
 20
11.2117264292
 30
0.0
 10
7.8437172882
 20
11.2117735491
 30
0.0
 10
7.8437091453
 20
11.2118317987
 30
0.0
 10
7.8436876402
 20
11.2119025511
 30
0.0
 10
7.8436527477
 20
11.2119862034
 30
0.0
 10
7.8435826771
 20
11.2121259429
 30
0.0
 10
7.8434582203
 20
11.212332406
 30
0.0
 10
7.8432646555
 20
11.2126169653
 30
0.0
 10
7.8430168457
 20
11.2129534875
 30
0.0
 10
7.842715083
 20
11.213341524
 30
0.0
 10
7.8422104736
 20
11.213964498
 30
0.0
 10
7.8414446872
 20
11.2148654164
 30
0.0
 10
7.8403648823
 20
11.2160876553
 30
0.0
 10
7.8390820354
 20
11.2174994462
 30
0.0
 10
7.8381548228
 20
11.2184985591
 30
0.0
 10
7.8376588108
 20
11.219028844
 30
0.0
  0
SPLINE
  5
460
100
AcDbEntity
  8
0
100
AcDbSpline
 62
7
  6
CONTINUOUS
 70
0
 71
3
 72
44
 73
40
 74
0
 42
0.0000001
 43
0.0000001
 44
0.0000000001
 40
0.0
 40
0.0
 40
0.0
 40
0.0
 40
0.0608117576
 40
0.1302002676
 40
0.2065628585
 40
0.2881313864
 40
0.3730184405
 40
0.4592600388
 40
0.5448614595
 40
0.6278436834
 40
0.6677496542
 40
0.7062890251
 40
0.7432390093
 40
0.7783860139
 40
0.8115270781
 40
0.842471129
 40
0.8710397783
 40
0.8970683683
 40
0.9204076539
 40
0.9409243393
 40
0.9500870234
 40
0.9585019866
 40
0.9661570987
 40
0.9730423521
 40
0.9791486252
 40
0.9844680643
 40
0.9889954097
 40
0.990960862
 40
0.9927271175
 40
0.9942944501
 40
0.9956635538
 40
0.9968357155
 40
0.9978132895
 40
0.9986007503
 40
0.9992074318
 40
0.9994493552
 40
0.9996561442
 40
0.9998357208
 40
1.0
 40
1.0
 40
1.0
 40
1.0
 10
9.3796859585
 20
13.9291589533
 30
0.0
 10
9.3896656144
 20
13.9200656516
 30
0.0
 10
9.4109485255
 20
13.9005044792
 30
0.0
 10
9.4445579092
 20
13.869302279
 30
0.0
 10
9.4814310195
 20
13.8348427988
 30
0.0
 10
9.5207404993
 20
13.797951083
 30
0.0
 10
9.5616025884
 20
13.759508767
 30
0.0
 10
9.6030983676
 20
13.7204333497
 30
0.0
 10
9.6442946754
 20
13.6816567869
 30
0.0
 10
9.678029476
 20
13.6499622565
 30
0.0
 10
9.7041823138
 20
13.6254572066
 30
0.0
 10
9.7228975324
 20
13.6079613702
 30
0.0
 10
9.7408649755
 20
13.5912128298
 30
0.0
 10
9.7579841272
 20
13.5753120168
 30
0.0
 10
9.7741593912
 20
13.5603543691
 30
0.0
 10
9.7893006369
 20
13.5464297976
 30
0.0
 10
9.803323673
 20
13.533622221
 30
0.0
 10
9.8161507045
 20
13.5220089291
 30
0.0
 10
9.8277109396
 20
13.5116603127
 30
0.0
 10
9.8365391527
 20
13.5038742451
 30
0.0
 10
9.8429268641
 20
13.4983309653
 30
0.0
 10
9.8471808024
 20
13.4946857347
 30
0.0
 10
9.8510757843
 20
13.4913988677
 30
0.0
 10
9.85460654
 20
13.4884754365
 30
0.0
 10
9.8577682935
 20
13.4859198078
 30
0.0
 10
9.8605569181
 20
13.4837359558
 30
0.0
 10
9.8626547124
 20
13.4821616321
 30
0.0
 10
9.8641466924
 20
13.4810955486
 30
0.0
 10
9.8651165797
 20
13.4804295123
 30
0.0
 10
9.8659908629
 20
13.4798585927
 30
0.0
 10
9.8667693624
 20
13.479382826
 30
0.0
 10
9.867451854
 20
13.4790021922
 30
0.0
 10
9.8680385431
 20
13.4787161285
 30
0.0
 10
9.8685294529
 20
13.4785244548
 30
0.0
 10
9.8688839812
 20
13.4784352093
 30
0.0
 10
9.8691185728
 20
13.4784205904
 30
0.0
 10
9.8692581857
 20
13.4784348795
 30
0.0
 10
9.8693752424
 20
13.4784744035
 30
0.0
 10
9.8694385334
 20
13.4785196584
 30
0.0
 10
9.8694643291
 20
13.4785454427
 30
0.0
  0
LINE
  5
461
100
AcDbEntity
  8
0
100
AcDbLine
 62
7
  6
CONTINUOUS
 10
7.4865873399
 20
11.5480543699
 11
7.4862892286
 21
11.548624257
  0
SPLINE
  5
462
100
AcDbEntity
  8
0
100
AcDbSpline
 62
7
  6
CONTINUOUS
 70
0
 71
3
 72
32
 73
28
 74
0
 42
0.0000001
 43
0.0000001
 44
0.0000000001
 40
0.0
 40
0.0
 40
0.0
 40
0.0
 40
0.0003550656
 40
0.0012574633
 40
0.002752703
 40
0.0048470111
 40
0.0075416868
 40
0.0108366839
 40
0.0147313421
 40
0.0192234329
 40
0.0299865394
 40
0.0430986865
 40
0.0585311988
 40
0.0762448998
 40
0.0961930752
 40
0.1183285571
 40
0.1425968789
 40
0.168934724
 40
0.2275586697
 40
0.2936172635
 40
0.3664602262
 40
0.4453676607
 40
0.5295689999
 40
0.6182440077
 40
0.7105227494
 40
0.8055188711
 40
1.0
 40
1.0
 40
1.0
 40
1.0
 10
9.1574855285
 20
10.0257368874
 30
0.0
 10
9.1574907934
 20
10.0257414184
 30
0.0
 10
9.157475956
 20
10.0257719033
 30
0.0
 10
9.1574468551
 20
10.0258077707
 30
0.0
 10
9.1573862622
 20
10.0258772373
 30
0.0
 10
9.1573016442
 20
10.0259638618
 30
0.0
 10
9.1571886935
 20
10.0260755943
 30
0.0
 10
9.1570490728
 20
10.026209006
 30
0.0
 10
9.1568821777
 20
10.0263652558
 30
0.0
 10
9.1566066238
 20
10.0266190095
 30
0.0
 10
9.1561948224
 20
10.0269910682
 30
0.0
 10
9.1556203186
 20
10.0275022094
 30
0.0
 10
9.1549409161
 20
10.02810001
 30
0.0
 10
9.1541583166
 20
10.0287829524
 30
0.0
 10
9.1532744687
 20
10.0295493008
 30
0.0
 10
9.1522915601
 20
10.0303971306
 30
0.0
 10
9.1512120341
 20
10.0313243242
 30
0.0
 10
9.1495885205
 20
10.0327137223
 30
0.0
 10
9.1473393648
 20
10.034629419
 30
0.0
 10
9.1443918569
 20
10.0371282645
 30
0.0
 10
9.1411365237
 20
10.0398776224
 30
0.0
 10
9.13760537
 20
10.042850462
 30
0.0
 10
9.1338329713
 20
10.0460176489
 30
0.0
 10
9.1298561968
 20
10.0493482179
 30
0.0
 10
9.1257137009
 20
10.0528098094
 30
0.0
 10
9.1199779241
 20
10.0575927387
 30
0.0
 10
9.1156232573
 20
10.0612131078
 30
0.0
 10
9.1126953665
 20
10.0636426622
 30
0.0
  0
SPLINE
  5
463
100
AcDbEntity
  8
0
100
AcDbSpline
 62
7
  6
CONTINUOUS
 70
0
 71
3
 72
30
 73
26
 74
0
 42
0.0000001
 43
0.0000001
 44
0.0000000001
 40
0.0
 40
0.0
 40
0.0
 40
0.0
 40
0.0007283796
 40
0.0012049603
 40
0.0017944499
 40
0.0033613633
 40
0.0054859132
 40
0.0081874135
 40
0.0114744711
 40
0.0153512021
 40
0.0198182532
 40
0.0305169668
 40
0.0435537036
 40
0.0765359556
 40
0.1184588094
 40
0.1689213291
 40
0.2274273228
 40
0.2933979796
 40
0.3661848628
 40
0.4450673679
 40
0.5292723704
 40
0.6179759815
 40
0.710303182
 40
0.8053634203
 40
1.0
 40
1.0
 40
1.0
 40
1.0
 10
9.0875360256
 20
10.0953481302
 30
0.0
 10
9.0875468185
 20
10.0953574199
 30
0.0
 10
9.0875562621
 20
10.0953821629
 30
0.0
 10
9.0875533379
 20
10.0954170581
 30
0.0
 10
9.0875406701
 20
10.0954672384
 30
0.0
 10
9.0875047597
 20
10.0955433636
 30
0.0
 10
9.0874396362
 20
10.0956500905
 30
0.0
 10
9.0873476051
 20
10.0957794284
 30
0.0
 10
9.0872288066
 20
10.0959314062
 30
0.0
 10
9.0870830116
 20
10.0961059503
 30
0.0
 10
9.0868375221
 20
10.0963858675
 30
0.0
 10
9.0864622027
 20
10.0967899186
 30
0.0
 10
9.0856889904
 20
10.0975847977
 30
0.0
 10
9.0844588991
 20
10.0987863365
 30
0.0
 10
9.0826755805
 20
10.1004678314
 30
0.0
 10
9.0805043295
 20
10.1024649894
 30
0.0
 10
9.0779666641
 20
10.1047580104
 30
0.0
 10
9.0750874314
 20
10.1073238817
 30
0.0
 10
9.0718951011
 20
10.1101370811
 30
0.0
 10
9.0684211297
 20
10.1131698016
 30
0.0
 10
9.0646996864
 20
10.1163921545
 30
0.0
 10
9.0607673384
 20
10.1197724314
 30
0.0
 10
9.0566625434
 20
10.1232776179
 30
0.0
 10
9.0509679409
 20
10.1281102575
 30
0.0
 10
9.0466335647
 20
10.1317560187
 30
0.0
 10
9.0437147007
 20
10.1341973723
 30
0.0
  0
SPLINE
  5
464
100
AcDbEntity
  8
0
100
AcDbSpline
 62
7
  6
CONTINUOUS
 70
0
 71
3
 72
30
 73
26
 74
0
 42
0.0000001
 43
0.0000001
 44
0.0000000001
 40
0.0
 40
0.0
 40
0.0
 40
0.0
 40
0.0011454329
 40
0.0024977587
 40
0.0042514292
 40
0.0064983235
 40
0.0092813269
 40
0.0126222682
 40
0.0165331032
 40
0.0210194448
 40
0.031724314
 40
0.044737714
 40
0.0600462217
 40
0.0776202465
 40
0.0974201264
 40
0.1194040712
 40
0.1697117339
 40
0.2280628487
 40
0.2938886578
 40
0.3665474193
 40
0.4453222073
 40
0.5294412838
 40
0.6180800678
 40
0.8053909612
 40
1.0
 40
1.0
 40
1.0
 40
1.0
 10
8.9506944765
 20
10.2315285523
 30
0.0
 10
8.9507114519
 20
10.231543163
 30
0.0
 10
8.950739527
 20
10.2315863575
 30
0.0
 10
8.9507465953
 20
10.2316711727
 30
0.0
 10
8.9507268446
 20
10.2317745548
 30
0.0
 10
8.9506810168
 20
10.231899451
 30
0.0
 10
8.9506089344
 20
10.2320465959
 30
0.0
 10
8.9505102815
 20
10.2322163464
 30
0.0
 10
8.9503849336
 20
10.2324087024
 30
0.0
 10
8.9501690684
 20
10.2327136055
 30
0.0
 10
8.9498298714
 20
10.2331487745
 30
0.0
 10
8.9493386864
 20
10.2337329128
 30
0.0
 10
8.9487428357
 20
10.2344041042
 30
0.0
 10
8.948043697
 20
10.2351607204
 30
0.0
 10
8.9472428476
 20
10.2360008712
 30
0.0
 10
8.9459841231
 20
10.2372886292
 30
0.0
 10
8.9441696732
 20
10.2390870052
 30
0.0
 10
8.9417120353
 20
10.241453621
 30
0.0
 10
8.9389098273
 20
10.2440921241
 30
0.0
 10
8.9357906578
 20
10.2469762726
 30
0.0
 10
8.9323852293
 20
10.2500775035
 30
0.0
 10
8.9287271068
 20
10.2533651597
 30
0.0
 10
8.9234630236
 20
10.2580406564
 30
0.0
 10
8.9165344401
 20
10.26409523
 30
0.0
 10
8.9108654037
 20
10.2689566255
 30
0.0
 10
8.9079656284
 20
10.2714206863
 30
0.0
  0
SPLINE
  5
465
100
AcDbEntity
  8
0
100
AcDbSpline
 62
7
  6
CONTINUOUS
 70
0
 71
3
 72
26
 73
22
 74
0
 42
0.0000001
 43
0.0000001
 44
0.0000000001
 40
0.0
 40
0.0
 40
0.0
 40
0.0
 40
0.0015248357
 40
0.0031939343
 40
0.0051866012
 40
0.0076107936
 40
0.0139607874
 40
0.0224874025
 40
0.0332623158
 40
0.0463044122
 40
0.0616116574
 40
0.0791618745
 40
0.1208485039
 40
0.171018279
 40
0.2292087811
 40
0.2948649919
 40
0.3673554393
 40
0.4459704466
 40
0.6184503594
 40
0.8055491535
 40
1.0
 40
1.0
 40
1.0
 40
1.0
 10
8.7529421106
 20
10.4283269296
 30
0.0
 10
8.7529647257
 20
10.4283463939
 30
0.0
 10
8.7530041328
 20
10.4283974421
 30
0.0
 10
8.7530313309
 20
10.428497127
 30
0.0
 10
8.7530302297
 20
10.4286171837
 30
0.0
 10
8.7529894535
 20
10.428824668
 30
0.0
 10
8.7528604845
 20
10.4291401459
 30
0.0
 10
8.7526169672
 20
10.429579305
 30
0.0
 10
8.7522690678
 20
10.430108674
 30
0.0
 10
8.7518173881
 20
10.4307269986
 30
0.0
 10
8.7512619737
 20
10.4314330452
 30
0.0
 10
8.750329623
 20
10.4325550118
 30
0.0
 10
8.7489087511
 20
10.4341570454
 30
0.0
 10
8.7469029663
 20
10.4363015007
 30
0.0
 10
8.7445285817
 20
10.4387425228
 30
0.0
 10
8.7418086457
 20
10.4414560317
 30
0.0
 10
8.7387695394
 20
10.444415028
 30
0.0
 10
8.7341878321
 20
10.4487856285
 30
0.0
 10
8.727903917
 20
10.454620228
 30
0.0
 10
8.7198564377
 20
10.4618849646
 30
0.0
 10
8.7142518345
 20
10.4668180471
 30
0.0
 10
8.7113804931
 20
10.4693147445
 30
0.0
  0
SPLINE
  5
466
100
AcDbEntity
  8
0
100
AcDbSpline
 62
7
  6
CONTINUOUS
 70
0
 71
3
 72
28
 73
24
 74
0
 42
0.0000001
 43
0.0000001
 44
0.0000000001
 40
0.0
 40
0.0
 40
0.0
 40
0.0
 40
0.0018398871
 40
0.0037938762
 40
0.0060228257
 40
0.0086367952
 40
0.0152586758
 40
0.0239618562
 40
0.0348505739
 40
0.0479618404
 40
0.0633044319
 40
0.080863355
 40
0.1006092991
 40
0.1225081734
 40
0.1725752512
 40
0.2306235348
 40
0.296112851
 40
0.3684237447
 40
0.44685612
 40
0.5306506165
 40
0.6189904738
 40
0.805791743
 40
1.0
 40
1.0
 40
1.0
 40
1.0
 10
8.5029224167
 20
10.6771428837
 30
0.0
 10
8.5029497349
 20
10.6771663957
 30
0.0
 10
8.5029983684
 20
10.6772247135
 30
0.0
 10
8.503041417
 20
10.6773363223
 30
0.0
 10
8.5030562813
 20
10.6774697232
 30
0.0
 10
8.5030389168
 20
10.6776945552
 30
0.0
 10
8.5029390782
 20
10.6780344817
 30
0.0
 10
8.5027279153
 20
10.6785030754
 30
0.0
 10
8.5024141858
 20
10.6790624679
 30
0.0
 10
8.5019981016
 20
10.6797115002
 30
0.0
 10
8.5014795916
 20
10.6804490904
 30
0.0
 10
8.500859645
 20
10.6812734795
 30
0.0
 10
8.5001395382
 20
10.6821827595
 30
0.0
 10
8.4989956911
 20
10.6835683267
 30
0.0
 10
8.4973239987
 20
10.6854904158
 30
0.0
 10
8.4950324677
 20
10.6880036336
 30
0.0
 10
8.4923960165
 20
10.6907911547
 30
0.0
 10
8.4894401536
 20
10.6938254978
 30
0.0
 10
8.4861936249
 20
10.6970767858
 30
0.0
 10
8.4826882481
 20
10.7005129277
 30
0.0
 10
8.4776200509
 20
10.7053869758
 30
0.0
 10
8.4709093266
 20
10.7116728595
 30
0.0
 10
8.4653848259
 20
10.7166922598
 30
0.0
 10
8.4625503072
 20
10.7192299256
 30
0.0
  0
SPLINE
  5
467
100
AcDbEntity
  8
0
100
AcDbSpline
 62
7
  6
CONTINUOUS
 70
0
 71
3
 72
19
 73
15
 74
0
 42
0.0000001
 43
0.0000001
 44
0.0000000001
 40
0.0
 40
0.0
 40
0.0
 40
0.0
 40
0.013017355
 40
0.0295548433
 40
0.0519102235
 40
0.0810233132
 40
0.1173011098
 40
0.1609189799
 40
0.211943333
 40
0.2703929953
 40
0.4095119647
 40
0.5779288229
 40
0.7750110275
 40
1.0
 40
1.0
 40
1.0
 40
1.0
 10
7.8528900895
 20
11.2322776602
 30
0.0
 10
7.8529174606
 20
11.2323012309
 30
0.0
 10
7.8529604959
 20
11.2323773793
 30
0.0
 10
7.8529617862
 20
11.2325244024
 30
0.0
 10
7.8529192935
 20
11.2327089117
 30
0.0
 10
7.852831103
 20
11.2329365298
 30
0.0
 10
7.8526973258
 20
11.2332080415
 30
0.0
 10
7.8525172722
 20
11.2335237684
 30
0.0
 10
7.8522910225
 20
11.2338834222
 30
0.0
 10
7.8519047113
 20
11.2344550315
 30
0.0
 10
7.851303154
 20
11.2352736749
 30
0.0
 10
7.8504382387
 20
11.236375028
 30
0.0
 10
7.8493964301
 20
11.2376398587
 30
0.0
 10
7.8486360135
 20
11.2385306873
 30
0.0
 10
7.8482276032
 20
11.2390028844
 30
0.0
  0
SPLINE
  5
468
100
AcDbEntity
  8
0
100
AcDbSpline
 62
7
  6
CONTINUOUS
 70
0
 71
3
 72
28
 73
24
 74
0
 42
0.0000001
 43
0.0000001
 44
0.0000000001
 40
0.0
 40
0.0
 40
0.0
 40
0.0
 40
0.0020747754
 40
0.0042515807
 40
0.0066770669
 40
0.0094583156
 40
0.0163383486
 40
0.0252249307
 40
0.0362443454
 40
0.0494469019
 40
0.0648496017
 40
0.0824431232
 40
0.1022021759
 40
0.1240956433
 40
0.1741059098
 40
0.2320495885
 40
0.2973998686
 40
0.3695487942
 40
0.4478063562
 40
0.5314220024
 40
0.6195861089
 40
0.8060635789
 40
1.0
 40
1.0
 40
1.0
 40
1.0
 10
8.2115632466
 20
10.9671026443
 30
0.0
 10
8.2115940899
 20
10.9671291897
 30
0.0
 10
8.2116496598
 20
10.9671932402
 30
0.0
 10
8.2117043256
 20
10.9673138741
 30
0.0
 10
8.2117313634
 20
10.9674572402
 30
0.0
 10
8.2117319375
 20
10.9676952701
 30
0.0
 10
8.2116554989
 20
10.968054189
 30
0.0
 10
8.2114708564
 20
10.9685467601
 30
0.0
 10
8.2111855129
 20
10.9691309975
 30
0.0
 10
8.2107994643
 20
10.969805884
 30
0.0
 10
8.2103126249
 20
10.9705704314
 30
0.0
 10
8.2097258484
 20
10.9714228778
 30
0.0
 10
8.2090403155
 20
10.9723612972
 30
0.0
 10
8.2079468934
 20
10.9737885504
 30
0.0
 10
8.2063399446
 20
10.975764976
 30
0.0
 10
8.2041264352
 20
10.9783449045
 30
0.0
 10
8.2015707591
 20
10.9812022843
 30
0.0
 10
8.1986973639
 20
10.9843091492
 30
0.0
 10
8.1955339355
 20
10.9876351004
 30
0.0
 10
8.1921112645
 20
10.9911474579
 30
0.0
 10
8.1871531517
 20
10.9961267085
 30
0.0
 10
8.1805717618
 20
11.002542313
 30
0.0
 10
8.1751399601
 20
11.0076581401
 30
0.0
 10
8.1723494051
 20
11.0102429984
 30
0.0
  0
SPLINE
  5
469
100
AcDbEntity
  8
0
100
AcDbSpline
 62
7
  6
CONTINUOUS
 70
0
 71
3
 72
28
 73
24
 74
0
 42
0.0000001
 43
0.0000001
 44
0.0000000001
 40
0.0
 40
0.0
 40
0.0
 40
0.0
 40
0.002219554
 40
0.0045404067
 40
0.0071000604
 40
0.0100017413
 40
0.0170814888
 40
0.0261227008
 40
0.0372621148
 40
0.0505570702
 40
0.0660290688
 40
0.0836719637
 40
0.1034628132
 40
0.1253722324
 40
0.1753725913
 40
0.2332594559
 40
0.2985155588
 40
0.3705421279
 40
0.4486581697
 40
0.5321216731
 40
0.6201306928
 40
0.8063131025
 40
1.0
 40
1.0
 40
1.0
 40
1.0
 10
7.8915990775
 20
11.2855341665
 30
0.0
 10
7.8916321068
 20
11.2855625926
 30
0.0
 10
7.8916920266
 20
11.2856303444
 30
0.0
 10
7.8917539554
 20
11.28575677
 30
0.0
 10
7.8917888826
 20
11.2859065906
 30
0.0
 10
7.8918013329
 20
11.2861534731
 30
0.0
 10
7.891741207
 20
11.2865254133
 30
0.0
 10
7.8915759141
 20
11.2870353138
 30
0.0
 10
7.8913118315
 20
11.2876381194
 30
0.0
 10
7.8909488837
 20
11.2883328974
 30
0.0
 10
7.8904869983
 20
11.2891186837
 30
0.0
 10
7.8899269539
 20
11.2899937074
 30
0.0
 10
7.8892698681
 20
11.2909560155
 30
0.0
 10
7.8882187924
 20
11.2924179129
 30
0.0
 10
7.8866678369
 20
11.2944406543
 30
0.0
 10
7.8845238914
 20
11.297079085
 30
0.0
 10
7.8820423501
 20
11.2999991713
 30
0.0
 10
7.8792467055
 20
11.3031725504
 30
0.0
 10
7.876163639
 20
11.3065683984
 30
0.0
 10
7.8728229158
 20
11.310153554
 30
0.0
 10
7.867976641
 20
11.3152352336
 30
0.0
 10
7.8615313078
 20
11.3217814054
 30
0.0
 10
7.8562013418
 20
11.3269988432
 30
0.0
 10
7.8534603128
 20
11.3296346489
 30
0.0
  0
SPLINE
  5
46A
100
AcDbEntity
  8
0
100
AcDbSpline
 62
7
  6
CONTINUOUS
 70
0
 71
3
 72
28
 73
24
 74
0
 42
0.0000001
 43
0.0000001
 44
0.0000000001
 40
0.0
 40
0.0
 40
0.0
 40
0.0
 40
0.0022690144
 40
0.0046466737
 40
0.0072659431
 40
0.0102268492
 40
0.0174181054
 40
0.0265584366
 40
0.0377844479
 40
0.051154101
 40
0.0666893416
 40
0.084384315
 40
0.1042164826
 40
0.126156735
 40
0.1761883328
 40
0.2340688193
 40
0.2992852027
 40
0.3712441974
 40
0.4492712971
 40
0.5326313993
 40
0.6205296289
 40
0.8064940792
 40
1.0
 40
1.0
 40
1.0
 40
1.0
 10
7.5570143361
 20
11.6185208586
 30
0.0
 10
7.5570481193
 20
11.6185499336
 30
0.0
 10
7.5571096011
 20
11.618619108
 30
0.0
 10
7.557174294
 20
11.6187478238
 30
0.0
 10
7.5572125827
 20
11.6189004315
 30
0.0
 10
7.5572305516
 20
11.6191516196
 30
0.0
 10
7.5571788829
 20
11.6195303407
 30
0.0
 10
7.5570247892
 20
11.62005016
 30
0.0
 10
7.5567738733
 20
11.6206644739
 30
0.0
 10
7.5564260652
 20
11.6213723477
 30
0.0
 10
7.5559813123
 20
11.6221727883
 30
0.0
 10
7.55544037
 20
11.6230639996
 30
0.0
 10
7.5548043231
 20
11.624043992
 30
0.0
 10
7.5537855415
 20
11.6255321975
 30
0.0
 10
7.5522791924
 20
11.6275914228
 30
0.0
 10
7.5501930947
 20
11.6302777462
 30
0.0
 10
7.547775545
 20
11.6332507744
 30
0.0
 10
7.5450492544
 20
11.6364818234
 30
0.0
 10
7.5420400313
 20
11.6399397322
 30
0.0
 10
7.5387766968
 20
11.6435909676
 30
0.0
 10
7.5340389263
 20
11.6487674921
 30
0.0
 10
7.5277304951
 20
11.6554386388
 30
0.0
 10
7.5225074139
 20
11.6607576492
 30
0.0
 10
7.5198195736
 20
11.6634454895
 30
0.0
  0
SPLINE
  5
46B
100
AcDbEntity
  8
0
100
AcDbSpline
 62
7
  6
CONTINUOUS
 70
0
 71
3
 72
28
 73
24
 74
0
 42
0.0000001
 43
0.0000001
 44
0.0000000001
 40
0.0
 40
0.0
 40
0.0
 40
0.0
 40
0.0022220803
 40
0.0045668351
 40
0.0071668422
 40
0.0101198752
 40
0.0173200164
 40
0.0264887218
 40
0.0377532967
 40
0.0511664587
 40
0.0667467814
 40
0.0844859652
 40
0.1043599602
 40
0.1263384897
 40
0.1764324332
 40
0.2343532466
 40
0.2995864907
 40
0.3715399028
 40
0.4495419828
 40
0.5328619982
 40
0.6207106405
 40
0.806570671
 40
1.0
 40
1.0
 40
1.0
 40
1.0
 10
7.2224321345
 20
11.9515097364
 30
0.0
 10
7.2224652121
 20
11.9515382047
 30
0.0
 10
7.2225253958
 20
11.9516064464
 30
0.0
 10
7.2225882975
 20
11.9517338373
 30
0.0
 10
7.222625343
 20
11.9518854768
 30
0.0
 10
7.2226423737
 20
11.9521362827
 30
0.0
 10
7.2225910214
 20
11.9525153985
 30
0.0
 10
7.2224394744
 20
11.9530373399
 30
0.0
 10
7.2221930903
 20
11.9536556345
 30
0.0
 10
7.2218518479
 20
11.9543692679
 30
0.0
 10
7.2214157129
 20
11.9551771794
 30
0.0
 10
7.2208854599
 20
11.9560775321
 30
0.0
 10
7.2202621683
 20
11.9570682921
 30
0.0
 10
7.21926424
 20
11.9585734853
 30
0.0
 10
7.21778914
 20
11.9606579513
 30
0.0
 10
7.2157465955
 20
11.9633796209
 30
0.0
 10
7.2133799828
 20
11.966393671
 30
0.0
 10
7.2107114523
 20
11.9696711584
 30
0.0
 10
7.2077661291
 20
11.9731806605
 30
0.0
 10
7.2045720357
 20
11.9768883732
 30
0.0
 10
7.1999344182
 20
11.9821478911
 30
0.0
 10
7.1937575949
 20
11.9889324791
 30
0.0
 10
7.1886419098
 20
11.9943479334
 30
0.0
 10
7.186008733
 20
11.9970862287
 30
0.0
  0
SPLINE
  5
46C
100
AcDbEntity
  8
0
100
AcDbSpline
 62
7
  6
CONTINUOUS
 70
0
 71
3
 72
28
 73
24
 74
0
 42
0.0000001
 43
0.0000001
 44
0.0000000001
 40
0.0
 40
0.0
 40
0.0
 40
0.0
 40
0.0020813902
 40
0.0043061636
 40
0.0068103451
 40
0.0096899413
 40
0.0167964881
 40
0.0259196564
 40
0.0371694149
 40
0.0505882797
 40
0.066188236
 40
0.0839562057
 40
0.1038651397
 40
0.1258824675
 40
0.1760578107
 40
0.2340570798
 40
0.2993589799
 40
0.3713679912
 40
0.4494119656
 40
0.5327613647
 40
0.6206300935
 40
0.8065205277
 40
1.0
 40
1.0
 40
1.0
 40
1.0
 10
6.9024751459
 20
12.2699474376
 30
0.0
 10
6.9025060954
 20
12.2699740751
 30
0.0
 10
6.9025621773
 20
12.2700391031
 30
0.0
 10
6.9026188002
 20
12.2701616033
 30
0.0
 10
6.902650083
 20
12.2703085337
 30
0.0
 10
6.9026597975
 20
12.2705542388
 30
0.0
 10
6.9026007446
 20
12.2709273251
 30
0.0
 10
6.9024430915
 20
12.2714435345
 30
0.0
 10
6.9021925145
 20
12.2720581165
 30
0.0
 10
6.9018490885
 20
12.2727699218
 30
0.0
 10
6.9014127989
 20
12.2735777898
 30
0.0
 10
6.9008844775
 20
12.2744798364
 30
0.0
 10
6.9002652199
 20
12.2754739826
 30
0.0
 10
6.8992759437
 20
12.2769861617
 30
0.0
 10
6.8978175146
 20
12.279083624
 30
0.0
 10
6.8958024484
 20
12.2818266558
 30
0.0
 10
6.893471546
 20
12.2848681607
 30
0.0
 10
6.8908466354
 20
12.288178992
 30
0.0
 10
6.8879523814
 20
12.2917275319
 30
0.0
 10
6.8848162049
 20
12.2954797903
 30
0.0
 10
6.8802657229
 20
12.3008069595
 30
0.0
 10
6.8742091227
 20
12.3076884088
 30
0.0
 10
6.8691965318
 20
12.3131906054
 30
0.0
 10
6.8666170825
 20
12.315975321
 30
0.0
  0
SPLINE
  5
46D
100
AcDbEntity
  8
0
100
AcDbSpline
 62
9
  6
CONTINUOUS
 70
0
 71
3
 72
21
 73
17
 74
0
 42
0.0000001
 43
0.0000001
 44
0.0000000001
 40
0.0
 40
0.0
 40
0.0
 40
0.0
 40
0.1249939977
 40
0.187493808
 40
0.2499953387
 40
0.3124971535
 40
0.3749984235
 40
0.4374993377
 40
0.5000000675
 40
0.5625007791
 40
0.625001647
 40
0.6875028691
 40
0.7500046594
 40
0.8125061807
 40
0.8750059911
 40
1.0
 40
1.0
 40
1.0
 40
1.0
 10
12.9127997941
 20
4.6903107873
 30
0.0
 10
12.9127997919
 20
4.6814422392
 30
0.0
 10
12.9129374
 20
4.6681392656
 30
0.0
 10
12.9132428989
 20
4.6504043528
 30
0.0
 10
12.9134944439
 20
4.6371030304
 30
0.0
 10
12.9137311648
 20
4.6238013376
 30
0.0
 10
12.9139106856
 20
4.6104987421
 30
0.0
 10
12.9140166544
 20
4.5971954304
 30
0.0
 10
12.9140525291
 20
4.5838917886
 30
0.0
 10
12.9140170014
 20
4.5705881491
 30
0.0
 10
12.9139111862
 20
4.5572848433
 30
0.0
 10
12.9137312712
 20
4.5439822612
 30
0.0
 10
12.9134943797
 20
4.5306805775
 30
0.0
 10
12.9132427932
 20
4.5173792583
 30
0.0
 10
12.9129373467
 20
4.4996443443
 30
0.0
 10
12.9127998086
 20
4.4863413697
 30
0.0
 10
12.9127997941
 20
4.4774728208
 30
0.0
  0
LINE
  5
46E
100
AcDbEntity
  8
0
100
AcDbLine
 62
7
  6
CONTINUOUS
 10
8.835669953
 20
10.294698699
 11
8.8351220012
 21
10.2951695707
  0
LINE
  5
46F
100
AcDbEntity
  8
0
100
AcDbLine
 62
7
  6
CONTINUOUS
 10
8.8351220012
 20
10.2951695707
 11
8.8334940236
 21
10.2965685426
  0
LINE
  5
470
100
AcDbEntity
  8
0
100
AcDbLine
 62
7
  6
CONTINUOUS
 10
8.8334940236
 20
10.2965685426
 11
8.7913294286
 21
10.3328023897
  0
SPLINE
  5
471
100
AcDbEntity
  8
0
100
AcDbSpline
 62
7
  6
CONTINUOUS
 70
0
 71
3
 72
27
 73
23
 74
0
 42
0.0000001
 43
0.0000001
 44
0.0000000001
 40
0.0
 40
0.0
 40
0.0
 40
0.0
 40
0.0018531851
 40
0.0038787423
 40
0.006219543
 40
0.0089689875
 40
0.0158938014
 40
0.0249064858
 40
0.0360926149
 40
0.0494806418
 40
0.0650736367
 40
0.0828521693
 40
0.1027851125
 40
0.1248367858
 40
0.1751014798
 40
0.2332058852
 40
0.2986180112
 40
0.3707355298
 40
0.4488823642
 40
0.6202824849
 40
0.8063400945
 40
1.0
 40
1.0
 40
1.0
 40
1.0
 10
6.6111265554
 20
12.5599163024
 30
0.0
 10
6.6111540553
 20
12.5599399728
 30
0.0
 10
6.6112034045
 20
12.5599997457
 30
0.0
 10
6.6112494397
 20
12.5601139876
 30
0.0
 10
6.6112707009
 20
12.5602525838
 30
0.0
 10
6.6112669876
 20
12.5604885632
 30
0.0
 10
6.611192733
 20
12.5608493124
 30
0.0
 10
6.6110207764
 20
12.5613522266
 30
0.0
 10
6.6107576105
 20
12.5619555643
 30
0.0
 10
6.6104034836
 20
12.5626580217
 30
0.0
 10
6.6099584134
 20
12.5634583089
 30
0.0
 10
6.6094233225
 20
12.5643544997
 30
0.0
 10
6.6087993475
 20
12.5653444754
 30
0.0
 10
6.6078063596
 20
12.5668533049
 30
0.0
 10
6.6063495333
 20
12.5689509587
 30
0.0
 10
6.6043449107
 20
12.5717004838
 30
0.0
 10
6.6020331114
 20
12.5747547682
 30
0.0
 10
6.5994359079
 20
12.5780845575
 30
0.0
 10
6.5955019071
 20
12.5830028355
 30
0.0
 10
6.5900670686
 20
12.589576513
 30
0.0
 10
6.5830518103
 20
12.5977758497
 30
0.0
 10
6.5781331484
 20
12.6033512289
 30
0.0
 10
6.5756040097
 20
12.6061762231
 30
0.0
  0
SPLINE
  5
472
100
AcDbEntity
  8
0
100
AcDbSpline
 62
7
  6
CONTINUOUS
 70
0
 71
3
 72
27
 73
23
 74
0
 42
0.0000001
 43
0.0000001
 44
0.0000000001
 40
0.0
 40
0.0
 40
0.0
 40
0.0
 40
0.0015474089
 40
0.0033087091
 40
0.0054354624
 40
0.0080147599
 40
0.0146977089
 40
0.0235547715
 40
0.0346417101
 40
0.0479704343
 40
0.0635339183
 40
0.0813058588
 40
0.1012505156
 40
0.1233287259
 40
0.173679999
 40
0.2319020684
 40
0.297450457
 40
0.3697138361
 40
0.448009896
 40
0.6197043909
 40
0.8060467628
 40
1.0
 40
1.0
 40
1.0
 40
1.0
 10
6.3611190116
 20
12.8087427113
 30
0.0
 10
6.3611419079
 20
12.8087624211
 30
0.0
 10
6.3611821422
 20
12.8088153475
 30
0.0
 10
6.3612135159
 20
12.8089182287
 30
0.0
 10
6.3612209857
 20
12.809045042
 30
0.0
 10
6.3611982194
 20
12.8092668606
 30
0.0
 10
6.3611022014
 20
12.8096092972
 30
0.0
 10
6.3609085839
 20
12.8100920065
 30
0.0
 10
6.3606251526
 20
12.8106770486
 30
0.0
 10
6.3602524234
 20
12.8113630108
 30
0.0
 10
6.359790487
 20
12.8121484453
 30
0.0
 10
6.3592403831
 20
12.8130314072
 30
0.0
 10
6.358603316
 20
12.8140097527
 30
0.0
 10
6.3575946801
 20
12.8155048922
 30
0.0
 10
6.3561246334
 20
12.8175898076
 30
0.0
 10
6.354113287
 20
12.8203306143
 30
0.0
 10
6.3518034385
 20
12.8233824673
 30
0.0
 10
6.3492169881
 20
12.8267160645
 30
0.0
 10
6.3453101732
 20
12.8316478052
 30
0.0
 10
6.3399315516
 20
12.8382544593
 30
0.0
 10
6.3330117401
 20
12.8465166386
 30
0.0
 10
6.328173505
 20
12.8521488925
 30
0.0
 10
6.3256888286
 20
12.8550064091
 30
0.0
  0
SPLINE
  5
473
100
AcDbEntity
  8
0
100
AcDbSpline
 62
7
  6
CONTINUOUS
 70
0
 71
3
 72
28
 73
24
 74
0
 42
0.0000001
 43
0.0000001
 44
0.0000000001
 40
0.0
 40
0.0
 40
0.0
 40
0.0
 40
0.0011786564
 40
0.0026348989
 40
0.0045245635
 40
0.006919424
 40
0.0098536677
 40
0.0133450426
 40
0.0220305037
 40
0.03300306
 40
0.046257868
 40
0.0617781273
 40
0.0795311252
 40
0.1215717693
 40
0.1719983045
 40
0.2303359165
 40
0.2960279168
 40
0.3684534235
 40
0.4469228882
 40
0.5306947101
 40
0.61897786
 40
0.8056805928
 40
1.0
 40
1.0
 40
1.0
 40
1.0
 10
6.1633782656
 20
13.0055510861
 30
0.0
 10
6.1633956453
 20
13.0055660488
 30
0.0
 10
6.1634245163
 20
13.0056113361
 30
0.0
 10
6.1634374095
 20
13.0056997804
 30
0.0
 10
6.1634282142
 20
13.0058115961
 30
0.0
 10
6.1633968807
 20
13.0059488358
 30
0.0
 10
6.1633434933
 20
13.0061120992
 30
0.0
 10
6.1632342052
 20
13.0063852107
 30
0.0
 10
6.1630367883
 20
13.0067905797
 30
0.0
 10
6.1627267893
 20
13.0073510709
 30
0.0
 10
6.162328369
 20
13.0080140852
 30
0.0
 10
6.1618424075
 20
13.0087779774
 30
0.0
 10
6.1610320299
 20
13.0099989944
 30
0.0
 10
6.1598047175
 20
13.0117579621
 30
0.0
 10
6.1580795949
 20
13.0141316262
 30
0.0
 10
6.1560448696
 20
13.0168487294
 30
0.0
 10
6.1537200508
 20
13.0198830109
 30
0.0
 10
6.1511271689
 20
13.0232051466
 30
0.0
 10
6.1482909018
 20
13.0267833905
 30
0.0
 10
6.1452381684
 20
13.0305836318
 30
0.0
 10
6.1408349972
 20
13.0360001476
 30
0.0
 10
6.1350183242
 20
13.0430393818
 30
0.0
 10
6.1302430361
 20
13.0487103571
 30
0.0
 10
6.1277947704
 20
13.0515915443
 30
0.0
  0
SPLINE
  5
474
100
AcDbEntity
  8
0
100
AcDbSpline
 62
7
  6
CONTINUOUS
 70
0
 71
3
 72
31
 73
27
 74
0
 42
0.0000001
 43
0.0000001
 44
0.0000000001
 40
0.0
 40
0.0
 40
0.0
 40
0.0
 40
0.0005315169
 40
0.0009498286
 40
0.001499125
 40
0.0030187007
 40
0.0051197604
 40
0.0078109971
 40
0.0110958457
 40
0.0194485548
 40
0.0301657858
 40
0.0432246148
 40
0.0585990965
 40
0.0762516723
 40
0.0961374465
 40
0.1182108311
 40
0.1686978305
 40
0.2272172854
 40
0.2931930364
 40
0.3659806626
 40
0.4448640601
 40
0.5290745646
 40
0.6177922487
 40
0.7101451024
 40
0.8052443341
 40
1.0
 40
1.0
 40
1.0
 40
1.0
 10
8.7912219801
 20
10.3389329668
 30
0.0
 10
8.7912298224
 20
10.3389397199
 30
0.0
 10
8.7912321048
 20
10.3389618761
 30
0.0
 10
8.791223582
 20
10.3389890414
 30
0.0
 10
8.79120384
 20
10.3390337565
 30
0.0
 10
8.7911602664
 20
10.3391023247
 30
0.0
 10
8.7910872335
 20
10.3392012818
 30
0.0
 10
8.7909876445
 20
10.3393230449
 30
0.0
 10
8.7908045158
 20
10.3395335678
 30
0.0
 10
8.790507717
 20
10.3398520894
 30
0.0
 10
8.7900708285
 20
10.3402998651
 30
0.0
 10
8.7895298902
 20
10.3408370182
 30
0.0
 10
8.788886198
 20
10.3414622389
 30
0.0
 10
8.7881412169
 20
10.3421739112
 30
0.0
 10
8.7872967813
 20
10.3429702627
 30
0.0
 10
8.7859808096
 20
10.3441984041
 30
0.0
 10
8.7841034512
 20
10.3459274807
 30
0.0
 10
8.7815835324
 20
10.3482205913
 30
0.0
 10
8.7787304259
 20
10.3507926538
 30
0.0
 10
8.7755721429
 20
10.3536183185
 30
0.0
 10
8.772139582
 20
10.3566698726
 30
0.0
 10
8.7684662875
 20
10.3599174486
 30
0.0
 10
8.7645881587
 20
10.3633292697
 30
0.0
 10
8.7605429551
 20
10.3668721397
 30
0.0
 10
8.7549343586
 20
10.3717636549
 30
0.0
 10
8.7506699351
 20
10.3754605703
 30
0.0
 10
8.7477999748
 20
10.3779391478
 30
0.0
  0
LINE
  5
475
100
AcDbEntity
  8
0
100
AcDbLine
 62
7
  6
CONTINUOUS
 10
8.6475149178
 20
10.4825441238
 11
8.6466101153
 21
10.4833917494
  0
SPLINE
  5
476
100
AcDbEntity
  8
0
100
AcDbSpline
 62
7
  6
CONTINUOUS
 70
0
 71
3
 72
10
 73
6
 74
0
 42
0.0000001
 43
0.0000001
 44
0.0000000001
 40
0.0
 40
0.0
 40
0.0
 40
0.0
 40
0.2218337513
 40
0.4676471516
 40
1.0
 40
1.0
 40
1.0
 40
1.0
 10
8.6466101153
 20
10.4833917494
 30
0.0
 10
8.6445711912
 20
10.4852982806
 30
0.0
 10
8.6402490367
 20
10.4892918975
 30
0.0
 10
8.6309329203
 20
10.4977508998
 30
0.0
 10
8.6236100657
 20
10.5042522336
 30
0.0
 10
8.6185729342
 20
10.5086682867
 30
0.0
  0
SPLINE
  5
477
100
AcDbEntity
  8
0
100
AcDbSpline
 62
7
  6
CONTINUOUS
 70
0
 71
3
 72
31
 73
27
 74
0
 42
0.0000001
 43
0.0000001
 44
0.0000000001
 40
0.0
 40
0.0
 40
0.0
 40
0.0
 40
0.1947560661
 40
0.2898553722
 40
0.3822082042
 40
0.470925843
 40
0.5551362619
 40
0.634019585
 40
0.70680716
 40
0.7727828733
 40
0.8313022838
 40
0.8817892535
 40
0.9038626132
 40
0.9237483808
 40
0.9414009505
 40
0.9567754069
 40
0.9698342299
 40
0.9805514622
 40
0.9889041484
 40
0.9921889887
 40
0.9948802277
 40
0.9969812948
 40
0.9985008775
 40
0.9990501757
 40
0.9994684872
 40
1.0
 40
1.0
 40
1.0
 40
1.0
 10
6.2343132319
 20
12.8914258907
 30
0.0
 10
6.2318346493
 20
12.8942958569
 30
0.0
 10
6.2281377278
 20
12.8985602875
 30
0.0
 10
6.2232462067
 20
12.9041688905
 30
0.0
 10
6.2197033366
 20
12.9082140943
 30
0.0
 10
6.2162915174
 20
12.9120922208
 30
0.0
 10
6.213043944
 20
12.9157655123
 30
0.0
 10
6.2099923925
 20
12.9191980701
 30
0.0
 10
6.2071667299
 20
12.9223563507
 30
0.0
 10
6.204594669
 20
12.9252094553
 30
0.0
 10
6.2023015598
 20
12.9277293725
 30
0.0
 10
6.2005724846
 20
12.9296067295
 30
0.0
 10
6.199344344
 20
12.9309227002
 30
0.0
 10
6.1985479929
 20
12.9317671353
 30
0.0
 10
6.1978363212
 20
12.9325121159
 30
0.0
 10
6.1972111009
 20
12.9331558075
 30
0.0
 10
6.1966739481
 20
12.9336967454
 30
0.0
 10
6.1962261729
 20
12.9341336336
 30
0.0
 10
6.1959076517
 20
12.9344304319
 30
0.0
 10
6.1956971291
 20
12.9346135602
 30
0.0
 10
6.195575366
 20
12.9347131492
 30
0.0
 10
6.1954764087
 20
12.9347861823
 30
0.0
 10
6.1954078403
 20
12.9348297563
 30
0.0
 10
6.1953631251
 20
12.9348494984
 30
0.0
 10
6.1953359599
 20
12.9348580213
 30
0.0
 10
6.1953138036
 20
12.9348557386
 30
0.0
 10
6.1953070508
 20
12.9348478961
 30
0.0
  0
LINE
  5
478
100
AcDbEntity
  8
0
100
AcDbLine
 62
7
  6
CONTINUOUS
 10
6.192296442
 20
12.9313247526
 11
6.1918427217
 21
12.9318527297
  0
LINE
  5
479
100
AcDbEntity
  8
0
100
AcDbLine
 62
7
  6
CONTINUOUS
 10
6.1918427217
 20
12.9318527297
 11
6.1891764738
 21
12.9349553445
  0
LINE
  5
47A
100
AcDbEntity
  8
0
100
AcDbLine
 62
7
  6
CONTINUOUS
 10
6.1891764738
 20
12.9349553445
 11
6.1510727831
 21
12.9792958689
  0
SPLINE
  5
47B
100
AcDbEntity
  8
0
100
AcDbSpline
 62
7
  6
CONTINUOUS
 70
0
 71
3
 72
16
 73
12
 74
0
 42
0.0000001
 43
0.0000001
 44
0.0000000001
 40
0.0
 40
0.0
 40
0.0
 40
0.0
 40
0.0476703053
 40
0.0760370179
 40
0.1090855655
 40
0.1919664582
 40
0.299874155
 40
0.4342220952
 40
0.5955824804
 40
0.7841619718
 40
1.0
 40
1.0
 40
1.0
 40
1.0
 10
7.5110136771
 20
11.5725256082
 30
0.0
 10
7.5110452147
 20
11.5725527619
 30
0.0
 10
7.5110801324
 20
11.5726146817
 30
0.0
 10
7.5110943275
 20
11.5727090063
 30
0.0
 10
7.5110917578
 20
11.5728355577
 30
0.0
 10
7.5110483016
 20
11.5730275331
 30
0.0
 10
7.5109490008
 20
11.5732937533
 30
0.0
 10
7.5107972345
 20
11.5736121715
 30
0.0
 10
7.5105931356
 20
11.5739825877
 30
0.0
 10
7.5103364945
 20
11.5744047461
 30
0.0
 10
7.5101434754
 20
11.5747004331
 30
0.0
 10
7.5100386238
 20
11.5748569942
 30
0.0
  0
SPLINE
  5
47C
100
AcDbEntity
  8
0
100
AcDbSpline
 62
7
  6
CONTINUOUS
 70
0
 71
3
 72
17
 73
13
 74
0
 42
0.0000001
 43
0.0000001
 44
0.0000000001
 40
0.0
 40
0.0
 40
0.0
 40
0.0
 40
0.2164860098
 40
0.4060185177
 40
0.568329515
 40
0.7034453755
 40
0.8117210829
 40
0.8942312145
 40
0.9267224065
 40
0.9542450756
 40
0.9780396288
 40
1.0
 40
1.0
 40
1.0
 40
1.0
 10
7.4537624851
 20
11.6728308301
 30
0.0
 10
7.4534601654
 20
11.6730418113
 30
0.0
 10
7.4528886674
 20
11.6734311396
 30
0.0
 10
7.4520723603
 20
11.6739514641
 30
0.0
 10
7.4513553925
 20
11.6743686114
 30
0.0
 10
7.4507391691
 20
11.6746825166
 30
0.0
 10
7.4502251252
 20
11.6748928649
 30
0.0
 10
7.4498550039
 20
11.6749911345
 30
0.0
 10
7.4496119284
 20
11.675006706
 30
0.0
 10
7.4494690996
 20
11.6749904394
 30
0.0
 10
7.4493507682
 20
11.6749459201
 30
0.0
 10
7.4492891255
 20
11.6748954327
 30
0.0
 10
7.4492647278
 20
11.6748670905
 30
0.0
  0
SPLINE
  5
47D
100
AcDbEntity
  8
0
100
AcDbSpline
 62
7
  6
CONTINUOUS
 70
0
 71
3
 72
18
 73
14
 74
0
 42
0.0000001
 43
0.0000001
 44
0.0000000001
 40
0.0
 40
0.0
 40
0.0
 40
0.0
 40
0.2199126641
 40
0.4124229828
 40
0.5770576388
 40
0.7135495948
 40
0.8220228562
 40
0.8659599767
 40
0.9032634766
 40
0.9343185361
 40
0.9598120844
 40
0.9809937177
 40
1.0
 40
1.0
 40
1.0
 40
1.0
 10
7.1188598825
 20
12.0094210049
 30
0.0
 10
7.1184795772
 20
12.0097158271
 30
0.0
 10
7.1177609085
 20
12.0102618039
 30
0.0
 10
7.1167355155
 20
12.010998914
 30
0.0
 10
7.115836761
 20
12.0115986914
 30
0.0
 10
7.1150675474
 20
12.0120592936
 30
0.0
 10
7.1145025452
 20
12.0123454593
 30
0.0
 10
7.114115483
 20
12.01249646
 30
0.0
 10
7.1138794189
 20
12.012566076
 30
0.0
 10
7.1136762873
 20
12.0126005476
 30
0.0
 10
7.1135049764
 20
12.0125995339
 30
0.0
 10
7.1133640734
 20
12.0125608547
 30
0.0
 10
7.1132918653
 20
12.0125059081
 30
0.0
 10
7.1132647338
 20
12.0124743887
 30
0.0
  0
SPLINE
  5
47E
100
AcDbEntity
  8
0
100
AcDbSpline
 62
7
  6
CONTINUOUS
 70
0
 71
3
 72
13
 73
9
 74
0
 42
0.0000001
 43
0.0000001
 44
0.0000000001
 40
0.0
 40
0.0
 40
0.0
 40
0.0
 40
0.3640773844
 40
0.6410614419
 40
0.7502666835
 40
0.8431532293
 40
0.9241894069
 40
1.0
 40
1.0
 40
1.0
 40
1.0
 10
6.8011806542
 20
12.3269409668
 30
0.0
 10
6.8010623423
 20
12.326998106
 30
0.0
 10
6.8008501697
 20
12.3270908117
 30
0.0
 10
6.8005877443
 20
12.3271655483
 30
0.0
 10
6.8004146551
 20
12.3271782894
 30
0.0
 10
6.8003123173
 20
12.3271668829
 30
0.0
 10
6.8002269748
 20
12.3271342861
 30
0.0
 10
6.8001824353
 20
12.3270973682
 30
0.0
 10
6.8001645869
 20
12.3270766339
 30
0.0
  0
SPLINE
  5
47F
100
AcDbEntity
  8
0
100
AcDbSpline
 62
7
  6
CONTINUOUS
 70
0
 71
3
 72
10
 73
6
 74
0
 42
0.0000001
 43
0.0000001
 44
0.0000000001
 40
0.0
 40
0.0
 40
0.0
 40
0.0
 40
0.5323533305
 40
0.7781666479
 40
1.0
 40
1.0
 40
1.0
 40
1.0
 10
6.3650423708
 20
12.7621988501
 30
0.0
 10
6.3606262906
 20
12.7672360125
 30
0.0
 10
6.354124919
 20
12.7745589091
 30
0.0
 10
6.3456658713
 20
12.7838750733
 30
0.0
 10
6.3416722366
 20
12.7881972451
 30
0.0
 10
6.3397656984
 20
12.7902361757
 30
0.0
  0
LINE
  5
480
100
AcDbEntity
  8
0
100
AcDbLine
 62
7
  6
CONTINUOUS
 10
6.3397656984
 20
12.7902361757
 11
6.3389187778
 21
12.7911402267
  0
SPLINE
  5
481
100
AcDbEntity
  8
0
100
AcDbSpline
 62
7
  6
CONTINUOUS
 70
0
 71
3
 72
32
 73
28
 74
0
 42
0.0000001
 43
0.0000001
 44
0.0000000001
 40
0.0
 40
0.0
 40
0.0
 40
0.0
 40
0.1948348195
 40
0.2899549805
 40
0.3823174524
 40
0.4710348795
 40
0.5552383372
 40
0.6341114747
 40
0.7068898516
 40
0.7728615439
 40
0.8313859733
 40
0.857672456
 40
0.8818901571
 40
0.9039771038
 40
0.9238798917
 40
0.9415526007
 40
0.9569497601
 40
0.970032901
 40
0.9807742045
 40
0.9852584077
 40
0.9891473483
 40
0.992438758
 40
0.9951320252
 40
0.9972272293
 40
0.9987258707
 40
0.9996346099
 40
1.0
 40
1.0
 40
1.0
 40
1.0
 10
6.4884961951
 20
12.5958692687
 30
0.0
 10
6.4859718792
 20
12.5986991004
 30
0.0
 10
6.4822110898
 20
12.6029068466
 30
0.0
 10
6.4772438553
 20
12.6084473324
 30
0.0
 10
6.4736510593
 20
12.6124461362
 30
0.0
 10
6.4701958754
 20
12.6162829386
 30
0.0
 10
6.4669118114
 20
12.6199205223
 30
0.0
 10
6.4638308346
 20
12.6233235002
 30
0.0
 10
6.4609829213
 20
12.626458803
 30
0.0
 10
6.4583957891
 20
12.6292959264
 30
0.0
 10
6.4564132067
 20
12.6314597062
 30
0.0
 10
6.4549758317
 20
12.6330208096
 30
0.0
 10
6.4540169103
 20
12.634058421
 30
0.0
 10
6.4531402443
 20
12.6350028652
 30
0.0
 10
6.4523479802
 20
12.6358518419
 30
0.0
 10
6.4516420652
 20
12.6366032974
 30
0.0
 10
6.4510242565
 20
12.6372554039
 30
0.0
 10
6.4504960878
 20
12.6378065644
 30
0.0
 10
6.4501117176
 20
12.63820137
 30
0.0
 10
6.4498496155
 20
12.638465348
 30
0.0
 10
6.4496882328
 20
12.6386251495
 30
0.0
 10
6.4495504208
 20
12.6387587481
 30
0.0
 10
6.4494351021
 20
12.6388666573
 30
0.0
 10
6.4493454904
 20
12.6389474758
 30
0.0
 10
6.4492741205
 20
12.6390049155
 30
0.0
 10
6.4492364225
 20
12.6390327316
 30
0.0
 10
6.4492055808
 20
12.6390460671
 30
0.0
 10
6.4492009387
 20
12.6390406795
 30
0.0
  0
SPLINE
  5
482
100
AcDbEntity
  8
0
100
AcDbSpline
 62
7
  6
CONTINUOUS
 70
0
 71
3
 72
28
 73
24
 74
0
 42
0.0000001
 43
0.0000001
 44
0.0000000001
 40
0.0
 40
0.0
 40
0.0
 40
0.0
 40
0.1935058215
 40
0.3794701746
 40
0.4673683569
 40
0.5507284691
 40
0.6287555631
 40
0.7007145537
 40
0.7659309554
 40
0.8238114361
 40
0.8738430621
 40
0.8957832818
 40
0.9156154558
 40
0.9333104361
 40
0.9488456454
 40
0.962215341
 40
0.9734414315
 40
0.982581794
 40
0.9897730839
 40
0.9927340138
 40
0.9953533023
 40
0.9977309742
 40
1.0
 40
1.0
 40
1.0
 40
1.0
 10
7.5198195736
 20
11.6634454895
 30
0.0
 10
7.5171317346
 20
11.6661333284
 30
0.0
 10
7.5118127269
 20
11.671356407
 30
0.0
 10
7.5051415839
 20
11.6776648351
 30
0.0
 10
7.4999650612
 20
11.6824026039
 30
0.0
 10
7.4963138268
 20
11.6856659381
 30
0.0
 10
7.492855918
 20
11.6886751613
 30
0.0
 10
7.4896248689
 20
11.6914014521
 30
0.0
 10
7.4866518409
 20
11.6938190025
 30
0.0
 10
7.4839655166
 20
11.6959051003
 30
0.0
 10
7.4819062922
 20
11.6974114503
 30
0.0
 10
7.4804180865
 20
11.6984302317
 30
0.0
 10
7.4794380949
 20
11.6990662791
 30
0.0
 10
7.4785468845
 20
11.6996072222
 30
0.0
 10
7.4777464431
 20
11.7000519745
 30
0.0
 10
7.477038568
 20
11.7003997838
 30
0.0
 10
7.4764242521
 20
11.7006507029
 30
0.0
 10
7.47590443
 20
11.7008047975
 30
0.0
 10
7.4755257073
 20
11.7008564665
 30
0.0
 10
7.4752745177
 20
11.7008384992
 30
0.0
 10
7.4751219086
 20
11.7008002113
 30
0.0
 10
7.4749931917
 20
11.7007355185
 30
0.0
 10
7.4749240172
 20
11.7006740359
 30
0.0
 10
7.4748949425
 20
11.7006402522
 30
0.0
  0
SPLINE
  5
483
100
AcDbEntity
  8
0
100
AcDbSpline
 62
7
  6
CONTINUOUS
 70
0
 71
3
 72
30
 73
26
 74
0
 42
0.0000001
 43
0.0000001
 44
0.0000000001
 40
0.0
 40
0.0
 40
0.0
 40
0.0
 40
0.1946090435
 40
0.3819199534
 40
0.4705587081
 40
0.5546777662
 40
0.6334525301
 40
0.7061113033
 40
0.7719371356
 40
0.8302882155
 40
0.8805959175
 40
0.9025798164
 40
0.9223797273
 40
0.9399537807
 40
0.9552622292
 40
0.9682756462
 40
0.9789805595
 40
0.9834668934
 40
0.9873776857
 40
0.9907186098
 40
0.9935016277
 40
0.9957485492
 40
0.9975022412
 40
0.9988545706
 40
1.0
 40
1.0
 40
1.0
 40
1.0
 10
6.1277947704
 20
13.0515915443
 30
0.0
 10
6.1253307095
 20
13.0544913197
 30
0.0
 10
6.1204693136
 20
13.0601603566
 30
0.0
 10
6.11441474
 20
13.0670889402
 30
0.0
 10
6.1097392435
 20
13.0723530229
 30
0.0
 10
6.1064515883
 20
13.0760111446
 30
0.0
 10
6.1033503575
 20
13.0794165727
 30
0.0
 10
6.1004662089
 20
13.0825357424
 30
0.0
 10
6.0978277059
 20
13.0853379507
 30
0.0
 10
6.0954610893
 20
13.0877955886
 30
0.0
 10
6.0936627144
 20
13.0896100386
 30
0.0
 10
6.0923749555
 20
13.0908687629
 30
0.0
 10
6.0915348047
 20
13.0916696126
 30
0.0
 10
6.0907781889
 20
13.0923687518
 30
0.0
 10
6.090106997
 20
13.0929646017
 30
0.0
 10
6.0895228587
 20
13.0934557869
 30
0.0
 10
6.0890876894
 20
13.0937949851
 30
0.0
 10
6.0887827865
 20
13.0940108504
 30
0.0
 10
6.088590431
 20
13.0941361967
 30
0.0
 10
6.088420681
 20
13.0942348487
 30
0.0
 10
6.0882735359
 20
13.0943069316
 30
0.0
 10
6.0881486387
 20
13.0943527606
 30
0.0
 10
6.088045256
 20
13.0943725126
 30
0.0
 10
6.0879604401
 20
13.0943654453
 30
0.0
 10
6.0879172459
 20
13.0943373688
 30
0.0
 10
6.0879026361
 20
13.0943203927
 30
0.0
  0
SPLINE
  5
484
100
AcDbEntity
  8
0
100
AcDbSpline
 62
7
  6
CONTINUOUS
 70
0
 71
3
 72
26
 73
22
 74
0
 42
0.0000001
 43
0.0000001
 44
0.0000000001
 40
0.0
 40
0.0
 40
0.0
 40
0.0
 40
0.1944509543
 40
0.3815498753
 40
0.5540297885
 40
0.6326448311
 40
0.7051352311
 40
0.7707913772
 40
0.828981802
 40
0.8791516293
 40
0.9208381947
 40
0.9383883911
 40
0.9536955382
 40
0.9667376453
 40
0.9775126167
 40
0.986039198
 40
0.9923891883
 40
0.994813399
 40
0.9968060758
 40
0.9984751692
 40
1.0
 40
1.0
 40
1.0
 40
1.0
 10
6.3256888286
 20
12.8550064091
 30
0.0
 10
6.3231921297
 20
12.8578777521
 30
0.0
 10
6.3182590439
 20
12.8634823589
 30
0.0
 10
6.310994304
 20
12.8715298421
 30
0.0
 10
6.3051597018
 20
12.8778137596
 30
0.0
 10
6.3007891012
 20
12.8823954667
 30
0.0
 10
6.2978301056
 20
12.8854345718
 30
0.0
 10
6.2951165994
 20
12.8881545056
 30
0.0
 10
6.2926755777
 20
12.8905288883
 30
0.0
 10
6.290531124
 20
12.8925346725
 30
0.0
 10
6.2889290904
 20
12.8939555434
 30
0.0
 10
6.2878071272
 20
12.8948878927
 30
0.0
 10
6.2871010811
 20
12.8954433044
 30
0.0
 10
6.2864827567
 20
12.8958949835
 30
0.0
 10
6.2859533881
 20
12.8962428847
 30
0.0
 10
6.2855142278
 20
12.8964864011
 30
0.0
 10
6.2851987502
 20
12.8966153693
 30
0.0
 10
6.2849912658
 20
12.8966561472
 30
0.0
 10
6.2848712087
 20
12.8966572497
 30
0.0
 10
6.2847715235
 20
12.8966300518
 30
0.0
 10
6.2847204764
 20
12.896590643
 30
0.0
 10
6.2847010133
 20
12.896568027
 30
0.0
  0
SPLINE
  5
485
100
AcDbEntity
  8
0
100
AcDbSpline
 62
7
  6
CONTINUOUS
 70
0
 71
3
 72
16
 73
12
 74
0
 42
0.0000001
 43
0.0000001
 44
0.0000000001
 40
0.0
 40
0.0
 40
0.0
 40
0.0
 40
0.2158380345
 40
0.4044176355
 40
0.5657782142
 40
0.7001264061
 40
0.8080341901
 40
0.8909149301
 40
0.9239633493
 40
0.9523299228
 40
1.0
 40
1.0
 40
1.0
 40
1.0
 10
7.4312310926
 20
11.65366453
 30
0.0
 10
7.4310745306
 20
11.6537693824
 30
0.0
 10
7.4307788415
 20
11.653962403
 30
0.0
 10
7.4303566803
 20
11.6542190463
 30
0.0
 10
7.4299862613
 20
11.6544231471
 30
0.0
 10
7.4296678408
 20
11.6545749153
 30
0.0
 10
7.4294016188
 20
11.6546742174
 30
0.0
 10
7.4292096423
 20
11.6547176743
 30
0.0
 10
7.4290830905
 20
11.654720244
 30
0.0
 10
7.4289887656
 20
11.6547060489
 30
0.0
 10
7.4289268458
 20
11.6546711309
 30
0.0
 10
7.4288996922
 20
11.6546395932
 30
0.0
  0
SPLINE
  5
486
100
AcDbEntity
  8
0
100
AcDbSpline
 62
7
  6
CONTINUOUS
 70
0
 71
3
 72
28
 73
24
 74
0
 42
0.0000001
 43
0.0000001
 44
0.0000000001
 40
0.0
 40
0.0
 40
0.0
 40
0.0
 40
0.194208208
 40
0.3810094623
 40
0.4693493428
 40
0.55314387
 40
0.6315762269
 40
0.703887132
 40
0.769376483
 40
0.8274247016
 40
0.8774918517
 40
0.899390651
 40
0.9191366519
 40
0.9366956252
 40
0.952038118
 40
0.9651494061
 40
0.9760381857
 40
0.9847412776
 40
0.9913631462
 40
0.9939771503
 40
0.9962061245
 40
0.9981601157
 40
1.0
 40
1.0
 40
1.0
 40
1.0
 10
6.5756040097
 20
12.6061762231
 30
0.0
 10
6.5730663444
 20
12.6090107411
 30
0.0
 10
6.5680469447
 20
12.6145352411
 30
0.0
 10
6.5617610617
 20
12.6212459653
 30
0.0
 10
6.5568870125
 20
12.6263141629
 30
0.0
 10
6.5534508704
 20
12.6298195408
 30
0.0
 10
6.5501995817
 20
12.6330660695
 30
0.0
 10
6.5471652381
 20
12.6360219329
 30
0.0
 10
6.5443777177
 20
12.6386583846
 30
0.0
 10
6.5418644979
 20
12.6409499148
 30
0.0
 10
6.5399424114
 20
12.6426216084
 30
0.0
 10
6.5385568419
 20
12.6437654543
 30
0.0
 10
6.5376475618
 20
12.6444855621
 30
0.0
 10
6.5368231735
 20
12.6451055101
 30
0.0
 10
6.5360855822
 20
12.6456240178
 30
0.0
 10
6.5354365501
 20
12.6460401016
 30
0.0
 10
6.5348771594
 20
12.6463538341
 30
0.0
 10
6.5344085647
 20
12.6465649939
 30
0.0
 10
6.5340686393
 20
12.6466648299
 30
0.0
 10
6.5338438067
 20
12.6466821977
 30
0.0
 10
6.5337104043
 20
12.6466673358
 30
0.0
 10
6.5335987944
 20
12.6466242882
 30
0.0
 10
6.5335404776
 20
12.6465756528
 30
0.0
 10
6.5335169671
 20
12.6465483333
 30
0.0
  0
SPLINE
  5
487
100
AcDbEntity
  8
0
100
AcDbSpline
 62
7
  6
CONTINUOUS
 70
0
 71
3
 72
19
 73
15
 74
0
 42
0.0000001
 43
0.0000001
 44
0.0000000001
 40
0.0
 40
0.0
 40
0.0
 40
0.0
 40
0.2249874789
 40
0.4220697629
 40
0.5904878389
 40
0.7296078308
 40
0.7880575918
 40
0.8390818787
 40
0.8826996316
 40
0.9189773609
 40
0.9480903947
 40
0.9704456792
 40
0.9869829817
 40
1.0
 40
1.0
 40
1.0
 40
1.0
 10
7.0953774156
 20
11.9918531332
 30
0.0
 10
7.0949051899
 20
11.9922615716
 30
0.0
 10
7.0940143043
 20
11.9930220432
 30
0.0
 10
7.0927493893
 20
11.994063931
 30
0.0
 10
7.0916479583
 20
11.9949289179
 30
0.0
 10
7.0908292566
 20
11.9955305282
 30
0.0
 10
7.0902576077
 20
11.9959168731
 30
0.0
 10
7.0898979306
 20
11.996143142
 30
0.0
 10
7.0895821838
 20
11.9963232112
 30
0.0
 10
7.0893106551
 20
11.9964570008
 30
0.0
 10
7.0890830228
 20
11.9965452007
 30
0.0
 10
7.0888985021
 20
11.9965876994
 30
0.0
 10
7.0887514705
 20
11.9965864127
 30
0.0
 10
7.0886753169
 20
11.996543377
 30
0.0
 10
7.0886517447
 20
11.996516005
 30
0.0
  0
LINE
  5
488
100
AcDbEntity
  8
0
100
AcDbLine
 62
9
  6
CONTINUOUS
 10
6.8676493725
 20
12.2113997516
 11
7.0854273452
 21
11.9936282229
  0
LINE
  5
489
100
AcDbEntity
  8
0
100
AcDbLine
 62
9
  6
CONTINUOUS
 10
7.0854273452
 20
11.9936282229
 11
7.0856546934
 21
11.9934009816
  0
LINE
  5
48A
100
AcDbEntity
  8
0
100
AcDbLine
 62
7
  6
CONTINUOUS
 10
6.5101917739
 20
12.5713960749
 11
6.5092900573
 21
12.5724205234
  0
LINE
  5
48B
100
AcDbEntity
  8
0
100
AcDbLine
 62
7
  6
CONTINUOUS
 10
6.7620821002
 20
12.2916373072
 11
6.7223568724
 21
12.3346908563
  0
SPLINE
  5
48C
100
AcDbEntity
  8
0
100
AcDbSpline
 62
7
  6
CONTINUOUS
 70
0
 71
3
 72
15
 73
11
 74
0
 42
0.0000001
 43
0.0000001
 44
0.0000000001
 40
0.0
 40
0.0
 40
0.0
 40
0.0
 40
0.2218324787
 40
0.4151022848
 40
0.5798222562
 40
0.7161238469
 40
0.8243872187
 40
0.8683112545
 40
0.9057179967
 40
1.0
 40
1.0
 40
1.0
 40
1.0
 10
7.4154135455
 20
11.6391184528
 30
0.0
 10
7.4153013343
 20
11.6391994901
 30
0.0
 10
7.4150899105
 20
11.6393491382
 30
0.0
 10
7.4147891631
 20
11.6395503661
 30
0.0
 10
7.4145270396
 20
11.6397129139
 30
0.0
 10
7.4143032794
 20
11.6398367017
 30
0.0
 10
7.414140319
 20
11.6399125306
 30
0.0
 10
7.414027504
 20
11.6399516393
 30
0.0
 10
7.4139248538
 20
11.639978705
 30
0.0
 10
7.4138206284
 20
11.6399817457
 30
0.0
 10
7.4137822261
 20
11.6399371813
 30
0.0
  0
SPLINE
  5
48D
100
AcDbEntity
  8
0
100
AcDbSpline
 62
7
  6
CONTINUOUS
 70
0
 71
3
 72
22
 73
18
 74
0
 42
0.0000001
 43
0.0000001
 44
0.0000000001
 40
0.0
 40
0.0
 40
0.0
 40
0.0
 40
0.2275964518
 40
0.4272437777
 40
0.5979101795
 40
0.7387826272
 40
0.7978220847
 40
0.8491889848
 40
0.8928506059
 40
0.928792577
 40
0.9570423584
 40
0.9683266058
 40
0.9777635395
 40
0.9854238027
 40
0.9914427487
 40
0.9961034053
 40
1.0
 40
1.0
 40
1.0
 40
1.0
 10
7.0754029125
 20
11.9812847412
 30
0.0
 10
7.0748726286
 20
11.9817807523
 30
0.0
 10
7.0738735173
 20
11.9827079631
 30
0.0
 10
7.0724617295
 20
11.9839908072
 30
0.0
 10
7.0712394937
 20
11.9850706091
 30
0.0
 10
7.070338578
 20
11.985836393
 30
0.0
 10
7.0697156055
 20
11.9863410008
 30
0.0
 10
7.0693275697
 20
11.9866427629
 30
0.0
 10
7.0689910478
 20
11.9868905724
 30
0.0
 10
7.0687064886
 20
11.9870841371
 30
0.0
 10
7.0685000256
 20
11.9872085939
 30
0.0
 10
7.0683602862
 20
11.9872786645
 30
0.0
 10
7.0682766341
 20
11.9873135569
 30
0.0
 10
7.068205882
 20
11.9873350619
 30
0.0
 10
7.0681476326
 20
11.9873432046
 30
0.0
 10
7.0681005128
 20
11.9873377155
 30
0.0
 10
7.0680764745
 20
11.9873220719
 30
0.0
 10
7.0680683581
 20
11.9873126558
 30
0.0
  0
SPLINE
  5
48E
100
AcDbEntity
  8
0
100
AcDbSpline
 62
7
  6
CONTINUOUS
 70
0
 71
3
 72
28
 73
24
 74
0
 42
0.0000001
 43
0.0000001
 44
0.0000000001
 40
0.0
 40
0.0
 40
0.0
 40
0.0
 40
0.1939363983
 40
0.3804138782
 40
0.4685779915
 40
0.5521936543
 40
0.6304511984
 40
0.7026001337
 40
0.7679504492
 40
0.8258940859
 40
0.8759044117
 40
0.8977978208
 40
0.9175569126
 40
0.9351504656
 40
0.9505530838
 40
0.9637556533
 40
0.9747751125
 40
0.9836616262
 40
0.990541648
 40
0.9933229202
 40
0.9957484222
 40
0.9979252275
 40
1.0
 40
1.0
 40
1.0
 40
1.0
 10
6.8666170825
 20
12.315975321
 30
0.0
 10
6.8640322244
 20
12.3187658758
 30
0.0
 10
6.8589163972
 20
12.3241976773
 30
0.0
 10
6.8525007929
 20
12.3307790676
 30
0.0
 10
6.8475215415
 20
12.3357371807
 30
0.0
 10
6.8440091841
 20
12.3391598522
 30
0.0
 10
6.8406832324
 20
12.3423232805
 30
0.0
 10
6.837576367
 20
12.3451966761
 30
0.0
 10
6.8347189876
 20
12.3477523529
 30
0.0
 10
6.8321390571
 20
12.3499658617
 30
0.0
 10
6.8301626334
 20
12.3515728117
 30
0.0
 10
6.8287353783
 20
12.3526662328
 30
0.0
 10
6.8277969591
 20
12.3533517663
 30
0.0
 10
6.8269445135
 20
12.3539385437
 30
0.0
 10
6.8261799654
 20
12.3544253808
 30
0.0
 10
6.8255050794
 20
12.354811429
 30
0.0
 10
6.8249208433
 20
12.355096775
 30
0.0
 10
6.8244282716
 20
12.3552814146
 30
0.0
 10
6.8240693538
 20
12.3553578513
 30
0.0
 10
6.8238313235
 20
12.3553572799
 30
0.0
 10
6.8236879562
 20
12.355330244
 30
0.0
 10
6.8235673215
 20
12.3552755788
 30
0.0
 10
6.823503272
 20
12.3552200074
 30
0.0
 10
6.8234767278
 20
12.3551891631
 30
0.0
  0
LINE
  5
48F
100
AcDbEntity
  8
0
100
AcDbLine
 62
7
  6
CONTINUOUS
 10
6.8557525624
 20
12.1996284522
 11
6.8550330834
 21
12.2003996442
  0
LINE
  5
490
100
AcDbEntity
  8
0
100
AcDbLine
 62
7
  6
CONTINUOUS
 10
6.773788605
 20
12.278950054
 11
6.7734863492
 21
12.2792776318
  0
LINE
  5
491
100
AcDbEntity
  8
0
100
AcDbLine
 62
7
  6
CONTINUOUS
 10
6.7734863492
 20
12.2792776318
 11
6.7620821002
 21
12.2916373072
  0
LINE
  5
492
100
AcDbEntity
  8
0
100
AcDbLine
 62
7
  6
CONTINUOUS
 10
7.4049985617
 20
11.6299149829
 11
7.4044284548
 21
11.630213255
  0
SPLINE
  5
493
100
AcDbEntity
  8
0
100
AcDbSpline
 62
7
  6
CONTINUOUS
 70
0
 71
3
 72
13
 73
9
 74
0
 42
0.0000001
 43
0.0000001
 44
0.0000000001
 40
0.0
 40
0.0
 40
0.0
 40
0.0
 40
0.0758747607
 40
0.1569621035
 40
0.2498786311
 40
0.3590915343
 40
0.6360315301
 40
1.0
 40
1.0
 40
1.0
 40
1.0
 10
8.1834507174
 20
10.9437905033
 30
0.0
 10
8.1834714231
 20
10.9438083278
 30
0.0
 10
8.1835082949
 20
10.94385279
 30
0.0
 10
8.1835408939
 20
10.9439379699
 30
0.0
 10
8.1835523596
 20
10.9440401045
 30
0.0
 10
8.1835397806
 20
10.9442128193
 30
0.0
 10
8.1834653984
 20
10.9444746669
 30
0.0
 10
8.1833730297
 20
10.9446863694
 30
0.0
 10
8.1833160912
 20
10.9448044123
 30
0.0
  0
SPLINE
  5
494
100
AcDbEntity
  8
0
100
AcDbSpline
 62
7
  6
CONTINUOUS
 70
0
 71
3
 72
28
 73
24
 74
0
 42
0.0000001
 43
0.0000001
 44
0.0000000001
 40
0.0
 40
0.0
 40
0.0
 40
0.0
 40
0.1936868326
 40
0.3798691908
 40
0.4678781646
 40
0.5513416633
 40
0.6294576809
 40
0.7014842566
 40
0.7667403967
 40
0.8246272251
 40
0.8746276309
 40
0.8965369905
 40
0.9163278739
 40
0.9339707994
 40
0.9494427309
 40
0.9627377275
 40
0.9738772243
 40
0.9829184138
 40
0.9899981807
 40
0.9928998951
 40
0.9954595748
 40
0.9977804388
 40
1.0
 40
1.0
 40
1.0
 40
1.0
 10
7.186008733
 20
11.9970862287
 30
0.0
 10
7.1833729282
 20
11.9998272568
 30
0.0
 10
7.1781554918
 20
12.0051572211
 30
0.0
 10
7.1716093224
 20
12.0116025526
 30
0.0
 10
7.166527644
 20
12.0164488258
 30
0.0
 10
7.1629424898
 20
12.0197895485
 30
0.0
 10
7.159546642
 20
12.0228726146
 30
0.0
 10
7.1563732625
 20
12.0256682596
 30
0.0
 10
7.1534531767
 20
12.0281498018
 30
0.0
 10
7.1508147444
 20
12.0302937468
 30
0.0
 10
7.1487920052
 20
12.0318447036
 30
0.0
 10
7.1473301064
 20
12.0328957783
 30
0.0
 10
7.1463677988
 20
12.0335528649
 30
0.0
 10
7.1454927761
 20
12.0341129108
 30
0.0
 10
7.1447069887
 20
12.0345747945
 30
0.0
 10
7.1440122099
 20
12.0349377432
 30
0.0
 10
7.1434094039
 20
12.0352018299
 30
0.0
 10
7.142899501
 20
12.0353671215
 30
0.0
 10
7.1425275604
 20
12.0354272464
 30
0.0
 10
7.1422806764
 20
12.0354147989
 30
0.0
 10
7.1421308539
 20
12.0353798735
 30
0.0
 10
7.1420044269
 20
12.0353179453
 30
0.0
 10
7.1419366754
 20
12.0352580241
 30
0.0
 10
7.1419082501
 20
12.0352249939
 30
0.0
  0
LINE
  5
495
100
AcDbEntity
  8
0
100
AcDbLine
 62
7
  6
CONTINUOUS
 10
8.7913294286
 20
10.3328023897
 11
8.7882268134
 21
10.3354686379
  0
LINE
  5
496
100
AcDbEntity
  8
0
100
AcDbLine
 62
7
  6
CONTINUOUS
 10
8.7882268134
 20
10.3354686379
 11
8.7876988362
 21
10.3359223583
  0
LINE
  5
497
100
AcDbEntity
  8
0
100
AcDbLine
 62
7
  6
CONTINUOUS
 10
8.7477999748
 20
10.3779391478
 11
8.7160390729
 21
10.4049142238
  0
SPLINE
  5
498
100
AcDbEntity
  8
0
100
AcDbSpline
 62
7
  6
CONTINUOUS
 70
0
 71
3
 72
28
 73
24
 74
0
 42
0.0000001
 43
0.0000001
 44
0.0000000001
 40
0.0
 40
0.0
 40
0.0
 40
0.0
 40
0.194682473
 40
0.3817479408
 40
0.47019702
 40
0.5541145167
 40
0.6327054989
 40
0.7052219367
 40
0.770970992
 40
0.8293285821
 40
0.8797343401
 40
0.9217138125
 40
0.9394168004
 40
0.9548755684
 40
0.9680542937
 40
0.9789299129
 40
0.9835012879
 40
0.9874948508
 40
0.9909125037
 40
0.993759318
 40
0.9960477238
 40
0.9978042457
 40
1.0
 40
1.0
 40
1.0
 40
1.0
 10
8.6185729342
 20
10.5086682867
 30
0.0
 10
8.6157369953
 20
10.5111545543
 30
0.0
 10
8.6101583332
 20
10.5160096174
 30
0.0
 10
8.6032422665
 20
10.5219376573
 30
0.0
 10
8.5979260782
 20
10.5264346622
 30
0.0
 10
8.5941994817
 20
10.5295569228
 30
0.0
 10
8.5906940579
 20
10.5324624635
 30
0.0
 10
8.5874433006
 20
10.5351235985
 30
0.0
 10
8.5844783643
 20
10.5375149382
 30
0.0
 10
8.581827918
 20
10.5396137367
 30
0.0
 10
8.5795174963
 20
10.5413998683
 30
0.0
 10
8.5778098472
 20
10.5426777518
 30
0.0
 10
8.576627931
 20
10.5435275633
 30
0.0
 10
8.5758908258
 20
10.5440400963
 30
0.0
 10
8.5752532404
 20
10.5444637936
 30
0.0
 10
8.5747825338
 20
10.5447572513
 30
0.0
 10
8.5744559666
 20
10.5449449661
 30
0.0
 10
8.5742513887
 20
10.5450546509
 30
0.0
 10
8.5740724356
 20
10.5451415667
 30
0.0
 10
8.5739201262
 20
10.5452059433
 30
0.0
 10
8.5737916813
 20
10.5452474798
 30
0.0
 10
8.573676756
 20
10.5452714084
 30
0.0
 10
8.5735865138
 20
10.5452618551
 30
0.0
 10
8.5735587366
 20
10.5452296395
 30
0.0
  0
SPLINE
  5
499
100
AcDbEntity
  8
0
100
AcDbSpline
 62
7
  6
CONTINUOUS
 70
0
 71
3
 72
23
 73
19
 74
0
 42
0.0000001
 43
0.0000001
 44
0.0000000001
 40
0.0
 40
0.0
 40
0.0
 40
0.0
 40
0.2100167769
 40
0.4029764914
 40
0.5744936665
 40
0.7206748814
 40
0.7832079271
 40
0.8382272273
 40
0.8854241403
 40
0.9245609542
 40
0.9410453075
 40
0.9554544732
 40
0.9677843119
 40
0.9780402694
 40
0.9862488617
 40
0.9896090246
 40
0.9924945606
 40
1.0
 40
1.0
 40
1.0
 40
1.0
 10
8.3973358162
 20
10.7293986363
 30
0.0
 10
8.39531434
 20
10.7311431647
 30
0.0
 10
8.3914207591
 20
10.7344734375
 30
0.0
 10
8.3858208301
 20
10.7391631575
 30
0.0
 10
8.3807907193
 20
10.7432684066
 30
0.0
 10
8.376996018
 20
10.7462640962
 30
0.0
 10
8.3743255365
 20
10.7482920338
 30
0.0
 10
8.372638047
 20
10.7495331371
 30
0.0
 10
8.3711689727
 20
10.7505685392
 30
0.0
 10
8.3700798913
 20
10.7512921451
 30
0.0
 10
8.3693220811
 20
10.7517597053
 30
0.0
 10
8.36884639
 20
10.7520351053
 30
0.0
 10
8.3684309394
 20
10.7522557626
 30
0.0
 10
8.3680756615
 20
10.7524214284
 30
0.0
 10
8.3678165196
 20
10.7525199617
 30
0.0
 10
8.3676375571
 20
10.7525677847
 30
0.0
 10
8.3674701127
 20
10.7525987172
 30
0.0
 10
8.367307294
 20
10.7525922094
 30
0.0
 10
8.3672450398
 20
10.7525198892
 30
0.0
  0
SPLINE
  5
49A
100
AcDbEntity
  8
0
100
AcDbSpline
 62
7
  6
CONTINUOUS
 70
0
 71
3
 72
19
 73
15
 74
0
 42
0.0000001
 43
0.0000001
 44
0.0000000001
 40
0.0
 40
0.0
 40
0.0
 40
0.0
 40
0.2218896955
 40
0.4168481963
 40
0.5840260166
 40
0.7227275768
 40
0.7812710188
 40
0.8325861555
 40
0.8766930872
 40
0.9136726097
 40
0.9437347117
 40
0.9673152522
 40
0.9853638625
 40
1.0
 40
1.0
 40
1.0
 40
1.0
 10
8.1064150755
 20
11.0180037255
 30
0.0
 10
8.1058550689
 20
11.0184250346
 30
0.0
 10
8.1047971425
 20
11.0192087603
 30
0.0
 10
8.1032933901
 20
11.0202772244
 30
0.0
 10
8.1019802984
 20
11.0211595136
 30
0.0
 10
8.1010022449
 20
11.0217671158
 30
0.0
 10
8.1003179518
 20
11.0221520941
 30
0.0
 10
8.0998857424
 20
11.0223751998
 30
0.0
 10
8.0995053553
 20
11.022549406
 30
0.0
 10
8.0991770889
 20
11.0226746349
 30
0.0
 10
8.0989006633
 20
11.0227514635
 30
0.0
 10
8.0986750129
 20
11.0227798049
 30
0.0
 10
8.0984953088
 20
11.0227598443
 30
0.0
 10
8.0984032843
 20
11.0227021903
 30
0.0
 10
8.0983731491
 20
11.0226671384
 30
0.0
  0
SPLINE
  5
49B
100
AcDbEntity
  8
0
100
AcDbSpline
 62
7
  6
CONTINUOUS
 70
0
 71
3
 72
14
 73
10
 74
0
 42
0.0000001
 43
0.0000001
 44
0.0000000001
 40
0.0
 40
0.0
 40
0.0
 40
0.0
 40
0.3835327207
 40
0.5386891422
 40
0.6700602624
 40
0.7786976176
 40
0.8666737416
 40
0.9379883002
 40
1.0
 40
1.0
 40
1.0
 40
1.0
 10
7.7873195706
 20
11.3367727049
 30
0.0
 10
7.787070362
 20
11.336905116
 30
0.0
 10
7.7867146764
 20
11.3370817628
 30
0.0
 10
7.786255077
 20
11.3372611131
 30
0.0
 10
7.7859764503
 20
11.3373455922
 30
0.0
 10
7.785738549
 20
11.3373900859
 30
0.0
 10
7.7855402173
 20
11.337394356
 30
0.0
 10
7.785379075
 20
11.337356536
 30
0.0
 10
7.7852967499
 20
11.337296903
 30
0.0
 10
7.7852669739
 20
11.33726233
 30
0.0
  0
SPLINE
  5
49C
100
AcDbEntity
  8
0
100
AcDbSpline
 62
7
  6
CONTINUOUS
 70
0
 71
3
 72
18
 73
14
 74
0
 42
0.0000001
 43
0.0000001
 44
0.0000000001
 40
0.0
 40
0.0
 40
0.0
 40
0.0
 40
0.0190505529
 40
0.0402685276
 40
0.0657877864
 40
0.0968592056
 40
0.134171747
 40
0.178111874
 40
0.2865756982
 40
0.4230445316
 40
0.5876480141
 40
0.7801225999
 40
1.0
 40
1.0
 40
1.0
 40
1.0
 10
7.8688484717
 20
11.2568906508
 30
0.0
 10
7.8688799017
 20
11.2569177073
 30
0.0
 10
7.8689347134
 20
11.2569896431
 30
0.0
 10
7.8689734669
 20
11.2571299866
 30
0.0
 10
7.8689747475
 20
11.2573005922
 30
0.0
 10
7.8689407262
 20
11.2575028444
 30
0.0
 10
7.8688717468
 20
11.2577378482
 30
0.0
 10
7.8687219459
 20
11.2581231018
 30
0.0
 10
7.8684377912
 20
11.2586854199
 30
0.0
 10
7.8679801924
 20
11.2594509203
 30
0.0
 10
7.8673841601
 20
11.2603452876
 30
0.0
 10
7.8666515153
 20
11.2613656525
 30
0.0
 10
7.866108776
 20
11.2620807826
 30
0.0
 10
7.8658156865
 20
11.2624592159
 30
0.0
  0
LINE
  5
49D
100
AcDbEntity
  8
0
100
AcDbLine
 62
7
  6
CONTINUOUS
 10
8.4287941216
 20
10.6529164009
 11
8.427769541
 21
10.6538182334
  0
SPLINE
  5
49E
100
AcDbEntity
  8
0
100
AcDbSpline
 62
7
  6
CONTINUOUS
 70
0
 71
3
 72
29
 73
25
 74
0
 42
0.0000001
 43
0.0000001
 44
0.0000000001
 40
0.0
 40
0.0
 40
0.0
 40
0.0
 40
0.1949480419
 40
0.2900261328
 40
0.3822889921
 40
0.4708660457
 40
0.5548990031
 40
0.6335873297
 40
0.7061783581
 40
0.7719772265
 40
0.8303569634
 40
0.8807539003
 40
0.9226920389
 40
0.9403608657
 40
0.9557750944
 40
0.9688969879
 40
0.979700624
 40
0.9842286905
 40
0.9881727164
 40
0.9915328155
 40
0.9943111795
 40
0.9965152061
 40
0.9981622183
 40
1.0
 40
1.0
 40
1.0
 40
1.0
 10
8.3345929785
 20
10.7513286257
 30
0.0
 10
8.3317923662
 20
10.7538612301
 30
0.0
 10
8.3276153765
 20
10.7576174379
 30
0.0
 10
8.3220878762
 20
10.7625442263
 30
0.0
 10
8.3180874368
 20
10.7660878274
 30
0.0
 10
8.3142359472
 20
10.7694769031
 30
0.0
 10
8.3105702194
 20
10.7726790364
 30
0.0
 10
8.307125532
 20
10.7756635082
 30
0.0
 10
8.3039348923
 20
10.7784017916
 30
0.0
 10
8.3010289205
 20
10.7808676995
 30
0.0
 10
8.2984357165
 20
10.7830376953
 30
0.0
 10
8.2961802457
 20
10.784890967
 30
0.0
 10
8.2945177726
 20
10.7862237296
 30
0.0
 10
8.2933707887
 20
10.7871158741
 30
0.0
 10
8.2926577183
 20
10.7876566992
 30
0.0
 10
8.2920431582
 20
10.7881072234
 30
0.0
 10
8.2915914082
 20
10.7884230102
 30
0.0
 10
8.2912794983
 20
10.7886283135
 30
0.0
 10
8.2910852676
 20
10.7887498234
 30
0.0
 10
8.290916227
 20
10.7888482572
 30
0.0
 10
8.2907740177
 20
10.7889234068
 30
0.0
 10
8.2906543905
 20
10.7889761229
 30
0.0
 10
8.2905555354
 20
10.7890093557
 30
0.0
 10
8.2904710773
 20
10.789016881
 30
0.0
 10
8.2904478502
 20
10.7889899078
 30
0.0
  0
LINE
  5
49F
100
AcDbEntity
  8
0
100
AcDbLine
 62
7
  6
CONTINUOUS
 10
8.0813209943
 20
11.0025297533
 11
8.0811069746
 21
11.0027105045
  0
SPLINE
  5
4A0
100
AcDbEntity
  8
0
100
AcDbSpline
 62
7
  6
CONTINUOUS
 70
0
 71
3
 72
21
 73
17
 74
0
 42
0.0000001
 43
0.0000001
 44
0.0000000001
 40
0.0
 40
0.0
 40
0.0
 40
0.0
 40
0.2248974033
 40
0.4230020368
 40
0.5930291769
 40
0.7339400477
 40
0.7932037677
 40
0.8449083311
 40
0.8890009488
 40
0.925455839
 40
0.9543231045
 40
0.975775637
 40
0.9838685465
 40
0.9903700124
 40
0.9955644754
 40
1.0
 40
1.0
 40
1.0
 40
1.0
 10
8.0780601884
 20
11.0052545043
 30
0.0
 10
8.0773662841
 20
11.0058268734
 30
0.0
 10
8.0760561968
 20
11.0068974548
 30
0.0
 10
8.0742014622
 20
11.0083760461
 30
0.0
 10
8.0725893167
 20
11.0096196493
 30
0.0
 10
8.0713973953
 20
11.0104985004
 30
0.0
 10
8.0705708713
 20
11.0110745828
 30
0.0
 10
8.0700542856
 20
11.0114178973
 30
0.0
 10
8.0696052686
 20
11.0116976325
 30
0.0
 10
8.0692244558
 20
11.0119137926
 30
0.0
 10
8.0689124732
 20
11.012066054
 30
0.0
 10
8.0686926161
 20
11.0121481916
 30
0.0
 10
8.0685508207
 20
11.0121763241
 30
0.0
 10
8.0684712699
 20
11.0121792915
 30
0.0
 10
8.0684071165
 20
11.0121656983
 30
0.0
 10
8.068374399
 20
11.0121426534
 30
0.0
 10
8.0683628338
 20
11.0121292009
 30
0.0
  0
LINE
  5
4A1
100
AcDbEntity
  8
0
100
AcDbLine
 62
9
  6
CONTINUOUS
 10
7.8497750546
 20
11.2292806201
 11
7.8500022958
 21
11.229053272
  0
LINE
  5
4A2
100
AcDbEntity
  8
0
100
AcDbLine
 62
9
  6
CONTINUOUS
 10
7.8500022958
 20
11.229053272
 11
8.0677738384
 21
11.0112752858
  0
SPLINE
  5
4A3
100
AcDbEntity
  8
0
100
AcDbSpline
 62
9
  6
CONTINUOUS
 70
0
 71
3
 72
11
 73
7
 74
0
 42
0.0000001
 43
0.0000001
 44
0.0000000001
 40
0.0
 40
0.0
 40
0.0
 40
0.0
 40
0.2497311373
 40
0.4999999985
 40
0.7502688665
 40
1.0
 40
1.0
 40
1.0
 40
1.0
 10
12.9427997941
 20
4.6903107873
 30
0.0
 10
12.9427997926
 20
4.6725928054
 30
0.0
 10
12.9433240165
 20
4.6371213183
 30
0.0
 10
12.9437966443
 20
4.5838918039
 30
0.0
 10
12.9433240049
 20
4.5306622898
 30
0.0
 10
12.9427998042
 20
4.4951908024
 30
0.0
 10
12.9427997941
 20
4.4774728208
 30
0.0
  0
LINE
  5
4A4
100
AcDbEntity
  8
0
100
AcDbLine
 62
7
  6
CONTINUOUS
 10
8.1480113913
 20
10.9057080161
 11
8.1356516411
 21
10.9171123341
  0
LINE
  5
4A5
100
AcDbEntity
  8
0
100
AcDbLine
 62
7
  6
CONTINUOUS
 10
8.1356516411
 20
10.9171123341
 11
8.1353241403
 21
10.9174145188
  0
SPLINE
  5
4A6
100
AcDbEntity
  8
0
100
AcDbSpline
 62
7
  6
CONTINUOUS
 70
0
 71
3
 72
30
 73
26
 74
0
 42
0.0000001
 43
0.0000001
 44
0.0000000001
 40
0.0
 40
0.0
 40
0.0
 40
0.0
 40
0.1951067242
 40
0.2902713621
 40
0.3826260795
 40
0.4712890718
 40
0.5554019239
 40
0.6341585647
 40
0.7068063259
 40
0.7726454277
 40
0.8310448857
 40
0.8814458959
 40
0.9034913548
 40
0.9233635873
 40
0.9410145747
 40
0.9564003278
 40
0.969488284
 40
0.9802488787
 40
0.9886583646
 40
0.9947090911
 40
0.9968533976
 40
0.9984185917
 40
0.9989911648
 40
0.9994325827
 40
1.0
 40
1.0
 40
1.0
 40
1.0
 10
8.0560025363
 20
10.9993784783
 30
0.0
 10
8.0532279213
 20
11.001966095
 30
0.0
 10
8.0490925152
 20
11.005807861
 30
0.0
 10
8.0436258806
 20
11.0108552024
 30
0.0
 10
8.0396722146
 20
11.0144899385
 30
0.0
 10
8.0358687672
 20
11.0179705128
 30
0.0
 10
8.0322520872
 20
11.0212634783
 30
0.0
 10
8.028856979
 20
11.0243371937
 30
0.0
 10
8.0257160644
 20
11.0271621918
 30
0.0
 10
8.0228595499
 20
11.0297113978
 30
0.0
 10
8.0203149494
 20
11.031960347
 30
0.0
 10
8.0183980822
 20
11.0336335605
 30
0.0
 10
8.0170376756
 20
11.0348049047
 30
0.0
 10
8.0161558484
 20
11.0355560204
 30
0.0
 10
8.0153682105
 20
11.0362179667
 30
0.0
 10
8.0146766897
 20
11.0367891979
 30
0.0
 10
8.0140829687
 20
11.0372683449
 30
0.0
 10
8.0135886839
 20
11.0376546695
 30
0.0
 10
8.0131948093
 20
11.0379468836
 30
0.0
 10
8.0129283559
 20
11.0381297109
 30
0.0
 10
8.0127641489
 20
11.038225189
 30
0.0
 10
8.0126893383
 20
11.038261808
 30
0.0
 10
8.0126412107
 20
11.0382774538
 30
0.0
 10
8.0126117865
 20
11.0382833957
 30
0.0
 10
8.012588942
 20
11.0382800569
 30
0.0
 10
8.0125817565
 20
11.0382716836
 30
0.0
  0
LINE
  5
4A7
100
AcDbEntity
  8
0
100
AcDbLine
 62
7
  6
CONTINUOUS
 10
7.7453110795
 20
11.2883281125
 11
7.7404922415
 21
11.2925472533
  0
SPLINE
  5
4A8
100
AcDbEntity
  8
0
100
AcDbSpline
 62
7
  6
CONTINUOUS
 70
0
 71
3
 72
32
 73
28
 74
0
 42
0.0000001
 43
0.0000001
 44
0.0000000001
 40
0.0
 40
0.0
 40
0.0
 40
0.0
 40
0.1944812746
 40
0.2894774246
 40
0.3817561618
 40
0.4704311536
 40
0.554632455
 40
0.6335398597
 40
0.7063828075
 40
0.7724413925
 40
0.8310653257
 40
0.8574031652
 40
0.88167148
 40
0.9038069529
 40
0.9237551246
 40
0.9414688217
 40
0.9569013247
 40
0.9700134688
 40
0.9807765736
 40
0.9852686607
 40
0.9891633123
 40
0.9924583063
 40
0.9951529829
 40
0.9972472939
 40
0.9987425367
 40
0.9996449358
 40
1.0
 40
1.0
 40
1.0
 40
1.0
 10
5.9200167463
 20
13.2563212824
 30
0.0
 10
5.91758719
 20
13.2592491754
 30
0.0
 10
5.9139668188
 20
13.2636038448
 30
0.0
 10
5.9091838873
 20
13.2693396242
 30
0.0
 10
5.9057222958
 20
13.2734821202
 30
0.0
 10
5.9023917275
 20
13.2774588938
 30
0.0
 10
5.8992245416
 20
13.2812312913
 30
0.0
 10
5.896251703
 20
13.2847624437
 30
0.0
 10
5.8935023459
 20
13.2880177761
 30
0.0
 10
5.8910035008
 20
13.2909652835
 30
0.0
 10
5.8890878044
 20
13.2932144387
 30
0.0
 10
5.8876984066
 20
13.2948379519
 30
0.0
 10
5.8867712133
 20
13.2959174777
 30
0.0
 10
5.8859233837
 20
13.2969003859
 30
0.0
 10
5.8851570356
 20
13.2977842336
 30
0.0
 10
5.8844740934
 20
13.2985668329
 30
0.0
 10
5.8838762929
 20
13.2992462351
 30
0.0
 10
5.8833651519
 20
13.2998207387
 30
0.0
 10
5.8829930933
 20
13.30023254
 30
0.0
 10
5.8827393398
 20
13.3005080937
 30
0.0
 10
5.8825830902
 20
13.3006749886
 30
0.0
 10
5.8824496786
 20
13.3008146091
 30
0.0
 10
5.8823379461
 20
13.3009275599
 30
0.0
 10
5.8822513215
 20
13.301012178
 30
0.0
 10
5.8821818547
 20
13.301072771
 30
0.0
 10
5.8821459876
 20
13.3011018719
 30
0.0
 10
5.8821155024
 20
13.3011167094
 30
0.0
 10
5.8821109715
 20
13.3011114444
 30
0.0
  0
SPLINE
  5
4A9
100
AcDbEntity
  8
0
100
AcDbSpline
 62
7
  6
CONTINUOUS
 70
0
 71
3
 72
30
 73
26
 74
0
 42
0.0000001
 43
0.0000001
 44
0.0000000001
 40
0.0
 40
0.0
 40
0.0
 40
0.0
 40
0.1946365782
 40
0.2896968051
 40
0.3820240214
 40
0.4707276217
 40
0.5549326069
 40
0.6338150989
 40
0.7066019939
 40
0.7725726639
 40
0.831078644
 40
0.8815411807
 40
0.9234640309
 40
0.9564462732
 40
0.969483017
 40
0.9801817477
 40
0.9846487944
 40
0.988525506
 40
0.9918125559
 40
0.994514063
 40
0.9966386259
 40
0.9982055506
 40
0.998795043
 40
0.9992716238
 40
1.0
 40
1.0
 40
1.0
 40
1.0
 10
5.9905714564
 20
13.1873406166
 30
0.0
 10
5.9881301027
 20
13.1902594806
 30
0.0
 10
5.9844843417
 20
13.1945938567
 30
0.0
 10
5.979651702
 20
13.2002884593
 30
0.0
 10
5.9761465156
 20
13.2043932542
 30
0.0
 10
5.9727662388
 20
13.2083256021
 30
0.0
 10
5.9695438865
 20
13.2120470448
 30
0.0
 10
5.9665111661
 20
13.215521016
 30
0.0
 10
5.9636979665
 20
13.2187133465
 30
0.0
 10
5.9611320951
 20
13.2215925794
 30
0.0
 10
5.9588390738
 20
13.224130245
 30
0.0
 10
5.9568419159
 20
13.2263014961
 30
0.0
 10
5.9551604208
 20
13.2280848147
 30
0.0
 10
5.9539588821
 20
13.2293149059
 30
0.0
 10
5.9531640028
 20
13.2300881184
 30
0.0
 10
5.9527599515
 20
13.2304634383
 30
0.0
 10
5.9524800344
 20
13.2307089277
 30
0.0
 10
5.9523054906
 20
13.2308547221
 30
0.0
 10
5.9521535131
 20
13.2309735202
 30
0.0
 10
5.9520241751
 20
13.2310655515
 30
0.0
 10
5.9519174477
 20
13.2311306755
 30
0.0
 10
5.9518413222
 20
13.2311665864
 30
0.0
 10
5.9517911416
 20
13.2311792545
 30
0.0
 10
5.9517562464
 20
13.2311821788
 30
0.0
 10
5.9517315035
 20
13.2311727347
 30
0.0
 10
5.9517222142
 20
13.2311619416
 30
0.0
  0
SPLINE
  5
4AA
100
AcDbEntity
  8
0
100
AcDbSpline
 62
7
  6
CONTINUOUS
 70
0
 71
3
 72
60
 73
56
 74
0
 42
0.0000001
 43
0.0000001
 44
0.0000000001
 40
0.0
 40
0.0
 40
0.0
 40
0.0
 40
0.0001724487
 40
0.0003717413
 40
0.0006159716
 40
0.0009151595
 40
0.0012747347
 40
0.0016977872
 40
0.0021861852
 40
0.0027411213
 40
0.0040533773
 40
0.005638196
 40
0.0074969044
 40
0.0096299182
 40
0.0120371473
 40
0.0147179078
 40
0.0176710013
 40
0.0208950917
 40
0.0281502999
 40
0.0364686566
 40
0.0458324557
 40
0.0562213487
 40
0.0676122789
 40
0.0799801715
 40
0.1075336576
 40
0.1386351842
 40
0.1730054629
 40
0.2103354235
 40
0.2502890838
 40
0.292506645
 40
0.3366078561
 40
0.3821953068
 40
0.428858293
 40
0.4761761908
 40
0.5710690924
 40
0.6177888816
 40
0.6634608943
 40
0.7076736611
 40
0.7500287673
 40
0.790144709
 40
0.827660227
 40
0.8622376418
 40
0.8935660108
 40
0.9213639585
 40
0.9453825574
 40
0.9559063289
 40
0.9654080101
 40
0.9738667284
 40
0.9812645907
 40
0.9875860619
 40
0.9928196422
 40
0.9950257674
 40
0.9969575709
 40
0.998615308
 40
1.0
 40
1.0
 40
1.0
 40
1.0
 10
10.0316943754
 20
13.6007960315
 30
0.0
 10
10.0316613788
 20
13.600763035
 30
0.0
 10
10.0315734909
 20
13.6007077588
 30
0.0
 10
10.0314076503
 20
13.6006751481
 30
0.0
 10
10.0312057011
 20
13.6006837091
 30
0.0
 10
10.03096551
 20
13.6007319914
 30
0.0
 10
10.0306858639
 20
13.6008197964
 30
0.0
 10
10.0303662104
 20
13.6009473727
 30
0.0
 10
10.0300063214
 20
13.601114864
 30
0.0
 10
10.0294404007
 20
13.6014085029
 30
0.0
 10
10.0286343766
 20
13.6018816905
 30
0.0
 10
10.0275533473
 20
13.6025802891
 30
0.0
 10
10.0263117713
 20
13.6034382835
 30
0.0
 10
10.0249102227
 20
13.6044552731
 30
0.0
 10
10.0233493895
 20
13.605630937
 30
0.0
 10
10.0216300691
 20
13.606964622
 30
0.0
 10
10.0197531599
 20
13.6084555056
 30
0.0
 10
10.0169287791
 20
13.610743466
 30
0.0
 10
10.0130160943
 20
13.6139940463
 30
0.0
 10
10.0078756647
 20
13.6183658491
 30
0.0
 10
10.002133311
 20
13.6233382905
 30
0.0
 10
9.9958012169
 20
13.6288994349
 30
0.0
 10
9.98889285
 20
13.6350360564
 30
0.0
 10
9.9785549173
 20
13.644305415
 30
0.0
 10
9.9643218816
 20
13.6572198333
 30
0.0
 10
9.9457712521
 20
13.6742353671
 30
0.0
 10
9.925347164
 20
13.6931217561
 30
0.0
 10
9.9032271339
 20
13.7137020358
 30
0.0
 10
9.8796040206
 20
13.7357840121
 30
0.0
 10
9.8546841018
 20
13.7591617711
 30
0.0
 10
9.8286853302
 20
13.7836176531
 30
0.0
 10
9.8018353312
 20
13.8089242433
 30
0.0
 10
9.774369422
 20
13.834846407
 30
0.0
 10
9.7372145007
 20
13.8699408375
 30
0.0
 10
9.7000556518
 20
13.9050534945
 30
0.0
 10
9.6632007709
 20
13.9398393589
 30
0.0
 10
9.6363023398
 20
13.9651943464
 30
0.0
 10
9.6102396737
 20
13.9897140785
 30
0.0
 10
9.5852409718
 20
14.0131705609
 30
0.0
 10
9.561524888
 20
14.0353454148
 30
0.0
 10
9.5392985562
 20
14.0560319078
 30
0.0
 10
9.5187557189
 20
14.0750367914
 30
0.0
 10
9.5000751714
 20
14.0921823033
 30
0.0
 10
9.4834187814
 20
14.1073073231
 30
0.0
 10
9.470847616
 20
14.1185564429
 30
0.0
 10
9.4618992372
 20
14.1264286693
 30
0.0
 10
9.456077535
 20
14.1314802351
 30
0.0
 10
9.4508562355
 20
14.1359327423
 30
0.0
 10
9.446246557
 20
14.139775789
 30
0.0
 10
9.4422580419
 20
14.1430001344
 30
0.0
 10
9.4393133574
 20
14.1452802866
 30
0.0
 10
9.4372686394
 20
14.1467805046
 30
0.0
 10
9.4359843348
 20
14.1476808685
 30
0.0
 10
9.434860492
 20
14.1484219652
 30
0.0
 10
9.4341556253
 20
14.1488481347
 30
0.0
 10
9.4338289014
 20
14.1490315666
 30
0.0
  0
LINE
  5
4AB
100
AcDbEntity
  8
0
100
AcDbLine
 62
7
  6
CONTINUOUS
 10
9.4338289014
 20
14.1490315666
 11
9.4322767504
 21
14.149732174
  0
SPLINE
  5
4AC
100
AcDbEntity
  8
0
100
AcDbSpline
 62
7
  6
CONTINUOUS
 70
0
 71
3
 72
60
 73
56
 74
0
 42
0.0000001
 43
0.0000001
 44
0.0000000001
 40
0.0
 40
0.0
 40
0.0
 40
0.0
 40
0.0001677896
 40
0.0003630686
 40
0.0006040424
 40
0.000900587
 40
0.0012579762
 40
0.0016791831
 40
0.0021659947
 40
0.0027195468
 40
0.0040294978
 40
0.005612455
 40
0.0074696236
 40
0.0096013429
 40
0.0120074723
 40
0.014687293
 40
0.0176395812
 40
0.0208629819
 40
0.0281171055
 40
0.0364346997
 40
0.0457979989
 40
0.0561866186
 40
0.0675774773
 40
0.0799454794
 40
0.1074996384
 40
0.1386023738
 40
0.1729743111
 40
0.2103063123
 40
0.2502623442
 40
0.2924825422
 40
0.3365866182
 40
0.3821770962
 40
0.4288432355
 40
0.4761643522
 40
0.5710637024
 40
0.6177866135
 40
0.6634616288
 40
0.7076772113
 40
0.7500349089
 40
0.7901531583
 40
0.8276706467
 40
0.8622496372
 40
0.8935791155
 40
0.9213776294
 40
0.9453961362
 40
0.9559195708
 40
0.9654206842
 40
0.9738785638
 40
0.9812752656
 40
0.987595175
 40
0.9928266611
 40
0.995031467
 40
0.9969617141
 40
0.9986175879
 40
1.0
 40
1.0
 40
1.0
 40
1.0
 10
9.4137034997
 20
14.1318536753
 30
0.0
 10
9.4137356019
 20
14.1318857775
 30
0.0
 10
9.413821964
 20
14.1319392149
 30
0.0
 10
9.4139850779
 20
14.1319687967
 30
0.0
 10
9.4141841446
 20
14.1319574176
 30
0.0
 10
9.4144214897
 20
14.1319063946
 30
0.0
 10
9.4146983263
 20
14.1318158818
 30
0.0
 10
9.4150151995
 20
14.1316855997
 30
0.0
 10
9.4153723247
 20
14.1315153994
 30
0.0
 10
9.4159345079
 20
14.1312178425
 30
0.0
 10
9.4167358513
 20
14.1307399127
 30
0.0
 10
9.4178113994
 20
14.1300359513
 30
0.0
 10
9.4190475057
 20
14.1291725663
 30
0.0
 10
9.4204435919
 20
14.1281501643
 30
0.0
 10
9.4219989653
 20
14.1269690751
 30
0.0
 10
9.4237128276
 20
14.1256299553
 30
0.0
 10
9.4255842791
 20
14.1241336295
 30
0.0
 10
9.4284011475
 20
14.1218380514
 30
0.0
 10
9.432304525
 20
14.1185780993
 30
0.0
 10
9.4374340918
 20
14.1141954742
 30
0.0
 10
9.4431655767
 20
14.1092121882
 30
0.0
 10
9.4494867968
 20
14.1036401808
 30
0.0
 10
9.4563842863
 20
14.0974926814
 30
0.0
 10
9.4667072233
 20
14.0882082052
 30
0.0
 10
9.4809217216
 20
14.0752751622
 30
0.0
 10
9.4994507102
 20
14.058237995
 30
0.0
 10
9.5198531234
 20
14.0393299185
 30
0.0
 10
9.5419514447
 20
14.018727902
 30
0.0
 10
9.565552816
 20
13.9966241478
 30
0.0
 10
9.5904509606
 20
13.9732245694
 30
0.0
 10
9.6164279213
 20
13.9487468294
 30
0.0
 10
9.6432560724
 20
13.9234183391
 30
0.0
 10
9.6707000912
 20
13.8974742344
 30
0.0
 10
9.7078257363
 20
13.8623504635
 30
0.0
 10
9.7449554096
 20
13.8272085992
 30
0.0
 10
9.7817807228
 20
13.7923931059
 30
0.0
 10
9.8086570419
 20
13.7670159915
 30
0.0
 10
9.8346975604
 20
13.7424741064
 30
0.0
 10
9.8596740801
 20
13.7189954522
 30
0.0
 10
9.8833679521
 20
13.6967984133
 30
0.0
 10
9.9055720473
 20
13.6760897315
 30
0.0
 10
9.9260926288
 20
13.657062666
 30
0.0
 10
9.9447509129
 20
13.6398949998
 30
0.0
 10
9.9613850381
 20
13.6247478706
 30
0.0
 10
9.9739370183
 20
13.6134795822
 30
0.0
 10
9.9828698079
 20
13.6055917007
 30
0.0
 10
9.9886802719
 20
13.6005289904
 30
0.0
 10
9.9938903338
 20
13.5960653617
 30
0.0
 10
9.9984887782
 20
13.5922112343
 30
0.0
 10
10.0024660624
 20
13.5889758574
 30
0.0
 10
10.0054010599
 20
13.5866860296
 30
0.0
 10
10.0074379255
 20
13.5851778214
 30
0.0
 10
10.0087165678
 20
13.5842719101
 30
0.0
 10
10.0098347398
 20
13.5835252937
 30
0.0
 10
10.0105356577
 20
13.5830949808
 30
0.0
 10
10.0108604131
 20
13.5829093935
 30
0.0
  0
LINE
  5
4AD
100
AcDbEntity
  8
0
100
AcDbLine
 62
7
  6
CONTINUOUS
 10
10.0108604131
 20
13.5829093935
 11
10.0124313121
 21
13.5821878481
  0
SPLINE
  5
4AE
100
AcDbEntity
  8
0
100
AcDbSpline
 62
7
  6
CONTINUOUS
 70
0
 71
3
 72
60
 73
56
 74
0
 42
0.0000001
 43
0.0000001
 44
0.0000000001
 40
0.0
 40
0.0
 40
0.0
 40
0.0
 40
0.000172301
 40
0.0003714649
 40
0.0006155896
 40
0.0009146909
 40
0.0012741938
 40
0.0016971847
 40
0.0021855292
 40
0.0027404182
 40
0.0040525947
 40
0.0056373479
 40
0.007496001
 40
0.0096289673
 40
0.0120361554
 40
0.0147168798
 40
0.0176699416
 40
0.0208940039
 40
0.0281491651
 40
0.0364674852
 40
0.045831257
 40
0.056220131
 40
0.0676110492
 40
0.0799789361
 40
0.1075324269
 40
0.1386339791
 40
0.1730043019
 40
0.2103343223
 40
0.2502880588
 40
0.2925057093
 40
0.3366070212
 40
0.382194587
 40
0.4288576943
 40
0.4761757255
 40
0.571068906
 40
0.6177888367
 40
0.6634609891
 40
0.7076738916
 40
0.750029124
 40
0.7901451829
 40
0.827660802
 40
0.8622383014
 40
0.8935667342
 40
0.9213647156
 40
0.9453833174
 40
0.9559070725
 40
0.9654087244
 40
0.9738673996
 40
0.9812652001
 40
0.9875865853
 40
0.9928200479
 40
0.995026098
 40
0.9969578122
 40
0.9986154414
 40
1.0
 40
1.0
 40
1.0
 40
1.0
 10
9.9804217314
 20
13.5495233876
 30
0.0
 10
9.9803887633
 20
13.5494904194
 30
0.0
 10
9.9803009244
 20
13.5494352016
 30
0.0
 10
9.9801351708
 20
13.5494026873
 30
0.0
 10
9.9799333145
 20
13.5494113391
 30
0.0
 10
9.979693216
 20
13.5494597103
 30
0.0
 10
9.9794136622
 20
13.5495476037
 30
0.0
 10
9.9790941009
 20
13.5496752689
 30
0.0
 10
9.9787343043
 20
13.5498428499
 30
0.0
 10
9.9781685097
 20
13.5501366191
 30
0.0
 10
9.9773626456
 20
13.5506099662
 30
0.0
 10
9.9762818066
 20
13.5513087477
 30
0.0
 10
9.9750404234
 20
13.5521669283
 30
0.0
 10
9.9736390704
 20
13.5531841072
 30
0.0
 10
9.9720784357
 20
13.5543599634
 30
0.0
 10
9.9703593167
 20
13.5556938433
 30
0.0
 10
9.9684826118
 20
13.5571849245
 30
0.0
 10
9.9656585167
 20
13.5594731649
 30
0.0
 10
9.9617461939
 20
13.5627240964
 30
0.0
 10
9.9566061981
 20
13.5670963145
 30
0.0
 10
9.9508642899
 20
13.5720691822
 30
0.0
 10
9.9445326526
 20
13.5776307637
 30
0.0
 10
9.9376247539
 20
13.5837678331
 30
0.0
 10
9.9272874827
 20
13.593037828
 30
0.0
 10
9.9130552949
 20
13.6059530583
 30
0.0
 10
9.8945056981
 20
13.6229695756
 30
0.0
 10
9.874082687
 20
13.6418569917
 30
0.0
 10
9.8519637773
 20
13.6624383424
 30
0.0
 10
9.8283418273
 20
13.6845214337
 30
0.0
 10
9.8034231136
 20
13.7079003523
 30
0.0
 10
9.7774255881
 20
13.7323574389
 30
0.0
 10
9.7505768758
 20
13.757665279
 30
0.0
 10
9.7231122924
 20
13.7835887392
 30
0.0
 10
9.6859591909
 20
13.8186849631
 30
0.0
 10
9.648802229
 20
13.8537994916
 30
0.0
 10
9.6119493326
 20
13.8885873386
 30
0.0
 10
9.5850524116
 20
13.9139438437
 30
0.0
 10
9.5589912801
 20
13.9384651244
 30
0.0
 10
9.533994131
 20
13.9619231803
 30
0.0
 10
9.5102796125
 20
13.9840996251
 30
0.0
 10
9.4880548518
 20
14.0047877205
 30
0.0
 10
9.4675135852
 20
14.0237942107
 30
0.0
 10
9.4488346018
 20
14.0409413259
 30
0.0
 10
9.4321797624
 20
14.0560679385
 30
0.0
 10
9.4196099194
 20
14.0673184259
 30
0.0
 10
9.4106626018
 20
14.0751917571
 30
0.0
 10
9.4048416571
 20
14.0802441043
 30
0.0
 10
9.3996211071
 20
14.084697385
 30
0.0
 10
9.3950121694
 20
14.0885411953
 30
0.0
 10
9.3910243861
 20
14.0917662927
 30
0.0
 10
9.3880803255
 20
14.094047096
 30
0.0
 10
9.3860361074
 20
14.0955478456
 30
0.0
 10
9.38475216
 20
14.0964485768
 30
0.0
 10
9.3836286721
 20
14.0971900365
 30
0.0
 10
9.3829240508
 20
14.0976164757
 30
0.0
 10
9.3825974487
 20
14.0978000472
 30
0.0
  0
LINE
  5
4AF
100
AcDbEntity
  8
0
100
AcDbLine
 62
7
  6
CONTINUOUS
 10
9.3825974487
 20
14.0978000472
 11
9.3810440536
 21
14.0985019887
  0
SPLINE
  5
4B0
100
AcDbEntity
  8
0
100
AcDbSpline
 62
7
  6
CONTINUOUS
 70
0
 71
3
 72
60
 73
56
 74
0
 42
0.0000001
 43
0.0000001
 44
0.0000000001
 40
0.0
 40
0.0
 40
0.0
 40
0.0
 40
0.0001682259
 40
0.0003638652
 40
0.0006051189
 40
0.000901881
 40
0.0012594423
 40
0.0016807882
 40
0.002167714
 40
0.002721361
 40
0.0040314587
 40
0.0056145221
 40
0.0074717684
 40
0.0096035443
 40
0.0120097144
 40
0.0146895631
 40
0.0176418693
 40
0.0208652801
 40
0.028119405
 40
0.0364369828
 40
0.0458002534
 40
0.0561888369
 40
0.0675796551
 40
0.0799476151
 40
0.1075016912
 40
0.138604356
 40
0.1729762431
 40
0.2103082175
 40
0.2502642509
 40
0.2924844808
 40
0.3365886152
 40
0.3821791814
 40
0.4288454314
 40
0.4761666779
 40
0.5710663253
 40
0.6177893924
 40
0.6634645541
 40
0.7076802689
 40
0.7500380746
 40
0.7901564043
 40
0.827673932
 40
0.8622529139
 40
0.8935823262
 40
0.9213806994
 40
0.9453989816
 40
0.955922261
 40
0.965423187
 40
0.9738808424
 40
0.9812772731
 40
0.9875968509
 40
0.9928279245
 40
0.9950324825
 40
0.996962445
 40
0.9986179862
 40
1.0
 40
1.0
 40
1.0
 40
1.0
 10
9.3640445216
 20
14.0821946973
 30
0.0
 10
9.3640767071
 20
14.0822268827
 30
0.0
 10
9.3641632063
 20
14.0822804916
 30
0.0
 10
9.3643265664
 20
14.0823103475
 30
0.0
 10
9.3645258821
 20
14.0822992106
 30
0.0
 10
9.3647634613
 20
14.0822484135
 30
0.0
 10
9.365040518
 20
14.0821581144
 30
0.0
 10
9.3653575983
 20
14.0820280368
 30
0.0
 10
9.3657149189
 20
14.081858032
 30
0.0
 10
9.3662773503
 20
14.0815607458
 30
0.0
 10
9.3670789785
 20
14.0810831164
 30
0.0
 10
9.3681548234
 20
14.0803794585
 30
0.0
 10
9.3693911869
 20
14.0795163433
 30
0.0
 10
9.3707874917
 20
14.0784941776
 30
0.0
 10
9.3723430458
 20
14.0773132903
 30
0.0
 10
9.3740570515
 20
14.0759743384
 30
0.0
 10
9.37592861
 20
14.0744781464
 30
0.0
 10
9.3787455738
 20
14.0721827094
 30
0.0
 10
9.382648974
 20
14.0689228363
 30
0.0
 10
9.3877784347
 20
14.0645401713
 30
0.0
 10
9.3935096809
 20
14.0595567182
 30
0.0
 10
9.3998305341
 20
14.0539844194
 30
0.0
 10
9.4067275327
 20
14.0478365066
 30
0.0
 10
9.4170496253
 20
14.0385512921
 30
0.0
 10
9.4312627685
 20
14.0256170213
 30
0.0
 10
9.4497897581
 20
14.0085780006
 30
0.0
 10
9.470189778
 20
13.9896676637
 30
0.0
 10
9.4922853438
 20
13.9690630067
 30
0.0
 10
9.5158836289
 20
13.9469562595
 30
0.0
 10
9.5407783877
 20
13.9235533637
 30
0.0
 10
9.5667516943
 20
13.8990720109
 30
0.0
 10
9.5935759526
 20
13.8737396425
 30
0.0
 10
9.6210158701
 20
13.8477914245
 30
0.0
 10
9.6581358071
 20
13.8126618882
 30
0.0
 10
9.6952595014
 20
13.7775139571
 30
0.0
 10
9.7320785491
 20
13.7426920767
 30
0.0
 10
9.7589501078
 20
13.717310097
 30
0.0
 10
9.7849858008
 20
13.6927632761
 30
0.0
 10
9.8099574532
 20
13.6692796411
 30
0.0
 10
9.8336464387
 20
13.6470776032
 30
0.0
 10
9.8558456514
 20
13.6263639307
 30
0.0
 10
9.8763613778
 20
13.6073319103
 30
0.0
 10
9.8950148584
 20
13.5901593534
 30
0.0
 10
9.9116442563
 20
13.5750074246
 30
0.0
 10
9.9241922438
 20
13.5637350675
 30
0.0
 10
9.9331218566
 20
13.5558439386
 30
0.0
 10
9.9389300656
 20
13.5507789513
 30
0.0
 10
9.9441379097
 20
13.5463130882
 30
0.0
 10
9.9487341766
 20
13.5424567753
 30
0.0
 10
9.9527093262
 20
13.5392192663
 30
0.0
 10
9.9556425191
 20
13.5369276101
 30
0.0
 10
9.9576779484
 20
13.5354179228
 30
0.0
 10
9.9589555694
 20
13.534510996
 30
0.0
 10
9.9600727317
 20
13.5337633823
 30
0.0
 10
9.9607729538
 20
13.5333323319
 30
0.0
 10
9.9610973646
 20
13.5331463643
 30
0.0
  0
LINE
  5
4B1
100
AcDbEntity
  8
0
100
AcDbLine
 62
7
  6
CONTINUOUS
 10
9.9610973646
 20
13.5331463643
 11
9.9626713164
 21
13.5324211984
  0
SPLINE
  5
4B2
100
AcDbEntity
  8
0
100
AcDbSpline
 62
7
  6
CONTINUOUS
 70
0
 71
3
 72
60
 73
56
 74
0
 42
0.0000001
 43
0.0000001
 44
0.0000000001
 40
0.0
 40
0.0
 40
0.0
 40
0.0
 40
0.0001675102
 40
0.0003625481
 40
0.0006033257
 40
0.0008997102
 40
0.0012569661
 40
0.0016780596
 40
0.0021647729
 40
0.0027182384
 40
0.0040280426
 40
0.0056108782
 40
0.0074679434
 40
0.0095995733
 40
0.0120056244
 40
0.0146853755
 40
0.0176376012
 40
0.0208609453
 40
0.0281149695
 40
0.0364324799
 40
0.0457957114
 40
0.0561842757
 40
0.0675750869
 40
0.0799430472
 40
0.1074971524
 40
0.1385998583
 40
0.1729717894
 40
0.2103038048
 40
0.2502598664
 40
0.2924801132
 40
0.3365842454
 40
0.3821748031
 40
0.4288410275
 40
0.4761622465
 40
0.5710618329
 40
0.6177848831
 40
0.6634600366
 40
0.7076757708
 40
0.7500336197
 40
0.7901520277
 40
0.8276696756
 40
0.8622488286
 40
0.8935784731
 40
0.921377145
 40
0.9453958127
 40
0.9559193184
 40
0.9654204998
 40
0.9738784462
 40
0.9812752074
 40
0.9875951636
 40
0.992826681
 40
0.9950314951
 40
0.9969617436
 40
0.9986176093
 40
1.0
 40
1.0
 40
1.0
 40
1.0
 10
9.3142265247
 20
14.0323767003
 30
0.0
 10
9.3142585733
 20
14.0324087489
 30
0.0
 10
9.3143448439
 20
14.0324620758
 30
0.0
 10
9.3145077929
 20
14.0324914748
 30
0.0
 10
9.3147066844
 20
14.0324799255
 30
0.0
 10
9.3149438557
 20
14.0324287359
 30
0.0
 10
9.3152205198
 20
14.0323380579
 30
0.0
 10
9.3155372212
 20
14.03220761
 30
0.0
 10
9.3158941746
 20
14.0320372429
 30
0.0
 10
9.3164561237
 20
14.0317394439
 30
0.0
 10
9.3172571717
 20
14.0312612193
 30
0.0
 10
9.3183323706
 20
14.0305569219
 30
0.0
 10
9.3195681249
 20
14.0296931966
 30
0.0
 10
9.3209638564
 20
14.0286704506
 30
0.0
 10
9.322518872
 20
14.027489014
 30
0.0
 10
9.3242323735
 20
14.0261495441
 30
0.0
 10
9.3261034612
 20
14.0246528657
 30
0.0
 10
9.328919824
 20
14.0223567915
 30
0.0
 10
9.3328225671
 20
14.0190962242
 30
0.0
 10
9.3379513839
 20
14.0147128815
 30
0.0
 10
9.3436821094
 20
14.0097288694
 30
0.0
 10
9.3500025619
 20
14.0041561289
 30
0.0
 10
9.3568992751
 20
13.9980078912
 30
0.0
 10
9.3672211324
 20
13.9887223829
 30
0.0
 10
9.3814342805
 20
13.9757880585
 30
0.0
 10
9.3999616784
 20
13.9587493948
 30
0.0
 10
9.4203624895
 20
13.9398398156
 30
0.0
 10
9.4424592046
 20
13.9192362964
 30
0.0
 10
9.4660589732
 20
13.8971310453
 30
0.0
 10
9.4909555244
 20
13.8737299827
 30
0.0
 10
9.5169309104
 20
13.8492507747
 30
0.0
 10
9.5437575108
 20
13.8239208398
 30
0.0
 10
9.5712000125
 20
13.7979753167
 30
0.0
 10
9.6083236903
 20
13.7628496939
 30
0.0
 10
9.6454514946
 20
13.7277060613
 30
0.0
 10
9.6822750048
 20
13.6928888497
 30
0.0
 10
9.7091500296
 20
13.6675104809
 30
0.0
 10
9.7351892999
 20
13.6429673739
 30
0.0
 10
9.7601646207
 20
13.6194875275
 30
0.0
 10
9.7838573425
 20
13.5972893268
 30
0.0
 10
9.8060603384
 20
13.5765795118
 30
0.0
 10
9.8265798729
 20
13.5575513412
 30
0.0
 10
9.8452371624
 20
13.5403825983
 30
0.0
 10
9.8618703479
 20
13.5252344197
 30
0.0
 10
9.8744215577
 20
13.5139652498
 30
0.0
 10
9.8833537499
 20
13.5060766649
 30
0.0
 10
9.8891638002
 20
13.5010134574
 30
0.0
 10
9.8943734626
 20
13.4965493379
 30
0.0
 10
9.8989715214
 20
13.4926947276
 30
0.0
 10
9.9029484325
 20
13.4894588768
 30
0.0
 10
9.9058831162
 20
13.4871686427
 30
0.0
 10
9.907919734
 20
13.4856601042
 30
0.0
 10
9.909198203
 20
13.4847539626
 30
0.0
 10
9.9103162049
 20
13.4840071187
 30
0.0
 10
9.9110170049
 20
13.4835766387
 30
0.0
 10
9.911341702
 20
13.4833909652
 30
0.0
  0
LINE
  5
4B3
100
AcDbEntity
  8
0
100
AcDbLine
 62
7
  6
CONTINUOUS
 10
9.911341702
 20
13.4833909652
 11
9.9129133891
 21
13.4826685991
  0
SPLINE
  5
4B4
100
AcDbEntity
  8
0
100
AcDbSpline
 62
7
  6
CONTINUOUS
 70
0
 71
3
 72
59
 73
55
 74
0
 42
0.0000001
 43
0.0000001
 44
0.0000000001
 40
0.0
 40
0.0
 40
0.0
 40
0.0
 40
0.0001730953
 40
0.0003729518
 40
0.0006176456
 40
0.0009172139
 40
0.0012771071
 40
0.0017004306
 40
0.0027439559
 40
0.0040565621
 40
0.0056416694
 40
0.0075006215
 40
0.0096338449
 40
0.0120412564
 40
0.0147221768
 40
0.0176754115
 40
0.0208996271
 40
0.0281550447
 40
0.0364735657
 40
0.0458374903
 40
0.0562264767
 40
0.0676174735
 40
0.0799854091
 40
0.1075389083
 40
0.138640375
 40
0.17301053
 40
0.2103403123
 40
0.2502937556
 40
0.2925110635
 40
0.3366119999
 40
0.3821991647
 40
0.42886186
 40
0.4761794699
 40
0.5710718333
 40
0.6177913817
 40
0.6634631812
 40
0.707675762
 40
0.750030713
 40
0.7901465318
 40
0.8276619527
 40
0.862239298
 40
0.8935676149
 40
0.9213655121
 40
0.9453840513
 40
0.9559077777
 40
0.9654093991
 40
0.973868038
 40
0.9812657907
 40
0.9875871079
 40
0.9928204695
 40
0.9950264496
 40
0.9969580754
 40
0.9986155909
 40
1.0
 40
1.0
 40
1.0
 40
1.0
 10
9.929171592
 20
13.4982732482
 30
0.0
 10
9.9291384715
 20
13.4982401277
 30
0.0
 10
9.9290503698
 20
13.4981845972
 30
0.0
 10
9.9288841504
 20
13.4981515651
 30
0.0
 10
9.9286817964
 20
13.4981597271
 30
0.0
 10
9.9284412043
 20
13.4982076245
 30
0.0
 10
9.9281611467
 20
13.4982950152
 30
0.0
 10
9.9277015281
 20
13.498477866
 30
0.0
 10
9.9270284522
 20
13.4988160396
 30
0.0
 10
9.9261076293
 20
13.4993546918
 30
0.0
 10
9.925025782
 20
13.5000527175
 30
0.0
 10
9.9237833779
 20
13.5009098096
 30
0.0
 10
9.9223809932
 20
13.5019259893
 30
0.0
 10
9.9208193149
 20
13.5031007964
 30
0.0
 10
9.9190991409
 20
13.5044336243
 30
0.0
 10
9.9172213695
 20
13.5059236367
 30
0.0
 10
9.9143957904
 20
13.5082103668
 30
0.0
 10
9.9104816001
 20
13.5114594085
 30
0.0
 10
9.9053393867
 20
13.5158294028
 30
0.0
 10
9.8995952243
 20
13.5208000028
 30
0.0
 10
9.8932612992
 20
13.5263592773
 30
0.0
 10
9.8863510816
 20
13.5324940045
 30
0.0
 10
9.8760105768
 20
13.5417607031
 30
0.0
 10
9.8617743287
 20
13.5546717996
 30
0.0
 10
9.8432199259
 20
13.5716834366
 30
0.0
 10
9.822792057
 20
13.5905659063
 30
0.0
 10
9.8006682615
 20
13.611142272
 30
0.0
 10
9.7770414216
 20
13.6332203666
 30
0.0
 10
9.7521178362
 20
13.6565943043
 30
0.0
 10
9.7261154801
 20
13.6810464524
 30
0.0
 10
9.6992619996
 20
13.7063494241
 30
0.0
 10
9.6717927338
 20
13.732268111
 30
0.0
 10
9.634633525
 20
13.7673581311
 30
0.0
 10
9.5974707565
 20
13.8024667887
 30
0.0
 10
9.5606123533
 20
13.8372490947
 30
0.0
 10
9.5337115279
 20
13.8626017016
 30
0.0
 10
9.5076467288
 20
13.8871193468
 30
0.0
 10
9.4826461795
 20
13.9105740598
 30
0.0
 10
9.4589285583
 20
13.932747484
 30
0.0
 10
9.4367010233
 20
13.9534329097
 30
0.0
 10
9.4161573424
 20
13.9724371089
 30
0.0
 10
9.3974763362
 20
13.9895823378
 30
0.0
 10
9.3808198986
 20
14.0047074945
 30
0.0
 10
9.3682490626
 20
14.0159571094
 30
0.0
 10
9.3593012125
 20
14.0238300064
 30
0.0
 10
9.3534800151
 20
14.0288821666
 30
0.0
 10
9.3482593443
 20
14.0333353869
 30
0.0
 10
9.343650422
 20
14.0371792648
 30
0.0
 10
9.3396627947
 20
14.0404045602
 30
0.0
 10
9.3367189873
 20
14.0426856548
 30
0.0
 10
9.3346750574
 20
14.0441867295
 30
0.0
 10
9.3333913591
 20
14.0450877195
 30
0.0
 10
9.3322681596
 20
14.0458294717
 30
0.0
 10
9.3315637624
 20
14.0462561589
 30
0.0
 10
9.3312372789
 20
14.0464398682
 30
0.0
  0
LINE
  5
4B5
100
AcDbEntity
  8
0
100
AcDbLine
 62
7
  6
CONTINUOUS
 10
9.3312372789
 20
14.0464398682
 11
9.3296822759
 21
14.0471433492
  0
SPLINE
  5
4B6
100
AcDbEntity
  8
0
100
AcDbSpline
 62
7
  6
CONTINUOUS
 70
0
 71
3
 72
17
 73
13
 74
0
 42
0.0000001
 43
0.0000001
 44
0.0000000001
 40
0.0
 40
0.0
 40
0.0
 40
0.0
 40
0.0219584501
 40
0.045751208
 40
0.073272283
 40
0.1057622392
 40
0.1882717655
 40
0.2965476486
 40
0.4316635468
 40
0.5939764137
 40
0.7835118063
 40
1.0
 40
1.0
 40
1.0
 40
1.0
 10
7.5312411739
 20
11.5928906444
 30
0.0
 10
7.5312695185
 20
11.592915045
 30
0.0
 10
7.5313200098
 20
11.5929766952
 30
0.0
 10
7.5313645302
 20
11.5930950415
 30
0.0
 10
7.5313807931
 20
11.5932378894
 30
0.0
 10
7.5313652079
 20
11.5934810033
 30
0.0
 10
7.5312669004
 20
11.5938511848
 30
0.0
 10
7.5310564949
 20
11.5943653148
 30
0.0
 10
7.5307425131
 20
11.5949816466
 30
0.0
 10
7.5303252647
 20
11.5956987422
 30
0.0
 10
7.5298048182
 20
11.5965151974
 30
0.0
 10
7.5294154022
 20
11.5970868006
 30
0.0
 10
7.5292043742
 20
11.5973891751
 30
0.0
  0
SPLINE
  5
4B7
100
AcDbEntity
  8
0
100
AcDbSpline
 62
7
  6
CONTINUOUS
 70
0
 71
3
 72
32
 73
28
 74
0
 42
0.0000001
 43
0.0000001
 44
0.0000000001
 40
0.0
 40
0.0
 40
0.0
 40
0.0
 40
0.2187255539
 40
0.3200494583
 40
0.4154994227
 40
0.5047191005
 40
0.5873673627
 40
0.6631348615
 40
0.7317382329
 40
0.7929196241
 40
0.8464539201
 40
0.8702904925
 40
0.8921451365
 40
0.9119978819
 40
0.9298318869
 40
0.9456344344
 40
0.959394364
 40
0.9711044876
 40
0.9807658242
 40
0.9848313247
 40
0.9883899015
 40
0.99144648
 40
0.9940100078
 40
0.9960963301
 40
0.9977355138
 40
0.9989906145
 40
1.0
 40
1.0
 40
1.0
 40
1.0
 10
9.7415702028
 20
13.567274709
 30
0.0
 10
9.7512798638
 20
13.5582056577
 30
0.0
 10
9.7655046897
 20
13.5449537599
 30
0.0
 10
9.7840231748
 20
13.5278050018
 30
0.0
 10
9.7967974051
 20
13.5160312873
 30
0.0
 10
9.8087684708
 20
13.5050601307
 30
0.0
 10
9.8198929338
 20
13.4949348803
 30
0.0
 10
9.8301303648
 20
13.4856957118
 30
0.0
 10
9.8394437634
 20
13.4773791787
 30
0.0
 10
9.8477997198
 20
13.4700184433
 30
0.0
 10
9.8541639634
 20
13.4645109656
 30
0.0
 10
9.8587589296
 20
13.4606102109
 30
0.0
 10
9.8618130767
 20
13.4580559733
 30
0.0
 10
9.8646080606
 20
13.4557604081
 30
0.0
 10
9.8671414491
 20
13.4537258303
 30
0.0
 10
9.8694110122
 20
13.451954204
 30
0.0
 10
9.8714147224
 20
13.4504470472
 30
0.0
 10
9.8731509178
 20
13.4492058431
 30
0.0
 10
9.8744378941
 20
13.4483497337
 30
0.0
 10
9.8753356581
 20
13.4478049184
 30
0.0
 10
9.8759017542
 20
13.4474876372
 30
0.0
 10
9.876400252
 20
13.4472373114
 30
0.0
 10
9.8768312981
 20
13.4470537544
 30
0.0
 10
9.8771956312
 20
13.4469360695
 30
0.0
 10
9.8774950209
 20
13.446884298
 30
0.0
 10
9.87773547
 20
13.4468975155
 30
0.0
 10
9.8778631767
 20
13.4469648634
 30
0.0
 10
9.8779065405
 20
13.447008211
 30
0.0
  0
SPLINE
  5
4B8
100
AcDbEntity
  8
0
100
AcDbSpline
 62
7
  6
CONTINUOUS
 70
0
 71
3
 72
21
 73
17
 74
0
 42
0.0000001
 43
0.0000001
 44
0.0000000001
 40
0.0
 40
0.0
 40
0.0
 40
0.0
 40
0.0044355494
 40
0.0096300324
 40
0.0161315125
 40
0.0242244313
 40
0.0456769715
 40
0.0745442347
 40
0.1109991156
 40
0.1550917186
 40
0.2067962639
 40
0.2660599648
 40
0.4069708024
 40
0.576997923
 40
0.7751025613
 40
1.0
 40
1.0
 40
1.0
 40
1.0
 10
6.868503285
 20
12.2119887497
 30
0.0
 10
6.8685167374
 20
12.2120003149
 30
0.0
 10
6.8685397822
 20
12.2120330321
 30
0.0
 10
6.8685533755
 20
12.2120971848
 30
0.0
 10
6.8685504084
 20
12.2121767348
 30
0.0
 10
6.8685222766
 20
12.2123185287
 30
0.0
 10
6.8684401406
 20
12.2125383833
 30
0.0
 10
6.8682878816
 20
12.2128503623
 30
0.0
 10
6.8680717248
 20
12.2132311706
 30
0.0
 10
6.8677919938
 20
12.2136801823
 30
0.0
 10
6.8674486841
 20
12.2141967618
 30
0.0
 10
6.8668726098
 20
12.2150232758
 30
0.0
 10
6.8659937708
 20
12.216215183
 30
0.0
 10
6.8647501842
 20
12.2178273092
 30
0.0
 10
6.8632716122
 20
12.2196820218
 30
0.0
 10
6.8622010447
 20
12.2209920936
 30
0.0
 10
6.8616286829
 20
12.2216859897
 30
0.0
  0
LINE
  5
4B9
100
AcDbEntity
  8
0
100
AcDbLine
 62
7
  6
CONTINUOUS
 10
6.8590845698
 20
12.2247329128
 11
6.8589038187
 21
12.2249469324
  0
SPLINE
  5
4BA
100
AcDbEntity
  8
0
100
AcDbSpline
 62
7
  6
CONTINUOUS
 70
0
 71
3
 72
14
 73
10
 74
0
 42
0.0000001
 43
0.0000001
 44
0.0000000001
 40
0.0
 40
0.0
 40
0.0
 40
0.0
 40
0.0620117154
 40
0.133326283
 40
0.2213024112
 40
0.3299397682
 40
0.4613108887
 40
0.616467307
 40
1.0
 40
1.0
 40
1.0
 40
1.0
 10
7.1936364142
 20
11.9288928898
 30
0.0
 10
7.1936709872
 20
11.9289226658
 30
0.0
 10
7.1937306201
 20
11.9290049907
 30
0.0
 10
7.1937684401
 20
11.9291661329
 30
0.0
 10
7.1937641701
 20
11.9293644644
 30
0.0
 10
7.1937196764
 20
11.9296023654
 30
0.0
 10
7.1936351976
 20
11.9298809918
 30
0.0
 10
7.1934558476
 20
11.9303405906
 30
0.0
 10
7.1932792011
 20
11.9306962758
 30
0.0
 10
7.1931467902
 20
11.9309454842
 30
0.0
  0
SPLINE
  5
4BB
100
AcDbEntity
  8
0
100
AcDbSpline
 62
7
  6
CONTINUOUS
 70
0
 71
3
 72
28
 73
24
 74
0
 42
0.0000001
 43
0.0000001
 44
0.0000000001
 40
0.0
 40
0.0
 40
0.0
 40
0.0
 40
0.1934292159
 40
0.3792891335
 40
0.4671377106
 40
0.5504576801
 40
0.628459734
 40
0.7004131369
 40
0.7656463873
 40
0.8235672176
 40
0.8736611706
 40
0.8956397148
 40
0.9155137257
 40
0.933252933
 40
0.9488332945
 40
0.9622465001
 40
0.973511125
 40
0.9826798931
 40
0.9898800753
 40
0.9928331199
 40
0.9954331383
 40
0.9977779062
 40
1.0
 40
1.0
 40
1.0
 40
1.0
 10
7.8534603128
 20
11.3296346489
 30
0.0
 10
7.8507220192
 20
11.3322678241
 30
0.0
 10
7.8453065682
 20
11.3373835062
 30
0.0
 10
7.8385219845
 20
11.3435603257
 30
0.0
 10
7.8332624702
 20
11.3481979403
 30
0.0
 10
7.8295547597
 20
11.3513920321
 30
0.0
 10
7.826045259
 20
11.3543373545
 30
0.0
 10
7.8227677723
 20
11.3570058849
 30
0.0
 10
7.8197537223
 20
11.359372498
 30
0.0
 10
7.8170320526
 20
11.3614150434
 30
0.0
 10
7.8149475862
 20
11.3628901442
 30
0.0
 10
7.8134423928
 20
11.3638880735
 30
0.0
 10
7.8124516322
 20
11.3645113662
 30
0.0
 10
7.8115512784
 20
11.3650416203
 30
0.0
 10
7.8107433654
 20
11.365477757
 30
0.0
 10
7.81002973
 20
11.3658190011
 30
0.0
 10
7.8094114328
 20
11.3660653868
 30
0.0
 10
7.8088894889
 20
11.3662169361
 30
0.0
 10
7.8085103709
 20
11.3662682897
 30
0.0
 10
7.8082595637
 20
11.3662512589
 30
0.0
 10
7.8081079236
 20
11.3662142131
 30
0.0
 10
7.807980532
 20
11.3661513113
 30
0.0
 10
7.8079122896
 20
11.3660911277
 30
0.0
 10
7.8078838207
 20
11.3660580501
 30
0.0
  0
SPLINE
  5
4BC
100
AcDbEntity
  8
0
100
AcDbSpline
 62
7
  6
CONTINUOUS
 70
0
 71
3
 72
28
 73
24
 74
0
 42
0.0000001
 43
0.0000001
 44
0.0000000001
 40
0.0
 40
0.0
 40
0.0
 40
0.0
 40
0.1934789994
 40
0.3793691096
 40
0.4672376985
 40
0.5505869638
 40
0.6286308137
 40
0.7006397207
 40
0.7659415823
 40
0.8239409096
 40
0.8741164322
 40
0.8961338884
 40
0.9160429527
 40
0.9338110699
 40
0.9494112055
 40
0.9628301984
 40
0.9740800594
 40
0.9832033765
 40
0.9903100067
 40
0.9931896098
 40
0.9956937991
 40
0.9979185899
 40
1.0
 40
1.0
 40
1.0
 40
1.0
 10
8.1723494051
 20
11.0102429984
 30
0.0
 10
8.1695646964
 20
11.0128224413
 30
0.0
 10
8.1640625117
 20
11.0178350216
 30
0.0
 10
8.1571810768
 20
11.0238916099
 30
0.0
 10
8.1518539172
 20
11.0284420846
 30
0.0
 10
8.1481016653
 20
11.0315782565
 30
0.0
 10
8.1445531316
 20
11.0344725066
 30
0.0
 10
8.1412423052
 20
11.0370974147
 30
0.0
 10
8.1382008027
 20
11.0394283171
 30
0.0
 10
8.1354577688
 20
11.0414433869
 30
0.0
 10
8.1333603018
 20
11.0429018216
 30
0.0
 10
8.1318481165
 20
11.0438911041
 30
0.0
 10
8.1308539642
 20
11.0445103668
 30
0.0
 10
8.1299519104
 20
11.0450386936
 30
0.0
 10
8.1291440357
 20
11.0454749895
 30
0.0
 10
8.1284322238
 20
11.0458184202
 30
0.0
 10
8.1278176349
 20
11.0460690001
 30
0.0
 10
8.1273014204
 20
11.046226658
 30
0.0
 10
8.1269283296
 20
11.0462857142
 30
0.0
 10
8.1266826225
 20
11.0462759982
 30
0.0
 10
8.1265356917
 20
11.0462447141
 30
0.0
 10
8.126413191
 20
11.0461880907
 30
0.0
 10
8.1263481615
 20
11.0461320098
 30
0.0
 10
8.1263215227
 20
11.0461010609
 30
0.0
  0
SPLINE
  5
4BD
100
AcDbEntity
  8
0
100
AcDbSpline
 62
7
  6
CONTINUOUS
 70
0
 71
3
 72
27
 73
23
 74
0
 42
0.0000001
 43
0.0000001
 44
0.0000000001
 40
0.0
 40
0.0
 40
0.0
 40
0.0
 40
0.1936596016
 40
0.3797170028
 40
0.55111695
 40
0.6292637076
 40
0.7013811566
 40
0.766793253
 40
0.8248977142
 40
0.8751625087
 40
0.8972142919
 40
0.917147314
 40
0.9349259295
 40
0.9505190687
 40
0.9639071781
 40
0.9750933447
 40
0.984106133
 40
0.9910310085
 40
0.9937804444
 40
0.9961212382
 40
0.9981468019
 40
1.0
 40
1.0
 40
1.0
 40
1.0
 10
8.4625503072
 20
10.7192299256
 30
0.0
 10
8.4597253176
 20
10.7217590603
 30
0.0
 10
8.4541499461
 20
10.7266777154
 30
0.0
 10
8.4459506201
 20
10.733692965
 30
0.0
 10
8.4393769501
 20
10.7391277979
 30
0.0
 10
8.4344586777
 20
10.7430617953
 30
0.0
 10
8.4311288916
 20
10.7456589971
 30
0.0
 10
8.4280746083
 20
10.7479707963
 30
0.0
 10
8.4253250823
 20
10.7499754214
 30
0.0
 10
8.4232274244
 20
10.7514322509
 30
0.0
 10
8.4217185912
 20
10.7524252433
 30
0.0
 10
8.4207286113
 20
10.7530492216
 30
0.0
 10
8.4198324153
 20
10.7535843155
 30
0.0
 10
8.4190321238
 20
10.7540293903
 30
0.0
 10
8.4183296623
 20
10.7543835205
 30
0.0
 10
8.4177263201
 20
10.7546466872
 30
0.0
 10
8.417223403
 20
10.7548186469
 30
0.0
 10
8.4168626511
 20
10.7548929047
 30
0.0
 10
8.4166266707
 20
10.7548966163
 30
0.0
 10
8.4164880749
 20
10.7548753536
 30
0.0
 10
8.4163738331
 20
10.7548293176
 30
0.0
 10
8.4163140593
 20
10.7547799694
 30
0.0
 10
8.4162903877
 20
10.7547524703
 30
0.0
  0
SPLINE
  5
4BE
100
AcDbEntity
  8
0
100
AcDbSpline
 62
7
  6
CONTINUOUS
 70
0
 71
3
 72
27
 73
23
 74
0
 42
0.0000001
 43
0.0000001
 44
0.0000000001
 40
0.0
 40
0.0
 40
0.0
 40
0.0
 40
0.1939528795
 40
0.3802947186
 40
0.5519888492
 40
0.6302848853
 40
0.7025483267
 40
0.7680968924
 40
0.8263192625
 40
0.8766707671
 40
0.8987491564
 40
0.9186938864
 40
0.9364658685
 40
0.9520295015
 40
0.965358279
 40
0.9764451861
 40
0.9853023374
 40
0.991985338
 40
0.9945645938
 40
0.9966913052
 40
0.9984525876
 40
1.0
 40
1.0
 40
1.0
 40
1.0
 10
8.7113804931
 20
10.4693147445
 30
0.0
 10
8.7085229819
 20
10.4717994163
 30
0.0
 10
8.7028907414
 20
10.4766376399
 30
0.0
 10
8.6946285814
 20
10.483557436
 30
0.0
 10
8.6880219418
 20
10.4889360466
 30
0.0
 10
8.6830902069
 20
10.4928428582
 30
0.0
 10
8.679756607
 20
10.4954293119
 30
0.0
 10
8.676704746
 20
10.497739167
 30
0.0
 10
8.6739639292
 20
10.4997505231
 30
0.0
 10
8.6718790021
 20
10.5012205772
 30
0.0
 10
8.6703838558
 20
10.5022292198
 30
0.0
 10
8.6694055056
 20
10.5028662901
 30
0.0
 10
8.6685225389
 20
10.5034163961
 30
0.0
 10
8.6677371012
 20
10.5038783362
 30
0.0
 10
8.6670511363
 20
10.5042510675
 30
0.0
 10
8.6664660911
 20
10.5045344975
 30
0.0
 10
8.6659833806
 20
10.5047281166
 30
0.0
 10
8.6656409428
 20
10.504824139
 30
0.0
 10
8.6654191245
 20
10.5048469028
 30
0.0
 10
8.6652923132
 20
10.5048394306
 30
0.0
 10
8.6651894339
 20
10.5048080549
 30
0.0
 10
8.6651365076
 20
10.5047678218
 30
0.0
 10
8.6651167967
 20
10.5047449264
 30
0.0
  0
SPLINE
  5
4BF
100
AcDbEntity
  8
0
100
AcDbSpline
 62
7
  6
CONTINUOUS
 70
0
 71
3
 72
19
 73
15
 74
0
 42
0.0000001
 43
0.0000001
 44
0.0000000001
 40
0.0
 40
0.0
 40
0.0
 40
0.0
 40
0.0146359164
 40
0.0326842775
 40
0.0562646923
 40
0.0863267114
 40
0.1233060687
 40
0.1674127467
 40
0.2187276534
 40
0.2772709323
 40
0.4159724612
 40
0.583150187
 40
0.7781093498
 40
1.0
 40
1.0
 40
1.0
 40
1.0
 10
6.8790412217
 20
12.2419990658
 30
0.0
 10
6.8790762738
 20
12.2420292012
 30
0.0
 10
6.8791339301
 20
12.242121225
 30
0.0
 10
6.8791538905
 20
12.2423009317
 30
0.0
 10
6.8791255471
 20
12.242526585
 30
0.0
 10
6.8790487157
 20
12.242803015
 30
0.0
 10
6.8789234836
 20
12.2431312864
 30
0.0
 10
6.8787492739
 20
12.2435116794
 30
0.0
 10
6.8785261635
 20
12.2439438957
 30
0.0
 10
6.8781411762
 20
12.2446282013
 30
0.0
 10
6.8775335592
 20
12.2456062734
 30
0.0
 10
6.8766512488
 20
12.2469193934
 30
0.0
 10
6.8755827563
 20
12.2484231794
 30
0.0
 10
6.8747990095
 20
12.2494811314
 30
0.0
 10
6.874377689
 20
12.2500411517
 30
0.0
  0
SPLINE
  5
4C0
100
AcDbEntity
  8
0
100
AcDbSpline
 62
7
  6
CONTINUOUS
 70
0
 71
3
 72
28
 73
24
 74
0
 42
0.0000001
 43
0.0000001
 44
0.0000000001
 40
0.0
 40
0.0
 40
0.0
 40
0.0
 40
0.1943192762
 40
0.3810217156
 40
0.4693047624
 40
0.5530764679
 40
0.631545906
 40
0.703971504
 40
0.7696636224
 40
0.8280013748
 40
0.8784280062
 40
0.9204687872
 40
0.9382218222
 40
0.9537421668
 40
0.966996992
 40
0.9779695084
 40
0.9866549899
 40
0.9901463868
 40
0.9930806224
 40
0.9954754608
 40
0.9973651044
 40
0.9988213394
 40
1.0
 40
1.0
 40
1.0
 40
1.0
 10
8.9079656284
 20
10.2714206863
 30
0.0
 10
8.9050844432
 20
10.2738689503
 30
0.0
 10
8.8994134744
 20
10.2786442331
 30
0.0
 10
8.8923742482
 20
10.2844608994
 30
0.0
 10
8.8869577404
 20
10.2888640645
 30
0.0
 10
8.8831575031
 20
10.291916795
 30
0.0
 10
8.8795792601
 20
10.2947530616
 30
0.0
 10
8.876257122
 20
10.2973459459
 30
0.0
 10
8.8732228352
 20
10.2996707689
 30
0.0
 10
8.8705057269
 20
10.3017054988
 30
0.0
 10
8.8681320568
 20
10.3034306255
 30
0.0
 10
8.8663730852
 20
10.3046579414
 30
0.0
 10
8.8651520638
 20
10.3054683213
 30
0.0
 10
8.8643881697
 20
10.3059542849
 30
0.0
 10
8.8637251545
 20
10.306352706
 30
0.0
 10
8.8631646628
 20
10.3066627042
 30
0.0
 10
8.8627592939
 20
10.3068601211
 30
0.0
 10
8.8624861821
 20
10.3069694104
 30
0.0
 10
8.8623229188
 20
10.3070227976
 30
0.0
 10
8.8621856799
 20
10.3070541302
 30
0.0
 10
8.8620738651
 20
10.3070633245
 30
0.0
 10
8.8619854215
 20
10.3070504305
 30
0.0
 10
8.8619401342
 20
10.3070215603
 30
0.0
 10
8.8619251708
 20
10.307004181
 30
0.0
  0
SPLINE
  5
4C1
100
AcDbEntity
  8
0
100
AcDbSpline
 62
7
  6
CONTINUOUS
 70
0
 71
3
 72
29
 73
25
 74
0
 42
0.0000001
 43
0.0000001
 44
0.0000000001
 40
0.0
 40
0.0
 40
0.0
 40
0.0
 40
0.1946966434
 40
0.2896368984
 40
0.3817721266
 40
0.4702388879
 40
0.5541890307
 40
0.6328268899
 40
0.7054048024
 40
0.771226101
 40
0.8296615303
 40
0.8801447876
 40
0.9221886947
 40
0.9399177488
 40
0.9553928348
 40
0.968576454
 40
0.979444071
 40
0.9879768048
 40
0.9913652865
 40
0.9941715169
 40
0.996402721
 40
0.9980749135
 40
0.9992295544
 40
1.0
 40
1.0
 40
1.0
 40
1.0
 10
9.0437147007
 20
10.1341973723
 30
0.0
 10
9.0408192694
 20
10.1366191268
 30
0.0
 10
9.0365020135
 20
10.1402099739
 30
0.0
 10
9.0307908637
 20
10.1449182044
 30
0.0
 10
9.026658513
 20
10.1483037539
 30
0.0
 10
9.0226804013
 20
10.1515413119
 30
0.0
 10
9.0188942643
 20
10.1546001445
 30
0.0
 10
9.015336253
 20
10.1574511091
 30
0.0
 10
9.0120403573
 20
10.1600670418
 30
0.0
 10
9.0090381742
 20
10.1624229132
 30
0.0
 10
9.0063587975
 20
10.1644961585
 30
0.0
 10
9.0040282434
 20
10.1662667372
 30
0.0
 10
9.002310745
 20
10.1675395196
 30
0.0
 10
9.0011261635
 20
10.1683910969
 30
0.0
 10
9.0003896247
 20
10.1689072196
 30
0.0
 10
8.9997550739
 20
10.1693369617
 30
0.0
 10
8.9992241097
 20
10.1696793251
 30
0.0
 10
8.9988449401
 20
10.1699064784
 30
0.0
 10
8.9985933203
 20
10.1700415861
 30
0.0
 10
8.9984461183
 20
10.1701125437
 30
0.0
 10
8.9983256158
 20
10.1701619445
 30
0.0
 10
8.9982310453
 20
10.1701889317
 30
0.0
 10
8.9981614071
 20
10.1701973766
 30
0.0
 10
8.9981231502
 20
10.1701830318
 30
0.0
 10
8.9981134038
 20
10.1701717126
 30
0.0
  0
SPLINE
  5
4C2
100
AcDbEntity
  8
0
100
AcDbSpline
 62
7
  6
CONTINUOUS
 70
0
 71
3
 72
29
 73
25
 74
0
 42
0.0000001
 43
0.0000001
 44
0.0000000001
 40
0.0
 40
0.0
 40
0.0
 40
0.0
 40
0.0018377653
 40
0.003484791
 40
0.0056888493
 40
0.0084672643
 40
0.0118274468
 40
0.0157715776
 40
0.0202997489
 40
0.0311035094
 40
0.0442253017
 40
0.0596393869
 40
0.0773081189
 40
0.1192463606
 40
0.1696432665
 40
0.2280220028
 40
0.2938204749
 40
0.3664118869
 40
0.445099846
 40
0.5291322251
 40
0.6177097007
 40
0.7099728623
 40
0.805050887
 40
1.0
 40
1.0
 40
1.0
 40
1.0
 10
6.6453639942
 20
12.4340737636
 30
0.0
 10
6.6453909682
 20
12.4340969893
 30
0.0
 10
6.6453834431
 20
12.4341814487
 30
0.0
 10
6.6453502094
 20
12.4342803036
 30
0.0
 10
6.6452974921
 20
12.4343999324
 30
0.0
 10
6.6452223404
 20
12.4345421443
 30
0.0
 10
6.6451239037
 20
12.4347111885
 30
0.0
 10
6.6450023902
 20
12.4349054237
 30
0.0
 10
6.6447970827
 20
12.4352173387
 30
0.0
 10
6.6444812945
 20
12.4356690907
 30
0.0
 10
6.6440307726
 20
12.4362836497
 30
0.0
 10
6.6434899513
 20
12.4369967148
 30
0.0
 10
6.6425978078
 20
12.4381436962
 30
0.0
 10
6.6412650446
 20
12.4398061685
 30
0.0
 10
6.6394117847
 20
12.4420616259
 30
0.0
 10
6.6372418074
 20
12.4446548096
 30
0.0
 10
6.634775911
 20
12.4475607658
 30
0.0
 10
6.6320376329
 20
12.4507514005
 30
0.0
 10
6.6290531687
 20
12.4541960805
 30
0.0
 10
6.6258510417
 20
12.4578618008
 30
0.0
 10
6.622461964
 20
12.4617132928
 30
0.0
 10
6.6189183547
 20
12.4657137424
 30
0.0
 10
6.6139915493
 20
12.4712412621
 30
0.0
 10
6.6102353282
 20
12.4754182666
 30
0.0
 10
6.6077027098
 20
12.4782188944
 30
0.0
  0
SPLINE
  5
4C3
100
AcDbEntity
  8
0
100
AcDbSpline
 62
7
  6
CONTINUOUS
 70
0
 71
3
 72
23
 73
19
 74
0
 42
0.0000001
 43
0.0000001
 44
0.0000000001
 40
0.0
 40
0.0
 40
0.0
 40
0.0
 40
0.0075054745
 40
0.0103910636
 40
0.0137512638
 40
0.0219598021
 40
0.0322156954
 40
0.0445455937
 40
0.0589548164
 40
0.0754390935
 40
0.1145756868
 40
0.1617723677
 40
0.2167912224
 40
0.2793238784
 40
0.4255044305
 40
0.5970214895
 40
0.7899819089
 40
1.0
 40
1.0
 40
1.0
 40
1.0
 10
6.6088939739
 20
12.510870955
 30
0.0
 10
6.6089662986
 20
12.5109332055
 30
0.0
 10
6.6089728013
 20
12.511096032
 30
0.0
 10
6.6089418667
 20
12.5112634773
 30
0.0
 10
6.6088940421
 20
12.5114424412
 30
0.0
 10
6.6087955103
 20
12.5117015838
 30
0.0
 10
6.6086298442
 20
12.5120568631
 30
0.0
 10
6.6084091841
 20
12.5124723156
 30
0.0
 10
6.6081337815
 20
12.512948009
 30
0.0
 10
6.6076662208
 20
12.5137058206
 30
0.0
 10
6.6069426147
 20
12.5147949018
 30
0.0
 10
6.6059072131
 20
12.5162639736
 30
0.0
 10
6.6046661119
 20
12.517951461
 30
0.0
 10
6.6026381749
 20
12.5206219404
 30
0.0
 10
6.5996424796
 20
12.5244166496
 30
0.0
 10
6.5955372099
 20
12.5294467848
 30
0.0
 10
6.5908474499
 20
12.5350467603
 30
0.0
 10
6.5875171427
 20
12.5389403797
 30
0.0
 10
6.5857725941
 20
12.5409618785
 30
0.0
  0
SPLINE
  5
4C4
100
AcDbEntity
  8
0
100
AcDbSpline
 62
7
  6
CONTINUOUS
 70
0
 71
3
 72
59
 73
55
 74
0
 42
0.0000001
 43
0.0000001
 44
0.0000000001
 40
0.0
 40
0.0
 40
0.0
 40
0.0
 40
0.0001838952
 40
0.0003938688
 40
0.0006480785
 40
0.0009569683
 40
0.0013263658
 40
0.0017596558
 40
0.0028250233
 40
0.0041623697
 40
0.0057755261
 40
0.0076662828
 40
0.0098353268
 40
0.0122823349
 40
0.0150065231
 40
0.0180069016
 40
0.0212823174
 40
0.0286513861
 40
0.037098224
 40
0.0466050067
 40
0.0571501655
 40
0.0812594876
 40
0.1092080441
 40
0.1407410984
 40
0.1755705886
 40
0.2133777887
 40
0.2538166199
 40
0.296516733
 40
0.3410870531
 40
0.3871194146
 40
0.4341922303
 40
0.4818745199
 40
0.5773198947
 40
0.624209527
 40
0.6699696111
 40
0.7141817817
 40
0.7564417896
 40
0.7963636025
 40
0.8335826577
 40
0.8677594367
 40
0.8985825801
 40
0.9257718404
 40
0.9379255366
 40
0.9490811199
 40
0.9592138174
 40
0.9683010437
 40
0.9763229603
 40
0.9832627368
 40
0.9891063704
 40
0.9938444314
 40
0.9957972209
 40
0.9974728514
 40
0.9988727388
 40
1.0
 40
1.0
 40
1.0
 40
1.0
 10
9.3229651861
 20
13.9997937115
 30
0.0
 10
9.3229979326
 20
13.9998264456
 30
0.0
 10
9.3230836569
 20
13.9998818614
 30
0.0
 10
9.3232450475
 20
13.9999179422
 30
0.0
 10
9.323440823
 20
13.9999147918
 30
0.0
 10
9.3236726835
 20
13.99987394
 30
0.0
 10
9.3239417931
 20
13.9997956811
 30
0.0
 10
9.3243820529
 20
13.9996291877
 30
0.0
 10
9.3250255921
 20
13.9993171112
 30
0.0
 10
9.3259044862
 20
13.9988165517
 30
0.0
 10
9.3269354354
 20
13.9981655299
 30
0.0
 10
9.3281180554
 20
13.9973642414
 30
0.0
 10
9.3294518073
 20
13.9964126248
 30
0.0
 10
9.330936006
 20
13.9953112089
 30
0.0
 10
9.332569842
 20
13.9940606077
 30
0.0
 10
9.3343524925
 20
13.9926615619
 30
0.0
 10
9.3370336429
 20
13.9905133634
 30
0.0
 10
9.3407457355
 20
13.9874591364
 30
0.0
 10
9.3456198587
 20
13.983348726
 30
0.0
 10
9.3510618248
 20
13.9786717263
 30
0.0
 10
9.3594408786
 20
13.9713623531
 30
0.0
 10
9.3712241439
 20
13.9608925192
 30
0.0
 10
9.3868475406
 20
13.9467899351
 30
0.0
 10
9.4043834457
 20
13.9307784386
 30
0.0
 10
9.4236775316
 20
13.9130116068
 30
0.0
 10
9.4445592687
 20
13.8936589103
 30
0.0
 10
9.4668438274
 20
13.8729046747
 30
0.0
 10
9.4903336147
 20
13.8509460868
 30
0.0
 10
9.514820088
 20
13.827991411
 30
0.0
 10
9.5400856445
 20
13.804258038
 30
0.0
 10
9.5659056104
 20
13.7799704581
 30
0.0
 10
9.6007749989
 20
13.7471449611
 30
0.0
 10
9.6356052509
 20
13.7143451775
 30
0.0
 10
9.670104807
 20
13.681900194
 30
0.0
 10
9.6952250635
 20
13.6583113449
 30
0.0
 10
9.7195203327
 20
13.6355468197
 30
0.0
 10
9.7427751768
 20
13.6138218466
 30
0.0
 10
9.7647836569
 20
13.593342054
 30
0.0
 10
9.7853512746
 20
13.5743015578
 30
0.0
 10
9.8042966035
 20
13.5568810702
 30
0.0
 10
9.8214531572
 20
13.5412464928
 30
0.0
 10
9.8345825873
 20
13.5294255207
 30
0.0
 10
9.844088138
 20
13.5209810474
 30
0.0
 10
9.8504123639
 20
13.5154219432
 30
0.0
 10
9.8561889875
 20
13.5104095356
 30
0.0
 10
9.861405625
 20
13.5059559408
 30
0.0
 10
9.866051115
 20
13.5020719522
 30
0.0
 10
9.8701153434
 20
13.4987665102
 30
0.0
 10
9.8735899107
 20
13.4960477161
 30
0.0
 10
9.876127235
 20
13.494169603
 30
0.0
 10
9.8778635665
 20
13.4929764802
 30
0.0
 10
9.8789284384
 20
13.4922911372
 30
0.0
 10
9.8798415546
 20
13.491755824
 30
0.0
 10
9.880409633
 20
13.4914672978
 30
0.0
 10
9.8806694068
 20
13.4913529537
 30
0.0
  0
LINE
  5
4C5
100
AcDbEntity
  8
0
100
AcDbLine
 62
7
  6
CONTINUOUS
 10
9.8806694068
 20
13.4913529537
 11
9.8813128779
 21
13.4911179015
  0
LINE
  5
4C6
100
AcDbEntity
  8
0
100
AcDbLine
 62
7
  6
CONTINUOUS
 10
9.3604259154
 20
14.0389240475
 11
9.3617608932
 21
14.0383487849
  0
SPLINE
  5
4C7
100
AcDbEntity
  8
0
100
AcDbSpline
 62
7
  6
CONTINUOUS
 70
0
 71
3
 72
58
 73
54
 74
0
 42
0.0000001
 43
0.0000001
 44
0.0000000001
 40
0.0
 40
0.0
 40
0.0
 40
0.0
 40
0.0013656805
 40
0.0030040459
 40
0.0049164455
 40
0.0071033304
 40
0.0122994592
 40
0.0185853738
 40
0.0259498403
 40
0.034377667
 40
0.0438508848
 40
0.054348926
 40
0.0783237001
 40
0.1060881578
 40
0.1373928722
 40
0.1719558669
 40
0.2094653989
 40
0.2495828151
 40
0.2919459653
 40
0.3361721355
 40
0.3818620194
 40
0.4286028954
 40
0.5235439823
 40
0.5708871304
 40
0.6175750527
 40
0.6631865501
 40
0.7073102998
 40
0.7495486054
 40
0.7895208146
 40
0.8268671175
 40
0.8612514056
 40
0.8923648451
 40
0.9199283762
 40
0.9436957567
 40
0.9540887212
 40
0.9634562906
 40
0.9717786845
 40
0.9790377742
 40
0.982264136
 40
0.9852195991
 40
0.9879027235
 40
0.9903125608
 40
0.9924486534
 40
0.9943108736
 40
0.9958996406
 40
0.9972165604
 40
0.9982656824
 40
0.9986924806
 40
0.9990564513
 40
0.9993608919
 40
0.9996115105
 40
0.9998185788
 40
1.0
 40
1.0
 40
1.0
 40
1.0
 10
9.3617608932
 20
14.0383487849
 30
0.0
 10
9.3620652293
 20
14.0381860438
 30
0.0
 10
9.3627220498
 20
14.0378045125
 30
0.0
 10
9.3637690312
 20
14.0371352465
 30
0.0
 10
9.3649662332
 20
14.0363169642
 30
0.0
 10
9.3668742885
 20
14.0349466106
 30
0.0
 10
9.3696230607
 20
14.0328537844
 30
0.0
 10
9.3733467498
 20
14.0298841432
 30
0.0
 10
9.3776521326
 20
14.0263352692
 30
0.0
 10
9.3825302603
 20
14.0222157683
 30
0.0
 10
9.3879706991
 20
14.0175352999
 30
0.0
 10
9.3963365658
 20
14.0102315528
 30
0.0
 10
9.4080911139
 20
13.9997815868
 30
0.0
 10
9.4236665203
 20
13.9857169987
 30
0.0
 10
9.4411377867
 20
13.9697600781
 30
0.0
 10
9.4603533168
 20
13.9520616645
 30
0.0
 10
9.481145643
 20
13.9327881979
 30
0.0
 10
9.5033333084
 20
13.9121206384
 30
0.0
 10
9.5267222896
 20
13.8902526088
 30
0.0
 10
9.5511078275
 20
13.8673885933
 30
0.0
 10
9.5762761892
 20
13.8437421189
 30
0.0
 10
9.6107621769
 20
13.8112961029
 30
0.0
 10
9.6455326432
 20
13.778542764
 30
0.0
 10
9.6803003421
 20
13.7458060066
 30
0.0
 10
9.706002261
 20
13.7216255634
 30
0.0
 10
9.7311284014
 20
13.698020422
 30
0.0
 10
9.7554587243
 20
13.675210444
 30
0.0
 10
9.778780399
 20
13.6534082476
 30
0.0
 10
9.8008897408
 20
13.6328172449
 30
0.0
 10
9.8215939641
 20
13.613629817
 30
0.0
 10
9.8407130023
 20
13.5960255336
 30
0.0
 10
9.8580808723
 20
13.580169334
 30
0.0
 10
9.8735475771
 20
13.5662104521
 30
0.0
 10
9.8852090819
 20
13.5558510851
 30
0.0
 10
9.8934991864
 20
13.5486212195
 30
0.0
 10
9.8988821465
 20
13.5439964411
 30
0.0
 10
9.9037026571
 20
13.5399326683
 30
0.0
 10
9.9073736907
 20
13.536913558
 30
0.0
 10
9.9100249628
 20
13.534790356
 30
0.0
 10
9.9117876542
 20
13.533407697
 30
0.0
 10
9.9134031255
 20
13.5321718973
 30
0.0
 10
9.9148705696
 20
13.5310836861
 30
0.0
 10
9.9161892703
 20
13.5301435631
 30
0.0
 10
9.9173585722
 20
13.5293519768
 30
0.0
 10
9.9183779177
 20
13.5287089334
 30
0.0
 10
9.9192469209
 20
13.5282146992
 30
0.0
 10
9.9198832291
 20
13.5279067357
 30
0.0
 10
9.9203185789
 20
13.5277425175
 30
0.0
 10
9.9205847626
 20
13.527665351
 30
0.0
 10
9.9208141466
 20
13.527625138
 30
0.0
 10
9.9210078613
 20
13.5276221897
 30
0.0
 10
9.9211675674
 20
13.5276580625
 30
0.0
 10
9.9212523763
 20
13.5277129949
 30
0.0
 10
9.9212847847
 20
13.527745423
 30
0.0
  0
SPLINE
  5
4C8
100
AcDbEntity
  8
0
100
AcDbSpline
 62
7
  6
CONTINUOUS
 70
0
 71
3
 72
28
 73
24
 74
0
 42
0.0000001
 43
0.0000001
 44
0.0000000001
 40
0.0
 40
0.0
 40
0.0
 40
0.0
 40
0.0021957516
 40
0.0039522678
 40
0.006240666
 40
0.0090874712
 40
0.0125051052
 40
0.0164986411
 40
0.0210699868
 40
0.0319455653
 40
0.0451243034
 40
0.0605830802
 40
0.0782860622
 40
0.1202654703
 40
0.1706711601
 40
0.2290288699
 40
0.2947779773
 40
0.3672943313
 40
0.4458853759
 40
0.5298029913
 40
0.6182520606
 40
0.8053175572
 40
1.0
 40
1.0
 40
1.0
 40
1.0
 10
6.4016037231
 20
12.7171846531
 30
0.0
 10
6.4016359386
 20
12.7172124303
 30
0.0
 10
6.4016454922
 20
12.7173026722
 30
0.0
 10
6.4016215638
 20
12.7174175972
 30
0.0
 10
6.4015800275
 20
12.7175460418
 30
0.0
 10
6.4015156512
 20
12.7176983505
 30
0.0
 10
6.4014287361
 20
12.7178773028
 30
0.0
 10
6.4013190522
 20
12.7180818795
 30
0.0
 10
6.4011313385
 20
12.7184084452
 30
0.0
 10
6.4008378815
 20
12.7188791509
 30
0.0
 10
6.4004141841
 20
12.7195167358
 30
0.0
 10
6.399901651
 20
12.7202538413
 30
0.0
 10
6.3990518405
 20
12.7214357568
 30
0.0
 10
6.3977739589
 20
12.7231434039
 30
0.0
 10
6.3959878275
 20
12.7254538253
 30
0.0
 10
6.3938890277
 20
12.7281042732
 30
0.0
 10
6.3914976872
 20
12.7310692109
 30
0.0
 10
6.3888365519
 20
12.7343199687
 30
0.0
 10
6.3859310099
 20
12.7378253939
 30
0.0
 10
6.3828087473
 20
12.7415519929
 30
0.0
 10
6.3783117408
 20
12.7468681832
 30
0.0
 10
6.372383701
 20
12.7537842496
 30
0.0
 10
6.367528638
 20
12.7593629117
 30
0.0
 10
6.3650423708
 20
12.7621988501
 30
0.0
  0
LINE
  5
4C9
100
AcDbEntity
  8
0
100
AcDbLine
 62
7
  6
CONTINUOUS
 10
9.409459317
 20
14.0909052056
 11
9.4098839608
 21
14.0907616149
  0
SPLINE
  5
4CA
100
AcDbEntity
  8
0
100
AcDbSpline
 62
7
  6
CONTINUOUS
 70
0
 71
3
 72
61
 73
57
 74
0
 42
0.0000001
 43
0.0000001
 44
0.0000000001
 40
0.0
 40
0.0
 40
0.0
 40
0.0
 40
0.0010361053
 40
0.002345221
 40
0.0039314443
 40
0.0057966601
 40
0.0079416472
 40
0.0103662014
 40
0.0160504632
 40
0.0228407193
 40
0.0307232496
 40
0.0396813639
 40
0.0496953213
 40
0.0607425116
 40
0.0727981645
 40
0.0998219931
 40
0.1305196118
 40
0.1646091299
 40
0.201777073
 40
0.241681373
 40
0.2839545922
 40
0.3282075491
 40
0.3740326099
 40
0.4210079504
 40
0.4687009087
 40
0.5166725585
 40
0.5644812806
 40
0.6116871792
 40
0.6578559795
 40
0.7025630347
 40
0.7453973615
 40
0.7859653018
 40
0.8238942481
 40
0.8588361586
 40
0.8904706466
 40
0.9185083488
 40
0.9426934897
 40
0.9532713786
 40
0.9628072424
 40
0.9712796502
 40
0.9786704654
 40
0.9819554679
 40
0.984964472
 40
0.9876962712
 40
0.9901499458
 40
0.9923247767
 40
0.9942203848
 40
0.9958372896
 40
0.9971773092
 40
0.9982442742
 40
0.9986779331
 40
0.9990473485
 40
0.9993558313
 40
0.9996091696
 40
0.9998177975
 40
1.0
 40
1.0
 40
1.0
 40
1.0
 10
9.4098839608
 20
14.0907616149
 30
0.0
 10
9.4101289274
 20
14.0906644762
 30
0.0
 10
9.4106684158
 20
14.0904073678
 30
0.0
 10
9.4115392636
 20
14.0899153632
 30
0.0
 10
9.4125646479
 20
14.0892707353
 30
0.0
 10
9.4137440365
 20
14.0884735163
 30
0.0
 10
9.4150769837
 20
14.0875236669
 30
0.0
 10
9.4171716088
 20
14.0859697728
 30
0.0
 10
9.420161884
 20
14.0836413581
 30
0.0
 10
9.424184371
 20
14.0803811112
 30
0.0
 10
9.4287994306
 20
14.076530553
 30
0.0
 10
9.4339971186
 20
14.0720991824
 30
0.0
 10
9.4397660746
 20
14.0670976722
 30
0.0
 10
9.4460938093
 20
14.0615383128
 30
0.0
 10
9.4556262829
 20
14.0530721356
 30
0.0
 10
9.4688154431
 20
14.0411972278
 30
0.0
 10
9.4860735655
 20
14.0254669584
 30
0.0
 10
9.5051591312
 20
14.0079120001
 30
0.0
 10
9.525902814
 20
13.988701071
 30
0.0
 10
9.548119974
 20
13.968018063
 30
0.0
 10
9.5716125888
 20
13.9460606014
 30
0.0
 10
9.5961709329
 20
13.9230380925
 30
0.0
 10
9.6215755759
 20
13.899169739
 30
0.0
 10
9.6475993106
 20
13.8746825631
 30
0.0
 10
9.6740093323
 20
13.8498092184
 30
0.0
 10
9.7005692911
 20
13.8247859169
 30
0.0
 10
9.7270415434
 20
13.7998501733
 30
0.0
 10
9.753189278
 20
13.7752386645
 30
0.0
 10
9.7787787232
 20
13.7511850154
 30
0.0
 10
9.8035812825
 20
13.7279176501
 30
0.0
 10
9.8273756232
 20
13.7056576845
 30
0.0
 10
9.8499497124
 20
13.6846168737
 30
0.0
 10
9.8711027324
 20
13.6649956275
 30
0.0
 10
9.8906469268
 20
13.6469811974
 30
0.0
 10
9.9084091613
 20
13.6307456584
 30
0.0
 10
9.9242328356
 20
13.6164448556
 30
0.0
 10
9.9361658553
 20
13.6058268808
 30
0.0
 10
9.9446502954
 20
13.5984133026
 30
0.0
 10
9.9501600613
 20
13.5936693025
 30
0.0
 10
9.9550942411
 20
13.5894995385
 30
0.0
 10
9.9588515672
 20
13.5864006878
 30
0.0
 10
9.961564958
 20
13.5842206831
 30
0.0
 10
9.9633688044
 20
13.5828007374
 30
0.0
 10
9.9650218234
 20
13.5815312439
 30
0.0
 10
9.966523201
 20
13.580412926
 30
0.0
 10
9.9678721381
 20
13.5794463776
 30
0.0
 10
9.9690679202
 20
13.5786321422
 30
0.0
 10
9.9701099997
 20
13.577970206
 30
0.0
 10
9.9709979809
 20
13.5774607501
 30
0.0
 10
9.9716478721
 20
13.5771424835
 30
0.0
 10
9.9720922678
 20
13.5769720184
 30
0.0
 10
9.9723636703
 20
13.5768915065
 30
0.0
 10
9.9725973126
 20
13.576848894
 30
0.0
 10
9.9727943739
 20
13.5768444526
 30
0.0
 10
9.9729566626
 20
13.5768796919
 30
0.0
 10
9.9730427995
 20
13.5769350359
 30
0.0
 10
9.9730755683
 20
13.5769678038
 30
0.0
  0
LINE
  5
4CB
100
AcDbEntity
  8
0
100
AcDbLine
 62
7
  6
CONTINUOUS
 10
6.2612890798
 20
12.8596640577
 11
6.2343132319
 21
12.8914258907
  0
SPLINE
  5
4CC
100
AcDbEntity
  8
0
100
AcDbSpline
 62
7
  6
CONTINUOUS
 70
0
 71
3
 72
11
 73
7
 74
0
 42
0.0000001
 43
0.0000001
 44
0.0000000001
 40
0.0
 40
0.0
 40
0.0
 40
0.0
 40
0.1748475214
 40
0.3989623123
 40
0.6737739476
 40
1.0
 40
1.0
 40
1.0
 40
1.0
 10
9.4587157201
 20
14.1426637379
 30
0.0
 10
9.4588933652
 20
14.1426162362
 30
0.0
 10
9.4592881638
 20
14.142469708
 30
0.0
 10
9.4599267445
 20
14.1421617838
 30
0.0
 10
9.4606840082
 20
14.1417369709
 30
0.0
 10
9.4612216079
 20
14.1414042369
 30
0.0
 10
9.4615106814
 20
14.1412194461
 30
0.0
  0
SPLINE
  5
4CD
100
AcDbEntity
  8
0
100
AcDbSpline
 62
7
  6
CONTINUOUS
 70
0
 71
3
 72
54
 73
50
 74
0
 42
0.0000001
 43
0.0000001
 44
0.0000000001
 40
0.0
 40
0.0
 40
0.0
 40
0.0
 40
0.0017621866
 40
0.0037930492
 40
0.0086599229
 40
0.0145961506
 40
0.0215911309
 40
0.0296314107
 40
0.0387002584
 40
0.0598441225
 40
0.0848400169
 40
0.1134693948
 40
0.1454808185
 40
0.180592519
 40
0.2184951806
 40
0.2588547114
 40
0.3455023954
 40
0.4374863671
 40
0.5315702484
 40
0.5783652526
 40
0.6244450259
 40
0.6694038407
 40
0.7128457847
 40
0.7543886076
 40
0.7936668372
 40
0.8303351766
 40
0.8640716003
 40
0.8945801197
 40
0.9215936738
 40
0.9448766122
 40
0.9550548083
 40
0.9642274276
 40
0.9723753285
 40
0.9794816295
 40
0.9826396502
 40
0.9855324123
 40
0.9881586923
 40
0.9905174084
 40
0.9926079719
 40
0.9944304412
 40
0.9959854266
 40
0.9972745173
 40
0.9983014047
 40
0.9987191595
 40
0.9990754584
 40
0.9993735592
 40
0.9996190758
 40
0.9998220676
 40
1.0
 40
1.0
 40
1.0
 40
1.0
 10
9.4615106814
 20
14.1412194461
 30
0.0
 10
9.4618887708
 20
14.1409777517
 30
0.0
 10
9.4626927019
 20
14.1404420115
 30
0.0
 10
9.464495459
 20
14.1391716306
 30
0.0
 10
9.4671081473
 20
14.1372071597
 30
0.0
 10
9.4706634649
 20
14.134395896
 30
0.0
 10
9.4747947359
 20
14.1310114272
 30
0.0
 10
9.4794934823
 20
14.1270618103
 30
0.0
 10
9.4868890116
 20
14.1207216405
 30
0.0
 10
9.4974548249
 20
14.1114465837
 30
0.0
 10
9.5116422274
 20
14.0987484402
 30
0.0
 10
9.527791211
 20
14.084093162
 30
0.0
 10
9.5457652621
 20
14.0676163772
 30
0.0
 10
9.5654115548
 20
14.049469496
 30
0.0
 10
9.5865629125
 20
14.0298191806
 30
0.0
 10
9.6172653925
 20
14.0011682313
 30
0.0
 10
9.6579391004
 20
13.9630171017
 30
0.0
 10
9.7085064011
 20
13.9154164215
 30
0.0
 10
9.7516572929
 20
13.8747432429
 30
0.0
 10
9.7863110792
 20
13.8420977422
 30
0.0
 10
9.8118702624
 20
13.8180418097
 30
0.0
 10
9.8368251758
 20
13.7945896919
 30
0.0
 10
9.8609624417
 20
13.7719546036
 30
0.0
 10
9.8840758891
 20
13.7503425073
 30
0.0
 10
9.9059684025
 20
13.7299502511
 30
0.0
 10
9.926453606
 20
13.7109638135
 30
0.0
 10
9.9453575213
 20
13.6935566829
 30
0.0
 10
9.9625199138
 20
13.6778880599
 30
0.0
 10
9.9777960366
 20
13.6641019482
 30
0.0
 10
9.9893099986
 20
13.6538748569
 30
0.0
 10
9.9974929015
 20
13.6467397985
 30
0.0
 10
10.0028049247
 20
13.6421769966
 30
0.0
 10
10.0075614089
 20
13.6381683778
 30
0.0
 10
10.0111833582
 20
13.6351906495
 30
0.0
 10
10.0137990475
 20
13.6330968554
 30
0.0
 10
10.0155379729
 20
13.6317335072
 30
0.0
 10
10.0171316596
 20
13.6305150176
 30
0.0
 10
10.0185792997
 20
13.6294421372
 30
0.0
 10
10.0198801808
 20
13.6285154032
 30
0.0
 10
10.0210336862
 20
13.6277352006
 30
0.0
 10
10.022039333
 20
13.6271014614
 30
0.0
 10
10.0228967017
 20
13.6266144191
 30
0.0
 10
10.0235245471
 20
13.6263110845
 30
0.0
 10
10.0239541048
 20
13.6261494927
 30
0.0
 10
10.0242167696
 20
13.626073644
 30
0.0
 10
10.0244431579
 20
13.6260342302
 30
0.0
 10
10.0246343909
 20
13.6260315548
 30
0.0
 10
10.0247920928
 20
13.6260671276
 30
0.0
 10
10.0248758819
 20
13.6261213917
 30
0.0
 10
10.024907928
 20
13.6261534242
 30
0.0
  0
SPLINE
  5
4CE
100
AcDbEntity
  8
0
100
AcDbSpline
 62
7
  6
CONTINUOUS
 70
0
 71
3
 72
55
 73
51
 74
0
 42
0.0000001
 43
0.0000001
 44
0.0000000001
 40
0.0
 40
0.0
 40
0.0
 40
0.0
 40
0.0001807066
 40
0.0003865731
 40
0.0006351996
 40
0.0009367638
 40
0.0012969612
 40
0.0017191015
 40
0.0027563345
 40
0.0040580267
 40
0.0056279843
 40
0.0074677982
 40
0.0095780582
 40
0.0119588021
 40
0.0146094788
 40
0.0175289667
 40
0.0207159825
 40
0.0278868874
 40
0.0361080528
 40
0.0453620943
 40
0.0556295052
 40
0.0791119299
 40
0.1063493931
 40
0.1371012087
 40
0.1710948194
 40
0.2080285603
 40
0.2475742702
 40
0.289380665
 40
0.3330760464
 40
0.3782721597
 40
0.4245672618
 40
0.4715499946
 40
0.5659063753
 40
0.6579966182
 40
0.7021659426
 40
0.7445581642
 40
0.7847972462
 40
0.8225266987
 40
0.8574123368
 40
0.8891456562
 40
0.9174464567
 40
0.9420655864
 40
0.9627876307
 40
0.9716298786
 40
0.9794338558
 40
0.9861835161
 40
0.9918662491
 40
0.9964725845
 40
0.9983710964
 40
1.0
 40
1.0
 40
1.0
 40
1.0
 10
9.372275699
 20
14.0514966636
 30
0.0
 10
9.3723079487
 20
14.0515289052
 30
0.0
 10
9.3723921049
 20
14.051583589
 30
0.0
 10
9.3725504481
 20
14.0516198253
 30
0.0
 10
9.3727423672
 20
14.0516177636
 30
0.0
 10
9.3729694467
 20
14.0515789332
 30
0.0
 10
9.3732328028
 20
14.0515036506
 30
0.0
 10
9.373663281
 20
14.051342884
 30
0.0
 10
9.3742923034
 20
14.0510405247
 30
0.0
 10
9.3751510651
 20
14.0505545365
 30
0.0
 10
9.376158108
 20
14.049921829
 30
0.0
 10
9.3773130092
 20
14.0491426535
 30
0.0
 10
9.3786152654
 20
14.0482169592
 30
0.0
 10
9.3800642552
 20
14.0471451414
 30
0.0
 10
9.3816592537
 20
14.0459277338
 30
0.0
 10
9.3833994468
 20
14.0445655017
 30
0.0
 10
9.3860167188
 20
14.0424734032
 30
0.0
 10
9.3896403878
 20
14.0394979803
 30
0.0
 10
9.3943984826
 20
14.035492369
 30
0.0
 10
9.3997115309
 20
14.0309331308
 30
0.0
 10
9.4078942159
 20
14.0238045458
 30
0.0
 10
9.4194050748
 20
14.0135881071
 30
0.0
 10
9.4346731229
 20
13.9998186607
 30
0.0
 10
9.4518207041
 20
13.9841732426
 30
0.0
 10
9.4707014592
 20
13.9667974514
 30
0.0
 10
9.4911534928
 20
13.9478521415
 30
0.0
 10
9.5130012055
 20
13.927512414
 30
0.0
 10
9.5360566165
 20
13.9059658456
 30
0.0
 10
9.5601211285
 20
13.8834107623
 30
0.0
 10
9.5849871972
 20
13.8600544927
 30
0.0
 10
9.6104402482
 20
13.8361114505
 30
0.0
 10
9.6449150115
 20
13.8036528835
 30
0.0
 10
9.6877934612
 20
13.7632612108
 30
0.0
 10
9.7301830107
 20
13.7233859557
 30
0.0
 10
9.7630655274
 20
13.6925430895
 30
0.0
 10
9.7864333986
 20
13.670682925
 30
0.0
 10
9.8086509369
 20
13.6499720117
 30
0.0
 10
9.8295274531
 20
13.6306007493
 30
0.0
 10
9.848884136
 20
13.6127474147
 30
0.0
 10
9.8665556476
 20
13.5965767206
 30
0.0
 10
9.8823912957
 20
13.5822378518
 30
0.0
 10
9.8962569663
 20
13.5698640003
 30
0.0
 10
9.906551148
 20
13.5608636596
 30
0.0
 10
9.9137277347
 20
13.554746019
 30
0.0
 10
9.9182607967
 20
13.5509630447
 30
0.0
 10
9.9222263072
 20
13.5477449274
 30
0.0
 10
9.9256161812
 20
13.5450993338
 30
0.0
 10
9.9280918662
 20
13.5432730392
 30
0.0
 10
9.9297860398
 20
13.5421138552
 30
0.0
 10
9.9305358964
 20
13.5416337099
 30
0.0
 10
9.9308870831
 20
13.5414200742
 30
0.0
  0
LINE
  5
4CF
100
AcDbEntity
  8
0
100
AcDbLine
 62
7
  6
CONTINUOUS
 10
9.9308870831
 20
13.5414200742
 11
9.9331371682
 21
13.5403182225
  0
SPLINE
  5
4D0
100
AcDbEntity
  8
0
100
AcDbSpline
 62
7
  6
CONTINUOUS
 70
0
 71
3
 72
53
 73
49
 74
0
 42
0.0000001
 43
0.0000001
 44
0.0000000001
 40
0.0
 40
0.0
 40
0.0
 40
0.0
 40
0.0001780952
 40
0.0003807077
 40
0.000625062
 40
0.0009211765
 40
0.0012746878
 40
0.0016888888
 40
0.0027063882
 40
0.0039828458
 40
0.0055220423
 40
0.0073257574
 40
0.0093947632
 40
0.0117289511
 40
0.0143276135
 40
0.0171898325
 40
0.0203145572
 40
0.0273458497
 40
0.0354073895
 40
0.0444832371
 40
0.0545539639
 40
0.0775928757
 40
0.1043265941
 40
0.134524205
 40
0.1679240351
 40
0.204236305
 40
0.243145711
 40
0.2843142211
 40
0.3273842645
 40
0.3719814988
 40
0.4177185938
 40
0.4641980996
 40
0.5577668666
 40
0.6494449493
 40
0.7360564904
 40
0.7765154796
 40
0.8146030754
 40
0.8499894586
 40
0.8823683591
 40
0.9114600504
 40
0.9370137672
 40
0.9588102165
 40
0.9682402929
 40
0.97666443
 40
0.9840653233
 40
0.9904286242
 40
0.9957425129
 40
1.0
 40
1.0
 40
1.0
 40
1.0
 10
9.4213138316
 20
14.1034780397
 30
0.0
 10
9.4213457041
 20
14.1035098973
 30
0.0
 10
9.4214287018
 20
14.1035639968
 30
0.0
 10
9.4215848155
 20
14.1036002285
 30
0.0
 10
9.421773957
 20
14.1035987942
 30
0.0
 10
9.4219976544
 20
14.1035612006
 30
0.0
 10
9.4222570137
 20
14.1034877574
 30
0.0
 10
9.4226808378
 20
14.1033305071
 30
0.0
 10
9.4232999815
 20
14.1030342003
 30
0.0
 10
9.4241450753
 20
14.1025575949
 30
0.0
 10
9.4251358681
 20
14.1019368273
 30
0.0
 10
9.4262720105
 20
14.1011720721
 30
0.0
 10
9.4275530364
 20
14.1002632206
 30
0.0
 10
9.4289783255
 20
14.099210716
 30
0.0
 10
9.4305471474
 20
14.0980151222
 30
0.0
 10
9.4322587238
 20
14.0966771341
 30
0.0
 10
9.4348330377
 20
14.094621909
 30
0.0
 10
9.4383972625
 20
14.0916983987
 30
0.0
 10
9.4430775136
 20
14.0877619579
 30
0.0
 10
9.4483039294
 20
14.0832805661
 30
0.0
 10
9.4563548828
 20
14.0762716397
 30
0.0
 10
9.4676829845
 20
14.0662230579
 30
0.0
 10
9.4827129412
 20
14.0526744145
 30
0.0
 10
9.4996005579
 20
14.0372716347
 30
0.0
 10
9.5182049286
 20
14.0201549009
 30
0.0
 10
9.5383701066
 20
14.0014791266
 30
0.0
 10
9.5599268291
 20
13.9814130895
 30
0.0
 10
9.5826938173
 20
13.9601376733
 30
0.0
 10
9.6064793337
 20
13.9378443492
 30
0.0
 10
9.6310828802
 20
13.9147334102
 30
0.0
 10
9.6562968651
 20
13.8910122868
 30
0.0
 10
9.6905203859
 20
13.8587837554
 30
0.0
 10
9.7331936022
 20
13.8185718564
 30
0.0
 10
9.7832852209
 20
13.7714254429
 30
0.0
 10
9.8236550841
 20
13.7335575511
 30
0.0
 10
9.854204623
 20
13.7050413688
 30
0.0
 10
9.8753206475
 20
13.6854144446
 30
0.0
 10
9.8949891323
 20
13.667233371
 30
0.0
 10
9.913045681
 20
13.6506620786
 30
0.0
 10
9.9293395848
 20
13.6358500503
 30
0.0
 10
9.9437356471
 20
13.6229316713
 30
0.0
 10
9.9545143065
 20
13.6134316845
 30
0.0
 10
9.9621112096
 20
13.606878158
 30
0.0
 10
9.9669861863
 20
13.6027462154
 30
0.0
 10
9.9713095552
 20
13.59916414
 30
0.0
 10
9.9750724445
 20
13.5961397048
 30
0.0
 10
9.9782673388
 20
13.5936796916
 30
0.0
 10
9.9802308756
 20
13.592260481
 30
0.0
 10
9.9811217204
 20
13.5916547254
 30
0.0
  0
SPLINE
  5
4D1
100
AcDbEntity
  8
0
100
AcDbSpline
 62
7
  6
CONTINUOUS
 70
0
 71
3
 72
12
 73
8
 74
0
 42
0.0000001
 43
0.0000001
 44
0.0000000001
 40
0.0
 40
0.0
 40
0.0
 40
0.0
 40
0.3370719024
 40
0.6154818215
 40
0.835896547
 40
0.9248245954
 40
1.0
 40
1.0
 40
1.0
 40
1.0
 10
9.9811217204
 20
13.5916547254
 30
0.0
 10
9.9815278616
 20
13.591378558
 30
0.0
 10
9.9822764188
 20
13.5908841813
 30
0.0
 10
9.9833203309
 20
13.5902561987
 30
0.0
 10
9.9840810204
 20
13.5898600133
 30
0.0
 10
9.9845984402
 20
13.5896443236
 30
0.0
 10
9.9848258249
 20
13.5895690351
 30
0.0
 10
9.9849316453
 20
13.5895407456
 30
0.0
  0
SPLINE
  5
4D2
100
AcDbEntity
  8
0
100
AcDbSpline
 62
7
  6
CONTINUOUS
 70
0
 71
3
 72
59
 73
55
 74
0
 42
0.0000001
 43
0.0000001
 44
0.0000000001
 40
0.0
 40
0.0
 40
0.0
 40
0.0
 40
0.0001804334
 40
0.0003868751
 40
0.0006373857
 40
0.0009422759
 40
0.0013072231
 40
0.0017354862
 40
0.0027888765
 40
0.0041116717
 40
0.0057078133
 40
0.0075790119
 40
0.0097255986
 40
0.0121473297
 40
0.0148436443
 40
0.0178136832
 40
0.0210560036
 40
0.0283507272
 40
0.0367134722
 40
0.0461259413
 40
0.0565677993
 40
0.0804440296
 40
0.1081284027
 40
0.1393714561
 40
0.1738907991
 40
0.2113740536
 40
0.2514818211
 40
0.2938507431
 40
0.3380970915
 40
0.3838199829
 40
0.4306053218
 40
0.4780293925
 40
0.5730742056
 40
0.619834575
 40
0.6655208509
 40
0.7097196619
 40
0.7520314223
 40
0.7920737055
 40
0.8294848192
 40
0.8639271747
 40
0.8950902739
 40
0.9226937709
 40
0.9350821133
 40
0.9464902654
 40
0.9568932275
 40
0.9662678623
 40
0.9745938899
 40
0.9818536682
 40
0.9880323321
 40
0.9931190754
 40
0.9952506374
 40
0.9971074131
 40
0.9986900003
 40
1.0
 40
1.0
 40
1.0
 40
1.0
 10
9.4705737655
 20
14.1552368472
 30
0.0
 10
9.4706063258
 20
14.1552694245
 30
0.0
 10
9.4706918313
 20
14.1553244904
 30
0.0
 10
9.4708529348
 20
14.1553597651
 30
0.0
 10
9.4710485174
 20
14.1553556751
 30
0.0
 10
9.4712803348
 20
14.1553137481
 30
0.0
 10
9.4715495447
 20
14.1552342976
 30
0.0
 10
9.4719901947
 20
14.1550659237
 30
0.0
 10
9.4726345011
 20
14.1547512653
 30
0.0
 10
9.4735147525
 20
14.1542472663
 30
0.0
 10
9.4745476545
 20
14.1535921739
 30
0.0
 10
9.4757327985
 20
14.152786217
 30
0.0
 10
9.4770696288
 20
14.1518294326
 30
0.0
 10
9.4785574332
 20
14.1507223172
 30
0.0
 10
9.4801954785
 20
14.1494654039
 30
0.0
 10
9.4819829385
 20
14.1480594114
 30
0.0
 10
9.4846716129
 20
14.1459007638
 30
0.0
 10
9.488394654
 20
14.1428320274
 30
0.0
 10
9.4932837
 20
14.1387024322
 30
0.0
 10
9.4987432188
 20
14.1340037269
 30
0.0
 10
9.5071507498
 20
14.126660006
 30
0.0
 10
9.5189766935
 20
14.1161403773
 30
0.0
 10
9.5346602135
 20
14.101969328
 30
0.0
 10
9.5522687355
 20
14.0858768697
 30
0.0
 10
9.5716489321
 20
14.0680155673
 30
0.0
 10
9.59263131
 20
14.0485538652
 30
0.0
 10
9.6150321067
 20
14.0276750251
 30
0.0
 10
9.6386547972
 20
14.0055751685
 30
0.0
 10
9.6632918615
 20
13.982461539
 30
0.0
 10
9.6887266834
 20
13.9585505432
 30
0.0
 10
9.7147354631
 20
13.9340658011
 30
0.0
 10
9.7498981566
 20
13.900936702
 30
0.0
 10
9.7850495563
 20
13.8678049103
 30
0.0
 10
9.8198982247
 20
13.8349987047
 30
0.0
 10
9.8453130091
 20
13.8111070629
 30
0.0
 10
9.8699241085
 20
13.7880184805
 30
0.0
 10
9.8935155107
 20
13.7659487691
 30
0.0
 10
9.9158804596
 20
13.7451043943
 30
0.0
 10
9.9368233119
 20
13.7256806418
 30
0.0
 10
9.9561612061
 20
13.7078597169
 30
0.0
 10
9.9737258959
 20
13.6918093191
 30
0.0
 10
9.9872036023
 20
13.6796323301
 30
0.0
 10
9.9969935427
 20
13.6708964266
 30
0.0
 10
10.0035355404
 20
13.6651156157
 30
0.0
 10
10.0095320393
 20
13.6598794742
 30
0.0
 10
10.0149703401
 20
13.6552005133
 30
0.0
 10
10.0198388765
 20
13.6510899444
 30
0.0
 10
10.0241272117
 20
13.6475572883
 30
0.0
 10
10.0278264875
 20
13.6446110805
 30
0.0
 10
10.0305505401
 20
13.6425424792
 30
0.0
 10
10.0324354305
 20
13.6411954265
 30
0.0
 10
10.0336123653
 20
13.6403968277
 30
0.0
 10
10.0346373202
 20
13.6397488934
 30
0.0
 10
10.0352791124
 20
13.6393827304
 30
0.0
 10
10.0355756899
 20
13.6392282382
 30
0.0
  0
LINE
  5
4D3
100
AcDbEntity
  8
0
100
AcDbLine
 62
7
  6
CONTINUOUS
 10
10.0355756899
 20
13.6392282382
 11
10.0367676366
 21
13.638726795
  0
SPLINE
  5
4D4
100
AcDbEntity
  8
0
100
AcDbSpline
 62
7
  6
CONTINUOUS
 70
0
 71
3
 72
29
 73
25
 74
0
 42
0.0000001
 43
0.0000001
 44
0.0000000001
 40
0.0
 40
0.0
 40
0.0
 40
0.0
 40
0.0007704431
 40
0.001925092
 40
0.0035973028
 40
0.0058285278
 40
0.0086347731
 40
0.0120232549
 40
0.0205560074
 40
0.0314236952
 40
0.0446073609
 40
0.060082468
 40
0.0778116016
 40
0.1198555615
 40
0.1703388635
 40
0.2287742112
 40
0.29459542
 40
0.3671732245
 40
0.4458109592
 40
0.5297610048
 40
0.6182277118
 40
0.7103629166
 40
0.8053031693
 40
1.0
 40
1.0
 40
1.0
 40
1.0
 10
6.0265457969
 20
13.1417393195
 30
0.0
 10
6.0265571164
 20
13.1417490655
 30
0.0
 10
6.0265714616
 20
13.1417873227
 30
0.0
 10
6.026563016
 20
13.1418569612
 30
0.0
 10
6.0265360283
 20
13.1419515325
 30
0.0
 10
6.0264866267
 20
13.1420720359
 30
0.0
 10
6.0264156688
 20
13.1422192385
 30
0.0
 10
6.026280561
 20
13.142470859
 30
0.0
 10
6.0260534067
 20
13.14285003
 30
0.0
 10
6.0257110414
 20
13.1433809961
 30
0.0
 10
6.0252812978
 20
13.1440155491
 30
0.0
 10
6.0247651735
 20
13.1447520903
 30
0.0
 10
6.0239135939
 20
13.1459366738
 30
0.0
 10
6.0226408097
 20
13.1476541752
 30
0.0
 10
6.0208702302
 20
13.1499847292
 30
0.0
 10
6.0187969866
 20
13.152664104
 30
0.0
 10
6.0164411184
 20
13.1556662827
 30
0.0
 10
6.0138251894
 20
13.1589621736
 30
0.0
 10
6.0109742289
 20
13.16252018
 30
0.0
 10
6.0079153996
 20
13.1663063128
 30
0.0
 10
6.0046778437
 20
13.1702844219
 30
0.0
 10
6.0012922952
 20
13.1744167715
 30
0.0
 10
5.9965840626
 20
13.1801279238
 30
0.0
 10
5.9929932132
 20
13.1844451825
 30
0.0
 10
5.9905714564
 20
13.1873406166
 30
0.0
  0
LINE
  5
4D5
100
AcDbEntity
  8
0
100
AcDbLine
 62
7
  6
CONTINUOUS
 10
8.0567737283
 20
10.9986589993
 11
8.0560025363
 21
10.9993784783
  0
ENDSEC
  0
SECTION
  2
OBJECTS
  0
DICTIONARY
  5
C
100
AcDbDictionary
280
0
281
1
  3
ACAD_GROUP
350
D
  3
ACAD_MLINESTYLE
350
17
  3
ACAD_LAYOUT
350
1A
  3
ACAD_PLOTSETTINGS
350
19
  3
ACAD_PLOTSTYLENAME
350
E
  0
DICTIONARY
  5
D
102
{ACAD_REACTORS
330
C
102
}
100
AcDbDictionary
280
0
281
1
  0
ACDBDICTIONARYWDFLT
  5
E
102
{ACAD_REACTORS
330
C
102
}
100
AcDbDictionary
281
1
  3
Normal
350
F
100
AcDbDictionaryWithDefault
340
F
  0
DICTIONARY
  5
17
102
{ACAD_REACTORS
330
C
102
}
100
AcDbDictionary
280
0
281
1
  3
Standard
350
18
  0
DICTIONARY
  5
19
102
{ACAD_REACTORS
330
C
102
}
100
AcDbDictionary
281
1
  0
DICTIONARY
  5
1A
102
{ACAD_REACTORS
330
C
102
}
100
AcDbDictionary
281
1
  3
Model
350
4D6
  3
Layout1
350
4D7
  0
ACDBPLACEHOLDER
  5
F
102
{ACAD_REACTORS
330
E
102
}
  0
MLINESTYLE
  5
18
102
{ACAD_REACTORS
330
17
102
}
100
AcDbMlineStyle
  2
STANDARD
 70
0
  3

 62
256
 51
90.0
 52
90.0
 71
2
 49
0.5
 62
256
  6
BYLAYER
 49
-0.5
 62
256
  6
BYLAYER
  0
LAYOUT
  5
4D6
102
{ACAD_REACTORS
330
1A
102
}
100
AcDbPlotSettings
  1

  2
none_device
  4
ANSI_C_(22.00_x_17.00_Inches)
  6

 40
0.0
 41
0.0
 42
0.0
 43
0.0
 44
558.8
 45
431.8
 46
0.0
 47
0.0
 48
0.0
 49
0.0
140
0.0
141
0.0
142
1.0
143
1.0
 70
1024
 72
0
 73
0
 74
0
  7

 75
0
147
1.0
148
0.0
149
0.0
100
AcDbLayout
  1
Model
 70
0
 71
0
 10
0.0
 20
0.0
 11
22.0
 21
17.0
 12
0.0
 22
0.0
 32
0.0
 14
0.0
 24
0.0
 34
0.0
 15
0.0
 25
0.0
 35
0.0
146
0.0
 13
0.0
 23
0.0
 33
0.0
 16
1.0
 26
0.0
 36
0.0
 17
0.0
 27
1.0
 37
0.0
 76
0
330
205
345
0
346
0
  0
LAYOUT
  5
4D7
102
{ACAD_REACTORS
330
1A
102
}
100
AcDbPlotSettings
  1

  2
none_device
  4
ANSI_C_(22.00_x_17.00_Inches)
  6

 40
0.0
 41
0.0
 42
0.0
 43
0.0
 44
558.8
 45
431.8
 46
0.0
 47
0.0
 48
0.0
 49
0.0
140
0.0
141
0.0
142
1.0
143
1.0
 70
0
 72
0
 73
0
 74
0
  7

 75
0
147
1.0
148
0.0
149
0.0
100
AcDbLayout
  1
Layout1
 70
0
 71
1
 10
0.0
 20
0.0
 11
22.0
 21
17.0
 12
0.0
 22
0.0
 32
0.0
 14
0.0
 24
0.0
 34
0.0
 15
0.0
 25
0.0
 35
0.0
146
0.0
 13
0.0
 23
0.0
 33
0.0
 16
1.0
 26
0.0
 36
0.0
 17
0.0
 27
1.0
 37
0.0
 76
0
330
206
345
0
346
0
  0
ENDSEC
  0
EOF
