999
DXF file: E:\BT Custom\CADOUTPUT\_RIGHT.dxf
999
Pro/ENGINEER 2018400 by Parametric Technology Corporation
  0
SECTION
  2
HEADER
  9
$ACADVER
  1
AC1018
  9
$DWGCODEPAGE
  3
ANSI_1252
  9
$EXTMAX
 10
22.0
 20
17.0
 30
0.0
  9
$EXTMIN
 10
0.0
 20
0.0
 30
0.0
  9
$LIMMIN
 10
0.0
 20
0.0
  9
$LIMMAX
 10
22.0
 20
17.0
  9
$VIEWCTR
 10
11.0
 20
8.5
  9
$VIEWSIZE
 40
17.0
  9
$CLAYER
  8
0
  9
$LTSCALE
 40
1.21
  9
$CELTYPE
  6
BYLAYER
  9
$DIMSCALE
 40
1.0
  9
$DIMASZ
 40
0.1
  9
$DIMEXO
 40
0.0625
  9
$DIMDLI
 40
0.836
  9
$DIMEXE
 40
0.125
  9
$DIMCEN
 40
0.198
  9
$DIMLFAC
 40
1.0
  9
$DIMBLK
  1
_FILLED
  9
$DIMALT
 70
1
  9
$DIMALTD
 70
2
  9
$DIMALTTD
 70
2
  9
$DIMALTF
 40
25.4
  9
$DIMTXT
 40
0.08
  9
$DIMTOL
 70
1
  9
$DIMLIM
 70
0
  9
$DIMTFAC
 40
1.0
  9
$DIMTP
 40
0.001
  9
$DIMTM
 40
0.001
  9
$DIMGAP
 40
0.09
  9
$DIMDSEP
 70
46
  9
$AUNITS
 70
0
  9
$PDMODE
 70
3
  9
$PDSIZE
 40
0.06
  9
$HANDSEED
  5
508
  9
$TILEMODE
 70
1
  9
$MEASUREMENT
 70
0
  9
$INSUNITS
 70
1
  0
ENDSEC
  0
SECTION
  2
CLASSES
  0
CLASS
  1
ACDBDICTIONARYWDFLT
  2
AcDbDictionaryWithDefault
  3
AutoCAD 2000
 90
0
 91
1
280
0
281
0
  0
CLASS
  1
ACDBPLACEHOLDER
  2
AcDbPlaceHolder
  3
AutoCAD 2000
 90
0
 91
1
280
0
281
0
  0
CLASS
  1
LAYOUT
  2
AcDbLayout
  3
AutoCAD 2000
 90
0
 91
0
280
0
281
0
  0
ENDSEC
  0
SECTION
  2
TABLES
  0
TABLE
  2
VPORT
  5
8
100
AcDbSymbolTable
 70
2
  0
VPORT
  5
1F4
100
AcDbSymbolTableRecord
100
AcDbViewportTableRecord
  2
*ACTIVE
 70
0
 10
0.0
 20
0.0
 11
1.0
 21
1.0
 12
11.0
 22
8.5
 13
0.0
 23
0.0
 14
1.0
 24
1.0
 15
0.0
 25
0.0
 16
0.0
 26
0.0
 36
1.0
 17
0.0
 27
0.0
 37
0.0
 40
17.0
 41
1.2941176471
 42
50.0
 43
0.0
 44
0.0
 50
0.0
 51
0.0
 71
0
 72
100
 73
1
 74
1
 75
0
 76
0
 77
0
 78
0
  0
ENDTAB
  0
TABLE
  2
LTYPE
  5
5
100
AcDbSymbolTable
 70
6
  0
LTYPE
  5
14
100
AcDbSymbolTableRecord
100
AcDbLinetypeTableRecord
  2
BYBLOCK
 70
0
  3

 72
65
 73
0
 40
0.0
  0
LTYPE
  5
15
100
AcDbSymbolTableRecord
100
AcDbLinetypeTableRecord
  2
BYLAYER
 70
0
  3

 72
65
 73
0
 40
0.0
  0
LTYPE
  5
16
100
AcDbSymbolTableRecord
100
AcDbLinetypeTableRecord
  2
CONTINUOUS
 70
64
  3
Solid line
 72
65
 73
0
 40
0.0
  0
LTYPE
  5
1F5
100
AcDbSymbolTableRecord
100
AcDbLinetypeTableRecord
  2
CENTER
 70
64
  3
____ _ ____ _ ____ _ ____ _ ____ _ ____ _ ____
 72
65
 73
4
 40
0.6
 49
0.375
 74
0
 49
-0.075
 74
0
 49
0.075
 74
0
 49
-0.075
 74
0
  0
LTYPE
  5
1F6
100
AcDbSymbolTableRecord
100
AcDbLinetypeTableRecord
  2
HIDDEN
 70
64
  3
- - - - - - - - - - - - - - - - - - - -
 72
65
 73
2
 40
0.2
 49
0.1
 74
0
 49
-0.1
 74
0
  0
LTYPE
  5
1F7
100
AcDbSymbolTableRecord
100
AcDbLinetypeTableRecord
  2
PHANTOM
 70
64
  3
_____ _ _ _____ _ _ _____ _ _ _____
 72
65
 73
6
 40
0.8
 49
0.45
 74
0
 49
-0.05
 74
0
 49
0.1
 74
0
 49
-0.05
 74
0
 49
0.1
 74
0
 49
-0.05
 74
0
  0
LTYPE
  5
1F8
100
AcDbSymbolTableRecord
100
AcDbLinetypeTableRecord
  2
DOT
 70
64
  3
. . . . . . . . . . . . . . . . . . . .
 72
65
 73
2
 40
0.2
 49
0.1
 74
0
 49
-0.1
 74
0
  0
LTYPE
  5
1F9
100
AcDbSymbolTableRecord
100
AcDbLinetypeTableRecord
  2
DASHED
 70
64
  3
- - - - - - - - - - - - - - - - - - - -
 72
65
 73
2
 40
0.2
 49
0.1
 74
0
 49
-0.1
 74
0
  0
ENDTAB
  0
TABLE
  2
LAYER
  5
2
100
AcDbSymbolTable
 70
36
  0
LAYER
  5
10
100
AcDbSymbolTableRecord
100
AcDbLayerTableRecord
  2
0
 70
0
 62
7
  6
CONTINUOUS
370
-3
390
F
  0
LAYER
  5
1FA
100
AcDbSymbolTableRecord
100
AcDbLayerTableRecord
  2
DEFAULT_1
 70
0
 62
7
  6
CENTER
370
-3
390
F
  0
LAYER
  5
1FB
100
AcDbSymbolTableRecord
100
AcDbLayerTableRecord
  2
DEFAULT_2
 70
0
 62
8
  6
HIDDEN
370
-3
390
F
  0
LAYER
  5
1FC
100
AcDbSymbolTableRecord
100
AcDbLayerTableRecord
  2
DEFAULT_3
 70
0
 62
7
  6
PHANTOM
370
-3
390
F
  0
LAYER
  5
1FD
100
AcDbSymbolTableRecord
100
AcDbLayerTableRecord
  2
ALL_FEATURES
 70
0
 62
7
  6
CONTINUOUS
370
-3
390
F
  0
LAYER
  5
1FE
100
AcDbSymbolTableRecord
100
AcDbLayerTableRecord
  2
AXES_FEATURES
 70
0
 62
7
  6
CONTINUOUS
370
-3
390
F
  0
LAYER
  5
1FF
100
AcDbSymbolTableRecord
100
AcDbLayerTableRecord
  2
DEFAULT_COORDINATE_SYSTEM
 70
0
 62
7
  6
CONTINUOUS
370
-3
390
F
  0
LAYER
  5
200
100
AcDbSymbolTableRecord
100
AcDbLayerTableRecord
  2
DEFAULT_DATUM_AXES
 70
0
 62
7
  6
CONTINUOUS
370
-3
390
F
  0
LAYER
  5
201
100
AcDbSymbolTableRecord
100
AcDbLayerTableRecord
  2
DEFAULT_DATUM_PLANES
 70
0
 62
7
  6
CONTINUOUS
370
-3
390
F
  0
LAYER
  5
202
100
AcDbSymbolTableRecord
100
AcDbLayerTableRecord
  2
DIMENSIONS
 70
0
 62
7
  6
CONTINUOUS
370
-3
390
F
  0
ENDTAB
  0
TABLE
  2
STYLE
  5
3
100
AcDbSymbolTable
 70
1
  0
STYLE
  5
11
100
AcDbSymbolTableRecord
100
AcDbTextStyleTableRecord
  2
STANDARD
 70
0
 40
0.0
 41
0.8
 50
0.0
 71
0
 42
0.2
  3
txt
  4

  0
STYLE
  5
203
100
AcDbSymbolTableRecord
100
AcDbTextStyleTableRecord
  2
TEXTSTYLE_1
 70
0
 40
0.0
 41
0.8
 50
0.0
 71
0
 42
0.2
  3
gdt
  4

  0
ENDTAB
  0
TABLE
  2
VIEW
  5
6
100
AcDbSymbolTable
 70
0
  0
ENDTAB
  0
TABLE
  2
UCS
  5
7
100
AcDbSymbolTable
 70
0
  0
ENDTAB
  0
TABLE
  2
APPID
  5
9
100
AcDbSymbolTable
 70
1
  0
APPID
  5
204
100
AcDbSymbolTableRecord
100
AcDbRegAppTableRecord
  2
ACAD
 70
0
  0
ENDTAB
  0
TABLE
  2
BLOCK_RECORD
  5
1
100
AcDbSymbolTable
 70
0
  0
BLOCK_RECORD
  5
205
100
AcDbSymbolTableRecord
100
AcDbBlockTableRecord
  2
*Model_Space
  0
BLOCK_RECORD
  5
206
100
AcDbSymbolTableRecord
100
AcDbBlockTableRecord
  2
*Paper_Space
  0
BLOCK_RECORD
  5
207
100
AcDbSymbolTableRecord
100
AcDbBlockTableRecord
  2
_FILLED
  0
ENDTAB
  0
TABLE
  2
DIMSTYLE
  5
A
100
AcDbSymbolTable
 70
1
100
AcDbDimStyleTable
 71
0
  0
DIMSTYLE
105
208
100
AcDbSymbolTableRecord
100
AcDbDimStyleTableRecord
  2
STANDARD
 70
0
  3

  4

 40
1.0
 41
0.1
 42
0.0625
 43
0.38
 44
0.125
 45
0.0
 46
0.0
 47
0.001
 48
0.001
140
0.08
141
0.09
142
0.0
143
25.4
144
1.0
145
0.0
146
1.0
147
0.09
 71
1.0
 72
0.0
 73
1
 74
1
 75
0
 76
0
 77
0
 78
4
 79
1
170
1
171
2
172
0
173
0
174
0
175
0
176
0
177
0
178
0
270
2
179
3
271
3
272
3
273
2
274
2
275
0
280
0
281
0
282
0
283
1
284
4
285
0
286
0
287
3
288
0
340
11
278
46
341
207
342
207
343
207
344
207
  0
ENDTAB
  0
ENDSEC
  0
SECTION
  2
BLOCKS
  0
BLOCK
  5
20
100
AcDbEntity
  8
0
100
AcDbBlockBegin
  2
*Model_Space
 70
0
 10
0.0
 20
0.0
 30
0.0
  3
*Model_Space
  1

  0
ENDBLK
  5
21
100
AcDbEntity
  8
0
100
AcDbBlockEnd
  0
BLOCK
  5
1C
100
AcDbEntity
  8
0
100
AcDbBlockBegin
  2
*Paper_Space
 70
0
 10
0.0
 20
0.0
 30
0.0
  3
*Paper_Space
  1

  0
ENDBLK
  5
1D
100
AcDbEntity
  8
0
100
AcDbBlockEnd
  0
BLOCK
  5
209
100
AcDbEntity
  8
0
100
AcDbBlockBegin
  2
_FILLED
 70
64
 10
0.0
 20
0.0
  3
_FILLED
  1

  0
SOLID
  5
20A
100
AcDbEntity
  8
0
  6
BYBLOCK
 62
0
100
AcDbTrace
 10
0.0
 20
0.0
 11
-1.0
 21
0.2
 12
-1.0
 22
-0.2
 13
-1.0
 23
-0.2
  0
ENDBLK
  5
20B
100
AcDbEntity
  8
0
  6
BYBLOCK
 62
0
100
AcDbBlockEnd
  0
ENDSEC
  0
SECTION
  2
ENTITIES
  0
LINE
  5
20C
100
AcDbEntity
  8
0
100
AcDbLine
 62
7
  6
CONTINUOUS
 10
9.6447351723
 20
-2.830108196
 11
8.8876835162
 21
-2.830108196
  0
LINE
  5
20D
100
AcDbEntity
  8
0
100
AcDbLine
 62
7
  6
CONTINUOUS
 10
15.5177997941
 20
-1.360108196
 11
15.8277997941
 21
-1.360108196
  0
LINE
  5
20E
100
AcDbEntity
  8
0
100
AcDbLine
 62
9
  6
CONTINUOUS
 10
15.4777997941
 20
-1.320108196
 11
15.8277997941
 21
-1.320108196
  0
LINE
  5
20F
100
AcDbEntity
  8
0
100
AcDbLine
 62
7
  6
CONTINUOUS
 10
5.6009539808
 20
18.3125809735
 11
6.222274208
 21
18.9339012007
  0
LINE
  5
210
100
AcDbEntity
  8
0
100
AcDbLine
 62
7
  6
CONTINUOUS
 10
6.0515457977
 20
17.5557393185
 11
6.0349055623
 21
17.5414209764
  0
LINE
  5
211
100
AcDbEntity
  8
0
100
AcDbLine
 62
7
  6
CONTINUOUS
 10
14.3577997941
 20
-0.985108196
 11
15.4777997941
 21
-0.985108196
  0
LINE
  5
212
100
AcDbEntity
  8
0
100
AcDbLine
 62
9
  6
CONTINUOUS
 10
14.2977997941
 20
-0.925108196
 11
15.4777997941
 21
-0.925108196
  0
LINE
  5
213
100
AcDbEntity
  8
0
100
AcDbLine
 62
7
  6
CONTINUOUS
 10
14.2977997941
 20
-0.750108196
 11
12.077774424
 21
-0.750108196
  0
LINE
  5
214
100
AcDbEntity
  8
0
100
AcDbLine
 62
7
  6
CONTINUOUS
 10
5.9071109715
 20
17.7151114444
 11
5.8858841282
 21
17.6904424104
  0
LINE
  5
215
100
AcDbEntity
  8
0
100
AcDbLine
 62
7
  6
CONTINUOUS
 10
5.9767222141
 20
17.6451619417
 11
5.9556518162
 21
17.6206747225
  0
LINE
  5
216
100
AcDbEntity
  8
0
100
AcDbLine
 62
7
  6
CONTINUOUS
 10
6.112902636
 20
17.5083203928
 11
6.0921380093
 21
17.4841885294
  0
LINE
  5
217
100
AcDbEntity
  8
0
100
AcDbLine
 62
7
  6
CONTINUOUS
 10
6.1760727831
 20
17.3932958689
 11
6.1563982236
 21
17.3704308404
  0
LINE
  5
218
100
AcDbEntity
  8
0
100
AcDbLine
 62
7
  6
CONTINUOUS
 10
6.2203070504
 20
17.3488478966
 11
6.2007313295
 21
17.3260977345
  0
LINE
  5
219
100
AcDbEntity
  8
0
100
AcDbLine
 62
7
  6
CONTINUOUS
 10
6.3097010131
 20
17.3105680273
 11
6.2893776061
 21
17.2869489326
  0
LINE
  5
21A
100
AcDbEntity
  8
0
100
AcDbLine
 62
7
  6
CONTINUOUS
 10
6.3445246669
 20
17.2121752027
 11
6.3307094193
 21
17.1961196447
  0
LINE
  5
21B
100
AcDbEntity
  8
0
100
AcDbLine
 62
7
  6
CONTINUOUS
 10
7.3218252527
 20
17.9192029697
 11
7.4851669192
 21
18.0825446362
  0
LINE
  5
21C
100
AcDbEntity
  8
0
100
AcDbLine
 62
7
  6
CONTINUOUS
 10
6.1883782673
 20
17.4195510842
 11
6.1713917554
 21
17.4049347833
  0
LINE
  5
21D
100
AcDbEntity
  8
0
100
AcDbLine
 62
7
  6
CONTINUOUS
 10
6.2960406337
 20
17.260659236
 11
6.2799850756
 21
17.2468439884
  0
LINE
  5
21E
100
AcDbEntity
  8
0
100
AcDbLine
 62
7
  6
CONTINUOUS
 10
6.3861190135
 20
17.2227427091
 11
6.3686313522
 21
17.2076951865
  0
LINE
  5
21F
100
AcDbEntity
  8
0
100
AcDbLine
 62
7
  6
CONTINUOUS
 10
6.4266037907
 20
17.1311845761
 11
6.4099631654
 21
17.1168658986
  0
LINE
  5
220
100
AcDbEntity
  8
0
100
AcDbLine
 62
7
  6
CONTINUOUS
 10
6.5458965239
 20
16.9613058711
 11
6.5336416648
 21
16.9507609923
  0
LINE
  5
221
100
AcDbEntity
  8
0
100
AcDbLine
 62
7
  6
CONTINUOUS
 10
6.6361265571
 20
16.9739163005
 11
6.6180040357
 21
16.958322503
  0
LINE
  5
222
100
AcDbEntity
  8
0
100
AcDbLine
 62
7
  6
CONTINUOUS
 10
6.6338939745
 20
16.9248709544
 11
6.6167284471
 21
16.9101006169
  0
LINE
  5
223
100
AcDbEntity
  8
0
100
AcDbLine
 62
7
  6
CONTINUOUS
 10
6.6703639769
 20
16.8480737827
 11
6.6520701093
 21
16.8323325478
  0
LINE
  5
224
100
AcDbEntity
  8
0
100
AcDbLine
 62
7
  6
CONTINUOUS
 10
14.2977997941
 20
-0.000108196
 11
12.077774424
 21
-0.000108196
  0
LINE
  5
225
100
AcDbEntity
  8
0
100
AcDbLine
 62
9
  6
CONTINUOUS
 10
14.2977997941
 20
0.174891804
 11
15.4777997941
 21
0.174891804
  0
LINE
  5
226
100
AcDbEntity
  8
0
100
AcDbLine
 62
7
  6
CONTINUOUS
 10
14.3577997941
 20
0.234891804
 11
15.4777997941
 21
0.234891804
  0
LINE
  5
227
100
AcDbEntity
  8
0
100
AcDbLine
 62
7
  6
CONTINUOUS
 10
6.4742009382
 20
17.05304068
 11
6.4543879187
 21
17.0300147384
  0
LINE
  5
228
100
AcDbEntity
  8
0
100
AcDbLine
 62
7
  6
CONTINUOUS
 10
6.5585169669
 20
17.0605483336
 11
6.5387502896
 21
17.0375762491
  0
LINE
  5
229
100
AcDbEntity
  8
0
100
AcDbLine
 62
7
  6
CONTINUOUS
 10
6.5512899486
 20
17.005409921
 11
6.537474701
 21
16.989354363
  0
LINE
  5
22A
100
AcDbEntity
  8
0
100
AcDbLine
 62
7
  6
CONTINUOUS
 10
6.583361242
 20
16.923841153
 11
6.5728163632
 21
16.9115862939
  0
LINE
  5
22B
100
AcDbEntity
  8
0
100
AcDbLine
 62
7
  6
CONTINUOUS
 10
6.7473568724
 20
16.7486908563
 11
6.7256191825
 21
16.7234281356
  0
LINE
  5
22C
100
AcDbEntity
  8
0
100
AcDbLine
 62
7
  6
CONTINUOUS
 10
6.8484767274
 20
16.7691891635
 11
6.829357277
 21
16.7469692617
  0
LINE
  5
22D
100
AcDbEntity
  8
0
100
AcDbLine
 62
7
  6
CONTINUOUS
 10
6.8251645849
 20
16.7410766361
 11
6.8069364623
 21
16.7198926017
  0
LINE
  5
22E
100
AcDbEntity
  8
0
100
AcDbLine
 62
7
  6
CONTINUOUS
 10
6.8060881844
 20
16.7014477708
 11
6.795389034
 21
16.6890136231
  0
LINE
  5
22F
100
AcDbEntity
  8
0
100
AcDbLine
 62
7
  6
CONTINUOUS
 10
6.8257699677
 20
16.6390851918
 11
6.818458841
 21
16.630588477
  0
LINE
  5
230
100
AcDbEntity
  8
0
100
AcDbLine
 62
7
  6
CONTINUOUS
 10
8.6045169538
 20
18.1270923634
 11
8.2233863987
 21
17.7459618083
  0
LINE
  5
231
100
AcDbEntity
  8
0
100
AcDbLine
 62
7
  6
CONTINUOUS
 10
8.0649944798
 20
17.5875698893
 11
8.1951021275
 21
17.7176775371
  0
LINE
  5
232
100
AcDbEntity
  8
0
100
AcDbLine
 62
7
  6
CONTINUOUS
 10
9.2116297005
 20
18.3841872534
 11
9.2876436795
 21
18.4602012324
  0
LINE
  5
233
100
AcDbEntity
  8
0
100
AcDbLine
 62
7
  6
CONTINUOUS
 10
9.2116297005
 20
18.359438516
 11
9.0162314489
 21
18.1640402644
  0
LINE
  5
234
100
AcDbEntity
  8
0
100
AcDbLine
 62
7
  6
CONTINUOUS
 10
10.0727707113
 20
19.1799208869
 11
9.4884908027
 21
18.5956409784
  0
LINE
  5
235
100
AcDbEntity
  8
0
100
AcDbLine
 62
7
  6
CONTINUOUS
 10
9.4565280622
 20
18.5636782379
 11
9.4387034997
 21
18.5458536753
  0
LINE
  5
236
100
AcDbEntity
  8
0
100
AcDbLine
 62
7
  6
CONTINUOUS
 10
9.4052980675
 20
18.5124482431
 11
9.3890445216
 21
18.4961946973
  0
LINE
  5
237
100
AcDbEntity
  8
0
100
AcDbLine
 62
7
  6
CONTINUOUS
 10
9.3539397589
 20
18.4610899345
 11
9.3392265247
 21
18.4463767003
  0
LINE
  5
238
100
AcDbEntity
  8
0
100
AcDbLine
 62
7
  6
CONTINUOUS
 10
6.8133270887
 20
16.6514488994
 11
6.8048729286
 21
16.6441743895
  0
LINE
  5
239
100
AcDbEntity
  8
0
100
AcDbLine
 62
7
  6
CONTINUOUS
 10
6.9274751472
 20
16.6839474363
 11
6.9086110231
 21
16.6677155156
  0
LINE
  5
23A
100
AcDbEntity
  8
0
100
AcDbLine
 62
7
  6
CONTINUOUS
 10
6.9040412403
 20
16.6559990458
 11
6.8861902084
 21
16.6406388556
  0
LINE
  5
23B
100
AcDbEntity
  8
0
100
AcDbLine
 62
7
  6
CONTINUOUS
 10
6.8935033192
 20
16.6259887129
 11
6.8746427802
 21
16.609759877
  0
LINE
  5
23C
100
AcDbEntity
  8
0
100
AcDbLine
 62
7
  6
CONTINUOUS
 10
6.9196458736
 20
16.5702075588
 11
6.8977125872
 21
16.5513347309
  0
LINE
  5
23D
100
AcDbEntity
  8
0
100
AcDbLine
 62
7
  6
CONTINUOUS
 10
7.1617009838
 20
16.3065942086
 11
7.1513552514
 21
16.2976920667
  0
LINE
  5
23E
100
AcDbEntity
  8
0
100
AcDbLine
 62
7
  6
CONTINUOUS
 10
7.190038882
 20
16.3232470377
 11
7.1745141283
 21
16.3098885288
  0
LINE
  5
23F
100
AcDbEntity
  8
0
100
AcDbLine
 62
7
  6
CONTINUOUS
 10
7.2186364537
 20
16.3428928486
 11
7.1999850756
 21
16.3268439884
  0
LINE
  5
240
100
AcDbEntity
  8
0
100
AcDbLine
 62
7
  6
CONTINUOUS
 10
7.2474321356
 20
16.3655097352
 11
7.2277513946
 21
16.3485751441
  0
LINE
  5
241
100
AcDbEntity
  8
0
100
AcDbLine
 62
7
  6
CONTINUOUS
 10
7.1739213592
 20
16.2981181349
 11
7.1539616667
 21
16.2809435158
  0
LINE
  5
242
100
AcDbEntity
  8
0
100
AcDbLine
 62
9
  6
CONTINUOUS
 10
15.4777997941
 20
0.569891804
 11
15.8277997941
 21
0.569891804
  0
LINE
  5
243
100
AcDbEntity
  8
0
100
AcDbLine
 62
7
  6
CONTINUOUS
 10
15.5177997941
 20
0.609891804
 11
15.8277997941
 21
0.609891804
  0
LINE
  5
244
100
AcDbEntity
  8
0
100
AcDbLine
 62
7
  6
CONTINUOUS
 10
7.0930683399
 20
16.4013126747
 11
7.0721015052
 21
16.3769458128
  0
LINE
  5
245
100
AcDbEntity
  8
0
100
AcDbLine
 62
7
  6
CONTINUOUS
 10
7.1136517376
 20
16.4105160123
 11
7.0952603822
 21
16.3891422749
  0
LINE
  5
246
100
AcDbEntity
  8
0
100
AcDbLine
 62
7
  6
CONTINUOUS
 10
7.1382647316
 20
16.426474391
 11
7.1207313295
 21
16.4060977345
  0
LINE
  5
247
100
AcDbEntity
  8
0
100
AcDbLine
 62
7
  6
CONTINUOUS
 10
7.1669082497
 20
16.4492249944
 11
7.1484976485
 21
16.4278288902
  0
LINE
  5
248
100
AcDbEntity
  8
0
100
AcDbLine
 62
7
  6
CONTINUOUS
 10
7.4294284041
 20
16.0442133057
 11
7.4115127602
 21
16.0233924222
  0
LINE
  5
249
100
AcDbEntity
  8
0
100
AcDbLine
 62
7
  6
CONTINUOUS
 10
7.4387821694
 20
16.0539372381
 11
7.418583828
 21
16.03046349
  0
LINE
  5
24A
100
AcDbEntity
  8
0
100
AcDbLine
 62
7
  6
CONTINUOUS
 10
7.4538996881
 20
16.0686395973
 11
7.4362614976
 21
16.0481411596
  0
LINE
  5
24B
100
AcDbEntity
  8
0
100
AcDbLine
 62
7
  6
CONTINUOUS
 10
7.4742647248
 20
16.0888670934
 11
7.457474701
 21
16.069354363
  0
LINE
  5
24C
100
AcDbEntity
  8
0
100
AcDbLine
 62
7
  6
CONTINUOUS
 10
7.4998949418
 20
16.114640253
 11
7.4822234383
 21
16.0941031003
  0
LINE
  5
24D
100
AcDbEntity
  8
0
100
AcDbLine
 62
7
  6
CONTINUOUS
 10
9.4955737084
 20
18.5692369044
 11
9.4831514199
 21
18.5568146159
  0
LINE
  5
24E
100
AcDbEntity
  8
0
100
AcDbLine
 62
7
  6
CONTINUOUS
 10
9.4463137637
 20
18.5174781075
 11
9.4338924258
 21
18.5050567697
  0
LINE
  5
24F
100
AcDbEntity
  8
0
100
AcDbLine
 62
7
  6
CONTINUOUS
 10
9.3972756963
 20
18.4654966662
 11
9.384855595
 21
18.453076565
  0
LINE
  5
250
100
AcDbEntity
  8
0
100
AcDbLine
 62
7
  6
CONTINUOUS
 10
9.3479651178
 20
18.4137937797
 11
9.341008125
 21
18.4068367869
  0
LINE
  5
251
100
AcDbEntity
  8
0
100
AcDbLine
 62
7
  6
CONTINUOUS
 10
8.6682925965
 20
17.5683419738
 11
8.9157799699
 21
17.8158293472
  0
LINE
  5
252
100
AcDbEntity
  8
0
100
AcDbLine
 62
7
  6
CONTINUOUS
 10
9.0357160579
 20
17.2009185124
 11
9.2832034313
 21
17.4484058858
  0
LINE
  5
253
100
AcDbEntity
  8
0
100
AcDbLine
 62
7
  6
CONTINUOUS
 10
9.8944643932
 20
17.8925453787
 11
9.9068841517
 21
17.9049651373
  0
LINE
  5
254
100
AcDbEntity
  8
0
100
AcDbLine
 62
7
  6
CONTINUOUS
 10
9.9462848149
 20
17.9417453926
 11
9.9587056186
 21
17.9541661964
  0
LINE
  5
255
100
AcDbEntity
  8
0
100
AcDbLine
 62
7
  6
CONTINUOUS
 10
9.9980756516
 20
17.9909677205
 11
10.0104974123
 21
18.0033894812
  0
LINE
  5
256
100
AcDbEntity
  8
0
100
AcDbLine
 62
7
  6
CONTINUOUS
 10
10.049907937
 20
18.0401534153
 11
10.0623307124
 21
18.0525761907
  0
LINE
  5
257
100
AcDbEntity
  8
0
100
AcDbLine
 62
7
  6
CONTINUOUS
 10
10.647294971
 20
18.6053966272
 11
10.0878816431
 21
18.0459832993
  0
LINE
  5
258
100
AcDbEntity
  8
0
100
AcDbLine
 62
7
  6
CONTINUOUS
 10
10.0566943754
 20
18.0147960315
 11
10.0381369983
 21
17.9962386544
  0
LINE
  5
259
100
AcDbEntity
  8
0
100
AcDbLine
 62
7
  6
CONTINUOUS
 10
10.0054217314
 20
17.9635233876
 11
9.9883698567
 21
17.9464715129
  0
LINE
  5
25A
100
AcDbEntity
  8
0
100
AcDbLine
 62
7
  6
CONTINUOUS
 10
9.954171592
 20
17.9122732482
 11
9.9386176499
 21
17.8967193061
  0
LINE
  5
25B
100
AcDbEntity
  8
0
100
AcDbLine
 62
7
  6
CONTINUOUS
 10
9.9029065477
 20
17.8610082039
 11
9.8948716278
 21
17.852973284
  0
LINE
  5
25C
100
AcDbEntity
  8
0
100
AcDbLine
 62
7
  6
CONTINUOUS
 10
9.6314143485
 20
17.5488573648
 11
9.8268126001
 21
17.7442556164
  0
LINE
  5
25D
100
AcDbEntity
  8
0
100
AcDbLine
 62
7
  6
CONTINUOUS
 10
9.8515613375
 20
17.7442556164
 11
9.9275753164
 21
17.8202695954
  0
LINE
  5
25E
100
AcDbEntity
  8
0
100
AcDbLine
 62
7
  6
CONTINUOUS
 10
7.5820143371
 20
16.0325208577
 11
7.5614771844
 21
16.0148493542
  0
LINE
  5
25F
100
AcDbEntity
  8
0
100
AcDbLine
 62
7
  6
CONTINUOUS
 10
7.5562411775
 20
16.0068906408
 11
7.5367284471
 21
15.9901006169
  0
LINE
  5
260
100
AcDbEntity
  8
0
100
AcDbLine
 62
7
  6
CONTINUOUS
 10
7.5360136813
 20
15.986525604
 11
7.5155152437
 21
15.9688874135
  0
LINE
  5
261
100
AcDbEntity
  8
0
100
AcDbLine
 62
7
  6
CONTINUOUS
 10
7.5213113222
 20
15.9714080853
 11
7.4978375741
 21
15.9512097439
  0
LINE
  5
262
100
AcDbEntity
  8
0
100
AcDbLine
 62
7
  6
CONTINUOUS
 10
7.5115873898
 20
15.96205432
 11
7.4907665063
 21
15.9441386761
  0
LINE
  5
263
100
AcDbEntity
  8
0
100
AcDbLine
 62
7
  6
CONTINUOUS
 10
7.9165990785
 20
15.6995341656
 11
7.8952029743
 21
15.6811235644
  0
LINE
  5
264
100
AcDbEntity
  8
0
100
AcDbLine
 62
7
  6
CONTINUOUS
 10
7.8938484751
 20
15.6708906475
 11
7.8734718186
 21
15.6533572454
  0
LINE
  5
265
100
AcDbEntity
  8
0
100
AcDbLine
 62
7
  6
CONTINUOUS
 10
7.8778900964
 20
15.6462776535
 11
7.856516359
 21
15.6278862981
  0
LINE
  5
266
100
AcDbEntity
  8
0
100
AcDbLine
 62
7
  6
CONTINUOUS
 10
7.8686867588
 20
15.6256942558
 11
7.8443198969
 21
15.6047274212
  0
LINE
  5
267
100
AcDbEntity
  8
0
100
AcDbLine
 62
7
  6
CONTINUOUS
 10
7.765492219
 20
15.7065472751
 11
7.7483175999
 21
15.6865875826
  0
LINE
  5
268
100
AcDbEntity
  8
0
100
AcDbLine
 62
7
  6
CONTINUOUS
 10
7.8328838193
 20
15.7800580515
 11
7.8159492282
 21
15.7603773105
  0
LINE
  5
269
100
AcDbEntity
  8
0
100
AcDbLine
 62
7
  6
CONTINUOUS
 10
7.8102669327
 20
15.7512623696
 11
7.7942180725
 21
15.7326109915
  0
LINE
  5
26A
100
AcDbEntity
  8
0
100
AcDbLine
 62
7
  6
CONTINUOUS
 10
7.7906211218
 20
15.7226647979
 11
7.7772626129
 21
15.7071400442
  0
LINE
  5
26B
100
AcDbEntity
  8
0
100
AcDbLine
 62
7
  6
CONTINUOUS
 10
7.7739682926
 20
15.6943268997
 11
7.7650661508
 21
15.6839811673
  0
LINE
  5
26C
100
AcDbEntity
  8
0
100
AcDbLine
 62
7
  6
CONTINUOUS
 10
8.0375816429
 20
15.4522717895
 11
8.018708815
 21
15.4303385031
  0
LINE
  5
26D
100
AcDbEntity
  8
0
100
AcDbLine
 62
7
  6
CONTINUOUS
 10
8.093362797
 20
15.4261292351
 11
8.0771339611
 21
15.4072686961
  0
LINE
  5
26E
100
AcDbEntity
  8
0
100
AcDbLine
 62
7
  6
CONTINUOUS
 10
8.1233731299
 20
15.4366671562
 11
8.1080129397
 21
15.4188161243
  0
LINE
  5
26F
100
AcDbEntity
  8
0
100
AcDbLine
 62
7
  6
CONTINUOUS
 10
8.1513215204
 20
15.4601010631
 11
8.1350895997
 21
15.441236939
  0
LINE
  5
270
100
AcDbEntity
  8
0
100
AcDbLine
 62
7
  6
CONTINUOUS
 10
8.1188229835
 20
15.3459530046
 11
8.1115484736
 21
15.3374988445
  0
LINE
  5
271
100
AcDbEntity
  8
0
100
AcDbLine
 62
7
  6
CONTINUOUS
 10
9.5944664475
 20
17.1371428697
 11
9.2133358924
 21
16.7560123146
  0
LINE
  5
272
100
AcDbEntity
  8
0
100
AcDbLine
 62
7
  6
CONTINUOUS
 10
9.0549439734
 20
16.5976203957
 11
9.1850516212
 21
16.7277280434
  0
LINE
  5
273
100
AcDbEntity
  8
0
100
AcDbLine
 62
7
  6
CONTINUOUS
 10
8.1064592759
 20
15.3583958836
 11
8.0979625611
 21
15.351084757
  0
LINE
  5
274
100
AcDbEntity
  8
0
100
AcDbLine
 62
7
  6
CONTINUOUS
 10
8.1688218549
 20
15.3387141003
 11
8.1563877072
 21
15.3280149499
  0
LINE
  5
275
100
AcDbEntity
  8
0
100
AcDbLine
 62
7
  6
CONTINUOUS
 10
8.2084507202
 20
15.3577905008
 11
8.1872666858
 21
15.3395623782
  0
LINE
  5
276
100
AcDbEntity
  8
0
100
AcDbLine
 62
7
  6
CONTINUOUS
 10
8.2365632476
 20
15.3811026433
 11
8.2143433458
 21
15.3619831929
  0
LINE
  5
277
100
AcDbEntity
  8
0
100
AcDbLine
 62
7
  6
CONTINUOUS
 10
8.2160649404
 20
15.2799827883
 11
8.1908022197
 21
15.2582450984
  0
LINE
  5
278
100
AcDbEntity
  8
0
100
AcDbLine
 62
7
  6
CONTINUOUS
 10
8.3912152371
 20
15.1159871579
 11
8.378960378
 21
15.1054422791
  0
LINE
  5
279
100
AcDbEntity
  8
0
100
AcDbLine
 62
7
  6
CONTINUOUS
 10
8.4727840051
 20
15.0839158645
 11
8.4567284471
 21
15.0701006169
  0
LINE
  5
27A
100
AcDbEntity
  8
0
100
AcDbLine
 62
7
  6
CONTINUOUS
 10
8.5279224177
 20
15.0911428828
 11
8.5049503332
 21
15.0713762055
  0
LINE
  5
27B
100
AcDbEntity
  8
0
100
AcDbLine
 62
7
  6
CONTINUOUS
 10
8.5204147641
 20
15.0068268541
 11
8.4973888225
 21
14.9870138346
  0
LINE
  5
27C
100
AcDbEntity
  8
0
100
AcDbLine
 62
7
  6
CONTINUOUS
 10
8.3154478668
 20
15.2029898928
 11
8.2997066319
 21
15.1846960252
  0
LINE
  5
27D
100
AcDbEntity
  8
0
100
AcDbLine
 62
7
  6
CONTINUOUS
 10
8.3922450385
 20
15.1665198904
 11
8.377474701
 21
15.149354363
  0
LINE
  5
27E
100
AcDbEntity
  8
0
100
AcDbLine
 62
7
  6
CONTINUOUS
 10
8.4412903846
 20
15.168752473
 11
8.4256965871
 21
15.1506299516
  0
LINE
  5
27F
100
AcDbEntity
  8
0
100
AcDbLine
 62
7
  6
CONTINUOUS
 10
8.4286799552
 20
15.0785224398
 11
8.4181350764
 21
15.0662675807
  0
LINE
  5
280
100
AcDbEntity
  8
0
100
AcDbLine
 62
7
  6
CONTINUOUS
 10
8.5985586602
 20
14.9592297066
 11
8.5842399827
 21
14.9425890813
  0
LINE
  5
281
100
AcDbEntity
  8
0
100
AcDbLine
 62
7
  6
CONTINUOUS
 10
8.6901167932
 20
14.9187449294
 11
8.6750692706
 21
14.9012572681
  0
LINE
  5
282
100
AcDbEntity
  8
0
100
AcDbLine
 62
7
  6
CONTINUOUS
 10
8.7280333201
 20
14.8286665496
 11
8.7142180725
 21
14.8126109915
  0
LINE
  5
283
100
AcDbEntity
  8
0
100
AcDbLine
 62
7
  6
CONTINUOUS
 10
8.8869251683
 20
14.7210041832
 11
8.8723088674
 21
14.7040176713
  0
LINE
  5
284
100
AcDbEntity
  8
0
100
AcDbLine
 62
7
  6
CONTINUOUS
 10
9.3865770538
 20
15.8544511686
 11
9.5499187202
 21
16.0177928351
  0
LINE
  5
285
100
AcDbEntity
  8
0
100
AcDbLine
 62
7
  6
CONTINUOUS
 10
8.6795492868
 20
14.8771505828
 11
8.6634937288
 21
14.8633353352
  0
LINE
  5
286
100
AcDbEntity
  8
0
100
AcDbLine
 62
7
  6
CONTINUOUS
 10
8.7779421113
 20
14.842326929
 11
8.7543230167
 21
14.822003522
  0
LINE
  5
287
100
AcDbEntity
  8
0
100
AcDbLine
 62
7
  6
CONTINUOUS
 10
8.8162219807
 20
14.7529329663
 11
8.7934718186
 21
14.7333572454
  0
LINE
  5
288
100
AcDbEntity
  8
0
100
AcDbLine
 62
7
  6
CONTINUOUS
 10
8.860669953
 20
14.708698699
 11
8.8378049245
 21
14.6890241395
  0
LINE
  5
289
100
AcDbEntity
  8
0
100
AcDbLine
 62
7
  6
CONTINUOUS
 10
8.9756944769
 20
14.6455285519
 11
8.9515626135
 21
14.6247639252
  0
LINE
  5
28A
100
AcDbEntity
  8
0
100
AcDbLine
 62
7
  6
CONTINUOUS
 10
9.1125360258
 20
14.50934813
 11
9.0880488066
 21
14.4882777321
  0
LINE
  5
28B
100
AcDbEntity
  8
0
100
AcDbLine
 62
7
  6
CONTINUOUS
 10
9.1824855285
 20
14.4397368874
 11
9.1578164945
 21
14.4185100441
  0
LINE
  5
28C
100
AcDbEntity
  8
0
100
AcDbLine
 62
7
  6
CONTINUOUS
 10
9.0231134026
 20
14.5841717136
 11
9.0087950605
 21
14.5675314782
  0
LINE
  5
28D
100
AcDbEntity
  8
0
100
AcDbLine
 62
7
  6
CONTINUOUS
 10
9.7799550576
 20
14.1335798967
 11
10.4012752848
 21
14.7549001239
  0
LINE
  5
28E
100
AcDbEntity
  8
0
100
AcDbLine
 62
7
  6
CONTINUOUS
 10
15.5477997941
 20
4.874891804
 11
15.8277997941
 21
4.874891804
  0
LINE
  5
28F
100
AcDbEntity
  8
0
100
AcDbLine
 62
9
  6
CONTINUOUS
 10
15.5177997941
 20
4.904891804
 11
15.8277997941
 21
4.904891804
  0
LINE
  5
290
100
AcDbEntity
  8
0
100
AcDbLine
 62
7
  6
CONTINUOUS
 10
14.7676327354
 20
5.831891804
 11
14.4326327354
 21
5.831891804
  0
LINE
  5
291
100
AcDbEntity
  8
0
100
AcDbLine
 62
7
  6
CONTINUOUS
 10
14.9667997941
 20
5.981891804
 11
14.8076327354
 21
5.981891804
  0
LINE
  5
292
100
AcDbEntity
  8
0
100
AcDbLine
 62
7
  6
CONTINUOUS
 10
14.9867997941
 20
6.074891804
 11
15.5177997941
 21
6.074891804
  0
LINE
  5
293
100
AcDbEntity
  8
0
100
AcDbLine
 62
7
  6
CONTINUOUS
 10
14.9867997941
 20
6.428891804
 11
15.5177997941
 21
6.428891804
  0
LINE
  5
294
100
AcDbEntity
  8
0
100
AcDbLine
 62
7
  6
CONTINUOUS
 10
14.9667997941
 20
6.521891804
 11
14.8076327354
 21
6.521891804
  0
LINE
  5
295
100
AcDbEntity
  8
0
100
AcDbLine
 62
7
  6
CONTINUOUS
 10
5.6786238576
 20
17.9647574972
 11
5.5931894094
 21
18.2836031987
  0
LINE
  5
296
100
AcDbEntity
  8
0
100
AcDbLine
 62
7
  6
CONTINUOUS
 10
9.004800967
 20
18.0261702054
 11
9.004800967
 21
18.0994863702
  0
LINE
  5
297
100
AcDbEntity
  8
0
100
AcDbLine
 62
7
  6
CONTINUOUS
 10
9.3889931977
 20
18.4954835199
 11
9.3890445216
 21
18.4961946973
  0
LINE
  5
298
100
AcDbEntity
  8
0
100
AcDbLine
 62
7
  6
CONTINUOUS
 10
9.3391756287
 20
18.44567239
 11
9.3392265247
 21
18.4463767003
  0
LINE
  5
299
100
AcDbEntity
  8
0
100
AcDbLine
 62
7
  6
CONTINUOUS
 10
9.4386524211
 20
18.5451469559
 11
9.4387034997
 21
18.5458536753
  0
LINE
  5
29A
100
AcDbEntity
  8
0
100
AcDbLine
 62
7
  6
CONTINUOUS
 10
9.4884399154
 20
18.5949367989
 11
9.4884908027
 21
18.5956409784
  0
LINE
  5
29B
100
AcDbEntity
  8
0
100
AcDbLine
 62
7
  6
CONTINUOUS
 10
14.7676327354
 20
6.671891804
 11
14.4326327354
 21
6.671891804
  0
LINE
  5
29C
100
AcDbEntity
  8
0
100
AcDbLine
 62
7
  6
CONTINUOUS
 10
12.5017997941
 20
6.851891804
 11
12.8917997941
 21
6.851891804
  0
LINE
  5
29D
100
AcDbEntity
  8
0
100
AcDbLine
 62
9
  6
CONTINUOUS
 10
12.4717997941
 20
6.881891804
 11
12.9217997941
 21
6.881891804
  0
LINE
  5
29E
100
AcDbEntity
  8
0
100
AcDbLine
 62
7
  6
CONTINUOUS
 10
15.1977997941
 20
7.371891804
 11
15.5177997941
 21
7.371891804
  0
LINE
  5
29F
100
AcDbEntity
  8
0
100
AcDbLine
 62
9
  6
CONTINUOUS
 10
15.1677997941
 20
7.401891804
 11
15.5177997941
 21
7.401891804
  0
LINE
  5
2A0
100
AcDbEntity
  8
0
100
AcDbLine
 62
7
  6
CONTINUOUS
 10
9.2116297005
 20
18.359438516
 11
9.2116297005
 21
18.3841872534
  0
LINE
  5
2A1
100
AcDbEntity
  8
0
100
AcDbLine
 62
7
  6
CONTINUOUS
 10
9.9542261441
 20
17.9130273951
 11
9.954171592
 21
17.9122732482
  0
LINE
  5
2A2
100
AcDbEntity
  8
0
100
AcDbLine
 62
7
  6
CONTINUOUS
 10
10.0054757448
 20
17.964270565
 11
10.0054217314
 21
17.9635233876
  0
LINE
  5
2A3
100
AcDbEntity
  8
0
100
AcDbLine
 62
7
  6
CONTINUOUS
 10
10.056748489
 20
18.0155445069
 11
10.0566943754
 21
18.0147960315
  0
LINE
  5
2A4
100
AcDbEntity
  8
0
100
AcDbLine
 62
7
  6
CONTINUOUS
 10
13.5277997941
 20
7.751891804
 11
15.1677997941
 21
7.751891804
  0
LINE
  5
2A5
100
AcDbEntity
  8
0
100
AcDbLine
 62
9
  6
CONTINUOUS
 10
13.4977997941
 20
7.781891804
 11
15.1677997941
 21
7.781891804
  0
LINE
  5
2A6
100
AcDbEntity
  8
0
100
AcDbLine
 62
9
  6
CONTINUOUS
 10
12.4717997941
 20
7.871891804
 11
12.9217997941
 21
7.871891804
  0
LINE
  5
2A7
100
AcDbEntity
  8
0
100
AcDbLine
 62
7
  6
CONTINUOUS
 10
13.4717997941
 20
8.096891804
 11
12.9517997941
 21
8.096891804
  0
LINE
  5
2A8
100
AcDbEntity
  8
0
100
AcDbLine
 62
7
  6
CONTINUOUS
 10
12.5017997941
 20
8.121891804
 11
12.8917997941
 21
8.121891804
  0
LINE
  5
2A9
100
AcDbEntity
  8
0
100
AcDbLine
 62
9
  6
CONTINUOUS
 10
12.4717997941
 20
8.151891804
 11
12.9217997941
 21
8.151891804
  0
LINE
  5
2AA
100
AcDbEntity
  8
0
100
AcDbLine
 62
7
  6
CONTINUOUS
 10
13.4977997941
 20
8.160391804
 11
13.4717997941
 21
8.160391804
  0
LINE
  5
2AB
100
AcDbEntity
  8
0
100
AcDbLine
 62
7
  6
CONTINUOUS
 10
13.4977997941
 20
8.683391804
 11
13.4717997941
 21
8.683391804
  0
LINE
  5
2AC
100
AcDbEntity
  8
0
100
AcDbLine
 62
9
  6
CONTINUOUS
 10
12.4717997941
 20
8.691891804
 11
12.9217997941
 21
8.691891804
  0
LINE
  5
2AD
100
AcDbEntity
  8
0
100
AcDbLine
 62
7
  6
CONTINUOUS
 10
12.5017997941
 20
8.721891804
 11
12.8917997941
 21
8.721891804
  0
LINE
  5
2AE
100
AcDbEntity
  8
0
100
AcDbLine
 62
7
  6
CONTINUOUS
 10
13.4717997941
 20
8.746891804
 11
12.9517997941
 21
8.746891804
  0
LINE
  5
2AF
100
AcDbEntity
  8
0
100
AcDbLine
 62
9
  6
CONTINUOUS
 10
12.9217997941
 20
8.971891804
 11
12.4717997941
 21
8.971891804
  0
LINE
  5
2B0
100
AcDbEntity
  8
0
100
AcDbLine
 62
9
  6
CONTINUOUS
 10
13.4977997941
 20
9.061891804
 11
15.1677997941
 21
9.061891804
  0
LINE
  5
2B1
100
AcDbEntity
  8
0
100
AcDbLine
 62
7
  6
CONTINUOUS
 10
13.5277997941
 20
9.091891804
 11
15.1677997941
 21
9.091891804
  0
LINE
  5
2B2
100
AcDbEntity
  8
0
100
AcDbLine
 62
9
  6
CONTINUOUS
 10
15.1677997941
 20
9.441891804
 11
15.5177997941
 21
9.441891804
  0
LINE
  5
2B3
100
AcDbEntity
  8
0
100
AcDbLine
 62
7
  6
CONTINUOUS
 10
15.1977997941
 20
9.471891804
 11
15.5177997941
 21
9.471891804
  0
LINE
  5
2B4
100
AcDbEntity
  8
0
100
AcDbLine
 62
9
  6
CONTINUOUS
 10
12.4717997941
 20
9.961891804
 11
12.9217997941
 21
9.961891804
  0
LINE
  5
2B5
100
AcDbEntity
  8
0
100
AcDbLine
 62
9
  6
CONTINUOUS
 10
12.1277997941
 20
19.218641804
 11
12.1277997941
 21
20.031141804
  0
LINE
  5
2B6
100
AcDbEntity
  8
0
100
AcDbLine
 62
7
  6
CONTINUOUS
 10
12.4717997941
 20
6.881891804
 11
12.4717997941
 21
9.961891804
  0
LINE
  5
2B7
100
AcDbEntity
  8
0
100
AcDbLine
 62
9
  6
CONTINUOUS
 10
12.5017997941
 20
6.851891804
 11
12.5017997941
 21
9.991891804
  0
LINE
  5
2B8
100
AcDbEntity
  8
0
100
AcDbLine
 62
7
  6
CONTINUOUS
 10
12.5017997941
 20
9.991891804
 11
12.8917997941
 21
9.991891804
  0
LINE
  5
2B9
100
AcDbEntity
  8
0
100
AcDbLine
 62
9
  6
CONTINUOUS
 10
15.5177997941
 20
10.344891804
 11
15.8277997941
 21
10.344891804
  0
LINE
  5
2BA
100
AcDbEntity
  8
0
100
AcDbLine
 62
7
  6
CONTINUOUS
 10
15.5477997941
 20
10.374891804
 11
15.8277997941
 21
10.374891804
  0
LINE
  5
2BB
100
AcDbEntity
  8
0
100
AcDbLine
 62
7
  6
CONTINUOUS
 10
9.3391756287
 20
18.4456723899
 11
9.3477170863
 21
18.4137274688
  0
LINE
  5
2BC
100
AcDbEntity
  8
0
100
AcDbLine
 62
7
  6
CONTINUOUS
 10
9.3889931965
 20
18.4954835187
 11
9.3970286708
 21
18.4654306246
  0
LINE
  5
2BD
100
AcDbEntity
  8
0
100
AcDbLine
 62
7
  6
CONTINUOUS
 10
9.4386524215
 20
18.5451469562
 11
9.4460681965
 21
18.5174124533
  0
LINE
  5
2BE
100
AcDbEntity
  8
0
100
AcDbLine
 62
7
  6
CONTINUOUS
 10
9.4884399154
 20
18.5949367989
 11
9.4953292613
 21
18.5691715478
  0
LINE
  5
2BF
100
AcDbEntity
  8
0
100
AcDbLine
 62
7
  6
CONTINUOUS
 10
9.9029606678
 20
17.8617567819
 11
9.8947117628
 21
17.8926115042
  0
LINE
  5
2C0
100
AcDbEntity
  8
0
100
AcDbLine
 62
7
  6
CONTINUOUS
 10
9.9542261443
 20
17.9130273953
 11
9.9465309393
 21
17.9418111854
  0
LINE
  5
2C1
100
AcDbEntity
  8
0
100
AcDbLine
 62
7
  6
CONTINUOUS
 10
10.0054757448
 20
17.964270565
 11
9.9983206574
 21
17.9910332172
  0
LINE
  5
2C2
100
AcDbEntity
  8
0
100
AcDbLine
 62
7
  6
CONTINUOUS
 10
10.056748489
 20
18.0155445069
 11
10.0501517415
 21
18.040218592
  0
LINE
  5
2C3
100
AcDbEntity
  8
0
100
AcDbLine
 62
9
  6
CONTINUOUS
 10
12.8917997941
 20
9.991891804
 11
12.8917997941
 21
6.851891804
  0
LINE
  5
2C4
100
AcDbEntity
  8
0
100
AcDbLine
 62
7
  6
CONTINUOUS
 10
12.9217997941
 20
9.961891804
 11
12.9217997941
 21
6.881891804
  0
LINE
  5
2C5
100
AcDbEntity
  8
0
100
AcDbLine
 62
9
  6
CONTINUOUS
 10
12.9517997941
 20
8.096891804
 11
12.9517997941
 21
8.746891804
  0
LINE
  5
2C6
100
AcDbEntity
  8
0
100
AcDbLine
 62
7
  6
CONTINUOUS
 10
7.8071811155
 20
15.6080973979
 11
7.7490811612
 21
15.6661973522
  0
LINE
  5
2C7
100
AcDbEntity
  8
0
100
AcDbLine
 62
7
  6
CONTINUOUS
 10
7.4703762759
 20
15.9449022375
 11
7.4122763216
 21
16.0030021918
  0
LINE
  5
2C8
100
AcDbEntity
  8
0
100
AcDbLine
 62
7
  6
CONTINUOUS
 10
7.1335714363
 20
16.2817070771
 11
7.075471482
 21
16.3398070314
  0
LINE
  5
2C9
100
AcDbEntity
  8
0
100
AcDbLine
 62
7
  6
CONTINUOUS
 10
8.1704119893
 20
15.2590086598
 11
8.112312035
 21
15.317108614
  0
LINE
  5
2CA
100
AcDbEntity
  8
0
100
AcDbLine
 62
7
  6
CONTINUOUS
 10
8.0775723307
 20
15.3518483183
 11
8.0194723764
 21
15.4099482726
  0
LINE
  5
2CB
100
AcDbEntity
  8
0
100
AcDbLine
 62
7
  6
CONTINUOUS
 10
7.8239296665
 20
15.6054909825
 11
7.7658297122
 21
15.6635909368
  0
LINE
  5
2CC
100
AcDbEntity
  8
0
100
AcDbLine
 62
7
  6
CONTINUOUS
 10
7.4774473437
 20
15.9519733053
 11
7.4193473894
 21
16.0100732596
  0
LINE
  5
2CD
100
AcDbEntity
  8
0
100
AcDbLine
 62
7
  6
CONTINUOUS
 10
7.1309650209
 20
16.2984556281
 11
7.0728650666
 21
16.3565555824
  0
LINE
  5
2CE
100
AcDbEntity
  8
0
100
AcDbLine
 62
7
  6
CONTINUOUS
 10
6.8773223567
 20
16.5520982923
 11
6.8192224024
 21
16.6101982466
  0
LINE
  5
2CF
100
AcDbEntity
  8
0
100
AcDbLine
 62
7
  6
CONTINUOUS
 10
6.7844826981
 20
16.6449379509
 11
6.7263827439
 21
16.7030379052
  0
LINE
  5
2D0
100
AcDbEntity
  8
0
100
AcDbLine
 62
9
  6
CONTINUOUS
 10
7.7614737921
 20
15.6734313904
 11
7.7483175999
 21
15.6865875826
  0
LINE
  5
2D1
100
AcDbEntity
  8
0
100
AcDbLine
 62
9
  6
CONTINUOUS
 10
7.4907665063
 20
15.9441386761
 11
7.4872877972
 21
15.9476173852
  0
LINE
  5
2D2
100
AcDbEntity
  8
0
100
AcDbLine
 62
9
  6
CONTINUOUS
 10
7.4149914693
 20
16.0199137131
 11
7.4115127602
 21
16.0233924222
  0
LINE
  5
2D3
100
AcDbEntity
  8
0
100
AcDbLine
 62
9
  6
CONTINUOUS
 10
7.1539616667
 20
16.2809435158
 11
7.1408054745
 21
16.294099708
  0
LINE
  5
2D4
100
AcDbEntity
  8
0
100
AcDbLine
 62
9
  6
CONTINUOUS
 10
8.1908022197
 20
15.2582450984
 11
8.1115484736
 21
15.3374988445
  0
LINE
  5
2D5
100
AcDbEntity
  8
0
100
AcDbLine
 62
9
  6
CONTINUOUS
 10
8.0979625611
 20
15.351084757
 11
8.018708815
 21
15.4303385031
  0
LINE
  5
2D6
100
AcDbEntity
  8
0
100
AcDbLine
 62
9
  6
CONTINUOUS
 10
7.8443198969
 20
15.6047274212
 11
7.7650661508
 21
15.6839811673
  0
LINE
  5
2D7
100
AcDbEntity
  8
0
100
AcDbLine
 62
9
  6
CONTINUOUS
 10
7.4978375741
 20
15.9512097439
 11
7.418583828
 21
16.03046349
  0
LINE
  5
2D8
100
AcDbEntity
  8
0
100
AcDbLine
 62
9
  6
CONTINUOUS
 10
7.1513552514
 20
16.2976920667
 11
7.0721015052
 21
16.3769458128
  0
LINE
  5
2D9
100
AcDbEntity
  8
0
100
AcDbLine
 62
9
  6
CONTINUOUS
 10
6.8977125872
 20
16.5513347309
 11
6.818458841
 21
16.630588477
  0
LINE
  5
2DA
100
AcDbEntity
  8
0
100
AcDbLine
 62
9
  6
CONTINUOUS
 10
6.8048729286
 20
16.6441743895
 11
6.7256191825
 21
16.7234281356
  0
LINE
  5
2DB
100
AcDbEntity
  8
0
100
AcDbLine
 62
7
  6
CONTINUOUS
 10
8.4769985921
 20
14.987777396
 11
8.4188986378
 21
15.0458773503
  0
LINE
  5
2DC
100
AcDbEntity
  8
0
100
AcDbLine
 62
7
  6
CONTINUOUS
 10
8.3585701476
 20
15.1062058405
 11
8.3004701933
 21
15.1643057948
  0
LINE
  5
2DD
100
AcDbEntity
  8
0
100
AcDbLine
 62
7
  6
CONTINUOUS
 10
8.1359974767
 20
15.3287785113
 11
8.0778975225
 21
15.3868784656
  0
LINE
  5
2DE
100
AcDbEntity
  8
0
100
AcDbLine
 62
7
  6
CONTINUOUS
 10
7.8361261286
 20
15.6286498595
 11
7.7780261743
 21
15.6867498138
  0
LINE
  5
2DF
100
AcDbEntity
  8
0
100
AcDbLine
 62
7
  6
CONTINUOUS
 10
7.4951250132
 20
15.9696509749
 11
7.4370250589
 21
16.0277509291
  0
LINE
  5
2E0
100
AcDbEntity
  8
0
100
AcDbLine
 62
7
  6
CONTINUOUS
 10
7.1541238979
 20
16.3106520902
 11
7.0960239436
 21
16.3687520445
  0
LINE
  5
2E1
100
AcDbEntity
  8
0
100
AcDbLine
 62
7
  6
CONTINUOUS
 10
6.8542525497
 20
16.6105234384
 11
6.7961525954
 21
16.6686233927
  0
LINE
  5
2E2
100
AcDbEntity
  8
0
100
AcDbLine
 62
7
  6
CONTINUOUS
 10
6.6316798789
 20
16.8330961092
 11
6.5735799246
 21
16.8911960635
  0
LINE
  5
2E3
100
AcDbEntity
  8
0
100
AcDbLine
 62
7
  6
CONTINUOUS
 10
6.5132514344
 20
16.9515245537
 11
6.4551514801
 21
17.009624508
  0
LINE
  5
2E4
100
AcDbEntity
  8
0
100
AcDbLine
 62
7
  6
CONTINUOUS
 10
7.5073552058
 20
15.9584126733
 11
7.5973857361
 21
15.868382143
  0
LINE
  5
2E5
100
AcDbEntity
  8
0
100
AcDbLine
 62
7
  6
CONTINUOUS
 10
7.4257867574
 20
16.0399811217
 11
7.3357562271
 21
16.130011652
  0
LINE
  5
2E6
100
AcDbEntity
  8
0
100
AcDbLine
 62
7
  6
CONTINUOUS
 10
7.1729877374
 20
16.2973147859
 11
7.4277588109
 21
16.0425437124
  0
LINE
  5
2E7
100
AcDbEntity
  8
0
100
AcDbLine
 62
7
  6
CONTINUOUS
 10
7.5099177965
 20
15.9603847268
 11
7.76468887
 21
15.7056136533
  0
LINE
  5
2E8
100
AcDbEntity
  8
0
100
AcDbLine
 62
9
  6
CONTINUOUS
 10
7.1731709676
 20
16.2973677433
 11
7.4278769046
 21
16.0426618062
  0
LINE
  5
2E9
100
AcDbEntity
  8
0
100
AcDbLine
 62
9
  6
CONTINUOUS
 10
7.5100358903
 20
15.9605028205
 11
7.7647418274
 21
15.7057968835
  0
LINE
  5
2EA
100
AcDbEntity
  8
0
100
AcDbLine
 62
9
  6
CONTINUOUS
 10
7.9066582646
 20
15.5690921917
 11
7.8586728337
 21
15.6170776225
  0
LINE
  5
2EB
100
AcDbEntity
  8
0
100
AcDbLine
 62
9
  6
CONTINUOUS
 10
7.7739393186
 20
15.7018111376
 11
7.5121905109
 21
15.9635599453
  0
LINE
  5
2EC
100
AcDbEntity
  8
0
100
AcDbLine
 62
9
  6
CONTINUOUS
 10
7.4309340294
 20
16.0448164268
 11
7.1691852217
 21
16.3065652345
  0
LINE
  5
2ED
100
AcDbEntity
  8
0
100
AcDbLine
 62
9
  6
CONTINUOUS
 10
7.0844517066
 20
16.3912987496
 11
7.0364662758
 21
16.4392841805
  0
LINE
  5
2EE
100
AcDbEntity
  8
0
100
AcDbLine
 62
9
  6
CONTINUOUS
 10
8.4973888225
 20
14.9870138346
 11
8.4181350764
 21
15.0662675807
  0
LINE
  5
2EF
100
AcDbEntity
  8
0
100
AcDbLine
 62
9
  6
CONTINUOUS
 10
8.378960378
 20
15.1054422791
 11
8.2997066319
 21
15.1846960252
  0
LINE
  5
2F0
100
AcDbEntity
  8
0
100
AcDbLine
 62
9
  6
CONTINUOUS
 10
8.1563877072
 20
15.3280149499
 11
8.0771339611
 21
15.4072686961
  0
LINE
  5
2F1
100
AcDbEntity
  8
0
100
AcDbLine
 62
9
  6
CONTINUOUS
 10
7.856516359
 20
15.6278862981
 11
7.7772626129
 21
15.7071400442
  0
LINE
  5
2F2
100
AcDbEntity
  8
0
100
AcDbLine
 62
9
  6
CONTINUOUS
 10
7.5155152437
 20
15.9688874135
 11
7.4362614976
 21
16.0481411596
  0
LINE
  5
2F3
100
AcDbEntity
  8
0
100
AcDbLine
 62
9
  6
CONTINUOUS
 10
7.1745141283
 20
16.3098885288
 11
7.0952603822
 21
16.3891422749
  0
LINE
  5
2F4
100
AcDbEntity
  8
0
100
AcDbLine
 62
9
  6
CONTINUOUS
 10
6.8746427802
 20
16.609759877
 11
6.795389034
 21
16.6890136231
  0
LINE
  5
2F5
100
AcDbEntity
  8
0
100
AcDbLine
 62
9
  6
CONTINUOUS
 10
6.6520701093
 20
16.8323325478
 11
6.5728163632
 21
16.9115862939
  0
LINE
  5
2F6
100
AcDbEntity
  8
0
100
AcDbLine
 62
9
  6
CONTINUOUS
 10
6.5336416648
 20
16.9507609923
 11
6.4543879187
 21
17.0300147384
  0
LINE
  5
2F7
100
AcDbEntity
  8
0
100
AcDbLine
 62
7
  6
CONTINUOUS
 10
6.9190637886
 20
16.5696254738
 11
7.0904359045
 21
16.3982533579
  0
LINE
  5
2F8
100
AcDbEntity
  8
0
100
AcDbLine
 62
7
  6
CONTINUOUS
 10
7.1768181787
 20
16.3118710837
 11
7.4367670968
 21
16.0519221656
  0
LINE
  5
2F9
100
AcDbEntity
  8
0
100
AcDbLine
 62
7
  6
CONTINUOUS
 10
7.5192962497
 20
15.9693930127
 11
7.7792451678
 21
15.7094440946
  0
LINE
  5
2FA
100
AcDbEntity
  8
0
100
AcDbLine
 62
7
  6
CONTINUOUS
 10
7.865627442
 20
15.6230618204
 11
8.0369995579
 21
15.4516897045
  0
LINE
  5
2FB
100
AcDbEntity
  8
0
100
AcDbLine
 62
9
  6
CONTINUOUS
 10
6.9195747794
 20
16.5701364646
 11
7.090908571
 21
16.398802673
  0
LINE
  5
2FC
100
AcDbEntity
  8
0
100
AcDbLine
 62
9
  6
CONTINUOUS
 10
7.1773674938
 20
16.3123437502
 11
7.4372780876
 21
16.0524331564
  0
LINE
  5
2FD
100
AcDbEntity
  8
0
100
AcDbLine
 62
9
  6
CONTINUOUS
 10
7.5198072404
 20
15.9699040035
 11
7.7797178343
 21
15.7099934097
  0
LINE
  5
2FE
100
AcDbEntity
  8
0
100
AcDbLine
 62
9
  6
CONTINUOUS
 10
7.8661767571
 20
15.6235344869
 11
8.0375105487
 21
15.4522006953
  0
LINE
  5
2FF
100
AcDbEntity
  8
0
100
AcDbLine
 62
9
  6
CONTINUOUS
 10
8.2196618244
 20
15.2766805226
 11
8.1628052905
 21
15.3335370565
  0
LINE
  5
300
100
AcDbEntity
  8
0
100
AcDbLine
 62
9
  6
CONTINUOUS
 10
8.0826560676
 20
15.4136862794
 11
7.8629339423
 21
15.6334084047
  0
LINE
  5
301
100
AcDbEntity
  8
0
100
AcDbLine
 62
9
  6
CONTINUOUS
 10
7.7827847195
 20
15.7135576275
 11
7.521932827
 21
15.97440952
  0
LINE
  5
302
100
AcDbEntity
  8
0
100
AcDbLine
 62
9
  6
CONTINUOUS
 10
7.4417836041
 20
16.0545587429
 11
7.1809317116
 21
16.3154106354
  0
LINE
  5
303
100
AcDbEntity
  8
0
100
AcDbLine
 62
9
  6
CONTINUOUS
 10
7.1007824888
 20
16.3955598582
 11
6.8810603634
 21
16.6152819835
  0
LINE
  5
304
100
AcDbEntity
  8
0
100
AcDbLine
 62
9
  6
CONTINUOUS
 10
6.8009111406
 20
16.6954312064
 11
6.7440546067
 21
16.7522877403
  0
LINE
  5
305
100
AcDbEntity
  8
0
100
AcDbLine
 62
7
  6
CONTINUOUS
 10
8.8174146941
 20
14.6897877009
 11
8.7149816339
 21
14.7922207611
  0
LINE
  5
306
100
AcDbEntity
  8
0
100
AcDbLine
 62
7
  6
CONTINUOUS
 10
8.6431034983
 20
14.8640988966
 11
8.5850035441
 21
14.9221988509
  0
LINE
  5
307
100
AcDbEntity
  8
0
100
AcDbLine
 62
7
  6
CONTINUOUS
 10
8.4363382167
 20
15.0708641783
 11
8.3782382624
 21
15.1289641326
  0
LINE
  5
308
100
AcDbEntity
  8
0
100
AcDbLine
 62
7
  6
CONTINUOUS
 10
8.1668764554
 20
15.3403259396
 11
8.1087765011
 21
15.3984258939
  0
LINE
  5
309
100
AcDbEntity
  8
0
100
AcDbLine
 62
7
  6
CONTINUOUS
 10
7.8530815881
 20
15.6541208068
 11
7.7949816339
 21
15.7122207611
  0
LINE
  5
30A
100
AcDbEntity
  8
0
100
AcDbLine
 62
7
  6
CONTINUOUS
 10
7.5163382167
 20
15.9908641783
 11
7.4582382624
 21
16.0489641326
  0
LINE
  5
30B
100
AcDbEntity
  8
0
100
AcDbLine
 62
7
  6
CONTINUOUS
 10
7.1795948452
 20
16.3276075498
 11
7.1214948909
 21
16.3857075041
  0
LINE
  5
30C
100
AcDbEntity
  8
0
100
AcDbLine
 62
7
  6
CONTINUOUS
 10
6.865799978
 20
16.641402417
 11
6.8077000237
 21
16.6995023713
  0
LINE
  5
30D
100
AcDbEntity
  8
0
100
AcDbLine
 62
7
  6
CONTINUOUS
 10
6.5963382167
 20
16.9108641783
 11
6.5382382624
 21
16.9689641326
  0
LINE
  5
30E
100
AcDbEntity
  8
0
100
AcDbLine
 62
7
  6
CONTINUOUS
 10
6.389572935
 20
17.11762946
 11
6.3314729807
 21
17.1757294143
  0
LINE
  5
30F
100
AcDbEntity
  8
0
100
AcDbLine
 62
7
  6
CONTINUOUS
 10
6.2595948452
 20
17.2476075498
 11
6.157161785
 21
17.35004061
  0
LINE
  5
310
100
AcDbEntity
  8
0
100
AcDbLine
 62
7
  6
CONTINUOUS
 10
6.6690779467
 20
16.8467877525
 11
6.8034835309
 21
16.7123821684
  0
LINE
  5
311
100
AcDbEntity
  8
0
100
AcDbLine
 62
7
  6
CONTINUOUS
 10
6.8916901528
 20
16.6241755465
 11
7.1098120392
 21
16.40605366
  0
LINE
  5
312
100
AcDbEntity
  8
0
100
AcDbLine
 62
7
  6
CONTINUOUS
 10
7.1924746423
 20
16.323391057
 11
7.4508131545
 21
16.0650525447
  0
LINE
  5
313
100
AcDbEntity
  8
0
100
AcDbLine
 62
7
  6
CONTINUOUS
 10
7.5324266288
 20
15.9834390704
 11
7.790765141
 21
15.7251005582
  0
LINE
  5
314
100
AcDbEntity
  8
0
100
AcDbLine
 62
7
  6
CONTINUOUS
 10
7.8734277441
 20
15.6424379551
 11
8.0915496306
 21
15.4243160687
  0
LINE
  5
315
100
AcDbEntity
  8
0
100
AcDbLine
 62
7
  6
CONTINUOUS
 10
8.1797562525
 20
15.3361094468
 11
8.3141618366
 21
15.2017038626
  0
LINE
  5
316
100
AcDbEntity
  8
0
100
AcDbLine
 62
9
  6
CONTINUOUS
 10
6.6701696572
 20
16.847879463
 11
6.8039173604
 21
16.7141317599
  0
LINE
  5
317
100
AcDbEntity
  8
0
100
AcDbLine
 62
9
  6
CONTINUOUS
 10
7.1942242338
 20
16.3238248864
 11
7.4516546055
 21
16.0663945147
  0
LINE
  5
318
100
AcDbEntity
  8
0
100
AcDbLine
 62
9
  6
CONTINUOUS
 10
7.5337685988
 20
15.9842805214
 11
7.7911989705
 21
15.7268501497
  0
LINE
  5
319
100
AcDbEntity
  8
0
100
AcDbLine
 62
9
  6
CONTINUOUS
 10
8.181505844
 20
15.3365432763
 11
8.3152535471
 21
15.2027955731
  0
LINE
  5
31A
100
AcDbEntity
  8
0
100
AcDbLine
 62
9
  6
CONTINUOUS
 10
8.8378049245
 20
14.6890241395
 11
8.7142180725
 21
14.8126109915
  0
LINE
  5
31B
100
AcDbEntity
  8
0
100
AcDbLine
 62
9
  6
CONTINUOUS
 10
8.6634937288
 20
14.8633353352
 11
8.5842399827
 21
14.9425890813
  0
LINE
  5
31C
100
AcDbEntity
  8
0
100
AcDbLine
 62
9
  6
CONTINUOUS
 10
8.4567284471
 20
15.0701006169
 11
8.377474701
 21
15.149354363
  0
LINE
  5
31D
100
AcDbEntity
  8
0
100
AcDbLine
 62
9
  6
CONTINUOUS
 10
8.1872666858
 20
15.3395623782
 11
8.1080129397
 21
15.4188161243
  0
LINE
  5
31E
100
AcDbEntity
  8
0
100
AcDbLine
 62
9
  6
CONTINUOUS
 10
7.8734718186
 20
15.6533572454
 11
7.7942180725
 21
15.7326109915
  0
LINE
  5
31F
100
AcDbEntity
  8
0
100
AcDbLine
 62
9
  6
CONTINUOUS
 10
7.5367284471
 20
15.9901006169
 11
7.457474701
 21
16.069354363
  0
LINE
  5
320
100
AcDbEntity
  8
0
100
AcDbLine
 62
9
  6
CONTINUOUS
 10
7.1999850756
 20
16.3268439884
 11
7.1207313295
 21
16.4060977345
  0
LINE
  5
321
100
AcDbEntity
  8
0
100
AcDbLine
 62
9
  6
CONTINUOUS
 10
6.8861902084
 20
16.6406388556
 11
6.8069364623
 21
16.7198926017
  0
LINE
  5
322
100
AcDbEntity
  8
0
100
AcDbLine
 62
9
  6
CONTINUOUS
 10
6.6167284471
 20
16.9101006169
 11
6.537474701
 21
16.989354363
  0
LINE
  5
323
100
AcDbEntity
  8
0
100
AcDbLine
 62
9
  6
CONTINUOUS
 10
6.4099631654
 20
17.1168658986
 11
6.3307094193
 21
17.1961196447
  0
LINE
  5
324
100
AcDbEntity
  8
0
100
AcDbLine
 62
9
  6
CONTINUOUS
 10
6.2799850756
 20
17.2468439884
 11
6.1563982236
 21
17.3704308404
  0
LINE
  5
325
100
AcDbEntity
  8
0
100
AcDbLine
 62
9
  6
CONTINUOUS
 10
8.5380277357
 20
14.9895630152
 11
8.4571092906
 21
15.0704814604
  0
LINE
  5
326
100
AcDbEntity
  8
0
100
AcDbLine
 62
9
  6
CONTINUOUS
 10
8.3778555445
 20
15.1497352065
 11
8.1876475293
 21
15.3399432217
  0
LINE
  5
327
100
AcDbEntity
  8
0
100
AcDbLine
 62
9
  6
CONTINUOUS
 10
8.1083937831
 20
15.4191969678
 11
7.873852662
 21
15.6537380889
  0
LINE
  5
328
100
AcDbEntity
  8
0
100
AcDbLine
 62
9
  6
CONTINUOUS
 10
7.7945989159
 20
15.732991835
 11
7.5371092906
 21
15.9904814604
  0
LINE
  5
329
100
AcDbEntity
  8
0
100
AcDbLine
 62
9
  6
CONTINUOUS
 10
7.4578555445
 20
16.0697352065
 11
7.2003659191
 21
16.3272248318
  0
LINE
  5
32A
100
AcDbEntity
  8
0
100
AcDbLine
 62
9
  6
CONTINUOUS
 10
7.121112173
 20
16.406478578
 11
6.8865710519
 21
16.6410196991
  0
LINE
  5
32B
100
AcDbEntity
  8
0
100
AcDbLine
 62
9
  6
CONTINUOUS
 10
6.8073173058
 20
16.7202734452
 11
6.6171092906
 21
16.9104814604
  0
LINE
  5
32C
100
AcDbEntity
  8
0
100
AcDbLine
 62
9
  6
CONTINUOUS
 10
6.539154143
 20
16.9884366079
 11
6.4569370993
 21
17.0706536517
  0
LINE
  5
32D
100
AcDbEntity
  8
0
100
AcDbLine
 62
7
  6
CONTINUOUS
 10
6.7440546067
 20
16.7522877403
 11
6.7473568724
 21
16.7486908563
  0
LINE
  5
32E
100
AcDbEntity
  8
0
100
AcDbLine
 62
7
  6
CONTINUOUS
 10
6.1751299775
 20
17.3943983477
 11
6.1760727831
 21
17.3932958689
  0
LINE
  5
32F
100
AcDbEntity
  8
0
100
AcDbLine
 62
7
  6
CONTINUOUS
 10
7.3357562271
 20
16.130011652
 11
7.3099826311
 21
16.1603198922
  0
LINE
  5
330
100
AcDbEntity
  8
0
100
AcDbLine
 62
7
  6
CONTINUOUS
 10
13.4717997941
 20
8.096891804
 11
13.4717997941
 21
8.746891804
  0
LINE
  5
331
100
AcDbEntity
  8
0
100
AcDbLine
 62
7
  6
CONTINUOUS
 10
13.4977997941
 20
7.781891804
 11
13.4977997941
 21
9.061891804
  0
LINE
  5
332
100
AcDbEntity
  8
0
100
AcDbLine
 62
9
  6
CONTINUOUS
 10
13.5277997941
 20
7.751891804
 11
13.5277997941
 21
9.091891804
  0
LINE
  5
333
100
AcDbEntity
  8
0
100
AcDbLine
 62
7
  6
CONTINUOUS
 10
7.5973857361
 20
15.868382143
 11
7.6276939763
 21
15.842608547
  0
LINE
  5
334
100
AcDbEntity
  8
0
100
AcDbLine
 62
7
  6
CONTINUOUS
 10
8.8617724318
 20
14.7077558934
 11
8.860669953
 21
14.708698699
  0
LINE
  5
335
100
AcDbEntity
  8
0
100
AcDbLine
 62
7
  6
CONTINUOUS
 10
8.2196618244
 20
15.2766805226
 11
8.2160649404
 21
15.2799827883
  0
LINE
  5
336
100
AcDbEntity
  8
0
100
AcDbLine
 62
7
  6
CONTINUOUS
 10
6.3017702465
 20
17.2514916413
 11
6.3429346003
 21
17.2103272875
  0
LINE
  5
337
100
AcDbEntity
  8
0
100
AcDbLine
 62
7
  6
CONTINUOUS
 10
6.4243405512
 20
17.1289213366
 11
6.549699882
 21
17.0035620058
  0
LINE
  5
338
100
AcDbEntity
  8
0
100
AcDbLine
 62
7
  6
CONTINUOUS
 10
6.6311424539
 20
16.9221194339
 11
6.8191616433
 21
16.7341002445
  0
LINE
  5
339
100
AcDbEntity
  8
0
100
AcDbLine
 62
7
  6
CONTINUOUS
 10
6.9006520411
 20
16.6526098466
 11
7.1329565105
 21
16.4203053773
  0
LINE
  5
33A
100
AcDbEntity
  8
0
100
AcDbLine
 62
7
  6
CONTINUOUS
 10
7.2141927184
 20
16.3390691694
 11
7.469699882
 21
16.0835620058
  0
LINE
  5
33B
100
AcDbEntity
  8
0
100
AcDbLine
 62
7
  6
CONTINUOUS
 10
7.5509360899
 20
16.0023257979
 11
7.8064432535
 21
15.7468186343
  0
LINE
  5
33C
100
AcDbEntity
  8
0
100
AcDbLine
 62
7
  6
CONTINUOUS
 10
7.8876794614
 20
15.6655824264
 11
8.1199839307
 21
15.433277957
  0
LINE
  5
33D
100
AcDbEntity
  8
0
100
AcDbLine
 62
7
  6
CONTINUOUS
 10
8.2014743286
 20
15.3517875592
 11
8.389493518
 21
15.1637683698
  0
LINE
  5
33E
100
AcDbEntity
  8
0
100
AcDbLine
 62
7
  6
CONTINUOUS
 10
8.4709360899
 20
15.0823257979
 11
8.5962954207
 21
14.9569664671
  0
LINE
  5
33F
100
AcDbEntity
  8
0
100
AcDbLine
 62
7
  6
CONTINUOUS
 10
8.6777013716
 20
14.8755605162
 11
8.7188657253
 21
14.8343961624
  0
LINE
  5
340
100
AcDbEntity
  8
0
100
AcDbLine
 62
7
  6
CONTINUOUS
 10
9.1374262641
 20
14.4192736055
 11
9.0793263098
 21
14.4773735598
  0
LINE
  5
341
100
AcDbEntity
  8
0
100
AcDbLine
 62
7
  6
CONTINUOUS
 10
9.0676585762
 20
14.4890412935
 11
9.0095586219
 21
14.5471412478
  0
LINE
  5
342
100
AcDbEntity
  8
0
100
AcDbLine
 62
7
  6
CONTINUOUS
 10
8.931172383
 20
14.6255274866
 11
8.8730724288
 21
14.6836274409
  0
LINE
  5
343
100
AcDbEntity
  8
0
100
AcDbLine
 62
7
  6
CONTINUOUS
 10
8.7339327863
 20
14.8227670833
 11
8.675832832
 21
14.8808670376
  0
LINE
  5
344
100
AcDbEntity
  8
0
100
AcDbLine
 62
7
  6
CONTINUOUS
 10
8.4845601028
 20
15.0721397669
 11
8.4264601485
 21
15.1302397212
  0
LINE
  5
345
100
AcDbEntity
  8
0
100
AcDbLine
 62
7
  6
CONTINUOUS
 10
8.1939531153
 20
15.3627467543
 11
8.1358531611
 21
15.4208467086
  0
LINE
  5
346
100
AcDbEntity
  8
0
100
AcDbLine
 62
7
  6
CONTINUOUS
 10
7.8748127439
 20
15.6818871258
 11
7.8167127896
 21
15.73998708
  0
LINE
  5
347
100
AcDbEntity
  8
0
100
AcDbLine
 62
7
  6
CONTINUOUS
 10
7.541086954
 20
16.0156129156
 11
7.4829869997
 21
16.0737128699
  0
LINE
  5
348
100
AcDbEntity
  8
0
100
AcDbLine
 62
7
  6
CONTINUOUS
 10
7.2073611641
 20
16.3493387055
 11
7.1492612099
 21
16.4074386598
  0
LINE
  5
349
100
AcDbEntity
  8
0
100
AcDbLine
 62
7
  6
CONTINUOUS
 10
6.8882207927
 20
16.668479077
 11
6.8301208384
 21
16.7265790313
  0
LINE
  5
34A
100
AcDbEntity
  8
0
100
AcDbLine
 62
7
  6
CONTINUOUS
 10
6.5976138053
 20
16.9590860644
 11
6.539513851
 21
17.0171860187
  0
LINE
  5
34B
100
AcDbEntity
  8
0
100
AcDbLine
 62
7
  6
CONTINUOUS
 10
6.3482411217
 20
17.2084587479
 11
6.2901411674
 21
17.2665587022
  0
LINE
  5
34C
100
AcDbEntity
  8
0
100
AcDbLine
 62
7
  6
CONTINUOUS
 10
6.151001525
 20
17.4056983447
 11
6.0929015707
 21
17.4637982989
  0
LINE
  5
34D
100
AcDbEntity
  8
0
100
AcDbLine
 62
7
  6
CONTINUOUS
 10
6.0145153319
 20
17.5421845378
 11
5.9564153776
 21
17.6002844921
  0
LINE
  5
34E
100
AcDbEntity
  8
0
100
AcDbLine
 62
7
  6
CONTINUOUS
 10
5.9447476439
 20
17.6119522257
 11
5.8866476896
 21
17.67005218
  0
LINE
  5
34F
100
AcDbEntity
  8
0
100
AcDbLine
 62
9
  6
CONTINUOUS
 10
6.4262313621
 20
17.1308121475
 11
6.5378533039
 21
17.0191902058
  0
LINE
  5
350
100
AcDbEntity
  8
0
100
AcDbLine
 62
9
  6
CONTINUOUS
 10
6.6330332649
 20
16.9240102448
 11
6.8209106434
 21
16.7361328662
  0
LINE
  5
351
100
AcDbEntity
  8
0
100
AcDbLine
 62
9
  6
CONTINUOUS
 10
6.9025428521
 20
16.6545006576
 11
7.1347055106
 21
16.422337999
  0
LINE
  5
352
100
AcDbEntity
  8
0
100
AcDbLine
 62
9
  6
CONTINUOUS
 10
7.2163935574
 20
16.3406499523
 11
7.4714488821
 21
16.0855946275
  0
LINE
  5
353
100
AcDbEntity
  8
0
100
AcDbLine
 62
9
  6
CONTINUOUS
 10
7.5529687116
 20
16.004074798
 11
7.8080240364
 21
15.7490194733
  0
LINE
  5
354
100
AcDbEntity
  8
0
100
AcDbLine
 62
9
  6
CONTINUOUS
 10
7.8897120831
 20
15.6673314265
 11
8.1218747417
 21
15.435168768
  0
LINE
  5
355
100
AcDbEntity
  8
0
100
AcDbLine
 62
9
  6
CONTINUOUS
 10
8.2035069503
 20
15.3535365593
 11
8.3913843289
 21
15.1656591808
  0
LINE
  5
356
100
AcDbEntity
  8
0
100
AcDbLine
 62
9
  6
CONTINUOUS
 10
8.4865642899
 20
15.0704792198
 11
8.5981862316
 21
14.958857278
  0
LINE
  5
357
100
AcDbEntity
  8
0
100
AcDbLine
 62
9
  6
CONTINUOUS
 10
8.8617724318
 20
14.7077558934
 11
8.7500552089
 21
14.8194731162
  0
LINE
  5
358
100
AcDbEntity
  8
0
100
AcDbLine
 62
9
  6
CONTINUOUS
 10
8.6716701638
 20
14.8978581613
 11
8.5006825254
 21
15.0688457997
  0
LINE
  5
359
100
AcDbEntity
  8
0
100
AcDbLine
 62
9
  6
CONTINUOUS
 10
8.4231661813
 20
15.1463621438
 11
8.2100942723
 21
15.3594340529
  0
LINE
  5
35A
100
AcDbEntity
  8
0
100
AcDbLine
 62
9
  6
CONTINUOUS
 10
8.1325591939
 20
15.4369691312
 11
7.8909351665
 21
15.6785931586
  0
LINE
  5
35B
100
AcDbEntity
  8
0
100
AcDbLine
 62
9
  6
CONTINUOUS
 10
7.8134188225
 20
15.7561095027
 11
7.5572093766
 21
16.0123189485
  0
LINE
  5
35C
100
AcDbEntity
  8
0
100
AcDbLine
 62
9
  6
CONTINUOUS
 10
7.4796930326
 20
16.0898352926
 11
7.2234835868
 21
16.3460447384
  0
LINE
  5
35D
100
AcDbEntity
  8
0
100
AcDbLine
 62
9
  6
CONTINUOUS
 10
7.1459672427
 20
16.4235610824
 11
6.9043432153
 21
16.6651851098
  0
LINE
  5
35E
100
AcDbEntity
  8
0
100
AcDbLine
 62
9
  6
CONTINUOUS
 10
6.826808137
 20
16.7427201882
 11
6.6146049289
 21
16.9549233962
  0
LINE
  5
35F
100
AcDbEntity
  8
0
100
AcDbLine
 62
9
  6
CONTINUOUS
 10
6.5362198838
 20
17.0333084413
 11
6.3652322454
 21
17.2042960797
  0
LINE
  5
360
100
AcDbEntity
  8
0
100
AcDbLine
 62
9
  6
CONTINUOUS
 10
6.2868472003
 20
17.2826811248
 11
6.1751299775
 21
17.3943983477
  0
LINE
  5
361
100
AcDbEntity
  8
0
100
AcDbLine
 62
9
  6
CONTINUOUS
 10
9.1578164945
 20
14.4185100441
 11
9.0087950605
 21
14.5675314782
  0
LINE
  5
362
100
AcDbEntity
  8
0
100
AcDbLine
 62
9
  6
CONTINUOUS
 10
8.9515626135
 20
14.6247639252
 11
8.8723088674
 21
14.7040176713
  0
LINE
  5
363
100
AcDbEntity
  8
0
100
AcDbLine
 62
9
  6
CONTINUOUS
 10
8.7543230167
 20
14.822003522
 11
8.6750692706
 21
14.9012572681
  0
LINE
  5
364
100
AcDbEntity
  8
0
100
AcDbLine
 62
9
  6
CONTINUOUS
 10
8.5049503332
 20
15.0713762055
 11
8.4256965871
 21
15.1506299516
  0
LINE
  5
365
100
AcDbEntity
  8
0
100
AcDbLine
 62
9
  6
CONTINUOUS
 10
8.2143433458
 20
15.3619831929
 11
8.1350895997
 21
15.441236939
  0
LINE
  5
366
100
AcDbEntity
  8
0
100
AcDbLine
 62
9
  6
CONTINUOUS
 10
7.8952029743
 20
15.6811235644
 11
7.8159492282
 21
15.7603773105
  0
LINE
  5
367
100
AcDbEntity
  8
0
100
AcDbLine
 62
9
  6
CONTINUOUS
 10
7.5614771844
 20
16.0148493542
 11
7.4822234383
 21
16.0941031003
  0
LINE
  5
368
100
AcDbEntity
  8
0
100
AcDbLine
 62
9
  6
CONTINUOUS
 10
7.2277513946
 20
16.3485751441
 11
7.1484976485
 21
16.4278288902
  0
LINE
  5
369
100
AcDbEntity
  8
0
100
AcDbLine
 62
9
  6
CONTINUOUS
 10
6.9086110231
 20
16.6677155156
 11
6.829357277
 21
16.7469692617
  0
LINE
  5
36A
100
AcDbEntity
  8
0
100
AcDbLine
 62
9
  6
CONTINUOUS
 10
6.6180040357
 20
16.958322503
 11
6.5387502896
 21
17.0375762491
  0
LINE
  5
36B
100
AcDbEntity
  8
0
100
AcDbLine
 62
9
  6
CONTINUOUS
 10
6.3686313522
 20
17.2076951865
 11
6.2893776061
 21
17.2869489326
  0
LINE
  5
36C
100
AcDbEntity
  8
0
100
AcDbLine
 62
9
  6
CONTINUOUS
 10
6.1713917554
 20
17.4049347833
 11
6.0921380093
 21
17.4841885294
  0
LINE
  5
36D
100
AcDbEntity
  8
0
100
AcDbLine
 62
9
  6
CONTINUOUS
 10
6.0349055623
 20
17.5414209764
 11
5.8858841282
 21
17.6904424104
  0
LINE
  5
36E
100
AcDbEntity
  8
0
100
AcDbLine
 62
9
  6
CONTINUOUS
 10
8.9740877588
 20
14.6245650778
 11
8.9635629986
 21
14.635089838
  0
LINE
  5
36F
100
AcDbEntity
  8
0
100
AcDbLine
 62
9
  6
CONTINUOUS
 10
8.8822869108
 20
14.7163659257
 11
8.7663234018
 21
14.8323294347
  0
LINE
  5
370
100
AcDbEntity
  8
0
100
AcDbLine
 62
9
  6
CONTINUOUS
 10
8.6853951834
 20
14.9132576532
 11
8.5169507183
 21
15.0817021182
  0
LINE
  5
371
100
AcDbEntity
  8
0
100
AcDbLine
 62
9
  6
CONTINUOUS
 10
8.4360224999
 20
15.1626303367
 11
8.2263437309
 21
15.3723091057
  0
LINE
  5
372
100
AcDbEntity
  8
0
100
AcDbLine
 62
9
  6
CONTINUOUS
 10
8.1454155124
 20
15.4532373241
 11
7.9072033594
 21
15.6914494771
  0
LINE
  5
373
100
AcDbEntity
  8
0
100
AcDbLine
 62
9
  6
CONTINUOUS
 10
7.826275141
 20
15.7723776956
 11
7.5734775695
 21
16.025175267
  0
LINE
  5
374
100
AcDbEntity
  8
0
100
AcDbLine
 62
9
  6
CONTINUOUS
 10
7.4925493511
 20
16.1061034854
 11
7.2397517797
 21
16.3589010569
  0
LINE
  5
375
100
AcDbEntity
  8
0
100
AcDbLine
 62
9
  6
CONTINUOUS
 10
7.1588235612
 20
16.4398292753
 11
6.9206114082
 21
16.6780414283
  0
LINE
  5
376
100
AcDbEntity
  8
0
100
AcDbLine
 62
9
  6
CONTINUOUS
 10
6.8396831898
 20
16.7589696468
 11
6.6300044208
 21
16.9686484158
  0
LINE
  5
377
100
AcDbEntity
  8
0
100
AcDbLine
 62
9
  6
CONTINUOUS
 10
6.5490762023
 20
17.0495766342
 11
6.3806317373
 21
17.2180210993
  0
LINE
  5
378
100
AcDbEntity
  8
0
100
AcDbLine
 62
9
  6
CONTINUOUS
 10
6.2997035188
 20
17.2989493177
 11
6.1837400098
 21
17.4149128267
  0
LINE
  5
379
100
AcDbEntity
  8
0
100
AcDbLine
 62
9
  6
CONTINUOUS
 10
6.1024639221
 20
17.4961889145
 11
6.0919391619
 21
17.5067136747
  0
LINE
  5
37A
100
AcDbEntity
  8
0
100
AcDbLine
 62
7
  6
CONTINUOUS
 10
6.0483578129
 20
17.5525513337
 11
6.1035074655
 21
17.4974016811
  0
LINE
  5
37B
100
AcDbEntity
  8
0
100
AcDbLine
 62
7
  6
CONTINUOUS
 10
6.1848681648
 20
17.4160409817
 11
6.3007470622
 21
17.3001620844
  0
LINE
  5
37C
100
AcDbEntity
  8
0
100
AcDbLine
 62
7
  6
CONTINUOUS
 10
6.3821427255
 20
17.2187664211
 11
6.5501197457
 21
17.0507894008
  0
LINE
  5
37D
100
AcDbEntity
  8
0
100
AcDbLine
 62
7
  6
CONTINUOUS
 10
6.6315597016
 20
16.969349445
 11
6.8407267331
 21
16.7601824134
  0
LINE
  5
37E
100
AcDbEntity
  8
0
100
AcDbLine
 62
7
  6
CONTINUOUS
 10
6.9218241748
 20
16.6790849717
 11
7.1598671046
 21
16.441042042
  0
LINE
  5
37F
100
AcDbEntity
  8
0
100
AcDbLine
 62
7
  6
CONTINUOUS
 10
7.2409645463
 20
16.3599446003
 11
7.4935928945
 21
16.1073162521
  0
LINE
  5
380
100
AcDbEntity
  8
0
100
AcDbLine
 62
7
  6
CONTINUOUS
 10
7.5746903362
 20
16.0262188104
 11
7.8273186844
 21
15.7735904622
  0
LINE
  5
381
100
AcDbEntity
  8
0
100
AcDbLine
 62
7
  6
CONTINUOUS
 10
7.9084161261
 20
15.6924930205
 11
8.1464590558
 21
15.4544500908
  0
LINE
  5
382
100
AcDbEntity
  8
0
100
AcDbLine
 62
7
  6
CONTINUOUS
 10
8.2275564975
 20
15.373352649
 11
8.4367235291
 21
15.1641856175
  0
LINE
  5
383
100
AcDbEntity
  8
0
100
AcDbLine
 62
7
  6
CONTINUOUS
 10
8.5181634849
 20
15.0827456616
 11
8.6861405052
 21
14.9147686414
  0
LINE
  5
384
100
AcDbEntity
  8
0
100
AcDbLine
 62
7
  6
CONTINUOUS
 10
8.7675361685
 20
14.8333729781
 11
8.8834150658
 21
14.7174940807
  0
LINE
  5
385
100
AcDbEntity
  8
0
100
AcDbLine
 62
7
  6
CONTINUOUS
 10
8.9647757652
 20
14.6361333814
 11
9.0199254178
 21
14.5809837288
  0
LINE
  5
386
100
AcDbEntity
  8
0
100
AcDbLine
 62
9
  6
CONTINUOUS
 10
6.0512667743
 20
17.5554602951
 11
6.1061982547
 21
17.5005288146
  0
LINE
  5
387
100
AcDbEntity
  8
0
100
AcDbLine
 62
9
  6
CONTINUOUS
 10
6.1877771262
 20
17.4189499431
 11
6.3034378515
 21
17.3032892178
  0
LINE
  5
388
100
AcDbEntity
  8
0
100
AcDbLine
 62
9
  6
CONTINUOUS
 10
6.3850516869
 20
17.2216753824
 11
6.552810535
 21
17.0539165343
  0
LINE
  5
389
100
AcDbEntity
  8
0
100
AcDbLine
 62
9
  6
CONTINUOUS
 10
6.634468663
 20
16.9722584063
 11
6.8434175224
 21
16.7633095469
  0
LINE
  5
38A
100
AcDbEntity
  8
0
100
AcDbLine
 62
9
  6
CONTINUOUS
 10
6.9251273901
 20
16.6815996792
 11
7.1625578939
 21
16.4441691754
  0
LINE
  5
38B
100
AcDbEntity
  8
0
100
AcDbLine
 62
9
  6
CONTINUOUS
 10
7.2440916798
 20
16.3626353895
 11
7.4962836838
 21
16.1104433856
  0
LINE
  5
38C
100
AcDbEntity
  8
0
100
AcDbLine
 62
9
  6
CONTINUOUS
 10
7.5778174697
 20
16.0289095997
 11
7.8300094736
 21
15.7767175957
  0
LINE
  5
38D
100
AcDbEntity
  8
0
100
AcDbLine
 62
9
  6
CONTINUOUS
 10
7.9115432595
 20
15.6951838098
 11
8.1489737633
 21
15.457753306
  0
LINE
  5
38E
100
AcDbEntity
  8
0
100
AcDbLine
 62
9
  6
CONTINUOUS
 10
8.230683631
 20
15.3760434383
 11
8.4396324904
 21
15.1670945789
  0
LINE
  5
38F
100
AcDbEntity
  8
0
100
AcDbLine
 62
9
  6
CONTINUOUS
 10
8.5212906184
 20
15.0854364509
 11
8.6890494665
 21
14.9176776028
  0
LINE
  5
390
100
AcDbEntity
  8
0
100
AcDbLine
 62
9
  6
CONTINUOUS
 10
8.7706633019
 20
14.8360637674
 11
8.8863240272
 21
14.7204030421
  0
LINE
  5
391
100
AcDbEntity
  8
0
100
AcDbLine
 62
9
  6
CONTINUOUS
 10
8.9679028987
 20
14.6388241706
 11
9.0228343792
 21
14.5838926902
  0
LINE
  5
392
100
AcDbEntity
  8
0
100
AcDbLine
 62
7
  6
CONTINUOUS
 10
5.6820939458
 20
17.9567309975
 11
9.4241050816
 21
14.2147198617
  0
LINE
  5
393
100
AcDbEntity
  8
0
100
AcDbLine
 62
9
  6
CONTINUOUS
 10
9.4321315813
 20
14.2112497735
 11
5.6786238576
 21
17.9647574972
  0
LINE
  5
394
100
AcDbEntity
  8
0
100
AcDbLine
 62
9
  6
CONTINUOUS
 10
9.7509772828
 20
14.1258153253
 11
5.5931894094
 21
18.2836031987
  0
LINE
  5
395
100
AcDbEntity
  8
0
100
AcDbLine
 62
9
  6
CONTINUOUS
 10
9.7799550576
 20
14.1335798967
 11
5.6009539808
 21
18.3125809735
  0
LINE
  5
396
100
AcDbEntity
  8
0
100
AcDbLine
 62
7
  6
CONTINUOUS
 10
14.2977997941
 20
-0.925108196
 11
14.2977997941
 21
0.174891804
  0
LINE
  5
397
100
AcDbEntity
  8
0
100
AcDbLine
 62
9
  6
CONTINUOUS
 10
14.3577997941
 20
-0.985108196
 11
14.3577997941
 21
0.234891804
  0
LINE
  5
398
100
AcDbEntity
  8
0
100
AcDbLine
 62
7
  6
CONTINUOUS
 10
14.4126327354
 20
5.851891804
 11
14.4126327354
 21
6.651891804
  0
LINE
  5
399
100
AcDbEntity
  8
0
100
AcDbLine
 62
9
  6
CONTINUOUS
 10
14.4326327354
 20
5.831891804
 11
14.4326327354
 21
6.671891804
  0
LINE
  5
39A
100
AcDbEntity
  8
0
100
AcDbLine
 62
9
  6
CONTINUOUS
 10
14.7676327354
 20
5.831891804
 11
14.7676327354
 21
6.671891804
  0
LINE
  5
39B
100
AcDbEntity
  8
0
100
AcDbLine
 62
7
  6
CONTINUOUS
 10
14.7876327354
 20
5.851891804
 11
14.7876327354
 21
6.651891804
  0
LINE
  5
39C
100
AcDbEntity
  8
0
100
AcDbLine
 62
9
  6
CONTINUOUS
 10
14.8076327354
 20
6.521891804
 11
14.8076327354
 21
5.981891804
  0
LINE
  5
39D
100
AcDbEntity
  8
0
100
AcDbLine
 62
9
  6
CONTINUOUS
 10
14.9667997941
 20
5.981891804
 11
14.9667997941
 21
6.521891804
  0
LINE
  5
39E
100
AcDbEntity
  8
0
100
AcDbLine
 62
7
  6
CONTINUOUS
 10
14.9867997941
 20
6.001891804
 11
14.9867997941
 21
6.501891804
  0
LINE
  5
39F
100
AcDbEntity
  8
0
100
AcDbLine
 62
9
  6
CONTINUOUS
 10
10.4012752848
 20
14.7549001239
 11
6.222274208
 21
18.9339012007
  0
LINE
  5
3A0
100
AcDbEntity
  8
0
100
AcDbLine
 62
7
  6
CONTINUOUS
 10
6.2647006149
 20
18.9339012007
 11
10.4012752848
 21
14.7973265308
  0
LINE
  5
3A1
100
AcDbEntity
  8
0
100
AcDbLine
 62
9
  6
CONTINUOUS
 10
7.3218252527
 20
17.9192029697
 11
9.3865770538
 21
15.8544511686
  0
LINE
  5
3A2
100
AcDbEntity
  8
0
100
AcDbLine
 62
9
  6
CONTINUOUS
 10
9.5499187202
 20
16.0177928351
 11
7.4851669192
 21
18.0825446362
  0
LINE
  5
3A3
100
AcDbEntity
  8
0
100
AcDbLine
 62
7
  6
CONTINUOUS
 10
7.5275933261
 20
18.0825446362
 11
9.5499187202
 21
16.060219242
  0
LINE
  5
3A4
100
AcDbEntity
  8
0
100
AcDbLine
 62
9
  6
CONTINUOUS
 10
8.0649944798
 20
17.5875698893
 11
9.0549439734
 21
16.5976203957
  0
LINE
  5
3A5
100
AcDbEntity
  8
0
100
AcDbLine
 62
9
  6
CONTINUOUS
 10
9.1850516212
 20
16.7277280434
 11
8.1951021275
 21
17.7176775371
  0
LINE
  5
3A6
100
AcDbEntity
  8
0
100
AcDbLine
 62
7
  6
CONTINUOUS
 10
8.2233863987
 20
17.7176775371
 11
9.1850516212
 21
16.7560123146
  0
LINE
  5
3A7
100
AcDbEntity
  8
0
100
AcDbLine
 62
7
  6
CONTINUOUS
 10
15.1677997941
 20
7.401891804
 11
15.1677997941
 21
9.441891804
  0
LINE
  5
3A8
100
AcDbEntity
  8
0
100
AcDbLine
 62
9
  6
CONTINUOUS
 10
15.1977997941
 20
7.371891804
 11
15.1977997941
 21
9.471891804
  0
LINE
  5
3A9
100
AcDbEntity
  8
0
100
AcDbLine
 62
7
  6
CONTINUOUS
 10
15.4777997941
 20
-1.320108196
 11
15.4777997941
 21
0.569891804
  0
LINE
  5
3AA
100
AcDbEntity
  8
0
100
AcDbLine
 62
7
  6
CONTINUOUS
 10
15.4777997941
 20
18.439891804
 11
15.4777997941
 21
20.809891804
  0
LINE
  5
3AB
100
AcDbEntity
  8
0
100
AcDbLine
 62
9
  6
CONTINUOUS
 10
15.5177997941
 20
-1.360108196
 11
15.5177997941
 21
0.609891804
  0
LINE
  5
3AC
100
AcDbEntity
  8
0
100
AcDbLine
 62
7
  6
CONTINUOUS
 10
15.5177997941
 20
4.904891804
 11
15.5177997941
 21
10.344891804
  0
LINE
  5
3AD
100
AcDbEntity
  8
0
100
AcDbLine
 62
9
  6
CONTINUOUS
 10
15.5177997941
 20
18.399891804
 11
15.5177997941
 21
20.849891804
  0
LINE
  5
3AE
100
AcDbEntity
  8
0
100
AcDbLine
 62
9
  6
CONTINUOUS
 10
15.5477997941
 20
4.874891804
 11
15.5477997941
 21
10.374891804
  0
LINE
  5
3AF
100
AcDbEntity
  8
0
100
AcDbLine
 62
7
  6
CONTINUOUS
 10
15.8277997941
 20
-1.360108196
 11
15.8277997941
 21
0.609891804
  0
LINE
  5
3B0
100
AcDbEntity
  8
0
100
AcDbLine
 62
7
  6
CONTINUOUS
 10
15.8277997941
 20
4.874891804
 11
15.8277997941
 21
10.374891804
  0
LINE
  5
3B1
100
AcDbEntity
  8
0
100
AcDbLine
 62
7
  6
CONTINUOUS
 10
15.8277997941
 20
18.399891804
 11
15.8277997941
 21
20.849891804
  0
LINE
  5
3B2
100
AcDbEntity
  8
0
100
AcDbLine
 62
7
  6
CONTINUOUS
 10
9.4321315813
 20
14.2112497735
 11
9.7509772828
 21
14.1258153253
  0
LINE
  5
3B3
100
AcDbEntity
  8
0
100
AcDbLine
 62
9
  6
CONTINUOUS
 10
8.2233863987
 20
17.7459618083
 11
9.2133358924
 21
16.7560123146
  0
LINE
  5
3B4
100
AcDbEntity
  8
0
100
AcDbLine
 62
7
  6
CONTINUOUS
 10
9.0357160579
 20
17.2009185124
 11
8.6682925965
 21
17.5683419738
  0
LINE
  5
3B5
100
AcDbEntity
  8
0
100
AcDbLine
 62
7
  6
CONTINUOUS
 10
9.5944664475
 20
17.1371428697
 11
8.6045169538
 21
18.1270923634
  0
LINE
  5
3B6
100
AcDbEntity
  8
0
100
AcDbLine
 62
9
  6
CONTINUOUS
 10
9.4135442976
 20
17.4573908028
 11
8.9247648869
 21
17.9461702135
  0
LINE
  5
3B7
100
AcDbEntity
  8
0
100
AcDbLine
 62
9
  6
CONTINUOUS
 10
9.4935442895
 20
17.5374268829
 11
9.004800967
 21
18.0261702054
  0
LINE
  5
3B8
100
AcDbEntity
  8
0
100
AcDbLine
 62
9
  6
CONTINUOUS
 10
9.004800967
 20
18.0994863702
 11
9.5668604542
 21
17.5374268829
  0
LINE
  5
3B9
100
AcDbEntity
  8
0
100
AcDbLine
 62
9
  6
CONTINUOUS
 10
9.0722392608
 20
18.2200480763
 11
9.6874221604
 21
17.6048651767
  0
LINE
  5
3BA
100
AcDbEntity
  8
0
100
AcDbLine
 62
7
  6
CONTINUOUS
 10
9.9275753164
 20
17.8202695954
 11
9.2876436795
 21
18.4602012324
  0
LINE
  5
3BB
100
AcDbEntity
  8
0
100
AcDbLine
 62
9
  6
CONTINUOUS
 10
10.647294971
 20
18.6053966272
 11
10.0727707113
 21
19.1799208869
  0
LINE
  5
3BC
100
AcDbEntity
  8
0
100
AcDbLine
 62
7
  6
CONTINUOUS
 10
9.4935442895
 20
17.5374268829
 11
9.5668604542
 21
17.5374268829
  0
LINE
  5
3BD
100
AcDbEntity
  8
0
100
AcDbLine
 62
7
  6
CONTINUOUS
 10
9.9063129227
 20
17.9051178566
 11
9.937913564
 21
17.896668424
  0
LINE
  5
3BE
100
AcDbEntity
  8
0
100
AcDbLine
 62
7
  6
CONTINUOUS
 10
9.9581372288
 20
17.954318162
 11
9.987671491
 21
17.9464210235
  0
LINE
  5
3BF
100
AcDbEntity
  8
0
100
AcDbLine
 62
7
  6
CONTINUOUS
 10
10.0099316456
 20
18.0035407453
 11
10.0374314871
 21
17.9961876729
  0
LINE
  5
3C0
100
AcDbEntity
  8
0
100
AcDbLine
 62
7
  6
CONTINUOUS
 10
10.0617677128
 20
18.0527267188
 11
10.0871774675
 21
18.0459324095
  0
LINE
  5
3C1
100
AcDbEntity
  8
0
100
AcDbLine
 62
7
  6
CONTINUOUS
 10
9.937913564
 20
17.896668424
 11
9.9386176499
 21
17.8967193061
  0
LINE
  5
3C2
100
AcDbEntity
  8
0
100
AcDbLine
 62
7
  6
CONTINUOUS
 10
9.9876714924
 20
17.9464210249
 11
9.9883698567
 21
17.9464715129
  0
LINE
  5
3C3
100
AcDbEntity
  8
0
100
AcDbLine
 62
7
  6
CONTINUOUS
 10
10.0374314871
 20
17.9961876729
 11
10.0381369983
 21
17.9962386544
  0
LINE
  5
3C4
100
AcDbEntity
  8
0
100
AcDbLine
 62
7
  6
CONTINUOUS
 10
10.0871774676
 20
18.0459324095
 11
10.0878816431
 21
18.0459832993
  0
LINE
  5
3C5
100
AcDbEntity
  8
0
100
AcDbLine
 62
7
  6
CONTINUOUS
 10
9.3546821006
 20
18.4611435274
 11
9.3539397589
 21
18.4610899345
  0
LINE
  5
3C6
100
AcDbEntity
  8
0
100
AcDbLine
 62
7
  6
CONTINUOUS
 10
9.4060438766
 20
18.5125021654
 11
9.4052980675
 21
18.5124482431
  0
LINE
  5
3C7
100
AcDbEntity
  8
0
100
AcDbLine
 62
7
  6
CONTINUOUS
 10
9.8515613375
 20
17.7442556164
 11
9.8268126001
 21
17.7442556164
  0
LINE
  5
3C8
100
AcDbEntity
  8
0
100
AcDbLine
 62
7
  6
CONTINUOUS
 10
15.5177997941
 20
18.399891804
 11
15.8277997941
 21
18.399891804
  0
LINE
  5
3C9
100
AcDbEntity
  8
0
100
AcDbLine
 62
9
  6
CONTINUOUS
 10
15.4777997941
 20
18.439891804
 11
15.8277997941
 21
18.439891804
  0
LINE
  5
3CA
100
AcDbEntity
  8
0
100
AcDbLine
 62
7
  6
CONTINUOUS
 10
9.3854258354
 20
18.4529241275
 11
9.3546820993
 21
18.4611435261
  0
LINE
  5
3CB
100
AcDbEntity
  8
0
100
AcDbLine
 62
7
  6
CONTINUOUS
 10
9.4344592902
 20
18.5049052325
 11
9.4060438769
 21
18.5125021657
  0
LINE
  5
3CC
100
AcDbEntity
  8
0
100
AcDbLine
 62
7
  6
CONTINUOUS
 10
9.4837156868
 20
18.556663771
 11
9.4572765735
 21
18.5637323512
  0
LINE
  5
3CD
100
AcDbEntity
  8
0
100
AcDbLine
 62
7
  6
CONTINUOUS
 10
9.4572765735
 20
18.5637323512
 11
9.4565280622
 21
18.5636782379
  0
LINE
  5
3CE
100
AcDbEntity
  8
0
100
AcDbLine
 62
7
  6
CONTINUOUS
 10
15.4777997941
 20
19.218641804
 11
12.1277997941
 21
19.218641804
  0
LINE
  5
3CF
100
AcDbEntity
  8
0
100
AcDbLine
 62
7
  6
CONTINUOUS
 10
15.4777997941
 20
20.031141804
 11
12.1277997941
 21
20.031141804
  0
LINE
  5
3D0
100
AcDbEntity
  8
0
100
AcDbLine
 62
9
  6
CONTINUOUS
 10
15.4777997941
 20
20.809891804
 11
15.8277997941
 21
20.809891804
  0
LINE
  5
3D1
100
AcDbEntity
  8
0
100
AcDbLine
 62
7
  6
CONTINUOUS
 10
15.5177997941
 20
20.849891804
 11
15.8277997941
 21
20.849891804
  0
ARC
  5
3D2
100
AcDbEntity
  8
0
100
AcDbCircle
 62
7
  6
CONTINUOUS
 10
2.776353553
 20
13.6748982782
 40
5.0088188863
100
AcDbArc
 50
41.3876153123
 51
41.7452520745
  0
ARC
  5
3D3
100
AcDbEntity
  8
0
100
AcDbCircle
 62
7
  6
CONTINUOUS
 10
5.1422858993
 20
11.3089946985
 40
5.00879851
100
AcDbArc
 50
48.2547474683
 51
48.6123903218
  0
ARC
  5
3D4
100
AcDbEntity
  8
0
100
AcDbCircle
 62
7
  6
CONTINUOUS
 10
2.4752696602
 20
14.7877664067
 40
4.5109055121
100
AcDbArc
 50
39.1963801545
 51
39.7187179274
  0
ARC
  5
3D5
100
AcDbEntity
  8
0
100
AcDbCircle
 62
7
  6
CONTINUOUS
 10
6.5257371983
 20
11.3365181677
 40
4.085214436
100
AcDbArc
 50
50.2552567477
 51
50.8320214294
  0
ARC
  5
3D6
100
AcDbEntity
  8
0
100
AcDbCircle
 62
7
  6
CONTINUOUS
 10
7.1439373471
 20
13.8199829265
 40
1.8132219017
100
AcDbArc
 50
47.1401410087
 51
47.8990033388
  0
ARC
  5
3D7
100
AcDbEntity
  8
0
100
AcDbCircle
 62
7
  6
CONTINUOUS
 10
12.077774424
 20
-3.213108196
 40
3.213
100
AcDbArc
 50
90.0
 51
173.1538786425
  0
ARC
  5
3D8
100
AcDbEntity
  8
0
100
AcDbCircle
 62
7
  6
CONTINUOUS
 10
12.077774424
 20
-3.213108196
 40
2.463
100
AcDbArc
 50
90.0
 51
171.0541218225
  0
ARC
  5
3D9
100
AcDbEntity
  8
0
100
AcDbCircle
 62
7
  6
CONTINUOUS
 10
8.9068892301
 20
14.5191641397
 40
0.125
100
AcDbArc
 50
53.2386408115
 51
57.4803903978
  0
ARC
  5
3DA
100
AcDbEntity
  8
0
100
AcDbCircle
 62
7
  6
CONTINUOUS
 10
10.3800620814
 20
14.7761133273
 40
0.03
100
AcDbArc
 50
315.0
 51
45.0
  0
ARC
  5
3DB
100
AcDbEntity
  8
0
100
AcDbCircle
 62
7
  6
CONTINUOUS
 10
9.4398961526
 20
14.2402275483
 40
0.03
100
AcDbArc
 50
238.2395482929
 51
255.0
  0
ARC
  5
3DC
100
AcDbEntity
  8
0
100
AcDbCircle
 62
7
  6
CONTINUOUS
 10
9.7587418541
 20
14.1547931001
 40
0.03
100
AcDbArc
 50
255.0
 51
315.0
  0
ARC
  5
3DD
100
AcDbEntity
  8
0
100
AcDbCircle
 62
7
  6
CONTINUOUS
 10
8.4876051938
 20
14.9983839977
 40
0.015
100
AcDbArc
 50
225.0
 51
310.7108466712
  0
ARC
  5
3DE
100
AcDbEntity
  8
0
100
AcDbCircle
 62
7
  6
CONTINUOUS
 10
8.8280212958
 20
14.7003943026
 40
0.015
100
AcDbArc
 50
225.0
 51
310.7108466712
  0
ARC
  5
3DF
100
AcDbEntity
  8
0
100
AcDbCircle
 62
7
  6
CONTINUOUS
 10
8.7255882356
 20
14.8028273628
 40
0.015
100
AcDbArc
 50
139.2891533288
 51
225.0
  0
ARC
  5
3E0
100
AcDbEntity
  8
0
100
AcDbCircle
 62
7
  6
CONTINUOUS
 10
8.7836881899
 20
14.7447274085
 40
0.015
100
AcDbArc
 50
225.0
 51
310.7108466712
  0
ARC
  5
3E1
100
AcDbEntity
  8
0
100
AcDbCircle
 62
7
  6
CONTINUOUS
 10
8.5956101458
 20
14.9328054526
 40
0.015
100
AcDbArc
 50
139.2891533288
 51
225.0
  0
ARC
  5
3E2
100
AcDbEntity
  8
0
100
AcDbCircle
 62
7
  6
CONTINUOUS
 10
8.6537101001
 20
14.8747054983
 40
0.015
100
AcDbArc
 50
225.0
 51
310.7108466712
  0
ARC
  5
3E3
100
AcDbEntity
  8
0
100
AcDbCircle
 62
7
  6
CONTINUOUS
 10
9.0899329115
 20
14.4879801615
 40
0.015
100
AcDbArc
 50
191.5559404584
 51
225.0
  0
ARC
  5
3E4
100
AcDbEntity
  8
0
100
AcDbCircle
 62
7
  6
CONTINUOUS
 10
9.1480328658
 20
14.4298802073
 40
0.015
100
AcDbArc
 50
225.0
 51
310.7108466712
  0
ARC
  5
3E5
100
AcDbEntity
  8
0
100
AcDbCircle
 62
7
  6
CONTINUOUS
 10
9.0201652236
 20
14.5577478495
 40
0.015
100
AcDbArc
 50
139.2891533288
 51
225.0
  0
ARC
  5
3E6
100
AcDbEntity
  8
0
100
AcDbCircle
 62
7
  6
CONTINUOUS
 10
9.0782651779
 20
14.4996478952
 40
0.015
100
AcDbArc
 50
225.0
 51
310.7108466712
  0
ARC
  5
3E7
100
AcDbEntity
  8
0
100
AcDbCircle
 62
7
  6
CONTINUOUS
 10
8.8836790305
 20
14.6942340426
 40
0.015
100
AcDbArc
 50
139.2891533288
 51
225.0
  0
ARC
  5
3E8
100
AcDbEntity
  8
0
100
AcDbCircle
 62
7
  6
CONTINUOUS
 10
8.9417789848
 20
14.6361340883
 40
0.015
100
AcDbArc
 50
225.0
 51
310.7108466712
  0
ARC
  5
3E9
100
AcDbEntity
  8
0
100
AcDbCircle
 62
7
  6
CONTINUOUS
 10
8.6864394337
 20
14.8914736393
 40
0.015
100
AcDbArc
 50
139.2891533288
 51
225.0
  0
ARC
  5
3EA
100
AcDbEntity
  8
0
100
AcDbCircle
 62
7
  6
CONTINUOUS
 10
8.744539388
 20
14.8333736851
 40
0.015
100
AcDbArc
 50
225.0
 51
310.7108466712
  0
ARC
  5
3EB
100
AcDbEntity
  8
0
100
AcDbCircle
 62
7
  6
CONTINUOUS
 10
12.5017997941
 20
6.881891804
 40
0.03
100
AcDbArc
 50
180.0
 51
270.0
  0
ARC
  5
3EC
100
AcDbEntity
  8
0
100
AcDbCircle
 62
7
  6
CONTINUOUS
 10
12.5017997941
 20
8.151891804
 40
0.03
100
AcDbArc
 50
180.0
 51
270.0
  0
ARC
  5
3ED
100
AcDbEntity
  8
0
100
AcDbCircle
 62
7
  6
CONTINUOUS
 10
12.8917997941
 20
6.881891804
 40
0.03
100
AcDbArc
 50
270.0
 51
360.0
  0
ARC
  5
3EE
100
AcDbEntity
  8
0
100
AcDbCircle
 62
7
  6
CONTINUOUS
 10
12.8917997941
 20
8.151891804
 40
0.03
100
AcDbArc
 50
270.0
 51
360.0
  0
ARC
  5
3EF
100
AcDbEntity
  8
0
100
AcDbCircle
 62
7
  6
CONTINUOUS
 10
12.9517997941
 20
8.066891804
 40
0.03
100
AcDbArc
 50
90.0
 51
179.9999999966
  0
ARC
  5
3F0
100
AcDbEntity
  8
0
100
AcDbCircle
 62
7
  6
CONTINUOUS
 10
12.8917997941
 20
8.691891804
 40
0.03
100
AcDbArc
 50
0.0
 51
90.0
  0
ARC
  5
3F1
100
AcDbEntity
  8
0
100
AcDbCircle
 62
7
  6
CONTINUOUS
 10
12.5017997941
 20
8.691891804
 40
0.03
100
AcDbArc
 50
90.0
 51
180.0
  0
ARC
  5
3F2
100
AcDbEntity
  8
0
100
AcDbCircle
 62
7
  6
CONTINUOUS
 10
12.8917997941
 20
9.961891804
 40
0.03
100
AcDbArc
 50
0.0
 51
90.0
  0
ARC
  5
3F3
100
AcDbEntity
  8
0
100
AcDbCircle
 62
7
  6
CONTINUOUS
 10
12.5017997941
 20
9.961891804
 40
0.03
100
AcDbArc
 50
90.0
 51
180.0
  0
ARC
  5
3F4
100
AcDbEntity
  8
0
100
AcDbCircle
 62
7
  6
CONTINUOUS
 10
12.9517997941
 20
8.776891804
 40
0.03
100
AcDbArc
 50
180.0000000034
 51
270.0
  0
ARC
  5
3F5
100
AcDbEntity
  8
0
100
AcDbCircle
 62
7
  6
CONTINUOUS
 10
13.5277997941
 20
7.781891804
 40
0.03
100
AcDbArc
 50
180.0
 51
270.0
  0
ARC
  5
3F6
100
AcDbEntity
  8
0
100
AcDbCircle
 62
7
  6
CONTINUOUS
 10
13.5277997941
 20
9.061891804
 40
0.03
100
AcDbArc
 50
90.0
 51
180.0
  0
ARC
  5
3F7
100
AcDbEntity
  8
0
100
AcDbCircle
 62
7
  6
CONTINUOUS
 10
5.2241550234
 20
15.6186890174
 40
1.8989167788
100
AcDbArc
 50
42.1181199713
 51
42.8427355333
  0
ARC
  5
3F8
100
AcDbEntity
  8
0
100
AcDbCircle
 62
7
  6
CONTINUOUS
 10
6.5878312395
 20
16.3886544202
 40
0.3876922607
100
AcDbArc
 50
39.9137820933
 51
40.1687881664
  0
ARC
  5
3F9
100
AcDbEntity
  8
0
100
AcDbCircle
 62
7
  6
CONTINUOUS
 10
6.7369893456
 20
16.7136445069
 40
0.015
100
AcDbArc
 50
139.2891533288
 51
225.0
  0
ARC
  5
3FA
100
AcDbEntity
  8
0
100
AcDbCircle
 62
7
  6
CONTINUOUS
 10
6.7950892999
 20
16.6555445526
 40
0.015
100
AcDbArc
 50
225.0
 51
310.7108466712
  0
ARC
  5
3FB
100
AcDbEntity
  8
0
100
AcDbCircle
 62
7
  6
CONTINUOUS
 10
6.8298290042
 20
16.6208048483
 40
0.015
100
AcDbArc
 50
139.2891533288
 51
225.0
  0
ARC
  5
3FC
100
AcDbEntity
  8
0
100
AcDbCircle
 62
7
  6
CONTINUOUS
 10
6.8879289584
 20
16.562704894
 40
0.015
100
AcDbArc
 50
225.0
 51
310.7108466712
  0
ARC
  5
3FD
100
AcDbEntity
  8
0
100
AcDbCircle
 62
7
  6
CONTINUOUS
 10
6.5238580361
 20
16.9621311554
 40
0.015
100
AcDbArc
 50
225.0
 51
310.7108466712
  0
ARC
  5
3FE
100
AcDbEntity
  8
0
100
AcDbCircle
 62
7
  6
CONTINUOUS
 10
6.8067591971
 20
16.6792299944
 40
0.015
100
AcDbArc
 50
139.2891533288
 51
225.0
  0
ARC
  5
3FF
100
AcDbEntity
  8
0
100
AcDbCircle
 62
7
  6
CONTINUOUS
 10
6.8648591514
 20
16.6211300401
 40
0.015
100
AcDbArc
 50
225.0
 51
310.7108466712
  0
ARC
  5
400
100
AcDbEntity
  8
0
100
AcDbCircle
 62
7
  6
CONTINUOUS
 10
6.5841865263
 20
16.9018026652
 40
0.015
100
AcDbArc
 50
139.2891533288
 51
225.0
  0
ARC
  5
401
100
AcDbEntity
  8
0
100
AcDbCircle
 62
7
  6
CONTINUOUS
 10
6.6422864806
 20
16.8437027109
 40
0.015
100
AcDbArc
 50
225.0
 51
310.7108466712
  0
ARC
  5
402
100
AcDbEntity
  8
0
100
AcDbCircle
 62
7
  6
CONTINUOUS
 10
6.8183066254
 20
16.710108973
 40
0.015
100
AcDbArc
 50
139.2891533288
 51
225.0
  0
ARC
  5
403
100
AcDbEntity
  8
0
100
AcDbCircle
 62
7
  6
CONTINUOUS
 10
6.8764065797
 20
16.6520090187
 40
0.015
100
AcDbArc
 50
225.0
 51
310.7108466712
  0
ARC
  5
404
100
AcDbEntity
  8
0
100
AcDbCircle
 62
7
  6
CONTINUOUS
 10
6.5488448641
 20
16.9795707343
 40
0.015
100
AcDbArc
 50
139.2891533288
 51
225.0
  0
ARC
  5
405
100
AcDbEntity
  8
0
100
AcDbCircle
 62
7
  6
CONTINUOUS
 10
6.6069448184
 20
16.92147078
 40
0.015
100
AcDbArc
 50
225.0
 51
310.7108466712
  0
ARC
  5
406
100
AcDbEntity
  8
0
100
AcDbCircle
 62
7
  6
CONTINUOUS
 10
6.8407274401
 20
16.737185633
 40
0.015
100
AcDbArc
 50
139.2891533288
 51
225.0
  0
ARC
  5
407
100
AcDbEntity
  8
0
100
AcDbCircle
 62
7
  6
CONTINUOUS
 10
6.8988273944
 20
16.6790856787
 40
0.015
100
AcDbArc
 50
225.0
 51
310.7108466712
  0
ARC
  5
408
100
AcDbEntity
  8
0
100
AcDbCircle
 62
7
  6
CONTINUOUS
 10
6.608220407
 20
16.9696926661
 40
0.015
100
AcDbArc
 50
225.0
 51
310.7108466712
  0
ARC
  5
409
100
AcDbEntity
  8
0
100
AcDbCircle
 62
7
  6
CONTINUOUS
 10
7.8497161321
 20
15.1129453712
 40
0.3975041147
100
AcDbArc
 50
49.834359049
 51
50.0830314678
  0
ARC
  5
40A
100
AcDbEntity
  8
0
100
AcDbCircle
 62
7
  6
CONTINUOUS
 10
7.8149495949
 20
15.6174383304
 40
0.0961212961
100
AcDbArc
 50
38.4793975034
 51
39.107840052
  0
ARC
  5
40B
100
AcDbEntity
  8
0
100
AcDbCircle
 62
7
  6
CONTINUOUS
 10
7.759687763
 20
15.6768039539
 40
0.015
100
AcDbArc
 50
139.2891533288
 51
225.0
  0
ARC
  5
40C
100
AcDbEntity
  8
0
100
AcDbCircle
 62
7
  6
CONTINUOUS
 10
7.8177877172
 20
15.6187039996
 40
0.015
100
AcDbArc
 50
225.0
 51
295.5934608152
  0
ARC
  5
40D
100
AcDbEntity
  8
0
100
AcDbCircle
 62
7
  6
CONTINUOUS
 10
7.4228829233
 20
16.0136087935
 40
0.015
100
AcDbArc
 50
139.2891533288
 51
225.0
  0
ARC
  5
40E
100
AcDbEntity
  8
0
100
AcDbCircle
 62
7
  6
CONTINUOUS
 10
7.4809828776
 20
15.9555088392
 40
0.015
100
AcDbArc
 50
225.0
 51
310.7108466712
  0
ARC
  5
40F
100
AcDbEntity
  8
0
100
AcDbCircle
 62
7
  6
CONTINUOUS
 10
8.1229186367
 20
15.3277152158
 40
0.015
100
AcDbArc
 50
139.2891533288
 51
225.0
  0
ARC
  5
410
100
AcDbEntity
  8
0
100
AcDbCircle
 62
7
  6
CONTINUOUS
 10
8.181018591
 20
15.2696152615
 40
0.015
100
AcDbArc
 50
225.0
 51
310.7108466712
  0
ARC
  5
411
100
AcDbEntity
  8
0
100
AcDbCircle
 62
7
  6
CONTINUOUS
 10
8.0300789781
 20
15.4205548743
 40
0.015
100
AcDbArc
 50
139.2891533288
 51
225.0
  0
ARC
  5
412
100
AcDbEntity
  8
0
100
AcDbCircle
 62
7
  6
CONTINUOUS
 10
8.0881789324
 20
15.3624549201
 40
0.015
100
AcDbArc
 50
225.0
 51
310.7108466712
  0
ARC
  5
413
100
AcDbEntity
  8
0
100
AcDbCircle
 62
7
  6
CONTINUOUS
 10
7.7764363139
 20
15.6741975385
 40
0.015
100
AcDbArc
 50
139.2891533288
 51
225.0
  0
ARC
  5
414
100
AcDbEntity
  8
0
100
AcDbCircle
 62
7
  6
CONTINUOUS
 10
7.8345362682
 20
15.6160975843
 40
0.015
100
AcDbArc
 50
225.0
 51
310.7108466712
  0
ARC
  5
415
100
AcDbEntity
  8
0
100
AcDbCircle
 62
7
  6
CONTINUOUS
 10
7.4880539454
 20
15.962579907
 40
0.015
100
AcDbArc
 50
225.0
 51
310.7108466712
  0
ARC
  5
416
100
AcDbEntity
  8
0
100
AcDbCircle
 62
7
  6
CONTINUOUS
 10
8.4295052395
 20
15.056483952
 40
0.015
100
AcDbArc
 50
139.2891533288
 51
225.0
  0
ARC
  5
417
100
AcDbEntity
  8
0
100
AcDbCircle
 62
7
  6
CONTINUOUS
 10
8.311076795
 20
15.1749123965
 40
0.015
100
AcDbArc
 50
139.2891533288
 51
225.0
  0
ARC
  5
418
100
AcDbEntity
  8
0
100
AcDbCircle
 62
7
  6
CONTINUOUS
 10
8.3691767493
 20
15.1168124422
 40
0.015
100
AcDbArc
 50
225.0
 51
310.7108466712
  0
ARC
  5
419
100
AcDbEntity
  8
0
100
AcDbCircle
 62
7
  6
CONTINUOUS
 10
8.0885041242
 20
15.3974850673
 40
0.015
100
AcDbArc
 50
139.2891533288
 51
225.0
  0
ARC
  5
41A
100
AcDbEntity
  8
0
100
AcDbCircle
 62
7
  6
CONTINUOUS
 10
8.1466040785
 20
15.3393851131
 40
0.015
100
AcDbArc
 50
225.0
 51
310.7108466712
  0
ARC
  5
41B
100
AcDbEntity
  8
0
100
AcDbCircle
 62
7
  6
CONTINUOUS
 10
7.788632776
 20
15.6973564155
 40
0.015
100
AcDbArc
 50
139.2891533288
 51
225.0
  0
ARC
  5
41C
100
AcDbEntity
  8
0
100
AcDbCircle
 62
7
  6
CONTINUOUS
 10
7.8467327303
 20
15.6392564612
 40
0.015
100
AcDbArc
 50
225.0
 51
310.7108466712
  0
ARC
  5
41D
100
AcDbEntity
  8
0
100
AcDbCircle
 62
7
  6
CONTINUOUS
 10
7.5057316149
 20
15.9802575766
 40
0.015
100
AcDbArc
 50
225.0
 51
310.7108466712
  0
ARC
  5
41E
100
AcDbEntity
  8
0
100
AcDbCircle
 62
7
  6
CONTINUOUS
 10
8.3888448641
 20
15.1395707343
 40
0.015
100
AcDbArc
 50
139.2891533288
 51
225.0
  0
ARC
  5
41F
100
AcDbEntity
  8
0
100
AcDbCircle
 62
7
  6
CONTINUOUS
 10
8.4469448184
 20
15.08147078
 40
0.015
100
AcDbArc
 50
225.0
 51
310.7108466712
  0
ARC
  5
420
100
AcDbEntity
  8
0
100
AcDbCircle
 62
7
  6
CONTINUOUS
 10
8.1193831028
 20
15.4090324956
 40
0.015
100
AcDbArc
 50
139.2891533288
 51
225.0
  0
ARC
  5
421
100
AcDbEntity
  8
0
100
AcDbCircle
 62
7
  6
CONTINUOUS
 10
8.1774830571
 20
15.3509325413
 40
0.015
100
AcDbArc
 50
225.0
 51
310.7108466712
  0
ARC
  5
422
100
AcDbEntity
  8
0
100
AcDbCircle
 62
7
  6
CONTINUOUS
 10
7.8055882356
 20
15.7228273628
 40
0.015
100
AcDbArc
 50
139.2891533288
 51
225.0
  0
ARC
  5
423
100
AcDbEntity
  8
0
100
AcDbCircle
 62
7
  6
CONTINUOUS
 10
7.8636881899
 20
15.6647274085
 40
0.015
100
AcDbArc
 50
225.0
 51
310.7108466712
  0
ARC
  5
424
100
AcDbEntity
  8
0
100
AcDbCircle
 62
7
  6
CONTINUOUS
 10
7.5269448184
 20
16.00147078
 40
0.015
100
AcDbArc
 50
225.0
 51
310.7108466712
  0
ARC
  5
425
100
AcDbEntity
  8
0
100
AcDbCircle
 62
7
  6
CONTINUOUS
 10
8.4370667502
 20
15.1408463229
 40
0.015
100
AcDbArc
 50
139.2891533288
 51
225.0
  0
ARC
  5
426
100
AcDbEntity
  8
0
100
AcDbCircle
 62
7
  6
CONTINUOUS
 10
8.4951667045
 20
15.0827463686
 40
0.015
100
AcDbArc
 50
225.0
 51
310.7108466712
  0
ARC
  5
427
100
AcDbEntity
  8
0
100
AcDbCircle
 62
7
  6
CONTINUOUS
 10
8.1464597628
 20
15.4314533103
 40
0.015
100
AcDbArc
 50
139.2891533288
 51
225.0
  0
ARC
  5
428
100
AcDbEntity
  8
0
100
AcDbCircle
 62
7
  6
CONTINUOUS
 10
8.2045597171
 20
15.373353356
 40
0.015
100
AcDbArc
 50
225.0
 51
310.7108466712
  0
ARC
  5
429
100
AcDbEntity
  8
0
100
AcDbCircle
 62
7
  6
CONTINUOUS
 10
7.8273193913
 20
15.7505936818
 40
0.015
100
AcDbArc
 50
139.2891533288
 51
225.0
  0
ARC
  5
42A
100
AcDbEntity
  8
0
100
AcDbCircle
 62
7
  6
CONTINUOUS
 10
7.8854193456
 20
15.6924937275
 40
0.015
100
AcDbArc
 50
225.0
 51
310.7108466712
  0
ARC
  5
42B
100
AcDbEntity
  8
0
100
AcDbCircle
 62
7
  6
CONTINUOUS
 10
8.5957075631
 20
16.2938066624
 40
1.0
100
AcDbArc
 50
226.4451003487
 51
232.6351766403
  0
ARC
  5
42C
100
AcDbEntity
  8
0
100
AcDbCircle
 62
7
  6
CONTINUOUS
 10
7.0828960481
 20
16.3451910863
 40
0.0991803257
100
AcDbArc
 50
50.9003358324
 51
51.5154697585
  0
ARC
  5
42D
100
AcDbEntity
  8
0
100
AcDbCircle
 62
7
  6
CONTINUOUS
 10
7.0860780837
 20
16.3504136331
 40
0.015
100
AcDbArc
 50
154.4065391848
 51
225.0
  0
ARC
  5
42E
100
AcDbEntity
  8
0
100
AcDbCircle
 62
7
  6
CONTINUOUS
 10
7.144178038
 20
16.2923136789
 40
0.015
100
AcDbArc
 50
225.0
 51
310.7108466712
  0
ARC
  5
42F
100
AcDbEntity
  8
0
100
AcDbCircle
 62
7
  6
CONTINUOUS
 10
7.4299539911
 20
16.0206798613
 40
0.015
100
AcDbArc
 50
139.2891533288
 51
225.0
  0
ARC
  5
430
100
AcDbEntity
  8
0
100
AcDbCircle
 62
7
  6
CONTINUOUS
 10
7.0834716684
 20
16.3671621841
 40
0.015
100
AcDbArc
 50
139.2891533288
 51
225.0
  0
ARC
  5
431
100
AcDbEntity
  8
0
100
AcDbCircle
 62
7
  6
CONTINUOUS
 10
7.1415716226
 20
16.3090622298
 40
0.015
100
AcDbArc
 50
225.0
 51
310.7108466712
  0
ARC
  5
432
100
AcDbEntity
  8
0
100
AcDbCircle
 62
7
  6
CONTINUOUS
 10
7.4476316607
 20
16.0383575309
 40
0.015
100
AcDbArc
 50
139.2891533288
 51
225.0
  0
ARC
  5
433
100
AcDbEntity
  8
0
100
AcDbCircle
 62
7
  6
CONTINUOUS
 10
7.1066305453
 20
16.3793586462
 40
0.015
100
AcDbArc
 50
139.2891533288
 51
225.0
  0
ARC
  5
434
100
AcDbEntity
  8
0
100
AcDbCircle
 62
7
  6
CONTINUOUS
 10
7.1647304996
 20
16.3212586919
 40
0.015
100
AcDbArc
 50
225.0
 51
310.7108466712
  0
ARC
  5
435
100
AcDbEntity
  8
0
100
AcDbCircle
 62
7
  6
CONTINUOUS
 10
7.4688448641
 20
16.0595707343
 40
0.015
100
AcDbArc
 50
139.2891533288
 51
225.0
  0
ARC
  5
436
100
AcDbEntity
  8
0
100
AcDbCircle
 62
7
  6
CONTINUOUS
 10
7.1321014926
 20
16.3963141058
 40
0.015
100
AcDbArc
 50
139.2891533288
 51
225.0
  0
ARC
  5
437
100
AcDbEntity
  8
0
100
AcDbCircle
 62
7
  6
CONTINUOUS
 10
7.1902014469
 20
16.3382141515
 40
0.015
100
AcDbArc
 50
225.0
 51
310.7108466712
  0
ARC
  5
438
100
AcDbEntity
  8
0
100
AcDbCircle
 62
7
  6
CONTINUOUS
 10
7.4935936014
 20
16.0843194716
 40
0.015
100
AcDbArc
 50
139.2891533288
 51
225.0
  0
ARC
  5
439
100
AcDbEntity
  8
0
100
AcDbCircle
 62
7
  6
CONTINUOUS
 10
7.5516935557
 20
16.0262195173
 40
0.015
100
AcDbArc
 50
225.0
 51
310.7108466712
  0
ARC
  5
43A
100
AcDbEntity
  8
0
100
AcDbCircle
 62
7
  6
CONTINUOUS
 10
7.1598678116
 20
16.4180452615
 40
0.015
100
AcDbArc
 50
139.2891533288
 51
225.0
  0
ARC
  5
43B
100
AcDbEntity
  8
0
100
AcDbCircle
 62
7
  6
CONTINUOUS
 10
7.2179677659
 20
16.3599453072
 40
0.015
100
AcDbArc
 50
225.0
 51
310.7108466712
  0
ARC
  5
43C
100
AcDbEntity
  8
0
100
AcDbCircle
 62
7
  6
CONTINUOUS
 10
7.7611807465
 20
17.128333479
 40
1.0
100
AcDbArc
 50
217.3648233597
 51
223.5548996513
  0
ARC
  5
43D
100
AcDbEntity
  8
0
100
AcDbCircle
 62
7
  6
CONTINUOUS
 10
7.4807536885
 20
17.4285084608
 40
1.0
100
AcDbArc
 50
215.6146107376
 51
222.549018051
  0
ARC
  5
43E
100
AcDbEntity
  8
0
100
AcDbCircle
 62
7
  6
CONTINUOUS
 10
7.2054038088
 20
17.7338260159
 40
1.0
100
AcDbArc
 50
217.7862094089
 51
221.542266468
  0
ARC
  5
43F
100
AcDbEntity
  8
0
100
AcDbCircle
 62
7
  6
CONTINUOUS
 10
6.9351466664
 20
18.0443019041
 40
1.0
100
AcDbArc
 50
219.9076933185
 51
220.5343308342
  0
ARC
  5
440
100
AcDbEntity
  8
0
100
AcDbCircle
 62
7
  6
CONTINUOUS
 10
6.9351466664
 20
18.0443019041
 40
1.0
100
AcDbArc
 50
212.5196096022
 51
213.3992494667
  0
ARC
  5
441
100
AcDbEntity
  8
0
100
AcDbCircle
 62
7
  6
CONTINUOUS
 10
7.0082557763
 20
17.9592196739
 40
1.0
100
AcDbArc
 50
224.442736359
 51
225.0
  0
ARC
  5
442
100
AcDbEntity
  8
0
100
AcDbCircle
 62
7
  6
CONTINUOUS
 10
5.9865382238
 20
17.439515146
 40
0.125
100
AcDbArc
 50
32.5196096022
 51
36.7613591885
  0
ARC
  5
443
100
AcDbEntity
  8
0
100
AcDbCircle
 62
7
  6
CONTINUOUS
 10
8.0437812763
 20
17.6087830928
 40
0.03
100
AcDbArc
 50
225.0
 51
315.0
  0
ARC
  5
444
100
AcDbEntity
  8
0
100
AcDbCircle
 62
7
  6
CONTINUOUS
 10
7.5063801226
 20
18.0613314327
 40
0.03
100
AcDbArc
 50
45.0
 51
135.0
  0
ARC
  5
445
100
AcDbEntity
  8
0
100
AcDbCircle
 62
7
  6
CONTINUOUS
 10
7.3006120493
 20
17.9404161731
 40
0.03
100
AcDbArc
 50
225.0
 51
315.0
  0
ARC
  5
446
100
AcDbEntity
  8
0
100
AcDbCircle
 62
7
  6
CONTINUOUS
 10
6.2434874114
 20
18.9126879973
 40
0.03
100
AcDbArc
 50
45.0
 51
135.0
  0
ARC
  5
447
100
AcDbEntity
  8
0
100
AcDbCircle
 62
7
  6
CONTINUOUS
 10
5.7076016324
 20
17.9725220685
 40
0.03
100
AcDbArc
 50
195.0
 51
211.7604517071
  0
ARC
  5
448
100
AcDbEntity
  8
0
100
AcDbCircle
 62
7
  6
CONTINUOUS
 10
5.6221671842
 20
18.29136777
 40
0.03
100
AcDbArc
 50
135.0
 51
195.0
  0
ARC
  5
449
100
AcDbEntity
  8
0
100
AcDbCircle
 62
7
  6
CONTINUOUS
 10
8.2375285344
 20
17.7318196727
 40
0.02
100
AcDbArc
 50
135.0
 51
225.0
  0
ARC
  5
44A
100
AcDbEntity
  8
0
100
AcDbCircle
 62
7
  6
CONTINUOUS
 10
8.2092442631
 20
17.7035354014
 40
0.02
100
AcDbArc
 50
45.0
 51
135.0
  0
ARC
  5
44B
100
AcDbEntity
  8
0
100
AcDbCircle
 62
7
  6
CONTINUOUS
 10
6.4657580818
 20
17.0202311097
 40
0.015
100
AcDbArc
 50
139.2891533288
 51
225.0
  0
ARC
  5
44C
100
AcDbEntity
  8
0
100
AcDbCircle
 62
7
  6
CONTINUOUS
 10
6.2121014926
 20
17.3163141058
 40
0.015
100
AcDbArc
 50
139.2891533288
 51
225.0
  0
ARC
  5
44D
100
AcDbEntity
  8
0
100
AcDbCircle
 62
7
  6
CONTINUOUS
 10
6.2702014469
 20
17.2582141515
 40
0.015
100
AcDbArc
 50
225.0
 51
310.7108466712
  0
ARC
  5
44E
100
AcDbEntity
  8
0
100
AcDbCircle
 62
7
  6
CONTINUOUS
 10
6.1677683867
 20
17.3606472117
 40
0.015
100
AcDbArc
 50
139.2891533288
 51
225.0
  0
ARC
  5
44F
100
AcDbEntity
  8
0
100
AcDbCircle
 62
7
  6
CONTINUOUS
 10
6.3420795824
 20
17.186336016
 40
0.015
100
AcDbArc
 50
139.2891533288
 51
225.0
  0
ARC
  5
450
100
AcDbEntity
  8
0
100
AcDbCircle
 62
7
  6
CONTINUOUS
 10
6.4001795367
 20
17.1282360617
 40
0.015
100
AcDbArc
 50
225.0
 51
310.7108466712
  0
ARC
  5
451
100
AcDbEntity
  8
0
100
AcDbCircle
 62
7
  6
CONTINUOUS
 10
5.9670219793
 20
17.6108910938
 40
0.015
100
AcDbArc
 50
139.2891533288
 51
225.0
  0
ARC
  5
452
100
AcDbEntity
  8
0
100
AcDbCircle
 62
7
  6
CONTINUOUS
 10
6.0251219336
 20
17.5527911395
 40
0.015
100
AcDbArc
 50
225.0
 51
310.7108466712
  0
ARC
  5
453
100
AcDbEntity
  8
0
100
AcDbCircle
 62
7
  6
CONTINUOUS
 10
5.8972542913
 20
17.6806587817
 40
0.015
100
AcDbArc
 50
139.2891533288
 51
225.0
  0
ARC
  5
454
100
AcDbEntity
  8
0
100
AcDbCircle
 62
7
  6
CONTINUOUS
 10
5.9553542456
 20
17.6225588274
 40
0.015
100
AcDbArc
 50
225.0
 51
258.4440595416
  0
ARC
  5
455
100
AcDbEntity
  8
0
100
AcDbCircle
 62
7
  6
CONTINUOUS
 10
6.5501204527
 20
17.0277926204
 40
0.015
100
AcDbArc
 50
139.2891533288
 51
225.0
  0
ARC
  5
456
100
AcDbEntity
  8
0
100
AcDbCircle
 62
7
  6
CONTINUOUS
 10
6.3007477692
 20
17.2771653039
 40
0.015
100
AcDbArc
 50
139.2891533288
 51
225.0
  0
ARC
  5
457
100
AcDbEntity
  8
0
100
AcDbCircle
 62
7
  6
CONTINUOUS
 10
6.3588477234
 20
17.2190653496
 40
0.015
100
AcDbArc
 50
225.0
 51
310.7108466712
  0
ARC
  5
458
100
AcDbEntity
  8
0
100
AcDbCircle
 62
7
  6
CONTINUOUS
 10
6.1035081724
 20
17.4744049007
 40
0.015
100
AcDbArc
 50
139.2891533288
 51
225.0
  0
ARC
  5
459
100
AcDbEntity
  8
0
100
AcDbCircle
 62
7
  6
CONTINUOUS
 10
6.1616081267
 20
17.4163049464
 40
0.015
100
AcDbArc
 50
225.0
 51
310.7108466712
  0
ARC
  5
45A
100
AcDbEntity
  8
0
100
AcDbCircle
 62
7
  6
CONTINUOUS
 10
8.8958825449
 20
16.0133796044
 40
1.0
100
AcDbArc
 50
227.450981949
 51
234.3853892624
  0
ARC
  5
45B
100
AcDbEntity
  8
0
100
AcDbCircle
 62
7
  6
CONTINUOUS
 10
9.2012001
 20
15.7380297247
 40
1.0
100
AcDbArc
 50
228.457733532
 51
232.2137905911
  0
ARC
  5
45C
100
AcDbEntity
  8
0
100
AcDbCircle
 62
7
  6
CONTINUOUS
 10
9.5116759882
 20
15.4677725823
 40
1.0
100
AcDbArc
 50
229.4656691658
 51
230.0923066815
  0
ARC
  5
45D
100
AcDbEntity
  8
0
100
AcDbCircle
 62
7
  6
CONTINUOUS
 10
9.5116759882
 20
15.4677725823
 40
1.0
100
AcDbArc
 50
236.6007505333
 51
237.4803903978
  0
ARC
  5
45E
100
AcDbEntity
  8
0
100
AcDbCircle
 62
7
  6
CONTINUOUS
 10
9.426593758
 20
15.5408816922
 40
1.0
100
AcDbArc
 50
225.0
 51
225.557263641
  0
ARC
  5
45F
100
AcDbEntity
  8
0
100
AcDbCircle
 62
7
  6
CONTINUOUS
 10
9.0761571769
 20
16.5764071922
 40
0.03
100
AcDbArc
 50
135.0
 51
225.0
  0
ARC
  5
460
100
AcDbEntity
  8
0
100
AcDbCircle
 62
7
  6
CONTINUOUS
 10
9.5287055168
 20
16.0390060385
 40
0.03
100
AcDbArc
 50
315.0
 51
45.0
  0
ARC
  5
461
100
AcDbEntity
  8
0
100
AcDbCircle
 62
7
  6
CONTINUOUS
 10
9.4077902572
 20
15.8332379652
 40
0.03
100
AcDbArc
 50
135.0
 51
225.0
  0
ARC
  5
462
100
AcDbEntity
  8
0
100
AcDbCircle
 62
7
  6
CONTINUOUS
 10
9.1991937568
 20
16.7701544503
 40
0.02
100
AcDbArc
 50
225.0
 51
315.0
  0
ARC
  5
463
100
AcDbEntity
  8
0
100
AcDbCircle
 62
7
  6
CONTINUOUS
 10
9.1709094855
 20
16.741870179
 40
0.02
100
AcDbArc
 50
315.0
 51
45.0
  0
ARC
  5
464
100
AcDbEntity
  8
0
100
AcDbCircle
 62
7
  6
CONTINUOUS
 10
12.1277997941
 20
17.124891804
 40
2.90625
100
AcDbArc
 50
90.0
 51
135.0
  0
ARC
  5
465
100
AcDbEntity
  8
0
100
AcDbCircle
 62
7
  6
CONTINUOUS
 10
12.1277997941
 20
17.124891804
 40
2.09375
100
AcDbArc
 50
90.0
 51
135.0
  0
ARC
  5
466
100
AcDbEntity
  8
0
100
AcDbCircle
 62
7
  6
CONTINUOUS
 10
8.9245443473
 20
17.4571702632
 40
0.489
100
AcDbArc
 50
345.394893546
 51
0.0258404644
  0
ARC
  5
467
100
AcDbEntity
  8
0
100
AcDbCircle
 62
7
  6
CONTINUOUS
 10
8.9245443473
 20
17.4571702632
 40
0.489
100
AcDbArc
 50
89.9741595356
 51
104.605106454
  0
ARC
  5
468
100
AcDbEntity
  8
0
100
AcDbCircle
 62
7
  6
CONTINUOUS
 10
9.192800967
 20
18.0994863702
 40
0.188
100
AcDbArc
 50
159.9175653171
 51
180.0
  0
ARC
  5
469
100
AcDbEntity
  8
0
100
AcDbCircle
 62
7
  6
CONTINUOUS
 10
9.5668604542
 20
17.7254268829
 40
0.188
100
AcDbArc
 50
270.0
 51
290.0824346829
  0
ARC
  5
46A
100
AcDbEntity
  8
0
100
AcDbCircle
 62
7
  6
CONTINUOUS
 10
9.4935442895
 20
17.4574268829
 40
0.08
100
AcDbArc
 50
90.0
 51
180.0258404644
  0
ARC
  5
46B
100
AcDbEntity
  8
0
100
AcDbCircle
 62
7
  6
CONTINUOUS
 10
8.924800967
 20
18.0261702054
 40
0.08
100
AcDbArc
 50
269.9741595356
 51
360.0
  0
ARC
  5
46C
100
AcDbEntity
  8
0
100
AcDbCircle
 62
7
  6
CONTINUOUS
 10
14.3577997941
 20
0.174891804
 40
0.06
100
AcDbArc
 50
90.0
 51
180.0
  0
ARC
  5
46D
100
AcDbEntity
  8
0
100
AcDbCircle
 62
7
  6
CONTINUOUS
 10
14.3577997941
 20
-0.925108196
 40
0.06
100
AcDbArc
 50
180.0
 51
270.0
  0
ARC
  5
46E
100
AcDbEntity
  8
0
100
AcDbCircle
 62
7
  6
CONTINUOUS
 10
15.5177997941
 20
-1.320108196
 40
0.04
100
AcDbArc
 50
180.0
 51
270.0
  0
ARC
  5
46F
100
AcDbEntity
  8
0
100
AcDbCircle
 62
7
  6
CONTINUOUS
 10
15.5177997941
 20
0.569891804
 40
0.04
100
AcDbArc
 50
90.0
 51
180.0
  0
ARC
  5
470
100
AcDbEntity
  8
0
100
AcDbCircle
 62
7
  6
CONTINUOUS
 10
15.5477997941
 20
10.344891804
 40
0.03
100
AcDbArc
 50
90.0
 51
180.0
  0
ARC
  5
471
100
AcDbEntity
  8
0
100
AcDbCircle
 62
7
  6
CONTINUOUS
 10
15.5477997941
 20
4.904891804
 40
0.03
100
AcDbArc
 50
180.0
 51
270.0
  0
ARC
  5
472
100
AcDbEntity
  8
0
100
AcDbCircle
 62
7
  6
CONTINUOUS
 10
15.1977997941
 20
9.441891804
 40
0.03
100
AcDbArc
 50
90.0
 51
180.0
  0
ARC
  5
473
100
AcDbEntity
  8
0
100
AcDbCircle
 62
7
  6
CONTINUOUS
 10
15.1977997941
 20
7.401891804
 40
0.03
100
AcDbArc
 50
180.0
 51
270.0
  0
ARC
  5
474
100
AcDbEntity
  8
0
100
AcDbCircle
 62
7
  6
CONTINUOUS
 10
14.7676327354
 20
5.851891804
 40
0.02
100
AcDbArc
 50
270.0
 51
360.0
  0
ARC
  5
475
100
AcDbEntity
  8
0
100
AcDbCircle
 62
7
  6
CONTINUOUS
 10
14.7676327354
 20
6.651891804
 40
0.02
100
AcDbArc
 50
0.0
 51
90.0
  0
ARC
  5
476
100
AcDbEntity
  8
0
100
AcDbCircle
 62
7
  6
CONTINUOUS
 10
14.8076327354
 20
6.541891804
 40
0.02
100
AcDbArc
 50
180.0
 51
270.0
  0
ARC
  5
477
100
AcDbEntity
  8
0
100
AcDbCircle
 62
7
  6
CONTINUOUS
 10
14.8076327354
 20
5.961891804
 40
0.02
100
AcDbArc
 50
90.0
 51
180.0
  0
ARC
  5
478
100
AcDbEntity
  8
0
100
AcDbCircle
 62
7
  6
CONTINUOUS
 10
14.9667997941
 20
6.001891804
 40
0.02
100
AcDbArc
 50
270.0
 51
360.0
  0
ARC
  5
479
100
AcDbEntity
  8
0
100
AcDbCircle
 62
7
  6
CONTINUOUS
 10
14.9667997941
 20
6.501891804
 40
0.02
100
AcDbArc
 50
0.0
 51
90.0
  0
ARC
  5
47A
100
AcDbEntity
  8
0
100
AcDbCircle
 62
7
  6
CONTINUOUS
 10
14.4326327354
 20
5.851891804
 40
0.02
100
AcDbArc
 50
180.0
 51
270.0
  0
ARC
  5
47B
100
AcDbEntity
  8
0
100
AcDbCircle
 62
7
  6
CONTINUOUS
 10
14.4326327354
 20
6.651891804
 40
0.02
100
AcDbArc
 50
90.0
 51
180.0
  0
ARC
  5
47C
100
AcDbEntity
  8
0
100
AcDbCircle
 62
7
  6
CONTINUOUS
 10
24.7187228826
 20
33.2513487985
 40
24.3989285714
100
AcDbArc
 50
226.2854429774
 51
226.4451003487
  0
ARC
  5
47D
100
AcDbEntity
  8
0
100
AcDbCircle
 62
7
  6
CONTINUOUS
 10
24.7187228826
 20
33.2513487985
 40
24.3989285714
100
AcDbArc
 50
228.3998844708
 51
228.457733532
  0
ARC
  5
47E
100
AcDbEntity
  8
0
100
AcDbCircle
 62
7
  6
CONTINUOUS
 10
24.7187228826
 20
33.2513487985
 40
24.3989285714
100
AcDbArc
 50
223.5548996513
 51
223.7145570226
  0
ARC
  5
47F
100
AcDbEntity
  8
0
100
AcDbCircle
 62
7
  6
CONTINUOUS
 10
24.7187228826
 20
33.2513487985
 40
24.3989285714
100
AcDbArc
 50
221.542266468
 51
221.6001155292
  0
ARC
  5
480
100
AcDbEntity
  8
0
100
AcDbCircle
 62
7
  6
CONTINUOUS
 10
24.7187228826
 20
33.2513487985
 40
24.3989285714
100
AcDbArc
 50
230.4471965673
 51
230.7535485216
  0
ARC
  5
481
100
AcDbEntity
  8
0
100
AcDbCircle
 62
7
  6
CONTINUOUS
 10
24.7187228826
 20
33.2513487985
 40
24.3989285714
100
AcDbArc
 50
219.2464514784
 51
219.5528034327
  0
ARC
  5
482
100
AcDbEntity
  8
0
100
AcDbCircle
 62
7
  6
CONTINUOUS
 10
15.5177997941
 20
20.809891804
 40
0.04
100
AcDbArc
 50
90.0
 51
180.0
  0
ARC
  5
483
100
AcDbEntity
  8
0
100
AcDbCircle
 62
7
  6
CONTINUOUS
 10
15.5177997941
 20
18.439891804
 40
0.04
100
AcDbArc
 50
180.0
 51
270.0
  0
LINE
  5
484
100
AcDbEntity
  8
0
100
AcDbLine
 62
7
  6
CONTINUOUS
 10
9.9029065378
 20
17.8610082136
 11
9.9029606202
 21
17.8617568294
  0
SPLINE
  5
485
100
AcDbEntity
  8
0
100
AcDbSpline
 62
7
  6
CONTINUOUS
 70
0
 71
3
 72
28
 73
24
 74
0
 42
0.0000001
 43
0.0000001
 44
0.0000000001
 40
0.0
 40
0.0
 40
0.0
 40
0.0
 40
0.193935925
 40
0.380414424
 40
0.4685776645
 40
0.5521936878
 40
0.6304510394
 40
0.7025993024
 40
0.7679512033
 40
0.8258934097
 40
0.8759038753
 40
0.8977970076
 40
0.9175579349
 40
0.9351501871
 40
0.9505517449
 40
0.9637564581
 40
0.9747753355
 40
0.9836603357
 40
0.9905420758
 40
0.9933237503
 40
0.9957488558
 40
0.9979252424
 40
1.0
 40
1.0
 40
1.0
 40
1.0
 10
6.8916170825
 20
16.729975321
 30
0.0
 10
6.8890322299
 20
16.7327658698
 30
0.0
 10
6.8839163895
 20
16.7381976766
 30
0.0
 10
6.8775008005
 20
16.7447790771
 30
0.0
 10
6.8725215259
 20
16.7497371842
 30
0.0
 10
6.8690091887
 20
16.7531598587
 30
0.0
 10
6.8656832409
 20
16.7563232792
 30
0.0
 10
6.8625763498
 20
16.7591966692
 30
0.0
 10
6.8597190043
 20
16.7617523711
 30
0.0
 10
6.8571390425
 20
16.7639658532
 30
0.0
 10
6.8551626577
 20
16.7655728046
 30
0.0
 10
6.8537353578
 20
16.7666662222
 30
0.0
 10
6.8527969643
 20
16.7673518
 30
0.0
 10
6.8519445132
 20
16.7679385536
 30
0.0
 10
6.8511799433
 20
16.7684253474
 30
0.0
 10
6.8505050852
 20
16.7688114605
 30
0.0
 10
6.8499208456
 20
16.7690968162
 30
0.0
 10
6.8494282445
 20
16.7692813447
 30
0.0
 10
6.8490693424
 20
16.7693578722
 30
0.0
 10
6.8488312743
 20
16.7693573658
 30
0.0
 10
6.848687916
 20
16.7693302927
 30
0.0
 10
6.8485673332
 20
16.7692755471
 30
0.0
 10
6.848503324
 20
16.7692199503
 30
0.0
 10
6.8484767832
 20
16.7691891034
 30
0.0
  0
SPLINE
  5
486
100
AcDbEntity
  8
0
100
AcDbSpline
 62
7
  6
CONTINUOUS
 70
0
 71
3
 72
28
 73
24
 74
0
 42
0.0000001
 43
0.0000001
 44
0.0000000001
 40
0.0
 40
0.0
 40
0.0
 40
0.0
 40
0.1936863236
 40
0.379869716
 40
0.4678777935
 40
0.5513416597
 40
0.6294575005
 40
0.7014834053
 40
0.7667411172
 40
0.8246265614
 40
0.8746271125
 40
0.8965361989
 40
0.9163288667
 40
0.9339705204
 40
0.9494414293
 40
0.9627385217
 40
0.9738774561
 40
0.9829171689
 40
0.9899985829
 40
0.9929006853
 40
0.9954599937
 40
0.9977804596
 40
1.0
 40
1.0
 40
1.0
 40
1.0
 10
7.211008733
 20
16.4110862287
 30
0.0
 10
7.2083729343
 20
16.4138272505
 30
0.0
 10
7.2031554847
 20
16.4191572191
 30
0.0
 10
7.196609332
 20
16.4256025613
 30
0.0
 10
7.1915276298
 20
16.4304488269
 30
0.0
 10
7.1879424964
 20
16.4337895536
 30
0.0
 10
7.1845466524
 20
16.4368726124
 30
0.0
 10
7.1813732465
 20
16.4396682501
 30
0.0
 10
7.178453195
 20
16.4421498205
 30
0.0
 10
7.1758147302
 20
16.4442937368
 30
0.0
 10
7.1737920298
 20
16.4458446976
 30
0.0
 10
7.1723300863
 20
16.446895766
 30
0.0
 10
7.1713678047
 20
16.4475528994
 30
0.0
 10
7.1704927762
 20
16.4481129203
 30
0.0
 10
7.1697069672
 20
16.4485747584
 30
0.0
 10
7.1690122157
 20
16.4489377763
 30
0.0
 10
7.1684094049
 20
16.4492018724
 30
0.0
 10
7.1678994773
 20
16.4493670477
 30
0.0
 10
7.1675275494
 20
16.4494272674
 30
0.0
 10
7.1672806256
 20
16.4494148834
 30
0.0
 10
7.1671308135
 20
16.4493799208
 30
0.0
 10
7.1670044396
 20
16.4493179149
 30
0.0
 10
7.1669367277
 20
16.4492579687
 30
0.0
 10
7.1669083061
 20
16.4492249359
 30
0.0
  0
SPLINE
  5
487
100
AcDbEntity
  8
0
100
AcDbSpline
 62
7
  6
CONTINUOUS
 70
0
 71
3
 72
32
 73
28
 74
0
 42
0.0000001
 43
0.0000001
 44
0.0000000001
 40
0.0
 40
0.0
 40
0.0
 40
0.0
 40
0.1944814109
 40
0.2894768574
 40
0.3817576767
 40
0.4704320062
 40
0.5546336922
 40
0.6335409833
 40
0.7063834312
 40
0.7724435193
 40
0.8310660982
 40
0.8574054724
 40
0.881672453
 40
0.9038076251
 40
0.9237576686
 40
0.9414700383
 40
0.9569014504
 40
0.9700158856
 40
0.9807782608
 40
0.9852690237
 40
0.9891633445
 40
0.9924593249
 40
0.9951553072
 40
0.9972501523
 40
0.9987445081
 40
0.9996455083
 40
1.0
 40
1.0
 40
1.0
 40
1.0
 10
5.9450167463
 20
17.6703212824
 30
0.0
 10
5.9425871912
 20
17.6732491739
 30
0.0
 10
5.9389668314
 20
17.6776038297
 30
0.0
 10
5.9341838865
 20
17.6833396247
 30
0.0
 10
5.9307222911
 20
17.6874821273
 30
0.0
 10
5.9273917026
 20
17.691458922
 30
0.0
 10
5.9242245268
 20
17.6952313102
 30
0.0
 10
5.9212516944
 20
17.6987624548
 30
0.0
 10
5.9185023273
 20
17.7020177949
 30
0.0
 10
5.9160034938
 20
17.704965297
 30
0.0
 10
5.9140877735
 20
17.7072144705
 30
0.0
 10
5.9126983962
 20
17.7088379681
 30
0.0
 10
5.9117712029
 20
17.7099174891
 30
0.0
 10
5.9109233699
 20
17.7109003984
 30
0.0
 10
5.9101570239
 20
17.7117842523
 30
0.0
 10
5.9094740876
 20
17.712566841
 30
0.0
 10
5.9088762852
 20
17.7132462367
 30
0.0
 10
5.9083651451
 20
17.7138207521
 30
0.0
 10
5.9079930839
 20
17.7142325565
 30
0.0
 10
5.9077393569
 20
17.7145080707
 30
0.0
 10
5.9075831147
 20
17.7146749539
 30
0.0
 10
5.90744968
 20
17.7148146061
 30
0.0
 10
5.9073379133
 20
17.7149275978
 30
0.0
 10
5.907251281
 20
17.7150122424
 30
0.0
 10
5.9071818387
 20
17.7150727877
 30
0.0
 10
5.9071459953
 20
17.7151018849
 30
0.0
 10
5.907115549
 20
17.7151166357
 30
0.0
 10
5.9071110259
 20
17.7151113788
 30
0.0
  0
SPLINE
  5
488
100
AcDbEntity
  8
0
100
AcDbSpline
 62
7
  6
CONTINUOUS
 70
0
 71
3
 72
30
 73
26
 74
0
 42
0.0000001
 43
0.0000001
 44
0.0000000001
 40
0.0
 40
0.0
 40
0.0
 40
0.0
 40
0.1946363857
 40
0.2896956996
 40
0.3820249769
 40
0.4707278788
 40
0.5549332376
 40
0.6338155504
 40
0.7066019433
 40
0.7725741249
 40
0.8310786495
 40
0.8815414405
 40
0.9234658352
 40
0.9564456115
 40
0.9694846395
 40
0.9801827306
 40
0.9846484481
 40
0.9885247742
 40
0.9918127589
 40
0.9945155448
 40
0.9966406699
 40
0.9982068372
 40
0.9987957449
 40
0.9992718356
 40
1.0
 40
1.0
 40
1.0
 40
1.0
 10
6.0155714564
 20
17.6013406166
 30
0.0
 10
6.0131301062
 20
17.6042594765
 30
0.0
 10
6.0094843607
 20
17.6085938342
 30
0.0
 10
6.0046517104
 20
17.6142884481
 30
0.0
 10
6.0011465226
 20
17.6183932503
 30
0.0
 10
5.9977662208
 20
17.6223256184
 30
0.0
 10
5.9945438806
 20
17.6260470558
 30
0.0
 10
5.9915111642
 20
17.6295210198
 30
0.0
 10
5.9886979506
 20
17.6327133572
 30
0.0
 10
5.9861320947
 20
17.6355925901
 30
0.0
 10
5.9838390642
 20
17.6381302537
 30
0.0
 10
5.9818418977
 20
17.6403015037
 30
0.0
 10
5.9801604333
 20
17.6420848327
 30
0.0
 10
5.9789588453
 20
17.6433149113
 30
0.0
 10
5.9781640003
 20
17.644088135
 30
0.0
 10
5.9777599459
 20
17.6444634609
 30
0.0
 10
5.977480049
 20
17.6447089034
 30
0.0
 10
5.9773055122
 20
17.6448546819
 30
0.0
 10
5.9771535143
 20
17.6449735114
 30
0.0
 10
5.9770241443
 20
17.6450655916
 30
0.0
 10
5.9769174105
 20
17.6451307442
 30
0.0
 10
5.9768412903
 20
17.6451666395
 30
0.0
 10
5.9767911362
 20
17.6451792642
 30
0.0
 10
5.9767562582
 20
17.6451821455
 30
0.0
 10
5.9767315536
 20
17.6451726679
 30
0.0
 10
5.9767222688
 20
17.6451618764
 30
0.0
  0
SPLINE
  5
489
100
AcDbEntity
  8
0
100
AcDbSpline
 62
7
  6
CONTINUOUS
 70
0
 71
3
 72
27
 73
23
 74
0
 42
0.0000001
 43
0.0000001
 44
0.0000000001
 40
0.0
 40
0.0
 40
0.0
 40
0.0
 40
0.1934292576
 40
0.3792907497
 40
0.4671386997
 40
0.5504593171
 40
0.6284613802
 40
0.700414425
 40
0.7656493912
 40
0.8235689589
 40
0.8736633966
 40
0.9155143551
 40
0.9332526124
 40
0.9488317637
 40
0.9622470161
 40
0.9735114143
 40
0.9826786027
 40
0.9898803486
 40
0.9928338799
 40
0.9954336069
 40
0.9977779575
 40
1.0
 40
1.0
 40
1.0
 40
1.0
 10
7.8784603128
 20
15.7436346489
 30
0.0
 10
7.8757220262
 20
15.7462678174
 30
0.0
 10
7.8703065628
 20
15.7513835022
 30
0.0
 10
7.8635219965
 20
15.7575603322
 30
0.0
 10
7.8582624589
 20
15.762197938
 30
0.0
 10
7.85455477
 20
15.7653920361
 30
0.0
 10
7.8510452704
 20
15.768337345
 30
0.0
 10
7.8477677639
 20
15.7710058893
 30
0.0
 10
7.8447537309
 20
15.7733724636
 30
0.0
 10
7.8420320769
 20
15.7754151881
 30
0.0
 10
7.8396288453
 20
15.7771151794
 30
0.0
 10
7.8378234934
 20
15.7782921877
 30
0.0
 10
7.8365512966
 20
15.779041657
 30
0.0
 10
7.8357433446
 20
15.7794777135
 30
0.0
 10
7.8350297353
 20
15.7798190274
 30
0.0
 10
7.8344114362
 20
15.7800654341
 30
0.0
 10
7.8338894681
 20
15.7802168651
 30
0.0
 10
7.8335103619
 20
15.7802683
 30
0.0
 10
7.8332595134
 20
15.7802513379
 30
0.0
 10
7.8331078788
 20
15.7802142661
 30
0.0
 10
7.8329805376
 20
15.7801512905
 30
0.0
 10
7.8329123378
 20
15.7800910791
 30
0.0
 10
7.8328838756
 20
15.7800579974
 30
0.0
  0
SPLINE
  5
48A
100
AcDbEntity
  8
0
100
AcDbSpline
 62
7
  6
CONTINUOUS
 70
0
 71
3
 72
28
 73
24
 74
0
 42
0.0000001
 43
0.0000001
 44
0.0000000001
 40
0.0
 40
0.0
 40
0.0
 40
0.0
 40
0.1934784489
 40
0.3793695314
 40
0.4672372458
 40
0.5505869038
 40
0.6286304707
 40
0.7006388894
 40
0.7659422017
 40
0.823940036
 40
0.8741160874
 40
0.8961328989
 40
0.9160437439
 40
0.933811071
 40
0.9494097723
 40
0.9628307268
 40
0.9740805405
 40
0.9832021285
 40
0.9903102604
 40
0.9931904221
 40
0.995694354
 40
0.9979186799
 40
1.0
 40
1.0
 40
1.0
 40
1.0
 10
8.1973494051
 20
15.4242429984
 30
0.0
 10
8.1945647036
 20
15.4268224346
 30
0.0
 10
8.1890625076
 20
15.4318350174
 30
0.0
 10
8.182181089
 20
15.4378916145
 30
0.0
 10
8.176853908
 20
15.4424420817
 30
0.0
 10
8.1731016772
 20
15.4455782571
 30
0.0
 10
8.1695531453
 20
15.4484724999
 30
0.0
 10
8.1662422967
 20
15.4510974026
 30
0.0
 10
8.1632008253
 20
15.4534283308
 30
0.0
 10
8.1604577571
 20
15.4554433705
 30
0.0
 10
8.1583603359
 20
15.4569018181
 30
0.0
 10
8.1568481022
 20
15.4578910865
 30
0.0
 10
8.1558539687
 20
15.4585103923
 30
0.0
 10
8.1549519175
 20
15.4590387088
 30
0.0
 10
8.1541440206
 20
15.4594749523
 30
0.0
 10
8.1534322277
 20
15.4598184387
 30
0.0
 10
8.1528176412
 20
15.460069049
 30
0.0
 10
8.1523013995
 20
15.4602265936
 30
0.0
 10
8.1519283217
 20
15.4602857169
 30
0.0
 10
8.1516825744
 20
15.4602760725
 30
0.0
 10
8.151535645
 20
15.4602447711
 30
0.0
 10
8.1514131911
 20
15.4601880756
 30
0.0
 10
8.1513482069
 20
15.4601319649
 30
0.0
 10
8.1513215766
 20
15.460101011
 30
0.0
  0
SPLINE
  5
48B
100
AcDbEntity
  8
0
100
AcDbSpline
 62
7
  6
CONTINUOUS
 70
0
 71
3
 72
27
 73
23
 74
0
 42
0.0000001
 43
0.0000001
 44
0.0000000001
 40
0.0
 40
0.0
 40
0.0
 40
0.0
 40
0.1936590392
 40
0.3797173509
 40
0.5511168313
 40
0.629263227
 40
0.7013802839
 40
0.7667937517
 40
0.8248966389
 40
0.8751622115
 40
0.8972131469
 40
0.9171479577
 40
0.9349260479
 40
0.9505175817
 40
0.9639075903
 40
0.9750939249
 40
0.9841048897
 40
0.9910312522
 40
0.9937813326
 40
0.9961218988
 40
0.9981469335
 40
1.0
 40
1.0
 40
1.0
 40
1.0
 10
8.4875503072
 20
15.1332299256
 30
0.0
 10
8.4847253252
 20
15.1357590535
 30
0.0
 10
8.4791499459
 20
15.1406777125
 30
0.0
 10
8.4709506237
 20
15.1476929665
 30
0.0
 10
8.4643769522
 20
15.1531278029
 30
0.0
 10
8.4594586956
 20
15.1570617845
 30
0.0
 10
8.4561288905
 20
15.1596589824
 30
0.0
 10
8.4530746363
 20
15.161970803
 30
0.0
 10
8.450325076
 20
15.1639754006
 30
0.0
 10
8.4482274661
 20
15.1654322446
 30
0.0
 10
8.4467185833
 20
15.1664252233
 30
0.0
 10
8.4457286176
 20
15.1670492394
 30
0.0
 10
8.4448324266
 20
15.1675843305
 30
0.0
 10
8.4440321129
 20
15.1680293562
 30
0.0
 10
8.4433296663
 20
15.1683835315
 30
0.0
 10
8.4427263296
 20
15.1686467335
 30
0.0
 10
8.4422233821
 20
15.1688185923
 30
0.0
 10
8.4418626428
 20
15.1688929017
 30
0.0
 10
8.4416266252
 20
15.1688966851
 30
0.0
 10
8.4414880276
 20
15.1688754134
 30
0.0
 10
8.4413738278
 20
15.1688293074
 30
0.0
 10
8.4413141021
 20
15.1687799274
 30
0.0
 10
8.4412904406
 20
15.1687524229
 30
0.0
  0
SPLINE
  5
48C
100
AcDbEntity
  8
0
100
AcDbSpline
 62
7
  6
CONTINUOUS
 70
0
 71
3
 72
27
 73
23
 74
0
 42
0.0000001
 43
0.0000001
 44
0.0000000001
 40
0.0
 40
0.0
 40
0.0
 40
0.0
 40
0.1939523302
 40
0.3802950096
 40
0.5519886835
 40
0.630284301
 40
0.7025474684
 40
0.7680973103
 40
0.8263180867
 40
0.8766705937
 40
0.8987479677
 40
0.9186944665
 40
0.9364661142
 40
0.9520280331
 40
0.9653586836
 40
0.9764459106
 40
0.9853011346
 40
0.991985634
 40
0.9945656235
 40
0.9966921196
 40
0.9984527751
 40
1.0
 40
1.0
 40
1.0
 40
1.0
 10
8.7363804931
 20
14.8833147445
 30
0.0
 10
8.7335229896
 20
14.8857994096
 30
0.0
 10
8.7278907429
 20
14.8906376363
 30
0.0
 10
8.719628587
 20
14.8975574344
 30
0.0
 10
8.7130219487
 20
14.9029360475
 30
0.0
 10
8.7080902285
 20
14.906842843
 30
0.0
 10
8.7047566129
 20
14.9094292957
 30
0.0
 10
8.7017047772
 20
14.9117391666
 30
0.0
 10
8.6989639278
 20
14.9137505008
 30
0.0
 10
8.696879047
 20
14.9152205674
 30
0.0
 10
8.6953838526
 20
14.9162292005
 30
0.0
 10
8.6944055128
 20
14.9168663015
 30
0.0
 10
8.6935225523
 20
14.9174164084
 30
0.0
 10
8.692737094
 20
14.9178783069
 30
0.0
 10
8.6920511395
 20
14.9182510737
 30
0.0
 10
8.6914661019
 20
14.918534538
 30
0.0
 10
8.69098336
 20
14.9187280739
 30
0.0
 10
8.6906409331
 20
14.9188241332
 30
0.0
 10
8.690419082
 20
14.9188469652
 30
0.0
 10
8.6902922682
 20
14.9188394914
 30
0.0
 10
8.6901894241
 20
14.9188080485
 30
0.0
 10
8.690136549
 20
14.9187677808
 30
0.0
 10
8.6901168496
 20
14.9187448803
 30
0.0
  0
SPLINE
  5
48D
100
AcDbEntity
  8
0
100
AcDbSpline
 62
7
  6
CONTINUOUS
 70
0
 71
3
 72
28
 73
24
 74
0
 42
0.0000001
 43
0.0000001
 44
0.0000000001
 40
0.0
 40
0.0
 40
0.0
 40
0.0
 40
0.1943187497
 40
0.3810219282
 40
0.4693041731
 40
0.5530762194
 40
0.6315452
 40
0.7039706415
 40
0.7696640161
 40
0.8280002276
 40
0.8784279397
 40
0.9204695331
 40
0.9382222502
 40
0.9537409094
 40
0.9669976484
 40
0.9779704049
 40
0.9866539524
 40
0.9901458746
 40
0.9930812418
 40
0.9954768453
 40
0.997366171
 40
0.9988216009
 40
1.0
 40
1.0
 40
1.0
 40
1.0
 10
8.9329656284
 20
14.6854206863
 30
0.0
 10
8.9300844513
 20
14.6878689435
 30
0.0
 10
8.9244134778
 20
14.6926442262
 30
0.0
 10
8.9173742667
 20
14.6984608917
 30
0.0
 10
8.9119577488
 20
14.7028640521
 30
0.0
 10
8.9081575317
 20
14.7059167787
 30
0.0
 10
8.9045792901
 20
14.7087530379
 30
0.0
 10
8.9012571393
 20
14.7113459255
 30
0.0
 10
8.8982228701
 20
14.7136707571
 30
0.0
 10
8.8955057372
 20
14.7157054793
 30
0.0
 10
8.8931320698
 20
14.7174306212
 30
0.0
 10
8.8913730727
 20
14.7186579534
 30
0.0
 10
8.8901520763
 20
14.7194683295
 30
0.0
 10
8.8893881647
 20
14.7199542622
 30
0.0
 10
8.8887251571
 20
14.7203527116
 30
0.0
 10
8.8881646714
 20
14.7206627332
 30
0.0
 10
8.8877592985
 20
14.7208600882
 30
0.0
 10
8.8874861969
 20
14.7209693864
 30
0.0
 10
8.8873228985
 20
14.7210228161
 30
0.0
 10
8.8871856369
 20
14.7210541884
 30
0.0
 10
8.8870738263
 20
14.7210633815
 30
0.0
 10
8.8869854109
 20
14.7210504244
 30
0.0
 10
8.8869401785
 20
14.721021516
 30
0.0
 10
8.8869252265
 20
14.7210041336
 30
0.0
  0
SPLINE
  5
48E
100
AcDbEntity
  8
0
100
AcDbSpline
 62
7
  6
CONTINUOUS
 70
0
 71
3
 72
29
 73
25
 74
0
 42
0.0000001
 43
0.0000001
 44
0.0000000001
 40
0.0
 40
0.0
 40
0.0
 40
0.0
 40
0.1946961541
 40
0.2896352085
 40
0.3817723493
 40
0.4702383641
 40
0.5541888515
 40
0.6328262997
 40
0.7054041477
 40
0.7712267326
 40
0.8296607316
 40
0.8801450339
 40
0.922189889
 40
0.9399184688
 40
0.9553919983
 40
0.9685776409
 40
0.9794452781
 40
0.9879761245
 40
0.9913652757
 40
0.9941727198
 40
0.9964046628
 40
0.9980763535
 40
0.9992299334
 40
1.0
 40
1.0
 40
1.0
 40
1.0
 10
9.0687147007
 20
14.5481973723
 30
0.0
 10
9.0658192781
 20
14.5506191195
 30
0.0
 10
9.0615020494
 20
14.5542099439
 30
0.0
 10
9.0557908988
 20
14.5589181746
 30
0.0
 10
9.0516585527
 20
14.5623037246
 30
0.0
 10
9.047680417
 20
14.5655412955
 30
0.0
 10
9.043894298
 20
14.5686001215
 30
0.0
 10
9.0403362884
 20
14.5714510806
 30
0.0
 10
9.0370403802
 20
14.5740670196
 30
0.0
 10
9.0340382082
 20
14.5764228956
 30
0.0
 10
9.0313588116
 20
14.5784961409
 30
0.0
 10
9.0290282542
 20
14.580266731
 30
0.0
 10
9.0273107338
 20
14.5815395315
 30
0.0
 10
9.0261261725
 20
14.5823910998
 30
0.0
 10
9.025389622
 20
14.5829072048
 30
0.0
 10
9.0247550747
 20
14.5833369676
 30
0.0
 10
9.0242241141
 20
14.583679343
 30
0.0
 10
9.0238449465
 20
14.5839064529
 30
0.0
 10
9.0235933317
 20
14.5840415696
 30
0.0
 10
9.0234460932
 20
14.5841125661
 30
0.0
 10
9.0233255707
 20
14.5841619977
 30
0.0
 10
9.023231018
 20
14.5841889769
 30
0.0
 10
9.0231613981
 20
14.5841973751
 30
0.0
 10
9.0231231984
 20
14.5841829821
 30
0.0
 10
9.0231134625
 20
14.5841716635
 30
0.0
  0
SPLINE
  5
48F
100
AcDbEntity
  8
0
100
AcDbSpline
 62
7
  6
CONTINUOUS
 70
0
 71
3
 72
19
 73
15
 74
0
 42
0.0000001
 43
0.0000001
 44
0.0000000001
 40
0.0
 40
0.0
 40
0.0
 40
0.0
 40
0.0129663486
 40
0.0294680306
 40
0.0518038327
 40
0.0809115284
 40
0.1171911544
 40
0.1608106319
 40
0.2118400381
 40
0.2703026986
 40
0.4094598027
 40
0.5778960315
 40
0.7750166665
 40
1.0
 40
1.0
 40
1.0
 40
1.0
 10
7.8778900908
 20
15.6462776589
 30
0.0
 10
7.8779175977
 20
15.6463013427
 30
0.0
 10
7.8779607736
 20
15.6463780465
 30
0.0
 10
7.8779616482
 20
15.6465260697
 30
0.0
 10
7.8779183999
 20
15.6467119382
 30
0.0
 10
7.8778290013
 20
15.6469413327
 30
0.0
 10
7.8776936131
 20
15.6472150245
 30
0.0
 10
7.8775115484
 20
15.6475333311
 30
0.0
 10
7.8772828634
 20
15.6478959566
 30
0.0
 10
7.8768924647
 20
15.6484723571
 30
0.0
 10
7.8762847612
 20
15.649297875
 30
0.0
 10
7.8754112793
 20
15.650408589
 30
0.0
 10
7.8743593471
 20
15.6516840459
 30
0.0
 10
7.8735916781
 20
15.6525824235
 30
0.0
 10
7.8731794217
 20
15.6530585738
 30
0.0
  0
SPLINE
  5
490
100
AcDbEntity
  8
0
100
AcDbSpline
 62
7
  6
CONTINUOUS
 70
0
 71
3
 72
15
 73
11
 74
0
 42
0.0000001
 43
0.0000001
 44
0.0000000001
 40
0.0
 40
0.0
 40
0.0
 40
0.0
 40
0.0485565062
 40
0.1102767015
 40
0.193432751
 40
0.3013803754
 40
0.4355290415
 40
0.5965262189
 40
0.7846697703
 40
1.0
 40
1.0
 40
1.0
 40
1.0
 10
7.536013626
 20
15.9865256594
 30
0.0
 10
7.5360443675
 20
15.9865521094
 30
0.0
 10
7.5360930042
 20
15.9866371973
 30
0.0
 10
7.5360972807
 20
15.9868018683
 30
0.0
 10
7.5360537899
 20
15.9870092493
 30
0.0
 10
7.5359607587
 20
15.98726518
 30
0.0
 10
7.5358183898
 20
15.9875705033
 30
0.0
 10
7.5356259194
 20
15.98792552
 30
0.0
 10
7.5353833499
 20
15.9883298867
 30
0.0
 10
7.5352005759
 20
15.9886130593
 30
0.0
 10
7.5351012406
 20
15.9887629792
 30
0.0
  0
SPLINE
  5
491
100
AcDbEntity
  8
0
100
AcDbSpline
 62
7
  6
CONTINUOUS
 70
0
 71
3
 72
15
 73
11
 74
0
 42
0.0000001
 43
0.0000001
 44
0.0000000001
 40
0.0
 40
0.0
 40
0.0
 40
0.0
 40
0.0936444824
 40
0.1310000786
 40
0.1749008327
 40
0.2831778085
 40
0.419565696
 40
0.5844367761
 40
0.7779129211
 40
1.0
 40
1.0
 40
1.0
 40
1.0
 10
7.521311306
 20
15.9714081015
 30
0.0
 10
7.5213566977
 20
15.9714472072
 30
0.0
 10
7.5213524541
 20
15.9715538551
 30
0.0
 10
7.5213242117
 20
15.9716584216
 30
0.0
 10
7.521283476
 20
15.9717738663
 30
0.0
 10
7.5212049751
 20
15.9719406402
 30
0.0
 10
7.5210771309
 20
15.9721697661
 30
0.0
 10
7.5209094884
 20
15.972438272
 30
0.0
 10
7.5207021201
 20
15.9727464365
 30
0.0
 10
7.5205479992
 20
15.9729631123
 30
0.0
 10
7.5204645551
 20
15.9730781214
 30
0.0
  0
LINE
  5
492
100
AcDbEntity
  8
0
100
AcDbLine
 62
7
  6
CONTINUOUS
 10
8.0817736363
 20
15.4126590853
 11
8.0810025363
 21
15.4133784783
  0
SPLINE
  5
493
100
AcDbEntity
  8
0
100
AcDbSpline
 62
7
  6
CONTINUOUS
 70
0
 71
3
 72
32
 73
28
 74
0
 42
0.0000001
 43
0.0000001
 44
0.0000000001
 40
0.0
 40
0.0
 40
0.0
 40
0.0
 40
0.0003544898
 40
0.001255489
 40
0.0027498475
 40
0.0048446955
 40
0.0075406772
 40
0.0108366555
 40
0.0147309742
 40
0.0192217372
 40
0.0299841222
 40
0.0430985633
 40
0.0585299791
 40
0.0762423558
 40
0.0961924012
 40
0.1183275746
 40
0.1425945634
 40
0.1689339466
 40
0.2275565391
 40
0.2936166306
 40
0.3664590947
 40
0.4453664152
 40
0.5295681338
 40
0.6182424771
 40
0.7105232999
 40
0.8055187234
 40
1.0
 40
1.0
 40
1.0
 40
1.0
 10
9.1824854629
 20
14.4397369418
 30
0.0
 10
9.1824907198
 20
14.4397414649
 30
0.0
 10
9.1824759691
 20
14.4397719112
 30
0.0
 10
9.1824468718
 20
14.4398077545
 30
0.0
 10
9.1823863265
 20
14.4398771969
 30
0.0
 10
9.1823016818
 20
14.4399638293
 30
0.0
 10
9.1821886901
 20
14.4400755959
 30
0.0
 10
9.182049038
 20
14.4402090306
 30
0.0
 10
9.1818821549
 20
14.4403652727
 30
0.0
 10
9.1816066405
 20
14.4406189999
 30
0.0
 10
9.1811948359
 20
14.4409910612
 30
0.0
 10
9.1806203202
 20
14.4415022016
 30
0.0
 10
9.1799409242
 20
14.4421000042
 30
0.0
 10
9.1791583354
 20
14.4427829407
 30
0.0
 10
9.1782744813
 20
14.4435492869
 30
0.0
 10
9.1772915718
 20
14.44439712
 30
0.0
 10
9.1762120505
 20
14.4453243135
 30
0.0
 10
9.1745885525
 20
14.4467136912
 30
0.0
 10
9.1723393786
 20
14.4486294118
 30
0.0
 10
9.169391876
 20
14.4511282458
 30
0.0
 10
9.1661365352
 20
14.4538776135
 30
0.0
 10
9.1626053894
 20
14.4568504468
 30
0.0
 10
9.158833
 20
14.4600176236
 30
0.0
 10
9.1548562046
 20
14.4633482126
 30
0.0
 10
9.1507137021
 20
14.466809808
 30
0.0
 10
9.1449779094
 20
14.471592751
 30
0.0
 10
9.140623256
 20
14.4752131088
 30
0.0
 10
9.1376953665
 20
14.4776426622
 30
0.0
  0
SPLINE
  5
494
100
AcDbEntity
  8
0
100
AcDbSpline
 62
7
  6
CONTINUOUS
 70
0
 71
3
 72
30
 73
26
 74
0
 42
0.0000001
 43
0.0000001
 44
0.0000000001
 40
0.0
 40
0.0
 40
0.0
 40
0.0
 40
0.0007281613
 40
0.0012042498
 40
0.0017931573
 40
0.0033593358
 40
0.0054844724
 40
0.0081872549
 40
0.0114752285
 40
0.0153515432
 40
0.0198172566
 40
0.0305153731
 40
0.0435543949
 40
0.0765341748
 40
0.1184585401
 40
0.1689213462
 40
0.2274258749
 40
0.2933980344
 40
0.3661844284
 40
0.4450667474
 40
0.5292721198
 40
0.6179750322
 40
0.7103042946
 40
0.8053636132
 40
1.0
 40
1.0
 40
1.0
 40
1.0
 10
9.1125359604
 20
14.5093481847
 30
0.0
 10
9.1125467521
 20
14.5093574693
 30
0.0
 10
9.1125562301
 20
14.5093821737
 30
0.0
 10
9.1125533489
 20
14.5094170516
 30
0.0
 10
9.1125407242
 20
14.5094672059
 30
0.0
 10
9.1125048283
 20
14.5095433263
 30
0.0
 10
9.1124396753
 20
14.5096500603
 30
0.0
 10
9.1123475952
 20
14.5097794303
 30
0.0
 10
9.1122287662
 20
14.5099314279
 30
0.0
 10
9.112082988
 20
14.5101059644
 30
0.0
 10
9.1118375454
 20
14.5103858615
 30
0.0
 10
9.1114622191
 20
14.5107899159
 30
0.0
 10
9.1106889953
 20
14.5115847614
 30
0.0
 10
9.109458917
 20
14.5127863488
 30
0.0
 10
9.1076755883
 20
14.5144678133
 30
0.0
 10
9.1055043383
 20
14.5164649795
 30
0.0
 10
9.1029666748
 20
14.5187580101
 30
0.0
 10
9.1000874422
 20
14.5213238658
 30
0.0
 10
9.096895105
 20
14.5241370792
 30
0.0
 10
9.0934211406
 20
14.5271697959
 30
0.0
 10
9.0896997028
 20
14.5303921365
 30
0.0
 10
9.0857673345
 20
14.5337724384
 30
0.0
 10
9.0816625322
 20
14.5372776263
 30
0.0
 10
9.0759679184
 20
14.5421102765
 30
0.0
 10
9.0716335606
 20
14.5457560221
 30
0.0
 10
9.0687147007
 20
14.5481973723
 30
0.0
  0
SPLINE
  5
495
100
AcDbEntity
  8
0
100
AcDbSpline
 62
7
  6
CONTINUOUS
 70
0
 71
3
 72
30
 73
26
 74
0
 42
0.0000001
 43
0.0000001
 44
0.0000000001
 40
0.0
 40
0.0
 40
0.0
 40
0.0
 40
0.0011453414
 40
0.0024968896
 40
0.0042499744
 40
0.0064974396
 40
0.009281652
 40
0.0126234385
 40
0.0165338195
 40
0.0210188364
 40
0.0317231702
 40
0.0447388468
 40
0.0600460889
 40
0.077618886
 40
0.0974206913
 40
0.1194041839
 40
0.1697121415
 40
0.2280617521
 40
0.293889067
 40
0.366547293
 40
0.4453218589
 40
0.5294412753
 40
0.6180793073
 40
0.8053912516
 40
1.0
 40
1.0
 40
1.0
 40
1.0
 10
8.9756944124
 20
14.6455286068
 30
0.0
 10
8.9757113894
 20
14.645543213
 30
0.0
 10
8.975739499
 20
14.6455863546
 30
0.0
 10
8.9757466538
 20
14.6456711409
 30
0.0
 10
8.9757269213
 20
14.6457745161
 30
0.0
 10
8.9756810549
 20
14.6458994235
 30
0.0
 10
8.9756089193
 20
14.646046599
 30
0.0
 10
8.9755102354
 20
14.6462163671
 30
0.0
 10
8.9753849092
 20
14.646408715
 30
0.0
 10
8.9751690988
 20
14.6467136016
 30
0.0
 10
8.9748298925
 20
14.6471487751
 30
0.0
 10
8.974338671
 20
14.6477328943
 30
0.0
 10
8.973742846
 20
14.6484041025
 30
0.0
 10
8.9730437219
 20
14.6491607176
 30
0.0
 10
8.9722428486
 20
14.6500008522
 30
0.0
 10
8.970984114
 20
14.6512886485
 30
0.0
 10
8.9691696747
 20
14.6530869894
 30
0.0
 10
8.9667120496
 20
14.6554536266
 30
0.0
 10
8.9639098336
 20
14.6580921064
 30
0.0
 10
8.9607906607
 20
14.6609762727
 30
0.0
 10
8.9573852398
 20
14.6640775002
 30
0.0
 10
8.9537271204
 20
14.6673651414
 30
0.0
 10
8.9484630351
 20
14.6720406546
 30
0.0
 10
8.9415344451
 20
14.6780952215
 30
0.0
 10
8.9358653994
 20
14.6829566292
 30
0.0
 10
8.9329656284
 20
14.6854206863
 30
0.0
  0
LINE
  5
496
100
AcDbEntity
  8
0
100
AcDbLine
 62
7
  6
CONTINUOUS
 10
8.8606698893
 20
14.7086987537
 11
8.8595564976
 21
14.7096555254
  0
LINE
  5
497
100
AcDbEntity
  8
0
100
AcDbLine
 62
7
  6
CONTINUOUS
 10
8.8595564976
 20
14.7096555254
 11
8.8163294286
 21
14.7468023897
  0
SPLINE
  5
498
100
AcDbEntity
  8
0
100
AcDbSpline
 62
7
  6
CONTINUOUS
 70
0
 71
3
 72
26
 73
22
 74
0
 42
0.0000001
 43
0.0000001
 44
0.0000000001
 40
0.0
 40
0.0
 40
0.0
 40
0.0
 40
0.0015247945
 40
0.0031933095
 40
0.0051855037
 40
0.0076102261
 40
0.0139621386
 40
0.0224870191
 40
0.0332614389
 40
0.0463057731
 40
0.0616117526
 40
0.0791607492
 40
0.120848872
 40
0.1710189177
 40
0.2292078896
 40
0.2948656411
 40
0.3673554996
 40
0.4459702664
 40
0.6184497182
 40
0.8055495199
 40
1.0
 40
1.0
 40
1.0
 40
1.0
 10
8.7779420481
 20
14.842326984
 30
0.0
 10
8.7779646662
 20
14.8423464437
 30
0.0
 10
8.7780041034
 20
14.8423974446
 30
0.0
 10
8.7780313884
 20
14.8424970881
 30
0.0
 10
8.778030313
 20
14.8426171415
 30
0.0
 10
8.7779894682
 20
14.8428246535
 30
0.0
 10
8.7778604353
 20
14.8431401132
 30
0.0
 10
8.7776170032
 20
14.8435793109
 30
0.0
 10
8.7772690912
 20
14.8441086764
 30
0.0
 10
8.776817365
 20
14.8447269772
 30
0.0
 10
8.7762619861
 20
14.8454330454
 30
0.0
 10
8.7753296545
 20
14.8465550038
 30
0.0
 10
8.7739087553
 20
14.8481570282
 30
0.0
 10
8.7719029691
 20
14.8503014889
 30
0.0
 10
8.7695285961
 20
14.8527425315
 30
0.0
 10
8.766808648
 20
14.8554560138
 30
0.0
 10
8.7637695411
 20
14.8584150308
 30
0.0
 10
8.7591878514
 20
14.8627856156
 30
0.0
 10
8.7529039301
 20
14.8686202205
 30
0.0
 10
8.7448564426
 20
14.8758849576
 30
0.0
 10
8.7392518298
 20
14.8808180512
 30
0.0
 10
8.7363804931
 20
14.8833147445
 30
0.0
  0
SPLINE
  5
499
100
AcDbEntity
  8
0
100
AcDbSpline
 62
7
  6
CONTINUOUS
 70
0
 71
3
 72
31
 73
27
 74
0
 42
0.0000001
 43
0.0000001
 44
0.0000000001
 40
0.0
 40
0.0
 40
0.0
 40
0.0
 40
0.0005311147
 40
0.0009488264
 40
0.0014974855
 40
0.0030163595
 40
0.0051180868
 40
0.0078106245
 40
0.011096341
 40
0.0194472186
 40
0.0301639707
 40
0.0432250572
 40
0.0585982388
 40
0.0762496667
 40
0.0961373583
 40
0.1182102796
 40
0.1686976341
 40
0.2272156319
 40
0.2931929002
 40
0.3659800608
 40
0.4448632825
 40
0.5290741914
 40
0.6177911772
 40
0.7101461089
 40
0.8052444713
 40
1.0
 40
1.0
 40
1.0
 40
1.0
 10
8.8162219171
 20
14.7529330213
 30
0.0
 10
8.8162297572
 20
14.7529397649
 30
0.0
 10
8.8162320868
 20
14.7529618845
 30
0.0
 10
8.8162235949
 20
14.7529890342
 30
0.0
 10
8.8162038928
 20
14.7530337225
 30
0.0
 10
8.8161603274
 20
14.7531022852
 30
0.0
 10
8.8160872692
 20
14.7532012523
 30
0.0
 10
8.8159876338
 20
14.7533230492
 30
0.0
 10
8.8158044935
 20
14.75353357
 30
0.0
 10
8.815507733
 20
14.7538520882
 30
0.0
 10
8.8150708421
 20
14.7542998601
 30
0.0
 10
8.8145298866
 20
14.7548370082
 30
0.0
 10
8.8138862063
 20
14.7554622349
 30
0.0
 10
8.8131412358
 20
14.7561739023
 30
0.0
 10
8.8122967884
 20
14.7569702489
 30
0.0
 10
8.8109807976
 20
14.7581984195
 30
0.0
 10
8.8091034579
 20
14.7599274688
 30
0.0
 10
8.8065835416
 20
14.7622205906
 30
0.0
 10
8.8037304368
 20
14.7647926393
 30
0.0
 10
8.8005721463
 20
14.7676183167
 30
0.0
 10
8.7971395919
 20
14.7706698664
 30
0.0
 10
8.7934663043
 20
14.7739174312
 30
0.0
 10
8.7895881547
 20
14.7773292757
 30
0.0
 10
8.7855429447
 20
14.780872148
 30
0.0
 10
8.7799343369
 20
14.7857636739
 30
0.0
 10
8.7756699311
 20
14.7894605738
 30
0.0
 10
8.7727999748
 20
14.7919391478
 30
0.0
  0
SPLINE
  5
49A
100
AcDbEntity
  8
0
100
AcDbSpline
 62
7
  6
CONTINUOUS
 70
0
 71
3
 72
28
 73
24
 74
0
 42
0.0000001
 43
0.0000001
 44
0.0000000001
 40
0.0
 40
0.0
 40
0.0
 40
0.0
 40
0.0018398657
 40
0.0037933822
 40
0.0060219421
 40
0.0086364076
 40
0.0152600626
 40
0.0239615458
 40
0.0348498101
 40
0.0479632725
 40
0.0633046287
 40
0.0808623509
 40
0.1006101822
 40
0.1225086139
 40
0.1725759722
 40
0.2306227596
 40
0.2961136128
 40
0.3684239064
 40
0.4468560582
 40
0.5306508914
 40
0.618989932
 40
0.8057921749
 40
1.0
 40
1.0
 40
1.0
 40
1.0
 10
8.527922356
 20
15.0911429382
 30
0.0
 10
8.5279496781
 20
15.091166445
 30
0.0
 10
8.5279983405
 20
15.0912247188
 30
0.0
 10
8.5280414728
 20
15.0913362804
 30
0.0
 10
8.5280563666
 20
15.0914696775
 30
0.0
 10
8.5280389307
 20
15.0916945438
 30
0.0
 10
8.5279390166
 20
15.092034451
 30
0.0
 10
8.5277279575
 20
15.0925030808
 30
0.0
 10
8.5274142121
 20
15.0930624716
 30
0.0
 10
8.526998072
 20
15.0937114777
 30
0.0
 10
8.5264796035
 20
15.094449091
 30
0.0
 10
8.5258596758
 20
15.0952734824
 30
0.0
 10
8.5251395302
 20
15.0961827381
 30
0.0
 10
8.5239956851
 20
15.0975683511
 30
0.0
 10
8.5223239923
 20
15.0994903986
 30
0.0
 10
8.5200324853
 20
15.1020036479
 30
0.0
 10
8.5173960137
 20
15.104791137
 30
0.0
 10
8.5144401531
 20
15.1078255033
 30
0.0
 10
8.5111936327
 20
15.1110767885
 30
0.0
 10
8.5076882542
 20
15.1145129113
 30
0.0
 10
8.5026200608
 20
15.1193869809
 30
0.0
 10
8.4959093273
 20
15.1256728516
 30
0.0
 10
8.4903848205
 20
15.1306922645
 30
0.0
 10
8.4875503072
 20
15.1332299256
 30
0.0
  0
SPLINE
  5
49B
100
AcDbEntity
  8
0
100
AcDbSpline
 62
7
  6
CONTINUOUS
 70
0
 71
3
 72
28
 73
24
 74
0
 42
0.0000001
 43
0.0000001
 44
0.0000000001
 40
0.0
 40
0.0
 40
0.0
 40
0.0
 40
0.002074757
 40
0.0042511421
 40
0.0066762729
 40
0.0094579768
 40
0.016339695
 40
0.0252246663
 40
0.0362436199
 40
0.0494483119
 40
0.0648498316
 40
0.0824421468
 40
0.1022030602
 40
0.1240961542
 40
0.1741066508
 40
0.2320488471
 40
0.2974007056
 40
0.369548987
 40
0.447806329
 40
0.5314223404
 40
0.6195855805
 40
0.8060640513
 40
1.0
 40
1.0
 40
1.0
 40
1.0
 10
8.2365631875
 20
15.3811026991
 30
0.0
 10
8.2365940349
 20
15.3811292393
 30
0.0
 10
8.2366496329
 20
15.3811932475
 30
0.0
 10
8.2367043795
 20
15.3813138307
 30
0.0
 10
8.2367314494
 20
15.3814571908
 30
0.0
 10
8.2367319533
 20
15.3816952592
 30
0.0
 10
8.236655429
 20
15.3820541613
 30
0.0
 10
8.2364709011
 20
15.3825467635
 30
0.0
 10
8.2361855422
 20
15.3831310021
 30
0.0
 10
8.2357994304
 20
15.3838058612
 30
0.0
 10
8.2353126372
 20
15.3845704317
 30
0.0
 10
8.2347258818
 20
15.3854228818
 30
0.0
 10
8.2340403045
 20
15.3863612759
 30
0.0
 10
8.2329468877
 20
15.3877885759
 30
0.0
 10
8.2313399357
 20
15.3897649598
 30
0.0
 10
8.2291264539
 20
15.3923449214
 30
0.0
 10
8.2265707528
 20
15.3952022668
 30
0.0
 10
8.2236973627
 20
15.398309157
 30
0.0
 10
8.2205339424
 20
15.401635105
 30
0.0
 10
8.2171112682
 20
15.405147442
 30
0.0
 10
8.2121531614
 20
15.4101267158
 30
0.0
 10
8.2055717612
 20
15.4165423051
 30
0.0
 10
8.2001399543
 20
15.4216581455
 30
0.0
 10
8.1973494051
 20
15.4242429984
 30
0.0
  0
SPLINE
  5
49C
100
AcDbEntity
  8
0
100
AcDbSpline
 62
7
  6
CONTINUOUS
 70
0
 71
3
 72
23
 73
19
 74
0
 42
0.0000001
 43
0.0000001
 44
0.0000000001
 40
0.0
 40
0.0
 40
0.0
 40
0.0
 40
0.0041078618
 40
0.00904678
 40
0.0153716921
 40
0.023350792
 40
0.0331147242
 40
0.044732233
 40
0.0736596907
 40
0.110270623
 40
0.1545755738
 40
0.206543781
 40
0.2661009098
 40
0.3331414571
 40
0.4075527145
 40
0.5779198038
 40
0.7759122059
 40
1.0
 40
1.0
 40
1.0
 40
1.0
 10
6.893503318
 20
16.6259887142
 30
0.0
 10
6.8935181022
 20
16.6260014305
 30
0.0
 10
6.8935429307
 20
16.6260388455
 30
0.0
 10
6.893554549
 20
16.6261121498
 30
0.0
 10
6.8935468073
 20
16.6262036358
 30
0.0
 10
6.8935200598
 20
16.6263150111
 30
0.0
 10
6.8934743444
 20
16.6264468293
 30
0.0
 10
6.8933806611
 20
16.6266666604
 30
0.0
 10
6.8932111796
 20
16.6269918489
 30
0.0
 10
6.8929448524
 20
16.6274402757
 30
0.0
 10
6.892602219
 20
16.6279700901
 30
0.0
 10
6.892183839
 20
16.6285802353
 30
0.0
 10
6.8916902917
 20
16.6292694797
 30
0.0
 10
6.8911225203
 20
16.6300364465
 30
0.0
 10
6.8902265966
 20
16.6312148267
 30
0.0
 10
6.8889274493
 20
16.6328673332
 30
0.0
 10
6.8871569332
 20
16.6350526244
 30
0.0
 10
6.88587794
 20
16.6365950611
 30
0.0
 10
6.8851954035
 20
16.637411014
 30
0.0
  0
LINE
  5
49D
100
AcDbEntity
  8
0
100
AcDbLine
 62
7
  6
CONTINUOUS
 10
6.8840853221
 20
16.6387320232
 11
6.8839228507
 21
16.6389244109
  0
SPLINE
  5
49E
100
AcDbEntity
  8
0
100
AcDbSpline
 62
7
  6
CONTINUOUS
 70
0
 71
3
 72
28
 73
24
 74
0
 42
0.0000001
 43
0.0000001
 44
0.0000000001
 40
0.0
 40
0.0
 40
0.0
 40
0.0
 40
0.0022195308
 40
0.0045399872
 40
0.0070993068
 40
0.01000142
 40
0.0170827796
 40
0.0261224326
 40
0.0372614085
 40
0.0505584521
 40
0.0660293064
 40
0.08367102
 40
0.1034636871
 40
0.12537275
 40
0.1753733322
 40
0.2332587568
 40
0.2985164327
 40
0.3705423548
 40
0.4486581897
 40
0.5321220678
 40
0.6201301888
 40
0.806313614
 40
1.0
 40
1.0
 40
1.0
 40
1.0
 10
7.9165990205
 20
15.6995342215
 30
0.0
 10
7.9166320536
 20
15.6995626425
 30
0.0
 10
7.9166920005
 20
15.6996303533
 30
0.0
 10
7.9167540069
 20
15.6997567271
 30
0.0
 10
7.9167889667
 20
15.6999065401
 30
0.0
 10
7.9168013491
 20
15.7001534631
 30
0.0
 10
7.9167411334
 20
15.7005253893
 30
0.0
 10
7.9165759598
 20
15.7010353164
 30
0.0
 10
7.9163118617
 20
15.7016381248
 30
0.0
 10
7.9159488464
 20
15.7023328763
 30
0.0
 10
7.9154870099
 20
15.7031186852
 30
0.0
 10
7.9149269875
 20
15.7039937129
 30
0.0
 10
7.9142698545
 20
15.7049559957
 30
0.0
 10
7.9132187868
 20
15.7064179399
 30
0.0
 10
7.9116678256
 20
15.7084406398
 30
0.0
 10
7.9095239097
 20
15.7110791044
 30
0.0
 10
7.9070423403
 20
15.7139991558
 30
0.0
 10
7.9042467026
 20
15.7171725611
 30
0.0
 10
7.9011636437
 20
15.7205684057
 30
0.0
 10
7.8978229166
 20
15.7241535401
 30
0.0
 10
7.8929766495
 20
15.7292352434
 30
0.0
 10
7.8865313056
 20
15.7357813984
 30
0.0
 10
7.8812013355
 20
15.7409988493
 30
0.0
 10
7.8784603128
 20
15.7436346489
 30
0.0
  0
SPLINE
  5
49F
100
AcDbEntity
  8
0
100
AcDbSpline
 62
7
  6
CONTINUOUS
 70
0
 71
3
 72
27
 73
23
 74
0
 42
0.0000001
 43
0.0000001
 44
0.0000000001
 40
0.0
 40
0.0
 40
0.0
 40
0.0
 40
0.0022689865
 40
0.004646256
 40
0.0072652156
 40
0.0102265686
 40
0.0174194144
 40
0.0265582266
 40
0.0377839085
 40
0.0511556483
 40
0.0666897659
 40
0.0843836882
 40
0.1261544249
 40
0.1761864443
 40
0.2340657003
 40
0.2992838329
 40
0.3712424475
 40
0.4492695939
 40
0.5326303394
 40
0.6205279489
 40
0.8064940024
 40
1.0
 40
1.0
 40
1.0
 40
1.0
 10
7.5820142816
 20
16.0325209132
 30
0.0
 10
7.5820480685
 20
16.0325499828
 30
0.0
 10
7.582109577
 20
16.0326191164
 30
0.0
 10
7.5821743449
 20
16.0327477807
 30
0.0
 10
7.5822126644
 20
16.0329003809
 30
0.0
 10
7.5822305661
 20
16.0331516103
 30
0.0
 10
7.5821788091
 20
16.0335303193
 30
0.0
 10
7.5820248352
 20
16.0340501629
 30
0.0
 10
7.5817739028
 20
16.0346644806
 30
0.0
 10
7.581426021
 20
16.0353723258
 30
0.0
 10
7.5809813479
 20
16.0361728068
 30
0.0
 10
7.5802166141
 20
16.0374323467
 30
0.0
 10
7.5790150984
 20
16.0392176314
 30
0.0
 10
7.5772793431
 20
16.04159145
 30
0.0
 10
7.5751930586
 20
16.0442777547
 30
0.0
 10
7.5727755494
 20
16.0472507657
 30
0.0
 10
7.5700492444
 20
16.0504818353
 30
0.0
 10
7.5670400352
 20
16.0539397428
 30
0.0
 10
7.5637766943
 20
16.0575909562
 30
0.0
 10
7.5590389331
 20
16.0627675042
 30
0.0
 10
7.5527304913
 20
16.0694386331
 30
0.0
 10
7.5475074071
 20
16.074757656
 30
0.0
 10
7.5448195736
 20
16.0774454895
 30
0.0
  0
LINE
  5
4A0
100
AcDbEntity
  8
0
100
AcDbLine
 62
7
  6
CONTINUOUS
 10
8.6724309468
 20
14.8966229288
 11
8.6716015075
 21
14.8973998005
  0
SPLINE
  5
4A1
100
AcDbEntity
  8
0
100
AcDbSpline
 62
7
  6
CONTINUOUS
 70
0
 71
3
 72
10
 73
6
 74
0
 42
0.0000001
 43
0.0000001
 44
0.0000000001
 40
0.0
 40
0.0
 40
0.0
 40
0.0
 40
0.2218565095
 40
0.4676734821
 40
1.0
 40
1.0
 40
1.0
 40
1.0
 10
8.6716015075
 20
14.8973998005
 30
0.0
 10
8.6695629743
 20
14.8993058929
 30
0.0
 10
8.6652418811
 20
14.9032984389
 30
0.0
 10
8.6559286097
 20
14.9117547301
 30
0.0
 10
8.648608244
 20
14.9182538307
 30
0.0
 10
8.6435729342
 20
14.9226682867
 30
0.0
  0
SPLINE
  5
4A2
100
AcDbEntity
  8
0
100
AcDbSpline
 62
7
  6
CONTINUOUS
 70
0
 71
3
 72
27
 73
23
 74
0
 42
0.0000001
 43
0.0000001
 44
0.0000000001
 40
0.0
 40
0.0
 40
0.0
 40
0.0
 40
0.0022220323
 40
0.004566373
 40
0.0071660813
 40
0.0101195902
 40
0.0173212996
 40
0.02648845
 40
0.0377527946
 40
0.0511680023
 40
0.0667471201
 40
0.0844853538
 40
0.1263363018
 40
0.1764307204
 40
0.23435027
 40
0.2995852334
 40
0.3715382855
 40
0.4495403731
 40
0.5328610338
 40
0.6207090406
 40
0.8065706391
 40
1.0
 40
1.0
 40
1.0
 40
1.0
 10
7.2474320822
 20
16.3655097909
 30
0.0
 10
7.2474651635
 20
16.3655382532
 30
0.0
 10
7.2475253742
 20
16.3656064531
 30
0.0
 10
7.2475883492
 20
16.3657337936
 30
0.0
 10
7.2476254217
 20
16.3658854268
 30
0.0
 10
7.2476423848
 20
16.3661362739
 30
0.0
 10
7.2475909505
 20
16.3665153782
 30
0.0
 10
7.2474395208
 20
16.3670373441
 30
0.0
 10
7.2471931162
 20
16.3676556411
 30
0.0
 10
7.2468518039
 20
16.3683692483
 30
0.0
 10
7.2464157488
 20
16.3691771988
 30
0.0
 10
7.2456662809
 20
16.3704493949
 30
0.0
 10
7.2444892736
 20
16.3722547462
 30
0.0
 10
7.2427892835
 20
16.3746579775
 30
0.0
 10
7.2407465597
 20
16.3773796312
 30
0.0
 10
7.2383799859
 20
16.3803936642
 30
0.0
 10
7.2357114416
 20
16.3836711713
 30
0.0
 10
7.2327661318
 20
16.3871806722
 30
0.0
 10
7.2295720323
 20
16.3908883631
 30
0.0
 10
7.224934424
 20
16.3961479039
 30
0.0
 10
7.2187575905
 20
16.4029324742
 30
0.0
 10
7.2136419029
 20
16.4083479406
 30
0.0
 10
7.211008733
 20
16.4110862287
 30
0.0
  0
SPLINE
  5
4A3
100
AcDbEntity
  8
0
100
AcDbSpline
 62
7
  6
CONTINUOUS
 70
0
 71
3
 72
28
 73
24
 74
0
 42
0.0000001
 43
0.0000001
 44
0.0000000001
 40
0.0
 40
0.0
 40
0.0
 40
0.0
 40
0.0020813104
 40
0.0043056233
 40
0.0068095098
 40
0.0096896225
 40
0.0167976994
 40
0.0259192171
 40
0.0371688757
 40
0.0505897079
 40
0.0661882925
 40
0.083955471
 40
0.1038661868
 40
0.1258828915
 40
0.1760587823
 40
0.2340565632
 40
0.2993599149
 40
0.3713684286
 40
0.4494121125
 40
0.5327618935
 40
0.6206297362
 40
0.8065211173
 40
1.0
 40
1.0
 40
1.0
 40
1.0
 10
6.9274750957
 20
16.6839474918
 30
0.0
 10
6.9275060489
 20
16.6839741226
 30
0.0
 10
6.927562158
 20
16.6840391076
 30
0.0
 10
6.9276188525
 20
16.6841615601
 30
0.0
 10
6.9276501571
 20
16.6843084866
 30
0.0
 10
6.9276598036
 20
16.6845542311
 30
0.0
 10
6.9276006801
 20
16.6849273055
 30
0.0
 10
6.9274431376
 20
16.6854435419
 30
0.0
 10
6.9271925329
 20
16.6860581233
 30
0.0
 10
6.9268490504
 20
16.6867699096
 30
0.0
 10
6.9264128113
 20
16.6875778002
 30
0.0
 10
6.9258845002
 20
16.6884798456
 30
0.0
 10
6.9252651994
 20
16.6894739733
 30
0.0
 10
6.9242759364
 20
16.6909862012
 30
0.0
 10
6.9228174939
 20
16.6930836183
 30
0.0
 10
6.9208024575
 20
16.6958266846
 30
0.0
 10
6.9184715293
 20
16.6988681581
 30
0.0
 10
6.9158466243
 20
16.7021790111
 30
0.0
 10
6.912952378
 20
16.7057275487
 30
0.0
 10
6.9098161984
 20
16.7094797853
 30
0.0
 10
6.9052657247
 20
16.714806975
 30
0.0
 10
6.8992091168
 20
16.7216884065
 30
0.0
 10
6.8941965245
 20
16.7271906133
 30
0.0
 10
6.8916170825
 20
16.729975321
 30
0.0
  0
LINE
  5
4A4
100
AcDbEntity
  8
0
100
AcDbLine
 62
7
  6
CONTINUOUS
 10
7.1739213348
 20
16.2981181602
 11
7.1712515436
 21
16.3012436735
  0
LINE
  5
4A5
100
AcDbEntity
  8
0
100
AcDbLine
 62
7
  6
CONTINUOUS
 10
7.1712515436
 20
16.3012436735
 11
7.1665615181
 21
16.3063253662
  0
SPLINE
  5
4A6
100
AcDbEntity
  8
0
100
AcDbSpline
 62
7
  6
CONTINUOUS
 70
0
 71
3
 72
27
 73
23
 74
0
 42
0.0000001
 43
0.0000001
 44
0.0000000001
 40
0.0
 40
0.0
 40
0.0
 40
0.0
 40
0.0018530651
 40
0.0038780928
 40
0.0062186162
 40
0.0089686594
 40
0.0158950065
 40
0.0249059382
 40
0.0360921506
 40
0.0494821006
 40
0.0650735709
 40
0.0828515347
 40
0.102786263
 40
0.1248371328
 40
0.1751025909
 40
0.2332054438
 40
0.2986189446
 40
0.3707360568
 40
0.4488825361
 40
0.6202821728
 40
0.8063406827
 40
1.0
 40
1.0
 40
1.0
 40
1.0
 10
6.6361265071
 20
16.9739163563
 30
0.0
 10
6.636154011
 20
16.9739400185
 30
0.0
 10
6.6362033896
 20
16.973999745
 30
0.0
 10
6.6362494951
 20
16.9741139436
 30
0.0
 10
6.6362707704
 20
16.9742525388
 30
0.0
 10
6.6362669883
 20
16.9744885549
 30
0.0
 10
6.6361926777
 20
16.9748492922
 30
0.0
 10
6.6360208202
 20
16.9753522365
 30
0.0
 10
6.6357576224
 20
16.9759555704
 30
0.0
 10
6.6354034488
 20
16.9766580126
 30
0.0
 10
6.6349584258
 20
16.9774583222
 30
0.0
 10
6.6344233388
 20
16.9783545095
 30
0.0
 10
6.6337993258
 20
16.9793444707
 30
0.0
 10
6.6328063505
 20
16.9808533496
 30
0.0
 10
6.6313495098
 20
16.9829509567
 30
0.0
 10
6.6293449144
 20
16.9857005158
 30
0.0
 10
6.6270330936
 20
16.988754771
 30
0.0
 10
6.6244358942
 20
16.9920845792
 30
0.0
 10
6.6205019095
 20
16.9970028406
 30
0.0
 10
6.6150670681
 20
17.003576519
 30
0.0
 10
6.6080518062
 20
17.0117758508
 30
0.0
 10
6.6031331412
 20
17.017351237
 30
0.0
 10
6.6006040097
 20
17.0201762231
 30
0.0
  0
LINE
  5
4A7
100
AcDbEntity
  8
0
100
AcDbLine
 62
7
  6
CONTINUOUS
 10
7.5115873524
 20
15.9620543574
 11
7.5112966594
 21
15.9626141036
  0
SPLINE
  5
4A8
100
AcDbEntity
  8
0
100
AcDbSpline
 62
7
  6
CONTINUOUS
 70
0
 71
3
 72
29
 73
25
 74
0
 42
0.0000001
 43
0.0000001
 44
0.0000000001
 40
0.0
 40
0.0
 40
0.0
 40
0.0
 40
0.0018374825
 40
0.0034844859
 40
0.0056889934
 40
0.0084679678
 40
0.0118279353
 40
0.0157713767
 40
0.0202988576
 40
0.0311031281
 40
0.0442265937
 40
0.0596394941
 40
0.0773085005
 40
0.1192472405
 40
0.1696461039
 40
0.2280234051
 40
0.2938232573
 40
0.3664147196
 40
0.4451020253
 40
0.5291348029
 40
0.6177105076
 40
0.7099769437
 40
0.805052372
 40
1.0
 40
1.0
 40
1.0
 40
1.0
 10
6.670363983
 20
16.8480737761
 30
0.0
 10
6.6703909532
 20
16.8480969976
 30
0.0
 10
6.6703834492
 20
16.8481814464
 30
0.0
 10
6.6703502095
 20
16.8482803056
 30
0.0
 10
6.6702974769
 20
16.848399948
 30
0.0
 10
6.670222311
 20
16.8485421697
 30
0.0
 10
6.6701238847
 20
16.848711212
 30
0.0
 10
6.6700023953
 20
16.8489054259
 30
0.0
 10
6.6697971064
 20
16.8492173328
 30
0.0
 10
6.6694812935
 20
16.8496691032
 30
0.0
 10
6.6690307468
 20
16.8502836675
 30
0.0
 10
6.6684899306
 20
16.8509967548
 30
0.0
 10
6.6675977844
 20
16.8521437238
 30
0.0
 10
6.6662649948
 20
16.8538062421
 30
0.0
 10
6.6644117088
 20
16.856061703
 30
0.0
 10
6.662241721
 20
16.8586549251
 30
0.0
 10
6.659775817
 20
16.8615608739
 30
0.0
 10
6.6570375283
 20
16.8647515183
 30
0.0
 10
6.6540530726
 20
16.8681961994
 30
0.0
 10
6.6508509643
 20
16.8718618828
 30
0.0
 10
6.6474618686
 20
16.8757134068
 30
0.0
 10
6.6439182699
 20
16.8797138362
 30
0.0
 10
6.638991476
 20
16.8852413434
 30
0.0
 10
6.6352353085
 20
16.8894182884
 30
0.0
 10
6.6327027098
 20
16.8922188944
 30
0.0
  0
SPLINE
  5
4A9
100
AcDbEntity
  8
0
100
AcDbSpline
 62
7
  6
CONTINUOUS
 70
0
 71
3
 72
27
 73
23
 74
0
 42
0.0000001
 43
0.0000001
 44
0.0000000001
 40
0.0
 40
0.0
 40
0.0
 40
0.0
 40
0.0015472343
 40
0.0033078903
 40
0.0054343394
 40
0.008014307
 40
0.0146988699
 40
0.0235541147
 40
0.0346412052
 40
0.0479718338
 40
0.0635337169
 40
0.0813052292
 40
0.1012516827
 40
0.1233289958
 40
0.1736811976
 40
0.2319017104
 40
0.2974514126
 40
0.3697145086
 40
0.4480101494
 40
0.6197041613
 40
0.8060473409
 40
1.0
 40
1.0
 40
1.0
 40
1.0
 10
6.386118964
 20
17.222742766
 30
0.0
 10
6.3861418639
 20
17.2227624663
 30
0.0
 10
6.3861821301
 20
17.2228153426
 30
0.0
 10
6.3862135729
 20
17.2229181855
 30
0.0
 10
6.3862210511
 20
17.2230449977
 30
0.0
 10
6.3861982193
 20
17.223266849
 30
0.0
 10
6.3861021568
 20
17.2236092762
 30
0.0
 10
6.3859086211
 20
17.224092017
 30
0.0
 10
6.3856251608
 20
17.2246770535
 30
0.0
 10
6.3852523943
 20
17.2253630039
 30
0.0
 10
6.3847904975
 20
17.2261484588
 30
0.0
 10
6.3842403942
 20
17.2270314165
 30
0.0
 10
6.3836032953
 20
17.2280097521
 30
0.0
 10
6.382594667
 20
17.2295049399
 30
0.0
 10
6.3811246086
 20
17.2315898114
 30
0.0
 10
6.3791132829
 20
17.2343306498
 30
0.0
 10
6.3768034183
 20
17.2373824785
 30
0.0
 10
6.3742169686
 20
17.2407160916
 30
0.0
 10
6.3703101702
 20
17.2456478167
 30
0.0
 10
6.3649315473
 20
17.2522544684
 30
0.0
 10
6.358011735
 20
17.2605166418
 30
0.0
 10
6.3531734978
 20
17.2661489008
 30
0.0
 10
6.3506888286
 20
17.2690064091
 30
0.0
  0
SPLINE
  5
4AA
100
AcDbEntity
  8
0
100
AcDbSpline
 62
7
  6
CONTINUOUS
 70
0
 71
3
 72
28
 73
24
 74
0
 42
0.0000001
 43
0.0000001
 44
0.0000000001
 40
0.0
 40
0.0
 40
0.0
 40
0.0
 40
0.0011784055
 40
0.0026338363
 40
0.0045231364
 40
0.0069187275
 40
0.0098541062
 40
0.013346051
 40
0.022029619
 40
0.0330023296
 40
0.0462590835
 40
0.0617777318
 40
0.0795303514
 40
0.1215718153
 40
0.1719994328
 40
0.2303355549
 40
0.2960288005
 40
0.3684541749
 40
0.4469231901
 40
0.5306953344
 40
0.6189776801
 40
0.8056811288
 40
1.0
 40
1.0
 40
1.0
 40
1.0
 10
6.1883782174
 20
17.4195511427
 30
0.0
 10
6.1883955996
 20
17.4195660952
 30
0.0
 10
6.1884245072
 20
17.4196113281
 30
0.0
 10
6.1884374645
 20
17.4196997429
 30
0.0
 10
6.1884282732
 20
17.419811553
 30
0.0
 10
6.1883969011
 20
17.4199488142
 30
0.0
 10
6.1883434709
 20
17.4201121128
 30
0.0
 10
6.1882341716
 20
17.4203852151
 30
0.0
 10
6.1880368165
 20
17.4207905879
 30
0.0
 10
6.1877267959
 20
17.4213510739
 30
0.0
 10
6.1873283462
 20
17.4220140804
 30
0.0
 10
6.1868424145
 20
17.4227779904
 30
0.0
 10
6.1860320417
 20
17.4239989834
 30
0.0
 10
6.1848047126
 20
17.425757975
 30
0.0
 10
6.1830795748
 20
17.4281316377
 30
0.0
 10
6.1810448565
 20
17.430848766
 30
0.0
 10
6.1787200285
 20
17.4338830308
 30
0.0
 10
6.176127143
 20
17.4372051793
 30
0.0
 10
6.1732908832
 20
17.440783422
 30
0.0
 10
6.170238154
 20
17.4445836427
 30
0.0
 10
6.1658349881
 20
17.4500001677
 30
0.0
 10
6.1600183166
 20
17.4570393861
 30
0.0
 10
6.1552430291
 20
17.4627103654
 30
0.0
 10
6.1527947704
 20
17.4655915443
 30
0.0
  0
SPLINE
  5
4AB
100
AcDbEntity
  8
0
100
AcDbSpline
 62
7
  6
CONTINUOUS
 70
0
 71
3
 72
13
 73
9
 74
0
 42
0.0000001
 43
0.0000001
 44
0.0000000001
 40
0.0
 40
0.0
 40
0.0
 40
0.0
 40
0.0766743605
 40
0.1583828851
 40
0.2516620898
 40
0.3609955402
 40
0.6374804312
 40
1.0
 40
1.0
 40
1.0
 40
1.0
 10
8.2084506665
 20
15.3577905506
 30
0.0
 10
8.2084710261
 20
15.3578080652
 30
0.0
 10
8.2085073563
 20
15.3578515352
 30
0.0
 10
8.2085400263
 20
15.3579346742
 30
0.0
 10
8.2085522291
 20
15.3580342966
 30
0.0
 10
8.2085415728
 20
15.3582024306
 30
0.0
 10
8.2084714494
 20
15.3584571434
 30
0.0
 10
8.2083832576
 20
15.3586630768
 30
0.0
 10
8.2083288122
 20
15.3587777908
 30
0.0
  0
LINE
  5
4AC
100
AcDbEntity
  8
0
100
AcDbLine
 62
7
  6
CONTINUOUS
 10
8.2160648855
 20
15.2799828389
 11
8.1730113913
 21
15.3197080161
  0
SPLINE
  5
4AD
100
AcDbEntity
  8
0
100
AcDbSpline
 62
7
  6
CONTINUOUS
 70
0
 71
3
 72
32
 73
28
 74
0
 42
0.0000001
 43
0.0000001
 44
0.0000000001
 40
0.0
 40
0.0
 40
0.0
 40
0.0
 40
0.0003647155
 40
0.0012720812
 40
0.0027699954
 40
0.0048658673
 40
0.0075604365
 40
0.010852723
 40
0.0147411971
 40
0.0192240735
 40
0.0299648828
 40
0.0430502777
 40
0.058446208
 40
0.0761177512
 40
0.0960224408
 40
0.1181089997
 40
0.1423254536
 40
0.1686135244
 40
0.2271365811
 40
0.2931098493
 40
0.3658877744
 40
0.444760838
 40
0.5289647919
 40
0.6176815473
 40
0.7100461209
 40
0.8051654871
 40
1.0
 40
1.0
 40
1.0
 40
1.0
 10
8.5204147018
 20
15.0068269097
 30
0.0
 10
8.5204200842
 20
15.0068315377
 30
0.0
 10
8.5204068356
 20
15.0068623477
 30
0.0
 10
8.520379021
 20
15.0069000117
 30
0.0
 10
8.5203216223
 20
15.0069713654
 30
0.0
 10
8.5202407734
 20
15.0070609869
 30
0.0
 10
8.5201328245
 20
15.0071763423
 30
0.0
 10
8.5199991989
 20
15.007314175
 30
0.0
 10
8.5198394127
 20
15.0074755471
 30
0.0
 10
8.5195754716
 20
15.0077376227
 30
0.0
 10
8.5191806597
 20
15.0081219976
 30
0.0
 10
8.5186294866
 20
15.0086501668
 30
0.0
 10
8.5179773873
 20
15.0092679775
 30
0.0
 10
8.517225941
 20
15.0099738867
 30
0.0
 10
8.5163769563
 20
15.0107661503
 30
0.0
 10
8.5154325109
 20
15.0116428205
 30
0.0
 10
8.5143949032
 20
15.0126017423
 30
0.0
 10
8.5128338127
 20
15.0140390981
 30
0.0
 10
8.510670014
 20
15.0160217065
 30
0.0
 10
8.5078328936
 20
15.0186088285
 30
0.0
 10
8.504697581
 20
15.0214567543
 30
0.0
 10
8.5012946075
 20
15.0245377275
 30
0.0
 10
8.4976570303
 20
15.0278217831
 30
0.0
 10
8.4938202057
 20
15.0312769897
 30
0.0
 10
8.4898213963
 20
15.034869789
 30
0.0
 10
8.4842809024
 20
15.0398370311
 30
0.0
 10
8.4800731769
 20
15.0435978019
 30
0.0
 10
8.4772433528
 20
15.046122111
 30
0.0
  0
SPLINE
  5
4AE
100
AcDbEntity
  8
0
100
AcDbSpline
 62
7
  6
CONTINUOUS
 70
0
 71
3
 72
20
 73
16
 74
0
 42
0.0000001
 43
0.0000001
 44
0.0000000001
 40
0.0
 40
0.0
 40
0.0
 40
0.0
 40
0.0178552831
 40
0.0380956498
 40
0.0629358838
 40
0.093591516
 40
0.1306899387
 40
0.174567126
 40
0.22541114
 40
0.2833228299
 40
0.3483344039
 40
0.4204452115
 40
0.5858683144
 40
0.779260402
 40
1.0
 40
1.0
 40
1.0
 40
1.0
 10
7.8938484172
 20
15.6708907032
 30
0.0
 10
7.8938824092
 20
15.670919945
 30
0.0
 10
7.8939410783
 20
15.6709998763
 30
0.0
 10
7.8939773763
 20
15.671156612
 30
0.0
 10
7.8939704101
 20
15.6713479884
 30
0.0
 10
7.8939226241
 20
15.6715762893
 30
0.0
 10
7.893834244
 20
15.6718427528
 30
0.0
 10
7.8937050751
 20
15.6721478193
 30
0.0
 10
7.8935349701
 20
15.6724914893
 30
0.0
 10
7.8933239002
 20
15.6728735489
 30
0.0
 10
7.8930720166
 20
15.6732936888
 30
0.0
 10
7.8926628279
 20
15.6739339488
 30
0.0
 10
7.8920472415
 20
15.6748243645
 30
0.0
 10
7.8911809065
 20
15.675994032
 30
0.0
 10
7.890541302
 20
15.6768142118
 30
0.0
 10
7.8901964167
 20
15.6772481906
 30
0.0
  0
SPLINE
  5
4AF
100
AcDbEntity
  8
0
100
AcDbSpline
 62
7
  6
CONTINUOUS
 70
0
 71
3
 72
30
 73
26
 74
0
 42
0.0000001
 43
0.0000001
 44
0.0000000001
 40
0.0
 40
0.0
 40
0.0
 40
0.0
 40
0.0005674314
 40
0.0010089717
 40
0.0015817628
 40
0.0031472048
 40
0.0052913339
 40
0.0113414294
 40
0.019751552
 40
0.0305119372
 40
0.0435991127
 40
0.0589862225
 40
0.0766368965
 40
0.0965082261
 40
0.1185552646
 40
0.1689550642
 40
0.2273552611
 40
0.2931946798
 40
0.3658411663
 40
0.4445988364
 40
0.528711216
 40
0.6173724341
 40
0.7097301997
 40
0.8048938157
 40
1.0
 40
1.0
 40
1.0
 40
1.0
 10
6.9196458053
 20
16.570207632
 30
0.0
 10
6.9196541803
 20
16.570214816
 30
0.0
 10
6.9196575157
 20
16.5702376673
 30
0.0
 10
6.9196515649
 20
16.5702670957
 30
0.0
 10
6.9196359044
 20
16.570315231
 30
0.0
 10
6.9195992808
 20
16.5703900444
 30
0.0
 10
6.919503811
 20
16.5705542443
 30
0.0
 10
6.9193209907
 20
16.5708206986
 30
0.0
 10
6.9190287722
 20
16.5712145657
 30
0.0
 10
6.9186424578
 20
16.5717088502
 30
0.0
 10
6.9181633114
 20
16.5723025818
 30
0.0
 10
6.917592068
 20
16.5729941001
 30
0.0
 10
6.9169301226
 20
16.5737817433
 30
0.0
 10
6.9161790052
 20
16.5746635797
 30
0.0
 10
6.9150076582
 20
16.5760239721
 30
0.0
 10
6.9133344393
 20
16.577940866
 30
0.0
 10
6.911085485
 20
16.5804854618
 30
0.0
 10
6.908536278
 20
16.5833419739
 30
0.0
 10
6.9057112812
 20
16.5864828962
 30
0.0
 10
6.9026375701
 20
16.5898779945
 30
0.0
 10
6.8993446165
 20
16.5934946589
 30
0.0
 10
6.8958640326
 20
16.5972981244
 30
0.0
 10
6.8922292867
 20
16.601251794
 30
0.0
 10
6.887181923
 20
16.6067184557
 30
0.0
 10
6.8833401741
 20
16.6108538426
 30
0.0
 10
6.8807525624
 20
16.6136284522
 30
0.0
  0
SPLINE
  5
4B0
100
AcDbEntity
  8
0
100
AcDbSpline
 62
7
  6
CONTINUOUS
 70
0
 71
3
 72
17
 73
13
 74
0
 42
0.0000001
 43
0.0000001
 44
0.0000000001
 40
0.0
 40
0.0
 40
0.0
 40
0.0
 40
0.0220132876
 40
0.0458483062
 40
0.0734035371
 40
0.1059276301
 40
0.1884788153
 40
0.2967261775
 40
0.4318202468
 40
0.5941114609
 40
0.7835692838
 40
1.0
 40
1.0
 40
1.0
 40
1.0
 10
7.5562411251
 20
16.0068906932
 30
0.0
 10
7.5562693865
 20
16.0069150082
 30
0.0
 10
7.5563197686
 20
16.0069763631
 30
0.0
 10
7.5563643687
 20
16.0070941535
 30
0.0
 10
7.5563808162
 20
16.0072363568
 30
0.0
 10
7.5563656305
 20
16.0074783038
 30
0.0
 10
7.5562683482
 20
16.0078465947
 30
0.0
 10
7.5560598403
 20
16.0083580913
 30
0.0
 10
7.5557482408
 20
16.0089711122
 30
0.0
 10
7.5553340086
 20
16.0096842898
 30
0.0
 10
7.5548172846
 20
16.0104963035
 30
0.0
 10
7.5544305522
 20
16.0110647213
 30
0.0
 10
7.5542209492
 20
16.0113654259
 30
0.0
  0
SPLINE
  5
4B1
100
AcDbEntity
  8
0
100
AcDbSpline
 62
7
  6
CONTINUOUS
 70
0
 71
3
 72
61
 73
57
 74
0
 42
0.0000001
 43
0.0000001
 44
0.0000000001
 40
0.0
 40
0.0
 40
0.0
 40
0.0
 40
0.0001679449
 40
0.0003636276
 40
0.0006053711
 40
0.0009030852
 40
0.0012620508
 40
0.0016852423
 40
0.0021744475
 40
0.0027308028
 40
0.0040474996
 40
0.0056386697
 40
0.0075055864
 40
0.0096486626
 40
0.0120676561
 40
0.0147616748
 40
0.0177296086
 40
0.0209702291
 40
0.0282629335
 40
0.0366244748
 40
0.046037104
 40
0.0564799151
 40
0.0679299077
 40
0.0803612823
 40
0.1080545555
 40
0.1393102798
 40
0.1738460314
 40
0.2113493627
 40
0.2514806832
 40
0.2938764329
 40
0.3381524509
 40
0.3839074044
 40
0.4307265797
 40
0.4781854923
 40
0.5732996976
 40
0.6200926939
 40
0.6658086843
 40
0.7100333027
 40
0.7523656893
 40
0.7924222542
 40
0.8298401262
 40
0.8642804846
 40
0.8954317645
 40
0.9230124933
 40
0.9353848703
 40
0.9467742654
 40
0.9571549707
 40
0.9665041851
 40
0.9748011152
 40
0.9820282224
 40
0.9881702788
 40
0.9932161679
 40
0.995325612
 40
0.9971589156
 40
0.9987165704
 40
1.0
 40
1.0
 40
1.0
 40
1.0
 10
9.4884908027
 20
18.5956409784
 30
0.0
 10
9.488522949
 20
18.5956731246
 30
0.0
 10
9.4886095689
 20
18.5957265795
 30
0.0
 10
9.4887731925
 20
18.5957558488
 30
0.0
 10
9.4889729529
 20
18.5957439496
 30
0.0
 10
9.4892112218
 20
18.5956921816
 30
0.0
 10
9.4894892212
 20
18.5956006914
 30
0.0
 10
9.4898075002
 20
18.5954691905
 30
0.0
 10
9.4901662756
 20
18.5952975268
 30
0.0
 10
9.4907311498
 20
18.5949975405
 30
0.0
 10
9.4915364174
 20
18.5945159984
 30
0.0
 10
9.4926173578
 20
18.5938070212
 30
0.0
 10
9.493859799
 20
18.5929376759
 30
0.0
 10
9.4952631683
 20
18.5919083537
 30
0.0
 10
9.4968267394
 20
18.590719427
 30
0.0
 10
9.4985496927
 20
18.5893715939
 30
0.0
 10
9.5004311301
 20
18.5878656495
 30
0.0
 10
9.5032631042
 20
18.5855554332
 30
0.0
 10
9.5071875247
 20
18.5822750251
 30
0.0
 10
9.5123448529
 20
18.5778653225
 30
0.0
 10
9.5181073286
 20
18.5728516889
 30
0.0
 10
9.5244627148
 20
18.5672461841
 30
0.0
 10
9.5313972856
 20
18.5610622207
 30
0.0
 10
9.5417751536
 20
18.551723675
 30
0.0
 10
9.5560643007
 20
18.538716983
 30
0.0
 10
9.5746891394
 20
18.5215851693
 30
0.0
 10
9.5951943895
 20
18.5025754491
 30
0.0
 10
9.6174005688
 20
18.4818667775
 30
0.0
 10
9.6411127166
 20
18.4596534678
 30
0.0
 10
9.6661223418
 20
18.4361436601
 30
0.0
 10
9.6922092093
 20
18.4115573065
 30
0.0
 10
9.719143358
 20
18.3861241651
 30
0.0
 10
9.7466871396
 20
18.360081708
 30
0.0
 10
9.7839264662
 20
18.3248458123
 30
0.0
 10
9.8211541802
 20
18.289607954
 30
0.0
 10
9.8580592327
 20
18.254715545
 30
0.0
 10
9.8849710625
 20
18.2293047171
 30
0.0
 10
9.9110284852
 20
18.2047477929
 30
0.0
 10
9.9360018077
 20
18.1812742675
 30
0.0
 10
9.9596711237
 20
18.15910376
 30
0.0
 10
9.9818283274
 20
18.1384440221
 30
0.0
 10
10.0022789
 20
18.1194889161
 30
0.0
 10
10.0208438514
 20
18.1024169002
 30
0.0
 10
10.0350801717
 20
18.0894631532
 30
0.0
 10
10.0454136487
 20
18.0801692185
 30
0.0
 10
10.0523133675
 20
18.0740200734
 30
0.0
 10
10.0586330373
 20
18.0684502371
 30
0.0
 10
10.0643590074
 20
18.0634730569
 30
0.0
 10
10.0694790996
 20
18.0591004472
 30
0.0
 10
10.0739821457
 20
18.0553425748
 30
0.0
 10
10.0778587785
 20
18.0522085221
 30
0.0
 10
10.0807070975
 20
18.0500067476
 30
0.0
 10
10.0826725303
 20
18.0485721384
 30
0.0
 10
10.0838953696
 20
18.0477223414
 30
0.0
 10
10.0849565613
 20
18.0470328302
 30
0.0
 10
10.0856195592
 20
18.0466421091
 30
0.0
 10
10.0859252559
 20
18.0464770405
 30
0.0
  0
LINE
  5
4B2
100
AcDbEntity
  8
0
100
AcDbLine
 62
7
  6
CONTINUOUS
 10
10.0859252559
 20
18.0464770405
 11
10.0871773437
 21
18.0459325335
  0
LINE
  5
4B3
100
AcDbEntity
  8
0
100
AcDbLine
 62
7
  6
CONTINUOUS
 10
6.2861774896
 20
17.2737986392
 11
6.2593132319
 21
17.3054258907
  0
SPLINE
  5
4B4
100
AcDbEntity
  8
0
100
AcDbSpline
 62
7
  6
CONTINUOUS
 70
0
 71
3
 72
22
 73
18
 74
0
 42
0.0000001
 43
0.0000001
 44
0.0000000001
 40
0.0
 40
0.0
 40
0.0
 40
0.0
 40
0.0038891286
 40
0.0085436197
 40
0.0145581639
 40
0.0222157128
 40
0.0316515815
 40
0.0429364764
 40
0.0711914613
 40
0.107134607
 40
0.150795955
 40
0.2021668646
 40
0.2612186065
 40
0.4020953892
 40
0.5727722693
 40
0.7724180745
 40
1.0
 40
1.0
 40
1.0
 40
1.0
 10
7.8686867436
 20
15.6256942704
 30
0.0
 10
7.8686961817
 20
15.6257024026
 30
0.0
 10
7.8687118567
 20
15.6257265118
 30
0.0
 10
7.8687173087
 20
15.6257737736
 30
0.0
 10
7.8687090774
 20
15.6258322096
 30
0.0
 10
7.8686874252
 20
15.6259032059
 30
0.0
 10
7.8686523245
 20
15.6259871621
 30
0.0
 10
7.8685818573
 20
15.6261274357
 30
0.0
 10
7.8684567527
 20
15.6263346859
 30
0.0
 10
7.8682622662
 20
15.6266203455
 30
0.0
 10
7.8680133136
 20
15.6269581706
 30
0.0
 10
7.8677101621
 20
15.6273477411
 30
0.0
 10
7.867203256
 20
15.6279731621
 30
0.0
 10
7.86643409
 20
15.6288776715
 30
0.0
 10
7.8653495871
 20
15.6301047238
 30
0.0
 10
7.8640612675
 20
15.6315220677
 30
0.0
 10
7.863130148
 20
15.6325250974
 30
0.0
 10
7.8626320574
 20
15.6330574445
 30
0.0
  0
SPLINE
  5
4B5
100
AcDbEntity
  8
0
100
AcDbSpline
 62
7
  6
CONTINUOUS
 70
0
 71
3
 72
14
 73
10
 74
0
 42
0.0000001
 43
0.0000001
 44
0.0000000001
 40
0.0
 40
0.0
 40
0.0
 40
0.0
 40
0.0619487063
 40
0.1332236023
 40
0.2211839682
 40
0.3298148159
 40
0.4611900344
 40
0.6163694766
 40
1.0
 40
1.0
 40
1.0
 40
1.0
 10
7.2186364477
 20
16.3428928548
 30
0.0
 10
7.2186710785
 20
16.3429226683
 30
0.0
 10
7.2187307882
 20
16.343005174
 30
0.0
 10
7.2187685223
 20
16.343166675
 30
0.0
 10
7.2187640677
 20
16.3433654513
 30
0.0
 10
7.2187193067
 20
16.343603906
 30
0.0
 10
7.2186344508
 20
16.3438831981
 30
0.0
 10
7.2184543723
 20
16.3443439421
 30
0.0
 10
7.2182770829
 20
16.3447005205
 30
0.0
 10
7.2181442015
 20
16.3449503637
 30
0.0
  0
SPLINE
  5
4B6
100
AcDbEntity
  8
0
100
AcDbSpline
 62
7
  6
CONTINUOUS
 70
0
 71
3
 72
44
 73
40
 74
0
 42
0.0000001
 43
0.0000001
 44
0.0000000001
 40
0.0
 40
0.0
 40
0.0
 40
0.0
 40
0.0608114437
 40
0.1302003361
 40
0.2065628126
 40
0.2881313836
 40
0.3730183911
 40
0.4592599953
 40
0.5448614366
 40
0.6278436503
 40
0.6677496457
 40
0.7062889795
 40
0.7432389171
 40
0.7783859872
 40
0.8115271384
 40
0.8424711172
 40
0.8710396373
 40
0.8970683106
 40
0.9204077074
 40
0.9409243629
 40
0.9500870145
 40
0.9585018839
 40
0.9661571262
 40
0.9730423004
 40
0.9791485864
 40
0.9844680661
 40
0.988995368
 40
0.9909608083
 40
0.9927270748
 40
0.9942944305
 40
0.995663553
 40
0.996835713
 40
0.9978132499
 40
0.9986006751
 40
0.999207383
 40
0.9994493273
 40
0.9996561336
 40
0.9998357195
 40
1.0
 40
1.0
 40
1.0
 40
1.0
 10
9.4046859585
 20
18.3431589533
 30
0.0
 10
9.4146655634
 20
18.3340656981
 30
0.0
 10
9.435948487
 20
18.3145045145
 30
0.0
 10
9.4695578649
 20
18.2833023194
 30
0.0
 10
9.5064310296
 20
18.2488427923
 30
0.0
 10
9.5457404899
 20
18.2119510898
 30
0.0
 10
9.5866025832
 20
18.173508773
 30
0.0
 10
9.6280983608
 20
18.1344333562
 30
0.0
 10
9.6692946731
 20
18.0956567884
 30
0.0
 10
9.7030294817
 20
18.0639622515
 30
0.0
 10
9.7291823163
 20
18.0394572029
 30
0.0
 10
9.7478975267
 20
18.0219613749
 30
0.0
 10
9.7658649694
 20
18.0052128381
 30
0.0
 10
9.7829841378
 20
17.9893120066
 30
0.0
 10
9.7991594135
 20
17.9743543435
 30
0.0
 10
9.8143006426
 20
17.9604297899
 30
0.0
 10
9.8283236643
 20
17.9476222347
 30
0.0
 10
9.8411507052
 20
17.9360089304
 30
0.0
 10
9.852710963
 20
17.9256602832
 30
0.0
 10
9.8615391877
 20
17.9178742115
 30
0.0
 10
9.8679268718
 20
17.9123309525
 30
0.0
 10
9.8721808191
 20
17.9086857305
 30
0.0
 10
9.8760757828
 20
17.9053988562
 30
0.0
 10
9.8796065571
 20
17.9024754249
 30
0.0
 10
9.8827683054
 20
17.8999197986
 30
0.0
 10
9.8855569276
 20
17.8977359397
 30
0.0
 10
9.8876547227
 20
17.8961616222
 30
0.0
 10
9.8891466963
 20
17.8950955465
 30
0.0
 10
9.890116587
 20
17.8944295063
 30
0.0
 10
9.890990878
 20
17.8938585773
 30
0.0
 10
9.8917693834
 20
17.8933828029
 30
0.0
 10
9.8924518705
 20
17.8930021701
 30
0.0
 10
9.8930385482
 20
17.8927161195
 30
0.0
 10
9.8935294553
 20
17.8925244673
 30
0.0
 10
9.8938839826
 20
17.8924352139
 30
0.0
 10
9.8941185871
 20
17.8924205763
 30
0.0
 10
9.8942582118
 20
17.892434851
 30
0.0
 10
9.8943752793
 20
17.8924743628
 30
0.0
 10
9.8944385761
 20
17.8925196153
 30
0.0
 10
9.8944643721
 20
17.8925453997
 30
0.0
  0
SPLINE
  5
4B7
100
AcDbEntity
  8
0
100
AcDbSpline
 62
7
  6
CONTINUOUS
 70
0
 71
3
 72
19
 73
15
 74
0
 42
0.0000001
 43
0.0000001
 44
0.0000000001
 40
0.0
 40
0.0
 40
0.0
 40
0.0
 40
0.0145836895
 40
0.0325888937
 40
0.05613995
 40
0.0861949651
 40
0.1231783387
 40
0.1672830624
 40
0.2185987584
 40
0.2771592939
 40
0.4159012658
 40
0.583106877
 40
0.7781051802
 40
1.0
 40
1.0
 40
1.0
 40
1.0
 10
6.9040412238
 20
16.6559990636
 30
0.0
 10
6.9040764239
 20
16.6560293739
 30
0.0
 10
6.9041342237
 20
16.6561220441
 30
0.0
 10
6.9041539296
 20
16.6563029082
 30
0.0
 10
6.9041249013
 20
16.6565301689
 30
0.0
 10
6.9040468637
 20
16.656808682
 30
0.0
 10
6.9039200093
 20
16.6571395067
 30
0.0
 10
6.9037438146
 20
16.6575229063
 30
0.0
 10
6.9035182805
 20
16.6579585777
 30
0.0
 10
6.9031291597
 20
16.6586484221
 30
0.0
 10
6.9025153394
 20
16.6596344685
 30
0.0
 10
6.9016243521
 20
16.6609583574
 30
0.0
 10
6.9005456
 20
16.6624743505
 30
0.0
 10
6.8997545038
 20
16.6635409457
 30
0.0
 10
6.8993292687
 20
16.6641054861
 30
0.0
  0
SPLINE
  5
4B8
100
AcDbEntity
  8
0
100
AcDbSpline
 62
7
  6
CONTINUOUS
 70
0
 71
3
 72
24
 73
20
 74
0
 42
0.0000001
 43
0.0000001
 44
0.0000000001
 40
0.0
 40
0.0
 40
0.0
 40
0.0
 40
0.0032578671
 40
0.0053029093
 40
0.0077426674
 40
0.0139815241
 40
0.0221894435
 40
0.0324400905
 40
0.0447624713
 40
0.0591660787
 40
0.0756451202
 40
0.1147604039
 40
0.1619399267
 40
0.2169323938
 40
0.2794435177
 40
0.4255742395
 40
0.5970479251
 40
0.7899816556
 40
1.0
 40
1.0
 40
1.0
 40
1.0
 10
6.6338939424
 20
16.9248709901
 30
0.0
 10
6.6339252754
 20
16.9248979722
 30
0.0
 10
6.6339573879
 20
16.9249633994
 30
0.0
 10
6.633967014
 20
16.9250610637
 30
0.0
 10
6.6339589398
 20
16.9251975906
 30
0.0
 10
6.6339068953
 20
16.9254067342
 30
0.0
 10
6.6337962814
 20
16.9257002819
 30
0.0
 10
6.6336308823
 20
16.9260545751
 30
0.0
 10
6.6334109267
 20
16.9264692816
 30
0.0
 10
6.6331361845
 20
16.9269439791
 30
0.0
 10
6.6326697823
 20
16.9277002352
 30
0.0
 10
6.6319479616
 20
16.9287871357
 30
0.0
 10
6.6309149795
 20
16.9302531307
 30
0.0
 10
6.6296767608
 20
16.9319372443
 30
0.0
 10
6.6276533239
 20
16.9346023507
 30
0.0
 10
6.6246640814
 20
16.9383897154
 30
0.0
 10
6.6205672687
 20
16.9434103915
 30
0.0
 10
6.6158866052
 20
16.9490004605
 30
0.0
 10
6.6125625619
 20
16.9528874131
 30
0.0
 10
6.6108211723
 20
16.9549055828
 30
0.0
  0
SPLINE
  5
4B9
100
AcDbEntity
  8
0
100
AcDbSpline
 62
7
  6
CONTINUOUS
 70
0
 71
3
 72
28
 73
24
 74
0
 42
0.0000001
 43
0.0000001
 44
0.0000000001
 40
0.0
 40
0.0
 40
0.0
 40
0.0
 40
0.002194975
 40
0.0039516055
 40
0.0062410371
 40
0.0090887583
 40
0.0125062691
 40
0.0164990829
 40
0.0210697042
 40
0.0319460778
 40
0.0451259088
 40
0.0605828559
 40
0.0782863774
 40
0.1202661446
 40
0.1706737226
 40
0.2290294944
 40
0.2947799876
 40
0.3672964904
 40
0.4458865983
 40
0.5298047163
 40
0.6182523779
 40
0.8053186007
 40
1.0
 40
1.0
 40
1.0
 40
1.0
 10
6.4266037241
 20
17.131184652
 30
0.0
 10
6.4266359541
 20
17.1312123892
 30
0.0
 10
6.4266455655
 20
17.1313026284
 30
0.0
 10
6.4266216119
 20
17.1314175555
 30
0.0
 10
6.4265800339
 20
17.1315460293
 30
0.0
 10
6.4265156271
 20
17.1316983627
 30
0.0
 10
6.4264287182
 20
17.1318773195
 30
0.0
 10
6.4263190583
 20
17.1320818748
 30
0.0
 10
6.4261313634
 20
17.132408437
 30
0.0
 10
6.4258378787
 20
17.132879153
 30
0.0
 10
6.4254141715
 20
17.1335167326
 30
0.0
 10
6.4249016629
 20
17.1342538512
 30
0.0
 10
6.4240518464
 20
17.1354357414
 30
0.0
 10
6.4227739445
 20
17.137143442
 30
0.0
 10
6.4209877885
 20
17.1394538543
 30
0.0
 10
6.4188889899
 20
17.1421043385
 30
0.0
 10
6.4164976421
 20
17.1450692633
 30
0.0
 10
6.4138364969
 20
17.148320031
 30
0.0
 10
6.4109309638
 20
17.1518254599
 30
0.0
 10
6.407808713
 20
17.155552026
 30
0.0
 10
6.4033117148
 20
17.1608682241
 30
0.0
 10
6.3973836851
 20
17.1677842622
 30
0.0
 10
6.3925286261
 20
17.1733629252
 30
0.0
 10
6.3900423708
 20
17.1761988501
 30
0.0
  0
SPLINE
  5
4BA
100
AcDbEntity
  8
0
100
AcDbSpline
 62
7
  6
CONTINUOUS
 70
0
 71
3
 72
29
 73
25
 74
0
 42
0.0000001
 43
0.0000001
 44
0.0000000001
 40
0.0
 40
0.0
 40
0.0
 40
0.0
 40
0.0007700723
 40
0.0019236554
 40
0.0035953361
 40
0.0058272781
 40
0.0086347385
 40
0.0120239146
 40
0.0205548017
 40
0.0314224465
 40
0.044608154
 40
0.0600817448
 40
0.0778103407
 40
0.1198553094
 40
0.1703395978
 40
0.2287735357
 40
0.2945960534
 40
0.3671737881
 40
0.4458111319
 40
0.5297615323
 40
0.6182274956
 40
0.7103646174
 40
0.8053036721
 40
1.0
 40
1.0
 40
1.0
 40
1.0
 10
6.0515457473
 20
17.5557393788
 30
0.0
 10
6.0515570658
 20
17.5557491149
 30
0.0
 10
6.0515714584
 20
17.5557873149
 30
0.0
 10
6.0515630604
 20
17.5558569347
 30
0.0
 10
6.0515360817
 20
17.5559514874
 30
0.0
 10
6.0514866501
 20
17.55607201
 30
0.0
 10
6.051415653
 20
17.5562192491
 30
0.0
 10
6.0512805352
 20
17.5564708651
 30
0.0
 10
6.0510534245
 20
17.5568500338
 30
0.0
 10
6.0507110481
 20
17.5573809965
 30
0.0
 10
6.0502812835
 20
17.5580155456
 30
0.0
 10
6.0497651767
 20
17.5587520982
 30
0.0
 10
6.0489136064
 20
17.5599366627
 30
0.0
 10
6.0476408041
 20
17.5616541844
 30
0.0
 10
6.0458702136
 20
17.5639847424
 30
0.0
 10
6.0437969699
 20
17.5666641367
 30
0.0
 10
6.0414410967
 20
17.5696663049
 30
0.0
 10
6.0388251611
 20
17.5729622087
 30
0.0
 10
6.0359742058
 20
17.5765202137
 30
0.0
 10
6.0329153828
 20
17.580306329
 30
0.0
 10
6.0296778138
 20
17.5842844623
 30
0.0
 10
6.0262922648
 20
17.5884168074
 30
0.0
 10
6.0215840322
 20
17.5941279602
 30
0.0
 10
6.0179932058
 20
17.5984451915
 30
0.0
 10
6.0155714564
 20
17.6013406166
 30
0.0
  0
SPLINE
  5
4BB
100
AcDbEntity
  8
0
100
AcDbSpline
 62
7
  6
CONTINUOUS
 70
0
 71
3
 72
31
 73
27
 74
0
 42
0.0000001
 43
0.0000001
 44
0.0000000001
 40
0.0
 40
0.0
 40
0.0
 40
0.0
 40
0.1947558983
 40
0.2898543208
 40
0.3822092353
 40
0.4709261828
 40
0.5551370157
 40
0.6340201692
 40
0.7068072796
 40
0.7727845189
 40
0.8313024787
 40
0.8817897909
 40
0.9038627078
 40
0.9237503934
 40
0.9414018013
 40
0.9567749792
 40
0.9698360588
 40
0.9805527865
 40
0.988903668
 40
0.9921893894
 40
0.9948819275
 40
0.9969836457
 40
0.9985025099
 40
0.9990511686
 40
0.999468882
 40
1.0
 40
1.0
 40
1.0
 40
1.0
 10
6.2593132319
 20
17.3054258907
 30
0.0
 10
6.2568346532
 20
17.3082958524
 30
0.0
 10
6.2531377478
 20
17.3125602645
 30
0.0
 10
6.2482462166
 20
17.3181688784
 30
0.0
 10
6.2447033442
 20
17.3222140884
 30
0.0
 10
6.2412915014
 20
17.326092236
 30
0.0
 10
6.2380439389
 20
17.3297655208
 30
0.0
 10
6.2349923917
 20
17.3331980724
 30
0.0
 10
6.2321667161
 20
17.3363563607
 30
0.0
 10
6.229594669
 20
17.3392094638
 30
0.0
 10
6.2273015486
 20
17.3417293785
 30
0.0
 10
6.2255725004
 20
17.343606717
 30
0.0
 10
6.2243443305
 20
17.344922707
 30
0.0
 10
6.2235479843
 20
17.345767154
 30
0.0
 10
6.2228363172
 20
17.346512124
 30
0.0
 10
6.222211091
 20
17.3471558039
 30
0.0
 10
6.2216739434
 20
17.347696759
 30
0.0
 10
6.2212261718
 20
17.3481336493
 30
0.0
 10
6.2209076538
 20
17.3484304096
 30
0.0
 10
6.2206971329
 20
17.3486135501
 30
0.0
 10
6.2205753361
 20
17.3487131855
 30
0.0
 10
6.2204763693
 20
17.3487862434
 30
0.0
 10
6.2204078067
 20
17.3488298084
 30
0.0
 10
6.2203631186
 20
17.3488495104
 30
0.0
 10
6.2203359688
 20
17.3488580023
 30
0.0
 10
6.2203138492
 20
17.3488556731
 30
0.0
 10
6.2203071053
 20
17.348847833
 30
0.0
  0
LINE
  5
4BC
100
AcDbEntity
  8
0
100
AcDbLine
 62
7
  6
CONTINUOUS
 10
6.217294269
 20
17.3453272812
 11
6.216841114
 21
17.3458546005
  0
LINE
  5
4BD
100
AcDbEntity
  8
0
100
AcDbLine
 62
7
  6
CONTINUOUS
 10
6.216841114
 20
17.3458546005
 11
6.2141764738
 21
17.3489553445
  0
LINE
  5
4BE
100
AcDbEntity
  8
0
100
AcDbLine
 62
7
  6
CONTINUOUS
 10
6.2141764738
 20
17.3489553445
 11
6.1760728378
 21
17.3932958052
  0
SPLINE
  5
4BF
100
AcDbEntity
  8
0
100
AcDbSpline
 62
7
  6
CONTINUOUS
 70
0
 71
3
 72
17
 73
13
 74
0
 42
0.0000001
 43
0.0000001
 44
0.0000000001
 40
0.0
 40
0.0
 40
0.0
 40
0.0
 40
0.2164350632
 40
0.4058980595
 40
0.5681940309
 40
0.703290299
 40
0.8115388029
 40
0.8940885322
 40
0.9266100845
 40
0.9541615484
 40
0.9779919783
 40
1.0
 40
1.0
 40
1.0
 40
1.0
 10
7.4787418073
 20
16.0868452643
 30
0.0
 10
7.4784409435
 20
16.0870550046
 30
0.0
 10
7.4778722226
 20
16.0874419931
 30
0.0
 10
7.4770597775
 20
16.0879590712
 30
0.0
 10
7.4763462237
 20
16.0883736007
 30
0.0
 10
7.4757328818
 20
16.088685434
 30
0.0
 10
7.4752211251
 20
16.0888941165
 30
0.0
 10
7.4748526515
 20
16.0889915064
 30
0.0
 10
7.4746105868
 20
16.0890067387
 30
0.0
 10
7.4744683213
 20
16.0889903052
 30
0.0
 10
7.4743504813
 20
16.0889457049
 30
0.0
 10
7.4742891018
 20
16.0888953093
 30
0.0
 10
7.4742647789
 20
16.0888670394
 30
0.0
  0
SPLINE
  5
4C0
100
AcDbEntity
  8
0
100
AcDbSpline
 62
7
  6
CONTINUOUS
 70
0
 71
3
 72
20
 73
16
 74
0
 42
0.0000001
 43
0.0000001
 44
0.0000000001
 40
0.0
 40
0.0
 40
0.0
 40
0.0
 40
0.2207344047
 40
0.4141203511
 40
0.5795373446
 40
0.6516460682
 40
0.7166558708
 40
0.7745658669
 40
0.8254088523
 40
0.8692864716
 40
0.906386599
 40
0.9370451319
 40
0.9618895928
 40
0.9821364539
 40
1.0
 40
1.0
 40
1.0
 40
1.0
 10
7.1446162932
 20
16.4228270854
 30
0.0
 10
7.1441827348
 20
16.4231715756
 30
0.0
 10
7.1433633518
 20
16.4238104409
 30
0.0
 10
7.1421948176
 20
16.4246757534
 30
0.0
 10
7.1413052614
 20
16.4252905902
 30
0.0
 10
7.1406656174
 20
16.4256992661
 30
0.0
 10
7.1402458787
 20
16.4259508261
 30
0.0
 10
7.1398641814
 20
16.4261616136
 30
0.0
 10
7.1395208329
 20
16.4263314791
 30
0.0
 10
7.1392160463
 20
16.4264604554
 30
0.0
 10
7.1389498201
 20
16.4265486876
 30
0.0
 10
7.1387217158
 20
16.426596369
 30
0.0
 10
7.1385304958
 20
16.4266032675
 30
0.0
 10
7.1383738854
 20
16.4265669447
 30
0.0
 10
7.1382940143
 20
16.4265083051
 30
0.0
 10
7.1382647879
 20
16.4264743325
 30
0.0
  0
SPLINE
  5
4C1
100
AcDbEntity
  8
0
100
AcDbSpline
 62
7
  6
CONTINUOUS
 70
0
 71
3
 72
13
 73
9
 74
0
 42
0.0000001
 43
0.0000001
 44
0.0000000001
 40
0.0
 40
0.0
 40
0.0
 40
0.0
 40
0.3625177822
 40
0.6389991231
 40
0.7483305147
 40
0.8416100453
 40
0.9233214958
 40
1.0
 40
1.0
 40
1.0
 40
1.0
 10
6.826151783
 20
16.7409547741
 30
0.0
 10
6.8260370802
 20
16.7410092119
 30
0.0
 10
6.8258311678
 20
16.7410973903
 30
0.0
 10
6.8255764806
 20
16.7411674994
 30
0.0
 10
6.8254083645
 20
16.7411781436
 30
0.0
 10
6.8253087527
 20
16.7411659348
 30
0.0
 10
6.8252256214
 20
16.741133263
 30
0.0
 10
6.8251821545
 20
16.7410969346
 30
0.0
 10
6.8251646405
 20
16.7410765761
 30
0.0
  0
SPLINE
  5
4C2
100
AcDbEntity
  8
0
100
AcDbSpline
 62
7
  6
CONTINUOUS
 70
0
 71
3
 72
10
 73
6
 74
0
 42
0.0000001
 43
0.0000001
 44
0.0000000001
 40
0.0
 40
0.0
 40
0.0
 40
0.0
 40
0.532325107
 40
0.7781422516
 40
1.0
 40
1.0
 40
1.0
 40
1.0
 10
6.3900423708
 20
17.1761988501
 30
0.0
 10
6.385628004
 20
17.1812340582
 30
0.0
 10
6.3791290285
 20
17.1885542845
 30
0.0
 10
6.3706728894
 20
17.1978673961
 30
0.0
 10
6.3666804043
 20
17.2021884292
 30
0.0
 10
6.3647743368
 20
17.2042269399
 30
0.0
  0
LINE
  5
4C3
100
AcDbEntity
  8
0
100
AcDbLine
 62
7
  6
CONTINUOUS
 10
6.3647743368
 20
17.2042269399
 11
6.3639980846
 21
17.2050557206
  0
SPLINE
  5
4C4
100
AcDbEntity
  8
0
100
AcDbSpline
 62
7
  6
CONTINUOUS
 70
0
 71
3
 72
32
 73
28
 74
0
 42
0.0000001
 43
0.0000001
 44
0.0000000001
 40
0.0
 40
0.0
 40
0.0
 40
0.0
 40
0.1948348481
 40
0.2899542687
 40
0.3823188263
 40
0.471035548
 40
0.5552394332
 40
0.6341124343
 40
0.7068903139
 40
0.7728635554
 40
0.8313865796
 40
0.8576746328
 40
0.8818910676
 40
0.9039776204
 40
0.9238823026
 40
0.9415538286
 40
0.9569497543
 40
0.9700351423
 40
0.9807759316
 40
0.985258807
 40
0.989147284
 40
0.9924395738
 40
0.9951341428
 40
0.9972300069
 40
0.9987279129
 40
0.9996352799
 40
1.0
 40
1.0
 40
1.0
 40
1.0
 10
6.5134961951
 20
17.0098692687
 30
0.0
 10
6.5109718816
 20
17.0126990976
 30
0.0
 10
6.5072111058
 20
17.0169068288
 30
0.0
 10
6.5022438588
 20
17.0224473281
 30
0.0
 10
6.4986510594
 20
17.0264461376
 30
0.0
 10
6.4951958544
 20
17.0302829604
 30
0.0
 10
6.4919118009
 20
17.0339205353
 30
0.0
 10
6.48883083
 20
17.0373235062
 30
0.0
 10
6.4859829059
 20
17.0404588168
 30
0.0
 10
6.4833957853
 20
17.0432959357
 30
0.0
 10
6.4814131779
 20
17.0454597333
 30
0.0
 10
6.479975823
 20
17.0470208228
 30
0.0
 10
6.4790169018
 20
17.0480584299
 30
0.0
 10
6.478140232
 20
17.0490028748
 30
0.0
 10
6.4773479688
 20
17.049851859
 30
0.0
 10
6.47664206
 20
17.0506033049
 30
0.0
 10
6.4760242497
 20
17.0512554038
 30
0.0
 10
6.4754960809
 20
17.0518065765
 30
0.0
 10
6.4751117063
 20
17.0522013879
 30
0.0
 10
6.4748496309
 20
17.0524653288
 30
0.0
 10
6.4746882589
 20
17.0526251151
 30
0.0
 10
6.4745504261
 20
17.0527587407
 30
0.0
 10
6.4744350708
 20
17.0528666897
 30
0.0
 10
6.4743454494
 20
17.0529475382
 30
0.0
 10
6.4742740961
 20
17.0530049368
 30
0.0
 10
6.4742364317
 20
17.0530327512
 30
0.0
 10
6.474205622
 20
17.0530460001
 30
0.0
 10
6.4742009937
 20
17.0530406178
 30
0.0
  0
LINE
  5
4C5
100
AcDbEntity
  8
0
100
AcDbLine
 62
7
  6
CONTINUOUS
 10
7.4561369964
 20
16.0677272007
 11
7.4553921518
 21
16.0681946378
  0
SPLINE
  5
4C6
100
AcDbEntity
  8
0
100
AcDbSpline
 62
7
  6
CONTINUOUS
 70
0
 71
3
 72
14
 73
10
 74
0
 42
0.0000001
 43
0.0000001
 44
0.0000000001
 40
0.0
 40
0.0
 40
0.0
 40
0.0
 40
0.3905219223
 40
0.5474752819
 40
0.6795056605
 40
0.7876125307
 40
0.8737380474
 40
0.9418913756
 40
1.0
 40
1.0
 40
1.0
 40
1.0
 10
7.4553921518
 20
16.0681946378
 30
0.0
 10
7.4552093364
 20
16.0683016056
 30
0.0
 10
7.4549489213
 20
16.0684453197
 30
0.0
 10
7.454612356
 20
16.0685960304
 30
0.0
 10
7.454409627
 20
16.0686694871
 30
0.0
 10
7.454237394
 20
16.0687121925
 30
0.0
 10
7.4540947407
 20
16.0687240593
 30
0.0
 10
7.4539791596
 20
16.068703928
 30
0.0
 10
7.453920299
 20
16.0686634329
 30
0.0
 10
7.4538997434
 20
16.0686395421
 30
0.0
  0
LINE
  5
4C7
100
AcDbEntity
  8
0
100
AcDbLine
 62
7
  6
CONTINUOUS
 10
7.1204337637
 20
16.4058043807
 11
7.1180010455
 21
16.4078527731
  0
SPLINE
  5
4C8
100
AcDbEntity
  8
0
100
AcDbSpline
 62
7
  6
CONTINUOUS
 70
0
 71
3
 72
19
 73
15
 74
0
 42
0.0000001
 43
0.0000001
 44
0.0000000001
 40
0.0
 40
0.0
 40
0.0
 40
0.0
 40
0.223641848
 40
0.4189286996
 40
0.5854492193
 40
0.7229435982
 40
0.7808177606
 40
0.8314820157
 40
0.8750130414
 40
0.9115606481
 40
0.9414222973
 40
0.9651664191
 40
0.9839382885
 40
1.0
 40
1.0
 40
1.0
 40
1.0
 10
7.1180010455
 20
16.4078527731
 30
0.0
 10
7.1176990474
 20
16.4080982406
 30
0.0
 10
7.1171296401
 20
16.408553539
 30
0.0
 10
7.1163202413
 20
16.409172427
 30
0.0
 10
7.1156149061
 20
16.4096800241
 30
0.0
 10
7.1150891601
 20
16.4100272778
 30
0.0
 10
7.114720694
 20
16.4102454797
 30
0.0
 10
7.114487612
 20
16.4103709746
 30
0.0
 10
7.1142816733
 20
16.4104680286
 30
0.0
 10
7.1141028651
 20
16.4105367012
 30
0.0
 10
7.1139508486
 20
16.4105772496
 30
0.0
 10
7.1138247596
 20
16.4105897093
 30
0.0
 10
7.1137222031
 20
16.4105729867
 30
0.0
 10
7.1136699805
 20
16.4105371868
 30
0.0
 10
7.1136517434
 20
16.4105160063
 30
0.0
  0
LINE
  5
4C9
100
AcDbEntity
  8
0
100
AcDbLine
 62
9
  6
CONTINUOUS
 10
6.8926493725
 20
16.6253997516
 11
7.1104273452
 21
16.4076282229
  0
LINE
  5
4CA
100
AcDbEntity
  8
0
100
AcDbLine
 62
9
  6
CONTINUOUS
 10
7.1104273452
 20
16.4076282229
 11
7.1106546934
 21
16.4074009816
  0
LINE
  5
4CB
100
AcDbEntity
  8
0
100
AcDbLine
 62
7
  6
CONTINUOUS
 10
6.5351490684
 20
16.9854446127
 11
6.5345083655
 21
16.9861725794
  0
LINE
  5
4CC
100
AcDbEntity
  8
0
100
AcDbLine
 62
7
  6
CONTINUOUS
 10
6.5345083655
 20
16.9861725794
 11
6.5342399429
 21
16.9864774357
  0
LINE
  5
4CD
100
AcDbEntity
  8
0
100
AcDbLine
 62
7
  6
CONTINUOUS
 10
6.7870821002
 20
16.7056373072
 11
6.747356923
 21
16.7486908014
  0
SPLINE
  5
4CE
100
AcDbEntity
  8
0
100
AcDbSpline
 62
7
  6
CONTINUOUS
 70
0
 71
3
 72
15
 73
11
 74
0
 42
0.0000001
 43
0.0000001
 44
0.0000000001
 40
0.0
 40
0.0
 40
0.0
 40
0.0
 40
0.2220877197
 40
0.4155643289
 40
0.5804357367
 40
0.716823848
 40
0.8251009131
 40
0.8690016172
 40
0.9063570853
 40
1.0
 40
1.0
 40
1.0
 40
1.0
 10
7.4404522996
 20
16.0530904027
 30
0.0
 10
7.4403372837
 20
16.0531738527
 30
0.0
 10
7.4401205951
 20
16.0533279845
 30
0.0
 10
7.4398124125
 20
16.0535353678
 30
0.0
 10
7.4395438911
 20
16.0537030227
 30
0.0
 10
7.4393147521
 20
16.0538308768
 30
0.0
 10
7.4391479689
 20
16.0539093843
 30
0.0
 10
7.4390325178
 20
16.053950124
 30
0.0
 10
7.4389279467
 20
16.0539783693
 30
0.0
 10
7.4388212929
 20
16.0539826157
 30
0.0
 10
7.4387821855
 20
16.0539372219
 30
0.0
  0
SPLINE
  5
4CF
100
AcDbEntity
  8
0
100
AcDbSpline
 62
7
  6
CONTINUOUS
 70
0
 71
3
 72
22
 73
18
 74
0
 42
0.0000001
 43
0.0000001
 44
0.0000000001
 40
0.0
 40
0.0
 40
0.0
 40
0.0
 40
0.2275819589
 40
0.4272277645
 40
0.5979046108
 40
0.7387813085
 40
0.7978330265
 40
0.8492039315
 40
0.8928652928
 40
0.9288084702
 40
0.9570635014
 40
0.9683484094
 40
0.9777842826
 40
0.9854418303
 40
0.9914563715
 40
0.9961108626
 40
1.0
 40
1.0
 40
1.0
 40
1.0
 10
7.1004314793
 20
16.3952580194
 30
0.0
 10
7.0998991357
 20
16.3957561064
 30
0.0
 10
7.0988961127
 20
16.3966872193
 30
0.0
 10
7.0974787783
 20
16.3979755295
 30
0.0
 10
7.0962517346
 20
16.3990600242
 30
0.0
 10
7.0953472316
 20
16.3998291842
 30
0.0
 10
7.094721815
 20
16.4003360861
 30
0.0
 10
7.094332247
 20
16.4006392352
 30
0.0
 10
7.093994424
 20
16.400888186
 30
0.0
 10
7.093708766
 20
16.4010826711
 30
0.0
 10
7.0935015169
 20
16.4012077748
 30
0.0
 10
7.0933612441
 20
16.4012782415
 30
0.0
 10
7.0932772884
 20
16.4013133419
 30
0.0
 10
7.0932062926
 20
16.4013349939
 30
0.0
 10
7.0931478569
 20
16.4013432249
 30
0.0
 10
7.0931005954
 20
16.4013377727
 30
0.0
 10
7.0930764865
 20
16.4013220978
 30
0.0
 10
7.0930683543
 20
16.4013126597
 30
0.0
  0
LINE
  5
4D0
100
AcDbEntity
  8
0
100
AcDbLine
 62
7
  6
CONTINUOUS
 10
6.8807525624
 20
16.6136284522
 11
6.8800331694
 21
16.6143995523
  0
LINE
  5
4D1
100
AcDbEntity
  8
0
100
AcDbLine
 62
7
  6
CONTINUOUS
 10
6.798788605
 20
16.692950054
 11
6.7984863492
 21
16.6932776318
  0
LINE
  5
4D2
100
AcDbEntity
  8
0
100
AcDbLine
 62
7
  6
CONTINUOUS
 10
6.7984863492
 20
16.6932776318
 11
6.7870821002
 21
16.7056373072
  0
LINE
  5
4D3
100
AcDbEntity
  8
0
100
AcDbLine
 62
7
  6
CONTINUOUS
 10
7.4299883133
 20
16.0439224837
 11
7.4294284421
 21
16.0442132677
  0
LINE
  5
4D4
100
AcDbEntity
  8
0
100
AcDbLine
 62
7
  6
CONTINUOUS
 10
8.8163294286
 20
14.7468023897
 11
8.8132286843
 21
14.7494670301
  0
LINE
  5
4D5
100
AcDbEntity
  8
0
100
AcDbLine
 62
7
  6
CONTINUOUS
 10
8.8132286843
 20
14.7494670301
 11
8.8127013649
 21
14.7499201853
  0
LINE
  5
4D6
100
AcDbEntity
  8
0
100
AcDbLine
 62
7
  6
CONTINUOUS
 10
8.7727999748
 20
14.7919391478
 11
8.7411715148
 21
14.8188044076
  0
SPLINE
  5
4D7
100
AcDbEntity
  8
0
100
AcDbSpline
 62
7
  6
CONTINUOUS
 70
0
 71
3
 72
28
 73
24
 74
0
 42
0.0000001
 43
0.0000001
 44
0.0000000001
 40
0.0
 40
0.0
 40
0.0
 40
0.0
 40
0.1946814205
 40
0.3817476407
 40
0.4701952815
 40
0.5541133108
 40
0.6327034241
 40
0.7052199397
 40
0.7709703783
 40
0.8293261219
 40
0.8797337075
 40
0.9217135097
 40
0.9394170328
 40
0.9548740017
 40
0.9680538532
 40
0.9789302319
 40
0.9835008648
 40
0.9874936936
 40
0.9909112193
 40
0.9937589516
 40
0.9960483872
 40
0.9978050204
 40
1.0
 40
1.0
 40
1.0
 40
1.0
 10
8.6435729342
 20
14.9226682867
 30
0.0
 10
8.640737009
 20
14.9251545423
 30
0.0
 10
8.6351583457
 20
14.9300096016
 30
0.0
 10
8.6282423075
 20
14.9359376311
 30
0.0
 10
8.6229261111
 20
14.940434628
 30
0.0
 10
8.6191995466
 20
14.9435568776
 30
0.0
 10
8.6156941188
 20
14.9464624097
 30
0.0
 10
8.6124433517
 20
14.9491235546
 30
0.0
 10
8.6094784279
 20
14.9515149016
 30
0.0
 10
8.6068279449
 20
14.9536136993
 30
0.0
 10
8.6045175323
 20
14.9553998555
 30
0.0
 10
8.6028098312
 20
14.9566777581
 30
0.0
 10
8.6016279402
 20
14.9575275753
 30
0.0
 10
8.600890821
 20
14.9580400845
 30
0.0
 10
8.6002532407
 20
14.9584637925
 30
0.0
 10
8.599782524
 20
14.9587572774
 30
0.0
 10
8.5994559613
 20
14.9589449727
 30
0.0
 10
8.5992514053
 20
14.959054633
 30
0.0
 10
8.5990724479
 20
14.9591415424
 30
0.0
 10
8.598920114
 20
14.9592059496
 30
0.0
 10
8.5987916398
 20
14.9592475277
 30
0.0
 10
8.5986767125
 20
14.9592714813
 30
0.0
 10
8.5985864732
 20
14.9592618702
 30
0.0
 10
8.5985587358
 20
14.9592296402
 30
0.0
  0
SPLINE
  5
4D8
100
AcDbEntity
  8
0
100
AcDbSpline
 62
7
  6
CONTINUOUS
 70
0
 71
3
 72
24
 73
20
 74
0
 42
0.0000001
 43
0.0000001
 44
0.0000000001
 40
0.0
 40
0.0
 40
0.0
 40
0.0
 40
0.2100170389
 40
0.4029501151
 40
0.5744238993
 40
0.7205552347
 40
0.7830667797
 40
0.8380595755
 40
0.8852394451
 40
0.9243548393
 40
0.9408339166
 40
0.9552376403
 40
0.9675600031
 40
0.9778105659
 40
0.9860184731
 40
0.992257415
 40
0.9946971607
 40
0.9967421719
 40
1.0
 40
1.0
 40
1.0
 40
1.0
 10
8.422279711
 20
15.1434470502
 30
0.0
 10
8.420261551
 20
15.1451884317
 30
0.0
 10
8.4163746116
 20
15.1485124643
 30
0.0
 10
8.4107845528
 20
15.1531931206
 30
0.0
 10
8.4057638695
 20
15.1572899412
 30
0.0
 10
8.4019764883
 20
15.160279198
 30
0.0
 10
8.3993113649
 20
15.1623026496
 30
0.0
 10
8.3976272376
 20
15.1635408785
 30
0.0
 10
8.3961612329
 20
15.164573869
 30
0.0
 10
8.3950743255
 20
15.1652956943
 30
0.0
 10
8.3943180651
 20
15.1657620984
 30
0.0
 10
8.3938433661
 20
15.1660368431
 30
0.0
 10
8.3934286587
 20
15.1662567989
 30
0.0
 10
8.3930743658
 20
15.1664221968
 30
0.0
 10
8.3927808175
 20
15.1665328094
 30
0.0
 10
8.3925716736
 20
15.1665848575
 30
0.0
 10
8.3924351459
 20
15.1665929317
 30
0.0
 10
8.3923374824
 20
15.1665833044
 30
0.0
 10
8.3922720572
 20
15.1665511899
 30
0.0
 10
8.3922450758
 20
15.1665198568
 30
0.0
  0
SPLINE
  5
4D9
100
AcDbEntity
  8
0
100
AcDbSpline
 62
7
  6
CONTINUOUS
 70
0
 71
3
 72
19
 73
15
 74
0
 42
0.0000001
 43
0.0000001
 44
0.0000000001
 40
0.0
 40
0.0
 40
0.0
 40
0.0
 40
0.2218940297
 40
0.4168926574
 40
0.5840987937
 40
0.7228417447
 40
0.7814026791
 40
0.8327186638
 40
0.8768235931
 40
0.9138070887
 40
0.9438621142
 40
0.9674127981
 40
0.9854172627
 40
1.0
 40
1.0
 40
1.0
 40
1.0
 10
8.1314807584
 20
15.4319542897
 30
0.0
 10
8.1309161366
 20
15.4323795954
 30
0.0
 10
8.1298493853
 20
15.4331708251
 30
0.0
 10
8.1283331702
 20
15.4342497644
 30
0.0
 10
8.127009083
 20
15.4351409119
 30
0.0
 10
8.1260228889
 20
15.4357548481
 30
0.0
 10
8.1253329405
 20
15.4361440459
 30
0.0
 10
8.1248972039
 20
15.4363696262
 30
0.0
 10
8.1245137475
 20
15.4365458591
 30
0.0
 10
8.1241828742
 20
15.4366727435
 30
0.0
 10
8.1239043217
 20
15.436750804
 30
0.0
 10
8.1236770305
 20
15.436779846
 30
0.0
 10
8.1234961439
 20
15.4367601454
 30
0.0
 10
8.1234034623
 20
15.4367023415
 30
0.0
 10
8.123373149
 20
15.4366671385
 30
0.0
  0
SPLINE
  5
4DA
100
AcDbEntity
  8
0
100
AcDbSpline
 62
7
  6
CONTINUOUS
 70
0
 71
3
 72
14
 73
10
 74
0
 42
0.0000001
 43
0.0000001
 44
0.0000000001
 40
0.0
 40
0.0
 40
0.0
 40
0.0
 40
0.3836305622
 40
0.5388100131
 40
0.670185238
 40
0.7788160901
 40
0.8667764507
 40
0.9380513256
 40
1.0
 40
1.0
 40
1.0
 40
1.0
 10
7.8123244511
 20
15.7507701156
 30
0.0
 10
7.8120746075
 20
15.7509029974
 30
0.0
 10
7.8117180285
 20
15.7510802872
 30
0.0
 10
7.8112572837
 20
15.7512603662
 30
0.0
 10
7.8109779912
 20
15.7513452223
 30
0.0
 10
7.8107395362
 20
15.7513899836
 30
0.0
 10
7.8105407595
 20
15.7513944383
 30
0.0
 10
7.8103792582
 20
15.7513567042
 30
0.0
 10
7.8102967524
 20
15.7512969944
 30
0.0
 10
7.8102669389
 20
15.7512623636
 30
0.0
  0
LINE
  5
4DB
100
AcDbEntity
  8
0
100
AcDbLine
 62
7
  6
CONTINUOUS
 10
8.4538512156
 20
15.0668661266
 11
8.4535398338
 21
15.0671402941
  0
LINE
  5
4DC
100
AcDbEntity
  8
0
100
AcDbLine
 62
7
  6
CONTINUOUS
 10
8.4535398338
 20
15.0671402941
 11
8.452818811
 21
15.0677748837
  0
SPLINE
  5
4DD
100
AcDbEntity
  8
0
100
AcDbSpline
 62
7
  6
CONTINUOUS
 70
0
 71
3
 72
29
 73
25
 74
0
 42
0.0000001
 43
0.0000001
 44
0.0000000001
 40
0.0
 40
0.0
 40
0.0
 40
0.0
 40
0.1949467394
 40
0.2900222211
 40
0.3822882342
 40
0.4708637965
 40
0.5548970892
 40
0.6335843293
 40
0.7061757242
 40
0.7719761304
 40
0.8303538906
 40
0.8807530016
 40
0.9226917602
 40
0.9403607981
 40
0.9557736915
 40
0.9688971689
 40
0.979701438
 40
0.9842288672
 40
0.988172241
 40
0.9915321402
 40
0.994311061
 40
0.9965155375
 40
0.9981625213
 40
1.0
 40
1.0
 40
1.0
 40
1.0
 10
8.3595929785
 20
15.1653286257
 30
0.0
 10
8.3567923854
 20
15.1678612127
 30
0.0
 10
8.3526154525
 20
15.1716173692
 30
0.0
 10
8.3470879639
 20
15.1765441469
 30
0.0
 10
8.3430875426
 20
15.1800877393
 30
0.0
 10
8.3392360192
 20
15.183476834
 30
0.0
 10
8.3355703318
 20
15.1866789464
 30
0.0
 10
8.3321256457
 20
15.1896634073
 30
0.0
 10
8.328934995
 20
15.192401701
 30
0.0
 10
8.3260290328
 20
15.1948676173
 30
0.0
 10
8.3234357919
 20
15.1970376204
 30
0.0
 10
8.3211803205
 20
15.1988909156
 30
0.0
 10
8.3195177975
 20
15.2002237085
 30
0.0
 10
8.3183708278
 20
15.201115855
 30
0.0
 10
8.3176577396
 20
15.2016566711
 30
0.0
 10
8.3170431751
 20
15.2021072176
 30
0.0
 10
8.3165914059
 20
15.2024230307
 30
0.0
 10
8.3162795008
 20
15.2026283181
 30
0.0
 10
8.3160852899
 20
15.2027498054
 30
0.0
 10
8.3159162505
 20
15.2028482293
 30
0.0
 10
8.3157740311
 20
15.2029233933
 30
0.0
 10
8.3156543905
 20
15.2029761247
 30
0.0
 10
8.3155555317
 20
15.2030093637
 30
0.0
 10
8.3154710842
 20
15.2030168668
 30
0.0
 10
8.3154478623
 20
15.202989897
 30
0.0
  0
LINE
  5
4DE
100
AcDbEntity
  8
0
100
AcDbLine
 62
7
  6
CONTINUOUS
 10
8.1062984907
 20
15.4165487702
 11
8.1061061031
 21
15.4167112416
  0
SPLINE
  5
4DF
100
AcDbEntity
  8
0
100
AcDbSpline
 62
7
  6
CONTINUOUS
 70
0
 71
3
 72
23
 73
19
 74
0
 42
0.0000001
 43
0.0000001
 44
0.0000000001
 40
0.0
 40
0.0
 40
0.0
 40
0.0
 40
0.2240877038
 40
0.4220800841
 40
0.592447203
 40
0.6668584877
 40
0.7338990659
 40
0.7934562267
 40
0.8454244645
 40
0.8897294418
 40
0.9263403937
 40
0.9552678608
 40
0.966885369
 40
0.9766492963
 40
0.9846283858
 40
0.9909532804
 40
0.9958921724
 40
1.0
 40
1.0
 40
1.0
 40
1.0
 10
8.1047853022
 20
15.4178211486
 30
0.0
 10
8.1039693349
 20
15.4185036982
 30
0.0
 10
8.1024268707
 20
15.4197827162
 30
0.0
 10
8.1002415405
 20
15.421553267
 30
0.0
 10
8.0985890042
 20
15.4228524402
 30
0.0
 10
8.0974106027
 20
15.4237483821
 30
0.0
 10
8.0966436219
 20
15.4243161653
 30
0.0
 10
8.0959543649
 20
15.4248097231
 30
0.0
 10
8.0953442086
 20
15.4252281121
 30
0.0
 10
8.0948143846
 20
15.4255707529
 30
0.0
 10
8.0943659498
 20
15.4258370862
 30
0.0
 10
8.0940407555
 20
15.4260065718
 30
0.0
 10
8.0938209206
 20
15.4261002575
 30
0.0
 10
8.0936891002
 20
15.4261459743
 30
0.0
 10
8.093577723
 20
15.4261727227
 30
0.0
 10
8.0934862357
 20
15.426180465
 30
0.0
 10
8.0934129302
 20
15.426168847
 30
0.0
 10
8.0933755147
 20
15.4261440183
 30
0.0
 10
8.0933627983
 20
15.4261292339
 30
0.0
  0
LINE
  5
4E0
100
AcDbEntity
  8
0
100
AcDbLine
 62
9
  6
CONTINUOUS
 10
7.8747750546
 20
15.6432806201
 11
7.8750022958
 21
15.643053272
  0
LINE
  5
4E1
100
AcDbEntity
  8
0
100
AcDbLine
 62
9
  6
CONTINUOUS
 10
7.8750022958
 20
15.643053272
 11
8.0927738384
 21
15.4252752858
  0
LINE
  5
4E2
100
AcDbEntity
  8
0
100
AcDbLine
 62
7
  6
CONTINUOUS
 10
8.1730113913
 20
15.3197080161
 11
8.1606516411
 21
15.3311123341
  0
LINE
  5
4E3
100
AcDbEntity
  8
0
100
AcDbLine
 62
7
  6
CONTINUOUS
 10
8.1606516411
 20
15.3311123341
 11
8.1603241403
 21
15.3314145188
  0
SPLINE
  5
4E4
100
AcDbEntity
  8
0
100
AcDbSpline
 62
7
  6
CONTINUOUS
 70
0
 71
3
 72
30
 73
26
 74
0
 42
0.0000001
 43
0.0000001
 44
0.0000000001
 40
0.0
 40
0.0
 40
0.0
 40
0.0
 40
0.1951051697
 40
0.2902687538
 40
0.3826261322
 40
0.4712874191
 40
0.5554000807
 40
0.6341575377
 40
0.7068042217
 40
0.7726441763
 40
0.8310447667
 40
0.881444742
 40
0.9034918531
 40
0.9233632432
 40
0.9410139575
 40
0.9564010988
 40
0.9694882026
 40
0.9802484785
 40
0.988658545
 40
0.9947086222
 40
0.9968527573
 40
0.9984182164
 40
0.9989910191
 40
0.9994325669
 40
1.0
 40
1.0
 40
1.0
 40
1.0
 10
8.0810025363
 20
15.4133784783
 30
0.0
 10
8.078227941
 20
15.4159660766
 30
0.0
 10
8.0740925689
 20
15.4198078117
 30
0.0
 10
8.0686259276
 20
15.4248551569
 30
0.0
 10
8.0646722632
 20
15.4284898986
 30
0.0
 10
8.060868798
 20
15.431970482
 30
0.0
 10
8.0572521318
 20
15.4352634378
 30
0.0
 10
8.0538570297
 20
15.4383371526
 30
0.0
 10
8.0507160998
 20
15.4411621564
 30
0.0
 10
8.0478595714
 20
15.4437113782
 30
0.0
 10
8.0453149595
 20
15.4459603469
 30
0.0
 10
8.0433980562
 20
15.4476335741
 30
0.0
 10
8.0420376592
 20
15.4488049251
 30
0.0
 10
8.0411558201
 20
15.4495560446
 30
0.0
 10
8.0403681748
 20
15.4502179915
 30
0.0
 10
8.0396766566
 20
15.4507892351
 30
0.0
 10
8.0390829273
 20
15.4512683797
 30
0.0
 10
8.0385886461
 20
15.451654691
 30
0.0
 10
8.0381947817
 20
15.4519469071
 30
0.0
 10
8.0379283284
 20
15.4521297263
 30
0.0
 10
8.0377641284
 20
15.4522251962
 30
0.0
 10
8.0376893144
 20
15.4522618202
 30
0.0
 10
8.0376411786
 20
15.4522774816
 30
0.0
 10
8.03761175
 20
15.4522834329
 30
0.0
 10
8.0375888984
 20
15.4522800979
 30
0.0
 10
8.0375817143
 20
15.4522717229
 30
0.0
  0
LINE
  5
4E5
100
AcDbEntity
  8
0
100
AcDbLine
 62
7
  6
CONTINUOUS
 10
7.7736994395
 20
15.6991874441
 11
7.7686181921
 21
15.7038770648
  0
LINE
  5
4E6
100
AcDbEntity
  8
0
100
AcDbLine
 62
7
  6
CONTINUOUS
 10
7.7686181921
 20
15.7038770648
 11
7.7654922443
 21
15.7065472507
  0
SPLINE
  5
4E7
100
AcDbEntity
  8
0
100
AcDbSpline
 62
7
  6
CONTINUOUS
 70
0
 71
3
 72
54
 73
50
 74
0
 42
0.0000001
 43
0.0000001
 44
0.0000000001
 40
0.0
 40
0.0
 40
0.0
 40
0.0
 40
0.0001782533
 40
0.0003815524
 40
0.0006273849
 40
0.0009258436
 40
0.0012825741
 40
0.0017008603
 40
0.0027290228
 40
0.0040194248
 40
0.0055758527
 40
0.0074001067
 40
0.0094928296
 40
0.0118537561
 40
0.0144822561
 40
0.0173774991
 40
0.0205383582
 40
0.0276503848
 40
0.0358044645
 40
0.04498361
 40
0.0551683901
 40
0.0784645884
 40
0.105490506
 40
0.1360095235
 40
0.1697536328
 40
0.2064260616
 40
0.2457041585
 40
0.2872420887
 40
0.330674236
 40
0.3756181782
 40
0.4216782585
 40
0.4684491073
 40
0.5624739265
 40
0.6543910404
 40
0.740974566
 40
0.7813069845
 40
0.819188053
 40
0.8542854965
 40
0.8862916411
 40
0.9149264038
 40
0.9399399206
 40
0.9611149655
 40
0.9702048122
 40
0.9782700862
 40
0.9852938427
 40
0.9912628334
 40
0.9961664615
 40
0.9982171064
 40
1.0
 40
1.0
 40
1.0
 40
1.0
 10
9.4955737524
 20
18.5692368605
 30
0.0
 10
9.4956058507
 20
18.569268947
 30
0.0
 10
9.4956897405
 20
18.5693233194
 30
0.0
 10
9.4958476341
 20
18.5693590391
 30
0.0
 10
9.4960390935
 20
18.5693564663
 30
0.0
 10
9.4962657447
 20
18.5693171076
 30
0.0
 10
9.4965287196
 20
18.5692412597
 30
0.0
 10
9.4969587834
 20
18.5690795825
 30
0.0
 10
9.4975873022
 20
18.5687760483
 30
0.0
 10
9.4984455385
 20
18.5682887497
 30
0.0
 10
9.4994521245
 20
18.5676546576
 30
0.0
 10
9.5006066937
 20
18.566873943
 30
0.0
 10
9.5019087409
 20
18.5659465481
 30
0.0
 10
9.5033576176
 20
18.564872962
 30
0.0
 10
9.5049525818
 20
18.5636537298
 30
0.0
 10
9.5066928665
 20
18.5622895285
 30
0.0
 10
9.5093104875
 20
18.5601944334
 30
0.0
 10
9.5129349866
 20
18.5572149776
 30
0.0
 10
9.5176945472
 20
18.5532041414
 30
0.0
 10
9.5230096992
 20
18.5486390194
 30
0.0
 10
9.5311967195
 20
18.5415008877
 30
0.0
 10
9.5427154157
 20
18.5312701757
 30
0.0
 10
9.5579964447
 20
18.5174802741
 30
0.0
 10
9.575162361
 20
18.5018090264
 30
0.0
 10
9.5940679514
 20
18.4844009028
 30
0.0
 10
9.6145525788
 20
18.4654155046
 30
0.0
 10
9.6364419386
 20
18.4450266456
 30
0.0
 10
9.6595494463
 20
18.4234205127
 30
0.0
 10
9.6836778608
 20
18.4007940785
 30
0.0
 10
9.7086210303
 20
18.3773532867
 30
0.0
 10
9.7341656877
 20
18.3533112408
 30
0.0
 10
9.7687954086
 20
18.3206885824
 30
0.0
 10
9.8119121523
 20
18.2800475546
 30
0.0
 10
9.8624365066
 20
18.2324867084
 30
0.0
 10
9.9030743143
 20
18.1943681032
 30
0.0
 10
9.9337505115
 20
18.1657401302
 30
0.0
 10
9.9548862817
 20
18.1461028068
 30
0.0
 10
9.9745210459
 20
18.1279646559
 30
0.0
 10
9.9924885855
 20
18.1114913897
 30
0.0
 10
10.0086369944
 20
18.0968335203
 30
0.0
 10
10.0228306218
 20
18.0841258314
 30
0.0
 10
10.0334060435
 20
18.0748379155
 30
0.0
 10
10.0408131253
 20
18.0684832297
 30
0.0
 10
10.0455238556
 20
18.064519686
 30
0.0
 10
10.0496693603
 20
18.0611190716
 30
0.0
 10
10.0532411746
 20
18.0582894018
 30
0.0
 10
10.0558689169
 20
18.056307963
 30
0.0
 10
10.0576847709
 20
18.0550226048
 30
0.0
 10
10.0584956246
 20
18.0544789418
 30
0.0
 10
10.0588772562
 20
18.0542331269
 30
0.0
  0
SPLINE
  5
4E8
100
AcDbEntity
  8
0
100
AcDbSpline
 62
7
  6
CONTINUOUS
 70
0
 71
3
 72
11
 73
7
 74
0
 42
0.0000001
 43
0.0000001
 44
0.0000000001
 40
0.0
 40
0.0
 40
0.0
 40
0.0
 40
0.3275068636
 40
0.602745087
 40
0.8264272915
 40
1.0
 40
1.0
 40
1.0
 40
1.0
 10
10.0588772562
 20
18.0542331269
 30
0.0
 10
10.0591772687
 20
18.0540398842
 30
0.0
 10
10.0597346091
 20
18.0536921925
 30
0.0
 10
10.0605187923
 20
18.0532485052
 30
0.0
 10
10.0611780333
 20
18.0529278118
 30
0.0
 10
10.0615849952
 20
18.0527755822
 30
0.0
 10
10.061767706
 20
18.0527267254
 30
0.0
  0
SPLINE
  5
4E9
100
AcDbEntity
  8
0
100
AcDbSpline
 62
7
  6
CONTINUOUS
 70
0
 71
3
 72
56
 73
52
 74
0
 42
0.0000001
 43
0.0000001
 44
0.0000000001
 40
0.0
 40
0.0
 40
0.0
 40
0.0
 40
0.0001801496
 40
0.0003857427
 40
0.0006345027
 40
0.0009366288
 40
0.0012978106
 40
0.0017213493
 40
0.0027625949
 40
0.0040696747
 40
0.0056462983
 40
0.0074941559
 40
0.0096139373
 40
0.0120054993
 40
0.0146680833
 40
0.0176007158
 40
0.0208022796
 40
0.028005836
 40
0.0362640935
 40
0.0455599514
 40
0.0558730691
 40
0.0794590253
 40
0.1068138919
 40
0.1376947112
 40
0.1718262894
 40
0.208904199
 40
0.2485973629
 40
0.2905513078
 40
0.3343913447
 40
0.379725811
 40
0.4261499178
 40
0.4732489655
 40
0.5677877182
 40
0.6599739947
 40
0.7041525315
 40
0.7465252059
 40
0.7867142272
 40
0.8243615933
 40
0.8591321723
 40
0.8907167136
 40
0.918834922
 40
0.9432378819
 40
0.9539776296
 40
0.9637111152
 40
0.972416945
 40
0.9800770791
 40
0.9866754788
 40
0.9922000925
 40
0.9966420671
 40
0.9984563476
 40
1.0
 40
1.0
 40
1.0
 40
1.0
 10
9.4463137759
 20
18.5174780953
 30
0.0
 10
9.4463461089
 20
18.517510415
 30
0.0
 10
9.446430691
 20
18.5175651492
 30
0.0
 10
9.4465899018
 20
18.5176009275
 30
0.0
 10
9.4467829894
 20
18.5175980577
 30
0.0
 10
9.4470116067
 20
18.51755806
 30
0.0
 10
9.4472768903
 20
18.517481236
 30
0.0
 10
9.4477107958
 20
18.5173176654
 30
0.0
 10
9.4483450062
 20
18.51701078
 30
0.0
 10
9.4492110966
 20
18.5165182601
 30
0.0
 10
9.4502269812
 20
18.5158775296
 30
0.0
 10
9.4513922598
 20
18.5150887983
 30
0.0
 10
9.4527064259
 20
18.5141519893
 30
0.0
 10
9.4541688222
 20
18.5130675684
 30
0.0
 10
9.4557786915
 20
18.5118361256
 30
0.0
 10
9.4575352223
 20
18.5104583876
 30
0.0
 10
9.4601772349
 20
18.5083426677
 30
0.0
 10
9.4638353838
 20
18.5053341619
 30
0.0
 10
9.4686390449
 20
18.5012846435
 30
0.0
 10
9.4740030568
 20
18.4966760381
 30
0.0
 10
9.4822642494
 20
18.489471251
 30
0.0
 10
9.4938853802
 20
18.4791472961
 30
0.0
 10
9.5092993701
 20
18.4652351789
 30
0.0
 10
9.5266095673
 20
18.4494304271
 30
0.0
 10
9.5456674345
 20
18.4318808375
 30
0.0
 10
9.5663086822
 20
18.4127496533
 30
0.0
 10
9.5883551425
 20
18.3922145478
 30
0.0
 10
9.6116161547
 20
18.3704657805
 30
0.0
 10
9.6358902911
 20
18.3477045072
 30
0.0
 10
9.6609671547
 20
18.3241409135
 30
0.0
 10
9.6866292126
 20
18.2999923703
 30
0.0
 10
9.7213704443
 20
18.2672717018
 30
0.0
 10
9.7645556778
 20
18.2265785534
 30
0.0
 10
9.8072305681
 20
18.1864244861
 30
0.0
 10
9.8403097927
 20
18.1553905321
 30
0.0
 10
9.8637954063
 20
18.13341638
 30
0.0
 10
9.8861078714
 20
18.1126143207
 30
0.0
 10
9.9070546584
 20
18.0931765594
 30
0.0
 10
9.9264554036
 20
18.0752829909
 30
0.0
 10
9.9441433887
 20
18.0590994031
 30
0.0
 10
9.9599673002
 20
18.0447764187
 30
0.0
 10
9.9719479181
 20
18.0340903716
 30
0.0
 10
9.9805097848
 20
18.0265813046
 30
0.0
 10
9.9861094896
 20
18.0217362857
 30
0.0
 10
9.991154426
 20
18.0174447878
 30
0.0
 10
9.9956339716
 20
18.013716998
 30
0.0
 10
9.999538764
 20
18.0105611752
 30
0.0
 10
10.0028607174
 20
18.0079848388
 30
0.0
 10
10.0052757417
 20
18.006221026
 30
0.0
 10
10.0069183537
 20
18.0051162214
 30
0.0
 10
10.0076412973
 20
18.0046645691
 30
0.0
 10
10.0079788085
 20
18.0044657259
 30
0.0
  0
LINE
  5
4EA
100
AcDbEntity
  8
0
100
AcDbLine
 62
7
  6
CONTINUOUS
 10
10.0079788085
 20
18.0044657259
 11
10.0099316026
 21
18.0035407882
  0
SPLINE
  5
4EB
100
AcDbEntity
  8
0
100
AcDbSpline
 62
7
  6
CONTINUOUS
 70
0
 71
3
 72
61
 73
57
 74
0
 42
0.0000001
 43
0.0000001
 44
0.0000000001
 40
0.0
 40
0.0
 40
0.0
 40
0.0
 40
0.0001729095
 40
0.0003728659
 40
0.000618075
 40
0.0009186009
 40
0.0012798916
 40
0.0017050461
 40
0.0021959386
 40
0.0027537661
 40
0.0040729155
 40
0.0056660674
 40
0.0075346243
 40
0.0096790798
 40
0.0120992452
 40
0.0147942659
 40
0.0177630587
 40
0.0210044152
 40
0.0282982793
 40
0.0366606384
 40
0.046073802
 40
0.0565169056
 40
0.0679669782
 40
0.0803982424
 40
0.1080907975
 40
0.1393452375
 40
0.173879217
 40
0.2113803708
 40
0.2515091579
 40
0.2939020895
 40
0.3381750472
 40
0.3839267659
 40
0.4307425706
 40
0.4781980463
 40
0.5733053653
 40
0.6200950252
 40
0.6658078089
 40
0.7100294167
 40
0.7523590299
 40
0.7924131275
 40
0.8298288823
 40
0.864267551
 40
0.8954176275
 40
0.9229977344
 40
0.935370053
 40
0.9467595798
 40
0.9571406314
 40
0.9664904383
 40
0.9747882481
 40
0.9820165822
 40
0.9881603028
 40
0.993208443
 40
0.9953193164
 40
0.9971543186
 40
0.9987140261
 40
1.0
 40
1.0
 40
1.0
 40
1.0
 10
10.0566943754
 20
18.0147960315
 30
0.0
 10
10.0566612757
 20
18.0147629319
 30
0.0
 10
10.0565730308
 20
18.0147075154
 30
0.0
 10
10.0564064974
 20
18.0146750139
 30
0.0
 10
10.0562036607
 20
18.014683908
 30
0.0
 10
10.0559623547
 20
18.0147327521
 30
0.0
 10
10.0556813566
 20
18.0148213528
 30
0.0
 10
10.0553601094
 20
18.0149499652
 30
0.0
 10
10.0549983825
 20
18.0151187364
 30
0.0
 10
10.054429515
 20
18.0154145383
 30
0.0
 10
10.0536192449
 20
18.0158910138
 30
0.0
 10
10.052532444
 20
18.0165942579
 30
0.0
 10
10.0512841515
 20
18.0174578377
 30
0.0
 10
10.0498749359
 20
18.0184813689
 30
0.0
 10
10.0483055187
 20
18.0196644879
 30
0.0
 10
10.0465767182
 20
18.0210065006
 30
0.0
 10
10.0446894316
 20
18.0225066144
 30
0.0
 10
10.0418494027
 20
18.0248086677
 30
0.0
 10
10.0379149963
 20
18.0280790273
 30
0.0
 10
10.0327460059
 20
18.0324771178
 30
0.0
 10
10.026971855
 20
18.0374791084
 30
0.0
 10
10.0206047813
 20
18.043072944
 30
0.0
 10
10.0136585131
 20
18.0492452189
 30
0.0
 10
10.0032645126
 20
18.0585675133
 30
0.0
 10
9.9889554126
 20
18.0715541748
 30
0.0
 10
9.9703072731
 20
18.0886627121
 30
0.0
 10
9.9497786821
 20
18.1076490969
 30
0.0
 10
9.9275491304
 20
18.1283343841
 30
0.0
 10
9.9038135848
 20
18.1505242769
 30
0.0
 10
9.8787805442
 20
18.1740106406
 30
0.0
 10
9.8526702453
 20
18.1985735328
 30
0.0
 10
9.8257126554
 20
18.2239831982
 30
0.0
 10
9.7981454229
 20
18.2500021724
 30
0.0
 10
9.7608747979
 20
18.2852067311
 30
0.0
 10
9.7236159779
 20
18.3204134807
 30
0.0
 10
9.686679484
 20
18.3552744133
 30
0.0
 10
9.6597441942
 20
18.3806617837
 30
0.0
 10
9.6336633205
 20
18.4051952665
 30
0.0
 10
9.6086665566
 20
18.4286453742
 30
0.0
 10
9.5849738159
 20
18.4507924924
 30
0.0
 10
9.5627932069
 20
18.4714288801
 30
0.0
 10
9.542319259
 20
18.4903606867
 30
0.0
 10
9.5237309671
 20
18.5074094682
 30
0.0
 10
9.5094746568
 20
18.5203432177
 30
0.0
 10
9.499125014
 20
18.5296209274
 30
0.0
 10
9.4922135749
 20
18.5357584078
 30
0.0
 10
9.4858821945
 20
18.5413165991
 30
0.0
 10
9.4801445254
 20
18.5462821614
 30
0.0
 10
9.475012747
 20
18.5506431867
 30
0.0
 10
9.4704980315
 20
18.5543895311
 30
0.0
 10
9.4666097448
 20
18.5575121219
 30
0.0
 10
9.4637513738
 20
18.5597038365
 30
0.0
 10
9.4617777954
 20
18.5611301217
 30
0.0
 10
9.4605490899
 20
18.561974168
 30
0.0
 10
9.4594820234
 20
18.562657965
 30
0.0
 10
9.4588149377
 20
18.5630443583
 30
0.0
 10
9.4585072125
 20
18.5632071635
 30
0.0
  0
LINE
  5
4EC
100
AcDbEntity
  8
0
100
AcDbLine
 62
7
  6
CONTINUOUS
 10
9.4585072125
 20
18.5632071635
 11
9.4572766975
 21
18.5637322269
  0
SPLINE
  5
4ED
100
AcDbEntity
  8
0
100
AcDbSpline
 62
7
  6
CONTINUOUS
 70
0
 71
3
 72
61
 73
57
 74
0
 42
0.0000001
 43
0.0000001
 44
0.0000000001
 40
0.0
 40
0.0
 40
0.0
 40
0.0
 40
0.0001682391
 40
0.0003641753
 40
0.0006061248
 40
0.0009040063
 40
0.0012631109
 40
0.0016864203
 40
0.0021757273
 40
0.0027321719
 40
0.0040490187
 40
0.0056403115
 40
0.0075073311
 40
0.0096504949
 40
0.0120695641
 40
0.0147636486
 40
0.0177316401
 40
0.0209723111
 40
0.0282650989
 40
0.0366267037
 40
0.04603938
 40
0.0564822237
 40
0.0679322368
 40
0.0803636221
 40
0.1080568868
 40
0.1393125668
 40
0.1738482492
 40
0.2113514803
 40
0.2514826853
 40
0.2938782988
 40
0.3381541699
 40
0.3839089643
 40
0.4307279746
 40
0.478186717
 40
0.5733005788
 40
0.6200934046
 40
0.6658092329
 40
0.7100336949
 40
0.7523659361
 40
0.7924223685
 40
0.829840121
 40
0.8642803775
 40
0.8954315733
 40
0.9230122385
 40
0.9353845927
 40
0.9467739715
 40
0.9571546674
 40
0.9665038801
 40
0.9748008175
 40
0.982027943
 40
0.9881700316
 40
0.9932159708
 40
0.9953254492
 40
0.9971587951
 40
0.9987165028
 40
1.0
 40
1.0
 40
1.0
 40
1.0
 10
9.4387034997
 20
18.5458536753
 30
0.0
 10
9.4387357024
 20
18.545885878
 30
0.0
 10
9.4388224185
 20
18.5459394495
 30
0.0
 10
9.4389862157
 20
18.5459689115
 30
0.0
 10
9.4391861602
 20
18.5459571918
 30
0.0
 10
9.4394246116
 20
18.5459055994
 30
0.0
 10
9.4397027919
 20
18.5458142833
 30
0.0
 10
9.4400212507
 20
18.5456829573
 30
0.0
 10
9.4403802058
 20
18.5455114696
 30
0.0
 10
9.4409453243
 20
18.5452117386
 30
0.0
 10
9.4417508998
 20
18.5447305077
 30
0.0
 10
9.4428322033
 20
18.5440218853
 30
0.0
 10
9.4440750097
 20
18.5431528994
 30
0.0
 10
9.4454787465
 20
18.5421239405
 30
0.0
 10
9.4470426875
 20
18.5409353807
 30
0.0
 10
9.4487660132
 20
18.5395879173
 30
0.0
 10
9.4506478254
 20
18.5380823456
 30
0.0
 10
9.453480319
 20
18.5357726537
 30
0.0
 10
9.4574053889
 20
18.5324928967
 30
0.0
 10
9.4625634826
 20
18.5280839538
 30
0.0
 10
9.4683267311
 20
18.5230710885
 30
0.0
 10
9.4746828968
 20
18.5174663595
 30
0.0
 10
9.4816182529
 20
18.511283178
 30
0.0
 10
9.4919972104
 20
18.501945725
 30
0.0
 10
9.5062877139
 20
18.4889403898
 30
0.0
 10
9.5249141442
 20
18.4718101601
 30
0.0
 10
9.5454209892
 20
18.4528020308
 30
0.0
 10
9.5676287617
 20
18.4320949486
 30
0.0
 10
9.5913424932
 20
18.4098832211
 30
0.0
 10
9.6163536882
 20
18.3863749798
 30
0.0
 10
9.6424421042
 20
18.3617901713
 30
0.0
 10
9.6693777748
 20
18.3363585462
 30
0.0
 10
9.6969230451
 20
18.3103175709
 30
0.0
 10
9.7341643046
 20
18.2750835968
 30
0.0
 10
9.7713938554
 20
18.2398475598
 30
0.0
 10
9.80830068
 20
18.2049569065
 30
0.0
 10
9.8352137888
 20
18.1795473451
 30
0.0
 10
9.8612724477
 20
18.1549916437
 30
0.0
 10
9.886246963
 20
18.1315192983
 30
0.0
 10
9.9099174279
 20
18.1093499276
 30
0.0
 10
9.9320757365
 20
18.0886912836
 30
0.0
 10
9.9525273689
 20
18.0697372288
 30
0.0
 10
9.9710933346
 20
18.0526662214
 30
0.0
 10
9.9853304868
 20
18.0397133079
 30
0.0
 10
9.9956646121
 20
18.0304200272
 30
0.0
 10
10.0025647888
 20
18.0242713431
 30
0.0
 10
10.0088849046
 20
18.0187019577
 30
0.0
 10
10.0146113086
 20
18.0137252178
 30
0.0
 10
10.0197318227
 20
18.0093530378
 30
0.0
 10
10.0242352785
 20
18.0055955838
 30
0.0
 10
10.028112309
 20
18.0024619378
 30
0.0
 10
10.030960962
 20
18.0002605114
 30
0.0
 10
10.0329266592
 20
17.9988261844
 30
0.0
 10
10.0341496853
 20
17.9979765806
 30
0.0
 10
10.0352110611
 20
17.9972872592
 30
0.0
 10
10.0358741857
 20
17.9968966794
 30
0.0
 10
10.0361799448
 20
17.9967316841
 30
0.0
  0
LINE
  5
4EE
100
AcDbEntity
  8
0
100
AcDbLine
 62
7
  6
CONTINUOUS
 10
10.0361799448
 20
17.9967316841
 11
10.0374313633
 21
17.9961877969
  0
SPLINE
  5
4EF
100
AcDbEntity
  8
0
100
AcDbSpline
 62
7
  6
CONTINUOUS
 70
0
 71
3
 72
61
 73
57
 74
0
 42
0.0000001
 43
0.0000001
 44
0.0000000001
 40
0.0
 40
0.0
 40
0.0
 40
0.0
 40
0.0001727615
 40
0.000372589
 40
0.0006176924
 40
0.0009181317
 40
0.0012793501
 40
0.0017044431
 40
0.0021952822
 40
0.0027530627
 40
0.0040721329
 40
0.0056652196
 40
0.0075337217
 40
0.0096781301
 40
0.0120982549
 40
0.01479324
 40
0.0177620016
 40
0.0210033306
 40
0.0282971493
 40
0.0366594737
 40
0.0460726116
 40
0.0565156979
 40
0.0679657605
 40
0.0803970212
 40
0.1080895862
 40
0.1393440573
 40
0.1738780874
 40
0.2113793075
 40
0.2515081777
 40
0.2939012059
 40
0.3381742723
 40
0.3839261128
 40
0.4307420459
 40
0.4781976609
 40
0.5733052696
 40
0.6200950765
 40
0.6658080036
 40
0.7100297504
 40
0.7523594909
 40
0.7924137073
 40
0.8298295596
 40
0.8642683136
 40
0.8954184473
 40
0.9229985849
 40
0.9353709058
 40
0.9467604235
 40
0.9571414544
 40
0.9664912275
 40
0.9747889875
 40
0.9820172522
 40
0.9881608783
 40
0.9932088897
 40
0.995319681
 40
0.9971545853
 40
0.9987141741
 40
1.0
 40
1.0
 40
1.0
 40
1.0
 10
10.0054217314
 20
17.9635233876
 30
0.0
 10
10.0053886602
 20
17.9634903164
 30
0.0
 10
10.0053004644
 20
17.9634349584
 30
0.0
 10
10.0051340183
 20
17.9634025537
 30
0.0
 10
10.0049312748
 20
17.9634115389
 30
0.0
 10
10.0046900617
 20
17.9634604721
 30
0.0
 10
10.0044091562
 20
17.9635491615
 30
0.0
 10
10.0040880014
 20
17.9636778632
 30
0.0
 10
10.0037263671
 20
17.9638467242
 30
0.0
 10
10.0031576261
 20
17.9641426569
 30
0.0
 10
10.0023475165
 20
17.9646192925
 30
0.0
 10
10.0012609062
 20
17.9653227203
 30
0.0
 10
10.000012807
 20
17.9661864869
 30
0.0
 10
9.9986037875
 20
17.9672102082
 30
0.0
 10
9.9970345692
 20
17.9683935202
 30
0.0
 10
9.9953059707
 20
17.9697357287
 30
0.0
 10
9.9934188889
 20
17.971236041
 30
0.0
 10
9.9905791463
 20
17.9735383754
 30
0.0
 10
9.9866451026
 20
17.9768090879
 30
0.0
 10
9.9814765467
 20
17.9812075959
 30
0.0
 10
9.9757028421
 20
17.9862100149
 30
0.0
 10
9.9693362263
 20
17.9918042899
 30
0.0
 10
9.9623904274
 20
17.997977015
 30
0.0
 10
9.9519970896
 20
18.0072999491
 30
0.0
 10
9.937688839
 20
18.0202874271
 30
0.0
 10
9.919041734
 20
18.0373969539
 30
0.0
 10
9.898514222
 20
18.056384372
 30
0.0
 10
9.8762857927
 20
18.077070737
 30
0.0
 10
9.8525514125
 20
18.0992617519
 30
0.0
 10
9.8275195793
 20
18.1227492825
 30
0.0
 10
9.801410529
 20
18.1473133871
 30
0.0
 10
9.7744542287
 20
18.1727243102
 30
0.0
 10
9.7468883254
 20
18.1987445887
 30
0.0
 10
9.7096195251
 20
18.2339509507
 30
0.0
 10
9.6723625981
 20
18.2691595823
 30
0.0
 10
9.6354280956
 20
18.3040225085
 30
0.0
 10
9.6084943208
 20
18.329411404
 30
0.0
 10
9.5824149871
 20
18.3539464419
 30
0.0
 10
9.5574197813
 20
18.377398129
 30
0.0
 10
9.533728612
 20
18.3995468426
 30
0.0
 10
9.5115495796
 20
18.420184837
 30
0.0
 10
9.4910772087
 20
18.4391182526
 30
0.0
 10
9.4724904864
 20
18.4561686402
 30
0.0
 10
9.4582355135
 20
18.4691037655
 30
0.0
 10
9.4478869437
 20
18.4783825845
 30
0.0
 10
9.4409762775
 20
18.4845208588
 30
0.0
 10
9.4346456642
 20
18.4900798378
 30
0.0
 10
9.4289087553
 20
18.4950461806
 30
0.0
 10
9.4237777292
 20
18.499407978
 30
0.0
 10
9.4192637574
 20
18.5031550839
 30
0.0
 10
9.4153762051
 20
18.5062784242
 30
0.0
 10
9.4125184606
 20
18.5084707887
 30
0.0
 10
9.4105453845
 20
18.5098976056
 30
0.0
 10
9.4093170376
 20
18.5107420174
 30
0.0
 10
9.4082503276
 20
18.5114261753
 30
0.0
 10
9.4075834883
 20
18.5118128393
 30
0.0
 10
9.4072758848
 20
18.5119757854
 30
0.0
  0
LINE
  5
4F0
100
AcDbEntity
  8
0
100
AcDbLine
 62
7
  6
CONTINUOUS
 10
9.4072758848
 20
18.5119757854
 11
9.4060440009
 21
18.5125020415
  0
SPLINE
  5
4F1
100
AcDbEntity
  8
0
100
AcDbSpline
 62
7
  6
CONTINUOUS
 70
0
 71
3
 72
61
 73
57
 74
0
 42
0.0000001
 43
0.0000001
 44
0.0000000001
 40
0.0
 40
0.0
 40
0.0
 40
0.0
 40
0.0001686766
 40
0.0003649736
 40
0.0006072031
 40
0.0009053023
 40
0.001264579
 40
0.0016880274
 40
0.0021774485
 40
0.0027339879
 40
0.0040509813
 40
0.0056423804
 40
0.0075094778
 40
0.0096526985
 40
0.0120718085
 40
0.0147659215
 40
0.0177339314
 40
0.0209746128
 40
0.0282674029
 40
0.0366289925
 40
0.046041642
 40
0.0564844514
 40
0.067934426
 40
0.0803657714
 40
0.108058959
 40
0.1393145747
 40
0.1738502145
 40
0.211353427
 40
0.2514846427
 40
0.2938802979
 40
0.3381562373
 40
0.3839111305
 40
0.4307302601
 40
0.4781891433
 40
0.5733033223
 40
0.6200963124
 40
0.6658122949
 40
0.7100368964
 40
0.7523692509
 40
0.7924257691
 40
0.8298435611
 40
0.8642838133
 40
0.89543494
 40
0.9230154639
 40
0.9353877145
 40
0.9467769634
 40
0.9571575
 40
0.9665065202
 40
0.9748032253
 40
0.9820300694
 40
0.988171813
 40
0.9932173207
 40
0.9953265379
 40
0.997159582
 40
0.998716934
 40
1.0
 40
1.0
 40
1.0
 40
1.0
 10
9.3890445216
 20
18.4961946973
 30
0.0
 10
9.3890768079
 20
18.4962269835
 30
0.0
 10
9.3891636613
 20
18.496280727
 30
0.0
 10
9.3893277055
 20
18.4963104641
 30
0.0
 10
9.3895278998
 20
18.4962989871
 30
0.0
 10
9.389766586
 20
18.4962476211
 30
0.0
 10
9.3900449868
 20
18.4961565192
 30
0.0
 10
9.3903636531
 20
18.4960253981
 30
0.0
 10
9.3907228039
 20
18.4958541063
 30
0.0
 10
9.3912881712
 20
18.4955546465
 30
0.0
 10
9.3920940318
 20
18.4950737164
 30
0.0
 10
9.3931756324
 20
18.4943653977
 30
0.0
 10
9.394418696
 20
18.4934966817
 30
0.0
 10
9.3958226512
 20
18.4924679589
 30
0.0
 10
9.3973867725
 20
18.4912796007
 30
0.0
 10
9.3991102412
 20
18.4899323047
 30
0.0
 10
9.4009921596
 20
18.488426866
 30
0.0
 10
9.4038247472
 20
18.486117314
 30
0.0
 10
9.4077498376
 20
18.4828376339
 30
0.0
 10
9.4129078221
 20
18.478428648
 30
0.0
 10
9.4186708282
 20
18.4734156118
 30
0.0
 10
9.4250266226
 20
18.4678105867
 30
0.0
 10
9.4319614827
 20
18.4616269866
 30
0.0
 10
9.4423395881
 20
18.4522887873
 30
0.0
 10
9.4566287258
 20
18.4392822129
 30
0.0
 10
9.4752531427
 20
18.4221501143
 30
0.0
 10
9.4957575784
 20
18.4031397074
 30
0.0
 10
9.5179625783
 20
18.3824299661
 30
0.0
 10
9.5416732057
 20
18.3602152254
 30
0.0
 10
9.5666809961
 20
18.3367036459
 30
0.0
 10
9.5927657387
 20
18.3121152028
 30
0.0
 10
9.6196974967
 20
18.2866796779
 30
0.0
 10
9.6472386461
 20
18.2606345675
 30
0.0
 10
9.6844741726
 20
18.2253948002
 30
0.0
 10
9.7216977193
 20
18.1901526684
 30
0.0
 10
9.758598252
 20
18.1552555989
 30
0.0
 10
9.7855065824
 20
18.1298411531
 30
0.0
 10
9.8115603985
 20
18.1052804981
 30
0.0
 10
9.8365300306
 20
18.0818031552
 30
0.0
 10
9.8601955938
 20
18.0596287714
 30
0.0
 10
9.8823490068
 20
18.0389651238
 30
0.0
 10
9.9027957723
 20
18.0200061045
 30
0.0
 10
9.9213569249
 20
18.0029301973
 30
0.0
 10
9.9355900108
 20
17.9899731334
 30
0.0
 10
9.9459208979
 20
17.9806765427
 30
0.0
 10
9.9528187536
 20
17.9745255071
 30
0.0
 10
9.9591365792
 20
17.9689538059
 30
0.0
 10
9.9648607274
 20
17.9639747899
 30
0.0
 10
9.9699790231
 20
17.9596003777
 30
0.0
 10
9.9744803017
 20
17.9558407418
 30
0.0
 10
9.9783551989
 20
17.952704969
 30
0.0
 10
9.9812020474
 20
17.9505017165
 30
0.0
 10
9.983166308
 20
17.9490659087
 30
0.0
 10
9.9843883136
 20
17.9482152934
 30
0.0
 10
9.9854486803
 20
17.9475249795
 30
0.0
 10
9.9861111098
 20
17.9471336592
 30
0.0
 10
9.986416526
 20
17.94696828
 30
0.0
  0
LINE
  5
4F2
100
AcDbEntity
  8
0
100
AcDbLine
 62
7
  6
CONTINUOUS
 10
9.986416526
 20
17.94696828
 11
9.9876713672
 21
17.9464211474
  0
SPLINE
  5
4F3
100
AcDbEntity
  8
0
100
AcDbSpline
 62
7
  6
CONTINUOUS
 70
0
 71
3
 72
61
 73
57
 74
0
 42
0.0000001
 43
0.0000001
 44
0.0000000001
 40
0.0
 40
0.0
 40
0.0
 40
0.0
 40
0.0001679591
 40
0.0003636538
 40
0.0006054069
 40
0.0009031284
 40
0.0012620998
 40
0.0016852961
 40
0.002174505
 40
0.0027308633
 40
0.0040475641
 40
0.0056387363
 40
0.0075056537
 40
0.0096487294
 40
0.0120677215
 40
0.0147617376
 40
0.017729668
 40
0.020970284
 40
0.028262977
 40
0.036624504
 40
0.0460371164
 40
0.0564799091
 40
0.0679298814
 40
0.0803612329
 40
0.1080544543
 40
0.1393101232
 40
0.1738458123
 40
0.2113490783
 40
0.2514803293
 40
0.2938760109
 40
0.3381519558
 40
0.3839068472
 40
0.4307259552
 40
0.4781848153
 40
0.573298937
 40
0.6200919106
 40
0.6658078823
 40
0.7100324984
 40
0.7523648872
 40
0.7924214767
 40
0.8298393737
 40
0.8642797877
 40
0.8954311274
 40
0.9230119372
 40
0.93538436
 40
0.9467738015
 40
0.9571545562
 40
0.9665038242
 40
0.9748008106
 40
0.9820279768
 40
0.9881700935
 40
0.9932160442
 40
0.9953255193
 40
0.9971588542
 40
0.9987165402
 40
1.0
 40
1.0
 40
1.0
 40
1.0
 10
9.3392265247
 20
18.4463767003
 30
0.0
 10
9.3392586737
 20
18.4464088493
 30
0.0
 10
9.3393452982
 20
18.4464623099
 30
0.0
 10
9.3395089299
 20
18.4464915885
 30
0.0
 10
9.3397086988
 20
18.446479698
 30
0.0
 10
9.3399469759
 20
18.4464279386
 30
0.0
 10
9.3402249832
 20
18.4463364567
 30
0.0
 10
9.3405432699
 20
18.4462049643
 30
0.0
 10
9.3409020528
 20
18.4460333092
 30
0.0
 10
9.3414669369
 20
18.4457333352
 30
0.0
 10
9.3422722164
 20
18.4452518083
 30
0.0
 10
9.3433531703
 20
18.4445428483
 30
0.0
 10
9.3445956244
 20
18.4436735204
 30
0.0
 10
9.3459990061
 20
18.4426442158
 30
0.0
 10
9.347562589
 20
18.4414553069
 30
0.0
 10
9.3492855535
 20
18.4401074916
 30
0.0
 10
9.3511670016
 20
18.4386015654
 30
0.0
 10
9.3539989895
 20
18.4362913745
 30
0.0
 10
9.3579234255
 20
18.4330109981
 30
0.0
 10
9.3630807696
 20
18.4286013326
 30
0.0
 10
9.3688432594
 20
18.4235877363
 30
0.0
 10
9.3751986579
 20
18.4179822689
 30
0.0
 10
9.3821332391
 20
18.4117983431
 30
0.0
 10
9.3925111185
 20
18.40245985
 30
0.0
 10
9.406800275
 20
18.3894532226
 30
0.0
 10
9.425425118
 20
18.3723214837
 30
0.0
 10
9.4459303666
 20
18.3533118373
 30
0.0
 10
9.4681365382
 20
18.3326032386
 30
0.0
 10
9.4918486739
 20
18.3103899991
 30
0.0
 10
9.5168582819
 20
18.2868802596
 30
0.0
 10
9.5429451302
 20
18.2622939691
 30
0.0
 10
9.5698792563
 20
18.236860887
 30
0.0
 10
9.5974230159
 20
18.2108184818
 30
0.0
 10
9.634662316
 20
18.1755826428
 30
0.0
 10
9.6718900052
 20
18.1403448254
 30
0.0
 10
9.7087950322
 20
18.1054524435
 30
0.0
 10
9.7357068492
 20
18.0800416227
 30
0.0
 10
9.7617642604
 20
18.0554846969
 30
0.0
 10
9.7867375764
 20
18.0320111581
 30
0.0
 10
9.8104068876
 20
18.009840628
 30
0.0
 10
9.8325640936
 20
17.9891808535
 30
0.0
 10
9.8530146721
 20
17.9702257005
 30
0.0
 10
9.8715796369
 20
17.953153623
 30
0.0
 10
9.8858159695
 20
17.9401998163
 30
0.0
 10
9.8961494589
 20
17.9309058266
 30
0.0
 10
9.9030491892
 20
17.9247566376
 30
0.0
 10
9.9093688714
 20
17.9191867549
 30
0.0
 10
9.915094855
 20
17.9142095253
 30
0.0
 10
9.9202149621
 20
17.9098368634
 30
0.0
 10
9.9247180239
 20
17.9060789363
 30
0.0
 10
9.9285946731
 20
17.9029448265
 30
0.0
 10
9.9314430052
 20
17.9007430017
 30
0.0
 10
9.9334084484
 20
17.8993083503
 30
0.0
 10
9.9346312966
 20
17.8984585219
 30
0.0
 10
9.9356924974
 20
17.8977689789
 30
0.0
 10
9.9363555008
 20
17.8973782348
 30
0.0
 10
9.9366612003
 20
17.8972131542
 30
0.0
  0
LINE
  5
4F4
100
AcDbEntity
  8
0
100
AcDbLine
 62
7
  6
CONTINUOUS
 10
9.9366612003
 20
17.8972131542
 11
9.9379134402
 21
17.896668548
  0
SPLINE
  5
4F5
100
AcDbEntity
  8
0
100
AcDbSpline
 62
7
  6
CONTINUOUS
 70
0
 71
3
 72
61
 73
57
 74
0
 42
0.0000001
 43
0.0000001
 44
0.0000000001
 40
0.0
 40
0.0
 40
0.0
 40
0.0
 40
0.0001735576
 40
0.0003740791
 40
0.0006197521
 40
0.0009206586
 40
0.0012822673
 40
0.0017076929
 40
0.0021988207
 40
0.0027568553
 40
0.0040763548
 40
0.0056697952
 40
0.0075385957
 40
0.0096832606
 40
0.0121036082
 40
0.0147987887
 40
0.0177677225
 40
0.0210092039
 40
0.0283032768
 40
0.0366657991
 40
0.046079088
 40
0.0565222846
 40
0.0679724223
 40
0.0804037272
 40
0.1080962955
 40
0.1393506718
 40
0.1738845278
 40
0.2113854984
 40
0.2515140666
 40
0.2939067421
 40
0.338179423
 40
0.3839308527
 40
0.4307463634
 40
0.4782015481
 40
0.5733083225
 40
0.6200977379
 40
0.665810305
 40
0.7100317234
 40
0.7523611773
 40
0.7924151484
 40
0.8298307986
 40
0.8642693949
 40
0.8954194089
 40
0.9229994595
 40
0.9353717454
 40
0.9467612314
 40
0.9571422316
 40
0.9664919717
 40
0.9747896922
 40
0.9820179047
 40
0.9881614566
 40
0.9932093578
 40
0.9953200724
 40
0.9971548793
 40
0.9987143419
 40
1.0
 40
1.0
 40
1.0
 40
1.0
 10
9.954171592
 20
17.9122732482
 30
0.0
 10
9.954138368
 20
17.9122400242
 30
0.0
 10
9.9540499088
 20
17.9121843526
 30
0.0
 10
9.9538829952
 20
17.912151428
 30
0.0
 10
9.9536797529
 20
17.9121599231
 30
0.0
 10
9.9534380424
 20
17.9122083759
 30
0.0
 10
9.953156642
 20
17.9122965869
 30
0.0
 10
9.9528349934
 20
17.9124248071
 30
0.0
 10
9.9524728645
 20
17.9125931826
 30
0.0
 10
9.9519034494
 20
17.9128884084
 30
0.0
 10
9.9510924861
 20
17.9133641777
 30
0.0
 10
9.9500048632
 20
17.9140666119
 30
0.0
 10
9.9487557402
 20
17.9149293666
 30
0.0
 10
9.9473456856
 20
17.9159520591
 30
0.0
 10
9.9457754205
 20
17.9171343271
 30
0.0
 10
9.9440457633
 20
17.9184754774
 30
0.0
 10
9.9421576115
 20
17.9199747182
 30
0.0
 10
9.9393163801
 20
17.9222755372
 30
0.0
 10
9.935380463
 20
17.9255443536
 30
0.0
 10
9.9302096824
 20
17.92994063
 30
0.0
 10
9.9244337161
 20
17.9349407739
 30
0.0
 10
9.9180648047
 20
17.9405327341
 30
0.0
 10
9.9111166795
 20
17.946703109
 30
0.0
 10
9.9007200975
 20
17.9560227358
 30
0.0
 10
9.8864077737
 20
17.9690060664
 30
0.0
 10
9.8677558467
 20
17.9861106974
 30
0.0
 10
9.8472234621
 20
18.0050931534
 30
0.0
 10
9.8249901322
 20
18.0257745184
 30
0.0
 10
9.8012508484
 20
18.0479605217
 30
0.0
 10
9.7762141301
 20
18.0714430582
 30
0.0
 10
9.750100237
 20
18.096002212
 30
0.0
 10
9.7231391575
 20
18.1214082558
 30
0.0
 10
9.6955685622
 20
18.1474237519
 30
0.0
 10
9.6582936451
 20
18.182623902
 30
0.0
 10
9.6210309045
 20
18.2178266571
 30
0.0
 10
9.584090892
 20
18.2526840405
 30
0.0
 10
9.5571532143
 20
18.2780690404
 30
0.0
 10
9.5310702174
 20
18.3026004492
 30
0.0
 10
9.5060716193
 20
18.3260488033
 30
0.0
 10
9.4823773589
 20
18.3481945102
 30
0.0
 10
9.4601955679
 20
18.3688298525
 30
0.0
 10
9.4397208028
 20
18.3877609986
 30
0.0
 10
9.4211320829
 20
18.4048095263
 30
0.0
 10
9.4068757586
 20
18.4177434202
 30
0.0
 10
9.3965263494
 20
18.4270214995
 30
0.0
 10
9.3896151972
 20
18.4331593599
 30
0.0
 10
9.383284223
 20
18.4387180473
 30
0.0
 10
9.3775470827
 20
18.4436842238
 30
0.0
 10
9.3724159587
 20
18.4480459825
 30
0.0
 10
9.3679020268
 20
18.4517931788
 30
0.0
 10
9.3640146564
 20
18.4549167406
 30
0.0
 10
9.3611571889
 20
18.4571094184
 30
0.0
 10
9.3591844213
 20
18.4585365808
 30
0.0
 10
9.3579563389
 20
18.4593812647
 30
0.0
 10
9.3568899333
 20
18.4600657279
 30
0.0
 10
9.3562233291
 20
18.4604526524
 30
0.0
 10
9.3559158491
 20
18.4606157439
 30
0.0
  0
LINE
  5
4F6
100
AcDbEntity
  8
0
100
AcDbLine
 62
7
  6
CONTINUOUS
 10
9.3559158491
 20
18.4606157439
 11
9.3546822233
 21
18.4611434019
  0
SPLINE
  5
4F7
100
AcDbEntity
  8
0
100
AcDbSpline
 62
7
  6
CONTINUOUS
 70
0
 71
3
 72
57
 73
53
 74
0
 42
0.0000001
 43
0.0000001
 44
0.0000000001
 40
0.0
 40
0.0
 40
0.0
 40
0.0
 40
0.0001818449
 40
0.000389341
 40
0.0006403645
 40
0.0009452013
 40
0.0013095863
 40
0.001736844
 40
0.0027871217
 40
0.0041055458
 40
0.0056958624
 40
0.0075597089
 40
0.0096977232
 40
0.0121098682
 40
0.0147953721
 40
0.0177531776
 40
0.020982093
 40
0.0282471017
 40
0.036575377
 40
0.0459496144
 40
0.0563489964
 40
0.0801296882
 40
0.1077057715
 40
0.1388299003
 40
0.1732221476
 40
0.2105727644
 40
0.2505450092
 40
0.292778556
 40
0.3368924246
 40
0.3824888664
 40
0.4291566576
 40
0.4764749859
 40
0.5713551295
 40
0.663716774
 40
0.7079087194
 40
0.7502399191
 40
0.790329456
 40
0.8278169555
 40
0.8623655345
 40
0.8936652745
 40
0.9214358154
 40
0.9454293112
 40
0.9559417224
 40
0.9654332412
 40
0.9738828981
 40
0.9812731972
 40
0.9875887801
 40
0.9928185094
 40
0.9950236722
 40
0.9969552207
 40
0.9986135756
 40
1.0
 40
1.0
 40
1.0
 40
1.0
 10
9.3972756966
 20
18.465496666
 30
0.0
 10
9.3973081883
 20
18.4655291552
 30
0.0
 10
9.3973931768
 20
18.4655841844
 30
0.0
 10
9.3975531553
 20
18.4656201966
 30
0.0
 10
9.3977471635
 20
18.4656173851
 30
0.0
 10
9.3979768552
 20
18.4655772831
 30
0.0
 10
9.3982433674
 20
18.4655001991
 30
0.0
 10
9.3986792373
 20
18.4653360429
 30
0.0
 10
9.3993163069
 20
18.4650280037
 30
0.0
 10
9.4001862718
 20
18.4645335227
 30
0.0
 10
9.4012066821
 20
18.4638901901
 30
0.0
 10
9.4023771125
 20
18.4630982393
 30
0.0
 10
9.4036970569
 20
18.4621576073
 30
0.0
 10
9.4051658478
 20
18.4610687341
 30
0.0
 10
9.4067827344
 20
18.4598322169
 30
0.0
 10
9.4085468762
 20
18.4584488137
 30
0.0
 10
9.4112002535
 20
18.4563244457
 30
0.0
 10
9.4148739757
 20
18.4533036887
 30
0.0
 10
9.4196979151
 20
18.4492377821
 30
0.0
 10
9.4250842487
 20
18.4446107324
 30
0.0
 10
9.43337898
 20
18.4373778022
 30
0.0
 10
9.4450458615
 20
18.4270146996
 30
0.0
 10
9.4605183595
 20
18.4130517548
 30
0.0
 10
9.4778907352
 20
18.397192503
 30
0.0
 10
9.4970124971
 20
18.3795866883
 30
0.0
 10
9.517717241
 20
18.3603996586
 30
0.0
 10
9.5398245479
 20
18.3398113326
 30
0.0
 10
9.5631413863
 20
18.3180143335
 30
0.0
 10
9.5874639315
 20
18.295212211
 30
0.0
 10
9.6125793225
 20
18.2716176086
 30
0.0
 10
9.6382676263
 20
18.2474502934
 30
0.0
 10
9.6730122406
 20
18.2147354515
 30
0.0
 10
9.7161542143
 20
18.1740964595
 30
0.0
 10
9.7587522243
 20
18.134032096
 30
0.0
 10
9.7917252896
 20
18.1031150414
 30
0.0
 10
9.8150938602
 20
18.0812649613
 30
0.0
 10
9.8372632734
 20
18.060612882
 30
0.0
 10
9.858040509
 20
18.0413514771
 30
0.0
 10
9.8772450923
 20
18.0236607258
 30
0.0
 10
9.8947105154
 20
18.0077061233
 30
0.0
 10
9.910286117
 20
17.9936376043
 30
0.0
 10
9.9220447864
 20
17.9831798985
 30
0.0
 10
9.9304175349
 20
17.9758660856
 30
0.0
 10
9.9358661699
 20
17.9711752005
 30
0.0
 10
9.9407546343
 20
17.9670431619
 30
0.0
 10
9.9450724531
 20
17.9634795965
 30
0.0
 10
9.9488108048
 20
17.9604930525
 30
0.0
 10
9.9515730637
 20
17.9583845695
 30
0.0
 10
9.953492924
 20
17.9570003307
 30
0.0
 10
9.9546999626
 20
17.9561710257
 30
0.0
 10
9.9557573427
 20
17.955490205
 30
0.0
 10
9.9564211603
 20
17.9551004596
 30
0.0
 10
9.956729073
 20
17.9549333831
 30
0.0
  0
LINE
  5
4F8
100
AcDbEntity
  8
0
100
AcDbLine
 62
7
  6
CONTINUOUS
 10
9.956729073
 20
17.9549333831
 11
9.9581371718
 21
17.954318219
  0
SPLINE
  5
4F9
100
AcDbEntity
  8
0
100
AcDbSpline
 62
7
  6
CONTINUOUS
 70
0
 71
3
 72
27
 73
23
 74
0
 42
0.0000001
 43
0.0000001
 44
0.0000000001
 40
0.0
 40
0.0
 40
0.0
 40
0.0
 40
0.1935059049
 40
0.3794718765
 40
0.4673694422
 40
0.5507301882
 40
0.628757353
 40
0.7007159568
 40
0.7659340913
 40
0.8238133874
 40
0.8738454093
 40
0.9156161079
 40
0.9333099911
 40
0.9488441525
 40
0.9622159478
 40
0.973441639
 40
0.9825805035
 40
0.9897733982
 40
0.9927347576
 40
0.9953537204
 40
0.997731001
 40
1.0
 40
1.0
 40
1.0
 40
1.0
 10
7.5448195736
 20
16.0774454895
 30
0.0
 10
7.5421317414
 20
16.0801333217
 30
0.0
 10
7.5368127209
 20
16.0853564034
 30
0.0
 10
7.5301415955
 20
16.0916648425
 30
0.0
 10
7.5249650493
 20
16.0964026019
 30
0.0
 10
7.5213138365
 20
16.0996659427
 30
0.0
 10
7.517855929
 20
16.1026751521
 30
0.0
 10
7.5146248594
 20
16.1054014572
 30
0.0
 10
7.5116518483
 20
16.1078189672
 30
0.0
 10
7.5089655429
 20
16.1099052523
 30
0.0
 10
7.5065917242
 20
16.1116410076
 30
0.0
 10
7.5048064418
 20
16.1128425241
 30
0.0
 10
7.503546902
 20
16.1136072566
 30
0.0
 10
7.5027464204
 20
16.1140519311
 30
0.0
 10
7.5020385741
 20
16.1143998154
 30
0.0
 10
7.5014242539
 20
16.1146507479
 30
0.0
 10
7.5009044087
 20
16.1148047235
 30
0.0
 10
7.5005256978
 20
16.114856483
 30
0.0
 10
7.5002744671
 20
16.114838581
 30
0.0
 10
7.5001218668
 20
16.1148002603
 30
0.0
 10
7.4999932021
 20
16.1147354923
 30
0.0
 10
7.499924068
 20
16.1146739837
 30
0.0
 10
7.499894998
 20
16.1146401968
 30
0.0
  0
SPLINE
  5
4FA
100
AcDbEntity
  8
0
100
AcDbSpline
 62
7
  6
CONTINUOUS
 70
0
 71
3
 72
32
 73
28
 74
0
 42
0.0000001
 43
0.0000001
 44
0.0000000001
 40
0.0
 40
0.0
 40
0.0
 40
0.0
 40
0.2187250916
 40
0.3200484531
 40
0.4155001196
 40
0.5047189168
 40
0.587367432
 40
0.6631350821
 40
0.7317378839
 40
0.7929199831
 40
0.846453939
 40
0.8702908938
 40
0.8921449058
 40
0.9119978036
 40
0.9298322538
 40
0.9456343118
 40
0.9593942194
 40
0.9711047786
 40
0.9807658117
 40
0.9848311615
 40
0.988389755
 40
0.9914465431
 40
0.9940101725
 40
0.9960964778
 40
0.99773559
 40
0.9989906279
 40
1.0
 40
1.0
 40
1.0
 40
1.0
 10
9.7665702028
 20
17.981274709
 30
0.0
 10
9.7762798439
 20
17.9722056764
 30
0.0
 10
9.7905046253
 20
17.9589538186
 30
0.0
 10
9.8090231445
 20
17.9418050328
 30
0.0
 10
9.8217973826
 20
17.9300313003
 30
0.0
 10
9.833768504
 20
17.9190601065
 30
0.0
 10
9.8448929418
 20
17.9089348701
 30
0.0
 10
9.8551303634
 20
17.8996957049
 30
0.0
 10
9.8644437867
 20
17.8913791721
 30
0.0
 10
9.8727997187
 20
17.8840184263
 30
0.0
 10
9.8791640112
 20
17.8785109349
 30
0.0
 10
9.8837589373
 20
17.8746101877
 30
0.0
 10
9.8868130926
 20
17.8720559686
 30
0.0
 10
9.8896080732
 20
17.8697604026
 30
0.0
 10
9.8921414554
 20
17.8677258059
 30
0.0
 10
9.894411027
 20
17.8659541965
 30
0.0
 10
9.896414737
 20
17.8644470476
 30
0.0
 10
9.8981509223
 20
17.8632058172
 30
0.0
 10
9.8994379059
 20
17.8623497202
 30
0.0
 10
9.9003356529
 20
17.8618049281
 30
0.0
 10
9.9009017542
 20
17.8614876471
 30
0.0
 10
9.9014002621
 20
17.8612372972
 30
0.0
 10
9.9018313214
 20
17.8610537251
 30
0.0
 10
9.9021956558
 20
17.8609360404
 30
0.0
 10
9.9024950383
 20
17.8608842786
 30
0.0
 10
9.9027354786
 20
17.8608975123
 30
0.0
 10
9.9028631749
 20
17.8609648663
 30
0.0
 10
9.9029065378
 20
17.8610082136
 30
0.0
  0
SPLINE
  5
4FB
100
AcDbEntity
  8
0
100
AcDbSpline
 62
7
  6
CONTINUOUS
 70
0
 71
3
 72
12
 73
8
 74
0
 42
0.0000001
 43
0.0000001
 44
0.0000000001
 40
0.0
 40
0.0
 40
0.0
 40
0.0
 40
0.074502627
 40
0.1629444783
 40
0.3829730304
 40
0.6617756634
 40
1.0
 40
1.0
 40
1.0
 40
1.0
 10
9.4837156992
 20
18.5566637586
 30
0.0
 10
9.4838239847
 20
18.5566348183
 30
0.0
 10
9.4840570174
 20
18.5565573128
 30
0.0
 10
9.4845885683
 20
18.5563341858
 30
0.0
 10
9.4853720315
 20
18.5559228906
 30
0.0
 10
9.486449295
 20
18.5552701546
 30
0.0
 10
9.4872225867
 20
18.5547560897
 30
0.0
 10
9.487642539
 20
18.5544687527
 30
0.0
  0
SPLINE
  5
4FC
100
AcDbEntity
  8
0
100
AcDbSpline
 62
7
  6
CONTINUOUS
 70
0
 71
3
 72
53
 73
49
 74
0
 42
0.0000001
 43
0.0000001
 44
0.0000000001
 40
0.0
 40
0.0
 40
0.0
 40
0.0
 40
0.0043039131
 40
0.0096652277
 40
0.0160765478
 40
0.0235257264
 40
0.0319983265
 40
0.0414764722
 40
0.0633678817
 40
0.0890130836
 40
0.1181910647
 40
0.1506494646
 40
0.1861069297
 40
0.2242560168
 40
0.2647656182
 40
0.3514427713
 40
0.4431359351
 40
0.5366695276
 40
0.583113942
 40
0.6288054145
 40
0.6733479268
 40
0.7163554167
 40
0.7574554185
 40
0.7962920481
 40
0.8325292803
 40
0.8658538659
 40
0.8959780323
 40
0.9226422607
 40
0.9456176273
 40
0.9556595938
 40
0.9647085281
 40
0.972746009
 40
0.9797553696
 40
0.9828703836
 40
0.98572364
 40
0.9883138622
 40
0.9906402908
 40
0.9927024687
 40
0.9945002558
 40
0.9960341214
 40
0.997305898
 40
0.9983195218
 40
0.9987321077
 40
0.999084162
 40
0.9993789033
 40
0.9996219252
 40
0.9998232204
 40
1.0
 40
1.0
 40
1.0
 40
1.0
 10
9.487642539
 20
18.5544687527
 30
0.0
 10
9.4885454583
 20
18.5538509633
 30
0.0
 10
9.4905342567
 20
18.5524070208
 30
0.0
 10
9.4937686094
 20
18.5499087578
 30
0.0
 10
9.4975737674
 20
18.5468431703
 30
0.0
 10
9.5019420746
 20
18.5432171873
 30
0.0
 10
9.5068644437
 20
18.5390387754
 30
0.0
 10
9.5145290256
 20
18.5324185437
 30
0.0
 10
9.5253972888
 20
18.5228301382
 30
0.0
 10
9.5399061021
 20
18.5098004094
 30
0.0
 10
9.5563185452
 20
18.4948709998
 30
0.0
 10
9.5744979305
 20
18.4781778013
 30
0.0
 10
9.5942920777
 20
18.4598717755
 30
0.0
 10
9.615535106
 20
18.4401183407
 30
0.0
 10
9.6462526131
 20
18.4114342255
 30
0.0
 10
9.6868260028
 20
18.3733624217
 30
0.0
 10
9.7371492052
 20
18.3259835649
 30
0.0
 10
9.7800027384
 20
18.2855902536
 30
0.0
 10
9.8143577275
 20
18.2532289261
 30
0.0
 10
9.8396593213
 20
18.2294188064
 30
0.0
 10
9.8643426341
 20
18.2062265078
 30
0.0
 10
9.8881999448
 20
18.1838595927
 30
0.0
 10
9.9110307034
 20
18.1625184054
 30
0.0
 10
9.9326432948
 20
18.1423942957
 30
0.0
 10
9.9528566444
 20
18.1236679462
 30
0.0
 10
9.9715018051
 20
18.1065078172
 30
0.0
 10
9.9884232414
 20
18.091068421
 30
0.0
 10
10.0034805057
 20
18.0774894654
 30
0.0
 10
10.0148275419
 20
18.0674192617
 30
0.0
 10
10.0228907083
 20
18.0603957504
 30
0.0
 10
10.0281244271
 20
18.0559053699
 30
0.0
 10
10.0328106369
 20
18.0519611091
 30
0.0
 10
10.0363791814
 20
18.0490317643
 30
0.0
 10
10.0389563428
 20
18.0469723682
 30
0.0
 10
10.040669697
 20
18.0456316225
 30
0.0
 10
10.0422400111
 20
18.0444335737
 30
0.0
 10
10.0436665321
 20
18.0433788754
 30
0.0
 10
10.0449485867
 20
18.0424680055
 30
0.0
 10
10.046085533
 20
18.0417014016
 30
0.0
 10
10.0470768934
 20
18.0410790505
 30
0.0
 10
10.0479223054
 20
18.0406011184
 30
0.0
 10
10.0485415797
 20
18.0403037926
 30
0.0
 10
10.0489654376
 20
18.0401457467
 30
0.0
 10
10.0492247594
 20
18.0400717837
 30
0.0
 10
10.0494483592
 20
18.0400337263
 30
0.0
 10
10.0496373378
 20
18.0400318885
 30
0.0
 10
10.0497932527
 20
18.0400677632
 30
0.0
 10
10.0498761089
 20
18.0401216931
 30
0.0
 10
10.0499078822
 20
18.0401534702
 30
0.0
  0
SPLINE
  5
4FD
100
AcDbEntity
  8
0
100
AcDbSpline
 62
7
  6
CONTINUOUS
 70
0
 71
3
 72
30
 73
26
 74
0
 42
0.0000001
 43
0.0000001
 44
0.0000000001
 40
0.0
 40
0.0
 40
0.0
 40
0.0
 40
0.1946087531
 40
0.3819207254
 40
0.4705587317
 40
0.5546781309
 40
0.6334526928
 40
0.7061109081
 40
0.7719382575
 40
0.8302878665
 40
0.8805957943
 40
0.9025793183
 40
0.9223811401
 40
0.9399538917
 40
0.9552611671
 40
0.968276865
 40
0.9789811426
 40
0.9834661683
 40
0.9873765742
 40
0.9907183844
 40
0.9935026028
 40
0.9957500423
 40
0.9975031029
 40
0.9988546553
 40
1.0
 40
1.0
 40
1.0
 40
1.0
 10
6.1527947704
 20
17.4655915443
 30
0.0
 10
6.1503307132
 20
17.4684913153
 30
0.0
 10
6.1454693052
 20
17.4741603614
 30
0.0
 10
6.1394147385
 20
17.4810889515
 30
0.0
 10
6.1347392254
 20
17.4863530364
 30
0.0
 10
6.1314515849
 20
17.4900111551
 30
0.0
 10
6.1283503579
 20
17.4934165755
 30
0.0
 10
6.1254661913
 20
17.4965357485
 30
0.0
 10
6.1228277114
 20
17.4993379649
 30
0.0
 10
6.1204610743
 20
17.5017955901
 30
0.0
 10
6.1186627331
 20
17.5036100291
 30
0.0
 10
6.1173749368
 20
17.5048687641
 30
0.0
 10
6.1165348024
 20
17.5056696377
 30
0.0
 10
6.1157781867
 20
17.5063687613
 30
0.0
 10
6.1151069787
 20
17.5069645867
 30
0.0
 10
6.1145228599
 20
17.5074558087
 30
0.0
 10
6.1140876861
 20
17.5077950137
 30
0.0
 10
6.1137828
 20
17.508010824
 30
0.0
 10
6.1135904514
 20
17.5081361512
 30
0.0
 10
6.1134206826
 20
17.5082348361
 30
0.0
 10
6.1132735072
 20
17.5083069721
 30
0.0
 10
6.1131486003
 20
17.5083528376
 30
0.0
 10
6.1130452256
 20
17.508372568
 30
0.0
 10
6.11296044
 20
17.5083654134
 30
0.0
 10
6.1129172975
 20
17.508337305
 30
0.0
 10
6.1129026909
 20
17.5083203283
 30
0.0
  0
LINE
  5
4FE
100
AcDbEntity
  8
0
100
AcDbLine
 62
7
  6
CONTINUOUS
 10
9.4344593354
 20
18.5049051872
 11
9.4352679442
 21
18.5045945925
  0
SPLINE
  5
4FF
100
AcDbEntity
  8
0
100
AcDbSpline
 62
7
  6
CONTINUOUS
 70
0
 71
3
 72
59
 73
55
 74
0
 42
0.0000001
 43
0.0000001
 44
0.0000000001
 40
0.0
 40
0.0
 40
0.0
 40
0.0
 40
0.0011835188
 40
0.0026405197
 40
0.0043735722
 40
0.0063838111
 40
0.0112359319
 40
0.0171918593
 40
0.0242415897
 40
0.0323705006
 40
0.0415616107
 40
0.0517943408
 40
0.0630462481
 40
0.0752916479
 40
0.1026505989
 40
0.1336230206
 40
0.167926871
 40
0.2052494821
 40
0.245250283
 40
0.2875642092
 40
0.3318050605
 40
0.3775689176
 40
0.4244381818
 40
0.5197755651
 40
0.5673738545
 40
0.6143456718
 40
0.6602627509
 40
0.7047063886
 40
0.7472716744
 40
0.7875707844
 40
0.8252368895
 40
0.8599273514
 40
0.8913269308
 40
0.9191509382
 40
0.9431478253
 40
0.9536423501
 40
0.9631024055
 40
0.9715071139
 40
0.9788386017
 40
0.9820970205
 40
0.9850818659
 40
0.9877917845
 40
0.9902256125
 40
0.9923827855
 40
0.9942632276
 40
0.9958674035
 40
0.9971968301
 40
0.9982554307
 40
0.9986858177
 40
0.9990526003
 40
0.9993590681
 40
0.9996109343
 40
0.9998185331
 40
1.0
 40
1.0
 40
1.0
 40
1.0
 10
9.4352679442
 20
18.5045945925
 30
0.0
 10
9.4355403485
 20
18.5044668916
 30
0.0
 10
9.4361340354
 20
18.5041521686
 30
0.0
 10
9.4370864579
 20
18.5035781703
 30
0.0
 10
9.4381918812
 20
18.5028527565
 30
0.0
 10
9.4399843533
 20
18.5016029846
 30
0.0
 10
9.4425949538
 20
18.499651853
 30
0.0
 10
9.4461608804
 20
18.4968424105
 30
0.0
 10
9.4503205662
 20
18.4934420393
 30
0.0
 10
9.455065385
 20
18.4894590986
 30
0.0
 10
9.4603848864
 20
18.4849028663
 30
0.0
 10
9.4662677442
 20
18.4797844098
 30
0.0
 10
9.472701153
 20
18.4741161672
 30
0.0
 10
9.4823573657
 20
18.4655205782
 30
0.0
 10
9.4956805821
 20
18.453505342
 30
0.0
 10
9.5130750041
 20
18.4376326032
 30
0.0
 10
9.5322632839
 20
18.4199685953
 30
0.0
 10
9.5530766183
 20
18.4006815594
 30
0.0
 10
9.575331343
 20
18.3799544573
 30
0.0
 10
9.5988307953
 20
18.3579835771
 30
0.0
 10
9.6233670072
 20
18.3349765812
 30
0.0
 10
9.6487226458
 20
18.3111505951
 30
0.0
 10
9.6835199478
 20
18.2784047317
 30
0.0
 10
9.7186354996
 20
18.2453166335
 30
0.0
 10
9.7537759614
 20
18.2122169615
 30
0.0
 10
9.7797813043
 20
18.1877411385
 30
0.0
 10
9.8052191375
 20
18.1638324006
 30
0.0
 10
9.8298642266
 20
18.140715802
 30
0.0
 10
9.853498571
 20
18.1186091297
 30
0.0
 10
9.8759134344
 20
18.0977208447
 30
0.0
 10
9.8969111687
 20
18.0782481882
 30
0.0
 10
9.9163070576
 20
18.0603753758
 30
0.0
 10
9.9339308007
 20
18.0442716535
 30
0.0
 10
9.9496284086
 20
18.0300902557
 30
0.0
 10
9.9614651536
 20
18.019562851
 30
0.0
 10
9.9698804456
 20
18.0122137531
 30
0.0
 10
9.9753449398
 20
18.0075116744
 30
0.0
 10
9.9802384847
 20
18.0033791998
 30
0.0
 10
9.9839648595
 20
18.0003083908
 30
0.0
 10
9.9866559663
 20
17.9981483724
 30
0.0
 10
9.9884450233
 20
17.996741522
 30
0.0
 10
9.9900845415
 20
17.9954838238
 30
0.0
 10
9.9915736831
 20
17.994376069
 30
0.0
 10
9.9929116846
 20
17.9934188099
 30
0.0
 10
9.9940978852
 20
17.9926124886
 30
0.0
 10
9.9951317229
 20
17.9919570888
 30
0.0
 10
9.9960127913
 20
17.9914528967
 30
0.0
 10
9.996657696
 20
17.9911382017
 30
0.0
 10
9.9970987458
 20
17.9909698754
 30
0.0
 10
9.9973682147
 20
17.9908904767
 30
0.0
 10
9.9976002763
 20
17.9908486183
 30
0.0
 10
9.9977960854
 20
17.990844598
 30
0.0
 10
9.9979573949
 20
17.9908799664
 30
0.0
 10
9.9980430139
 20
17.990935122
 30
0.0
 10
9.9980756244
 20
17.9909677478
 30
0.0
  0
SPLINE
  5
500
100
AcDbEntity
  8
0
100
AcDbSpline
 62
7
  6
CONTINUOUS
 70
0
 71
3
 72
58
 73
54
 74
0
 42
0.0000001
 43
0.0000001
 44
0.0000000001
 40
0.0
 40
0.0
 40
0.0
 40
0.0
 40
0.0001827672
 40
0.0003911542
 40
0.000643049
 40
0.0009487721
 40
0.0013140903
 40
0.0017423523
 40
0.002794916
 40
0.0041159914
 40
0.0057093416
 40
0.0075766505
 40
0.0097185931
 40
0.0121350836
 40
0.0148253383
 40
0.0177883299
 40
0.021022894
 40
0.0283004006
 40
0.0366427985
 40
0.0460326719
 40
0.0564491604
 40
0.0802680789
 40
0.1078870607
 40
0.139057862
 40
0.1734996686
 40
0.210901613
 40
0.2509260217
 40
0.2932113647
 40
0.3373756112
 40
0.3830199007
 40
0.4297318273
 40
0.4770896324
 40
0.5720302312
 40
0.6187560686
 40
0.6644214043
 40
0.7086144381
 40
0.7509365739
 40
0.7910064745
 40
0.8284631792
 40
0.862969585
 40
0.8942155775
 40
0.9219207714
 40
0.9458375531
 40
0.956307416
 40
0.9657536843
 40
0.974155488
 40
0.9814954319
 40
0.9877582771
 40
0.9929330942
 40
0.9951100858
 40
0.9970130673
 40
0.99864256
 40
1.0
 40
1.0
 40
1.0
 40
1.0
 10
9.3479651219
 20
18.4137937756
 30
0.0
 10
9.3479976341
 20
18.4138262789
 30
0.0
 10
9.3480825757
 20
18.4138813681
 30
0.0
 10
9.348242431
 20
18.4139176384
 30
0.0
 10
9.3484362393
 20
18.4139151761
 30
0.0
 10
9.3486656292
 20
18.4138755171
 30
0.0
 10
9.3489317345
 20
18.4137989729
 30
0.0
 10
9.3493668427
 20
18.4136357442
 30
0.0
 10
9.3500027103
 20
18.4133291113
 30
0.0
 10
9.3508709211
 20
18.4128366317
 30
0.0
 10
9.3518891448
 20
18.4121957307
 30
0.0
 10
9.3530569633
 20
18.4114066319
 30
0.0
 10
9.3543738699
 20
18.4104692667
 30
0.0
 10
9.3558391972
 20
18.4093840902
 30
0.0
 10
9.357452188
 20
18.4081517027
 30
0.0
 10
9.3592120101
 20
18.4067728514
 30
0.0
 10
9.3618587749
 20
18.4046554038
 30
0.0
 10
9.3655231758
 20
18.4016443612
 30
0.0
 10
9.3703346351
 20
18.3975913807
 30
0.0
 10
9.3757067863
 20
18.3929789625
 30
0.0
 10
9.3839792112
 20
18.3857689424
 30
0.0
 10
9.3956140073
 20
18.3754386685
 30
0.0
 10
9.4110430107
 20
18.3615200878
 30
0.0
 10
9.4283653513
 20
18.3457117445
 30
0.0
 10
9.4474306955
 20
18.3281632266
 30
0.0
 10
9.4680728651
 20
18.3090396603
 30
0.0
 10
9.4901116748
 20
18.2885207329
 30
0.0
 10
9.5133543976
 20
18.2667987667
 30
0.0
 10
9.5375975294
 20
18.2440769926
 30
0.0
 10
9.562628577
 20
18.2205676919
 30
0.0
 10
9.5882280182
 20
18.1964902104
 30
0.0
 10
9.6228463496
 20
18.1639029036
 30
0.0
 10
9.6574603065
 20
18.1313058445
 30
0.0
 10
9.6917840262
 20
18.0990215661
 30
0.0
 10
9.7168260919
 20
18.0755005759
 30
0.0
 10
9.7410842035
 20
18.0527629211
 30
0.0
 10
9.7643461524
 20
18.0310206096
 30
0.0
 10
9.7864087079
 20
18.010476599
 30
0.0
 10
9.8070794752
 20
17.9913228874
 30
0.0
 10
9.8261786128
 20
17.9737388254
 30
0.0
 10
9.8435402693
 20
17.9578892337
 30
0.0
 10
9.8590144491
 20
17.9439233742
 30
0.0
 10
9.8706904901
 20
17.9335496071
 30
0.0
 10
9.8789989068
 20
17.9263013969
 30
0.0
 10
9.8844006243
 20
17.9216580987
 30
0.0
 10
9.8892432618
 20
17.9175725392
 30
0.0
 10
9.8935164196
 20
17.9140542398
 30
0.0
 10
9.8972113593
 20
17.9111116643
 30
0.0
 10
9.8999383658
 20
17.9090391459
 30
0.0
 10
9.9018308176
 20
17.9076832021
 30
0.0
 10
9.9030177275
 20
17.9068743043
 30
0.0
 10
9.9040553575
 20
17.9062134652
 30
0.0
 10
9.9047062423
 20
17.9058372641
 30
0.0
 10
9.9050077651
 20
17.9056770441
 30
0.0
  0
LINE
  5
501
100
AcDbEntity
  8
0
100
AcDbLine
 62
7
  6
CONTINUOUS
 10
9.9050077651
 20
17.9056770441
 11
9.906312864
 21
17.9051179153
  0
LINE
  5
502
100
AcDbEntity
  8
0
100
AcDbLine
 62
7
  6
CONTINUOUS
 10
9.3854258899
 20
18.452924073
 11
9.3865604116
 21
18.4524538053
  0
SPLINE
  5
503
100
AcDbEntity
  8
0
100
AcDbSpline
 62
7
  6
CONTINUOUS
 70
0
 71
3
 72
59
 73
55
 74
0
 42
0.0000001
 43
0.0000001
 44
0.0000000001
 40
0.0
 40
0.0
 40
0.0
 40
0.0
 40
0.001300472
 40
0.0028739889
 40
0.0047223062
 40
0.0068461201
 40
0.0119193904
 40
0.0180874542
 40
0.0253395793
 40
0.0336606381
 40
0.0430332644
 40
0.0534365412
 40
0.0648477685
 40
0.0772410816
 40
0.1048611064
 40
0.1360476332
 40
0.170518678
 40
0.2079621253
 40
0.2480385956
 40
0.2903848941
 40
0.3346169856
 40
0.3803339279
 40
0.427121209
 40
0.5222045552
 40
0.5696389196
 40
0.6164282041
 40
0.6621485658
 40
0.7063861527
 40
0.7487406285
 40
0.7888288451
 40
0.8262885239
 40
0.8607812496
 40
0.891995976
 40
0.9196516409
 40
0.9435001678
 40
0.9539288818
 40
0.9633293074
 40
0.9716806349
 40
0.9789655144
 40
0.9822031611
 40
0.9851689486
 40
0.9878616364
 40
0.9902801189
 40
0.992423689
 40
0.9942923447
 40
0.9958866727
 40
0.9972082583
 40
0.9982609048
 40
0.9986890586
 40
0.9990541344
 40
0.999359446
 40
0.9996107211
 40
0.9998182573
 40
1.0
 40
1.0
 40
1.0
 40
1.0
 10
9.3865604116
 20
18.4524538053
 30
0.0
 10
9.3868529744
 20
18.4523038916
 30
0.0
 10
9.3874864043
 20
18.4519470594
 30
0.0
 10
9.3884982377
 20
18.451313294
 30
0.0
 10
9.389661019
 20
18.4505299074
 30
0.0
 10
9.3915250423
 20
18.4492054073
 30
0.0
 10
9.3942203799
 20
18.4471674017
 30
0.0
 10
9.3978820235
 20
18.4442608192
 30
0.0
 10
9.4021285933
 20
18.4407718811
 30
0.0
 10
9.4069513266
 20
18.4367090855
 30
0.0
 10
9.4123397051
 20
18.4320819205
 30
0.0
 10
9.4182823324
 20
18.4269015508
 30
0.0
 10
9.4247663642
 20
18.4211804835
 30
0.0
 10
9.4344713067
 20
18.4125321227
 30
0.0
 10
9.4478330356
 20
18.4004739665
 30
0.0
 10
9.4652472905
 20
18.3845770864
 30
0.0
 10
9.4844202301
 20
18.3669239729
 30
0.0
 10
9.5051843355
 20
18.3476816036
 30
0.0
 10
9.5273576337
 20
18.3270312824
 30
0.0
 10
9.5507455024
 20
18.3051672683
 30
0.0
 10
9.5751423948
 20
18.2822948132
 30
0.0
 10
9.600333664
 20
18.2586283586
 30
0.0
 10
9.6348703022
 20
18.2261359709
 30
0.0
 10
9.6697027687
 20
18.1933244738
 30
0.0
 10
9.7045421963
 20
18.1605196312
 30
0.0
 10
9.7303069024
 20
18.1362793487
 30
0.0
 10
9.7554997048
 20
18.1126104954
 30
0.0
 10
9.7798991009
 20
18.089734394
 30
0.0
 10
9.8032908265
 20
18.0678650967
 30
0.0
 10
9.8254697759
 20
18.0472074349
 30
0.0
 10
9.8462418057
 20
18.0279551464
 30
0.0
 10
9.8654255468
 20
18.0102891041
 30
0.0
 10
9.8828537964
 20
17.9943754573
 30
0.0
 10
9.8983754414
 20
17.9803645768
 30
0.0
 10
9.9100788377
 20
17.9699657955
 30
0.0
 10
9.9183990775
 20
17.9627078954
 30
0.0
 10
9.9238016795
 20
17.9580648927
 30
0.0
 10
9.9286399427
 20
17.9539849111
 30
0.0
 10
9.9323243829
 20
17.9509536003
 30
0.0
 10
9.9349853664
 20
17.9488217348
 30
0.0
 10
9.9367544796
 20
17.9474334119
 30
0.0
 10
9.9383758463
 20
17.946192449
 30
0.0
 10
9.9398486257
 20
17.9450996164
 30
0.0
 10
9.9411720724
 20
17.9441554945
 30
0.0
 10
9.9423455264
 20
17.9433605084
 30
0.0
 10
9.9433684725
 20
17.9427146056
 30
0.0
 10
9.9442404901
 20
17.9422180376
 30
0.0
 10
9.9448789745
 20
17.9419085436
 30
0.0
 10
9.9453157557
 20
17.9417434385
 30
0.0
 10
9.9455827683
 20
17.9416658089
 30
0.0
 10
9.9458128422
 20
17.9416252681
 30
0.0
 10
9.9460071166
 20
17.9416221231
 30
0.0
 10
9.9461672723
 20
17.9416579054
 30
0.0
 10
9.9462523303
 20
17.9417129065
 30
0.0
 10
9.9462848116
 20
17.941745396
 30
0.0
  0
SPLINE
  5
504
100
AcDbEntity
  8
0
100
AcDbSpline
 62
7
  6
CONTINUOUS
 70
0
 71
3
 72
26
 73
22
 74
0
 42
0.0000001
 43
0.0000001
 44
0.0000000001
 40
0.0
 40
0.0
 40
0.0
 40
0.0
 40
0.194450579
 40
0.3815504986
 40
0.554029939
 40
0.6326447979
 40
0.7051346234
 40
0.7707922535
 40
0.8289812471
 40
0.879151307
 40
0.9208393418
 40
0.9383882451
 40
0.9536942548
 40
0.9667386249
 40
0.9775129942
 40
0.9860378997
 40
0.9923898266
 40
0.994814519
 40
0.9968066876
 40
0.9984752047
 40
1.0
 40
1.0
 40
1.0
 40
1.0
 10
6.3506888286
 20
17.2690064091
 30
0.0
 10
6.348192134
 20
17.2718777471
 30
0.0
 10
6.3432590376
 20
17.2774823629
 30
0.0
 10
6.335994298
 20
17.2855298534
 30
0.0
 10
6.3301596905
 20
17.2918137773
 30
0.0
 10
6.3257891048
 20
17.2963954674
 30
0.0
 10
6.3228300886
 20
17.2994345733
 30
0.0
 10
6.3201166082
 20
17.3021545196
 30
0.0
 10
6.3176755666
 20
17.304528891
 30
0.0
 10
6.3155311062
 20
17.3065346761
 30
0.0
 10
6.3139290852
 20
17.3079555741
 30
0.0
 10
6.3128071279
 20
17.3088879024
 30
0.0
 10
6.3121010603
 20
17.3094432812
 30
0.0
 10
6.31148276
 20
17.3098950086
 30
0.0
 10
6.3109533933
 20
17.3102429193
 30
0.0
 10
6.3105141961
 20
17.3104863515
 30
0.0
 10
6.3101987369
 20
17.3106153864
 30
0.0
 10
6.3099912251
 20
17.3106562294
 30
0.0
 10
6.3098711729
 20
17.3106573022
 30
0.0
 10
6.30977153
 20
17.3106300178
 30
0.0
 10
6.3097205282
 20
17.3105905818
 30
0.0
 10
6.309701068
 20
17.3105679642
 30
0.0
  0
SPLINE
  5
505
100
AcDbEntity
  8
0
100
AcDbSpline
 62
7
  6
CONTINUOUS
 70
0
 71
3
 72
28
 73
24
 74
0
 42
0.0000001
 43
0.0000001
 44
0.0000000001
 40
0.0
 40
0.0
 40
0.0
 40
0.0
 40
0.1942077775
 40
0.3810100335
 40
0.4693490854
 40
0.5531439462
 40
0.6315761115
 40
0.70388638
 40
0.7693772834
 40
0.8274240649
 40
0.8774913727
 40
0.899389863
 40
0.9191377261
 40
0.9366953748
 40
0.952036784
 40
0.9651502759
 40
0.976038442
 40
0.9847399684
 40
0.9913636592
 40
0.9939780867
 40
0.9962066131
 40
0.9981601329
 40
1.0
 40
1.0
 40
1.0
 40
1.0
 10
6.6006040097
 20
17.0201762231
 30
0.0
 10
6.5980663493
 20
17.0230107357
 30
0.0
 10
6.5930469368
 20
17.0285352418
 30
0.0
 10
6.5867610669
 20
17.0352459751
 30
0.0
 10
6.5818869964
 20
17.0403141688
 30
0.0
 10
6.5784508731
 20
17.0438195482
 30
0.0
 10
6.5751995879
 20
17.0470660689
 30
0.0
 10
6.5721652206
 20
17.0500219295
 30
0.0
 10
6.5693777317
 20
17.0526584018
 30
0.0
 10
6.5668644827
 20
17.0549499088
 30
0.0
 10
6.5649424345
 20
17.0566216007
 30
0.0
 10
6.5635568213
 20
17.0577654468
 30
0.0
 10
6.5626475659
 20
17.0584855934
 30
0.0
 10
6.5618231731
 20
17.0591055195
 30
0.0
 10
6.5610855603
 20
17.0596239888
 30
0.0
 10
6.5604365554
 20
17.0600401305
 30
0.0
 10
6.5598771632
 20
17.0603538724
 30
0.0
 10
6.5594085345
 20
17.0605649319
 30
0.0
 10
6.5590686273
 20
17.0606648501
 30
0.0
 10
6.5588437611
 20
17.0606822832
 30
0.0
 10
6.558710366
 20
17.0606673853
 30
0.0
 10
6.558598805
 20
17.0606242542
 30
0.0
 10
6.5585405299
 20
17.0605755934
 30
0.0
 10
6.5585170222
 20
17.0605482719
 30
0.0
  0
ENDSEC
  0
SECTION
  2
OBJECTS
  0
DICTIONARY
  5
C
100
AcDbDictionary
280
0
281
1
  3
ACAD_GROUP
350
D
  3
ACAD_MLINESTYLE
350
17
  3
ACAD_LAYOUT
350
1A
  3
ACAD_PLOTSETTINGS
350
19
  3
ACAD_PLOTSTYLENAME
350
E
  0
DICTIONARY
  5
D
102
{ACAD_REACTORS
330
C
102
}
100
AcDbDictionary
280
0
281
1
  0
ACDBDICTIONARYWDFLT
  5
E
102
{ACAD_REACTORS
330
C
102
}
100
AcDbDictionary
281
1
  3
Normal
350
F
100
AcDbDictionaryWithDefault
340
F
  0
DICTIONARY
  5
17
102
{ACAD_REACTORS
330
C
102
}
100
AcDbDictionary
280
0
281
1
  3
Standard
350
18
  0
DICTIONARY
  5
19
102
{ACAD_REACTORS
330
C
102
}
100
AcDbDictionary
281
1
  0
DICTIONARY
  5
1A
102
{ACAD_REACTORS
330
C
102
}
100
AcDbDictionary
281
1
  3
Model
350
506
  3
Layout1
350
507
  0
ACDBPLACEHOLDER
  5
F
102
{ACAD_REACTORS
330
E
102
}
  0
MLINESTYLE
  5
18
102
{ACAD_REACTORS
330
17
102
}
100
AcDbMlineStyle
  2
STANDARD
 70
0
  3

 62
256
 51
90.0
 52
90.0
 71
2
 49
0.5
 62
256
  6
BYLAYER
 49
-0.5
 62
256
  6
BYLAYER
  0
LAYOUT
  5
506
102
{ACAD_REACTORS
330
1A
102
}
100
AcDbPlotSettings
  1

  2
none_device
  4
ANSI_C_(22.00_x_17.00_Inches)
  6

 40
0.0
 41
0.0
 42
0.0
 43
0.0
 44
558.8
 45
431.8
 46
0.0
 47
0.0
 48
0.0
 49
0.0
140
0.0
141
0.0
142
1.0
143
1.0
 70
1024
 72
0
 73
0
 74
0
  7

 75
0
147
1.0
148
0.0
149
0.0
100
AcDbLayout
  1
Model
 70
0
 71
0
 10
0.0
 20
0.0
 11
22.0
 21
17.0
 12
0.0
 22
0.0
 32
0.0
 14
0.0
 24
0.0
 34
0.0
 15
0.0
 25
0.0
 35
0.0
146
0.0
 13
0.0
 23
0.0
 33
0.0
 16
1.0
 26
0.0
 36
0.0
 17
0.0
 27
1.0
 37
0.0
 76
0
330
205
345
0
346
0
  0
LAYOUT
  5
507
102
{ACAD_REACTORS
330
1A
102
}
100
AcDbPlotSettings
  1

  2
none_device
  4
ANSI_C_(22.00_x_17.00_Inches)
  6

 40
0.0
 41
0.0
 42
0.0
 43
0.0
 44
558.8
 45
431.8
 46
0.0
 47
0.0
 48
0.0
 49
0.0
140
0.0
141
0.0
142
1.0
143
1.0
 70
0
 72
0
 73
0
 74
0
  7

 75
0
147
1.0
148
0.0
149
0.0
100
AcDbLayout
  1
Layout1
 70
0
 71
1
 10
0.0
 20
0.0
 11
22.0
 21
17.0
 12
0.0
 22
0.0
 32
0.0
 14
0.0
 24
0.0
 34
0.0
 15
0.0
 25
0.0
 35
0.0
146
0.0
 13
0.0
 23
0.0
 33
0.0
 16
1.0
 26
0.0
 36
0.0
 17
0.0
 27
1.0
 37
0.0
 76
0
330
206
345
0
346
0
  0
ENDSEC
  0
EOF
