999
DXF file: E:\BT Custom\CADOUTPUT\_TOP.dxf
999
Pro/ENGINEER 2018400 by Parametric Technology Corporation
  0
SECTION
  2
HEADER
  9
$ACADVER
  1
AC1018
  9
$DWGCODEPAGE
  3
ANSI_1252
  9
$EXTMAX
 10
22.0
 20
17.0
 30
0.0
  9
$EXTMIN
 10
0.0
 20
0.0
 30
0.0
  9
$LIMMIN
 10
0.0
 20
0.0
  9
$LIMMAX
 10
22.0
 20
17.0
  9
$VIEWCTR
 10
11.0
 20
8.5
  9
$VIEWSIZE
 40
17.0
  9
$CLAYER
  8
0
  9
$LTSCALE
 40
1.21
  9
$CELTYPE
  6
BYLAYER
  9
$DIMSCALE
 40
1.0
  9
$DIMASZ
 40
0.1
  9
$DIMEXO
 40
0.0625
  9
$DIMDLI
 40
0.836
  9
$DIMEXE
 40
0.125
  9
$DIMCEN
 40
0.198
  9
$DIMLFAC
 40
1.0
  9
$DIMBLK
  1
_FILLED
  9
$DIMALT
 70
1
  9
$DIMALTD
 70
2
  9
$DIMALTTD
 70
2
  9
$DIMALTF
 40
25.4
  9
$DIMTXT
 40
0.08
  9
$DIMTOL
 70
1
  9
$DIMLIM
 70
0
  9
$DIMTFAC
 40
1.0
  9
$DIMTP
 40
0.001
  9
$DIMTM
 40
0.001
  9
$DIMGAP
 40
0.09
  9
$DIMDSEP
 70
46
  9
$AUNITS
 70
0
  9
$PDMODE
 70
3
  9
$PDSIZE
 40
0.06
  9
$HANDSEED
  5
379
  9
$TILEMODE
 70
1
  9
$MEASUREMENT
 70
0
  9
$INSUNITS
 70
1
  0
ENDSEC
  0
SECTION
  2
CLASSES
  0
CLASS
  1
ACDBDICTIONARYWDFLT
  2
AcDbDictionaryWithDefault
  3
AutoCAD 2000
 90
0
 91
1
280
0
281
0
  0
CLASS
  1
ACDBPLACEHOLDER
  2
AcDbPlaceHolder
  3
AutoCAD 2000
 90
0
 91
1
280
0
281
0
  0
CLASS
  1
LAYOUT
  2
AcDbLayout
  3
AutoCAD 2000
 90
0
 91
0
280
0
281
0
  0
ENDSEC
  0
SECTION
  2
TABLES
  0
TABLE
  2
VPORT
  5
8
100
AcDbSymbolTable
 70
2
  0
VPORT
  5
1F4
100
AcDbSymbolTableRecord
100
AcDbViewportTableRecord
  2
*ACTIVE
 70
0
 10
0.0
 20
0.0
 11
1.0
 21
1.0
 12
11.0
 22
8.5
 13
0.0
 23
0.0
 14
1.0
 24
1.0
 15
0.0
 25
0.0
 16
0.0
 26
0.0
 36
1.0
 17
0.0
 27
0.0
 37
0.0
 40
17.0
 41
1.2941176471
 42
50.0
 43
0.0
 44
0.0
 50
0.0
 51
0.0
 71
0
 72
100
 73
1
 74
1
 75
0
 76
0
 77
0
 78
0
  0
ENDTAB
  0
TABLE
  2
LTYPE
  5
5
100
AcDbSymbolTable
 70
6
  0
LTYPE
  5
14
100
AcDbSymbolTableRecord
100
AcDbLinetypeTableRecord
  2
BYBLOCK
 70
0
  3

 72
65
 73
0
 40
0.0
  0
LTYPE
  5
15
100
AcDbSymbolTableRecord
100
AcDbLinetypeTableRecord
  2
BYLAYER
 70
0
  3

 72
65
 73
0
 40
0.0
  0
LTYPE
  5
16
100
AcDbSymbolTableRecord
100
AcDbLinetypeTableRecord
  2
CONTINUOUS
 70
64
  3
Solid line
 72
65
 73
0
 40
0.0
  0
LTYPE
  5
1F5
100
AcDbSymbolTableRecord
100
AcDbLinetypeTableRecord
  2
CENTER
 70
64
  3
____ _ ____ _ ____ _ ____ _ ____ _ ____ _ ____
 72
65
 73
4
 40
0.6
 49
0.375
 74
0
 49
-0.075
 74
0
 49
0.075
 74
0
 49
-0.075
 74
0
  0
LTYPE
  5
1F6
100
AcDbSymbolTableRecord
100
AcDbLinetypeTableRecord
  2
HIDDEN
 70
64
  3
- - - - - - - - - - - - - - - - - - - -
 72
65
 73
2
 40
0.2
 49
0.1
 74
0
 49
-0.1
 74
0
  0
LTYPE
  5
1F7
100
AcDbSymbolTableRecord
100
AcDbLinetypeTableRecord
  2
PHANTOM
 70
64
  3
_____ _ _ _____ _ _ _____ _ _ _____
 72
65
 73
6
 40
0.8
 49
0.45
 74
0
 49
-0.05
 74
0
 49
0.1
 74
0
 49
-0.05
 74
0
 49
0.1
 74
0
 49
-0.05
 74
0
  0
LTYPE
  5
1F8
100
AcDbSymbolTableRecord
100
AcDbLinetypeTableRecord
  2
DOT
 70
64
  3
. . . . . . . . . . . . . . . . . . . .
 72
65
 73
2
 40
0.2
 49
0.1
 74
0
 49
-0.1
 74
0
  0
LTYPE
  5
1F9
100
AcDbSymbolTableRecord
100
AcDbLinetypeTableRecord
  2
DASHED
 70
64
  3
- - - - - - - - - - - - - - - - - - - -
 72
65
 73
2
 40
0.2
 49
0.1
 74
0
 49
-0.1
 74
0
  0
ENDTAB
  0
TABLE
  2
LAYER
  5
2
100
AcDbSymbolTable
 70
36
  0
LAYER
  5
10
100
AcDbSymbolTableRecord
100
AcDbLayerTableRecord
  2
0
 70
0
 62
7
  6
CONTINUOUS
370
-3
390
F
  0
LAYER
  5
1FA
100
AcDbSymbolTableRecord
100
AcDbLayerTableRecord
  2
DEFAULT_1
 70
0
 62
7
  6
CENTER
370
-3
390
F
  0
LAYER
  5
1FB
100
AcDbSymbolTableRecord
100
AcDbLayerTableRecord
  2
DEFAULT_2
 70
0
 62
8
  6
HIDDEN
370
-3
390
F
  0
LAYER
  5
1FC
100
AcDbSymbolTableRecord
100
AcDbLayerTableRecord
  2
DEFAULT_3
 70
0
 62
7
  6
PHANTOM
370
-3
390
F
  0
LAYER
  5
1FD
100
AcDbSymbolTableRecord
100
AcDbLayerTableRecord
  2
ALL_FEATURES
 70
0
 62
7
  6
CONTINUOUS
370
-3
390
F
  0
LAYER
  5
1FE
100
AcDbSymbolTableRecord
100
AcDbLayerTableRecord
  2
AXES_FEATURES
 70
0
 62
7
  6
CONTINUOUS
370
-3
390
F
  0
LAYER
  5
1FF
100
AcDbSymbolTableRecord
100
AcDbLayerTableRecord
  2
DEFAULT_COORDINATE_SYSTEM
 70
0
 62
7
  6
CONTINUOUS
370
-3
390
F
  0
LAYER
  5
200
100
AcDbSymbolTableRecord
100
AcDbLayerTableRecord
  2
DEFAULT_DATUM_AXES
 70
0
 62
7
  6
CONTINUOUS
370
-3
390
F
  0
LAYER
  5
201
100
AcDbSymbolTableRecord
100
AcDbLayerTableRecord
  2
DEFAULT_DATUM_PLANES
 70
0
 62
7
  6
CONTINUOUS
370
-3
390
F
  0
LAYER
  5
202
100
AcDbSymbolTableRecord
100
AcDbLayerTableRecord
  2
DIMENSIONS
 70
0
 62
7
  6
CONTINUOUS
370
-3
390
F
  0
ENDTAB
  0
TABLE
  2
STYLE
  5
3
100
AcDbSymbolTable
 70
1
  0
STYLE
  5
11
100
AcDbSymbolTableRecord
100
AcDbTextStyleTableRecord
  2
STANDARD
 70
0
 40
0.0
 41
0.8
 50
0.0
 71
0
 42
0.2
  3
txt
  4

  0
STYLE
  5
203
100
AcDbSymbolTableRecord
100
AcDbTextStyleTableRecord
  2
TEXTSTYLE_1
 70
0
 40
0.0
 41
0.8
 50
0.0
 71
0
 42
0.2
  3
gdt
  4

  0
ENDTAB
  0
TABLE
  2
VIEW
  5
6
100
AcDbSymbolTable
 70
0
  0
ENDTAB
  0
TABLE
  2
UCS
  5
7
100
AcDbSymbolTable
 70
0
  0
ENDTAB
  0
TABLE
  2
APPID
  5
9
100
AcDbSymbolTable
 70
1
  0
APPID
  5
204
100
AcDbSymbolTableRecord
100
AcDbRegAppTableRecord
  2
ACAD
 70
0
  0
ENDTAB
  0
TABLE
  2
BLOCK_RECORD
  5
1
100
AcDbSymbolTable
 70
0
  0
BLOCK_RECORD
  5
205
100
AcDbSymbolTableRecord
100
AcDbBlockTableRecord
  2
*Model_Space
  0
BLOCK_RECORD
  5
206
100
AcDbSymbolTableRecord
100
AcDbBlockTableRecord
  2
*Paper_Space
  0
BLOCK_RECORD
  5
207
100
AcDbSymbolTableRecord
100
AcDbBlockTableRecord
  2
_FILLED
  0
ENDTAB
  0
TABLE
  2
DIMSTYLE
  5
A
100
AcDbSymbolTable
 70
1
100
AcDbDimStyleTable
 71
0
  0
DIMSTYLE
105
208
100
AcDbSymbolTableRecord
100
AcDbDimStyleTableRecord
  2
STANDARD
 70
0
  3

  4

 40
1.0
 41
0.1
 42
0.0625
 43
0.38
 44
0.125
 45
0.0
 46
0.0
 47
0.001
 48
0.001
140
0.08
141
0.09
142
0.0
143
25.4
144
1.0
145
0.0
146
1.0
147
0.09
 71
1.0
 72
0.0
 73
1
 74
1
 75
0
 76
0
 77
0
 78
4
 79
1
170
1
171
2
172
0
173
0
174
0
175
0
176
0
177
0
178
0
270
2
179
3
271
3
272
3
273
2
274
2
275
0
280
0
281
0
282
0
283
1
284
4
285
0
286
0
287
3
288
0
340
11
278
46
341
207
342
207
343
207
344
207
  0
ENDTAB
  0
ENDSEC
  0
SECTION
  2
BLOCKS
  0
BLOCK
  5
20
100
AcDbEntity
  8
0
100
AcDbBlockBegin
  2
*Model_Space
 70
0
 10
0.0
 20
0.0
 30
0.0
  3
*Model_Space
  1

  0
ENDBLK
  5
21
100
AcDbEntity
  8
0
100
AcDbBlockEnd
  0
BLOCK
  5
1C
100
AcDbEntity
  8
0
100
AcDbBlockBegin
  2
*Paper_Space
 70
0
 10
0.0
 20
0.0
 30
0.0
  3
*Paper_Space
  1

  0
ENDBLK
  5
1D
100
AcDbEntity
  8
0
100
AcDbBlockEnd
  0
BLOCK
  5
209
100
AcDbEntity
  8
0
100
AcDbBlockBegin
  2
_FILLED
 70
64
 10
0.0
 20
0.0
  3
_FILLED
  1

  0
SOLID
  5
20A
100
AcDbEntity
  8
0
  6
BYBLOCK
 62
0
100
AcDbTrace
 10
0.0
 20
0.0
 11
-1.0
 21
0.2
 12
-1.0
 22
-0.2
 13
-1.0
 23
-0.2
  0
ENDBLK
  5
20B
100
AcDbEntity
  8
0
  6
BYBLOCK
 62
0
100
AcDbBlockEnd
  0
ENDSEC
  0
SECTION
  2
ENTITIES
  0
LINE
  5
20C
100
AcDbEntity
  8
0
100
AcDbLine
 62
7
  6
CONTINUOUS
 10
0.7698183383
 20
11.1548318604
 11
0.7698183383
 21
10.6148318604
  0
LINE
  5
20D
100
AcDbEntity
  8
0
100
AcDbLine
 62
9
  6
CONTINUOUS
 10
0.7998183383
 20
10.5848318604
 11
0.7998183383
 21
11.1848318604
  0
LINE
  5
20E
100
AcDbEntity
  8
0
100
AcDbLine
 62
7
  6
CONTINUOUS
 10
1.2898183383
 20
11.8698318604
 11
1.2898183383
 21
11.1848318604
  0
LINE
  5
20F
100
AcDbEntity
  8
0
100
AcDbLine
 62
7
  6
CONTINUOUS
 10
1.2898183383
 20
10.5848318604
 11
1.2898183383
 21
9.8998318604
  0
LINE
  5
210
100
AcDbEntity
  8
0
100
AcDbLine
 62
9
  6
CONTINUOUS
 10
1.3198183383
 20
10.5848318604
 11
1.3198183383
 21
9.8698318604
  0
LINE
  5
211
100
AcDbEntity
  8
0
100
AcDbLine
 62
9
  6
CONTINUOUS
 10
1.3198183383
 20
11.1848318604
 11
1.3198183378
 21
11.8998318604
  0
LINE
  5
212
100
AcDbEntity
  8
0
100
AcDbLine
 62
7
  6
CONTINUOUS
 10
1.6698183383
 20
11.4348318604
 11
1.6698183383
 21
11.1848318604
  0
LINE
  5
213
100
AcDbEntity
  8
0
100
AcDbLine
 62
7
  6
CONTINUOUS
 10
1.6698183383
 20
10.5848318604
 11
1.6698183383
 21
10.3348318604
  0
LINE
  5
214
100
AcDbEntity
  8
0
100
AcDbLine
 62
9
  6
CONTINUOUS
 10
1.6998183383
 20
11.4648318604
 11
1.6998183383
 21
11.1848318604
  0
LINE
  5
215
100
AcDbEntity
  8
0
100
AcDbLine
 62
9
  6
CONTINUOUS
 10
1.6998183383
 20
10.5848318604
 11
1.6998183383
 21
10.3048318604
  0
LINE
  5
216
100
AcDbEntity
  8
0
100
AcDbLine
 62
9
  6
CONTINUOUS
 10
1.7898183383
 20
10.6148318604
 11
1.7898183382
 21
10.5848318604
  0
LINE
  5
217
100
AcDbEntity
  8
0
100
AcDbLine
 62
9
  6
CONTINUOUS
 10
1.7898183383
 20
11.1548318604
 11
1.7898183383
 21
11.1848318604
  0
LINE
  5
218
100
AcDbEntity
  8
0
100
AcDbLine
 62
7
  6
CONTINUOUS
 10
2.0398183383
 20
12.4248318604
 11
2.0398183383
 21
11.4348318604
  0
LINE
  5
219
100
AcDbEntity
  8
0
100
AcDbLine
 62
7
  6
CONTINUOUS
 10
2.0398183383
 20
10.3348318604
 11
2.0398183383
 21
9.3448318604
  0
LINE
  5
21A
100
AcDbEntity
  8
0
100
AcDbLine
 62
9
  6
CONTINUOUS
 10
2.0698183383
 20
9.3148318604
 11
2.0698183383
 21
10.3348318604
  0
LINE
  5
21B
100
AcDbEntity
  8
0
100
AcDbLine
 62
9
  6
CONTINUOUS
 10
2.0698183383
 20
11.4348318604
 11
2.0698183383
 21
12.4548318604
  0
LINE
  5
21C
100
AcDbEntity
  8
0
100
AcDbLine
 62
9
  6
CONTINUOUS
 10
2.6098183383
 20
9.3148318604
 11
2.6098183383
 21
10.3348318604
  0
LINE
  5
21D
100
AcDbEntity
  8
0
100
AcDbLine
 62
9
  6
CONTINUOUS
 10
2.6098183383
 20
11.4348318604
 11
2.6098183383
 21
12.4548318604
  0
LINE
  5
21E
100
AcDbEntity
  8
0
100
AcDbLine
 62
7
  6
CONTINUOUS
 10
2.6398183383
 20
9.3448318604
 11
2.6398183383
 21
10.3348318604
  0
LINE
  5
21F
100
AcDbEntity
  8
0
100
AcDbLine
 62
7
  6
CONTINUOUS
 10
2.6398183383
 20
11.4348318604
 11
2.6398183383
 21
12.4248318604
  0
LINE
  5
220
100
AcDbEntity
  8
0
100
AcDbLine
 62
9
  6
CONTINUOUS
 10
2.8898183383
 20
10.6148318604
 11
2.8898183383
 21
10.5848318604
  0
LINE
  5
221
100
AcDbEntity
  8
0
100
AcDbLine
 62
9
  6
CONTINUOUS
 10
2.8898183383
 20
11.1548318604
 11
2.8898183384
 21
11.1848318604
  0
LINE
  5
222
100
AcDbEntity
  8
0
100
AcDbLine
 62
9
  6
CONTINUOUS
 10
2.9798183383
 20
10.3048318604
 11
2.9798183383
 21
10.5848318604
  0
LINE
  5
223
100
AcDbEntity
  8
0
100
AcDbLine
 62
9
  6
CONTINUOUS
 10
2.9798183383
 20
11.1848318604
 11
2.9798183383
 21
11.4648318604
  0
LINE
  5
224
100
AcDbEntity
  8
0
100
AcDbLine
 62
7
  6
CONTINUOUS
 10
3.0098183383
 20
10.3348318604
 11
3.0098183383
 21
10.5848318604
  0
LINE
  5
225
100
AcDbEntity
  8
0
100
AcDbLine
 62
7
  6
CONTINUOUS
 10
3.0098183383
 20
11.1848318604
 11
3.0098183383
 21
11.4348318604
  0
LINE
  5
226
100
AcDbEntity
  8
0
100
AcDbLine
 62
9
  6
CONTINUOUS
 10
3.3598183388
 20
9.8698318604
 11
3.3598183383
 21
10.5848318604
  0
LINE
  5
227
100
AcDbEntity
  8
0
100
AcDbLine
 62
9
  6
CONTINUOUS
 10
3.3598183383
 20
11.1848318604
 11
3.3598183383
 21
11.8998318604
  0
LINE
  5
228
100
AcDbEntity
  8
0
100
AcDbLine
 62
7
  6
CONTINUOUS
 10
3.3898183383
 20
9.8998318604
 11
3.3898183383
 21
10.5848318604
  0
LINE
  5
229
100
AcDbEntity
  8
0
100
AcDbLine
 62
7
  6
CONTINUOUS
 10
3.3898183383
 20
11.1848318604
 11
3.3898183383
 21
11.8698318604
  0
LINE
  5
22A
100
AcDbEntity
  8
0
100
AcDbLine
 62
9
  6
CONTINUOUS
 10
3.8798183383
 20
10.5848318604
 11
3.8798183383
 21
11.1848318604
  0
LINE
  5
22B
100
AcDbEntity
  8
0
100
AcDbLine
 62
7
  6
CONTINUOUS
 10
3.9098183383
 20
10.6148318604
 11
3.9098183383
 21
11.1548318604
  0
LINE
  5
22C
100
AcDbEntity
  8
0
100
AcDbLine
 62
7
  6
CONTINUOUS
 10
4.9898183383
 20
11.9698318604
 11
4.9898183383
 21
9.7998318604
  0
LINE
  5
22D
100
AcDbEntity
  8
0
100
AcDbLine
 62
9
  6
CONTINUOUS
 10
5.0198183383
 20
9.7698318604
 11
5.0198183378
 21
11.9998318604
  0
LINE
  5
22E
100
AcDbEntity
  8
0
100
AcDbLine
 62
7
  6
CONTINUOUS
 10
5.3698183383
 20
11.5748318604
 11
5.3698183383
 21
10.1948318604
  0
LINE
  5
22F
100
AcDbEntity
  8
0
100
AcDbLine
 62
9
  6
CONTINUOUS
 10
5.3998183383
 20
10.1648318604
 11
5.3998183377
 21
11.6048318604
  0
LINE
  5
230
100
AcDbEntity
  8
0
100
AcDbLine
 62
7
  6
CONTINUOUS
 10
5.5898183383
 20
11.2598318604
 11
5.5898183383
 21
2.5098318604
  0
LINE
  5
231
100
AcDbEntity
  8
0
100
AcDbLine
 62
7
  6
CONTINUOUS
 10
7.0898183383
 20
2.5098318604
 11
5.5898183383
 21
2.5098318604
  0
LINE
  5
232
100
AcDbEntity
  8
0
100
AcDbLine
 62
7
  6
CONTINUOUS
 10
7.0898183383
 20
11.2598318604
 11
7.0898183383
 21
2.5098318604
  0
LINE
  5
233
100
AcDbEntity
  8
0
100
AcDbLine
 62
9
  6
CONTINUOUS
 10
7.2798183388
 20
10.1648318604
 11
7.2798183383
 21
11.6048318604
  0
LINE
  5
234
100
AcDbEntity
  8
0
100
AcDbLine
 62
7
  6
CONTINUOUS
 10
7.3098183383
 20
10.1948318604
 11
7.3098183383
 21
11.5748318604
  0
LINE
  5
235
100
AcDbEntity
  8
0
100
AcDbLine
 62
9
  6
CONTINUOUS
 10
7.6598183383
 20
11.9998318604
 11
7.6598183388
 21
9.7698318604
  0
LINE
  5
236
100
AcDbEntity
  8
0
100
AcDbLine
 62
7
  6
CONTINUOUS
 10
7.6898183383
 20
9.7998318604
 11
7.6898183383
 21
11.9698318604
  0
LINE
  5
237
100
AcDbEntity
  8
0
100
AcDbLine
 62
7
  6
CONTINUOUS
 10
19.9048183383
 20
4.4368419223
 11
20.7748183383
 21
4.4368419223
  0
LINE
  5
238
100
AcDbEntity
  8
0
100
AcDbLine
 62
9
  6
CONTINUOUS
 10
19.9048183383
 20
4.4404140462
 11
20.7748183383
 21
4.4404140462
  0
LINE
  5
239
100
AcDbEntity
  8
0
100
AcDbLine
 62
7
  6
CONTINUOUS
 10
19.9563183383
 20
4.4583746684
 11
20.7233183383
 21
4.4583746684
  0
LINE
  5
23A
100
AcDbEntity
  8
0
100
AcDbLine
 62
9
  6
CONTINUOUS
 10
19.9563183383
 20
4.4619467923
 11
20.7233183383
 21
4.4619467923
  0
LINE
  5
23B
100
AcDbEntity
  8
0
100
AcDbLine
 62
7
  6
CONTINUOUS
 10
8.7698183383
 20
11.1548318604
 11
8.7698183383
 21
10.6148318604
  0
LINE
  5
23C
100
AcDbEntity
  8
0
100
AcDbLine
 62
9
  6
CONTINUOUS
 10
8.7998183383
 20
10.5848318604
 11
8.7998183383
 21
11.1848318604
  0
LINE
  5
23D
100
AcDbEntity
  8
0
100
AcDbLine
 62
9
  6
CONTINUOUS
 10
20.7233183383
 20
5.1567491022
 11
19.9563183383
 21
5.1567491022
  0
LINE
  5
23E
100
AcDbEntity
  8
0
100
AcDbLine
 62
7
  6
CONTINUOUS
 10
19.9563183383
 20
5.1708374228
 11
20.7233183383
 21
5.1708374228
  0
LINE
  5
23F
100
AcDbEntity
  8
0
100
AcDbLine
 62
9
  6
CONTINUOUS
 10
20.7748183383
 20
5.1911376005
 11
19.9048183383
 21
5.1911376005
  0
LINE
  5
240
100
AcDbEntity
  8
0
100
AcDbLine
 62
9
  6
CONTINUOUS
 10
20.7748183383
 20
5.205225921
 11
19.9048183383
 21
5.205225921
  0
LINE
  5
241
100
AcDbEntity
  8
0
100
AcDbLine
 62
7
  6
CONTINUOUS
 10
9.2898183383
 20
11.8698318604
 11
9.2898183383
 21
11.1848318604
  0
LINE
  5
242
100
AcDbEntity
  8
0
100
AcDbLine
 62
7
  6
CONTINUOUS
 10
9.2898183383
 20
10.5848318604
 11
9.2898183383
 21
9.8998318604
  0
LINE
  5
243
100
AcDbEntity
  8
0
100
AcDbLine
 62
9
  6
CONTINUOUS
 10
9.3198183383
 20
10.5848318604
 11
9.3198183383
 21
9.8698318604
  0
LINE
  5
244
100
AcDbEntity
  8
0
100
AcDbLine
 62
9
  6
CONTINUOUS
 10
9.3198183383
 20
11.1848318604
 11
9.3198183378
 21
11.8998318604
  0
LINE
  5
245
100
AcDbEntity
  8
0
100
AcDbLine
 62
7
  6
CONTINUOUS
 10
9.6698183383
 20
11.4348318604
 11
9.6698183383
 21
11.1848318604
  0
LINE
  5
246
100
AcDbEntity
  8
0
100
AcDbLine
 62
7
  6
CONTINUOUS
 10
9.6698183383
 20
10.5848318604
 11
9.6698183383
 21
10.3348318604
  0
LINE
  5
247
100
AcDbEntity
  8
0
100
AcDbLine
 62
9
  6
CONTINUOUS
 10
9.6998183383
 20
11.4648318604
 11
9.6998183383
 21
11.1848318604
  0
LINE
  5
248
100
AcDbEntity
  8
0
100
AcDbLine
 62
9
  6
CONTINUOUS
 10
9.6998183383
 20
10.5848318604
 11
9.6998183383
 21
10.3048318604
  0
LINE
  5
249
100
AcDbEntity
  8
0
100
AcDbLine
 62
9
  6
CONTINUOUS
 10
9.7898183383
 20
10.6148318604
 11
9.7898183382
 21
10.5848318604
  0
LINE
  5
24A
100
AcDbEntity
  8
0
100
AcDbLine
 62
9
  6
CONTINUOUS
 10
9.7898183383
 20
11.1548318604
 11
9.7898183383
 21
11.1848318604
  0
LINE
  5
24B
100
AcDbEntity
  8
0
100
AcDbLine
 62
7
  6
CONTINUOUS
 10
10.0398183383
 20
12.4248318604
 11
10.0398183383
 21
11.4348318604
  0
LINE
  5
24C
100
AcDbEntity
  8
0
100
AcDbLine
 62
7
  6
CONTINUOUS
 10
10.0398183383
 20
10.3348318604
 11
10.0398183383
 21
9.3448318604
  0
LINE
  5
24D
100
AcDbEntity
  8
0
100
AcDbLine
 62
9
  6
CONTINUOUS
 10
10.0698183383
 20
9.3148318604
 11
10.0698183383
 21
10.3348318604
  0
LINE
  5
24E
100
AcDbEntity
  8
0
100
AcDbLine
 62
9
  6
CONTINUOUS
 10
10.0698183383
 20
11.4348318604
 11
10.0698183383
 21
12.4548318604
  0
LINE
  5
24F
100
AcDbEntity
  8
0
100
AcDbLine
 62
9
  6
CONTINUOUS
 10
10.6098183383
 20
9.3148318604
 11
10.6098183383
 21
10.3348318604
  0
LINE
  5
250
100
AcDbEntity
  8
0
100
AcDbLine
 62
9
  6
CONTINUOUS
 10
10.6098183383
 20
11.4348318604
 11
10.6098183383
 21
12.4548318604
  0
LINE
  5
251
100
AcDbEntity
  8
0
100
AcDbLine
 62
7
  6
CONTINUOUS
 10
10.6398183383
 20
9.3448318604
 11
10.6398183383
 21
10.3348318604
  0
LINE
  5
252
100
AcDbEntity
  8
0
100
AcDbLine
 62
7
  6
CONTINUOUS
 10
10.6398183383
 20
11.4348318604
 11
10.6398183383
 21
12.4248318604
  0
LINE
  5
253
100
AcDbEntity
  8
0
100
AcDbLine
 62
9
  6
CONTINUOUS
 10
10.8898183383
 20
11.1548318604
 11
10.8898183384
 21
11.1848318604
  0
LINE
  5
254
100
AcDbEntity
  8
0
100
AcDbLine
 62
9
  6
CONTINUOUS
 10
10.8898183383
 20
10.6148318604
 11
10.8898183383
 21
10.5848318604
  0
LINE
  5
255
100
AcDbEntity
  8
0
100
AcDbLine
 62
9
  6
CONTINUOUS
 10
10.9798183383
 20
10.3048318604
 11
10.9798183383
 21
10.5848318604
  0
LINE
  5
256
100
AcDbEntity
  8
0
100
AcDbLine
 62
9
  6
CONTINUOUS
 10
10.9798183383
 20
11.1848318604
 11
10.9798183383
 21
11.4648318604
  0
LINE
  5
257
100
AcDbEntity
  8
0
100
AcDbLine
 62
7
  6
CONTINUOUS
 10
11.0098183383
 20
10.3348318604
 11
11.0098183383
 21
10.5848318604
  0
LINE
  5
258
100
AcDbEntity
  8
0
100
AcDbLine
 62
7
  6
CONTINUOUS
 10
11.0098183383
 20
11.1848318604
 11
11.0098183383
 21
11.4348318604
  0
LINE
  5
259
100
AcDbEntity
  8
0
100
AcDbLine
 62
9
  6
CONTINUOUS
 10
11.3598183383
 20
11.1848318604
 11
11.3598183383
 21
11.8998318604
  0
LINE
  5
25A
100
AcDbEntity
  8
0
100
AcDbLine
 62
9
  6
CONTINUOUS
 10
11.3598183383
 20
10.5848318604
 11
11.3598183388
 21
9.8698318604
  0
LINE
  5
25B
100
AcDbEntity
  8
0
100
AcDbLine
 62
7
  6
CONTINUOUS
 10
11.3898183383
 20
9.8998318604
 11
11.3898183383
 21
10.5848318604
  0
LINE
  5
25C
100
AcDbEntity
  8
0
100
AcDbLine
 62
7
  6
CONTINUOUS
 10
11.3898183383
 20
11.1848318604
 11
11.3898183383
 21
11.8698318604
  0
LINE
  5
25D
100
AcDbEntity
  8
0
100
AcDbLine
 62
9
  6
CONTINUOUS
 10
11.8798183383
 20
10.5848318604
 11
11.8798183383
 21
11.1848318604
  0
LINE
  5
25E
100
AcDbEntity
  8
0
100
AcDbLine
 62
7
  6
CONTINUOUS
 10
11.9098183383
 20
10.6148318604
 11
11.9098183383
 21
11.1548318604
  0
LINE
  5
25F
100
AcDbEntity
  8
0
100
AcDbLine
 62
7
  6
CONTINUOUS
 10
2.0698183383
 20
9.3148318604
 11
2.6098183383
 21
9.3148318604
  0
LINE
  5
260
100
AcDbEntity
  8
0
100
AcDbLine
 62
7
  6
CONTINUOUS
 10
10.0698183383
 20
9.3148318604
 11
10.6098183383
 21
9.3148318604
  0
LINE
  5
261
100
AcDbEntity
  8
0
100
AcDbLine
 62
7
  6
CONTINUOUS
 10
15.0698183383
 20
9.3148318604
 11
15.6098183383
 21
9.3148318604
  0
LINE
  5
262
100
AcDbEntity
  8
0
100
AcDbLine
 62
9
  6
CONTINUOUS
 10
2.0398183383
 20
9.3448318604
 11
2.6398183383
 21
9.3448318604
  0
LINE
  5
263
100
AcDbEntity
  8
0
100
AcDbLine
 62
9
  6
CONTINUOUS
 10
10.0398183383
 20
9.3448318604
 11
10.6398183383
 21
9.3448318604
  0
LINE
  5
264
100
AcDbEntity
  8
0
100
AcDbLine
 62
9
  6
CONTINUOUS
 10
15.0398183383
 20
9.3448318604
 11
15.6398183383
 21
9.3448318604
  0
LINE
  5
265
100
AcDbEntity
  8
0
100
AcDbLine
 62
7
  6
CONTINUOUS
 10
19.3948183383
 20
9.6348318604
 11
19.8398183383
 21
9.6348318604
  0
LINE
  5
266
100
AcDbEntity
  8
0
100
AcDbLine
 62
7
  6
CONTINUOUS
 10
20.8398183383
 20
9.6348318604
 11
21.2848183383
 21
9.6348318604
  0
LINE
  5
267
100
AcDbEntity
  8
0
100
AcDbLine
 62
9
  6
CONTINUOUS
 10
19.3548183383
 20
9.6748318604
 11
19.8398183383
 21
9.6748318604
  0
LINE
  5
268
100
AcDbEntity
  8
0
100
AcDbLine
 62
9
  6
CONTINUOUS
 10
20.8398183383
 20
9.6748318604
 11
21.3248183383
 21
9.6748318604
  0
LINE
  5
269
100
AcDbEntity
  8
0
100
AcDbLine
 62
7
  6
CONTINUOUS
 10
5.0198183383
 20
9.7698318604
 11
5.5898183383
 21
9.7698318604
  0
LINE
  5
26A
100
AcDbEntity
  8
0
100
AcDbLine
 62
7
  6
CONTINUOUS
 10
7.0898183383
 20
9.7698318604
 11
7.6598183383
 21
9.7698318604
  0
LINE
  5
26B
100
AcDbEntity
  8
0
100
AcDbLine
 62
9
  6
CONTINUOUS
 10
4.9898183383
 20
9.7998318599
 11
5.5898183383
 21
9.7998318604
  0
LINE
  5
26C
100
AcDbEntity
  8
0
100
AcDbLine
 62
9
  6
CONTINUOUS
 10
7.0898183383
 20
9.7998318604
 11
7.6898183383
 21
9.7998318604
  0
LINE
  5
26D
100
AcDbEntity
  8
0
100
AcDbLine
 62
7
  6
CONTINUOUS
 10
13.7698183383
 20
11.1548318604
 11
13.7698183383
 21
10.6148318604
  0
LINE
  5
26E
100
AcDbEntity
  8
0
100
AcDbLine
 62
9
  6
CONTINUOUS
 10
13.7998183383
 20
10.5848318604
 11
13.7998183383
 21
11.1848318604
  0
LINE
  5
26F
100
AcDbEntity
  8
0
100
AcDbLine
 62
7
  6
CONTINUOUS
 10
1.3198183383
 20
9.8698318604
 11
2.0398183383
 21
9.8698318604
  0
LINE
  5
270
100
AcDbEntity
  8
0
100
AcDbLine
 62
7
  6
CONTINUOUS
 10
2.6398183383
 20
9.8698318604
 11
3.3598183383
 21
9.8698318604
  0
LINE
  5
271
100
AcDbEntity
  8
0
100
AcDbLine
 62
7
  6
CONTINUOUS
 10
9.3198183383
 20
9.8698318604
 11
10.0398183383
 21
9.8698318604
  0
LINE
  5
272
100
AcDbEntity
  8
0
100
AcDbLine
 62
7
  6
CONTINUOUS
 10
10.6398183383
 20
9.8698318604
 11
11.3598183383
 21
9.8698318604
  0
LINE
  5
273
100
AcDbEntity
  8
0
100
AcDbLine
 62
7
  6
CONTINUOUS
 10
14.3198183383
 20
9.8848318604
 11
15.0398183383
 21
9.8848318604
  0
LINE
  5
274
100
AcDbEntity
  8
0
100
AcDbLine
 62
7
  6
CONTINUOUS
 10
15.6398183383
 20
9.8848318604
 11
16.3598183383
 21
9.8848318604
  0
LINE
  5
275
100
AcDbEntity
  8
0
100
AcDbLine
 62
9
  6
CONTINUOUS
 10
2.6398183383
 20
9.8998318604
 11
3.3898183383
 21
9.8998318604
  0
LINE
  5
276
100
AcDbEntity
  8
0
100
AcDbLine
 62
9
  6
CONTINUOUS
 10
10.6398183383
 20
9.8998318604
 11
11.3898183383
 21
9.8998318604
  0
LINE
  5
277
100
AcDbEntity
  8
0
100
AcDbLine
 62
9
  6
CONTINUOUS
 10
10.0398183383
 20
9.8998318604
 11
9.2898183383
 21
9.8998318599
  0
LINE
  5
278
100
AcDbEntity
  8
0
100
AcDbLine
 62
9
  6
CONTINUOUS
 10
2.0398183383
 20
9.8998318604
 11
1.2898183383
 21
9.8998318599
  0
LINE
  5
279
100
AcDbEntity
  8
0
100
AcDbLine
 62
9
  6
CONTINUOUS
 10
14.2898183383
 20
9.9148318599
 11
15.0398183383
 21
9.9148318604
  0
LINE
  5
27A
100
AcDbEntity
  8
0
100
AcDbLine
 62
9
  6
CONTINUOUS
 10
15.6398183383
 20
9.9148318604
 11
16.3898183383
 21
9.9148318604
  0
LINE
  5
27B
100
AcDbEntity
  8
0
100
AcDbLine
 62
7
  6
CONTINUOUS
 10
5.3998183383
 20
10.1648318604
 11
5.5898183383
 21
10.1648318604
  0
LINE
  5
27C
100
AcDbEntity
  8
0
100
AcDbLine
 62
7
  6
CONTINUOUS
 10
7.0898183383
 20
10.1648318604
 11
7.2798183383
 21
10.1648318604
  0
LINE
  5
27D
100
AcDbEntity
  8
0
100
AcDbLine
 62
9
  6
CONTINUOUS
 10
5.3698183383
 20
10.1948318599
 11
5.5898183383
 21
10.1948318604
  0
LINE
  5
27E
100
AcDbEntity
  8
0
100
AcDbLine
 62
9
  6
CONTINUOUS
 10
7.0898183383
 20
10.1948318604
 11
7.3098183383
 21
10.1948318604
  0
LINE
  5
27F
100
AcDbEntity
  8
0
100
AcDbLine
 62
7
  6
CONTINUOUS
 10
1.6998183383
 20
10.3048318604
 11
2.0398183383
 21
10.3048318604
  0
LINE
  5
280
100
AcDbEntity
  8
0
100
AcDbLine
 62
7
  6
CONTINUOUS
 10
2.6398183383
 20
10.3048318604
 11
2.9798183383
 21
10.3048318604
  0
LINE
  5
281
100
AcDbEntity
  8
0
100
AcDbLine
 62
7
  6
CONTINUOUS
 10
9.6998183383
 20
10.3048318604
 11
10.0398183383
 21
10.3048318604
  0
LINE
  5
282
100
AcDbEntity
  8
0
100
AcDbLine
 62
7
  6
CONTINUOUS
 10
10.6398183383
 20
10.3048318604
 11
10.9798183383
 21
10.3048318604
  0
LINE
  5
283
100
AcDbEntity
  8
0
100
AcDbLine
 62
7
  6
CONTINUOUS
 10
14.6998183383
 20
10.3048318604
 11
15.0398183383
 21
10.3048318604
  0
LINE
  5
284
100
AcDbEntity
  8
0
100
AcDbLine
 62
7
  6
CONTINUOUS
 10
15.6398183383
 20
10.3048318604
 11
15.9798183383
 21
10.3048318604
  0
LINE
  5
285
100
AcDbEntity
  8
0
100
AcDbLine
 62
9
  6
CONTINUOUS
 10
1.6698183383
 20
10.3348318604
 11
2.0698183383
 21
10.3348318604
  0
LINE
  5
286
100
AcDbEntity
  8
0
100
AcDbLine
 62
9
  6
CONTINUOUS
 10
2.6098183383
 20
10.3348318604
 11
3.0098183383
 21
10.3348318604
  0
LINE
  5
287
100
AcDbEntity
  8
0
100
AcDbLine
 62
9
  6
CONTINUOUS
 10
9.6698183383
 20
10.3348318604
 11
10.0698183383
 21
10.3348318604
  0
LINE
  5
288
100
AcDbEntity
  8
0
100
AcDbLine
 62
9
  6
CONTINUOUS
 10
10.6098183383
 20
10.3348318604
 11
11.0098183383
 21
10.3348318604
  0
LINE
  5
289
100
AcDbEntity
  8
0
100
AcDbLine
 62
9
  6
CONTINUOUS
 10
14.6698183383
 20
10.3348318604
 11
15.0698183383
 21
10.3348318604
  0
LINE
  5
28A
100
AcDbEntity
  8
0
100
AcDbLine
 62
9
  6
CONTINUOUS
 10
15.6098183383
 20
10.3348318604
 11
16.0098183383
 21
10.3348318604
  0
LINE
  5
28B
100
AcDbEntity
  8
0
100
AcDbLine
 62
7
  6
CONTINUOUS
 10
0.7998183383
 20
10.5848318604
 11
1.7898183383
 21
10.5848318604
  0
LINE
  5
28C
100
AcDbEntity
  8
0
100
AcDbLine
 62
7
  6
CONTINUOUS
 10
2.8898183383
 20
10.5848318604
 11
3.8798183383
 21
10.5848318604
  0
LINE
  5
28D
100
AcDbEntity
  8
0
100
AcDbLine
 62
7
  6
CONTINUOUS
 10
8.7998183383
 20
10.5848318604
 11
9.7898183383
 21
10.5848318604
  0
LINE
  5
28E
100
AcDbEntity
  8
0
100
AcDbLine
 62
7
  6
CONTINUOUS
 10
10.8898183383
 20
10.5848318604
 11
11.8798183383
 21
10.5848318604
  0
LINE
  5
28F
100
AcDbEntity
  8
0
100
AcDbLine
 62
7
  6
CONTINUOUS
 10
13.7998183383
 20
10.5848318604
 11
14.7898183383
 21
10.5848318604
  0
LINE
  5
290
100
AcDbEntity
  8
0
100
AcDbLine
 62
7
  6
CONTINUOUS
 10
15.8898183383
 20
10.5848318604
 11
16.8798183383
 21
10.5848318604
  0
LINE
  5
291
100
AcDbEntity
  8
0
100
AcDbLine
 62
9
  6
CONTINUOUS
 10
0.7698183383
 20
10.6148318604
 11
1.7898183383
 21
10.6148318604
  0
LINE
  5
292
100
AcDbEntity
  8
0
100
AcDbLine
 62
9
  6
CONTINUOUS
 10
2.8898183383
 20
10.6148318604
 11
3.9098183383
 21
10.6148318604
  0
LINE
  5
293
100
AcDbEntity
  8
0
100
AcDbLine
 62
9
  6
CONTINUOUS
 10
8.7698183383
 20
10.6148318604
 11
9.7898183383
 21
10.6148318604
  0
LINE
  5
294
100
AcDbEntity
  8
0
100
AcDbLine
 62
9
  6
CONTINUOUS
 10
10.8898183383
 20
10.6148318604
 11
11.9098183383
 21
10.6148318604
  0
LINE
  5
295
100
AcDbEntity
  8
0
100
AcDbLine
 62
9
  6
CONTINUOUS
 10
13.7698183383
 20
10.6148318604
 11
14.7898183383
 21
10.6148318604
  0
LINE
  5
296
100
AcDbEntity
  8
0
100
AcDbLine
 62
9
  6
CONTINUOUS
 10
15.8898183383
 20
10.6148318604
 11
16.9098183383
 21
10.6148318604
  0
LINE
  5
297
100
AcDbEntity
  8
0
100
AcDbLine
 62
7
  6
CONTINUOUS
 10
14.2898183383
 20
11.8548318604
 11
14.2898183383
 21
11.1848318604
  0
LINE
  5
298
100
AcDbEntity
  8
0
100
AcDbLine
 62
7
  6
CONTINUOUS
 10
14.2898183383
 20
10.5848318604
 11
14.2898183383
 21
9.9148318604
  0
LINE
  5
299
100
AcDbEntity
  8
0
100
AcDbLine
 62
9
  6
CONTINUOUS
 10
14.3198183383
 20
10.5848318604
 11
14.3198183383
 21
9.8848318604
  0
LINE
  5
29A
100
AcDbEntity
  8
0
100
AcDbLine
 62
9
  6
CONTINUOUS
 10
14.3198183383
 20
11.1848318604
 11
14.3198183378
 21
11.8848318604
  0
LINE
  5
29B
100
AcDbEntity
  8
0
100
AcDbLine
 62
7
  6
CONTINUOUS
 10
14.6698183383
 20
11.4348318604
 11
14.6698183383
 21
11.1848318604
  0
LINE
  5
29C
100
AcDbEntity
  8
0
100
AcDbLine
 62
7
  6
CONTINUOUS
 10
14.6698183383
 20
10.5848318604
 11
14.6698183383
 21
10.3348318604
  0
LINE
  5
29D
100
AcDbEntity
  8
0
100
AcDbLine
 62
9
  6
CONTINUOUS
 10
14.6998183383
 20
11.4648318604
 11
14.6998183383
 21
11.1848318604
  0
LINE
  5
29E
100
AcDbEntity
  8
0
100
AcDbLine
 62
9
  6
CONTINUOUS
 10
14.6998183383
 20
10.5848318604
 11
14.6998183383
 21
10.3048318604
  0
LINE
  5
29F
100
AcDbEntity
  8
0
100
AcDbLine
 62
9
  6
CONTINUOUS
 10
14.7898183383
 20
10.6148318604
 11
14.7898183382
 21
10.5848318604
  0
LINE
  5
2A0
100
AcDbEntity
  8
0
100
AcDbLine
 62
9
  6
CONTINUOUS
 10
14.7898183383
 20
11.1548318604
 11
14.7898183383
 21
11.1848318604
  0
LINE
  5
2A1
100
AcDbEntity
  8
0
100
AcDbLine
 62
9
  6
CONTINUOUS
 10
19.9048183383
 20
10.6560648512
 11
20.7748183383
 21
10.6560648512
  0
LINE
  5
2A2
100
AcDbEntity
  8
0
100
AcDbLine
 62
7
  6
CONTINUOUS
 10
19.9048183383
 20
10.6584044067
 11
20.7748183383
 21
10.6584044067
  0
LINE
  5
2A3
100
AcDbEntity
  8
0
100
AcDbLine
 62
9
  6
CONTINUOUS
 10
0.7698183383
 20
11.1548318604
 11
1.7898183383
 21
11.1548318604
  0
LINE
  5
2A4
100
AcDbEntity
  8
0
100
AcDbLine
 62
9
  6
CONTINUOUS
 10
2.8898183383
 20
11.1548318604
 11
3.9098183383
 21
11.1548318604
  0
LINE
  5
2A5
100
AcDbEntity
  8
0
100
AcDbLine
 62
9
  6
CONTINUOUS
 10
8.7698183383
 20
11.1548318604
 11
9.7898183383
 21
11.1548318604
  0
LINE
  5
2A6
100
AcDbEntity
  8
0
100
AcDbLine
 62
9
  6
CONTINUOUS
 10
10.8898183383
 20
11.1548318604
 11
11.9098183383
 21
11.1548318604
  0
LINE
  5
2A7
100
AcDbEntity
  8
0
100
AcDbLine
 62
9
  6
CONTINUOUS
 10
13.7698183383
 20
11.1548318604
 11
14.7898183383
 21
11.1548318604
  0
LINE
  5
2A8
100
AcDbEntity
  8
0
100
AcDbLine
 62
9
  6
CONTINUOUS
 10
15.8898183383
 20
11.1548318604
 11
16.9098183383
 21
11.1548318604
  0
LINE
  5
2A9
100
AcDbEntity
  8
0
100
AcDbLine
 62
7
  6
CONTINUOUS
 10
16.8798183383
 20
11.1848318604
 11
15.8898183383
 21
11.1848318604
  0
LINE
  5
2AA
100
AcDbEntity
  8
0
100
AcDbLine
 62
7
  6
CONTINUOUS
 10
14.7898183383
 20
11.1848318604
 11
13.7998183383
 21
11.1848318604
  0
LINE
  5
2AB
100
AcDbEntity
  8
0
100
AcDbLine
 62
7
  6
CONTINUOUS
 10
11.8798183383
 20
11.1848318604
 11
10.8898183383
 21
11.1848318604
  0
LINE
  5
2AC
100
AcDbEntity
  8
0
100
AcDbLine
 62
7
  6
CONTINUOUS
 10
9.7898183383
 20
11.1848318604
 11
8.7998183383
 21
11.1848318604
  0
LINE
  5
2AD
100
AcDbEntity
  8
0
100
AcDbLine
 62
7
  6
CONTINUOUS
 10
3.8798183383
 20
11.1848318604
 11
2.8898183383
 21
11.1848318604
  0
LINE
  5
2AE
100
AcDbEntity
  8
0
100
AcDbLine
 62
7
  6
CONTINUOUS
 10
1.7898183383
 20
11.1848318604
 11
0.7998183383
 21
11.1848318604
  0
LINE
  5
2AF
100
AcDbEntity
  8
0
100
AcDbLine
 62
7
  6
CONTINUOUS
 10
7.0898183383
 20
11.2598318604
 11
5.5898183383
 21
11.2598318604
  0
LINE
  5
2B0
100
AcDbEntity
  8
0
100
AcDbLine
 62
7
  6
CONTINUOUS
 10
15.0398183383
 20
12.4248318604
 11
15.0398183383
 21
11.4348318604
  0
LINE
  5
2B1
100
AcDbEntity
  8
0
100
AcDbLine
 62
7
  6
CONTINUOUS
 10
15.0398183383
 20
10.3348318604
 11
15.0398183383
 21
9.3448318604
  0
LINE
  5
2B2
100
AcDbEntity
  8
0
100
AcDbLine
 62
9
  6
CONTINUOUS
 10
15.0698183383
 20
9.3148318604
 11
15.0698183383
 21
10.3348318604
  0
LINE
  5
2B3
100
AcDbEntity
  8
0
100
AcDbLine
 62
9
  6
CONTINUOUS
 10
15.0698183383
 20
11.4348318604
 11
15.0698183383
 21
12.4548318604
  0
LINE
  5
2B4
100
AcDbEntity
  8
0
100
AcDbLine
 62
9
  6
CONTINUOUS
 10
15.6098183383
 20
9.3148318604
 11
15.6098183383
 21
10.3348318604
  0
LINE
  5
2B5
100
AcDbEntity
  8
0
100
AcDbLine
 62
9
  6
CONTINUOUS
 10
15.6098183383
 20
11.4348318604
 11
15.6098183383
 21
12.4548318604
  0
LINE
  5
2B6
100
AcDbEntity
  8
0
100
AcDbLine
 62
7
  6
CONTINUOUS
 10
15.6398183383
 20
9.3448318604
 11
15.6398183383
 21
10.3348318604
  0
LINE
  5
2B7
100
AcDbEntity
  8
0
100
AcDbLine
 62
7
  6
CONTINUOUS
 10
15.6398183383
 20
11.4348318604
 11
15.6398183383
 21
12.4248318604
  0
LINE
  5
2B8
100
AcDbEntity
  8
0
100
AcDbLine
 62
9
  6
CONTINUOUS
 10
15.0698183383
 20
11.4348318604
 11
14.6698183383
 21
11.4348318604
  0
LINE
  5
2B9
100
AcDbEntity
  8
0
100
AcDbLine
 62
9
  6
CONTINUOUS
 10
10.0698183383
 20
11.4348318604
 11
9.6698183383
 21
11.4348318604
  0
LINE
  5
2BA
100
AcDbEntity
  8
0
100
AcDbLine
 62
9
  6
CONTINUOUS
 10
2.0698183383
 20
11.4348318604
 11
1.6698183383
 21
11.4348318604
  0
LINE
  5
2BB
100
AcDbEntity
  8
0
100
AcDbLine
 62
9
  6
CONTINUOUS
 10
2.6098183383
 20
11.4348318604
 11
3.0098183383
 21
11.4348318604
  0
LINE
  5
2BC
100
AcDbEntity
  8
0
100
AcDbLine
 62
9
  6
CONTINUOUS
 10
10.6098183383
 20
11.4348318604
 11
11.0098183383
 21
11.4348318604
  0
LINE
  5
2BD
100
AcDbEntity
  8
0
100
AcDbLine
 62
9
  6
CONTINUOUS
 10
15.6098183383
 20
11.4348318604
 11
16.0098183383
 21
11.4348318604
  0
LINE
  5
2BE
100
AcDbEntity
  8
0
100
AcDbLine
 62
7
  6
CONTINUOUS
 10
15.9798183383
 20
11.4648318604
 11
15.6398183383
 21
11.4648318604
  0
LINE
  5
2BF
100
AcDbEntity
  8
0
100
AcDbLine
 62
7
  6
CONTINUOUS
 10
15.0398183383
 20
11.4648318604
 11
14.6998183383
 21
11.4648318604
  0
LINE
  5
2C0
100
AcDbEntity
  8
0
100
AcDbLine
 62
7
  6
CONTINUOUS
 10
10.9798183383
 20
11.4648318604
 11
10.6398183383
 21
11.4648318604
  0
LINE
  5
2C1
100
AcDbEntity
  8
0
100
AcDbLine
 62
7
  6
CONTINUOUS
 10
10.0398183383
 20
11.4648318604
 11
9.6998183383
 21
11.4648318604
  0
LINE
  5
2C2
100
AcDbEntity
  8
0
100
AcDbLine
 62
7
  6
CONTINUOUS
 10
2.9798183383
 20
11.4648318604
 11
2.6398183383
 21
11.4648318604
  0
LINE
  5
2C3
100
AcDbEntity
  8
0
100
AcDbLine
 62
7
  6
CONTINUOUS
 10
2.0398183383
 20
11.4648318604
 11
1.6998183383
 21
11.4648318604
  0
LINE
  5
2C4
100
AcDbEntity
  8
0
100
AcDbLine
 62
9
  6
CONTINUOUS
 10
5.3698183383
 20
11.5748318604
 11
7.3098183383
 21
11.574831861
  0
LINE
  5
2C5
100
AcDbEntity
  8
0
100
AcDbLine
 62
7
  6
CONTINUOUS
 10
7.2798183383
 20
11.6048318604
 11
5.3998183383
 21
11.6048318604
  0
LINE
  5
2C6
100
AcDbEntity
  8
0
100
AcDbLine
 62
9
  6
CONTINUOUS
 10
15.0398183383
 20
11.8548318604
 11
14.2898183383
 21
11.8548318604
  0
LINE
  5
2C7
100
AcDbEntity
  8
0
100
AcDbLine
 62
9
  6
CONTINUOUS
 10
15.6398183383
 20
11.8548318604
 11
16.3898183383
 21
11.8548318609
  0
LINE
  5
2C8
100
AcDbEntity
  8
0
100
AcDbLine
 62
9
  6
CONTINUOUS
 10
10.0398183383
 20
11.8698318604
 11
9.2898183383
 21
11.8698318604
  0
LINE
  5
2C9
100
AcDbEntity
  8
0
100
AcDbLine
 62
9
  6
CONTINUOUS
 10
2.0398183383
 20
11.8698318604
 11
1.2898183383
 21
11.8698318604
  0
LINE
  5
2CA
100
AcDbEntity
  8
0
100
AcDbLine
 62
9
  6
CONTINUOUS
 10
2.6398183383
 20
11.8698318604
 11
3.3898183383
 21
11.8698318609
  0
LINE
  5
2CB
100
AcDbEntity
  8
0
100
AcDbLine
 62
9
  6
CONTINUOUS
 10
10.6398183383
 20
11.8698318604
 11
11.3898183383
 21
11.8698318609
  0
LINE
  5
2CC
100
AcDbEntity
  8
0
100
AcDbLine
 62
7
  6
CONTINUOUS
 10
16.3598183383
 20
11.8848318604
 11
15.6398183383
 21
11.8848318604
  0
LINE
  5
2CD
100
AcDbEntity
  8
0
100
AcDbLine
 62
7
  6
CONTINUOUS
 10
15.0398183383
 20
11.8848318604
 11
14.3198183383
 21
11.8848318604
  0
LINE
  5
2CE
100
AcDbEntity
  8
0
100
AcDbLine
 62
7
  6
CONTINUOUS
 10
11.3598183383
 20
11.8998318604
 11
10.6398183383
 21
11.8998318604
  0
LINE
  5
2CF
100
AcDbEntity
  8
0
100
AcDbLine
 62
7
  6
CONTINUOUS
 10
10.0398183383
 20
11.8998318604
 11
9.3198183383
 21
11.8998318604
  0
LINE
  5
2D0
100
AcDbEntity
  8
0
100
AcDbLine
 62
7
  6
CONTINUOUS
 10
3.3598183383
 20
11.8998318604
 11
2.6398183383
 21
11.8998318604
  0
LINE
  5
2D1
100
AcDbEntity
  8
0
100
AcDbLine
 62
7
  6
CONTINUOUS
 10
2.0398183383
 20
11.8998318604
 11
1.3198183383
 21
11.8998318604
  0
LINE
  5
2D2
100
AcDbEntity
  8
0
100
AcDbLine
 62
9
  6
CONTINUOUS
 10
4.9898183383
 20
11.9698318604
 11
7.6898183383
 21
11.9698318609
  0
LINE
  5
2D3
100
AcDbEntity
  8
0
100
AcDbLine
 62
7
  6
CONTINUOUS
 10
7.6598183383
 20
11.9998318604
 11
5.0198183383
 21
11.9998318604
  0
LINE
  5
2D4
100
AcDbEntity
  8
0
100
AcDbLine
 62
9
  6
CONTINUOUS
 10
21.3248183383
 20
12.0948318604
 11
19.3548183383
 21
12.0948318604
  0
LINE
  5
2D5
100
AcDbEntity
  8
0
100
AcDbLine
 62
7
  6
CONTINUOUS
 10
21.2848183383
 20
12.1348318604
 11
19.3948183383
 21
12.1348318604
  0
LINE
  5
2D6
100
AcDbEntity
  8
0
100
AcDbLine
 62
9
  6
CONTINUOUS
 10
15.8898183383
 20
10.6148318604
 11
15.8898183383
 21
10.5848318604
  0
LINE
  5
2D7
100
AcDbEntity
  8
0
100
AcDbLine
 62
9
  6
CONTINUOUS
 10
15.8898183383
 20
11.1548318604
 11
15.8898183384
 21
11.1848318604
  0
LINE
  5
2D8
100
AcDbEntity
  8
0
100
AcDbLine
 62
9
  6
CONTINUOUS
 10
15.9798183383
 20
10.3048318604
 11
15.9798183383
 21
10.5848318604
  0
LINE
  5
2D9
100
AcDbEntity
  8
0
100
AcDbLine
 62
9
  6
CONTINUOUS
 10
15.9798183383
 20
11.1848318604
 11
15.9798183383
 21
11.4648318604
  0
LINE
  5
2DA
100
AcDbEntity
  8
0
100
AcDbLine
 62
7
  6
CONTINUOUS
 10
16.0098183383
 20
10.3348318604
 11
16.0098183383
 21
10.5848318604
  0
LINE
  5
2DB
100
AcDbEntity
  8
0
100
AcDbLine
 62
7
  6
CONTINUOUS
 10
16.0098183383
 20
11.1848318604
 11
16.0098183383
 21
11.4348318604
  0
LINE
  5
2DC
100
AcDbEntity
  8
0
100
AcDbLine
 62
9
  6
CONTINUOUS
 10
16.3598183388
 20
9.8848318604
 11
16.3598183383
 21
10.5848318604
  0
LINE
  5
2DD
100
AcDbEntity
  8
0
100
AcDbLine
 62
9
  6
CONTINUOUS
 10
16.3598183383
 20
11.1848318604
 11
16.3598183383
 21
11.8848318604
  0
LINE
  5
2DE
100
AcDbEntity
  8
0
100
AcDbLine
 62
7
  6
CONTINUOUS
 10
16.3898183383
 20
9.9148318604
 11
16.3898183383
 21
10.5848318604
  0
LINE
  5
2DF
100
AcDbEntity
  8
0
100
AcDbLine
 62
7
  6
CONTINUOUS
 10
16.3898183383
 20
11.1848318604
 11
16.3898183383
 21
11.8548318604
  0
LINE
  5
2E0
100
AcDbEntity
  8
0
100
AcDbLine
 62
9
  6
CONTINUOUS
 10
2.0398183383
 20
12.4248318604
 11
2.6398183383
 21
12.4248318604
  0
LINE
  5
2E1
100
AcDbEntity
  8
0
100
AcDbLine
 62
9
  6
CONTINUOUS
 10
10.0398183383
 20
12.4248318604
 11
10.6398183383
 21
12.4248318604
  0
LINE
  5
2E2
100
AcDbEntity
  8
0
100
AcDbLine
 62
9
  6
CONTINUOUS
 10
15.0398183383
 20
12.4248318604
 11
15.6398183383
 21
12.4248318604
  0
LINE
  5
2E3
100
AcDbEntity
  8
0
100
AcDbLine
 62
7
  6
CONTINUOUS
 10
15.6098183383
 20
12.4548318604
 11
15.0698183383
 21
12.4548318604
  0
LINE
  5
2E4
100
AcDbEntity
  8
0
100
AcDbLine
 62
7
  6
CONTINUOUS
 10
10.6098183383
 20
12.4548318604
 11
10.0698183383
 21
12.4548318604
  0
LINE
  5
2E5
100
AcDbEntity
  8
0
100
AcDbLine
 62
7
  6
CONTINUOUS
 10
2.6098183383
 20
12.4548318604
 11
2.0698183383
 21
12.4548318604
  0
LINE
  5
2E6
100
AcDbEntity
  8
0
100
AcDbLine
 62
9
  6
CONTINUOUS
 10
16.8798183383
 20
10.5848318604
 11
16.8798183383
 21
11.1848318604
  0
LINE
  5
2E7
100
AcDbEntity
  8
0
100
AcDbLine
 62
7
  6
CONTINUOUS
 10
16.9098183383
 20
10.6148318604
 11
16.9098183383
 21
11.1548318604
  0
LINE
  5
2E8
100
AcDbEntity
  8
0
100
AcDbLine
 62
7
  6
CONTINUOUS
 10
20.8350467616
 20
10.6513686755
 11
20.8350444571
 21
10.651363787
  0
LINE
  5
2E9
100
AcDbEntity
  8
0
100
AcDbLine
 62
7
  6
CONTINUOUS
 10
19.3548183383
 20
12.0948318604
 11
19.3548183383
 21
9.6748318604
  0
LINE
  5
2EA
100
AcDbEntity
  8
0
100
AcDbLine
 62
9
  6
CONTINUOUS
 10
19.3948183383
 20
12.1348318604
 11
19.3948183383
 21
9.6348318604
  0
LINE
  5
2EB
100
AcDbEntity
  8
0
100
AcDbLine
 62
7
  6
CONTINUOUS
 10
19.8398183383
 20
4.4889743667
 11
19.8398183383
 21
10.6062719624
  0
LINE
  5
2EC
100
AcDbEntity
  8
0
100
AcDbLine
 62
9
  6
CONTINUOUS
 10
19.8498183383
 20
5.1490051561
 11
19.8498183383
 21
4.4825464906
  0
LINE
  5
2ED
100
AcDbEntity
  8
0
100
AcDbLine
 62
7
  6
CONTINUOUS
 10
19.8523183383
 20
10.8848318604
 11
19.8523183383
 21
10.63708311
  0
LINE
  5
2EE
100
AcDbEntity
  8
0
100
AcDbLine
 62
7
  6
CONTINUOUS
 10
19.8763183383
 20
4.5219977794
 11
19.8763183383
 21
5.1095538673
  0
LINE
  5
2EF
100
AcDbEntity
  8
0
100
AcDbLine
 62
9
  6
CONTINUOUS
 10
19.8863183383
 20
5.1031259912
 11
19.8863183383
 21
4.5155699033
  0
LINE
  5
2F0
100
AcDbEntity
  8
0
100
AcDbLine
 62
9
  6
CONTINUOUS
 10
19.9048183383
 20
4.4404140462
 11
19.9048183383
 21
4.4368419223
  0
LINE
  5
2F1
100
AcDbEntity
  8
0
100
AcDbLine
 62
9
  6
CONTINUOUS
 10
19.9048183383
 20
5.1911376005
 11
19.9048183383
 21
10.6584044067
  0
LINE
  5
2F2
100
AcDbEntity
  8
0
100
AcDbLine
 62
9
  6
CONTINUOUS
 10
19.9563183383
 20
4.4619467923
 11
19.9563183383
 21
4.4583746684
  0
LINE
  5
2F3
100
AcDbEntity
  8
0
100
AcDbLine
 62
9
  6
CONTINUOUS
 10
19.9563183383
 20
5.1567491022
 11
19.9563183383
 21
5.1708374228
  0
LINE
  5
2F4
100
AcDbEntity
  8
0
100
AcDbLine
 62
9
  6
CONTINUOUS
 10
20.7233183383
 20
4.4619467923
 11
20.7233183383
 21
4.4583746684
  0
LINE
  5
2F5
100
AcDbEntity
  8
0
100
AcDbLine
 62
9
  6
CONTINUOUS
 10
20.7233183383
 20
5.1567491022
 11
20.7233183383
 21
5.1708374228
  0
LINE
  5
2F6
100
AcDbEntity
  8
0
100
AcDbLine
 62
9
  6
CONTINUOUS
 10
20.7748183383
 20
4.4404140462
 11
20.7748183383
 21
4.4368419223
  0
LINE
  5
2F7
100
AcDbEntity
  8
0
100
AcDbLine
 62
9
  6
CONTINUOUS
 10
20.7748183383
 20
10.6584044067
 11
20.7748183383
 21
5.1911376005
  0
LINE
  5
2F8
100
AcDbEntity
  8
0
100
AcDbLine
 62
9
  6
CONTINUOUS
 10
20.7933183383
 20
4.5155699033
 11
20.7933183383
 21
5.1031259912
  0
LINE
  5
2F9
100
AcDbEntity
  8
0
100
AcDbLine
 62
7
  6
CONTINUOUS
 10
20.8033183383
 20
5.1095538673
 11
20.8033183383
 21
4.5219977794
  0
LINE
  5
2FA
100
AcDbEntity
  8
0
100
AcDbLine
 62
7
  6
CONTINUOUS
 10
20.8273183383
 20
10.8848318604
 11
20.8273183383
 21
10.6370825299
  0
LINE
  5
2FB
100
AcDbEntity
  8
0
100
AcDbLine
 62
9
  6
CONTINUOUS
 10
20.8298183383
 20
4.4825464906
 11
20.8298183383
 21
5.1490051561
  0
LINE
  5
2FC
100
AcDbEntity
  8
0
100
AcDbLine
 62
7
  6
CONTINUOUS
 10
20.8398183383
 20
4.4889743667
 11
20.8398183383
 21
10.6062719624
  0
LINE
  5
2FD
100
AcDbEntity
  8
0
100
AcDbLine
 62
9
  6
CONTINUOUS
 10
21.2848183383
 20
9.6348318604
 11
21.2848183383
 21
12.1348318604
  0
LINE
  5
2FE
100
AcDbEntity
  8
0
100
AcDbLine
 62
7
  6
CONTINUOUS
 10
21.3248183383
 20
9.6748318604
 11
21.3248183383
 21
12.0948318604
  0
ARC
  5
2FF
100
AcDbEntity
  8
0
100
AcDbCircle
 62
7
  6
CONTINUOUS
 10
5.0198183383
 20
9.7998318604
 40
0.03
100
AcDbArc
 50
180.0
 51
270.0
  0
ARC
  5
300
100
AcDbEntity
  8
0
100
AcDbCircle
 62
7
  6
CONTINUOUS
 10
2.6098183383
 20
9.3448318604
 40
0.03
100
AcDbArc
 50
270.0
 51
360.0
  0
ARC
  5
301
100
AcDbEntity
  8
0
100
AcDbCircle
 62
7
  6
CONTINUOUS
 10
2.0698183383
 20
9.3448318604
 40
0.03
100
AcDbArc
 50
180.0
 51
270.0
  0
ARC
  5
302
100
AcDbEntity
  8
0
100
AcDbCircle
 62
7
  6
CONTINUOUS
 10
1.3198183383
 20
9.8998318604
 40
0.03
100
AcDbArc
 50
180.0
 51
270.0
  0
ARC
  5
303
100
AcDbEntity
  8
0
100
AcDbCircle
 62
7
  6
CONTINUOUS
 10
3.3598183383
 20
9.8998318604
 40
0.03
100
AcDbArc
 50
270.0
 51
360.0
  0
ARC
  5
304
100
AcDbEntity
  8
0
100
AcDbCircle
 62
9
  6
CONTINUOUS
 10
1.7898183383
 20
10.3348318604
 40
0.28
100
AcDbArc
 50
0.0
 51
90.0
  0
ARC
  5
305
100
AcDbEntity
  8
0
100
AcDbCircle
 62
9
  6
CONTINUOUS
 10
2.8898183383
 20
10.3348318604
 40
0.28
100
AcDbArc
 50
90.0
 51
180.0
  0
ARC
  5
306
100
AcDbEntity
  8
0
100
AcDbCircle
 62
7
  6
CONTINUOUS
 10
1.7898183383
 20
10.3348318604
 40
0.25
100
AcDbArc
 50
0.0
 51
90.0
  0
ARC
  5
307
100
AcDbEntity
  8
0
100
AcDbCircle
 62
7
  6
CONTINUOUS
 10
2.8898183383
 20
10.3348318604
 40
0.25
100
AcDbArc
 50
90.0
 51
180.0
  0
ARC
  5
308
100
AcDbEntity
  8
0
100
AcDbCircle
 62
7
  6
CONTINUOUS
 10
3.8798183383
 20
10.6148318604
 40
0.03
100
AcDbArc
 50
270.0
 51
360.0
  0
ARC
  5
309
100
AcDbEntity
  8
0
100
AcDbCircle
 62
7
  6
CONTINUOUS
 10
0.7998183383
 20
10.6148318604
 40
0.03
100
AcDbArc
 50
180.0
 51
270.0
  0
ARC
  5
30A
100
AcDbEntity
  8
0
100
AcDbCircle
 62
7
  6
CONTINUOUS
 10
5.3998183383
 20
10.1948318604
 40
0.03
100
AcDbArc
 50
180.0
 51
270.0
  0
ARC
  5
30B
100
AcDbEntity
  8
0
100
AcDbCircle
 62
7
  6
CONTINUOUS
 10
2.9798183383
 20
10.3348318604
 40
0.03
100
AcDbArc
 50
270.0
 51
360.0
  0
ARC
  5
30C
100
AcDbEntity
  8
0
100
AcDbCircle
 62
7
  6
CONTINUOUS
 10
1.6998183383
 20
10.3348318604
 40
0.03
100
AcDbArc
 50
180.0
 51
270.0
  0
ARC
  5
30D
100
AcDbEntity
  8
0
100
AcDbCircle
 62
7
  6
CONTINUOUS
 10
7.6598183383
 20
9.7998318604
 40
0.03
100
AcDbArc
 50
270.0
 51
360.0
  0
ARC
  5
30E
100
AcDbEntity
  8
0
100
AcDbCircle
 62
7
  6
CONTINUOUS
 10
9.3198183383
 20
9.8998318604
 40
0.03
100
AcDbArc
 50
180.0
 51
270.0
  0
ARC
  5
30F
100
AcDbEntity
  8
0
100
AcDbCircle
 62
7
  6
CONTINUOUS
 10
10.0698183383
 20
9.3448318604
 40
0.03
100
AcDbArc
 50
180.0
 51
270.0
  0
ARC
  5
310
100
AcDbEntity
  8
0
100
AcDbCircle
 62
7
  6
CONTINUOUS
 10
10.6098183383
 20
9.3448318604
 40
0.03
100
AcDbArc
 50
270.0
 51
360.0
  0
ARC
  5
311
100
AcDbEntity
  8
0
100
AcDbCircle
 62
9
  6
CONTINUOUS
 10
10.8898183383
 20
10.3348318604
 40
0.28
100
AcDbArc
 50
90.0
 51
180.0
  0
ARC
  5
312
100
AcDbEntity
  8
0
100
AcDbCircle
 62
9
  6
CONTINUOUS
 10
9.7898183383
 20
10.3348318604
 40
0.28
100
AcDbArc
 50
0.0
 51
90.0
  0
ARC
  5
313
100
AcDbEntity
  8
0
100
AcDbCircle
 62
7
  6
CONTINUOUS
 10
10.8898183383
 20
10.3348318604
 40
0.25
100
AcDbArc
 50
90.0
 51
180.0
  0
ARC
  5
314
100
AcDbEntity
  8
0
100
AcDbCircle
 62
7
  6
CONTINUOUS
 10
9.7898183383
 20
10.3348318604
 40
0.25
100
AcDbArc
 50
0.0
 51
90.0
  0
ARC
  5
315
100
AcDbEntity
  8
0
100
AcDbCircle
 62
7
  6
CONTINUOUS
 10
7.2798183383
 20
10.1948318604
 40
0.03
100
AcDbArc
 50
270.0
 51
360.0
  0
ARC
  5
316
100
AcDbEntity
  8
0
100
AcDbCircle
 62
7
  6
CONTINUOUS
 10
9.6998183383
 20
10.3348318604
 40
0.03
100
AcDbArc
 50
180.0
 51
270.0
  0
ARC
  5
317
100
AcDbEntity
  8
0
100
AcDbCircle
 62
7
  6
CONTINUOUS
 10
10.9798183383
 20
10.3348318604
 40
0.03
100
AcDbArc
 50
270.0
 51
360.0
  0
ARC
  5
318
100
AcDbEntity
  8
0
100
AcDbCircle
 62
7
  6
CONTINUOUS
 10
8.7998183383
 20
10.6148318604
 40
0.03
100
AcDbArc
 50
180.0
 51
270.0
  0
ARC
  5
319
100
AcDbEntity
  8
0
100
AcDbCircle
 62
9
  6
CONTINUOUS
 10
2.8898183383
 20
11.4348318604
 40
0.28
100
AcDbArc
 50
180.0
 51
270.0
  0
ARC
  5
31A
100
AcDbEntity
  8
0
100
AcDbCircle
 62
9
  6
CONTINUOUS
 10
1.7898183383
 20
11.4348318604
 40
0.28
100
AcDbArc
 50
270.0
 51
360.0
  0
ARC
  5
31B
100
AcDbEntity
  8
0
100
AcDbCircle
 62
9
  6
CONTINUOUS
 10
9.7898183383
 20
11.4348318604
 40
0.28
100
AcDbArc
 50
270.0
 51
360.0
  0
ARC
  5
31C
100
AcDbEntity
  8
0
100
AcDbCircle
 62
9
  6
CONTINUOUS
 10
10.8898183383
 20
11.4348318604
 40
0.28
100
AcDbArc
 50
180.0
 51
270.0
  0
ARC
  5
31D
100
AcDbEntity
  8
0
100
AcDbCircle
 62
7
  6
CONTINUOUS
 10
1.7898183383
 20
11.4348318604
 40
0.25
100
AcDbArc
 50
270.0
 51
360.0
  0
ARC
  5
31E
100
AcDbEntity
  8
0
100
AcDbCircle
 62
7
  6
CONTINUOUS
 10
2.8898183383
 20
11.4348318604
 40
0.25
100
AcDbArc
 50
180.0
 51
270.0
  0
ARC
  5
31F
100
AcDbEntity
  8
0
100
AcDbCircle
 62
7
  6
CONTINUOUS
 10
10.8898183383
 20
11.4348318604
 40
0.25
100
AcDbArc
 50
180.0
 51
270.0
  0
ARC
  5
320
100
AcDbEntity
  8
0
100
AcDbCircle
 62
7
  6
CONTINUOUS
 10
9.7898183383
 20
11.4348318604
 40
0.25
100
AcDbArc
 50
270.0
 51
360.0
  0
ARC
  5
321
100
AcDbEntity
  8
0
100
AcDbCircle
 62
7
  6
CONTINUOUS
 10
0.7998183383
 20
11.1548318604
 40
0.03
100
AcDbArc
 50
90.0
 51
180.0
  0
ARC
  5
322
100
AcDbEntity
  8
0
100
AcDbCircle
 62
7
  6
CONTINUOUS
 10
2.0698183383
 20
12.4248318604
 40
0.03
100
AcDbArc
 50
90.0
 51
180.0
  0
ARC
  5
323
100
AcDbEntity
  8
0
100
AcDbCircle
 62
7
  6
CONTINUOUS
 10
2.6098183383
 20
12.4248318604
 40
0.03
100
AcDbArc
 50
0.0
 51
90.0
  0
ARC
  5
324
100
AcDbEntity
  8
0
100
AcDbCircle
 62
7
  6
CONTINUOUS
 10
7.6598183383
 20
11.9698318604
 40
0.03
100
AcDbArc
 50
0.0
 51
90.0
  0
ARC
  5
325
100
AcDbEntity
  8
0
100
AcDbCircle
 62
7
  6
CONTINUOUS
 10
3.8798183383
 20
11.1548318604
 40
0.03
100
AcDbArc
 50
0.0
 51
90.0
  0
ARC
  5
326
100
AcDbEntity
  8
0
100
AcDbCircle
 62
7
  6
CONTINUOUS
 10
5.0198183383
 20
11.9698318604
 40
0.03
100
AcDbArc
 50
90.0
 51
180.0
  0
ARC
  5
327
100
AcDbEntity
  8
0
100
AcDbCircle
 62
7
  6
CONTINUOUS
 10
7.2798183383
 20
11.5748318604
 40
0.03
100
AcDbArc
 50
0.0
 51
90.0
  0
ARC
  5
328
100
AcDbEntity
  8
0
100
AcDbCircle
 62
7
  6
CONTINUOUS
 10
5.3998183383
 20
11.5748318604
 40
0.03
100
AcDbArc
 50
90.0
 51
180.0
  0
ARC
  5
329
100
AcDbEntity
  8
0
100
AcDbCircle
 62
7
  6
CONTINUOUS
 10
9.3198183383
 20
11.8698318604
 40
0.03
100
AcDbArc
 50
90.0
 51
180.0
  0
ARC
  5
32A
100
AcDbEntity
  8
0
100
AcDbCircle
 62
7
  6
CONTINUOUS
 10
9.6998183383
 20
11.4348318604
 40
0.03
100
AcDbArc
 50
90.0
 51
180.0
  0
ARC
  5
32B
100
AcDbEntity
  8
0
100
AcDbCircle
 62
7
  6
CONTINUOUS
 10
10.9798183383
 20
11.4348318604
 40
0.03
100
AcDbArc
 50
0.0
 51
90.0
  0
ARC
  5
32C
100
AcDbEntity
  8
0
100
AcDbCircle
 62
7
  6
CONTINUOUS
 10
2.9798183383
 20
11.4348318604
 40
0.03
100
AcDbArc
 50
0.0
 51
90.0
  0
ARC
  5
32D
100
AcDbEntity
  8
0
100
AcDbCircle
 62
7
  6
CONTINUOUS
 10
1.6998183383
 20
11.4348318604
 40
0.03
100
AcDbArc
 50
90.0
 51
180.0
  0
ARC
  5
32E
100
AcDbEntity
  8
0
100
AcDbCircle
 62
7
  6
CONTINUOUS
 10
1.3198183383
 20
11.8698318604
 40
0.03
100
AcDbArc
 50
90.0
 51
180.0
  0
ARC
  5
32F
100
AcDbEntity
  8
0
100
AcDbCircle
 62
7
  6
CONTINUOUS
 10
3.3598183383
 20
11.8698318604
 40
0.03
100
AcDbArc
 50
0.0
 51
90.0
  0
ARC
  5
330
100
AcDbEntity
  8
0
100
AcDbCircle
 62
7
  6
CONTINUOUS
 10
8.7998183383
 20
11.1548318604
 40
0.03
100
AcDbArc
 50
90.0
 51
180.0
  0
ARC
  5
331
100
AcDbEntity
  8
0
100
AcDbCircle
 62
7
  6
CONTINUOUS
 10
10.0698183383
 20
12.4248318604
 40
0.03
100
AcDbArc
 50
90.0
 51
180.0
  0
ARC
  5
332
100
AcDbEntity
  8
0
100
AcDbCircle
 62
7
  6
CONTINUOUS
 10
10.6098183383
 20
12.4248318604
 40
0.03
100
AcDbArc
 50
0.0
 51
90.0
  0
ARC
  5
333
100
AcDbEntity
  8
0
100
AcDbCircle
 62
9
  6
CONTINUOUS
 10
14.7898183383
 20
10.3348318604
 40
0.28
100
AcDbArc
 50
0.0
 51
90.0
  0
ARC
  5
334
100
AcDbEntity
  8
0
100
AcDbCircle
 62
9
  6
CONTINUOUS
 10
15.8898183383
 20
10.3348318604
 40
0.28
100
AcDbArc
 50
90.0
 51
180.0
  0
ARC
  5
335
100
AcDbEntity
  8
0
100
AcDbCircle
 62
7
  6
CONTINUOUS
 10
14.7898183383
 20
10.3348318604
 40
0.25
100
AcDbArc
 50
0.0
 51
90.0
  0
ARC
  5
336
100
AcDbEntity
  8
0
100
AcDbCircle
 62
7
  6
CONTINUOUS
 10
15.8898183383
 20
10.3348318604
 40
0.25
100
AcDbArc
 50
90.0
 51
180.0
  0
ARC
  5
337
100
AcDbEntity
  8
0
100
AcDbCircle
 62
7
  6
CONTINUOUS
 10
19.3948183383
 20
9.6748318604
 40
0.04
100
AcDbArc
 50
180.0
 51
270.0
  0
ARC
  5
338
100
AcDbEntity
  8
0
100
AcDbCircle
 62
7
  6
CONTINUOUS
 10
21.2848183383
 20
9.6748318604
 40
0.04
100
AcDbArc
 50
270.0
 51
360.0
  0
ARC
  5
339
100
AcDbEntity
  8
0
100
AcDbCircle
 62
7
  6
CONTINUOUS
 10
16.8798183383
 20
10.6148318604
 40
0.03
100
AcDbArc
 50
270.0
 51
360.0
  0
ARC
  5
33A
100
AcDbEntity
  8
0
100
AcDbCircle
 62
7
  6
CONTINUOUS
 10
15.6098183383
 20
9.3448318604
 40
0.03
100
AcDbArc
 50
270.0
 51
360.0
  0
ARC
  5
33B
100
AcDbEntity
  8
0
100
AcDbCircle
 62
7
  6
CONTINUOUS
 10
13.7998183383
 20
10.6148318604
 40
0.03
100
AcDbArc
 50
180.0
 51
270.0
  0
ARC
  5
33C
100
AcDbEntity
  8
0
100
AcDbCircle
 62
7
  6
CONTINUOUS
 10
15.0698183383
 20
9.3448318604
 40
0.03
100
AcDbArc
 50
180.0
 51
270.0
  0
ARC
  5
33D
100
AcDbEntity
  8
0
100
AcDbCircle
 62
7
  6
CONTINUOUS
 10
15.9798183383
 20
10.3348318604
 40
0.03
100
AcDbArc
 50
270.0
 51
360.0
  0
ARC
  5
33E
100
AcDbEntity
  8
0
100
AcDbCircle
 62
7
  6
CONTINUOUS
 10
14.6998183383
 20
10.3348318604
 40
0.03
100
AcDbArc
 50
180.0
 51
270.0
  0
ARC
  5
33F
100
AcDbEntity
  8
0
100
AcDbCircle
 62
7
  6
CONTINUOUS
 10
14.3198183383
 20
9.9148318604
 40
0.03
100
AcDbArc
 50
180.0
 51
270.0
  0
ARC
  5
340
100
AcDbEntity
  8
0
100
AcDbCircle
 62
7
  6
CONTINUOUS
 10
16.3598183383
 20
9.9148318604
 40
0.03
100
AcDbArc
 50
270.0
 51
360.0
  0
ARC
  5
341
100
AcDbEntity
  8
0
100
AcDbCircle
 62
7
  6
CONTINUOUS
 10
11.3598183383
 20
9.8998318604
 40
0.03
100
AcDbArc
 50
270.0
 51
360.0
  0
ARC
  5
342
100
AcDbEntity
  8
0
100
AcDbCircle
 62
7
  6
CONTINUOUS
 10
11.8798183383
 20
10.6148318604
 40
0.03
100
AcDbArc
 50
270.0
 51
360.0
  0
ARC
  5
343
100
AcDbEntity
  8
0
100
AcDbCircle
 62
9
  6
CONTINUOUS
 10
15.8898183383
 20
11.4348318604
 40
0.28
100
AcDbArc
 50
180.0
 51
270.0
  0
ARC
  5
344
100
AcDbEntity
  8
0
100
AcDbCircle
 62
9
  6
CONTINUOUS
 10
14.7898183383
 20
11.4348318604
 40
0.28
100
AcDbArc
 50
270.0
 51
360.0
  0
ARC
  5
345
100
AcDbEntity
  8
0
100
AcDbCircle
 62
7
  6
CONTINUOUS
 10
14.7898183383
 20
11.4348318604
 40
0.25
100
AcDbArc
 50
270.0
 51
360.0
  0
ARC
  5
346
100
AcDbEntity
  8
0
100
AcDbCircle
 62
7
  6
CONTINUOUS
 10
15.8898183383
 20
11.4348318604
 40
0.25
100
AcDbArc
 50
180.0
 51
270.0
  0
ARC
  5
347
100
AcDbEntity
  8
0
100
AcDbCircle
 62
7
  6
CONTINUOUS
 10
13.7998183383
 20
11.1548318604
 40
0.03
100
AcDbArc
 50
90.0
 51
180.0
  0
ARC
  5
348
100
AcDbEntity
  8
0
100
AcDbCircle
 62
7
  6
CONTINUOUS
 10
15.9798183383
 20
11.4348318604
 40
0.03
100
AcDbArc
 50
0.0
 51
90.0
  0
ARC
  5
349
100
AcDbEntity
  8
0
100
AcDbCircle
 62
7
  6
CONTINUOUS
 10
14.6998183383
 20
11.4348318604
 40
0.03
100
AcDbArc
 50
90.0
 51
180.0
  0
ARC
  5
34A
100
AcDbEntity
  8
0
100
AcDbCircle
 62
7
  6
CONTINUOUS
 10
11.8798183383
 20
11.1548318604
 40
0.03
100
AcDbArc
 50
0.0
 51
90.0
  0
ARC
  5
34B
100
AcDbEntity
  8
0
100
AcDbCircle
 62
7
  6
CONTINUOUS
 10
15.0698183383
 20
12.4248318604
 40
0.03
100
AcDbArc
 50
90.0
 51
180.0
  0
ARC
  5
34C
100
AcDbEntity
  8
0
100
AcDbCircle
 62
7
  6
CONTINUOUS
 10
15.6098183383
 20
12.4248318604
 40
0.03
100
AcDbArc
 50
0.0
 51
90.0
  0
ARC
  5
34D
100
AcDbEntity
  8
0
100
AcDbCircle
 62
7
  6
CONTINUOUS
 10
14.3198183383
 20
11.8548318604
 40
0.03
100
AcDbArc
 50
90.0
 51
180.0
  0
ARC
  5
34E
100
AcDbEntity
  8
0
100
AcDbCircle
 62
7
  6
CONTINUOUS
 10
11.3598183383
 20
11.8698318604
 40
0.03
100
AcDbArc
 50
0.0
 51
90.0
  0
ARC
  5
34F
100
AcDbEntity
  8
0
100
AcDbCircle
 62
7
  6
CONTINUOUS
 10
16.8798183383
 20
11.1548318604
 40
0.03
100
AcDbArc
 50
0.0
 51
90.0
  0
ARC
  5
350
100
AcDbEntity
  8
0
100
AcDbCircle
 62
7
  6
CONTINUOUS
 10
20.3398183383
 20
10.8848318604
 40
0.5475
100
AcDbArc
 50
333.0392197232
 51
206.9608529998
  0
ARC
  5
351
100
AcDbEntity
  8
0
100
AcDbCircle
 62
9
  6
CONTINUOUS
 10
20.3398183383
 20
10.8848318604
 40
0.5175
100
AcDbArc
 50
340.4310477451
 51
199.5689522549
  0
ARC
  5
352
100
AcDbEntity
  8
0
100
AcDbCircle
 62
7
  6
CONTINUOUS
 10
20.3398183383
 20
10.8848318604
 40
0.4875
100
AcDbArc
 50
0.0
 51
180.0
  0
ARC
  5
353
100
AcDbEntity
  8
0
100
AcDbCircle
 62
7
  6
CONTINUOUS
 10
19.3948183383
 20
12.0948318604
 40
0.04
100
AcDbArc
 50
90.0
 51
180.0
  0
ARC
  5
354
100
AcDbEntity
  8
0
100
AcDbCircle
 62
7
  6
CONTINUOUS
 10
21.2848183383
 20
12.0948318604
 40
0.04
100
AcDbArc
 50
0.0
 51
90.0
  0
ARC
  5
355
100
AcDbEntity
  8
0
100
AcDbCircle
 62
7
  6
CONTINUOUS
 10
16.3598183383
 20
11.8548318604
 40
0.03
100
AcDbArc
 50
0.0
 51
90.0
  0
SPLINE
  5
356
100
AcDbEntity
  8
0
100
AcDbSpline
 62
7
  6
CONTINUOUS
 70
0
 71
3
 72
21
 73
17
 74
0
 42
0.0000001
 43
0.0000001
 44
0.0000000001
 40
0.0
 40
0.0
 40
0.0
 40
0.0
 40
0.056728284
 40
0.1136686152
 40
0.1710275552
 40
0.2290007195
 40
0.2877653739
 40
0.3474716712
 40
0.4082352454
 40
0.4701301748
 40
0.5331851885
 40
0.5973816395
 40
0.7287815819
 40
0.7958475419
 40
0.8635599642
 40
1.0
 40
1.0
 40
1.0
 40
1.0
 10
19.8763183383
 20
4.5219977794
 30
0.0
 10
19.8763183383
 20
4.5198580356
 30
0.0
 10
19.8765888386
 20
4.5155657128
 30
0.0
 10
19.8777984217
 20
4.5092130218
 30
0.0
 10
19.8797923776
 20
4.5030115336
 30
0.0
 10
19.8825400918
 20
4.497030668
 30
0.0
 10
19.8860026363
 20
4.4913304423
 30
0.0
 10
19.8901353271
 20
4.4859635704
 30
0.0
 10
19.8948895523
 20
4.4809755944
 30
0.0
 10
19.9002135571
 20
4.4764062411
 30
0.0
 10
19.9060539797
 20
4.4722900078
 30
0.0
 10
19.9145148351
 20
4.4674114642
 30
0.0
 10
19.9237233103
 20
4.4636082025
 30
0.0
 10
19.9334044147
 20
4.4609175855
 30
0.0
 10
19.9434540126
 20
4.4589616305
 30
0.0
 10
19.9511719333
 20
4.4583746684
 30
0.0
 10
19.9563183383
 20
4.4583746684
 30
0.0
  0
SPLINE
  5
357
100
AcDbEntity
  8
0
100
AcDbSpline
 62
7
  6
CONTINUOUS
 70
0
 71
3
 72
21
 73
17
 74
0
 42
0.0000001
 43
0.0000001
 44
0.0000000001
 40
0.0
 40
0.0
 40
0.0
 40
0.0
 40
0.1364402416
 40
0.2041527296
 40
0.2712187228
 40
0.4026186504
 40
0.4668150606
 40
0.5298700161
 40
0.5917648744
 40
0.6525283725
 40
0.7122345972
 40
0.7709991915
 40
0.8289723195
 40
0.8863312566
 40
0.9432716229
 40
1.0
 40
1.0
 40
1.0
 40
1.0
 10
20.7233183383
 20
4.4583746684
 30
0.0
 10
20.728464751
 20
4.4583746684
 30
0.0
 10
20.736182682
 20
4.4589616323
 30
0.0
 10
20.7462322907
 20
4.4609175923
 30
0.0
 10
20.7559133974
 20
4.4636082129
 30
0.0
 10
20.7651218701
 20
4.4674114785
 30
0.0
 10
20.7735827201
 20
4.4722900228
 30
0.0
 10
20.7794231362
 20
4.4764062541
 30
0.0
 10
20.7847471338
 20
4.4809756039
 30
0.0
 10
20.7895013526
 20
4.4859635745
 30
0.0
 10
20.7936340385
 20
4.4913304402
 30
0.0
 10
20.7970965803
 20
4.49703066
 30
0.0
 10
20.7998442944
 20
4.5030115215
 30
0.0
 10
20.8018382513
 20
4.5092130091
 30
0.0
 10
20.8030478374
 20
4.5155657044
 30
0.0
 10
20.8033183383
 20
4.5198580321
 30
0.0
 10
20.8033183383
 20
4.5219977794
 30
0.0
  0
SPLINE
  5
358
100
AcDbEntity
  8
0
100
AcDbSpline
 62
7
  6
CONTINUOUS
 70
0
 71
3
 72
21
 73
17
 74
0
 42
0.0000001
 43
0.0000001
 44
0.0000000001
 40
0.0
 40
0.0
 40
0.0
 40
0.0
 40
0.1355976603
 40
0.2695198978
 40
0.3354509891
 40
0.4004718778
 40
0.4644868105
 40
0.5274423421
 40
0.5893292348
 40
0.650182875
 40
0.7100797749
 40
0.7691329088
 40
0.827483667
 40
0.8852942002
 40
0.9427393171
 40
1.0
 40
1.0
 40
1.0
 40
1.0
 10
20.7748183383
 20
10.6584044067
 30
0.0
 10
20.7789890617
 20
10.6584044067
 30
0.0
 10
20.7872921779
 20
10.6577706251
 30
0.0
 10
20.7973795872
 20
10.6553948817
 30
0.0
 10
20.8050300338
 20
10.6525704524
 30
0.0
 10
20.8104683025
 20
10.6500253498
 30
0.0
 10
20.8155848421
 20
10.6470613563
 30
0.0
 10
20.8203321886
 20
10.6436992153
 30
0.0
 10
20.8246642082
 20
10.6399628158
 30
0.0
 10
20.8285364598
 20
10.6358794506
 30
0.0
 10
20.8319060965
 20
10.6314806566
 30
0.0
 10
20.8347322729
 20
10.6268031954
 30
0.0
 10
20.8369771195
 20
10.6218902222
 30
0.0
 10
20.8386074415
 20
10.6167915415
 30
0.0
 10
20.8395969972
 20
10.6115652602
 30
0.0
 10
20.8398183383
 20
10.6080331909
 30
0.0
 10
20.8398183383
 20
10.6062719624
 30
0.0
  0
SPLINE
  5
359
100
AcDbEntity
  8
0
100
AcDbSpline
 62
7
  6
CONTINUOUS
 70
0
 71
3
 72
21
 73
17
 74
0
 42
0.0000001
 43
0.0000001
 44
0.0000000001
 40
0.0
 40
0.0
 40
0.0
 40
0.0
 40
0.0572605491
 40
0.1147056169
 40
0.1725161559
 40
0.2308669654
 40
0.2899201849
 40
0.3498171886
 40
0.4106709361
 40
0.4725579281
 40
0.5355135422
 40
0.5995285332
 40
0.6645494468
 40
0.7304805273
 40
0.8644026295
 40
1.0
 40
1.0
 40
1.0
 40
1.0
 10
19.8398183383
 20
10.6062719624
 30
0.0
 10
19.8398183383
 20
10.6080331868
 30
0.0
 10
19.8400396788
 20
10.6115652504
 30
0.0
 10
19.8410292311
 20
10.6167915268
 30
0.0
 10
19.8426595514
 20
10.6218902084
 30
0.0
 10
19.8449043987
 20
10.6268031861
 30
0.0
 10
19.8477305781
 20
10.6314806542
 30
0.0
 10
19.8511002205
 20
10.6358794554
 30
0.0
 10
19.8549724795
 20
10.6399628267
 30
0.0
 10
19.8593045071
 20
10.6436992307
 30
0.0
 10
19.8640518613
 20
10.6470613737
 30
0.0
 10
19.869168407
 20
10.6500253668
 30
0.0
 10
19.8746066791
 20
10.6525704673
 30
0.0
 10
19.8822571235
 20
10.6553948918
 30
0.0
 10
19.8923445208
 20
10.6577706274
 30
0.0
 10
19.9006476238
 20
10.6584044067
 30
0.0
 10
19.9048183383
 20
10.6584044067
 30
0.0
  0
SPLINE
  5
35A
100
AcDbEntity
  8
0
100
AcDbSpline
 62
7
  6
CONTINUOUS
 70
0
 71
3
 72
21
 73
17
 74
0
 42
0.0000001
 43
0.0000001
 44
0.0000000001
 40
0.0
 40
0.0
 40
0.0
 40
0.0
 40
0.1355976603
 40
0.2695198978
 40
0.3354509891
 40
0.4004718778
 40
0.4644868105
 40
0.5274423421
 40
0.5893292348
 40
0.650182875
 40
0.7100797749
 40
0.7691329088
 40
0.827483667
 40
0.8852942002
 40
0.9427393171
 40
1.0
 40
1.0
 40
1.0
 40
1.0
 10
19.9048183383
 20
4.4368419223
 30
0.0
 10
19.9006476149
 20
4.4368419223
 30
0.0
 10
19.8923444987
 20
4.4374757039
 30
0.0
 10
19.8822570893
 20
4.4398514474
 30
0.0
 10
19.8746066428
 20
4.4426758767
 30
0.0
 10
19.8691683741
 20
4.4452209793
 30
0.0
 10
19.8640518345
 20
4.4481849728
 30
0.0
 10
19.859304488
 20
4.4515471138
 30
0.0
 10
19.8549724684
 20
4.4552835133
 30
0.0
 10
19.8511002168
 20
4.4593668784
 30
0.0
 10
19.8477305801
 20
4.4637656724
 30
0.0
 10
19.8449044037
 20
4.4684431336
 30
0.0
 10
19.8426595571
 20
4.4733561068
 30
0.0
 10
19.841029235
 20
4.4784547876
 30
0.0
 10
19.8400396794
 20
4.4836810688
 30
0.0
 10
19.8398183383
 20
4.4872131382
 30
0.0
 10
19.8398183383
 20
4.4889743667
 30
0.0
  0
SPLINE
  5
35B
100
AcDbEntity
  8
0
100
AcDbSpline
 62
7
  6
CONTINUOUS
 70
0
 71
3
 72
21
 73
17
 74
0
 42
0.0000001
 43
0.0000001
 44
0.0000000001
 40
0.0
 40
0.0
 40
0.0
 40
0.0
 40
0.0572605491
 40
0.1147056169
 40
0.1725161559
 40
0.2308669654
 40
0.2899201849
 40
0.3498171886
 40
0.4106709361
 40
0.4725579281
 40
0.5355135422
 40
0.5995285332
 40
0.6645494468
 40
0.7304805273
 40
0.8644026295
 40
1.0
 40
1.0
 40
1.0
 40
1.0
 10
20.8398183383
 20
4.4889743667
 30
0.0
 10
20.8398183383
 20
4.4872131423
 30
0.0
 10
20.8395969978
 20
4.4836810786
 30
0.0
 10
20.8386074455
 20
4.4784548023
 30
0.0
 10
20.8369771252
 20
4.4733561207
 30
0.0
 10
20.8347322779
 20
4.468443143
 30
0.0
 10
20.8319060985
 20
4.4637656749
 30
0.0
 10
20.828536456
 20
4.4593668737
 30
0.0
 10
20.8246641971
 20
4.4552835023
 30
0.0
 10
20.8203321695
 20
4.4515470983
 30
0.0
 10
20.8155848153
 20
4.4481849554
 30
0.0
 10
20.8104682696
 20
4.4452209623
 30
0.0
 10
20.8050299974
 20
4.4426758618
 30
0.0
 10
20.7973795531
 20
4.4398514372
 30
0.0
 10
20.7872921558
 20
4.4374757016
 30
0.0
 10
20.7789890528
 20
4.4368419223
 30
0.0
 10
20.7748183383
 20
4.4368419223
 30
0.0
  0
SPLINE
  5
35C
100
AcDbEntity
  8
0
100
AcDbSpline
 62
7
  6
CONTINUOUS
 70
0
 71
3
 72
53
 73
49
 74
0
 42
0.0000001
 43
0.0000001
 44
0.0000000001
 40
0.0
 40
0.0
 40
0.0
 40
0.0
 40
0.0136807406
 40
0.02742365
 40
0.0412432028
 40
0.0551531083
 40
0.0691661885
 40
0.0832942635
 40
0.0975480486
 40
0.1119370639
 40
0.1264695701
 40
0.1411525113
 40
0.1559914733
 40
0.1709906699
 40
0.1861529324
 40
0.2014797108
 40
0.2326186988
 40
0.2644004062
 40
0.2967901652
 40
0.3297354617
 40
0.3631681338
 40
0.3970067909
 40
0.431159354
 40
0.465525682
 40
0.5000002416
 40
0.5344747976
 40
0.5688411148
 40
0.6029936603
 40
0.6368322934
 40
0.6702649356
 40
0.7032101972
 40
0.7355999171
 40
0.7673815825
 40
0.7985205266
 40
0.8138472829
 40
0.8290095233
 40
0.8440086982
 40
0.8588476388
 40
0.8735305593
 40
0.8880630456
 40
0.9024520419
 40
0.9167058093
 40
0.930833868
 40
0.9448469333
 40
0.9587568256
 40
0.972576367
 40
0.9863192669
 40
1.0
 40
1.0
 40
1.0
 40
1.0
 10
20.8253735692
 20
10.6391695491
 30
0.0
 10
20.8243781766
 20
10.6448717075
 30
0.0
 10
20.8220523204
 20
10.6562469782
 30
0.0
 10
20.8175843966
 20
10.6731247119
 30
0.0
 10
20.8121414943
 20
10.689816164
 30
0.0
 10
20.8057372676
 20
10.7062852039
 30
0.0
 10
20.7983872734
 20
10.7224976833
 30
0.0
 10
20.7901090429
 20
10.738420292
 30
0.0
 10
20.7809218871
 20
10.7540209215
 30
0.0
 10
20.770846788
 20
10.769268588
 30
0.0
 10
20.7599062835
 20
10.7841334544
 30
0.0
 10
20.7481243874
 20
10.7985868017
 30
0.0
 10
20.7355264753
 20
10.812601038
 30
0.0
 10
20.7221393637
 20
10.826149576
 30
0.0
 10
20.7079907305
 20
10.839207204
 30
0.0
 10
20.6880473864
 20
10.8560165647
 30
0.0
 10
20.6613398981
 20
10.8756570396
 30
0.0
 10
20.626926196
 20
10.8967628684
 30
0.0
 10
20.5902475769
 20
10.9153812914
 30
0.0
 10
20.5515964678
 20
10.9313744182
 30
0.0
 10
20.5112774216
 20
10.94462492
 30
0.0
 10
20.4696081491
 20
10.955034636
 30
0.0
 10
20.4269166563
 20
10.9625261912
 30
0.0
 10
20.3835390881
 20
10.9670436463
 30
0.0
 10
20.3398170901
 20
10.9685531806
 30
0.0
 10
20.2960951026
 20
10.9670434739
 30
0.0
 10
20.2527175658
 20
10.9625258483
 30
0.0
 10
20.2100261249
 20
10.9550341258
 30
0.0
 10
20.1683569241
 20
10.9446242472
 30
0.0
 10
20.1280379688
 20
10.9313735889
 30
0.0
 10
20.089386969
 20
10.9153803127
 30
0.0
 10
20.0527084763
 20
10.8967617487
 30
0.0
 10
20.0182949167
 20
10.8756557884
 30
0.0
 10
19.9915875596
 20
10.856015212
 30
0.0
 10
19.9716443274
 20
10.8392057762
 30
0.0
 10
19.957495781
 20
10.8261480954
 30
0.0
 10
19.9441087588
 20
10.8125995078
 30
0.0
 10
19.931510939
 20
10.7985852249
 30
0.0
 10
19.9197291374
 20
10.7841318342
 30
0.0
 10
19.9087887298
 20
10.7692669277
 30
0.0
 10
19.8987137298
 20
10.7540192244
 30
0.0
 10
19.8895266749
 20
10.7384185616
 30
0.0
 10
19.8812485469
 20
10.7224959228
 30
0.0
 10
19.8738986568
 20
10.7062834168
 30
0.0
 10
19.8674945355
 20
10.6898143539
 30
0.0
 10
19.8620517397
 20
10.6731228822
 30
0.0
 10
19.8575839234
 20
10.6562451325
 30
0.0
 10
19.8552581396
 20
10.6448698543
 30
0.0
 10
19.8542627833
 20
10.6391676928
 30
0.0
  0
SPLINE
  5
35D
100
AcDbEntity
  8
0
100
AcDbSpline
 62
9
  6
CONTINUOUS
 70
0
 71
3
 72
49
 73
45
 74
0
 42
0.0000001
 43
0.0000001
 44
0.0000000001
 40
0.0
 40
0.0
 40
0.0
 40
0.0
 40
0.0134441856
 40
0.0269622788
 40
0.0405708113
 40
0.054285257
 40
0.0681199001
 40
0.0820877035
 40
0.0962002112
 40
0.1104674735
 40
0.1248979962
 40
0.1394987128
 40
0.1692223553
 40
0.1996713007
 40
0.230845537
 40
0.2627226058
 40
0.2952596981
 40
0.3283960201
 40
0.3620553041
 40
0.3961483859
 40
0.430575801
 40
0.4652303774
 40
0.4999998159
 40
0.5347692571
 40
0.5694238414
 40
0.6038512695
 40
0.6379443691
 40
0.6716036754
 40
0.7047400233
 40
0.7372771448
 40
0.7691542452
 40
0.8003285147
 40
0.8307774938
 40
0.8605011695
 40
0.875101902
 40
0.8895324402
 40
0.9037997171
 40
0.9179122388
 40
0.931880055
 40
0.9457147099
 40
0.959429166
 40
0.9730377075
 40
0.9865558083
 40
1.0
 40
1.0
 40
1.0
 40
1.0
 10
19.8544172942
 20
10.6393153794
 30
0.0
 10
19.8554197107
 20
10.6448806336
 30
0.0
 10
19.8577536724
 20
10.6559861348
 30
0.0
 10
19.8622146115
 20
10.6724664383
 30
0.0
 10
19.867635014
 20
10.6887768052
 30
0.0
 10
19.8740036713
 20
10.7048836642
 30
0.0
 10
19.8813076342
 20
10.720754829
 30
0.0
 10
19.8895320255
 20
10.7363583649
 30
0.0
 10
19.8986601691
 20
10.7516630072
 30
0.0
 10
19.908673477
 20
10.7666379967
 30
0.0
 10
19.9195520203
 20
10.7812536732
 30
0.0
 10
19.9352716981
 20
10.800333536
 30
0.0
 10
19.9570142626
 20
10.8231287612
 30
0.0
 10
19.9860057215
 20
10.8484181071
 30
0.0
 10
20.0178243801
 20
10.8716133609
 30
0.0
 10
20.0522131097
 20
10.8925300301
 30
0.0
 10
20.088897032
 20
10.9110040772
 30
0.0
 10
20.1275828622
 20
10.9268898213
 30
0.0
 10
20.1679617901
 20
10.9400620252
 30
0.0
 10
20.2097116128
 20
10.9504166787
 30
0.0
 10
20.2524992759
 20
10.9578719506
 30
0.0
 10
20.295983468
 20
10.9623688735
 30
0.0
 10
20.3398173246
 20
10.9638718602
 30
0.0
 10
20.3836511894
 20
10.9623690122
 30
0.0
 10
20.4271354056
 20
10.957872227
 30
0.0
 10
20.4699231089
 20
10.9504170906
 30
0.0
 10
20.5116729872
 20
10.9400625693
 30
0.0
 10
20.552051986
 20
10.9268904932
 30
0.0
 10
20.5907379016
 20
10.9110048718
 30
0.0
 10
20.6274219233
 20
10.892530941
 30
0.0
 10
20.6618107654
 20
10.871614381
 30
0.0
 10
20.6936295488
 20
10.8484192283
 30
0.0
 10
20.7226211437
 20
10.8231299747
 30
0.0
 10
20.7443638311
 20
10.8003348188
 30
0.0
 10
20.760083612
 20
10.7812550058
 30
0.0
 10
20.7709622343
 20
10.7666393639
 30
0.0
 10
20.7809756231
 20
10.7516644062
 30
0.0
 10
20.7901038493
 20
10.736359793
 30
0.0
 10
20.7983283249
 20
10.7207562833
 30
0.0
 10
20.8056323736
 20
10.7048851417
 30
0.0
 10
20.8120011178
 20
10.688778303
 30
0.0
 10
20.8174216085
 20
10.6724679534
 30
0.0
 10
20.8218826367
 20
10.6559876641
 30
0.0
 10
20.8242166586
 20
10.6448821696
 30
0.0
 10
20.8252191051
 20
10.6393169183
 30
0.0
  0
SPLINE
  5
35E
100
AcDbEntity
  8
0
100
AcDbSpline
 62
7
  6
CONTINUOUS
 70
0
 71
3
 72
21
 73
17
 74
0
 42
0.0000001
 43
0.0000001
 44
0.0000000001
 40
0.0
 40
0.0
 40
0.0
 40
0.0
 40
0.1405209624
 40
0.2101413872
 40
0.2789542018
 40
0.413135693
 40
0.4782490607
 40
0.5418290356
 40
0.6038065512
 40
0.6641710664
 40
0.7229757105
 40
0.7803402771
 40
0.8364510745
 40
0.8915568614
 40
0.9459589494
 40
1.0
 40
1.0
 40
1.0
 40
1.0
 10
19.9563183383
 20
5.1708374228
 30
0.0
 10
19.9511011478
 20
5.1708374228
 30
0.0
 10
19.9432819359
 20
5.170252451
 30
0.0
 10
19.9331021853
 20
5.1683026677
 30
0.0
 10
19.9233316901
 20
5.1656306625
 30
0.0
 10
19.9140579431
 20
5.1618663549
 30
0.0
 10
19.9055582645
 20
5.1570484492
 30
0.0
 10
19.8997299948
 20
5.153011866
 30
0.0
 10
19.8944441187
 20
5.1485557454
 30
0.0
 10
19.8897512041
 20
5.1437216897
 30
0.0
 10
19.8856972674
 20
5.1385553488
 30
0.0
 10
19.8823223569
 20
5.1331056318
 30
0.0
 10
19.8796604337
 20
5.1274246817
 30
0.0
 10
19.8777388387
 20
5.1215670172
 30
0.0
 10
19.876577598
 20
5.1155912092
 30
0.0
 10
19.8763183383
 20
5.1115602758
 30
0.0
 10
19.8763183383
 20
5.1095538673
 30
0.0
  0
SPLINE
  5
35F
100
AcDbEntity
  8
0
100
AcDbSpline
 62
7
  6
CONTINUOUS
 70
0
 71
3
 72
21
 73
17
 74
0
 42
0.0000001
 43
0.0000001
 44
0.0000000001
 40
0.0
 40
0.0
 40
0.0
 40
0.0
 40
0.0540410506
 40
0.1084431386
 40
0.1635489255
 40
0.2196597229
 40
0.2770242895
 40
0.3358289336
 40
0.3961934488
 40
0.4581709644
 40
0.5217509393
 40
0.586864307
 40
0.7210457982
 40
0.7898586128
 40
0.8594790376
 40
1.0
 40
1.0
 40
1.0
 40
1.0
 10
20.8033183383
 20
5.1095538673
 30
0.0
 10
20.8033183383
 20
5.1115602758
 30
0.0
 10
20.8030590786
 20
5.1155912092
 30
0.0
 10
20.8018978378
 20
5.1215670172
 30
0.0
 10
20.7999762429
 20
5.1274246817
 30
0.0
 10
20.7973143197
 20
5.1331056318
 30
0.0
 10
20.7939394092
 20
5.1385553488
 30
0.0
 10
20.7898854725
 20
5.1437216897
 30
0.0
 10
20.7851925579
 20
5.1485557454
 30
0.0
 10
20.7799066818
 20
5.153011866
 30
0.0
 10
20.774078412
 20
5.1570484492
 30
0.0
 10
20.7655787335
 20
5.1618663549
 30
0.0
 10
20.7563049865
 20
5.1656306625
 30
0.0
 10
20.7465344913
 20
5.1683026677
 30
0.0
 10
20.7363547407
 20
5.170252451
 30
0.0
 10
20.7285355288
 20
5.1708374228
 30
0.0
 10
20.7233183383
 20
5.1708374228
 30
0.0
  0
SPLINE
  5
360
100
AcDbEntity
  8
0
100
AcDbSpline
 62
7
  6
CONTINUOUS
 70
0
 71
3
 72
49
 73
45
 74
0
 42
0.0000001
 43
0.0000001
 44
0.0000000001
 40
0.0
 40
0.0
 40
0.0
 40
0.0
 40
0.0134444098
 40
0.0269633766
 40
0.0405733328
 40
0.0542896531
 40
0.0681265273
 40
0.0820968234
 40
0.0962119896
 40
0.1104819879
 40
0.1249152447
 40
0.1395186163
 40
0.1692470943
 40
0.1996998363
 40
0.2308765003
 40
0.2627544367
 40
0.2952907604
 40
0.3284247069
 40
0.3620801393
 40
0.3961680899
 40
0.4305893685
 40
0.4652371088
 40
0.4999993602
 40
0.5347616208
 40
0.5694093886
 40
0.6038307123
 40
0.6379187246
 40
0.671574234
 40
0.7047082708
 40
0.7372446959
 40
0.769122742
 40
0.8002995211
 40
0.8307523801
 40
0.8604809732
 40
0.8750844004
 40
0.8895177108
 40
0.9037877604
 40
0.9179029747
 40
0.9318733157
 40
0.9457102307
 40
0.9594265876
 40
0.9730365756
 40
0.986555569
 40
1.0
 40
1.0
 40
1.0
 40
1.0
 10
20.8226019115
 20
10.6526857901
 30
0.0
 10
20.8215908975
 20
10.6582130569
 30
0.0
 10
20.8192424363
 20
10.6692422209
 30
0.0
 10
20.8147680289
 20
10.6856074765
 30
0.0
 10
20.8093422968
 20
10.7018027223
 30
0.0
 10
20.8029764267
 20
10.7177947227
 30
0.0
 10
20.7956833214
 20
10.7335516169
 30
0.0
 10
20.7874777909
 20
10.7490417951
 30
0.0
 10
20.7783764227
 20
10.7642343113
 30
0.0
 10
20.7683976939
 20
10.7790987221
 30
0.0
 10
20.7575614052
 20
10.793605674
 30
0.0
 10
20.7419085725
 20
10.812542509
 30
0.0
 10
20.7202684984
 20
10.8351650199
 30
0.0
 10
20.6914268247
 20
10.8602608431
 30
0.0
 10
20.6597837843
 20
10.8832769023
 30
0.0
 10
20.625594325
 20
10.9040306583
 30
0.0
 10
20.5891309257
 20
10.9223598169
 30
0.0
 10
20.5506842528
 20
10.9381202549
 30
0.0
 10
20.5105603124
 20
10.9511880788
 30
0.0
 10
20.4690783363
 20
10.9614604004
 30
0.0
 10
20.42656828
 20
10.9688562725
 30
0.0
 10
20.38336825
 20
10.9733173666
 30
0.0
 10
20.3398218414
 20
10.9748084812
 30
0.0
 10
20.296275405
 20
10.9733178454
 30
0.0
 10
20.2530752916
 20
10.9688572263
 30
0.0
 10
20.2105650971
 20
10.9614618217
 30
0.0
 10
20.1690829291
 20
10.9511899564
 30
0.0
 10
20.1289587445
 20
10.938122574
 30
0.0
 10
20.0905117771
 20
10.9223625592
 30
0.0
 10
20.0540480354
 20
10.9040338023
 30
0.0
 10
20.0198581883
 20
10.8832804233
 30
0.0
 10
19.9882147178
 20
10.8602647135
 30
0.0
 10
19.9593725749
 20
10.8351692093
 30
0.0
 10
19.9377320773
 20
10.8125469379
 30
0.0
 10
19.9220788891
 20
10.7936102753
 30
0.0
 10
19.9112423283
 20
10.779103443
 30
0.0
 10
19.9012633207
 20
10.7642391424
 30
0.0
 10
19.8921616675
 20
10.7490467268
 30
0.0
 10
19.8839558464
 20
10.7335566394
 30
0.0
 10
19.8766624454
 20
10.7177998258
 30
0.0
 10
19.8702962752
 20
10.7018078959
 30
0.0
 10
19.864870239
 20
10.6856127101
 30
0.0
 10
19.8603955243
 20
10.6692475041
 30
0.0
 10
19.8580468556
 20
10.6582183638
 30
0.0
 10
19.8570357377
 20
10.6526911071
 30
0.0
  0
SPLINE
  5
361
100
AcDbEntity
  8
0
100
AcDbSpline
 62
9
  6
CONTINUOUS
 70
0
 71
3
 72
53
 73
49
 74
0
 42
0.0000001
 43
0.0000001
 44
0.0000000001
 40
0.0
 40
0.0
 40
0.0
 40
0.0
 40
0.0135004564
 40
0.0270237175
 40
0.0405923244
 40
0.0542280836
 40
0.067951883
 40
0.0817833568
 40
0.0957406667
 40
0.1098402922
 40
0.1240968715
 40
0.1385230792
 40
0.1531295447
 40
0.1679248056
 40
0.1829152943
 40
0.1981053516
 40
0.2290821675
 40
0.2608599128
 40
0.2934040566
 40
0.3266539787
 40
0.3605265136
 40
0.3949196701
 40
0.4297164126
 40
0.4647884487
 40
0.5
 40
0.5352115513
 40
0.5702835874
 40
0.6050803299
 40
0.6394734864
 40
0.6733460213
 40
0.7065959434
 40
0.7391400872
 40
0.7709178325
 40
0.8018946484
 40
0.8170847057
 40
0.8320751944
 40
0.8468704553
 40
0.8614769208
 40
0.8759031285
 40
0.8901597078
 40
0.9042593333
 40
0.9182166432
 40
0.932048117
 40
0.9457719164
 40
0.9594076756
 40
0.9729762825
 40
0.9864995436
 40
1.0
 40
1.0
 40
1.0
 40
1.0
 10
20.8273183383
 20
10.7327607484
 30
0.0
 10
20.8273183383
 20
10.7388719415
 30
0.0
 10
20.8269259309
 20
10.7511082643
 30
0.0
 10
20.8251620415
 20
10.7694100994
 30
0.0
 10
20.8222270956
 20
10.7876236804
 30
0.0
 10
20.8181283409
 20
10.8057038298
 30
0.0
 10
20.8128759141
 20
10.823606985
 30
0.0
 10
20.8064827551
 20
10.8412897463
 30
0.0
 10
20.7989645838
 20
10.8587094023
 30
0.0
 10
20.7903398334
 20
10.87582392
 30
0.0
 10
20.7806295928
 20
10.8925920742
 30
0.0
 10
20.7698575529
 20
10.9089735213
 30
0.0
 10
20.7580498958
 20
10.9249289264
 30
0.0
 10
20.7452354003
 20
10.9404199027
 30
0.0
 10
20.7314447035
 20
10.9554096444
 30
0.0
 10
20.7116747232
 20
10.9748029612
 30
0.0
 10
20.6846520124
 20
10.9975842735
 30
0.0
 10
20.6491397693
 20
11.0221796466
 30
0.0
 10
20.6106655228
 20
11.0439874162
 30
0.0
 10
20.5696007105
 20
11.0628000716
 30
0.0
 10
20.5263380234
 20
11.0784409126
 30
0.0
 10
20.4812915974
 20
11.0907621144
 30
0.0
 10
20.434892236
 20
11.0996472481
 30
0.0
 10
20.3875836799
 20
11.1050122133
 30
0.0
 10
20.3398183383
 20
11.1068062013
 30
0.0
 10
20.2920529967
 20
11.1050122133
 30
0.0
 10
20.2447444406
 20
11.0996472481
 30
0.0
 10
20.1983450792
 20
11.0907621144
 30
0.0
 10
20.1532986531
 20
11.0784409126
 30
0.0
 10
20.1100359661
 20
11.0628000716
 30
0.0
 10
20.0689711538
 20
11.0439874162
 30
0.0
 10
20.0304969072
 20
11.0221796466
 30
0.0
 10
19.9949846642
 20
10.9975842735
 30
0.0
 10
19.9679619533
 20
10.9748029612
 30
0.0
 10
19.948191973
 20
10.9554096444
 30
0.0
 10
19.9344012763
 20
10.9404199027
 30
0.0
 10
19.9215867808
 20
10.9249289264
 30
0.0
 10
19.9097791237
 20
10.9089735213
 30
0.0
 10
19.8990070838
 20
10.8925920742
 30
0.0
 10
19.8892968431
 20
10.87582392
 30
0.0
 10
19.8806720927
 20
10.8587094023
 30
0.0
 10
19.8731539215
 20
10.8412897463
 30
0.0
 10
19.8667607625
 20
10.823606985
 30
0.0
 10
19.8615083357
 20
10.8057038298
 30
0.0
 10
19.857409581
 20
10.7876236804
 30
0.0
 10
19.8544746351
 20
10.7694100994
 30
0.0
 10
19.8527107456
 20
10.7511082643
 30
0.0
 10
19.8523183383
 20
10.7388719415
 30
0.0
 10
19.8523183383
 20
10.7327607484
 30
0.0
  0
SPLINE
  5
362
100
AcDbEntity
  8
0
100
AcDbSpline
 62
9
  6
CONTINUOUS
 70
0
 71
3
 72
21
 73
17
 74
0
 42
0.0000001
 43
0.0000001
 44
0.0000000001
 40
0.0
 40
0.0
 40
0.0
 40
0.0
 40
0.0540408139
 40
0.1084428591
 40
0.1635486853
 40
0.2196595539
 40
0.2770241592
 40
0.3358288288
 40
0.3961933886
 40
0.4581709642
 40
0.5217510023
 40
0.5868644219
 40
0.7210460017
 40
0.7898589114
 40
0.8594793935
 40
1.0
 40
1.0
 40
1.0
 40
1.0
 10
20.7933183383
 20
5.1031259912
 30
0.0
 10
20.7933183383
 20
5.104881591
 30
0.0
 10
20.7930914871
 20
5.1084086485
 30
0.0
 10
20.7920754072
 20
5.1136374736
 30
0.0
 10
20.7903940133
 20
5.1187629331
 30
0.0
 10
20.7880648304
 20
5.1237337696
 30
0.0
 10
20.785111783
 20
5.1285022769
 30
0.0
 10
20.7815645872
 20
5.1330228287
 30
0.0
 10
20.7774582844
 20
5.137252631
 30
0.0
 10
20.7728331389
 20
5.1411517403
 30
0.0
 10
20.7677333979
 20
5.1446837535
 30
0.0
 10
20.760296173
 20
5.1488994236
 30
0.0
 10
20.7521816364
 20
5.1521931937
 30
0.0
 10
20.7436324449
 20
5.1545311981
 30
0.0
 10
20.734725169
 20
5.1562372543
 30
0.0
 10
20.7278833684
 20
5.1567491022
 30
0.0
 10
20.7233183383
 20
5.1567491022
 30
0.0
  0
SPLINE
  5
363
100
AcDbEntity
  8
0
100
AcDbSpline
 62
9
  6
CONTINUOUS
 70
0
 71
3
 72
21
 73
17
 74
0
 42
0.0000001
 43
0.0000001
 44
0.0000000001
 40
0.0
 40
0.0
 40
0.0
 40
0.0
 40
0.1405206065
 40
0.2101410886
 40
0.2789539983
 40
0.413135578
 40
0.4782489977
 40
0.5418290358
 40
0.6038066114
 40
0.6641711712
 40
0.7229758408
 40
0.780340446
 40
0.8364513147
 40
0.8915571408
 40
0.945959186
 40
1.0
 40
1.0
 40
1.0
 40
1.0
 10
20.7233183383
 20
4.4619467923
 30
0.0
 10
20.7278833684
 20
4.4619467923
 30
0.0
 10
20.734725169
 20
4.4624586402
 30
0.0
 10
20.7436324449
 20
4.4641646964
 30
0.0
 10
20.7521816364
 20
4.4665027009
 30
0.0
 10
20.760296173
 20
4.4697964709
 30
0.0
 10
20.7677333979
 20
4.474012141
 30
0.0
 10
20.7728331389
 20
4.4775441543
 30
0.0
 10
20.7774582844
 20
4.4814432636
 30
0.0
 10
20.7815645872
 20
4.4856730658
 30
0.0
 10
20.785111783
 20
4.4901936177
 30
0.0
 10
20.7880648304
 20
4.4949621249
 30
0.0
 10
20.7903940133
 20
4.4999329615
 30
0.0
 10
20.7920754072
 20
4.5050584209
 30
0.0
 10
20.7930914871
 20
4.5102872461
 30
0.0
 10
20.7933183383
 20
4.5138143036
 30
0.0
 10
20.7933183383
 20
4.5155699033
 30
0.0
  0
SPLINE
  5
364
100
AcDbEntity
  8
0
100
AcDbSpline
 62
9
  6
CONTINUOUS
 70
0
 71
3
 72
21
 73
17
 74
0
 42
0.0000001
 43
0.0000001
 44
0.0000000001
 40
0.0
 40
0.0
 40
0.0
 40
0.0
 40
0.0540408139
 40
0.1084428591
 40
0.1635486853
 40
0.2196595539
 40
0.2770241592
 40
0.3358288288
 40
0.3961933886
 40
0.4581709642
 40
0.5217510023
 40
0.5868644219
 40
0.7210460017
 40
0.7898589114
 40
0.8594793935
 40
1.0
 40
1.0
 40
1.0
 40
1.0
 10
19.8863183383
 20
4.5155699033
 30
0.0
 10
19.8863183383
 20
4.5138143036
 30
0.0
 10
19.8865451895
 20
4.5102872461
 30
0.0
 10
19.8875612694
 20
4.5050584209
 30
0.0
 10
19.8892426632
 20
4.4999329615
 30
0.0
 10
19.8915718462
 20
4.4949621249
 30
0.0
 10
19.8945248936
 20
4.4901936177
 30
0.0
 10
19.8980720893
 20
4.4856730658
 30
0.0
 10
19.9021783922
 20
4.4814432636
 30
0.0
 10
19.9068035377
 20
4.4775441543
 30
0.0
 10
19.9119032786
 20
4.474012141
 30
0.0
 10
19.9193405036
 20
4.4697964709
 30
0.0
 10
19.9274550402
 20
4.4665027009
 30
0.0
 10
19.9360042316
 20
4.4641646964
 30
0.0
 10
19.9449115075
 20
4.4624586402
 30
0.0
 10
19.9517533081
 20
4.4619467923
 30
0.0
 10
19.9563183383
 20
4.4619467923
 30
0.0
  0
SPLINE
  5
365
100
AcDbEntity
  8
0
100
AcDbSpline
 62
9
  6
CONTINUOUS
 70
0
 71
3
 72
21
 73
17
 74
0
 42
0.0000001
 43
0.0000001
 44
0.0000000001
 40
0.0
 40
0.0
 40
0.0
 40
0.0
 40
0.1405206065
 40
0.2101410886
 40
0.2789539983
 40
0.413135578
 40
0.4782489977
 40
0.5418290358
 40
0.6038066114
 40
0.6641711712
 40
0.7229758408
 40
0.780340446
 40
0.8364513147
 40
0.8915571408
 40
0.945959186
 40
1.0
 40
1.0
 40
1.0
 40
1.0
 10
19.9563183383
 20
5.1567491022
 30
0.0
 10
19.9517533081
 20
5.1567491022
 30
0.0
 10
19.9449115075
 20
5.1562372543
 30
0.0
 10
19.9360042316
 20
5.1545311981
 30
0.0
 10
19.9274550402
 20
5.1521931937
 30
0.0
 10
19.9193405036
 20
5.1488994236
 30
0.0
 10
19.9119032786
 20
5.1446837535
 30
0.0
 10
19.9068035377
 20
5.1411517403
 30
0.0
 10
19.9021783922
 20
5.137252631
 30
0.0
 10
19.8980720893
 20
5.1330228287
 30
0.0
 10
19.8945248936
 20
5.1285022769
 30
0.0
 10
19.8915718462
 20
5.1237337696
 30
0.0
 10
19.8892426632
 20
5.1187629331
 30
0.0
 10
19.8875612694
 20
5.1136374736
 30
0.0
 10
19.8865451895
 20
5.1084086485
 30
0.0
 10
19.8863183383
 20
5.104881591
 30
0.0
 10
19.8863183383
 20
5.1031259912
 30
0.0
  0
SPLINE
  5
366
100
AcDbEntity
  8
0
100
AcDbSpline
 62
9
  6
CONTINUOUS
 70
0
 71
3
 72
17
 73
13
 74
0
 42
0.0000001
 43
0.0000001
 44
0.0000000001
 40
0.0
 40
0.0
 40
0.0
 40
0.0
 40
0.149897536
 40
0.296452072
 40
0.4366287931
 40
0.5680043492
 40
0.68913532
 40
0.7999626206
 40
0.8520861032
 40
0.9024418612
 40
0.951549399
 40
1.0
 40
1.0
 40
1.0
 40
1.0
 10
20.7933183383
 20
4.5155699033
 30
0.0
 10
20.7939699494
 20
4.5155699033
 30
0.0
 10
20.7952601682
 20
4.5156506206
 30
0.0
 10
20.7971290572
 20
4.5160107959
 30
0.0
 10
20.7988562498
 20
4.5165964917
 30
0.0
 10
20.8003776571
 20
4.5173873921
 30
0.0
 10
20.8016368021
 20
4.5183560499
 30
0.0
 10
20.8024440084
 20
4.5193070867
 30
0.0
 10
20.8028981966
 20
4.520118319
 30
0.0
 10
20.8031396357
 20
4.5207338775
 30
0.0
 10
20.8032856571
 20
4.5213623777
 30
0.0
 10
20.8033183383
 20
4.5217871626
 30
0.0
 10
20.8033183383
 20
4.5219977794
 30
0.0
  0
SPLINE
  5
367
100
AcDbEntity
  8
0
100
AcDbSpline
 62
9
  6
CONTINUOUS
 70
0
 71
3
 72
17
 73
13
 74
0
 42
0.0000001
 43
0.0000001
 44
0.0000000001
 40
0.0
 40
0.0
 40
0.0
 40
0.0
 40
0.149897536
 40
0.296452072
 40
0.4366287931
 40
0.5680043492
 40
0.68913532
 40
0.7999626206
 40
0.8520861032
 40
0.9024418612
 40
0.951549399
 40
1.0
 40
1.0
 40
1.0
 40
1.0
 10
19.8863183383
 20
4.5155699033
 30
0.0
 10
19.8856667272
 20
4.5155699033
 30
0.0
 10
19.8843765084
 20
4.5156506206
 30
0.0
 10
19.8825076194
 20
4.5160107959
 30
0.0
 10
19.8807804267
 20
4.5165964917
 30
0.0
 10
19.8792590195
 20
4.5173873921
 30
0.0
 10
19.8779998745
 20
4.5183560499
 30
0.0
 10
19.8771926682
 20
4.5193070867
 30
0.0
 10
19.8767384799
 20
4.520118319
 30
0.0
 10
19.8764970409
 20
4.5207338775
 30
0.0
 10
19.8763510195
 20
4.5213623777
 30
0.0
 10
19.8763183383
 20
4.5217871626
 30
0.0
 10
19.8763183383
 20
4.5219977794
 30
0.0
  0
SPLINE
  5
368
100
AcDbEntity
  8
0
100
AcDbSpline
 62
9
  6
CONTINUOUS
 70
0
 71
3
 72
17
 73
13
 74
0
 42
0.0000001
 43
0.0000001
 44
0.0000000001
 40
0.0
 40
0.0
 40
0.0
 40
0.0
 40
0.149897536
 40
0.296452072
 40
0.4366287931
 40
0.5680043492
 40
0.68913532
 40
0.7999626206
 40
0.8520861032
 40
0.9024418612
 40
0.951549399
 40
1.0
 40
1.0
 40
1.0
 40
1.0
 10
19.8863183383
 20
5.1031259912
 30
0.0
 10
19.8856667272
 20
5.1031259912
 30
0.0
 10
19.8843765084
 20
5.1032067085
 30
0.0
 10
19.8825076194
 20
5.1035668838
 30
0.0
 10
19.8807804267
 20
5.1041525796
 30
0.0
 10
19.8792590195
 20
5.10494348
 30
0.0
 10
19.8779998745
 20
5.1059121378
 30
0.0
 10
19.8771926682
 20
5.1068631746
 30
0.0
 10
19.8767384799
 20
5.1076744069
 30
0.0
 10
19.8764970409
 20
5.1082899654
 30
0.0
 10
19.8763510195
 20
5.1089184656
 30
0.0
 10
19.8763183383
 20
5.1093432504
 30
0.0
 10
19.8763183383
 20
5.1095538673
 30
0.0
  0
SPLINE
  5
369
100
AcDbEntity
  8
0
100
AcDbSpline
 62
9
  6
CONTINUOUS
 70
0
 71
3
 72
17
 73
13
 74
0
 42
0.0000001
 43
0.0000001
 44
0.0000000001
 40
0.0
 40
0.0
 40
0.0
 40
0.0
 40
0.149897536
 40
0.296452072
 40
0.4366287931
 40
0.5680043492
 40
0.68913532
 40
0.7999626206
 40
0.8520861032
 40
0.9024418612
 40
0.951549399
 40
1.0
 40
1.0
 40
1.0
 40
1.0
 10
20.7933183383
 20
5.1031259912
 30
0.0
 10
20.7939699494
 20
5.1031259912
 30
0.0
 10
20.7952601682
 20
5.1032067085
 30
0.0
 10
20.7971290572
 20
5.1035668838
 30
0.0
 10
20.7988562498
 20
5.1041525796
 30
0.0
 10
20.8003776571
 20
5.10494348
 30
0.0
 10
20.8016368021
 20
5.1059121378
 30
0.0
 10
20.8024440084
 20
5.1068631746
 30
0.0
 10
20.8028981966
 20
5.1076744069
 30
0.0
 10
20.8031396357
 20
5.1082899654
 30
0.0
 10
20.8032856571
 20
5.1089184656
 30
0.0
 10
20.8033183383
 20
5.1093432504
 30
0.0
 10
20.8033183383
 20
5.1095538673
 30
0.0
  0
SPLINE
  5
36A
100
AcDbEntity
  8
0
100
AcDbSpline
 62
9
  6
CONTINUOUS
 70
0
 71
3
 72
13
 73
9
 74
0
 42
0.0000001
 43
0.0000001
 44
0.0000000001
 40
0.0
 40
0.0
 40
0.0
 40
0.0
 40
0.2488728996
 40
0.3743003152
 40
0.5
 40
0.6256996848
 40
0.7511271004
 40
1.0
 40
1.0
 40
1.0
 40
1.0
 10
20.1996935159
 20
10.6584403755
 30
0.0
 10
20.2225393585
 20
10.6636632233
 30
0.0
 10
20.2573933293
 20
10.669538492
 30
0.0
 10
20.3043283878
 20
10.6734593047
 30
0.0
 10
20.3398183383
 20
10.6744445702
 30
0.0
 10
20.3753082888
 20
10.6734593047
 30
0.0
 10
20.4222433473
 20
10.669538492
 30
0.0
 10
20.4570973181
 20
10.6636632233
 30
0.0
 10
20.4799431607
 20
10.6584403755
 30
0.0
  0
SPLINE
  5
36B
100
AcDbEntity
  8
0
100
AcDbSpline
 62
9
  6
CONTINUOUS
 70
0
 71
3
 72
21
 73
17
 74
0
 42
0.0000001
 43
0.0000001
 44
0.0000000001
 40
0.0
 40
0.0
 40
0.0
 40
0.0
 40
0.1405209101
 40
0.210141402
 40
0.2789542058
 40
0.4131356797
 40
0.4782490572
 40
0.5418290495
 40
0.603806547
 40
0.6641710534
 40
0.7229757144
 40
0.7803402856
 40
0.8364510571
 40
0.8915568971
 40
0.9459589193
 40
1.0
 40
1.0
 40
1.0
 40
1.0
 10
20.7748183383
 20
10.6560648512
 30
0.0
 10
20.779057304
 20
10.6560648511
 30
0.0
 10
20.7854104141
 20
10.6555895604
 30
0.0
 10
20.7936814607
 20
10.6540053591
 30
0.0
 10
20.8016199922
 20
10.6518343652
 30
0.0
 10
20.8091549061
 20
10.6487758522
 30
0.0
 10
20.8160608966
 20
10.6448613079
 30
0.0
 10
20.8207963724
 20
10.6415815926
 30
0.0
 10
20.8250911401
 20
10.6379609868
 30
0.0
 10
20.8289041288
 20
10.6340333135
 30
0.0
 10
20.8321979606
 20
10.6298356678
 30
0.0
 10
20.8349400771
 20
10.6254077733
 30
0.0
 10
20.837102882
 20
10.6207919968
 30
0.0
 10
20.8386641782
 20
10.6160326463
 30
0.0
 10
20.8396076918
 20
10.6111773026
 30
0.0
 10
20.8398183383
 20
10.6079021702
 30
0.0
 10
20.8398183383
 20
10.6062719624
 30
0.0
  0
SPLINE
  5
36C
100
AcDbEntity
  8
0
100
AcDbSpline
 62
9
  6
CONTINUOUS
 70
0
 71
3
 72
21
 73
17
 74
0
 42
0.0000001
 43
0.0000001
 44
0.0000000001
 40
0.0
 40
0.0
 40
0.0
 40
0.0
 40
0.0540410807
 40
0.1084431029
 40
0.1635489429
 40
0.2196597144
 40
0.2770242856
 40
0.3358289466
 40
0.396193453
 40
0.4581709505
 40
0.5217509428
 40
0.5868643203
 40
0.7210457942
 40
0.789858598
 40
0.8594790899
 40
1.0
 40
1.0
 40
1.0
 40
1.0
 10
20.8398183383
 20
5.1554330322
 30
0.0
 10
20.8398183383
 20
5.15706324
 30
0.0
 10
20.8396076918
 20
5.1603383725
 30
0.0
 10
20.8386641782
 20
5.1651937161
 30
0.0
 10
20.837102882
 20
5.1699530667
 30
0.0
 10
20.8349400771
 20
5.1745688431
 30
0.0
 10
20.8321979606
 20
5.1789967376
 30
0.0
 10
20.8289041288
 20
5.1831943833
 30
0.0
 10
20.8250911401
 20
5.1871220566
 30
0.0
 10
20.8207963724
 20
5.1907426625
 30
0.0
 10
20.8160608966
 20
5.1940223778
 30
0.0
 10
20.8091549061
 20
5.1979369221
 30
0.0
 10
20.8016199922
 20
5.200995435
 30
0.0
 10
20.7936814607
 20
5.203166429
 30
0.0
 10
20.7854104141
 20
5.2047506303
 30
0.0
 10
20.779057304
 20
5.205225921
 30
0.0
 10
20.7748183383
 20
5.205225921
 30
0.0
  0
SPLINE
  5
36D
100
AcDbEntity
  8
0
100
AcDbSpline
 62
9
  6
CONTINUOUS
 70
0
 71
3
 72
21
 73
17
 74
0
 42
0.0000001
 43
0.0000001
 44
0.0000000001
 40
0.0
 40
0.0
 40
0.0
 40
0.0
 40
0.0540410807
 40
0.1084431029
 40
0.1635489429
 40
0.2196597144
 40
0.2770242856
 40
0.3358289466
 40
0.396193453
 40
0.4581709505
 40
0.5217509428
 40
0.5868643203
 40
0.7210457942
 40
0.789858598
 40
0.8594790899
 40
1.0
 40
1.0
 40
1.0
 40
1.0
 10
19.8398183383
 20
10.6062719624
 30
0.0
 10
19.8398183383
 20
10.6079021702
 30
0.0
 10
19.8400289848
 20
10.6111773026
 30
0.0
 10
19.8409724983
 20
10.6160326463
 30
0.0
 10
19.8425337945
 20
10.6207919968
 30
0.0
 10
19.8446965995
 20
10.6254077733
 30
0.0
 10
19.847438716
 20
10.6298356678
 30
0.0
 10
19.8507325478
 20
10.6340333135
 30
0.0
 10
19.8545455364
 20
10.6379609868
 30
0.0
 10
19.8588403042
 20
10.6415815926
 30
0.0
 10
19.8635757799
 20
10.6448613079
 30
0.0
 10
19.8704817704
 20
10.6487758522
 30
0.0
 10
19.8780166844
 20
10.6518343652
 30
0.0
 10
19.8859552159
 20
10.6540053591
 30
0.0
 10
19.8942262625
 20
10.6555895604
 30
0.0
 10
19.9005793726
 20
10.6560648511
 30
0.0
 10
19.9048183383
 20
10.6560648512
 30
0.0
  0
SPLINE
  5
36E
100
AcDbEntity
  8
0
100
AcDbSpline
 62
9
  6
CONTINUOUS
 70
0
 71
3
 72
21
 73
17
 74
0
 42
0.0000001
 43
0.0000001
 44
0.0000000001
 40
0.0
 40
0.0
 40
0.0
 40
0.0
 40
0.1405209101
 40
0.210141402
 40
0.2789542058
 40
0.4131356797
 40
0.4782490572
 40
0.5418290495
 40
0.603806547
 40
0.6641710534
 40
0.7229757144
 40
0.7803402856
 40
0.8364510571
 40
0.8915568971
 40
0.9459589193
 40
1.0
 40
1.0
 40
1.0
 40
1.0
 10
19.9048183383
 20
5.205225921
 30
0.0
 10
19.9005793726
 20
5.205225921
 30
0.0
 10
19.8942262625
 20
5.2047506303
 30
0.0
 10
19.8859552159
 20
5.203166429
 30
0.0
 10
19.8780166844
 20
5.200995435
 30
0.0
 10
19.8704817704
 20
5.1979369221
 30
0.0
 10
19.8635757799
 20
5.1940223778
 30
0.0
 10
19.8588403042
 20
5.1907426625
 30
0.0
 10
19.8545455364
 20
5.1871220566
 30
0.0
 10
19.8507325478
 20
5.1831943833
 30
0.0
 10
19.847438716
 20
5.1789967376
 30
0.0
 10
19.8446965995
 20
5.1745688431
 30
0.0
 10
19.8425337945
 20
5.1699530667
 30
0.0
 10
19.8409724983
 20
5.1651937161
 30
0.0
 10
19.8400289848
 20
5.1603383725
 30
0.0
 10
19.8398183383
 20
5.15706324
 30
0.0
 10
19.8398183383
 20
5.1554330322
 30
0.0
  0
SPLINE
  5
36F
100
AcDbEntity
  8
0
100
AcDbSpline
 62
9
  6
CONTINUOUS
 70
0
 71
3
 72
21
 73
17
 74
0
 42
0.0000001
 43
0.0000001
 44
0.0000000001
 40
0.0
 40
0.0
 40
0.0
 40
0.0
 40
0.0540403944
 40
0.1084421298
 40
0.1635479189
 40
0.2196588609
 40
0.2770237044
 40
0.3358286449
 40
0.3961933429
 40
0.4581709499
 40
0.5217510572
 40
0.5868646537
 40
0.7210468215
 40
0.7898598702
 40
0.8594803304
 40
1.0
 40
1.0
 40
1.0
 40
1.0
 10
20.8298183383
 20
5.1490051561
 30
0.0
 10
20.8298183383
 20
5.1503845452
 30
0.0
 10
20.8296401018
 20
5.1531557861
 30
0.0
 10
20.8288417589
 20
5.1572641298
 30
0.0
 10
20.8275206724
 20
5.1612912716
 30
0.0
 10
20.8256906094
 20
5.165196941
 30
0.0
 10
20.823370352
 20
5.1689436397
 30
0.0
 10
20.8205832551
 20
5.1724955114
 30
0.0
 10
20.8173568709
 20
5.1758189392
 30
0.0
 10
20.8137228287
 20
5.1788825359
 30
0.0
 10
20.8097158782
 20
5.1816576858
 30
0.0
 10
20.8038723236
 20
5.1849700034
 30
0.0
 10
20.7974965971
 20
5.1875579815
 30
0.0
 10
20.7907793536
 20
5.1893949747
 30
0.0
 10
20.7837807995
 20
5.1907354376
 30
0.0
 10
20.7784051237
 20
5.1911376005
 30
0.0
 10
20.7748183383
 20
5.1911376005
 30
0.0
  0
SPLINE
  5
370
100
AcDbEntity
  8
0
100
AcDbSpline
 62
9
  6
CONTINUOUS
 70
0
 71
3
 72
17
 73
13
 74
0
 42
0.0000001
 43
0.0000001
 44
0.0000000001
 40
0.0
 40
0.0
 40
0.0
 40
0.0
 40
0.1498975234
 40
0.296452047
 40
0.4366287563
 40
0.5680043013
 40
0.6891352619
 40
0.7999625525
 40
0.852086034
 40
0.9024417769
 40
0.9515493348
 40
1.0
 40
1.0
 40
1.0
 40
1.0
 10
20.8298183383
 20
5.1490051561
 30
0.0
 10
20.8304699494
 20
5.1490051561
 30
0.0
 10
20.8317601682
 20
5.1490858734
 30
0.0
 10
20.8336290572
 20
5.1494460487
 30
0.0
 10
20.8353562498
 20
5.1500317445
 30
0.0
 10
20.8368776571
 20
5.1508226449
 30
0.0
 10
20.838136802
 20
5.1517913027
 30
0.0
 10
20.8389440084
 20
5.1527423395
 30
0.0
 10
20.8393981966
 20
5.1535535718
 30
0.0
 10
20.8396396358
 20
5.1541691303
 30
0.0
 10
20.8397856571
 20
5.1547976309
 30
0.0
 10
20.8398183383
 20
5.1552224162
 30
0.0
 10
20.8398183383
 20
5.1554330333
 30
0.0
  0
SPLINE
  5
371
100
AcDbEntity
  8
0
100
AcDbSpline
 62
9
  6
CONTINUOUS
 70
0
 71
3
 72
17
 73
13
 74
0
 42
0.0000001
 43
0.0000001
 44
0.0000000001
 40
0.0
 40
0.0
 40
0.0
 40
0.0
 40
0.149897536
 40
0.296452072
 40
0.4366287931
 40
0.5680043492
 40
0.68913532
 40
0.7999626206
 40
0.8520861032
 40
0.9024418612
 40
0.951549399
 40
1.0
 40
1.0
 40
1.0
 40
1.0
 10
20.8298183383
 20
4.4825464906
 30
0.0
 10
20.8304699494
 20
4.4825464906
 30
0.0
 10
20.8317601682
 20
4.4826272079
 30
0.0
 10
20.8336290572
 20
4.4829873832
 30
0.0
 10
20.8353562498
 20
4.483573079
 30
0.0
 10
20.8368776571
 20
4.4843639794
 30
0.0
 10
20.8381368021
 20
4.4853326372
 30
0.0
 10
20.8389440084
 20
4.486283674
 30
0.0
 10
20.8393981966
 20
4.4870949063
 30
0.0
 10
20.8396396357
 20
4.4877104648
 30
0.0
 10
20.8397856571
 20
4.488338965
 30
0.0
 10
20.8398183383
 20
4.4887637498
 30
0.0
 10
20.8398183383
 20
4.4889743667
 30
0.0
  0
SPLINE
  5
372
100
AcDbEntity
  8
0
100
AcDbSpline
 62
9
  6
CONTINUOUS
 70
0
 71
3
 72
21
 73
17
 74
0
 42
0.0000001
 43
0.0000001
 44
0.0000000001
 40
0.0
 40
0.0
 40
0.0
 40
0.0
 40
0.1405196696
 40
0.2101401297
 40
0.2789531785
 40
0.4131353463
 40
0.4782489428
 40
0.5418290501
 40
0.6038066571
 40
0.6641713551
 40
0.7229762956
 40
0.780341139
 40
0.8364520811
 40
0.8915578702
 40
0.9459596056
 40
1.0
 40
1.0
 40
1.0
 40
1.0
 10
20.7748183383
 20
4.4404140462
 30
0.0
 10
20.7784051237
 20
4.4404140462
 30
0.0
 10
20.7837807995
 20
4.4408162091
 30
0.0
 10
20.7907793536
 20
4.442156672
 30
0.0
 10
20.7974965971
 20
4.4439936652
 30
0.0
 10
20.8038723236
 20
4.4465816433
 30
0.0
 10
20.8097158782
 20
4.4498939609
 30
0.0
 10
20.8137228287
 20
4.4526691109
 30
0.0
 10
20.8173568709
 20
4.4557327076
 30
0.0
 10
20.8205832551
 20
4.4590561354
 30
0.0
 10
20.823370352
 20
4.462608007
 30
0.0
 10
20.8256906094
 20
4.4663547058
 30
0.0
 10
20.8275206724
 20
4.4702603752
 30
0.0
 10
20.8288417589
 20
4.4742875169
 30
0.0
 10
20.8296401018
 20
4.4783958606
 30
0.0
 10
20.8298183383
 20
4.4811671015
 30
0.0
 10
20.8298183383
 20
4.4825464906
 30
0.0
  0
SPLINE
  5
373
100
AcDbEntity
  8
0
100
AcDbSpline
 62
9
  6
CONTINUOUS
 70
0
 71
3
 72
21
 73
17
 74
0
 42
0.0000001
 43
0.0000001
 44
0.0000000001
 40
0.0
 40
0.0
 40
0.0
 40
0.0
 40
0.0540403944
 40
0.1084421298
 40
0.1635479189
 40
0.2196588609
 40
0.2770237044
 40
0.3358286449
 40
0.3961933429
 40
0.4581709499
 40
0.5217510572
 40
0.5868646537
 40
0.7210468215
 40
0.7898598702
 40
0.8594803304
 40
1.0
 40
1.0
 40
1.0
 40
1.0
 10
19.8498183383
 20
4.4825464906
 30
0.0
 10
19.8498183383
 20
4.4811671015
 30
0.0
 10
19.8499965747
 20
4.4783958606
 30
0.0
 10
19.8507949176
 20
4.4742875169
 30
0.0
 10
19.8521160041
 20
4.4702603752
 30
0.0
 10
19.8539460672
 20
4.4663547058
 30
0.0
 10
19.8562663246
 20
4.462608007
 30
0.0
 10
19.8590534215
 20
4.4590561354
 30
0.0
 10
19.8622798056
 20
4.4557327076
 30
0.0
 10
19.8659138478
 20
4.4526691109
 30
0.0
 10
19.8699207984
 20
4.4498939609
 30
0.0
 10
19.8757643529
 20
4.4465816433
 30
0.0
 10
19.8821400794
 20
4.4439936652
 30
0.0
 10
19.8888573229
 20
4.442156672
 30
0.0
 10
19.8958558771
 20
4.4408162091
 30
0.0
 10
19.9012315528
 20
4.4404140462
 30
0.0
 10
19.9048183383
 20
4.4404140462
 30
0.0
  0
SPLINE
  5
374
100
AcDbEntity
  8
0
100
AcDbSpline
 62
9
  6
CONTINUOUS
 70
0
 71
3
 72
17
 73
13
 74
0
 42
0.0000001
 43
0.0000001
 44
0.0000000001
 40
0.0
 40
0.0
 40
0.0
 40
0.0
 40
0.1498975487
 40
0.296452097
 40
0.43662883
 40
0.5680043972
 40
0.6891353781
 40
0.7999626887
 40
0.8520861724
 40
0.9024419456
 40
0.9515494632
 40
1.0
 40
1.0
 40
1.0
 40
1.0
 10
19.8498183383
 20
4.4825464906
 30
0.0
 10
19.8491667272
 20
4.4825464906
 30
0.0
 10
19.8478765084
 20
4.4826272079
 30
0.0
 10
19.8460076194
 20
4.4829873832
 30
0.0
 10
19.8442804267
 20
4.483573079
 30
0.0
 10
19.8427590195
 20
4.4843639794
 30
0.0
 10
19.8414998745
 20
4.4853326372
 30
0.0
 10
19.8406926682
 20
4.486283674
 30
0.0
 10
19.8402384799
 20
4.4870949063
 30
0.0
 10
19.839997041
 20
4.4877104648
 30
0.0
 10
19.8398510195
 20
4.4883389646
 30
0.0
 10
19.8398183383
 20
4.488763749
 30
0.0
 10
19.8398183383
 20
4.4889743656
 30
0.0
  0
SPLINE
  5
375
100
AcDbEntity
  8
0
100
AcDbSpline
 62
9
  6
CONTINUOUS
 70
0
 71
3
 72
17
 73
13
 74
0
 42
0.0000001
 43
0.0000001
 44
0.0000000001
 40
0.0
 40
0.0
 40
0.0
 40
0.0
 40
0.149897536
 40
0.296452072
 40
0.4366287931
 40
0.5680043492
 40
0.68913532
 40
0.7999626206
 40
0.8520861032
 40
0.9024418612
 40
0.951549399
 40
1.0
 40
1.0
 40
1.0
 40
1.0
 10
19.8498183383
 20
5.1490051561
 30
0.0
 10
19.8491667272
 20
5.1490051561
 30
0.0
 10
19.8478765084
 20
5.1490858734
 30
0.0
 10
19.8460076194
 20
5.1494460487
 30
0.0
 10
19.8442804267
 20
5.1500317445
 30
0.0
 10
19.8427590195
 20
5.1508226449
 30
0.0
 10
19.8414998745
 20
5.1517913027
 30
0.0
 10
19.8406926682
 20
5.1527423395
 30
0.0
 10
19.8402384799
 20
5.1535535718
 30
0.0
 10
19.8399970409
 20
5.1541691303
 30
0.0
 10
19.8398510195
 20
5.1547976305
 30
0.0
 10
19.8398183383
 20
5.1552224154
 30
0.0
 10
19.8398183383
 20
5.1554330322
 30
0.0
  0
SPLINE
  5
376
100
AcDbEntity
  8
0
100
AcDbSpline
 62
9
  6
CONTINUOUS
 70
0
 71
3
 72
21
 73
17
 74
0
 42
0.0000001
 43
0.0000001
 44
0.0000000001
 40
0.0
 40
0.0
 40
0.0
 40
0.0
 40
0.1405196696
 40
0.2101401297
 40
0.2789531785
 40
0.4131353463
 40
0.4782489428
 40
0.5418290501
 40
0.6038066571
 40
0.6641713551
 40
0.7229762956
 40
0.780341139
 40
0.8364520811
 40
0.8915578702
 40
0.9459596056
 40
1.0
 40
1.0
 40
1.0
 40
1.0
 10
19.9048183383
 20
5.1911376005
 30
0.0
 10
19.9012315528
 20
5.1911376005
 30
0.0
 10
19.8958558771
 20
5.1907354376
 30
0.0
 10
19.8888573229
 20
5.1893949747
 30
0.0
 10
19.8821400794
 20
5.1875579815
 30
0.0
 10
19.8757643529
 20
5.1849700034
 30
0.0
 10
19.8699207984
 20
5.1816576858
 30
0.0
 10
19.8659138478
 20
5.1788825359
 30
0.0
 10
19.8622798056
 20
5.1758189392
 30
0.0
 10
19.8590534215
 20
5.1724955114
 30
0.0
 10
19.8562663246
 20
5.1689436397
 30
0.0
 10
19.8539460672
 20
5.165196941
 30
0.0
 10
19.8521160041
 20
5.1612912716
 30
0.0
 10
19.8507949176
 20
5.1572641298
 30
0.0
 10
19.8499965747
 20
5.1531557861
 30
0.0
 10
19.8498183383
 20
5.1503845452
 30
0.0
 10
19.8498183383
 20
5.1490051561
 30
0.0
  0
ENDSEC
  0
SECTION
  2
OBJECTS
  0
DICTIONARY
  5
C
100
AcDbDictionary
280
0
281
1
  3
ACAD_GROUP
350
D
  3
ACAD_MLINESTYLE
350
17
  3
ACAD_LAYOUT
350
1A
  3
ACAD_PLOTSETTINGS
350
19
  3
ACAD_PLOTSTYLENAME
350
E
  0
DICTIONARY
  5
D
102
{ACAD_REACTORS
330
C
102
}
100
AcDbDictionary
280
0
281
1
  0
ACDBDICTIONARYWDFLT
  5
E
102
{ACAD_REACTORS
330
C
102
}
100
AcDbDictionary
281
1
  3
Normal
350
F
100
AcDbDictionaryWithDefault
340
F
  0
DICTIONARY
  5
17
102
{ACAD_REACTORS
330
C
102
}
100
AcDbDictionary
280
0
281
1
  3
Standard
350
18
  0
DICTIONARY
  5
19
102
{ACAD_REACTORS
330
C
102
}
100
AcDbDictionary
281
1
  0
DICTIONARY
  5
1A
102
{ACAD_REACTORS
330
C
102
}
100
AcDbDictionary
281
1
  3
Model
350
377
  3
Layout1
350
378
  0
ACDBPLACEHOLDER
  5
F
102
{ACAD_REACTORS
330
E
102
}
  0
MLINESTYLE
  5
18
102
{ACAD_REACTORS
330
17
102
}
100
AcDbMlineStyle
  2
STANDARD
 70
0
  3

 62
256
 51
90.0
 52
90.0
 71
2
 49
0.5
 62
256
  6
BYLAYER
 49
-0.5
 62
256
  6
BYLAYER
  0
LAYOUT
  5
377
102
{ACAD_REACTORS
330
1A
102
}
100
AcDbPlotSettings
  1

  2
none_device
  4
ANSI_C_(22.00_x_17.00_Inches)
  6

 40
0.0
 41
0.0
 42
0.0
 43
0.0
 44
558.8
 45
431.8
 46
0.0
 47
0.0
 48
0.0
 49
0.0
140
0.0
141
0.0
142
1.0
143
1.0
 70
1024
 72
0
 73
0
 74
0
  7

 75
0
147
1.0
148
0.0
149
0.0
100
AcDbLayout
  1
Model
 70
0
 71
0
 10
0.0
 20
0.0
 11
22.0
 21
17.0
 12
0.0
 22
0.0
 32
0.0
 14
0.0
 24
0.0
 34
0.0
 15
0.0
 25
0.0
 35
0.0
146
0.0
 13
0.0
 23
0.0
 33
0.0
 16
1.0
 26
0.0
 36
0.0
 17
0.0
 27
1.0
 37
0.0
 76
0
330
205
345
0
346
0
  0
LAYOUT
  5
378
102
{ACAD_REACTORS
330
1A
102
}
100
AcDbPlotSettings
  1

  2
none_device
  4
ANSI_C_(22.00_x_17.00_Inches)
  6

 40
0.0
 41
0.0
 42
0.0
 43
0.0
 44
558.8
 45
431.8
 46
0.0
 47
0.0
 48
0.0
 49
0.0
140
0.0
141
0.0
142
1.0
143
1.0
 70
0
 72
0
 73
0
 74
0
  7

 75
0
147
1.0
148
0.0
149
0.0
100
AcDbLayout
  1
Layout1
 70
0
 71
1
 10
0.0
 20
0.0
 11
22.0
 21
17.0
 12
0.0
 22
0.0
 32
0.0
 14
0.0
 24
0.0
 34
0.0
 15
0.0
 25
0.0
 35
0.0
146
0.0
 13
0.0
 23
0.0
 33
0.0
 16
1.0
 26
0.0
 36
0.0
 17
0.0
 27
1.0
 37
0.0
 76
0
330
206
345
0
346
0
  0
ENDSEC
  0
EOF
