999
DXF file: 3-226_Right.dxf
999
Pro/ENGINEER 2023134 by Parametric Technology Corporation
  0
SECTION
  2
HEADER
  9
$ACADVER
  1
AC1032
  9
$DWGCODEPAGE
  3
ANSI_1252
  9
$EXTMAX
 10
11.0
 20
8.5
 30
0.0
  9
$EXTMIN
 10
0.0
 20
0.0
 30
0.0
  9
$LIMMIN
 10
0.0
 20
0.0
  9
$LIMMAX
 10
11.0
 20
8.5
  9
$VIEWCTR
 10
5.5
 20
4.25
  9
$VIEWSIZE
 40
8.5
  9
$CLAYER
  8
0
  9
$LTSCALE
 40
0.605
  9
$CELTYPE
  6
BYLAYER
  9
$DIMSCALE
 40
1.0
  9
$DIMASZ
 40
0.1
  9
$DIMEXO
 40
0.0625
  9
$DIMDLI
 40
0.418
  9
$DIMEXE
 40
0.125
  9
$DIMCEN
 40
0.099
  9
$DIMLFAC
 40
1.0
  9
$DIMBLK
  1
_FILLED
  9
$DIMALT
 70
1
  9
$DIMALTD
 70
2
  9
$DIMALTTD
 70
2
  9
$DIMALTF
 40
25.4
  9
$DIMTXT
 40
0.08
  9
$DIMTOL
 70
1
  9
$DIMLIM
 70
0
  9
$DIMTFAC
 40
1.0
  9
$DIMTP
 40
0.001
  9
$DIMTM
 40
0.001
  9
$DIMGAP
 40
0.09
  9
$DIMDSEP
 70
46
  9
$AUNITS
 70
0
  9
$PDMODE
 70
3
  9
$PDSIZE
 40
0.3125
  9
$HANDSEED
  5
32A
  9
$TILEMODE
 70
1
  9
$MEASUREMENT
 70
0
  9
$INSUNITS
 70
1
  0
ENDSEC
  0
SECTION
  2
CLASSES
  0
CLASS
  1
ACDBDICTIONARYWDFLT
  2
AcDbDictionaryWithDefault
  3
AutoCAD 2000
 90
0
 91
1
280
0
281
0
  0
CLASS
  1
ACDBPLACEHOLDER
  2
AcDbPlaceHolder
  3
AutoCAD 2000
 90
0
 91
1
280
0
281
0
  0
CLASS
  1
LAYOUT
  2
AcDbLayout
  3
AutoCAD 2000
 90
0
 91
0
280
0
281
0
  0
ENDSEC
  0
SECTION
  2
TABLES
  0
TABLE
  2
VPORT
  5
8
100
AcDbSymbolTable
 70
2
  0
VPORT
  5
1F4
100
AcDbSymbolTableRecord
100
AcDbViewportTableRecord
  2
*ACTIVE
 70
0
 10
0.0
 20
0.0
 11
1.0
 21
1.0
 12
5.5
 22
4.25
 13
0.0
 23
0.0
 14
1.0
 24
1.0
 15
0.0
 25
0.0
 16
0.0
 26
0.0
 36
1.0
 17
0.0
 27
0.0
 37
0.0
 40
8.5
 41
1.2941176471
 42
50.0
 43
0.0
 44
0.0
 50
0.0
 51
0.0
 71
0
 72
100
 73
1
 74
1
 75
0
 76
0
 77
0
 78
0
  0
ENDTAB
  0
TABLE
  2
LTYPE
  5
5
100
AcDbSymbolTable
 70
6
  0
LTYPE
  5
14
100
AcDbSymbolTableRecord
100
AcDbLinetypeTableRecord
  2
BYBLOCK
 70
0
  3

 72
65
 73
0
 40
0.0
  0
LTYPE
  5
15
100
AcDbSymbolTableRecord
100
AcDbLinetypeTableRecord
  2
BYLAYER
 70
0
  3

 72
65
 73
0
 40
0.0
  0
LTYPE
  5
16
100
AcDbSymbolTableRecord
100
AcDbLinetypeTableRecord
  2
CONTINUOUS
 70
64
  3
Solid line
 72
65
 73
0
 40
0.0
  0
LTYPE
  5
1F5
100
AcDbSymbolTableRecord
100
AcDbLinetypeTableRecord
  2
CENTER
 70
64
  3
____ _ ____ _ ____ _ ____ _ ____ _ ____ _ ____
 72
65
 73
4
 40
0.6
 49
0.375
 74
0
 49
-0.075
 74
0
 49
0.075
 74
0
 49
-0.075
 74
0
  0
LTYPE
  5
1F6
100
AcDbSymbolTableRecord
100
AcDbLinetypeTableRecord
  2
HIDDEN
 70
64
  3
- - - - - - - - - - - - - - - - - - - -
 72
65
 73
2
 40
0.2
 49
0.1
 74
0
 49
-0.1
 74
0
  0
LTYPE
  5
1F7
100
AcDbSymbolTableRecord
100
AcDbLinetypeTableRecord
  2
PHANTOM
 70
64
  3
_____ _ _ _____ _ _ _____ _ _ _____
 72
65
 73
6
 40
0.8
 49
0.45
 74
0
 49
-0.05
 74
0
 49
0.1
 74
0
 49
-0.05
 74
0
 49
0.1
 74
0
 49
-0.05
 74
0
  0
LTYPE
  5
1F8
100
AcDbSymbolTableRecord
100
AcDbLinetypeTableRecord
  2
DOT
 70
64
  3
. . . . . . . . . . . . . . . . . . . .
 72
65
 73
2
 40
0.2
 49
0.1
 74
0
 49
-0.1
 74
0
  0
LTYPE
  5
1F9
100
AcDbSymbolTableRecord
100
AcDbLinetypeTableRecord
  2
DASHED
 70
64
  3
- - - - - - - - - - - - - - - - - - - -
 72
65
 73
2
 40
0.2
 49
0.1
 74
0
 49
-0.1
 74
0
  0
ENDTAB
  0
TABLE
  2
LAYER
  5
2
100
AcDbSymbolTable
 70
36
  0
LAYER
  5
10
100
AcDbSymbolTableRecord
100
AcDbLayerTableRecord
  2
0
 70
0
 62
7
  6
CONTINUOUS
370
-3
390
F
  0
LAYER
  5
1FA
100
AcDbSymbolTableRecord
100
AcDbLayerTableRecord
  2
DEFAULT_1
 70
0
 62
7
  6
CENTER
370
-3
390
F
  0
LAYER
  5
1FB
100
AcDbSymbolTableRecord
100
AcDbLayerTableRecord
  2
DEFAULT_2
 70
0
 62
8
  6
HIDDEN
370
-3
390
F
  0
LAYER
  5
1FC
100
AcDbSymbolTableRecord
100
AcDbLayerTableRecord
  2
DEFAULT_3
 70
0
 62
7
  6
PHANTOM
370
-3
390
F
  0
LAYER
  5
1FD
100
AcDbSymbolTableRecord
100
AcDbLayerTableRecord
  2
DEFAULT_COORDINATE_SYSTEM
 70
0
 62
7
  6
CONTINUOUS
370
-3
390
F
  0
LAYER
  5
1FE
100
AcDbSymbolTableRecord
100
AcDbLayerTableRecord
  2
DEFAULT_DATUM_AXES
 70
0
 62
7
  6
CONTINUOUS
370
-3
390
F
  0
LAYER
  5
1FF
100
AcDbSymbolTableRecord
100
AcDbLayerTableRecord
  2
DEFAULT_DATUM_CURVES
 70
0
 62
7
  6
CONTINUOUS
370
-3
390
F
  0
LAYER
  5
200
100
AcDbSymbolTableRecord
100
AcDbLayerTableRecord
  2
DEFAULT_DATUM_PLANES
 70
0
 62
7
  6
CONTINUOUS
370
-3
390
F
  0
ENDTAB
  0
TABLE
  2
STYLE
  5
3
100
AcDbSymbolTable
 70
1
  0
STYLE
  5
11
100
AcDbSymbolTableRecord
100
AcDbTextStyleTableRecord
  2
STANDARD
 70
0
 40
0.0
 41
0.8
 50
0.0
 71
0
 42
0.2
  3
txt
  4

  0
STYLE
  5
201
100
AcDbSymbolTableRecord
100
AcDbTextStyleTableRecord
  2
TEXTSTYLE_1
 70
0
 40
0.0
 41
0.8
 50
0.0
 71
0
 42
0.2
  3
gdt
  4

  0
ENDTAB
  0
TABLE
  2
VIEW
  5
6
100
AcDbSymbolTable
 70
0
  0
ENDTAB
  0
TABLE
  2
UCS
  5
7
100
AcDbSymbolTable
 70
0
  0
ENDTAB
  0
TABLE
  2
APPID
  5
9
100
AcDbSymbolTable
 70
1
  0
APPID
  5
202
100
AcDbSymbolTableRecord
100
AcDbRegAppTableRecord
  2
ACAD
 70
0
  0
ENDTAB
  0
TABLE
  2
BLOCK_RECORD
  5
1
100
AcDbSymbolTable
 70
0
  0
BLOCK_RECORD
  5
203
100
AcDbSymbolTableRecord
100
AcDbBlockTableRecord
  2
*Model_Space
  0
BLOCK_RECORD
  5
204
100
AcDbSymbolTableRecord
100
AcDbBlockTableRecord
  2
*Paper_Space
  0
BLOCK_RECORD
  5
205
100
AcDbSymbolTableRecord
100
AcDbBlockTableRecord
  2
_FILLED
  0
ENDTAB
  0
TABLE
  2
DIMSTYLE
  5
A
100
AcDbSymbolTable
 70
1
100
AcDbDimStyleTable
 71
0
  0
DIMSTYLE
105
206
100
AcDbSymbolTableRecord
100
AcDbDimStyleTableRecord
  2
STANDARD
 70
0
  3

  4

 40
1.0
 41
0.1
 42
0.0625
 43
0.38
 44
0.125
 45
0.0
 46
0.0
 47
0.001
 48
0.001
140
0.08
141
0.09
142
0.0
143
25.4
144
1.0
145
0.0
146
1.0
147
0.09
 71
1
 72
0
 73
1
 74
1
 75
0
 76
0
 77
0
 78
4
 79
1
170
1
171
2
172
0
173
0
174
0
175
0
176
0
177
0
178
0
270
2
179
3
271
3
272
3
273
2
274
2
275
0
280
0
281
0
282
0
283
1
284
4
285
0
286
0
287
3
288
0
340
11
278
46
341
205
342
205
343
205
344
205
  0
ENDTAB
  0
ENDSEC
  0
SECTION
  2
BLOCKS
  0
BLOCK
  5
20
100
AcDbEntity
  8
0
100
AcDbBlockBegin
  2
*Model_Space
 70
0
 10
0.0
 20
0.0
 30
0.0
  3
*Model_Space
  1

  0
ENDBLK
  5
21
100
AcDbEntity
  8
0
100
AcDbBlockEnd
  0
BLOCK
  5
1C
100
AcDbEntity
  8
0
100
AcDbBlockBegin
  2
*Paper_Space
 70
0
 10
0.0
 20
0.0
 30
0.0
  3
*Paper_Space
  1

  0
ENDBLK
  5
1D
100
AcDbEntity
  8
0
100
AcDbBlockEnd
  0
BLOCK
  5
207
100
AcDbEntity
  8
0
100
AcDbBlockBegin
  2
_FILLED
 70
64
 10
0.0
 20
0.0
  3
_FILLED
  1

  0
SOLID
  5
208
100
AcDbEntity
  8
0
  6
BYBLOCK
 62
0
100
AcDbTrace
 10
0.0
 20
0.0
 11
-1.0
 21
0.2
 12
-1.0
 22
-0.2
 13
-1.0
 23
-0.2
  0
ENDBLK
  5
209
100
AcDbEntity
  8
0
  6
BYBLOCK
 62
0
100
AcDbBlockEnd
  0
ENDSEC
  0
SECTION
  2
ENTITIES
  0
MTEXT
  5
20A
100
AcDbEntity
  8
0
100
AcDbMText
 62
2
  6
CONTINUOUS
  7
STANDARD
 71
2
 72
1
 10
5.5978174564
 20
2.5442055283
 30
0.0
 11
1.0
 21
0.0
 31
0.0
 73
2
 44
0.9
  1
SCALE 0.200
 40
0.08
 41
0.704
  0
LINE
  5
20B
100
AcDbEntity
  8
0
100
AcDbLine
 62
7
  6
CONTINUOUS
 10
0.0
 20
0.0
 11
0.0
 21
8.5
  0
LINE
  5
20C
100
AcDbEntity
  8
0
100
AcDbLine
 62
7
  6
CONTINUOUS
 10
0.0
 20
0.0
 11
11.0
 21
0.0
  0
LINE
  5
20D
100
AcDbEntity
  8
0
100
AcDbLine
 62
7
  6
CONTINUOUS
 10
0.0
 20
8.5
 11
11.0
 21
8.5
  0
LINE
  5
20E
100
AcDbEntity
  8
0
100
AcDbLine
 62
7
  6
CONTINUOUS
 10
11.0
 20
0.0
 11
11.0
 21
8.5
  0
LINE
  5
20F
100
AcDbEntity
  8
0
100
AcDbLine
 62
7
  6
CONTINUOUS
 10
3.1022455357
 20
4.8873340954
 11
3.1022455357
 21
5.0805739164
  0
LINE
  5
210
100
AcDbEntity
  8
0
100
AcDbLine
 62
7
  6
CONTINUOUS
 10
3.1059732987
 20
5.0745617828
 11
3.1117822915
 21
5.0853762348
  0
LINE
  5
211
100
AcDbEntity
  8
0
100
AcDbLine
 62
7
  6
CONTINUOUS
 10
3.1202533246
 20
5.0750051431
 11
3.1260626972
 21
5.0858203959
  0
LINE
  5
212
100
AcDbEntity
  8
0
100
AcDbLine
 62
7
  6
CONTINUOUS
 10
3.1345333502
 20
5.0754485074
 11
3.1403430994
 21
5.0862645537
  0
LINE
  5
213
100
AcDbEntity
  8
0
100
AcDbLine
 62
7
  6
CONTINUOUS
 10
3.1488133757
 20
5.0758918757
 11
3.1546234981
 21
5.0867087082
  0
LINE
  5
214
100
AcDbEntity
  8
0
100
AcDbLine
 62
7
  6
CONTINUOUS
 10
3.2582455357
 20
5.0900132217
 11
3.2582455357
 21
4.8780132217
  0
LINE
  5
215
100
AcDbEntity
  8
0
100
AcDbLine
 62
7
  6
CONTINUOUS
 10
3.3022455357
 20
5.2200132217
 11
3.3022455357
 21
4.7480132217
  0
LINE
  5
216
100
AcDbEntity
  8
0
100
AcDbLine
 62
7
  6
CONTINUOUS
 10
3.3398114777
 20
5.1840132217
 11
3.3398114777
 21
4.7840132217
  0
LINE
  5
217
100
AcDbEntity
  8
0
100
AcDbLine
 62
7
  6
CONTINUOUS
 10
3.3772455357
 20
5.1464135879
 11
3.3772455357
 21
4.8216128555
  0
LINE
  5
218
100
AcDbEntity
  8
0
100
AcDbLine
 62
7
  6
CONTINUOUS
 10
3.1630934008
 20
5.076335248
 11
3.1689038933
 21
5.0871528594
  0
LINE
  5
219
100
AcDbEntity
  8
0
100
AcDbLine
 62
7
  6
CONTINUOUS
 10
3.1773734257
 20
5.0767786241
 11
3.1831842853
 21
5.0875970075
  0
LINE
  5
21A
100
AcDbEntity
  8
0
100
AcDbLine
 62
7
  6
CONTINUOUS
 10
3.1916534504
 20
5.077222004
 11
3.1974646738
 21
5.0880411524
  0
LINE
  5
21B
100
AcDbEntity
  8
0
100
AcDbLine
 62
7
  6
CONTINUOUS
 10
3.2059334749
 20
5.0776653877
 11
3.2117450591
 21
5.0884852942
  0
LINE
  5
21C
100
AcDbEntity
  8
0
100
AcDbLine
 62
7
  6
CONTINUOUS
 10
3.2202134991
 20
5.078108775
 11
3.2260254411
 21
5.088929433
  0
LINE
  5
21D
100
AcDbEntity
  8
0
100
AcDbLine
 62
7
  6
CONTINUOUS
 10
3.2344935231
 20
5.0785521661
 11
3.2403058199
 21
5.0893735687
  0
LINE
  5
21E
100
AcDbEntity
  8
0
100
AcDbLine
 62
7
  6
CONTINUOUS
 10
3.2487735469
 20
5.0789955607
 11
3.2545861956
 21
5.0898177014
  0
LINE
  5
21F
100
AcDbEntity
  8
0
100
AcDbLine
 62
7
  6
CONTINUOUS
 10
3.1131133117
 20
4.893242981
 11
3.1066346475
 21
4.8827937554
  0
LINE
  5
220
100
AcDbEntity
  8
0
100
AcDbLine
 62
7
  6
CONTINUOUS
 10
3.1273933375
 20
4.8927996186
 11
3.120914282
 21
4.882349689
  0
LINE
  5
221
100
AcDbEntity
  8
0
100
AcDbLine
 62
7
  6
CONTINUOUS
 10
3.141673363
 20
4.8923562523
 11
3.1351939196
 21
4.8819056252
  0
LINE
  5
222
100
AcDbEntity
  8
0
100
AcDbLine
 62
7
  6
CONTINUOUS
 10
3.1559533883
 20
4.891912882
 11
3.1494735605
 21
4.8814615638
  0
LINE
  5
223
100
AcDbEntity
  8
0
100
AcDbLine
 62
7
  6
CONTINUOUS
 10
3.1702334133
 20
4.8914695078
 11
3.1637532044
 21
4.8810175049
  0
LINE
  5
224
100
AcDbEntity
  8
0
100
AcDbLine
 62
7
  6
CONTINUOUS
 10
3.3896455357
 20
5.1322132217
 11
3.3896455357
 21
4.8358132217
  0
LINE
  5
225
100
AcDbEntity
  8
0
100
AcDbLine
 62
7
  6
CONTINUOUS
 10
3.1845134381
 20
4.8910261298
 11
3.1780328513
 21
4.8805734484
  0
LINE
  5
226
100
AcDbEntity
  8
0
100
AcDbLine
 62
7
  6
CONTINUOUS
 10
3.1987934627
 20
4.890582748
 11
3.1923125013
 21
4.8801293942
  0
LINE
  5
227
100
AcDbEntity
  8
0
100
AcDbLine
 62
7
  6
CONTINUOUS
 10
3.213073487
 20
4.8901393625
 11
3.2065921542
 21
4.8796853424
  0
LINE
  5
228
100
AcDbEntity
  8
0
100
AcDbLine
 62
7
  6
CONTINUOUS
 10
3.2273535111
 20
4.8896959733
 11
3.2208718101
 21
4.8792412929
  0
LINE
  5
229
100
AcDbEntity
  8
0
100
AcDbLine
 62
7
  6
CONTINUOUS
 10
3.241633535
 20
4.8892525805
 11
3.2351514689
 21
4.8787972457
  0
LINE
  5
22A
100
AcDbEntity
  8
0
100
AcDbLine
 62
7
  6
CONTINUOUS
 10
3.1118755357
 20
5.0854645018
 11
3.1117822915
 21
5.0853762348
  0
LINE
  5
22B
100
AcDbEntity
  8
0
100
AcDbLine
 62
7
  6
CONTINUOUS
 10
3.1261555357
 20
5.0859082793
 11
3.1260626972
 21
5.0858203959
  0
LINE
  5
22C
100
AcDbEntity
  8
0
100
AcDbLine
 62
7
  6
CONTINUOUS
 10
3.1404355357
 20
5.0863520569
 11
3.1403430994
 21
5.0862645537
  0
LINE
  5
22D
100
AcDbEntity
  8
0
100
AcDbLine
 62
7
  6
CONTINUOUS
 10
3.1547155357
 20
5.0867958344
 11
3.1546234981
 21
5.0867087082
  0
LINE
  5
22E
100
AcDbEntity
  8
0
100
AcDbLine
 62
7
  6
CONTINUOUS
 10
3.1046420873
 20
4.8828722903
 11
3.1022455357
 21
4.8873341484
  0
LINE
  5
22F
100
AcDbEntity
  8
0
100
AcDbLine
 62
7
  6
CONTINUOUS
 10
3.1189224948
 20
4.8824281276
 11
3.1130143318
 21
4.8934272353
  0
LINE
  5
230
100
AcDbEntity
  8
0
100
AcDbLine
 62
7
  6
CONTINUOUS
 10
3.1332028987
 20
4.8819839682
 11
3.127294839
 21
4.8929829786
  0
LINE
  5
231
100
AcDbEntity
  8
0
100
AcDbLine
 62
7
  6
CONTINUOUS
 10
3.1689955357
 20
5.087239612
 11
3.1689038933
 21
5.0871528594
  0
LINE
  5
232
100
AcDbEntity
  8
0
100
AcDbLine
 62
7
  6
CONTINUOUS
 10
3.1832755357
 20
5.0876833895
 11
3.1831842853
 21
5.0875970075
  0
LINE
  5
233
100
AcDbEntity
  8
0
100
AcDbLine
 62
7
  6
CONTINUOUS
 10
3.1975555357
 20
5.0881271671
 11
3.1974646738
 21
5.0880411524
  0
LINE
  5
234
100
AcDbEntity
  8
0
100
AcDbLine
 62
7
  6
CONTINUOUS
 10
3.2118355357
 20
5.0885709446
 11
3.2117450591
 21
5.0884852942
  0
LINE
  5
235
100
AcDbEntity
  8
0
100
AcDbLine
 62
7
  6
CONTINUOUS
 10
3.2261155357
 20
5.0890147222
 11
3.2260254411
 21
5.088929433
  0
LINE
  5
236
100
AcDbEntity
  8
0
100
AcDbLine
 62
7
  6
CONTINUOUS
 10
3.2403955357
 20
5.0894584997
 11
3.2403058199
 21
5.0893735687
  0
LINE
  5
237
100
AcDbEntity
  8
0
100
AcDbLine
 62
7
  6
CONTINUOUS
 10
3.2546755357
 20
5.0899022773
 11
3.2545861956
 21
5.0898177014
  0
LINE
  5
238
100
AcDbEntity
  8
0
100
AcDbLine
 62
7
  6
CONTINUOUS
 10
3.1022455357
 20
5.0805739366
 11
3.1060725091
 21
5.0744017803
  0
LINE
  5
239
100
AcDbEntity
  8
0
100
AcDbLine
 62
7
  6
CONTINUOUS
 10
3.1474832991
 20
4.881539812
 11
3.1415753413
 21
4.8925387264
  0
LINE
  5
23A
100
AcDbEntity
  8
0
100
AcDbLine
 62
7
  6
CONTINUOUS
 10
3.1617636961
 20
4.8810956592
 11
3.1558558388
 21
4.8920944788
  0
LINE
  5
23B
100
AcDbEntity
  8
0
100
AcDbLine
 62
7
  6
CONTINUOUS
 10
3.1760440897
 20
4.8806515095
 11
3.1701363315
 21
4.8916502357
  0
LINE
  5
23C
100
AcDbEntity
  8
0
100
AcDbLine
 62
7
  6
CONTINUOUS
 10
3.1903244799
 20
4.880207363
 11
3.1844168195
 21
4.8912059971
  0
LINE
  5
23D
100
AcDbEntity
  8
0
100
AcDbLine
 62
7
  6
CONTINUOUS
 10
3.2046048669
 20
4.8797632197
 11
3.1986973029
 21
4.8907617628
  0
LINE
  5
23E
100
AcDbEntity
  8
0
100
AcDbLine
 62
7
  6
CONTINUOUS
 10
3.2188852505
 20
4.8793190794
 11
3.2129777817
 21
4.8903175328
  0
LINE
  5
23F
100
AcDbEntity
  8
0
100
AcDbLine
 62
7
  6
CONTINUOUS
 10
3.2331656309
 20
4.8788749422
 11
3.227258256
 21
4.889873307
  0
LINE
  5
240
100
AcDbEntity
  8
0
100
AcDbLine
 62
7
  6
CONTINUOUS
 10
3.2474460081
 20
4.8784308079
 11
3.2415387259
 21
4.8894290854
  0
LINE
  5
241
100
AcDbEntity
  8
0
100
AcDbLine
 62
7
  6
CONTINUOUS
 10
3.1065507875
 20
4.882727418
 11
3.1066346475
 21
4.8827937554
  0
LINE
  5
242
100
AcDbEntity
  8
0
100
AcDbLine
 62
7
  6
CONTINUOUS
 10
3.120914282
 20
4.882349689
 11
3.1208307875
 21
4.8822836405
  0
LINE
  5
243
100
AcDbEntity
  8
0
100
AcDbLine
 62
7
  6
CONTINUOUS
 10
3.1351939196
 20
4.8819056252
 11
3.1351107875
 21
4.8818398629
  0
LINE
  5
244
100
AcDbEntity
  8
0
100
AcDbLine
 62
7
  6
CONTINUOUS
 10
3.1494735605
 20
4.8814615638
 11
3.1493907875
 21
4.8813960854
  0
LINE
  5
245
100
AcDbEntity
  8
0
100
AcDbLine
 62
7
  6
CONTINUOUS
 10
3.1637532044
 20
4.8810175049
 11
3.1636707875
 21
4.8809523078
  0
LINE
  5
246
100
AcDbEntity
  8
0
100
AcDbLine
 62
7
  6
CONTINUOUS
 10
3.1780328513
 20
4.8805734484
 11
3.1779507875
 21
4.8805085303
  0
LINE
  5
247
100
AcDbEntity
  8
0
100
AcDbLine
 62
7
  6
CONTINUOUS
 10
3.1923125013
 20
4.8801293942
 11
3.1922307875
 21
4.8800647527
  0
LINE
  5
248
100
AcDbEntity
  8
0
100
AcDbLine
 62
7
  6
CONTINUOUS
 10
3.2065921542
 20
4.8796853424
 11
3.2065107875
 21
4.8796209752
  0
LINE
  5
249
100
AcDbEntity
  8
0
100
AcDbLine
 62
7
  6
CONTINUOUS
 10
3.2208718101
 20
4.8792412929
 11
3.2207907875
 21
4.8791771976
  0
LINE
  5
24A
100
AcDbEntity
  8
0
100
AcDbLine
 62
7
  6
CONTINUOUS
 10
3.1137744643
 20
5.0854547215
 11
3.1203520513
 21
5.0748459194
  0
LINE
  5
24B
100
AcDbEntity
  8
0
100
AcDbLine
 62
7
  6
CONTINUOUS
 10
3.1280541004
 20
5.0858987866
 11
3.134631598
 21
5.0752900549
  0
LINE
  5
24C
100
AcDbEntity
  8
0
100
AcDbLine
 62
7
  6
CONTINUOUS
 10
3.1423337397
 20
5.0863428492
 11
3.1489111491
 21
5.075734187
  0
LINE
  5
24D
100
AcDbEntity
  8
0
100
AcDbLine
 62
7
  6
CONTINUOUS
 10
3.156613382
 20
5.0867869093
 11
3.1631907045
 21
5.0761783157
  0
LINE
  5
24E
100
AcDbEntity
  8
0
100
AcDbLine
 62
7
  6
CONTINUOUS
 10
3.1708930275
 20
5.087230967
 11
3.1774702642
 21
5.076622441
  0
LINE
  5
24F
100
AcDbEntity
  8
0
100
AcDbLine
 62
7
  6
CONTINUOUS
 10
3.1851726759
 20
5.0876750224
 11
3.191749828
 21
5.077066563
  0
LINE
  5
250
100
AcDbEntity
  8
0
100
AcDbLine
 62
7
  6
CONTINUOUS
 10
3.1994523274
 20
5.0881190753
 11
3.206029396
 21
5.0775106818
  0
LINE
  5
251
100
AcDbEntity
  8
0
100
AcDbLine
 62
7
  6
CONTINUOUS
 10
3.2137319818
 20
5.088563126
 11
3.220308968
 21
5.0779547974
  0
LINE
  5
252
100
AcDbEntity
  8
0
100
AcDbLine
 62
7
  6
CONTINUOUS
 10
3.2280116391
 20
5.0890071743
 11
3.2345885441
 21
5.0783989098
  0
LINE
  5
253
100
AcDbEntity
  8
0
100
AcDbLine
 62
7
  6
CONTINUOUS
 10
3.2422912993
 20
5.0894512204
 11
3.2488681241
 21
5.078843019
  0
LINE
  5
254
100
AcDbEntity
  8
0
100
AcDbLine
 62
7
  6
CONTINUOUS
 10
3.2351514689
 20
4.8787972457
 11
3.2350707875
 21
4.8787334201
  0
LINE
  5
255
100
AcDbEntity
  8
0
100
AcDbLine
 62
7
  6
CONTINUOUS
 10
3.1047355357
 20
4.8827838304
 11
3.1046420873
 21
4.8828722903
  0
LINE
  5
256
100
AcDbEntity
  8
0
100
AcDbLine
 62
7
  6
CONTINUOUS
 10
3.1190155357
 20
4.8823400528
 11
3.1189224948
 21
4.8824281276
  0
LINE
  5
257
100
AcDbEntity
  8
0
100
AcDbLine
 62
7
  6
CONTINUOUS
 10
3.1332955357
 20
4.8818962753
 11
3.1332028987
 21
4.8819839682
  0
LINE
  5
258
100
AcDbEntity
  8
0
100
AcDbLine
 62
7
  6
CONTINUOUS
 10
3.1475755357
 20
4.8814524977
 11
3.1474832991
 21
4.881539812
  0
LINE
  5
259
100
AcDbEntity
  8
0
100
AcDbLine
 62
7
  6
CONTINUOUS
 10
3.1618555357
 20
4.8810087202
 11
3.1617636961
 21
4.8810956592
  0
LINE
  5
25A
100
AcDbEntity
  8
0
100
AcDbLine
 62
7
  6
CONTINUOUS
 10
3.1761355357
 20
4.8805649426
 11
3.1760440897
 21
4.8806515095
  0
LINE
  5
25B
100
AcDbEntity
  8
0
100
AcDbLine
 62
7
  6
CONTINUOUS
 10
3.1904155357
 20
4.8801211651
 11
3.1903244799
 21
4.880207363
  0
LINE
  5
25C
100
AcDbEntity
  8
0
100
AcDbLine
 62
7
  6
CONTINUOUS
 10
3.2046955357
 20
4.8796773875
 11
3.2046048669
 21
4.8797632197
  0
LINE
  5
25D
100
AcDbEntity
  8
0
100
AcDbLine
 62
7
  6
CONTINUOUS
 10
3.2189755357
 20
4.87923361
 11
3.2188852505
 21
4.8793190794
  0
LINE
  5
25E
100
AcDbEntity
  8
0
100
AcDbLine
 62
7
  6
CONTINUOUS
 10
3.2332555357
 20
4.8787898324
 11
3.2331656309
 21
4.8788749422
  0
LINE
  5
25F
100
AcDbEntity
  8
0
100
AcDbLine
 62
7
  6
CONTINUOUS
 10
3.2475355357
 20
4.8783460548
 11
3.2474460081
 21
4.8784308079
  0
LINE
  5
260
100
AcDbEntity
  8
0
100
AcDbLine
 62
7
  6
CONTINUOUS
 10
3.1137744643
 20
5.0854547215
 11
3.1136907875
 21
5.0855209141
  0
LINE
  5
261
100
AcDbEntity
  8
0
100
AcDbLine
 62
7
  6
CONTINUOUS
 10
3.1280541004
 20
5.0858987866
 11
3.1279707875
 21
5.0859646917
  0
LINE
  5
262
100
AcDbEntity
  8
0
100
AcDbLine
 62
7
  6
CONTINUOUS
 10
3.156613382
 20
5.0867869093
 11
3.1565307875
 21
5.0868522468
  0
LINE
  5
263
100
AcDbEntity
  8
0
100
AcDbLine
 62
7
  6
CONTINUOUS
 10
3.1708930275
 20
5.087230967
 11
3.1708107875
 21
5.0872960243
  0
LINE
  5
264
100
AcDbEntity
  8
0
100
AcDbLine
 62
7
  6
CONTINUOUS
 10
3.1851726759
 20
5.0876750224
 11
3.1850907875
 21
5.0877398019
  0
LINE
  5
265
100
AcDbEntity
  8
0
100
AcDbLine
 62
7
  6
CONTINUOUS
 10
3.1994523274
 20
5.0881190753
 11
3.1993707875
 21
5.0881835794
  0
LINE
  5
266
100
AcDbEntity
  8
0
100
AcDbLine
 62
7
  6
CONTINUOUS
 10
3.2137319818
 20
5.088563126
 11
3.2136507875
 21
5.088627357
  0
LINE
  5
267
100
AcDbEntity
  8
0
100
AcDbLine
 62
7
  6
CONTINUOUS
 10
3.2280116391
 20
5.0890071743
 11
3.2279307875
 21
5.0890711345
  0
LINE
  5
268
100
AcDbEntity
  8
0
100
AcDbLine
 62
7
  6
CONTINUOUS
 10
3.2422912993
 20
5.0894512204
 11
3.2422107875
 21
5.0895149121
  0
LINE
  5
269
100
AcDbEntity
  8
0
100
AcDbLine
 62
7
  6
CONTINUOUS
 10
7.9932455357
 20
3.9840132217
 11
7.8112455357
 21
3.9840132217
  0
LINE
  5
26A
100
AcDbEntity
  8
0
100
AcDbLine
 62
7
  6
CONTINUOUS
 10
7.8022404148
 20
4.0410132217
 11
7.9974233652
 21
4.0410132217
  0
LINE
  5
26B
100
AcDbEntity
  8
0
100
AcDbLine
 62
7
  6
CONTINUOUS
 10
7.9942455357
 20
4.0470132217
 11
7.8102455357
 21
4.0470132217
  0
LINE
  5
26C
100
AcDbEntity
  8
0
100
AcDbLine
 62
7
  6
CONTINUOUS
 10
7.9942455357
 20
4.0530132217
 11
7.8102455357
 21
4.0530132217
  0
LINE
  5
26D
100
AcDbEntity
  8
0
100
AcDbLine
 62
7
  6
CONTINUOUS
 10
8.0082455357
 20
4.0590132217
 11
7.7962455357
 21
4.0590132217
  0
LINE
  5
26E
100
AcDbEntity
  8
0
100
AcDbLine
 62
7
  6
CONTINUOUS
 10
8.0082455357
 20
4.2840132217
 11
7.7962455357
 21
4.2840132217
  0
LINE
  5
26F
100
AcDbEntity
  8
0
100
AcDbLine
 62
7
  6
CONTINUOUS
 10
3.3772455357
 20
4.8358132217
 11
3.3896455357
 21
4.8358132217
  0
LINE
  5
270
100
AcDbEntity
  8
0
100
AcDbLine
 62
7
  6
CONTINUOUS
 10
3.2582455357
 20
4.8780132217
 11
3.3022455357
 21
4.8780132217
  0
LINE
  5
271
100
AcDbEntity
  8
0
100
AcDbLine
 62
7
  6
CONTINUOUS
 10
3.3896455357
 20
4.8780132217
 11
7.2022455357
 21
4.8780132217
  0
LINE
  5
272
100
AcDbEntity
  8
0
100
AcDbLine
 62
7
  6
CONTINUOUS
 10
3.2582455357
 20
4.8780132217
 11
3.2475355357
 21
4.8783460548
  0
LINE
  5
273
100
AcDbEntity
  8
0
100
AcDbLine
 62
7
  6
CONTINUOUS
 10
3.2350707875
 20
4.8787334201
 11
3.2332555357
 21
4.8787898324
  0
LINE
  5
274
100
AcDbEntity
  8
0
100
AcDbLine
 62
7
  6
CONTINUOUS
 10
3.2207907875
 20
4.8791771976
 11
3.2189755357
 21
4.87923361
  0
LINE
  5
275
100
AcDbEntity
  8
0
100
AcDbLine
 62
7
  6
CONTINUOUS
 10
3.2065107875
 20
4.8796209752
 11
3.2046955357
 21
4.8796773875
  0
LINE
  5
276
100
AcDbEntity
  8
0
100
AcDbLine
 62
7
  6
CONTINUOUS
 10
3.1922307875
 20
4.8800647527
 11
3.1904155357
 21
4.8801211651
  0
LINE
  5
277
100
AcDbEntity
  8
0
100
AcDbLine
 62
7
  6
CONTINUOUS
 10
3.1779507875
 20
4.8805085303
 11
3.1761355357
 21
4.8805649426
  0
LINE
  5
278
100
AcDbEntity
  8
0
100
AcDbLine
 62
7
  6
CONTINUOUS
 10
3.1636707875
 20
4.8809523078
 11
3.1618555357
 21
4.8810087202
  0
LINE
  5
279
100
AcDbEntity
  8
0
100
AcDbLine
 62
7
  6
CONTINUOUS
 10
3.1493907875
 20
4.8813960854
 11
3.1475755357
 21
4.8814524977
  0
LINE
  5
27A
100
AcDbEntity
  8
0
100
AcDbLine
 62
7
  6
CONTINUOUS
 10
3.1351107875
 20
4.8818398629
 11
3.1332955357
 21
4.8818962753
  0
LINE
  5
27B
100
AcDbEntity
  8
0
100
AcDbLine
 62
7
  6
CONTINUOUS
 10
3.1208307875
 20
4.8822836405
 11
3.1190155357
 21
4.8823400528
  0
LINE
  5
27C
100
AcDbEntity
  8
0
100
AcDbLine
 62
7
  6
CONTINUOUS
 10
3.1065507875
 20
4.882727418
 11
3.1047355357
 21
4.8827838304
  0
LINE
  5
27D
100
AcDbEntity
  8
0
100
AcDbLine
 62
7
  6
CONTINUOUS
 10
7.999451789
 20
4.0410558804
 11
7.999401571
 21
4.0410728745
  0
LINE
  5
27E
100
AcDbEntity
  8
0
100
AcDbLine
 62
7
  6
CONTINUOUS
 10
3.2582455357
 20
4.9840132217
 11
3.2457807875
 21
4.9840132217
  0
LINE
  5
27F
100
AcDbEntity
  8
0
100
AcDbLine
 62
7
  6
CONTINUOUS
 10
3.2582455357
 20
5.0900132217
 11
3.3022455357
 21
5.0900132217
  0
LINE
  5
280
100
AcDbEntity
  8
0
100
AcDbLine
 62
7
  6
CONTINUOUS
 10
3.3896455357
 20
5.0900132217
 11
7.2022455357
 21
5.0900132217
  0
LINE
  5
281
100
AcDbEntity
  8
0
100
AcDbLine
 62
7
  6
CONTINUOUS
 10
3.2582455357
 20
5.0900132217
 11
3.2546755357
 21
5.0899022773
  0
LINE
  5
282
100
AcDbEntity
  8
0
100
AcDbLine
 62
7
  6
CONTINUOUS
 10
3.2422107875
 20
5.0895149121
 11
3.2403955357
 21
5.0894584997
  0
LINE
  5
283
100
AcDbEntity
  8
0
100
AcDbLine
 62
7
  6
CONTINUOUS
 10
3.2279307875
 20
5.0890711345
 11
3.2261155357
 21
5.0890147222
  0
LINE
  5
284
100
AcDbEntity
  8
0
100
AcDbLine
 62
7
  6
CONTINUOUS
 10
3.2136507875
 20
5.088627357
 11
3.2118355357
 21
5.0885709446
  0
LINE
  5
285
100
AcDbEntity
  8
0
100
AcDbLine
 62
7
  6
CONTINUOUS
 10
3.1993707875
 20
5.0881835794
 11
3.1975555357
 21
5.0881271671
  0
LINE
  5
286
100
AcDbEntity
  8
0
100
AcDbLine
 62
7
  6
CONTINUOUS
 10
3.1850907875
 20
5.0877398019
 11
3.1832755357
 21
5.0876833895
  0
LINE
  5
287
100
AcDbEntity
  8
0
100
AcDbLine
 62
7
  6
CONTINUOUS
 10
3.1708107875
 20
5.0872960243
 11
3.1689955357
 21
5.087239612
  0
LINE
  5
288
100
AcDbEntity
  8
0
100
AcDbLine
 62
7
  6
CONTINUOUS
 10
3.1565307875
 20
5.0868522468
 11
3.1547155357
 21
5.0867958344
  0
LINE
  5
289
100
AcDbEntity
  8
0
100
AcDbLine
 62
7
  6
CONTINUOUS
 10
3.1422507875
 20
5.0864084692
 11
3.1404355357
 21
5.0863520569
  0
LINE
  5
28A
100
AcDbEntity
  8
0
100
AcDbLine
 62
7
  6
CONTINUOUS
 10
3.1279707875
 20
5.0859646917
 11
3.1261555357
 21
5.0859082793
  0
LINE
  5
28B
100
AcDbEntity
  8
0
100
AcDbLine
 62
7
  6
CONTINUOUS
 10
3.1136907875
 20
5.0855209141
 11
3.1118755357
 21
5.0854645018
  0
LINE
  5
28C
100
AcDbEntity
  8
0
100
AcDbLine
 62
7
  6
CONTINUOUS
 10
3.3772455357
 20
5.1322132217
 11
3.3896455357
 21
5.1322132217
  0
LINE
  5
28D
100
AcDbEntity
  8
0
100
AcDbLine
 62
7
  6
CONTINUOUS
 10
7.8092247138
 20
3.9886571884
 11
7.8031960855
 21
3.9921407408
  0
LINE
  5
28E
100
AcDbEntity
  8
0
100
AcDbLine
 62
7
  6
CONTINUOUS
 10
7.8092247138
 20
4.0029371884
 11
7.7993206777
 21
4.0086599059
  0
LINE
  5
28F
100
AcDbEntity
  8
0
100
AcDbLine
 62
7
  6
CONTINUOUS
 10
7.8092247138
 20
4.0172171884
 11
7.7993206777
 21
4.0229399059
  0
LINE
  5
290
100
AcDbEntity
  8
0
100
AcDbLine
 62
7
  6
CONTINUOUS
 10
7.8092247138
 20
4.0314971884
 11
7.7993206777
 21
4.0372199059
  0
LINE
  5
291
100
AcDbEntity
  8
0
100
AcDbLine
 62
7
  6
CONTINUOUS
 10
7.9952663577
 20
3.995069255
 11
8.0009430318
 21
3.9917890641
  0
LINE
  5
292
100
AcDbEntity
  8
0
100
AcDbLine
 62
7
  6
CONTINUOUS
 10
7.9952663577
 20
4.009349255
 11
8.0051703936
 21
4.0036265376
  0
LINE
  5
293
100
AcDbEntity
  8
0
100
AcDbLine
 62
7
  6
CONTINUOUS
 10
7.9952663576
 20
4.023629255
 11
8.0051703937
 21
4.0179065376
  0
LINE
  5
294
100
AcDbEntity
  8
0
100
AcDbLine
 62
7
  6
CONTINUOUS
 10
7.9952663576
 20
4.037909255
 11
8.0051703937
 21
4.0321865376
  0
LINE
  5
295
100
AcDbEntity
  8
0
100
AcDbLine
 62
7
  6
CONTINUOUS
 10
7.8029045876
 20
3.9923541698
 11
7.8031960855
 21
3.9921407408
  0
LINE
  5
296
100
AcDbEntity
  8
0
100
AcDbLine
 62
7
  6
CONTINUOUS
 10
7.8112455368
 20
3.9840132206
 11
7.8080536636
 21
3.9872050938
  0
LINE
  5
297
100
AcDbEntity
  8
0
100
AcDbLine
 62
7
  6
CONTINUOUS
 10
7.8029045876
 20
3.9923541698
 11
7.7991230694
 21
3.996135688
  0
LINE
  5
298
100
AcDbEntity
  8
0
100
AcDbLine
 62
7
  6
CONTINUOUS
 10
7.7993206777
 20
4.0086599059
 11
7.7992455357
 21
4.0087467244
  0
LINE
  5
299
100
AcDbEntity
  8
0
100
AcDbLine
 62
7
  6
CONTINUOUS
 10
7.7993206777
 20
4.0229399059
 11
7.7992455357
 21
4.0230267244
  0
LINE
  5
29A
100
AcDbEntity
  8
0
100
AcDbLine
 62
7
  6
CONTINUOUS
 10
7.7992455357
 20
4.0373067244
 11
7.7993206777
 21
4.0372199059
  0
LINE
  5
29B
100
AcDbEntity
  8
0
100
AcDbLine
 62
7
  6
CONTINUOUS
 10
8.0052455357
 20
4.003539719
 11
8.0051703936
 21
4.0036265376
  0
LINE
  5
29C
100
AcDbEntity
  8
0
100
AcDbLine
 62
7
  6
CONTINUOUS
 10
8.0052455357
 20
4.017819719
 11
8.0051703937
 21
4.0179065376
  0
LINE
  5
29D
100
AcDbEntity
  8
0
100
AcDbLine
 62
7
  6
CONTINUOUS
 10
8.0052455357
 20
4.032099719
 11
8.0051703937
 21
4.0321865376
  0
LINE
  5
29E
100
AcDbEntity
  8
0
100
AcDbLine
 62
7
  6
CONTINUOUS
 10
7.2022455357
 20
5.0900132217
 11
7.2022455357
 21
4.8780132217
  0
LINE
  5
29F
100
AcDbEntity
  8
0
100
AcDbLine
 62
7
  6
CONTINUOUS
 10
7.7993206777
 20
4.0393265376
 11
7.8022399071
 21
4.0410132217
  0
LINE
  5
2A0
100
AcDbEntity
  8
0
100
AcDbLine
 62
7
  6
CONTINUOUS
 10
7.7993206777
 20
4.0250465376
 11
7.8093287336
 21
4.0308293631
  0
LINE
  5
2A1
100
AcDbEntity
  8
0
100
AcDbLine
 62
7
  6
CONTINUOUS
 10
7.7993206777
 20
4.0107665376
 11
7.8093287336
 21
4.0165493631
  0
LINE
  5
2A2
100
AcDbEntity
  8
0
100
AcDbLine
 62
7
  6
CONTINUOUS
 10
7.7993206779
 20
3.9964865376
 11
7.8093287335
 21
4.002269363
  0
LINE
  5
2A3
100
AcDbEntity
  8
0
100
AcDbLine
 62
7
  6
CONTINUOUS
 10
7.8080756164
 20
3.9872652363
 11
7.8093287335
 21
3.987989363
  0
LINE
  5
2A4
100
AcDbEntity
  8
0
100
AcDbLine
 62
7
  6
CONTINUOUS
 10
7.9994520247
 20
4.0410558522
 11
7.995162338
 21
4.0385770804
  0
LINE
  5
2A5
100
AcDbEntity
  8
0
100
AcDbLine
 62
7
  6
CONTINUOUS
 10
8.0051703938
 20
4.0300799059
 11
7.995162338
 21
4.0242970804
  0
LINE
  5
2A6
100
AcDbEntity
  8
0
100
AcDbLine
 62
7
  6
CONTINUOUS
 10
8.0051703938
 20
4.0157999059
 11
7.995162338
 21
4.0100170804
  0
LINE
  5
2A7
100
AcDbEntity
  8
0
100
AcDbLine
 62
7
  6
CONTINUOUS
 10
8.0051703938
 20
4.0015199059
 11
7.995162338
 21
3.9957370804
  0
LINE
  5
2A8
100
AcDbEntity
  8
0
100
AcDbLine
 62
7
  6
CONTINUOUS
 10
7.7992455357
 20
4.039239719
 11
7.7993206777
 21
4.0393265376
  0
LINE
  5
2A9
100
AcDbEntity
  8
0
100
AcDbLine
 62
7
  6
CONTINUOUS
 10
7.7992455357
 20
4.024959719
 11
7.7993206777
 21
4.0250465376
  0
LINE
  5
2AA
100
AcDbEntity
  8
0
100
AcDbLine
 62
7
  6
CONTINUOUS
 10
7.7992455357
 20
4.010679719
 11
7.7993206777
 21
4.0107665376
  0
LINE
  5
2AB
100
AcDbEntity
  8
0
100
AcDbLine
 62
7
  6
CONTINUOUS
 10
7.9932455346
 20
3.9840132206
 11
8.0009639865
 21
3.9917316725
  0
LINE
  5
2AC
100
AcDbEntity
  8
0
100
AcDbLine
 62
7
  6
CONTINUOUS
 10
8.0009430318
 20
3.9917890641
 11
8.0009639865
 21
3.9917316725
  0
LINE
  5
2AD
100
AcDbEntity
  8
0
100
AcDbLine
 62
7
  6
CONTINUOUS
 10
7.7962455357
 20
4.2840132217
 11
7.7962455357
 21
4.0590132217
  0
LINE
  5
2AE
100
AcDbEntity
  8
0
100
AcDbLine
 62
7
  6
CONTINUOUS
 10
7.7992455357
 20
4.024959719
 11
7.7992455357
 21
4.0230267244
  0
LINE
  5
2AF
100
AcDbEntity
  8
0
100
AcDbLine
 62
7
  6
CONTINUOUS
 10
7.7992455357
 20
4.010679719
 11
7.7992455357
 21
4.0087467244
  0
LINE
  5
2B0
100
AcDbEntity
  8
0
100
AcDbLine
 62
7
  6
CONTINUOUS
 10
7.7992455357
 20
4.0373067244
 11
7.7992455357
 21
4.039239719
  0
LINE
  5
2B1
100
AcDbEntity
  8
0
100
AcDbLine
 62
7
  6
CONTINUOUS
 10
7.8092455357
 20
3.9878932217
 11
7.8092455357
 21
3.9886932217
  0
LINE
  5
2B2
100
AcDbEntity
  8
0
100
AcDbLine
 62
7
  6
CONTINUOUS
 10
7.8092455357
 20
4.0021732217
 11
7.8092455357
 21
4.0029732217
  0
LINE
  5
2B3
100
AcDbEntity
  8
0
100
AcDbLine
 62
7
  6
CONTINUOUS
 10
7.8092455357
 20
4.0164532217
 11
7.8092455357
 21
4.0172532217
  0
LINE
  5
2B4
100
AcDbEntity
  8
0
100
AcDbLine
 62
7
  6
CONTINUOUS
 10
7.8092455357
 20
4.0307332217
 11
7.8092455357
 21
4.0315332217
  0
LINE
  5
2B5
100
AcDbEntity
  8
0
100
AcDbLine
 62
7
  6
CONTINUOUS
 10
7.8102455357
 20
4.0470132217
 11
7.8102455357
 21
4.0530132217
  0
LINE
  5
2B6
100
AcDbEntity
  8
0
100
AcDbLine
 62
7
  6
CONTINUOUS
 10
7.9942455357
 20
4.0470132217
 11
7.9942455357
 21
4.0530132217
  0
LINE
  5
2B7
100
AcDbEntity
  8
0
100
AcDbLine
 62
7
  6
CONTINUOUS
 10
7.9952455357
 20
4.0386732217
 11
7.9952455357
 21
4.0378732217
  0
LINE
  5
2B8
100
AcDbEntity
  8
0
100
AcDbLine
 62
7
  6
CONTINUOUS
 10
7.9952455357
 20
4.0243932217
 11
7.9952455357
 21
4.0235932217
  0
LINE
  5
2B9
100
AcDbEntity
  8
0
100
AcDbLine
 62
7
  6
CONTINUOUS
 10
7.9952455357
 20
4.0101132217
 11
7.9952455357
 21
4.0093132217
  0
LINE
  5
2BA
100
AcDbEntity
  8
0
100
AcDbLine
 62
7
  6
CONTINUOUS
 10
7.9952455357
 20
3.9958332217
 11
7.9952455357
 21
3.9950332217
  0
LINE
  5
2BB
100
AcDbEntity
  8
0
100
AcDbLine
 62
7
  6
CONTINUOUS
 10
8.0052455357
 20
4.032099719
 11
8.0052455357
 21
4.0301667244
  0
LINE
  5
2BC
100
AcDbEntity
  8
0
100
AcDbLine
 62
7
  6
CONTINUOUS
 10
8.0052455357
 20
4.017819719
 11
8.0052455357
 21
4.0158867244
  0
LINE
  5
2BD
100
AcDbEntity
  8
0
100
AcDbLine
 62
7
  6
CONTINUOUS
 10
8.0052455357
 20
4.003539719
 11
8.0052455357
 21
4.0016067244
  0
LINE
  5
2BE
100
AcDbEntity
  8
0
100
AcDbLine
 62
7
  6
CONTINUOUS
 10
8.0082455357
 20
4.2840132217
 11
8.0082455357
 21
4.0590132217
  0
LINE
  5
2BF
100
AcDbEntity
  8
0
100
AcDbLine
 62
7
  6
CONTINUOUS
 10
7.8080536636
 20
3.9872050938
 11
7.8080756164
 21
3.9872652363
  0
LINE
  5
2C0
100
AcDbEntity
  8
0
100
AcDbLine
 62
7
  6
CONTINUOUS
 10
7.7992455357
 20
3.9962064703
 11
7.7993208373
 21
3.9963892465
  0
LINE
  5
2C1
100
AcDbEntity
  8
0
100
AcDbLine
 62
7
  6
CONTINUOUS
 10
8.0051703938
 20
4.0300799059
 11
8.0052455357
 21
4.0301667244
  0
LINE
  5
2C2
100
AcDbEntity
  8
0
100
AcDbLine
 62
7
  6
CONTINUOUS
 10
8.0051703938
 20
4.0157999059
 11
8.0052455357
 21
4.0158867244
  0
LINE
  5
2C3
100
AcDbEntity
  8
0
100
AcDbLine
 62
7
  6
CONTINUOUS
 10
8.0051703938
 20
4.0015199059
 11
8.0052455357
 21
4.0016067244
  0
ARC
  5
2C4
100
AcDbEntity
  8
0
100
AcDbCircle
 62
7
  6
CONTINUOUS
 10
7.2022455357
 20
4.2840132217
 40
0.806
100
AcDbArc
 50
0.0
 51
90.0
  0
ARC
  5
2C5
100
AcDbEntity
  8
0
100
AcDbCircle
 62
7
  6
CONTINUOUS
 10
7.2022455357
 20
4.2840132217
 40
0.594
100
AcDbArc
 50
0.0
 51
90.0
  0
ARC
  5
2C6
100
AcDbEntity
  8
0
100
AcDbCircle
 62
7
  6
CONTINUOUS
 10
3.3022455357
 20
5.1824132217
 40
0.0376
100
AcDbArc
 50
2.4388546909
 51
90.0
  0
ARC
  5
2C7
100
AcDbEntity
  8
0
100
AcDbCircle
 62
7
  6
CONTINUOUS
 10
3.3022455357
 20
4.7856132217
 40
0.0376
100
AcDbArc
 50
270.0
 51
357.5611453091
  0
ARC
  5
2C8
100
AcDbEntity
  8
0
100
AcDbCircle
 62
7
  6
CONTINUOUS
 10
3.3396455357
 20
5.1464135879
 40
0.0376
100
AcDbArc
 50
0.0
 51
89.7471327561
  0
ARC
  5
2C9
100
AcDbEntity
  8
0
100
AcDbCircle
 62
7
  6
CONTINUOUS
 10
3.3396455357
 20
4.8216128555
 40
0.0376
100
AcDbArc
 50
270.2528672439
 51
360.0
  0
ARC
  5
2CA
100
AcDbEntity
  8
0
100
AcDbCircle
 62
7
  6
CONTINUOUS
 10
7.8042455357
 20
4.0530132217
 40
0.006
100
AcDbArc
 50
0.0
 51
89.9999981714
  0
ARC
  5
2CB
100
AcDbEntity
  8
0
100
AcDbCircle
 62
7
  6
CONTINUOUS
 10
8.0002455357
 20
4.0530132217
 40
0.006
100
AcDbArc
 50
90.0000018286
 51
180.0
  0
ARC
  5
2CC
100
AcDbEntity
  8
0
100
AcDbCircle
 62
7
  6
CONTINUOUS
 10
7.8042455361
 20
4.0470132217
 40
0.006
100
AcDbArc
 50
269.9999967704
 51
360.0
  0
ARC
  5
2CD
100
AcDbEntity
  8
0
100
AcDbCircle
 62
7
  6
CONTINUOUS
 10
8.0002440541
 20
4.047009661
 40
0.0059961482
100
AcDbArc
 50
180.0007360266
 51
261.9032473758
  0
LINE
  5
2CE
100
AcDbEntity
  8
0
100
AcDbLine
 62
7
  6
CONTINUOUS
 10
3.1423337397
 20
5.086342825
 11
3.1422507875
 21
5.0864084719
  0
SPLINE
  5
2CF
100
AcDbEntity
  8
0
100
AcDbSpline
 62
7
  6
CONTINUOUS
 70
0
 71
3
 72
34
 73
30
 74
0
 42
0.0000001
 43
0.0000001
 44
0.0000000001
 40
0.0
 40
0.0
 40
0.0
 40
0.0
 40
0.0006164978
 40
0.001082472
 40
0.0016782308
 40
0.0032857688
 40
0.0054681907
 40
0.006778125
 40
0.0082345701
 40
0.0115880847
 40
0.0155299974
 40
0.0200594189
 40
0.0308727818
 40
0.0440088472
 40
0.0594381554
 40
0.0771262629
 40
0.0970310901
 40
0.1191062068
 40
0.1432986166
 40
0.1695510727
 40
0.2279791939
 40
0.293830534
 40
0.3664729227
 40
0.4452083678
 40
0.5292794609
 40
0.6178774859
 40
0.7101497922
 40
0.8052072054
 40
1.0
 40
1.0
 40
1.0
 40
1.0
 10
3.2350707875
 20
4.8787334483
 30
0.0
 10
3.2350491349
 20
4.8787341211
 30
0.0
 10
3.235015288
 20
4.8787617856
 30
0.0
 10
3.2349841011
 20
4.8788104654
 30
0.0
 10
3.2349429277
 20
4.8788955681
 30
0.0
 10
3.2348956356
 20
4.8790423507
 30
0.0
 10
3.234853307
 20
4.8792166393
 30
0.0
 10
3.2348184277
 20
4.8793869996
 30
0.0
 10
3.2347795822
 20
4.8795985247
 30
0.0
 10
3.2347318303
 20
4.8799023692
 30
0.0
 10
3.2346766626
 20
4.880314225
 30
0.0
 10
3.234598239
 20
4.880987339
 30
0.0
 10
3.2345026534
 20
4.8819835635
 30
0.0
 10
3.234392855
 20
4.8833629537
 30
0.0
 10
3.2342826467
 20
4.8849845346
 30
0.0
 10
3.234172116
 20
4.8868444071
 30
0.0
 10
3.2340613762
 20
4.8889381567
 30
0.0
 10
3.2339504913
 20
4.891260737
 30
0.0
 10
3.2338394859
 20
4.8938065899
 30
0.0
 10
3.2336858348
 20
4.8976291761
 30
0.0
 10
3.2334962269
 20
4.9029153122
 30
0.0
 10
3.2332754165
 20
4.9098313988
 30
0.0
 10
3.2330542198
 20
4.9174613764
 30
0.0
 10
3.2328327172
 20
4.9257318105
 30
0.0
 10
3.2326110044
 20
4.9345630881
 30
0.0
 10
3.2323891347
 20
4.943870172
 30
0.0
 10
3.2321671489
 20
4.953563404
 30
0.0
 10
3.2318686355
 20
4.9669874162
 30
0.0
 10
3.231648671
 20
4.9771700325
 30
0.0
 10
3.2315007875
 20
4.9840132217
 30
0.0
  0
SPLINE
  5
2D0
100
AcDbEntity
  8
0
100
AcDbSpline
 62
7
  6
CONTINUOUS
 70
0
 71
3
 72
52
 73
48
 74
0
 42
0.0000001
 43
0.0000001
 44
0.0000000001
 40
0.0
 40
0.0
 40
0.0
 40
0.0
 40
0.0003252152
 40
0.0005559289
 40
0.0008455016
 40
0.0016171235
 40
0.0026581188
 40
0.0039744739
 40
0.0055687462
 40
0.0074419448
 40
0.0095939289
 40
0.0147314647
 40
0.0209738284
 40
0.028308171
 40
0.0367192402
 40
0.0461883453
 40
0.0566944793
 40
0.0682140715
 40
0.0807209431
 40
0.1085812891
 40
0.140022298
 40
0.1747578066
 40
0.2124711696
 40
0.2528182377
 40
0.2954310377
 40
0.3399206523
 40
0.3858808343
 40
0.4328921619
 40
0.4805254961
 40
0.575916603
 40
0.6685787174
 40
0.712824086
 40
0.7551358935
 40
0.7951278338
 40
0.8324351815
 40
0.8667176878
 40
0.8976627794
 40
0.9249888271
 40
0.9484476747
 40
0.9678272005
 40
0.9759316251
 40
0.9829547702
 40
0.9888817027
 40
0.9937014309
 40
0.99740669
 40
0.9988417383
 40
1.0
 40
1.0
 40
1.0
 40
1.0
 10
7.8092455609
 20
4.0315332217
 30
0.0
 10
7.809245556
 20
4.0315533774
 30
0.0
 10
7.8092664432
 20
4.0315861169
 30
0.0
 10
7.8093076175
 20
4.0316175382
 30
0.0
 10
7.809377599
 20
4.0316574795
 30
0.0
 10
7.8094997124
 20
4.03170382
 30
0.0
 10
7.8096863798
 20
4.0317567903
 30
0.0
 10
7.8099255557
 20
4.0318099314
 30
0.0
 10
7.8102171998
 20
4.0318635053
 30
0.0
 10
7.8105613378
 20
4.0319172386
 30
0.0
 10
7.8111240721
 20
4.0319936633
 30
0.0
 10
7.8119576461
 20
4.0320867966
 30
0.0
 10
7.8131125815
 20
4.0321937751
 30
0.0
 10
7.8144711059
 20
4.0323011454
 30
0.0
 10
7.8160301186
 20
4.0324088273
 30
0.0
 10
7.8177861077
 20
4.032516706
 30
0.0
 10
7.8197350674
 20
4.0326247267
 30
0.0
 10
7.8218725532
 20
4.0327328564
 30
0.0
 10
7.8250848395
 20
4.0328825755
 30
0.0
 10
7.8295314582
 20
4.0330673171
 30
0.0
 10
7.835355584
 20
4.0332823975
 30
0.0
 10
7.8417907278
 20
4.0334978408
 30
0.0
 10
7.8487781102
 20
4.0337135705
 30
0.0
 10
7.8562539102
 20
4.033929493
 30
0.0
 10
7.8641498394
 20
4.0341455574
 30
0.0
 10
7.8723937714
 20
4.0343617227
 30
0.0
 10
7.8809103972
 20
4.0345779588
 30
0.0
 10
7.8896219199
 20
4.034794242
 30
0.0
 10
7.9013961516
 20
4.0350827779
 30
0.0
 10
7.9159988633
 20
4.0354385615
 30
0.0
 10
7.9303914235
 20
4.0357991152
 30
0.0
 10
7.9414949659
 20
4.0360918284
 30
0.0
 10
7.949335073
 20
4.0363078799
 30
0.0
 10
7.9567450187
 20
4.0365237774
 30
0.0
 10
7.9636571179
 20
4.0367394724
 30
0.0
 10
7.9700082417
 20
4.0369548715
 30
0.0
 10
7.9757403839
 20
4.0371698685
 30
0.0
 10
7.9808012241
 20
4.0373841786
 30
0.0
 10
7.9851445652
 20
4.0375976531
 30
0.0
 10
7.9882964621
 20
4.0377833457
 30
0.0
 10
7.9904296681
 20
4.0379360665
 30
0.0
 10
7.9917301588
 20
4.0380433777
 30
0.0
 10
7.9928263714
 20
4.0381500616
 30
0.0
 10
7.9937157856
 20
4.0382561177
 30
0.0
 10
7.9943263475
 20
4.0383490555
 30
0.0
 10
7.9947089106
 20
4.0384270241
 30
0.0
 10
7.994864846
 20
4.0384664908
 30
0.0
 10
7.9949336294
 20
4.0384870321
 30
0.0
  0
LINE
  5
2D1
100
AcDbEntity
  8
0
100
AcDbLine
 62
7
  6
CONTINUOUS
 10
7.9949336294
 20
4.0384870321
 11
7.9951623126
 21
4.0385770804
  0
SPLINE
  5
2D2
100
AcDbEntity
  8
0
100
AcDbSpline
 62
7
  6
CONTINUOUS
 70
0
 71
3
 72
56
 73
52
 74
0
 42
0.0000001
 43
0.0000001
 44
0.0000000001
 40
0.0
 40
0.0
 40
0.0
 40
0.0
 40
0.0003287484
 40
0.0005628611
 40
0.0008570576
 40
0.001641842
 40
0.0027015065
 40
0.0040419125
 40
0.0056653863
 40
0.0075728305
 40
0.0097644017
 40
0.0149967384
 40
0.0213535626
 40
0.0288223551
 40
0.0373863815
 40
0.0470269774
 40
0.0577216843
 40
0.069446513
 40
0.0821739313
 40
0.1105173255
 40
0.14248927
 40
0.1777929231
 40
0.2160999393
 40
0.2570540856
 40
0.3002743648
 40
0.3453583598
 40
0.3918864661
 40
0.4394256769
 40
0.487533219
 40
0.5836608977
 40
0.6307859975
 40
0.6766979282
 40
0.7209693761
 40
0.7631880832
 40
0.8029612718
 40
0.8399189585
 40
0.8737173221
 40
0.904042361
 40
0.930612745
 40
0.942411679
 40
0.9531825452
 40
0.9629007893
 40
0.9715442597
 40
0.9790934802
 40
0.9855321691
 40
0.9908468044
 40
0.9950287318
 40
0.9966936201
 40
0.9980751801
 40
0.9991755862
 40
1.0
 40
1.0
 40
1.0
 40
1.0
 10
7.8092455582
 20
4.0172532217
 30
0.0
 10
7.8092455642
 20
4.0172736183
 30
0.0
 10
7.8092669692
 20
4.0173067155
 30
0.0
 10
7.8093088894
 20
4.017338378
 30
0.0
 10
7.8093802654
 20
4.0173787316
 30
0.0
 10
7.809504771
 20
4.0174255167
 30
0.0
 10
7.8096951162
 20
4.0174789994
 30
0.0
 10
7.8099390159
 20
4.0175326552
 30
0.0
 10
7.810236406
 20
4.017586755
 30
0.0
 10
7.810587308
 20
4.0176410222
 30
0.0
 10
7.8111611131
 20
4.0177181975
 30
0.0
 10
7.8120110252
 20
4.0178122377
 30
0.0
 10
7.8131885266
 20
4.0179202799
 30
0.0
 10
7.8145734445
 20
4.0180286947
 30
0.0
 10
7.8161626016
 20
4.0181374443
 30
0.0
 10
7.8179523047
 20
4.0182463771
 30
0.0
 10
7.8199384276
 20
4.018355465
 30
0.0
 10
7.8221163222
 20
4.0184646554
 30
0.0
 10
7.8253884395
 20
4.0186158332
 30
0.0
 10
7.8299164187
 20
4.0188023697
 30
0.0
 10
7.8358449457
 20
4.0190195595
 30
0.0
 10
7.8423920064
 20
4.0192371147
 30
0.0
 10
7.8494966204
 20
4.0194549588
 30
0.0
 10
7.8570926141
 20
4.0196729967
 30
0.0
 10
7.8651092308
 20
4.019891177
 30
0.0
 10
7.873471792
 20
4.0201094579
 30
0.0
 10
7.8821023988
 20
4.0203278095
 30
0.0
 10
7.8909206529
 20
4.0205462049
 30
0.0
 10
7.9028153554
 20
4.0208373508
 30
0.0
 10
7.9146844008
 20
4.0211267426
 30
0.0
 10
7.926417091
 20
4.0214198427
 30
0.0
 10
7.9349333268
 20
4.0216381661
 30
0.0
 10
7.9431450544
 20
4.0218564042
 30
0.0
 10
7.9509757792
 20
4.0220745249
 30
0.0
 10
7.9583525562
 20
4.0222924793
 30
0.0
 10
7.9652066738
 20
4.0225102076
 30
0.0
 10
7.9714742938
 20
4.0227275932
 30
0.0
 10
7.9770970422
 20
4.0229445444
 30
0.0
 10
7.9813549871
 20
4.0231313323
 30
0.0
 10
7.9844000265
 20
4.0232830031
 30
0.0
 10
7.9864003105
 20
4.0233921024
 30
0.0
 10
7.9882045092
 20
4.0235010548
 30
0.0
 10
7.9898084399
 20
4.0236098032
 30
0.0
 10
7.9912083848
 20
4.0237182894
 30
0.0
 10
7.9924011572
 20
4.0238262566
 30
0.0
 10
7.9933840135
 20
4.0239336887
 30
0.0
 10
7.9940703165
 20
4.0240276708
 30
0.0
 10
7.9945119608
 20
4.0241058752
 30
0.0
 10
7.9947636728
 20
4.0241596776
 30
0.0
 10
7.9949617802
 20
4.0242130552
 30
0.0
 10
7.9950745185
 20
4.0242536553
 30
0.0
 10
7.995120775
 20
4.0242754857
 30
0.0
  0
SPLINE
  5
2D3
100
AcDbEntity
  8
0
100
AcDbSpline
 62
7
  6
CONTINUOUS
 70
0
 71
3
 72
9
 73
5
 74
0
 42
0.0000001
 43
0.0000001
 44
0.0000000001
 40
0.0
 40
0.0
 40
0.0
 40
0.0
 40
0.2649802358
 40
1.0
 40
1.0
 40
1.0
 40
1.0
 10
7.995120775
 20
4.0242754857
 30
0.0
 10
7.9951245168
 20
4.0242772516
 30
0.0
 10
7.9951385786
 20
4.0242840386
 30
0.0
 10
7.9951523989
 20
4.0242913374
 30
0.0
 10
7.9951623356
 20
4.0242970804
 30
0.0
  0
SPLINE
  5
2D4
100
AcDbEntity
  8
0
100
AcDbSpline
 62
7
  6
CONTINUOUS
 70
0
 71
3
 72
35
 73
31
 74
0
 42
0.0000001
 43
0.0000001
 44
0.0000000001
 40
0.0
 40
0.0
 40
0.0
 40
0.0
 40
0.0865481389
 40
0.1752617863
 40
0.2649021623
 40
0.3542115101
 40
0.4419396698
 40
0.5268586621
 40
0.6077797737
 40
0.6835712489
 40
0.7531732855
 40
0.7853457168
 40
0.8156134915
 40
0.8438713695
 40
0.8700204646
 40
0.8939697333
 40
0.9156362586
 40
0.9349444436
 40
0.9518284608
 40
0.9662301484
 40
0.9781021409
 40
0.9874073799
 40
0.9910897871
 40
0.9941234481
 40
0.9965102876
 40
0.9974631112
 40
0.9982575863
 40
0.9988970954
 40
0.9993886043
 40
1.0
 40
1.0
 40
1.0
 40
1.0
 10
3.1022455357
 20
5.0161690874
 30
0.0
 10
3.1023368627
 20
5.0123161711
 30
0.0
 10
3.1025180905
 20
5.0045138472
 30
0.0
 10
3.1027853943
 20
4.9927207524
 30
0.0
 10
3.1030527135
 20
4.98080467
 30
0.0
 10
3.1033199991
 20
4.9689324816
 30
0.0
 10
3.1035871948
 20
4.9572705887
 30
0.0
 10
3.1038542415
 20
4.9459823217
 30
0.0
 10
3.1041210544
 20
4.9352257449
 30
0.0
 10
3.1043875535
 20
4.9251514477
 30
0.0
 10
3.1046147642
 20
4.9172476694
 30
0.0
 10
3.1047983738
 20
4.9113706777
 30
0.0
 10
3.1049323857
 20
4.9073341025
 30
0.0
 10
3.1050663105
 20
4.9035659014
 30
0.0
 10
3.1052001348
 20
4.9000792506
 30
0.0
 10
3.1053338252
 20
4.8968863414
 30
0.0
 10
3.105467332
 20
4.8939983426
 30
0.0
 10
3.1056005824
 20
4.8914253165
 30
0.0
 10
3.105733479
 20
4.8891762663
 30
0.0
 10
3.1058657257
 20
4.887258949
 30
0.0
 10
3.1059972363
 20
4.8856800423
 30
0.0
 10
3.106112351
 20
4.8845788409
 30
0.0
 10
3.1062082239
 20
4.8838718179
 30
0.0
 10
3.1062741413
 20
4.8834717807
 30
0.0
 10
3.1063317451
 20
4.8831937724
 30
0.0
 10
3.1063797737
 20
4.8830158568
 30
0.0
 10
3.1064125886
 20
4.8829150038
 30
0.0
 10
3.1064461279
 20
4.8828350509
 30
0.0
 10
3.1064824654
 20
4.8827691115
 30
0.0
 10
3.1065235752
 20
4.8827282943
 30
0.0
 10
3.1065507875
 20
4.8827274442
 30
0.0
  0
SPLINE
  5
2D5
100
AcDbEntity
  8
0
100
AcDbSpline
 62
7
  6
CONTINUOUS
 70
0
 71
3
 72
23
 73
19
 74
0
 42
0.0000001
 43
0.0000001
 44
0.0000000001
 40
0.0
 40
0.0
 40
0.0
 40
0.0
 40
0.0043637036
 40
0.0104704762
 40
0.0183691078
 40
0.0280774002
 40
0.0396020474
 40
0.0529447478
 40
0.085072882
 40
0.1244127245
 40
0.1708947264
 40
0.2244229831
 40
0.2848889269
 40
0.3521645895
 40
0.426108953
 40
0.5933530798
 40
0.7852020543
 40
1.0
 40
1.0
 40
1.0
 40
1.0
 10
7.7993207023
 20
4.0393265375
 30
0.0
 10
7.7993582344
 20
4.0393482251
 30
0.0
 10
7.7994552365
 20
4.0393875964
 30
0.0
 10
7.7996304219
 20
4.0394385319
 30
0.0
 10
7.7998604826
 20
4.0394899684
 30
0.0
 10
7.8001452014
 20
4.0395418212
 30
0.0
 10
7.8004847358
 20
4.0395939014
 30
0.0
 10
7.8010460348
 20
4.0396682198
 30
0.0
 10
7.801883761
 20
4.0397585813
 30
0.0
 10
7.803050869
 20
4.0398622916
 30
0.0
 10
7.8044312396
 20
4.0399663851
 30
0.0
 10
7.8060219465
 20
4.0400708274
 30
0.0
 10
7.8078195895
 20
4.0401754597
 30
0.0
 10
7.8098203345
 20
4.0402802539
 30
0.0
 10
7.8128810434
 20
4.040426173
 30
0.0
 10
7.8171789711
 20
4.0406057743
 30
0.0
 10
7.8228760112
 20
4.0408141744
 30
0.0
 10
7.8269133481
 20
4.0409463319
 30
0.0
 10
7.829046028
 20
4.0410132217
 30
0.0
  0
SPLINE
  5
2D6
100
AcDbEntity
  8
0
100
AcDbSpline
 62
7
  6
CONTINUOUS
 70
0
 71
3
 72
34
 73
30
 74
0
 42
0.0000001
 43
0.0000001
 44
0.0000000001
 40
0.0
 40
0.0
 40
0.0
 40
0.0
 40
0.1949698648
 40
0.2900983676
 40
0.3824306786
 40
0.4710776646
 40
0.5551864516
 40
0.633947844
 40
0.7066037336
 40
0.7724552445
 40
0.8308691914
 40
0.8571088413
 40
0.8812844475
 40
0.9033386246
 40
0.9232182454
 40
0.9408767499
 40
0.9562719488
 40
0.9693692951
 40
0.9801392677
 40
0.9846452375
 40
0.9885625336
 40
0.9918903016
 40
0.9946297258
 40
0.9967844362
 40
0.9976453223
 40
0.9983646193
 40
0.9989466017
 40
0.9993996883
 40
1.0
 40
1.0
 40
1.0
 40
1.0
 10
3.2439655357
 20
4.9840132217
 30
0.0
 10
3.2438178255
 20
4.9908735685
 30
0.0
 10
3.2435980744
 20
5.0010811748
 30
0.0
 10
3.2432997604
 20
5.0145374627
 30
0.0
 10
3.2430779064
 20
5.0242525058
 30
0.0
 10
3.2428561403
 20
5.0335796091
 30
0.0
 10
3.2426345028
 20
5.0424289482
 30
0.0
 10
3.2424130476
 20
5.0507153009
 30
0.0
 10
3.242191871
 20
5.0583588546
 30
0.0
 10
3.2419710539
 20
5.0652859661
 30
0.0
 10
3.241781406
 20
5.0705795993
 30
0.0
 10
3.2416276992
 20
5.0744067482
 30
0.0
 10
3.2415166565
 20
5.0769548873
 30
0.0
 10
3.2414057279
 20
5.0792789605
 30
0.0
 10
3.2412949387
 20
5.081373387
 30
0.0
 10
3.2411843533
 20
5.0832330984
 30
0.0
 10
3.2410740875
 20
5.0848536609
 30
0.0
 10
3.2409642287
 20
5.0862311572
 30
0.0
 10
3.2408685708
 20
5.0872252478
 30
0.0
 10
3.2407900584
 20
5.0878961991
 30
0.0
 10
3.2407348576
 20
5.0883060993
 30
0.0
 10
3.2406799154
 20
5.0886532301
 30
0.0
 10
3.2406252094
 20
5.088937439
 30
0.0
 10
3.2405773531
 20
5.0891344068
 30
0.0
 10
3.2405374868
 20
5.0892597882
 30
0.0
 10
3.2405101835
 20
5.0893307393
 30
0.0
 10
3.2404823175
 20
5.0893864394
 30
0.0
 10
3.2404512453
 20
5.0894335488
 30
0.0
 10
3.2404166534
 20
5.0894591277
 30
0.0
 10
3.2403955357
 20
5.0894584715
 30
0.0
  0
SPLINE
  5
2D7
100
AcDbEntity
  8
0
100
AcDbSpline
 62
7
  6
CONTINUOUS
 70
0
 71
3
 72
30
 73
26
 74
0
 42
0.0000001
 43
0.0000001
 44
0.0000000001
 40
0.0
 40
0.0
 40
0.0
 40
0.0
 40
0.1908205279
 40
0.2840268007
 40
0.3746175715
 40
0.4617587584
 40
0.5446497314
 40
0.6225282488
 40
0.6946782103
 40
0.7604364842
 40
0.8191987695
 40
0.8704256009
 40
0.8930639876
 40
0.9136479445
 40
0.9321313628
 40
0.9484719547
 40
0.9626338053
 40
0.9745859543
 40
0.9843043879
 40
0.9883208805
 40
0.9917736164
 40
0.9946630463
 40
0.996991555
 40
0.9987651519
 40
1.0
 40
1.0
 40
1.0
 40
1.0
 10
3.2457807875
 20
4.9840132217
 30
0.0
 10
3.245636365
 20
4.9907244567
 30
0.0
 10
3.2454214234
 20
5.0007137949
 30
0.0
 10
3.2451298727
 20
5.0138890717
 30
0.0
 10
3.2449129624
 20
5.0234178171
 30
0.0
 10
3.2446961288
 20
5.0325835901
 30
0.0
 10
3.2444794061
 20
5.0413020368
 30
0.0
 10
3.2442628455
 20
5.0494929467
 30
0.0
 10
3.2440465103
 20
5.0570809343
 30
0.0
 10
3.2438305259
 20
5.0639961574
 30
0.0
 10
3.2436149905
 20
5.070174952
 30
0.0
 10
3.2434292213
 20
5.0748369287
 30
0.0
 10
3.2432782423
 20
5.0781560902
 30
0.0
 10
3.24316983
 20
5.0803241091
 30
0.0
 10
3.2430615891
 20
5.0822702866
 30
0.0
 10
3.2429535509
 20
5.0839901648
 30
0.0
 10
3.2428458808
 20
5.0854798048
 30
0.0
 10
3.2427386356
 20
5.0867357994
 30
0.0
 10
3.2426451208
 20
5.0876346946
 30
0.0
 10
3.2425681221
 20
5.0882344322
 30
0.0
 10
3.2425142729
 20
5.0885948861
 30
0.0
 10
3.2424606773
 20
5.0888951688
 30
0.0
 10
3.2424075809
 20
5.0891355582
 30
0.0
 10
3.2423550713
 20
5.0893156997
 30
0.0
 10
3.2423141915
 20
5.0894142935
 30
0.0
 10
3.2422912993
 20
5.0894512123
 30
0.0
  0
SPLINE
  5
2D8
100
AcDbEntity
  8
0
100
AcDbSpline
 62
7
  6
CONTINUOUS
 70
0
 71
3
 72
34
 73
30
 74
0
 42
0.0000001
 43
0.0000001
 44
0.0000000001
 40
0.0
 40
0.0
 40
0.0
 40
0.0
 40
0.1949686115
 40
0.2900964801
 40
0.3824281683
 40
0.4710745548
 40
0.5551827771
 40
0.6339436504
 40
0.7065990779
 40
0.7724501959
 40
0.830863833
 40
0.8571033649
 40
0.8812788815
 40
0.9033330009
 40
0.9232126011
 40
0.9408711286
 40
0.9562664038
 40
0.9693638944
 40
0.9801341036
 40
0.98464024
 40
0.9885577458
 40
0.9918857809
 40
0.9946255522
 40
0.9967807314
 40
0.9976419226
 40
0.9983615941
 40
0.9989440498
 40
0.9993977577
 40
1.0
 40
1.0
 40
1.0
 40
1.0
 10
3.2296855357
 20
4.9840132217
 30
0.0
 10
3.2295378258
 20
4.9908447096
 30
0.0
 10
3.2293180752
 20
5.0010093757
 30
0.0
 10
3.2290197616
 20
5.0144090548
 30
0.0
 10
3.2287979079
 20
5.0240832252
 30
0.0
 10
3.228576142
 20
5.0333710861
 30
0.0
 10
3.2283545047
 20
5.0421831909
 30
0.0
 10
3.2281330495
 20
5.0504346764
 30
0.0
 10
3.227911873
 20
5.0580460654
 30
0.0
 10
3.2276910558
 20
5.0649440247
 30
0.0
 10
3.2275014079
 20
5.0702153767
 30
0.0
 10
3.227347701
 20
5.0740264141
 30
0.0
 10
3.2272366581
 20
5.0765638258
 30
0.0
 10
3.2271257294
 20
5.0788781139
 30
0.0
 10
3.22701494
 20
5.0809637209
 30
0.0
 10
3.2269043545
 20
5.0828156
 30
0.0
 10
3.2267940884
 20
5.0844293361
 30
0.0
 10
3.2266842292
 20
5.0858010288
 30
0.0
 10
3.2265885711
 20
5.0867909272
 30
0.0
 10
3.2265100587
 20
5.0874590449
 30
0.0
 10
3.2264548576
 20
5.0878672158
 30
0.0
 10
3.2263999147
 20
5.0882128823
 30
0.0
 10
3.2263452079
 20
5.0884958924
 30
0.0
 10
3.2262973501
 20
5.0886920264
 30
0.0
 10
3.2262574854
 20
5.0888168705
 30
0.0
 10
3.2262301788
 20
5.0888875239
 30
0.0
 10
3.226202314
 20
5.0889429857
 30
0.0
 10
3.2261712079
 20
5.0889899315
 30
0.0
 10
3.2261366324
 20
5.0890153496
 30
0.0
 10
3.2261155357
 20
5.0890146941
 30
0.0
  0
SPLINE
  5
2D9
100
AcDbEntity
  8
0
100
AcDbSpline
 62
7
  6
CONTINUOUS
 70
0
 71
3
 72
30
 73
26
 74
0
 42
0.0000001
 43
0.0000001
 44
0.0000000001
 40
0.0
 40
0.0
 40
0.0
 40
0.0
 40
0.1908026143
 40
0.2840005176
 40
0.3745836536
 40
0.4617182974
 40
0.5446037812
 40
0.6224782841
 40
0.6946258478
 40
0.7603833828
 40
0.8191469141
 40
0.8703769403
 40
0.8930176318
 40
0.9136044733
 40
0.9320913505
 40
0.9484359201
 40
0.9626022552
 40
0.9745594505
 40
0.9842835122
 40
0.9883030454
 40
0.9917589792
 40
0.9946517734
 40
0.9969838292
 40
0.9987611791
 40
1.0
 40
1.0
 40
1.0
 40
1.0
 10
3.2315007875
 20
4.9840132217
 30
0.0
 10
3.2313563792
 20
4.9906955983
 30
0.0
 10
3.2311414584
 20
5.0006419955
 30
0.0
 10
3.2308499366
 20
5.0137606607
 30
0.0
 10
3.2306330475
 20
5.0232485314
 30
0.0
 10
3.2304162349
 20
5.0323750558
 30
0.0
 10
3.2301995332
 20
5.0410562606
 30
0.0
 10
3.2299829933
 20
5.0492122905
 30
0.0
 10
3.2297666787
 20
5.0567680979
 30
0.0
 10
3.2295507145
 20
5.0636541513
 30
0.0
 10
3.2293351988
 20
5.0698070656
 30
0.0
 10
3.2291494484
 20
5.074449647
 30
0.0
 10
3.2289984858
 20
5.0777551186
 30
0.0
 10
3.2288900834
 20
5.079914303
 30
0.0
 10
3.2287818523
 20
5.081852635
 30
0.0
 10
3.2286738235
 20
5.0835656723
 30
0.0
 10
3.2285661621
 20
5.0850494916
 30
0.0
 10
3.2284589251
 20
5.0863007006
 30
0.0
 10
3.2283654193
 20
5.0871962599
 30
0.0
 10
3.2282884314
 20
5.087793855
 30
0.0
 10
3.2282345854
 20
5.0881531
 30
0.0
 10
3.2281809923
 20
5.0884524409
 30
0.0
 10
3.2281278946
 20
5.0886921517
 30
0.0
 10
3.2280753819
 20
5.088871885
 30
0.0
 10
3.2280345082
 20
5.0889702852
 30
0.0
 10
3.2280116391
 20
5.0890071671
 30
0.0
  0
SPLINE
  5
2DA
100
AcDbEntity
  8
0
100
AcDbSpline
 62
7
  6
CONTINUOUS
 70
0
 71
3
 72
35
 73
31
 74
0
 42
0.0000001
 43
0.0000001
 44
0.0000000001
 40
0.0
 40
0.0
 40
0.0
 40
0.0
 40
0.1949644946
 40
0.2900903314
 40
0.3824200406
 40
0.4710645256
 40
0.5551709477
 40
0.6339301453
 40
0.7065840441
 40
0.7724338029
 40
0.8308462737
 40
0.8570853032
 40
0.8812603762
 40
0.9033141156
 40
0.9231934049
 40
0.9408516981
 40
0.9562468261
 40
0.969344272
 40
0.9801145641
 40
0.9846208036
 40
0.9885384648
 40
0.9918667218
 40
0.994606805
 40
0.9967624275
 40
0.9976239153
 40
0.9983439553
 40
0.9989268818
 40
0.9993812114
 40
0.9997251897
 40
1.0
 40
1.0
 40
1.0
 40
1.0
 10
3.2154055357
 20
4.9840132217
 30
0.0
 10
3.2152578262
 20
4.9908158508
 30
0.0
 10
3.215038076
 20
5.0009375766
 30
0.0
 10
3.2147397628
 20
5.0142806469
 30
0.0
 10
3.2145179094
 20
5.0239139446
 30
0.0
 10
3.2142961437
 20
5.033162563
 30
0.0
 10
3.2140745065
 20
5.0419374337
 30
0.0
 10
3.2138530514
 20
5.0501540518
 30
0.0
 10
3.213631875
 20
5.0577332762
 30
0.0
 10
3.2134110577
 20
5.0646020833
 30
0.0
 10
3.2132214097
 20
5.0698511541
 30
0.0
 10
3.2130677028
 20
5.07364608
 30
0.0
 10
3.2129566598
 20
5.0761727643
 30
0.0
 10
3.212845731
 20
5.0784772673
 30
0.0
 10
3.2127349414
 20
5.0805540548
 30
0.0
 10
3.2126243556
 20
5.0823981016
 30
0.0
 10
3.2125140894
 20
5.0840050114
 30
0.0
 10
3.2124042295
 20
5.0853709006
 30
0.0
 10
3.2123085718
 20
5.0863566064
 30
0.0
 10
3.2122300583
 20
5.087021891
 30
0.0
 10
3.2121748597
 20
5.0874283316
 30
0.0
 10
3.212119908
 20
5.0877725369
 30
0.0
 10
3.2120652231
 20
5.0880543396
 30
0.0
 10
3.2120173112
 20
5.0882496597
 30
0.0
 10
3.2119775297
 20
5.0883739355
 30
0.0
 10
3.211950042
 20
5.0884443584
 30
0.0
 10
3.2119226671
 20
5.088499397
 30
0.0
 10
3.2118951929
 20
5.0885392442
 30
0.0
 10
3.2118669917
 20
5.0885648519
 30
0.0
 10
3.2118451219
 20
5.0885712145
 30
0.0
 10
3.2118355357
 20
5.0885709166
 30
0.0
  0
SPLINE
  5
2DB
100
AcDbEntity
  8
0
100
AcDbSpline
 62
7
  6
CONTINUOUS
 70
0
 71
3
 72
30
 73
26
 74
0
 42
0.0000001
 43
0.0000001
 44
0.0000000001
 40
0.0
 40
0.0
 40
0.0
 40
0.0
 40
0.1907845488
 40
0.2839740356
 40
0.3745495058
 40
0.4616774719
 40
0.5445574904
 40
0.6224279451
 40
0.6945730614
 40
0.7603299087
 40
0.8190946458
 40
0.8703278785
 40
0.8929709493
 40
0.9135607013
 40
0.9320510229
 40
0.9483995834
 40
0.9625704564
 40
0.9745327539
 40
0.9842624903
 40
0.9882850883
 40
0.9917442459
 40
0.9946404293
 40
0.9969760563
 40
0.9987571822
 40
1.0
 40
1.0
 40
1.0
 40
1.0
 10
3.2172207875
 20
4.9840132217
 30
0.0
 10
3.2170763935
 20
4.9906667398
 30
0.0
 10
3.2168614937
 20
5.0005701967
 30
0.0
 10
3.2165700011
 20
5.0136322522
 30
0.0
 10
3.2163531332
 20
5.0230792471
 30
0.0
 10
3.2161363419
 20
5.0321665238
 30
0.0
 10
3.2159196612
 20
5.0408104863
 30
0.0
 10
3.2157031423
 20
5.0489316375
 30
0.0
 10
3.2154868484
 20
5.0564552654
 30
0.0
 10
3.2152709046
 20
5.0633121483
 30
0.0
 10
3.2150554089
 20
5.0694391817
 30
0.0
 10
3.2148696772
 20
5.0740623672
 30
0.0
 10
3.2147187312
 20
5.0773541504
 30
0.0
 10
3.2146103389
 20
5.0795045005
 30
0.0
 10
3.2145021175
 20
5.0814349847
 30
0.0
 10
3.2143940983
 20
5.0831411794
 30
0.0
 10
3.2142864458
 20
5.084619178
 30
0.0
 10
3.214179217
 20
5.0858656023
 30
0.0
 10
3.2140857199
 20
5.0867578259
 30
0.0
 10
3.214008743
 20
5.0873532783
 30
0.0
 10
3.2139549004
 20
5.0877113142
 30
0.0
 10
3.21390131
 20
5.0880097127
 30
0.0
 10
3.213848211
 20
5.0882487442
 30
0.0
 10
3.2137956953
 20
5.0884280683
 30
0.0
 10
3.2137548279
 20
5.0885262743
 30
0.0
 10
3.2137319818
 20
5.0885631189
 30
0.0
  0
SPLINE
  5
2DC
100
AcDbEntity
  8
0
100
AcDbSpline
 62
7
  6
CONTINUOUS
 70
0
 71
3
 72
30
 73
26
 74
0
 42
0.0000001
 43
0.0000001
 44
0.0000000001
 40
0.0
 40
0.0
 40
0.0
 40
0.0
 40
0.1907663313
 40
0.2839473307
 40
0.3745150705
 40
0.4616363025
 40
0.5445108095
 40
0.6223771817
 40
0.6945198296
 40
0.760275983
 40
0.8190419357
 40
0.8702784016
 40
0.8929238715
 40
0.9135165584
 40
0.9320103534
 40
0.9483629385
 40
0.9625383877
 40
0.9745058307
 40
0.9842412901
 40
0.988266979
 40
0.9917293878
 40
0.9946289893
 40
0.9969682179
 40
0.9987531519
 40
1.0
 40
1.0
 40
1.0
 40
1.0
 10
3.2029407875
 20
4.9840132217
 30
0.0
 10
3.202796408
 20
4.9906378812
 30
0.0
 10
3.2025815292
 20
5.0004983979
 30
0.0
 10
3.2022900661
 20
5.0135038436
 30
0.0
 10
3.2020732197
 20
5.0229099629
 30
0.0
 10
3.2018564497
 20
5.0319579918
 30
0.0
 10
3.2016397904
 20
5.0405647118
 30
0.0
 10
3.2014232925
 20
5.0486509842
 30
0.0
 10
3.2012070195
 20
5.0561424326
 30
0.0
 10
3.2009910963
 20
5.0629701448
 30
0.0
 10
3.2007756207
 20
5.0690712972
 30
0.0
 10
3.200589908
 20
5.0736750865
 30
0.0
 10
3.2004389786
 20
5.0769531811
 30
0.0
 10
3.2003305965
 20
5.0790946968
 30
0.0
 10
3.200222385
 20
5.0810173331
 30
0.0
 10
3.2001143755
 20
5.0827166851
 30
0.0
 10
3.2000067318
 20
5.0841888629
 30
0.0
 10
3.1998995113
 20
5.0854305023
 30
0.0
 10
3.1998060231
 20
5.0863193902
 30
0.0
 10
3.1997290573
 20
5.0869126996
 30
0.0
 10
3.1996752181
 20
5.0872695264
 30
0.0
 10
3.1996216303
 20
5.0875669824
 30
0.0
 10
3.1995685302
 20
5.0878053345
 30
0.0
 10
3.1995160115
 20
5.0879842494
 30
0.0
 10
3.1994751504
 20
5.0880822611
 30
0.0
 10
3.1994523274
 20
5.0881190684
 30
0.0
  0
SPLINE
  5
2DD
100
AcDbEntity
  8
0
100
AcDbSpline
 62
7
  6
CONTINUOUS
 70
0
 71
3
 72
35
 73
31
 74
0
 42
0.0000001
 43
0.0000001
 44
0.0000000001
 40
0.0
 40
0.0
 40
0.0
 40
0.0
 40
0.1949632131
 40
0.2900884016
 40
0.3824174744
 40
0.4710613468
 40
0.555167192
 40
0.6339258597
 40
0.706579287
 40
0.7724286451
 40
0.8308408007
 40
0.8570797104
 40
0.8812546927
 40
0.9033083741
 40
0.9231876434
 40
0.9408459614
 40
0.9562411689
 40
0.9693387639
 40
0.9801092998
 40
0.9846157108
 40
0.9885335877
 40
0.9918621191
 40
0.994602559
 40
0.9967586625
 40
0.9976204634
 40
0.9983408873
 40
0.9989242988
 40
0.9993792641
 40
0.9997240986
 40
1.0
 40
1.0
 40
1.0
 40
1.0
 10
3.2011255357
 20
4.9840132217
 30
0.0
 10
3.2009778266
 20
4.9907869919
 30
0.0
 10
3.2007580769
 20
5.0008657775
 30
0.0
 10
3.2004597641
 20
5.0141522389
 30
0.0
 10
3.2002379109
 20
5.023744664
 30
0.0
 10
3.2000161454
 20
5.03295404
 30
0.0
 10
3.1997945084
 20
5.0416916765
 30
0.0
 10
3.1995730534
 20
5.0498734273
 30
0.0
 10
3.1993518769
 20
5.057420487
 30
0.0
 10
3.1991310596
 20
5.0642601419
 30
0.0
 10
3.1989414115
 20
5.0694869314
 30
0.0
 10
3.1987877045
 20
5.0732657459
 30
0.0
 10
3.1986766614
 20
5.0757817029
 30
0.0
 10
3.1985657325
 20
5.0780764207
 30
0.0
 10
3.1984549428
 20
5.0801443888
 30
0.0
 10
3.1983443568
 20
5.0819806032
 30
0.0
 10
3.1982340903
 20
5.0835806867
 30
0.0
 10
3.1981242301
 20
5.0849407722
 30
0.0
 10
3.1980285721
 20
5.0859222859
 30
0.0
 10
3.1979500587
 20
5.0865847368
 30
0.0
 10
3.1978948597
 20
5.0869894482
 30
0.0
 10
3.1978399073
 20
5.0873321891
 30
0.0
 10
3.1977852214
 20
5.0876127933
 30
0.0
 10
3.1977373085
 20
5.0878072791
 30
0.0
 10
3.1976975277
 20
5.0879310183
 30
0.0
 10
3.1976700385
 20
5.0880011417
 30
0.0
 10
3.1976426599
 20
5.0880559466
 30
0.0
 10
3.1976151804
 20
5.0880956269
 30
0.0
 10
3.1975869671
 20
5.0881211172
 30
0.0
 10
3.1975651192
 20
5.088127437
 30
0.0
 10
3.1975555357
 20
5.0881271392
 30
0.0
  0
SPLINE
  5
2DE
100
AcDbEntity
  8
0
100
AcDbSpline
 62
7
  6
CONTINUOUS
 70
0
 71
3
 72
35
 73
31
 74
0
 42
0.0000001
 43
0.0000001
 44
0.0000000001
 40
0.0
 40
0.0
 40
0.0
 40
0.0
 40
0.1949619151
 40
0.2900864471
 40
0.3824148755
 40
0.4710581279
 40
0.5551633892
 40
0.6339215205
 40
0.7065744707
 40
0.7724234237
 40
0.8308352605
 40
0.8570740492
 40
0.8812489399
 40
0.9033025631
 40
0.9231818125
 40
0.9408401561
 40
0.9562354444
 40
0.969333191
 40
0.9801039745
 40
0.9846105593
 40
0.9885286549
 40
0.9918574644
 40
0.9945982657
 40
0.9967548567
 40
0.9976169748
 40
0.9983377874
 40
0.9989216899
 40
0.9993772983
 40
0.9997229978
 40
1.0
 40
1.0
 40
1.0
 40
1.0
 10
3.1868455357
 20
4.9840132217
 30
0.0
 10
3.1866978269
 20
4.9907581331
 30
0.0
 10
3.1864780777
 20
5.0007939784
 30
0.0
 10
3.1861797653
 20
5.014023831
 30
0.0
 10
3.1859579125
 20
5.0235753834
 30
0.0
 10
3.1857361472
 20
5.032745517
 30
0.0
 10
3.1855145103
 20
5.0414459193
 30
0.0
 10
3.1852930554
 20
5.0495928028
 30
0.0
 10
3.1850718789
 20
5.0571076978
 30
0.0
 10
3.1848510615
 20
5.0639182006
 30
0.0
 10
3.1846614134
 20
5.0691227088
 30
0.0
 10
3.1845077063
 20
5.0728854119
 30
0.0
 10
3.1843966631
 20
5.0753906415
 30
0.0
 10
3.1842857341
 20
5.0776755741
 30
0.0
 10
3.1841749442
 20
5.0797347227
 30
0.0
 10
3.184064358
 20
5.0815631048
 30
0.0
 10
3.1839540912
 20
5.083156362
 30
0.0
 10
3.1838442306
 20
5.0845106439
 30
0.0
 10
3.1837485723
 20
5.0854879654
 30
0.0
 10
3.183670059
 20
5.0861475827
 30
0.0
 10
3.1836148597
 20
5.0865505648
 30
0.0
 10
3.1835599066
 20
5.0868918414
 30
0.0
 10
3.1835052197
 20
5.087171247
 30
0.0
 10
3.1834573058
 20
5.0873648984
 30
0.0
 10
3.1834175258
 20
5.0874881011
 30
0.0
 10
3.1833900351
 20
5.0875579251
 30
0.0
 10
3.1833626527
 20
5.0876124962
 30
0.0
 10
3.1833351678
 20
5.0876520096
 30
0.0
 10
3.1833069426
 20
5.0876773824
 30
0.0
 10
3.1832851166
 20
5.0876836595
 30
0.0
 10
3.1832755357
 20
5.0876833618
 30
0.0
  0
SPLINE
  5
2DF
100
AcDbEntity
  8
0
100
AcDbSpline
 62
7
  6
CONTINUOUS
 70
0
 71
3
 72
30
 73
26
 74
0
 42
0.0000001
 43
0.0000001
 44
0.0000000001
 40
0.0
 40
0.0
 40
0.0
 40
0.0
 40
0.19074796
 40
0.2839204001
 40
0.3744803441
 40
0.461594785
 40
0.5444637338
 40
0.6223259885
 40
0.6944661469
 40
0.7602216001
 40
0.8189887782
 40
0.8702285043
 40
0.8928763934
 40
0.91347204
 40
0.9319693377
 40
0.9483259814
 40
0.9625060458
 40
0.9744786781
 40
0.9842199093
 40
0.9882487156
 40
0.9917144034
 40
0.9946174524
 40
0.9969603133
 40
0.9987490877
 40
1.0
 40
1.0
 40
1.0
 40
1.0
 10
3.1886607875
 20
4.9840132217
 30
0.0
 10
3.1885164226
 20
4.9906090227
 30
0.0
 10
3.1883015651
 20
5.0004265992
 30
0.0
 10
3.1880101316
 20
5.0133754351
 30
0.0
 10
3.1877933069
 20
5.0227406786
 30
0.0
 10
3.1875765585
 20
5.0317494596
 30
0.0
 10
3.1873599206
 20
5.0403189372
 30
0.0
 10
3.187143444
 20
5.0483703308
 30
0.0
 10
3.1869271921
 20
5.0558295994
 30
0.0
 10
3.1867112896
 20
5.0626281407
 30
0.0
 10
3.1864958344
 20
5.068703412
 30
0.0
 10
3.1863101407
 20
5.0732878051
 30
0.0
 10
3.1861592281
 20
5.0765522107
 30
0.0
 10
3.1860508563
 20
5.0786848921
 30
0.0
 10
3.1859426548
 20
5.0805996803
 30
0.0
 10
3.185834655
 20
5.0822921894
 30
0.0
 10
3.1857270203
 20
5.0837585463
 30
0.0
 10
3.1856198082
 20
5.0849954006
 30
0.0
 10
3.1855263289
 20
5.0858809526
 30
0.0
 10
3.1854493742
 20
5.0864721191
 30
0.0
 10
3.1853955385
 20
5.0868277366
 30
0.0
 10
3.1853419534
 20
5.08712425
 30
0.0
 10
3.1852888522
 20
5.0873619227
 30
0.0
 10
3.1852363305
 20
5.0875404281
 30
0.0
 10
3.1851954759
 20
5.0876382456
 30
0.0
 10
3.1851726759
 20
5.0876750156
 30
0.0
  0
SPLINE
  5
2E0
100
AcDbEntity
  8
0
100
AcDbSpline
 62
7
  6
CONTINUOUS
 70
0
 71
3
 72
35
 73
31
 74
0
 42
0.0000001
 43
0.0000001
 44
0.0000000001
 40
0.0
 40
0.0
 40
0.0
 40
0.0
 40
0.1949606004
 40
0.2900844676
 40
0.3824122436
 40
0.4710548683
 40
0.5551595384
 40
0.6339171269
 40
0.7065695944
 40
0.7724181374
 40
0.830829652
 40
0.8570683186
 40
0.8812431169
 40
0.9032966814
 40
0.9231759112
 40
0.940834281
 40
0.9562296517
 40
0.9693275523
 40
0.9800985869
 40
0.9846053482
 40
0.9885236655
 40
0.991852757
 40
0.9945939247
 40
0.9967510095
 40
0.9976134488
 40
0.9983346551
 40
0.9989190547
 40
0.9993753136
 40
0.9997218873
 40
1.0
 40
1.0
 40
1.0
 40
1.0
 10
3.1725655357
 20
4.9840132217
 30
0.0
 10
3.1724178273
 20
4.9907292743
 30
0.0
 10
3.1721980785
 20
5.0007221793
 30
0.0
 10
3.1718997666
 20
5.0138954231
 30
0.0
 10
3.171677914
 20
5.0234061028
 30
0.0
 10
3.1714561489
 20
5.032536994
 30
0.0
 10
3.1712345122
 20
5.0412001622
 30
0.0
 10
3.1710130574
 20
5.0493121783
 30
0.0
 10
3.1707918809
 20
5.0567949087
 30
0.0
 10
3.1705710635
 20
5.0635762592
 30
0.0
 10
3.1703814153
 20
5.0687584862
 30
0.0
 10
3.1702277081
 20
5.0725050778
 30
0.0
 10
3.1701166648
 20
5.07499958
 30
0.0
 10
3.1700057357
 20
5.0772747275
 30
0.0
 10
3.1698949456
 20
5.0793250567
 30
0.0
 10
3.1697843593
 20
5.0811456065
 30
0.0
 10
3.1696740921
 20
5.0827320373
 30
0.0
 10
3.1695642311
 20
5.0840805157
 30
0.0
 10
3.1694685726
 20
5.085053645
 30
0.0
 10
3.1693900593
 20
5.0857104285
 30
0.0
 10
3.1693348597
 20
5.0861116814
 30
0.0
 10
3.1692799059
 20
5.0864514937
 30
0.0
 10
3.169225218
 20
5.0867297008
 30
0.0
 10
3.169177303
 20
5.0869225179
 30
0.0
 10
3.1691375238
 20
5.0870451839
 30
0.0
 10
3.1691100316
 20
5.0871147084
 30
0.0
 10
3.1690826454
 20
5.0871690458
 30
0.0
 10
3.1690551551
 20
5.0872083923
 30
0.0
 10
3.169026918
 20
5.0872336474
 30
0.0
 10
3.1690051139
 20
5.087239882
 30
0.0
 10
3.1689955357
 20
5.0872395844
 30
0.0
  0
SPLINE
  5
2E1
100
AcDbEntity
  8
0
100
AcDbSpline
 62
7
  6
CONTINUOUS
 70
0
 71
3
 72
30
 73
26
 74
0
 42
0.0000001
 43
0.0000001
 44
0.0000000001
 40
0.0
 40
0.0
 40
0.0
 40
0.0
 40
0.1907294327
 40
0.2838932411
 40
0.374445323
 40
0.461552915
 40
0.5444162581
 40
0.6222743601
 40
0.6944120075
 40
0.7601667541
 40
0.8189351676
 40
0.8701781813
 40
0.8928285099
 40
0.9134271413
 40
0.9319279714
 40
0.9482887082
 40
0.9624734271
 40
0.974451293
 40
0.9841983455
 40
0.9882302959
 40
0.9916992911
 40
0.9946058172
 40
0.9969523416
 40
0.9987449893
 40
1.0
 40
1.0
 40
1.0
 40
1.0
 10
3.1743807875
 20
4.9840132217
 30
0.0
 10
3.1742364373
 20
4.9905801643
 30
0.0
 10
3.1740216013
 20
5.0003548004
 30
0.0
 10
3.1737301977
 20
5.0132470266
 30
0.0
 10
3.1735133949
 20
5.0225713944
 30
0.0
 10
3.1732966683
 20
5.0315409274
 30
0.0
 10
3.173080052
 20
5.0400731625
 30
0.0
 10
3.1728635969
 20
5.0480896771
 30
0.0
 10
3.1726473661
 20
5.0555167659
 30
0.0
 10
3.1724314846
 20
5.0622861362
 30
0.0
 10
3.1722160499
 20
5.0683355261
 30
0.0
 10
3.1720303755
 20
5.0729005227
 30
0.0
 10
3.1718794797
 20
5.0761512394
 30
0.0
 10
3.1717711183
 20
5.0782750861
 30
0.0
 10
3.1716629269
 20
5.0801820262
 30
0.0
 10
3.1715549369
 20
5.0818676923
 30
0.0
 10
3.1714473113
 20
5.0833282281
 30
0.0
 10
3.1713401076
 20
5.0845602973
 30
0.0
 10
3.1712466374
 20
5.0854425131
 30
0.0
 10
3.1711696939
 20
5.0860315365
 30
0.0
 10
3.1711158616
 20
5.0863859447
 30
0.0
 10
3.1710622793
 20
5.0866815155
 30
0.0
 10
3.171009177
 20
5.0869185087
 30
0.0
 10
3.1709566522
 20
5.0870966045
 30
0.0
 10
3.1709158044
 20
5.0871942277
 30
0.0
 10
3.1708930274
 20
5.0872309604
 30
0.0
  0
SPLINE
  5
2E2
100
AcDbEntity
  8
0
100
AcDbSpline
 62
7
  6
CONTINUOUS
 70
0
 71
3
 72
35
 73
31
 74
0
 42
0.0000001
 43
0.0000001
 44
0.0000000001
 40
0.0
 40
0.0
 40
0.0
 40
0.0
 40
0.1949590308
 40
0.2900826037
 40
0.3824096084
 40
0.4710516362
 40
0.555155738
 40
0.6339128061
 40
0.7065647781
 40
0.7724129724
 40
0.8308241451
 40
0.8570623978
 40
0.8812373987
 40
0.9032906109
 40
0.9231701519
 40
0.9408281392
 40
0.9562239564
 40
0.9693216019
 40
0.9800933158
 40
0.9845999429
 40
0.9885183648
 40
0.9918480545
 40
0.99458967
 40
0.9967469085
 40
0.997609524
 40
0.9983310984
 40
0.9989161146
 40
0.9993731954
 40
0.9997207597
 40
1.0
 40
1.0
 40
1.0
 40
1.0
 10
3.1582855357
 20
4.9840132217
 30
0.0
 10
3.1581378279
 20
4.9907004082
 30
0.0
 10
3.1579180793
 20
5.0006503791
 30
0.0
 10
3.1576197678
 20
5.0137670168
 30
0.0
 10
3.1573979152
 20
5.0232368357
 30
0.0
 10
3.1571761504
 20
5.0323284842
 30
0.0
 10
3.1569545138
 20
5.0409544227
 30
0.0
 10
3.156733059
 20
5.0490315743
 30
0.0
 10
3.1565118827
 20
5.056482144
 30
0.0
 10
3.1562910643
 20
5.0632343447
 30
0.0
 10
3.1561014186
 20
5.068394283
 30
0.0
 10
3.1559477075
 20
5.0721247631
 30
0.0
 10
3.1558366685
 20
5.0746085286
 30
0.0
 10
3.1557257334
 20
5.0768739023
 30
0.0
 10
3.1556149502
 20
5.0789154
 30
0.0
 10
3.1555043551
 20
5.0807281269
 30
0.0
 10
3.1553940983
 20
5.0823077167
 30
0.0
 10
3.1552842236
 20
5.0836504033
 30
0.0
 10
3.1551885782
 20
5.0846193316
 30
0.0
 10
3.1551100582
 20
5.0852732805
 30
0.0
 10
3.1550548548
 20
5.0856727995
 30
0.0
 10
3.1549999058
 20
5.0860111576
 30
0.0
 10
3.1549452214
 20
5.0862881688
 30
0.0
 10
3.1548972994
 20
5.0864801354
 30
0.0
 10
3.1548575185
 20
5.0866022451
 30
0.0
 10
3.1548300229
 20
5.0866714667
 30
0.0
 10
3.154802634
 20
5.0867255802
 30
0.0
 10
3.1547751406
 20
5.0867647765
 30
0.0
 10
3.1547468974
 20
5.0867899343
 30
0.0
 10
3.1547251115
 20
5.0867961346
 30
0.0
 10
3.1547155357
 20
5.0867958372
 30
0.0
  0
SPLINE
  5
2E3
100
AcDbEntity
  8
0
100
AcDbSpline
 62
7
  6
CONTINUOUS
 70
0
 71
3
 72
30
 73
26
 74
0
 42
0.0000001
 43
0.0000001
 44
0.0000000001
 40
0.0
 40
0.0
 40
0.0
 40
0.0
 40
0.1907107476
 40
0.2838658506
 40
0.3744100033
 40
0.4615106879
 40
0.5443683773
 40
0.622222291
 40
0.6943574056
 40
0.7601114392
 40
0.8188810982
 40
0.870127427
 40
0.8927802159
 40
0.9133818573
 40
0.9318862499
 40
0.9482511148
 40
0.962440528
 40
0.9744236725
 40
0.9841765965
 40
0.9882117182
 40
0.9916840492
 40
0.9945940824
 40
0.9969443021
 40
0.9987408563
 40
1.0
 40
1.0
 40
1.0
 40
1.0
 10
3.1601007875
 20
4.9840132217
 30
0.0
 10
3.1599564522
 20
4.9905513058
 30
0.0
 10
3.1597416378
 20
5.0002830016
 30
0.0
 10
3.1594502644
 20
5.0131186181
 30
0.0
 10
3.1592334837
 20
5.0224021101
 30
0.0
 10
3.159016779
 20
5.0313323952
 30
0.0
 10
3.1588001845
 20
5.0398273876
 30
0.0
 10
3.158583751
 20
5.0478090232
 30
0.0
 10
3.1583675417
 20
5.055203932
 30
0.0
 10
3.1581516813
 20
5.0619441312
 30
0.0
 10
3.1579362673
 20
5.0679676395
 30
0.0
 10
3.1577506123
 20
5.0725132395
 30
0.0
 10
3.1575997336
 20
5.075750267
 30
0.0
 10
3.1574913826
 20
5.077865279
 30
0.0
 10
3.1573832013
 20
5.0797643708
 30
0.0
 10
3.1572752213
 20
5.0814431937
 30
0.0
 10
3.1571676047
 20
5.0828979083
 30
0.0
 10
3.1570604096
 20
5.0841251921
 30
0.0
 10
3.1569669485
 20
5.0850040718
 30
0.0
 10
3.1568900163
 20
5.085590952
 30
0.0
 10
3.1568361876
 20
5.0859441507
 30
0.0
 10
3.156782608
 20
5.0862387789
 30
0.0
 10
3.1567295047
 20
5.0864750924
 30
0.0
 10
3.1566769769
 20
5.0866527785
 30
0.0
 10
3.1566361359
 20
5.0867502075
 30
0.0
 10
3.156613382
 20
5.0867869028
 30
0.0
  0
SPLINE
  5
2E4
100
AcDbEntity
  8
0
100
AcDbSpline
 62
7
  6
CONTINUOUS
 70
0
 71
3
 72
29
 73
25
 74
0
 42
0.0000001
 43
0.0000001
 44
0.0000000001
 40
0.0
 40
0.0
 40
0.0
 40
0.0
 40
0.0016957604
 40
0.0038523184
 40
0.0095876547
 40
0.0172490479
 40
0.0268478133
 40
0.038383454
 40
0.0518482601
 40
0.0845225849
 40
0.1247532485
 40
0.1723860781
 40
0.2272306136
 40
0.2890673149
 40
0.3576475235
 40
0.4326918445
 40
0.513897475
 40
0.6009358938
 40
0.6934472541
 40
0.7910569478
 40
0.8416593631
 40
0.893395756
 40
0.9461993385
 40
1.0
 40
1.0
 40
1.0
 40
1.0
 10
3.1046420873
 20
4.882872296
 30
0.0
 10
3.1046281793
 20
4.8828981865
 30
0.0
 10
3.1046015782
 20
4.8829596424
 30
0.0
 10
3.1045491102
 20
4.8831173907
 30
0.0
 10
3.1044871329
 20
4.8833801567
 30
0.0
 10
3.1044165372
 20
4.8837724112
 30
0.0
 10
3.1043454957
 20
4.884266501
 30
0.0
 10
3.1042739469
 20
4.8848618879
 30
0.0
 10
3.1041715302
 20
4.8858562438
 30
0.0
 10
3.1040472955
 20
4.8873480888
 30
0.0
 10
3.1039048023
 20
4.8894323306
 30
0.0
 10
3.1037616914
 20
4.8919015304
 30
0.0
 10
3.1036181226
 20
4.8947456939
 30
0.0
 10
3.1034742605
 20
4.8979532937
 30
0.0
 10
3.1033298474
 20
4.9015112713
 30
0.0
 10
3.1031858075
 20
4.905405202
 30
0.0
 10
3.1030424673
 20
4.9096192579
 30
0.0
 10
3.102894635
 20
4.9141360563
 30
0.0
 10
3.1027508904
 20
4.9189374359
 30
0.0
 10
3.1026431351
 20
4.9231080874
 30
0.0
 10
3.1025395277
 20
4.9265719048
 30
0.0
 10
3.1024473297
 20
4.9292591375
 30
0.0
 10
3.1023555763
 20
4.9320018432
 30
0.0
 10
3.1023042938
 20
4.9338487407
 30
0.0
 10
3.1022831735
 20
4.9347809339
 30
0.0
  0
SPLINE
  5
2E5
100
AcDbEntity
  8
0
100
AcDbSpline
 62
7
  6
CONTINUOUS
 70
0
 71
3
 72
51
 73
47
 74
0
 42
0.0000001
 43
0.0000001
 44
0.0000000001
 40
0.0
 40
0.0
 40
0.0
 40
0.0
 40
0.0007598184
 40
0.0017864077
 40
0.0030862667
 40
0.0046621714
 40
0.0086455166
 40
0.0137354673
 40
0.0199245835
 40
0.0272006055
 40
0.0355483455
 40
0.0449497604
 40
0.0553838218
 40
0.0668276376
 40
0.0926387247
 40
0.122150512
 40
0.1550960775
 40
0.1911770527
 40
0.2300662067
 40
0.2714104055
 40
0.3148343405
 40
0.3599434033
 40
0.4063274067
 40
0.5012259806
 40
0.5960850421
 40
0.6424198917
 40
0.6874598303
 40
0.7307949987
 40
0.7720307969
 40
0.8107916179
 40
0.8467247606
 40
0.8795031145
 40
0.9088284322
 40
0.9344344065
 40
0.94576892
 40
0.9560891792
 40
0.9653725298
 40
0.9735979566
 40
0.9807477901
 40
0.986806857
 40
0.9917634188
 40
0.9956103641
 40
0.9971173293
 40
0.9983481554
 40
0.9993062766
 40
1.0
 40
1.0
 40
1.0
 40
1.0
 10
3.1130143318
 20
4.893427236
 30
0.0
 10
3.1129926153
 20
4.8934676628
 30
0.0
 10
3.1129523874
 20
4.8935683141
 30
0.0
 10
3.1128997711
 20
4.8937471609
 30
0.0
 10
3.1128467028
 20
4.8939769383
 30
0.0
 10
3.1127693571
 20
4.8943839681
 30
0.0
 10
3.1126765714
 20
4.8950206635
 30
0.0
 10
3.1125705533
 20
4.8959363837
 30
0.0
 10
3.1124639841
 20
4.897052037
 30
0.0
 10
3.1123568762
 20
4.8983651238
 30
0.0
 10
3.112249494
 20
4.8998727625
 30
0.0
 10
3.1121419031
 20
4.9015715425
 30
0.0
 10
3.1120341553
 20
4.9034576406
 30
0.0
 10
3.1118842749
 20
4.9063339997
 30
0.0
 10
3.1116997174
 20
4.910362293
 30
0.0
 10
3.1114854182
 20
4.9156891158
 30
0.0
 10
3.1112706661
 20
4.921636635
 30
0.0
 10
3.1110555531
 20
4.9281508345
 30
0.0
 10
3.1108401966
 20
4.9351725296
 30
0.0
 10
3.1106246563
 20
4.9426379036
 30
0.0
 10
3.1104089814
 20
4.9504790832
 30
0.0
 10
3.1101932022
 20
4.9586247571
 30
0.0
 10
3.1099032061
 20
4.9698784465
 30
0.0
 10
3.1095455848
 20
4.9841361188
 30
0.0
 10
3.1091878445
 20
4.9983908185
 30
0.0
 10
3.1088976822
 20
5.0096349704
 30
0.0
 10
3.1086817961
 20
5.0177681324
 30
0.0
 10
3.1084659845
 20
5.025593219
 30
0.0
 10
3.1082502784
 20
5.033038921
 30
0.0
 10
3.108034728
 20
5.0400373729
 30
0.0
 10
3.1078193949
 20
5.0465247721
 30
0.0
 10
3.1076043998
 20
5.0524419733
 30
0.0
 10
3.1073898382
 20
5.0577350094
 30
0.0
 10
3.1072049657
 20
5.0617330058
 30
0.0
 10
3.1070547657
 20
5.0645834502
 30
0.0
 10
3.1069468447
 20
5.0664488994
 30
0.0
 10
3.1068390821
 20
5.0681262343
 30
0.0
 10
3.1067315279
 20
5.0696116659
 30
0.0
 10
3.1066242583
 20
5.070901799
 30
0.0
 10
3.1065175547
 20
5.0719938059
 30
0.0
 10
3.1064114283
 20
5.0728851943
 30
0.0
 10
3.1063184878
 20
5.0735012243
 30
0.0
 10
3.1062407801
 20
5.0738912988
 30
0.0
 10
3.106187699
 20
5.0741083002
 30
0.0
 10
3.1061351339
 20
5.0742742728
 30
0.0
 10
3.1060945901
 20
5.0743661722
 30
0.0
 10
3.106072509
 20
5.07440178
 30
0.0
  0
LINE
  5
2E6
100
AcDbEntity
  8
0
100
AcDbLine
 62
7
  6
CONTINUOUS
 10
7.8093287442
 20
4.030829363
 11
7.8094221072
 21
4.0308732935
  0
SPLINE
  5
2E7
100
AcDbEntity
  8
0
100
AcDbSpline
 62
7
  6
CONTINUOUS
 70
0
 71
3
 72
53
 73
49
 74
0
 42
0.0000001
 43
0.0000001
 44
0.0000000001
 40
0.0
 40
0.0
 40
0.0
 40
0.0
 40
0.0009326704
 40
0.0021423731
 40
0.0054044245
 40
0.0097957558
 40
0.0153115998
 40
0.0219424385
 40
0.0296743073
 40
0.0384904217
 40
0.0483710832
 40
0.0712336449
 40
0.0980531383
 40
0.1285828135
 40
0.1625410886
 40
0.1996145052
 40
0.2394604158
 40
0.2817103648
 40
0.3259738472
 40
0.4188885451
 40
0.5147746181
 40
0.5627262455
 40
0.6100918476
 40
0.6564331775
 40
0.7013214855
 40
0.7443417378
 40
0.7850960274
 40
0.8232074411
 40
0.858323902
 40
0.8901209474
 40
0.918305083
 40
0.9309597624
 40
0.9426169576
 40
0.9532495337
 40
0.9628335804
 40
0.9713472254
 40
0.9787716107
 40
0.9850907611
 40
0.9902917632
 40
0.9924703304
 40
0.9943665386
 40
0.9959803444
 40
0.997312772
 40
0.9983662901
 40
0.9991468057
 40
0.9994394732
 40
0.9996724464
 40
1.0
 40
1.0
 40
1.0
 40
1.0
 10
7.8094221072
 20
4.0308732935
 30
0.0
 10
7.8094758776
 20
4.030894628
 30
0.0
 10
7.8096028034
 20
4.030934846
 30
0.0
 10
7.8099285742
 20
4.0310141427
 30
0.0
 10
7.8104708634
 20
4.0311073013
 30
0.0
 10
7.8112807254
 20
4.0312136106
 30
0.0
 10
7.8123010089
 20
4.0313206248
 30
0.0
 10
7.8135292578
 20
4.0314284536
 30
0.0
 10
7.8149628629
 20
4.03153663
 30
0.0
 10
7.8165985009
 20
4.0316451011
 30
0.0
 10
7.8191716961
 20
4.0317974676
 30
0.0
 10
7.8228613681
 20
4.0319841138
 30
0.0
 10
7.8278317847
 20
4.0321997689
 30
0.0
 10
7.8334909459
 20
4.0324160357
 30
0.0
 10
7.8397864895
 20
4.0326327902
 30
0.0
 10
7.8466601659
 20
4.0328498514
 30
0.0
 10
7.8540483559
 20
4.0330671359
 30
0.0
 10
7.8618826797
 20
4.033284585
 30
0.0
 10
7.8730076632
 20
4.0335794346
 30
0.0
 10
7.887458734
 20
4.0339425044
 30
0.0
 10
7.9021387524
 20
4.0343003763
 30
0.0
 10
7.9139944329
 20
4.0345906665
 30
0.0
 10
7.9227779957
 20
4.0348083737
 30
0.0
 10
7.9313715005
 20
4.0350260349
 30
0.0
 10
7.9396954016
 20
4.0352436256
 30
0.0
 10
7.9476726511
 20
4.0354611156
 30
0.0
 10
7.9552294099
 20
4.0356784632
 30
0.0
 10
7.9622957333
 20
4.0358956175
 30
0.0
 10
7.9688062201
 20
4.0361124836
 30
0.0
 10
7.9747006143
 20
4.0363289852
 30
0.0
 10
7.9792019836
 20
4.0365149358
 30
0.0
 10
7.9824545244
 20
4.0366656379
 30
0.0
 10
7.9846191984
 20
4.0367744822
 30
0.0
 10
7.986593163
 20
4.0368832215
 30
0.0
 10
7.9883718371
 20
4.0369918119
 30
0.0
 10
7.9899511255
 20
4.0371002106
 30
0.0
 10
7.9913274063
 20
4.037208288
 30
0.0
 10
7.9924975159
 20
4.0373159784
 30
0.0
 10
7.9933420816
 20
4.037409727
 30
0.0
 10
7.9939122645
 20
4.0374866562
 30
0.0
 10
7.9942609568
 20
4.0375407471
 30
0.0
 10
7.9945564636
 20
4.037594677
 30
0.0
 10
7.9947988122
 20
4.0376481656
 30
0.0
 10
7.9949879543
 20
4.0377014844
 30
0.0
 10
7.995111685
 20
4.0377481179
 30
0.0
 10
7.9951826073
 20
4.0377883388
 30
0.0
 10
7.9952242805
 20
4.0378199229
 30
0.0
 10
7.9952455082
 20
4.0378529054
 30
0.0
 10
7.9952455074
 20
4.0378732217
 30
0.0
  0
SPLINE
  5
2E8
100
AcDbEntity
  8
0
100
AcDbSpline
 62
7
  6
CONTINUOUS
 70
0
 71
3
 72
30
 73
26
 74
0
 42
0.0000001
 43
0.0000001
 44
0.0000000001
 40
0.0
 40
0.0
 40
0.0
 40
0.0
 40
0.001386282
 40
0.0033107879
 40
0.005786275
 40
0.0088177742
 40
0.0124073172
 40
0.0165550228
 40
0.0265187581
 40
0.0386933527
 40
0.0530543412
 40
0.069571063
 40
0.0882073978
 40
0.1089213805
 40
0.13166695
 40
0.1830416034
 40
0.2418657256
 40
0.3076042513
 40
0.3796586099
 40
0.4573719147
 40
0.5400351438
 40
0.6268939464
 40
0.71715558
 40
0.8099944519
 40
1.0
 40
1.0
 40
1.0
 40
1.0
 10
3.1189224948
 20
4.8824281306
 30
0.0
 10
3.11890026
 20
4.8824695235
 30
0.0
 10
3.118859792
 20
4.8825748476
 30
0.0
 10
3.1188072581
 20
4.8827637829
 30
0.0
 10
3.1187542238
 20
4.8830101862
 30
0.0
 10
3.1187007763
 20
4.8833138586
 30
0.0
 10
3.1186471071
 20
4.8836749293
 30
0.0
 10
3.1185705956
 20
4.8842700137
 30
0.0
 10
3.1184774928
 20
4.8851561807
 30
0.0
 10
3.1183706255
 20
4.8863887003
 30
0.0
 10
3.1182633494
 20
4.8878440042
 30
0.0
 10
3.1181557284
 20
4.8895188006
 30
0.0
 10
3.1180479065
 20
4.8914093043
 30
0.0
 10
3.1179399175
 20
4.8935112248
 30
0.0
 10
3.1177896216
 20
4.8967220376
 30
0.0
 10
3.1176046062
 20
4.9012242998
 30
0.0
 10
3.1173898379
 20
4.9071836822
 30
0.0
 10
3.1171746078
 20
4.9138443737
 30
0.0
 10
3.1169590103
 20
4.9211455856
 30
0.0
 10
3.116743166
 20
4.9290206679
 30
0.0
 10
3.1165271364
 20
4.937397704
 30
0.0
 10
3.1163109709
 20
4.9462001846
 30
0.0
 10
3.116094703
 20
4.9553476562
 30
0.0
 10
3.1158040123
 20
4.9679904081
 30
0.0
 10
3.1155896137
 20
4.9775747671
 30
0.0
 10
3.1154455357
 20
4.9840132217
 30
0.0
  0
SPLINE
  5
2E9
100
AcDbEntity
  8
0
100
AcDbSpline
 62
7
  6
CONTINUOUS
 70
0
 71
3
 72
30
 73
26
 74
0
 42
0.0000001
 43
0.0000001
 44
0.0000000001
 40
0.0
 40
0.0
 40
0.0
 40
0.0
 40
0.1906915982
 40
0.2838383466
 40
0.3743743726
 40
0.4614681449
 40
0.5443201568
 40
0.6221699064
 40
0.6943024468
 40
0.7600558375
 40
0.8188267462
 40
0.8700763936
 40
0.8927314327
 40
0.913336384
 40
0.9318441648
 40
0.9482133362
 40
0.9624073911
 40
0.9743959397
 40
0.9841548225
 40
0.9881928986
 40
0.9916688036
 40
0.9945826459
 40
0.9969363899
 40
0.9987365745
 40
1.0
 40
1.0
 40
1.0
 40
1.0
 10
3.1458207875
 20
4.9840132217
 30
0.0
 10
3.1456764674
 20
4.9905224358
 30
0.0
 10
3.1454616747
 20
5.0002111939
 30
0.0
 10
3.145170332
 20
5.0129901981
 30
0.0
 10
3.1449535732
 20
5.0222328247
 30
0.0
 10
3.1447368909
 20
5.0311238586
 30
0.0
 10
3.1445203184
 20
5.0395816116
 30
0.0
 10
3.1443039069
 20
5.047528369
 30
0.0
 10
3.1440877191
 20
5.0548911005
 30
0.0
 10
3.1438718804
 20
5.061602129
 30
0.0
 10
3.1436564864
 20
5.067599756
 30
0.0
 10
3.1434708537
 20
5.0721259496
 30
0.0
 10
3.1433199881
 20
5.0753492877
 30
0.0
 10
3.1432116516
 20
5.0774554592
 30
0.0
 10
3.143103477
 20
5.0793467093
 30
0.0
 10
3.1429955102
 20
5.0810186835
 30
0.0
 10
3.1428879011
 20
5.0824675808
 30
0.0
 10
3.1427807134
 20
5.0836900796
 30
0.0
 10
3.1426872678
 20
5.0845656192
 30
0.0
 10
3.1426103388
 20
5.085150355
 30
0.0
 10
3.1425565157
 20
5.0855023525
 30
0.0
 10
3.1425029455
 20
5.0857960487
 30
0.0
 10
3.1424498391
 20
5.0860316736
 30
0.0
 10
3.1423972987
 20
5.0862089338
 30
0.0
 10
3.1423564651
 20
5.0863061591
 30
0.0
 10
3.1423337397
 20
5.086342825
 30
0.0
  0
SPLINE
  5
2EA
100
AcDbEntity
  8
0
100
AcDbSpline
 62
7
  6
CONTINUOUS
 70
0
 71
3
 72
51
 73
47
 74
0
 42
0.0000001
 43
0.0000001
 44
0.0000000001
 40
0.0
 40
0.0
 40
0.0
 40
0.0
 40
0.0007568203
 40
0.0017804594
 40
0.0030776296
 40
0.0046511639
 40
0.0086296405
 40
0.0137153016
 40
0.0199005361
 40
0.0271729432
 40
0.0355177475
 40
0.0449162407
 40
0.0553482038
 40
0.0667898651
 40
0.0925982679
 40
0.1221088361
 40
0.1550545435
 40
0.1911369567
 40
0.2300286686
 40
0.2713764815
 40
0.3148049
 40
0.3599191899
 40
0.4063090308
 40
0.5012203998
 40
0.5960923941
 40
0.6424332906
 40
0.6874787968
 40
0.7308188654
 40
0.7720587664
 40
0.810822789
 40
0.8467580687
 40
0.8795373505
 40
0.9088622539
 40
0.934466439
 40
0.9457993205
 40
0.956117926
 40
0.9653990331
 40
0.9736219226
 40
0.9807688934
 40
0.9868245097
 40
0.9917775586
 40
0.9956201064
 40
0.9971249698
 40
0.9983535488
 40
0.9993090619
 40
1.0
 40
1.0
 40
1.0
 40
1.0
 10
3.127294839
 20
4.8929830031
 30
0.0
 10
3.1272731037
 20
4.8930234685
 30
0.0
 10
3.1272328599
 20
4.8931242979
 30
0.0
 10
3.1271802408
 20
4.8933035483
 30
0.0
 10
3.1271271712
 20
4.8935340123
 30
0.0
 10
3.1270498194
 20
4.8939424928
 30
0.0
 10
3.1269570081
 20
4.8945816611
 30
0.0
 10
3.1268509869
 20
4.8955011298
 30
0.0
 10
3.1267444052
 20
4.8966215777
 30
0.0
 10
3.1266372802
 20
4.8979405026
 30
0.0
 10
3.1265298903
 20
4.8994549869
 30
0.0
 10
3.1264222774
 20
4.9011616365
 30
0.0
 10
3.1263145222
 20
4.9030565673
 30
0.0
 10
3.1261646107
 20
4.9059466313
 30
0.0
 10
3.1259800305
 20
4.9099943295
 30
0.0
 10
3.125765701
 20
4.9153470585
 30
0.0
 10
3.1255509199
 20
4.9213237707
 30
0.0
 10
3.1253357773
 20
4.9278701655
 30
0.0
 10
3.125120391
 20
4.9349267504
 30
0.0
 10
3.1249048208
 20
4.9424293706
 30
0.0
 10
3.1246891159
 20
4.950309798
 30
0.0
 10
3.1244733068
 20
4.9584963452
 30
0.0
 10
3.1241832697
 20
4.9698066458
 30
0.0
 10
3.1238255997
 20
4.9841361194
 30
0.0
 10
3.1234678111
 20
4.9984626186
 30
0.0
 10
3.1231776085
 20
5.0097633769
 30
0.0
 10
3.122961693
 20
5.0179374097
 30
0.0
 10
3.122745852
 20
5.0258017411
 30
0.0
 10
3.1225301168
 20
5.0332846871
 30
0.0
 10
3.1223145376
 20
5.0403180263
 30
0.0
 10
3.1220991758
 20
5.046837619
 30
0.0
 10
3.1218841531
 20
5.0527840042
 30
0.0
 10
3.1216695627
 20
5.0581029322
 30
0.0
 10
3.1214846677
 20
5.0621203206
 30
0.0
 10
3.12133444
 20
5.0649844568
 30
0.0
 10
3.1212265091
 20
5.0668587378
 30
0.0
 10
3.1211187306
 20
5.0685439306
 30
0.0
 10
3.1210111623
 20
5.0700362105
 30
0.0
 10
3.1209038854
 20
5.0713321673
 30
0.0
 10
3.1207971599
 20
5.0724289724
 30
0.0
 10
3.1206910415
 20
5.0733240954
 30
0.0
 10
3.120598073
 20
5.0739425916
 30
0.0
 10
3.1205203551
 20
5.0743341084
 30
0.0
 10
3.1204672794
 20
5.0745518032
 30
0.0
 10
3.1204147166
 20
5.0747181833
 30
0.0
 10
3.1203741526
 20
5.0748102561
 30
0.0
 10
3.1203520513
 20
5.074845894
 30
0.0
  0
SPLINE
  5
2EB
100
AcDbEntity
  8
0
100
AcDbSpline
 62
7
  6
CONTINUOUS
 70
0
 71
3
 72
35
 73
31
 74
0
 42
0.0000001
 43
0.0000001
 44
0.0000000001
 40
0.0
 40
0.0
 40
0.0
 40
0.0
 40
0.1949579198
 40
0.2900804318
 40
0.3824068781
 40
0.4710482237
 40
0.5551516897
 40
0.6339081726
 40
0.7065596573
 40
0.7724073663
 40
0.8308182259
 40
0.8570566443
 40
0.8812312554
 40
0.9032847016
 40
0.9231638924
 40
0.940822317
 40
0.9562178572
 40
0.9693160732
 40
0.9800876215
 40
0.9845947432
 40
0.9885135135
 40
0.9918431807
 40
0.994585096
 40
0.9967431884
 40
0.9976062829
 40
0.9983282915
 40
0.9989137037
 40
0.9993712867
 40
0.9997196363
 40
1.0
 40
1.0
 40
1.0
 40
1.0
 10
3.1440055357
 20
4.9840132217
 30
0.0
 10
3.1438578281
 20
4.9906715566
 30
0.0
 10
3.1436380802
 20
5.0005785812
 30
0.0
 10
3.1433397691
 20
5.0136386073
 30
0.0
 10
3.1431179171
 20
5.0230675417
 30
0.0
 10
3.1428961525
 20
5.032119948
 30
0.0
 10
3.1426745161
 20
5.0407086478
 30
0.0
 10
3.1424530614
 20
5.0487509293
 30
0.0
 10
3.142231885
 20
5.0561693304
 30
0.0
 10
3.1420110675
 20
5.0628923766
 30
0.0
 10
3.1418214191
 20
5.0680300411
 30
0.0
 10
3.1416677118
 20
5.0717444097
 30
0.0
 10
3.1415566683
 20
5.0742174572
 30
0.0
 10
3.1414457389
 20
5.0764730343
 30
0.0
 10
3.1413349485
 20
5.0785057246
 30
0.0
 10
3.1412243617
 20
5.0803106098
 30
0.0
 10
3.141114094
 20
5.0818833881
 30
0.0
 10
3.1410042322
 20
5.0832202593
 30
0.0
 10
3.140908573
 20
5.0841850041
 30
0.0
 10
3.14083006
 20
5.0848361203
 30
0.0
 10
3.1407748596
 20
5.0852339148
 30
0.0
 10
3.1407199045
 20
5.0855707984
 30
0.0
 10
3.1406652145
 20
5.0858466085
 30
0.0
 10
3.1406172973
 20
5.0860377568
 30
0.0
 10
3.1405775198
 20
5.0861593496
 30
0.0
 10
3.1405500245
 20
5.0862282752
 30
0.0
 10
3.1405226307
 20
5.0862821451
 30
0.0
 10
3.1404951293
 20
5.0863211574
 30
0.0
 10
3.140466869
 20
5.0863461771
 30
0.0
 10
3.1404451086
 20
5.0863523269
 30
0.0
 10
3.1404355357
 20
5.0863520295
 30
0.0
  0
SPLINE
  5
2EC
100
AcDbEntity
  8
0
100
AcDbSpline
 62
7
  6
CONTINUOUS
 70
0
 71
3
 72
30
 73
26
 74
0
 42
0.0000001
 43
0.0000001
 44
0.0000000001
 40
0.0
 40
0.0
 40
0.0
 40
0.0
 40
0.0013816018
 40
0.0033016531
 40
0.0057729037
 40
0.0088003673
 40
0.0123860624
 40
0.0165301047
 40
0.0264870437
 40
0.0386555188
 40
0.053011059
 40
0.0695229849
 40
0.0881551774
 40
0.1088656561
 40
0.1316083577
 40
0.1829791322
 40
0.2418017697
 40
0.3075410763
 40
0.3795983216
 40
0.4573164309
 40
0.5399861654
 40
0.6268529341
 40
0.7171237325
 40
0.8099726916
 40
1.0
 40
1.0
 40
1.0
 40
1.0
 10
3.1332028987
 20
4.8819839713
 30
0.0
 10
3.1331806424
 20
4.8820254046
 30
0.0
 10
3.1331401651
 20
4.882130922
 30
0.0
 10
3.1330876331
 20
4.8823202717
 30
0.0
 10
3.1330345984
 20
4.8825673575
 30
0.0
 10
3.1329811472
 20
4.8828719763
 30
0.0
 10
3.1329274735
 20
4.8832342598
 30
0.0
 10
3.132850949
 20
4.8838314917
 30
0.0
 10
3.1327578352
 20
4.8847210003
 30
0.0
 10
3.1326509578
 20
4.8859583116
 30
0.0
 10
3.1325436709
 20
4.8874194428
 30
0.0
 10
3.1324360383
 20
4.8891010881
 30
0.0
 10
3.1323282045
 20
4.8909994457
 30
0.0
 10
3.1322202033
 20
4.8931102062
 30
0.0
 10
3.1320698878
 20
4.8963347146
 30
0.0
 10
3.1318848499
 20
4.9008563807
 30
0.0
 10
3.1316700579
 20
4.9068416525
 30
0.0
 10
3.1314548037
 20
4.9135315218
 30
0.0
 10
3.1312391819
 20
4.920864919
 30
0.0
 10
3.1310233131
 20
4.9287748847
 30
0.0
 10
3.1308072589
 20
4.9371891667
 30
0.0
 10
3.1305910689
 20
4.9460308975
 30
0.0
 10
3.1303747764
 20
4.9552192465
 30
0.0
 10
3.1300840522
 20
4.967918609
 30
0.0
 10
3.1298696299
 20
4.9775459085
 30
0.0
 10
3.1297255357
 20
4.9840132217
 30
0.0
  0
SPLINE
  5
2ED
100
AcDbEntity
  8
0
100
AcDbSpline
 62
7
  6
CONTINUOUS
 70
0
 71
3
 72
30
 73
26
 74
0
 42
0.0000001
 43
0.0000001
 44
0.0000000001
 40
0.0
 40
0.0
 40
0.0
 40
0.0
 40
0.1906728958
 40
0.2838103634
 40
0.3743384532
 40
0.4614251444
 40
0.5442713799
 40
0.6221168079
 40
0.6942467903
 40
0.7599993782
 40
0.8187715592
 40
0.8700246025
 40
0.892682375
 40
0.9132901138
 40
0.9318017233
 40
0.948174951
 40
0.9623738745
 40
0.9743677134
 40
0.9841325331
 40
0.98817408
 40
0.9916531701
 40
0.9945703093
 40
0.9969280158
 40
0.9987324843
 40
1.0
 40
1.0
 40
1.0
 40
1.0
 10
3.1315407875
 20
4.9840132217
 30
0.0
 10
3.1313964823
 20
4.9904935888
 30
0.0
 10
3.1311817117
 20
5.0001394042
 30
0.0
 10
3.1308903995
 20
5.0128618011
 30
0.0
 10
3.1306736634
 20
5.0220635415
 30
0.0
 10
3.1304570032
 20
5.0309153306
 30
0.0
 10
3.1302404529
 20
5.0393358375
 30
0.0
 10
3.1300240633
 20
5.0472477147
 30
0.0
 10
3.1298078974
 20
5.0545782633
 30
0.0
 10
3.1295920798
 20
5.0612601197
 30
0.0
 10
3.1293767077
 20
5.0672318642
 30
0.0
 10
3.129191092
 20
5.0717386704
 30
0.0
 10
3.1290402478
 20
5.0749483191
 30
0.0
 10
3.1289319181
 20
5.0770456613
 30
0.0
 10
3.1288237574
 20
5.078929056
 30
0.0
 10
3.1287157975
 20
5.0805941921
 30
0.0
 10
3.1286081994
 20
5.0820372639
 30
0.0
 10
3.1285010215
 20
5.0832549766
 30
0.0
 10
3.1284075789
 20
5.0841271835
 30
0.0
 10
3.1283306696
 20
5.0847097769
 30
0.0
 10
3.1282768481
 20
5.0850605566
 30
0.0
 10
3.1282232741
 20
5.085353299
 30
0.0
 10
3.1281701688
 20
5.085588253
 30
0.0
 10
3.1281176349
 20
5.0857651193
 30
0.0
 10
3.1280768081
 20
5.0858621598
 30
0.0
 10
3.1280541004
 20
5.0858987804
 30
0.0
  0
SPLINE
  5
2EE
100
AcDbEntity
  8
0
100
AcDbSpline
 62
7
  6
CONTINUOUS
 70
0
 71
3
 72
35
 73
31
 74
0
 42
0.0000001
 43
0.0000001
 44
0.0000000001
 40
0.0
 40
0.0
 40
0.0
 40
0.0
 40
0.1949565533
 40
0.2900783746
 40
0.3824041434
 40
0.4710448375
 40
0.5551476901
 40
0.6339036101
 40
0.7065545946
 40
0.7724018793
 40
0.8308124059
 40
0.8570506984
 40
0.8812252146
 40
0.903278601
 40
0.9231577726
 40
0.9408162259
 40
0.9562118531
 40
0.9693102307
 40
0.9800820416
 40
0.9845893475
 40
0.988508349
 40
0.9918383101
 40
0.994580607
 40
0.9967392132
 40
0.9976026417
 40
0.9983250593
 40
0.9989109873
 40
0.9993692439
 40
0.9997184956
 40
1.0
 40
1.0
 40
1.0
 40
1.0
 10
3.1297255357
 20
4.9840132217
 30
0.0
 10
3.1295778285
 20
4.9906426978
 30
0.0
 10
3.129358081
 20
5.0005067821
 30
0.0
 10
3.1290597704
 20
5.0135101994
 30
0.0
 10
3.1288379187
 20
5.0228982611
 30
0.0
 10
3.1286161543
 20
5.031911425
 30
0.0
 10
3.1283945181
 20
5.0404628906
 30
0.0
 10
3.1281730635
 20
5.0484703048
 30
0.0
 10
3.1279518871
 20
5.0558565412
 30
0.0
 10
3.1277310695
 20
5.0625504353
 30
0.0
 10
3.127541421
 20
5.0676658186
 30
0.0
 10
3.1273877137
 20
5.0713640757
 30
0.0
 10
3.12727667
 20
5.0738263958
 30
0.0
 10
3.1271657405
 20
5.0760721878
 30
0.0
 10
3.12705495
 20
5.0780960586
 30
0.0
 10
3.1269443629
 20
5.0798931115
 30
0.0
 10
3.126834095
 20
5.0814590635
 30
0.0
 10
3.1267242327
 20
5.0827901311
 30
0.0
 10
3.1266285733
 20
5.0837506838
 30
0.0
 10
3.1265500604
 20
5.0843989662
 30
0.0
 10
3.1264948596
 20
5.0847950315
 30
0.0
 10
3.1264399038
 20
5.0851304508
 30
0.0
 10
3.1263852128
 20
5.0854050624
 30
0.0
 10
3.1263372945
 20
5.0855953764
 30
0.0
 10
3.1262975177
 20
5.0857164325
 30
0.0
 10
3.1262700209
 20
5.0857850586
 30
0.0
 10
3.1262426233
 20
5.0858386947
 30
0.0
 10
3.1262151162
 20
5.0858775399
 30
0.0
 10
3.1261868445
 20
5.0859024418
 30
0.0
 10
3.126165106
 20
5.0859085494
 30
0.0
 10
3.1261555357
 20
5.0859082521
 30
0.0
  0
SPLINE
  5
2EF
100
AcDbEntity
  8
0
100
AcDbSpline
 62
7
  6
CONTINUOUS
 70
0
 71
3
 72
30
 73
26
 74
0
 42
0.0000001
 43
0.0000001
 44
0.0000000001
 40
0.0
 40
0.0
 40
0.0
 40
0.0
 40
0.1906537249
 40
0.2837822607
 40
0.3743022149
 40
0.4613818185
 40
0.5442222525
 40
0.6220633824
 40
0.6941907649
 40
0.7599426199
 40
0.8187160774
 40
0.8699725209
 40
0.8926328172
 40
0.9132436442
 40
0.9317589087
 40
0.9481363721
 40
0.9623401127
 40
0.9743393684
 40
0.9841102139
 40
0.9881550156
 40
0.9916375295
 40
0.9945582684
 40
0.9969197673
 40
0.9987282445
 40
1.0
 40
1.0
 40
1.0
 40
1.0
 10
3.1172607875
 20
4.9840132217
 30
0.0
 10
3.1171164975
 20
4.9904647303
 30
0.0
 10
3.1169017491
 20
5.0000676055
 30
0.0
 10
3.116610468
 20
5.0127333926
 30
0.0
 10
3.1163937545
 20
5.0218942571
 30
0.0
 10
3.1161771168
 20
5.0307067981
 30
0.0
 10
3.1159605889
 20
5.0390900623
 30
0.0
 10
3.1157442215
 20
5.0469670601
 30
0.0
 10
3.1155280776
 20
5.0542654284
 30
0.0
 10
3.1153122816
 20
5.0609181131
 30
0.0
 10
3.1150969308
 20
5.0668639755
 30
0.0
 10
3.114911335
 20
5.0713513844
 30
0.0
 10
3.1147605083
 20
5.0745473435
 30
0.0
 10
3.1146521893
 20
5.0766358506
 30
0.0
 10
3.114544039
 20
5.0785113966
 30
0.0
 10
3.1144360893
 20
5.0801696891
 30
0.0
 10
3.1143285006
 20
5.0816069392
 30
0.0
 10
3.1142213315
 20
5.0828198661
 30
0.0
 10
3.1141278982
 20
5.0836887364
 30
0.0
 10
3.1140510006
 20
5.0842691863
 30
0.0
 10
3.1139971827
 20
5.0846187563
 30
0.0
 10
3.1139436115
 20
5.0849105557
 30
0.0
 10
3.1138905053
 20
5.0851448299
 30
0.0
 10
3.1138379684
 20
5.0853212859
 30
0.0
 10
3.1137971489
 20
5.0854181323
 30
0.0
 10
3.1137744643
 20
5.0854547154
 30
0.0
  0
SPLINE
  5
2F0
100
AcDbEntity
  8
0
100
AcDbSpline
 62
7
  6
CONTINUOUS
 70
0
 71
3
 72
51
 73
47
 74
0
 42
0.0000001
 43
0.0000001
 44
0.0000000001
 40
0.0
 40
0.0
 40
0.0
 40
0.0
 40
0.0007538093
 40
0.0017746971
 40
0.0030693717
 40
0.0046403564
 40
0.0086139523
 40
0.0136955225
 40
0.0198766841
 40
0.027145819
 40
0.0354873772
 40
0.0448833007
 40
0.0553128815
 40
0.0667526478
 40
0.0925582784
 40
0.1220675512
 40
0.1550133558
 40
0.1910971862
 40
0.229991468
 40
0.2713428767
 40
0.3147757868
 40
0.3598952628
 40
0.4062908914
 40
0.5012148308
 40
0.5960996482
 40
0.642446564
 40
0.6874975758
 40
0.7308425189
 40
0.7720864435
 40
0.8108535625
 40
0.8467908558
 40
0.8795709816
 40
0.9088954993
 40
0.9344979709
 40
0.9458293708
 40
0.9561463139
 40
0.9654250965
 40
0.9736456567
 40
0.9807895075
 40
0.9868420577
 40
0.9917912104
 40
0.995629821
 40
0.9971325113
 40
0.9983585919
 40
0.9993115702
 40
1.0
 40
1.0
 40
1.0
 40
1.0
 10
3.1415753413
 20
4.8925387548
 30
0.0
 10
3.1415535832
 20
4.8925792536
 30
0.0
 10
3.1415133227
 20
4.8926802705
 30
0.0
 10
3.1414607075
 20
4.8928599447
 30
0.0
 10
3.1414076432
 20
4.8930911053
 30
0.0
 10
3.1413302676
 20
4.893501027
 30
0.0
 10
3.1412374407
 20
4.8941426637
 30
0.0
 10
3.1411314207
 20
4.895065873
 30
0.0
 10
3.1410248158
 20
4.8961911291
 30
0.0
 10
3.1409176876
 20
4.8975158775
 30
0.0
 10
3.1408102759
 20
4.8990372244
 30
0.0
 10
3.1407026541
 20
4.9007517252
 30
0.0
 10
3.1405948812
 20
4.9026555041
 30
0.0
 10
3.1404449477
 20
4.9055592631
 30
0.0
 10
3.1402603389
 20
4.9096263687
 30
0.0
 10
3.1400459814
 20
4.91500499
 30
0.0
 10
3.1398311712
 20
4.9210108879
 30
0.0
 10
3.1396159993
 20
4.9275894785
 30
0.0
 10
3.1394005835
 20
4.9346809574
 30
0.0
 10
3.1391849837
 20
4.9422208318
 30
0.0
 10
3.1389692492
 20
4.9501405133
 30
0.0
 10
3.1387534105
 20
4.9583679398
 30
0.0
 10
3.1384633329
 20
4.9697348487
 30
0.0
 10
3.1381056143
 20
4.9841361218
 30
0.0
 10
3.1377477779
 20
4.9985344203
 30
0.0
 10
3.1374575356
 20
5.0098917895
 30
0.0
 10
3.1372415909
 20
5.0181066975
 30
0.0
 10
3.137025721
 20
5.0260102737
 30
0.0
 10
3.1368099569
 20
5.0335304597
 30
0.0
 10
3.1365943492
 20
5.0405986744
 30
0.0
 10
3.1363789588
 20
5.0471504466
 30
0.0
 10
3.1361639084
 20
5.0531260074
 30
0.0
 10
3.1359492898
 20
5.0584708291
 30
0.0
 10
3.1357643715
 20
5.0625076233
 30
0.0
 10
3.135614118
 20
5.0653854622
 30
0.0
 10
3.135506178
 20
5.0672685757
 30
0.0
 10
3.135398379
 20
5.0689616298
 30
0.0
 10
3.135290807
 20
5.0704607463
 30
0.0
 10
3.1351835059
 20
5.0717625406
 30
0.0
 10
3.1350767828
 20
5.0728641252
 30
0.0
 10
3.1349706427
 20
5.0737630006
 30
0.0
 10
3.134877669
 20
5.0743839605
 30
0.0
 10
3.13479994
 20
5.0747769229
 30
0.0
 10
3.1347468575
 20
5.0749952886
 30
0.0
 10
3.1346942921
 20
5.0751620749
 30
0.0
 10
3.1346537215
 20
5.0752543467
 30
0.0
 10
3.1346315981
 20
5.0752900314
 30
0.0
  0
SPLINE
  5
2F1
100
AcDbEntity
  8
0
100
AcDbSpline
 62
7
  6
CONTINUOUS
 70
0
 71
3
 72
35
 73
31
 74
0
 42
0.0000001
 43
0.0000001
 44
0.0000000001
 40
0.0
 40
0.0
 40
0.0
 40
0.0
 40
0.1949551688
 40
0.2900762907
 40
0.3824013733
 40
0.4710414076
 40
0.5551436393
 40
0.6338989894
 40
0.7065494676
 40
0.7723963231
 40
0.830806513
 40
0.8570446783
 40
0.8812190987
 40
0.903272425
 40
0.9231515776
 40
0.9408100604
 40
0.9562057763
 40
0.969304318
 40
0.9800763956
 40
0.9845838883
 40
0.9885031244
 40
0.9918333835
 40
0.9945760671
 40
0.9967351941
 40
0.997598961
 40
0.9983217928
 40
0.998908243
 40
0.9993671813
 40
0.9997173446
 40
1.0
 40
1.0
 40
1.0
 40
1.0
 10
3.1154455357
 20
4.9840132217
 30
0.0
 10
3.1152978288
 20
4.9906138389
 30
0.0
 10
3.1150780819
 20
5.000434983
 30
0.0
 10
3.1147797717
 20
5.0133817915
 30
0.0
 10
3.1145579203
 20
5.0227289805
 30
0.0
 10
3.1143361561
 20
5.031702902
 30
0.0
 10
3.11411452
 20
5.0402171335
 30
0.0
 10
3.1138930655
 20
5.0481896803
 30
0.0
 10
3.1136718892
 20
5.0555437521
 30
0.0
 10
3.1134510715
 20
5.062208494
 30
0.0
 10
3.1132614229
 20
5.067301596
 30
0.0
 10
3.1131077155
 20
5.0709837417
 30
0.0
 10
3.1129966718
 20
5.0734353344
 30
0.0
 10
3.1128857421
 20
5.0756713412
 30
0.0
 10
3.1127749514
 20
5.0776863927
 30
0.0
 10
3.1126643642
 20
5.0794756132
 30
0.0
 10
3.1125540959
 20
5.0810347389
 30
0.0
 10
3.1124442333
 20
5.082360003
 30
0.0
 10
3.1123485735
 20
5.0833163634
 30
0.0
 10
3.1122700607
 20
5.0839618121
 30
0.0
 10
3.1122148596
 20
5.0843561483
 30
0.0
 10
3.112159903
 20
5.0846901032
 30
0.0
 10
3.112105211
 20
5.0849635163
 30
0.0
 10
3.1120572915
 20
5.0851529959
 30
0.0
 10
3.1120175156
 20
5.0852735154
 30
0.0
 10
3.1119900172
 20
5.085341842
 30
0.0
 10
3.1119626158
 20
5.0853952443
 30
0.0
 10
3.1119351031
 20
5.0854339223
 30
0.0
 10
3.1119068201
 20
5.0854587063
 30
0.0
 10
3.1118851034
 20
5.0854647719
 30
0.0
 10
3.1118755357
 20
5.0854644746
 30
0.0
  0
SPLINE
  5
2F2
100
AcDbEntity
  8
0
100
AcDbSpline
 62
7
  6
CONTINUOUS
 70
0
 71
3
 72
51
 73
47
 74
0
 42
0.0000001
 43
0.0000001
 44
0.0000000001
 40
0.0
 40
0.0
 40
0.0
 40
0.0
 40
0.0002980171
 40
0.0005180184
 40
0.0007978458
 40
0.0011415555
 40
0.0015512888
 40
0.0025731297
 40
0.0038688976
 40
0.0054404328
 40
0.0072881732
 40
0.0094119827
 40
0.0144854285
 40
0.0206520133
 40
0.0278996116
 40
0.0362126786
 40
0.0455731147
 40
0.0559602882
 40
0.067350922
 40
0.0797197902
 40
0.1072786771
 40
0.1383894409
 40
0.1727722317
 40
0.2101175485
 40
0.2500888805
 40
0.2923260759
 40
0.3364485384
 40
0.382058406
 40
0.4287446413
 40
0.4760863519
 40
0.5710266411
 40
0.6634633304
 40
0.7500707088
 40
0.790203437
 40
0.8277333091
 40
0.8623221373
 40
0.8936585369
 40
0.9214606281
 40
0.9454786223
 40
0.9654976282
 40
0.9739504424
 40
0.981340128
 40
0.9876505898
 40
0.9928694288
 40
0.9969870175
 40
1.0
 40
1.0
 40
1.0
 40
1.0
 10
7.7992455357
 20
4.0087467244
 30
0.0
 10
7.7992455357
 20
4.0087671571
 30
0.0
 10
7.7992693844
 20
4.0088000735
 30
0.0
 10
7.7993136895
 20
4.0088305815
 30
0.0
 10
7.7993653939
 20
4.0088575032
 30
0.0
 10
7.7994310527
 20
4.0088839724
 30
0.0
 10
7.7995466234
 20
4.0089224987
 30
0.0
 10
7.7997279478
 20
4.0089688267
 30
0.0
 10
7.7999893467
 20
4.0090217623
 30
0.0
 10
7.8003082711
 20
4.0090749229
 30
0.0
 10
7.8006845716
 20
4.0091283307
 30
0.0
 10
7.8013000771
 20
4.009204275
 30
0.0
 10
7.8022117399
 20
4.0092968064
 30
0.0
 10
7.8034748624
 20
4.0094031127
 30
0.0
 10
7.8049607404
 20
4.009509793
 30
0.0
 10
7.806666053
 20
4.0096167949
 30
0.0
 10
7.8085869839
 20
4.0097239883
 30
0.0
 10
7.8107192046
 20
4.0098313238
 30
0.0
 10
7.8130579217
 20
4.0099387713
 30
0.0
 10
7.8165732923
 20
4.0100875511
 30
0.0
 10
7.8214404261
 20
4.0102711389
 30
0.0
 10
7.8278167551
 20
4.0104848608
 30
0.0
 10
7.8348643926
 20
4.0106989446
 30
0.0
 10
7.8425197779
 20
4.0109133135
 30
0.0
 10
7.8507138703
 20
4.0111278746
 30
0.0
 10
7.8593727659
 20
4.0113425773
 30
0.0
 10
7.8684183635
 20
4.011557381
 30
0.0
 10
7.8777690789
 20
4.0117722562
 30
0.0
 10
7.8873405691
 20
4.0119871784
 30
0.0
 10
7.9002935075
 20
4.0122740391
 30
0.0
 10
7.9163824942
 20
4.0126277916
 30
0.0
 10
7.9351627376
 20
4.013051583
 30
0.0
 10
7.9501857053
 20
4.0134123354
 30
0.0
 10
7.9614446254
 20
4.0137059276
 30
0.0
 10
7.9691378704
 20
4.013920319
 30
0.0
 10
7.9762277761
 20
4.0141344265
 30
0.0
 10
7.9826504018
 20
4.0143481659
 30
0.0
 10
7.9883478503
 20
4.0145612822
 30
0.0
 10
7.9932687566
 20
4.0147736411
 30
0.0
 10
7.996862936
 20
4.0149581071
 30
0.0
 10
7.999317042
 20
4.0151094899
 30
0.0
 10
8.0008321786
 20
4.0152162339
 30
0.0
 10
8.0021249616
 20
4.0153225962
 30
0.0
 10
8.0031926737
 20
4.0154280917
 30
0.0
 10
8.0040328861
 20
4.0155327308
 30
0.0
 10
8.0045156859
 20
4.0156124543
 30
0.0
 10
8.0047175136
 20
4.0156564972
 30
0.0
  0
LINE
  5
2F3
100
AcDbEntity
  8
0
100
AcDbLine
 62
7
  6
CONTINUOUS
 10
8.0047175136
 20
4.0156564972
 11
8.0051703401
 21
4.0157999059
  0
SPLINE
  5
2F4
100
AcDbEntity
  8
0
100
AcDbSpline
 62
7
  6
CONTINUOUS
 70
0
 71
3
 72
30
 73
26
 74
0
 42
0.0000001
 43
0.0000001
 44
0.0000000001
 40
0.0
 40
0.0
 40
0.0
 40
0.0
 40
0.0013769611
 40
0.0032925957
 40
0.0057596461
 40
0.0087831087
 40
0.012364989
 40
0.0165053992
 40
0.0264556003
 40
0.0386180081
 40
0.0529681462
 40
0.0694753171
 40
0.0881034024
 40
0.1088104067
 40
0.1315502648
 40
0.182917193
 40
0.2417383578
 40
0.3074784382
 40
0.3795385455
 40
0.4572614183
 40
0.5399376027
 40
0.6268122698
 40
0.7170921551
 40
0.8099511158
 40
1.0
 40
1.0
 40
1.0
 40
1.0
 10
3.1474832992
 20
4.8815398153
 30
0.0
 10
3.1474610213
 20
4.8815812889
 30
0.0
 10
3.1474205349
 20
4.8816869996
 30
0.0
 10
3.1473680047
 20
4.8818767635
 30
0.0
 10
3.1473149697
 20
4.8821245318
 30
0.0
 10
3.1472615149
 20
4.882430097
 30
0.0
 10
3.1472078368
 20
4.882793593
 30
0.0
 10
3.1471312993
 20
4.8833929723
 30
0.0
 10
3.1470381747
 20
4.8842858223
 30
0.0
 10
3.1469312872
 20
4.8855279251
 30
0.0
 10
3.1468239897
 20
4.8869948834
 30
0.0
 10
3.1467163455
 20
4.8886833775
 30
0.0
 10
3.1466085
 20
4.8905895887
 30
0.0
 10
3.1465004868
 20
4.8927091891
 30
0.0
 10
3.1463501516
 20
4.8959473928
 30
0.0
 10
3.1461650916
 20
4.9004884625
 30
0.0
 10
3.1459502761
 20
4.9064996235
 30
0.0
 10
3.1457349979
 20
4.9132186703
 30
0.0
 10
3.145519352
 20
4.9205842528
 30
0.0
 10
3.1453034589
 20
4.9285291016
 30
0.0
 10
3.1450873804
 20
4.9369806294
 30
0.0
 10
3.1448711661
 20
4.9458616105
 30
0.0
 10
3.1446548492
 20
4.9550908367
 30
0.0
 10
3.1443640918
 20
4.9678468098
 30
0.0
 10
3.1441496459
 20
4.97751705
 30
0.0
 10
3.1440055357
 20
4.9840132217
 30
0.0
  0
SPLINE
  5
2F5
100
AcDbEntity
  8
0
100
AcDbSpline
 62
7
  6
CONTINUOUS
 70
0
 71
3
 72
34
 73
30
 74
0
 42
0.0000001
 43
0.0000001
 44
0.0000000001
 40
0.0
 40
0.0
 40
0.0
 40
0.0
 40
0.19497109
 40
0.2901002415
 40
0.3824331905
 40
0.4710806828
 40
0.5551901165
 40
0.6339519889
 40
0.7066083309
 40
0.7724602804
 40
0.8308744586
 40
0.8571142128
 40
0.8812899612
 40
0.9033442328
 40
0.9232238449
 40
0.9408822911
 40
0.9562774229
 40
0.9693746485
 40
0.9801443938
 40
0.9846501992
 40
0.988567289
 40
0.9918947933
 40
0.9946338719
 40
0.9967881144
 40
0.9976486956
 40
0.9983676188
 40
0.99894913
 40
0.9994016005
 40
1.0
 40
1.0
 40
1.0
 40
1.0
 10
3.2582455357
 20
4.9840132217
 30
0.0
 10
3.2580978251
 20
4.9909024268
 30
0.0
 10
3.2578780737
 20
5.0011529736
 30
0.0
 10
3.2575797591
 20
5.0146658714
 30
0.0
 10
3.2573579049
 20
5.0244217856
 30
0.0
 10
3.2571361386
 20
5.0337881321
 30
0.0
 10
3.256914501
 20
5.0426747042
 30
0.0
 10
3.2566930456
 20
5.050995926
 30
0.0
 10
3.2564718691
 20
5.0586716448
 30
0.0
 10
3.2562510519
 20
5.0656279073
 30
0.0
 10
3.2560614044
 20
5.0709438204
 30
0.0
 10
3.2559076976
 20
5.0747870794
 30
0.0
 10
3.2557966548
 20
5.0773459486
 30
0.0
 10
3.2556857263
 20
5.0796798092
 30
0.0
 10
3.2555749373
 20
5.0817830541
 30
0.0
 10
3.2554643522
 20
5.0836505958
 30
0.0
 10
3.2553540867
 20
5.0852779843
 30
0.0
 10
3.2552442282
 20
5.0866612855
 30
0.0
 10
3.2551485704
 20
5.0876595692
 30
0.0
 10
3.2550700578
 20
5.0883333544
 30
0.0
 10
3.2550148574
 20
5.0887449838
 30
0.0
 10
3.2549599161
 20
5.0890935788
 30
0.0
 10
3.2549052109
 20
5.0893789863
 30
0.0
 10
3.2548573564
 20
5.0895767875
 30
0.0
 10
3.2548174885
 20
5.0897027057
 30
0.0
 10
3.2547901884
 20
5.0897739542
 30
0.0
 10
3.2547623211
 20
5.0898298922
 30
0.0
 10
3.2547312827
 20
5.0898771645
 30
0.0
 10
3.2546966745
 20
5.0899029042
 30
0.0
 10
3.2546755357
 20
5.0899022474
 30
0.0
  0
SPLINE
  5
2F6
100
AcDbEntity
  8
0
100
AcDbSpline
 62
7
  6
CONTINUOUS
 70
0
 71
3
 72
51
 73
47
 74
0
 42
0.0000001
 43
0.0000001
 44
0.0000000001
 40
0.0
 40
0.0
 40
0.0
 40
0.0
 40
0.0002980172
 40
0.0005180186
 40
0.0007978462
 40
0.0011415561
 40
0.0015512897
 40
0.0025731312
 40
0.0038689
 40
0.0054404363
 40
0.007288178
 40
0.0094119889
 40
0.0144854382
 40
0.0206520271
 40
0.0278996302
 40
0.0362127029
 40
0.0455731458
 40
0.0559603273
 40
0.0673509687
 40
0.0797198445
 40
0.1072787474
 40
0.1383895305
 40
0.1727723409
 40
0.2101176759
 40
0.2500890277
 40
0.2923262457
 40
0.3364487287
 40
0.382058615
 40
0.4287448728
 40
0.4760866026
 40
0.571026922
 40
0.6634636315
 40
0.750071008
 40
0.7902037258
 40
0.8277335835
 40
0.8623223952
 40
0.89365877
 40
0.9214608339
 40
0.9454787965
 40
0.9654977636
 40
0.9739505577
 40
0.9813402222
 40
0.9876506619
 40
0.9928694776
 40
0.9969870423
 40
1.0
 40
1.0
 40
1.0
 40
1.0
 10
7.7992455357
 20
4.0230267244
 30
0.0
 10
7.7992455357
 20
4.0230471572
 30
0.0
 10
7.7992693844
 20
4.0230800735
 30
0.0
 10
7.7993136895
 20
4.0231105815
 30
0.0
 10
7.799365394
 20
4.0231375032
 30
0.0
 10
7.7994310529
 20
4.0231639725
 30
0.0
 10
7.7995466236
 20
4.0232024988
 30
0.0
 10
7.7997279482
 20
4.0232488268
 30
0.0
 10
7.7999893472
 20
4.0233017624
 30
0.0
 10
7.8003082719
 20
4.023354923
 30
0.0
 10
7.8006845727
 20
4.0234083309
 30
0.0
 10
7.8013000786
 20
4.0234842751
 30
0.0
 10
7.8022117421
 20
4.0235768066
 30
0.0
 10
7.8034748655
 20
4.023683113
 30
0.0
 10
7.8049607446
 20
4.0237897932
 30
0.0
 10
7.8066660585
 20
4.0238967952
 30
0.0
 10
7.8085869909
 20
4.0240039887
 30
0.0
 10
7.8107192133
 20
4.0241113242
 30
0.0
 10
7.8130579321
 20
4.0242187718
 30
0.0
 10
7.816573305
 20
4.0243675516
 30
0.0
 10
7.8214404421
 20
4.0245511394
 30
0.0
 10
7.8278167752
 20
4.0247648615
 30
0.0
 10
7.834864417
 20
4.0249789453
 30
0.0
 10
7.8425198067
 20
4.0251933143
 30
0.0
 10
7.8507139037
 20
4.0254078755
 30
0.0
 10
7.8593728041
 20
4.0256225783
 30
0.0
 10
7.8684184065
 20
4.025837382
 30
0.0
 10
7.8777691266
 20
4.0260522572
 30
0.0
 10
7.8873406216
 20
4.0262671796
 30
0.0
 10
7.9002935656
 20
4.0265540404
 30
0.0
 10
7.916382558
 20
4.026907793
 30
0.0
 10
7.9351628059
 20
4.0273315846
 30
0.0
 10
7.9501857749
 20
4.0276923371
 30
0.0
 10
7.9614446938
 20
4.0279859294
 30
0.0
 10
7.9691379364
 20
4.0282003209
 30
0.0
 10
7.9762278387
 20
4.0284144285
 30
0.0
 10
7.9826504601
 20
4.028628168
 30
0.0
 10
7.9883479032
 20
4.0288412843
 30
0.0
 10
7.9932688031
 20
4.0290536433
 30
0.0
 10
7.9968629764
 20
4.0292381094
 30
0.0
 10
7.9993170771
 20
4.0293894922
 30
0.0
 10
8.0008322094
 20
4.0294962362
 30
0.0
 10
8.0021249879
 20
4.0296025986
 30
0.0
 10
8.0031926953
 20
4.0297080941
 30
0.0
 10
8.0040329027
 20
4.0298127332
 30
0.0
 10
8.0045156992
 20
4.0298924568
 30
0.0
 10
8.0047175251
 20
4.0299364998
 30
0.0
  0
LINE
  5
2F7
100
AcDbEntity
  8
0
100
AcDbLine
 62
7
  6
CONTINUOUS
 10
8.0047175251
 20
4.0299364998
 11
8.0051703401
 21
4.0300799059
  0
LINE
  5
2F8
100
AcDbEntity
  8
0
100
AcDbLine
 62
7
  6
CONTINUOUS
 10
7.7993207314
 20
4.0250465375
 11
7.7997735787
 21
4.0251899507
  0
SPLINE
  5
2F9
100
AcDbEntity
  8
0
100
AcDbSpline
 62
7
  6
CONTINUOUS
 70
0
 71
3
 72
51
 73
47
 74
0
 42
0.0000001
 43
0.0000001
 44
0.0000000001
 40
0.0
 40
0.0
 40
0.0
 40
0.0
 40
0.0030130271
 40
0.0071306592
 40
0.0123495399
 40
0.0186600417
 40
0.0260497648
 40
0.034502615
 40
0.0545216886
 40
0.0785397398
 40
0.1063418801
 40
0.1376783228
 40
0.1722671811
 40
0.2097970772
 40
0.2499298227
 40
0.3365372108
 40
0.42897387
 40
0.5239141124
 40
0.5712557813
 40
0.6179419763
 40
0.6635518075
 40
0.7076742299
 40
0.7499113835
 40
0.7898826791
 40
0.8272279592
 40
0.8616107137
 40
0.8927214458
 40
0.9202803034
 40
0.9326491578
 40
0.9440397783
 40
0.9544269394
 40
0.9637873642
 40
0.9721004214
 40
0.979348011
 40
0.9855145885
 40
0.9905880282
 40
0.9927118352
 40
0.9945595734
 40
0.9961311067
 40
0.9974268731
 40
0.9984487128
 40
0.9988584456
 40
0.9992021549
 40
0.999481982
 40
0.9997019831
 40
1.0
 40
1.0
 40
1.0
 40
1.0
 10
7.7997735787
 20
4.0251899507
 30
0.0
 10
7.7999754095
 20
4.0252339934
 30
0.0
 10
7.8004582154
 20
4.0253137169
 30
0.0
 10
7.8012984366
 20
4.0254183559
 30
0.0
 10
7.8023661572
 20
4.0255238514
 30
0.0
 10
7.8036589483
 20
4.0256302137
 30
0.0
 10
7.8051740925
 20
4.0257369576
 30
0.0
 10
7.807628208
 20
4.0258883403
 30
0.0
 10
7.8112223981
 20
4.0260728061
 30
0.0
 10
7.8161433158
 20
4.0262851649
 30
0.0
 10
7.8218407739
 20
4.0264982811
 30
0.0
 10
7.8282634074
 20
4.0267120204
 30
0.0
 10
7.835353319
 20
4.0269261278
 30
0.0
 10
7.8430465681
 20
4.0271405191
 30
0.0
 10
7.8543054906
 20
4.0274341111
 30
0.0
 10
7.8693284564
 20
4.0277948632
 30
0.0
 10
7.8881086934
 20
4.0282186543
 30
0.0
 10
7.9041976703
 20
4.0285724066
 30
0.0
 10
7.9171505985
 20
4.0288592671
 30
0.0
 10
7.9267220796
 20
4.0290741892
 30
0.0
 10
7.936072786
 20
4.0292890642
 30
0.0
 10
7.9451183745
 20
4.0295038677
 30
0.0
 10
7.9537772611
 20
4.0297185703
 30
0.0
 10
7.9619713448
 20
4.0299331312
 30
0.0
 10
7.9696267218
 20
4.0301475
 30
0.0
 10
7.9766743514
 20
4.0303615837
 30
0.0
 10
7.9830506731
 20
4.0305753055
 30
0.0
 10
7.9879178012
 20
4.0307588931
 30
0.0
 10
7.9914331676
 20
4.0309076728
 30
0.0
 10
7.9937718817
 20
4.0310151203
 30
0.0
 10
7.9959040997
 20
4.0311224557
 30
0.0
 10
7.9978250281
 20
4.0312296491
 30
0.0
 10
7.9995303385
 20
4.0313366509
 30
0.0
 10
8.0010162146
 20
4.0314433311
 30
0.0
 10
8.0022793354
 20
4.0315496374
 30
0.0
 10
8.003190997
 20
4.0316421687
 30
0.0
 10
8.0038065017
 20
4.0317181129
 30
0.0
 10
8.0041828017
 20
4.0317715207
 30
0.0
 10
8.0045017257
 20
4.0318246813
 30
0.0
 10
8.0047631242
 20
4.0318776168
 30
0.0
 10
8.0049444484
 20
4.0319239448
 30
0.0
 10
8.0050600189
 20
4.031962471
 30
0.0
 10
8.0051256777
 20
4.0319889403
 30
0.0
 10
8.005177382
 20
4.032015862
 30
0.0
 10
8.0052216871
 20
4.0320463699
 30
0.0
 10
8.0052455357
 20
4.0320792862
 30
0.0
 10
8.0052455357
 20
4.032099719
 30
0.0
  0
SPLINE
  5
2FA
100
AcDbEntity
  8
0
100
AcDbSpline
 62
7
  6
CONTINUOUS
 70
0
 71
3
 72
30
 73
26
 74
0
 42
0.0000001
 43
0.0000001
 44
0.0000000001
 40
0.0
 40
0.0
 40
0.0
 40
0.0
 40
0.1903478266
 40
0.2833333223
 40
0.3737233996
 40
0.4606897879
 40
0.543437566
 40
0.6212099245
 40
0.6932958812
 40
0.7590360524
 40
0.8178298049
 40
0.8691406591
 40
0.8918408798
 40
0.9125014079
 40
0.9310746256
 40
0.9475200941
 40
0.9618005473
 40
0.9738865944
 40
0.983753667
 40
0.9878502483
 40
0.9913877158
 40
0.9943663095
 40
0.9967882569
 40
0.998660483
 40
1.0
 40
1.0
 40
1.0
 40
1.0
 10
3.2523486297
 20
4.9840132217
 30
0.0
 10
3.2522045831
 20
4.9900350894
 30
0.0
 10
3.2519901898
 20
4.998998659
 30
0.0
 10
3.251699404
 20
5.0108216266
 30
0.0
 10
3.2514830527
 20
5.0193739102
 30
0.0
 10
3.2512667748
 20
5.0276021144
 30
0.0
 10
3.2510506049
 20
5.0354308879
 30
0.0
 10
3.2508345927
 20
5.0427885831
 30
0.0
 10
3.2506188003
 20
5.0496078288
 30
0.0
 10
3.2504033511
 20
5.0558261813
 30
0.0
 10
3.2501883384
 20
5.0613866811
 30
0.0
 10
3.2500030654
 20
5.0655852639
 30
0.0
 10
3.2498525119
 20
5.0685773876
 30
0.0
 10
3.2497443715
 20
5.0705343228
 30
0.0
 10
3.2496363807
 20
5.0722930032
 30
0.0
 10
3.2495286013
 20
5.0738493739
 30
0.0
 10
3.2494211564
 20
5.0751999361
 30
0.0
 10
3.2493141305
 20
5.0763415836
 30
0.0
 10
3.2492208511
 20
5.0771607527
 30
0.0
 10
3.2491441306
 20
5.077709266
 30
0.0
 10
3.2490903741
 20
5.0780408221
 30
0.0
 10
3.2490368559
 20
5.0783185797
 30
0.0
 10
3.2489837399
 20
5.0785427128
 30
0.0
 10
3.2489311498
 20
5.078713026
 30
0.0
 10
3.2488904582
 20
5.0788069696
 30
0.0
 10
3.2488681241
 20
5.0788429979
 30
0.0
  0
SPLINE
  5
2FB
100
AcDbEntity
  8
0
100
AcDbSpline
 62
7
  6
CONTINUOUS
 70
0
 71
3
 72
34
 73
30
 74
0
 42
0.0000001
 43
0.0000001
 44
0.0000000001
 40
0.0
 40
0.0
 40
0.0
 40
0.0
 40
0.0006326217
 40
0.0011040734
 40
0.00170417
 40
0.0024410781
 40
0.0033190282
 40
0.0055062872
 40
0.0082763334
 40
0.0116329663
 40
0.0155774859
 40
0.0201091172
 40
0.0309259771
 40
0.0440646095
 40
0.0594957578
 40
0.0771851041
 40
0.0970906526
 40
0.1191660334
 40
0.1433582956
 40
0.1696102281
 40
0.2280362861
 40
0.2938843673
 40
0.3665224542
 40
0.4452526863
 40
0.5293177739
 40
0.61790911
 40
0.7101741468
 40
0.8052238063
 40
1.0
 40
1.0
 40
1.0
 40
1.0
 10
3.1208307875
 20
4.8822836677
 30
0.0
 10
3.1208093161
 20
4.8822843349
 30
0.0
 10
3.1207755627
 20
4.8823107327
 30
0.0
 10
3.1207441531
 20
4.8823580986
 30
0.0
 10
3.1207163675
 20
4.8824134226
 30
0.0
 10
3.1206890345
 20
4.8824834213
 30
0.0
 10
3.1206492678
 20
4.8826063701
 30
0.0
 10
3.120601436
 20
4.8827988108
 30
0.0
 10
3.1205467556
 20
4.8830758384
 30
0.0
 10
3.1204918394
 20
4.8834134357
 30
0.0
 10
3.1204366748
 20
4.8838114591
 30
0.0
 10
3.120358253
 20
4.8844619033
 30
0.0
 10
3.1202626689
 20
4.8854245906
 30
0.0
 10
3.1201528691
 20
4.8867575516
 30
0.0
 10
3.1200426606
 20
4.888324522
 30
0.0
 10
3.1199321302
 20
4.890121736
 30
0.0
 10
3.1198213908
 20
4.8921449301
 30
0.0
 10
3.1197105065
 20
4.8943892291
 30
0.0
 10
3.1195995015
 20
4.8968492631
 30
0.0
 10
3.1194458518
 20
4.9005429577
 30
0.0
 10
3.1192562447
 20
4.905650844
 30
0.0
 10
3.119035434
 20
4.9123337132
 30
0.0
 10
3.1188142368
 20
4.9197063736
 30
0.0
 10
3.1185927332
 20
4.9276978692
 30
0.0
 10
3.118371019
 20
4.9362312733
 30
0.0
 10
3.1181491474
 20
4.9452244177
 30
0.0
 10
3.1179271592
 20
4.9545906681
 30
0.0
 10
3.1176286424
 20
4.9675618095
 30
0.0
 10
3.1174086741
 20
4.9774009034
 30
0.0
 10
3.1172607875
 20
4.9840132217
 30
0.0
  0
SPLINE
  5
2FC
100
AcDbEntity
  8
0
100
AcDbSpline
 62
7
  6
CONTINUOUS
 70
0
 71
3
 72
34
 73
30
 74
0
 42
0.0000001
 43
0.0000001
 44
0.0000000001
 40
0.0
 40
0.0
 40
0.0
 40
0.0
 40
0.1916103649
 40
0.2858096652
 40
0.3776306138
 40
0.466120589
 40
0.5503613783
 40
0.6294796567
 40
0.7026547722
 40
0.7691281822
 40
0.828211615
 40
0.8547876086
 40
0.8792937077
 40
0.9016659092
 40
0.9218476129
 40
0.9397863532
 40
0.9554376188
 40
0.9687616027
 40
0.9797275981
 40
0.9843183912
 40
0.9883118884
 40
0.9917072875
 40
0.9945048728
 40
0.9967076583
 40
0.9975888433
 40
0.9983259412
 40
0.9989230817
 40
0.9993882471
 40
1.0
 40
1.0
 40
1.0
 40
1.0
 10
7.908427861
 20
4.0410132217
 30
0.0
 10
7.9014470074
 20
4.0408589084
 30
0.0
 10
7.8910342017
 20
4.040630159
 30
0.0
 10
7.8772762639
 20
4.0403211998
 30
0.0
 10
7.8672753657
 20
4.0400908519
 30
0.0
 10
7.8576374668
 20
4.0398606035
 30
0.0
 10
7.8484626054
 20
4.0396304988
 30
0.0
 10
7.8398460194
 20
4.0394005939
 30
0.0
 10
7.8318771391
 20
4.0391709896
 30
0.0
 10
7.8246386764
 20
4.0389417692
 30
0.0
 10
7.8190982056
 20
4.0387449927
 30
0.0
 10
7.8150867777
 20
4.0385855087
 30
0.0
 10
7.8124124735
 20
4.0384702489
 30
0.0
 10
7.8099714163
 20
4.0383550994
 30
0.0
 10
7.8077699656
 20
4.038240112
 30
0.0
 10
7.8058137961
 20
4.038125321
 30
0.0
 10
7.8041079863
 20
4.0380108854
 30
0.0
 10
7.802656912
 20
4.0378968473
 30
0.0
 10
7.8016090553
 20
4.0377975935
 30
0.0
 10
7.8009012618
 20
4.0377161228
 30
0.0
 10
7.8004684554
 20
4.0376588281
 30
0.0
 10
7.8001016014
 20
4.0376018088
 30
0.0
 10
7.7998008991
 20
4.0375450363
 30
0.0
 10
7.7995922507
 20
4.0374953687
 30
0.0
 10
7.7994591558
 20
4.0374540142
 30
0.0
 10
7.7993836598
 20
4.0374256727
 30
0.0
 10
7.7993241452
 20
4.0373967771
 30
0.0
 10
7.7992738147
 20
4.037364596
 30
0.0
 10
7.7992455329
 20
4.0373290175
 30
0.0
 10
7.799245537
 20
4.0373067244
 30
0.0
  0
LINE
  5
2FD
100
AcDbEntity
  8
0
100
AcDbLine
 62
7
  6
CONTINUOUS
 10
7.8093287558
 20
4.016549363
 11
7.8095120836
 21
4.0166253345
  0
SPLINE
  5
2FE
100
AcDbEntity
  8
0
100
AcDbSpline
 62
7
  6
CONTINUOUS
 70
0
 71
3
 72
53
 73
49
 74
0
 42
0.0000001
 43
0.0000001
 44
0.0000000001
 40
0.0
 40
0.0
 40
0.0
 40
0.0
 40
0.0010892583
 40
0.0024556176
 40
0.0060260487
 40
0.010715593
 40
0.0165176696
 40
0.0234217071
 40
0.0314130588
 40
0.0404743462
 40
0.050585481
 40
0.0738635105
 40
0.1010360421
 40
0.1318552879
 40
0.1660396729
 40
0.2032763265
 40
0.2432242021
 40
0.2855175214
 40
0.3297686637
 40
0.422507796
 40
0.5180493398
 40
0.5657793259
 40
0.6128982213
 40
0.6589740259
 40
0.7035845744
 40
0.7463209775
 40
0.7867914981
 40
0.8246255441
 40
0.8594765513
 40
0.8910254319
 40
0.9189839067
 40
0.9315356105
 40
0.9430968755
 40
0.9536413617
 40
0.9631452423
 40
0.9715874259
 40
0.9789490187
 40
0.9852146911
 40
0.9903714317
 40
0.9925314525
 40
0.9944116503
 40
0.9960118606
 40
0.997333062
 40
0.9983778241
 40
0.999152147
 40
0.9994426764
 40
0.9996740839
 40
1.0
 40
1.0
 40
1.0
 40
1.0
 10
7.8095120836
 20
4.0166253345
 30
0.0
 10
7.8095763403
 20
4.0166460901
 30
0.0
 10
7.8097234691
 20
4.0166857756
 30
0.0
 10
7.8100888003
 20
4.0167641275
 30
0.0
 10
7.8106786205
 20
4.0168571634
 30
0.0
 10
7.8115439039
 20
4.016963304
 30
0.0
 10
7.8126170917
 20
4.0170701027
 30
0.0
 10
7.8138956937
 20
4.0171775643
 30
0.0
 10
7.8153769364
 20
4.017285341
 30
0.0
 10
7.8170574291
 20
4.0173933754
 30
0.0
 10
7.8196846878
 20
4.0175448315
 30
0.0
 10
7.8234345101
 20
4.0177305634
 30
0.0
 10
7.8284680622
 20
4.0179453536
 30
0.0
 10
7.8341782426
 20
4.0181607173
 30
0.0
 10
7.8405126977
 20
4.0183765377
 30
0.0
 10
7.8474133478
 20
4.0185926481
 30
0.0
 10
7.8548169111
 20
4.0188089698
 30
0.0
 10
7.8626554889
 20
4.019025448
 30
0.0
 10
7.8737658392
 20
4.0193188127
 30
0.0
 10
7.8881765208
 20
4.0196801342
 30
0.0
 10
7.9028030463
 20
4.0200365561
 30
0.0
 10
7.9146022659
 20
4.0203256279
 30
0.0
 10
7.9233358376
 20
4.0205423458
 30
0.0
 10
7.9318759686
 20
4.020759017
 30
0.0
 10
7.9401443305
 20
4.0209756174
 30
0.0
 10
7.9480650867
 20
4.0211921169
 30
0.0
 10
7.9555655912
 20
4.0214084744
 30
0.0
 10
7.9625770514
 20
4.0216246389
 30
0.0
 10
7.9690351664
 20
4.0218405166
 30
0.0
 10
7.9748807094
 20
4.0220560307
 30
0.0
 10
7.9793440133
 20
4.0222411419
 30
0.0
 10
7.9825685661
 20
4.0223911602
 30
0.0
 10
7.984714338
 20
4.0224995093
 30
0.0
 10
7.9866709125
 20
4.0226077479
 30
0.0
 10
7.9884338127
 20
4.0227158453
 30
0.0
 10
7.9899989981
 20
4.0228237442
 30
0.0
 10
7.9913629333
 20
4.0229313321
 30
0.0
 10
7.9925224895
 20
4.0230385265
 30
0.0
 10
7.9933594111
 20
4.0231318479
 30
0.0
 10
7.9939244129
 20
4.0232084278
 30
0.0
 10
7.9942699398
 20
4.0232622695
 30
0.0
 10
7.9945627621
 20
4.0233159511
 30
0.0
 10
7.9948029022
 20
4.0233691989
 30
0.0
 10
7.9949903205
 20
4.0234222763
 30
0.0
 10
7.9951129257
 20
4.0234687073
 30
0.0
 10
7.9951831974
 20
4.0235087321
 30
0.0
 10
7.9952245265
 20
4.0235402017
 30
0.0
 10
7.9952455171
 20
4.0235730174
 30
0.0
 10
7.9952455115
 20
4.0235932217
 30
0.0
  0
LINE
  5
2FF
100
AcDbEntity
  8
0
100
AcDbLine
 62
7
  6
CONTINUOUS
 10
7.7993207314
 20
4.0107665375
 11
7.7997735787
 21
4.0109099507
  0
SPLINE
  5
300
100
AcDbEntity
  8
0
100
AcDbSpline
 62
7
  6
CONTINUOUS
 70
0
 71
3
 72
51
 73
47
 74
0
 42
0.0000001
 43
0.0000001
 44
0.0000000001
 40
0.0
 40
0.0
 40
0.0
 40
0.0
 40
0.0030130271
 40
0.0071306592
 40
0.0123495399
 40
0.0186600417
 40
0.0260497648
 40
0.034502615
 40
0.0545216886
 40
0.0785397398
 40
0.1063418801
 40
0.1376783228
 40
0.1722671811
 40
0.2097970772
 40
0.2499298227
 40
0.3365372108
 40
0.42897387
 40
0.5239141124
 40
0.5712557813
 40
0.6179419763
 40
0.6635518075
 40
0.7076742299
 40
0.7499113835
 40
0.7898826791
 40
0.8272279592
 40
0.8616107137
 40
0.8927214458
 40
0.9202803034
 40
0.9326491578
 40
0.9440397783
 40
0.9544269394
 40
0.9637873642
 40
0.9721004214
 40
0.979348011
 40
0.9855145885
 40
0.9905880282
 40
0.9927118352
 40
0.9945595734
 40
0.9961311067
 40
0.9974268731
 40
0.9984487128
 40
0.9988584456
 40
0.9992021549
 40
0.999481982
 40
0.9997019831
 40
1.0
 40
1.0
 40
1.0
 40
1.0
 10
7.7997735787
 20
4.0109099507
 30
0.0
 10
7.7999754095
 20
4.0109539934
 30
0.0
 10
7.8004582154
 20
4.0110337169
 30
0.0
 10
7.8012984366
 20
4.0111383559
 30
0.0
 10
7.8023661572
 20
4.0112438514
 30
0.0
 10
7.8036589483
 20
4.0113502137
 30
0.0
 10
7.8051740925
 20
4.0114569576
 30
0.0
 10
7.807628208
 20
4.0116083403
 30
0.0
 10
7.8112223981
 20
4.0117928061
 30
0.0
 10
7.8161433158
 20
4.0120051649
 30
0.0
 10
7.8218407739
 20
4.0122182811
 30
0.0
 10
7.8282634074
 20
4.0124320204
 30
0.0
 10
7.835353319
 20
4.0126461278
 30
0.0
 10
7.8430465681
 20
4.0128605191
 30
0.0
 10
7.8543054906
 20
4.0131541111
 30
0.0
 10
7.8693284564
 20
4.0135148632
 30
0.0
 10
7.8881086934
 20
4.0139386543
 30
0.0
 10
7.9041976703
 20
4.0142924066
 30
0.0
 10
7.9171505985
 20
4.0145792671
 30
0.0
 10
7.9267220796
 20
4.0147941892
 30
0.0
 10
7.936072786
 20
4.0150090642
 30
0.0
 10
7.9451183745
 20
4.0152238677
 30
0.0
 10
7.9537772611
 20
4.0154385703
 30
0.0
 10
7.9619713448
 20
4.0156531312
 30
0.0
 10
7.9696267218
 20
4.0158675
 30
0.0
 10
7.9766743514
 20
4.0160815837
 30
0.0
 10
7.9830506731
 20
4.0162953055
 30
0.0
 10
7.9879178012
 20
4.0164788931
 30
0.0
 10
7.9914331676
 20
4.0166276728
 30
0.0
 10
7.9937718817
 20
4.0167351203
 30
0.0
 10
7.9959040997
 20
4.0168424557
 30
0.0
 10
7.9978250281
 20
4.0169496491
 30
0.0
 10
7.9995303385
 20
4.0170566509
 30
0.0
 10
8.0010162146
 20
4.0171633311
 30
0.0
 10
8.0022793354
 20
4.0172696374
 30
0.0
 10
8.003190997
 20
4.0173621687
 30
0.0
 10
8.0038065017
 20
4.0174381129
 30
0.0
 10
8.0041828017
 20
4.0174915207
 30
0.0
 10
8.0045017257
 20
4.0175446813
 30
0.0
 10
8.0047631242
 20
4.0175976168
 30
0.0
 10
8.0049444484
 20
4.0176439448
 30
0.0
 10
8.0050600189
 20
4.017682471
 30
0.0
 10
8.0051256777
 20
4.0177089403
 30
0.0
 10
8.005177382
 20
4.017735862
 30
0.0
 10
8.0052216871
 20
4.0177663699
 30
0.0
 10
8.0052455357
 20
4.0177992862
 30
0.0
 10
8.0052455357
 20
4.017819719
 30
0.0
  0
SPLINE
  5
301
100
AcDbEntity
  8
0
100
AcDbSpline
 62
7
  6
CONTINUOUS
 70
0
 71
3
 72
34
 73
30
 74
0
 42
0.0000001
 43
0.0000001
 44
0.0000000001
 40
0.0
 40
0.0
 40
0.0
 40
0.0
 40
0.0584221458
 40
0.1255099222
 40
0.1997318521
 40
0.2793896732
 40
0.3626616876
 40
0.4476426204
 40
0.5323886858
 40
0.6149609106
 40
0.693470624
 40
0.7661219358
 40
0.7997253417
 40
0.8312537323
 40
0.8605267928
 40
0.8873772444
 40
0.9116517002
 40
0.9332116366
 40
0.9519343881
 40
0.9677141793
 40
0.9744724225
 40
0.9804632203
 40
0.9856789536
 40
0.9901131899
 40
0.9937609813
 40
0.9966206317
 40
0.9986943446
 40
0.9994408397
 40
1.0
 40
1.0
 40
1.0
 40
1.0
 10
7.8221851665
 20
3.9960132217
 30
0.0
 10
7.8257488501
 20
3.9961382065
 30
0.0
 10
7.8334057233
 20
3.9963806323
 30
0.0
 10
7.8455919532
 20
3.9967186634
 30
0.0
 10
7.8590747542
 20
3.9970577096
 30
0.0
 10
7.8735456491
 20
3.9973974309
 30
0.0
 10
7.8886733973
 20
3.9977375111
 30
0.0
 10
7.9041117853
 20
3.9980777511
 30
0.0
 10
7.9195074509
 20
3.9984179715
 30
0.0
 10
7.9345080446
 20
3.9987579788
 30
0.0
 10
7.9487702306
 20
3.9990975937
 30
0.0
 10
7.9600438765
 20
3.9993869767
 30
0.0
 10
7.9684503874
 20
3.9996215129
 30
0.0
 10
7.9742099757
 20
3.9997927096
 30
0.0
 10
7.9795571986
 20
3.9999637602
 30
0.0
 10
7.9844614304
 20
4.0001346192
 30
0.0
 10
7.9888945785
 20
4.0003052187
 30
0.0
 10
7.9928312556
 20
4.0004754056
 30
0.0
 10
7.9962489201
 20
4.0006450854
 30
0.0
 10
7.9987630875
 20
4.0007922251
 30
0.0
 10
8.0005002463
 20
4.0009124505
 30
0.0
 10
8.0015934418
 20
4.000997755
 30
0.0
 10
8.0025443389
 20
4.0010827962
 30
0.0
 10
8.0033515633
 20
4.0011675403
 30
0.0
 10
8.0040142554
 20
4.0012515303
 30
0.0
 10
8.0045312828
 20
4.0013349487
 30
0.0
 10
8.0048708321
 20
4.0014080342
 30
0.0
 10
8.0050673566
 20
4.0014708963
 30
0.0
 10
8.0051407913
 20
4.0015028357
 30
0.0
 10
8.0051703447
 20
4.0015199059
 30
0.0
  0
LINE
  5
302
100
AcDbEntity
  8
0
100
AcDbLine
 62
7
  6
CONTINUOUS
 10
7.8221851665
 20
3.9960132217
 11
7.7997300092
 21
3.9960132217
  0
LINE
  5
303
100
AcDbEntity
  8
0
100
AcDbLine
 62
7
  6
CONTINUOUS
 10
7.7997300092
 20
3.9960132217
 11
7.7992455359
 21
3.99620647
  0
SPLINE
  5
304
100
AcDbEntity
  8
0
100
AcDbSpline
 62
7
  6
CONTINUOUS
 70
0
 71
3
 72
34
 73
30
 74
0
 42
0.0000001
 43
0.0000001
 44
0.0000000001
 40
0.0
 40
0.0
 40
0.0
 40
0.0
 40
0.0006305382
 40
0.0011012779
 40
0.0017008097
 40
0.0024372543
 40
0.0033148132
 40
0.0055014413
 40
0.0082709898
 40
0.0116272158
 40
0.0155713952
 40
0.020102738
 40
0.0309191411
 40
0.0440574378
 40
0.059488345
 40
0.0771775284
 40
0.0970829812
 40
0.1191583258
 40
0.143350605
 40
0.1696026035
 40
0.2280289251
 40
0.2938774248
 40
0.3665160654
 40
0.4452469691
 40
0.5293128309
 40
0.6179050298
 40
0.7101710043
 40
0.8052216643
 40
1.0
 40
1.0
 40
1.0
 40
1.0
 10
3.1351107875
 20
4.8818398903
 30
0.0
 10
3.1350892937
 20
4.8818405582
 30
0.0
 10
3.135055527
 20
4.8818671135
 30
0.0
 10
3.1350241484
 20
4.8819146446
 30
0.0
 10
3.1349963623
 20
4.8819702069
 30
0.0
 10
3.1349690321
 20
4.8820405035
 30
0.0
 10
3.1349292636
 20
4.8821639896
 30
0.0
 10
3.1348814331
 20
4.8823572643
 30
0.0
 10
3.1348267533
 20
4.8826354907
 30
0.0
 10
3.1347718377
 20
4.8829745523
 30
0.0
 10
3.1347166734
 20
4.8833743049
 30
0.0
 10
3.1346382511
 20
4.8840275829
 30
0.0
 10
3.1345426669
 20
4.8849944623
 30
0.0
 10
3.1344328673
 20
4.8863332269
 30
0.0
 10
3.1343226588
 20
4.8879070237
 30
0.0
 10
3.1342121284
 20
4.8897120699
 30
0.0
 10
3.134101389
 20
4.8917440835
 30
0.0
 10
3.1339905045
 20
4.8939981676
 30
0.0
 10
3.1338794995
 20
4.896468929
 30
0.0
 10
3.1337258496
 20
4.900178735
 30
0.0
 10
3.1335362424
 20
4.9053089026
 30
0.0
 10
3.1333154318
 20
4.912020924
 30
0.0
 10
3.1330942346
 20
4.919425749
 30
0.0
 10
3.1328727311
 20
4.9274521119
 30
0.0
 10
3.1326510171
 20
4.9360227502
 30
0.0
 10
3.1324291458
 20
4.945055137
 30
0.0
 10
3.1322071579
 20
4.9544622601
 30
0.0
 10
3.1319086415
 20
4.9674900103
 30
0.0
 10
3.1316886737
 20
4.9773720446
 30
0.0
 10
3.1315407875
 20
4.9840132217
 30
0.0
  0
SPLINE
  5
305
100
AcDbEntity
  8
0
100
AcDbSpline
 62
7
  6
CONTINUOUS
 70
0
 71
3
 72
34
 73
30
 74
0
 42
0.0000001
 43
0.0000001
 44
0.0000000001
 40
0.0
 40
0.0
 40
0.0
 40
0.0
 40
0.0006284745
 40
0.0010985104
 40
0.001697484
 40
0.0024334707
 40
0.0033106432
 40
0.005496648
 40
0.008265705
 40
0.011621529
 40
0.0155653723
 40
0.0200964301
 40
0.030912382
 40
0.0440503471
 40
0.0594810161
 40
0.0771700386
 40
0.0970753969
 40
0.1191507057
 40
0.1433430019
 40
0.1695950655
 40
0.2280216477
 40
0.2938705612
 40
0.3665097491
 40
0.4452413168
 40
0.529307944
 40
0.6179009957
 40
0.7101678974
 40
0.8052195464
 40
1.0
 40
1.0
 40
1.0
 40
1.0
 10
3.1493907875
 20
4.8813961129
 30
0.0
 10
3.1493692712
 20
4.8813967814
 30
0.0
 10
3.1493354915
 20
4.8814234945
 30
0.0
 10
3.1493041437
 20
4.8814711906
 30
0.0
 10
3.1492763571
 20
4.8815269911
 30
0.0
 10
3.1492490298
 20
4.8815975858
 30
0.0
 10
3.1492092595
 20
4.8817216091
 30
0.0
 10
3.1491614302
 20
4.8819157177
 30
0.0
 10
3.1491067511
 20
4.882195143
 30
0.0
 10
3.1490518362
 20
4.8825356688
 30
0.0
 10
3.148996672
 20
4.8829371507
 30
0.0
 10
3.1489182492
 20
4.8835932624
 30
0.0
 10
3.148822665
 20
4.8845643341
 30
0.0
 10
3.1487128654
 20
4.8859089022
 30
0.0
 10
3.148602657
 20
4.8874895253
 30
0.0
 10
3.1484921266
 20
4.8893024038
 30
0.0
 10
3.1483813871
 20
4.8913432368
 30
0.0
 10
3.1482705026
 20
4.8936071061
 30
0.0
 10
3.1481594975
 20
4.8960885949
 30
0.0
 10
3.1480058474
 20
4.8998145124
 30
0.0
 10
3.1478162401
 20
4.9049669612
 30
0.0
 10
3.1475954295
 20
4.9117081347
 30
0.0
 10
3.1473742325
 20
4.9191451244
 30
0.0
 10
3.1471527291
 20
4.9272063546
 30
0.0
 10
3.1469310153
 20
4.935814227
 30
0.0
 10
3.1467091442
 20
4.9448858563
 30
0.0
 10
3.1464871566
 20
4.9543338521
 30
0.0
 10
3.1461886406
 20
4.9674182112
 30
0.0
 10
3.1459686733
 20
4.9773431857
 30
0.0
 10
3.1458207875
 20
4.9840132217
 30
0.0
  0
SPLINE
  5
306
100
AcDbEntity
  8
0
100
AcDbSpline
 62
7
  6
CONTINUOUS
 70
0
 71
3
 72
54
 73
50
 74
0
 42
0.0000001
 43
0.0000001
 44
0.0000000001
 40
0.0
 40
0.0
 40
0.0
 40
0.0
 40
0.0003282915
 40
0.0005619583
 40
0.0008555281
 40
0.0016384686
 40
0.0026955515
 40
0.0040327324
 40
0.0056522802
 40
0.0075550357
 40
0.0097411449
 40
0.0149606661
 40
0.0213018372
 40
0.0287523953
 40
0.0372955908
 40
0.0469128498
 40
0.0575819203
 40
0.0692787641
 40
0.0819762514
 40
0.1102539587
 40
0.1421536745
 40
0.1773800445
 40
0.2156063519
 40
0.2564779652
 40
0.2996156992
 40
0.3446189917
 40
0.391070006
 40
0.4385376349
 40
0.4865809232
 40
0.5826089912
 40
0.6755956586
 40
0.7198639071
 40
0.7620956283
 40
0.8018989122
 40
0.8389044883
 40
0.8727689735
 40
0.903178558
 40
0.9298518295
 40
0.9417087993
 40
0.9525424967
 40
0.9623276141
 40
0.9710424673
 40
0.9786669581
 40
0.9851849526
 40
0.9905826056
 40
0.9948508085
 40
0.9979859314
 40
0.9991311866
 40
1.0
 40
1.0
 40
1.0
 40
1.0
 10
7.8092455521
 20
4.0029732217
 30
0.0
 10
7.8092455598
 20
4.0029935875
 30
0.0
 10
7.8092669032
 20
4.0030266346
 30
0.0
 10
7.809308726
 20
4.0030582645
 30
0.0
 10
7.8093799124
 20
4.0030985616
 30
0.0
 10
7.8095040879
 20
4.0031452905
 30
0.0
 10
7.8096939346
 20
4.0031987049
 30
0.0
 10
7.8099372013
 20
4.0032522891
 30
0.0
 10
7.810233821
 20
4.0033063174
 30
0.0
 10
7.8105838073
 20
4.0033605136
 30
0.0
 10
7.8111561179
 20
4.0034375915
 30
0.0
 10
7.8120038233
 20
4.0035315039
 30
0.0
 10
7.8131782856
 20
4.0036394083
 30
0.0
 10
7.8145596429
 20
4.0037476796
 30
0.0
 10
7.8161447382
 20
4.0038562875
 30
0.0
 10
7.8179298964
 20
4.0039650784
 30
0.0
 10
7.8199110071
 20
4.0040740221
 30
0.0
 10
7.8220834574
 20
4.0041830714
 30
0.0
 10
7.8253475149
 20
4.0043340516
 30
0.0
 10
7.8298645392
 20
4.0045203482
 30
0.0
 10
7.8357790063
 20
4.0047372544
 30
0.0
 10
7.8423110013
 20
4.004954526
 30
0.0
 10
7.8493998437
 20
4.0051720861
 30
0.0
 10
7.8569796808
 20
4.0053898399
 30
0.0
 10
7.8649800911
 20
4.005607736
 30
0.0
 10
7.8733267422
 20
4.0058257328
 30
0.0
 10
7.8819420873
 20
4.0060438
 30
0.0
 10
7.8907460778
 20
4.006261913
 30
0.0
 10
7.9026247526
 20
4.0065527023
 30
0.0
 10
7.9173264161
 20
4.0069111676
 30
0.0
 10
7.9317936949
 20
4.0072749548
 30
0.0
 10
7.9429243352
 20
4.0075704141
 30
0.0
 10
7.9507566053
 20
4.0077882616
 30
0.0
 10
7.9581381533
 20
4.0080059389
 30
0.0
 10
7.9650004014
 20
4.0082233951
 30
0.0
 10
7.9712796034
 20
4.0084405137
 30
0.0
 10
7.9769174277
 20
4.0086572068
 30
0.0
 10
7.9811901147
 20
4.0088437269
 30
0.0
 10
7.9842486979
 20
4.0089951576
 30
0.0
 10
7.9862604121
 20
4.0091041199
 30
0.0
 10
7.9880768997
 20
4.0092129453
 30
0.0
 10
7.9896939161
 20
4.0093215781
 30
0.0
 10
7.9911077755
 20
4.00942992
 30
0.0
 10
7.9923151595
 20
4.0095378949
 30
0.0
 10
7.9933135516
 20
4.009644975
 30
0.0
 10
7.9941004848
 20
4.0097513552
 30
0.0
 10
7.9946231663
 20
4.009844495
 30
0.0
 10
7.9949325673
 20
4.0099242239
 30
0.0
 10
7.9950511381
 20
4.0099646783
 30
0.0
 10
7.9951005123
 20
4.009986291
 30
0.0
  0
SPLINE
  5
307
100
AcDbEntity
  8
0
100
AcDbSpline
 62
7
  6
CONTINUOUS
 70
0
 71
3
 72
9
 73
5
 74
0
 42
0.0000001
 43
0.0000001
 44
0.0000000001
 40
0.0
 40
0.0
 40
0.0
 40
0.0
 40
0.2708356655
 40
1.0
 40
1.0
 40
1.0
 40
1.0
 10
7.9951005123
 20
4.009986291
 30
0.0
 10
7.9951062253
 20
4.0099887917
 30
0.0
 10
7.995127215
 20
4.009998255
 30
0.0
 10
7.9951477909
 20
4.010008681
 30
0.0
 10
7.9951623288
 20
4.0100170804
 30
0.0
  0
SPLINE
  5
308
100
AcDbEntity
  8
0
100
AcDbSpline
 62
7
  6
CONTINUOUS
 70
0
 71
3
 72
54
 73
50
 74
0
 42
0.0000001
 43
0.0000001
 44
0.0000000001
 40
0.0
 40
0.0
 40
0.0
 40
0.0
 40
0.0003283164
 40
0.0005620077
 40
0.0008556135
 40
0.0016386684
 40
0.0026959208
 40
0.004033304
 40
0.0056530924
 40
0.0075561337
 40
0.009742578
 40
0.0149628639
 40
0.0213049762
 40
0.0287566409
 40
0.0373011066
 40
0.0469198158
 40
0.0575904547
 40
0.0692889831
 40
0.0819882504
 40
0.1102699829
 40
0.1421741113
 40
0.1774051182
 40
0.2156363837
 40
0.2565130433
 40
0.2996557037
 40
0.3446639545
 40
0.3911197084
 40
0.4385915771
 40
0.4866388456
 40
0.5826729014
 40
0.6756627066
 40
0.7199310837
 40
0.7621620948
 40
0.8019635506
 40
0.8389661499
 40
0.8728266794
 40
0.9032311201
 40
0.9298981033
 40
0.941751569
 40
0.9525814816
 40
0.9623625211
 40
0.9710730225
 40
0.9786929164
 40
0.9852061033
 40
0.9905987049
 40
0.994861679
 40
0.9979913751
 40
0.9991338952
 40
1.0
 40
1.0
 40
1.0
 40
1.0
 10
7.8092455531
 20
3.9886932217
 30
0.0
 10
7.8092455605
 20
3.9887135892
 30
0.0
 10
7.8092669067
 20
3.9887466394
 30
0.0
 10
7.809308735
 20
3.9887782713
 30
0.0
 10
7.8093799326
 20
3.9888185721
 30
0.0
 10
7.8095041291
 20
3.9888653044
 30
0.0
 10
7.8096940075
 20
3.9889187226
 30
0.0
 10
7.8099373141
 20
3.9889723115
 30
0.0
 10
7.8102339811
 20
3.9890263444
 30
0.0
 10
7.8105840235
 20
3.9890805451
 30
0.0
 10
7.8111564244
 20
3.9891576287
 30
0.0
 10
7.8120042628
 20
3.9892515489
 30
0.0
 10
7.8131789084
 20
3.9893594613
 30
0.0
 10
7.8145604819
 20
3.9894677413
 30
0.0
 10
7.8161458264
 20
3.9895763581
 30
0.0
 10
7.8179312641
 20
3.9896851576
 30
0.0
 10
7.8199126814
 20
3.9897941103
 30
0.0
 10
7.8220854602
 20
3.989903168
 30
0.0
 10
7.8253500068
 20
3.9900541603
 30
0.0
 10
7.8298676987
 20
3.9902404713
 30
0.0
 10
7.8357830211
 20
3.9904573948
 30
0.0
 10
7.842315934
 20
3.9906746837
 30
0.0
 10
7.8494057376
 20
3.9908922611
 30
0.0
 10
7.8569865576
 20
3.9911100322
 30
0.0
 10
7.8649879539
 20
3.9913279456
 30
0.0
 10
7.8733355747
 20
3.9915459597
 30
0.0
 10
7.8819518487
 20
3.9917640442
 30
0.0
 10
7.890756709
 20
3.9919821744
 30
0.0
 10
7.9026363538
 20
3.9922729849
 30
0.0
 10
7.9173389401
 20
3.9926314755
 30
0.0
 10
7.9318069007
 20
3.9929952931
 30
0.0
 10
7.9429377823
 20
3.9932907786
 30
0.0
 10
7.9507699611
 20
3.9935086431
 30
0.0
 10
7.9581512216
 20
3.9937263371
 30
0.0
 10
7.9650129768
 20
3.99394381
 30
0.0
 10
7.9712914757
 20
3.9941609448
 30
0.0
 10
7.9769283864
 20
3.9943776536
 30
0.0
 10
7.9812001772
 20
3.9945641898
 30
0.0
 10
7.9842579394
 20
3.9947156354
 30
0.0
 10
7.986268962
 20
3.994824606
 30
0.0
 10
7.9880847038
 20
3.9949334392
 30
0.0
 10
7.9897009219
 20
3.9950420793
 30
0.0
 10
7.9911139357
 20
3.9951504281
 30
0.0
 10
7.9923204278
 20
3.9952584085
 30
0.0
 10
7.9933178866
 20
3.9953654925
 30
0.0
 10
7.9941038411
 20
3.9954718742
 30
0.0
 10
7.9946256873
 20
3.9955650141
 30
0.0
 10
7.9949343893
 20
3.995644761
 30
0.0
 10
7.9950526046
 20
3.9956852254
 30
0.0
 10
7.9951017903
 20
3.9957068507
 30
0.0
  0
SPLINE
  5
309
100
AcDbEntity
  8
0
100
AcDbSpline
 62
7
  6
CONTINUOUS
 70
0
 71
3
 72
9
 73
5
 74
0
 42
0.0000001
 43
0.0000001
 44
0.0000000001
 40
0.0
 40
0.0
 40
0.0
 40
0.0
 40
0.2704878645
 40
1.0
 40
1.0
 40
1.0
 40
1.0
 10
7.9951017903
 20
3.9957068507
 30
0.0
 10
7.9951073769
 20
3.995709307
 30
0.0
 10
7.9951279295
 20
3.9957186104
 30
0.0
 10
7.995148079
 20
3.9957288464
 30
0.0
 10
7.9951623306
 20
3.9957370804
 30
0.0
  0
LINE
  5
30A
100
AcDbEntity
  8
0
100
AcDbLine
 62
7
  6
CONTINUOUS
 10
7.8093287616
 20
4.002269363
 11
7.8096485758
 21
4.0023848886
  0
SPLINE
  5
30B
100
AcDbEntity
  8
0
100
AcDbSpline
 62
7
  6
CONTINUOUS
 70
0
 71
3
 72
49
 73
45
 74
0
 42
0.0000001
 43
0.0000001
 44
0.0000000001
 40
0.0
 40
0.0
 40
0.0
 40
0.0
 40
0.0028416356
 40
0.0067898245
 40
0.0118438614
 40
0.0179953937
 40
0.0252327056
 40
0.033540404
 40
0.0532922076
 40
0.0770756842
 40
0.1046772154
 40
0.1358479453
 40
0.1703061575
 40
0.2077399608
 40
0.2478105329
 40
0.3343894588
 40
0.4269123631
 40
0.5220327168
 40
0.6163102956
 40
0.662062803
 40
0.7063351825
 40
0.7487261027
 40
0.7888516305
 40
0.8263483473
 40
0.8608765804
 40
0.892124047
 40
0.9198083064
 40
0.9322348917
 40
0.943679619
 40
0.9541171089
 40
0.9635237051
 40
0.9718790725
 40
0.9791644517
 40
0.9853650441
 40
0.9904681503
 40
0.9926056383
 40
0.9944663183
 40
0.996050074
 40
0.9973577022
 40
0.9983918374
 40
0.9991585827
 40
0.9994464873
 40
0.9996760229
 40
1.0
 40
1.0
 40
1.0
 40
1.0
 10
7.8096485758
 20
4.0023848886
 30
0.0
 10
7.8098188212
 20
4.0024296253
 30
0.0
 10
7.8102323491
 20
4.0025097074
 30
0.0
 10
7.8109584742
 20
4.0026144183
 30
0.0
 10
7.8118913823
 20
4.0027200156
 30
0.0
 10
7.8130288643
 20
4.0028265795
 30
0.0
 10
7.8143686339
 20
4.0029335495
 30
0.0
 10
7.8165498323
 20
4.0030854972
 30
0.0
 10
7.8197560128
 20
4.0032704793
 30
0.0
 10
7.8241574705
 20
4.0034833149
 30
0.0
 10
7.8292669528
 20
4.0036969371
 30
0.0
 10
7.8350381533
 20
4.0039112084
 30
0.0
 10
7.8414187771
 20
4.0041258605
 30
0.0
 10
7.8483509755
 20
4.0043408059
 30
0.0
 10
7.8585108565
 20
4.0046352881
 30
0.0
 10
7.872082688
 20
4.0049970651
 30
0.0
 10
7.8890640729
 20
4.0054219276
 30
0.0
 10
7.9065224851
 20
4.00584717
 30
0.0
 10
7.9210844909
 20
4.0062048867
 30
0.0
 10
7.9324974231
 20
4.0064950422
 30
0.0
 10
7.9406970954
 20
4.0067104226
 30
0.0
 10
7.9485480826
 20
4.0069256986
 30
0.0
 10
7.9559791902
 20
4.0071408339
 30
0.0
 10
7.962923033
 20
4.0073557765
 30
0.0
 10
7.9693166521
 20
4.0075704338
 30
0.0
 10
7.9751020762
 20
4.0077847287
 30
0.0
 10
7.9795185603
 20
4.0079688037
 30
0.0
 10
7.9827086918
 20
4.0081179772
 30
0.0
 10
7.9848312254
 20
4.0082257144
 30
0.0
 10
7.9867664302
 20
4.0083333361
 30
0.0
 10
7.9885099492
 20
4.0084408236
 30
0.0
 10
7.9900578112
 20
4.0085481083
 30
0.0
 10
7.9914065712
 20
4.0086550875
 30
0.0
 10
7.992553163
 20
4.008761675
 30
0.0
 10
7.9933806924
 20
4.0088544648
 30
0.0
 10
7.9939393313
 20
4.0089306129
 30
0.0
 10
7.9942809671
 20
4.0089841511
 30
0.0
 10
7.994570494
 20
4.0090375242
 30
0.0
 10
7.9948079286
 20
4.0090904734
 30
0.0
 10
7.9949932289
 20
4.0091432524
 30
0.0
 10
7.9951144461
 20
4.0091894328
 30
0.0
 10
7.9951839103
 20
4.0092292213
 30
0.0
 10
7.995224819
 20
4.0092605465
 30
0.0
 10
7.9952455317
 20
4.0092931529
 30
0.0
 10
7.9952455243
 20
4.0093132217
 30
0.0
  0
LINE
  5
30C
100
AcDbEntity
  8
0
100
AcDbLine
 62
7
  6
CONTINUOUS
 10
7.7993209
 20
3.9963416716
 11
7.7997713651
 21
3.9966294672
  0
SPLINE
  5
30D
100
AcDbEntity
  8
0
100
AcDbSpline
 62
7
  6
CONTINUOUS
 70
0
 71
3
 72
57
 73
53
 74
0
 42
0.0000001
 43
0.0000001
 44
0.0000000001
 40
0.0
 40
0.0
 40
0.0
 40
0.0
 40
0.0013921857
 40
0.0030363112
 40
0.0049490337
 40
0.0071370589
 40
0.012346889
 40
0.0186552992
 40
0.0260420912
 40
0.0344906374
 40
0.043984306
 40
0.0545022556
 40
0.0660207514
 40
0.0785139846
 40
0.1063105435
 40
0.1376423196
 40
0.1722273978
 40
0.209754401
 40
0.2498851163
 40
0.2922579158
 40
0.3364909056
 40
0.3821851855
 40
0.428928894
 40
0.5238728879
 40
0.5712171533
 40
0.6179063161
 40
0.6635193999
 40
0.7076452735
 40
0.7498859897
 40
0.7898608739
 40
0.8272096858
 40
0.8615958362
 40
0.8927097543
 40
0.9202715201
 40
0.9326417054
 40
0.9440335643
 40
0.9544218663
 40
0.9637833274
 40
0.9720973121
 40
0.9793457147
 40
0.9855129873
 40
0.9905870002
 40
0.9927110471
 40
0.9945589939
 40
0.996130704
 40
0.997426615
 40
0.9984485671
 40
0.998858344
 40
0.9992020893
 40
0.9994819442
 40
0.9997019651
 40
1.0
 40
1.0
 40
1.0
 40
1.0
 10
7.7997713651
 20
3.9966294672
 30
0.0
 10
7.7998609907
 20
3.996662311
 30
0.0
 10
7.8000631906
 20
3.9967152556
 30
0.0
 10
7.8003984784
 20
3.9967683332
 30
0.0
 10
7.8007902259
 20
3.9968103324
 30
0.0
 10
7.8014261502
 20
3.9968659858
 30
0.0
 10
7.8023617746
 20
3.9969541529
 30
0.0
 10
7.8036528424
 20
3.997069754
 30
0.0
 10
7.8051672255
 20
3.9971792859
 30
0.0
 10
7.8069007471
 20
3.9972839047
 30
0.0
 10
7.8088492158
 20
3.9973899766
 30
0.0
 10
7.8110083602
 20
3.9974979262
 30
0.0
 10
7.8133734052
 20
3.9976058035
 30
0.0
 10
7.8169224944
 20
3.9977543326
 30
0.0
 10
7.8218297575
 20
3.9979378281
 30
0.0
 10
7.8282515871
 20
3.9981516818
 30
0.0
 10
7.8353409017
 20
3.9983657555
 30
0.0
 10
7.8430337479
 20
3.998580173
 30
0.0
 10
7.8512607403
 20
3.9987947521
 30
0.0
 10
7.8599476658
 20
3.9990094797
 30
0.0
 10
7.8690161609
 20
3.9992243026
 30
0.0
 10
7.8783844226
 20
3.9994391972
 30
0.0
 10
7.8912288738
 20
3.9997272693
 30
0.0
 10
7.9041865532
 20
4.0000121601
 30
0.0
 10
7.9171404478
 20
4.0002990414
 30
0.0
 10
7.9267127756
 20
4.000513978
 30
0.0
 10
7.9360643817
 20
4.0007288681
 30
0.0
 10
7.9451109031
 20
4.0009436865
 30
0.0
 10
7.9537707357
 20
4.001158404
 30
0.0
 10
7.9619657593
 20
4.00137298
 30
0.0
 10
7.969622051
 20
4.0015873637
 30
0.0
 10
7.9766705524
 20
4.0018014623
 30
0.0
 10
7.9830476862
 20
4.002015199
 30
0.0
 10
7.9879154467
 20
4.0021987994
 30
0.0
 10
7.9914312776
 20
4.0023475894
 30
0.0
 10
7.9937703053
 20
4.0024550444
 30
0.0
 10
7.9959028116
 20
4.0025623873
 30
0.0
 10
7.9978240015
 20
4.0026695882
 30
0.0
 10
7.9995295455
 20
4.0027765975
 30
0.0
 10
8.0010156263
 20
4.0028832851
 30
0.0
 10
8.0022789219
 20
4.0029895989
 30
0.0
 10
8.0031907101
 20
4.0030821366
 30
0.0
 10
8.0038063005
 20
4.0031580861
 30
0.0
 10
8.004182653
 20
4.0032114977
 30
0.0
 10
8.0045016215
 20
4.003264662
 30
0.0
 10
8.0047630565
 20
4.0033176013
 30
0.0
 10
8.0049444061
 20
4.0033639324
 30
0.0
 10
8.0050599928
 20
4.0034024614
 30
0.0
 10
8.0051256607
 20
4.0034289324
 30
0.0
 10
8.0051773723
 20
4.003455856
 30
0.0
 10
8.005221683
 20
4.0034863656
 30
0.0
 10
8.0052455357
 20
4.0035192845
 30
0.0
 10
8.0052455357
 20
4.003539719
 30
0.0
  0
SPLINE
  5
30E
100
AcDbEntity
  8
0
100
AcDbSpline
 62
7
  6
CONTINUOUS
 70
0
 71
3
 72
26
 73
22
 74
0
 42
0.0000001
 43
0.0000001
 44
0.0000000001
 40
0.0
 40
0.0
 40
0.0
 40
0.0
 40
0.2360683168
 40
0.441742721
 40
0.5326874222
 40
0.615483176
 40
0.6899817295
 40
0.7560507622
 40
0.8135934186
 40
0.8625404154
 40
0.9028813076
 40
0.9198475554
 40
0.9347047025
 40
0.9474978297
 40
0.9583033345
 40
0.9672541839
 40
0.9745917823
 40
0.9807590533
 40
0.9864832482
 40
0.9926532115
 40
1.0
 40
1.0
 40
1.0
 40
1.0
 10
7.8221851665
 20
3.9960132217
 30
0.0
 10
7.8205953731
 20
3.9958722038
 30
0.0
 10
7.8176217243
 20
3.9955938629
 30
0.0
 10
7.814040747
 20
3.9952085589
 30
0.0
 10
7.8114948042
 20
3.9948945063
 30
0.0
 10
7.8098317268
 20
3.9946684431
 30
0.0
 10
7.8083385543
 20
3.9944422072
 30
0.0
 10
7.8070183176
 20
3.9942158354
 30
0.0
 10
7.8058736184
 20
3.9939896046
 30
0.0
 10
7.8049067805
 20
3.993763578
 30
0.0
 10
7.8042154594
 20
3.9935662626
 30
0.0
 10
7.803755067
 20
3.9934043029
 30
0.0
 10
7.80347576
 20
3.9932899452
 30
0.0
 10
7.8032419703
 20
3.9931756172
 30
0.0
 10
7.8030535051
 20
3.9930612032
 30
0.0
 10
7.8029099588
 20
3.9929462402
 30
0.0
 10
7.8028108872
 20
3.9928294375
 30
0.0
 10
7.8027578955
 20
3.9927077018
 30
0.0
 10
7.802757589
 20
3.9925819707
 30
0.0
 10
7.8028100044
 20
3.9924599333
 30
0.0
 10
7.8028694648
 20
3.9923892922
 30
0.0
 10
7.8029045877
 20
3.9923541698
 30
0.0
  0
LINE
  5
30F
100
AcDbEntity
  8
0
100
AcDbLine
 62
7
  6
CONTINUOUS
 10
7.8093287554
 20
3.987989363
 11
7.8098314591
 21
3.9881484745
  0
SPLINE
  5
310
100
AcDbEntity
  8
0
100
AcDbSpline
 62
7
  6
CONTINUOUS
 70
0
 71
3
 72
49
 73
45
 74
0
 42
0.0000001
 43
0.0000001
 44
0.0000000001
 40
0.0
 40
0.0
 40
0.0
 40
0.0
 40
0.0032659372
 40
0.0076262833
 40
0.0130772326
 40
0.0196088812
 40
0.0272084348
 40
0.0358597386
 40
0.056240268
 40
0.0805713814
 40
0.1086371568
 40
0.1401875973
 40
0.1749409605
 40
0.2125866767
 40
0.2527883126
 40
0.3394008502
 40
0.4316859537
 40
0.5263474697
 40
0.6200044025
 40
0.6654062068
 40
0.7093118779
 40
0.7513284877
 40
0.7910803462
 40
0.8282117763
 40
0.8623907653
 40
0.8933120783
 40
0.920699688
 40
0.9329909455
 40
0.9443097101
 40
0.9546314496
 40
0.9639329136
 40
0.9721942619
 40
0.9793973683
 40
0.9855274927
 40
0.9905727326
 40
0.9926858635
 40
0.9945253811
 40
0.9960913102
 40
0.9973843792
 40
0.9984070572
 40
0.9991655651
 40
0.9994505897
 40
0.9996780666
 40
1.0
 40
1.0
 40
1.0
 40
1.0
 10
7.8098314591
 20
3.9881484745
 30
0.0
 10
7.8100289233
 20
3.9881915316
 30
0.0
 10
7.8104945321
 20
3.9882707648
 30
0.0
 10
7.8112970211
 20
3.9883753487
 30
0.0
 10
7.8123029629
 20
3.9884807186
 30
0.0
 10
7.8135101255
 20
3.9885868075
 30
0.0
 10
7.814915967
 20
3.9886932513
 30
0.0
 10
7.8171778162
 20
3.9888438684
 30
0.0
 10
7.8204750083
 20
3.9890276407
 30
0.0
 10
7.824973697
 20
3.9892393576
 30
0.0
 10
7.8301642382
 20
3.9894517933
 30
0.0
 10
7.8360001784
 20
3.9896648157
 30
0.0
 10
7.8424292913
 20
3.9898781894
 30
0.0
 10
7.8493940209
 20
3.990091834
 30
0.0
 10
7.8595669939
 20
3.990384226
 30
0.0
 10
7.8731206283
 20
3.9907436019
 30
0.0
 10
7.8900438523
 20
3.9911659303
 30
0.0
 10
7.9074031227
 20
3.991588601
 30
0.0
 10
7.921861916
 20
3.9919442567
 30
0.0
 10
7.9331805151
 20
3.9922327046
 30
0.0
 10
7.9413043443
 20
3.9924467376
 30
0.0
 10
7.9490784185
 20
3.992660666
 30
0.0
 10
7.9564331244
 20
3.992874454
 30
0.0
 10
7.9633026082
 20
3.9930880503
 30
0.0
 10
7.969625364
 20
3.9933013627
 30
0.0
 10
7.975344786
 20
3.9935143142
 30
0.0
 10
7.9797098885
 20
3.9936972462
 30
0.0
 10
7.9828622663
 20
3.9938454897
 30
0.0
 10
7.9849593201
 20
3.9939525514
 30
0.0
 10
7.9868711029
 20
3.9940594959
 30
0.0
 10
7.98859337
 20
3.9941663073
 30
0.0
 10
7.9901222489
 20
3.9942729204
 30
0.0
 10
7.991454372
 20
3.9943792224
 30
0.0
 10
7.9925867668
 20
3.9944851475
 30
0.0
 10
7.9934040069
 20
3.9945773475
 30
0.0
 10
7.9939556781
 20
3.9946530201
 30
0.0
 10
7.9942930443
 20
3.9947062245
 30
0.0
 10
7.9945789605
 20
3.994759262
 30
0.0
 10
7.9948134384
 20
3.9948118765
 30
0.0
 10
7.9949964243
 20
3.9948643258
 30
0.0
 10
7.9951161151
 20
3.9949102307
 30
0.0
 10
7.9951846852
 20
3.9949497589
 30
0.0
 10
7.9952251209
 20
3.994980934
 30
0.0
 10
7.9952455365
 20
3.9950132997
 30
0.0
 10
7.9952455357
 20
3.9950332217
 30
0.0
  0
SPLINE
  5
311
100
AcDbEntity
  8
0
100
AcDbSpline
 62
7
  6
CONTINUOUS
 70
0
 71
3
 72
51
 73
47
 74
0
 42
0.0000001
 43
0.0000001
 44
0.0000000001
 40
0.0
 40
0.0
 40
0.0
 40
0.0
 40
0.0007509445
 40
0.0017692169
 40
0.0030612537
 40
0.0046296345
 40
0.008598627
 40
0.0136759206
 40
0.0198532066
 40
0.027118979
 40
0.0354573589
 40
0.0448507632
 40
0.0552779115
 40
0.0667159377
 40
0.0925188521
 40
0.1220267986
 40
0.1549726435
 40
0.1910578047
 40
0.2299545922
 40
0.2713095354
 40
0.3147468961
 40
0.3598715256
 40
0.4062728871
 40
0.5012092556
 40
0.596106723
 40
0.6424595938
 40
0.6875160817
 40
0.7308658766
 40
0.7721138196
 40
0.8108840062
 40
0.8468233023
 40
0.8796042305
 40
0.9089283102
 40
0.934529002
 40
0.9458591449
 40
0.9561741872
 40
0.9654509423
 40
0.9736689551
 40
0.9808099534
 40
0.9868593094
 40
0.9918047333
 40
0.9956394151
 40
0.9971397559
 40
0.9983634629
 40
0.9993140713
 40
1.0
 40
1.0
 40
1.0
 40
1.0
 10
3.1558558388
 20
4.8920944929
 30
0.0
 10
3.1558340563
 20
4.8921350325
 30
0.0
 10
3.1557937829
 20
4.8922362535
 30
0.0
 10
3.155741177
 20
4.8924163563
 30
0.0
 10
3.1556881067
 20
4.8926482021
 30
0.0
 10
3.1556107074
 20
4.8930595643
 30
0.0
 10
3.1555178776
 20
4.8937036666
 30
0.0
 10
3.1554118436
 20
4.8946306245
 30
0.0
 10
3.1553052269
 20
4.8957606783
 30
0.0
 10
3.1551980886
 20
4.8970912541
 30
0.0
 10
3.1550906585
 20
4.8986194603
 30
0.0
 10
3.1549830278
 20
4.9003418116
 30
0.0
 10
3.1548752353
 20
4.902254444
 30
0.0
 10
3.1547252831
 20
4.905171904
 30
0.0
 10
3.1545406444
 20
4.9092584248
 30
0.0
 10
3.1543262594
 20
4.9146629345
 30
0.0
 10
3.1541114201
 20
4.9206980082
 30
0.0
 10
3.1538962192
 20
4.9273087847
 30
0.0
 10
3.1536807743
 20
4.9344351498
 30
0.0
 10
3.1534651452
 20
4.9420122752
 30
0.0
 10
3.1532493815
 20
4.9499712113
 30
0.0
 10
3.1530335135
 20
4.958239519
 30
0.0
 10
3.1527433958
 20
4.9696630373
 30
0.0
 10
3.1523856292
 20
4.9841361072
 30
0.0
 10
3.1520277454
 20
4.9986062017
 30
0.0
 10
3.1517374638
 20
5.010020181
 30
0.0
 10
3.1515214903
 20
5.0182759676
 30
0.0
 10
3.1513055918
 20
5.0262187944
 30
0.0
 10
3.1510897991
 20
5.0337762247
 30
0.0
 10
3.150874163
 20
5.0408793182
 30
0.0
 10
3.1506587448
 20
5.0474632689
 30
0.0
 10
3.1504436663
 20
5.053468001
 30
0.0
 10
3.1502290216
 20
5.0588387061
 30
0.0
 10
3.150044075
 20
5.0628949105
 30
0.0
 10
3.1498938036
 20
5.0657864449
 30
0.0
 10
3.1497858459
 20
5.0676784047
 30
0.0
 10
3.1496780369
 20
5.0693793072
 30
0.0
 10
3.1495704502
 20
5.0708852764
 30
0.0
 10
3.1494631354
 20
5.0721928991
 30
0.0
 10
3.1493564069
 20
5.0732992753
 30
0.0
 10
3.1492502477
 20
5.0742018993
 30
0.0
 10
3.1491572795
 20
5.0748253192
 30
0.0
 10
3.149079523
 20
5.0752197158
 30
0.0
 10
3.149026437
 20
5.0754387556
 30
0.0
 10
3.1489738757
 20
5.0756059641
 30
0.0
 10
3.1489332965
 20
5.0756984433
 30
0.0
 10
3.1489111491
 20
5.0757341725
 30
0.0
  0
SPLINE
  5
312
100
AcDbEntity
  8
0
100
AcDbSpline
 62
7
  6
CONTINUOUS
 70
0
 71
3
 72
30
 73
26
 74
0
 42
0.0000001
 43
0.0000001
 44
0.0000000001
 40
0.0
 40
0.0
 40
0.0
 40
0.0
 40
0.0013723593
 40
0.0032836147
 40
0.0057465006
 40
0.0087659963
 40
0.0123440943
 40
0.0164809035
 40
0.0264244239
 40
0.0385808159
 40
0.0529255979
 40
0.069428054
 40
0.0880520668
 40
0.1087556259
 40
0.1314926643
 40
0.1828557782
 40
0.2416754825
 40
0.3074163298
 40
0.3794792745
 40
0.4572068701
 40
0.5398894498
 40
0.6267719485
 40
0.7170608441
 40
0.8099297219
 40
1.0
 40
1.0
 40
1.0
 40
1.0
 10
3.1617636961
 20
4.8810956625
 30
0.0
 10
3.1617413967
 20
4.8811371764
 30
0.0
 10
3.1617009014
 20
4.8812430804
 30
0.0
 10
3.1616483731
 20
4.8814332584
 30
0.0
 10
3.1615953378
 20
4.881681709
 30
0.0
 10
3.1615418794
 20
4.8819882204
 30
0.0
 10
3.1614881969
 20
4.882352929
 30
0.0
 10
3.1614116466
 20
4.8829544554
 30
0.0
 10
3.1613185113
 20
4.8838506466
 30
0.0
 10
3.1612116138
 20
4.8850975407
 30
0.0
 10
3.1611043056
 20
4.8865703259
 30
0.0
 10
3.16099665
 20
4.8882656686
 30
0.0
 10
3.1608887929
 20
4.8901797333
 30
0.0
 10
3.1607807677
 20
4.8923081733
 30
0.0
 10
3.1606304132
 20
4.8955600721
 30
0.0
 10
3.1604453312
 20
4.9001205453
 30
0.0
 10
3.1602304923
 20
4.9061575951
 30
0.0
 10
3.1600151905
 20
4.9129058193
 30
0.0
 10
3.1597995206
 20
4.9203035868
 30
0.0
 10
3.1595836035
 20
4.9282833187
 30
0.0
 10
3.1593675009
 20
4.9367720922
 30
0.0
 10
3.1591512624
 20
4.9456923234
 30
0.0
 10
3.1589349214
 20
4.9549624269
 30
0.0
 10
3.158644131
 20
4.9677750106
 30
0.0
 10
3.1584296618
 20
4.9774881914
 30
0.0
 10
3.1582855357
 20
4.9840132217
 30
0.0
  0
SPLINE
  5
313
100
AcDbEntity
  8
0
100
AcDbSpline
 62
7
  6
CONTINUOUS
 70
0
 71
3
 72
51
 73
47
 74
0
 42
0.0000001
 43
0.0000001
 44
0.0000000001
 40
0.0
 40
0.0
 40
0.0
 40
0.0
 40
0.0007482013
 40
0.0017637637
 40
0.0030531256
 40
0.0046189692
 40
0.0085834813
 40
0.0136564362
 40
0.0198300468
 40
0.0270923162
 40
0.0354277259
 40
0.0448184779
 40
0.0552433395
 40
0.0666795468
 40
0.0924798217
 40
0.121986513
 40
0.1549324495
 40
0.191018928
 40
0.2299181691
 40
0.2712766023
 40
0.3147183648
 40
0.3598481243
 40
0.4062551719
 40
0.5012039044
 40
0.596113904
 40
0.642472649
 40
0.6875345642
 40
0.7308891674
 40
0.7721411212
 40
0.8109143642
 40
0.8468556649
 40
0.8796373962
 40
0.9089610206
 40
0.9345599079
 40
0.9458887509
 40
0.9562018933
 40
0.9654766784
 40
0.9736920476
 40
0.9808303539
 40
0.9868763186
 40
0.9918182258
 40
0.9956488106
 40
0.997146937
 40
0.9983684461
 40
0.9993167093
 40
1.0
 40
1.0
 40
1.0
 40
1.0
 10
3.1701363315
 20
4.8916502372
 30
0.0
 10
3.1701145257
 20
4.8916908248
 30
0.0
 10
3.1700742465
 20
4.8917922504
 30
0.0
 10
3.1700216378
 20
4.8919727723
 30
0.0
 10
3.1699685644
 20
4.8922052954
 30
0.0
 10
3.1698911432
 20
4.8926181018
 30
0.0
 10
3.1697983129
 20
4.8932646708
 30
0.0
 10
3.1696922582
 20
4.894195385
 30
0.0
 10
3.1695856385
 20
4.8953302303
 30
0.0
 10
3.1694784814
 20
4.8966666429
 30
0.0
 10
3.1693710408
 20
4.8982016994
 30
0.0
 10
3.169263395
 20
4.8999319095
 30
0.0
 10
3.1691555876
 20
4.9018533876
 30
0.0
 10
3.1690056131
 20
4.904784553
 30
0.0
 10
3.1688209472
 20
4.9088904899
 30
0.0
 10
3.1686065343
 20
4.9143208978
 30
0.0
 10
3.1683916664
 20
4.9203851538
 30
0.0
 10
3.1681764366
 20
4.9270281177
 30
0.0
 10
3.1679609626
 20
4.9341893665
 30
0.0
 10
3.1677453046
 20
4.94180374
 30
0.0
 10
3.1675295118
 20
4.9498019312
 30
0.0
 10
3.1673136148
 20
4.9581111219
 30
0.0
 10
3.1670234573
 20
4.969591255
 30
0.0
 10
3.1666656432
 20
4.9841361258
 30
0.0
 10
3.1663077123
 20
4.9986780184
 30
0.0
 10
3.1660173917
 20
5.0101486068
 30
0.0
 10
3.1658013896
 20
5.018445271
 30
0.0
 10
3.1655854626
 20
5.0264273506
 30
0.0
 10
3.1653696417
 20
5.0340220284
 30
0.0
 10
3.1651539775
 20
5.041160005
 30
0.0
 10
3.1649385315
 20
5.0477761371
 30
0.0
 10
3.1647234254
 20
5.0538100408
 30
0.0
 10
3.1645087546
 20
5.059206626
 30
0.0
 10
3.1643237801
 20
5.0632822332
 30
0.0
 10
3.1641734908
 20
5.0661874559
 30
0.0
 10
3.1640655147
 20
5.0680882596
 30
0.0
 10
3.1639576986
 20
5.0697970045
 30
0.0
 10
3.1638500917
 20
5.0713098289
 30
0.0
 10
3.163742773
 20
5.0726232674
 30
0.0
 10
3.1636360258
 20
5.0737344387
 30
0.0
 10
3.1635298627
 20
5.0746407972
 30
0.0
 10
3.1634368851
 20
5.0752666796
 30
0.0
 10
3.1633591071
 20
5.0756625149
 30
0.0
 10
3.163306024
 20
5.0758822475
 30
0.0
 10
3.1632534703
 20
5.0760498784
 30
0.0
 10
3.1632128801
 20
5.0761425549
 30
0.0
 10
3.1631907045
 20
5.0761783142
 30
0.0
  0
SPLINE
  5
314
100
AcDbEntity
  8
0
100
AcDbSpline
 62
7
  6
CONTINUOUS
 70
0
 71
3
 72
30
 73
26
 74
0
 42
0.0000001
 43
0.0000001
 44
0.0000000001
 40
0.0
 40
0.0
 40
0.0
 40
0.0
 40
0.001367796
 40
0.0032747093
 40
0.0057334661
 40
0.0087490287
 40
0.0123233767
 40
0.0164566153
 40
0.026393512
 40
0.0385439392
 40
0.0528834103
 40
0.0693811914
 40
0.0880011659
 40
0.1087013089
 40
0.1314355511
 40
0.1827948826
 40
0.2416131382
 40
0.3073547455
 40
0.3794205034
 40
0.4571527818
 40
0.5398417027
 40
0.6267319669
 40
0.7170297967
 40
0.8099085082
 40
1.0
 40
1.0
 40
1.0
 40
1.0
 10
3.1760440897
 20
4.880651513
 30
0.0
 10
3.1760217687
 20
4.8806930672
 30
0.0
 10
3.1759812647
 20
4.8807991644
 30
0.0
 10
3.1759287382
 20
4.8809897563
 30
0.0
 10
3.1758757027
 20
4.8812388891
 30
0.0
 10
3.1758222408
 20
4.8815463466
 30
0.0
 10
3.1757685539
 20
4.8819122676
 30
0.0
 10
3.1756919909
 20
4.8825159411
 30
0.0
 10
3.175598845
 20
4.8834154733
 30
0.0
 10
3.1754919376
 20
4.8846671584
 30
0.0
 10
3.1753846189
 20
4.8861457704
 30
0.0
 10
3.175276952
 20
4.8878479616
 30
0.0
 10
3.1751690833
 20
4.8897698796
 30
0.0
 10
3.1750610463
 20
4.891907159
 30
0.0
 10
3.1749106726
 20
4.8951727527
 30
0.0
 10
3.1747255687
 20
4.8997526291
 30
0.0
 10
3.1745107067
 20
4.9058155675
 30
0.0
 10
3.1742953813
 20
4.9125929688
 30
0.0
 10
3.1740796877
 20
4.9200229211
 30
0.0
 10
3.1738637468
 20
4.928037536
 30
0.0
 10
3.1736476203
 20
4.9365635551
 30
0.0
 10
3.1734313579
 20
4.9455230365
 30
0.0
 10
3.173214993
 20
4.9548340172
 30
0.0
 10
3.1729241699
 20
4.9677032114
 30
0.0
 10
3.1727096776
 20
4.9774593328
 30
0.0
 10
3.1725655357
 20
4.9840132217
 30
0.0
  0
SPLINE
  5
315
100
AcDbEntity
  8
0
100
AcDbSpline
 62
7
  6
CONTINUOUS
 70
0
 71
3
 72
52
 73
48
 74
0
 42
0.0000001
 43
0.0000001
 44
0.0000000001
 40
0.0
 40
0.0
 40
0.0
 40
0.0
 40
0.0007454213
 40
0.0017582567
 40
0.0030449994
 40
0.0046083861
 40
0.008568377
 40
0.0136370943
 40
0.0198070212
 40
0.0270658331
 40
0.0353983249
 40
0.0447864002
 40
0.0552090716
 40
0.0666433805
 40
0.0924410299
 40
0.121946482
 40
0.1548925164
 40
0.1909803189
 40
0.2298819957
 40
0.2712438776
 40
0.3146899673
 40
0.3598247793
 40
0.4062374431
 40
0.5011984152
 40
0.5961208216
 40
0.6424853763
 40
0.6875526513
 40
0.7309119832
 40
0.7721678913
 40
0.8109441788
 40
0.8468874826
 40
0.8796700404
 40
0.9089932371
 40
0.9345903685
 40
0.9459177959
 40
0.956229203
 40
0.9655019309
 40
0.9737147908
 40
0.9808503583
 40
0.9868930226
 40
0.9918314564
 40
0.9938840851
 40
0.9956581827
 40
0.9971541893
 40
0.9983734831
 40
0.999319338
 40
1.0
 40
1.0
 40
1.0
 40
1.0
 10
3.1844168195
 20
4.8912059974
 30
0.0
 10
3.1843949932
 20
4.89124663
 30
0.0
 10
3.1843547024
 20
4.8913482504
 30
0.0
 10
3.184302093
 20
4.8915291877
 30
0.0
 10
3.1842490173
 20
4.8917623907
 30
0.0
 10
3.1841715783
 20
4.8921766421
 30
0.0
 10
3.1840787406
 20
4.8928256787
 30
0.0
 10
3.1839726712
 20
4.8937601456
 30
0.0
 10
3.183866045
 20
4.8948997837
 30
0.0
 10
3.1837588707
 20
4.8962420326
 30
0.0
 10
3.1836514201
 20
4.8977839386
 30
0.0
 10
3.1835437577
 20
4.8995220105
 30
0.0
 10
3.1834359379
 20
4.9014523299
 30
0.0
 10
3.1832859389
 20
4.9043971985
 30
0.0
 10
3.1831012476
 20
4.9085225452
 30
0.0
 10
3.1828868066
 20
4.9139788515
 30
0.0
 10
3.1826719106
 20
4.9200722919
 30
0.0
 10
3.1824566522
 20
4.9267474455
 30
0.0
 10
3.1822411496
 20
4.9339435793
 30
0.0
 10
3.1820254628
 20
4.9415951993
 30
0.0
 10
3.1818096412
 20
4.9496326417
 30
0.0
 10
3.1815937154
 20
4.9579827111
 30
0.0
 10
3.1813035186
 20
4.9695194564
 30
0.0
 10
3.1809456575
 20
4.9841361271
 30
0.0
 10
3.1805876801
 20
4.9987498174
 30
0.0
 10
3.1802973208
 20
5.0102770136
 30
0.0
 10
3.1800812904
 20
5.0186145522
 30
0.0
 10
3.1798653352
 20
5.0266358809
 30
0.0
 10
3.1796494863
 20
5.0342678045
 30
0.0
 10
3.1794337944
 20
5.0414406655
 30
0.0
 10
3.1792183209
 20
5.0480889835
 30
0.0
 10
3.1790031875
 20
5.0541520635
 30
0.0
 10
3.1787884903
 20
5.0595745341
 30
0.0
 10
3.1786034907
 20
5.0636695397
 30
0.0
 10
3.1784531799
 20
5.0665884538
 30
0.0
 10
3.1783451886
 20
5.0684980958
 30
0.0
 10
3.1782373655
 20
5.0702146939
 30
0.0
 10
3.1781297285
 20
5.0717343635
 30
0.0
 10
3.178022446
 20
5.073053641
 30
0.0
 10
3.1779155553
 20
5.0741695561
 30
0.0
 10
3.1778224158
 20
5.0749707512
 30
0.0
 10
3.1777458375
 20
5.0755076982
 30
0.0
 10
3.1776921463
 20
5.0758326883
 30
0.0
 10
3.1776386862
 20
5.0761053063
 30
0.0
 10
3.1775856183
 20
5.076325731
 30
0.0
 10
3.1775330689
 20
5.0764937756
 30
0.0
 10
3.1774924623
 20
5.0765866384
 30
0.0
 10
3.1774702642
 20
5.0766224302
 30
0.0
  0
SPLINE
  5
316
100
AcDbEntity
  8
0
100
AcDbSpline
 62
7
  6
CONTINUOUS
 70
0
 71
3
 72
30
 73
26
 74
0
 42
0.0000001
 43
0.0000001
 44
0.0000000001
 40
0.0
 40
0.0
 40
0.0
 40
0.0
 40
0.0013632708
 40
0.0032658783
 40
0.0057205411
 40
0.0087322039
 40
0.0123028336
 40
0.016432532
 40
0.0263628608
 40
0.0385073736
 40
0.0528415785
 40
0.0693347238
 40
0.0879506939
 40
0.1086474492
 40
0.1313789187
 40
0.1827344991
 40
0.2415513177
 40
0.3072936783
 40
0.3793622253
 40
0.4570991471
 40
0.5397943558
 40
0.6266923202
 40
0.7169990093
 40
0.8098874721
 40
1.0
 40
1.0
 40
1.0
 40
1.0
 10
3.19032448
 20
4.8802073666
 30
0.0
 10
3.1903021375
 20
4.8802489611
 30
0.0
 10
3.1902616248
 20
4.8803552514
 30
0.0
 10
3.1902091002
 20
4.8805462572
 30
0.0
 10
3.1901560645
 20
4.880796072
 30
0.0
 10
3.1901025991
 20
4.8811044755
 30
0.0
 10
3.1900489079
 20
4.8814716088
 30
0.0
 10
3.1899723323
 20
4.8820774293
 30
0.0
 10
3.1898791758
 20
4.8829803023
 30
0.0
 10
3.1897722586
 20
4.8842367783
 30
0.0
 10
3.1896649295
 20
4.8857212168
 30
0.0
 10
3.1895572514
 20
4.8874302562
 30
0.0
 10
3.1894493712
 20
4.8893600273
 30
0.0
 10
3.1893413225
 20
4.8915061461
 30
0.0
 10
3.1891909297
 20
4.8947854344
 30
0.0
 10
3.1890058042
 20
4.8993847138
 30
0.0
 10
3.1887909192
 20
4.9054735406
 30
0.0
 10
3.1885755706
 20
4.9122801188
 30
0.0
 10
3.1883598535
 20
4.9197422558
 30
0.0
 10
3.1881438889
 20
4.9277917535
 30
0.0
 10
3.1879277387
 20
4.9363550181
 30
0.0
 10
3.1877114526
 20
4.9453537495
 30
0.0
 10
3.187495064
 20
4.9547056074
 30
0.0
 10
3.1872042085
 20
4.9676314122
 30
0.0
 10
3.1869896932
 20
4.9774304742
 30
0.0
 10
3.1868455357
 20
4.9840132217
 30
0.0
  0
SPLINE
  5
317
100
AcDbEntity
  8
0
100
AcDbSpline
 62
7
  6
CONTINUOUS
 70
0
 71
3
 72
52
 73
48
 74
0
 42
0.0000001
 43
0.0000001
 44
0.0000000001
 40
0.0
 40
0.0
 40
0.0
 40
0.0
 40
0.0007426265
 40
0.0017527807
 40
0.003036966
 40
0.0045979238
 40
0.0085533842
 40
0.0136179636
 40
0.0197841753
 40
0.0270396257
 40
0.0353691704
 40
0.0447546391
 40
0.0551751111
 40
0.0666075609
 40
0.0924026001
 40
0.121906825
 40
0.1548529571
 40
0.190942084
 40
0.2298461951
 40
0.2712115181
 40
0.3146619093
 40
0.3598017289
 40
0.406219969
 40
0.5011930791
 40
0.5961278037
 40
0.6424981344
 40
0.68757073
 40
0.7309347539
 40
0.7721945728
 40
0.8109738742
 40
0.8469191602
 40
0.8797025437
 40
0.9090253341
 40
0.9346207465
 40
0.9459467697
 40
0.9562564821
 40
0.9655271276
 40
0.9737375626
 40
0.9808703534
 40
0.9869098266
 40
0.991844751
 40
0.9938954183
 40
0.9956674811
 40
0.9971613761
 40
0.9983784352
 40
0.9993218845
 40
1.0
 40
1.0
 40
1.0
 40
1.0
 10
3.1986973029
 20
4.8907617636
 30
0.0
 10
3.1986754551
 20
4.8908024378
 30
0.0
 10
3.1986351521
 20
4.8909042515
 30
0.0
 10
3.1985825439
 20
4.8910856055
 30
0.0
 10
3.1985294666
 20
4.8913194924
 30
0.0
 10
3.1984520098
 20
4.8917351879
 30
0.0
 10
3.1983591623
 20
4.892386692
 30
0.0
 10
3.1982530823
 20
4.8933249081
 30
0.0
 10
3.1981464459
 20
4.8944693415
 30
0.0
 10
3.1980392579
 20
4.8958174229
 30
0.0
 10
3.1979317947
 20
4.8973661808
 30
0.0
 10
3.1978241178
 20
4.8991121113
 30
0.0
 10
3.1977162845
 20
4.9010512737
 30
0.0
 10
3.197566262
 20
4.9040098436
 30
0.0
 10
3.197381545
 20
4.9081545997
 30
0.0
 10
3.1971670763
 20
4.9136368022
 30
0.0
 10
3.1969521524
 20
4.9197594264
 30
0.0
 10
3.1967368658
 20
4.9264667701
 30
0.0
 10
3.1965213348
 20
4.9336977908
 30
0.0
 10
3.1963056195
 20
4.9413866591
 30
0.0
 10
3.1960897694
 20
4.9494633533
 30
0.0
 10
3.1958738151
 20
4.9578543013
 30
0.0
 10
3.1955835793
 20
4.969447658
 30
0.0
 10
3.1952256716
 20
4.9841361285
 30
0.0
 10
3.1948676482
 20
4.9988216167
 30
0.0
 10
3.1945772505
 20
5.0104054218
 30
0.0
 10
3.1943611921
 20
5.0187838353
 30
0.0
 10
3.194145209
 20
5.0268444118
 30
0.0
 10
3.1939293324
 20
5.0345135792
 30
0.0
 10
3.1937136129
 20
5.0417213222
 30
0.0
 10
3.1934981122
 20
5.0484018245
 30
0.0
 10
3.1932829521
 20
5.0544940806
 30
0.0
 10
3.1930682283
 20
5.0599424379
 30
0.0
 10
3.1928832046
 20
5.0640568431
 30
0.0
 10
3.1927328714
 20
5.0669894501
 30
0.0
 10
3.1926248675
 20
5.068907929
 30
0.0
 10
3.1925170311
 20
5.0706323802
 30
0.0
 10
3.1924093811
 20
5.0721588977
 30
0.0
 10
3.1923020879
 20
5.0734840005
 30
0.0
 10
3.1921951841
 20
5.0746047067
 30
0.0
 10
3.1921020357
 20
5.0754092407
 30
0.0
 10
3.1920254414
 20
5.0759483334
 30
0.0
 10
3.1919717452
 20
5.0762745341
 30
0.0
 10
3.1919182818
 20
5.0765481002
 30
0.0
 10
3.1918652147
 20
5.0767692087
 30
0.0
 10
3.1918126682
 20
5.0769376658
 30
0.0
 10
3.1917720487
 20
5.0770307187
 30
0.0
 10
3.191749828
 20
5.0770665472
 30
0.0
  0
SPLINE
  5
318
100
AcDbEntity
  8
0
100
AcDbSpline
 62
7
  6
CONTINUOUS
 70
0
 71
3
 72
30
 73
26
 74
0
 42
0.0000001
 43
0.0000001
 44
0.0000000001
 40
0.0
 40
0.0
 40
0.0
 40
0.0
 40
0.0013587056
 40
0.0032567111
 40
0.0057073636
 40
0.0087154734
 40
0.0122824398
 40
0.0164082871
 40
0.0263323667
 40
0.038470837
 40
0.0527999521
 40
0.0692884081
 40
0.0879004113
 40
0.1085938802
 40
0.1313225365
 40
0.1826743524
 40
0.2414897245
 40
0.3072328925
 40
0.3793041843
 40
0.4570457714
 40
0.5397472546
 40
0.6266529109
 40
0.716968308
 40
0.8098668053
 40
1.0
 40
1.0
 40
1.0
 40
1.0
 10
3.2046048669
 20
4.879763244
 30
0.0
 10
3.2045825077
 20
4.8798048781
 30
0.0
 10
3.204541983
 20
4.8799113437
 30
0.0
 10
3.2044894529
 20
4.880102749
 30
0.0
 10
3.2044364218
 20
4.8803532478
 30
0.0
 10
3.2043829577
 20
4.8806626116
 30
0.0
 10
3.2043292616
 20
4.8810309568
 30
0.0
 10
3.2042526641
 20
4.8816389209
 30
0.0
 10
3.2041595091
 20
4.8825451268
 30
0.0
 10
3.2040525738
 20
4.8838064001
 30
0.0
 10
3.2039452392
 20
4.8852966602
 30
0.0
 10
3.2038375476
 20
4.8870125487
 30
0.0
 10
3.2037296569
 20
4.888950172
 30
0.0
 10
3.2036215968
 20
4.89110513
 30
0.0
 10
3.2034711842
 20
4.894398111
 30
0.0
 10
3.2032860378
 20
4.8990167877
 30
0.0
 10
3.2030711299
 20
4.9051315014
 30
0.0
 10
3.2028557584
 20
4.9119672557
 30
0.0
 10
3.2026400178
 20
4.9194615794
 30
0.0
 10
3.2024240299
 20
4.9275459611
 30
0.0
 10
3.2022078562
 20
4.9361464749
 30
0.0
 10
3.2019915466
 20
4.9451844553
 30
0.0
 10
3.2017751342
 20
4.9545772006
 30
0.0
 10
3.2014842466
 20
4.9675596168
 30
0.0
 10
3.2012697085
 20
4.9774016236
 30
0.0
 10
3.2011255357
 20
4.9840132217
 30
0.0
  0
LINE
  5
319
100
AcDbEntity
  8
0
100
AcDbLine
 62
7
  6
CONTINUOUS
 10
7.8080756704
 20
3.9872652363
 11
7.8083960523
 21
3.9873518901
  0
LINE
  5
31A
100
AcDbEntity
  8
0
100
AcDbLine
 62
7
  6
CONTINUOUS
 10
7.8083960523
 20
3.9873518901
 11
7.8097166983
 21
3.9874988427
  0
SPLINE
  5
31B
100
AcDbEntity
  8
0
100
AcDbSpline
 62
7
  6
CONTINUOUS
 70
0
 71
3
 72
45
 73
41
 74
0
 42
0.0000001
 43
0.0000001
 44
0.0000000001
 40
0.0
 40
0.0
 40
0.0
 40
0.0
 40
0.0048916848
 40
0.0108378805
 40
0.0258398791
 40
0.0448718471
 40
0.0677631608
 40
0.0943097904
 40
0.1242763593
 40
0.1933867459
 40
0.2726830592
 40
0.3594248589
 40
0.4506404306
 40
0.5432308005
 40
0.6340762375
 40
0.6778897823
 40
0.7201407011
 40
0.7604789051
 40
0.7985718756
 40
0.8341068216
 40
0.8667934775
 40
0.8963664331
 40
0.9225868508
 40
0.9343731258
 40
0.9452445929
 40
0.9551801559
 40
0.964159773
 40
0.972166407
 40
0.9791842265
 40
0.9852002617
 40
0.9902033981
 40
0.9923223461
 40
0.9941852439
 40
0.9957915128
 40
0.9971407599
 40
0.9982331971
 40
0.9990700666
 40
0.9996546857
 40
0.9998555669
 40
1.0
 40
1.0
 40
1.0
 40
1.0
 10
7.8097166983
 20
3.9874988427
 30
0.0
 10
7.8100276368
 20
3.9875241269
 30
0.0
 10
7.8107171304
 20
3.9875728921
 30
0.0
 10
7.812362263
 20
3.98766914
 30
0.0
 10
7.8149094668
 20
3.9877842994
 30
0.0
 10
7.818537476
 20
3.9879159141
 30
0.0
 10
7.8229021349
 20
3.9880480597
 30
0.0
 10
7.8279643893
 20
3.9881807128
 30
0.0
 10
7.8359738226
 20
3.9883667241
 30
0.0
 10
7.8473472757
 20
3.9885925433
 30
0.0
 10
7.8623414924
 20
3.9888535382
 30
0.0
 10
7.8787456478
 20
3.9891146771
 30
0.0
 10
7.8959977262
 20
3.9893756498
 30
0.0
 10
7.9135115492
 20
3.9896360813
 30
0.0
 10
7.928002615
 20
3.989854956
 30
0.0
 10
7.9392835699
 20
3.9900320031
 30
0.0
 10
7.9473437757
 20
3.9901629698
 30
0.0
 10
7.9550391086
 20
3.9902936982
 30
0.0
 10
7.9623060733
 20
3.9904241687
 30
0.0
 10
7.9690849862
 20
3.990554353
 30
0.0
 10
7.9753204389
 20
3.9906841998
 30
0.0
 10
7.9809617294
 20
3.9908136668
 30
0.0
 10
7.9852701679
 20
3.9909247064
 30
0.0
 10
7.9883860564
 20
3.9910145467
 30
0.0
 10
7.9904636683
 20
3.9910794261
 30
0.0
 10
7.992362196
 20
3.991144197
 30
0.0
 10
7.9940779085
 20
3.9912088525
 30
0.0
 10
7.9956074031
 20
3.9912733556
 30
0.0
 10
7.9969477197
 20
3.9913376523
 30
0.0
 10
7.9980962479
 20
3.9914017001
 30
0.0
 10
7.998932307
 20
3.9914573222
 30
0.0
 10
7.9995035206
 20
3.9915028178
 30
0.0
 10
7.9998584543
 20
3.9915349492
 30
0.0
 10
8.0001640975
 20
3.9915669541
 30
0.0
 10
8.0004202751
 20
3.9915988308
 30
0.0
 10
8.000627081
 20
3.9916303466
 30
0.0
 10
8.0007842459
 20
3.9916616156
 30
0.0
 10
8.0008844921
 20
3.9916889998
 30
0.0
 10
8.0009387848
 20
3.9917129009
 30
0.0
 10
8.0009574732
 20
3.9917251592
 30
0.0
 10
8.0009639865
 20
3.9917316725
 30
0.0
  0
LINE
  5
31C
100
AcDbEntity
  8
0
100
AcDbLine
 62
7
  6
CONTINUOUS
 10
7.9974233378
 20
4.0410132217
 11
7.9994519932
 21
4.0410558513
  0
SPLINE
  5
31D
100
AcDbEntity
  8
0
100
AcDbSpline
 62
7
  6
CONTINUOUS
 70
0
 71
3
 72
34
 73
30
 74
0
 42
0.0000001
 43
0.0000001
 44
0.0000000001
 40
0.0
 40
0.0
 40
0.0
 40
0.0
 40
0.0006264306
 40
0.0010957704
 40
0.0016941924
 40
0.0024297267
 40
0.0033065173
 40
0.0054919065
 40
0.0082604779
 40
0.0116159049
 40
0.0155594162
 40
0.0200901925
 40
0.0309056986
 40
0.0440433362
 40
0.0594737699
 40
0.0771626334
 40
0.0970678984
 40
0.1191431717
 40
0.1433354848
 40
0.1695876129
 40
0.2280144527
 40
0.2938637752
 40
0.3665035042
 40
0.4452357283
 40
0.5293031122
 40
0.617897007
 40
0.7101648254
 40
0.8052174522
 40
1.0
 40
1.0
 40
1.0
 40
1.0
 10
3.1636707875
 20
4.8809523354
 30
0.0
 10
3.1636492487
 20
4.8809530047
 30
0.0
 10
3.1636154562
 20
4.8809798757
 30
0.0
 10
3.1635841391
 20
4.8810277365
 30
0.0
 10
3.1635563519
 20
4.8810837753
 30
0.0
 10
3.1635290275
 20
4.881154668
 30
0.0
 10
3.1634892553
 20
4.8812792285
 30
0.0
 10
3.1634414274
 20
4.8814741711
 30
0.0
 10
3.163386749
 20
4.8817547952
 30
0.0
 10
3.1633318346
 20
4.8820967854
 30
0.0
 10
3.1632766705
 20
4.8824999966
 30
0.0
 10
3.1631982473
 20
4.8831589418
 30
0.0
 10
3.1631026631
 20
4.8841342057
 30
0.0
 10
3.1629928636
 20
4.8854845775
 30
0.0
 10
3.1628826553
 20
4.8870720269
 30
0.0
 10
3.1627721248
 20
4.8888927377
 30
0.0
 10
3.1626613852
 20
4.8909423902
 30
0.0
 10
3.1625505007
 20
4.8932160446
 30
0.0
 10
3.1624394955
 20
4.8957082607
 30
0.0
 10
3.1622858453
 20
4.8994502897
 30
0.0
 10
3.1620962379
 20
4.9046250197
 30
0.0
 10
3.1618754273
 20
4.9113953454
 30
0.0
 10
3.1616542303
 20
4.9188644997
 30
0.0
 10
3.161432727
 20
4.9269605972
 30
0.0
 10
3.1612110134
 20
4.9356057039
 30
0.0
 10
3.1609891426
 20
4.9447165756
 30
0.0
 10
3.1607671553
 20
4.9542054441
 30
0.0
 10
3.1604686397
 20
4.967346412
 30
0.0
 10
3.1602486729
 20
4.9773143268
 30
0.0
 10
3.1601007875
 20
4.9840132217
 30
0.0
  0
SPLINE
  5
31E
100
AcDbEntity
  8
0
100
AcDbSpline
 62
7
  6
CONTINUOUS
 70
0
 71
3
 72
34
 73
30
 74
0
 42
0.0000001
 43
0.0000001
 44
0.0000000001
 40
0.0
 40
0.0
 40
0.0
 40
0.0
 40
0.0006244061
 40
0.0010930577
 40
0.0016909345
 40
0.0024260217
 40
0.0033024352
 40
0.0054872161
 40
0.0082553079
 40
0.0116103426
 40
0.0155535259
 40
0.0200840241
 40
0.0308990899
 40
0.0440364038
 40
0.059466605
 40
0.0771553114
 40
0.0970604842
 40
0.1191357227
 40
0.1433280524
 40
0.1695802443
 40
0.2280073387
 40
0.2938570657
 40
0.3664973296
 40
0.4452302027
 40
0.5292983347
 40
0.6178930631
 40
0.7101617877
 40
0.8052153815
 40
1.0
 40
1.0
 40
1.0
 40
1.0
 10
3.1779507875
 20
4.880508558
 30
0.0
 10
3.177929226
 20
4.880509228
 30
0.0
 10
3.1778954211
 20
4.8805362572
 30
0.0
 10
3.1778641345
 20
4.8805842824
 30
0.0
 10
3.1778363468
 20
4.8806405595
 30
0.0
 10
3.1778090252
 20
4.8807117501
 30
0.0
 10
3.1777692513
 20
4.8808368479
 30
0.0
 10
3.1777214246
 20
4.8810326245
 30
0.0
 10
3.1776667468
 20
4.8813144474
 30
0.0
 10
3.177611833
 20
4.8816579019
 30
0.0
 10
3.1775566691
 20
4.8820628424
 30
0.0
 10
3.1774782454
 20
4.8827246213
 30
0.0
 10
3.1773826612
 20
4.8837040774
 30
0.0
 10
3.1772728619
 20
4.8850602528
 30
0.0
 10
3.1771626535
 20
4.8866545284
 30
0.0
 10
3.177052123
 20
4.8884830716
 30
0.0
 10
3.1769413834
 20
4.8905415435
 30
0.0
 10
3.1768304988
 20
4.8928249831
 30
0.0
 10
3.1767194935
 20
4.8953279266
 30
0.0
 10
3.1765658431
 20
4.899086067
 30
0.0
 10
3.1763762357
 20
4.9042830783
 30
0.0
 10
3.1761554251
 20
4.9110825561
 30
0.0
 10
3.1759342282
 20
4.9185838751
 30
0.0
 10
3.175712725
 20
4.9267148399
 30
0.0
 10
3.1754910116
 20
4.9353971808
 30
0.0
 10
3.175269141
 20
4.9445472949
 30
0.0
 10
3.175047154
 20
4.9540770361
 30
0.0
 10
3.1747486388
 20
4.9672746129
 30
0.0
 10
3.1745286725
 20
4.977285468
 30
0.0
 10
3.1743807875
 20
4.9840132217
 30
0.0
  0
SPLINE
  5
31F
100
AcDbEntity
  8
0
100
AcDbSpline
 62
7
  6
CONTINUOUS
 70
0
 71
3
 72
33
 73
29
 74
0
 42
0.0000001
 43
0.0000001
 44
0.0000000001
 40
0.0
 40
0.0
 40
0.0
 40
0.0
 40
0.0006225391
 40
0.0010906423
 40
0.0016880404
 40
0.0032976916
 40
0.0054816403
 40
0.0082494993
 40
0.011604397
 40
0.0155470318
 40
0.0200769999
 40
0.0308921146
 40
0.0440286778
 40
0.0594590742
 40
0.0771472024
 40
0.097052676
 40
0.1191275728
 40
0.143320269
 40
0.1695722336
 40
0.2279996171
 40
0.2938498632
 40
0.3664907028
 40
0.4452243021
 40
0.5292932642
 40
0.6178889012
 40
0.7101584952
 40
0.8052134076
 40
1.0
 40
1.0
 40
1.0
 40
1.0
 10
3.1922307875
 20
4.8800647533
 30
0.0
 10
3.1922091987
 20
4.8800654269
 30
0.0
 10
3.1921753913
 20
4.880092643
 30
0.0
 10
3.192144117
 20
4.8801408434
 30
0.0
 10
3.1921029683
 20
4.8802248443
 30
0.0
 10
3.1920556342
 20
4.8803697846
 30
0.0
 10
3.1920012734
 20
4.8805910338
 30
0.0
 10
3.1919467977
 20
4.8808741079
 30
0.0
 10
3.191891818
 20
4.8812190213
 30
0.0
 10
3.1918366733
 20
4.8816256871
 30
0.0
 10
3.1917582341
 20
4.8822902967
 30
0.0
 10
3.1916626686
 20
4.8832739399
 30
0.0
 10
3.1915528532
 20
4.8846359329
 30
0.0
 10
3.1914426572
 20
4.8862370199
 30
0.0
 10
3.191332117
 20
4.8880734072
 30
0.0
 10
3.1912213852
 20
4.8901406859
 30
0.0
 10
3.1911104941
 20
4.8924339238
 30
0.0
 10
3.1909994938
 20
4.8949475846
 30
0.0
 10
3.1908458389
 20
4.8987218371
 30
0.0
 10
3.1906562342
 20
4.9039411216
 30
0.0
 10
3.1904354228
 20
4.9107697541
 30
0.0
 10
3.1902142262
 20
4.9183032414
 30
0.0
 10
3.1899927231
 20
4.9264690758
 30
0.0
 10
3.1897710098
 20
4.935188654
 30
0.0
 10
3.1895491395
 20
4.9443780095
 30
0.0
 10
3.1893271526
 20
4.9539486316
 30
0.0
 10
3.1890286379
 20
4.9672028175
 30
0.0
 10
3.188808672
 20
4.9772566162
 30
0.0
 10
3.1886607875
 20
4.9840132217
 30
0.0
  0
SPLINE
  5
320
100
AcDbEntity
  8
0
100
AcDbSpline
 62
7
  6
CONTINUOUS
 70
0
 71
3
 72
34
 73
30
 74
0
 42
0.0000001
 43
0.0000001
 44
0.0000000001
 40
0.0
 40
0.0
 40
0.0
 40
0.0
 40
0.0006204148
 40
0.001087713
 40
0.0016845186
 40
0.0032936271
 40
0.005477215
 40
0.0067876353
 40
0.0082445164
 40
0.011598783
 40
0.0155413246
 40
0.0200712794
 40
0.0308854869
 40
0.0440221732
 40
0.0594519274
 40
0.0771403363
 40
0.0970453405
 40
0.1191205242
 40
0.1433129019
 40
0.1695652356
 40
0.2279928674
 40
0.2938434306
 40
0.3664847917
 40
0.4452189898
 40
0.5292886453
 40
0.6178850683
 40
0.7101556327
 40
0.8052111872
 40
1.0
 40
1.0
 40
1.0
 40
1.0
 10
3.2065107875
 20
4.8796210031
 30
0.0
 10
3.2064891806
 20
4.8796216745
 30
0.0
 10
3.2064553569
 20
4.879649021
 30
0.0
 10
3.20642411
 20
4.8796973737
 30
0.0
 10
3.20638295
 20
4.8797817417
 30
0.0
 10
3.2063356426
 20
4.87992731
 30
0.0
 10
3.2062933116
 20
4.8801001584
 30
0.0
 10
3.2062584295
 20
4.8802691002
 30
0.0
 10
3.2062195852
 20
4.8804788455
 30
0.0
 10
3.2061718333
 20
4.8807801363
 30
0.0
 10
3.2061166653
 20
4.8811885335
 30
0.0
 10
3.2060382426
 20
4.8818559804
 30
0.0
 10
3.2059426571
 20
4.8828438204
 30
0.0
 10
3.2058328585
 20
4.8842116033
 30
0.0
 10
3.20572265
 20
4.8858195315
 30
0.0
 10
3.2056121195
 20
4.8876637394
 30
0.0
 10
3.2055013798
 20
4.8897398501
 30
0.0
 10
3.205390495
 20
4.8920428601
 30
0.0
 10
3.2052794897
 20
4.8945672583
 30
0.0
 10
3.2051258389
 20
4.8983576216
 30
0.0
 10
3.2049362313
 20
4.9035991953
 30
0.0
 10
3.2047154207
 20
4.9104569774
 30
0.0
 10
3.204494224
 20
4.9180226257
 30
0.0
 10
3.2042727211
 20
4.9262233252
 30
0.0
 10
3.204051008
 20
4.9349801344
 30
0.0
 10
3.2038291378
 20
4.9442087335
 30
0.0
 10
3.2036071514
 20
4.95382022
 30
0.0
 10
3.2033086371
 20
4.9671310146
 30
0.0
 10
3.2030886717
 20
4.9772277502
 30
0.0
 10
3.2029407875
 20
4.9840132217
 30
0.0
  0
SPLINE
  5
321
100
AcDbEntity
  8
0
100
AcDbSpline
 62
7
  6
CONTINUOUS
 70
0
 71
3
 72
30
 73
26
 74
0
 42
0.0000001
 43
0.0000001
 44
0.0000000001
 40
0.0
 40
0.0
 40
0.0
 40
0.0
 40
0.0013455406
 40
0.0032312818
 40
0.0056699085
 40
0.0086662973
 40
0.0122223636
 40
0.0163381955
 40
0.026242799
 40
0.0383641445
 40
0.0526777205
 40
0.0691527056
 40
0.087752988
 40
0.1084364713
 40
0.1311570769
 40
0.1824979586
 40
0.241309144
 40
0.3070544517
 40
0.3791339221
 40
0.4568890314
 40
0.5396088711
 40
0.6265370007
 40
0.7168783962
 40
0.8098050603
 40
1.0
 40
1.0
 40
1.0
 40
1.0
 10
3.2474460081
 20
4.8784308121
 30
0.0
 10
3.2474235797
 20
4.8784725672
 30
0.0
 10
3.247383034
 20
4.8785796302
 30
0.0
 10
3.2473305169
 20
4.8787722895
 30
0.0
 10
3.2472774811
 20
4.8790248316
 30
0.0
 10
3.247224002
 20
4.879337018
 30
0.0
 10
3.2471702939
 20
4.8797089995
 30
0.0
 10
3.2470936689
 20
4.8803234062
 30
0.0
 10
3.2470004711
 20
4.8812396408
 30
0.0
 10
3.2468935157
 20
4.8825152785
 30
0.0
 10
3.2467861458
 20
4.8840230211
 30
0.0
 10
3.2466784237
 20
4.8857594518
 30
0.0
 10
3.2465704987
 20
4.8877206337
 30
0.0
 10
3.246462404
 20
4.8899021079
 30
0.0
 10
3.2463119366
 20
4.893236173
 30
0.0
 10
3.2461267263
 20
4.8979130617
 30
0.0
 10
3.2459117515
 20
4.9041054397
 30
0.0
 10
3.2456963118
 20
4.9110287236
 30
0.0
 10
3.2454805026
 20
4.9186195976
 30
0.0
 10
3.2452644454
 20
4.9268086254
 30
0.0
 10
3.2450482024
 20
4.935520871
 30
0.0
 10
3.2448318234
 20
4.9446766021
 30
0.0
 10
3.2446153418
 20
4.9541919684
 30
0.0
 10
3.2443243594
 20
4.9673442153
 30
0.0
 10
3.2441097544
 20
4.9773150399
 30
0.0
 10
3.2439655357
 20
4.9840132217
 30
0.0
  0
SPLINE
  5
322
100
AcDbEntity
  8
0
100
AcDbSpline
 62
7
  6
CONTINUOUS
 70
0
 71
3
 72
52
 73
48
 74
0
 42
0.0000001
 43
0.0000001
 44
0.0000000001
 40
0.0
 40
0.0
 40
0.0
 40
0.0
 40
0.0007342066
 40
0.0017364046
 40
0.0030132309
 40
0.0045671518
 40
0.0085089668
 40
0.0135616589
 40
0.0197166652
 40
0.0269624199
 40
0.0352831594
 40
0.0446610143
 40
0.0550750135
 40
0.0665019058
 40
0.0922891983
 40
0.1217898053
 40
0.1547362373
 40
0.1908293097
 40
0.2297406183
 40
0.2711161394
 40
0.3145792075
 40
0.3597337444
 40
0.4061683876
 40
0.5011772255
 40
0.5961482312
 40
0.642535604
 40
0.6876238842
 40
0.7310017046
 40
0.7722729732
 40
0.8110611134
 40
0.8470121666
 40
0.8797979672
 40
0.9091195796
 40
0.9347099874
 40
0.9460319634
 40
0.9563366854
 40
0.9656011103
 40
0.9738045629
 40
0.9809289224
 40
0.986959325
 40
0.9918835698
 40
0.9939286419
 40
0.9956948989
 40
0.9971824516
 40
0.9983927326
 40
0.9993291412
 40
1.0
 40
1.0
 40
1.0
 40
1.0
 10
3.2415387259
 20
4.8894291118
 30
0.0
 10
3.2415168144
 20
4.8894698972
 30
0.0
 10
3.2414764682
 20
4.889572271
 30
0.0
 10
3.2414238658
 20
4.8897548703
 30
0.0
 10
3.2413707916
 20
4.8899908241
 30
0.0
 10
3.2412932873
 20
4.89041085
 30
0.0
 10
3.2412003914
 20
4.8910697592
 30
0.0
 10
3.2410943024
 20
4.8920192064
 30
0.0
 10
3.2409876184
 20
4.8931780372
 30
0.0
 10
3.2408804023
 20
4.8945436036
 30
0.0
 10
3.2407728948
 20
4.896112924
 30
0.0
 10
3.2406651786
 20
4.8978824257
 30
0.0
 10
3.240557305
 20
4.8998481147
 30
0.0
 10
3.2404072126
 20
4.9028477782
 30
0.0
 10
3.2402224204
 20
4.9070507516
 30
0.0
 10
3.2400078702
 20
4.9126106383
 30
0.0
 10
3.2397928642
 20
4.9188208159
 30
0.0
 10
3.2395774945
 20
4.9256247345
 30
0.0
 10
3.23936188
 20
4.9329604243
 30
0.0
 10
3.2391460809
 20
4.9407610437
 30
0.0
 10
3.2389301469
 20
4.9489554963
 30
0.0
 10
3.2387141087
 20
4.9574690776
 30
0.0
 10
3.238423758
 20
4.9692322645
 30
0.0
 10
3.2380657131
 20
4.9841361331
 30
0.0
 10
3.2377075542
 20
4.9990370174
 30
0.0
 10
3.2374170439
 20
5.0107906528
 30
0.0
 10
3.237200903
 20
5.0192916928
 30
0.0
 10
3.2369848379
 20
5.0274700086
 30
0.0
 10
3.2367688796
 20
5.0352508994
 30
0.0
 10
3.236553079
 20
5.042563277
 30
0.0
 10
3.2363374979
 20
5.0493403237
 30
0.0
 10
3.2361222589
 20
5.055520103
 30
0.0
 10
3.2359074569
 20
5.0610461231
 30
0.0
 10
3.235722362
 20
5.0652187361
 30
0.0
 10
3.2355719634
 20
5.0681924296
 30
0.0
 10
3.2354639234
 20
5.0701374182
 30
0.0
 10
3.2353560431
 20
5.0718854317
 30
0.0
 10
3.2352483645
 20
5.0734324803
 30
0.0
 10
3.2351410249
 20
5.0747750707
 30
0.0
 10
3.2350341029
 20
5.0759101337
 30
0.0
 10
3.2349409092
 20
5.0767246907
 30
0.0
 10
3.2348642743
 20
5.0772702215
 30
0.0
 10
3.2348105705
 20
5.0776000695
 30
0.0
 10
3.2347570944
 20
5.0778764694
 30
0.0
 10
3.2347040233
 20
5.0780996095
 30
0.0
 10
3.2346514774
 20
5.0782693046
 30
0.0
 10
3.2346108348
 20
5.0783629535
 30
0.0
 10
3.2345885441
 20
5.0783989084
 30
0.0
  0
SPLINE
  5
323
100
AcDbEntity
  8
0
100
AcDbSpline
 62
7
  6
CONTINUOUS
 70
0
 71
3
 72
34
 73
30
 74
0
 42
0.0000001
 43
0.0000001
 44
0.0000000001
 40
0.0
 40
0.0
 40
0.0
 40
0.0
 40
0.0006184471
 40
0.0010850796
 40
0.0016813588
 40
0.0032896774
 40
0.0054726788
 40
0.0067828546
 40
0.0082395165
 40
0.0115934048
 40
0.01553563
 40
0.0200653166
 40
0.0308790993
 40
0.0440154733
 40
0.0594450031
 40
0.0771332605
 40
0.0970381756
 40
0.1191133256
 40
0.1433057195
 40
0.1695581147
 40
0.2279859925
 40
0.2938369464
 40
0.3664788242
 40
0.4452136493
 40
0.5292840276
 40
0.6178812561
 40
0.7101526963
 40
0.8052091853
 40
1.0
 40
1.0
 40
1.0
 40
1.0
 10
3.2207907875
 20
4.8791772257
 30
0.0
 10
3.2207691578
 20
4.8791778978
 30
0.0
 10
3.2207353223
 20
4.8792054032
 30
0.0
 10
3.2207041055
 20
4.8792539196
 30
0.0
 10
3.2206629388
 20
4.8793386549
 30
0.0
 10
3.2206156391
 20
4.8794848304
 30
0.0
 10
3.2205733093
 20
4.8796583989
 30
0.0
 10
3.2205384286
 20
4.8798280499
 30
0.0
 10
3.2204995837
 20
4.8800386851
 30
0.0
 10
3.2204518318
 20
4.8803412527
 30
0.0
 10
3.2203966639
 20
4.8807513792
 30
0.0
 10
3.2203182408
 20
4.8814216597
 30
0.0
 10
3.2202226552
 20
4.882413692
 30
0.0
 10
3.2201128568
 20
4.8837872785
 30
0.0
 10
3.2200026483
 20
4.885402033
 30
0.0
 10
3.2198921178
 20
4.8872540732
 30
0.0
 10
3.219781378
 20
4.8893390034
 30
0.0
 10
3.2196704932
 20
4.8916517985
 30
0.0
 10
3.2195594878
 20
4.8941869241
 30
0.0
 10
3.2194058369
 20
4.8979933988
 30
0.0
 10
3.2192162291
 20
4.9032572538
 30
0.0
 10
3.2189954186
 20
4.9101441881
 30
0.0
 10
3.2187742219
 20
4.9177420011
 30
0.0
 10
3.2185527191
 20
4.9259775679
 30
0.0
 10
3.2183310062
 20
4.9347716113
 30
0.0
 10
3.2181091363
 20
4.9440394527
 30
0.0
 10
3.2178871501
 20
4.953691812
 30
0.0
 10
3.2175886363
 20
4.9670592154
 30
0.0
 10
3.2173686714
 20
4.9771988914
 30
0.0
 10
3.2172207875
 20
4.9840132217
 30
0.0
  0
SPLINE
  5
324
100
AcDbEntity
  8
0
100
AcDbSpline
 62
7
  6
CONTINUOUS
 70
0
 71
3
 72
30
 73
26
 74
0
 42
0.0000001
 43
0.0000001
 44
0.0000000001
 40
0.0
 40
0.0
 40
0.0
 40
0.0
 40
0.0013499185
 40
0.0032398236
 40
0.0056824091
 40
0.0086825685
 40
0.0122422299
 40
0.016361485
 40
0.0262724393
 40
0.0383995043
 40
0.0527181732
 40
0.0691976419
 40
0.0878017975
 40
0.1084885577
 40
0.1312118458
 40
0.1825563571
 40
0.2413689339
 40
0.3071135145
 40
0.3791902885
 40
0.4569409078
 40
0.5396546665
 40
0.6265753486
 40
0.7169081753
 40
0.8098254076
 40
1.0
 40
1.0
 40
1.0
 40
1.0
 10
3.2331656309
 20
4.8788749462
 30
0.0
 10
3.233143224
 20
4.8789166611
 30
0.0
 10
3.2331026862
 20
4.879023531
 30
0.0
 10
3.2330501673
 20
4.8792157771
 30
0.0
 10
3.2329971314
 20
4.8794676376
 30
0.0
 10
3.2329436557
 20
4.8797788784
 30
0.0
 10
3.2328899518
 20
4.880149648
 30
0.0
 10
3.232813339
 20
4.8807619084
 30
0.0
 10
3.2327201514
 20
4.8816748028
 30
0.0
 10
3.2326132054
 20
4.8829456504
 30
0.0
 10
3.2325058456
 20
4.8844475673
 30
0.0
 10
3.2323981343
 20
4.8861771504
 30
0.0
 10
3.2322902204
 20
4.8881304798
 30
0.0
 10
3.232182137
 20
4.8903031155
 30
0.0
 10
3.232031688
 20
4.8936234866
 30
0.0
 10
3.2318464987
 20
4.8982809734
 30
0.0
 10
3.2316315461
 20
4.9044474639
 30
0.0
 10
3.2314161288
 20
4.9113415717
 30
0.0
 10
3.2312003423
 20
4.9189002617
 30
0.0
 10
3.2309843081
 20
4.9270544072
 30
0.0
 10
3.230768088
 20
4.9357294077
 30
0.0
 10
3.2305517318
 20
4.9448458889
 30
0.0
 10
3.2303352733
 20
4.9543203781
 30
0.0
 10
3.2300443222
 20
4.9674160145
 30
0.0
 10
3.2298297393
 20
4.9773438985
 30
0.0
 10
3.2296855357
 20
4.9840132217
 30
0.0
  0
SPLINE
  5
325
100
AcDbEntity
  8
0
100
AcDbSpline
 62
7
  6
CONTINUOUS
 70
0
 71
3
 72
52
 73
48
 74
0
 42
0.0000001
 43
0.0000001
 44
0.0000000001
 40
0.0
 40
0.0
 40
0.0
 40
0.0
 40
0.0007369827
 40
0.0017418982
 40
0.003021156
 40
0.0045773411
 40
0.0085236974
 40
0.0135803055
 40
0.0197389798
 40
0.0269879925
 40
0.0353115511
 40
0.0446920139
 40
0.055108047
 40
0.0665368848
 40
0.0923267264
 40
0.1218285122
 40
0.1547748122
 40
0.1908665565
 40
0.2297754921
 40
0.2711476449
 40
0.3146065404
 40
0.3597562153
 40
0.4061854559
 40
0.501182479
 40
0.5961414919
 40
0.6425232429
 40
0.6876063388
 40
0.730979621
 40
0.7722471235
 40
0.8110323409
 40
0.8469814789
 40
0.8797664601
 40
0.9090884523
 40
0.9346804944
 40
0.9460038725
 40
0.956310163
 40
0.9655767178
 40
0.9737823916
 40
0.9809096126
 40
0.9869429366
 40
0.9918707631
 40
0.993917712
 40
0.9956858188
 40
0.997175449
 40
0.9983880058
 40
0.9993267791
 40
1.0
 40
1.0
 40
1.0
 40
1.0
 10
3.227258256
 20
4.8898733161
 30
0.0
 10
3.2272363634
 20
4.8899140629
 30
0.0
 10
3.2271960318
 20
4.8900162566
 30
0.0
 10
3.2271434326
 20
4.8901984478
 30
0.0
 10
3.2270903549
 20
4.8904337142
 30
0.0
 10
3.2270128629
 20
4.8908522948
 30
0.0
 10
3.2269199872
 20
4.8915087344
 30
0.0
 10
3.2268138994
 20
4.8924544375
 30
0.0
 10
3.2267072304
 20
4.8936084704
 30
0.0
 10
3.2266000259
 20
4.8949682049
 30
0.0
 10
3.2264925297
 20
4.896530675
 30
0.0
 10
3.2263848302
 20
4.8982923139
 30
0.0
 10
3.2262769665
 20
4.9002491671
 30
0.0
 10
3.2261269004
 20
4.9032351332
 30
0.0
 10
3.2259421308
 20
4.9074187064
 30
0.0
 10
3.2257276083
 20
4.9129526953
 30
0.0
 10
3.2255126291
 20
4.9191336843
 30
0.0
 10
3.2252972869
 20
4.9259054084
 30
0.0
 10
3.2250816999
 20
4.9332062076
 30
0.0
 10
3.2248659285
 20
4.9409695782
 30
0.0
 10
3.2246500223
 20
4.9491247793
 30
0.0
 10
3.2244340118
 20
4.957597485
 30
0.0
 10
3.224143699
 20
4.9693040622
 30
0.0
 10
3.2237856994
 20
4.9841361314
 30
0.0
 10
3.2234275852
 20
4.9989652165
 30
0.0
 10
3.2231371121
 20
5.0106622418
 30
0.0
 10
3.2229209984
 20
5.0191224081
 30
0.0
 10
3.2227049604
 20
5.0272614797
 30
0.0
 10
3.2224890291
 20
5.0350051316
 30
0.0
 10
3.2222732553
 20
5.0422826316
 30
0.0
 10
3.2220577008
 20
5.049027495
 30
0.0
 10
3.2218424876
 20
5.0551780979
 30
0.0
 10
3.221627712
 20
5.0606782278
 30
0.0
 10
3.221442639
 20
5.064831441
 30
0.0
 10
3.2212922644
 20
5.0677914375
 30
0.0
 10
3.2211842336
 20
5.0697275935
 30
0.0
 10
3.2210763711
 20
5.0714677478
 30
0.0
 10
3.2209686982
 20
5.073007957
 30
0.0
 10
3.2208613777
 20
5.0743447137
 30
0.0
 10
3.2207544585
 20
5.0754749948
 30
0.0
 10
3.2206612802
 20
5.0762862117
 30
0.0
 10
3.2205846614
 20
5.0768295981
 30
0.0
 10
3.2205309574
 20
5.0771582266
 30
0.0
 10
3.2204774852
 20
5.0774336789
 30
0.0
 10
3.220424416
 20
5.0776561461
 30
0.0
 10
3.2203718724
 20
5.0778254319
 30
0.0
 10
3.2203312374
 20
5.0779188834
 30
0.0
 10
3.220308968
 20
5.0779547924
 30
0.0
  0
SPLINE
  5
326
100
AcDbEntity
  8
0
100
AcDbSpline
 62
7
  6
CONTINUOUS
 70
0
 71
3
 72
30
 73
26
 74
0
 42
0.0000001
 43
0.0000001
 44
0.0000000001
 40
0.0
 40
0.0
 40
0.0
 40
0.0
 40
0.0013543325
 40
0.0032484364
 40
0.0056950139
 40
0.0086989756
 40
0.0122622623
 40
0.0163849693
 40
0.0263023276
 40
0.0384351599
 40
0.0527589643
 40
0.0692429539
 40
0.087851015
 40
0.1085410792
 40
0.1312670719
 40
0.1826152425
 40
0.2414292219
 40
0.3071730691
 40
0.3792471239
 40
0.4569932156
 40
0.5397008425
 40
0.6266140152
 40
0.7169382018
 40
0.809845924
 40
1.0
 40
1.0
 40
1.0
 40
1.0
 10
3.2188852505
 20
4.8793190832
 30
0.0
 10
3.218862865
 20
4.8793607581
 30
0.0
 10
3.2188223355
 20
4.8794674348
 30
0.0
 10
3.2187698147
 20
4.8796592676
 30
0.0
 10
3.2187167788
 20
4.8799104463
 30
0.0
 10
3.2186633065
 20
4.8802207415
 30
0.0
 10
3.2186096068
 20
4.8805902991
 30
0.0
 10
3.2185330062
 20
4.8812004129
 30
0.0
 10
3.218439829
 20
4.8821099671
 30
0.0
 10
3.2183328925
 20
4.8833760244
 30
0.0
 10
3.2182255428
 20
4.8848721153
 30
0.0
 10
3.2181178425
 20
4.8865948507
 30
0.0
 10
3.2180099398
 20
4.8885403275
 30
0.0
 10
3.2179018678
 20
4.8907041243
 30
0.0
 10
3.2177514374
 20
4.8940108014
 30
0.0
 10
3.2175662691
 20
4.8986488859
 30
0.0
 10
3.2173513389
 20
4.9047894888
 30
0.0
 10
3.2171359443
 20
4.9116544203
 30
0.0
 10
3.2169201808
 20
4.9191809261
 30
0.0
 10
3.2167041695
 20
4.9273001891
 30
0.0
 10
3.2164879726
 20
4.9359379444
 30
0.0
 10
3.2162716395
 20
4.9450151757
 30
0.0
 10
3.2160552041
 20
4.9544487879
 30
0.0
 10
3.2157642846
 20
4.9674878137
 30
0.0
 10
3.215549724
 20
4.9773727571
 30
0.0
 10
3.2154055357
 20
4.9840132217
 30
0.0
  0
SPLINE
  5
327
100
AcDbEntity
  8
0
100
AcDbSpline
 62
7
  6
CONTINUOUS
 70
0
 71
3
 72
52
 73
48
 74
0
 42
0.0000001
 43
0.0000001
 44
0.0000000001
 40
0.0
 40
0.0
 40
0.0
 40
0.0
 40
0.0007398261
 40
0.0017473553
 40
0.0030290464
 40
0.004587587
 40
0.0085385151
 40
0.0135990537
 40
0.0197615126
 40
0.0270137049
 40
0.0353402557
 40
0.0447232033
 40
0.055141439
 40
0.06657209
 40
0.0923645243
 40
0.1218675232
 40
0.1548137387
 40
0.1909041746
 40
0.2298107041
 40
0.2711794465
 40
0.3146341101
 40
0.359778885
 40
0.4062026535
 40
0.5011877742
 40
0.596134699
 40
0.6425107618
 40
0.6875886291
 40
0.7309573052
 40
0.7722209935
 40
0.8110032702
 40
0.8469504967
 40
0.8797346823
 40
0.9090570707
 40
0.9346507839
 40
0.9459754675
 40
0.956283463
 40
0.9655520635
 40
0.9737600903
 40
0.9808901089
 40
0.9869264599
 40
0.9918578532
 40
0.9939066334
 40
0.9956766907
 40
0.9971684577
 40
0.9983832741
 40
0.9993243706
 40
1.0
 40
1.0
 40
1.0
 40
1.0
 10
3.2129777817
 20
4.890317533
 30
0.0
 10
3.2129559107
 20
4.8903582455
 30
0.0
 10
3.212915596
 20
4.8904602532
 30
0.0
 10
3.2128629905
 20
4.8906420266
 30
0.0
 10
3.2128099128
 20
4.8908766013
 30
0.0
 10
3.2127324371
 20
4.8912937393
 30
0.0
 10
3.2126395784
 20
4.8919477108
 30
0.0
 10
3.2125334914
 20
4.8928896726
 30
0.0
 10
3.2124268409
 20
4.8940389044
 30
0.0
 10
3.2123196431
 20
4.8953928137
 30
0.0
 10
3.2122121642
 20
4.8969484268
 30
0.0
 10
3.2121044756
 20
4.8987022117
 30
0.0
 10
3.211996627
 20
4.9006502197
 30
0.0
 10
3.2118465828
 20
4.9036224888
 30
0.0
 10
3.2116618392
 20
4.9077866549
 30
0.0
 10
3.2114473435
 20
4.913294751
 30
0.0
 10
3.2112323919
 20
4.9194465573
 30
0.0
 10
3.2110170773
 20
4.9261860906
 30
0.0
 10
3.2108015182
 20
4.9334519993
 30
0.0
 10
3.2105857747
 20
4.9411781178
 30
0.0
 10
3.2103698964
 20
4.9492940652
 30
0.0
 10
3.2101539139
 20
4.9577258925
 30
0.0
 10
3.2098636394
 20
4.9693758599
 30
0.0
 10
3.2095056856
 20
4.9841361299
 30
0.0
 10
3.2091476165
 20
4.9988934163
 30
0.0
 10
3.208857181
 20
5.0105338311
 30
0.0
 10
3.2086410948
 20
5.0189531206
 30
0.0
 10
3.2084250841
 20
5.0270529453
 30
0.0
 10
3.20820918
 20
5.034759356
 30
0.0
 10
3.2079934333
 20
5.0420019788
 30
0.0
 10
3.2077779055
 20
5.0487146623
 30
0.0
 10
3.2075627188
 20
5.0548360922
 30
0.0
 10
3.2073479689
 20
5.0603103354
 30
0.0
 10
3.2071629205
 20
5.0644441437
 30
0.0
 10
3.2070125664
 20
5.0673904446
 30
0.0
 10
3.2069045489
 20
5.0693177622
 30
0.0
 10
3.2067966999
 20
5.0710500648
 30
0.0
 10
3.2066890374
 20
5.0725834294
 30
0.0
 10
3.206581732
 20
5.0739143579
 30
0.0
 10
3.2064748184
 20
5.0750398532
 30
0.0
 10
3.206381657
 20
5.0758477278
 30
0.0
 10
3.2063050496
 20
5.0763889672
 30
0.0
 10
3.2062513488
 20
5.0767163803
 30
0.0
 10
3.2061978815
 20
5.0769908906
 30
0.0
 10
3.2061448136
 20
5.0772126804
 30
0.0
 10
3.2060922699
 20
5.0773815519
 30
0.0
 10
3.2060516405
 20
5.0774748009
 30
0.0
 10
3.206029396
 20
5.077510668
 30
0.0
  0
ENDSEC
  0
SECTION
  2
OBJECTS
  0
DICTIONARY
  5
C
100
AcDbDictionary
280
0
281
1
  3
ACAD_GROUP
350
D
  3
ACAD_MLINESTYLE
350
17
  3
ACAD_LAYOUT
350
1A
  3
ACAD_PLOTSETTINGS
350
19
  3
ACAD_PLOTSTYLENAME
350
E
  0
DICTIONARY
  5
D
102
{ACAD_REACTORS
330
C
102
}
100
AcDbDictionary
280
0
281
1
  0
ACDBDICTIONARYWDFLT
  5
E
102
{ACAD_REACTORS
330
C
102
}
100
AcDbDictionary
281
1
  3
Normal
350
F
100
AcDbDictionaryWithDefault
340
F
  0
DICTIONARY
  5
17
102
{ACAD_REACTORS
330
C
102
}
100
AcDbDictionary
280
0
281
1
  3
Standard
350
18
  0
DICTIONARY
  5
19
102
{ACAD_REACTORS
330
C
102
}
100
AcDbDictionary
281
1
  0
DICTIONARY
  5
1A
102
{ACAD_REACTORS
330
C
102
}
100
AcDbDictionary
281
1
  3
Model
350
328
  3
Layout1
350
329
  0
ACDBPLACEHOLDER
  5
F
102
{ACAD_REACTORS
330
E
102
}
  0
MLINESTYLE
  5
18
102
{ACAD_REACTORS
330
17
102
}
100
AcDbMlineStyle
  2
STANDARD
 70
0
  3

 62
256
 51
90.0
 52
90.0
 71
2
 49
0.5
 62
256
  6
BYLAYER
 49
-0.5
 62
256
  6
BYLAYER
  0
LAYOUT
  5
328
102
{ACAD_REACTORS
330
1A
102
}
100
AcDbPlotSettings
  1

  2
none_device
  4
ANSI_A_(11.00_x_8.50_Inches)
  6

 40
0.0
 41
0.0
 42
0.0
 43
0.0
 44
279.4
 45
215.9
 46
0.0
 47
0.0
 48
0.0
 49
0.0
140
0.0
141
0.0
142
1.0
143
1.0
 70
1024
 72
0
 73
0
 74
0
  7

 75
0
147
1.0
148
0.0
149
0.0
100
AcDbLayout
  1
Model
 70
0
 71
0
 10
0.0
 20
0.0
 11
11.0
 21
8.5
 12
0.0
 22
0.0
 32
0.0
 14
0.0
 24
0.0
 34
0.0
 15
0.0
 25
0.0
 35
0.0
146
0.0
 13
0.0
 23
0.0
 33
0.0
 16
1.0
 26
0.0
 36
0.0
 17
0.0
 27
1.0
 37
0.0
 76
0
330
203
345
0
346
0
  0
LAYOUT
  5
329
102
{ACAD_REACTORS
330
1A
102
}
100
AcDbPlotSettings
  1

  2
none_device
  4
ANSI_A_(11.00_x_8.50_Inches)
  6

 40
0.0
 41
0.0
 42
0.0
 43
0.0
 44
279.4
 45
215.9
 46
0.0
 47
0.0
 48
0.0
 49
0.0
140
0.0
141
0.0
142
1.0
143
1.0
 70
0
 72
0
 73
0
 74
0
  7

 75
0
147
1.0
148
0.0
149
0.0
100
AcDbLayout
  1
Layout1
 70
0
 71
1
 10
0.0
 20
0.0
 11
11.0
 21
8.5
 12
0.0
 22
0.0
 32
0.0
 14
0.0
 24
0.0
 34
0.0
 15
0.0
 25
0.0
 35
0.0
146
0.0
 13
0.0
 23
0.0
 33
0.0
 16
1.0
 26
0.0
 36
0.0
 17
0.0
 27
1.0
 37
0.0
 76
0
330
204
345
0
346
0
  0
ENDSEC
  0
EOF
