999
DXF file: E:\BT Custom\CADOUTPUT\_FRONT.dxf
999
Pro/ENGINEER 2018400 by Parametric Technology Corporation
  0
SECTION
  2
HEADER
  9
$ACADVER
  1
AC1018
  9
$DWGCODEPAGE
  3
ANSI_1252
  9
$EXTMAX
 10
22.0
 20
17.0
 30
0.0
  9
$EXTMIN
 10
0.0
 20
0.0
 30
0.0
  9
$LIMMIN
 10
0.0
 20
0.0
  9
$LIMMAX
 10
22.0
 20
17.0
  9
$VIEWCTR
 10
11.0
 20
8.5
  9
$VIEWSIZE
 40
17.0
  9
$CLAYER
  8
0
  9
$LTSCALE
 40
1.21
  9
$CELTYPE
  6
BYLAYER
  9
$DIMSCALE
 40
1.0
  9
$DIMASZ
 40
0.1
  9
$DIMEXO
 40
0.0625
  9
$DIMDLI
 40
0.836
  9
$DIMEXE
 40
0.125
  9
$DIMCEN
 40
0.198
  9
$DIMLFAC
 40
1.0
  9
$DIMBLK
  1
_FILLED
  9
$DIMALT
 70
1
  9
$DIMALTD
 70
2
  9
$DIMALTTD
 70
2
  9
$DIMALTF
 40
25.4
  9
$DIMTXT
 40
0.08
  9
$DIMTOL
 70
1
  9
$DIMLIM
 70
0
  9
$DIMTFAC
 40
1.0
  9
$DIMTP
 40
0.001
  9
$DIMTM
 40
0.001
  9
$DIMGAP
 40
0.09
  9
$DIMDSEP
 70
46
  9
$AUNITS
 70
0
  9
$PDMODE
 70
3
  9
$PDSIZE
 40
0.06
  9
$HANDSEED
  5
28B
  9
$TILEMODE
 70
1
  9
$MEASUREMENT
 70
0
  9
$INSUNITS
 70
1
  0
ENDSEC
  0
SECTION
  2
CLASSES
  0
CLASS
  1
ACDBDICTIONARYWDFLT
  2
AcDbDictionaryWithDefault
  3
AutoCAD 2000
 90
0
 91
1
280
0
281
0
  0
CLASS
  1
ACDBPLACEHOLDER
  2
AcDbPlaceHolder
  3
AutoCAD 2000
 90
0
 91
1
280
0
281
0
  0
CLASS
  1
LAYOUT
  2
AcDbLayout
  3
AutoCAD 2000
 90
0
 91
0
280
0
281
0
  0
ENDSEC
  0
SECTION
  2
TABLES
  0
TABLE
  2
VPORT
  5
8
100
AcDbSymbolTable
 70
2
  0
VPORT
  5
1F4
100
AcDbSymbolTableRecord
100
AcDbViewportTableRecord
  2
*ACTIVE
 70
0
 10
0.0
 20
0.0
 11
1.0
 21
1.0
 12
11.0
 22
8.5
 13
0.0
 23
0.0
 14
1.0
 24
1.0
 15
0.0
 25
0.0
 16
0.0
 26
0.0
 36
1.0
 17
0.0
 27
0.0
 37
0.0
 40
17.0
 41
1.2941176471
 42
50.0
 43
0.0
 44
0.0
 50
0.0
 51
0.0
 71
0
 72
100
 73
1
 74
1
 75
0
 76
0
 77
0
 78
0
  0
ENDTAB
  0
TABLE
  2
LTYPE
  5
5
100
AcDbSymbolTable
 70
6
  0
LTYPE
  5
14
100
AcDbSymbolTableRecord
100
AcDbLinetypeTableRecord
  2
BYBLOCK
 70
0
  3

 72
65
 73
0
 40
0.0
  0
LTYPE
  5
15
100
AcDbSymbolTableRecord
100
AcDbLinetypeTableRecord
  2
BYLAYER
 70
0
  3

 72
65
 73
0
 40
0.0
  0
LTYPE
  5
16
100
AcDbSymbolTableRecord
100
AcDbLinetypeTableRecord
  2
CONTINUOUS
 70
64
  3
Solid line
 72
65
 73
0
 40
0.0
  0
LTYPE
  5
1F5
100
AcDbSymbolTableRecord
100
AcDbLinetypeTableRecord
  2
CENTER
 70
64
  3
____ _ ____ _ ____ _ ____ _ ____ _ ____ _ ____
 72
65
 73
4
 40
0.6
 49
0.375
 74
0
 49
-0.075
 74
0
 49
0.075
 74
0
 49
-0.075
 74
0
  0
LTYPE
  5
1F6
100
AcDbSymbolTableRecord
100
AcDbLinetypeTableRecord
  2
HIDDEN
 70
64
  3
- - - - - - - - - - - - - - - - - - - -
 72
65
 73
2
 40
0.2
 49
0.1
 74
0
 49
-0.1
 74
0
  0
LTYPE
  5
1F7
100
AcDbSymbolTableRecord
100
AcDbLinetypeTableRecord
  2
PHANTOM
 70
64
  3
_____ _ _ _____ _ _ _____ _ _ _____
 72
65
 73
6
 40
0.8
 49
0.45
 74
0
 49
-0.05
 74
0
 49
0.1
 74
0
 49
-0.05
 74
0
 49
0.1
 74
0
 49
-0.05
 74
0
  0
LTYPE
  5
1F8
100
AcDbSymbolTableRecord
100
AcDbLinetypeTableRecord
  2
DOT
 70
64
  3
. . . . . . . . . . . . . . . . . . . .
 72
65
 73
2
 40
0.2
 49
0.1
 74
0
 49
-0.1
 74
0
  0
LTYPE
  5
1F9
100
AcDbSymbolTableRecord
100
AcDbLinetypeTableRecord
  2
DASHED
 70
64
  3
- - - - - - - - - - - - - - - - - - - -
 72
65
 73
2
 40
0.2
 49
0.1
 74
0
 49
-0.1
 74
0
  0
ENDTAB
  0
TABLE
  2
LAYER
  5
2
100
AcDbSymbolTable
 70
36
  0
LAYER
  5
10
100
AcDbSymbolTableRecord
100
AcDbLayerTableRecord
  2
0
 70
0
 62
7
  6
CONTINUOUS
370
-3
390
F
  0
LAYER
  5
1FA
100
AcDbSymbolTableRecord
100
AcDbLayerTableRecord
  2
DEFAULT_1
 70
0
 62
7
  6
CENTER
370
-3
390
F
  0
LAYER
  5
1FB
100
AcDbSymbolTableRecord
100
AcDbLayerTableRecord
  2
DEFAULT_2
 70
0
 62
8
  6
HIDDEN
370
-3
390
F
  0
LAYER
  5
1FC
100
AcDbSymbolTableRecord
100
AcDbLayerTableRecord
  2
DEFAULT_3
 70
0
 62
7
  6
PHANTOM
370
-3
390
F
  0
LAYER
  5
1FD
100
AcDbSymbolTableRecord
100
AcDbLayerTableRecord
  2
ALL_FEATURES
 70
0
 62
7
  6
CONTINUOUS
370
-3
390
F
  0
LAYER
  5
1FE
100
AcDbSymbolTableRecord
100
AcDbLayerTableRecord
  2
AXES_FEATURES
 70
0
 62
7
  6
CONTINUOUS
370
-3
390
F
  0
LAYER
  5
1FF
100
AcDbSymbolTableRecord
100
AcDbLayerTableRecord
  2
DIMENSIONS
 70
0
 62
7
  6
CONTINUOUS
370
-3
390
F
  0
ENDTAB
  0
TABLE
  2
STYLE
  5
3
100
AcDbSymbolTable
 70
1
  0
STYLE
  5
11
100
AcDbSymbolTableRecord
100
AcDbTextStyleTableRecord
  2
STANDARD
 70
0
 40
0.0
 41
0.8
 50
0.0
 71
0
 42
0.2
  3
txt
  4

  0
STYLE
  5
200
100
AcDbSymbolTableRecord
100
AcDbTextStyleTableRecord
  2
TEXTSTYLE_1
 70
0
 40
0.0
 41
0.8
 50
0.0
 71
0
 42
0.2
  3
gdt
  4

  0
ENDTAB
  0
TABLE
  2
VIEW
  5
6
100
AcDbSymbolTable
 70
0
  0
ENDTAB
  0
TABLE
  2
UCS
  5
7
100
AcDbSymbolTable
 70
0
  0
ENDTAB
  0
TABLE
  2
APPID
  5
9
100
AcDbSymbolTable
 70
1
  0
APPID
  5
201
100
AcDbSymbolTableRecord
100
AcDbRegAppTableRecord
  2
ACAD
 70
0
  0
ENDTAB
  0
TABLE
  2
BLOCK_RECORD
  5
1
100
AcDbSymbolTable
 70
0
  0
BLOCK_RECORD
  5
202
100
AcDbSymbolTableRecord
100
AcDbBlockTableRecord
  2
*Model_Space
  0
BLOCK_RECORD
  5
203
100
AcDbSymbolTableRecord
100
AcDbBlockTableRecord
  2
*Paper_Space
  0
BLOCK_RECORD
  5
204
100
AcDbSymbolTableRecord
100
AcDbBlockTableRecord
  2
_FILLED
  0
ENDTAB
  0
TABLE
  2
DIMSTYLE
  5
A
100
AcDbSymbolTable
 70
1
100
AcDbDimStyleTable
 71
0
  0
DIMSTYLE
105
205
100
AcDbSymbolTableRecord
100
AcDbDimStyleTableRecord
  2
STANDARD
 70
0
  3

  4

 40
1.0
 41
0.1
 42
0.0625
 43
0.38
 44
0.125
 45
0.0
 46
0.0
 47
0.001
 48
0.001
140
0.08
141
0.09
142
0.0
143
25.4
144
1.0
145
0.0
146
1.0
147
0.09
 71
1.0
 72
0.0
 73
1
 74
1
 75
0
 76
0
 77
0
 78
4
 79
1
170
1
171
2
172
0
173
0
174
0
175
0
176
0
177
0
178
0
270
2
179
3
271
3
272
3
273
2
274
2
275
0
280
0
281
0
282
0
283
1
284
4
285
0
286
0
287
3
288
0
340
11
278
46
341
204
342
204
343
204
344
204
  0
ENDTAB
  0
ENDSEC
  0
SECTION
  2
BLOCKS
  0
BLOCK
  5
20
100
AcDbEntity
  8
0
100
AcDbBlockBegin
  2
*Model_Space
 70
0
 10
0.0
 20
0.0
 30
0.0
  3
*Model_Space
  1

  0
ENDBLK
  5
21
100
AcDbEntity
  8
0
100
AcDbBlockEnd
  0
BLOCK
  5
1C
100
AcDbEntity
  8
0
100
AcDbBlockBegin
  2
*Paper_Space
 70
0
 10
0.0
 20
0.0
 30
0.0
  3
*Paper_Space
  1

  0
ENDBLK
  5
1D
100
AcDbEntity
  8
0
100
AcDbBlockEnd
  0
BLOCK
  5
206
100
AcDbEntity
  8
0
100
AcDbBlockBegin
  2
_FILLED
 70
64
 10
0.0
 20
0.0
  3
_FILLED
  1

  0
SOLID
  5
207
100
AcDbEntity
  8
0
  6
BYBLOCK
 62
0
100
AcDbTrace
 10
0.0
 20
0.0
 11
-1.0
 21
0.2
 12
-1.0
 22
-0.2
 13
-1.0
 23
-0.2
  0
ENDBLK
  5
208
100
AcDbEntity
  8
0
  6
BYBLOCK
 62
0
100
AcDbBlockEnd
  0
ENDSEC
  0
SECTION
  2
ENTITIES
  0
LINE
  5
209
100
AcDbEntity
  8
0
100
AcDbLine
 62
7
  6
CONTINUOUS
 10
9.7576923427
 20
7.7441695021
 11
12.1176923427
 21
7.7441695021
  0
LINE
  5
20A
100
AcDbEntity
  8
0
100
AcDbLine
 62
7
  6
CONTINUOUS
 10
9.9376923427
 20
7.9311695021
 11
11.9376923427
 21
7.9311695021
  0
LINE
  5
20B
100
AcDbEntity
  8
0
100
AcDbLine
 62
7
  6
CONTINUOUS
 10
11.7506950166
 20
8.1191695021
 11
10.1246896689
 21
8.1191695021
  0
LINE
  5
20C
100
AcDbEntity
  8
0
100
AcDbLine
 62
7
  6
CONTINUOUS
 10
10.1796314393
 20
8.1811695021
 11
11.6957532462
 21
8.1811695021
  0
LINE
  5
20D
100
AcDbEntity
  8
0
100
AcDbLine
 62
7
  6
CONTINUOUS
 10
10.1796322749
 20
8.4311142608
 11
10.1796314393
 21
8.1811695021
  0
LINE
  5
20E
100
AcDbEntity
  8
0
100
AcDbLine
 62
7
  6
CONTINUOUS
 10
10.1966923427
 20
8.1811695021
 11
10.1966923427
 21
8.1191695021
  0
LINE
  5
20F
100
AcDbEntity
  8
0
100
AcDbLine
 62
9
  6
CONTINUOUS
 10
11.5788557824
 20
8.5476695021
 11
10.2965289031
 21
8.5476695021
  0
LINE
  5
210
100
AcDbEntity
  8
0
100
AcDbLine
 62
7
  6
CONTINUOUS
 10
10.3801923427
 20
10.4671797073
 11
10.3801923427
 21
10.3811695021
  0
LINE
  5
211
100
AcDbEntity
  8
0
100
AcDbLine
 62
7
  6
CONTINUOUS
 10
10.3876923427
 20
10.3561695021
 11
10.3876923427
 21
10.3035888008
  0
LINE
  5
212
100
AcDbEntity
  8
0
100
AcDbLine
 62
9
  6
CONTINUOUS
 10
11.5561923427
 20
8.7626695021
 11
10.3191923427
 21
8.7626695021
  0
LINE
  5
213
100
AcDbEntity
  8
0
100
AcDbLine
 62
7
  6
CONTINUOUS
 10
10.5586612113
 20
8.4311149989
 11
10.558661891
 21
8.1811695021
  0
LINE
  5
214
100
AcDbEntity
  8
0
100
AcDbLine
 62
7
  6
CONTINUOUS
 10
10.6361923427
 20
9.7411695021
 11
10.6361923427
 21
9.4511695021
  0
LINE
  5
215
100
AcDbEntity
  8
0
100
AcDbLine
 62
7
  6
CONTINUOUS
 10
10.3971923427
 20
9.0967859409
 11
10.3230583485
 21
8.9908683137
  0
LINE
  5
216
100
AcDbEntity
  8
0
100
AcDbLine
 62
9
  6
CONTINUOUS
 10
10.3230583485
 20
8.9908683137
 11
11.5523263369
 21
8.9908683137
  0
LINE
  5
217
100
AcDbEntity
  8
0
100
AcDbLine
 62
7
  6
CONTINUOUS
 10
10.7376923427
 20
9.4511695021
 11
10.7376923427
 21
9.4311695021
  0
LINE
  5
218
100
AcDbEntity
  8
0
100
AcDbLine
 62
9
  6
CONTINUOUS
 10
11.4781923427
 20
9.0967859409
 11
10.3971923427
 21
9.0967859409
  0
LINE
  5
219
100
AcDbEntity
  8
0
100
AcDbLine
 62
7
  6
CONTINUOUS
 10
11.5788557824
 20
8.5476695021
 11
11.6957498035
 21
8.4311122069
  0
LINE
  5
21A
100
AcDbEntity
  8
0
100
AcDbLine
 62
7
  6
CONTINUOUS
 10
10.2965289031
 20
8.5476695021
 11
10.1796358587
 21
8.4311131808
  0
LINE
  5
21B
100
AcDbEntity
  8
0
100
AcDbLine
 62
9
  6
CONTINUOUS
 10
11.3674320703
 20
9.4027687448
 11
10.5079526152
 21
9.4027687448
  0
LINE
  5
21C
100
AcDbEntity
  8
0
100
AcDbLine
 62
7
  6
CONTINUOUS
 10
11.1376923427
 20
9.4511695021
 11
11.1376923427
 21
9.4311695021
  0
LINE
  5
21D
100
AcDbEntity
  8
0
100
AcDbLine
 62
7
  6
CONTINUOUS
 10
11.3365412312
 20
9.4311695021
 11
10.5388434542
 21
9.4311695021
  0
LINE
  5
21E
100
AcDbEntity
  8
0
100
AcDbLine
 62
7
  6
CONTINUOUS
 10
10.6361927564
 20
9.4511695021
 11
11.2391919291
 21
9.4511695021
  0
LINE
  5
21F
100
AcDbEntity
  8
0
100
AcDbLine
 62
7
  6
CONTINUOUS
 10
11.2391923427
 20
9.7411695021
 11
11.2391923427
 21
9.4511695021
  0
LINE
  5
220
100
AcDbEntity
  8
0
100
AcDbLine
 62
7
  6
CONTINUOUS
 10
11.3167216946
 20
8.4311147209
 11
11.3167227945
 21
8.1811695021
  0
LINE
  5
221
100
AcDbEntity
  8
0
100
AcDbLine
 62
7
  6
CONTINUOUS
 10
11.4781923427
 20
9.0967859409
 11
11.5523263369
 21
8.9908683137
  0
LINE
  5
222
100
AcDbEntity
  8
0
100
AcDbLine
 62
9
  6
CONTINUOUS
 10
11.2391923427
 20
9.7411695021
 11
10.6361923427
 21
9.7411695021
  0
LINE
  5
223
100
AcDbEntity
  8
0
100
AcDbLine
 62
7
  6
CONTINUOUS
 10
11.4876923427
 20
10.3561695021
 11
11.4876923427
 21
10.3035888008
  0
LINE
  5
224
100
AcDbEntity
  8
0
100
AcDbLine
 62
7
  6
CONTINUOUS
 10
11.4951923427
 20
10.4671797073
 11
11.4951923427
 21
10.3811695021
  0
LINE
  5
225
100
AcDbEntity
  8
0
100
AcDbLine
 62
7
  6
CONTINUOUS
 10
10.1409756941
 20
9.8011695021
 11
11.7344089914
 21
9.8011695021
  0
LINE
  5
226
100
AcDbEntity
  8
0
100
AcDbLine
 62
9
  6
CONTINUOUS
 10
10.5808287592
 20
9.8111695021
 11
11.2945554887
 21
9.8111695021
  0
LINE
  5
227
100
AcDbEntity
  8
0
100
AcDbLine
 62
9
  6
CONTINUOUS
 10
11.1773351145
 20
9.9011695022
 11
11.6636983133
 21
9.9011695021
  0
LINE
  5
228
100
AcDbEntity
  8
0
100
AcDbLine
 62
9
  6
CONTINUOUS
 10
10.6980242938
 20
9.9011695256
 11
10.2116863722
 21
9.9011695021
  0
LINE
  5
229
100
AcDbEntity
  8
0
100
AcDbLine
 62
7
  6
CONTINUOUS
 10
11.6786923427
 20
8.1811695021
 11
11.6786923427
 21
8.1191695021
  0
LINE
  5
22A
100
AcDbEntity
  8
0
100
AcDbLine
 62
7
  6
CONTINUOUS
 10
11.6957525946
 20
8.4311130456
 11
11.6957532462
 21
8.1811695021
  0
LINE
  5
22B
100
AcDbEntity
  8
0
100
AcDbLine
 62
9
  6
CONTINUOUS
 10
11.31308139
 20
10.1746175779
 11
11.6566994084
 21
10.2603035441
  0
LINE
  5
22C
100
AcDbEntity
  8
0
100
AcDbLine
 62
7
  6
CONTINUOUS
 10
11.703214608
 20
10.3573322966
 11
11.3483219174
 21
10.268834833
  0
LINE
  5
22D
100
AcDbEntity
  8
0
100
AcDbLine
 62
9
  6
CONTINUOUS
 10
10.218685277
 20
10.2603035441
 11
10.5618442578
 21
10.1747320454
  0
LINE
  5
22E
100
AcDbEntity
  8
0
100
AcDbLine
 62
7
  6
CONTINUOUS
 10
10.5263146544
 20
10.2690213851
 11
10.1721700767
 21
10.3573322968
  0
LINE
  5
22F
100
AcDbEntity
  8
0
100
AcDbLine
 62
9
  6
CONTINUOUS
 10
11.4876923427
 20
10.3561695021
 11
10.3876923427
 21
10.3561695021
  0
LINE
  5
230
100
AcDbEntity
  8
0
100
AcDbLine
 62
7
  6
CONTINUOUS
 10
10.3952168947
 20
10.3661695021
 11
11.4801677908
 21
10.3661695021
  0
LINE
  5
231
100
AcDbEntity
  8
0
100
AcDbLine
 62
9
  6
CONTINUOUS
 10
10.3801923427
 20
10.3811695021
 11
11.4951923427
 21
10.3811695021
  0
LINE
  5
232
100
AcDbEntity
  8
0
100
AcDbLine
 62
9
  6
CONTINUOUS
 10
11.4951923427
 20
10.4671797073
 11
10.3801923427
 21
10.4671797073
  0
LINE
  5
233
100
AcDbEntity
  8
0
100
AcDbLine
 62
7
  6
CONTINUOUS
 10
10.4201923427
 20
10.5161695021
 11
11.4551923427
 21
10.5161695021
  0
LINE
  5
234
100
AcDbEntity
  8
0
100
AcDbLine
 62
7
  6
CONTINUOUS
 10
10.5301923427
 20
10.6361695021
 11
10.5127223228
 21
10.6314884244
  0
LINE
  5
235
100
AcDbEntity
  8
0
100
AcDbLine
 62
9
  6
CONTINUOUS
 10
10.5127223228
 20
10.6314884244
 11
11.3626623627
 21
10.6314884244
  0
LINE
  5
236
100
AcDbEntity
  8
0
100
AcDbLine
 62
7
  6
CONTINUOUS
 10
10.5301923427
 20
10.6361695021
 11
11.3451923427
 21
10.6361695021
  0
LINE
  5
237
100
AcDbEntity
  8
0
100
AcDbLine
 62
9
  6
CONTINUOUS
 10
11.3306101898
 20
10.6472551714
 11
10.5447744957
 21
10.6472551714
  0
LINE
  5
238
100
AcDbEntity
  8
0
100
AcDbLine
 62
7
  6
CONTINUOUS
 10
11.3451923427
 20
10.6361695021
 11
11.3626623627
 21
10.6314884244
  0
ARC
  5
239
100
AcDbEntity
  8
0
100
AcDbCircle
 62
7
  6
CONTINUOUS
 10
10.4901674638
 20
8.8739050989
 40
0.2039751211
100
AcDbArc
 50
145.0110095297
 51
213.0478355063
  0
ARC
  5
23A
100
AcDbEntity
  8
0
100
AcDbCircle
 62
7
  6
CONTINUOUS
 10
9.9448284538
 20
7.7441695021
 40
0.1871361111
100
AcDbArc
 50
92.1854050713
 51
180.0
  0
ARC
  5
23B
100
AcDbEntity
  8
0
100
AcDbCircle
 62
7
  6
CONTINUOUS
 10
10.1246896689
 20
7.9321695021
 40
0.187
100
AcDbArc
 50
90.0
 51
180.3063960032
  0
ARC
  5
23C
100
AcDbEntity
  8
0
100
AcDbCircle
 62
7
  6
CONTINUOUS
 10
10.1754178091
 20
8.6691304776
 40
0.1715245336
100
AcDbArc
 50
314.9173576842
 51
33.0478355064
  0
ARC
  5
23D
100
AcDbEntity
  8
0
100
AcDbCircle
 62
7
  6
CONTINUOUS
 10
9.8851534407
 20
9.4551728307
 40
0.625
100
AcDbArc
 50
325.0110095299
 51
355.1903004544
  0
ARC
  5
23E
100
AcDbEntity
  8
0
100
AcDbCircle
 62
7
  6
CONTINUOUS
 10
10.1409554493
 20
10.2322896783
 40
0.1288798254
100
AcDbArc
 50
75.9836079874
 51
89.9909998125
  0
ARC
  5
23F
100
AcDbEntity
  8
0
100
AcDbCircle
 62
7
  6
CONTINUOUS
 10
10.5450747035
 20
10.5107476961
 40
0.125
100
AcDbArc
 50
105.0
 51
177.5140472804
  0
ARC
  5
240
100
AcDbEntity
  8
0
100
AcDbCircle
 62
7
  6
CONTINUOUS
 10
10.6799132258
 20
9.7335852951
 40
0.123009294
100
AcDbArc
 50
132.9132382693
 51
134.2196740746
  0
ARC
  5
241
100
AcDbEntity
  8
0
100
AcDbCircle
 62
9
  6
CONTINUOUS
 10
10.6462613046
 20
9.8824016708
 40
0.0799905315
100
AcDbArc
 50
228.6083581451
 51
229.3208387862
  0
ARC
  5
242
100
AcDbEntity
  8
0
100
AcDbCircle
 62
9
  6
CONTINUOUS
 10
10.6234578279
 20
9.7607302718
 40
0.0686103913
100
AcDbArc
 50
113.4478019043
 51
116.0089640334
  0
ARC
  5
243
100
AcDbEntity
  8
0
100
AcDbCircle
 62
7
  6
CONTINUOUS
 10
10.5761923427
 20
9.7411695021
 40
0.06
100
AcDbArc
 50
0.0
 51
90.0
  0
ARC
  5
244
100
AcDbEntity
  8
0
100
AcDbCircle
 62
7
  6
CONTINUOUS
 10
10.4301923427
 20
10.4671797073
 40
0.05
100
AcDbArc
 50
101.5369590328
 51
180.0
  0
ARC
  5
245
100
AcDbEntity
  8
0
100
AcDbCircle
 62
7
  6
CONTINUOUS
 10
10.5388434542
 20
9.4001695021
 40
0.031
100
AcDbArc
 50
90.0
 51
175.1903004544
  0
ARC
  5
246
100
AcDbEntity
  8
0
100
AcDbCircle
 62
7
  6
CONTINUOUS
 10
10.5576923427
 20
10.6319866014
 40
0.02
100
AcDbArc
 50
130.2326139161
 51
167.8477948571
  0
ARC
  5
247
100
AcDbEntity
  8
0
100
AcDbCircle
 62
7
  6
CONTINUOUS
 10
10.3951923427
 20
10.3811695021
 40
0.015
100
AcDbArc
 50
180.0
 51
270.0
  0
ARC
  5
248
100
AcDbEntity
  8
0
100
AcDbCircle
 62
7
  6
CONTINUOUS
 10
10.3976923427
 20
10.3561695021
 40
0.01
100
AcDbArc
 50
90.0
 51
180.0
  0
ARC
  5
249
100
AcDbEntity
  8
0
100
AcDbCircle
 62
7
  6
CONTINUOUS
 10
11.3852172217
 20
8.8739050989
 40
0.2039751211
100
AcDbArc
 50
326.9521644937
 51
34.9889904703
  0
ARC
  5
24A
100
AcDbEntity
  8
0
100
AcDbCircle
 62
7
  6
CONTINUOUS
 10
11.9305562316
 20
7.7441695021
 40
0.1871361111
100
AcDbArc
 50
0.0
 51
87.8145949287
  0
ARC
  5
24B
100
AcDbEntity
  8
0
100
AcDbCircle
 62
7
  6
CONTINUOUS
 10
11.7506950166
 20
7.9321695021
 40
0.187
100
AcDbArc
 50
359.6936039968
 51
90.0
  0
ARC
  5
24C
100
AcDbEntity
  8
0
100
AcDbCircle
 62
7
  6
CONTINUOUS
 10
11.6999668764
 20
8.6691304776
 40
0.1715245336
100
AcDbArc
 50
146.9521644936
 51
225.0826423158
  0
ARC
  5
24D
100
AcDbEntity
  8
0
100
AcDbCircle
 62
7
  6
CONTINUOUS
 10
11.9902312448
 20
9.4551728307
 40
0.625
100
AcDbArc
 50
184.8096995456
 51
214.9889904701
  0
ARC
  5
24E
100
AcDbEntity
  8
0
100
AcDbCircle
 62
7
  6
CONTINUOUS
 10
10.9376923427
 20
10.1828361688
 40
0.6083333333
100
AcDbArc
 50
49.7673860839
 51
130.2326139161
  0
ARC
  5
24F
100
AcDbEntity
  8
0
100
AcDbCircle
 62
7
  6
CONTINUOUS
 10
11.7344292362
 20
10.2322896783
 40
0.1288798255
100
AcDbArc
 50
90.0090001895
 51
104.016392598
  0
ARC
  5
250
100
AcDbEntity
  8
0
100
AcDbCircle
 62
7
  6
CONTINUOUS
 10
11.330309982
 20
10.5107476961
 40
0.125
100
AcDbArc
 50
2.4859527196
 51
75.0
  0
ARC
  5
251
100
AcDbEntity
  8
0
100
AcDbCircle
 62
7
  6
CONTINUOUS
 10
11.2991923427
 20
9.7411695021
 40
0.06
100
AcDbArc
 50
90.0
 51
180.0
  0
ARC
  5
252
100
AcDbEntity
  8
0
100
AcDbCircle
 62
7
  6
CONTINUOUS
 10
11.4451923427
 20
10.4671797073
 40
0.05
100
AcDbArc
 50
0.0
 51
78.4630409672
  0
ARC
  5
253
100
AcDbEntity
  8
0
100
AcDbCircle
 62
7
  6
CONTINUOUS
 10
11.3365412312
 20
9.4001695021
 40
0.031
100
AcDbArc
 50
4.8096995456
 51
90.0
  0
ARC
  5
254
100
AcDbEntity
  8
0
100
AcDbCircle
 62
7
  6
CONTINUOUS
 10
11.3176923427
 20
10.6319866014
 40
0.02
100
AcDbArc
 50
12.1522051429
 51
49.7673860839
  0
ARC
  5
255
100
AcDbEntity
  8
0
100
AcDbCircle
 62
7
  6
CONTINUOUS
 10
11.4801923427
 20
10.3811695021
 40
0.015
100
AcDbArc
 50
270.0
 51
360.0
  0
ARC
  5
256
100
AcDbEntity
  8
0
100
AcDbCircle
 62
7
  6
CONTINUOUS
 10
11.4776923427
 20
10.3561695021
 40
0.01
100
AcDbArc
 50
0.0
 51
90.0
  0
SPLINE
  5
257
100
AcDbEntity
  8
0
100
AcDbSpline
 62
7
  6
CONTINUOUS
 70
0
 71
3
 72
19
 73
15
 74
0
 42
0.0000001
 43
0.0000001
 44
0.0000000001
 40
0.0
 40
0.0
 40
0.0
 40
0.0
 40
0.12431479
 40
0.1865185126
 40
0.2487320208
 40
0.3109465328
 40
0.3731539928
 40
0.4353835487
 40
0.4976457441
 40
0.622269883
 40
0.6847993042
 40
0.747484799
 40
0.8733995772
 40
1.0
 40
1.0
 40
1.0
 40
1.0
 10
10.1409756941
 20
9.8011695021
 30
0.0
 10
10.1326802211
 20
9.8011695021
 30
0.0
 10
10.1201902986
 20
9.8023863461
 30
0.0
 10
10.1040593207
 20
9.806367112
 30
0.0
 10
10.0922887694
 20
9.8104973567
 30
0.0
 10
10.0809604576
 20
9.8157148742
 30
0.0
 10
10.0701694457
 20
9.8219700303
 30
0.0
 10
10.0599908554
 20
9.8291846959
 30
0.0
 10
10.0473306252
 20
9.8399843771
 30
0.0
 10
10.0361321958
 20
9.8524274134
 30
0.0
 10
10.0265972293
 20
9.8661200029
 30
0.0
 10
10.0181540959
 20
9.8806149892
 30
0.0
 10
10.0097513534
 20
9.8999909147
 30
0.0
 10
10.0054028479
 20
9.9163414992
 30
0.0
 10
10.0038225046
 20
9.9246403599
 30
0.0
  0
SPLINE
  5
258
100
AcDbEntity
  8
0
100
AcDbSpline
 62
7
  6
CONTINUOUS
 70
0
 71
3
 72
13
 73
9
 74
0
 42
0.0000001
 43
0.0000001
 44
0.0000000001
 40
0.0
 40
0.0
 40
0.0
 40
0.0
 40
0.1242280934
 40
0.249172427
 40
0.5000002825
 40
0.7508277624
 40
0.8757718932
 40
1.0
 40
1.0
 40
1.0
 40
1.0
 10
10.0038225046
 20
9.9246403599
 30
0.0
 10
10.0013838127
 20
9.9374466686
 30
0.0
 10
9.997112784
 20
9.9632559477
 30
0.0
 10
9.990998313
 20
10.0153836596
 30
0.0
 10
9.9879381196
 20
10.0811695527
 30
0.0
 10
9.9909983129
 20
10.1469554244
 30
0.0
 10
9.9971127824
 20
10.1990830768
 30
0.0
 10
10.0013838127
 20
10.2248923355
 30
0.0
 10
10.0038225048
 20
10.2376986455
 30
0.0
  0
SPLINE
  5
259
100
AcDbEntity
  8
0
100
AcDbSpline
 62
7
  6
CONTINUOUS
 70
0
 71
3
 72
19
 73
15
 74
0
 42
0.0000001
 43
0.0000001
 44
0.0000000001
 40
0.0
 40
0.0
 40
0.0
 40
0.0
 40
0.1266125537
 40
0.2525288689
 40
0.3152133759
 40
0.3777388896
 40
0.5023528848
 40
0.5646097768
 40
0.6268335714
 40
0.689036419
 40
0.7512472027
 40
0.8134594387
 40
0.8756706712
 40
1.0
 40
1.0
 40
1.0
 40
1.0
 10
10.0038225048
 20
10.2376986456
 30
0.0
 10
10.0054029995
 20
10.2459983012
 30
0.0
 10
10.0097519323
 20
10.2623497323
 30
0.0
 10
10.0181552794
 20
10.2817263243
 30
0.0
 10
10.0265985847
 20
10.2962209439
 30
0.0
 10
10.0361329288
 20
10.3099127395
 30
0.0
 10
10.0473306781
 20
10.3223546529
 30
0.0
 10
10.0599898152
 20
10.3331534027
 30
0.0
 10
10.0701673164
 20
10.3403677977
 30
0.0
 10
10.0809575376
 20
10.3466224468
 30
0.0
 10
10.0922850103
 20
10.3518401678
 30
0.0
 10
10.1040554436
 20
10.3559713711
 30
0.0
 10
10.1201880055
 20
10.3599514956
 30
0.0
 10
10.1326792512
 20
10.3611695021
 30
0.0
 10
10.1409756941
 20
10.3611695021
 30
0.0
  0
SPLINE
  5
25A
100
AcDbEntity
  8
0
100
AcDbSpline
 62
7
  6
CONTINUOUS
 70
0
 71
3
 72
19
 73
15
 74
0
 42
0.0000001
 43
0.0000001
 44
0.0000000001
 40
0.0
 40
0.0
 40
0.0
 40
0.0
 40
0.1266125538
 40
0.2525288689
 40
0.315213376
 40
0.3777388896
 40
0.5023528849
 40
0.5646097768
 40
0.6268335715
 40
0.689036419
 40
0.7512472027
 40
0.8134594387
 40
0.8756706712
 40
1.0
 40
1.0
 40
1.0
 40
1.0
 10
11.8715621809
 20
10.2376986443
 30
0.0
 10
11.8699816862
 20
10.2459983
 30
0.0
 10
11.8656327536
 20
10.2623497313
 30
0.0
 10
11.8572294065
 20
10.2817263234
 30
0.0
 10
11.8487861013
 20
10.2962209432
 30
0.0
 10
11.8392517571
 20
10.3099127389
 30
0.0
 10
11.8280540078
 20
10.3223546525
 30
0.0
 10
11.8153948707
 20
10.3331534023
 30
0.0
 10
11.8052173694
 20
10.3403677975
 30
0.0
 10
11.7944271482
 20
10.3466224466
 30
0.0
 10
11.7830996755
 20
10.3518401677
 30
0.0
 10
11.7713292421
 20
10.355971371
 30
0.0
 10
11.7551966801
 20
10.3599514956
 30
0.0
 10
11.7427054343
 20
10.3611695021
 30
0.0
 10
11.7344089914
 20
10.3611695021
 30
0.0
  0
SPLINE
  5
25B
100
AcDbEntity
  8
0
100
AcDbSpline
 62
7
  6
CONTINUOUS
 70
0
 71
3
 72
13
 73
9
 74
0
 42
0.0000001
 43
0.0000001
 44
0.0000000001
 40
0.0
 40
0.0
 40
0.0
 40
0.0
 40
0.1242280933
 40
0.2491724269
 40
0.5000002825
 40
0.7508277623
 40
0.8757718931
 40
1.0
 40
1.0
 40
1.0
 40
1.0
 10
11.8715621806
 20
9.9246403585
 30
0.0
 10
11.8740008725
 20
9.9374466672
 30
0.0
 10
11.8782719013
 20
9.9632559464
 30
0.0
 10
11.8843863724
 20
10.0153836583
 30
0.0
 10
11.8874465659
 20
10.0811695513
 30
0.0
 10
11.8843863727
 20
10.1469554231
 30
0.0
 10
11.8782719032
 20
10.1990830756
 30
0.0
 10
11.874000873
 20
10.2248923343
 30
0.0
 10
11.8715621809
 20
10.2376986444
 30
0.0
  0
SPLINE
  5
25C
100
AcDbEntity
  8
0
100
AcDbSpline
 62
7
  6
CONTINUOUS
 70
0
 71
3
 72
19
 73
15
 74
0
 42
0.0000001
 43
0.0000001
 44
0.0000000001
 40
0.0
 40
0.0
 40
0.0
 40
0.0
 40
0.1243147901
 40
0.1865185126
 40
0.2487320208
 40
0.3109465328
 40
0.3731539928
 40
0.4353835487
 40
0.4976457442
 40
0.6222698831
 40
0.6847993042
 40
0.7474847991
 40
0.8733995772
 40
1.0
 40
1.0
 40
1.0
 40
1.0
 10
11.7344089914
 20
9.8011695021
 30
0.0
 10
11.7427044644
 20
9.8011695021
 30
0.0
 10
11.7551943867
 20
9.8023863461
 30
0.0
 10
11.7713253646
 20
9.8063671119
 30
0.0
 10
11.7830959158
 20
9.8104973566
 30
0.0
 10
11.7944242275
 20
9.815714874
 30
0.0
 10
11.8052152394
 20
9.82197003
 30
0.0
 10
11.8153938295
 20
9.8291846955
 30
0.0
 10
11.8280540598
 20
9.8399843766
 30
0.0
 10
11.8392524891
 20
9.8524274127
 30
0.0
 10
11.8487874557
 20
9.866120002
 30
0.0
 10
11.857230589
 20
9.8806149881
 30
0.0
 10
11.8656333316
 20
9.8999909134
 30
0.0
 10
11.8699818373
 20
9.9163414978
 30
0.0
 10
11.8715621806
 20
9.9246403585
 30
0.0
  0
SPLINE
  5
25D
100
AcDbEntity
  8
0
100
AcDbSpline
 62
9
  6
CONTINUOUS
 70
0
 71
3
 72
21
 73
17
 74
0
 42
0.0000001
 43
0.0000001
 44
0.0000000001
 40
0.0
 40
0.0
 40
0.0
 40
0.0
 40
0.0509397977
 40
0.1033185172
 40
0.1571716077
 40
0.212604742
 40
0.2697548575
 40
0.3287581351
 40
0.3896980248
 40
0.4525532044
 40
0.5171855639
 40
0.5833861624
 40
0.71933898
 40
0.7887683808
 40
0.858821781
 40
1.0
 40
1.0
 40
1.0
 40
1.0
 10
11.3266010442
 20
10.3096021086
 30
0.0
 10
11.322834611
 20
10.3094716563
 30
0.0
 10
11.3151952069
 20
10.3092049378
 30
0.0
 10
11.303588392
 20
10.3084468127
 30
0.0
 10
11.2917074928
 20
10.3069894708
 30
0.0
 10
11.2796288886
 20
10.3045134944
 30
0.0
 10
11.2674745098
 20
10.300773293
 30
0.0
 10
11.2554140794
 20
10.2955843349
 30
0.0
 10
11.2436569803
 20
10.2888393313
 30
0.0
 10
11.2324216749
 20
10.2805362572
 30
0.0
 10
11.2218960688
 20
10.2707686002
 30
0.0
 10
11.2089295852
 20
10.2558475714
 30
0.0
 10
11.1981718679
 20
10.2386945368
 30
0.0
 10
11.1898453286
 20
10.2200728956
 30
0.0
 10
11.1831006608
 20
10.2004117948
 30
0.0
 10
11.1799901327
 20
10.1849936668
 30
0.0
 10
11.1787938438
 20
10.1746175779
 30
0.0
  0
SPLINE
  5
25E
100
AcDbEntity
  8
0
100
AcDbSpline
 62
9
  6
CONTINUOUS
 70
0
 71
3
 72
17
 73
13
 74
0
 42
0.0000001
 43
0.0000001
 44
0.0000000001
 40
0.0
 40
0.0
 40
0.0
 40
0.0
 40
0.1320002931
 40
0.1953866884
 40
0.2573515368
 40
0.3182316814
 40
0.3783828892
 40
0.4978571618
 40
0.6184276075
 40
0.7418206019
 40
0.8689345048
 40
1.0
 40
1.0
 40
1.0
 40
1.0
 10
11.4026069783
 20
10.2825252378
 30
0.0
 10
11.4003598014
 20
10.2854936171
 30
0.0
 10
11.3967304883
 20
10.2896762503
 30
0.0
 10
11.3913473157
 20
10.29455469
 30
0.0
 10
11.3871708398
 20
10.2977508623
 30
0.0
 10
11.3828147962
 20
10.3005313197
 30
0.0
 10
11.3768002253
 20
10.3036835581
 30
0.0
 10
11.3688320001
 20
10.3066603593
 30
0.0
 10
11.3587790722
 20
10.3088068851
 30
0.0
 10
11.3483423665
 20
10.3097913244
 30
0.0
 10
11.3375750105
 20
10.309944536
 30
0.0
 10
11.3302955419
 20
10.3097291466
 30
0.0
 10
11.3266010442
 20
10.3096021075
 30
0.0
  0
SPLINE
  5
25F
100
AcDbEntity
  8
0
100
AcDbSpline
 62
9
  6
CONTINUOUS
 70
0
 71
3
 72
17
 73
13
 74
0
 42
0.0000001
 43
0.0000001
 44
0.0000000001
 40
0.0
 40
0.0
 40
0.0
 40
0.0
 40
0.0621149135
 40
0.1247020033
 40
0.1872558206
 40
0.2497446379
 40
0.3747871983
 40
0.4998297584
 40
0.6248706811
 40
0.7499148791
 40
0.874957767
 40
1.0
 40
1.0
 40
1.0
 40
1.0
 10
11.1787938427
 20
10.1746175781
 30
0.0
 10
11.1781453335
 20
10.1689921771
 30
0.0
 10
11.1774411647
 20
10.157630199
 30
0.0
 10
11.1773172674
 20
10.1405597911
 30
0.0
 10
11.1773077078
 20
10.1234545206
 30
0.0
 10
11.1773523633
 20
10.1006557704
 30
0.0
 10
11.1773305549
 20
10.0721601703
 30
0.0
 10
11.177336983
 20
10.0379621039
 30
0.0
 10
11.177337404
 20
10.0037638733
 30
0.0
 10
11.1773356968
 20
9.9695656168
 30
0.0
 10
11.1773356964
 20
9.9353672398
 30
0.0
 10
11.1773359813
 20
9.9125684215
 30
0.0
 10
11.1773359813
 20
9.9011690422
 30
0.0
  0
SPLINE
  5
260
100
AcDbEntity
  8
0
100
AcDbSpline
 62
7
  6
CONTINUOUS
 70
0
 71
3
 72
9
 73
5
 74
0
 42
0.0000001
 43
0.0000001
 44
0.0000000001
 40
0.0
 40
0.0
 40
0.0
 40
0.0
 40
0.2561317661
 40
1.0
 40
1.0
 40
1.0
 40
1.0
 10
11.2818342628
 20
9.8211879444
 30
0.0
 10
11.2828342927
 20
9.8202315806
 30
0.0
 10
11.2868245986
 20
9.8165892497
 30
0.0
 10
11.2911622219
 20
9.8133225048
 30
0.0
 10
11.2945554887
 20
9.8111695021
 30
0.0
  0
SPLINE
  5
261
100
AcDbEntity
  8
0
100
AcDbSpline
 62
7
  6
CONTINUOUS
 70
0
 71
3
 72
9
 73
5
 74
0
 42
0.0000001
 43
0.0000001
 44
0.0000000001
 40
0.0
 40
0.0
 40
0.0
 40
0.0
 40
0.2438489178
 40
1.0
 40
1.0
 40
1.0
 40
1.0
 10
10.5808287592
 20
9.8111695021
 30
0.0
 10
10.581995866
 20
9.8119100218
 30
0.0
 10
10.5866979047
 20
9.8150783742
 30
0.0
 10
10.5910539529
 20
9.8187528095
 30
0.0
 10
10.5941251625
 20
9.8217425103
 30
0.0
  0
SPLINE
  5
262
100
AcDbEntity
  8
0
100
AcDbSpline
 62
9
  6
CONTINUOUS
 70
0
 71
3
 72
23
 73
19
 74
0
 42
0.0000001
 43
0.0000001
 44
0.0000000001
 40
0.0
 40
0.0
 40
0.0
 40
0.0
 40
0.1250324472
 40
0.2500648884
 40
0.3750973179
 40
0.5001297738
 40
0.6251622164
 40
0.6876783664
 40
0.7189364795
 40
0.7501946587
 40
0.7814528764
 40
0.8127108725
 40
0.8439685856
 40
0.8752269813
 40
0.9064855183
 40
0.9377452317
 40
0.9689615688
 40
1.0
 40
1.0
 40
1.0
 40
1.0
 10
10.6980242939
 20
9.9011695021
 30
0.0
 10
10.6980242939
 20
9.9125724188
 30
0.0
 10
10.6980251328
 20
9.9353782516
 30
0.0
 10
10.6980282879
 20
9.9695869993
 30
0.0
 10
10.6980327196
 20
10.0037957476
 30
0.0
 10
10.698037592
 20
10.038004496
 30
0.0
 10
10.6980413229
 20
10.0665117811
 30
0.0
 10
10.6980441749
 20
10.0864668779
 30
0.0
 10
10.6980454187
 20
10.0978697943
 30
0.0
 10
10.6980460447
 20
10.1064219971
 30
0.0
 10
10.6980462512
 20
10.1149741923
 30
0.0
 10
10.6980470673
 20
10.1235263333
 30
0.0
 10
10.6980495394
 20
10.1320785339
 30
0.0
 10
10.6980491499
 20
10.1406306213
 30
0.0
 10
10.6980416252
 20
10.1491834985
 30
0.0
 10
10.6980807971
 20
10.1577302738
 30
0.0
 10
10.6979579327
 20
10.1662654047
 30
0.0
 10
10.6973408792
 20
10.1719141893
 30
0.0
 10
10.6970715884
 20
10.1747320454
 30
0.0
  0
SPLINE
  5
263
100
AcDbEntity
  8
0
100
AcDbSpline
 62
9
  6
CONTINUOUS
 70
0
 71
3
 72
19
 73
15
 74
0
 42
0.0000001
 43
0.0000001
 44
0.0000000001
 40
0.0
 40
0.0
 40
0.0
 40
0.0
 40
0.0276818284
 40
0.057100768
 40
0.0896886877
 40
0.1264883959
 40
0.1682098354
 40
0.21530938
 40
0.268044922
 40
0.3265593752
 40
0.461129679
 40
0.6190467358
 40
0.7992064393
 40
1.0
 40
1.0
 40
1.0
 40
1.0
 10
11.8715618774
 20
10.2376985865
 30
0.0
 10
11.8715061516
 20
10.2379898694
 30
0.0
 10
11.8713092156
 20
10.2385776132
 30
0.0
 10
11.8707841236
 20
10.2393917653
 30
0.0
 10
11.8700361552
 20
10.2401492698
 30
0.0
 10
11.8690705136
 20
10.2408520887
 30
0.0
 10
11.8678888566
 20
10.2415019848
 30
0.0
 10
11.8664926782
 20
10.2420989546
 30
0.0
 10
11.8648844521
 20
10.2426432006
 30
0.0
 10
11.8623404041
 20
10.2433292295
 30
0.0
 10
11.8586380299
 20
10.2440179601
 30
0.0
 10
11.8536037841
 20
10.2445870146
 30
0.0
 10
11.8478385176
 20
10.2449276961
 30
0.0
 10
11.8437566804
 20
10.2449961405
 30
0.0
 10
11.8416055062
 20
10.2449961405
 30
0.0
  0
SPLINE
  5
264
100
AcDbEntity
  8
0
100
AcDbSpline
 62
9
  6
CONTINUOUS
 70
0
 71
3
 72
21
 73
17
 74
0
 42
0.0000001
 43
0.0000001
 44
0.0000000001
 40
0.0
 40
0.0
 40
0.0
 40
0.0
 40
0.1411630998
 40
0.211245401
 40
0.2807230196
 40
0.416817472
 40
0.4831028927
 40
0.5478124138
 40
0.6107234135
 40
0.6716831933
 40
0.7306528926
 40
0.7877202027
 40
0.8430470948
 40
0.896799482
 40
0.9491061736
 40
1.0
 40
1.0
 40
1.0
 40
1.0
 10
10.6970715884
 20
10.1747320454
 30
0.0
 10
10.696065451
 20
10.1852497899
 30
0.0
 10
10.6931873303
 20
10.2009053961
 30
0.0
 10
10.6866611229
 20
10.2209012727
 30
0.0
 10
10.6784876577
 20
10.2398690098
 30
0.0
 10
10.6677950252
 20
10.2573705085
 30
0.0
 10
10.654800025
 20
10.2726035122
 30
0.0
 10
10.6442056581
 20
10.2825695559
 30
0.0
 10
10.6328602439
 20
10.2910202284
 30
0.0
 10
10.6209613258
 20
10.2978483198
 30
0.0
 10
10.6087261986
 20
10.3030117101
 30
0.0
 10
10.5963803956
 20
10.3065881872
 30
0.0
 10
10.5841151011
 20
10.3087614822
 30
0.0
 10
10.5720650971
 20
10.3097752704
 30
0.0
 10
10.560312814
 20
10.3099489313
 30
0.0
 10
10.5525905466
 20
10.3097330172
 30
0.0
 10
10.5487835016
 20
10.3096021082
 30
0.0
  0
SPLINE
  5
265
100
AcDbEntity
  8
0
100
AcDbSpline
 62
9
  6
CONTINUOUS
 70
0
 71
3
 72
15
 73
11
 74
0
 42
0.0000001
 43
0.0000001
 44
0.0000000001
 40
0.0
 40
0.0
 40
0.0
 40
0.0
 40
0.1309933109
 40
0.2583061184
 40
0.3822081649
 40
0.5034844667
 40
0.6235994797
 40
0.7447031161
 40
0.8693683627
 40
1.0
 40
1.0
 40
1.0
 40
1.0
 10
10.5487835016
 20
10.3096021082
 30
0.0
 10
10.5451999523
 20
10.3094779904
 30
0.0
 10
10.5381335159
 20
10.3092275703
 30
0.0
 10
10.527691828
 20
10.3085139973
 30
0.0
 10
10.5175756682
 20
10.3071495593
 30
0.0
 10
10.5078282203
 20
10.3048224957
 30
0.0
 10
10.4985239133
 20
10.3012811268
 30
0.0
 10
10.4897677389
 20
10.2963342657
 30
0.0
 10
10.4816829756
 20
10.2898802626
 30
0.0
 10
10.4769322033
 20
10.2847162707
 30
0.0
 10
10.4746893003
 20
10.2819313619
 30
0.0
  0
SPLINE
  5
266
100
AcDbEntity
  8
0
100
AcDbSpline
 62
9
  6
CONTINUOUS
 70
0
 71
3
 72
19
 73
15
 74
0
 42
0.0000001
 43
0.0000001
 44
0.0000000001
 40
0.0
 40
0.0
 40
0.0
 40
0.0
 40
0.1284697839
 40
0.2626968076
 40
0.3309242653
 40
0.3993534117
 40
0.4674083767
 40
0.5345022926
 40
0.6636480158
 40
0.7844201857
 40
0.8416165539
 40
0.8965804939
 40
0.9493039148
 40
1.0
 40
1.0
 40
1.0
 40
1.0
 10
10.5487818814
 20
10.3096020488
 30
0.0
 10
10.5488169688
 20
10.3074285689
 30
0.0
 10
10.5486237437
 20
10.3029764031
 30
0.0
 10
10.5477081229
 20
10.2974356737
 30
0.0
 10
10.546498651
 20
10.293010871
 30
0.0
 10
10.5453370797
 20
10.2897441723
 30
0.0
 10
10.5439411772
 20
10.2865910308
 30
0.0
 10
10.5418135709
 20
10.2826539698
 30
0.0
 10
10.5386768574
 20
10.278261584
 30
0.0
 10
10.5348203288
 20
10.274714622
 30
0.0
 10
10.5315186683
 20
10.272550053
 30
0.0
 10
10.5290233258
 20
10.2712878122
 30
0.0
 10
10.526498297
 20
10.2703706481
 30
0.0
 10
10.524786328
 20
10.2699833629
 30
0.0
 10
10.5239396023
 20
10.2698459762
 30
0.0
  0
SPLINE
  5
267
100
AcDbEntity
  8
0
100
AcDbSpline
 62
9
  6
CONTINUOUS
 70
0
 71
3
 72
15
 73
11
 74
0
 42
0.0000001
 43
0.0000001
 44
0.0000000001
 40
0.0
 40
0.0
 40
0.0
 40
0.0
 40
0.1296751611
 40
0.2679469099
 40
0.4097588005
 40
0.5495141631
 40
0.681833325
 40
0.8027624524
 40
0.9091925474
 40
1.0
 40
1.0
 40
1.0
 40
1.0
 10
10.6970709599
 20
10.1747374527
 30
0.0
 10
10.6912647119
 20
10.1739028846
 30
0.0
 10
10.6792280624
 20
10.1724458579
 30
0.0
 10
10.6607530581
 20
10.1709005758
 30
0.0
 10
10.641778339
 20
10.1700092293
 30
0.0
 10
10.6230536301
 20
10.1697700831
 30
0.0
 10
10.6052769635
 20
10.1701925447
 30
0.0
 10
10.5890325892
 20
10.1711835849
 30
0.0
 10
10.5747120923
 20
10.172662558
 30
0.0
 10
10.5658852917
 20
10.1739961268
 30
0.0
 10
10.5618444855
 20
10.174734537
 30
0.0
  0
SPLINE
  5
268
100
AcDbEntity
  8
0
100
AcDbSpline
 62
9
  6
CONTINUOUS
 70
0
 71
3
 72
17
 73
13
 74
0
 42
0.0000001
 43
0.0000001
 44
0.0000000001
 40
0.0
 40
0.0
 40
0.0
 40
0.0
 40
0.052628364
 40
0.1093730337
 40
0.2328327578
 40
0.3657718533
 40
0.503403547
 40
0.640592637
 40
0.7722165783
 40
0.8935361064
 40
0.9489134219
 40
1.0
 40
1.0
 40
1.0
 40
1.0
 10
10.1727678923
 20
10.2189919123
 30
0.0
 10
10.1704402918
 20
10.2198783973
 30
0.0
 10
10.1655704483
 20
10.2216357363
 30
0.0
 10
10.1551028639
 20
10.2250815359
 30
0.0
 10
10.1408543074
 20
10.2291776113
 30
0.0
 10
10.1227340889
 20
10.2336002262
 30
0.0
 10
10.1038277734
 20
10.2374880249
 30
0.0
 10
10.0848563631
 20
10.2406900156
 30
0.0
 10
10.0665447661
 20
10.2430864359
 30
0.0
 10
10.0520041714
 20
10.2443768445
 30
0.0
 10
10.0412356603
 20
10.2449013411
 30
0.0
 10
10.0361969111
 20
10.2449961405
 30
0.0
 10
10.0337791792
 20
10.2449961405
 30
0.0
  0
SPLINE
  5
269
100
AcDbEntity
  8
0
100
AcDbSpline
 62
9
  6
CONTINUOUS
 70
0
 71
3
 72
30
 73
26
 74
0
 42
0.0000001
 43
0.0000001
 44
0.0000000001
 40
0.0
 40
0.0
 40
0.0
 40
0.0
 40
0.1250154559
 40
0.2500309114
 40
0.3750463665
 40
0.5000618214
 40
0.5625695488
 40
0.6250772764
 40
0.6875850035
 40
0.7500927333
 40
0.7813465897
 40
0.8126004775
 40
0.8282273707
 40
0.8438542331
 40
0.8594812242
 40
0.8751084242
 40
0.8907352787
 40
0.9063613764
 40
0.9219889422
 40
0.9376192967
 40
0.945431869
 40
0.9532417446
 40
0.9688538631
 40
0.9844443678
 40
1.0
 40
1.0
 40
1.0
 40
1.0
 10
10.5609333633
 20
9.9011695021
 30
0.0
 10
10.5609332142
 20
9.9125708469
 30
0.0
 10
10.5609326263
 20
9.9353735365
 30
0.0
 10
10.5609295048
 20
9.9695775706
 30
0.0
 10
10.5609253674
 20
10.0037816045
 30
0.0
 10
10.5609214562
 20
10.0322849659
 30
0.0
 10
10.5609184142
 20
10.0550876551
 30
0.0
 10
10.5609162173
 20
10.072189672
 30
0.0
 10
10.5609143228
 20
10.0892916891
 30
0.0
 10
10.5609126668
 20
10.1035433694
 30
0.0
 10
10.5609121334
 20
10.1149447158
 30
0.0
 10
10.5609109203
 20
10.1220705541
 30
0.0
 10
10.5609111634
 20
10.1277712189
 30
0.0
 10
10.5609121358
 20
10.1320467184
 30
0.0
 10
10.5609116027
 20
10.1363222473
 30
0.0
 10
10.5609070743
 20
10.1405977695
 30
0.0
 10
10.5609051731
 20
10.1448732252
 30
0.0
 10
10.5609196854
 20
10.1491486682
 30
0.0
 10
10.5609227238
 20
10.1534245317
 30
0.0
 10
10.5608795269
 20
10.1569875423
 30
0.0
 10
10.5608821035
 20
10.1598378624
 30
0.0
 10
10.5609350724
 20
10.162686145
 30
0.0
 10
10.5611097867
 20
10.1662404954
 30
0.0
 10
10.5614218177
 20
10.1704936149
 30
0.0
 10
10.5616913644
 20
10.1733216427
 30
0.0
 10
10.5618442578
 20
10.1747320454
 30
0.0
  0
SPLINE
  5
26A
100
AcDbEntity
  8
0
100
AcDbSpline
 62
9
  6
CONTINUOUS
 70
0
 71
3
 72
21
 73
17
 74
0
 42
0.0000001
 43
0.0000001
 44
0.0000000001
 40
0.0
 40
0.0
 40
0.0
 40
0.0
 40
0.0725654256
 40
0.1449226749
 40
0.2871025208
 40
0.4239719325
 40
0.4899057728
 40
0.5538919278
 40
0.6158190769
 40
0.6756625518
 40
0.7334618258
 40
0.7893662516
 40
0.843631658
 40
0.8965894345
 40
0.9485919873
 40
1.0
 40
1.0
 40
1.0
 40
1.0
 10
10.2116863722
 20
9.9011695021
 30
0.0
 10
10.2116863722
 20
9.8979044897
 30
0.0
 10
10.2114581444
 20
9.8913812988
 30
0.0
 10
10.2101150021
 20
9.8785254196
 30
0.0
 10
10.2068217949
 20
9.8630022465
 30
0.0
 10
10.2013600912
 20
9.8483993957
 30
0.0
 10
10.1957928023
 20
9.8377504203
 30
0.0
 10
10.1911412183
 20
9.8304648763
 30
0.0
 10
10.1860014312
 20
9.8238580908
 30
0.0
 10
10.1804282771
 20
9.81798903
 30
0.0
 10
10.1744705112
 20
9.8129169919
 30
0.0
 10
10.1681822469
 20
9.8086935973
 30
0.0
 10
10.1616231826
 20
9.8053571491
 30
0.0
 10
10.1548523244
 20
9.8029521095
 30
0.0
 10
10.1479477582
 20
9.8014978372
 30
0.0
 10
10.1432887489
 20
9.8011695021
 30
0.0
 10
10.1409756941
 20
9.8011695021
 30
0.0
  0
SPLINE
  5
26B
100
AcDbEntity
  8
0
100
AcDbSpline
 62
9
  6
CONTINUOUS
 70
0
 71
3
 72
19
 73
15
 74
0
 42
0.0000001
 43
0.0000001
 44
0.0000000001
 40
0.0
 40
0.0
 40
0.0
 40
0.0
 40
0.2008289496
 40
0.38099313
 40
0.5388724321
 40
0.6734180551
 40
0.7319281288
 40
0.7846599235
 40
0.8317537502
 40
0.8734773375
 40
0.9102889371
 40
0.9428890343
 40
0.9723148324
 40
1.0
 40
1.0
 40
1.0
 40
1.0
 10
11.8416055062
 20
9.9173428637
 30
0.0
 10
11.843757075
 20
9.9173428634
 30
0.0
 10
11.8478393663
 20
9.9174112928
 30
0.0
 10
11.8536047102
 20
9.9177518451
 30
0.0
 10
11.8586383449
 20
9.918321109
 30
0.0
 10
11.862340037
 20
9.9190096911
 30
0.0
 10
11.8648837938
 20
9.9196955144
 30
0.0
 10
11.8664919166
 20
9.920239654
 30
0.0
 10
11.8678879642
 20
9.9208367721
 30
0.0
 10
11.8690696537
 20
9.9214867869
 30
0.0
 10
11.8700357252
 20
9.9221894776
 30
0.0
 10
11.8707842959
 20
9.9229468591
 30
0.0
 10
11.8713098533
 20
9.9237610332
 30
0.0
 10
11.8715066873
 20
9.9243489926
 30
0.0
 10
11.871562181
 20
9.9246403584
 30
0.0
  0
SPLINE
  5
26C
100
AcDbEntity
  8
0
100
AcDbSpline
 62
9
  6
CONTINUOUS
 70
0
 71
3
 72
17
 73
13
 74
0
 42
0.0000001
 43
0.0000001
 44
0.0000000001
 40
0.0
 40
0.0
 40
0.0
 40
0.0
 40
0.0510823398
 40
0.1064463
 40
0.2277144135
 40
0.3593009104
 40
0.4964744
 40
0.6341208929
 40
0.7670972916
 40
0.890609105
 40
0.9473673475
 40
1.0
 40
1.0
 40
1.0
 40
1.0
 10
10.0337791792
 20
9.9173428637
 30
0.0
 10
10.0361967106
 20
9.9173428634
 30
0.0
 10
10.0412346277
 20
9.9174375749
 30
0.0
 10
10.0519998843
 20
9.9179617726
 30
0.0
 10
10.0665356685
 20
9.9192516247
 30
0.0
 10
10.0848424076
 20
9.92164703
 30
0.0
 10
10.1038121432
 20
9.9248480521
 30
0.0
 10
10.122720289
 20
9.9287355403
 30
0.0
 10
10.1408453907
 20
9.9331589654
 30
0.0
 10
10.1550986685
 20
9.9372562673
 30
0.0
 10
10.1655694393
 20
9.9407029731
 30
0.0
 10
10.1704401021
 20
9.9424605346
 30
0.0
 10
10.1727678923
 20
9.943347092
 30
0.0
  0
SPLINE
  5
26D
100
AcDbEntity
  8
0
100
AcDbSpline
 62
9
  6
CONTINUOUS
 70
0
 71
3
 72
15
 73
11
 74
0
 42
0.0000001
 43
0.0000001
 44
0.0000000001
 40
0.0
 40
0.0
 40
0.0
 40
0.0
 40
0.1804076979
 40
0.3441548172
 40
0.48658633
 40
0.6106487829
 40
0.7208378819
 40
0.8209036287
 40
0.9134094214
 40
1.0
 40
1.0
 40
1.0
 40
1.0
 10
10.5609333633
 20
9.9011695021
 30
0.0
 10
10.5609333049
 20
9.8958825117
 30
0.0
 10
10.5615011442
 20
9.8857852394
 30
0.0
 10
10.5639679069
 20
9.8717083865
 30
0.0
 10
10.5675936798
 20
9.85960121
 30
0.0
 10
10.5720122464
 20
9.8494564642
 30
0.0
 10
10.5769559613
 20
9.8409743762
 30
0.0
 10
10.5822120438
 20
9.8338080413
 30
0.0
 10
10.5876562826
 20
9.8276875499
 30
0.0
 10
10.5914661389
 20
9.8240683381
 30
0.0
 10
10.5933713705
 20
9.8223921715
 30
0.0
  0
SPLINE
  5
26E
100
AcDbEntity
  8
0
100
AcDbSpline
 62
7
  6
CONTINUOUS
 70
0
 71
3
 72
13
 73
9
 74
0
 42
0.0000001
 43
0.0000001
 44
0.0000000001
 40
0.0
 40
0.0
 40
0.0
 40
0.0
 40
0.1638518894
 40
0.3134561643
 40
0.5752434909
 40
0.7989980752
 40
0.901437038
 40
1.0
 40
1.0
 40
1.0
 40
1.0
 10
11.2945556434
 20
9.8111695513
 30
0.0
 10
11.2958125989
 20
9.8103720219
 30
0.0
 10
11.2982276048
 20
9.8088621502
 30
0.0
 10
11.3027332681
 20
9.8062136575
 30
0.0
 10
11.3078956012
 20
9.8036088542
 30
0.0
 10
11.3129951148
 20
9.8019170466
 30
0.0
 10
11.3168069226
 20
9.8012752949
 30
0.0
 10
11.3186345445
 20
9.8011695021
 30
0.0
 10
11.3195300046
 20
9.8011695021
 30
0.0
  0
SPLINE
  5
26F
100
AcDbEntity
  8
0
100
AcDbSpline
 62
7
  6
CONTINUOUS
 70
0
 71
3
 72
13
 73
9
 74
0
 42
0.0000001
 43
0.0000001
 44
0.0000000001
 40
0.0
 40
0.0
 40
0.0
 40
0.0
 40
0.0985633222
 40
0.2010020221
 40
0.4247558622
 40
0.6865453939
 40
0.83614849
 40
1.0
 40
1.0
 40
1.0
 40
1.0
 10
10.5558546809
 20
9.8011695021
 30
0.0
 10
10.5567501349
 20
9.8011695021
 30
0.0
 10
10.5585777391
 20
9.8012752957
 30
0.0
 10
10.5623894979
 20
9.8019170487
 30
0.0
 10
10.5674890009
 20
9.8036087468
 30
0.0
 10
10.5726512488
 20
9.8062136109
 30
0.0
 10
10.577156824
 20
9.8088621538
 30
0.0
 10
10.5795717971
 20
9.8103719954
 30
0.0
 10
10.5808287374
 20
9.8111695134
 30
0.0
  0
SPLINE
  5
270
100
AcDbEntity
  8
0
100
AcDbSpline
 62
9
  6
CONTINUOUS
 70
0
 71
3
 72
21
 73
17
 74
0
 42
0.0000001
 43
0.0000001
 44
0.0000000001
 40
0.0
 40
0.0
 40
0.0
 40
0.0
 40
0.0514048593
 40
0.1033961082
 40
0.1563331782
 40
0.21057488
 40
0.2664590935
 40
0.3242458771
 40
0.3840768774
 40
0.4459978048
 40
0.5099853472
 40
0.5759223528
 40
0.7128226306
 40
0.855058025
 40
0.9274303146
 40
1.0
 40
1.0
 40
1.0
 40
1.0
 10
11.7344089923
 20
9.8011695021
 30
0.0
 10
11.7320960786
 20
9.8011695021
 30
0.0
 10
11.7274377283
 20
9.8014975636
 30
0.0
 10
11.720534549
 20
9.802950896
 30
0.0
 10
11.7137661738
 20
9.8053553971
 30
0.0
 10
11.7072092642
 20
9.8086895338
 30
0.0
 10
11.7009224375
 20
9.812910593
 30
0.0
 10
11.6949659827
 20
9.8179809557
 30
0.0
 10
11.6893916982
 20
9.8238469933
 30
0.0
 10
11.6842519518
 20
9.8304529212
 30
0.0
 10
11.6795998746
 20
9.8377379926
 30
0.0
 10
11.6740289545
 20
9.848386884
 30
0.0
 10
11.6685654132
 20
9.8629935544
 30
0.0
 10
11.6652706562
 20
9.8785210387
 30
0.0
 10
11.6639267599
 20
9.8913802384
 30
0.0
 10
11.6636983142
 20
9.8979042969
 30
0.0
 10
11.6636983142
 20
9.9011695021
 30
0.0
  0
SPLINE
  5
271
100
AcDbEntity
  8
0
100
AcDbSpline
 62
9
  6
CONTINUOUS
 70
0
 71
3
 72
17
 73
13
 74
0
 42
0.0000001
 43
0.0000001
 44
0.0000000001
 40
0.0
 40
0.0
 40
0.0
 40
0.0
 40
0.052628364
 40
0.1093730337
 40
0.2328327578
 40
0.3657718533
 40
0.5034035471
 40
0.640592637
 40
0.7722165783
 40
0.8935361064
 40
0.9489134219
 40
1.0
 40
1.0
 40
1.0
 40
1.0
 10
11.7026167932
 20
9.943347092
 30
0.0
 10
11.7049443937
 20
9.942460607
 30
0.0
 10
11.7098142372
 20
9.940703268
 30
0.0
 10
11.7202818216
 20
9.9372574683
 30
0.0
 10
11.7345303781
 20
9.933161393
 30
0.0
 10
11.7526505966
 20
9.9287387781
 30
0.0
 10
11.7715569121
 20
9.9248509794
 30
0.0
 10
11.7905283224
 20
9.9216489886
 30
0.0
 10
11.8088399194
 20
9.9192525684
 30
0.0
 10
11.823380514
 20
9.9179621598
 30
0.0
 10
11.8341490251
 20
9.9174376632
 30
0.0
 10
11.8391877743
 20
9.9173428637
 30
0.0
 10
11.8416055062
 20
9.9173428637
 30
0.0
  0
SPLINE
  5
272
100
AcDbEntity
  8
0
100
AcDbSpline
 62
9
  6
CONTINUOUS
 70
0
 71
3
 72
18
 73
14
 74
0
 42
0.0000001
 43
0.0000001
 44
0.0000000001
 40
0.0
 40
0.0
 40
0.0
 40
0.0
 40
0.0543744016
 40
0.1084760416
 40
0.1626707408
 40
0.2173430752
 40
0.3295833738
 40
0.4482626362
 40
0.510604669
 40
0.5749953976
 40
0.7097782637
 40
0.8521247405
 40
1.0
 40
1.0
 40
1.0
 40
1.0
 10
11.6566994084
 20
10.2603035441
 30
0.0
 10
11.6579140676
 20
10.2606064364
 30
0.0
 10
11.6603791053
 20
10.2610558872
 30
0.0
 10
11.664129475
 20
10.2612450891
 30
0.0
 10
11.6678806128
 20
10.2609442278
 30
0.0
 10
11.6728706918
 20
10.2598762908
 30
0.0
 10
11.6789846615
 20
10.2572697769
 30
0.0
 10
11.6844627938
 20
10.2532307511
 30
0.0
 10
11.6884684951
 20
10.249236394
 30
0.0
 10
11.6923135768
 20
10.2445925658
 30
0.0
 10
11.6964851518
 20
10.237878741
 30
0.0
 10
11.7002872543
 20
10.2288263777
 30
0.0
 10
11.70197992
 20
10.222336326
 30
0.0
 10
11.7026167932
 20
10.2189919123
 30
0.0
  0
SPLINE
  5
273
100
AcDbEntity
  8
0
100
AcDbSpline
 62
9
  6
CONTINUOUS
 70
0
 71
3
 72
13
 73
9
 74
0
 42
0.0000001
 43
0.0000001
 44
0.0000000001
 40
0.0
 40
0.0
 40
0.0
 40
0.0
 40
0.1240090695
 40
0.2489265624
 40
0.5
 40
0.7510734376
 40
0.8759909305
 40
1.0
 40
1.0
 40
1.0
 40
1.0
 10
11.7026167932
 20
10.2189919123
 30
0.0
 10
11.7047602305
 20
10.2077360747
 30
0.0
 10
11.7085152807
 20
10.1850335897
 30
0.0
 10
11.7138958154
 20
10.1391357622
 30
0.0
 10
11.7165885826
 20
10.0811695021
 30
0.0
 10
11.7138958154
 20
10.023203242
 30
0.0
 10
11.7085152806
 20
9.9773054146
 30
0.0
 10
11.7047602304
 20
9.9546029296
 30
0.0
 10
11.7026167932
 20
9.943347092
 30
0.0
  0
SPLINE
  5
274
100
AcDbEntity
  8
0
100
AcDbSpline
 62
9
  6
CONTINUOUS
 70
0
 71
3
 72
15
 73
11
 74
0
 42
0.0000001
 43
0.0000001
 44
0.0000000001
 40
0.0
 40
0.0
 40
0.0
 40
0.0
 40
0.1456805706
 40
0.2867379731
 40
0.4215187935
 40
0.54933573
 40
0.6700429787
 40
0.7842521379
 40
0.8935573823
 40
1.0
 40
1.0
 40
1.0
 40
1.0
 10
11.7026167932
 20
9.943347092
 30
0.0
 10
11.7020535861
 20
9.9403895215
 30
0.0
 10
11.7005986976
 20
9.9346271943
 30
0.0
 10
11.6974208345
 20
9.926490839
 30
0.0
 10
11.6933442622
 20
9.9191796684
 30
0.0
 10
11.6884731131
 20
9.9128908907
 30
0.0
 10
11.6829298021
 20
9.9077859652
 30
0.0
 10
11.6768417904
 20
9.9040128741
 30
0.0
 10
11.6703726541
 20
9.901696836
 30
0.0
 10
11.6658981176
 20
9.9011695022
 30
0.0
 10
11.6636983133
 20
9.9011695021
 30
0.0
  0
SPLINE
  5
275
100
AcDbEntity
  8
0
100
AcDbSpline
 62
9
  6
CONTINUOUS
 70
0
 71
3
 72
17
 73
13
 74
0
 42
0.0000001
 43
0.0000001
 44
0.0000000001
 40
0.0
 40
0.0
 40
0.0
 40
0.0
 40
0.0510823397
 40
0.1064462998
 40
0.2277144134
 40
0.3593009104
 40
0.4964744002
 40
0.6341208932
 40
0.767097292
 40
0.8906091054
 40
0.9473673478
 40
1.0
 40
1.0
 40
1.0
 40
1.0
 10
11.8416055062
 20
10.2449961406
 30
0.0
 10
11.8391879749
 20
10.2449961409
 30
0.0
 10
11.8341500578
 20
10.2449014292
 30
0.0
 10
11.8233848012
 20
10.2443772315
 30
0.0
 10
11.808849017
 20
10.2430873793
 30
0.0
 10
11.790542278
 20
10.2406919741
 30
0.0
 10
11.7715725424
 20
10.237490952
 30
0.0
 10
11.7526643965
 20
10.2336034639
 30
0.0
 10
11.7345392948
 20
10.2291800386
 30
0.0
 10
11.7202860171
 20
10.2250827368
 30
0.0
 10
11.7098152462
 20
10.2216360314
 30
0.0
 10
11.7049445833
 20
10.2198784701
 30
0.0
 10
11.7026167931
 20
10.2189919128
 30
0.0
  0
SPLINE
  5
276
100
AcDbEntity
  8
0
100
AcDbSpline
 62
9
  6
CONTINUOUS
 70
0
 71
3
 72
18
 73
14
 74
0
 42
0.0000001
 43
0.0000001
 44
0.0000000001
 40
0.0
 40
0.0
 40
0.0
 40
0.0
 40
0.1465728732
 40
0.2888798438
 40
0.4248618089
 40
0.4901820097
 40
0.5535713634
 40
0.6743160208
 40
0.7876726973
 40
0.8421085021
 40
0.8953911013
 40
0.9478893284
 40
1.0
 40
1.0
 40
1.0
 40
1.0
 10
11.6566994084
 20
10.2603035441
 30
0.0
 10
11.6559918683
 20
10.265978301
 30
0.0
 10
11.6552815574
 20
10.2772620999
 30
0.0
 10
11.6563636337
 20
10.293848101
 30
0.0
 10
11.6590914223
 20
10.3070286504
 30
0.0
 10
11.6623544583
 20
10.3168376014
 30
0.0
 10
11.6661707732
 20
10.3258005877
 30
0.0
 10
11.6720816296
 20
10.3358683036
 30
0.0
 10
11.6796403738
 20
10.3443349328
 30
0.0
 10
11.6864054197
 20
10.3497133668
 30
0.0
 10
11.6917325557
 20
10.3530133777
 30
0.0
 10
11.6973392501
 20
10.3556018134
 30
0.0
 10
11.7012423699
 20
10.3568378624
 30
0.0
 10
11.7032152308
 20
10.3573293202
 30
0.0
  0
SPLINE
  5
277
100
AcDbEntity
  8
0
100
AcDbSpline
 62
9
  6
CONTINUOUS
 70
0
 71
3
 72
19
 73
15
 74
0
 42
0.0000001
 43
0.0000001
 44
0.0000000001
 40
0.0
 40
0.0
 40
0.0
 40
0.0
 40
0.0276818284
 40
0.057100768
 40
0.0896886878
 40
0.1264883959
 40
0.1682098354
 40
0.2153093799
 40
0.2680449219
 40
0.3265593751
 40
0.4611296789
 40
0.6190467358
 40
0.7992064393
 40
1.0
 40
1.0
 40
1.0
 40
1.0
 10
10.0038228081
 20
9.9246404177
 30
0.0
 10
10.0038785339
 20
9.9243491349
 30
0.0
 10
10.0040754699
 20
9.9237613911
 30
0.0
 10
10.0046005619
 20
9.922947239
 30
0.0
 10
10.0053485303
 20
9.9221897345
 30
0.0
 10
10.0063141718
 20
9.9214869156
 30
0.0
 10
10.0074958289
 20
9.9208370195
 30
0.0
 10
10.0088920073
 20
9.9202400497
 30
0.0
 10
10.0105002334
 20
9.9196958037
 30
0.0
 10
10.0130442813
 20
9.9190097748
 30
0.0
 10
10.0167466556
 20
9.9183210442
 30
0.0
 10
10.0217809013
 20
9.9177519897
 30
0.0
 10
10.0275461679
 20
9.9174113081
 30
0.0
 10
10.031628005
 20
9.9173428637
 30
0.0
 10
10.0337791792
 20
9.9173428637
 30
0.0
  0
SPLINE
  5
278
100
AcDbEntity
  8
0
100
AcDbSpline
 62
7
  6
CONTINUOUS
 70
0
 71
3
 72
15
 73
11
 74
0
 42
0.0000001
 43
0.0000001
 44
0.0000000001
 40
0.0
 40
0.0
 40
0.0
 40
0.0
 40
0.1203956322
 40
0.2405196115
 40
0.3616947784
 40
0.4846760193
 40
0.6098952358
 40
0.7375560042
 40
0.867650078
 40
1.0
 40
1.0
 40
1.0
 40
1.0
 10
11.2818342628
 20
9.8211879444
 30
0.0
 10
11.2780059317
 20
9.8248493172
 30
0.0
 10
11.2698460262
 20
9.8316324553
 30
0.0
 10
11.2567564638
 20
9.8406965454
 30
0.0
 10
11.2432082114
 20
9.849263137
 30
0.0
 10
11.2294402364
 20
9.8578988631
 30
0.0
 10
11.2156898348
 20
9.8670958942
 30
0.0
 10
11.2022129328
 20
9.8772309389
 30
0.0
 10
11.1892639925
 20
9.8885236611
 30
0.0
 10
11.18121242
 20
9.89682385
 30
0.0
 10
11.1773355225
 20
9.9011690422
 30
0.0
  0
SPLINE
  5
279
100
AcDbEntity
  8
0
100
AcDbSpline
 62
9
  6
CONTINUOUS
 70
0
 71
3
 72
18
 73
14
 74
0
 42
0.0000001
 43
0.0000001
 44
0.0000000001
 40
0.0
 40
0.0
 40
0.0
 40
0.0
 40
0.0920407505
 40
0.1818417734
 40
0.2675312991
 40
0.3479236028
 40
0.4915177113
 40
0.6148093204
 40
0.7230994449
 40
0.773285915
 40
0.8214765506
 40
0.913200309
 40
1.0
 40
1.0
 40
1.0
 40
1.0
 10
11.3144746813
 20
9.9011695021
 30
0.0
 10
11.3144753259
 20
9.8984079646
 30
0.0
 10
11.3143870379
 20
9.8929509787
 30
0.0
 10
11.3138817089
 20
9.8849371757
 30
0.0
 10
11.3130356475
 20
9.8773029725
 30
0.0
 10
11.3115189693
 20
9.8681329789
 30
0.0
 10
11.3089403078
 20
9.858006833
 30
0.0
 10
11.3046841749
 20
9.8475428723
 30
0.0
 10
11.300332247
 20
9.8402573515
 30
0.0
 10
11.2966144743
 20
9.8352903275
 30
0.0
 10
11.292906377
 20
9.8309516961
 30
0.0
 10
11.2880411729
 20
9.8261785762
 30
0.0
 10
11.2838972318
 20
9.8227769517
 30
0.0
 10
11.2818340327
 20
9.8211877617
 30
0.0
  0
SPLINE
  5
27A
100
AcDbEntity
  8
0
100
AcDbSpline
 62
9
  6
CONTINUOUS
 70
0
 71
3
 72
20
 73
16
 74
0
 42
0.0000001
 43
0.0000001
 44
0.0000000001
 40
0.0
 40
0.0
 40
0.0
 40
0.0
 40
0.0520780918
 40
0.1045386443
 40
0.1577845751
 40
0.2121889155
 40
0.2680683596
 40
0.325647768
 40
0.3850865556
 40
0.4464848314
 40
0.5750582002
 40
0.6422244428
 40
0.7111323418
 40
0.8534525887
 40
1.0
 40
1.0
 40
1.0
 40
1.0
 10
10.1721694511
 20
10.3573297867
 30
0.0
 10
10.17414163
 20
10.3568385535
 30
0.0
 10
10.1780431594
 20
10.3556029007
 30
0.0
 10
10.1836476322
 20
10.3530155158
 30
0.0
 10
10.1889731236
 20
10.3497181086
 30
0.0
 10
10.1939797315
 20
10.3457378007
 30
0.0
 10
10.1986288622
 20
10.341103947
 30
0.0
 10
10.2028895591
 20
10.3358567642
 30
0.0
 10
10.2067289587
 20
10.3300345665
 30
0.0
 10
10.2113116006
 20
10.3214345518
 30
0.0
 10
10.2148465146
 20
10.3119850013
 30
0.0
 10
10.2173414486
 20
10.3019561914
 30
0.0
 10
10.2191914697
 20
10.2912406379
 30
0.0
 10
10.2201026401
 20
10.2772636169
 30
0.0
 10
10.2193928867
 20
10.2659788655
 30
0.0
 10
10.2186852762
 20
10.2603035443
 30
0.0
  0
SPLINE
  5
27B
100
AcDbEntity
  8
0
100
AcDbSpline
 62
9
  6
CONTINUOUS
 70
0
 71
3
 72
21
 73
17
 74
0
 42
0.0000001
 43
0.0000001
 44
0.0000000001
 40
0.0
 40
0.0
 40
0.0
 40
0.0
 40
0.0287918484
 40
0.056643836
 40
0.1106778785
 40
0.164375666
 40
0.2193569788
 40
0.2476528402
 40
0.2765718451
 40
0.3363393222
 40
0.3984741853
 40
0.4625298024
 40
0.5948286214
 40
0.7300157999
 40
0.8653044448
 40
1.0
 40
1.0
 40
1.0
 40
1.0
 10
10.5263736449
 20
10.2690033231
 30
0.0
 10
10.5273776167
 20
10.2687536944
 30
0.0
 10
10.5293327625
 20
10.2681753588
 30
0.0
 10
10.5330270013
 20
10.2666899707
 30
0.0
 10
10.5372671597
 20
10.2642260994
 30
0.0
 10
10.5417200628
 20
10.2603948095
 30
0.0
 10
10.5449114885
 20
10.2566245922
 30
0.0
 10
10.5472090521
 20
10.2533098785
 30
0.0
 10
10.5494004383
 20
10.2497204495
 30
0.0
 10
10.5518602273
 20
10.2448817662
 30
0.0
 10
10.5543776548
 20
10.2386855587
 30
0.0
 10
10.5572594008
 20
10.2298494037
 30
0.0
 10
10.5598954345
 20
10.21820442
 30
0.0
 10
10.5617135124
 20
10.2038287131
 30
0.0
 10
10.5623428886
 20
10.1892699809
 30
0.0
 10
10.5620988879
 20
10.1795651853
 30
0.0
 10
10.5618442435
 20
10.1747320469
 30
0.0
  0
SPLINE
  5
27C
100
AcDbEntity
  8
0
100
AcDbSpline
 62
9
  6
CONTINUOUS
 70
0
 71
3
 72
16
 73
12
 74
0
 42
0.0000001
 43
0.0000001
 44
0.0000000001
 40
0.0
 40
0.0
 40
0.0
 40
0.0
 40
0.1199875226
 40
0.2504024297
 40
0.3875163316
 40
0.5262540218
 40
0.6613216203
 40
0.7878457456
 40
0.9015368608
 40
0.9527941076
 40
1.0
 40
1.0
 40
1.0
 40
1.0
 10
11.1787939642
 20
10.1746184385
 30
0.0
 10
11.184113342
 20
10.1736974887
 30
0.0
 10
11.1952627513
 20
10.1720491526
 30
0.0
 10
11.2126078207
 20
10.170231031
 30
0.0
 10
11.2308563752
 20
10.1690918116
 30
0.0
 10
11.2493454181
 20
10.1686829851
 30
0.0
 10
11.2673589181
 20
10.1690712237
 30
0.0
 10
11.2842127315
 20
10.1701894393
 30
0.0
 10
11.2972432125
 20
10.1717349763
 30
0.0
 10
11.3066615759
 20
10.1732944487
 30
0.0
 10
11.3110070276
 20
10.1741619676
 30
0.0
 10
11.3130812948
 20
10.1746184419
 30
0.0
  0
SPLINE
  5
27D
100
AcDbEntity
  8
0
100
AcDbSpline
 62
9
  6
CONTINUOUS
 70
0
 71
3
 72
23
 73
19
 74
0
 42
0.0000001
 43
0.0000001
 44
0.0000000001
 40
0.0
 40
0.0
 40
0.0
 40
0.0
 40
0.0311369057
 40
0.062354589
 40
0.0936026672
 40
0.1248573095
 40
0.1561125208
 40
0.1873675494
 40
0.2186226602
 40
0.2498777572
 40
0.3123879405
 40
0.374898128
 40
0.4374083152
 40
0.4999185024
 40
0.6249388768
 40
0.7499592512
 40
0.8749796256
 40
1.0
 40
1.0
 40
1.0
 40
1.0
 10
11.31308139
 20
10.1746175779
 30
0.0
 10
11.3133926722
 20
10.1717961254
 30
0.0
 10
11.313875524
 20
10.1661299422
 30
0.0
 10
11.3142784449
 20
10.1576049464
 30
0.0
 10
11.314448104
 20
10.1490619756
 30
0.0
 10
11.3144798992
 20
10.1405145675
 30
0.0
 10
11.3144754889
 20
10.1319665749
 30
0.0
 10
11.3144726442
 20
10.1234185265
 30
0.0
 10
11.3144755472
 20
10.1148704918
 30
0.0
 10
11.3144745889
 20
10.103473104
 30
0.0
 10
11.3144747003
 20
10.0892263716
 30
0.0
 10
11.3144746602
 20
10.0721302928
 30
0.0
 10
11.3144746932
 20
10.0550342137
 30
0.0
 10
11.314474673
 20
10.0322394417
 30
0.0
 10
11.3144746847
 20
10.0037459765
 30
0.0
 10
11.3144746805
 20
9.9695538184
 30
0.0
 10
11.3144746815
 20
9.9353616603
 30
0.0
 10
11.3144746813
 20
9.9125668882
 30
0.0
 10
11.3144746813
 20
9.9011695021
 30
0.0
  0
SPLINE
  5
27E
100
AcDbEntity
  8
0
100
AcDbSpline
 62
9
  6
CONTINUOUS
 70
0
 71
3
 72
15
 73
11
 74
0
 42
0.0000001
 43
0.0000001
 44
0.0000000001
 40
0.0
 40
0.0
 40
0.0
 40
0.0
 40
0.1230316291
 40
0.2513857048
 40
0.3827292749
 40
0.514966164
 40
0.6452109387
 40
0.7705592907
 40
0.8889965566
 40
1.0
 40
1.0
 40
1.0
 40
1.0
 10
11.3265993407
 20
10.3096020478
 30
0.0
 10
11.3266272906
 20
10.3078707196
 30
0.0
 10
11.3268466918
 20
10.3043338933
 30
0.0
 10
11.3276688881
 20
10.2990028306
 30
0.0
 10
11.3290474954
 20
10.2936508846
 30
0.0
 10
11.3310271294
 20
10.2884606531
 30
0.0
 10
11.3335520487
 20
10.2836072624
 30
0.0
 10
11.3365663552
 20
10.2792693275
 30
0.0
 10
11.3400302859
 20
10.2756444444
 30
0.0
 10
11.3426267227
 20
10.2736940178
 30
0.0
 10
11.343955304
 20
10.2728720965
 30
0.0
  0
SPLINE
  5
27F
100
AcDbEntity
  8
0
100
AcDbSpline
 62
9
  6
CONTINUOUS
 70
0
 71
3
 72
9
 73
5
 74
0
 42
0.0000001
 43
0.0000001
 44
0.0000000001
 40
0.0
 40
0.0
 40
0.0
 40
0.0
 40
0.5196751709
 40
1.0
 40
1.0
 40
1.0
 40
1.0
 10
11.343955304
 20
10.2728720965
 30
0.0
 10
11.3452638736
 20
10.2720625554
 30
0.0
 10
11.3479288921
 20
10.2707220731
 30
0.0
 10
11.3508213722
 20
10.2699760175
 30
0.0
 10
11.3522292059
 20
10.2697742258
 30
0.0
  0
SPLINE
  5
280
100
AcDbEntity
  8
0
100
AcDbSpline
 62
7
  6
CONTINUOUS
 70
0
 71
3
 72
15
 73
11
 74
0
 42
0.0000001
 43
0.0000001
 44
0.0000000001
 40
0.0
 40
0.0
 40
0.0
 40
0.0
 40
0.1321086022
 40
0.2618757397
 40
0.3892676803
 40
0.5144022927
 40
0.6375263843
 40
0.7590261406
 40
0.8795023618
 40
1.0
 40
1.0
 40
1.0
 40
1.0
 10
10.6980242938
 20
9.9011695021
 30
0.0
 10
10.6942589498
 20
9.896955339
 30
0.0
 10
10.6863760889
 20
9.8889664328
 30
0.0
 10
10.6736389498
 20
9.8782134775
 30
0.0
 10
10.6604262588
 20
9.8685611419
 30
0.0
 10
10.64702938
 20
9.8596825198
 30
0.0
 10
10.6336815232
 20
9.8511965857
 30
0.0
 10
10.6205796513
 20
9.8426927508
 30
0.0
 10
10.6079050543
 20
9.8337515584
 30
0.0
 10
10.5999321046
 20
9.8271857366
 30
0.0
 10
10.5961574146
 20
9.8236755304
 30
0.0
  0
SPLINE
  5
281
100
AcDbEntity
  8
0
100
AcDbSpline
 62
7
  6
CONTINUOUS
 70
0
 71
3
 72
27
 73
23
 74
0
 42
0.0000001
 43
0.0000001
 44
0.0000000001
 40
0.0
 40
0.0
 40
0.0
 40
0.0
 40
0.0699641877
 40
0.1378624011
 40
0.2035092543
 40
0.2667911831
 40
0.3277248239
 40
0.3865287279
 40
0.4152876832
 40
0.4437169218
 40
0.4719170593
 40
0.4999995913
 40
0.5280821238
 40
0.5562822602
 40
0.5847114965
 40
0.6134704478
 40
0.6722743453
 40
0.7332079775
 40
0.7964899092
 40
0.8621367306
 40
0.9300350353
 40
1.0
 40
1.0
 40
1.0
 40
1.0
 10
10.5586612113
 20
8.4311149989
 30
0.0
 10
10.5513812117
 20
8.4383740277
 30
0.0
 10
10.5367221514
 20
8.4523686792
 30
0.0
 10
10.5140227623
 20
8.4718613533
 30
0.0
 10
10.4908891654
 20
8.4892607103
 30
0.0
 10
10.4673090631
 20
8.5042374762
 30
0.0
 10
10.4432898124
 20
8.5164382018
 30
0.0
 10
10.4227735741
 20
8.5240498882
 30
0.0
 10
10.4062698793
 20
8.5283545873
 30
0.0
 10
10.3939266687
 20
8.5306676028
 30
0.0
 10
10.3815463272
 20
8.5320653931
 30
0.0
 10
10.3691466484
 20
8.5325323421
 30
0.0
 10
10.3567469694
 20
8.5320653931
 30
0.0
 10
10.3443666294
 20
8.5306675947
 30
0.0
 10
10.3320234191
 20
8.5283545838
 30
0.0
 10
10.3155197286
 20
8.5240498753
 30
0.0
 10
10.2950034931
 20
8.5164381908
 30
0.0
 10
10.2709842439
 20
8.504237466
 30
0.0
 10
10.2474041514
 20
8.4892606916
 30
0.0
 10
10.2242705528
 20
8.4718613345
 30
0.0
 10
10.2015709444
 20
8.4523686991
 30
0.0
 10
10.1869123554
 20
8.4383733702
 30
0.0
 10
10.1796322749
 20
8.4311142608
 30
0.0
  0
SPLINE
  5
282
100
AcDbEntity
  8
0
100
AcDbSpline
 62
9
  6
CONTINUOUS
 70
0
 71
3
 72
19
 73
15
 74
0
 42
0.0000001
 43
0.0000001
 44
0.0000000001
 40
0.0
 40
0.0
 40
0.0
 40
0.0
 40
0.1321072361
 40
0.2651567585
 40
0.3984858384
 40
0.5294016515
 40
0.5929944894
 40
0.6548737368
 40
0.7147072509
 40
0.7724230159
 40
0.8284955936
 40
0.8839459755
 40
0.9404077122
 40
1.0
 40
1.0
 40
1.0
 40
1.0
 10
11.3130813939
 20
10.1746175787
 30
0.0
 10
11.312639444
 20
10.1793726283
 30
0.0
 10
11.3120599599
 20
10.188949252
 30
0.0
 10
11.3122964766
 20
10.2033688506
 30
0.0
 10
11.3138277167
 20
10.2176697948
 30
0.0
 10
11.3163145148
 20
10.2292879976
 30
0.0
 10
11.3191360937
 20
10.2381233325
 30
0.0
 10
11.3216472625
 20
10.2443415635
 30
0.0
 10
11.3246107989
 20
10.2501227425
 30
0.0
 10
11.3280713036
 20
10.2553770578
 30
0.0
 10
11.3321067387
 20
10.2600046191
 30
0.0
 10
11.3368010094
 20
10.2639038732
 30
0.0
 10
11.3422335037
 20
10.2669623218
 30
0.0
 10
11.3462339675
 20
10.2683120098
 30
0.0
 10
11.3483245883
 20
10.2688315172
 30
0.0
  0
SPLINE
  5
283
100
AcDbEntity
  8
0
100
AcDbSpline
 62
7
  6
CONTINUOUS
 70
0
 71
3
 72
27
 73
23
 74
0
 42
0.0000001
 43
0.0000001
 44
0.0000000001
 40
0.0
 40
0.0
 40
0.0
 40
0.0
 40
0.0699657874
 40
0.1378641398
 40
0.2035108758
 40
0.2667927564
 40
0.3277263381
 40
0.3865301801
 40
0.4152891022
 40
0.4437183056
 40
0.4719184058
 40
0.5000008983
 40
0.528083389
 40
0.5562834815
 40
0.5847126721
 40
0.613471576
 40
0.6722753752
 40
0.7332089063
 40
0.7964907326
 40
0.8621374666
 40
0.930035611
 40
1.0
 40
1.0
 40
1.0
 40
1.0
 10
11.6957525946
 20
8.4311130456
 30
0.0
 10
11.6884724102
 20
8.4383722586
 30
0.0
 10
11.6738143591
 20
8.4523684082
 30
0.0
 10
11.6511144768
 20
8.4718610497
 30
0.0
 10
11.6279808549
 20
8.4892604596
 30
0.0
 10
11.604400748
 20
8.5042372954
 30
0.0
 10
11.5803814733
 20
8.5164380667
 30
0.0
 10
11.5598652168
 20
8.5240497963
 30
0.0
 10
11.5433615056
 20
8.5283545266
 30
0.0
 10
11.531018283
 20
8.5306675643
 30
0.0
 10
11.5186379289
 20
8.5320653749
 30
0.0
 10
11.5062382369
 20
8.5325323424
 30
0.0
 10
11.4938385445
 20
8.53206541
 30
0.0
 10
11.4814581909
 20
8.5306676259
 30
0.0
 10
11.4691149666
 20
8.5283546273
 30
0.0
 10
11.4526112574
 20
8.5240499321
 30
0.0
 10
11.4320949978
 20
8.5164382583
 30
0.0
 10
11.4080757217
 20
8.5042375353
 30
0.0
 10
11.3844955981
 20
8.4892607616
 30
0.0
 10
11.3613619754
 20
8.4718613939
 30
0.0
 10
11.3386624756
 20
8.4523687193
 30
0.0
 10
11.3240035867
 20
8.4383737869
 30
0.0
 10
11.316723546
 20
8.4311147209
 30
0.0
  0
SPLINE
  5
284
100
AcDbEntity
  8
0
100
AcDbSpline
 62
7
  6
CONTINUOUS
 70
0
 71
3
 72
21
 73
17
 74
0
 42
0.0000001
 43
0.0000001
 44
0.0000000001
 40
0.0
 40
0.0
 40
0.0
 40
0.0
 40
0.0625075666
 40
0.125015089
 40
0.2499846807
 40
0.3124897058
 40
0.3749938371
 40
0.4374971785
 40
0.5000000212
 40
0.562502862
 40
0.6250061942
 40
0.6875103168
 40
0.7500153315
 40
0.8749849125
 40
0.9374924326
 40
1.0
 40
1.0
 40
1.0
 40
1.0
 10
11.3167216946
 20
8.4311147209
 30
0.0
 10
11.3019590702
 20
8.4384747744
 30
0.0
 10
11.2721687476
 20
8.4526756078
 30
0.0
 10
11.2115242286
 20
8.4786663314
 30
0.0
 10
11.149102112
 20
8.500456177
 30
0.0
 10
11.0851074289
 20
8.5166275759
 30
0.0
 10
11.0364048865
 20
8.5256067991
 30
0.0
 10
10.9871872379
 20
8.5311325307
 30
0.0
 10
10.9376925037
 20
8.5329990906
 30
0.0
 10
10.8881977711
 20
8.5311325535
 30
0.0
 10
10.838980125
 20
8.5256068465
 30
0.0
 10
10.7902775855
 20
8.5166276479
 30
0.0
 10
10.7262829044
 20
8.5004562763
 30
0.0
 10
10.6638607772
 20
8.47866647
 30
0.0
 10
10.6032162762
 20
8.4526757212
 30
0.0
 10
10.5734258769
 20
8.4384750493
 30
0.0
 10
10.5586632507
 20
8.4311149989
 30
0.0
  0
SPLINE
  5
285
100
AcDbEntity
  8
0
100
AcDbSpline
 62
9
  6
CONTINUOUS
 70
0
 71
3
 72
15
 73
11
 74
0
 42
0.0000001
 43
0.0000001
 44
0.0000000001
 40
0.0
 40
0.0
 40
0.0
 40
0.0
 40
0.1064426495
 40
0.2157479635
 40
0.3299571612
 40
0.450664417
 40
0.5784813633
 40
0.7132621539
 40
0.8543194687
 40
1.0
 40
1.0
 40
1.0
 40
1.0
 10
10.2116863722
 20
9.9011695021
 30
0.0
 10
10.2094865672
 20
9.9011695021
 30
0.0
 10
10.2050120288
 20
9.9016968377
 30
0.0
 10
10.1985428896
 20
9.9040128761
 30
0.0
 10
10.1924548768
 20
9.9077859704
 30
0.0
 10
10.186911566
 20
9.9128908976
 30
0.0
 10
10.1820404182
 20
9.919179676
 30
0.0
 10
10.1779638485
 20
9.9264908453
 30
0.0
 10
10.174785986
 20
9.9346271973
 30
0.0
 10
10.1733310992
 20
9.9403895223
 30
0.0
 10
10.1727678923
 20
9.943347092
 30
0.0
  0
SPLINE
  5
286
100
AcDbEntity
  8
0
100
AcDbSpline
 62
9
  6
CONTINUOUS
 70
0
 71
3
 72
19
 73
15
 74
0
 42
0.0000001
 43
0.0000001
 44
0.0000000001
 40
0.0
 40
0.0
 40
0.0
 40
0.0
 40
0.2008289502
 40
0.3809931313
 40
0.5388724336
 40
0.6734180565
 40
0.73192813
 40
0.7846599245
 40
0.831753751
 40
0.8734773381
 40
0.9102889376
 40
0.9428890347
 40
0.9723148326
 40
1.0
 40
1.0
 40
1.0
 40
1.0
 10
10.0337791793
 20
10.2449961406
 30
0.0
 10
10.0316276105
 20
10.2449961409
 30
0.0
 10
10.0275453192
 20
10.2449277114
 30
0.0
 10
10.0217799752
 20
10.244587159
 30
0.0
 10
10.0167463405
 20
10.244017895
 30
0.0
 10
10.0130446485
 20
10.2433293129
 30
0.0
 10
10.0105008916
 20
10.2426434896
 30
0.0
 10
10.0088927688
 20
10.24209935
 30
0.0
 10
10.0074967212
 20
10.2415022319
 30
0.0
 10
10.0063150317
 20
10.2408522171
 30
0.0
 10
10.0053489602
 20
10.2401495264
 30
0.0
 10
10.0046003895
 20
10.239392145
 30
0.0
 10
10.0040748322
 20
10.2385779708
 30
0.0
 10
10.0038779981
 20
10.2379900114
 30
0.0
 10
10.0038225044
 20
10.2376986457
 30
0.0
  0
SPLINE
  5
287
100
AcDbEntity
  8
0
100
AcDbSpline
 62
9
  6
CONTINUOUS
 70
0
 71
3
 72
13
 73
9
 74
0
 42
0.0000001
 43
0.0000001
 44
0.0000000001
 40
0.0
 40
0.0
 40
0.0
 40
0.0
 40
0.1240090695
 40
0.2489265624
 40
0.5
 40
0.7510734376
 40
0.8759909305
 40
1.0
 40
1.0
 40
1.0
 40
1.0
 10
10.1727678923
 20
9.943347092
 30
0.0
 10
10.170624455
 20
9.9546029296
 30
0.0
 10
10.1668694048
 20
9.9773054146
 30
0.0
 10
10.1614888701
 20
10.023203242
 30
0.0
 10
10.1587961028
 20
10.0811695021
 30
0.0
 10
10.1614888701
 20
10.1391357622
 30
0.0
 10
10.1668694048
 20
10.1850335897
 30
0.0
 10
10.170624455
 20
10.2077360747
 30
0.0
 10
10.1727678923
 20
10.2189919123
 30
0.0
  0
SPLINE
  5
288
100
AcDbEntity
  8
0
100
AcDbSpline
 62
9
  6
CONTINUOUS
 70
0
 71
3
 72
18
 73
14
 74
0
 42
0.0000001
 43
0.0000001
 44
0.0000000001
 40
0.0
 40
0.0
 40
0.0
 40
0.0
 40
0.1478753243
 40
0.2902219458
 40
0.4250048587
 40
0.4893955835
 40
0.551737603
 40
0.6704168523
 40
0.7826570887
 40
0.8373293671
 40
0.8915240095
 40
0.9456256114
 40
1.0
 40
1.0
 40
1.0
 40
1.0
 10
10.1727678923
 20
10.2189919123
 30
0.0
 10
10.1734047658
 20
10.2223363275
 30
0.0
 10
10.1750974351
 20
10.2288263832
 30
0.0
 10
10.1788995383
 20
10.2378787528
 30
0.0
 10
10.1830711192
 20
10.2445925791
 30
0.0
 10
10.1869162013
 20
10.2492364078
 30
0.0
 10
10.1909219051
 20
10.2532307615
 30
0.0
 10
10.1964000367
 20
10.257269785
 30
0.0
 10
10.2025140053
 20
10.2598762934
 30
0.0
 10
10.2075040802
 20
10.2609442302
 30
0.0
 10
10.2112552146
 20
10.2612450909
 30
0.0
 10
10.2150055818
 20
10.2610558876
 30
0.0
 10
10.2174706181
 20
10.2606064363
 30
0.0
 10
10.218685277
 20
10.2603035441
 30
0.0
  0
ENDSEC
  0
SECTION
  2
OBJECTS
  0
DICTIONARY
  5
C
100
AcDbDictionary
280
0
281
1
  3
ACAD_GROUP
350
D
  3
ACAD_MLINESTYLE
350
17
  3
ACAD_LAYOUT
350
1A
  3
ACAD_PLOTSETTINGS
350
19
  3
ACAD_PLOTSTYLENAME
350
E
  0
DICTIONARY
  5
D
102
{ACAD_REACTORS
330
C
102
}
100
AcDbDictionary
280
0
281
1
  0
ACDBDICTIONARYWDFLT
  5
E
102
{ACAD_REACTORS
330
C
102
}
100
AcDbDictionary
281
1
  3
Normal
350
F
100
AcDbDictionaryWithDefault
340
F
  0
DICTIONARY
  5
17
102
{ACAD_REACTORS
330
C
102
}
100
AcDbDictionary
280
0
281
1
  3
Standard
350
18
  0
DICTIONARY
  5
19
102
{ACAD_REACTORS
330
C
102
}
100
AcDbDictionary
281
1
  0
DICTIONARY
  5
1A
102
{ACAD_REACTORS
330
C
102
}
100
AcDbDictionary
281
1
  3
Model
350
289
  3
Layout1
350
28A
  0
ACDBPLACEHOLDER
  5
F
102
{ACAD_REACTORS
330
E
102
}
  0
MLINESTYLE
  5
18
102
{ACAD_REACTORS
330
17
102
}
100
AcDbMlineStyle
  2
STANDARD
 70
0
  3

 62
256
 51
90.0
 52
90.0
 71
2
 49
0.5
 62
256
  6
BYLAYER
 49
-0.5
 62
256
  6
BYLAYER
  0
LAYOUT
  5
289
102
{ACAD_REACTORS
330
1A
102
}
100
AcDbPlotSettings
  1

  2
none_device
  4
ANSI_C_(22.00_x_17.00_Inches)
  6

 40
0.0
 41
0.0
 42
0.0
 43
0.0
 44
558.8
 45
431.8
 46
0.0
 47
0.0
 48
0.0
 49
0.0
140
0.0
141
0.0
142
1.0
143
1.0
 70
1024
 72
0
 73
0
 74
0
  7

 75
0
147
1.0
148
0.0
149
0.0
100
AcDbLayout
  1
Model
 70
0
 71
0
 10
0.0
 20
0.0
 11
22.0
 21
17.0
 12
0.0
 22
0.0
 32
0.0
 14
0.0
 24
0.0
 34
0.0
 15
0.0
 25
0.0
 35
0.0
146
0.0
 13
0.0
 23
0.0
 33
0.0
 16
1.0
 26
0.0
 36
0.0
 17
0.0
 27
1.0
 37
0.0
 76
0
330
202
345
0
346
0
  0
LAYOUT
  5
28A
102
{ACAD_REACTORS
330
1A
102
}
100
AcDbPlotSettings
  1

  2
none_device
  4
ANSI_C_(22.00_x_17.00_Inches)
  6

 40
0.0
 41
0.0
 42
0.0
 43
0.0
 44
558.8
 45
431.8
 46
0.0
 47
0.0
 48
0.0
 49
0.0
140
0.0
141
0.0
142
1.0
143
1.0
 70
0
 72
0
 73
0
 74
0
  7

 75
0
147
1.0
148
0.0
149
0.0
100
AcDbLayout
  1
Layout1
 70
0
 71
1
 10
0.0
 20
0.0
 11
22.0
 21
17.0
 12
0.0
 22
0.0
 32
0.0
 14
0.0
 24
0.0
 34
0.0
 15
0.0
 25
0.0
 35
0.0
146
0.0
 13
0.0
 23
0.0
 33
0.0
 16
1.0
 26
0.0
 36
0.0
 17
0.0
 27
1.0
 37
0.0
 76
0
330
203
345
0
346
0
  0
ENDSEC
  0
EOF
