999
DXF file: E:\BT Custom\CADOUTPUT\_TOP.dxf
999
Pro/ENGINEER 2018400 by Parametric Technology Corporation
  0
SECTION
  2
HEADER
  9
$ACADVER
  1
AC1018
  9
$DWGCODEPAGE
  3
ANSI_1252
  9
$EXTMAX
 10
22.0
 20
17.0
 30
0.0
  9
$EXTMIN
 10
0.0
 20
0.0
 30
0.0
  9
$LIMMIN
 10
0.0
 20
0.0
  9
$LIMMAX
 10
22.0
 20
17.0
  9
$VIEWCTR
 10
11.0
 20
8.5
  9
$VIEWSIZE
 40
17.0
  9
$CLAYER
  8
0
  9
$LTSCALE
 40
1.21
  9
$CELTYPE
  6
BYLAYER
  9
$DIMSCALE
 40
1.0
  9
$DIMASZ
 40
0.1
  9
$DIMEXO
 40
0.0625
  9
$DIMDLI
 40
0.836
  9
$DIMEXE
 40
0.125
  9
$DIMCEN
 40
0.198
  9
$DIMLFAC
 40
1.0
  9
$DIMBLK
  1
_FILLED
  9
$DIMALT
 70
1
  9
$DIMALTD
 70
2
  9
$DIMALTTD
 70
2
  9
$DIMALTF
 40
25.4
  9
$DIMTXT
 40
0.08
  9
$DIMTOL
 70
1
  9
$DIMLIM
 70
0
  9
$DIMTFAC
 40
1.0
  9
$DIMTP
 40
0.001
  9
$DIMTM
 40
0.001
  9
$DIMGAP
 40
0.09
  9
$DIMDSEP
 70
46
  9
$AUNITS
 70
0
  9
$PDMODE
 70
3
  9
$PDSIZE
 40
0.06
  9
$HANDSEED
  5
46D
  9
$TILEMODE
 70
1
  9
$MEASUREMENT
 70
0
  9
$INSUNITS
 70
1
  0
ENDSEC
  0
SECTION
  2
CLASSES
  0
CLASS
  1
ACDBDICTIONARYWDFLT
  2
AcDbDictionaryWithDefault
  3
AutoCAD 2000
 90
0
 91
1
280
0
281
0
  0
CLASS
  1
ACDBPLACEHOLDER
  2
AcDbPlaceHolder
  3
AutoCAD 2000
 90
0
 91
1
280
0
281
0
  0
CLASS
  1
LAYOUT
  2
AcDbLayout
  3
AutoCAD 2000
 90
0
 91
0
280
0
281
0
  0
ENDSEC
  0
SECTION
  2
TABLES
  0
TABLE
  2
VPORT
  5
8
100
AcDbSymbolTable
 70
2
  0
VPORT
  5
1F4
100
AcDbSymbolTableRecord
100
AcDbViewportTableRecord
  2
*ACTIVE
 70
0
 10
0.0
 20
0.0
 11
1.0
 21
1.0
 12
11.0
 22
8.5
 13
0.0
 23
0.0
 14
1.0
 24
1.0
 15
0.0
 25
0.0
 16
0.0
 26
0.0
 36
1.0
 17
0.0
 27
0.0
 37
0.0
 40
17.0
 41
1.2941176471
 42
50.0
 43
0.0
 44
0.0
 50
0.0
 51
0.0
 71
0
 72
100
 73
1
 74
1
 75
0
 76
0
 77
0
 78
0
  0
ENDTAB
  0
TABLE
  2
LTYPE
  5
5
100
AcDbSymbolTable
 70
6
  0
LTYPE
  5
14
100
AcDbSymbolTableRecord
100
AcDbLinetypeTableRecord
  2
BYBLOCK
 70
0
  3

 72
65
 73
0
 40
0.0
  0
LTYPE
  5
15
100
AcDbSymbolTableRecord
100
AcDbLinetypeTableRecord
  2
BYLAYER
 70
0
  3

 72
65
 73
0
 40
0.0
  0
LTYPE
  5
16
100
AcDbSymbolTableRecord
100
AcDbLinetypeTableRecord
  2
CONTINUOUS
 70
64
  3
Solid line
 72
65
 73
0
 40
0.0
  0
LTYPE
  5
1F5
100
AcDbSymbolTableRecord
100
AcDbLinetypeTableRecord
  2
CENTER
 70
64
  3
____ _ ____ _ ____ _ ____ _ ____ _ ____ _ ____
 72
65
 73
4
 40
0.6
 49
0.375
 74
0
 49
-0.075
 74
0
 49
0.075
 74
0
 49
-0.075
 74
0
  0
LTYPE
  5
1F6
100
AcDbSymbolTableRecord
100
AcDbLinetypeTableRecord
  2
HIDDEN
 70
64
  3
- - - - - - - - - - - - - - - - - - - -
 72
65
 73
2
 40
0.2
 49
0.1
 74
0
 49
-0.1
 74
0
  0
LTYPE
  5
1F7
100
AcDbSymbolTableRecord
100
AcDbLinetypeTableRecord
  2
PHANTOM
 70
64
  3
_____ _ _ _____ _ _ _____ _ _ _____
 72
65
 73
6
 40
0.8
 49
0.45
 74
0
 49
-0.05
 74
0
 49
0.1
 74
0
 49
-0.05
 74
0
 49
0.1
 74
0
 49
-0.05
 74
0
  0
LTYPE
  5
1F8
100
AcDbSymbolTableRecord
100
AcDbLinetypeTableRecord
  2
DOT
 70
64
  3
. . . . . . . . . . . . . . . . . . . .
 72
65
 73
2
 40
0.2
 49
0.1
 74
0
 49
-0.1
 74
0
  0
LTYPE
  5
1F9
100
AcDbSymbolTableRecord
100
AcDbLinetypeTableRecord
  2
DASHED
 70
64
  3
- - - - - - - - - - - - - - - - - - - -
 72
65
 73
2
 40
0.2
 49
0.1
 74
0
 49
-0.1
 74
0
  0
ENDTAB
  0
TABLE
  2
LAYER
  5
2
100
AcDbSymbolTable
 70
36
  0
LAYER
  5
10
100
AcDbSymbolTableRecord
100
AcDbLayerTableRecord
  2
0
 70
0
 62
7
  6
CONTINUOUS
370
-3
390
F
  0
LAYER
  5
1FA
100
AcDbSymbolTableRecord
100
AcDbLayerTableRecord
  2
DEFAULT_1
 70
0
 62
7
  6
CENTER
370
-3
390
F
  0
LAYER
  5
1FB
100
AcDbSymbolTableRecord
100
AcDbLayerTableRecord
  2
DEFAULT_2
 70
0
 62
8
  6
HIDDEN
370
-3
390
F
  0
LAYER
  5
1FC
100
AcDbSymbolTableRecord
100
AcDbLayerTableRecord
  2
DEFAULT_3
 70
0
 62
7
  6
PHANTOM
370
-3
390
F
  0
LAYER
  5
1FD
100
AcDbSymbolTableRecord
100
AcDbLayerTableRecord
  2
ALL_FEATURES
 70
0
 62
7
  6
CONTINUOUS
370
-3
390
F
  0
LAYER
  5
1FE
100
AcDbSymbolTableRecord
100
AcDbLayerTableRecord
  2
AXES_FEATURES
 70
0
 62
7
  6
CONTINUOUS
370
-3
390
F
  0
LAYER
  5
1FF
100
AcDbSymbolTableRecord
100
AcDbLayerTableRecord
  2
DIMENSIONS
 70
0
 62
7
  6
CONTINUOUS
370
-3
390
F
  0
ENDTAB
  0
TABLE
  2
STYLE
  5
3
100
AcDbSymbolTable
 70
1
  0
STYLE
  5
11
100
AcDbSymbolTableRecord
100
AcDbTextStyleTableRecord
  2
STANDARD
 70
0
 40
0.0
 41
0.8
 50
0.0
 71
0
 42
0.2
  3
txt
  4

  0
STYLE
  5
200
100
AcDbSymbolTableRecord
100
AcDbTextStyleTableRecord
  2
TEXTSTYLE_1
 70
0
 40
0.0
 41
0.8
 50
0.0
 71
0
 42
0.2
  3
gdt
  4

  0
ENDTAB
  0
TABLE
  2
VIEW
  5
6
100
AcDbSymbolTable
 70
0
  0
ENDTAB
  0
TABLE
  2
UCS
  5
7
100
AcDbSymbolTable
 70
0
  0
ENDTAB
  0
TABLE
  2
APPID
  5
9
100
AcDbSymbolTable
 70
1
  0
APPID
  5
201
100
AcDbSymbolTableRecord
100
AcDbRegAppTableRecord
  2
ACAD
 70
0
  0
ENDTAB
  0
TABLE
  2
BLOCK_RECORD
  5
1
100
AcDbSymbolTable
 70
0
  0
BLOCK_RECORD
  5
202
100
AcDbSymbolTableRecord
100
AcDbBlockTableRecord
  2
*Model_Space
  0
BLOCK_RECORD
  5
203
100
AcDbSymbolTableRecord
100
AcDbBlockTableRecord
  2
*Paper_Space
  0
BLOCK_RECORD
  5
204
100
AcDbSymbolTableRecord
100
AcDbBlockTableRecord
  2
_FILLED
  0
ENDTAB
  0
TABLE
  2
DIMSTYLE
  5
A
100
AcDbSymbolTable
 70
1
100
AcDbDimStyleTable
 71
0
  0
DIMSTYLE
105
205
100
AcDbSymbolTableRecord
100
AcDbDimStyleTableRecord
  2
STANDARD
 70
0
  3

  4

 40
1.0
 41
0.1
 42
0.0625
 43
0.38
 44
0.125
 45
0.0
 46
0.0
 47
0.001
 48
0.001
140
0.08
141
0.09
142
0.0
143
25.4
144
1.0
145
0.0
146
1.0
147
0.09
 71
1.0
 72
0.0
 73
1
 74
1
 75
0
 76
0
 77
0
 78
4
 79
1
170
1
171
2
172
0
173
0
174
0
175
0
176
0
177
0
178
0
270
2
179
3
271
3
272
3
273
2
274
2
275
0
280
0
281
0
282
0
283
1
284
4
285
0
286
0
287
3
288
0
340
11
278
46
341
204
342
204
343
204
344
204
  0
ENDTAB
  0
ENDSEC
  0
SECTION
  2
BLOCKS
  0
BLOCK
  5
20
100
AcDbEntity
  8
0
100
AcDbBlockBegin
  2
*Model_Space
 70
0
 10
0.0
 20
0.0
 30
0.0
  3
*Model_Space
  1

  0
ENDBLK
  5
21
100
AcDbEntity
  8
0
100
AcDbBlockEnd
  0
BLOCK
  5
1C
100
AcDbEntity
  8
0
100
AcDbBlockBegin
  2
*Paper_Space
 70
0
 10
0.0
 20
0.0
 30
0.0
  3
*Paper_Space
  1

  0
ENDBLK
  5
1D
100
AcDbEntity
  8
0
100
AcDbBlockEnd
  0
BLOCK
  5
206
100
AcDbEntity
  8
0
100
AcDbBlockBegin
  2
_FILLED
 70
64
 10
0.0
 20
0.0
  3
_FILLED
  1

  0
SOLID
  5
207
100
AcDbEntity
  8
0
  6
BYBLOCK
 62
0
100
AcDbTrace
 10
0.0
 20
0.0
 11
-1.0
 21
0.2
 12
-1.0
 22
-0.2
 13
-1.0
 23
-0.2
  0
ENDBLK
  5
208
100
AcDbEntity
  8
0
  6
BYBLOCK
 62
0
100
AcDbBlockEnd
  0
ENDSEC
  0
SECTION
  2
ENTITIES
  0
LINE
  5
209
100
AcDbEntity
  8
0
100
AcDbLine
 62
7
  6
CONTINUOUS
 10
10.2892582705
 20
7.4823333078
 11
10.5149631741
 21
7.8732656684
  0
LINE
  5
20A
100
AcDbEntity
  8
0
100
AcDbLine
 62
7
  6
CONTINUOUS
 10
10.6184907921
 20
8.0525807628
 11
10.6682871351
 21
8.1388305588
  0
LINE
  5
20B
100
AcDbEntity
  8
0
100
AcDbLine
 62
7
  6
CONTINUOUS
 10
11.4263476902
 20
6.8258318604
 11
10.6682892463
 21
6.8258318604
  0
LINE
  5
20C
100
AcDbEntity
  8
0
100
AcDbLine
 62
7
  6
CONTINUOUS
 10
10.6682872069
 20
6.8258330377
 11
10.6184907921
 21
6.912082958
  0
LINE
  5
20D
100
AcDbEntity
  8
0
100
AcDbLine
 62
7
  6
CONTINUOUS
 10
10.5149631741
 20
7.0913980525
 11
10.2892582705
 21
7.482330413
  0
LINE
  5
20E
100
AcDbEntity
  8
0
100
AcDbLine
 62
7
  6
CONTINUOUS
 10
10.5636783881
 20
7.7860598011
 11
10.5638303609
 21
7.7844046687
  0
LWPOLYLINE
  5
20F
100
AcDbEntity
  8
0
100
AcDbPolyline
 62
7
  6
CONTINUOUS
 90
3
 70
0
 10
10.5639580135
 20
7.7827670519
 10
10.5640621599
 20
7.7811466399
 10
10.5641435736
 20
7.7795430988
  0
LINE
  5
210
100
AcDbEntity
  8
0
100
AcDbLine
 62
7
  6
CONTINUOUS
 10
10.5632243851
 20
7.7900084573
 11
10.5642389116
 21
7.771904578
  0
LINE
  5
211
100
AcDbEntity
  8
0
100
AcDbLine
 62
7
  6
CONTINUOUS
 10
10.5639137667
 20
7.7833977278
 11
10.5642475635
 21
7.7723962749
  0
LINE
  5
212
100
AcDbEntity
  8
0
100
AcDbLine
 62
7
  6
CONTINUOUS
 10
10.5642029887
 20
7.777956073
 11
10.5642410998
 21
7.7763851871
  0
LINE
  5
213
100
AcDbEntity
  8
0
100
AcDbLine
 62
7
  6
CONTINUOUS
 10
10.5642585631
 20
7.7748300477
 11
10.5642559965
 21
7.7732902446
  0
LWPOLYLINE
  5
214
100
AcDbEntity
  8
0
100
AcDbPolyline
 62
7
  6
CONTINUOUS
 90
7
 70
0
 10
10.5642616662
 20
7.774317877
 10
10.5642280499
 20
7.7714206317
 10
10.564122258
 20
7.76847852
 10
10.56394104
 20
7.765494949
 10
10.5636812766
 20
7.762473275
 10
10.5633401091
 20
7.7594179557
 10
10.5631034525
 20
7.7577011764
  0
LINE
  5
215
100
AcDbEntity
  8
0
100
AcDbLine
 62
7
  6
CONTINUOUS
 10
10.5642339804
 20
7.7717653524
 11
10.5641930583
 21
7.7702549324
  0
LINE
  5
216
100
AcDbEntity
  8
0
100
AcDbLine
 62
7
  6
CONTINUOUS
 10
10.5641337372
 20
7.7687585333
 11
10.564056489
 21
7.7672757052
  0
LINE
  5
217
100
AcDbEntity
  8
0
100
AcDbLine
 62
7
  6
CONTINUOUS
 10
10.5639617889
 20
7.765806524
 11
10.5638501644
 21
7.7643517879
  0
LINE
  5
218
100
AcDbEntity
  8
0
100
AcDbLine
 62
7
  6
CONTINUOUS
 10
10.5642475635
 20
7.7723962749
 11
10.5631445687
 21
7.7581554513
  0
LINE
  5
219
100
AcDbEntity
  8
0
100
AcDbLine
 62
7
  6
CONTINUOUS
 10
10.5642389116
 20
7.771904578
 11
10.5629473644
 21
7.7573696123
  0
LINE
  5
21A
100
AcDbEntity
  8
0
100
AcDbLine
 62
7
  6
CONTINUOUS
 10
10.5637221755
 20
7.7629123348
 11
10.563578411
 21
7.7614889888
  0
LINE
  5
21B
100
AcDbEntity
  8
0
100
AcDbLine
 62
7
  6
CONTINUOUS
 10
10.5634194874
 20
7.7600825596
 11
10.5632460478
 21
7.7586938421
  0
LWPOLYLINE
  5
21C
100
AcDbEntity
  8
0
100
AcDbPolyline
 62
7
  6
CONTINUOUS
 90
3
 70
0
 10
10.7385148147
 20
6.9980809806
 10
10.7402242027
 20
6.9983112553
 10
10.741915298
 20
6.9985145179
  0
LWPOLYLINE
  5
21D
100
AcDbEntity
  8
0
100
AcDbPolyline
 62
7
  6
CONTINUOUS
 90
69
 70
0
 10
11.3236715461
 20
6.9982592651
 10
11.323807321
 20
6.9982774673
 10
11.3248269646
 20
6.9984053239
 10
11.3258567487
 20
6.9985254645
 10
11.326896517
 20
6.9986376338
 10
11.3279461092
 20
6.9987415784
 10
11.3290053608
 20
6.998837047
 10
11.3300741034
 20
6.9989237904
 10
11.3311521641
 20
6.9990015616
 10
11.3322393663
 20
6.9990701163
 10
11.333335529
 20
6.9991292126
 10
11.33444049
 20
6.9991786121
 10
11.3355541468
 20
6.9992180807
 10
11.3366764039
 20
6.9992473839
 10
11.3378071617
 20
6.9992662866
 10
11.3389463162
 20
6.9992745531
 10
11.3400937592
 20
6.9992719473
 10
11.3412493783
 20
6.9992582327
 10
11.3424130564
 20
6.999233172
 10
11.3435846722
 20
6.9991965281
 10
11.3447640995
 20
6.9991480634
 10
11.3459512078
 20
6.9990875401
 10
11.3471458619
 20
6.9990147204
 10
11.3483479218
 20
6.9989293665
 10
11.3495572426
 20
6.9988312407
 10
11.3507736748
 20
6.9987201054
 10
11.3519970638
 20
6.9985957233
 10
11.3532272501
 20
6.9984578573
 10
11.354464069
 20
6.9983062709
 10
11.3557073509
 20
6.9981407282
 10
11.3569569209
 20
6.9979609936
 10
11.358212599
 20
6.9977668324
 10
11.3594741997
 20
6.9975580109
 10
11.3607415322
 20
6.9973342961
 10
11.3620143998
 20
6.9970954562
 10
11.3632925852
 20
6.9968412637
 10
11.3645758596
 20
6.9965714944
 10
11.3658639907
 20
6.9962859259
 10
11.367156741
 20
6.9959843382
 10
11.3684538672
 20
6.9956665139
 10
11.3697551208
 20
6.9953322384
 10
11.3710602476
 20
6.9949812995
 10
11.3723689877
 20
6.9946134885
 10
11.3736810758
 20
6.9942285993
 10
11.374996241
 20
6.9938264293
 10
11.3763142066
 20
6.9934067795
 10
11.3776346902
 20
6.9929694541
 10
11.3789574039
 20
6.9925142612
 10
11.380282054
 20
6.992041013
 10
11.381608341
 20
6.9915495255
 10
11.3829359596
 20
6.9910396192
 10
11.384264599
 20
6.990511119
 10
11.3855939425
 20
6.9899638543
 10
11.3869236676
 20
6.9893976595
 10
11.3882534461
 20
6.988812374
 10
11.389582284
 20
6.9882081475
 10
11.3909072537
 20
6.987586094
 10
11.3922280159
 20
6.9869462142
 10
11.3935446129
 20
6.9862883227
 10
11.3948571982
 20
6.9856121597
 10
11.3961660797
 20
6.984917358
 10
11.3974717986
 20
6.9842033856
 10
11.3987753041
 20
6.9834694251
 10
11.4000784057
 20
6.9827140706
 10
11.4013852508
 20
6.9819343551
 10
11.4027085769
 20
6.9811216396
 10
11.4041062121
 20
6.9802373546
 10
11.4060610206
 20
6.9789545261
 10
11.4146319984
 20
6.9726416306
  0
LWPOLYLINE
  5
21E
100
AcDbEntity
  8
0
100
AcDbPolyline
 62
7
  6
CONTINUOUS
 90
7
 70
0
 10
10.7390771932
 20
6.9981614098
 10
10.7416385718
 20
6.9984848093
 10
10.7442612245
 20
6.9987581572
 10
10.7469448364
 20
6.9989777466
 10
10.7496866305
 20
6.9991396466
 10
10.7524835415
 20
6.9992400275
 10
10.7553323272
 20
6.9992751883
  0
LINE
  5
21F
100
AcDbEntity
  8
0
100
AcDbLine
 62
7
  6
CONTINUOUS
 10
10.7375994863
 20
6.9979496956
 11
10.7462275942
 21
6.9989253867
  0
LINE
  5
220
100
AcDbEntity
  8
0
100
AcDbLine
 62
7
  6
CONTINUOUS
 10
10.7435883296
 20
6.9986917059
 11
10.7452435562
 21
6.9988437156
  0
LWPOLYLINE
  5
221
100
AcDbEntity
  8
0
100
AcDbPolyline
 62
7
  6
CONTINUOUS
 90
3
 70
0
 10
10.7468812634
 20
6.9989714018
 10
10.7485017623
 20
6.9990755787
 10
10.7501053873
 20
6.9991570203
  0
LINE
  5
222
100
AcDbEntity
  8
0
100
AcDbLine
 62
7
  6
CONTINUOUS
 10
10.7396410773
 20
6.9982378193
 11
10.7577447599
 21
6.9992524506
  0
LINE
  5
223
100
AcDbEntity
  8
0
100
AcDbLine
 62
7
  6
CONTINUOUS
 10
10.7462275942
 20
6.9989253867
 11
10.7572200112
 21
6.999261608
  0
LINE
  5
224
100
AcDbEntity
  8
0
100
AcDbLine
 62
7
  6
CONTINUOUS
 10
10.7516924945
 20
6.9992164605
 11
10.7532634596
 21
6.9992545944
  0
LINE
  5
225
100
AcDbEntity
  8
0
100
AcDbLine
 62
7
  6
CONTINUOUS
 10
10.7548186766
 20
6.9992720782
 11
10.7563585561
 21
6.9992695299
  0
LWPOLYLINE
  5
226
100
AcDbEntity
  8
0
100
AcDbPolyline
 62
7
  6
CONTINUOUS
 90
7
 70
0
 10
10.7553323272
 20
6.9992751883
 10
10.758229569
 20
6.999241572
 10
10.7611716742
 20
6.9991357803
 10
10.7641552277
 20
6.9989545637
 10
10.767176857
 20
6.9986948053
 10
10.7702321102
 20
6.9983536477
 10
10.7716406321
 20
6.9981594863
  0
LINE
  5
227
100
AcDbEntity
  8
0
100
AcDbLine
 62
7
  6
CONTINUOUS
 10
10.7578835238
 20
6.99924753
 11
10.759394019
 21
6.999206622
  0
LINE
  5
228
100
AcDbEntity
  8
0
100
AcDbLine
 62
7
  6
CONTINUOUS
 10
10.7608904935
 20
6.9991473131
 11
10.7623733976
 21
6.999070075
  0
LINE
  5
229
100
AcDbEntity
  8
0
100
AcDbLine
 62
7
  6
CONTINUOUS
 10
10.7638426546
 20
6.998975383
 11
10.765297466
 21
6.9988637648
  0
LINE
  5
22A
100
AcDbEntity
  8
0
100
AcDbLine
 62
7
  6
CONTINUOUS
 10
10.7572200112
 20
6.999261608
 11
10.7716641736
 21
6.9981484648
  0
LINE
  5
22B
100
AcDbEntity
  8
0
100
AcDbLine
 62
7
  6
CONTINUOUS
 10
10.7577447599
 20
6.9992524506
 11
10.7720141477
 21
6.9979846159
  0
LINE
  5
22C
100
AcDbEntity
  8
0
100
AcDbLine
 62
7
  6
CONTINUOUS
 10
10.7667369937
 20
6.9987357803
 11
10.7681604132
 21
6.9985920184
  0
LINE
  5
22D
100
AcDbEntity
  8
0
100
AcDbLine
 62
7
  6
CONTINUOUS
 10
10.7695669145
 20
6.9984330957
 11
10.7709557026
 21
6.9982596554
  0
LINE
  5
22E
100
AcDbEntity
  8
0
100
AcDbLine
 62
7
  6
CONTINUOUS
 10
10.5626654199
 20
7.7937716373
 11
10.5632243851
 21
7.7900084573
  0
LWPOLYLINE
  5
22F
100
AcDbEntity
  8
0
100
AcDbPolyline
 62
7
  6
CONTINUOUS
 90
3
 70
0
 10
10.5630677962
 20
7.7911330066
 10
10.5632980223
 20
7.7894237266
 10
10.5635012405
 20
7.7877327343
  0
LWPOLYLINE
  5
230
100
AcDbEntity
  8
0
100
AcDbPolyline
 62
7
  6
CONTINUOUS
 90
69
 70
0
 10
10.5632014604
 20
7.206308966
 10
10.5632639712
 20
7.2058426768
 10
10.563391826
 20
7.2048230334
 10
10.5635119649
 20
7.2037932497
 10
10.5636241324
 20
7.2027534818
 10
10.5637280752
 20
7.2017038901
 10
10.5638235419
 20
7.2006446391
 10
10.5639102834
 20
7.1995758972
 10
10.5639880528
 20
7.1984978372
 10
10.5640566057
 20
7.1974106358
 10
10.5641157001
 20
7.196314474
 10
10.5641650978
 20
7.1952095139
 10
10.5642045646
 20
7.1940958581
 10
10.5642338659
 20
7.192973602
 10
10.5642527667
 20
7.1918428454
 10
10.5642610315
 20
7.190703692
 10
10.5642584239
 20
7.1895562502
 10
10.5642447074
 20
7.1884006324
 10
10.564219645
 20
7.1872369556
 10
10.5641829993
 20
7.1860653412
 10
10.5641345328
 20
7.1848859153
 10
10.5640740077
 20
7.1836988085
 10
10.5640011863
 20
7.1825041559
 10
10.5639158308
 20
7.1813020976
 10
10.5638177033
 20
7.1800927785
 10
10.5637065663
 20
7.178876348
 10
10.5635821825
 20
7.1776529607
 10
10.563444315
 20
7.1764227763
 10
10.563292727
 20
7.1751859593
 10
10.5631271827
 20
7.1739426793
 10
10.5629474466
 20
7.1726931112
 10
10.562753284
 20
7.1714374352
 10
10.562544461
 20
7.1701758366
 10
10.5623207448
 20
7.1689085062
 10
10.5620819036
 20
7.1676356408
 10
10.5618277097
 20
7.1663574576
 10
10.5615579391
 20
7.1650741855
 10
10.5612723693
 20
7.1637860567
 10
10.5609707805
 20
7.1624933088
 10
10.5606529551
 20
7.161196185
 10
10.5603186784
 20
7.1598949339
 10
10.5599677385
 20
7.1585898097
 10
10.5595999265
 20
7.1572810721
 10
10.5592150363
 20
7.1559689866
 10
10.5588128655
 20
7.1546538241
 10
10.5583932148
 20
7.1533358612
 10
10.5579558887
 20
7.1520153803
 10
10.5575006951
 20
7.1506926693
 10
10.5570274463
 20
7.1493680221
 10
10.5565359582
 20
7.148041738
 10
10.5560260514
 20
7.1467141222
 10
10.5554975507
 20
7.1453854857
 10
10.5549502857
 20
7.1440561452
 10
10.5543840906
 20
7.1427264231
 10
10.5537988049
 20
7.1413966476
 10
10.5531945783
 20
7.1400678128
 10
10.5525725248
 20
7.1387428464
 10
10.5519326452
 20
7.1374220875
 10
10.5512747539
 20
7.1361054938
 10
10.5505985911
 20
7.1347929116
 10
10.5499037897
 20
7.1334840334
 10
10.5491898177
 20
7.1321783176
 10
10.5484558576
 20
7.1308748151
 10
10.5477005034
 20
7.1295717164
 10
10.5469207881
 20
7.1282648738
 10
10.546108072
 20
7.1269415489
 10
10.5452237824
 20
7.1255439086
 10
10.5439409017
 20
7.1235890255
 10
10.5376285304
 20
7.1150187229
  0
LWPOLYLINE
  5
231
100
AcDbEntity
  8
0
100
AcDbPolyline
 62
7
  6
CONTINUOUS
 90
7
 70
0
 10
10.563147892
 20
7.7905729735
 10
10.5634712897
 20
7.7880116052
 10
10.563744636
 20
7.7853889634
 10
10.5639642246
 20
7.78270536
 10
10.5641261244
 20
7.7799635716
 10
10.5642265053
 20
7.7771666631
 10
10.5642616662
 20
7.774317877
  0
LINE
  5
232
100
AcDbEntity
  8
0
100
AcDbLine
 62
7
  6
CONTINUOUS
 10
10.5629390299
 20
7.7920316462
 11
10.5639137667
 21
7.7833977278
  0
LINE
  5
233
100
AcDbEntity
  8
0
100
AcDbLine
 62
7
  6
CONTINUOUS
 10
10.8630009935
 20
7.7921658747
 11
10.8452026196
 21
7.7792345992
  0
LINE
  5
234
100
AcDbEntity
  8
0
100
AcDbLine
 62
7
  6
CONTINUOUS
 10
10.8258068287
 20
7.7651427322
 11
10.8120329229
 21
7.7551354038
  0
LINE
  5
235
100
AcDbEntity
  8
0
100
AcDbLine
 62
7
  6
CONTINUOUS
 10
11.3861461364
 20
7.9749345339
 11
11.3841593355
 21
7.9741098104
  0
LINE
  5
236
100
AcDbEntity
  8
0
100
AcDbLine
 62
7
  6
CONTINUOUS
 10
10.9249099239
 20
7.8200696233
 11
10.8868734233
 21
7.8047018796
  0
LINE
  5
237
100
AcDbEntity
  8
0
100
AcDbLine
 62
7
  6
CONTINUOUS
 10
10.9080234223
 20
7.8035402212
 11
10.9292844101
 21
7.8121302178
  0
LINE
  5
238
100
AcDbEntity
  8
0
100
AcDbLine
 62
7
  6
CONTINUOUS
 10
10.9308844078
 20
7.7976771725
 11
10.9123407307
 21
7.7901850406
  0
LINE
  5
239
100
AcDbEntity
  8
0
100
AcDbLine
 62
7
  6
CONTINUOUS
 10
10.9166393739
 20
7.7822149925
 11
10.9313590629
 21
7.7881621329
  0
LINE
  5
23A
100
AcDbEntity
  8
0
100
AcDbLine
 62
7
  6
CONTINUOUS
 10
11.3844384366
 20
7.9742249404
 11
11.3822407891
 21
7.973354594
  0
LINE
  5
23B
100
AcDbEntity
  8
0
100
AcDbLine
 62
7
  6
CONTINUOUS
 10
11.3782644609
 20
7.971908571
 11
11.3762070117
 21
7.9712219057
  0
LINE
  5
23C
100
AcDbEntity
  8
0
100
AcDbLine
 62
7
  6
CONTINUOUS
 10
11.3773958128
 20
7.971615673
 11
11.3755973377
 21
7.971028375
  0
LINE
  5
23D
100
AcDbEntity
  8
0
100
AcDbLine
 62
7
  6
CONTINUOUS
 10
11.3741036946
 20
7.9705622764
 11
11.3719548307
 21
7.9699318173
  0
LWPOLYLINE
  5
23E
100
AcDbEntity
  8
0
100
AcDbPolyline
 62
7
  6
CONTINUOUS
 90
5
 70
0
 10
10.7224280732
 20
6.9946576866
 10
10.7248756074
 20
6.995330967
 10
10.7271151928
 20
6.9958968096
 10
10.7294025426
 20
6.996427715
 10
10.7317400711
 20
6.9969218556
  0
LWPOLYLINE
  5
23F
100
AcDbEntity
  8
0
100
AcDbPolyline
 62
7
  6
CONTINUOUS
 90
4
 70
0
 10
10.724248902
 20
6.9951623678
 10
10.7260691931
 20
6.9956362371
 10
10.7278854725
 20
6.9960788767
 10
10.7296942361
 20
6.9964900587
  0
LWPOLYLINE
  5
240
100
AcDbEntity
  8
0
100
AcDbPolyline
 62
7
  6
CONTINUOUS
 90
4
 70
0
 10
10.7314919572
 20
6.9968697432
 10
10.7332750944
 20
6.9972180753
 10
10.7350404036
 20
6.9975354334
 10
10.7367869362
 20
6.997822714
  0
LWPOLYLINE
  5
241
100
AcDbEntity
  8
0
100
AcDbPolyline
 62
7
  6
CONTINUOUS
 90
3
 70
0
 10
10.7341301528
 20
6.9973771408
 10
10.7365751093
 20
6.9977912074
 10
10.7390771932
 20
6.9981614098
  0
LWPOLYLINE
  5
242
100
AcDbEntity
  8
0
100
AcDbPolyline
 62
7
  6
CONTINUOUS
 90
3
 70
0
 10
10.5546120209
 20
7.8214030159
 10
10.5555403272
 20
7.819173009
 10
10.5562955441
 20
7.8172544691
  0
LWPOLYLINE
  5
243
100
AcDbEntity
  8
0
100
AcDbPolyline
 62
7
  6
CONTINUOUS
 90
4
 70
0
 10
10.5553253704
 20
7.8196968995
 10
10.5560180086
 20
7.8179655151
 10
10.5566880422
 20
7.8162118337
 10
10.5573337495
 20
7.8144389123
  0
LINE
  5
244
100
AcDbEntity
  8
0
100
AcDbLine
 62
7
  6
CONTINUOUS
 10
10.5577415689
 20
7.8132781543
 11
10.5584282353
 21
7.8112207119
  0
LINE
  5
245
100
AcDbEntity
  8
0
100
AcDbLine
 62
7
  6
CONTINUOUS
 10
10.5579535856
 20
7.812649887
 11
10.5585461876
 21
7.8108479679
  0
LINE
  5
246
100
AcDbEntity
  8
0
100
AcDbLine
 62
7
  6
CONTINUOUS
 10
10.5591103779
 20
7.8090364319
 11
10.5597183269
 21
7.806968545
  0
LINE
  5
247
100
AcDbEntity
  8
0
100
AcDbLine
 62
7
  6
CONTINUOUS
 10
10.5601497561
 20
7.8053979082
 11
10.5606235367
 21
7.8035777444
  0
LWPOLYLINE
  5
248
100
AcDbEntity
  8
0
100
AcDbPolyline
 62
7
  6
CONTINUOUS
 90
3
 70
0
 10
10.5603174624
 20
7.8047745245
 10
10.5608833031
 20
7.8025349414
 10
10.5614142063
 20
7.8002475954
  0
LINE
  5
249
100
AcDbEntity
  8
0
100
AcDbLine
 62
7
  6
CONTINUOUS
 10
10.5610660916
 20
7.8017615961
 11
10.5614771936
 21
7.7999529655
  0
LINE
  5
24A
100
AcDbEntity
  8
0
100
AcDbLine
 62
7
  6
CONTINUOUS
 10
10.5618568032
 20
7.7981553768
 11
10.5622050659
 21
7.7963723695
  0
LINE
  5
24B
100
AcDbEntity
  8
0
100
AcDbLine
 62
7
  6
CONTINUOUS
 10
10.5613069482
 20
7.8007283455
 11
10.5629390299
 21
7.7920316462
  0
LINE
  5
24C
100
AcDbEntity
  8
0
100
AcDbLine
 62
7
  6
CONTINUOUS
 10
10.5623636274
 20
7.795519997
 11
10.5627776918
 21
7.7930750483
  0
LINE
  5
24D
100
AcDbEntity
  8
0
100
AcDbLine
 62
7
  6
CONTINUOUS
 10
10.5625223603
 20
7.7946071853
 11
10.5628095827
 21
7.7928607717
  0
LINE
  5
24E
100
AcDbEntity
  8
0
100
AcDbLine
 62
7
  6
CONTINUOUS
 10
10.8373183383
 20
7.5523318604
 11
10.8373183383
 21
7.5373318604
  0
LINE
  5
24F
100
AcDbEntity
  8
0
100
AcDbLine
 62
7
  6
CONTINUOUS
 10
10.8373183383
 20
7.4323318604
 11
10.8373183383
 21
7.4123318604
  0
LINE
  5
250
100
AcDbEntity
  8
0
100
AcDbLine
 62
7
  6
CONTINUOUS
 10
10.9411942418
 20
7.7898850331
 11
10.9424982552
 21
7.792957096
  0
LINE
  5
251
100
AcDbEntity
  8
0
100
AcDbLine
 62
7
  6
CONTINUOUS
 10
10.9385314037
 20
7.8137091763
 11
10.9415332289
 21
7.8189042745
  0
LINE
  5
252
100
AcDbEntity
  8
0
100
AcDbLine
 62
7
  6
CONTINUOUS
 10
10.847300038
 20
7.7065943842
 11
10.8650984119
 21
7.7195256597
  0
LINE
  5
253
100
AcDbEntity
  8
0
100
AcDbLine
 62
7
  6
CONTINUOUS
 10
10.8844942028
 20
7.7336175267
 11
10.8982681087
 21
7.743624855
  0
LWPOLYLINE
  5
254
100
AcDbEntity
  8
0
100
AcDbPolyline
 62
7
  6
CONTINUOUS
 90
6
 70
0
 10
11.406236118
 20
7.9858266693
 10
11.4049316556
 20
7.9849612954
 10
11.4035918754
 20
7.9840976722
 10
11.4022146435
 20
7.9832358295
 10
11.4007977826
 20
7.9823759238
 10
11.3993390741
 20
7.9815182453
  0
LINE
  5
255
100
AcDbEntity
  8
0
100
AcDbLine
 62
7
  6
CONTINUOUS
 10
11.4044293149
 20
7.9846364686
 11
11.4030559017
 21
7.9837611497
  0
LINE
  5
256
100
AcDbEntity
  8
0
100
AcDbLine
 62
7
  6
CONTINUOUS
 10
11.4016565804
 20
7.9828959269
 11
11.4002309199
 21
7.9820413448
  0
LINE
  5
257
100
AcDbEntity
  8
0
100
AcDbLine
 62
7
  6
CONTINUOUS
 10
11.3987784915
 20
7.981197978
 11
11.3972988695
 21
7.9803664317
  0
LINE
  5
258
100
AcDbEntity
  8
0
100
AcDbLine
 62
7
  6
CONTINUOUS
 10
11.3962880952
 20
7.979812008
 11
11.3946941559
 21
7.9789662626
  0
LINE
  5
259
100
AcDbEntity
  8
0
100
AcDbLine
 62
7
  6
CONTINUOUS
 10
11.3957916326
 20
7.9795473428
 11
11.3942563643
 21
7.9787413803
  0
LWPOLYLINE
  5
25A
100
AcDbEntity
  8
0
100
AcDbPolyline
 62
7
  6
CONTINUOUS
 90
3
 70
0
 10
11.3930542366
 20
7.9781277964
 10
11.3911000987
 20
7.9771716776
 10
11.3894783026
 20
7.9764094441
  0
LINE
  5
25B
100
AcDbEntity
  8
0
100
AcDbLine
 62
7
  6
CONTINUOUS
 10
11.3896356929
 20
7.9764800434
 11
11.3878567876
 21
7.9756745159
  0
LINE
  5
25C
100
AcDbEntity
  8
0
100
AcDbLine
 62
7
  6
CONTINUOUS
 10
11.3878268802
 20
7.9756633524
 11
11.3861461364
 21
7.9749345339
  0
LINE
  5
25D
100
AcDbEntity
  8
0
100
AcDbLine
 62
7
  6
CONTINUOUS
 10
10.9406241793
 20
7.7735703922
 11
10.923007686
 21
7.766452867
  0
LINE
  5
25E
100
AcDbEntity
  8
0
100
AcDbLine
 62
7
  6
CONTINUOUS
 10
10.9093498189
 20
7.7490708483
 11
10.9575633794
 21
7.7685503912
  0
LINE
  5
25F
100
AcDbEntity
  8
0
100
AcDbLine
 62
7
  6
CONTINUOUS
 10
10.5438234782
 20
7.8412497162
 11
10.5449009991
 21
7.8396167671
  0
LINE
  5
260
100
AcDbEntity
  8
0
100
AcDbLine
 62
7
  6
CONTINUOUS
 10
10.5446888506
 20
7.8399452582
 11
10.5457751556
 21
7.8382504731
  0
LINE
  5
261
100
AcDbEntity
  8
0
100
AcDbLine
 62
7
  6
CONTINUOUS
 10
10.5455524724
 20
7.8386054827
 11
10.5466394518
 21
7.8368582886
  0
LINE
  5
262
100
AcDbEntity
  8
0
100
AcDbLine
 62
7
  6
CONTINUOUS
 10
10.5464143138
 20
7.8372282555
 11
10.5474933858
 21
7.8354397106
  0
LINE
  5
263
100
AcDbEntity
  8
0
100
AcDbLine
 62
7
  6
CONTINUOUS
 10
10.5472742183
 20
7.8358113995
 11
10.5483364222
 21
7.8339942359
  0
LINE
  5
264
100
AcDbEntity
  8
0
100
AcDbLine
 62
7
  6
CONTINUOUS
 10
10.5498381311
 20
7.8313017275
 11
10.5507942637
 21
7.8294914188
  0
LINE
  5
265
100
AcDbEntity
  8
0
100
AcDbLine
 62
7
  6
CONTINUOUS
 10
10.5515223415
 20
7.8280678799
 11
10.5523517015
 21
7.8263817851
  0
LINE
  5
266
100
AcDbEntity
  8
0
100
AcDbLine
 62
7
  6
CONTINUOUS
 10
10.5531700938
 20
7.8246493478
 11
10.5539756213
 21
7.8228704486
  0
LINE
  5
267
100
AcDbEntity
  8
0
100
AcDbLine
 62
7
  6
CONTINUOUS
 10
10.5538800188
 20
7.8230809834
 11
10.5547663538
 21
7.8210450111
  0
LINE
  5
268
100
AcDbEntity
  8
0
100
AcDbLine
 62
7
  6
CONTINUOUS
 10
10.8518183383
 20
7.5131029759
 11
10.8518183383
 21
7.4515607449
  0
LINE
  5
269
100
AcDbEntity
  8
0
100
AcDbLine
 62
7
  6
CONTINUOUS
 10
10.8848183383
 20
7.4515607449
 11
10.8848183383
 21
7.4743318604
  0
LINE
  5
26A
100
AcDbEntity
  8
0
100
AcDbLine
 62
7
  6
CONTINUOUS
 10
10.8848183383
 20
7.4931029759
 11
10.8848183383
 21
7.5131029759
  0
LINE
  5
26B
100
AcDbEntity
  8
0
100
AcDbLine
 62
7
  6
CONTINUOUS
 10
10.8973183383
 20
7.4123318604
 11
10.8973183383
 21
7.4330202487
  0
LINE
  5
26C
100
AcDbEntity
  8
0
100
AcDbLine
 62
7
  6
CONTINUOUS
 10
10.8973183383
 20
7.5316434721
 11
10.8973183383
 21
7.5523318604
  0
LINE
  5
26D
100
AcDbEntity
  8
0
100
AcDbLine
 62
7
  6
CONTINUOUS
 10
10.9123183383
 20
7.5523318604
 11
10.9123183383
 21
7.5316434721
  0
LINE
  5
26E
100
AcDbEntity
  8
0
100
AcDbLine
 62
7
  6
CONTINUOUS
 10
10.9123183383
 20
7.4330202487
 11
10.9123183383
 21
7.4123318604
  0
LINE
  5
26F
100
AcDbEntity
  8
0
100
AcDbLine
 62
7
  6
CONTINUOUS
 10
10.9248183383
 20
7.5131029759
 11
10.9248183383
 21
7.4931029759
  0
LINE
  5
270
100
AcDbEntity
  8
0
100
AcDbLine
 62
7
  6
CONTINUOUS
 10
10.9248183383
 20
7.4743318604
 11
10.9248183383
 21
7.4515607449
  0
LINE
  5
271
100
AcDbEntity
  8
0
100
AcDbLine
 62
7
  6
CONTINUOUS
 10
10.9575633794
 20
7.7685503912
 11
10.9597260255
 21
7.7845533915
  0
LINE
  5
272
100
AcDbEntity
  8
0
100
AcDbLine
 62
7
  6
CONTINUOUS
 10
10.9956243476
 20
7.8328814247
 11
10.9879264339
 21
7.800085654
  0
LINE
  5
273
100
AcDbEntity
  8
0
100
AcDbLine
 62
7
  6
CONTINUOUS
 10
10.9881241101
 20
7.7746710232
 11
10.9958220238
 21
7.8074667939
  0
LINE
  5
274
100
AcDbEntity
  8
0
100
AcDbLine
 62
7
  6
CONTINUOUS
 10
11.0183223694
 20
7.8264041001
 11
11.0130799491
 21
7.8040695794
  0
LINE
  5
275
100
AcDbEntity
  8
0
100
AcDbLine
 62
7
  6
CONTINUOUS
 10
11.0132776253
 20
7.7786549486
 11
11.0257563116
 21
7.8318184614
  0
LINE
  5
276
100
AcDbEntity
  8
0
100
AcDbLine
 62
7
  6
CONTINUOUS
 10
10.5305079347
 20
7.1069428131
 11
10.1280882525
 21
6.7045231309
  0
LWPOLYLINE
  5
277
100
AcDbEntity
  8
0
100
AcDbPolyline
 62
7
  6
CONTINUOUS
 90
5
 70
0
 10
11.8251270678
 20
8.4015619461
 10
11.4228848829
 20
7.999363024
 10
11.4223923396
 20
7.9988788648
 10
11.4219062844
 20
7.9984067745
 10
11.4214569007
 20
7.9979754078
  0
LWPOLYLINE
  5
278
100
AcDbEntity
  8
0
100
AcDbPolyline
 62
7
  6
CONTINUOUS
 90
3
 70
0
 10
11.4214268974
 20
7.9979466073
 10
11.420954403
 20
7.9974982653
 10
11.4204890985
 20
7.997061723
  0
LINE
  5
279
100
AcDbEntity
  8
0
100
AcDbLine
 62
7
  6
CONTINUOUS
 10
11.4210617043
 20
7.9976031683
 11
11.4200314023
 21
7.9966370681
  0
LINE
  5
27A
100
AcDbEntity
  8
0
100
AcDbLine
 62
7
  6
CONTINUOUS
 10
11.4212684489
 20
7.9977962582
 11
11.4194537188
 21
7.9961301496
  0
LINE
  5
27B
100
AcDbEntity
  8
0
100
AcDbLine
 62
7
  6
CONTINUOUS
 10
11.4203660288
 20
7.9969586234
 11
11.4191417109
 21
7.9958248442
  0
LINE
  5
27C
100
AcDbEntity
  8
0
100
AcDbLine
 62
7
  6
CONTINUOUS
 10
11.4200264968
 20
7.996649542
 11
11.4187100457
 21
7.9954369651
  0
LINE
  5
27D
100
AcDbEntity
  8
0
100
AcDbLine
 62
7
  6
CONTINUOUS
 10
11.4194637163
 20
7.9961393267
 11
11.4182952039
 21
7.9950679692
  0
LWPOLYLINE
  5
27E
100
AcDbEntity
  8
0
100
AcDbPolyline
 62
7
  6
CONTINUOUS
 90
4
 70
0
 10
11.4194537188
 20
7.9961301496
 10
11.4174536528
 20
7.9943726153
 10
11.4153488966
 20
7.9926055604
 10
11.4131463685
 20
7.9908419168
  0
LINE
  5
27F
100
AcDbEntity
  8
0
100
AcDbLine
 62
7
  6
CONTINUOUS
 10
11.4185326263
 20
7.9953111852
 11
11.4173300707
 21
7.9942237089
  0
LWPOLYLINE
  5
280
100
AcDbEntity
  8
0
100
AcDbPolyline
 62
7
  6
CONTINUOUS
 90
7
 70
0
 10
11.4217616531
 20
7.9982592771
 10
11.4126216803
 20
7.9904341455
 10
11.4033111702
 20
7.9839195167
 10
11.3939253856
 20
7.9785688289
 10
11.3844467663
 20
7.974225821
 10
11.3749540935
 20
7.9708234413
 10
11.3657155874
 20
7.9683434233
  0
LINE
  5
281
100
AcDbEntity
  8
0
100
AcDbLine
 62
7
  6
CONTINUOUS
 10
11.4156863029
 20
7.9928850934
 11
11.4145326897
 21
7.9919439003
  0
LWPOLYLINE
  5
282
100
AcDbEntity
  8
0
100
AcDbPolyline
 62
7
  6
CONTINUOUS
 90
3
 70
0
 10
11.4134069633
 20
7.9910464781
 10
11.4121499316
 20
7.990073468
 10
11.4109228969
 20
7.9891474377
  0
LWPOLYLINE
  5
283
100
AcDbEntity
  8
0
100
AcDbPolyline
 62
7
  6
CONTINUOUS
 90
19
 70
0
 10
11.4131463685
 20
7.9908419168
 10
11.4108544327
 20
7.9890944248
 10
11.4084755171
 20
7.987370207
 10
11.4060086535
 20
7.985673633
 10
11.4034535821
 20
7.9840095706
 10
11.4008102026
 20
7.9823829482
 10
11.3980785901
 20
7.9807987567
 10
11.395259005
 20
7.9792620466
 10
11.3923519076
 20
7.9777779258
 10
11.38935812
 20
7.9763516245
 10
11.3862786417
 20
7.9749883798
 10
11.3831147104
 20
7.9736934567
 10
11.3798678112
 20
7.9724721377
 10
11.3765396718
 20
7.9713297088
 10
11.3731322708
 20
7.9702714499
 10
11.3696478377
 20
7.9693026222
 10
11.3660888476
 20
7.968428456
 10
11.3624579965
 20
7.9676541354
 10
11.3587580863
 20
7.966984774
  0
LWPOLYLINE
  5
284
100
AcDbEntity
  8
0
100
AcDbPolyline
 62
7
  6
CONTINUOUS
 90
5
 70
0
 10
11.4111378908
 20
7.9893061859
 10
11.4096725393
 20
7.988228817
 10
11.4083984324
 20
7.9873179889
 10
11.4071001472
 20
7.9864153616
 10
11.4057772523
 20
7.9855213683
  0
LINE
  5
285
100
AcDbEntity
  8
0
100
AcDbLine
 62
7
  6
CONTINUOUS
 10
11.2470645176
 20
7.7818505808
 11
11.2396695627
 21
7.7772582779
  0
LINE
  5
286
100
AcDbEntity
  8
0
100
AcDbLine
 62
7
  6
CONTINUOUS
 10
10.8323183383
 20
7.455855384
 11
10.818788547
 21
7.4623318604
  0
LINE
  5
287
100
AcDbEntity
  8
0
100
AcDbLine
 62
7
  6
CONTINUOUS
 10
11.4227073856
 20
6.9655214569
 11
11.8251270678
 21
6.5631017747
  0
LINE
  5
288
100
AcDbEntity
  8
0
100
AcDbLine
 62
7
  6
CONTINUOUS
 10
10.1280882525
 20
8.2601405899
 11
10.5302786734
 21
7.8579070005
  0
LINE
  5
289
100
AcDbEntity
  8
0
100
AcDbLine
 62
7
  6
CONTINUOUS
 10
10.5301234263
 20
7.8580919848
 11
10.5307621217
 21
7.8574152892
  0
LINE
  5
28A
100
AcDbEntity
  8
0
100
AcDbLine
 62
7
  6
CONTINUOUS
 10
10.530149477
 20
7.8580655608
 11
10.5312335444
 21
7.8569300378
  0
LINE
  5
28B
100
AcDbEntity
  8
0
100
AcDbLine
 62
7
  6
CONTINUOUS
 10
10.5312335444
 20
7.8569300378
 11
10.531686977
 21
7.8564577886
  0
LINE
  5
28C
100
AcDbEntity
  8
0
100
AcDbLine
 62
7
  6
CONTINUOUS
 10
10.531077106
 20
7.8571051469
 11
10.532140849
 21
7.8559796721
  0
LINE
  5
28D
100
AcDbEntity
  8
0
100
AcDbLine
 62
7
  6
CONTINUOUS
 10
10.532140849
 20
7.8559796721
 11
10.5325768569
 21
7.8555150729
  0
LINE
  5
28E
100
AcDbEntity
  8
0
100
AcDbLine
 62
7
  6
CONTINUOUS
 10
10.5318805216
 20
7.8562549439
 11
10.5330010276
 21
7.8550580392
  0
LINE
  5
28F
100
AcDbEntity
  8
0
100
AcDbLine
 62
7
  6
CONTINUOUS
 10
10.5318544405
 20
7.8562814263
 11
10.5335200437
 21
7.854467247
  0
LINE
  5
290
100
AcDbEntity
  8
0
100
AcDbLine
 62
7
  6
CONTINUOUS
 10
10.5326915494
 20
7.8553795791
 11
10.5338124666
 21
7.8541694993
  0
LINE
  5
291
100
AcDbEntity
  8
0
100
AcDbLine
 62
7
  6
CONTINUOUS
 10
10.5338124666
 20
7.8541694993
 11
10.5342000325
 21
7.8537383328
  0
LINE
  5
292
100
AcDbEntity
  8
0
100
AcDbLine
 62
7
  6
CONTINUOUS
 10
10.533510844
 20
7.8544772696
 11
10.5345691819
 21
7.8533234655
  0
LWPOLYLINE
  5
293
100
AcDbEntity
  8
0
100
AcDbPolyline
 62
7
  6
CONTINUOUS
 90
4
 70
0
 10
10.5335200437
 20
7.854467247
 10
10.5352775774
 20
7.8524671819
 10
10.537044632
 20
7.8503624264
 10
10.5388082753
 20
7.8481598991
  0
LINE
  5
294
100
AcDbEntity
  8
0
100
AcDbLine
 62
7
  6
CONTINUOUS
 10
10.5343389833
 20
7.8535461827
 11
10.5354195199
 21
7.8523516564
  0
LWPOLYLINE
  5
295
100
AcDbEntity
  8
0
100
AcDbPolyline
 62
7
  6
CONTINUOUS
 90
7
 70
0
 10
10.5313910346
 20
7.8567750559
 10
10.5392162326
 20
7.8476349702
 10
10.545730904
 20
7.8383243406
 10
10.5510816108
 20
7.8289384368
 10
10.5554246182
 20
7.8194596971
 10
10.5588269734
 20
7.8099669227
 10
10.5613069482
 20
7.8007283455
  0
LINE
  5
296
100
AcDbEntity
  8
0
100
AcDbLine
 62
7
  6
CONTINUOUS
 10
10.5351764557
 20
7.8525844447
 11
10.536023032
 21
7.8515908808
  0
LINE
  5
297
100
AcDbEntity
  8
0
100
AcDbLine
 62
7
  6
CONTINUOUS
 10
10.5366660836
 20
7.8508195121
 11
10.5377380731
 21
7.8495086965
  0
LINE
  5
298
100
AcDbEntity
  8
0
100
AcDbLine
 62
7
  6
CONTINUOUS
 10
10.5385419148
 20
7.8484969883
 11
10.5394730955
 21
7.8472987626
  0
LWPOLYLINE
  5
299
100
AcDbEntity
  8
0
100
AcDbPolyline
 62
7
  6
CONTINUOUS
 90
19
 70
0
 10
10.5388082753
 20
7.8481598991
 10
10.5405557669
 20
7.8458679642
 10
10.5422799844
 20
7.8434890495
 10
10.5439765582
 20
7.8410221867
 10
10.5456406204
 20
7.8384671163
 10
10.5472672427
 20
7.8358237378
 10
10.5488514341
 20
7.8330921262
 10
10.5503881441
 20
7.8302725423
 10
10.5518722648
 20
7.827365446
 10
10.5532985663
 20
7.8243716593
 10
10.5546618111
 20
7.8212921821
 10
10.5559567342
 20
7.8181282524
 10
10.5571780533
 20
7.8148813549
 10
10.5583204823
 20
7.8115532169
 10
10.5593787417
 20
7.808145817
 10
10.56034757
 20
7.8046613847
 10
10.5612217368
 20
7.8011023955
 10
10.5619960579
 20
7.7974715458
 10
10.5626654199
 20
7.7937716373
  0
LWPOLYLINE
  5
29A
100
AcDbEntity
  8
0
100
AcDbPolyline
 62
7
  6
CONTINUOUS
 90
5
 70
0
 10
10.5403439684
 20
7.8461514723
 10
10.5413146767
 20
7.844833051
 10
10.5422238983
 20
7.8435653194
 10
10.5431249487
 20
7.8422736914
 10
10.5440174511
 20
7.8409576731
  0
LINE
  5
29B
100
AcDbEntity
  8
0
100
AcDbLine
 62
7
  6
CONTINUOUS
 10
10.8323183383
 20
7.5064183283
 11
10.8193183383
 21
7.5523318604
  0
LINE
  5
29C
100
AcDbEntity
  8
0
100
AcDbLine
 62
7
  6
CONTINUOUS
 10
10.9578183383
 20
7.4515607449
 11
10.9578183383
 21
7.5131029759
  0
LINE
  5
29D
100
AcDbEntity
  8
0
100
AcDbLine
 62
7
  6
CONTINUOUS
 10
10.9723183383
 20
7.4123318604
 11
10.9723183383
 21
7.4323318604
  0
LINE
  5
29E
100
AcDbEntity
  8
0
100
AcDbLine
 62
7
  6
CONTINUOUS
 10
10.9723183383
 20
7.5373318604
 11
10.9723183383
 21
7.5523318604
  0
LINE
  5
29F
100
AcDbEntity
  8
0
100
AcDbLine
 62
7
  6
CONTINUOUS
 10
10.9773183383
 20
7.4323318604
 11
10.9773183383
 21
7.4123318604
  0
LINE
  5
2A0
100
AcDbEntity
  8
0
100
AcDbLine
 62
7
  6
CONTINUOUS
 10
11.0223183383
 20
7.4123318604
 11
11.0223183383
 21
7.4323318604
  0
LINE
  5
2A1
100
AcDbEntity
  8
0
100
AcDbLine
 62
7
  6
CONTINUOUS
 10
11.0613556717
 20
7.4323318604
 11
11.0613556717
 21
7.4123318604
  0
LINE
  5
2A2
100
AcDbEntity
  8
0
100
AcDbLine
 62
7
  6
CONTINUOUS
 10
11.0429967339
 20
7.8418625597
 11
11.0427350176
 21
7.8358682704
  0
LINE
  5
2A3
100
AcDbEntity
  8
0
100
AcDbLine
 62
7
  6
CONTINUOUS
 10
11.0407721452
 20
7.7909111004
 11
11.0403795707
 21
7.7819196664
  0
LINE
  5
2A4
100
AcDbEntity
  8
0
100
AcDbLine
 62
7
  6
CONTINUOUS
 10
11.0455055093
 20
7.8305462054
 11
11.0439959428
 21
7.7959714491
  0
LINE
  5
2A5
100
AcDbEntity
  8
0
100
AcDbLine
 62
7
  6
CONTINUOUS
 10
11.0596617904
 20
7.8338201513
 11
11.0589034965
 21
7.8164523659
  0
LINE
  5
2A6
100
AcDbEntity
  8
0
100
AcDbLine
 62
7
  6
CONTINUOUS
 10
11.0579826179
 20
7.7953607777
 11
11.0585411139
 21
7.8081524388
  0
LINE
  5
2A7
100
AcDbEntity
  8
0
100
AcDbLine
 62
7
  6
CONTINUOUS
 10
11.0607531096
 20
7.7900387127
 11
11.0603605351
 21
7.7810472787
  0
LINE
  5
2A8
100
AcDbEntity
  8
0
100
AcDbLine
 62
7
  6
CONTINUOUS
 10
11.0348183383
 20
7.5523318604
 11
10.998832307
 21
7.4534610521
  0
LINE
  5
2A9
100
AcDbEntity
  8
0
100
AcDbLine
 62
7
  6
CONTINUOUS
 10
11.0140089016
 20
7.4513013371
 11
11.0162038326
 21
7.4573318604
  0
LINE
  5
2AA
100
AcDbEntity
  8
0
100
AcDbLine
 62
7
  6
CONTINUOUS
 10
11.0234832373
 20
7.4773318604
 11
11.041837005
 21
7.5277584227
  0
LINE
  5
2AB
100
AcDbEntity
  8
0
100
AcDbLine
 62
7
  6
CONTINUOUS
 10
11.1822237288
 20
7.8159582017
 11
11.1795935019
 21
7.8105654374
  0
LINE
  5
2AC
100
AcDbEntity
  8
0
100
AcDbLine
 62
7
  6
CONTINUOUS
 10
11.1598668003
 20
7.7701197053
 11
11.15592146
 21
7.7620305589
  0
LINE
  5
2AD
100
AcDbEntity
  8
0
100
AcDbLine
 62
7
  6
CONTINUOUS
 10
11.1803608232
 20
7.7995922329
 11
11.1689862136
 21
7.7762708273
  0
LINE
  5
2AE
100
AcDbEntity
  8
0
100
AcDbLine
 62
7
  6
CONTINUOUS
 10
11.1806705362
 20
7.7705720024
 11
11.1827159263
 21
7.7747656735
  0
LINE
  5
2AF
100
AcDbEntity
  8
0
100
AcDbLine
 62
7
  6
CONTINUOUS
 10
11.1863179979
 20
7.7821510148
 11
11.1956034781
 21
7.8011890705
  0
LINE
  5
2B0
100
AcDbEntity
  8
0
100
AcDbLine
 62
7
  6
CONTINUOUS
 10
11.1774925171
 20
7.7515096514
 11
11.1814378574
 21
7.7595987978
  0
LINE
  5
2B1
100
AcDbEntity
  8
0
100
AcDbLine
 62
7
  6
CONTINUOUS
 10
11.2266979329
 20
7.7330427717
 11
11.2211569796
 21
7.7259506749
  0
LINE
  5
2B2
100
AcDbEntity
  8
0
100
AcDbLine
 62
7
  6
CONTINUOUS
 10
11.2584781447
 20
7.7631618377
 11
11.238751323
 21
7.7379126574
  0
LINE
  5
2B3
100
AcDbEntity
  8
0
100
AcDbLine
 62
7
  6
CONTINUOUS
 10
11.2489954628
 20
7.7299090582
 11
11.2687222845
 21
7.7551582386
  0
LINE
  5
2B4
100
AcDbEntity
  8
0
100
AcDbLine
 62
7
  6
CONTINUOUS
 10
11.2416452592
 20
7.7099434766
 11
11.2471862125
 21
7.7170355733
  0
LINE
  5
2B5
100
AcDbEntity
  8
0
100
AcDbLine
 62
7
  6
CONTINUOUS
 10
10.8373183383
 20
7.4123318604
 11
10.8973183383
 21
7.4123318604
  0
LINE
  5
2B6
100
AcDbEntity
  8
0
100
AcDbLine
 62
7
  6
CONTINUOUS
 10
10.9123183383
 20
7.4123318604
 11
10.9723183383
 21
7.4123318604
  0
LINE
  5
2B7
100
AcDbEntity
  8
0
100
AcDbLine
 62
7
  6
CONTINUOUS
 10
10.9773183383
 20
7.4123318604
 11
11.0223183383
 21
7.4123318604
  0
LINE
  5
2B8
100
AcDbEntity
  8
0
100
AcDbLine
 62
7
  6
CONTINUOUS
 10
11.0613556717
 20
7.4123318604
 11
11.1223183383
 21
7.4123318604
  0
LINE
  5
2B9
100
AcDbEntity
  8
0
100
AcDbLine
 62
7
  6
CONTINUOUS
 10
11.2573183383
 20
7.4123318604
 11
11.3273183383
 21
7.4123318604
  0
LINE
  5
2BA
100
AcDbEntity
  8
0
100
AcDbLine
 62
7
  6
CONTINUOUS
 10
11.3273183383
 20
7.4323318604
 11
11.3073183383
 21
7.4323318604
  0
LINE
  5
2BB
100
AcDbEntity
  8
0
100
AcDbLine
 62
7
  6
CONTINUOUS
 10
11.0162038326
 20
7.4573318604
 11
11.0674701774
 21
7.4573318604
  0
LINE
  5
2BC
100
AcDbEntity
  8
0
100
AcDbLine
 62
7
  6
CONTINUOUS
 10
11.0601907727
 20
7.4773318604
 11
11.0234832373
 21
7.4773318604
  0
LINE
  5
2BD
100
AcDbEntity
  8
0
100
AcDbLine
 62
7
  6
CONTINUOUS
 10
10.9198183383
 20
7.4793318604
 11
10.8898183383
 21
7.4793318604
  0
LINE
  5
2BE
100
AcDbEntity
  8
0
100
AcDbLine
 62
7
  6
CONTINUOUS
 10
10.9198183383
 20
7.4881029759
 11
10.8898183383
 21
7.4881029759
  0
LINE
  5
2BF
100
AcDbEntity
  8
0
100
AcDbLine
 62
7
  6
CONTINUOUS
 10
10.8120329229
 20
7.7551354038
 11
10.8161474196
 21
7.7494722849
  0
LINE
  5
2C0
100
AcDbEntity
  8
0
100
AcDbLine
 62
7
  6
CONTINUOUS
 10
10.8431855413
 20
7.7122575031
 11
10.847300038
 21
7.7065943842
  0
LINE
  5
2C1
100
AcDbEntity
  8
0
100
AcDbLine
 62
7
  6
CONTINUOUS
 10
10.82884009
 20
7.7456127358
 11
10.8434371428
 21
7.7255216162
  0
LINE
  5
2C2
100
AcDbEntity
  8
0
100
AcDbLine
 62
7
  6
CONTINUOUS
 10
10.8482912448
 20
7.7290483277
 11
10.833694192
 21
7.7491394473
  0
LINE
  5
2C3
100
AcDbEntity
  8
0
100
AcDbLine
 62
7
  6
CONTINUOUS
 10
10.8650984119
 20
7.7195256597
 11
10.8609839151
 21
7.7251887787
  0
LINE
  5
2C4
100
AcDbEntity
  8
0
100
AcDbLine
 62
7
  6
CONTINUOUS
 10
10.8452026196
 20
7.7792345992
 11
10.8493171164
 21
7.7735714802
  0
LINE
  5
2C5
100
AcDbEntity
  8
0
100
AcDbLine
 62
7
  6
CONTINUOUS
 10
10.8868734233
 20
7.8047018796
 11
10.8891210629
 21
7.7991387765
  0
LINE
  5
2C6
100
AcDbEntity
  8
0
100
AcDbLine
 62
7
  6
CONTINUOUS
 10
10.9059783596
 20
7.757415503
 11
10.9093498189
 21
7.7490708483
  0
LINE
  5
2C7
100
AcDbEntity
  8
0
100
AcDbLine
 62
7
  6
CONTINUOUS
 10
10.8938491274
 20
7.7954448076
 11
10.9068133982
 21
7.7633571114
  0
LINE
  5
2C8
100
AcDbEntity
  8
0
100
AcDbLine
 62
7
  6
CONTINUOUS
 10
10.9191023147
 20
7.7681105988
 11
10.9149816422
 21
7.7783096212
  0
LINE
  5
2C9
100
AcDbEntity
  8
0
100
AcDbLine
 62
7
  6
CONTINUOUS
 10
10.9097371498
 20
7.7912901951
 11
10.9063656905
 21
7.7996348498
  0
LINE
  5
2CA
100
AcDbEntity
  8
0
100
AcDbLine
 62
7
  6
CONTINUOUS
 10
11.041837005
 20
7.5277584227
 11
11.0601907727
 21
7.4773318604
  0
LINE
  5
2CB
100
AcDbEntity
  8
0
100
AcDbLine
 62
7
  6
CONTINUOUS
 10
11.0674701774
 20
7.4573318604
 11
11.0696651083
 21
7.4513013371
  0
LINE
  5
2CC
100
AcDbEntity
  8
0
100
AcDbLine
 62
7
  6
CONTINUOUS
 10
10.9532887987
 20
7.8299015594
 11
10.9542274055
 21
7.8239754294
  0
LINE
  5
2CD
100
AcDbEntity
  8
0
100
AcDbLine
 62
7
  6
CONTINUOUS
 10
10.9799073023
 20
7.8280427255
 11
10.9789686955
 21
7.8339688555
  0
LINE
  5
2CE
100
AcDbEntity
  8
0
100
AcDbLine
 62
7
  6
CONTINUOUS
 10
11.1123183383
 20
7.5523318604
 11
11.1123183383
 21
7.5373318604
  0
LINE
  5
2CF
100
AcDbEntity
  8
0
100
AcDbLine
 62
7
  6
CONTINUOUS
 10
11.1223183383
 20
7.4123318604
 11
11.1223183383
 21
7.4323318604
  0
LINE
  5
2D0
100
AcDbEntity
  8
0
100
AcDbLine
 62
7
  6
CONTINUOUS
 10
11.1283183383
 20
7.5213318604
 11
11.1283183383
 21
7.4673318604
  0
LINE
  5
2D1
100
AcDbEntity
  8
0
100
AcDbLine
 62
7
  6
CONTINUOUS
 10
11.1583183383
 20
7.5213318604
 11
11.1583183383
 21
7.4673318604
  0
LINE
  5
2D2
100
AcDbEntity
  8
0
100
AcDbLine
 62
7
  6
CONTINUOUS
 10
11.2098491028
 20
7.7357282901
 11
11.2137944431
 21
7.7438174365
  0
LINE
  5
2D3
100
AcDbEntity
  8
0
100
AcDbLine
 62
7
  6
CONTINUOUS
 10
11.5641287418
 20
7.8577209077
 11
11.966548424
 21
8.2601405899
  0
LINE
  5
2D4
100
AcDbEntity
  8
0
100
AcDbLine
 62
7
  6
CONTINUOUS
 10
10.2695096088
 20
6.5631017747
 11
10.6717432714
 21
6.9652922679
  0
LINE
  5
2D5
100
AcDbEntity
  8
0
100
AcDbLine
 62
7
  6
CONTINUOUS
 10
10.671554897
 20
6.9651336924
 11
10.6722349583
 21
6.9657756916
  0
LINE
  5
2D6
100
AcDbEntity
  8
0
100
AcDbLine
 62
7
  6
CONTINUOUS
 10
10.6715831732
 20
6.9651615702
 11
10.6727201855
 21
6.9662470903
  0
LINE
  5
2D7
100
AcDbEntity
  8
0
100
AcDbLine
 62
7
  6
CONTINUOUS
 10
10.6727201855
 20
6.9662470903
 11
10.6731928162
 21
6.9667008891
  0
LINE
  5
2D8
100
AcDbEntity
  8
0
100
AcDbLine
 62
7
  6
CONTINUOUS
 10
10.6725449592
 20
6.9660905398
 11
10.6736705033
 21
6.9671543491
  0
LINE
  5
2D9
100
AcDbEntity
  8
0
100
AcDbLine
 62
7
  6
CONTINUOUS
 10
10.6736705033
 20
6.9671543491
 11
10.674135079
 21
6.9675903353
  0
LINE
  5
2DA
100
AcDbEntity
  8
0
100
AcDbLine
 62
7
  6
CONTINUOUS
 10
10.6733951533
 20
6.9668939487
 11
10.6745920896
 21
6.9680144851
  0
LINE
  5
2DB
100
AcDbEntity
  8
0
100
AcDbLine
 62
7
  6
CONTINUOUS
 10
10.8178857093
 20
7.5023318604
 11
10.8323183383
 21
7.5064183283
  0
LINE
  5
2DC
100
AcDbEntity
  8
0
100
AcDbLine
 62
7
  6
CONTINUOUS
 10
11.3073183383
 20
7.5373318604
 11
11.3273183383
 21
7.5373318604
  0
LINE
  5
2DD
100
AcDbEntity
  8
0
100
AcDbLine
 62
7
  6
CONTINUOUS
 10
11.3273183383
 20
7.5523318604
 11
11.2573183383
 21
7.5523318604
  0
LINE
  5
2DE
100
AcDbEntity
  8
0
100
AcDbLine
 62
7
  6
CONTINUOUS
 10
11.2523183383
 20
7.5523318604
 11
11.2023183383
 21
7.5523318604
  0
LINE
  5
2DF
100
AcDbEntity
  8
0
100
AcDbLine
 62
7
  6
CONTINUOUS
 10
11.1743183383
 20
7.5523318604
 11
11.1123183383
 21
7.5523318604
  0
LINE
  5
2E0
100
AcDbEntity
  8
0
100
AcDbLine
 62
7
  6
CONTINUOUS
 10
11.0648183383
 20
7.5523318604
 11
11.0348183383
 21
7.5523318604
  0
LINE
  5
2E1
100
AcDbEntity
  8
0
100
AcDbLine
 62
7
  6
CONTINUOUS
 10
10.9723183383
 20
7.5523318604
 11
10.9123183383
 21
7.5523318604
  0
LINE
  5
2E2
100
AcDbEntity
  8
0
100
AcDbLine
 62
7
  6
CONTINUOUS
 10
10.8973183383
 20
7.5523318604
 11
10.8373183383
 21
7.5523318604
  0
LINE
  5
2E3
100
AcDbEntity
  8
0
100
AcDbLine
 62
7
  6
CONTINUOUS
 10
10.8193183383
 20
7.5523318604
 11
10.8043183383
 21
7.5523318604
  0
LINE
  5
2E4
100
AcDbEntity
  8
0
100
AcDbLine
 62
7
  6
CONTINUOUS
 10
10.671929291
 20
7.9991422639
 11
10.2695096088
 21
8.4015619461
  0
LINE
  5
2E5
100
AcDbEntity
  8
0
100
AcDbLine
 62
7
  6
CONTINUOUS
 10
11.966548424
 20
6.7045231309
 11
11.5643579596
 21
7.1067567644
  0
LINE
  5
2E6
100
AcDbEntity
  8
0
100
AcDbLine
 62
7
  6
CONTINUOUS
 10
11.5645170231
 20
7.1065678926
 11
11.5638745376
 21
7.1072484493
  0
LINE
  5
2E7
100
AcDbEntity
  8
0
100
AcDbLine
 62
7
  6
CONTINUOUS
 10
11.5644888563
 20
7.1065964619
 11
11.5634031403
 21
7.1077336746
  0
LINE
  5
2E8
100
AcDbEntity
  8
0
100
AcDbLine
 62
7
  6
CONTINUOUS
 10
11.5634031403
 20
7.1077336746
 11
11.5629492582
 21
7.1082063916
  0
LINE
  5
2E9
100
AcDbEntity
  8
0
100
AcDbLine
 62
7
  6
CONTINUOUS
 10
11.5635596721
 20
7.1075584674
 11
11.5624958842
 21
7.1086839888
  0
LINE
  5
2EA
100
AcDbEntity
  8
0
100
AcDbLine
 62
7
  6
CONTINUOUS
 10
11.5624958842
 20
7.1086839888
 11
11.5620598992
 21
7.1091485628
  0
LINE
  5
2EB
100
AcDbEntity
  8
0
100
AcDbLine
 62
7
  6
CONTINUOUS
 10
11.5627562648
 20
7.1084086596
 11
11.5616357504
 21
7.1096055718
  0
LINE
  5
2EC
100
AcDbEntity
  8
0
100
AcDbLine
 62
7
  6
CONTINUOUS
 10
10.8620097868
 20
7.7697119311
 11
10.8766068396
 21
7.7496208116
  0
LINE
  5
2ED
100
AcDbEntity
  8
0
100
AcDbLine
 62
7
  6
CONTINUOUS
 10
10.8814609415
 20
7.7531475231
 11
10.8668638887
 21
7.7732386426
  0
LINE
  5
2EE
100
AcDbEntity
  8
0
100
AcDbLine
 62
7
  6
CONTINUOUS
 10
10.8982681087
 20
7.743624855
 11
10.8941536119
 21
7.749287974
  0
LINE
  5
2EF
100
AcDbEntity
  8
0
100
AcDbLine
 62
7
  6
CONTINUOUS
 10
10.8671154903
 20
7.7865027557
 11
10.8630009935
 21
7.7921658747
  0
LINE
  5
2F0
100
AcDbEntity
  8
0
100
AcDbLine
 62
7
  6
CONTINUOUS
 10
10.9598277453
 20
7.8213764023
 11
10.9881241101
 21
7.7746710232
  0
LINE
  5
2F1
100
AcDbEntity
  8
0
100
AcDbLine
 62
7
  6
CONTINUOUS
 10
10.9879264339
 20
7.800085654
 11
10.9760388495
 21
7.8197070484
  0
LINE
  5
2F2
100
AcDbEntity
  8
0
100
AcDbLine
 62
7
  6
CONTINUOUS
 10
10.9958220238
 20
7.8074667939
 11
11.0132776253
 21
7.7786549486
  0
LINE
  5
2F3
100
AcDbEntity
  8
0
100
AcDbLine
 62
7
  6
CONTINUOUS
 10
10.9424982552
 20
7.792957096
 11
10.9397059358
 21
7.799868329
  0
LINE
  5
2F4
100
AcDbEntity
  8
0
100
AcDbLine
 62
7
  6
CONTINUOUS
 10
11.1008043695
 20
7.4534610521
 11
11.0648183383
 21
7.5523318604
  0
LINE
  5
2F5
100
AcDbEntity
  8
0
100
AcDbLine
 62
7
  6
CONTINUOUS
 10
11.0111287795
 20
7.8390625124
 11
11.0120673862
 21
7.8331363824
  0
LINE
  5
2F6
100
AcDbEntity
  8
0
100
AcDbLine
 62
7
  6
CONTINUOUS
 10
11.0302794077
 20
7.8360208832
 11
11.0293408009
 21
7.8419470132
  0
LINE
  5
2F7
100
AcDbEntity
  8
0
100
AcDbLine
 62
7
  6
CONTINUOUS
 10
11.1743183383
 20
7.5373318604
 11
11.1743183383
 21
7.5523318604
  0
LINE
  5
2F8
100
AcDbEntity
  8
0
100
AcDbLine
 62
7
  6
CONTINUOUS
 10
11.2023183383
 20
7.5523318604
 11
11.2023183383
 21
7.5373318604
  0
LINE
  5
2F9
100
AcDbEntity
  8
0
100
AcDbLine
 62
7
  6
CONTINUOUS
 10
11.2183183383
 20
7.4673318604
 11
11.2183183383
 21
7.5213318604
  0
LINE
  5
2FA
100
AcDbEntity
  8
0
100
AcDbLine
 62
7
  6
CONTINUOUS
 10
11.2383183383
 20
7.4673318604
 11
11.2383183383
 21
7.5213318604
  0
LINE
  5
2FB
100
AcDbEntity
  8
0
100
AcDbLine
 62
7
  6
CONTINUOUS
 10
11.2523183383
 20
7.5353318604
 11
11.2523183383
 21
7.5523318604
  0
LINE
  5
2FC
100
AcDbEntity
  8
0
100
AcDbLine
 62
7
  6
CONTINUOUS
 10
11.2573183383
 20
7.5523318604
 11
11.2573183383
 21
7.5373318604
  0
LINE
  5
2FD
100
AcDbEntity
  8
0
100
AcDbLine
 62
7
  6
CONTINUOUS
 10
11.2573183383
 20
7.4323318604
 11
11.2573183383
 21
7.4123318604
  0
LINE
  5
2FE
100
AcDbEntity
  8
0
100
AcDbLine
 62
7
  6
CONTINUOUS
 10
11.2653183383
 20
7.5240653612
 11
11.2653183383
 21
7.4455983596
  0
LINE
  5
2FF
100
AcDbEntity
  8
0
100
AcDbLine
 62
7
  6
CONTINUOUS
 10
11.2869502079
 20
7.7403185894
 11
11.2896170983
 21
7.7486048611
  0
LINE
  5
300
100
AcDbEntity
  8
0
100
AcDbLine
 62
7
  6
CONTINUOUS
 10
10.6745920896
 20
6.9680144851
 11
10.6750409192
 21
6.9684265315
  0
LINE
  5
301
100
AcDbEntity
  8
0
100
AcDbLine
 62
7
  6
CONTINUOUS
 10
10.6742705101
 20
6.9677049711
 11
10.6754805852
 21
6.9688258856
  0
LINE
  5
302
100
AcDbEntity
  8
0
100
AcDbLine
 62
7
  6
CONTINUOUS
 10
10.6754805852
 20
6.9688258856
 11
10.675911731
 21
6.969213434
  0
LINE
  5
303
100
AcDbEntity
  8
0
100
AcDbLine
 62
7
  6
CONTINUOUS
 10
10.6751728124
 20
6.9685242613
 11
10.6763265789
 21
6.9695825674
  0
LINE
  5
304
100
AcDbEntity
  8
0
100
AcDbLine
 62
7
  6
CONTINUOUS
 10
10.6755453451
 20
6.9688564311
 11
10.6767123468
 21
6.9699225337
  0
LINE
  5
305
100
AcDbEntity
  8
0
100
AcDbLine
 62
7
  6
CONTINUOUS
 10
10.6761038931
 20
6.9693523974
 11
10.6772984344
 21
6.9704329488
  0
LWPOLYLINE
  5
306
100
AcDbEntity
  8
0
100
AcDbPolyline
 62
7
  6
CONTINUOUS
 90
8
 70
0
 10
10.6728728315
 20
6.9664023678
 10
10.6820102964
 20
6.9742259434
 10
10.6913181881
 20
6.9807395832
 10
10.7007013186
 20
6.9860897867
 10
10.7101772186
 20
6.9904327385
 10
10.7196674099
 20
6.9938355494
 10
10.728903969
 20
6.9963164248
 10
10.7375994863
 20
6.9979496956
  0
LINE
  5
307
100
AcDbEntity
  8
0
100
AcDbLine
 62
7
  6
CONTINUOUS
 10
10.677065626
 20
6.9701898676
 11
10.678059185
 21
6.9710364421
  0
LINE
  5
308
100
AcDbEntity
  8
0
100
AcDbLine
 62
7
  6
CONTINUOUS
 10
10.6777065501
 20
6.9707366933
 11
10.6790845013
 21
6.9718907901
  0
LINE
  5
309
100
AcDbEntity
  8
0
100
AcDbLine
 62
7
  6
CONTINUOUS
 10
10.678828637
 20
6.9716779078
 11
10.6801413595
 21
6.9727514804
  0
LINE
  5
30A
100
AcDbEntity
  8
0
100
AcDbLine
 62
7
  6
CONTINUOUS
 10
10.6799771261
 20
6.9726174811
 11
10.6811509869
 21
6.9735536862
  0
LINE
  5
30B
100
AcDbEntity
  8
0
100
AcDbLine
 62
7
  6
CONTINUOUS
 10
10.6811509869
 20
6.9735536862
 11
10.6823491192
 21
6.9744848404
  0
LINE
  5
30C
100
AcDbEntity
  8
0
100
AcDbLine
 62
7
  6
CONTINUOUS
 10
10.6823486872
 20
6.9744861871
 11
10.6834985685
 21
6.9753573723
  0
LINE
  5
30D
100
AcDbEntity
  8
0
100
AcDbLine
 62
7
  6
CONTINUOUS
 10
10.6834985685
 20
6.9753573723
 11
10.6848146249
 21
6.9763263645
  0
LINE
  5
30E
100
AcDbEntity
  8
0
100
AcDbLine
 62
7
  6
CONTINUOUS
 10
10.6846788129
 20
6.9762292415
 11
10.6860822435
 21
6.9772355558
  0
LINE
  5
30F
100
AcDbEntity
  8
0
100
AcDbLine
 62
7
  6
CONTINUOUS
 10
10.6871290779
 20
6.9779696657
 11
10.6886896507
 21
6.9790290511
  0
LINE
  5
310
100
AcDbEntity
  8
0
100
AcDbLine
 62
7
  6
CONTINUOUS
 10
10.6884003033
 20
6.9788368798
 11
10.6900304333
 21
6.9799125742
  0
LWPOLYLINE
  5
311
100
AcDbEntity
  8
0
100
AcDbPolyline
 62
7
  6
CONTINUOUS
 90
3
 70
0
 10
10.6897047585
 20
6.9797022538
 10
10.6913966034
 20
6.9807867097
 10
10.692788665
 20
6.9816509897
  0
LINE
  5
312
100
AcDbEntity
  8
0
100
AcDbLine
 62
7
  6
CONTINUOUS
 10
10.691044533
 20
6.9805658783
 11
10.692421761
 21
6.9814277236
  0
LINE
  5
313
100
AcDbEntity
  8
0
100
AcDbLine
 62
7
  6
CONTINUOUS
 10
11.2829800233
 20
7.739831112
 11
11.2869502079
 21
7.7403185894
  0
LINE
  5
314
100
AcDbEntity
  8
0
100
AcDbLine
 62
7
  6
CONTINUOUS
 10
10.833694192
 20
7.7491394473
 11
10.8844942028
 21
7.7336175267
  0
LINE
  5
315
100
AcDbEntity
  8
0
100
AcDbLine
 62
7
  6
CONTINUOUS
 10
10.8766068396
 20
7.7496208116
 11
10.8258068287
 21
7.7651427322
  0
LINE
  5
316
100
AcDbEntity
  8
0
100
AcDbLine
 62
7
  6
CONTINUOUS
 10
11.5616357504
 20
7.1096055718
 11
11.5612237048
 21
7.1100544001
  0
LINE
  5
317
100
AcDbEntity
  8
0
100
AcDbLine
 62
7
  6
CONTINUOUS
 10
11.561945244
 20
7.1092840143
 11
11.5608243514
 21
7.1104940649
  0
LINE
  5
318
100
AcDbEntity
  8
0
100
AcDbLine
 62
7
  6
CONTINUOUS
 10
11.5608243514
 20
7.1104940649
 11
11.5604368035
 21
7.1109252097
  0
LINE
  5
319
100
AcDbEntity
  8
0
100
AcDbLine
 62
7
  6
CONTINUOUS
 10
11.5611259555
 20
7.1101863144
 11
11.5600676692
 21
7.1113400581
  0
LINE
  5
31A
100
AcDbEntity
  8
0
100
AcDbLine
 62
7
  6
CONTINUOUS
 10
11.5607940239
 20
7.1105585796
 11
11.5597277007
 21
7.1117258282
  0
LINE
  5
31B
100
AcDbEntity
  8
0
100
AcDbLine
 62
7
  6
CONTINUOUS
 10
11.5602978212
 20
7.1111173927
 11
11.5592172704
 21
7.1123119328
  0
LWPOLYLINE
  5
31C
100
AcDbEntity
  8
0
100
AcDbPolyline
 62
7
  6
CONTINUOUS
 90
8
 70
0
 10
11.5632481034
 20
7.1078860659
 10
11.5554246866
 20
7.1170232605
 10
11.5489111476
 20
7.1263308676
 10
11.5435609901
 20
7.1357137116
 10
11.539218039
 20
7.1451893176
 10
11.5358151743
 20
7.1546792482
 10
11.5333341987
 20
7.1639156137
 10
11.5317008
 20
7.1726110276
  0
LINE
  5
31D
100
AcDbEntity
  8
0
100
AcDbLine
 62
7
  6
CONTINUOUS
 10
11.5594603529
 20
7.1120791228
 11
11.5586137802
 21
7.1130726791
  0
LINE
  5
31E
100
AcDbEntity
  8
0
100
AcDbLine
 62
7
  6
CONTINUOUS
 10
11.5589137719
 20
7.1127197584
 11
11.557759434
 21
7.1140979925
  0
LINE
  5
31F
100
AcDbEntity
  8
0
100
AcDbLine
 62
7
  6
CONTINUOUS
 10
11.5579725621
 20
7.1138418319
 11
11.5568987456
 21
7.1151548477
  0
LINE
  5
320
100
AcDbEntity
  8
0
100
AcDbLine
 62
7
  6
CONTINUOUS
 10
11.5570329931
 20
7.1149903072
 11
11.5560967922
 21
7.1161641537
  0
LINE
  5
321
100
AcDbEntity
  8
0
100
AcDbLine
 62
7
  6
CONTINUOUS
 10
11.5560967922
 20
7.1161641537
 11
11.555165642
 21
7.1173622714
  0
LINE
  5
322
100
AcDbEntity
  8
0
100
AcDbLine
 62
7
  6
CONTINUOUS
 10
11.5551640425
 20
7.1173621691
 11
11.554292859
 21
7.118512047
  0
LINE
  5
323
100
AcDbEntity
  8
0
100
AcDbLine
 62
7
  6
CONTINUOUS
 10
11.554292859
 20
7.118512047
 11
11.5533241262
 21
7.1198277455
  0
LINE
  5
324
100
AcDbEntity
  8
0
100
AcDbLine
 62
7
  6
CONTINUOUS
 10
11.5534209915
 20
7.119692288
 11
11.5524149392
 21
7.1210953468
  0
LINE
  5
325
100
AcDbEntity
  8
0
100
AcDbLine
 62
7
  6
CONTINUOUS
 10
11.5516805705
 20
7.1221425459
 11
11.5506214522
 21
7.1237027172
  0
LINE
  5
326
100
AcDbEntity
  8
0
100
AcDbLine
 62
7
  6
CONTINUOUS
 10
11.550813358
 20
7.1234137674
 11
11.5497379329
 21
7.1250434806
  0
LWPOLYLINE
  5
327
100
AcDbEntity
  8
0
100
AcDbPolyline
 62
7
  6
CONTINUOUS
 90
3
 70
0
 10
11.5499479856
 20
7.1247182184
 10
11.5488638006
 20
7.1264096312
 10
11.5479995232
 20
7.1278016732
  0
LINE
  5
328
100
AcDbEntity
  8
0
100
AcDbLine
 62
7
  6
CONTINUOUS
 10
11.5490843627
 20
7.1260579884
 11
11.5482225191
 21
7.1274352116
  0
LINE
  5
329
100
AcDbEntity
  8
0
100
AcDbLine
 62
7
  6
CONTINUOUS
 10
11.0130799491
 20
7.8040695794
 11
10.9956243476
 21
7.8328814247
  0
LINE
  5
32A
100
AcDbEntity
  8
0
100
AcDbLine
 62
7
  6
CONTINUOUS
 10
11.1869280275
 20
7.7734291026
 11
11.194569604
 21
7.7431805996
  0
LINE
  5
32B
100
AcDbEntity
  8
0
100
AcDbLine
 62
7
  6
CONTINUOUS
 10
11.2401570401
 20
7.7732880933
 11
11.2396695627
 21
7.7772582779
  0
LINE
  5
32C
100
AcDbEntity
  8
0
100
AcDbLine
 62
7
  6
CONTINUOUS
 10
11.3023183383
 20
7.5323318604
 11
11.3023183383
 21
7.4373318604
  0
LINE
  5
32D
100
AcDbEntity
  8
0
100
AcDbLine
 62
7
  6
CONTINUOUS
 10
10.692421761
 20
6.9814277236
 11
10.6942071226
 21
6.9825049135
  0
LINE
  5
32E
100
AcDbEntity
  8
0
100
AcDbLine
 62
7
  6
CONTINUOUS
 10
10.6938386198
 20
6.9822876332
 11
10.6956524813
 21
6.9833479462
  0
LINE
  5
32F
100
AcDbEntity
  8
0
100
AcDbLine
 62
7
  6
CONTINUOUS
 10
10.6968001114
 20
6.9840003254
 11
10.6986259159
 21
6.9849990246
  0
LINE
  5
330
100
AcDbEntity
  8
0
100
AcDbLine
 62
7
  6
CONTINUOUS
 10
10.6983483118
 20
6.9848515672
 11
10.7001549933
 21
6.9858058227
  0
LWPOLYLINE
  5
331
100
AcDbEntity
  8
0
100
AcDbPolyline
 62
7
  6
CONTINUOUS
 90
3
 70
0
 10
10.6999422541
 20
6.9856973194
 10
10.7015821766
 20
6.9865357923
 10
10.7032682803
 20
6.9873651594
  0
LINE
  5
332
100
AcDbEntity
  8
0
100
AcDbLine
 62
7
  6
CONTINUOUS
 10
10.7033003435
 20
6.9873785363
 11
10.7049175908
 21
6.9881429746
  0
LINE
  5
333
100
AcDbEntity
  8
0
100
AcDbLine
 62
7
  6
CONTINUOUS
 10
10.7050007265
 20
6.9881835584
 11
10.7067796343
 21
6.9889890921
  0
LINE
  5
334
100
AcDbEntity
  8
0
100
AcDbLine
 62
7
  6
CONTINUOUS
 10
10.7065651908
 20
6.9888917486
 11
10.7086050801
 21
6.9897798304
  0
LWPOLYLINE
  5
335
100
AcDbEntity
  8
0
100
AcDbPolyline
 62
7
  6
CONTINUOUS
 90
4
 70
0
 10
10.7082431432
 20
6.9896238173
 10
10.71047709
 20
6.9905538091
 10
10.7123956371
 20
6.9913090308
 10
10.7143606409
 20
6.9920434679
  0
LWPOLYLINE
  5
336
100
AcDbEntity
  8
0
100
AcDbPolyline
 62
7
  6
CONTINUOUS
 90
5
 70
0
 10
10.7099492662
 20
6.9903372426
 10
10.7116806777
 20
6.9910299641
 10
10.7134344047
 20
6.9917000866
 10
10.7152073891
 20
6.9923458867
 10
10.7169964926
 20
6.9929658181
  0
LINE
  5
337
100
AcDbEntity
  8
0
100
AcDbLine
 62
7
  6
CONTINUOUS
 10
11.0403795707
 20
7.7819196664
 11
11.0603605351
 21
7.7810472787
  0
LINE
  5
338
100
AcDbEntity
  8
0
100
AcDbLine
 62
7
  6
CONTINUOUS
 10
11.0595837815
 20
7.8091078676
 11
11.0815628424
 21
7.8081482411
  0
LINE
  5
339
100
AcDbEntity
  8
0
100
AcDbLine
 62
7
  6
CONTINUOUS
 10
11.07515219
 20
7.8147419799
 11
11.0598589254
 21
7.8154096983
  0
LINE
  5
33A
100
AcDbEntity
  8
0
100
AcDbLine
 62
7
  6
CONTINUOUS
 10
10.9597260255
 20
7.7845533915
 11
10.9537800748
 21
7.7853569275
  0
LINE
  5
33B
100
AcDbEntity
  8
0
100
AcDbLine
 62
7
  6
CONTINUOUS
 10
10.9397059358
 20
7.799868329
 11
10.9366338728
 21
7.8011723424
  0
LINE
  5
33C
100
AcDbEntity
  8
0
100
AcDbLine
 62
7
  6
CONTINUOUS
 10
11.15592146
 20
7.7620305589
 11
11.1774925171
 21
7.7515096514
  0
LINE
  5
33D
100
AcDbEntity
  8
0
100
AcDbLine
 62
7
  6
CONTINUOUS
 10
11.194569604
 20
7.7431805996
 11
11.2098491028
 21
7.7357282901
  0
LINE
  5
33E
100
AcDbEntity
  8
0
100
AcDbLine
 62
7
  6
CONTINUOUS
 10
11.1840530915
 20
7.7752260964
 11
11.1863968583
 21
7.7740829649
  0
LINE
  5
33F
100
AcDbEntity
  8
0
100
AcDbLine
 62
7
  6
CONTINUOUS
 10
11.197482259
 20
7.7755932389
 11
11.1867784208
 21
7.7808138496
  0
LINE
  5
340
100
AcDbEntity
  8
0
100
AcDbLine
 62
7
  6
CONTINUOUS
 10
11.2211569796
 20
7.7259506749
 11
11.2416452592
 21
7.7099434766
  0
LINE
  5
341
100
AcDbEntity
  8
0
100
AcDbLine
 62
7
  6
CONTINUOUS
 10
11.5482225191
 20
7.1274352116
 11
11.5471456014
 21
7.1292201113
  0
LINE
  5
342
100
AcDbEntity
  8
0
100
AcDbLine
 62
7
  6
CONTINUOUS
 10
11.5473626112
 20
7.1288520654
 11
11.5463025697
 21
7.1306654508
  0
LINE
  5
343
100
AcDbEntity
  8
0
100
AcDbLine
 62
7
  6
CONTINUOUS
 10
11.5456499224
 20
7.1318135457
 11
11.5446514906
 21
7.1336388485
  0
LINE
  5
344
100
AcDbEntity
  8
0
100
AcDbLine
 62
7
  6
CONTINUOUS
 10
11.208909562
 20
7.7485297285
 11
11.1984260329
 21
7.7681962408
  0
LINE
  5
345
100
AcDbEntity
  8
0
100
AcDbLine
 62
7
  6
CONTINUOUS
 10
11.5447986822
 20
7.1333617402
 11
11.5438446906
 21
7.1351679086
  0
LWPOLYLINE
  5
346
100
AcDbEntity
  8
0
100
AcDbPolyline
 62
7
  6
CONTINUOUS
 90
3
 70
0
 10
11.5439529314
 20
7.1349556762
 10
11.5431144598
 20
7.1365955923
 10
11.5422850938
 20
7.1382816894
  0
LINE
  5
347
100
AcDbEntity
  8
0
100
AcDbLine
 62
7
  6
CONTINUOUS
 10
11.5422719696
 20
7.138313228
 11
11.5415075258
 21
7.1399304621
  0
LINE
  5
348
100
AcDbEntity
  8
0
100
AcDbLine
 62
7
  6
CONTINUOUS
 10
11.5414666958
 20
7.1400141287
 11
11.5406611628
 21
7.1417930296
  0
LINE
  5
349
100
AcDbEntity
  8
0
100
AcDbLine
 62
7
  6
CONTINUOUS
 10
11.5407587451
 20
7.1415780506
 11
11.539870425
 21
7.1436184681
  0
LWPOLYLINE
  5
34A
100
AcDbEntity
  8
0
100
AcDbPolyline
 62
7
  6
CONTINUOUS
 90
4
 70
0
 10
11.5400266682
 20
7.1432559941
 10
11.5390964467
 20
7.1454904707
 10
11.538341225
 20
7.1474090104
 10
11.5376067878
 20
7.1493740065
  0
LWPOLYLINE
  5
34B
100
AcDbEntity
  8
0
100
AcDbPolyline
 62
7
  6
CONTINUOUS
 90
5
 70
0
 10
11.539313233
 20
7.1449621116
 10
11.5386205003
 20
7.1466935205
 10
11.5379503654
 20
7.1484472481
 10
11.537304552
 20
7.1502202357
 10
11.5366846067
 20
7.1520093452
  0
LINE
  5
34C
100
AcDbEntity
  8
0
100
AcDbLine
 62
7
  6
CONTINUOUS
 10
11.5309585342
 20
7.1786014327
 11
11.5308065173
 21
7.1802566754
  0
LINE
  5
34D
100
AcDbEntity
  8
0
100
AcDbLine
 62
7
  6
CONTINUOUS
 10
10.7163719643
 20
6.9927550634
 11
10.7187985035
 21
6.9935585164
  0
LINE
  5
34E
100
AcDbEntity
  8
0
100
AcDbLine
 62
7
  6
CONTINUOUS
 10
10.7184294116
 20
6.9934417331
 11
10.7205327256
 21
6.9941013666
  0
LINE
  5
34F
100
AcDbEntity
  8
0
100
AcDbLine
 62
7
  6
CONTINUOUS
 10
10.7206101433
 20
6.9941228028
 11
10.7226815852
 21
6.9947318297
  0
LINE
  5
350
100
AcDbEntity
  8
0
100
AcDbLine
 62
7
  6
CONTINUOUS
 10
11.3701620458
 20
7.9694409326
 11
11.3683480099
 21
7.9689724019
  0
LWPOLYLINE
  5
351
100
AcDbEntity
  8
0
100
AcDbPolyline
 62
7
  6
CONTINUOUS
 90
3
 70
0
 10
11.3697608029
 20
7.9693326838
 10
11.3675212125
 20
7.9687668455
 10
11.365233859
 20
7.9682359448
  0
LINE
  5
352
100
AcDbEntity
  8
0
100
AcDbLine
 62
7
  6
CONTINUOUS
 10
11.3665384483
 20
7.9685349509
 11
11.3647367734
 21
7.9681287661
  0
LWPOLYLINE
  5
353
100
AcDbEntity
  8
0
100
AcDbPolyline
 62
7
  6
CONTINUOUS
 90
3
 70
0
 10
11.3629464175
 20
7.967753853
 10
11.3605062452
 20
7.9672865299
 10
11.3580612887
 20
7.9668724692
  0
LINE
  5
354
100
AcDbEntity
  8
0
100
AcDbLine
 62
7
  6
CONTINUOUS
 10
11.3657155874
 20
7.9683434233
 11
11.3570189246
 21
7.9667112886
  0
LINE
  5
355
100
AcDbEntity
  8
0
100
AcDbLine
 62
7
  6
CONTINUOUS
 10
11.359413022
 20
7.9670969015
 11
11.3576736988
 21
7.9668135161
  0
LINE
  5
356
100
AcDbEntity
  8
0
100
AcDbLine
 62
7
  6
CONTINUOUS
 10
11.0293408009
 20
7.8419470132
 11
11.0111287795
 21
7.8390625124
  0
LINE
  5
357
100
AcDbEntity
  8
0
100
AcDbLine
 62
7
  6
CONTINUOUS
 10
10.9789686955
 20
7.8339688555
 11
10.9532887987
 21
7.8299015594
  0
LINE
  5
358
100
AcDbEntity
  8
0
100
AcDbLine
 62
7
  6
CONTINUOUS
 10
11.3587580863
 20
7.966984774
 11
11.3549949015
 21
7.9664258091
  0
LWPOLYLINE
  5
359
100
AcDbEntity
  8
0
100
AcDbPolyline
 62
7
  6
CONTINUOUS
 90
3
 70
0
 10
11.3559527412
 20
7.9665588417
 10
11.3542499979
 20
7.9663318784
 10
11.3525652845
 20
7.9661316674
  0
LWPOLYLINE
  5
35A
100
AcDbEntity
  8
0
100
AcDbPolyline
 62
7
  6
CONTINUOUS
 90
4
 70
0
 10
11.355559206
 20
7.966502273
 10
11.3529978295
 20
7.9661788798
 10
11.3503751796
 20
7.9659055383
 10
11.3476915679
 20
7.965685955
  0
LINE
  5
35B
100
AcDbEntity
  8
0
100
AcDbLine
 62
7
  6
CONTINUOUS
 10
11.3570189246
 20
7.9667112886
 11
11.3483853088
 21
7.9657365162
  0
LWPOLYLINE
  5
35C
100
AcDbEntity
  8
0
100
AcDbPolyline
 62
7
  6
CONTINUOUS
 90
3
 70
0
 10
11.3508983863
 20
7.9659572901
 10
11.3492490596
 20
7.9658078682
 10
11.3476170346
 20
7.9656825629
  0
LINE
  5
35D
100
AcDbEntity
  8
0
100
AcDbLine
 62
7
  6
CONTINUOUS
 10
11.060704458
 20
7.8347755801
 11
11.0759977227
 21
7.8341078618
  0
LINE
  5
35E
100
AcDbEntity
  8
0
100
AcDbLine
 62
7
  6
CONTINUOUS
 10
11.0829586628
 20
7.8401177842
 11
11.0429967339
 21
7.8418625597
  0
LINE
  5
35F
100
AcDbEntity
  8
0
100
AcDbLine
 62
7
  6
CONTINUOUS
 10
11.1969406433
 20
7.8016494934
 11
11.2076444815
 21
7.7964288827
  0
LINE
  5
360
100
AcDbEntity
  8
0
100
AcDbLine
 62
7
  6
CONTINUOUS
 10
11.2163779026
 20
7.7993000981
 11
11.1822237288
 21
7.8159582017
  0
LINE
  5
361
100
AcDbEntity
  8
0
100
AcDbLine
 62
7
  6
CONTINUOUS
 10
11.2509848173
 20
7.7702852849
 11
11.2583057954
 21
7.76456551
  0
LINE
  5
362
100
AcDbEntity
  8
0
100
AcDbLine
 62
7
  6
CONTINUOUS
 10
11.2701259567
 20
7.7553305878
 11
11.2774469348
 21
7.7496108129
  0
LINE
  5
363
100
AcDbEntity
  8
0
100
AcDbLine
 62
7
  6
CONTINUOUS
 10
11.2896170983
 20
7.7486048611
 11
11.2470645176
 21
7.7818505808
  0
LINE
  5
364
100
AcDbEntity
  8
0
100
AcDbLine
 62
7
  6
CONTINUOUS
 10
11.5368951918
 20
7.1513853221
 11
11.5360918939
 21
7.1538113646
  0
LINE
  5
365
100
AcDbEntity
  8
0
100
AcDbLine
 62
7
  6
CONTINUOUS
 10
11.5362085214
 20
7.1534427614
 11
11.5355488868
 21
7.1555460673
  0
LINE
  5
366
100
AcDbEntity
  8
0
100
AcDbLine
 62
7
  6
CONTINUOUS
 10
11.5355275929
 20
7.155623015
 11
11.5349184224
 21
7.1576949187
  0
LWPOLYLINE
  5
367
100
AcDbEntity
  8
0
100
AcDbPolyline
 62
7
  6
CONTINUOUS
 90
5
 70
0
 10
11.5349926942
 20
7.1574409576
 10
11.5343192834
 20
7.1598889327
 10
11.5337534389
 20
7.1621285094
 10
11.5332225313
 20
7.1644158502
 10
11.5327283882
 20
7.1667533691
  0
LWPOLYLINE
  5
368
100
AcDbEntity
  8
0
100
AcDbPolyline
 62
7
  6
CONTINUOUS
 90
4
 70
0
 10
11.5344879984
 20
7.159261801
 10
11.5340141145
 20
7.1610821083
 10
11.5335714607
 20
7.1628984053
 10
11.5331602651
 20
7.1647071876
  0
LWPOLYLINE
  5
369
100
AcDbEntity
  8
0
100
AcDbPolyline
 62
7
  6
CONTINUOUS
 90
4
 70
0
 10
11.5327805675
 20
7.1665049284
 10
11.5324322229
 20
7.168288086
 10
11.532114853
 20
7.1700534156
 10
11.5318275616
 20
7.1717999679
  0
LWPOLYLINE
  5
36A
100
AcDbEntity
  8
0
100
AcDbPolyline
 62
7
  6
CONTINUOUS
 90
3
 70
0
 10
11.5322731
 20
7.1691434409
 10
11.5318590301
 20
7.1715883869
 10
11.531488824
 20
7.1740904599
  0
LWPOLYLINE
  5
36B
100
AcDbEntity
  8
0
100
AcDbPolyline
 62
7
  6
CONTINUOUS
 90
3
 70
0
 10
11.531569285
 20
7.1735278652
 10
11.5313390011
 20
7.1752372715
 10
11.5311357301
 20
7.1769283842
  0
LWPOLYLINE
  5
36C
100
AcDbEntity
  8
0
100
AcDbPolyline
 62
7
  6
CONTINUOUS
 90
7
 70
0
 10
11.531488824
 20
7.1740904599
 10
11.5311654202
 20
7.176651827
 10
11.5308920675
 20
7.1792744678
 10
11.5306724726
 20
7.1819580679
 10
11.5305105664
 20
7.1846998502
 10
11.5304101788
 20
7.1874967498
 10
11.5303750105
 20
7.1903455243
  0
LINE
  5
36D
100
AcDbEntity
  8
0
100
AcDbLine
 62
7
  6
CONTINUOUS
 10
11.5317008
 20
7.1726110276
 11
11.5307250144
 21
7.1812384726
  0
LWPOLYLINE
  5
36E
100
AcDbEntity
  8
0
100
AcDbPolyline
 62
7
  6
CONTINUOUS
 90
3
 70
0
 10
11.5306788244
 20
7.1818943982
 10
11.5305746414
 20
7.1835149122
 10
11.5304931942
 20
7.1851185518
  0
LINE
  5
36F
100
AcDbEntity
  8
0
100
AcDbLine
 62
7
  6
CONTINUOUS
 10
11.5314123759
 20
7.1746546252
 11
11.530397749
 21
7.1927583317
  0
LINE
  5
370
100
AcDbEntity
  8
0
100
AcDbLine
 62
7
  6
CONTINUOUS
 10
11.5307250144
 20
7.1812384726
 11
11.5303885351
 21
7.1922298896
  0
LINE
  5
371
100
AcDbEntity
  8
0
100
AcDbLine
 62
7
  6
CONTINUOUS
 10
11.5304337487
 20
7.186705673
 11
11.5303956101
 21
7.1882766518
  0
LINE
  5
372
100
AcDbEntity
  8
0
100
AcDbLine
 62
7
  6
CONTINUOUS
 10
11.530378122
 20
7.189831882
 11
11.5303806663
 21
7.1913717745
  0
LWPOLYLINE
  5
373
100
AcDbEntity
  8
0
100
AcDbPolyline
 62
7
  6
CONTINUOUS
 90
7
 70
0
 10
11.5303750105
 20
7.1903455243
 10
11.5304086188
 20
7.1932427553
 10
11.5305144016
 20
7.1961848501
 10
11.5306956082
 20
7.1991683851
 10
11.5309553533
 20
7.2021899728
 10
11.5312964929
 20
7.2052451668
 10
11.5315332212
 20
7.2069625383
  0
LINE
  5
374
100
AcDbEntity
  8
0
100
AcDbLine
 62
7
  6
CONTINUOUS
 10
11.5304026626
 20
7.1928967549
 11
11.5304435673
 21
7.1944072626
  0
LINE
  5
375
100
AcDbEntity
  8
0
100
AcDbLine
 62
7
  6
CONTINUOUS
 10
11.5305028734
 20
7.1959037493
 11
11.5305801088
 21
7.1973866655
  0
LINE
  5
376
100
AcDbEntity
  8
0
100
AcDbLine
 62
7
  6
CONTINUOUS
 10
11.5306747986
 20
7.1988559347
 11
11.5307864149
 21
7.2003107585
  0
LINE
  5
377
100
AcDbEntity
  8
0
100
AcDbLine
 62
7
  6
CONTINUOUS
 10
11.5303885351
 20
7.1922298896
 11
11.5315209723
 21
7.2069365191
  0
LINE
  5
378
100
AcDbEntity
  8
0
100
AcDbLine
 62
7
  6
CONTINUOUS
 10
11.530397749
 20
7.1927583317
 11
11.531689245
 21
7.2072939659
  0
LINE
  5
379
100
AcDbEntity
  8
0
100
AcDbLine
 62
7
  6
CONTINUOUS
 10
11.5309143977
 20
7.2017502986
 11
11.5310581583
 21
7.2031737306
  0
LINE
  5
37A
100
AcDbEntity
  8
0
100
AcDbLine
 62
7
  6
CONTINUOUS
 10
11.5312170801
 20
7.2045802443
 11
11.5313905197
 21
7.2059690448
  0
LWPOLYLINE
  5
37B
100
AcDbEntity
  8
0
100
AcDbPolyline
 62
7
  6
CONTINUOUS
 90
69
 70
0
 10
10.7709652261
 20
7.9664045
 10
10.7708192412
 20
7.9663849417
 10
10.7697996118
 20
7.9662571748
 10
10.7687698457
 20
7.9661371246
 10
10.7677300992
 20
7.9660250464
 10
10.7666805325
 20
7.9659211935
 10
10.7656213101
 20
7.9658258171
 10
10.7645526006
 20
7.9657391663
 10
10.7634745767
 20
7.9656614878
 10
10.762387415
 20
7.9655930261
 10
10.7612912964
 20
7.9655340227
 10
10.7601863826
 20
7.965484716
 10
10.7590727759
 20
7.9654453401
 10
10.7579505716
 20
7.9654161294
 10
10.7568198695
 20
7.9653973189
 10
10.7556807734
 20
7.965389144
 10
10.7545333915
 20
7.965391841
 10
10.7533778365
 20
7.9654056464
 10
10.7522142251
 20
7.9654307971
 10
10.751042679
 20
7.9654675303
 10
10.7498633241
 20
7.9655160836
 10
10.7486762909
 20
7.9655766946
 10
10.7474817147
 20
7.965649601
 10
10.7462797355
 20
7.9657350406
 10
10.7450704981
 20
7.965833251
 10
10.743854152
 20
7.9659444697
 10
10.7426308519
 20
7.966068934
 10
10.7414007571
 20
7.9662068807
 10
10.7401640324
 20
7.9663585464
 10
10.7389208474
 20
7.966524167
 10
10.7376713768
 20
7.9667039778
 10
10.7364158009
 20
7.9668982134
 10
10.7351543048
 20
7.9671071076
 10
10.7338870795
 20
7.9673308933
 10
10.7326143216
 20
7.967569802
 10
10.7313362486
 20
7.9678240614
 10
10.7300530891
 20
7.9680938954
 10
10.7287650754
 20
7.9683795263
 10
10.727472445
 20
7.9686811741
 10
10.726175441
 20
7.968999056
 10
10.7248743121
 20
7.9693333868
 10
10.7235693123
 20
7.9696843782
 10
10.7222607014
 20
7.9700522391
 10
10.7209487446
 20
7.9704371754
 10
10.719633713
 20
7.9708393896
 10
10.718315883
 20
7.9712590808
 10
10.7169955369
 20
7.9716964445
 10
10.7156729627
 20
7.9721516725
 10
10.714348454
 20
7.9726249527
 10
10.7130223102
 20
7.9731164688
 10
10.7116948363
 20
7.9736264004
 10
10.7103663434
 20
7.9741549226
 10
10.709037148
 20
7.9747022056
 10
10.7077075723
 20
7.9752684151
 10
10.7063779447
 20
7.9758537117
 10
10.7050492674
 20
7.9764579416
 10
10.7037244637
 20
7.9770799923
 10
10.7024038665
 20
7.9777198657
 10
10.7010874332
 20
7.9783777476
 10
10.6997750098
 20
7.9790538981
 10
10.6984662881
 20
7.9797486844
 10
10.6971607258
 20
7.9804626393
 10
10.6958573725
 20
7.9811965811
 10
10.6945544149
 20
7.9819519179
 10
10.6932476953
 20
7.9827316237
 10
10.6919244326
 20
7.9835443663
 10
10.6905265378
 20
7.9844288888
 10
10.688567972
 20
7.9857143454
 10
10.6800311067
 20
7.9920007576
  0
LWPOLYLINE
  5
37C
100
AcDbEntity
  8
0
100
AcDbPolyline
 62
7
  6
CONTINUOUS
 90
4
 70
0
 10
11.3476170346
 20
7.9656825629
 10
11.3449497712
 20
7.9655240611
 10
11.3421528544
 20
7.9654236865
 10
11.3393040599
 20
7.9653885323
  0
LINE
  5
37D
100
AcDbEntity
  8
0
100
AcDbLine
 62
7
  6
CONTINUOUS
 10
11.3549949015
 20
7.9664258091
 11
11.3368908983
 21
7.9654112902
  0
LINE
  5
37E
100
AcDbEntity
  8
0
100
AcDbLine
 62
7
  6
CONTINUOUS
 10
11.3460020163
 20
7.965580575
 11
11.3444036874
 21
7.9655011438
  0
LINE
  5
37F
100
AcDbEntity
  8
0
100
AcDbLine
 62
7
  6
CONTINUOUS
 10
11.3483853088
 20
7.9657365162
 11
11.3373842243
 21
7.9654026123
  0
LINE
  5
380
100
AcDbEntity
  8
0
100
AcDbLine
 62
7
  6
CONTINUOUS
 10
11.3428217093
 20
7.9654435474
 11
11.341255724
 21
7.9654071015
  0
LINE
  5
381
100
AcDbEntity
  8
0
100
AcDbLine
 62
7
  6
CONTINUOUS
 10
11.3397053556
 20
7.9653911591
 11
11.3381702122
 21
7.9653951104
  0
LWPOLYLINE
  5
382
100
AcDbEntity
  8
0
100
AcDbPolyline
 62
7
  6
CONTINUOUS
 90
7
 70
0
 10
11.3393040599
 20
7.9653885323
 10
11.3364068063
 20
7.965422156
 10
11.3334646864
 20
7.9655279557
 10
11.3304810991
 20
7.9657091827
 10
11.3274593859
 20
7.9659689583
 10
11.3244040099
 20
7.9663101424
 10
11.3229960437
 20
7.9665042349
  0
LWPOLYLINE
  5
383
100
AcDbEntity
  8
0
100
AcDbPolyline
 62
7
  6
CONTINUOUS
 90
6
 70
0
 10
11.3366498868
 20
7.9654183814
 10
11.335143959
 20
7.9654604344
 10
11.3336519963
 20
7.9655207665
 10
11.3321735739
 20
7.9655989085
 10
11.330708831
 20
7.9656943837
 10
11.3292585643
 20
7.9658066642
  0
LINE
  5
384
100
AcDbEntity
  8
0
100
AcDbLine
 62
7
  6
CONTINUOUS
 10
11.3373842243
 20
7.9654026123
 11
11.3229665345
 21
7.9665180503
  0
LINE
  5
385
100
AcDbEntity
  8
0
100
AcDbLine
 62
7
  6
CONTINUOUS
 10
11.3368908983
 20
7.9654112902
 11
11.3226223485
 21
7.9666791893
  0
LINE
  5
386
100
AcDbEntity
  8
0
100
AcDbLine
 62
7
  6
CONTINUOUS
 10
11.3278235958
 20
7.9659351917
 11
11.3264047333
 21
7.9660793794
  0
LINE
  5
387
100
AcDbEntity
  8
0
100
AcDbLine
 62
7
  6
CONTINUOUS
 10
11.3250027706
 20
7.966238614
 11
11.3236184868
 21
7.9664122562
  0
LWPOLYLINE
  5
388
100
AcDbEntity
  8
0
100
AcDbPolyline
 62
7
  6
CONTINUOUS
 90
69
 70
0
 10
11.5314351938
 20
7.7583548028
 10
11.5313771064
 20
7.7587871604
 10
11.5312489508
 20
7.7598068533
 10
11.5311285087
 20
7.7608366993
 10
11.5310160356
 20
7.7618765422
 10
11.5309117854
 20
7.7629262215
 10
11.5308160098
 20
7.7639855727
 10
11.5307289582
 20
7.7650544273
 10
11.530650878
 20
7.7661326124
 10
11.5305820138
 20
7.7672199513
 10
11.5305226079
 20
7.7683162629
 10
11.5304728991
 20
7.7694213832
 10
11.5304331219
 20
7.7705352087
 10
11.530403511
 20
7.7716576437
 10
11.5303843017
 20
7.7727885887
 10
11.5303757299
 20
7.7739279398
 10
11.530378032
 20
7.7750755887
 10
11.530391445
 20
7.776231423
 10
11.530416206
 20
7.7773953256
 10
11.5304525527
 20
7.778567175
 10
11.530500723
 20
7.7797468453
 10
11.5305609547
 20
7.7809342059
 10
11.530633486
 20
7.7821291214
 10
11.5307185549
 20
7.7833314518
 10
11.5308163995
 20
7.7845410523
 10
11.5309272577
 20
7.7857577732
 10
11.5310513669
 20
7.7869814599
 10
11.5311889646
 20
7.7882119528
 10
11.5313402874
 20
7.7894490873
 10
11.5315055719
 20
7.7906926935
 10
11.5316850535
 20
7.7919425966
 10
11.5318789673
 20
7.7931986164
 10
11.5320875475
 20
7.7944605673
 10
11.5323110273
 20
7.7957282585
 10
11.5325496387
 20
7.7970014933
 10
11.5328036096
 20
7.7982800544
 10
11.5330731646
 20
7.7995637131
 10
11.5333585262
 20
7.8008522368
 10
11.5336599148
 20
7.8021453878
 10
11.5339775481
 20
7.8034429227
 10
11.5343116411
 20
7.8047445928
 10
11.534662406
 20
7.8060501437
 10
11.5350300522
 20
7.8073593154
 10
11.5354147857
 20
7.8086718423
 10
11.5358168095
 20
7.8099874533
 10
11.536236323
 20
7.8113058715
 10
11.5366735223
 20
7.8126268144
 10
11.5371285993
 20
7.8139499937
 10
11.5376017424
 20
7.8152751154
 10
11.5380931357
 20
7.8166018799
 10
11.538602959
 20
7.8179299817
 10
11.5391313878
 20
7.8192591096
 10
11.5396785927
 20
7.8205889466
 10
11.5402447397
 20
7.82191917
 10
11.5408299896
 20
7.8232494514
 10
11.5414342058
 20
7.8245788236
 10
11.5420562697
 20
7.8259043453
 10
11.5426961714
 20
7.8272256564
 10
11.5433540957
 20
7.8285427981
 10
11.5440303019
 20
7.8298559227
 10
11.5447251559
 20
7.8311653361
 10
11.5454391881
 20
7.832471577
 10
11.5461732127
 20
7.8337755898
 10
11.5469286283
 20
7.8350791729
 10
11.5477083796
 20
7.8363864396
 10
11.5485210137
 20
7.8377099878
 10
11.5494045437
 20
7.8391068113
 10
11.5506790084
 20
7.8410496741
 10
11.5570753308
 20
7.8497281327
  0
LINE
  5
389
100
AcDbEntity
  8
0
100
AcDbLine
 62
7
  6
CONTINUOUS
 10
11.8053785901
 20
7.4823307318
 11
11.5796735025
 21
7.0913980525
  0
LINE
  5
38A
100
AcDbEntity
  8
0
100
AcDbLine
 62
7
  6
CONTINUOUS
 10
11.4761458844
 20
6.912082958
 11
11.4263495415
 21
6.8258331621
  0
LINE
  5
38B
100
AcDbEntity
  8
0
100
AcDbLine
 62
7
  6
CONTINUOUS
 10
10.6682889864
 20
8.1388318604
 11
11.42634769
 21
8.1388318604
  0
LINE
  5
38C
100
AcDbEntity
  8
0
100
AcDbLine
 62
7
  6
CONTINUOUS
 10
11.4263495414
 20
8.138830559
 11
11.4761458844
 21
8.0525807628
  0
LINE
  5
38D
100
AcDbEntity
  8
0
100
AcDbLine
 62
7
  6
CONTINUOUS
 10
11.5796735025
 20
7.8732656684
 11
11.8053785901
 21
7.482332989
  0
ARC
  5
38E
100
AcDbEntity
  8
0
100
AcDbCircle
 62
7
  6
CONTINUOUS
 10
10.7553683075
 20
6.8779685777
 40
0.1213048375
100
AcDbArc
 50
91.0145112943
 51
92.6238035642
  0
ARC
  5
38F
100
AcDbEntity
  8
0
100
AcDbCircle
 62
7
  6
CONTINUOUS
 10
10.7553557099
 20
6.8782342589
 40
0.1210388581
100
AcDbArc
 50
92.6236037806
 51
93.647065676
  0
ARC
  5
390
100
AcDbEntity
  8
0
100
AcDbCircle
 62
7
  6
CONTINUOUS
 10
10.7557609726
 20
6.878829984
 40
0.1205793083
100
AcDbArc
 50
120.9410040179
 51
130.6014489827
  0
ARC
  5
391
100
AcDbEntity
  8
0
100
AcDbCircle
 62
7
  6
CONTINUOUS
 10
10.4437728751
 20
7.190430038
 40
0.1204790395
100
AcDbArc
 50
357.4937504077
 51
8.5484560334
  0
ARC
  5
392
100
AcDbEntity
  8
0
100
AcDbCircle
 62
7
  6
CONTINUOUS
 10
10.4438920784
 20
7.1906941033
 40
0.1204662093
100
AcDbArc
 50
321.0778825268
 51
329.1581917035
  0
ARC
  5
393
100
AcDbEntity
  8
0
100
AcDbCircle
 62
7
  6
CONTINUOUS
 10
10.4440293449
 20
7.1905417478
 40
0.1202637008
100
AcDbArc
 50
315.957605498
 51
321.0932675594
  0
ARC
  5
394
100
AcDbEntity
  8
0
100
AcDbCircle
 62
7
  6
CONTINUOUS
 10
10.7554285202
 20
6.8790657964
 40
0.1202089104
100
AcDbArc
 50
81.3418983095
 51
91.0507310094
  0
ARC
  5
395
100
AcDbEntity
  8
0
100
AcDbCircle
 62
7
  6
CONTINUOUS
 10
10.444634696
 20
7.1901925355
 40
0.1195705555
100
AcDbArc
 50
329.1821129911
 51
343.3841709074
  0
ARC
  5
396
100
AcDbEntity
  8
0
100
AcDbCircle
 62
7
  6
CONTINUOUS
 10
10.4455569948
 20
7.1901837951
 40
0.1186859775
100
AcDbArc
 50
343.2608960745
 51
357.5748481454
  0
ARC
  5
397
100
AcDbEntity
  8
0
100
AcDbCircle
 62
9
  6
CONTINUOUS
 10
10.753768623
 20
6.8827384504
 40
0.1164055734
100
AcDbArc
 50
131.1150008217
 51
134.9909318855
  0
ARC
  5
398
100
AcDbEntity
  8
0
100
AcDbCircle
 62
7
  6
CONTINUOUS
 10
10.1987902009
 20
6.633803723
 40
0.1
100
AcDbArc
 50
135.0
 51
315.0
  0
ARC
  5
399
100
AcDbEntity
  8
0
100
AcDbCircle
 62
7
  6
CONTINUOUS
 10
10.7673027171
 20
7.4523318604
 40
0.1
100
AcDbArc
 50
72.2472098381
 51
100.0172899057
  0
ARC
  5
39A
100
AcDbEntity
  8
0
100
AcDbCircle
 62
9
  6
CONTINUOUS
 10
10.2075696612
 20
6.6509723845
 40
0.0940728709
100
AcDbArc
 50
143.3283277542
 51
146.1052070182
  0
ARC
  5
39B
100
AcDbEntity
  8
0
100
AcDbCircle
 62
9
  6
CONTINUOUS
 10
10.2071096816
 20
6.6513251145
 40
0.0934932746
100
AcDbArc
 50
135.023770483
 51
143.3333538948
  0
ARC
  5
39C
100
AcDbEntity
  8
0
100
AcDbCircle
 62
9
  6
CONTINUOUS
 10
10.2163581449
 20
6.6420539095
 40
0.0934113532
100
AcDbArc
 50
303.8670005151
 51
314.9860720455
  0
ARC
  5
39D
100
AcDbEntity
  8
0
100
AcDbCircle
 62
7
  6
CONTINUOUS
 10
10.7620350862
 20
7.4821534536
 40
0.0697167479
100
AcDbArc
 50
100.0172899057
 51
259.9827100943
  0
ARC
  5
39E
100
AcDbEntity
  8
0
100
AcDbCircle
 62
7
  6
CONTINUOUS
 10
10.769536785
 20
7.4723318604
 40
0.04
100
AcDbArc
 50
202.1725080048
 51
263.3735843888
  0
ARC
  5
39F
100
AcDbEntity
  8
0
100
AcDbCircle
 62
7
  6
CONTINUOUS
 10
10.9659430653
 20
7.4654317572
 40
0.035
100
AcDbArc
 50
288.9660475067
 51
340.0
  0
ARC
  5
3A0
100
AcDbEntity
  8
0
100
AcDbCircle
 62
7
  6
CONTINUOUS
 10
10.8318183383
 20
7.4515607449
 40
0.02
100
AcDbArc
 50
285.9620141629
 51
360.0
  0
ARC
  5
3A1
100
AcDbEntity
  8
0
100
AcDbCircle
 62
7
  6
CONTINUOUS
 10
10.9048183383
 20
7.4515607449
 40
0.02
100
AcDbArc
 50
180.0
 51
247.975687163
  0
ARC
  5
3A2
100
AcDbEntity
  8
0
100
AcDbCircle
 62
7
  6
CONTINUOUS
 10
10.9048183383
 20
7.4515607449
 40
0.02
100
AcDbArc
 50
292.0243128371
 51
360.0
  0
ARC
  5
3A3
100
AcDbEntity
  8
0
100
AcDbCircle
 62
7
  6
CONTINUOUS
 10
10.9778183383
 20
7.4515607449
 40
0.02
100
AcDbArc
 50
180.0
 51
254.0379858372
  0
ARC
  5
3A4
100
AcDbEntity
  8
0
100
AcDbCircle
 62
7
  6
CONTINUOUS
 10
11.0281042909
 20
7.4461710349
 40
0.015
100
AcDbArc
 50
160.0
 51
247.3109219557
  0
ARC
  5
3A5
100
AcDbEntity
  8
0
100
AcDbCircle
 62
7
  6
CONTINUOUS
 10
10.8898183383
 20
7.4743318604
 40
0.005
100
AcDbArc
 50
90.0
 51
180.0
  0
ARC
  5
3A6
100
AcDbEntity
  8
0
100
AcDbCircle
 62
7
  6
CONTINUOUS
 10
10.9198183383
 20
7.4743318604
 40
0.005
100
AcDbArc
 50
0.0
 51
90.0
  0
ARC
  5
3A7
100
AcDbEntity
  8
0
100
AcDbCircle
 62
7
  6
CONTINUOUS
 10
10.442955597
 20
7.7742819428
 40
0.1213042981
100
AcDbArc
 50
1.0144430453
 51
2.6229231734
  0
ARC
  5
3A8
100
AcDbEntity
  8
0
100
AcDbCircle
 62
7
  6
CONTINUOUS
 10
10.4432213755
 20
7.7742945424
 40
0.1210382214
100
AcDbArc
 50
2.6227226231
 51
3.6471634226
  0
ARC
  5
3A9
100
AcDbEntity
  8
0
100
AcDbCircle
 62
7
  6
CONTINUOUS
 10
10.4438161235
 20
7.7738889881
 40
0.1205797187
100
AcDbArc
 50
30.9404852725
 51
40.6013620763
  0
ARC
  5
3AA
100
AcDbEntity
  8
0
100
AcDbCircle
 62
7
  6
CONTINUOUS
 10
10.4440983841
 20
7.77421919
 40
0.1201628567
100
AcDbArc
 50
351.2184777311
 51
1.0522713149
  0
ARC
  5
3AB
100
AcDbEntity
  8
0
100
AcDbCircle
 62
9
  6
CONTINUOUS
 10
10.4477249147
 20
7.7758815629
 40
0.1164055921
100
AcDbArc
 50
41.1149308555
 51
44.9909316145
  0
ARC
  5
3AC
100
AcDbEntity
  8
0
100
AcDbCircle
 62
7
  6
CONTINUOUS
 10
10.1987902009
 20
8.3308599978
 40
0.1
100
AcDbArc
 50
45.0
 51
225.0
  0
ARC
  5
3AD
100
AcDbEntity
  8
0
100
AcDbCircle
 62
9
  6
CONTINUOUS
 10
10.2159588624
 20
8.3220805375
 40
0.0940728709
100
AcDbArc
 50
53.3283277542
 51
56.1052070181
  0
ARC
  5
3AE
100
AcDbEntity
  8
0
100
AcDbCircle
 62
9
  6
CONTINUOUS
 10
10.2163115924
 20
8.3225405171
 40
0.0934932746
100
AcDbArc
 50
45.023770483
 51
53.3333538948
  0
ARC
  5
3AF
100
AcDbEntity
  8
0
100
AcDbCircle
 62
9
  6
CONTINUOUS
 10
10.2070403874
 20
8.3132920538
 40
0.0934113532
100
AcDbArc
 50
213.8670005151
 51
224.9860720455
  0
ARC
  5
3B0
100
AcDbEntity
  8
0
100
AcDbCircle
 62
7
  6
CONTINUOUS
 10
10.7632313948
 20
7.4889261054
 40
0.076594245
100
AcDbArc
 50
259.9827100943
 51
334.4203702628
  0
ARC
  5
3B1
100
AcDbEntity
  8
0
100
AcDbCircle
 62
7
  6
CONTINUOUS
 10
10.7973183383
 20
7.483653755
 40
0.07
100
AcDbArc
 50
157.8274919952
 51
202.1725080048
  0
ARC
  5
3B2
100
AcDbEntity
  8
0
100
AcDbCircle
 62
7
  6
CONTINUOUS
 10
10.7710308379
 20
7.4851926474
 40
0.0529472791
100
AcDbArc
 50
263.3735843888
 51
334.4203702629
  0
ARC
  5
3B3
100
AcDbEntity
  8
0
100
AcDbCircle
 62
7
  6
CONTINUOUS
 10
10.7710308379
 20
7.4890653287
 40
0.0486968155
100
AcDbArc
 50
15.8089885518
 51
65.8402771873
  0
ARC
  5
3B4
100
AcDbEntity
  8
0
100
AcDbCircle
 62
7
  6
CONTINUOUS
 10
10.7730413801
 20
7.4935474121
 40
0.0437844483
100
AcDbArc
 50
65.8402771873
 51
157.8274919952
  0
ARC
  5
3B5
100
AcDbEntity
  8
0
100
AcDbCircle
 62
7
  6
CONTINUOUS
 10
10.8243256195
 20
7.5131029759
 40
0.0274927188
100
AcDbArc
 50
0.0
 51
61.7976033231
  0
ARC
  5
3B6
100
AcDbEntity
  8
0
100
AcDbCircle
 62
7
  6
CONTINUOUS
 10
10.9048183383
 20
7.5131029759
 40
0.02
100
AcDbArc
 50
0.0
 51
67.975687163
  0
ARC
  5
3B7
100
AcDbEntity
  8
0
100
AcDbCircle
 62
7
  6
CONTINUOUS
 10
10.9048183383
 20
7.5131029759
 40
0.02
100
AcDbArc
 50
112.024312837
 51
180.0
  0
ARC
  5
3B8
100
AcDbEntity
  8
0
100
AcDbCircle
 62
7
  6
CONTINUOUS
 10
10.8898183383
 20
7.4931029759
 40
0.005
100
AcDbArc
 50
180.0
 51
270.0
  0
ARC
  5
3B9
100
AcDbEntity
  8
0
100
AcDbCircle
 62
7
  6
CONTINUOUS
 10
10.7993183383
 20
7.5523318604
 40
0.005
100
AcDbArc
 50
252.2472098377
 51
360.0
  0
ARC
  5
3BA
100
AcDbEntity
  8
0
100
AcDbCircle
 62
7
  6
CONTINUOUS
 10
10.8345379559
 20
7.7190559785
 40
0.011
100
AcDbArc
 50
321.8266201325
 51
36.0
  0
ARC
  5
3BB
100
AcDbEntity
  8
0
100
AcDbCircle
 62
7
  6
CONTINUOUS
 10
10.8571904317
 20
7.7355139655
 40
0.011
100
AcDbArc
 50
216.0
 51
290.1733798683
  0
ARC
  5
3BC
100
AcDbEntity
  8
0
100
AcDbCircle
 62
7
  6
CONTINUOUS
 10
10.8903601285
 20
7.7596131609
 40
0.011
100
AcDbArc
 50
216.0
 51
290.1733798683
  0
ARC
  5
3BD
100
AcDbEntity
  8
0
100
AcDbCircle
 62
7
  6
CONTINUOUS
 10
10.8757630757
 20
7.7797042804
 40
0.011
100
AcDbArc
 50
141.826620132
 51
215.9999999997
  0
ARC
  5
3BE
100
AcDbEntity
  8
0
100
AcDbCircle
 62
7
  6
CONTINUOUS
 10
10.8531105998
 20
7.7632462933
 40
0.011
100
AcDbArc
 50
36.0
 51
110.1733798683
  0
ARC
  5
3BF
100
AcDbEntity
  8
0
100
AcDbCircle
 62
7
  6
CONTINUOUS
 10
10.8199409031
 20
7.739147098
 40
0.011
100
AcDbArc
 50
36.0
 51
110.1733798683
  0
ARC
  5
3C0
100
AcDbEntity
  8
0
100
AcDbCircle
 62
7
  6
CONTINUOUS
 10
10.9012502951
 20
7.7611094718
 40
0.006
100
AcDbArc
 50
321.9999999995
 51
22.0
  0
ARC
  5
3C1
100
AcDbEntity
  8
0
100
AcDbCircle
 62
7
  6
CONTINUOUS
 10
10.8882860243
 20
7.793197168
 40
0.006
100
AcDbArc
 50
22.0
 51
82.0000000005
  0
ARC
  5
3C2
100
AcDbEntity
  8
0
100
AcDbCircle
 62
9
  6
CONTINUOUS
 10
11.0473171651
 20
7.4823318645
 40
0.3929190202
100
AcDbArc
 50
359.6039965683
 51
359.9999994088
  0
ARC
  5
3C3
100
AcDbEntity
  8
0
100
AcDbCircle
 62
7
  6
CONTINUOUS
 10
10.9853110571
 20
7.5131029759
 40
0.0274927188
100
AcDbArc
 50
118.2023966769
 51
180.0
  0
ARC
  5
3C4
100
AcDbEntity
  8
0
100
AcDbCircle
 62
7
  6
CONTINUOUS
 10
10.9198183383
 20
7.4931029759
 40
0.005
100
AcDbArc
 50
270.0
 51
360.0
  0
ARC
  5
3C5
100
AcDbEntity
  8
0
100
AcDbCircle
 62
7
  6
CONTINUOUS
 10
10.9308844078
 20
7.7976771725
 40
0.026
100
AcDbArc
 50
291.9999999999
 51
331.7151372318
  0
ARC
  5
3C6
100
AcDbEntity
  8
0
100
AcDbCircle
 62
7
  6
CONTINUOUS
 10
10.9375257552
 20
7.791732173
 40
0.022
100
AcDbArc
 50
87.3800226713
 51
111.9999999998
  0
ARC
  5
3C7
100
AcDbEntity
  8
0
100
AcDbCircle
 62
7
  6
CONTINUOUS
 10
10.9320274492
 20
7.8024531301
 40
0.019
100
AcDbArc
 50
59.9798724449
 51
111.9999999999
  0
ARC
  5
3C8
100
AcDbEntity
  8
0
100
AcDbCircle
 62
7
  6
CONTINUOUS
 10
10.9359969315
 20
7.7766830051
 40
0.0123806381
100
AcDbArc
 50
76.5032479828
 51
111.9999999999
  0
ARC
  5
3C9
100
AcDbEntity
  8
0
100
AcDbCircle
 62
7
  6
CONTINUOUS
 10
10.9282621617
 20
7.8041674594
 40
0.007
100
AcDbArc
 50
292.0000000009
 51
327.4967520179
  0
ARC
  5
3CA
100
AcDbEntity
  8
0
100
AcDbCircle
 62
7
  6
CONTINUOUS
 10
11.0380016535
 20
7.7962331654
 40
0.006
100
AcDbArc
 50
297.4999999999
 51
357.5
  0
ARC
  5
3CB
100
AcDbEntity
  8
0
100
AcDbCircle
 62
7
  6
CONTINUOUS
 10
11.0395112199
 20
7.8308079217
 40
0.006
100
AcDbArc
 50
357.5
 51
57.5000000001
  0
ARC
  5
3CC
100
AcDbEntity
  8
0
100
AcDbCircle
 62
7
  6
CONTINUOUS
 10
11.0311453512
 20
7.8305535311
 40
0.0055355033
100
AcDbArc
 50
99.0000000001
 51
166.7905032912
  0
ARC
  5
3CD
100
AcDbEntity
  8
0
100
AcDbCircle
 62
7
  6
CONTINUOUS
 10
11.0129333297
 20
7.8276690303
 40
0.0055355033
100
AcDbArc
 50
346.7905032913
 51
99.0000000001
  0
ARC
  5
3CE
100
AcDbEntity
  8
0
100
AcDbCircle
 62
7
  6
CONTINUOUS
 10
10.955093349
 20
7.8185080773
 40
0.0055355033
100
AcDbArc
 50
31.2094967085
 51
99.0
  0
ARC
  5
3CF
100
AcDbEntity
  8
0
100
AcDbCircle
 62
7
  6
CONTINUOUS
 10
10.9807732458
 20
7.8225753734
 40
0.0055355033
100
AcDbArc
 50
98.9999999999
 51
211.2094967085
  0
ARC
  5
3D0
100
AcDbEntity
  8
0
100
AcDbCircle
 62
7
  6
CONTINUOUS
 10
10.9218838662
 20
7.7692344185
 40
0.003
100
AcDbArc
 50
201.9999999991
 51
291.9999999992
  0
ARC
  5
3D1
100
AcDbEntity
  8
0
100
AcDbCircle
 62
7
  6
CONTINUOUS
 10
10.9177631937
 20
7.7794334409
 40
0.003
100
AcDbArc
 50
112.0000000001
 51
201.9999999991
  0
ARC
  5
3D2
100
AcDbEntity
  8
0
100
AcDbCircle
 62
7
  6
CONTINUOUS
 10
10.9091472421
 20
7.8007586696
 40
0.003
100
AcDbArc
 50
111.9999999991
 51
202.0000000009
  0
ARC
  5
3D3
100
AcDbEntity
  8
0
100
AcDbCircle
 62
7
  6
CONTINUOUS
 10
10.9393532321
 20
7.7906664953
 40
0.002
100
AcDbArc
 50
256.503247982
 51
336.9999999995
  0
ARC
  5
3D4
100
AcDbEntity
  8
0
100
AcDbCircle
 62
7
  6
CONTINUOUS
 10
10.9358524106
 20
7.7993313327
 40
0.002
100
AcDbArc
 50
67.000000002
 51
147.4967520181
  0
ARC
  5
3D5
100
AcDbEntity
  8
0
100
AcDbCircle
 62
7
  6
CONTINUOUS
 10
10.9115915176
 20
7.7920394083
 40
0.002
100
AcDbArc
 50
202.0000000021
 51
291.9999999986
  0
ARC
  5
3D6
100
AcDbEntity
  8
0
100
AcDbCircle
 62
7
  6
CONTINUOUS
 10
10.7554148608
 20
8.0859212653
 40
0.1205228668
100
AcDbArc
 50
267.4955413694
 51
278.4166701162
  0
ARC
  5
3D7
100
AcDbEntity
  8
0
100
AcDbCircle
 62
7
  6
CONTINUOUS
 10
10.7556798328
 20
8.0857569581
 40
0.1204648277
100
AcDbArc
 50
231.0937598352
 51
239.1582094539
  0
ARC
  5
3D8
100
AcDbEntity
  8
0
100
AcDbCircle
 62
7
  6
CONTINUOUS
 10
10.7555304735
 20
8.0856233656
 40
0.120267069
100
AcDbArc
 50
225.9576676225
 51
231.1091597162
  0
ARC
  5
3D9
100
AcDbEntity
  8
0
100
AcDbCircle
 62
7
  6
CONTINUOUS
 10
10.7551790237
 20
8.0850155237
 40
0.119570579
100
AcDbArc
 50
239.1821094122
 51
253.3843223331
  0
ARC
  5
3DA
100
AcDbEntity
  8
0
100
AcDbCircle
 62
7
  6
CONTINUOUS
 10
10.7551702735
 20
8.0840931972
 40
0.118685971
100
AcDbArc
 50
253.2610493402
 51
267.5749405687
  0
ARC
  5
3DB
100
AcDbEntity
  8
0
100
AcDbCircle
 62
7
  6
CONTINUOUS
 10
11.6516815889
 20
7.1903818276
 40
0.1213048055
100
AcDbArc
 50
181.0145047747
 51
182.6239040618
  0
ARC
  5
3DC
100
AcDbEntity
  8
0
100
AcDbCircle
 62
7
  6
CONTINUOUS
 10
11.6514159003
 20
7.1903692293
 40
0.1210388187
100
AcDbArc
 50
182.6237043439
 51
183.6470707447
  0
ARC
  5
3DD
100
AcDbEntity
  8
0
100
AcDbCircle
 62
7
  6
CONTINUOUS
 10
11.6508202334
 20
7.1907745082
 40
0.1205793313
100
AcDbArc
 50
210.9410646093
 51
220.6014630356
  0
ARC
  5
3DE
100
AcDbEntity
  8
0
100
AcDbCircle
 62
7
  6
CONTINUOUS
 10
11.339221817
 20
6.8787424431
 40
0.1205228792
100
AcDbArc
 50
87.4954489313
 51
98.4166698389
  0
ARC
  5
3DF
100
AcDbEntity
  8
0
100
AcDbCircle
 62
7
  6
CONTINUOUS
 10
11.3389560803
 20
6.8789055771
 40
0.1204662371
100
AcDbArc
 50
51.0775621663
 51
59.1581913398
  0
ARC
  5
3E0
100
AcDbEntity
  8
0
100
AcDbCircle
 62
7
  6
CONTINUOUS
 10
11.3391084963
 20
6.8790429178
 40
0.1202636327
100
AcDbArc
 50
45.9576042442
 51
51.0929468946
  0
ARC
  5
3E1
100
AcDbEntity
  8
0
100
AcDbCircle
 62
7
  6
CONTINUOUS
 10
11.6505375525
 20
7.1904445994
 40
0.1201621154
100
AcDbArc
 50
171.2184379099
 51
181.0523536295
  0
ARC
  5
3E2
100
AcDbEntity
  8
0
100
AcDbCircle
 62
7
  6
CONTINUOUS
 10
11.3394576641
 20
6.8796482184
 40
0.119570555
100
AcDbArc
 50
59.1821133846
 51
73.384168155
  0
ARC
  5
3E3
100
AcDbEntity
  8
0
100
AcDbCircle
 62
7
  6
CONTINUOUS
 10
11.3394664036
 20
6.8805705168
 40
0.1186859777
100
AcDbArc
 50
73.2608929475
 51
87.5748462421
  0
ARC
  5
3E4
100
AcDbEntity
  8
0
100
AcDbCircle
 62
9
  6
CONTINUOUS
 10
11.6469117454
 20
7.1887821424
 40
0.1164055694
100
AcDbArc
 50
221.115016235
 51
224.9909319467
  0
ARC
  5
3E5
100
AcDbEntity
  8
0
100
AcDbCircle
 62
7
  6
CONTINUOUS
 10
11.8958464757
 20
6.633803723
 40
0.1
100
AcDbArc
 50
225.0
 51
45.0
  0
ARC
  5
3E6
100
AcDbEntity
  8
0
100
AcDbCircle
 62
9
  6
CONTINUOUS
 10
11.8786778142
 20
6.6425831833
 40
0.0940728709
100
AcDbArc
 50
233.3283277543
 51
236.1052070181
  0
ARC
  5
3E7
100
AcDbEntity
  8
0
100
AcDbCircle
 62
9
  6
CONTINUOUS
 10
11.8783250842
 20
6.6421232037
 40
0.0934932746
100
AcDbArc
 50
225.023770483
 51
233.3333538948
  0
ARC
  5
3E8
100
AcDbEntity
  8
0
100
AcDbCircle
 62
9
  6
CONTINUOUS
 10
11.8875962891
 20
6.6513716671
 40
0.0934113532
100
AcDbArc
 50
33.8670005151
 51
44.9860720455
  0
ARC
  5
3E9
100
AcDbEntity
  8
0
100
AcDbCircle
 62
7
  6
CONTINUOUS
 10
11.1833183383
 20
7.4673318604
 40
0.055
100
AcDbArc
 50
180.0
 51
360.0
  0
ARC
  5
3EA
100
AcDbEntity
  8
0
100
AcDbCircle
 62
7
  6
CONTINUOUS
 10
11.3273183383
 20
7.4723318604
 40
0.04
100
AcDbArc
 50
270.0
 51
341.7900431357
  0
ARC
  5
3EB
100
AcDbEntity
  8
0
100
AcDbCircle
 62
7
  6
CONTINUOUS
 10
11.1336936113
 20
7.4654317572
 40
0.035
100
AcDbArc
 50
200.0
 51
251.0339524934
  0
ARC
  5
3EC
100
AcDbEntity
  8
0
100
AcDbCircle
 62
7
  6
CONTINUOUS
 10
11.1883183383
 20
7.4673318604
 40
0.03
100
AcDbArc
 50
180.0
 51
360.0
  0
ARC
  5
3ED
100
AcDbEntity
  8
0
100
AcDbCircle
 62
7
  6
CONTINUOUS
 10
11.2503183383
 20
7.4455983596
 40
0.015
100
AcDbArc
 50
297.8181392847
 51
360.0
  0
ARC
  5
3EE
100
AcDbEntity
  8
0
100
AcDbCircle
 62
7
  6
CONTINUOUS
 10
11.055569719
 20
7.4461710349
 40
0.015
100
AcDbArc
 50
292.6890780443
 51
20.0
  0
ARC
  5
3EF
100
AcDbEntity
  8
0
100
AcDbCircle
 62
7
  6
CONTINUOUS
 10
11.3073183383
 20
7.4373318604
 40
0.005
100
AcDbArc
 50
180.0
 51
270.0000000001
  0
ARC
  5
3F0
100
AcDbEntity
  8
0
100
AcDbCircle
 62
7
  6
CONTINUOUS
 10
11.0473183383
 20
7.4823318604
 40
1.18
100
AcDbArc
 50
229.8660222365
 51
310.1344780079
  0
ARC
  5
3F1
100
AcDbEntity
  8
0
100
AcDbCircle
 62
7
  6
CONTINUOUS
 10
11.0473183383
 20
7.4823318604
 40
1.18
100
AcDbArc
 50
319.8658507507
 51
40.1341070048
  0
ARC
  5
3F2
100
AcDbEntity
  8
0
100
AcDbCircle
 62
7
  6
CONTINUOUS
 10
11.0473183383
 20
7.4823318604
 40
1.18
100
AcDbArc
 50
49.8660222365
 51
130.1344780079
  0
ARC
  5
3F3
100
AcDbEntity
  8
0
100
AcDbCircle
 62
7
  6
CONTINUOUS
 10
11.0473183383
 20
7.4823318604
 40
1.18
100
AcDbArc
 50
139.8658507507
 51
220.1341070048
  0
ARC
  5
3F4
100
AcDbEntity
  8
0
100
AcDbCircle
 62
7
  6
CONTINUOUS
 10
11.0473183383
 20
7.4823318604
 40
1.0000026738
100
AcDbArc
 50
230.7419222783
 51
309.2580777217
  0
ARC
  5
3F5
100
AcDbEntity
  8
0
100
AcDbCircle
 62
7
  6
CONTINUOUS
 10
11.0473183383
 20
7.4823318604
 40
1.0000026738
100
AcDbArc
 50
140.7561289076
 51
219.2438710924
  0
ARC
  5
3F6
100
AcDbEntity
  8
0
100
AcDbCircle
 62
7
  6
CONTINUOUS
 10
11.0473183383
 20
7.4823318604
 40
1.0000026738
100
AcDbArc
 50
50.7419222783
 51
129.2580777217
  0
ARC
  5
3F7
100
AcDbEntity
  8
0
100
AcDbCircle
 62
7
  6
CONTINUOUS
 10
11.0473183383
 20
7.4823318604
 40
1.0000026738
100
AcDbArc
 50
320.7561289076
 51
39.2438710924
  0
ARC
  5
3F8
100
AcDbEntity
  8
0
100
AcDbCircle
 62
9
  6
CONTINUOUS
 10
11.0473183383
 20
7.4823318604
 40
0.8130026738
100
AcDbArc
 50
52.080868263
 51
127.9186799835
  0
ARC
  5
3F9
100
AcDbEntity
  8
0
100
AcDbCircle
 62
9
  6
CONTINUOUS
 10
11.0473183383
 20
7.4823318604
 40
0.8130026738
100
AcDbArc
 50
322.0866307081
 51
37.9152154746
  0
ARC
  5
3FA
100
AcDbEntity
  8
0
100
AcDbCircle
 62
9
  6
CONTINUOUS
 10
11.0473183383
 20
7.4823318604
 40
0.8130026738
100
AcDbArc
 50
232.080868263
 51
307.9186799835
  0
ARC
  5
3FB
100
AcDbEntity
  8
0
100
AcDbCircle
 62
9
  6
CONTINUOUS
 10
11.0473183383
 20
7.4823318604
 40
0.8130026738
100
AcDbArc
 50
142.0866307081
 51
217.9152154746
  0
ARC
  5
3FC
100
AcDbEntity
  8
0
100
AcDbCircle
 62
7
  6
CONTINUOUS
 10
11.0473183383
 20
7.4823318604
 40
0.741
100
AcDbArc
 50
322.7729570256
 51
357.6295013938
  0
ARC
  5
3FD
100
AcDbEntity
  8
0
100
AcDbCircle
 62
7
  6
CONTINUOUS
 10
11.0473183383
 20
7.4823318604
 40
0.741
100
AcDbArc
 50
302.3704986062
 51
307.2328602271
  0
ARC
  5
3FE
100
AcDbEntity
  8
0
100
AcDbCircle
 62
7
  6
CONTINUOUS
 10
11.0473183383
 20
7.4823318604
 40
0.741
100
AcDbArc
 50
242.3704986062
 51
297.6295013938
  0
ARC
  5
3FF
100
AcDbEntity
  8
0
100
AcDbCircle
 62
7
  6
CONTINUOUS
 10
11.0473183383
 20
7.4823318604
 40
0.741
100
AcDbArc
 50
232.7671397729
 51
237.6295013938
  0
ARC
  5
400
100
AcDbEntity
  8
0
100
AcDbCircle
 62
7
  6
CONTINUOUS
 10
11.0473183383
 20
7.4823318604
 40
0.741
100
AcDbArc
 50
182.3704986062
 51
217.2270429744
  0
ARC
  5
401
100
AcDbEntity
  8
0
100
AcDbCircle
 62
7
  6
CONTINUOUS
 10
11.0473183383
 20
7.4823318604
 40
0.741
100
AcDbArc
 50
52.7671397729
 51
57.6295013938
  0
ARC
  5
402
100
AcDbEntity
  8
0
100
AcDbCircle
 62
7
  6
CONTINUOUS
 10
11.0473183383
 20
7.4823318604
 40
0.741
100
AcDbArc
 50
2.3704986062
 51
37.2270429744
  0
ARC
  5
403
100
AcDbEntity
  8
0
100
AcDbCircle
 62
7
  6
CONTINUOUS
 10
11.0473183383
 20
7.4823318604
 40
0.741
100
AcDbArc
 50
62.3704986062
 51
117.6295013938
  0
ARC
  5
404
100
AcDbEntity
  8
0
100
AcDbCircle
 62
7
  6
CONTINUOUS
 10
11.0473183383
 20
7.4823318604
 40
0.741
100
AcDbArc
 50
142.7729570256
 51
177.6295013938
  0
ARC
  5
405
100
AcDbEntity
  8
0
100
AcDbCircle
 62
7
  6
CONTINUOUS
 10
11.0473183383
 20
7.4823318604
 40
0.741
100
AcDbArc
 50
122.3704986062
 51
127.2328602271
  0
ARC
  5
406
100
AcDbEntity
  8
0
100
AcDbCircle
 62
7
  6
CONTINUOUS
 10
11.0473183383
 20
7.4823318604
 40
0.6515
100
AcDbArc
 50
233.8522336253
 51
306.1477663747
  0
ARC
  5
407
100
AcDbEntity
  8
0
100
AcDbCircle
 62
7
  6
CONTINUOUS
 10
11.0473183383
 20
7.4823318604
 40
0.6515
100
AcDbArc
 50
143.8517552474
 51
216.1482447526
  0
ARC
  5
408
100
AcDbEntity
  8
0
100
AcDbCircle
 62
7
  6
CONTINUOUS
 10
11.0473183383
 20
7.4823318604
 40
0.6515
100
AcDbArc
 50
53.8522336253
 51
126.1477663747
  0
ARC
  5
409
100
AcDbEntity
  8
0
100
AcDbCircle
 62
7
  6
CONTINUOUS
 10
11.0473183383
 20
7.4823318604
 40
0.6515
100
AcDbArc
 50
323.8517552474
 51
36.1482447526
  0
ARC
  5
40A
100
AcDbEntity
  8
0
100
AcDbCircle
 62
9
  6
CONTINUOUS
 10
11.0473183383
 20
7.4823318604
 40
0.6146339942
100
AcDbArc
 50
54.7543440974
 51
125.252778321
  0
ARC
  5
40B
100
AcDbEntity
  8
0
100
AcDbCircle
 62
9
  6
CONTINUOUS
 10
11.0473183383
 20
7.4823318604
 40
0.6146339942
100
AcDbArc
 50
144.7470381156
 51
215.2529478352
  0
ARC
  5
40C
100
AcDbEntity
  8
0
100
AcDbCircle
 62
9
  6
CONTINUOUS
 10
11.0473183383
 20
7.4823318604
 40
0.6146339942
100
AcDbArc
 50
234.7543441865
 51
305.2527782893
  0
ARC
  5
40D
100
AcDbEntity
  8
0
100
AcDbCircle
 62
9
  6
CONTINUOUS
 10
11.0473183383
 20
7.4823318604
 40
0.6146339942
100
AcDbArc
 50
324.7543441842
 51
35.2527783003
  0
CIRCLE
  5
40E
100
AcDbEntity
  8
0
100
AcDbCircle
 62
7
  6
CONTINUOUS
 10
11.0473183383
 20
7.4823318604
 40
0.5575
  0
CIRCLE
  5
40F
100
AcDbEntity
  8
0
100
AcDbCircle
 62
7
  6
CONTINUOUS
 10
11.0473183383
 20
7.4823318604
 40
0.5175
  0
CIRCLE
  5
410
100
AcDbEntity
  8
0
100
AcDbCircle
 62
9
  6
CONTINUOUS
 10
11.0473183383
 20
7.4823318604
 40
0.4249700199
  0
CIRCLE
  5
411
100
AcDbEntity
  8
0
100
AcDbCircle
 62
7
  6
CONTINUOUS
 10
11.0473183383
 20
7.4823318604
 40
0.4075
  0
CIRCLE
  5
412
100
AcDbEntity
  8
0
100
AcDbCircle
 62
7
  6
CONTINUOUS
 10
11.0473183383
 20
7.4823318604
 40
0.4
  0
ARC
  5
413
100
AcDbEntity
  8
0
100
AcDbCircle
 62
9
  6
CONTINUOUS
 10
11.0473200592
 20
7.48257565
 40
0.3929189109
100
AcDbArc
 50
179.6395469406
 51
180.0355496154
  0
ARC
  5
414
100
AcDbEntity
  8
0
100
AcDbCircle
 62
9
  6
CONTINUOUS
 10
11.0473183383
 20
7.4823318604
 40
0.392917847
100
AcDbArc
 50
0.0
 51
179.6039964399
  0
ARC
  5
415
100
AcDbEntity
  8
0
100
AcDbCircle
 62
9
  6
CONTINUOUS
 10
11.0473183383
 20
7.4823318604
 40
0.392917847
100
AcDbArc
 50
180.0
 51
359.6039959771
  0
ARC
  5
416
100
AcDbEntity
  8
0
100
AcDbCircle
 62
7
  6
CONTINUOUS
 10
11.1743183383
 20
7.5213318604
 40
0.016
100
AcDbArc
 50
90.0
 51
180.0
  0
ARC
  5
417
100
AcDbEntity
  8
0
100
AcDbCircle
 62
7
  6
CONTINUOUS
 10
11.1123183383
 20
7.5213318604
 40
0.016
100
AcDbArc
 50
0.0
 51
90.0
  0
ARC
  5
418
100
AcDbEntity
  8
0
100
AcDbCircle
 62
7
  6
CONTINUOUS
 10
11.0822607526
 20
7.8241330127
 40
0.016
100
AcDbArc
 50
267.5
 51
87.5
  0
ARC
  5
419
100
AcDbEntity
  8
0
100
AcDbCircle
 62
7
  6
CONTINUOUS
 10
11.1590994791
 20
7.7810929099
 40
0.011
100
AcDbArc
 50
274.0000000001
 51
334.0
  0
ARC
  5
41A
100
AcDbEntity
  8
0
100
AcDbCircle
 62
7
  6
CONTINUOUS
 10
11.1704740886
 20
7.8044143155
 40
0.011
100
AcDbArc
 50
334.0
 51
33.9999999997
  0
ARC
  5
41B
100
AcDbEntity
  8
0
100
AcDbCircle
 62
7
  6
CONTINUOUS
 10
11.0755749563
 20
7.8244249208
 40
0.0096921657
100
AcDbArc
 50
267.5
 51
87.5
  0
ARC
  5
41C
100
AcDbEntity
  8
0
100
AcDbCircle
 62
7
  6
CONTINUOUS
 10
11.0639769072
 20
7.7950990613
 40
0.006
100
AcDbArc
 50
177.4999999999
 51
237.5000000001
  0
ARC
  5
41D
100
AcDbEntity
  8
0
100
AcDbCircle
 62
7
  6
CONTINUOUS
 10
11.1836147204
 20
7.7743273023
 40
0.001
100
AcDbArc
 50
63.9999999994
 51
153.9999999992
  0
ARC
  5
41E
100
AcDbEntity
  8
0
100
AcDbCircle
 62
7
  6
CONTINUOUS
 10
11.1859584871
 20
7.7731841709
 40
0.001
100
AcDbArc
 50
14.1777964199
 51
63.9999999994
  0
ARC
  5
41F
100
AcDbEntity
  8
0
100
AcDbCircle
 62
7
  6
CONTINUOUS
 10
11.0595401621
 20
7.8081088194
 40
0.001
100
AcDbArc
 50
87.5000000002
 51
177.4999999978
  0
ARC
  5
420
100
AcDbEntity
  8
0
100
AcDbCircle
 62
7
  6
CONTINUOUS
 10
11.0599025448
 20
7.8164087465
 40
0.001
100
AcDbArc
 50
177.4999999978
 51
267.5000000006
  0
ARC
  5
421
100
AcDbEntity
  8
0
100
AcDbCircle
 62
7
  6
CONTINUOUS
 10
11.0606608386
 20
7.8337765319
 40
0.001
100
AcDbArc
 50
87.5000000002
 51
177.4999999978
  0
ARC
  5
422
100
AcDbEntity
  8
0
100
AcDbCircle
 62
7
  6
CONTINUOUS
 10
11.187216792
 20
7.7817126436
 40
0.001
100
AcDbArc
 50
153.9999999992
 51
243.9999999995
  0
ARC
  5
423
100
AcDbEntity
  8
0
100
AcDbCircle
 62
7
  6
CONTINUOUS
 10
11.2893216279
 20
7.4848318604
 40
0.08
100
AcDbArc
 50
341.7900431357
 51
18.2099568643
  0
ARC
  5
424
100
AcDbEntity
  8
0
100
AcDbCircle
 62
7
  6
CONTINUOUS
 10
11.3273183383
 20
7.4823318604
 40
0.07
100
AcDbArc
 50
270.0
 51
90.0
  0
ARC
  5
425
100
AcDbEntity
  8
0
100
AcDbCircle
 62
7
  6
CONTINUOUS
 10
11.3273183383
 20
7.4973318604
 40
0.04
100
AcDbArc
 50
18.2099568643
 51
90.0
  0
ARC
  5
426
100
AcDbEntity
  8
0
100
AcDbCircle
 62
7
  6
CONTINUOUS
 10
11.2023183383
 20
7.5213318604
 40
0.016
100
AcDbArc
 50
0.0
 51
90.0
  0
ARC
  5
427
100
AcDbEntity
  8
0
100
AcDbCircle
 62
7
  6
CONTINUOUS
 10
11.2503183383
 20
7.5240653612
 40
0.015
100
AcDbArc
 50
0.0
 51
62.1818607153
  0
ARC
  5
428
100
AcDbEntity
  8
0
100
AcDbCircle
 62
7
  6
CONTINUOUS
 10
11.2523183383
 20
7.5213318604
 40
0.014
100
AcDbArc
 50
90.0
 51
180.0
  0
ARC
  5
429
100
AcDbEntity
  8
0
100
AcDbCircle
 62
7
  6
CONTINUOUS
 10
11.3073183383
 20
7.5323318604
 40
0.005
100
AcDbArc
 50
89.9999999999
 51
180.0
  0
ARC
  5
42A
100
AcDbEntity
  8
0
100
AcDbCircle
 62
7
  6
CONTINUOUS
 10
11.2084872219
 20
7.7831218053
 40
0.018
100
AcDbArc
 50
236.0164438543
 51
63.9999999999
  0
ARC
  5
42B
100
AcDbEntity
  8
0
100
AcDbCircle
 62
7
  6
CONTINUOUS
 10
11.2684083358
 20
7.7380419338
 40
0.0146811183
100
AcDbArc
 50
7.0
 51
52.0000000003
  0
ARC
  5
42C
100
AcDbEntity
  8
0
100
AcDbCircle
 62
7
  6
CONTINUOUS
 10
11.2419462183
 20
7.7587164058
 40
0.0146811183
100
AcDbArc
 50
52.0
 51
97.0
  0
ARC
  5
42D
100
AcDbEntity
  8
0
100
AcDbCircle
 62
7
  6
CONTINUOUS
 10
11.2285071832
 20
7.7459162566
 40
0.013
100
AcDbArc
 50
261.9999999999
 51
322.0
  0
ARC
  5
42E
100
AcDbEntity
  8
0
100
AcDbCircle
 62
7
  6
CONTINUOUS
 10
11.2592396026
 20
7.7219054591
 40
0.013
100
AcDbArc
 50
141.9999999998
 51
201.9999999999
  0
ARC
  5
42F
100
AcDbEntity
  8
0
100
AcDbCircle
 62
7
  6
CONTINUOUS
 10
11.2025633703
 20
7.7860110608
 40
0.0115908889
100
AcDbArc
 50
243.9999999995
 51
64.0000000002
  0
ARC
  5
430
100
AcDbEntity
  8
0
100
AcDbCircle
 62
7
  6
CONTINUOUS
 10
11.1905572707
 20
7.7657499197
 40
0.011
100
AcDbArc
 50
153.9999999997
 51
214.0000000001
  0
ARC
  5
431
100
AcDbEntity
  8
0
100
AcDbCircle
 62
7
  6
CONTINUOUS
 10
11.2186165257
 20
7.753704171
 40
0.011
100
AcDbArc
 50
208.0605153621
 51
243.9999999999
  0
ARC
  5
432
100
AcDbEntity
  8
0
100
AcDbCircle
 62
7
  6
CONTINUOUS
 10
11.2695102952
 20
7.7545425771
 40
0.001
100
AcDbArc
 50
52.0000000008
 51
142.0000000041
  0
ARC
  5
433
100
AcDbEntity
  8
0
100
AcDbCircle
 62
7
  6
CONTINUOUS
 10
11.2576901339
 20
7.7637774992
 40
0.001
100
AcDbArc
 50
322.0000000003
 51
52.0000000009
  0
ARC
  5
434
100
AcDbEntity
  8
0
100
AcDbCircle
 62
7
  6
CONTINUOUS
 10
11.1965022722
 20
7.8007506994
 40
0.001
100
AcDbArc
 50
63.9999999994
 51
153.9999999993
  0
ARC
  5
435
100
AcDbEntity
  8
0
100
AcDbCircle
 62
7
  6
CONTINUOUS
 10
11.3392684211
 20
8.0866945931
 40
0.1213042895
100
AcDbArc
 50
271.0144150322
 51
272.6229681118
  0
ARC
  5
436
100
AcDbEntity
  8
0
100
AcDbCircle
 62
7
  6
CONTINUOUS
 10
11.3392810211
 20
8.0864288094
 40
0.1210382077
100
AcDbArc
 50
272.6227675832
 51
273.6471811747
  0
ARC
  5
437
100
AcDbEntity
  8
0
100
AcDbCircle
 62
7
  6
CONTINUOUS
 10
11.3388756014
 20
8.0858338719
 40
0.1205794746
100
AcDbArc
 50
300.9405047331
 51
310.5962910568
  0
ARC
  5
438
100
AcDbEntity
  8
0
100
AcDbCircle
 62
7
  6
CONTINUOUS
 10
11.3392082243
 20
8.0855986481
 40
0.1202096354
100
AcDbArc
 50
261.3419365379
 51
271.0506148476
  0
ARC
  5
439
100
AcDbEntity
  8
0
100
AcDbCircle
 62
9
  6
CONTINUOUS
 10
11.3408671013
 20
8.0819262828
 40
0.1164069626
100
AcDbArc
 50
311.1096992814
 51
314.9909110439
  0
ARC
  5
43A
100
AcDbEntity
  8
0
100
AcDbCircle
 62
7
  6
CONTINUOUS
 10
11.6508638468
 20
7.7742336874
 40
0.120479085
100
AcDbArc
 50
177.4934201058
 51
188.5484550085
  0
ARC
  5
43B
100
AcDbEntity
  8
0
100
AcDbCircle
 62
7
  6
CONTINUOUS
 10
11.6507483014
 20
7.773967232
 40
0.1204706118
100
AcDbArc
 50
141.0269084834
 51
149.1581312551
  0
ARC
  5
43C
100
AcDbEntity
  8
0
100
AcDbCircle
 62
7
  6
CONTINUOUS
 10
11.6505992107
 20
7.7741292442
 40
0.1202528084
100
AcDbArc
 50
135.9574059063
 51
141.0422427222
  0
ARC
  5
43D
100
AcDbEntity
  8
0
100
AcDbCircle
 62
7
  6
CONTINUOUS
 10
11.6504379939
 20
7.7742564445
 40
0.1200554401
100
AcDbArc
 50
149.2007147242
 51
177.4953821149
  0
ARC
  5
43E
100
AcDbEntity
  8
0
100
AcDbCircle
 62
7
  6
CONTINUOUS
 10
11.8958464757
 20
8.3308599978
 40
0.1
100
AcDbArc
 50
315.0
 51
135.0
  0
ARC
  5
43F
100
AcDbEntity
  8
0
100
AcDbCircle
 62
9
  6
CONTINUOUS
 10
11.8870670154
 20
8.3136913363
 40
0.0940728709
100
AcDbArc
 50
323.3283277541
 51
326.1052070183
  0
ARC
  5
440
100
AcDbEntity
  8
0
100
AcDbCircle
 62
9
  6
CONTINUOUS
 10
11.8875269949
 20
8.3133386063
 40
0.0934932746
100
AcDbArc
 50
315.023770483
 51
323.3333538948
  0
ARC
  5
441
100
AcDbEntity
  8
0
100
AcDbCircle
 62
9
  6
CONTINUOUS
 10
11.8782785316
 20
8.3226098113
 40
0.0934113532
100
AcDbArc
 50
123.8670005151
 51
134.9860720455
  0
SPLINE
  5
442
100
AcDbEntity
  8
0
100
AcDbSpline
 62
7
  6
CONTINUOUS
 70
0
 71
3
 72
11
 73
7
 74
0
 42
0.0000001
 43
0.0000001
 44
0.0000000001
 40
0.0
 40
0.0
 40
0.0
 40
0.0
 40
0.271807482
 40
0.4996953051
 40
0.7275315791
 40
1.0
 40
1.0
 40
1.0
 40
1.0
 10
11.159435689
 20
7.7928959702
 30
0.0
 10
11.161616944
 20
7.8010376184
 30
0.0
 10
11.1611304259
 20
7.8172102429
 30
0.0
 10
11.1409412954
 20
7.8317818404
 30
0.0
 10
11.1162256935
 20
7.829218009
 30
0.0
 10
11.1075247411
 20
7.815529942
 30
0.0
 10
11.1053438838
 20
7.8073899902
 30
0.0
  0
SPLINE
  5
443
100
AcDbEntity
  8
0
100
AcDbSpline
 62
7
  6
CONTINUOUS
 70
0
 71
3
 72
11
 73
7
 74
0
 42
0.0000001
 43
0.0000001
 44
0.0000000001
 40
0.0
 40
0.0
 40
0.0
 40
0.0
 40
0.272471847
 40
0.5003375325
 40
0.728192518
 40
1.0
 40
1.0
 40
1.0
 40
1.0
 10
11.1053438838
 20
7.8073899902
 30
0.0
 10
11.1031629991
 20
7.7992499362
 30
0.0
 10
11.1038551049
 20
7.7830438738
 30
0.0
 10
11.1239725245
 20
7.7684679595
 30
0.0
 10
11.1487483655
 20
7.7709923732
 30
0.0
 10
11.157254434
 20
7.7847543219
 30
0.0
 10
11.159435689
 20
7.7928959702
 30
0.0
  0
SPLINE
  5
444
100
AcDbEntity
  8
0
100
AcDbSpline
 62
7
  6
CONTINUOUS
 70
0
 71
3
 72
11
 73
7
 74
0
 42
0.0000001
 43
0.0000001
 44
0.0000000001
 40
0.0
 40
0.0
 40
0.0
 40
0.0
 40
0.2871955376
 40
0.5007701497
 40
0.7143447617
 40
1.0
 40
1.0
 40
1.0
 40
1.0
 10
11.1178042859
 20
7.804051071
 30
0.0
 10
11.1193206667
 20
7.8097102814
 30
0.0
 10
11.1230969769
 20
7.8192746067
 30
0.0
 10
11.1386045915
 20
7.8231275358
 30
0.0
 10
11.1502728346
 20
7.8120290297
 30
0.0
 10
11.1482995197
 20
7.8019497338
 30
0.0
 10
11.1467820607
 20
7.7962864997
 30
0.0
  0
SPLINE
  5
445
100
AcDbEntity
  8
0
100
AcDbSpline
 62
7
  6
CONTINUOUS
 70
0
 71
3
 72
11
 73
7
 74
0
 42
0.0000001
 43
0.0000001
 44
0.0000000001
 40
0.0
 40
0.0
 40
0.0
 40
0.0
 40
0.2856552383
 40
0.4992298503
 40
0.7128044623
 40
1.0
 40
1.0
 40
1.0
 40
1.0
 10
11.1467820607
 20
7.7962864997
 30
0.0
 10
11.1452646016
 20
7.7906232656
 30
0.0
 10
11.1419338946
 20
7.7809076818
 30
0.0
 10
11.1262796466
 20
7.7771302151
 30
0.0
 10
11.1147761229
 20
7.7882207569
 30
0.0
 10
11.116287905
 20
7.7983918607
 30
0.0
 10
11.1178042859
 20
7.804051071
 30
0.0
  0
SPLINE
  5
446
100
AcDbEntity
  8
0
100
AcDbSpline
 62
9
  6
CONTINUOUS
 70
0
 71
3
 72
25
 73
21
 74
0
 42
0.0000001
 43
0.0000001
 44
0.0000000001
 40
0.0
 40
0.0
 40
0.0
 40
0.0
 40
0.1875638505
 40
0.3682586038
 40
0.453813227
 40
0.5351605277
 40
0.6115799897
 40
0.682372221
 40
0.7468960772
 40
0.8046424679
 40
0.8551573719
 40
0.8981387464
 40
0.9167752183
 40
0.9335118742
 40
0.9483799142
 40
0.9614558517
 40
0.9728771241
 40
0.9828605212
 40
0.9917405699
 40
1.0
 40
1.0
 40
1.0
 40
1.0
 10
10.269878909
 20
6.7048933612
 30
0.0
 10
10.2744764722
 20
6.7002958086
 30
0.0
 10
10.2833517884
 20
6.691116292
 30
0.0
 10
10.2938909794
 20
6.6794318388
 30
0.0
 10
10.3016903191
 20
6.6702460148
 30
0.0
 10
10.30700953
 20
6.6636989614
 30
0.0
 10
10.311856705
 20
6.6574305619
 30
0.0
 10
10.3161854995
 20
6.6515017148
 30
0.0
 10
10.3199531323
 20
6.6459687783
 30
0.0
 10
10.3231268384
 20
6.640886621
 30
0.0
 10
10.3256769146
 20
6.6363029801
 30
0.0
 10
10.3273378105
 20
6.6327830125
 30
0.0
 10
10.3283092039
 20
6.6302451254
 30
0.0
 10
10.3288332485
 20
6.6285828572
 30
0.0
 10
10.3291867826
 20
6.6270729928
 30
0.0
 10
10.329368821
 20
6.6257178737
 30
0.0
 10
10.3293794038
 20
6.6245186898
 30
0.0
 10
10.3292160457
 20
6.6234753626
 30
0.0
 10
10.3288731795
 20
6.622590587
 30
0.0
 10
10.3285137266
 20
6.6221058925
 30
0.0
 10
10.3283112718
 20
6.6219034377
 30
0.0
  0
SPLINE
  5
447
100
AcDbEntity
  8
0
100
AcDbSpline
 62
9
  6
CONTINUOUS
 70
0
 71
3
 72
20
 73
16
 74
0
 42
0.0000001
 43
0.0000001
 44
0.0000000001
 40
0.0
 40
0.0
 40
0.0
 40
0.0
 40
0.1267104222
 40
0.1901280454
 40
0.253410156
 40
0.3794090998
 40
0.442241555
 40
0.5049109921
 40
0.5674005395
 40
0.6297044213
 40
0.7536350415
 40
0.8153916279
 40
0.8770107075
 40
0.9385347137
 40
1.0
 40
1.0
 40
1.0
 40
1.0
 10
10.1434051748
 20
6.5784186969
 30
0.0
 10
10.1393379969
 20
6.582485875
 30
0.0
 10
10.1337344307
 20
6.5891188574
 30
0.0
 10
10.1274540978
 20
6.5987681432
 30
0.0
 10
10.1220225338
 20
6.6088843299
 30
0.0
 10
10.1178951837
 20
6.6196280749
 30
0.0
 10
10.1151897853
 20
6.630730387
 30
0.0
 10
10.1138782488
 20
6.6391735128
 30
0.0
 10
10.1132961502
 20
6.6476744274
 30
0.0
 10
10.1135040941
 20
6.6589735
 30
0.0
 10
10.1151744352
 20
6.6701754874
 30
0.0
 10
10.1182850394
 20
6.6809736811
 30
0.0
 10
10.1213134408
 20
6.6888141405
 30
0.0
 10
10.1250183824
 20
6.6963423625
 30
0.0
 10
10.1279272862
 20
6.7011179765
 30
0.0
 10
10.1294832546
 20
6.7034339719
 30
0.0
  0
SPLINE
  5
448
100
AcDbEntity
  8
0
100
AcDbSpline
 62
9
  6
CONTINUOUS
 70
0
 71
3
 72
25
 73
21
 74
0
 42
0.0000001
 43
0.0000001
 44
0.0000000001
 40
0.0
 40
0.0
 40
0.0
 40
0.0
 40
0.0082591244
 40
0.017137719
 40
0.0271182829
 40
0.0385354783
 40
0.0516063919
 40
0.0664681465
 40
0.0831950469
 40
0.1018195452
 40
0.1447779801
 40
0.1952754904
 40
0.2529969391
 40
0.3175088646
 40
0.3882979525
 40
0.4647129909
 40
0.5460694785
 40
0.6316472522
 40
0.8124112346
 40
1.0
 40
1.0
 40
1.0
 40
1.0
 10
10.1868899164
 20
6.7633247947
 30
0.0
 10
10.1870923615
 20
6.7635272399
 30
0.0
 10
10.1875769533
 20
6.7638866991
 30
0.0
 10
10.1884614971
 20
6.7642296854
 30
0.0
 10
10.1895044981
 20
6.7643931899
 30
0.0
 10
10.1907032596
 20
6.7643827483
 30
0.0
 10
10.1920578443
 20
6.7642008194
 30
0.0
 10
10.1935669638
 20
6.7638473967
 30
0.0
 10
10.1952283475
 20
6.76332386
 30
0.0
 10
10.1977648958
 20
6.7623533804
 30
0.0
 10
10.2012833491
 20
6.7606936105
 30
0.0
 10
10.205865055
 20
6.7581448422
 30
0.0
 10
10.2109460723
 20
6.7549729903
 30
0.0
 10
10.2164778754
 20
6.7512062685
 30
0.0
 10
10.2224062386
 20
6.7468781066
 30
0.0
 10
10.2286750577
 20
6.742031521
 30
0.0
 10
10.2352228389
 20
6.7367118131
 30
0.0
 10
10.2444115019
 20
6.7289105828
 30
0.0
 10
10.2560988771
 20
6.7183688094
 30
0.0
 10
10.2652807863
 20
6.7094914751
 30
0.0
 10
10.2698789098
 20
6.704893362
 30
0.0
  0
SPLINE
  5
449
100
AcDbEntity
  8
0
100
AcDbSpline
 62
9
  6
CONTINUOUS
 70
0
 71
3
 72
17
 73
13
 74
0
 42
0.0000001
 43
0.0000001
 44
0.0000000001
 40
0.0
 40
0.0
 40
0.0
 40
0.0
 40
0.1262279178
 40
0.2541742397
 40
0.3184664443
 40
0.3827874486
 40
0.5109885751
 40
0.6377677666
 40
0.700285208
 40
0.7620492965
 40
0.8830064395
 40
1.0
 40
1.0
 40
1.0
 40
1.0
 10
10.7719069262
 20
7.9661366665
 30
0.0
 10
10.7673635503
 20
7.9654836389
 30
0.0
 10
10.7581289481
 20
7.9647129309
 30
0.0
 10
10.7465274782
 20
7.9650845958
 30
0.0
 10
10.7372602608
 20
7.9662024543
 30
0.0
 10
10.7280687584
 20
7.9678819969
 30
0.0
 10
10.7168515643
 20
7.9709870412
 30
0.0
 10
10.7061272638
 20
7.9753364323
 30
0.0
 10
10.6979980831
 20
7.9795016243
 30
0.0
 10
10.6903113241
 20
7.9840314878
 30
0.0
 10
10.6814075757
 20
7.9903579517
 30
0.0
 10
10.6749376124
 20
7.9961339424
 30
0.0
 10
10.6719293862
 20
7.999142169
 30
0.0
  0
SPLINE
  5
44A
100
AcDbEntity
  8
0
100
AcDbSpline
 62
9
  6
CONTINUOUS
 70
0
 71
3
 72
17
 73
13
 74
0
 42
0.0000001
 43
0.0000001
 44
0.0000000001
 40
0.0
 40
0.0
 40
0.0
 40
0.0
 40
0.1262281911
 40
0.254174715
 40
0.3184669908
 40
0.382788044
 40
0.5109892039
 40
0.6377683483
 40
0.7002857362
 40
0.7620497515
 40
0.8830066965
 40
1.0
 40
1.0
 40
1.0
 40
1.0
 10
11.3227297503
 20
6.9985270543
 30
0.0
 10
11.3272731361
 20
6.9991800833
 30
0.0
 10
11.3365077557
 20
6.9999507915
 30
0.0
 10
11.3481092455
 20
6.9995791219
 30
0.0
 10
11.3573764741
 20
6.9984612577
 30
0.0
 10
11.3665679811
 20
6.9967817095
 30
0.0
 10
11.3777851747
 20
6.9936766585
 30
0.0
 10
11.3885094705
 20
6.9893272621
 30
0.0
 10
11.3966386434
 20
6.9851620689
 30
0.0
 10
11.4043253902
 20
6.980632208
 30
0.0
 10
11.4132291208
 20
6.9743057523
 30
0.0
 10
11.4196990708
 20
6.9685297718
 30
0.0
 10
11.4227072904
 20
6.9655215518
 30
0.0
  0
SPLINE
  5
44B
100
AcDbEntity
  8
0
100
AcDbSpline
 62
9
  6
CONTINUOUS
 70
0
 71
3
 72
12
 73
8
 74
0
 42
0.0000001
 43
0.0000001
 44
0.0000000001
 40
0.0
 40
0.0
 40
0.0
 40
0.0
 40
0.085043859
 40
0.1901924397
 40
0.4477525251
 40
0.7313141099
 40
1.0
 40
1.0
 40
1.0
 40
1.0
 10
10.654539957
 20
7.8746206047
 30
0.0
 10
10.6536833118
 20
7.8754415894
 30
0.0
 10
10.6517816966
 20
7.8772924364
 30
0.0
 10
10.6473431337
 20
7.88168848
 30
0.0
 10
10.6410028607
 20
7.8880999285
 30
0.0
 10
10.6331193598
 20
7.8961935184
 30
0.0
 10
10.6277807521
 20
7.9017492964
 30
0.0
 10
10.6251921315
 20
7.904460721
 30
0.0
  0
SPLINE
  5
44C
100
AcDbEntity
  8
0
100
AcDbSpline
 62
9
  6
CONTINUOUS
 70
0
 71
3
 72
15
 73
11
 74
0
 42
0.0000001
 43
0.0000001
 44
0.0000000001
 40
0.0
 40
0.0
 40
0.0
 40
0.0
 40
0.1318050727
 40
0.2634732626
 40
0.3939423504
 40
0.522226357
 40
0.647681184
 40
0.7695205608
 40
0.8870360286
 40
1.0
 40
1.0
 40
1.0
 40
1.0
 10
10.5632077786
 20
7.7565637905
 30
0.0
 10
10.5638923047
 20
7.7610350725
 30
0.0
 10
10.5647325446
 20
7.770062102
 30
0.0
 10
10.5644553201
 20
7.7836052762
 30
0.0
 10
10.5626908861
 20
7.7969168083
 30
0.0
 10
10.5594689851
 20
7.8097313889
 30
0.0
 10
10.5549753063
 20
7.8218380674
 30
0.0
 10
10.5493908768
 20
7.833070113
 30
0.0
 10
10.542882462
 20
7.8432847527
 30
0.0
 10
10.5379733451
 20
7.849505951
 30
0.0
 10
10.5354239634
 20
7.8524265739
 30
0.0
  0
SPLINE
  5
44D
100
AcDbEntity
  8
0
100
AcDbSpline
 62
9
  6
CONTINUOUS
 70
0
 71
3
 72
26
 73
22
 74
0
 42
0.0000001
 43
0.0000001
 44
0.0000000001
 40
0.0
 40
0.0
 40
0.0
 40
0.0
 40
0.1113985743
 40
0.2207599471
 40
0.326048973
 40
0.4258329509
 40
0.5187938164
 40
0.6040176956
 40
0.6807519346
 40
0.7486352428
 40
0.8075142707
 40
0.8576776366
 40
0.8995322287
 40
0.933498528
 40
0.9600113781
 40
0.9706083518
 40
0.9795078384
 40
0.9867784861
 40
0.9925088699
 40
0.9968329527
 40
1.0
 40
1.0
 40
1.0
 40
1.0
 10
10.6251912481
 20
7.9044598787
 30
0.0
 10
10.6222916432
 20
7.901735994
 30
0.0
 10
10.6162294805
 20
7.8966688022
 30
0.0
 10
10.6066524446
 20
7.8900274489
 30
0.0
 10
10.597004035
 20
7.8842685818
 30
0.0
 10
10.5875846962
 20
7.8793051543
 30
0.0
 10
10.5786341287
 20
7.8750077624
 30
0.0
 10
10.5703169872
 20
7.8713037729
 30
0.0
 10
10.5627597497
 20
7.8680991233
 30
0.0
 10
10.5560215955
 20
7.8653756469
 30
0.0
 10
10.5501259147
 20
7.863102193
 30
0.0
 10
10.5450591663
 20
7.8612654766
 30
0.0
 10
10.5407890663
 20
7.8598453759
 30
0.0
 10
10.5372802183
 20
7.858820385
 30
0.0
 10
10.5348071039
 20
7.8582385373
 30
0.0
 10
10.5331860765
 20
7.8579665955
 30
0.0
 10
10.5322355798
 20
7.8578590565
 30
0.0
 10
10.5314533807
 20
7.8578264417
 30
0.0
 10
10.5308338283
 20
7.8578649999
 30
0.0
 10
10.5303711424
 20
7.8579673456
 30
0.0
 10
10.5301288609
 20
7.8580999846
 30
0.0
 10
10.5300488828
 20
7.8581799596
 30
0.0
  0
SPLINE
  5
44E
100
AcDbEntity
  8
0
100
AcDbSpline
 62
9
  6
CONTINUOUS
 70
0
 71
3
 72
18
 73
14
 74
0
 42
0.0000001
 43
0.0000001
 44
0.0000000001
 40
0.0
 40
0.0
 40
0.0
 40
0.0
 40
0.0614559273
 40
0.1229671356
 40
0.2462109895
 40
0.3701520748
 40
0.4324664685
 40
0.4949732054
 40
0.6204046031
 40
0.7464718983
 40
0.8097947572
 40
0.8732476272
 40
1.0
 40
1.0
 40
1.0
 40
1.0
 10
10.1294778227
 20
8.2612369919
 30
0.0
 10
10.1279227664
 20
8.2635520781
 30
0.0
 10
10.1250158987
 20
8.2683261911
 30
0.0
 10
10.1200770329
 20
8.2783615222
 30
0.0
 10
10.1155882059
 20
8.291714324
 30
0.0
 10
10.1135040524
 20
8.305680387
 30
0.0
 10
10.1132961358
 20
8.316979618
 30
0.0
 10
10.1140722077
 20
8.3283219675
 30
0.0
 10
10.116869908
 20
8.3423694212
 30
0.0
 10
10.122019586
 20
8.3557728664
 30
0.0
 10
10.1274527467
 20
8.3658930465
 30
0.0
 10
10.1337341965
 20
8.3755435139
 30
0.0
 10
10.1393378731
 20
8.3821777222
 30
0.0
 10
10.1434051748
 20
8.3862450239
 30
0.0
  0
SPLINE
  5
44F
100
AcDbEntity
  8
0
100
AcDbSpline
 62
9
  6
CONTINUOUS
 70
0
 71
3
 72
25
 73
21
 74
0
 42
0.0000001
 43
0.0000001
 44
0.0000000001
 40
0.0
 40
0.0
 40
0.0
 40
0.0
 40
0.1875638505
 40
0.3682586038
 40
0.453813227
 40
0.5351605277
 40
0.6115799897
 40
0.682372221
 40
0.7468960772
 40
0.8046424679
 40
0.8551573719
 40
0.8981387464
 40
0.9167752183
 40
0.9335118742
 40
0.9483799142
 40
0.9614558517
 40
0.9728771241
 40
0.9828605212
 40
0.9917405699
 40
1.0
 40
1.0
 40
1.0
 40
1.0
 10
10.2698798391
 20
8.2597712897
 30
0.0
 10
10.2652822865
 20
8.2551737265
 30
0.0
 10
10.2561027699
 20
8.2462984103
 30
0.0
 10
10.2444183166
 20
8.2357592192
 30
0.0
 10
10.2352324927
 20
8.2279598796
 30
0.0
 10
10.2286854392
 20
8.2226406687
 30
0.0
 10
10.2224170397
 20
8.2177934937
 30
0.0
 10
10.2164881927
 20
8.2134646992
 30
0.0
 10
10.2109552562
 20
8.2096970664
 30
0.0
 10
10.2058730989
 20
8.2065233603
 30
0.0
 10
10.201289458
 20
8.2039732841
 30
0.0
 10
10.1977694904
 20
8.2023123882
 30
0.0
 10
10.1952316033
 20
8.2013409948
 30
0.0
 10
10.1935693351
 20
8.2008169502
 30
0.0
 10
10.1920594707
 20
8.2004634161
 30
0.0
 10
10.1907043516
 20
8.2002813777
 30
0.0
 10
10.1895051677
 20
8.2002707949
 30
0.0
 10
10.1884618405
 20
8.2004341529
 30
0.0
 10
10.1875770649
 20
8.2007770191
 30
0.0
 10
10.1870923704
 20
8.2011364721
 30
0.0
 10
10.1868899156
 20
8.2013389269
 30
0.0
  0
SPLINE
  5
450
100
AcDbEntity
  8
0
100
AcDbSpline
 62
9
  6
CONTINUOUS
 70
0
 71
3
 72
20
 73
16
 74
0
 42
0.0000001
 43
0.0000001
 44
0.0000000001
 40
0.0
 40
0.0
 40
0.0
 40
0.0
 40
0.1267104222
 40
0.1901280454
 40
0.253410156
 40
0.3794090998
 40
0.442241555
 40
0.5049109921
 40
0.5674005395
 40
0.6297044213
 40
0.7536350415
 40
0.8153916279
 40
0.8770107075
 40
0.9385347137
 40
1.0
 40
1.0
 40
1.0
 40
1.0
 10
10.1434051748
 20
8.3862450239
 30
0.0
 10
10.1474723529
 20
8.3903122018
 30
0.0
 10
10.1541053353
 20
8.395915768
 30
0.0
 10
10.163754621
 20
8.4021961008
 30
0.0
 10
10.1738708078
 20
8.4076276649
 30
0.0
 10
10.1846145528
 20
8.4117550149
 30
0.0
 10
10.1957168648
 20
8.4144604134
 30
0.0
 10
10.2041599906
 20
8.4157719499
 30
0.0
 10
10.2126609053
 20
8.4163540484
 30
0.0
 10
10.2239599779
 20
8.4161461045
 30
0.0
 10
10.2351619653
 20
8.4144757635
 30
0.0
 10
10.245960159
 20
8.4113651593
 30
0.0
 10
10.2538006184
 20
8.4083367579
 30
0.0
 10
10.2613288403
 20
8.4046318162
 30
0.0
 10
10.2661044544
 20
8.4017229125
 30
0.0
 10
10.2684204498
 20
8.4001669441
 30
0.0
  0
SPLINE
  5
451
100
AcDbEntity
  8
0
100
AcDbSpline
 62
9
  6
CONTINUOUS
 70
0
 71
3
 72
25
 73
21
 74
0
 42
0.0000001
 43
0.0000001
 44
0.0000000001
 40
0.0
 40
0.0
 40
0.0
 40
0.0
 40
0.0082591244
 40
0.017137719
 40
0.0271182829
 40
0.0385354783
 40
0.0516063919
 40
0.0664681465
 40
0.0831950469
 40
0.1018195452
 40
0.1447779801
 40
0.1952754904
 40
0.2529969391
 40
0.3175088646
 40
0.3882979525
 40
0.4647129909
 40
0.5460694785
 40
0.6316472522
 40
0.8124112346
 40
1.0
 40
1.0
 40
1.0
 40
1.0
 10
10.3283112726
 20
8.3427602823
 30
0.0
 10
10.3285137177
 20
8.3425578372
 30
0.0
 10
10.328873177
 20
8.3420732454
 30
0.0
 10
10.3292161632
 20
8.3411887016
 30
0.0
 10
10.3293796678
 20
8.3401457005
 30
0.0
 10
10.3293692261
 20
8.3389469391
 30
0.0
 10
10.3291872973
 20
8.3375923544
 30
0.0
 10
10.3288338745
 20
8.3360832349
 30
0.0
 10
10.3283103378
 20
8.3344218512
 30
0.0
 10
10.3273398583
 20
8.3318853029
 30
0.0
 10
10.3256800884
 20
8.3283668496
 30
0.0
 10
10.3231313201
 20
8.3237851437
 30
0.0
 10
10.3199594682
 20
8.3187041264
 30
0.0
 10
10.3161927464
 20
8.3131723233
 30
0.0
 10
10.3118645845
 20
8.3072439601
 30
0.0
 10
10.3070179989
 20
8.300975141
 30
0.0
 10
10.301698291
 20
8.2944273598
 30
0.0
 10
10.2938970607
 20
8.2852386968
 30
0.0
 10
10.2833552873
 20
8.2735513216
 30
0.0
 10
10.274477953
 20
8.2643694124
 30
0.0
 10
10.2698798399
 20
8.2597712888
 30
0.0
  0
SPLINE
  5
452
100
AcDbEntity
  8
0
100
AcDbSpline
 62
9
  6
CONTINUOUS
 70
0
 71
3
 72
25
 73
21
 74
0
 42
0.0000001
 43
0.0000001
 44
0.0000000001
 40
0.0
 40
0.0
 40
0.0
 40
0.0
 40
0.010906225
 40
0.0179485311
 40
0.0262908224
 40
0.0360649776
 40
0.0473739832
 40
0.0749193104
 40
0.1095188153
 40
0.1516878495
 40
0.2018956539
 40
0.2605823822
 40
0.32805308
 40
0.4041416565
 40
0.4884819001
 40
0.5803460301
 40
0.6788570043
 40
0.7826886301
 40
0.8904161899
 40
1.0
 40
1.0
 40
1.0
 40
1.0
 10
10.6719292871
 20
7.9991422678
 30
0.0
 10
10.6722067443
 20
7.998864805
 30
0.0
 10
10.6725064125
 20
7.9982587796
 30
0.0
 10
10.6727175964
 20
7.9973393255
 30
0.0
 10
10.6728105465
 20
7.9964356445
 30
0.0
 10
10.672818281
 20
7.9953762926
 30
0.0
 10
10.6727023611
 20
7.9936291352
 30
0.0
 10
10.6722862569
 20
7.9910145874
 30
0.0
 10
10.6714147658
 20
7.9873620699
 30
0.0
 10
10.6701155413
 20
7.9829804988
 30
0.0
 10
10.668365136
 20
7.9778340146
 30
0.0
 10
10.6661413736
 20
7.9718903357
 30
0.0
 10
10.6634289819
 20
7.9651375345
 30
0.0
 10
10.6601783527
 20
7.9576089913
 30
0.0
 10
10.6563548031
 20
7.9493748338
 30
0.0
 10
10.6518585877
 20
7.9405697916
 30
0.0
 10
10.6466141438
 20
7.9313696509
 30
0.0
 10
10.6404978523
 20
7.9220289783
 30
0.0
 10
10.6334355044
 20
7.9128682515
 30
0.0
 10
10.6280654487
 20
7.9071586597
 30
0.0
 10
10.6251912531
 20
7.9044598772
 30
0.0
  0
SPLINE
  5
453
100
AcDbEntity
  8
0
100
AcDbSpline
 62
9
  6
CONTINUOUS
 70
0
 71
3
 72
12
 73
8
 74
0
 42
0.0000001
 43
0.0000001
 44
0.0000000001
 40
0.0
 40
0.0
 40
0.0
 40
0.0
 40
0.085043954
 40
0.1901926332
 40
0.4477528283
 40
0.7313143443
 40
1.0
 40
1.0
 40
1.0
 40
1.0
 10
11.4400967196
 20
7.0900431161
 30
0.0
 10
11.4409533657
 20
7.0892221305
 30
0.0
 10
11.4428549828
 20
7.0873712816
 30
0.0
 10
11.4472935487
 20
7.0829752349
 30
0.0
 10
11.453633823
 20
7.076563785
 30
0.0
 10
11.461517322
 20
7.068470197
 30
0.0
 10
11.4668559268
 20
7.0629144221
 30
0.0
 10
11.4694445451
 20
7.0602029998
 30
0.0
  0
SPLINE
  5
454
100
AcDbEntity
  8
0
100
AcDbSpline
 62
9
  6
CONTINUOUS
 70
0
 71
3
 72
15
 73
11
 74
0
 42
0.0000001
 43
0.0000001
 44
0.0000000001
 40
0.0
 40
0.0
 40
0.0
 40
0.0
 40
0.1318051071
 40
0.2634733278
 40
0.3939424379
 40
0.5222264564
 40
0.6476812825
 40
0.769520641
 40
0.8870360758
 40
1.0
 40
1.0
 40
1.0
 40
1.0
 10
11.531428898
 20
7.2080999303
 30
0.0
 10
11.5307443705
 20
7.2036286396
 30
0.0
 10
11.52990413
 20
7.1946015924
 30
0.0
 10
11.5301813595
 20
7.1810583923
 30
0.0
 10
11.531945804
 20
7.1677468363
 30
0.0
 10
11.5351677206
 20
7.1549322353
 30
0.0
 10
11.5396614181
 20
7.1428255406
 30
0.0
 10
11.545245869
 20
7.1315934839
 30
0.0
 10
11.5517543061
 20
7.1213788381
 30
0.0
 10
11.5566634386
 20
7.1151576384
 30
0.0
 10
11.5592128278
 20
7.1122370156
 30
0.0
  0
SPLINE
  5
455
100
AcDbEntity
  8
0
100
AcDbSpline
 62
9
  6
CONTINUOUS
 70
0
 71
3
 72
15
 73
11
 74
0
 42
0.0000001
 43
0.0000001
 44
0.0000000001
 40
0.0
 40
0.0
 40
0.0
 40
0.0
 40
0.1318253996
 40
0.2634980058
 40
0.3939592352
 40
0.5222316805
 40
0.6476759746
 40
0.7695078458
 40
0.8870243553
 40
1.0
 40
1.0
 40
1.0
 40
1.0
 10
11.3218043497
 20
7.9664038094
 30
0.0
 10
11.3262662129
 20
7.965730832
 30
0.0
 10
11.3352722157
 20
7.9649112708
 30
0.0
 10
11.3487801773
 20
7.9652105839
 30
0.0
 10
11.3620539611
 20
7.9669895551
 30
0.0
 10
11.3748303916
 20
7.9702175949
 30
0.0
 10
11.3869008574
 20
7.9747091782
 30
0.0
 10
11.3980999661
 20
7.9802851351
 30
0.0
 10
11.4082862563
 20
7.986779657
 30
0.0
 10
11.4144914315
 20
7.9916764522
 30
0.0
 10
11.4174050055
 20
7.9942192126
 30
0.0
  0
SPLINE
  5
456
100
AcDbEntity
  8
0
100
AcDbSpline
 62
9
  6
CONTINUOUS
 70
0
 71
3
 72
26
 73
22
 74
0
 42
0.0000001
 43
0.0000001
 44
0.0000000001
 40
0.0
 40
0.0
 40
0.0
 40
0.0
 40
0.1113985743
 40
0.2207599471
 40
0.326048973
 40
0.4258329509
 40
0.5187938164
 40
0.6040176956
 40
0.6807519346
 40
0.7486352428
 40
0.8075142707
 40
0.8576776366
 40
0.8995322287
 40
0.933498528
 40
0.9600113781
 40
0.9706083518
 40
0.9795078384
 40
0.9867784861
 40
0.9925088699
 40
0.9968329527
 40
1.0
 40
1.0
 40
1.0
 40
1.0
 10
11.4694463566
 20
7.9044589506
 30
0.0
 10
11.4667224719
 20
7.9073585555
 30
0.0
 10
11.46165528
 20
7.9134207181
 30
0.0
 10
11.4550139268
 20
7.9229977541
 30
0.0
 10
11.4492550597
 20
7.9326461637
 30
0.0
 10
11.4442916322
 20
7.9420655025
 30
0.0
 10
11.4399942402
 20
7.95101607
 30
0.0
 10
11.4362902508
 20
7.9593332115
 30
0.0
 10
11.4330856012
 20
7.966890449
 30
0.0
 10
11.4303621248
 20
7.9736286032
 30
0.0
 10
11.4280886709
 20
7.979524284
 30
0.0
 10
11.4262519545
 20
7.9845910324
 30
0.0
 10
11.4248318537
 20
7.9888611324
 30
0.0
 10
11.4238068629
 20
7.9923699804
 30
0.0
 10
11.4232250152
 20
7.9948430948
 30
0.0
 10
11.4229530733
 20
7.9964641222
 30
0.0
 10
11.4228455344
 20
7.9974146189
 30
0.0
 10
11.4228129196
 20
7.998196818
 30
0.0
 10
11.4228514778
 20
7.9988163704
 30
0.0
 10
11.4229538235
 20
7.9992790563
 30
0.0
 10
11.4230864624
 20
7.9995213378
 30
0.0
 10
11.4231664375
 20
7.9996013159
 30
0.0
  0
SPLINE
  5
457
100
AcDbEntity
  8
0
100
AcDbSpline
 62
9
  6
CONTINUOUS
 70
0
 71
3
 72
18
 73
14
 74
0
 42
0.0000001
 43
0.0000001
 44
0.0000000001
 40
0.0
 40
0.0
 40
0.0
 40
0.0
 40
0.0614559273
 40
0.1229671356
 40
0.2462109895
 40
0.3701520748
 40
0.4324664685
 40
0.4949732054
 40
0.6204046031
 40
0.7464718983
 40
0.8097947572
 40
0.8732476272
 40
1.0
 40
1.0
 40
1.0
 40
1.0
 10
11.8262234697
 20
8.400172376
 30
0.0
 10
11.8285385559
 20
8.4017274323
 30
0.0
 10
11.833312669
 20
8.4046343
 30
0.0
 10
11.8433480001
 20
8.4095731658
 30
0.0
 10
11.8567008019
 20
8.4140619928
 30
0.0
 10
11.8706668648
 20
8.4161461462
 30
0.0
 10
11.8819660958
 20
8.4163540629
 30
0.0
 10
11.8933084454
 20
8.415577991
 30
0.0
 10
11.9073558991
 20
8.4127802907
 30
0.0
 10
11.9207593442
 20
8.4076306127
 30
0.0
 10
11.9308795244
 20
8.4021974519
 30
0.0
 10
11.9405299918
 20
8.3959160022
 30
0.0
 10
11.9471642001
 20
8.3903123256
 30
0.0
 10
11.9512315018
 20
8.3862450239
 30
0.0
  0
SPLINE
  5
458
100
AcDbEntity
  8
0
100
AcDbSpline
 62
9
  6
CONTINUOUS
 70
0
 71
3
 72
25
 73
21
 74
0
 42
0.0000001
 43
0.0000001
 44
0.0000000001
 40
0.0
 40
0.0
 40
0.0
 40
0.0
 40
0.1875638505
 40
0.3682586038
 40
0.453813227
 40
0.5351605277
 40
0.6115799897
 40
0.682372221
 40
0.7468960772
 40
0.8046424679
 40
0.8551573719
 40
0.8981387464
 40
0.9167752183
 40
0.9335118742
 40
0.9483799142
 40
0.9614558517
 40
0.9728771241
 40
0.9828605212
 40
0.9917405699
 40
1.0
 40
1.0
 40
1.0
 40
1.0
 10
11.8247577675
 20
8.2597703596
 30
0.0
 10
11.8201602044
 20
8.2643679122
 30
0.0
 10
11.8112848882
 20
8.2735474288
 30
0.0
 10
11.8007456971
 20
8.285231882
 30
0.0
 10
11.7929463575
 20
8.294417706
 30
0.0
 10
11.7876271465
 20
8.3009647594
 30
0.0
 10
11.7827799716
 20
8.3072331589
 30
0.0
 10
11.7784511771
 20
8.313162006
 30
0.0
 10
11.7746835442
 20
8.3186949425
 30
0.0
 10
11.7715098382
 20
8.3237770998
 30
0.0
 10
11.768959762
 20
8.3283607407
 30
0.0
 10
11.7672988661
 20
8.3318807083
 30
0.0
 10
11.7663274727
 20
8.3344185954
 30
0.0
 10
11.7658034281
 20
8.3360808636
 30
0.0
 10
11.765449894
 20
8.337590728
 30
0.0
 10
11.7652678555
 20
8.3389458471
 30
0.0
 10
11.7652572728
 20
8.340145031
 30
0.0
 10
11.7654206308
 20
8.3411883582
 30
0.0
 10
11.765763497
 20
8.3420731338
 30
0.0
 10
11.7661229499
 20
8.3425578283
 30
0.0
 10
11.7663254048
 20
8.3427602831
 30
0.0
  0
SPLINE
  5
459
100
AcDbEntity
  8
0
100
AcDbSpline
 62
9
  6
CONTINUOUS
 70
0
 71
3
 72
17
 73
13
 74
0
 42
0.0000001
 43
0.0000001
 44
0.0000000001
 40
0.0
 40
0.0
 40
0.0
 40
0.0
 40
0.1261832593
 40
0.2541103995
 40
0.3184001955
 40
0.3827220669
 40
0.5109328574
 40
0.6377297626
 40
0.7002573731
 40
0.7620305724
 40
0.8830011892
 40
1.0
 40
1.0
 40
1.0
 40
1.0
 10
10.5634733174
 20
7.2071978408
 30
0.0
 10
10.5641388752
 20
7.2026460261
 30
0.0
 10
10.5649319626
 20
7.1933916464
 30
0.0
 10
10.5645818434
 20
7.1817620191
 30
0.0
 10
10.5634775876
 20
7.1724697963
 30
0.0
 10
10.5618088032
 20
7.1632516385
 30
0.0
 10
10.5587105279
 20
7.1520003392
 30
0.0
 10
10.5543605733
 20
7.1412426162
 30
0.0
 10
10.5501909163
 20
7.1330878495
 30
0.0
 10
10.5456539788
 20
7.1253772712
 30
0.0
 10
10.5393144956
 20
7.1164469895
 30
0.0
 10
10.5335241102
 20
7.1099589884
 30
0.0
 10
10.5305080297
 20
7.1069429083
 30
0.0
  0
SPLINE
  5
45A
100
AcDbEntity
  8
0
100
AcDbSpline
 62
9
  6
CONTINUOUS
 70
0
 71
3
 72
12
 73
8
 74
0
 42
0.0000001
 43
0.0000001
 44
0.0000000001
 40
0.0
 40
0.0
 40
0.0
 40
0.0
 40
0.0850248397
 40
0.1901613018
 40
0.4477178138
 40
0.7312956095
 40
1.0
 40
1.0
 40
1.0
 40
1.0
 10
10.6550321933
 20
7.0895561914
 30
0.0
 10
10.6542113338
 20
7.0886996464
 30
0.0
 10
10.6523606449
 20
7.0867981512
 30
0.0
 10
10.6479645801
 20
7.0823595017
 30
0.0
 10
10.6415525704
 20
7.0760186347
 30
0.0
 10
10.6334579557
 20
7.0681341099
 30
0.0
 10
10.6279013324
 20
7.0627946848
 30
0.0
 10
10.6251894777
 20
7.0602056536
 30
0.0
  0
SPLINE
  5
45B
100
AcDbEntity
  8
0
100
AcDbSpline
 62
9
  6
CONTINUOUS
 70
0
 71
3
 72
17
 73
13
 74
0
 42
0.0000001
 43
0.0000001
 44
0.0000000001
 40
0.0
 40
0.0
 40
0.0
 40
0.0
 40
0.1261830665
 40
0.2541100647
 40
0.3183998107
 40
0.3827216476
 40
0.5109324144
 40
0.6377293527
 40
0.700257001
 40
0.7620302519
 40
0.8830010082
 40
1.0
 40
1.0
 40
1.0
 40
1.0
 10
11.5311633591
 20
7.75746588
 30
0.0
 10
11.5304978024
 20
7.7620176878
 30
0.0
 10
11.5297047151
 20
7.7712720551
 30
0.0
 10
11.5300548311
 20
7.7829016684
 30
0.0
 10
11.5311590829
 20
7.7921938834
 30
0.0
 10
11.5328278632
 20
7.8014120378
 30
0.0
 10
11.5359261337
 20
7.8126633375
 30
0.0
 10
11.5402760847
 20
7.8234210639
 30
0.0
 10
11.5444457408
 20
7.8315758361
 30
0.0
 10
11.5489826801
 20
7.839286423
 30
0.0
 10
11.5553221691
 20
7.8482167172
 30
0.0
 10
11.5611125617
 20
7.8547047277
 30
0.0
 10
11.5641286469
 20
7.8577208125
 30
0.0
  0
SPLINE
  5
45C
100
AcDbEntity
  8
0
100
AcDbSpline
 62
9
  6
CONTINUOUS
 70
0
 71
3
 72
15
 73
11
 74
0
 42
0.0000001
 43
0.0000001
 44
0.0000000001
 40
0.0
 40
0.0
 40
0.0
 40
0.0
 40
0.1318278005
 40
0.2635024968
 40
0.3939652224
 40
0.522238426
 40
0.6476826147
 40
0.7695132267
 40
0.8870275146
 40
1.0
 40
1.0
 40
1.0
 40
1.0
 10
10.772832327
 20
6.9982599112
 30
0.0
 10
10.768369913
 20
6.998932972
 30
0.0
 10
10.7593627972
 20
6.9997525687
 30
0.0
 10
10.7458532087
 20
6.999452942
 30
0.0
 10
10.7325779343
 20
6.9976733052
 30
0.0
 10
10.7198002372
 20
6.9944442937
 30
0.0
 10
10.7077287759
 20
6.9899515445
 30
0.0
 10
10.6965289864
 20
6.9843742651
 30
0.0
 10
10.686342336
 20
6.9778783608
 30
0.0
 10
10.6801370812
 20
6.9729806179
 30
0.0
 10
10.6772235172
 20
6.9704373916
 30
0.0
  0
SPLINE
  5
45D
100
AcDbEntity
  8
0
100
AcDbSpline
 62
9
  6
CONTINUOUS
 70
0
 71
3
 72
12
 73
8
 74
0
 42
0.0000001
 43
0.0000001
 44
0.0000000001
 40
0.0
 40
0.0
 40
0.0
 40
0.0
 40
0.0850244406
 40
0.190160489
 40
0.4477165396
 40
0.7312946247
 40
1.0
 40
1.0
 40
1.0
 40
1.0
 10
11.4396044832
 20
7.8751075293
 30
0.0
 10
11.4404253388
 20
7.8759640703
 30
0.0
 10
11.4422760198
 20
7.8778655575
 30
0.0
 10
11.4466720719
 20
7.8823041946
 30
0.0
 10
11.4530840755
 20
7.8886450561
 30
0.0
 10
11.4611786982
 20
7.896529589
 30
0.0
 10
11.4667353343
 20
7.9018690265
 30
0.0
 10
11.4694471989
 20
7.9044580672
 30
0.0
  0
SPLINE
  5
45E
100
AcDbEntity
  8
0
100
AcDbSpline
 62
9
  6
CONTINUOUS
 70
0
 71
3
 72
25
 73
21
 74
0
 42
0.0000001
 43
0.0000001
 44
0.0000000001
 40
0.0
 40
0.0
 40
0.0
 40
0.0
 40
0.0082591244
 40
0.017137719
 40
0.0271182829
 40
0.0385354783
 40
0.0516063919
 40
0.0664681465
 40
0.0831950469
 40
0.1018195452
 40
0.1447779801
 40
0.1952754904
 40
0.2529969391
 40
0.3175088646
 40
0.3882979525
 40
0.4647129909
 40
0.5460694785
 40
0.6316472522
 40
0.8124112346
 40
1.0
 40
1.0
 40
1.0
 40
1.0
 10
11.766325404
 20
6.6219034385
 30
0.0
 10
11.7661229588
 20
6.6221058836
 30
0.0
 10
11.7657634996
 20
6.6225904754
 30
0.0
 10
11.7654205133
 20
6.6234750192
 30
0.0
 10
11.7652570088
 20
6.6245180203
 30
0.0
 10
11.7652674504
 20
6.6257167817
 30
0.0
 10
11.7654493793
 20
6.6270713664
 30
0.0
 10
11.765802802
 20
6.6285804859
 30
0.0
 10
11.7663263387
 20
6.6302418696
 30
0.0
 10
11.7672968183
 20
6.6327784179
 30
0.0
 10
11.7689565882
 20
6.6362968712
 30
0.0
 10
11.7715053565
 20
6.6408785771
 30
0.0
 10
11.7746772084
 20
6.6459595944
 30
0.0
 10
11.7784439302
 20
6.6514913975
 30
0.0
 10
11.7827720921
 20
6.6574197607
 30
0.0
 10
11.7876186777
 20
6.6636885798
 30
0.0
 10
11.7929383855
 20
6.670236361
 30
0.0
 10
11.8007396159
 20
6.679425024
 30
0.0
 10
11.8112813893
 20
6.6911123992
 30
0.0
 10
11.8201587236
 20
6.7002943084
 30
0.0
 10
11.8247568366
 20
6.704892432
 30
0.0
  0
SPLINE
  5
45F
100
AcDbEntity
  8
0
100
AcDbSpline
 62
9
  6
CONTINUOUS
 70
0
 71
3
 72
20
 73
16
 74
0
 42
0.0000001
 43
0.0000001
 44
0.0000000001
 40
0.0
 40
0.0
 40
0.0
 40
0.0
 40
0.1267104222
 40
0.1901280454
 40
0.253410156
 40
0.3794090998
 40
0.442241555
 40
0.5049109921
 40
0.5674005395
 40
0.6297044213
 40
0.7536350415
 40
0.8153916279
 40
0.8770107075
 40
0.9385347137
 40
1.0
 40
1.0
 40
1.0
 40
1.0
 10
11.9512315018
 20
6.5784186969
 30
0.0
 10
11.9471643237
 20
6.574351519
 30
0.0
 10
11.9405313413
 20
6.5687479528
 30
0.0
 10
11.9308820555
 20
6.56246762
 30
0.0
 10
11.9207658688
 20
6.5570360559
 30
0.0
 10
11.9100221238
 20
6.5529087059
 30
0.0
 10
11.8989198117
 20
6.5502033074
 30
0.0
 10
11.8904766859
 20
6.5488917709
 30
0.0
 10
11.8819757713
 20
6.5483096724
 30
0.0
 10
11.8706766987
 20
6.5485176163
 30
0.0
 10
11.8594747113
 20
6.5501879574
 30
0.0
 10
11.8486765176
 20
6.5532985615
 30
0.0
 10
11.8408360582
 20
6.5563269629
 30
0.0
 10
11.8333078362
 20
6.5600319046
 30
0.0
 10
11.8285322222
 20
6.5629408083
 30
0.0
 10
11.8262162268
 20
6.5644967767
 30
0.0
  0
SPLINE
  5
460
100
AcDbEntity
  8
0
100
AcDbSpline
 62
9
  6
CONTINUOUS
 70
0
 71
3
 72
25
 73
21
 74
0
 42
0.0000001
 43
0.0000001
 44
0.0000000001
 40
0.0
 40
0.0
 40
0.0
 40
0.0
 40
0.1875638505
 40
0.3682586038
 40
0.453813227
 40
0.5351605277
 40
0.6115799897
 40
0.682372221
 40
0.7468960772
 40
0.8046424679
 40
0.8551573719
 40
0.8981387464
 40
0.9167752183
 40
0.9335118742
 40
0.9483799142
 40
0.9614558517
 40
0.9728771241
 40
0.9828605212
 40
0.9917405699
 40
1.0
 40
1.0
 40
1.0
 40
1.0
 10
11.8247568375
 20
6.7048924311
 30
0.0
 10
11.8293543901
 20
6.7094899943
 30
0.0
 10
11.8385339066
 20
6.7183653105
 30
0.0
 10
11.8502183599
 20
6.7289045016
 30
0.0
 10
11.8594041839
 20
6.7367038412
 30
0.0
 10
11.8659512373
 20
6.7420230522
 30
0.0
 10
11.8722196368
 20
6.7468702271
 30
0.0
 10
11.8781484839
 20
6.7511990216
 30
0.0
 10
11.8836814204
 20
6.7549666545
 30
0.0
 10
11.8887635777
 20
6.7581403605
 30
0.0
 10
11.8933472186
 20
6.7606904367
 30
0.0
 10
11.8968671862
 20
6.7623513326
 30
0.0
 10
11.8994050733
 20
6.763322726
 30
0.0
 10
11.9010673415
 20
6.7638467706
 30
0.0
 10
11.9025772059
 20
6.7642003047
 30
0.0
 10
11.903932325
 20
6.7643823431
 30
0.0
 10
11.9051315089
 20
6.7643929259
 30
0.0
 10
11.9061748361
 20
6.7642295679
 30
0.0
 10
11.9070596117
 20
6.7638867017
 30
0.0
 10
11.9075443062
 20
6.7635272487
 30
0.0
 10
11.907746761
 20
6.7633247939
 30
0.0
  0
SPLINE
  5
461
100
AcDbEntity
  8
0
100
AcDbSpline
 62
9
  6
CONTINUOUS
 70
0
 71
3
 72
18
 73
14
 74
0
 42
0.0000001
 43
0.0000001
 44
0.0000000001
 40
0.0
 40
0.0
 40
0.0
 40
0.0
 40
0.0614559273
 40
0.1229671356
 40
0.2462109895
 40
0.3701520748
 40
0.4324664685
 40
0.4949732054
 40
0.6204046031
 40
0.7464718983
 40
0.8097947572
 40
0.8732476272
 40
1.0
 40
1.0
 40
1.0
 40
1.0
 10
11.9651588539
 20
6.703426729
 30
0.0
 10
11.9667139102
 20
6.7011116428
 30
0.0
 10
11.9696207779
 20
6.6963375297
 30
0.0
 10
11.9745596437
 20
6.6863021986
 30
0.0
 10
11.9790484707
 20
6.6729493968
 30
0.0
 10
11.9811326241
 20
6.6589833338
 30
0.0
 10
11.9813405407
 20
6.6476841029
 30
0.0
 10
11.9805644689
 20
6.6363417533
 30
0.0
 10
11.9777667686
 20
6.6222942996
 30
0.0
 10
11.9726170906
 20
6.6088908545
 30
0.0
 10
11.9671839298
 20
6.5987706743
 30
0.0
 10
11.96090248
 20
6.5891202069
 30
0.0
 10
11.9552988035
 20
6.5824859986
 30
0.0
 10
11.9512315018
 20
6.5784186969
 30
0.0
  0
SPLINE
  5
462
100
AcDbEntity
  8
0
100
AcDbSpline
 62
9
  6
CONTINUOUS
 70
0
 71
3
 72
25
 73
21
 74
0
 42
0.0000001
 43
0.0000001
 44
0.0000000001
 40
0.0
 40
0.0
 40
0.0
 40
0.0
 40
0.010906225
 40
0.0179485311
 40
0.0262908224
 40
0.0360649776
 40
0.0473739832
 40
0.0749193104
 40
0.1095188153
 40
0.1516878495
 40
0.2018956539
 40
0.2605823822
 40
0.32805308
 40
0.4041416565
 40
0.4884819001
 40
0.5803460301
 40
0.6788570043
 40
0.7826886301
 40
0.8904161899
 40
1.0
 40
1.0
 40
1.0
 40
1.0
 10
11.5641287457
 20
7.8577209116
 30
0.0
 10
11.5638512828
 20
7.8574434544
 30
0.0
 10
11.5632452575
 20
7.8571437862
 30
0.0
 10
11.5623258033
 20
7.8569326023
 30
0.0
 10
11.5614221223
 20
7.8568396522
 30
0.0
 10
11.5603627705
 20
7.8568319177
 30
0.0
 10
11.5586156131
 20
7.8569478376
 30
0.0
 10
11.5560010653
 20
7.8573639418
 30
0.0
 10
11.5523485478
 20
7.8582354329
 30
0.0
 10
11.5479669767
 20
7.8595346573
 30
0.0
 10
11.5428204925
 20
7.8612850627
 30
0.0
 10
11.5368768136
 20
7.8635088251
 30
0.0
 10
11.5301240124
 20
7.8662212168
 30
0.0
 10
11.5225954692
 20
7.869471846
 30
0.0
 10
11.5143613117
 20
7.8732953956
 30
0.0
 10
11.5055562694
 20
7.877791611
 30
0.0
 10
11.4963561287
 20
7.8830360549
 30
0.0
 10
11.4870154562
 20
7.8891523464
 30
0.0
 10
11.4778547293
 20
7.8962146943
 30
0.0
 10
11.4721451376
 20
7.90158475
 30
0.0
 10
11.4694463551
 20
7.9044589456
 30
0.0
  0
SPLINE
  5
463
100
AcDbEntity
  8
0
100
AcDbSpline
 62
9
  6
CONTINUOUS
 70
0
 71
3
 72
20
 73
16
 74
0
 42
0.0000001
 43
0.0000001
 44
0.0000000001
 40
0.0
 40
0.0
 40
0.0
 40
0.0
 40
0.1267104222
 40
0.1901280454
 40
0.253410156
 40
0.3794090998
 40
0.442241555
 40
0.5049109921
 40
0.5674005395
 40
0.6297044213
 40
0.7536350415
 40
0.8153916279
 40
0.8770107075
 40
0.9385347137
 40
1.0
 40
1.0
 40
1.0
 40
1.0
 10
11.9512315018
 20
8.3862450239
 30
0.0
 10
11.9552986797
 20
8.3821778458
 30
0.0
 10
11.9609022459
 20
8.3755448634
 30
0.0
 10
11.9671825787
 20
8.3658955776
 30
0.0
 10
11.9726141428
 20
8.3557793909
 30
0.0
 10
11.9767414928
 20
8.3450356459
 30
0.0
 10
11.9794468912
 20
8.3339333338
 30
0.0
 10
11.9807584278
 20
8.325490208
 30
0.0
 10
11.9813405263
 20
8.3169892934
 30
0.0
 10
11.9811325824
 20
8.3056902208
 30
0.0
 10
11.9794622413
 20
8.2944882334
 30
0.0
 10
11.9763516372
 20
8.2836900397
 30
0.0
 10
11.9733232358
 20
8.2758495803
 30
0.0
 10
11.9696182941
 20
8.2683213583
 30
0.0
 10
11.9667093904
 20
8.2635457443
 30
0.0
 10
11.9651534219
 20
8.2612297489
 30
0.0
  0
SPLINE
  5
464
100
AcDbEntity
  8
0
100
AcDbSpline
 62
9
  6
CONTINUOUS
 70
0
 71
3
 72
25
 73
21
 74
0
 42
0.0000001
 43
0.0000001
 44
0.0000000001
 40
0.0
 40
0.0
 40
0.0
 40
0.0
 40
0.0082591244
 40
0.017137719
 40
0.0271182829
 40
0.0385354783
 40
0.0516063919
 40
0.0664681465
 40
0.0831950469
 40
0.1018195452
 40
0.1447779801
 40
0.1952754904
 40
0.2529969391
 40
0.3175088646
 40
0.3882979525
 40
0.4647129909
 40
0.5460694785
 40
0.6316472522
 40
0.8124112346
 40
1.0
 40
1.0
 40
1.0
 40
1.0
 10
11.9077467602
 20
8.2013389261
 30
0.0
 10
11.9075443151
 20
8.201136481
 30
0.0
 10
11.9070597233
 20
8.2007770217
 30
0.0
 10
11.9061751795
 20
8.2004340354
 30
0.0
 10
11.9051321784
 20
8.2002705309
 30
0.0
 10
11.903933417
 20
8.2002809726
 30
0.0
 10
11.9025788323
 20
8.2004629014
 30
0.0
 10
11.9010697128
 20
8.2008163241
 30
0.0
 10
11.899408329
 20
8.2013398609
 30
0.0
 10
11.8968717807
 20
8.2023103404
 30
0.0
 10
11.8933533275
 20
8.2039701103
 30
0.0
 10
11.8887716215
 20
8.2065188786
 30
0.0
 10
11.8836906043
 20
8.2096907305
 30
0.0
 10
11.8781588012
 20
8.2134574523
 30
0.0
 10
11.872230438
 20
8.2177856142
 30
0.0
 10
11.8659616189
 20
8.2226321998
 30
0.0
 10
11.8594138376
 20
8.2279519077
 30
0.0
 10
11.8502251747
 20
8.235753138
 30
0.0
 10
11.8385377995
 20
8.2462949114
 30
0.0
 10
11.8293558903
 20
8.2551722457
 30
0.0
 10
11.8247577667
 20
8.2597703588
 30
0.0
  0
SPLINE
  5
465
100
AcDbEntity
  8
0
100
AcDbSpline
 62
9
  6
CONTINUOUS
 70
0
 71
3
 72
26
 73
22
 74
0
 42
0.0000001
 43
0.0000001
 44
0.0000000001
 40
0.0
 40
0.0
 40
0.0
 40
0.0
 40
0.1113985743
 40
0.2207599471
 40
0.326048973
 40
0.4258329509
 40
0.5187938164
 40
0.6040176956
 40
0.6807519346
 40
0.7486352428
 40
0.8075142707
 40
0.8576776366
 40
0.8995322287
 40
0.933498528
 40
0.9600113781
 40
0.9706083518
 40
0.9795078384
 40
0.9867784861
 40
0.9925088699
 40
0.9968329527
 40
1.0
 40
1.0
 40
1.0
 40
1.0
 10
11.4694454285
 20
7.0602038421
 30
0.0
 10
11.4723450334
 20
7.0629277268
 30
0.0
 10
11.478407196
 20
7.0679949186
 30
0.0
 10
11.4879842319
 20
7.0746362719
 30
0.0
 10
11.4976326416
 20
7.080395139
 30
0.0
 10
11.5070519804
 20
7.0853585665
 30
0.0
 10
11.5160025479
 20
7.0896559584
 30
0.0
 10
11.5243196893
 20
7.0933599479
 30
0.0
 10
11.5318769268
 20
7.0965645975
 30
0.0
 10
11.5386150811
 20
7.0992880739
 30
0.0
 10
11.5445107618
 20
7.1015615278
 30
0.0
 10
11.5495775102
 20
7.1033982442
 30
0.0
 10
11.5538476103
 20
7.1048183449
 30
0.0
 10
11.5573564583
 20
7.1058433358
 30
0.0
 10
11.5598295727
 20
7.1064251835
 30
0.0
 10
11.5614506001
 20
7.1066971254
 30
0.0
 10
11.5624010967
 20
7.1068046643
 30
0.0
 10
11.5631832959
 20
7.1068372791
 30
0.0
 10
11.5638028483
 20
7.1067987209
 30
0.0
 10
11.5642655342
 20
7.1066963752
 30
0.0
 10
11.5645078157
 20
7.1065637362
 30
0.0
 10
11.5645877937
 20
7.1064837612
 30
0.0
  0
SPLINE
  5
466
100
AcDbEntity
  8
0
100
AcDbSpline
 62
9
  6
CONTINUOUS
 70
0
 71
3
 72
25
 73
21
 74
0
 42
0.0000001
 43
0.0000001
 44
0.0000000001
 40
0.0
 40
0.0
 40
0.0
 40
0.0
 40
0.010906225
 40
0.0179485311
 40
0.0262908224
 40
0.0360649776
 40
0.0473739832
 40
0.0749193104
 40
0.1095188153
 40
0.1516878495
 40
0.2018956539
 40
0.2605823822
 40
0.32805308
 40
0.4041416565
 40
0.4884819001
 40
0.5803460301
 40
0.6788570043
 40
0.7826886301
 40
0.8904161899
 40
1.0
 40
1.0
 40
1.0
 40
1.0
 10
11.4227073895
 20
6.965521453
 30
0.0
 10
11.4224299323
 20
6.9657989158
 30
0.0
 10
11.422130264
 20
6.9664049412
 30
0.0
 10
11.4219190802
 20
6.9673243953
 30
0.0
 10
11.4218261301
 20
6.9682280764
 30
0.0
 10
11.4218183956
 20
6.9692874282
 30
0.0
 10
11.4219343155
 20
6.9710345856
 30
0.0
 10
11.4223504197
 20
6.9736491334
 30
0.0
 10
11.4232219107
 20
6.9773016509
 30
0.0
 10
11.4245211352
 20
6.981683222
 30
0.0
 10
11.4262715405
 20
6.9868297062
 30
0.0
 10
11.4284953029
 20
6.9927733851
 30
0.0
 10
11.4312076947
 20
6.9995261863
 30
0.0
 10
11.4344583239
 20
7.0070547295
 30
0.0
 10
11.4382818735
 20
7.015288887
 30
0.0
 10
11.4427780889
 20
7.0240939293
 30
0.0
 10
11.4480225328
 20
7.0332940699
 30
0.0
 10
11.4541388243
 20
7.0426347425
 30
0.0
 10
11.4612011722
 20
7.0517954693
 30
0.0
 10
11.4665712279
 20
7.0575050611
 30
0.0
 10
11.4694454235
 20
7.0602038436
 30
0.0
  0
SPLINE
  5
467
100
AcDbEntity
  8
0
100
AcDbSpline
 62
9
  6
CONTINUOUS
 70
0
 71
3
 72
10
 73
6
 74
0
 42
0.0000001
 43
0.0000001
 44
0.0000000001
 40
0.0
 40
0.0
 40
0.0
 40
0.0
 40
0.4308512036
 40
0.6953136533
 40
1.0
 40
1.0
 40
1.0
 40
1.0
 10
10.5305079308
 20
7.1069428092
 30
0.0
 10
10.5307284341
 20
7.1071633079
 30
0.0
 10
10.5311798752
 20
7.1074225515
 30
0.0
 10
10.531870369
 20
7.1076371055
 30
0.0
 10
10.5322770153
 20
7.1077116558
 30
0.0
 10
10.5324954856
 20
7.1077416645
 30
0.0
  0
SPLINE
  5
468
100
AcDbEntity
  8
0
100
AcDbSpline
 62
9
  6
CONTINUOUS
 70
0
 71
3
 72
22
 73
18
 74
0
 42
0.0000001
 43
0.0000001
 44
0.0000000001
 40
0.0
 40
0.0
 40
0.0
 40
0.0
 40
0.0170233395
 40
0.0391125688
 40
0.0667443487
 40
0.1003221496
 40
0.1402167789
 40
0.1867697707
 40
0.2403048869
 40
0.3010688009
 40
0.3689622923
 40
0.4437629787
 40
0.6120771699
 40
0.7042309408
 40
0.8004322711
 40
0.8995374737
 40
1.0
 40
1.0
 40
1.0
 40
1.0
 10
10.5324954856
 20
7.1077416645
 30
0.0
 10
10.5330900693
 20
7.1078233356
 30
0.0
 10
10.5344764594
 20
7.1078535383
 30
0.0
 10
10.5368198354
 20
7.1076129404
 30
0.0
 10
10.539707658
 20
7.1070626757
 30
0.0
 10
10.5431625593
 20
7.1061798614
 30
0.0
 10
10.547211989
 20
7.1049479063
 30
0.0
 10
10.5518818043
 20
7.1033491693
 30
0.0
 10
10.5571957518
 20
7.1013674082
 30
0.0
 10
10.5631645948
 20
7.0989930281
 30
0.0
 10
10.5697678637
 20
7.0961894388
 30
0.0
 10
10.5797582296
 20
7.0916699548
 30
0.0
 10
10.5903025847
 20
7.0862987839
 30
0.0
 10
10.6011024103
 20
7.0798478308
 30
0.0
 10
10.6094836421
 20
7.074136459
 30
0.0
 10
10.6176605458
 20
7.0676493793
 30
0.0
 10
10.6227658801
 20
7.0627867983
 30
0.0
 10
10.6251903215
 20
7.0602047752
 30
0.0
  0
SPLINE
  5
469
100
AcDbEntity
  8
0
100
AcDbSpline
 62
9
  6
CONTINUOUS
 70
0
 71
3
 72
26
 73
22
 74
0
 42
0.0000001
 43
0.0000001
 44
0.0000000001
 40
0.0
 40
0.0
 40
0.0
 40
0.0
 40
0.1113985743
 40
0.2207599471
 40
0.326048973
 40
0.4258329509
 40
0.5187938164
 40
0.6040176956
 40
0.6807519346
 40
0.7486352428
 40
0.8075142707
 40
0.8576776366
 40
0.8995322287
 40
0.933498528
 40
0.9600113781
 40
0.9706083518
 40
0.9795078384
 40
0.9867784861
 40
0.9925088699
 40
0.9968329527
 40
1.0
 40
1.0
 40
1.0
 40
1.0
 10
10.62519032
 20
7.0602047702
 30
0.0
 10
10.6279142047
 20
7.0573051653
 30
0.0
 10
10.6329813965
 20
7.0512430027
 30
0.0
 10
10.6396227498
 20
7.0416659667
 30
0.0
 10
10.6453816169
 20
7.0320175571
 30
0.0
 10
10.6503450444
 20
7.0225982183
 30
0.0
 10
10.6546424363
 20
7.0136476508
 30
0.0
 10
10.6583464258
 20
7.0053305094
 30
0.0
 10
10.6615510753
 20
6.9977732718
 30
0.0
 10
10.6642745518
 20
6.9910351176
 30
0.0
 10
10.6665480057
 20
6.9851394369
 30
0.0
 10
10.6683847221
 20
6.9800726884
 30
0.0
 10
10.6698048228
 20
6.9758025884
 30
0.0
 10
10.6708298137
 20
6.9722937404
 30
0.0
 10
10.6714116614
 20
6.969820626
 30
0.0
 10
10.6716836032
 20
6.9681995986
 30
0.0
 10
10.6717911422
 20
6.9672491019
 30
0.0
 10
10.671823757
 20
6.9664669028
 30
0.0
 10
10.6717851988
 20
6.9658473504
 30
0.0
 10
10.6716828531
 20
6.9653846645
 30
0.0
 10
10.6715502141
 20
6.965142383
 30
0.0
 10
10.6714702391
 20
6.9650624049
 30
0.0
  0
SPLINE
  5
46A
100
AcDbEntity
  8
0
100
AcDbSpline
 62
9
  6
CONTINUOUS
 70
0
 71
3
 72
18
 73
14
 74
0
 42
0.0000001
 43
0.0000001
 44
0.0000000001
 40
0.0
 40
0.0
 40
0.0
 40
0.0
 40
0.0614559273
 40
0.1229671356
 40
0.2462109895
 40
0.3701520748
 40
0.4324664685
 40
0.4949732054
 40
0.6204046031
 40
0.7464718983
 40
0.8097947572
 40
0.8732476272
 40
1.0
 40
1.0
 40
1.0
 40
1.0
 10
10.2684132068
 20
6.5644913448
 30
0.0
 10
10.2660981206
 20
6.5629362885
 30
0.0
 10
10.2613240076
 20
6.5600294208
 30
0.0
 10
10.2512886765
 20
6.555090555
 30
0.0
 10
10.2379358746
 20
6.550601728
 30
0.0
 10
10.2239698117
 20
6.5485175746
 30
0.0
 10
10.2126705807
 20
6.5483096579
 30
0.0
 10
10.2013282312
 20
6.5490857298
 30
0.0
 10
10.1872807775
 20
6.5518834301
 30
0.0
 10
10.1738773323
 20
6.5570331081
 30
0.0
 10
10.1637571522
 20
6.5624662689
 30
0.0
 10
10.1541066847
 20
6.5687477186
 30
0.0
 10
10.1474724765
 20
6.5743513952
 30
0.0
 10
10.1434051748
 20
6.5784186969
 30
0.0
  0
ENDSEC
  0
SECTION
  2
OBJECTS
  0
DICTIONARY
  5
C
100
AcDbDictionary
280
0
281
1
  3
ACAD_GROUP
350
D
  3
ACAD_MLINESTYLE
350
17
  3
ACAD_LAYOUT
350
1A
  3
ACAD_PLOTSETTINGS
350
19
  3
ACAD_PLOTSTYLENAME
350
E
  0
DICTIONARY
  5
D
102
{ACAD_REACTORS
330
C
102
}
100
AcDbDictionary
280
0
281
1
  0
ACDBDICTIONARYWDFLT
  5
E
102
{ACAD_REACTORS
330
C
102
}
100
AcDbDictionary
281
1
  3
Normal
350
F
100
AcDbDictionaryWithDefault
340
F
  0
DICTIONARY
  5
17
102
{ACAD_REACTORS
330
C
102
}
100
AcDbDictionary
280
0
281
1
  3
Standard
350
18
  0
DICTIONARY
  5
19
102
{ACAD_REACTORS
330
C
102
}
100
AcDbDictionary
281
1
  0
DICTIONARY
  5
1A
102
{ACAD_REACTORS
330
C
102
}
100
AcDbDictionary
281
1
  3
Model
350
46B
  3
Layout1
350
46C
  0
ACDBPLACEHOLDER
  5
F
102
{ACAD_REACTORS
330
E
102
}
  0
MLINESTYLE
  5
18
102
{ACAD_REACTORS
330
17
102
}
100
AcDbMlineStyle
  2
STANDARD
 70
0
  3

 62
256
 51
90.0
 52
90.0
 71
2
 49
0.5
 62
256
  6
BYLAYER
 49
-0.5
 62
256
  6
BYLAYER
  0
LAYOUT
  5
46B
102
{ACAD_REACTORS
330
1A
102
}
100
AcDbPlotSettings
  1

  2
none_device
  4
ANSI_C_(22.00_x_17.00_Inches)
  6

 40
0.0
 41
0.0
 42
0.0
 43
0.0
 44
558.8
 45
431.8
 46
0.0
 47
0.0
 48
0.0
 49
0.0
140
0.0
141
0.0
142
1.0
143
1.0
 70
1024
 72
0
 73
0
 74
0
  7

 75
0
147
1.0
148
0.0
149
0.0
100
AcDbLayout
  1
Model
 70
0
 71
0
 10
0.0
 20
0.0
 11
22.0
 21
17.0
 12
0.0
 22
0.0
 32
0.0
 14
0.0
 24
0.0
 34
0.0
 15
0.0
 25
0.0
 35
0.0
146
0.0
 13
0.0
 23
0.0
 33
0.0
 16
1.0
 26
0.0
 36
0.0
 17
0.0
 27
1.0
 37
0.0
 76
0
330
202
345
0
346
0
  0
LAYOUT
  5
46C
102
{ACAD_REACTORS
330
1A
102
}
100
AcDbPlotSettings
  1

  2
none_device
  4
ANSI_C_(22.00_x_17.00_Inches)
  6

 40
0.0
 41
0.0
 42
0.0
 43
0.0
 44
558.8
 45
431.8
 46
0.0
 47
0.0
 48
0.0
 49
0.0
140
0.0
141
0.0
142
1.0
143
1.0
 70
0
 72
0
 73
0
 74
0
  7

 75
0
147
1.0
148
0.0
149
0.0
100
AcDbLayout
  1
Layout1
 70
0
 71
1
 10
0.0
 20
0.0
 11
22.0
 21
17.0
 12
0.0
 22
0.0
 32
0.0
 14
0.0
 24
0.0
 34
0.0
 15
0.0
 25
0.0
 35
0.0
146
0.0
 13
0.0
 23
0.0
 33
0.0
 16
1.0
 26
0.0
 36
0.0
 17
0.0
 27
1.0
 37
0.0
 76
0
330
203
345
0
346
0
  0
ENDSEC
  0
EOF
