999
DXF file: 3-2401_TOP.dxf
999
Pro/ENGINEER 2018400 by Parametric Technology Corporation
  0
SECTION
  2
HEADER
  9
$ACADVER
  1
AC1027
  9
$DWGCODEPAGE
  3
ANSI_1252
  9
$EXTMAX
 10
11.0
 20
8.5
 30
0.0
  9
$EXTMIN
 10
0.0
 20
0.0
 30
0.0
  9
$LIMMIN
 10
0.0
 20
0.0
  9
$LIMMAX
 10
11.0
 20
8.5
  9
$VIEWCTR
 10
5.5
 20
4.25
  9
$VIEWSIZE
 40
8.5
  9
$CLAYER
  8
0
  9
$LTSCALE
 40
0.605
  9
$CELTYPE
  6
BYLAYER
  9
$DIMSCALE
 40
1.0
  9
$DIMASZ
 40
0.1
  9
$DIMEXO
 40
0.0625
  9
$DIMDLI
 40
0.418
  9
$DIMEXE
 40
0.125
  9
$DIMCEN
 40
0.099
  9
$DIMLFAC
 40
1.0
  9
$DIMBLK
  1
_FILLED
  9
$DIMALT
 70
1
  9
$DIMALTD
 70
2
  9
$DIMALTTD
 70
2
  9
$DIMALTF
 40
25.4
  9
$DIMTXT
 40
0.08
  9
$DIMTOL
 70
1
  9
$DIMLIM
 70
0
  9
$DIMTFAC
 40
1.0
  9
$DIMTP
 40
0.001
  9
$DIMTM
 40
0.001
  9
$DIMGAP
 40
0.09
  9
$DIMDSEP
 70
46
  9
$AUNITS
 70
0
  9
$PDMODE
 70
3
  9
$PDSIZE
 40
0.3125
  9
$HANDSEED
  5
3D0
  9
$TILEMODE
 70
1
  9
$MEASUREMENT
 70
0
  9
$INSUNITS
 70
1
  0
ENDSEC
  0
SECTION
  2
CLASSES
  0
CLASS
  1
ACDBDICTIONARYWDFLT
  2
AcDbDictionaryWithDefault
  3
AutoCAD 2000
 90
0
 91
1
280
0
281
0
  0
CLASS
  1
ACDBPLACEHOLDER
  2
AcDbPlaceHolder
  3
AutoCAD 2000
 90
0
 91
1
280
0
281
0
  0
CLASS
  1
LAYOUT
  2
AcDbLayout
  3
AutoCAD 2000
 90
0
 91
0
280
0
281
0
  0
ENDSEC
  0
SECTION
  2
TABLES
  0
TABLE
  2
VPORT
  5
8
100
AcDbSymbolTable
 70
2
  0
VPORT
  5
1F4
100
AcDbSymbolTableRecord
100
AcDbViewportTableRecord
  2
*ACTIVE
 70
0
 10
0.0
 20
0.0
 11
1.0
 21
1.0
 12
5.5
 22
4.25
 13
0.0
 23
0.0
 14
1.0
 24
1.0
 15
0.0
 25
0.0
 16
0.0
 26
0.0
 36
1.0
 17
0.0
 27
0.0
 37
0.0
 40
8.5
 41
1.2941176471
 42
50.0
 43
0.0
 44
0.0
 50
0.0
 51
0.0
 71
0
 72
100
 73
1
 74
1
 75
0
 76
0
 77
0
 78
0
  0
ENDTAB
  0
TABLE
  2
LTYPE
  5
5
100
AcDbSymbolTable
 70
6
  0
LTYPE
  5
14
100
AcDbSymbolTableRecord
100
AcDbLinetypeTableRecord
  2
BYBLOCK
 70
0
  3

 72
65
 73
0
 40
0.0
  0
LTYPE
  5
15
100
AcDbSymbolTableRecord
100
AcDbLinetypeTableRecord
  2
BYLAYER
 70
0
  3

 72
65
 73
0
 40
0.0
  0
LTYPE
  5
16
100
AcDbSymbolTableRecord
100
AcDbLinetypeTableRecord
  2
CONTINUOUS
 70
64
  3
Solid line
 72
65
 73
0
 40
0.0
  0
LTYPE
  5
1F5
100
AcDbSymbolTableRecord
100
AcDbLinetypeTableRecord
  2
CENTER
 70
64
  3
____ _ ____ _ ____ _ ____ _ ____ _ ____ _ ____
 72
65
 73
4
 40
0.6
 49
0.375
 74
0
 49
-0.075
 74
0
 49
0.075
 74
0
 49
-0.075
 74
0
  0
LTYPE
  5
1F6
100
AcDbSymbolTableRecord
100
AcDbLinetypeTableRecord
  2
HIDDEN
 70
64
  3
- - - - - - - - - - - - - - - - - - - -
 72
65
 73
2
 40
0.2
 49
0.1
 74
0
 49
-0.1
 74
0
  0
LTYPE
  5
1F7
100
AcDbSymbolTableRecord
100
AcDbLinetypeTableRecord
  2
PHANTOM
 70
64
  3
_____ _ _ _____ _ _ _____ _ _ _____
 72
65
 73
6
 40
0.8
 49
0.45
 74
0
 49
-0.05
 74
0
 49
0.1
 74
0
 49
-0.05
 74
0
 49
0.1
 74
0
 49
-0.05
 74
0
  0
LTYPE
  5
1F8
100
AcDbSymbolTableRecord
100
AcDbLinetypeTableRecord
  2
DOT
 70
64
  3
. . . . . . . . . . . . . . . . . . . .
 72
65
 73
2
 40
0.2
 49
0.1
 74
0
 49
-0.1
 74
0
  0
LTYPE
  5
1F9
100
AcDbSymbolTableRecord
100
AcDbLinetypeTableRecord
  2
DASHED
 70
64
  3
- - - - - - - - - - - - - - - - - - - -
 72
65
 73
2
 40
0.2
 49
0.1
 74
0
 49
-0.1
 74
0
  0
ENDTAB
  0
TABLE
  2
LAYER
  5
2
100
AcDbSymbolTable
 70
36
  0
LAYER
  5
10
100
AcDbSymbolTableRecord
100
AcDbLayerTableRecord
  2
0
 70
0
 62
7
  6
CONTINUOUS
370
-3
390
F
  0
LAYER
  5
1FA
100
AcDbSymbolTableRecord
100
AcDbLayerTableRecord
  2
DEFAULT_1
 70
0
 62
7
  6
CENTER
370
-3
390
F
  0
LAYER
  5
1FB
100
AcDbSymbolTableRecord
100
AcDbLayerTableRecord
  2
DEFAULT_2
 70
0
 62
8
  6
HIDDEN
370
-3
390
F
  0
LAYER
  5
1FC
100
AcDbSymbolTableRecord
100
AcDbLayerTableRecord
  2
DEFAULT_3
 70
0
 62
7
  6
PHANTOM
370
-3
390
F
  0
LAYER
  5
1FD
100
AcDbSymbolTableRecord
100
AcDbLayerTableRecord
  2
2-125_ASSY_PLANES
 70
0
 62
7
  6
CONTINUOUS
370
-3
390
F
  0
LAYER
  5
1FE
100
AcDbSymbolTableRecord
100
AcDbLayerTableRecord
  2
ALL_ASSEMBLY_MEMBERS
 70
0
 62
7
  6
CONTINUOUS
370
-3
390
F
  0
LAYER
  5
1FF
100
AcDbSymbolTableRecord
100
AcDbLayerTableRecord
  2
ALL_FEATURES
 70
0
 62
7
  6
CONTINUOUS
370
-3
390
F
  0
LAYER
  5
200
100
AcDbSymbolTableRecord
100
AcDbLayerTableRecord
  2
AXES_FEATURES
 70
0
 62
7
  6
CONTINUOUS
370
-3
390
F
  0
LAYER
  5
201
100
AcDbSymbolTableRecord
100
AcDbLayerTableRecord
  2
CHAMFER_FEATURES
 70
0
 62
7
  6
CONTINUOUS
370
-3
390
F
  0
LAYER
  5
202
100
AcDbSymbolTableRecord
100
AcDbLayerTableRecord
  2
COORDINATE_SYSTEMS
 70
0
 62
7
  6
CONTINUOUS
370
-3
390
F
  0
LAYER
  5
203
100
AcDbSymbolTableRecord
100
AcDbLayerTableRecord
  2
CUT_FEATURES
 70
0
 62
7
  6
CONTINUOUS
370
-3
390
F
  0
LAYER
  5
204
100
AcDbSymbolTableRecord
100
AcDbLayerTableRecord
  2
CYAN
 70
0
 62
7
  6
CONTINUOUS
370
-3
390
F
  0
LAYER
  5
205
100
AcDbSymbolTableRecord
100
AcDbLayerTableRecord
  2
DATUM_CURVES
 70
0
 62
7
  6
CONTINUOUS
370
-3
390
F
  0
LAYER
  5
206
100
AcDbSymbolTableRecord
100
AcDbLayerTableRecord
  2
DATUM_PLANES
 70
0
 62
7
  6
CONTINUOUS
370
-3
390
F
  0
LAYER
  5
207
100
AcDbSymbolTableRecord
100
AcDbLayerTableRecord
  2
DATUM_POINTS
 70
0
 62
7
  6
CONTINUOUS
370
-3
390
F
  0
LAYER
  5
208
100
AcDbSymbolTableRecord
100
AcDbLayerTableRecord
  2
DEFAULT_COORDINATE_SYSTEM
 70
0
 62
7
  6
CONTINUOUS
370
-3
390
F
  0
LAYER
  5
209
100
AcDbSymbolTableRecord
100
AcDbLayerTableRecord
  2
DEFAULT_DATUM_AXES
 70
0
 62
7
  6
CONTINUOUS
370
-3
390
F
  0
LAYER
  5
20A
100
AcDbSymbolTableRecord
100
AcDbLayerTableRecord
  2
DEFAULT_DATUM_CURVES
 70
0
 62
7
  6
CONTINUOUS
370
-3
390
F
  0
LAYER
  5
20B
100
AcDbSymbolTableRecord
100
AcDbLayerTableRecord
  2
DEFAULT_DATUM_PLANES
 70
0
 62
7
  6
CONTINUOUS
370
-3
390
F
  0
LAYER
  5
20C
100
AcDbSymbolTableRecord
100
AcDbLayerTableRecord
  2
DEFAULT_SURFACES
 70
0
 62
7
  6
CONTINUOUS
370
-3
390
F
  0
LAYER
  5
20D
100
AcDbSymbolTableRecord
100
AcDbLayerTableRecord
  2
DIMENSIONS
 70
0
 62
7
  6
CONTINUOUS
370
-3
390
F
  0
LAYER
  5
20E
100
AcDbSymbolTableRecord
100
AcDbLayerTableRecord
  2
HOLE_FEATURES
 70
0
 62
7
  6
CONTINUOUS
370
-3
390
F
  0
LAYER
  5
20F
100
AcDbSymbolTableRecord
100
AcDbLayerTableRecord
  2
PART_REFERENCE_DIMENSIONS
 70
0
 62
7
  6
CONTINUOUS
370
-3
390
F
  0
LAYER
  5
210
100
AcDbSymbolTableRecord
100
AcDbLayerTableRecord
  2
PLATED_SURFACE_AREA
 70
0
 62
7
  6
CONTINUOUS
370
-3
390
F
  0
LAYER
  5
211
100
AcDbSymbolTableRecord
100
AcDbLayerTableRecord
  2
POINTS
 70
0
 62
7
  6
CONTINUOUS
370
-3
390
F
  0
LAYER
  5
212
100
AcDbSymbolTableRecord
100
AcDbLayerTableRecord
  2
PROTRUSION_FEATURES
 70
0
 62
7
  6
CONTINUOUS
370
-3
390
F
  0
LAYER
  5
213
100
AcDbSymbolTableRecord
100
AcDbLayerTableRecord
  2
QUILTS
 70
0
 62
7
  6
CONTINUOUS
370
-3
390
F
  0
LAYER
  5
214
100
AcDbSymbolTableRecord
100
AcDbLayerTableRecord
  2
REFERENCE_DIMENSIONS
 70
0
 62
7
  6
CONTINUOUS
370
-3
390
F
  0
LAYER
  5
215
100
AcDbSymbolTableRecord
100
AcDbLayerTableRecord
  2
ROUND_FEATURES
 70
0
 62
7
  6
CONTINUOUS
370
-3
390
F
  0
LAYER
  5
216
100
AcDbSymbolTableRecord
100
AcDbLayerTableRecord
  2
SURFACE_FEATURES
 70
0
 62
7
  6
CONTINUOUS
370
-3
390
F
  0
LAYER
  5
217
100
AcDbSymbolTableRecord
100
AcDbLayerTableRecord
  2
WETTED_SURFACES
 70
0
 62
7
  6
CONTINUOUS
370
-3
390
F
  0
LAYER
  5
218
100
AcDbSymbolTableRecord
100
AcDbLayerTableRecord
  2
WETTED_SURFACE_AREA
 70
0
 62
7
  6
CONTINUOUS
370
-3
390
F
  0
LAYER
  5
219
100
AcDbSymbolTableRecord
100
AcDbLayerTableRecord
  2
WHITE
 70
0
 62
7
  6
CONTINUOUS
370
-3
390
F
  0
ENDTAB
  0
TABLE
  2
STYLE
  5
3
100
AcDbSymbolTable
 70
1
  0
STYLE
  5
11
100
AcDbSymbolTableRecord
100
AcDbTextStyleTableRecord
  2
STANDARD
 70
0
 40
0.0
 41
0.8
 50
0.0
 71
0
 42
0.2
  3
txt
  4

  0
STYLE
  5
21A
100
AcDbSymbolTableRecord
100
AcDbTextStyleTableRecord
  2
TEXTSTYLE_1
 70
0
 40
0.0
 41
0.8
 50
0.0
 71
0
 42
0.2
  3
gdt
  4

  0
ENDTAB
  0
TABLE
  2
VIEW
  5
6
100
AcDbSymbolTable
 70
0
  0
ENDTAB
  0
TABLE
  2
UCS
  5
7
100
AcDbSymbolTable
 70
0
  0
ENDTAB
  0
TABLE
  2
APPID
  5
9
100
AcDbSymbolTable
 70
1
  0
APPID
  5
21B
100
AcDbSymbolTableRecord
100
AcDbRegAppTableRecord
  2
ACAD
 70
0
  0
ENDTAB
  0
TABLE
  2
BLOCK_RECORD
  5
1
100
AcDbSymbolTable
 70
0
  0
BLOCK_RECORD
  5
21C
100
AcDbSymbolTableRecord
100
AcDbBlockTableRecord
  2
*Model_Space
  0
BLOCK_RECORD
  5
21D
100
AcDbSymbolTableRecord
100
AcDbBlockTableRecord
  2
*Paper_Space
  0
BLOCK_RECORD
  5
21E
100
AcDbSymbolTableRecord
100
AcDbBlockTableRecord
  2
_FILLED
  0
ENDTAB
  0
TABLE
  2
DIMSTYLE
  5
A
100
AcDbSymbolTable
 70
1
100
AcDbDimStyleTable
 71
0
  0
DIMSTYLE
105
21F
100
AcDbSymbolTableRecord
100
AcDbDimStyleTableRecord
  2
STANDARD
 70
0
  3

  4

 40
1.0
 41
0.1
 42
0.0625
 43
0.38
 44
0.125
 45
0.0
 46
0.0
 47
0.001
 48
0.001
140
0.08
141
0.09
142
0.0
143
25.4
144
1.0
145
0.0
146
1.0
147
0.09
 71
1.0
 72
0.0
 73
1
 74
1
 75
0
 76
0
 77
0
 78
4
 79
1
170
1
171
2
172
0
173
0
174
0
175
0
176
0
177
0
178
0
270
2
179
3
271
3
272
3
273
2
274
2
275
0
280
0
281
0
282
0
283
1
284
4
285
0
286
0
287
3
288
0
340
11
278
46
341
21E
342
21E
343
21E
344
21E
  0
ENDTAB
  0
ENDSEC
  0
SECTION
  2
BLOCKS
  0
BLOCK
  5
20
100
AcDbEntity
  8
0
100
AcDbBlockBegin
  2
*Model_Space
 70
0
 10
0.0
 20
0.0
 30
0.0
  3
*Model_Space
  1

  0
ENDBLK
  5
21
100
AcDbEntity
  8
0
100
AcDbBlockEnd
  0
BLOCK
  5
1C
100
AcDbEntity
  8
0
100
AcDbBlockBegin
  2
*Paper_Space
 70
0
 10
0.0
 20
0.0
 30
0.0
  3
*Paper_Space
  1

  0
ENDBLK
  5
1D
100
AcDbEntity
  8
0
100
AcDbBlockEnd
  0
BLOCK
  5
220
100
AcDbEntity
  8
0
100
AcDbBlockBegin
  2
_FILLED
 70
64
 10
0.0
 20
0.0
  3
_FILLED
  1

  0
SOLID
  5
221
100
AcDbEntity
  8
0
  6
BYBLOCK
 62
0
100
AcDbTrace
 10
0.0
 20
0.0
 11
-1.0
 21
0.2
 12
-1.0
 22
-0.2
 13
-1.0
 23
-0.2
  0
ENDBLK
  5
222
100
AcDbEntity
  8
0
  6
BYBLOCK
 62
0
100
AcDbBlockEnd
  0
ENDSEC
  0
SECTION
  2
ENTITIES
  0
MTEXT
  5
223
100
AcDbEntity
  8
0
100
AcDbMText
 62
2
  6
CONTINUOUS
  7
STANDARD
 71
3
 72
1
 10
4.4274057143
 20
1.7693452685
 30
0.0
 11
1.0
 21
0.0
 31
0.0
 73
2
 44
0.9
  1
SCALE  .500
 40
0.08
 41
0.704
  0
LINE
  5
224
100
AcDbEntity
  8
0
100
AcDbLine
 62
7
  6
CONTINUOUS
 10
0.0
 20
0.0
 11
0.0
 21
8.5
  0
LINE
  5
225
100
AcDbEntity
  8
0
100
AcDbLine
 62
7
  6
CONTINUOUS
 10
0.0
 20
0.0
 11
11.0
 21
0.0
  0
LINE
  5
226
100
AcDbEntity
  8
0
100
AcDbLine
 62
7
  6
CONTINUOUS
 10
0.0
 20
8.5
 11
11.0
 21
8.5
  0
LINE
  5
227
100
AcDbEntity
  8
0
100
AcDbLine
 62
7
  6
CONTINUOUS
 10
11.0
 20
0.0
 11
11.0
 21
8.5
  0
LINE
  5
228
100
AcDbEntity
  8
0
100
AcDbLine
 62
7
  6
CONTINUOUS
 10
2.5551812284
 20
4.7970169767
 11
2.5551812284
 21
4.5767696032
  0
LINE
  5
229
100
AcDbEntity
  8
0
100
AcDbLine
 62
7
  6
CONTINUOUS
 10
2.5668964584
 20
4.530497459
 11
2.5668964584
 21
4.8432891209
  0
LINE
  5
22A
100
AcDbEntity
  8
0
100
AcDbLine
 62
7
  6
CONTINUOUS
 10
2.5918574611
 20
4.50689329
 11
2.5918574611
 21
4.86689329
  0
LINE
  5
22B
100
AcDbEntity
  8
0
100
AcDbLine
 62
7
  6
CONTINUOUS
 10
2.5993419493
 20
4.50689329
 11
2.5993419493
 21
4.86689329
  0
LINE
  5
22C
100
AcDbEntity
  8
0
100
AcDbLine
 62
7
  6
CONTINUOUS
 10
2.6222358111
 20
4.5218498299
 11
2.6222358111
 21
4.85193675
  0
LINE
  5
22D
100
AcDbEntity
  8
0
100
AcDbLine
 62
7
  6
CONTINUOUS
 10
2.6384416181
 20
4.8400830558
 11
2.6384416181
 21
4.5337035241
  0
LINE
  5
22E
100
AcDbEntity
  8
0
100
AcDbLine
 62
7
  6
CONTINUOUS
 10
3.7141623182
 20
6.0758687254
 11
3.6299124156
 21
5.995039444
  0
LINE
  5
22F
100
AcDbEntity
  8
0
100
AcDbLine
 62
7
  6
CONTINUOUS
 10
2.890370329
 20
4.5780634887
 11
2.890370329
 21
4.7957230912
  0
LINE
  5
230
100
AcDbEntity
  8
0
100
AcDbLine
 62
7
  6
CONTINUOUS
 10
2.9055509006
 20
4.59689329
 11
2.9055509006
 21
4.77689329
  0
LINE
  5
231
100
AcDbEntity
  8
0
100
AcDbLine
 62
7
  6
CONTINUOUS
 10
2.9375509006
 20
5.0621431166
 11
2.9375509006
 21
5.0645627181
  0
LINE
  5
232
100
AcDbEntity
  8
0
100
AcDbLine
 62
7
  6
CONTINUOUS
 10
2.9505509006
 20
4.59689329
 11
2.9505509006
 21
4.77689329
  0
LINE
  5
233
100
AcDbEntity
  8
0
100
AcDbLine
 62
7
  6
CONTINUOUS
 10
2.9555509006
 20
4.7763429965
 11
2.9555509006
 21
4.5974435834
  0
LINE
  5
234
100
AcDbEntity
  8
0
100
AcDbLine
 62
7
  6
CONTINUOUS
 10
3.0003009006
 20
4.9921431166
 11
3.0003009006
 21
5.0321431166
  0
LINE
  5
235
100
AcDbEntity
  8
0
100
AcDbLine
 62
7
  6
CONTINUOUS
 10
3.5705983871
 20
5.8884779658
 11
3.6205338416
 21
5.9501431166
  0
LINE
  5
236
100
AcDbEntity
  8
0
100
AcDbLine
 62
7
  6
CONTINUOUS
 10
3.0225509006
 20
4.5033292999
 11
3.0225509006
 21
4.5067573149
  0
LINE
  5
237
100
AcDbEntity
  8
ALL_FEATURES
100
AcDbLine
 62
7
  6
CONTINUOUS
 10
3.0333009006
 20
4.8671431166
 11
3.0333009006
 21
4.9921431166
  0
LINE
  5
238
100
AcDbEntity
  8
ALL_FEATURES
100
AcDbLine
 62
7
  6
CONTINUOUS
 10
3.2918009006
 20
4.8671431166
 11
3.2918009006
 21
4.9921431166
  0
LINE
  5
239
100
AcDbEntity
  8
0
100
AcDbLine
 62
7
  6
CONTINUOUS
 10
3.3025509006
 20
4.5033292999
 11
3.3025509006
 21
4.5067573149
  0
LINE
  5
23A
100
AcDbEntity
  8
0
100
AcDbLine
 62
7
  6
CONTINUOUS
 10
3.3248009006
 20
4.9921431166
 11
3.3248009006
 21
5.0321431166
  0
LINE
  5
23B
100
AcDbEntity
  8
0
100
AcDbLine
 62
7
  6
CONTINUOUS
 10
3.3695509006
 20
4.5974435834
 11
3.3695509006
 21
4.7763429965
  0
LINE
  5
23C
100
AcDbEntity
  8
0
100
AcDbLine
 62
7
  6
CONTINUOUS
 10
3.3745509006
 20
4.77689329
 11
3.3745509006
 21
4.59689329
  0
LINE
  5
23D
100
AcDbEntity
  8
0
100
AcDbLine
 62
7
  6
CONTINUOUS
 10
3.3875509006
 20
5.0621431166
 11
3.3875509006
 21
5.0645627181
  0
LINE
  5
23E
100
AcDbEntity
  8
0
100
AcDbLine
 62
7
  6
CONTINUOUS
 10
3.4195509006
 20
4.77689329
 11
3.4195509006
 21
4.59689329
  0
LINE
  5
23F
100
AcDbEntity
  8
0
100
AcDbLine
 62
7
  6
CONTINUOUS
 10
3.4347314723
 20
4.7957230912
 11
3.4347314723
 21
4.5780634887
  0
LINE
  5
240
100
AcDbEntity
  8
0
100
AcDbLine
 62
7
  6
CONTINUOUS
 10
3.6866601832
 20
4.5337035241
 11
3.6866601832
 21
4.8400830558
  0
LINE
  5
241
100
AcDbEntity
  8
0
100
AcDbLine
 62
7
  6
CONTINUOUS
 10
3.7028659901
 20
4.85193675
 11
3.7028659901
 21
4.5218498299
  0
LINE
  5
242
100
AcDbEntity
  8
0
100
AcDbLine
 62
7
  6
CONTINUOUS
 10
3.725759852
 20
4.86689329
 11
3.725759852
 21
4.50689329
  0
LINE
  5
243
100
AcDbEntity
  8
0
100
AcDbLine
 62
7
  6
CONTINUOUS
 10
3.7332443402
 20
4.86689329
 11
3.7332443402
 21
4.50689329
  0
LINE
  5
244
100
AcDbEntity
  8
0
100
AcDbLine
 62
7
  6
CONTINUOUS
 10
3.7582053429
 20
4.8432891209
 11
3.7582053429
 21
4.530497459
  0
LINE
  5
245
100
AcDbEntity
  8
0
100
AcDbLine
 62
7
  6
CONTINUOUS
 10
3.7699205729
 20
4.5767696032
 11
3.7699205729
 21
4.7970169767
  0
LINE
  5
246
100
AcDbEntity
  8
0
100
AcDbLine
 62
7
  6
CONTINUOUS
 10
2.7545034142
 20
5.8884779658
 11
2.7045679597
 21
5.9501431166
  0
LINE
  5
247
100
AcDbEntity
  8
ALL_FEATURES
100
AcDbLine
 62
7
  6
CONTINUOUS
 10
4.8110559006
 20
5.6481431166
 11
4.8110559006
 21
5.6531431166
  0
LINE
  5
248
100
AcDbEntity
  8
ALL_FEATURES
100
AcDbLine
 62
7
  6
CONTINUOUS
 10
4.8735559006
 20
5.390534318
 11
4.8735559006
 21
5.5881431166
  0
LINE
  5
249
100
AcDbEntity
  8
ALL_FEATURES
100
AcDbLine
 62
7
  6
CONTINUOUS
 10
4.9060559006
 20
4.1881431166
 11
4.9060512674
 21
3.6451712265
  0
LINE
  5
24A
100
AcDbEntity
  8
ALL_FEATURES
100
AcDbLine
 62
7
  6
CONTINUOUS
 10
4.9060512674
 20
3.6451712265
 11
4.906038148
 21
3.6367217412
  0
LINE
  5
24B
100
AcDbEntity
  8
ALL_FEATURES
100
AcDbLine
 62
7
  6
CONTINUOUS
 10
4.9060386282
 20
3.6369647007
 11
4.9060076826
 21
3.6267858164
  0
LINE
  5
24C
100
AcDbEntity
  8
ALL_FEATURES
100
AcDbLine
 62
7
  6
CONTINUOUS
 10
4.9060101058
 20
3.6273378139
 11
4.9059678447
 21
3.6177241873
  0
LINE
  5
24D
100
AcDbEntity
  8
ALL_FEATURES
100
AcDbLine
 62
7
  6
CONTINUOUS
 10
4.9056038663
 20
3.5744149111
 11
4.9056016999
 21
3.5740451383
  0
LWPOLYLINE
  5
24E
100
AcDbEntity
  8
ALL_FEATURES
100
AcDbPolyline
 62
7
  6
CONTINUOUS
 90
4
 70
0
 10
4.9059680786
 20
3.6177643566
 10
4.9059126568
 20
3.6082445677
 10
4.9058439383
 20
3.5987771158
 10
4.9057620265
 20
3.5893621641
  0
LINE
  5
24F
100
AcDbEntity
  8
ALL_FEATURES
100
AcDbLine
 62
7
  6
CONTINUOUS
 10
4.9057620265
 20
3.5893621641
 11
4.9056016999
 21
3.5740451383
  0
LWPOLYLINE
  5
250
100
AcDbEntity
  8
ALL_FEATURES
100
AcDbPolyline
 62
7
  6
CONTINUOUS
 90
13
 70
0
 10
4.9056038694
 20
3.5744151756
 10
4.9048480015
 20
3.5259650724
 10
4.9036215763
 20
3.4745451793
 10
4.9019757756
 20
3.4243186021
 10
4.899919704
 20
3.3754291257
 10
4.8974621146
 20
3.3279350076
 10
4.8946078984
 20
3.2818121451
 10
4.8913643405
 20
3.2370869294
 10
4.8877464713
 20
3.193864249
 10
4.8837713382
 20
3.1522222064
 10
4.8794566194
 20
3.1122082077
 10
4.8748194676
 20
3.0738406447
 10
4.8703377088
 20
3.0403873287
  0
LINE
  5
251
100
AcDbEntity
  8
0
100
AcDbLine
 62
7
  6
CONTINUOUS
 10
2.610939483
 20
6.0758687254
 11
2.6951893856
 21
5.995039444
  0
LWPOLYLINE
  5
252
100
AcDbEntity
  8
ALL_FEATURES
100
AcDbPolyline
 62
7
  6
CONTINUOUS
 90
10
 70
0
 10
5.5354366241
 20
2.5139694552
 10
5.5308217379
 20
2.5240177432
 10
5.5254621326
 20
2.5360691961
 10
5.520045599
 20
2.5486661477
 10
5.5145872429
 20
2.5617886735
 10
5.5090959361
 20
2.5754309688
 10
5.5035745704
 20
2.589603125
 10
5.4980318264
 20
2.6043016191
 10
5.4924819133
 20
2.619507564
 10
5.4877362205
 20
2.6329116085
  0
LINE
  5
253
100
AcDbEntity
  8
ALL_FEATURES
100
AcDbLine
 62
7
  6
CONTINUOUS
 10
5.1310559006
 20
4.1881431166
 11
5.1310559006
 21
2.3004717306
  0
LWPOLYLINE
  5
254
100
AcDbEntity
  8
ALL_FEATURES
100
AcDbPolyline
 62
7
  6
CONTINUOUS
 90
10
 70
0
 10
4.8703376724
 20
3.0403870695
 10
4.8697172518
 20
3.0359986048
 10
4.8685725675
 20
3.0280450285
 10
4.867404836
 20
3.0201132046
 10
4.8662140898
 20
3.0122034528
 10
4.8650004335
 20
3.0043165689
 10
4.8637640501
 20
2.9964538107
 10
4.8625050567
 20
2.9886159605
 10
4.8612234983
 20
2.9808033393
 10
4.8604505671
 20
2.976168635
  0
LWPOLYLINE
  5
255
100
AcDbEntity
  8
ALL_FEATURES
100
AcDbPolyline
 62
7
  6
CONTINUOUS
 90
13
 70
0
 10
4.8604504869
 20
2.9761681567
 10
4.855805914
 20
2.9494237422
 10
4.8502544237
 20
2.9196109744
 10
4.8443797228
 20
2.8901773014
 10
4.8381958354
 20
2.8611552504
 10
4.831719231
 20
2.8325848769
 10
4.8249693729
 20
2.8045142526
 10
4.8179667059
 20
2.7769899403
 10
4.8107298677
 20
2.7500473983
 10
4.8032786314
 20
2.7237242484
 10
4.7956362086
 20
2.6980677968
 10
4.7878286365
 20
2.6731313791
 10
4.7806188709
 20
2.6511570448
  0
LINE
  5
256
100
AcDbEntity
  8
0
100
AcDbLine
 62
7
  6
CONTINUOUS
 10
5.6513735278
 20
5.9626349598
 11
5.6533992824
 21
5.9695456392
  0
LINE
  5
257
100
AcDbEntity
  8
ALL_FEATURES
100
AcDbLine
 62
7
  6
CONTINUOUS
 10
5.3560559006
 20
4.1881431166
 11
4.9060559006
 21
4.1881431166
  0
LINE
  5
258
100
AcDbEntity
  8
ALL_FEATURES
100
AcDbLine
 62
7
  6
CONTINUOUS
 10
5.4877363558
 20
2.632911221
 11
5.4859011719
 21
2.6381990118
  0
LINE
  5
259
100
AcDbEntity
  8
ALL_FEATURES
100
AcDbLine
 62
7
  6
CONTINUOUS
 10
5.4859011719
 20
2.6381990118
 11
5.4841775462
 21
2.6432221793
  0
LWPOLYLINE
  5
25A
100
AcDbEntity
  8
ALL_FEATURES
100
AcDbPolyline
 62
7
  6
CONTINUOUS
 90
3
 70
0
 10
5.4841775462
 20
2.6432221793
 10
5.4824427546
 20
2.6483340817
 10
5.4814941169
 20
2.6511535078
  0
LWPOLYLINE
  5
25B
100
AcDbEntity
  8
ALL_FEATURES
100
AcDbPolyline
 62
7
  6
CONTINUOUS
 90
13
 70
0
 10
5.4814929304
 20
2.6511570448
 10
5.4742831647
 20
2.6731313791
 10
5.4664755926
 20
2.6980677968
 10
5.4588331699
 20
2.7237242484
 10
5.4513819336
 20
2.7500473983
 10
5.4441450953
 20
2.7769899403
 10
5.4371424284
 20
2.8045142526
 10
5.4303925702
 20
2.8325848769
 10
5.4239159658
 20
2.8611552504
 10
5.4177320784
 20
2.8901773014
 10
5.4118573776
 20
2.9196109744
 10
5.4063058872
 20
2.9494237422
 10
5.4016613144
 20
2.9761681567
  0
LINE
  5
25C
100
AcDbEntity
  8
0
100
AcDbLine
 62
7
  6
CONTINUOUS
 10
4.6107382735
 20
5.9626349598
 11
4.6087125188
 21
5.9695456392
  0
LWPOLYLINE
  5
25D
100
AcDbEntity
  8
ALL_FEATURES
100
AcDbPolyline
 62
7
  6
CONTINUOUS
 90
4
 70
0
 10
5.3565101013
 20
3.5740451383
 10
5.3563497748
 20
3.5893621641
 10
5.356267863
 20
3.5987771158
 10
5.3561991445
 20
3.6082445677
  0
LINE
  5
25E
100
AcDbEntity
  8
ALL_FEATURES
100
AcDbLine
 62
7
  6
CONTINUOUS
 10
5.3565101013
 20
3.5740451383
 11
5.356507935
 21
3.5744149111
  0
LINE
  5
25F
100
AcDbEntity
  8
ALL_FEATURES
100
AcDbLine
 62
7
  6
CONTINUOUS
 10
5.3561415829
 20
3.6181141164
 11
5.3561991445
 21
3.6082445677
  0
LINE
  5
260
100
AcDbEntity
  8
ALL_FEATURES
100
AcDbLine
 62
7
  6
CONTINUOUS
 10
5.3560934462
 20
3.6296477154
 11
5.3561437227
 21
3.6177643566
  0
LINE
  5
261
100
AcDbEntity
  8
ALL_FEATURES
100
AcDbLine
 62
7
  6
CONTINUOUS
 10
5.3561016954
 20
3.6273378139
 11
5.3560582668
 21
3.6466432167
  0
LINE
  5
262
100
AcDbEntity
  8
ALL_FEATURES
100
AcDbLine
 62
7
  6
CONTINUOUS
 10
5.3560559006
 20
4.1881431166
 11
5.3560582668
 21
3.6466432167
  0
LINE
  5
263
100
AcDbEntity
  8
ALL_FEATURES
100
AcDbLine
 62
7
  6
CONTINUOUS
 10
4.7806188709
 20
2.6511570448
 11
4.7788002875
 21
2.6457670257
  0
LINE
  5
264
100
AcDbEntity
  8
ALL_FEATURES
100
AcDbLine
 62
7
  6
CONTINUOUS
 10
4.7788002875
 20
2.6457670257
 11
4.77707101
 21
2.6406995043
  0
LINE
  5
265
100
AcDbEntity
  8
ALL_FEATURES
100
AcDbLine
 62
7
  6
CONTINUOUS
 10
4.77707101
 20
2.6406995043
 11
4.7753531738
 21
2.6357206654
  0
LINE
  5
266
100
AcDbEntity
  8
ALL_FEATURES
100
AcDbLine
 62
7
  6
CONTINUOUS
 10
4.7753531738
 20
2.6357206654
 11
4.7743754454
 21
2.632911221
  0
LWPOLYLINE
  5
267
100
AcDbEntity
  8
ALL_FEATURES
100
AcDbPolyline
 62
7
  6
CONTINUOUS
 90
10
 70
0
 10
4.7743755807
 20
2.6329116085
 10
4.769629888
 20
2.619507564
 10
4.7640799748
 20
2.6043016191
 10
4.7585372308
 20
2.589603125
 10
4.7530158651
 20
2.5754309688
 10
4.7475245584
 20
2.5617886735
 10
4.7420662022
 20
2.5486661477
 10
4.7366496687
 20
2.5360691961
 10
4.7312900633
 20
2.5240177432
 10
4.7266751772
 20
2.5139694552
  0
LINE
  5
268
100
AcDbEntity
  8
0
100
AcDbLine
 62
7
  6
CONTINUOUS
 10
5.3704258708
 20
4.2545877349
 11
4.8916859305
 21
4.2545877349
  0
LINE
  5
269
100
AcDbEntity
  8
0
100
AcDbLine
 62
7
  6
CONTINUOUS
 10
5.3565072098
 20
4.2747834865
 11
4.9056045914
 21
4.2747834865
  0
LWPOLYLINE
  5
26A
100
AcDbEntity
  8
ALL_FEATURES
100
AcDbPolyline
 62
7
  6
CONTINUOUS
 90
10
 70
0
 10
5.4016612341
 20
2.976168635
 10
5.400888303
 20
2.9808033393
 10
5.3996067445
 20
2.9886159605
 10
5.3983477511
 20
2.9964538107
 10
5.3971113678
 20
3.0043165689
 10
5.3958977115
 20
3.0122034528
 10
5.3947069652
 20
3.0201132046
 10
5.3935392338
 20
3.0280450285
 10
5.3923945494
 20
3.0359986048
 10
5.3917741289
 20
3.0403870695
  0
LWPOLYLINE
  5
26B
100
AcDbEntity
  8
ALL_FEATURES
100
AcDbPolyline
 62
7
  6
CONTINUOUS
 90
13
 70
0
 10
5.3917740925
 20
3.0403873287
 10
5.3872923336
 20
3.0738406447
 10
5.3826551818
 20
3.1122082077
 10
5.3783404631
 20
3.1522222064
 10
5.37436533
 20
3.193864249
 10
5.3707474608
 20
3.2370869294
 10
5.3675039029
 20
3.2818121451
 10
5.3646496866
 20
3.3279350076
 10
5.3621920972
 20
3.3754291257
 10
5.3601360256
 20
3.4243186021
 10
5.3584902249
 20
3.4745451793
 10
5.3572637998
 20
3.5259650724
 10
5.3565079319
 20
3.5744151756
  0
LINE
  5
26C
100
AcDbEntity
  8
ALL_FEATURES
100
AcDbLine
 62
7
  6
CONTINUOUS
 10
5.3885559006
 20
5.390534318
 11
5.3885559006
 21
5.5881431166
  0
LINE
  5
26D
100
AcDbEntity
  8
ALL_FEATURES
100
AcDbLine
 62
7
  6
CONTINUOUS
 10
5.4510559006
 20
5.6481431166
 11
5.4510559006
 21
5.6531431166
  0
LINE
  5
26E
100
AcDbEntity
  8
0
100
AcDbLine
 62
7
  6
CONTINUOUS
 10
7.6511723182
 20
6.0758687254
 11
7.5669224156
 21
5.995039444
  0
LINE
  5
26F
100
AcDbEntity
  8
0
100
AcDbLine
 62
7
  6
CONTINUOUS
 10
3.0496476748
 20
4.4654676205
 11
3.2754541264
 21
4.4654676205
  0
LINE
  5
270
100
AcDbEntity
  8
0
100
AcDbLine
 62
7
  6
CONTINUOUS
 10
6.9866576748
 20
4.4654676205
 11
7.2124641264
 21
4.4654676205
  0
LINE
  5
271
100
AcDbEntity
  8
0
100
AcDbLine
 62
7
  6
CONTINUOUS
 10
3.0225509006
 20
4.5033292999
 11
3.3025509006
 21
4.5033292999
  0
LINE
  5
272
100
AcDbEntity
  8
0
100
AcDbLine
 62
7
  6
CONTINUOUS
 10
6.9595609006
 20
4.5033292999
 11
7.2395609006
 21
4.5033292999
  0
LINE
  5
273
100
AcDbEntity
  8
0
100
AcDbLine
 62
7
  6
CONTINUOUS
 10
3.0225509006
 20
4.5067573149
 11
3.3025509006
 21
4.5067573149
  0
LINE
  5
274
100
AcDbEntity
  8
0
100
AcDbLine
 62
7
  6
CONTINUOUS
 10
6.9595609006
 20
4.5067573149
 11
7.2395609006
 21
4.5067573149
  0
LINE
  5
275
100
AcDbEntity
  8
0
100
AcDbLine
 62
7
  6
CONTINUOUS
 10
7.6702543402
 20
4.50689329
 11
7.662769852
 21
4.50689329
  0
LINE
  5
276
100
AcDbEntity
  8
0
100
AcDbLine
 62
7
  6
CONTINUOUS
 10
3.7332443402
 20
4.50689329
 11
3.725759852
 21
4.50689329
  0
LINE
  5
277
100
AcDbEntity
  8
0
100
AcDbLine
 62
7
  6
CONTINUOUS
 10
2.5918574611
 20
4.50689329
 11
2.5993419493
 21
4.50689329
  0
LINE
  5
278
100
AcDbEntity
  8
0
100
AcDbLine
 62
7
  6
CONTINUOUS
 10
6.5288674611
 20
4.50689329
 11
6.5363519493
 21
4.50689329
  0
LINE
  5
279
100
AcDbEntity
  8
0
100
AcDbLine
 62
7
  6
CONTINUOUS
 10
7.2456759637
 20
4.5167573149
 11
7.1583230787
 21
4.5167573149
  0
LINE
  5
27A
100
AcDbEntity
  8
0
100
AcDbLine
 62
7
  6
CONTINUOUS
 10
7.0408958561
 20
4.5167573149
 11
6.9534458375
 21
4.5167573149
  0
LINE
  5
27B
100
AcDbEntity
  8
0
100
AcDbLine
 62
7
  6
CONTINUOUS
 10
3.3086659637
 20
4.5167573149
 11
3.2213130787
 21
4.5167573149
  0
LINE
  5
27C
100
AcDbEntity
  8
0
100
AcDbLine
 62
7
  6
CONTINUOUS
 10
3.1038858561
 20
4.5167573149
 11
3.0164358375
 21
4.5167573149
  0
LINE
  5
27D
100
AcDbEntity
  8
0
100
AcDbLine
 62
7
  6
CONTINUOUS
 10
7.2489918484
 20
4.518012735
 11
7.1616980483
 21
4.518012735
  0
LINE
  5
27E
100
AcDbEntity
  8
0
100
AcDbLine
 62
7
  6
CONTINUOUS
 10
7.0373822296
 20
4.518012735
 11
6.9501299528
 21
4.518012735
  0
LINE
  5
27F
100
AcDbEntity
  8
0
100
AcDbLine
 62
7
  6
CONTINUOUS
 10
3.3119818484
 20
4.518012735
 11
3.2246880483
 21
4.518012735
  0
LINE
  5
280
100
AcDbEntity
  8
0
100
AcDbLine
 62
7
  6
CONTINUOUS
 10
3.1003722296
 20
4.518012735
 11
3.0131199528
 21
4.518012735
  0
LINE
  5
281
100
AcDbEntity
  8
0
100
AcDbLine
 62
7
  6
CONTINUOUS
 10
7.3565609006
 20
4.59689329
 11
7.3115609006
 21
4.59689329
  0
LINE
  5
282
100
AcDbEntity
  8
0
100
AcDbLine
 62
7
  6
CONTINUOUS
 10
3.4195509006
 20
4.59689329
 11
3.3745509006
 21
4.59689329
  0
LINE
  5
283
100
AcDbEntity
  8
0
100
AcDbLine
 62
7
  6
CONTINUOUS
 10
2.9055509006
 20
4.59689329
 11
2.9505509006
 21
4.59689329
  0
LINE
  5
284
100
AcDbEntity
  8
0
100
AcDbLine
 62
7
  6
CONTINUOUS
 10
6.8425609006
 20
4.59689329
 11
6.8875609006
 21
4.59689329
  0
LINE
  5
285
100
AcDbEntity
  8
0
100
AcDbLine
 62
7
  6
CONTINUOUS
 10
7.3565609006
 20
4.77689329
 11
7.3115609006
 21
4.77689329
  0
LINE
  5
286
100
AcDbEntity
  8
0
100
AcDbLine
 62
7
  6
CONTINUOUS
 10
3.4195509006
 20
4.77689329
 11
3.3745509006
 21
4.77689329
  0
LINE
  5
287
100
AcDbEntity
  8
0
100
AcDbLine
 62
7
  6
CONTINUOUS
 10
2.9055509006
 20
4.77689329
 11
2.9505509006
 21
4.77689329
  0
LINE
  5
288
100
AcDbEntity
  8
0
100
AcDbLine
 62
7
  6
CONTINUOUS
 10
6.8425609006
 20
4.77689329
 11
6.8875609006
 21
4.77689329
  0
LINE
  5
289
100
AcDbEntity
  8
0
100
AcDbLine
 62
7
  6
CONTINUOUS
 10
7.6702543402
 20
4.86689329
 11
7.662769852
 21
4.86689329
  0
LINE
  5
28A
100
AcDbEntity
  8
0
100
AcDbLine
 62
7
  6
CONTINUOUS
 10
3.7332443402
 20
4.86689329
 11
3.725759852
 21
4.86689329
  0
LINE
  5
28B
100
AcDbEntity
  8
0
100
AcDbLine
 62
7
  6
CONTINUOUS
 10
2.5918574611
 20
4.86689329
 11
2.5993419493
 21
4.86689329
  0
LINE
  5
28C
100
AcDbEntity
  8
0
100
AcDbLine
 62
7
  6
CONTINUOUS
 10
6.5288674611
 20
4.86689329
 11
6.5363519493
 21
4.86689329
  0
LINE
  5
28D
100
AcDbEntity
  8
ALL_FEATURES
100
AcDbLine
 62
7
  6
CONTINUOUS
 10
3.0270509006
 20
4.8671431166
 11
3.2980509006
 21
4.8671431166
  0
LINE
  5
28E
100
AcDbEntity
  8
ALL_FEATURES
100
AcDbLine
 62
7
  6
CONTINUOUS
 10
6.9640609006
 20
4.8671431166
 11
7.2350609006
 21
4.8671431166
  0
LINE
  5
28F
100
AcDbEntity
  8
0
100
AcDbLine
 62
7
  6
CONTINUOUS
 10
7.5076083871
 20
5.8884779658
 11
7.5575438416
 21
5.9501431166
  0
LINE
  5
290
100
AcDbEntity
  8
0
100
AcDbLine
 62
7
  6
CONTINUOUS
 10
3.0003009006
 20
4.9921431166
 11
3.3248009006
 21
4.9921431166
  0
LINE
  5
291
100
AcDbEntity
  8
0
100
AcDbLine
 62
7
  6
CONTINUOUS
 10
6.9373109006
 20
4.9921431166
 11
7.2618109006
 21
4.9921431166
  0
LINE
  5
292
100
AcDbEntity
  8
0
100
AcDbLine
 62
7
  6
CONTINUOUS
 10
7.2945609005
 20
5.0321431166
 11
6.9045609007
 21
5.0321431166
  0
LINE
  5
293
100
AcDbEntity
  8
0
100
AcDbLine
 62
7
  6
CONTINUOUS
 10
3.3575509005
 20
5.0321431166
 11
2.9675509007
 21
5.0321431166
  0
LINE
  5
294
100
AcDbEntity
  8
0
100
AcDbLine
 62
7
  6
CONTINUOUS
 10
7.3245609006
 20
5.0621431166
 11
6.8745609006
 21
5.0621431166
  0
LINE
  5
295
100
AcDbEntity
  8
0
100
AcDbLine
 62
7
  6
CONTINUOUS
 10
3.3875509006
 20
5.0621431166
 11
2.9375509006
 21
5.0621431166
  0
LINE
  5
296
100
AcDbEntity
  8
0
100
AcDbLine
 62
7
  6
CONTINUOUS
 10
7.3245609006
 20
5.0645627339
 11
6.8745609006
 21
5.0645627339
  0
LINE
  5
297
100
AcDbEntity
  8
0
100
AcDbLine
 62
7
  6
CONTINUOUS
 10
3.3875509006
 20
5.0645627339
 11
2.9375509006
 21
5.0645627339
  0
LINE
  5
298
100
AcDbEntity
  8
0
100
AcDbLine
 62
7
  6
CONTINUOUS
 10
7.3110523985
 20
5.0896232548
 11
6.8880694027
 21
5.0896232548
  0
LINE
  5
299
100
AcDbEntity
  8
0
100
AcDbLine
 62
7
  6
CONTINUOUS
 10
3.3740423985
 20
5.0896232548
 11
2.9510594027
 21
5.0896232548
  0
LINE
  5
29A
100
AcDbEntity
  8
0
100
AcDbLine
 62
7
  6
CONTINUOUS
 10
7.2977000998
 20
5.1116263771
 11
6.9014217015
 21
5.1116263771
  0
LINE
  5
29B
100
AcDbEntity
  8
0
100
AcDbLine
 62
7
  6
CONTINUOUS
 10
3.3606900998
 20
5.1116263771
 11
2.9644117015
 21
5.1116263771
  0
LINE
  5
29C
100
AcDbEntity
  8
0
100
AcDbLine
 62
7
  6
CONTINUOUS
 10
4.8699070579
 20
5.2808958111
 11
5.3922047434
 21
5.2808958111
  0
LINE
  5
29D
100
AcDbEntity
  8
0
100
AcDbLine
 62
7
  6
CONTINUOUS
 10
4.8539091834
 20
5.3003184725
 11
5.4082026179
 21
5.3003184725
  0
LINE
  5
29E
100
AcDbEntity
  8
0
100
AcDbLine
 62
7
  6
CONTINUOUS
 10
4.8558475674
 20
5.3666213174
 11
5.4062642339
 21
5.3666213174
  0
LINE
  5
29F
100
AcDbEntity
  8
0
100
AcDbLine
 62
7
  6
CONTINUOUS
 10
4.8735559006
 20
5.390534318
 11
5.3885559006
 21
5.390534318
  0
LINE
  5
2A0
100
AcDbEntity
  8
0
100
AcDbLine
 62
7
  6
CONTINUOUS
 10
6.4921912284
 20
4.7970169767
 11
6.4921912284
 21
4.5767696032
  0
LINE
  5
2A1
100
AcDbEntity
  8
0
100
AcDbLine
 62
7
  6
CONTINUOUS
 10
6.5039064584
 20
4.530497459
 11
6.5039064584
 21
4.8432891209
  0
LINE
  5
2A2
100
AcDbEntity
  8
0
100
AcDbLine
 62
7
  6
CONTINUOUS
 10
6.5288674611
 20
4.50689329
 11
6.5288674611
 21
4.86689329
  0
LINE
  5
2A3
100
AcDbEntity
  8
0
100
AcDbLine
 62
7
  6
CONTINUOUS
 10
6.5363519493
 20
4.50689329
 11
6.5363519493
 21
4.86689329
  0
LINE
  5
2A4
100
AcDbEntity
  8
0
100
AcDbLine
 62
7
  6
CONTINUOUS
 10
6.5592458111
 20
4.5218498299
 11
6.5592458111
 21
4.85193675
  0
LINE
  5
2A5
100
AcDbEntity
  8
0
100
AcDbLine
 62
7
  6
CONTINUOUS
 10
6.5754516181
 20
4.8400830558
 11
6.5754516181
 21
4.5337035241
  0
LINE
  5
2A6
100
AcDbEntity
  8
0
100
AcDbLine
 62
7
  6
CONTINUOUS
 10
4.8735559006
 20
5.5881431166
 11
5.3885559006
 21
5.5881431166
  0
LINE
  5
2A7
100
AcDbEntity
  8
0
100
AcDbLine
 62
7
  6
CONTINUOUS
 10
5.4160553946
 20
5.6131431166
 11
4.8460564066
 21
5.6131431166
  0
LINE
  5
2A8
100
AcDbEntity
  8
0
100
AcDbLine
 62
7
  6
CONTINUOUS
 10
5.4510559006
 20
5.6481431166
 11
4.8110559006
 21
5.6481431166
  0
LINE
  5
2A9
100
AcDbEntity
  8
0
100
AcDbLine
 62
7
  6
CONTINUOUS
 10
5.4510559006
 20
5.6531431166
 11
4.8110559006
 21
5.6531431166
  0
LINE
  5
2AA
100
AcDbEntity
  8
0
100
AcDbLine
 62
7
  6
CONTINUOUS
 10
4.8368569172
 20
5.6881431166
 11
5.425254884
 21
5.6881431166
  0
LINE
  5
2AB
100
AcDbEntity
  8
0
100
AcDbLine
 62
7
  6
CONTINUOUS
 10
4.8274817315
 20
5.691433894
 11
5.4346300698
 21
5.691433894
  0
LINE
  5
2AC
100
AcDbEntity
  8
0
100
AcDbLine
 62
7
  6
CONTINUOUS
 10
2.9469456381
 20
5.6977277069
 11
3.3781561632
 21
5.6977277069
  0
LINE
  5
2AD
100
AcDbEntity
  8
0
100
AcDbLine
 62
7
  6
CONTINUOUS
 10
6.8839556381
 20
5.6977277069
 11
7.3151661632
 21
5.6977277069
  0
LINE
  5
2AE
100
AcDbEntity
  8
0
100
AcDbLine
 62
7
  6
CONTINUOUS
 10
2.9246618538
 20
5.7219905823
 11
3.4004399474
 21
5.7219905823
  0
LINE
  5
2AF
100
AcDbEntity
  8
0
100
AcDbLine
 62
7
  6
CONTINUOUS
 10
6.8616718538
 20
5.7219905823
 11
7.3374499474
 21
5.7219905823
  0
LINE
  5
2B0
100
AcDbEntity
  8
0
100
AcDbLine
 62
7
  6
CONTINUOUS
 10
6.827380329
 20
4.5780634887
 11
6.827380329
 21
4.7957230912
  0
LINE
  5
2B1
100
AcDbEntity
  8
0
100
AcDbLine
 62
7
  6
CONTINUOUS
 10
6.8425609006
 20
4.59689329
 11
6.8425609006
 21
4.77689329
  0
LINE
  5
2B2
100
AcDbEntity
  8
0
100
AcDbLine
 62
7
  6
CONTINUOUS
 10
6.8745609006
 20
5.0621431166
 11
6.8745609006
 21
5.0645627181
  0
LINE
  5
2B3
100
AcDbEntity
  8
0
100
AcDbLine
 62
7
  6
CONTINUOUS
 10
2.9100570305
 20
5.7671431166
 11
3.4150447708
 21
5.7671431166
  0
LINE
  5
2B4
100
AcDbEntity
  8
0
100
AcDbLine
 62
7
  6
CONTINUOUS
 10
6.8470670305
 20
5.7671431166
 11
7.3520547708
 21
5.7671431166
  0
LINE
  5
2B5
100
AcDbEntity
  8
0
100
AcDbLine
 62
7
  6
CONTINUOUS
 10
5.6059634948
 20
5.870309231
 11
4.6561483065
 21
5.870309231
  0
LINE
  5
2B6
100
AcDbEntity
  8
0
100
AcDbLine
 62
7
  6
CONTINUOUS
 10
2.7827684493
 20
5.8755041795
 11
3.5433982784
 21
5.8755041795
  0
LINE
  5
2B7
100
AcDbEntity
  8
0
100
AcDbLine
 62
7
  6
CONTINUOUS
 10
6.7197784493
 20
5.8755041795
 11
7.4804082784
 21
5.8755041795
  0
LINE
  5
2B8
100
AcDbEntity
  8
0
100
AcDbLine
 62
7
  6
CONTINUOUS
 10
2.7545034142
 20
5.8884779658
 11
3.5705983871
 21
5.8884779658
  0
LINE
  5
2B9
100
AcDbEntity
  8
0
100
AcDbLine
 62
7
  6
CONTINUOUS
 10
6.6915134142
 20
5.8884779658
 11
7.5076083871
 21
5.8884779658
  0
LINE
  5
2BA
100
AcDbEntity
  8
0
100
AcDbLine
 62
7
  6
CONTINUOUS
 10
5.6316868582
 20
5.8951999408
 11
4.630424943
 21
5.8951999408
  0
LINE
  5
2BB
100
AcDbEntity
  8
0
100
AcDbLine
 62
7
  6
CONTINUOUS
 10
6.8875609006
 20
4.59689329
 11
6.8875609006
 21
4.77689329
  0
LINE
  5
2BC
100
AcDbEntity
  8
0
100
AcDbLine
 62
7
  6
CONTINUOUS
 10
6.8925609006
 20
4.7763429965
 11
6.8925609006
 21
4.5974435834
  0
LINE
  5
2BD
100
AcDbEntity
  8
0
100
AcDbLine
 62
7
  6
CONTINUOUS
 10
6.9373109006
 20
4.9921431166
 11
6.9373109006
 21
5.0321431166
  0
LINE
  5
2BE
100
AcDbEntity
  8
0
100
AcDbLine
 62
7
  6
CONTINUOUS
 10
6.9595609006
 20
4.5033292999
 11
6.9595609006
 21
4.5067573149
  0
LINE
  5
2BF
100
AcDbEntity
  8
ALL_FEATURES
100
AcDbLine
 62
7
  6
CONTINUOUS
 10
6.9703109006
 20
4.8671431166
 11
6.9703109006
 21
4.9921431166
  0
LINE
  5
2C0
100
AcDbEntity
  8
0
100
AcDbLine
 62
7
  6
CONTINUOUS
 10
2.7045679597
 20
5.9501431166
 11
3.6205338416
 21
5.9501431166
  0
LINE
  5
2C1
100
AcDbEntity
  8
0
100
AcDbLine
 62
7
  6
CONTINUOUS
 10
6.6415779597
 20
5.9501431166
 11
7.5575438416
 21
5.9501431166
  0
LINE
  5
2C2
100
AcDbEntity
  8
0
100
AcDbLine
 62
7
  6
CONTINUOUS
 10
5.6513735277
 20
5.9626349597
 11
4.6107382735
 21
5.9626349597
  0
LINE
  5
2C3
100
AcDbEntity
  8
0
100
AcDbLine
 62
7
  6
CONTINUOUS
 10
5.653399247
 20
5.9695454264
 11
4.6087125542
 21
5.9695454264
  0
LINE
  5
2C4
100
AcDbEntity
  8
0
100
AcDbLine
 62
7
  6
CONTINUOUS
 10
2.6997948128
 20
5.9752356277
 11
3.6253069884
 21
5.9752356277
  0
LINE
  5
2C5
100
AcDbEntity
  8
0
100
AcDbLine
 62
7
  6
CONTINUOUS
 10
6.6368048128
 20
5.9752356277
 11
7.5623169884
 21
5.9752356277
  0
LINE
  5
2C6
100
AcDbEntity
  8
0
100
AcDbLine
 62
7
  6
CONTINUOUS
 10
5.651654662
 20
5.9815774951
 11
4.6104571392
 21
5.9815774951
  0
LINE
  5
2C7
100
AcDbEntity
  8
0
100
AcDbLine
 62
7
  6
CONTINUOUS
 10
2.6951893856
 20
5.995039444
 11
3.6299124156
 21
5.995039444
  0
LINE
  5
2C8
100
AcDbEntity
  8
0
100
AcDbLine
 62
7
  6
CONTINUOUS
 10
6.6321993856
 20
5.995039444
 11
7.5669224156
 21
5.995039444
  0
LINE
  5
2C9
100
AcDbEntity
  8
0
100
AcDbLine
 62
7
  6
CONTINUOUS
 10
5.6571712032
 20
6.005965887
 11
4.6049405981
 21
6.005965887
  0
LINE
  5
2CA
100
AcDbEntity
  8
0
100
AcDbLine
 62
7
  6
CONTINUOUS
 10
5.7216135231
 20
6.0694400863
 11
4.5404982781
 21
6.0694400863
  0
LINE
  5
2CB
100
AcDbEntity
  8
0
100
AcDbLine
 62
7
  6
CONTINUOUS
 10
7.6511723182
 20
6.0758687254
 11
6.547949483
 21
6.0758687254
  0
LINE
  5
2CC
100
AcDbEntity
  8
0
100
AcDbLine
 62
7
  6
CONTINUOUS
 10
3.7141623182
 20
6.0758687254
 11
2.610939483
 21
6.0758687254
  0
LINE
  5
2CD
100
AcDbEntity
  8
0
100
AcDbLine
 62
7
  6
CONTINUOUS
 10
7.6412784765
 20
6.1021431166
 11
6.5578433248
 21
6.1021431166
  0
LINE
  5
2CE
100
AcDbEntity
  8
0
100
AcDbLine
 62
7
  6
CONTINUOUS
 10
5.7061657718
 20
6.1021431166
 11
4.5559460295
 21
6.1021431166
  0
LINE
  5
2CF
100
AcDbEntity
  8
0
100
AcDbLine
 62
7
  6
CONTINUOUS
 10
3.7042684765
 20
6.1021431166
 11
2.6208333248
 21
6.1021431166
  0
LINE
  5
2D0
100
AcDbEntity
  8
ALL_FEATURES
100
AcDbLine
 62
7
  6
CONTINUOUS
 10
7.2288109006
 20
4.8671431166
 11
7.2288109006
 21
4.9921431166
  0
LINE
  5
2D1
100
AcDbEntity
  8
0
100
AcDbLine
 62
7
  6
CONTINUOUS
 10
7.2395609006
 20
4.5033292999
 11
7.2395609006
 21
4.5067573149
  0
LINE
  5
2D2
100
AcDbEntity
  8
0
100
AcDbLine
 62
7
  6
CONTINUOUS
 10
7.2618109006
 20
4.9921431166
 11
7.2618109006
 21
5.0321431166
  0
LINE
  5
2D3
100
AcDbEntity
  8
0
100
AcDbLine
 62
7
  6
CONTINUOUS
 10
7.3065609006
 20
4.5974435834
 11
7.3065609006
 21
4.7763429965
  0
LINE
  5
2D4
100
AcDbEntity
  8
0
100
AcDbLine
 62
7
  6
CONTINUOUS
 10
7.3115609006
 20
4.77689329
 11
7.3115609006
 21
4.59689329
  0
LINE
  5
2D5
100
AcDbEntity
  8
0
100
AcDbLine
 62
7
  6
CONTINUOUS
 10
7.3245609006
 20
5.0621431166
 11
7.3245609006
 21
5.0645627181
  0
LINE
  5
2D6
100
AcDbEntity
  8
0
100
AcDbLine
 62
7
  6
CONTINUOUS
 10
7.3565609006
 20
4.77689329
 11
7.3565609006
 21
4.59689329
  0
LINE
  5
2D7
100
AcDbEntity
  8
0
100
AcDbLine
 62
7
  6
CONTINUOUS
 10
7.3717414723
 20
4.7957230912
 11
7.3717414723
 21
4.5780634887
  0
LINE
  5
2D8
100
AcDbEntity
  8
0
100
AcDbLine
 62
7
  6
CONTINUOUS
 10
6.547949483
 20
6.0758687254
 11
6.6321993856
 21
5.995039444
  0
LINE
  5
2D9
100
AcDbEntity
  8
0
100
AcDbLine
 62
7
  6
CONTINUOUS
 10
6.6915134142
 20
5.8884779658
 11
6.6415779597
 21
5.9501431166
  0
LINE
  5
2DA
100
AcDbEntity
  8
0
100
AcDbLine
 62
7
  6
CONTINUOUS
 10
7.6236701832
 20
4.5337035241
 11
7.6236701832
 21
4.8400830558
  0
LINE
  5
2DB
100
AcDbEntity
  8
0
100
AcDbLine
 62
7
  6
CONTINUOUS
 10
7.6398759901
 20
4.85193675
 11
7.6398759901
 21
4.5218498299
  0
LINE
  5
2DC
100
AcDbEntity
  8
0
100
AcDbLine
 62
7
  6
CONTINUOUS
 10
7.662769852
 20
4.86689329
 11
7.662769852
 21
4.50689329
  0
LINE
  5
2DD
100
AcDbEntity
  8
0
100
AcDbLine
 62
7
  6
CONTINUOUS
 10
7.6702543402
 20
4.86689329
 11
7.6702543402
 21
4.50689329
  0
LINE
  5
2DE
100
AcDbEntity
  8
0
100
AcDbLine
 62
7
  6
CONTINUOUS
 10
7.6952153429
 20
4.8432891209
 11
7.6952153429
 21
4.530497459
  0
LINE
  5
2DF
100
AcDbEntity
  8
0
100
AcDbLine
 62
7
  6
CONTINUOUS
 10
7.7069305729
 20
4.5767696032
 11
7.7069305729
 21
4.7970169767
  0
ARC
  5
2E0
100
AcDbEntity
  8
ALL_FEATURES
100
AcDbCircle
 62
7
  6
CONTINUOUS
 10
-1.6860674899
 20
3.6512001875
 40
6.5921207344
100
AcDbArc
 50
359.3326033286
 51
359.7090400684
  0
ARC
  5
2E1
100
AcDbEntity
  8
ALL_FEATURES
100
AcDbCircle
 62
7
  6
CONTINUOUS
 10
-1.3639250186
 20
3.6474069984
 40
6.2699557336
100
AcDbArc
 50
358.8670996285
 51
359.2612778127
  0
ARC
  5
2E2
100
AcDbEntity
  8
ALL_FEATURES
100
AcDbCircle
 62
7
  6
CONTINUOUS
 10
-1.1066686252
 20
3.6425037813
 40
6.0126526864
100
AcDbArc
 50
358.5478831006
 51
358.8653453035
  0
ARC
  5
2E3
100
AcDbEntity
  8
ALL_FEATURES
100
AcDbCircle
 62
7
  6
CONTINUOUS
 10
-0.9148035462
 20
3.6377608056
 40
5.8207290315
100
AcDbArc
 50
358.3707373423
 51
358.5466950222
  0
ARC
  5
2E4
100
AcDbEntity
  8
ALL_FEATURES
100
AcDbCircle
 62
7
  6
CONTINUOUS
 10
-0.7333893929
 20
3.6325434428
 40
5.6392398789
100
AcDbArc
 50
357.9488090991
 51
358.3713190776
  0
ARC
  5
2E5
100
AcDbEntity
  8
ALL_FEATURES
100
AcDbCircle
 62
7
  6
CONTINUOUS
 10
0.9220506186
 20
4.637133794
 40
4.0
100
AcDbArc
 50
354.802589149
 51
9.2614906592
  0
ARC
  5
2E6
100
AcDbEntity
  8
ALL_FEATURES
100
AcDbCircle
 62
7
  6
CONTINUOUS
 10
2.2037733566
 20
3.4049468769
 40
2.6919646054
100
AcDbArc
 50
352.0308859606
 51
352.2140038158
  0
ARC
  5
2E7
100
AcDbEntity
  8
ALL_FEATURES
100
AcDbCircle
 62
7
  6
CONTINUOUS
 10
2.3484750413
 20
3.3846070627
 40
2.5458404168
100
AcDbArc
 50
350.8555688532
 51
352.0327326898
  0
ARC
  5
2E8
100
AcDbEntity
  8
ALL_FEATURES
100
AcDbCircle
 62
7
  6
CONTINUOUS
 10
2.4376176448
 20
3.3705674318
 40
2.4555995275
100
AcDbArc
 50
350.5045250003
 51
350.8484366134
  0
ARC
  5
2E9
100
AcDbEntity
  8
ALL_FEATURES
100
AcDbCircle
 62
7
  6
CONTINUOUS
 10
2.9878713428
 20
3.2251075141
 40
1.8860274806
100
AcDbArc
 50
341.5322159063
 51
342.2455101403
  0
ARC
  5
2EA
100
AcDbEntity
  8
0
100
AcDbCircle
 62
7
  6
CONTINUOUS
 10
2.4417510181
 20
2.9854839595
 40
1.865
100
AcDbArc
 50
76.0811997274
 51
83.9460923514
  0
ARC
  5
2EB
100
AcDbEntity
  8
0
100
AcDbCircle
 62
7
  6
CONTINUOUS
 10
3.8833507831
 20
2.9854839595
 40
1.865
100
AcDbArc
 50
96.0539076486
 51
103.9188002726
  0
ARC
  5
2EC
100
AcDbEntity
  8
ALL_FEATURES
100
AcDbCircle
 62
7
  6
CONTINUOUS
 10
3.0632395237
 20
3.2000275146
 40
1.8065959922
100
AcDbArc
 50
340.8788951173
 51
341.5294866678
  0
ARC
  5
2ED
100
AcDbEntity
  8
ALL_FEATURES
100
AcDbCircle
 62
7
  6
CONTINUOUS
 10
4.9317070537
 20
3.0318119631
 40
0.0619655825
100
AcDbArc
 50
172.0455967505
 51
180.0712720348
  0
ARC
  5
2EE
100
AcDbEntity
  8
0
100
AcDbCircle
 62
7
  6
CONTINUOUS
 10
2.7890509006
 20
4.68689329
 40
0.2585
100
AcDbArc
 50
154.7853651812
 51
205.2146348188
  0
ARC
  5
2EF
100
AcDbEntity
  8
0
100
AcDbCircle
 62
7
  6
CONTINUOUS
 10
3.5360509006
 20
4.68689329
 40
0.2585
100
AcDbArc
 50
334.7853651812
 51
25.2146348188
  0
ARC
  5
2F0
100
AcDbEntity
  8
ALL_FEATURES
100
AcDbCircle
 62
7
  6
CONTINUOUS
 10
3.1625509006
 20
4.68689329
 40
0.2255
100
AcDbArc
 50
126.933444909
 51
156.629659503
  0
ARC
  5
2F1
100
AcDbEntity
  8
ALL_FEATURES
100
AcDbCircle
 62
7
  6
CONTINUOUS
 10
3.1625509006
 20
4.68689329
 40
0.2255
100
AcDbArc
 50
203.370340497
 51
228.4965643543
  0
ARC
  5
2F2
100
AcDbEntity
  8
ALL_FEATURES
100
AcDbCircle
 62
7
  6
CONTINUOUS
 10
3.1625509006
 20
4.68689329
 40
0.2255
100
AcDbArc
 50
23.370340497
 51
53.066555091
  0
ARC
  5
2F3
100
AcDbEntity
  8
ALL_FEATURES
100
AcDbCircle
 62
7
  6
CONTINUOUS
 10
3.1625509006
 20
4.68689329
 40
0.2255
100
AcDbArc
 50
311.5034356457
 51
336.629659503
  0
CIRCLE
  5
2F4
100
AcDbEntity
  8
0
100
AcDbCircle
 62
7
  6
CONTINUOUS
 10
3.1625509006
 20
4.68689329
 40
0.18
  0
CIRCLE
  5
2F5
100
AcDbEntity
  8
0
100
AcDbCircle
 62
7
  6
CONTINUOUS
 10
3.1625509006
 20
4.68689329
 40
0.1563958287
  0
ARC
  5
2F6
100
AcDbEntity
  8
0
100
AcDbCircle
 62
7
  6
CONTINUOUS
 10
2.4420914449
 20
4.5235183039
 40
0.125
100
AcDbArc
 50
3.2006734286
 51
25.2146348188
  0
CIRCLE
  5
2F7
100
AcDbEntity
  8
0
100
AcDbCircle
 62
7
  6
CONTINUOUS
 10
3.1625509006
 20
4.68689329
 40
0.1101236858
  0
ARC
  5
2F8
100
AcDbEntity
  8
0
100
AcDbCircle
 62
7
  6
CONTINUOUS
 10
3.0625509006
 20
4.5033292999
 40
0.04
100
AcDbArc
 50
180.0
 51
251.180936631
  0
ARC
  5
2F9
100
AcDbEntity
  8
0
100
AcDbCircle
 62
7
  6
CONTINUOUS
 10
3.2625509006
 20
4.5033292999
 40
0.04
100
AcDbArc
 50
288.819063369
 51
360.0
  0
ARC
  5
2FA
100
AcDbEntity
  8
0
100
AcDbCircle
 62
7
  6
CONTINUOUS
 10
2.5918574611
 20
4.53189329
 40
0.025
100
AcDbArc
 50
183.2006734286
 51
270.0
  0
ARC
  5
2FB
100
AcDbEntity
  8
0
100
AcDbCircle
 62
7
  6
CONTINUOUS
 10
2.5993419493
 20
4.53189329
 40
0.025
100
AcDbArc
 50
270.0
 51
336.3131006371
  0
ARC
  5
2FC
100
AcDbEntity
  8
0
100
AcDbCircle
 62
7
  6
CONTINUOUS
 10
2.6405509006
 20
4.5138150619
 40
0.02
100
AcDbArc
 50
96.0539076486
 51
156.3131006371
  0
ARC
  5
2FD
100
AcDbEntity
  8
0
100
AcDbCircle
 62
7
  6
CONTINUOUS
 10
2.8855593982
 20
4.5974762408
 40
0.02
100
AcDbArc
 50
283.9188002729
 51
358.3297322856
  0
ARC
  5
2FE
100
AcDbEntity
  8
0
100
AcDbCircle
 62
7
  6
CONTINUOUS
 10
3.439542403
 20
4.5974762408
 40
0.02
100
AcDbArc
 50
181.6702677144
 51
256.0811997271
  0
ARC
  5
2FF
100
AcDbEntity
  8
0
100
AcDbCircle
 62
7
  6
CONTINUOUS
 10
3.0325509006
 20
4.5067573149
 40
0.01
100
AcDbArc
 50
90.0
 51
180.0
  0
ARC
  5
300
100
AcDbEntity
  8
0
100
AcDbCircle
 62
7
  6
CONTINUOUS
 10
3.2925509006
 20
4.5067573149
 40
0.01
100
AcDbArc
 50
0.0
 51
90.0
  0
ARC
  5
301
100
AcDbEntity
  8
0
100
AcDbCircle
 62
7
  6
CONTINUOUS
 10
2.9505509006
 20
4.60189329
 40
0.005
100
AcDbArc
 50
270.0
 51
360.0
  0
ARC
  5
302
100
AcDbEntity
  8
0
100
AcDbCircle
 62
7
  6
CONTINUOUS
 10
3.3745509006
 20
4.60189329
 40
0.005
100
AcDbArc
 50
180.0
 51
270.0
  0
ARC
  5
303
100
AcDbEntity
  8
0
100
AcDbCircle
 62
7
  6
CONTINUOUS
 10
3.3086685236
 20
4.5217573149
 40
0.005
100
AcDbArc
 50
270.0
 51
311.5034356457
  0
ARC
  5
304
100
AcDbEntity
  8
0
100
AcDbCircle
 62
7
  6
CONTINUOUS
 10
3.0164332776
 20
4.5217573149
 40
0.005
100
AcDbArc
 50
228.4965643543
 51
270.0
  0
ARC
  5
305
100
AcDbEntity
  8
0
100
AcDbCircle
 62
7
  6
CONTINUOUS
 10
4.9070559006
 20
4.2231431166
 40
0.035
100
AcDbArc
 50
116.0491518231
 51
268.364328953
  0
ARC
  5
306
100
AcDbEntity
  8
0
100
AcDbCircle
 62
7
  6
CONTINUOUS
 10
4.8807073791
 20
4.2770481758
 40
0.025
100
AcDbArc
 50
296.0491518231
 51
354.802589149
  0
ARC
  5
307
100
AcDbEntity
  8
0
100
AcDbCircle
 62
7
  6
CONTINUOUS
 10
3.8830103564
 20
4.5235183039
 40
0.125
100
AcDbArc
 50
154.7853651812
 51
176.7993265714
  0
ARC
  5
308
100
AcDbEntity
  8
0
100
AcDbCircle
 62
7
  6
CONTINUOUS
 10
3.725759852
 20
4.53189329
 40
0.025
100
AcDbArc
 50
203.6868993629
 51
270.0
  0
ARC
  5
309
100
AcDbEntity
  8
0
100
AcDbCircle
 62
7
  6
CONTINUOUS
 10
3.7332443402
 20
4.53189329
 40
0.025
100
AcDbArc
 50
270.0
 51
356.7993265714
  0
ARC
  5
30A
100
AcDbEntity
  8
0
100
AcDbCircle
 62
7
  6
CONTINUOUS
 10
3.6845509006
 20
4.5138150619
 40
0.02
100
AcDbArc
 50
23.6868993629
 51
83.9460923514
  0
ARC
  5
30B
100
AcDbEntity
  8
0
100
AcDbCircle
 62
7
  6
CONTINUOUS
 10
0.7465201881
 20
5.3388432004
 40
2.2295
100
AcDbArc
 50
354.150613569
 51
9.2632522166
  0
ARC
  5
30C
100
AcDbEntity
  8
0
100
AcDbCircle
 62
7
  6
CONTINUOUS
 10
2.4420914449
 20
4.850268276
 40
0.125
100
AcDbArc
 50
334.7853651812
 51
356.7993265714
  0
ARC
  5
30D
100
AcDbEntity
  8
0
100
AcDbCircle
 62
7
  6
CONTINUOUS
 10
2.5918574611
 20
4.84189329
 40
0.025
100
AcDbArc
 50
90.0
 51
176.7993265714
  0
ARC
  5
30E
100
AcDbEntity
  8
0
100
AcDbCircle
 62
7
  6
CONTINUOUS
 10
2.5993419493
 20
4.84189329
 40
0.025
100
AcDbArc
 50
23.6868993629
 51
90.0
  0
ARC
  5
30F
100
AcDbEntity
  8
0
100
AcDbCircle
 62
7
  6
CONTINUOUS
 10
2.6405509006
 20
4.859971518
 40
0.02
100
AcDbArc
 50
203.6868993629
 51
263.9460923514
  0
ARC
  5
310
100
AcDbEntity
  8
0
100
AcDbCircle
 62
7
  6
CONTINUOUS
 10
2.4417510181
 20
6.3883026204
 40
1.865
100
AcDbArc
 50
276.0539076486
 51
283.9188002726
  0
ARC
  5
311
100
AcDbEntity
  8
0
100
AcDbCircle
 62
7
  6
CONTINUOUS
 10
2.7817035228
 20
5.9105041795
 40
0.035
100
AcDbArc
 50
219.0
 51
270.0
  0
ARC
  5
312
100
AcDbEntity
  8
0
100
AcDbCircle
 62
7
  6
CONTINUOUS
 10
2.7255509006
 20
5.9671347671
 40
0.027
100
AcDbArc
 50
162.5404824817
 51
219.0
  0
ARC
  5
313
100
AcDbEntity
  8
0
100
AcDbCircle
 62
7
  6
CONTINUOUS
 10
2.6807162293
 20
5.9812362652
 40
0.02
100
AcDbArc
 50
342.5404824817
 51
43.6426919198
  0
ARC
  5
314
100
AcDbEntity
  8
0
100
AcDbCircle
 62
7
  6
CONTINUOUS
 10
2.6208333248
 20
6.0871431166
 40
0.015
100
AcDbArc
 50
90.0
 51
228.7314307292
  0
ARC
  5
315
100
AcDbEntity
  8
0
100
AcDbCircle
 62
7
  6
CONTINUOUS
 10
4.6835301881
 20
5.3388432004
 40
2.2295
100
AcDbArc
 50
354.150613569
 51
9.2632522166
  0
ARC
  5
316
100
AcDbEntity
  8
0
100
AcDbCircle
 62
7
  6
CONTINUOUS
 10
3.1625509006
 20
4.7967573149
 40
0.35
100
AcDbArc
 50
251.180936631
 51
288.819063369
  0
ARC
  5
317
100
AcDbEntity
  8
0
100
AcDbCircle
 62
7
  6
CONTINUOUS
 10
3.8830103564
 20
4.850268276
 40
0.125
100
AcDbArc
 50
183.2006734286
 51
205.2146348188
  0
ARC
  5
318
100
AcDbEntity
  8
0
100
AcDbCircle
 62
7
  6
CONTINUOUS
 10
4.8660559006
 20
5.3331431166
 40
0.035
100
AcDbArc
 50
106.9577633
 51
249.6930697276
  0
ARC
  5
319
100
AcDbEntity
  8
0
100
AcDbCircle
 62
7
  6
CONTINUOUS
 10
2.9675509006
 20
5.0621431166
 40
0.03
100
AcDbArc
 50
180.0
 51
270.0
  0
ARC
  5
31A
100
AcDbEntity
  8
0
100
AcDbCircle
 62
7
  6
CONTINUOUS
 10
3.3575509006
 20
5.0621431166
 40
0.03
100
AcDbArc
 50
270.0
 51
360.0
  0
ARC
  5
31B
100
AcDbEntity
  8
0
100
AcDbCircle
 62
7
  6
CONTINUOUS
 10
2.9675509006
 20
5.0645627181
 40
0.03
100
AcDbArc
 50
123.3475728893
 51
180.0
  0
ARC
  5
31C
100
AcDbEntity
  8
0
100
AcDbCircle
 62
7
  6
CONTINUOUS
 10
3.3575509006
 20
5.0645627181
 40
0.03
100
AcDbArc
 50
0.0
 51
56.6524271095
  0
ARC
  5
31D
100
AcDbEntity
  8
0
100
AcDbCircle
 62
7
  6
CONTINUOUS
 10
2.9345679045
 20
5.1146837912
 40
0.03
100
AcDbArc
 50
303.3475728893
 51
354.150613569
  0
ARC
  5
31E
100
AcDbEntity
  8
0
100
AcDbCircle
 62
7
  6
CONTINUOUS
 10
3.3905338968
 20
5.1146837912
 40
0.03
100
AcDbArc
 50
185.8493864313
 51
236.6524271095
  0
ARC
  5
31F
100
AcDbEntity
  8
0
100
AcDbCircle
 62
7
  6
CONTINUOUS
 10
3.725759852
 20
4.84189329
 40
0.025
100
AcDbArc
 50
90.0
 51
156.3131006371
  0
ARC
  5
320
100
AcDbEntity
  8
0
100
AcDbCircle
 62
7
  6
CONTINUOUS
 10
3.7332443402
 20
4.84189329
 40
0.025
100
AcDbArc
 50
3.2006734286
 51
90.0
  0
ARC
  5
321
100
AcDbEntity
  8
0
100
AcDbCircle
 62
7
  6
CONTINUOUS
 10
4.8452329551
 20
5.2768722988
 40
0.025
100
AcDbArc
 50
9.2614906592
 51
69.6930697276
  0
ARC
  5
322
100
AcDbEntity
  8
0
100
AcDbCircle
 62
7
  6
CONTINUOUS
 10
4.8485559006
 20
5.390534318
 40
0.025
100
AcDbArc
 50
286.9577633
 51
360.0
  0
ARC
  5
323
100
AcDbEntity
  8
0
100
AcDbCircle
 62
7
  6
CONTINUOUS
 10
4.8485559006
 20
5.5881431166
 40
0.025
100
AcDbArc
 50
0.0
 51
90.0
  0
ARC
  5
324
100
AcDbEntity
  8
0
100
AcDbCircle
 62
7
  6
CONTINUOUS
 10
2.8855593982
 20
4.7763103391
 40
0.02
100
AcDbArc
 50
1.6702677146
 51
76.0811997271
  0
ARC
  5
325
100
AcDbEntity
  8
0
100
AcDbCircle
 62
7
  6
CONTINUOUS
 10
3.6845509006
 20
4.859971518
 40
0.02
100
AcDbArc
 50
276.0539076486
 51
336.3131006371
  0
ARC
  5
326
100
AcDbEntity
  8
0
100
AcDbCircle
 62
7
  6
CONTINUOUS
 10
3.439542403
 20
4.7763103391
 40
0.02
100
AcDbArc
 50
103.9188002729
 51
178.3297322854
  0
ARC
  5
327
100
AcDbEntity
  8
0
100
AcDbCircle
 62
7
  6
CONTINUOUS
 10
2.9505509006
 20
4.77189329
 40
0.005
100
AcDbArc
 50
0.0
 51
90.0
  0
ARC
  5
328
100
AcDbEntity
  8
0
100
AcDbCircle
 62
7
  6
CONTINUOUS
 10
3.3745509006
 20
4.77189329
 40
0.005
100
AcDbArc
 50
90.0
 51
180.0
  0
ARC
  5
329
100
AcDbEntity
  8
0
100
AcDbCircle
 62
7
  6
CONTINUOUS
 10
3.8833507831
 20
6.3883026204
 40
1.865
100
AcDbArc
 50
256.0811997274
 51
263.9460923514
  0
ARC
  5
32A
100
AcDbEntity
  8
0
100
AcDbCircle
 62
7
  6
CONTINUOUS
 10
4.8455559006
 20
6.4271633777
 40
0.9425
100
AcDbArc
 50
308.6830961977
 51
323.7843060467
  0
ARC
  5
32B
100
AcDbEntity
  8
0
100
AcDbCircle
 62
7
  6
CONTINUOUS
 10
3.1470509006
 20
6.1672131105
 40
0.465
100
AcDbArc
 50
218.831504768
 51
239.3576548026
  0
ARC
  5
32C
100
AcDbEntity
  8
0
100
AcDbCircle
 62
7
  6
CONTINUOUS
 10
3.1780509006
 20
6.1672131105
 40
0.465
100
AcDbArc
 50
300.6423451974
 51
321.168495232
  0
ARC
  5
32D
100
AcDbEntity
  8
0
100
AcDbCircle
 62
7
  6
CONTINUOUS
 10
4.8745559006
 20
6.3441431166
 40
0.4325
100
AcDbArc
 50
219.4312229684
 51
231.4360327516
  0
ARC
  5
32E
100
AcDbEntity
  8
0
100
AcDbCircle
 62
7
  6
CONTINUOUS
 10
4.3442512112
 20
5.848246824
 40
0.29
100
AcDbArc
 50
9.3176200745
 51
23.2311680814
  0
ARC
  5
32F
100
AcDbEntity
  8
0
100
AcDbCircle
 62
7
  6
CONTINUOUS
 10
3.5433982784
 20
5.9105041795
 40
0.035
100
AcDbArc
 50
270.0
 51
321.0
  0
ARC
  5
330
100
AcDbEntity
  8
0
100
AcDbCircle
 62
7
  6
CONTINUOUS
 10
4.8460559006
 20
5.6531431166
 40
0.035
100
AcDbArc
 50
92.0367938534
 51
180.0
  0
ARC
  5
331
100
AcDbEntity
  8
0
100
AcDbCircle
 62
7
  6
CONTINUOUS
 10
4.8460559006
 20
5.6481431166
 40
0.035
100
AcDbArc
 50
180.0
 51
270.0
  0
ARC
  5
332
100
AcDbEntity
  8
0
100
AcDbCircle
 62
7
  6
CONTINUOUS
 10
2.9173368632
 20
5.6928985815
 40
0.03
100
AcDbArc
 50
9.2632522166
 51
75.8674273336
  0
ARC
  5
333
100
AcDbEntity
  8
0
100
AcDbCircle
 62
7
  6
CONTINUOUS
 10
3.407764938
 20
5.6928985815
 40
0.03
100
AcDbArc
 50
104.1325726664
 51
170.7367477834
  0
ARC
  5
334
100
AcDbEntity
  8
0
100
AcDbCircle
 62
7
  6
CONTINUOUS
 10
4.6600291222
 20
5.9000571598
 40
0.03
100
AcDbArc
 50
189.3176200745
 51
262.5673589294
  0
ARC
  5
335
100
AcDbEntity
  8
0
100
AcDbCircle
 62
7
  6
CONTINUOUS
 10
3.39360329
 20
5.7491431166
 40
0.028
100
AcDbArc
 50
284.1325726664
 51
40.0052008849
  0
ARC
  5
336
100
AcDbEntity
  8
0
100
AcDbCircle
 62
7
  6
CONTINUOUS
 10
2.9314985112
 20
5.7491431166
 40
0.028
100
AcDbArc
 50
139.9947991151
 51
255.8674273336
  0
ARC
  5
337
100
AcDbEntity
  8
0
100
AcDbCircle
 62
7
  6
CONTINUOUS
 10
3.5995509006
 20
5.9671347671
 40
0.027
100
AcDbArc
 50
321.0
 51
17.4595175183
  0
ARC
  5
338
100
AcDbEntity
  8
0
100
AcDbCircle
 62
7
  6
CONTINUOUS
 10
3.6443855719
 20
5.9812362652
 40
0.02
100
AcDbArc
 50
136.3573080802
 51
197.4595175183
  0
ARC
  5
339
100
AcDbEntity
  8
0
100
AcDbCircle
 62
7
  6
CONTINUOUS
 10
4.5924728384
 20
5.9903276336
 40
0.02
100
AcDbArc
 50
334.055078942
 51
51.4360327516
  0
ARC
  5
33A
100
AcDbEntity
  8
0
100
AcDbCircle
 62
7
  6
CONTINUOUS
 10
4.5559460295
 20
6.0821431166
 40
0.02
100
AcDbArc
 50
90.0
 51
219.4312229684
  0
ARC
  5
33B
100
AcDbEntity
  8
0
100
AcDbCircle
 62
7
  6
CONTINUOUS
 10
4.62844144
 20
5.9728273566
 40
0.02
100
AcDbArc
 50
154.055078942
 51
189.4441347777
  0
ARC
  5
33C
100
AcDbEntity
  8
0
100
AcDbCircle
 62
7
  6
CONTINUOUS
 10
3.7042684765
 20
6.0871431166
 40
0.015
100
AcDbArc
 50
311.2685692708
 51
90.0
  0
ARC
  5
33D
100
AcDbEntity
  8
0
100
AcDbCircle
 62
7
  6
CONTINUOUS
 10
4.8368569172
 20
5.7031431166
 40
0.015
100
AcDbArc
 50
231.3169038023
 51
270.0
  0
ARC
  5
33E
100
AcDbEntity
  8
ALL_FEATURES
100
AcDbCircle
 62
7
  6
CONTINUOUS
 10
8.0583384446
 20
3.4049468769
 40
2.6919646053
100
AcDbArc
 50
187.7859961842
 51
187.9691140394
  0
ARC
  5
33F
100
AcDbEntity
  8
ALL_FEATURES
100
AcDbCircle
 62
7
  6
CONTINUOUS
 10
7.9136367599
 20
3.3846070627
 40
2.5458404168
100
AcDbArc
 50
187.9672673102
 51
189.1444311468
  0
ARC
  5
340
100
AcDbEntity
  8
ALL_FEATURES
100
AcDbCircle
 62
7
  6
CONTINUOUS
 10
7.8244941563
 20
3.3705674318
 40
2.4555995273
100
AcDbArc
 50
189.1515633866
 51
189.4954749997
  0
ARC
  5
341
100
AcDbEntity
  8
ALL_FEATURES
100
AcDbCircle
 62
7
  6
CONTINUOUS
 10
7.2742404585
 20
3.2251075141
 40
1.8860274806
100
AcDbArc
 50
197.7544898597
 51
198.4677840937
  0
ARC
  5
342
100
AcDbEntity
  8
0
100
AcDbCircle
 62
7
  6
CONTINUOUS
 10
6.3787610181
 20
2.9854839595
 40
1.865
100
AcDbArc
 50
76.0811997274
 51
83.9460923514
  0
ARC
  5
343
100
AcDbEntity
  8
0
100
AcDbCircle
 62
7
  6
CONTINUOUS
 10
7.8203607831
 20
2.9854839595
 40
1.865
100
AcDbArc
 50
96.0539076486
 51
103.9188002726
  0
ARC
  5
344
100
AcDbEntity
  8
ALL_FEATURES
100
AcDbCircle
 62
7
  6
CONTINUOUS
 10
7.1988722775
 20
3.2000275146
 40
1.8065959922
100
AcDbArc
 50
198.4705133322
 51
199.1211048827
  0
ARC
  5
345
100
AcDbEntity
  8
ALL_FEATURES
100
AcDbCircle
 62
7
  6
CONTINUOUS
 10
5.3304047475
 20
3.0318119631
 40
0.0619655825
100
AcDbArc
 50
359.9287279652
 51
7.9544032495
  0
ARC
  5
346
100
AcDbEntity
  8
0
100
AcDbCircle
 62
7
  6
CONTINUOUS
 10
5.3550559006
 20
4.2231431166
 40
0.035
100
AcDbArc
 50
271.635671047
 51
63.9508481769
  0
ARC
  5
347
100
AcDbEntity
  8
0
100
AcDbCircle
 62
7
  6
CONTINUOUS
 10
5.3814044222
 20
4.2770481758
 40
0.025
100
AcDbArc
 50
185.197410851
 51
243.9508481769
  0
ARC
  5
348
100
AcDbEntity
  8
0
100
AcDbCircle
 62
7
  6
CONTINUOUS
 10
6.3791014449
 20
4.5235183039
 40
0.125
100
AcDbArc
 50
3.2006734286
 51
25.2146348188
  0
ARC
  5
349
100
AcDbEntity
  8
0
100
AcDbCircle
 62
7
  6
CONTINUOUS
 10
6.5288674611
 20
4.53189329
 40
0.025
100
AcDbArc
 50
183.2006734286
 51
270.0
  0
ARC
  5
34A
100
AcDbEntity
  8
0
100
AcDbCircle
 62
7
  6
CONTINUOUS
 10
6.5363519493
 20
4.53189329
 40
0.025
100
AcDbArc
 50
270.0
 51
336.3131006371
  0
ARC
  5
34B
100
AcDbEntity
  8
0
100
AcDbCircle
 62
7
  6
CONTINUOUS
 10
6.5775609006
 20
4.5138150619
 40
0.02
100
AcDbArc
 50
96.0539076486
 51
156.3131006371
  0
ARC
  5
34C
100
AcDbEntity
  8
0
100
AcDbCircle
 62
7
  6
CONTINUOUS
 10
6.7260609006
 20
4.68689329
 40
0.2585
100
AcDbArc
 50
154.7853651812
 51
205.2146348188
  0
ARC
  5
34D
100
AcDbEntity
  8
0
100
AcDbCircle
 62
7
  6
CONTINUOUS
 10
7.4730609006
 20
4.68689329
 40
0.2585
100
AcDbArc
 50
334.7853651812
 51
25.2146348188
  0
ARC
  5
34E
100
AcDbEntity
  8
ALL_FEATURES
100
AcDbCircle
 62
7
  6
CONTINUOUS
 10
7.0995609006
 20
4.68689329
 40
0.2255
100
AcDbArc
 50
126.933444909
 51
156.629659503
  0
ARC
  5
34F
100
AcDbEntity
  8
ALL_FEATURES
100
AcDbCircle
 62
7
  6
CONTINUOUS
 10
7.0995609006
 20
4.68689329
 40
0.2255
100
AcDbArc
 50
203.370340497
 51
228.4965643543
  0
ARC
  5
350
100
AcDbEntity
  8
ALL_FEATURES
100
AcDbCircle
 62
7
  6
CONTINUOUS
 10
7.0995609006
 20
4.68689329
 40
0.2255
100
AcDbArc
 50
23.370340497
 51
53.066555091
  0
ARC
  5
351
100
AcDbEntity
  8
ALL_FEATURES
100
AcDbCircle
 62
7
  6
CONTINUOUS
 10
7.0995609006
 20
4.68689329
 40
0.2255
100
AcDbArc
 50
311.5034356457
 51
336.629659503
  0
CIRCLE
  5
352
100
AcDbEntity
  8
0
100
AcDbCircle
 62
7
  6
CONTINUOUS
 10
7.0995609006
 20
4.68689329
 40
0.18
  0
CIRCLE
  5
353
100
AcDbEntity
  8
0
100
AcDbCircle
 62
7
  6
CONTINUOUS
 10
7.0995609006
 20
4.68689329
 40
0.1563958287
  0
ARC
  5
354
100
AcDbEntity
  8
0
100
AcDbCircle
 62
7
  6
CONTINUOUS
 10
7.8200203564
 20
4.5235183039
 40
0.125
100
AcDbArc
 50
154.7853651812
 51
176.7993265714
  0
CIRCLE
  5
355
100
AcDbEntity
  8
0
100
AcDbCircle
 62
7
  6
CONTINUOUS
 10
7.0995609006
 20
4.68689329
 40
0.1101236858
  0
ARC
  5
356
100
AcDbEntity
  8
0
100
AcDbCircle
 62
7
  6
CONTINUOUS
 10
6.9995609006
 20
4.5033292999
 40
0.04
100
AcDbArc
 50
180.0
 51
251.180936631
  0
ARC
  5
357
100
AcDbEntity
  8
0
100
AcDbCircle
 62
7
  6
CONTINUOUS
 10
7.1995609006
 20
4.5033292999
 40
0.04
100
AcDbArc
 50
288.819063369
 51
360.0
  0
ARC
  5
358
100
AcDbEntity
  8
0
100
AcDbCircle
 62
7
  6
CONTINUOUS
 10
7.662769852
 20
4.53189329
 40
0.025
100
AcDbArc
 50
203.6868993629
 51
270.0
  0
ARC
  5
359
100
AcDbEntity
  8
0
100
AcDbCircle
 62
7
  6
CONTINUOUS
 10
7.6702543402
 20
4.53189329
 40
0.025
100
AcDbArc
 50
270.0
 51
356.7993265714
  0
ARC
  5
35A
100
AcDbEntity
  8
0
100
AcDbCircle
 62
7
  6
CONTINUOUS
 10
6.8225693982
 20
4.5974762408
 40
0.02
100
AcDbArc
 50
283.9188002729
 51
358.3297322856
  0
ARC
  5
35B
100
AcDbEntity
  8
0
100
AcDbCircle
 62
7
  6
CONTINUOUS
 10
7.6215609006
 20
4.5138150619
 40
0.02
100
AcDbArc
 50
23.6868993629
 51
83.9460923514
  0
ARC
  5
35C
100
AcDbEntity
  8
0
100
AcDbCircle
 62
7
  6
CONTINUOUS
 10
7.376552403
 20
4.5974762408
 40
0.02
100
AcDbArc
 50
181.6702677144
 51
256.0811997271
  0
ARC
  5
35D
100
AcDbEntity
  8
0
100
AcDbCircle
 62
7
  6
CONTINUOUS
 10
6.9695609006
 20
4.5067573149
 40
0.01
100
AcDbArc
 50
90.0
 51
180.0
  0
ARC
  5
35E
100
AcDbEntity
  8
0
100
AcDbCircle
 62
7
  6
CONTINUOUS
 10
7.2295609006
 20
4.5067573149
 40
0.01
100
AcDbArc
 50
0.0
 51
90.0
  0
ARC
  5
35F
100
AcDbEntity
  8
0
100
AcDbCircle
 62
7
  6
CONTINUOUS
 10
6.8875609006
 20
4.60189329
 40
0.005
100
AcDbArc
 50
270.0
 51
360.0
  0
ARC
  5
360
100
AcDbEntity
  8
0
100
AcDbCircle
 62
7
  6
CONTINUOUS
 10
7.3115609006
 20
4.60189329
 40
0.005
100
AcDbArc
 50
180.0
 51
270.0
  0
ARC
  5
361
100
AcDbEntity
  8
0
100
AcDbCircle
 62
7
  6
CONTINUOUS
 10
7.2456785236
 20
4.5217573149
 40
0.005
100
AcDbArc
 50
270.0
 51
311.5034356457
  0
ARC
  5
362
100
AcDbEntity
  8
0
100
AcDbCircle
 62
7
  6
CONTINUOUS
 10
6.9534432776
 20
4.5217573149
 40
0.005
100
AcDbArc
 50
228.4965643543
 51
270.0
  0
ARC
  5
363
100
AcDbEntity
  8
ALL_FEATURES
100
AcDbCircle
 62
7
  6
CONTINUOUS
 10
11.9481792911
 20
3.6512001875
 40
6.5921207344
100
AcDbArc
 50
180.2909599316
 51
180.6673966714
  0
ARC
  5
364
100
AcDbEntity
  8
ALL_FEATURES
100
AcDbCircle
 62
7
  6
CONTINUOUS
 10
11.6260368199
 20
3.6474069984
 40
6.2699557337
100
AcDbArc
 50
180.7387221873
 51
181.1329003715
  0
ARC
  5
365
100
AcDbEntity
  8
ALL_FEATURES
100
AcDbCircle
 62
7
  6
CONTINUOUS
 10
11.3687804264
 20
3.6425037813
 40
6.0126526863
100
AcDbArc
 50
181.1346546965
 51
181.4521168994
  0
ARC
  5
366
100
AcDbEntity
  8
ALL_FEATURES
100
AcDbCircle
 62
7
  6
CONTINUOUS
 10
11.1769153474
 20
3.6377608056
 40
5.8207290315
100
AcDbArc
 50
181.4533049778
 51
181.6292626577
  0
ARC
  5
367
100
AcDbEntity
  8
ALL_FEATURES
100
AcDbCircle
 62
7
  6
CONTINUOUS
 10
10.9955011941
 20
3.6325434428
 40
5.6392398789
100
AcDbArc
 50
181.6286809224
 51
182.0511909009
  0
ARC
  5
368
100
AcDbEntity
  8
ALL_FEATURES
100
AcDbCircle
 62
7
  6
CONTINUOUS
 10
9.3400611827
 20
4.637133794
 40
4.0
100
AcDbArc
 50
170.7385093408
 51
185.197410851
  0
ARC
  5
369
100
AcDbEntity
  8
0
100
AcDbCircle
 62
7
  6
CONTINUOUS
 10
5.5785816132
 20
5.3388432004
 40
2.2295
100
AcDbArc
 50
170.7367477834
 51
185.8493864313
  0
ARC
  5
36A
100
AcDbEntity
  8
0
100
AcDbCircle
 62
7
  6
CONTINUOUS
 10
7.0995609006
 20
4.7967573149
 40
0.35
100
AcDbArc
 50
251.180936631
 51
288.819063369
  0
ARC
  5
36B
100
AcDbEntity
  8
0
100
AcDbCircle
 62
7
  6
CONTINUOUS
 10
6.3791014449
 20
4.850268276
 40
0.125
100
AcDbArc
 50
334.7853651812
 51
356.7993265714
  0
ARC
  5
36C
100
AcDbEntity
  8
0
100
AcDbCircle
 62
7
  6
CONTINUOUS
 10
5.3960559006
 20
5.3331431166
 40
0.035
100
AcDbArc
 50
290.3069302724
 51
73.0422367
  0
ARC
  5
36D
100
AcDbEntity
  8
0
100
AcDbCircle
 62
7
  6
CONTINUOUS
 10
6.9045609006
 20
5.0621431166
 40
0.03
100
AcDbArc
 50
180.0
 51
270.0
  0
ARC
  5
36E
100
AcDbEntity
  8
0
100
AcDbCircle
 62
7
  6
CONTINUOUS
 10
7.2945609006
 20
5.0621431166
 40
0.03
100
AcDbArc
 50
270.0
 51
360.0
  0
ARC
  5
36F
100
AcDbEntity
  8
0
100
AcDbCircle
 62
7
  6
CONTINUOUS
 10
6.9045609006
 20
5.0645627181
 40
0.03
100
AcDbArc
 50
123.3475728893
 51
180.0
  0
ARC
  5
370
100
AcDbEntity
  8
0
100
AcDbCircle
 62
7
  6
CONTINUOUS
 10
7.2945609006
 20
5.0645627181
 40
0.03
100
AcDbArc
 50
0.0
 51
56.6524271095
  0
ARC
  5
371
100
AcDbEntity
  8
0
100
AcDbCircle
 62
7
  6
CONTINUOUS
 10
6.8715779045
 20
5.1146837912
 40
0.03
100
AcDbArc
 50
303.3475728893
 51
354.150613569
  0
ARC
  5
372
100
AcDbEntity
  8
0
100
AcDbCircle
 62
7
  6
CONTINUOUS
 10
7.3275438968
 20
5.1146837912
 40
0.03
100
AcDbArc
 50
185.8493864313
 51
236.6524271095
  0
ARC
  5
373
100
AcDbEntity
  8
0
100
AcDbCircle
 62
7
  6
CONTINUOUS
 10
6.5288674611
 20
4.84189329
 40
0.025
100
AcDbArc
 50
90.0
 51
176.7993265714
  0
ARC
  5
374
100
AcDbEntity
  8
0
100
AcDbCircle
 62
7
  6
CONTINUOUS
 10
6.5363519493
 20
4.84189329
 40
0.025
100
AcDbArc
 50
23.6868993629
 51
90.0
  0
ARC
  5
375
100
AcDbEntity
  8
0
100
AcDbCircle
 62
7
  6
CONTINUOUS
 10
5.4168788462
 20
5.2768722988
 40
0.025
100
AcDbArc
 50
110.3069302724
 51
170.7385093408
  0
ARC
  5
376
100
AcDbEntity
  8
0
100
AcDbCircle
 62
7
  6
CONTINUOUS
 10
5.4135559006
 20
5.390534318
 40
0.025
100
AcDbArc
 50
180.0
 51
253.0422367
  0
ARC
  5
377
100
AcDbEntity
  8
0
100
AcDbCircle
 62
7
  6
CONTINUOUS
 10
5.4135559006
 20
5.5881431166
 40
0.025
100
AcDbArc
 50
90.0
 51
180.0
  0
ARC
  5
378
100
AcDbEntity
  8
0
100
AcDbCircle
 62
7
  6
CONTINUOUS
 10
6.5775609006
 20
4.859971518
 40
0.02
100
AcDbArc
 50
203.6868993629
 51
263.9460923514
  0
ARC
  5
379
100
AcDbEntity
  8
0
100
AcDbCircle
 62
7
  6
CONTINUOUS
 10
6.8225693982
 20
4.7763103391
 40
0.02
100
AcDbArc
 50
1.6702677146
 51
76.0811997271
  0
ARC
  5
37A
100
AcDbEntity
  8
0
100
AcDbCircle
 62
7
  6
CONTINUOUS
 10
7.376552403
 20
4.7763103391
 40
0.02
100
AcDbArc
 50
103.9188002729
 51
178.3297322854
  0
ARC
  5
37B
100
AcDbEntity
  8
0
100
AcDbCircle
 62
7
  6
CONTINUOUS
 10
6.8875609006
 20
4.77189329
 40
0.005
100
AcDbArc
 50
0.0
 51
90.0
  0
ARC
  5
37C
100
AcDbEntity
  8
0
100
AcDbCircle
 62
7
  6
CONTINUOUS
 10
7.3115609006
 20
4.77189329
 40
0.005
100
AcDbArc
 50
90.0
 51
180.0
  0
ARC
  5
37D
100
AcDbEntity
  8
0
100
AcDbCircle
 62
7
  6
CONTINUOUS
 10
6.3787610181
 20
6.3883026204
 40
1.865
100
AcDbArc
 50
276.0539076486
 51
283.9188002726
  0
ARC
  5
37E
100
AcDbEntity
  8
0
100
AcDbCircle
 62
7
  6
CONTINUOUS
 10
5.4165559006
 20
6.4271633777
 40
0.9425
100
AcDbArc
 50
216.2156939533
 51
231.3169038023
  0
ARC
  5
37F
100
AcDbEntity
  8
0
100
AcDbCircle
 62
7
  6
CONTINUOUS
 10
7.0840609006
 20
6.1672131105
 40
0.465
100
AcDbArc
 50
218.831504768
 51
239.3576548026
  0
ARC
  5
380
100
AcDbEntity
  8
0
100
AcDbCircle
 62
7
  6
CONTINUOUS
 10
7.1150609006
 20
6.1672131105
 40
0.465
100
AcDbArc
 50
300.6423451974
 51
321.168495232
  0
ARC
  5
381
100
AcDbEntity
  8
0
100
AcDbCircle
 62
7
  6
CONTINUOUS
 10
5.3875559006
 20
6.3441431166
 40
0.4325
100
AcDbArc
 50
308.5639672468
 51
320.5687770316
  0
ARC
  5
382
100
AcDbEntity
  8
0
100
AcDbCircle
 62
7
  6
CONTINUOUS
 10
5.9178605901
 20
5.848246824
 40
0.29
100
AcDbArc
 50
156.7688319186
 51
170.6823799255
  0
ARC
  5
383
100
AcDbEntity
  8
0
100
AcDbCircle
 62
7
  6
CONTINUOUS
 10
6.7187135228
 20
5.9105041795
 40
0.035
100
AcDbArc
 50
219.0
 51
270.0
  0
ARC
  5
384
100
AcDbEntity
  8
0
100
AcDbCircle
 62
7
  6
CONTINUOUS
 10
5.4160559006
 20
5.6531431166
 40
0.035
100
AcDbArc
 50
0.0
 51
87.9632061466
  0
ARC
  5
385
100
AcDbEntity
  8
0
100
AcDbCircle
 62
7
  6
CONTINUOUS
 10
5.4160559006
 20
5.6481431166
 40
0.035
100
AcDbArc
 50
270.0
 51
360.0
  0
ARC
  5
386
100
AcDbEntity
  8
0
100
AcDbCircle
 62
7
  6
CONTINUOUS
 10
6.8543468632
 20
5.6928985815
 40
0.03
100
AcDbArc
 50
9.2632522166
 51
75.8674273336
  0
ARC
  5
387
100
AcDbEntity
  8
0
100
AcDbCircle
 62
7
  6
CONTINUOUS
 10
7.344774938
 20
5.6928985815
 40
0.03
100
AcDbArc
 50
104.1325726664
 51
170.7367477834
  0
ARC
  5
388
100
AcDbEntity
  8
0
100
AcDbCircle
 62
7
  6
CONTINUOUS
 10
5.602082679
 20
5.9000571598
 40
0.03
100
AcDbArc
 50
277.4326410706
 51
350.6823799255
  0
ARC
  5
389
100
AcDbEntity
  8
0
100
AcDbCircle
 62
7
  6
CONTINUOUS
 10
7.33061329
 20
5.7491431166
 40
0.028
100
AcDbArc
 50
284.1325726664
 51
40.0052008849
  0
ARC
  5
38A
100
AcDbEntity
  8
0
100
AcDbCircle
 62
7
  6
CONTINUOUS
 10
6.8685085112
 20
5.7491431166
 40
0.028
100
AcDbArc
 50
139.9947991151
 51
255.8674273336
  0
ARC
  5
38B
100
AcDbEntity
  8
0
100
AcDbCircle
 62
7
  6
CONTINUOUS
 10
6.6625609006
 20
5.9671347671
 40
0.027
100
AcDbArc
 50
162.5404824817
 51
219.0
  0
ARC
  5
38C
100
AcDbEntity
  8
0
100
AcDbCircle
 62
7
  6
CONTINUOUS
 10
6.6177262293
 20
5.9812362652
 40
0.02
100
AcDbArc
 50
342.5404824817
 51
43.6426919198
  0
ARC
  5
38D
100
AcDbEntity
  8
0
100
AcDbCircle
 62
7
  6
CONTINUOUS
 10
5.6696389628
 20
5.9903276336
 40
0.02
100
AcDbArc
 50
128.5639672468
 51
205.9449210798
  0
ARC
  5
38E
100
AcDbEntity
  8
0
100
AcDbCircle
 62
7
  6
CONTINUOUS
 10
5.7061657718
 20
6.0821431166
 40
0.02
100
AcDbArc
 50
320.5687770316
 51
90.0
  0
ARC
  5
38F
100
AcDbEntity
  8
0
100
AcDbCircle
 62
7
  6
CONTINUOUS
 10
5.6336703612
 20
5.9728273565
 40
0.02
100
AcDbArc
 50
350.5558650954
 51
25.9449210798
  0
ARC
  5
390
100
AcDbEntity
  8
0
100
AcDbCircle
 62
7
  6
CONTINUOUS
 10
6.5578433248
 20
6.0871431166
 40
0.015
100
AcDbArc
 50
90.0
 51
228.7314307292
  0
ARC
  5
391
100
AcDbEntity
  8
0
100
AcDbCircle
 62
7
  6
CONTINUOUS
 10
5.4252548841
 20
5.7031431166
 40
0.015
100
AcDbArc
 50
270.0
 51
308.6830961977
  0
ARC
  5
392
100
AcDbEntity
  8
0
100
AcDbCircle
 62
7
  6
CONTINUOUS
 10
9.5155916132
 20
5.3388432004
 40
2.2295
100
AcDbArc
 50
170.7367477834
 51
185.8493864313
  0
ARC
  5
393
100
AcDbEntity
  8
0
100
AcDbCircle
 62
7
  6
CONTINUOUS
 10
7.8200203564
 20
4.850268276
 40
0.125
100
AcDbArc
 50
183.2006734286
 51
205.2146348188
  0
ARC
  5
394
100
AcDbEntity
  8
0
100
AcDbCircle
 62
7
  6
CONTINUOUS
 10
7.662769852
 20
4.84189329
 40
0.025
100
AcDbArc
 50
90.0
 51
156.3131006371
  0
ARC
  5
395
100
AcDbEntity
  8
0
100
AcDbCircle
 62
7
  6
CONTINUOUS
 10
7.6702543402
 20
4.84189329
 40
0.025
100
AcDbArc
 50
3.2006734286
 51
90.0
  0
ARC
  5
396
100
AcDbEntity
  8
0
100
AcDbCircle
 62
7
  6
CONTINUOUS
 10
7.6215609006
 20
4.859971518
 40
0.02
100
AcDbArc
 50
276.0539076486
 51
336.3131006371
  0
ARC
  5
397
100
AcDbEntity
  8
0
100
AcDbCircle
 62
7
  6
CONTINUOUS
 10
7.8203607831
 20
6.3883026204
 40
1.865
100
AcDbArc
 50
256.0811997274
 51
263.9460923514
  0
ARC
  5
398
100
AcDbEntity
  8
0
100
AcDbCircle
 62
7
  6
CONTINUOUS
 10
7.4804082784
 20
5.9105041795
 40
0.035
100
AcDbArc
 50
270.0
 51
321.0
  0
ARC
  5
399
100
AcDbEntity
  8
0
100
AcDbCircle
 62
7
  6
CONTINUOUS
 10
7.5365609006
 20
5.9671347671
 40
0.027
100
AcDbArc
 50
321.0
 51
17.4595175183
  0
ARC
  5
39A
100
AcDbEntity
  8
0
100
AcDbCircle
 62
7
  6
CONTINUOUS
 10
7.5813955719
 20
5.9812362652
 40
0.02
100
AcDbArc
 50
136.3573080802
 51
197.4595175183
  0
ARC
  5
39B
100
AcDbEntity
  8
0
100
AcDbCircle
 62
7
  6
CONTINUOUS
 10
7.6412784765
 20
6.0871431166
 40
0.015
100
AcDbArc
 50
311.2685692708
 51
90.0
  0
LINE
  5
39C
100
AcDbEntity
  8
ALL_FEATURES
100
AcDbLine
 62
7
  6
CONTINUOUS
 10
5.3560559006
 20
3.6523431166
 11
5.3560596338
 21
3.6451712142
  0
LINE
  5
39D
100
AcDbEntity
  8
ALL_FEATURES
100
AcDbLine
 62
7
  6
CONTINUOUS
 10
5.3560596338
 20
3.6451712142
 11
5.3560708796
 21
3.6379913221
  0
SPLINE
  5
39E
100
AcDbEntity
  8
ALL_FEATURES
100
AcDbSpline
 62
7
  6
CONTINUOUS
 70
0
 71
3
 72
32
 73
28
 74
0
 42
0.0000001
 43
0.0000001
 44
0.0000000001
 40
0.0
 40
0.0
 40
0.0
 40
0.0
 40
0.0176453611
 40
0.0339215617
 40
0.0492222248
 40
0.0638722842
 40
0.0781049097
 40
0.0920370065
 40
0.1057519041
 40
0.1193185874
 40
0.1462013912
 40
0.1729881454
 40
0.1998553585
 40
0.2269119065
 40
0.25422672
 40
0.2818514747
 40
0.3381482423
 40
0.3959583108
 40
0.4553841106
 40
0.5164930995
 40
0.5793656974
 40
0.6440761451
 40
0.7107109921
 40
0.779380075
 40
0.8503075316
 40
0.923756653
 40
1.0
 40
1.0
 40
1.0
 40
1.0
 10
5.5435559006
 20
2.4787948274
 30
0.0
 10
5.5435559006
 20
2.4759575086
 30
0.0
 10
5.5432860328
 20
2.4704977493
 30
0.0
 10
5.5420577087
 20
2.4626648968
 30
0.0
 10
5.5401661592
 20
2.4554643794
 30
0.0
 10
5.5377555367
 20
2.4487737079
 30
0.0
 10
5.5349749774
 20
2.4424702442
 30
0.0
 10
5.5318525399
 20
2.4364984724
 30
0.0
 10
5.5284201509
 20
2.4308248655
 30
0.0
 10
5.5234920916
 20
2.4236392136
 30
0.0
 10
5.5167003639
 20
2.4152037576
 30
0.0
 10
5.5077082832
 20
2.4058662566
 30
0.0
 10
5.498042539
 20
2.3971909085
 30
0.0
 10
5.4877774598
 20
2.3890998306
 30
0.0
 10
5.47698523
 20
2.3815154185
 30
0.0
 10
5.4618501522
 20
2.3719718882
 30
0.0
 10
5.4417681721
 20
2.361138977
 30
0.0
 10
5.4163117271
 20
2.3496663058
 30
0.0
 10
5.3894702343
 20
2.3395245345
 30
0.0
 10
5.3613508009
 20
2.3305927033
 30
0.0
 10
5.3320085378
 20
2.3228286817
 30
0.0
 10
5.3014840384
 20
2.3161851452
 30
0.0
 10
5.2697939987
 20
2.3106482768
 30
0.0
 10
5.2369239735
 20
2.3062013693
 30
0.0
 10
5.20281457
 20
2.3029306499
 30
0.0
 10
5.1673884266
 20
2.3009158346
 30
0.0
 10
5.1433155921
 20
2.3004717306
 30
0.0
 10
5.1310559006
 20
2.3004717306
 30
0.0
  0
LINE
  5
39F
100
AcDbEntity
  8
ALL_FEATURES
100
AcDbLine
 62
7
  6
CONTINUOUS
 10
4.9060559006
 20
3.6523431166
 11
4.9060521674
 21
3.6451712142
  0
LINE
  5
3A0
100
AcDbEntity
  8
ALL_FEATURES
100
AcDbLine
 62
7
  6
CONTINUOUS
 10
4.9060521674
 20
3.6451712142
 11
4.9060391196
 21
3.6371543222
  0
SPLINE
  5
3A1
100
AcDbEntity
  8
ALL_FEATURES
100
AcDbSpline
 62
7
  6
CONTINUOUS
 70
0
 71
3
 72
15
 73
11
 74
0
 42
0.0000001
 43
0.0000001
 44
0.0000000001
 40
0.0
 40
0.0
 40
0.0
 40
0.0
 40
0.1431615056
 40
0.2789438626
 40
0.4085809878
 40
0.5332096971
 40
0.6538508324
 40
0.7713969193
 40
0.8866060095
 40
1.0
 40
1.0
 40
1.0
 40
1.0
 10
4.7185559006
 20
2.4787948274
 30
0.0
 10
4.7185559006
 20
2.480531909
 30
0.0
 10
4.7186580327
 20
2.4839176261
 30
0.0
 10
4.7191213178
 20
2.4888567307
 30
0.0
 10
4.7198604246
 20
2.4935345579
 30
0.0
 10
4.7208454232
 20
2.497978427
 30
0.0
 10
4.7220460327
 20
2.5022162227
 30
0.0
 10
4.7234326287
 20
2.5062757354
 30
0.0
 10
4.7249725306
 20
2.5101846429
 30
0.0
 10
4.7260937348
 20
2.5127227062
 30
0.0
 10
4.726675272
 20
2.5139696586
 30
0.0
  0
SPLINE
  5
3A2
100
AcDbEntity
  8
ALL_FEATURES
100
AcDbSpline
 62
7
  6
CONTINUOUS
 70
0
 71
3
 72
32
 73
28
 74
0
 42
0.0000001
 43
0.0000001
 44
0.0000000001
 40
0.0
 40
0.0
 40
0.0
 40
0.0
 40
0.076243347
 40
0.1496924684
 40
0.220619925
 40
0.2892890079
 40
0.3559238549
 40
0.4206343026
 40
0.4835069005
 40
0.5446158894
 40
0.6040416892
 40
0.6618517577
 40
0.7181485253
 40
0.74577328
 40
0.7730880935
 40
0.8001446415
 40
0.8270118546
 40
0.8537986088
 40
0.8806814126
 40
0.8942480959
 40
0.9079629935
 40
0.9218950903
 40
0.9361277158
 40
0.9507777752
 40
0.9660784383
 40
0.9823546389
 40
1.0
 40
1.0
 40
1.0
 40
1.0
 10
5.1310559006
 20
2.3004717306
 30
0.0
 10
5.1187962091
 20
2.3004717306
 30
0.0
 10
5.0947233746
 20
2.3009158346
 30
0.0
 10
5.0592972312
 20
2.3029306499
 30
0.0
 10
5.0251878277
 20
2.3062013693
 30
0.0
 10
4.9923178025
 20
2.3106482768
 30
0.0
 10
4.9606277628
 20
2.3161851452
 30
0.0
 10
4.9301032635
 20
2.3228286817
 30
0.0
 10
4.9007610004
 20
2.3305927033
 30
0.0
 10
4.872641567
 20
2.3395245345
 30
0.0
 10
4.8458000742
 20
2.3496663058
 30
0.0
 10
4.8203436291
 20
2.361138977
 30
0.0
 10
4.8002616491
 20
2.3719718882
 30
0.0
 10
4.7851265713
 20
2.3815154185
 30
0.0
 10
4.7743343414
 20
2.3890998306
 30
0.0
 10
4.7640692622
 20
2.3971909085
 30
0.0
 10
4.7544035181
 20
2.4058662566
 30
0.0
 10
4.7454114373
 20
2.4152037576
 30
0.0
 10
4.7386197097
 20
2.4236392136
 30
0.0
 10
4.7336916504
 20
2.4308248655
 30
0.0
 10
4.7302592614
 20
2.4364984724
 30
0.0
 10
4.7271368238
 20
2.4424702442
 30
0.0
 10
4.7243562645
 20
2.4487737079
 30
0.0
 10
4.721945642
 20
2.4554643794
 30
0.0
 10
4.7200540925
 20
2.4626648968
 30
0.0
 10
4.7188257685
 20
2.4704977493
 30
0.0
 10
4.7185559006
 20
2.4759575086
 30
0.0
 10
4.7185559006
 20
2.4787948274
 30
0.0
  0
SPLINE
  5
3A3
100
AcDbEntity
  8
ALL_FEATURES
100
AcDbSpline
 62
7
  6
CONTINUOUS
 70
0
 71
3
 72
15
 73
11
 74
0
 42
0.0000001
 43
0.0000001
 44
0.0000000001
 40
0.0
 40
0.0
 40
0.0
 40
0.0
 40
0.1133939905
 40
0.2286030807
 40
0.3461491676
 40
0.4667903029
 40
0.5914190122
 40
0.7210561374
 40
0.8568384944
 40
1.0
 40
1.0
 40
1.0
 40
1.0
 10
5.5354365292
 20
2.5139696586
 30
0.0
 10
5.5360180664
 20
2.5127227062
 30
0.0
 10
5.5371392706
 20
2.5101846429
 30
0.0
 10
5.5386791726
 20
2.5062757354
 30
0.0
 10
5.5400657685
 20
2.5022162227
 30
0.0
 10
5.541266378
 20
2.497978427
 30
0.0
 10
5.5422513766
 20
2.4935345579
 30
0.0
 10
5.5429904834
 20
2.4888567307
 30
0.0
 10
5.5434537685
 20
2.4839176261
 30
0.0
 10
5.5435559006
 20
2.480531909
 30
0.0
 10
5.5435559006
 20
2.4787948274
 30
0.0
  0
LINE
  5
3A4
100
AcDbEntity
  8
ALL_FEATURES
100
AcDbLine
 62
7
  6
CONTINUOUS
 10
4.9056016999
 20
3.5740451383
 11
4.9055095858
 21
3.5665698559
  0
LINE
  5
3A5
100
AcDbEntity
  8
ALL_FEATURES
100
AcDbLine
 62
7
  6
CONTINUOUS
 10
4.9022371272
 20
3.4307015802
 11
4.9019617964
 21
3.4231696957
  0
SPLINE
  5
3A6
100
AcDbEntity
  8
ALL_FEATURES
100
AcDbSpline
 62
7
  6
CONTINUOUS
 70
0
 71
3
 72
13
 73
9
 74
0
 42
0.0000001
 43
0.0000001
 44
0.0000000001
 40
0.0
 40
0.0
 40
0.0
 40
0.0
 40
0.2576367109
 40
0.5115682332
 40
0.6364900298
 40
0.7597038588
 40
0.8809566258
 40
1.0
 40
1.0
 40
1.0
 40
1.0
 10
4.9019617964
 20
3.4231696957
 30
0.0
 10
4.9007332385
 20
3.3901879467
 30
0.0
 10
4.8976971467
 20
3.32471915
 30
0.0
 10
4.8922282195
 20
3.2433576314
 30
0.0
 10
4.8867546028
 20
3.1792720085
 30
0.0
 10
4.8821158804
 20
3.1321778134
 30
0.0
 10
4.8769006708
 20
3.0859016682
 30
0.0
 10
4.8729867137
 20
3.0553667213
 30
0.0
 10
4.8709206905
 20
3.0402572333
 30
0.0
  0
SPLINE
  5
3A7
100
AcDbEntity
  8
ALL_FEATURES
100
AcDbSpline
 62
7
  6
CONTINUOUS
 70
0
 71
3
 72
11
 73
7
 74
0
 42
0.0000001
 43
0.0000001
 44
0.0000000001
 40
0.0
 40
0.0
 40
0.0
 40
0.0
 40
0.2735160524
 40
0.5320903994
 40
0.774635981
 40
1.0
 40
1.0
 40
1.0
 40
1.0
 10
4.8595721026
 20
2.9654678842
 30
0.0
 10
4.8547354863
 20
2.9365534896
 30
0.0
 10
4.8443249557
 20
2.8804660673
 30
0.0
 10
4.8262681684
 20
2.7994088441
 30
0.0
 10
4.80666919
 20
2.7240335058
 30
0.0
 10
4.7923445094
 20
2.6759580677
 30
0.0
 10
4.7850153129
 20
2.6529417632
 30
0.0
  0
LINE
  5
3A8
100
AcDbEntity
  8
ALL_FEATURES
100
AcDbLine
 62
7
  6
CONTINUOUS
 10
4.7850153129
 20
2.6529417632
 11
4.7840709305
 21
2.6499843112
  0
SPLINE
  5
3A9
100
AcDbEntity
  8
ALL_FEATURES
100
AcDbSpline
 62
7
  6
CONTINUOUS
 70
0
 71
3
 72
10
 73
6
 74
0
 42
0.0000001
 43
0.0000001
 44
0.0000000001
 40
0.0
 40
0.0
 40
0.0
 40
0.0
 40
0.5238146134
 40
0.7680271749
 40
1.0
 40
1.0
 40
1.0
 40
1.0
 10
5.4919492259
 20
2.608248185
 30
0.0
 10
5.4978942747
 20
2.5911037548
 30
0.0
 10
5.5069980218
 20
2.5660968119
 30
0.0
 10
5.5196948484
 20
2.5338642928
 30
0.0
 10
5.5260129074
 20
2.5186249584
 30
0.0
 10
5.5291615521
 20
2.5112315127
 30
0.0
  0
SPLINE
  5
3AA
100
AcDbEntity
  8
ALL_FEATURES
100
AcDbSpline
 62
7
  6
CONTINUOUS
 70
0
 71
3
 72
9
 73
5
 74
0
 42
0.0000001
 43
0.0000001
 44
0.0000000001
 40
0.0
 40
0.0
 40
0.0
 40
0.0
 40
0.2588061893
 40
1.0
 40
1.0
 40
1.0
 40
1.0
 10
5.5291615521
 20
2.5112315127
 30
0.0
 10
5.5303611029
 20
2.5084148044
 30
0.0
 10
5.5350359358
 20
2.4975484003
 30
0.0
 10
5.5398711643
 20
2.48675078
 30
0.0
 10
5.5435559006
 20
2.4787948274
 30
0.0
  0
SPLINE
  5
3AB
100
AcDbEntity
  8
ALL_FEATURES
100
AcDbSpline
 62
7
  6
CONTINUOUS
 70
0
 71
3
 72
10
 73
6
 74
0
 42
0.0000001
 43
0.0000001
 44
0.0000000001
 40
0.0
 40
0.0
 40
0.0
 40
0.0
 40
0.5238146134
 40
0.7680271749
 40
1.0
 40
1.0
 40
1.0
 40
1.0
 10
4.7701625753
 20
2.608248185
 30
0.0
 10
4.7642175265
 20
2.5911037548
 30
0.0
 10
4.7551137795
 20
2.5660968119
 30
0.0
 10
4.7424169528
 20
2.5338642928
 30
0.0
 10
4.7360988939
 20
2.5186249584
 30
0.0
 10
4.7329502491
 20
2.5112315127
 30
0.0
  0
SPLINE
  5
3AC
100
AcDbEntity
  8
ALL_FEATURES
100
AcDbSpline
 62
7
  6
CONTINUOUS
 70
0
 71
3
 72
9
 73
5
 74
0
 42
0.0000001
 43
0.0000001
 44
0.0000000001
 40
0.0
 40
0.0
 40
0.0
 40
0.0
 40
0.2588061893
 40
1.0
 40
1.0
 40
1.0
 40
1.0
 10
4.7329502491
 20
2.5112315127
 30
0.0
 10
4.7317506984
 20
2.5084148044
 30
0.0
 10
4.7270758654
 20
2.4975484003
 30
0.0
 10
4.722240637
 20
2.48675078
 30
0.0
 10
4.7185559006
 20
2.4787948274
 30
0.0
  0
SPLINE
  5
3AD
100
AcDbEntity
  8
ALL_FEATURES
100
AcDbSpline
 62
7
  6
CONTINUOUS
 70
0
 71
3
 72
30
 73
26
 74
0
 42
0.0000001
 43
0.0000001
 44
0.0000000001
 40
0.0
 40
0.0
 40
0.0
 40
0.0
 40
0.008835396
 40
0.0171487566
 40
0.0251594382
 40
0.0330485595
 40
0.0489203396
 40
0.0653821024
 40
0.0827794489
 40
0.1013203908
 40
0.1211272439
 40
0.1422770487
 40
0.1648123237
 40
0.1887431901
 40
0.2140613811
 40
0.2407463404
 40
0.2981041602
 40
0.3606101136
 40
0.4279903885
 40
0.4998440357
 40
0.5757301336
 40
0.6552113613
 40
0.7378430688
 40
0.8231628628
 40
1.0
 40
1.0
 40
1.0
 40
1.0
 10
4.9060559006
 20
3.7754380007
 30
0.0
 10
4.9060559006
 20
3.7747302754
 30
0.0
 10
4.9061380843
 20
3.7733547268
 30
0.0
 10
4.9065168509
 20
3.7713700116
 30
0.0
 10
4.9071161074
 20
3.7695204021
 30
0.0
 10
4.9081673723
 20
3.7671984571
 30
0.0
 10
4.909904301
 20
3.7644636093
 30
0.0
 10
4.9125559507
 20
3.7614738141
 30
0.0
 10
4.9157189357
 20
3.7587012231
 30
0.0
 10
4.9193629814
 20
3.7561102547
 30
0.0
 10
4.9234600042
 20
3.7536675005
 30
0.0
 10
4.927994473
 20
3.7513577428
 30
0.0
 10
4.9329498681
 20
3.749166237
 30
0.0
 10
4.938312137
 20
3.7470857168
 30
0.0
 10
4.9440659381
 20
3.7451094317
 30
0.0
 10
4.9524428104
 20
3.7425428518
 30
0.0
 10
4.9638119061
 20
3.7395971902
 30
0.0
 10
4.9784885414
 20
3.7364890854
 30
0.0
 10
4.9944114787
 20
3.7337160045
 30
0.0
 10
5.0114714204
 20
3.7312758406
 30
0.0
 10
5.0295515617
 20
3.7291688933
 30
0.0
 10
5.0485350432
 20
3.7274023512
 30
0.0
 10
5.0683053366
 20
3.7259829589
 30
0.0
 10
5.0958884973
 20
3.7245716877
 30
0.0
 10
5.1168910425
 20
3.7241431166
 30
0.0
 10
5.1310559006
 20
3.7241431166
 30
0.0
  0
SPLINE
  5
3AE
100
AcDbEntity
  8
ALL_FEATURES
100
AcDbSpline
 62
7
  6
CONTINUOUS
 70
0
 71
3
 72
30
 73
26
 74
0
 42
0.0000001
 43
0.0000001
 44
0.0000000001
 40
0.0
 40
0.0
 40
0.0
 40
0.0
 40
0.0111383464
 40
0.0215788853
 40
0.0315624598
 40
0.0412896497
 40
0.0604848044
 40
0.0798197857
 40
0.0996712511
 40
0.1202774603
 40
0.1417900421
 40
0.164310581
 40
0.1879039154
 40
0.2126024232
 40
0.2384186266
 40
0.2653504403
 40
0.3225113304
 40
0.3840020781
 40
0.4496604811
 40
0.5192058859
 40
0.5923156735
 40
0.668668762
 40
0.7479390126
 40
0.8298008554
 40
1.0
 40
1.0
 40
1.0
 40
1.0
 10
4.9060559006
 20
3.6523431166
 30
0.0
 10
4.9060559006
 20
3.6514251566
 30
0.0
 10
4.9061498718
 20
3.6496448494
 30
0.0
 10
4.906579056
 20
3.6470741127
 30
0.0
 10
4.9072524853
 20
3.6446773882
 30
0.0
 10
4.9084163132
 20
3.6416858211
 30
0.0
 10
4.9103018414
 20
3.6381648179
 30
0.0
 10
4.9131639023
 20
3.6342808579
 30
0.0
 10
4.9165387251
 20
3.6306770465
 30
0.0
 10
4.9203871148
 20
3.6273090203
 30
0.0
 10
4.9246716934
 20
3.6241350546
 30
0.0
 10
4.9293732691
 20
3.6211350016
 30
0.0
 10
4.9344718715
 20
3.6182895738
 30
0.0
 10
4.939952662
 20
3.615589278
 30
0.0
 10
4.9457997435
 20
3.613025248
 30
0.0
 10
4.9542316389
 20
3.6097109554
 30
0.0
 10
4.9656164964
 20
3.6058975893
 30
0.0
 10
4.9802665711
 20
3.6018629298
 30
0.0
 10
4.9960775953
 20
3.5982651842
 30
0.0
 10
5.0129552365
 20
3.5951012716
 30
0.0
 10
5.0307999736
 20
3.5923705767
 30
0.0
 10
5.0495139654
 20
3.5900818557
 30
0.0
 10
5.0690022262
 20
3.5882432793
 30
0.0
 10
5.0962495586
 20
3.5864138658
 30
0.0
 10
5.1170290432
 20
3.5858626448
 30
0.0
 10
5.1310559006
 20
3.5858626448
 30
0.0
  0
LINE
  5
3AF
100
AcDbEntity
  8
ALL_FEATURES
100
AcDbLine
 62
7
  6
CONTINUOUS
 10
4.9056016999
 20
3.5740451383
 11
4.905844349
 21
3.5702133289
  0
SPLINE
  5
3B0
100
AcDbEntity
  8
ALL_FEATURES
100
AcDbSpline
 62
7
  6
CONTINUOUS
 70
0
 71
3
 72
30
 73
26
 74
0
 42
0.0000001
 43
0.0000001
 44
0.0000000001
 40
0.0
 40
0.0
 40
0.0
 40
0.0
 40
0.0114988458
 40
0.0225104879
 40
0.0332307382
 40
0.0437968253
 40
0.0542846568
 40
0.0647547651
 40
0.0752580032
 40
0.0858352098
 40
0.1073281829
 40
0.1294344991
 40
0.1522829111
 40
0.1759639335
 40
0.2260109226
 40
0.2524403586
 40
0.2798101774
 40
0.3373583229
 40
0.3986372634
 40
0.4635386384
 40
0.5318525749
 40
0.6033382902
 40
0.677756343
 40
0.8344111725
 40
1.0
 40
1.0
 40
1.0
 40
1.0
 10
4.905844349
 20
3.5702133289
 30
0.0
 10
4.9059664944
 20
3.5692694043
 30
0.0
 10
4.9062986915
 20
3.5674321455
 30
0.0
 10
4.90705192
 20
3.5647828001
 30
0.0
 10
4.9080021174
 20
3.5622810413
 30
0.0
 10
4.9091106181
 20
3.559893698
 30
0.0
 10
4.9103721407
 20
3.5576072849
 30
0.0
 10
4.9117763805
 20
3.5554122038
 30
0.0
 10
4.9133137095
 20
3.553299319
 30
0.0
 10
4.9155397816
 20
3.5505656444
 30
0.0
 10
4.9186353205
 20
3.5473108702
 30
0.0
 10
4.9227581398
 20
3.5436622513
 30
0.0
 10
4.9272803821
 20
3.5402159403
 30
0.0
 10
4.9339381128
 20
3.5357837041
 30
0.0
 10
4.9412158812
 20
3.531779599
 30
0.0
 10
4.9489958418
 20
3.5281223037
 30
0.0
 10
4.9574822071
 20
3.524521397
 30
0.0
 10
4.9688593068
 20
3.5203731866
 30
0.0
 10
4.9834241403
 20
3.5159759459
 30
0.0
 10
4.9990446165
 20
3.5120586372
 30
0.0
 10
5.0156395572
 20
3.5086178743
 30
0.0
 10
5.0331248287
 20
3.5056516598
 30
0.0
 10
5.0579446086
 20
3.5022824926
 30
0.0
 10
5.0906698929
 20
3.4993820131
 30
0.0
 10
5.1173496052
 20
3.4986022264
 30
0.0
 10
5.1310559006
 20
3.4986022264
 30
0.0
  0
SPLINE
  5
3B1
100
AcDbEntity
  8
ALL_FEATURES
100
AcDbSpline
 62
7
  6
CONTINUOUS
 70
0
 71
3
 72
29
 73
25
 74
0
 42
0.0000001
 43
0.0000001
 44
0.0000000001
 40
0.0
 40
0.0
 40
0.0
 40
0.0
 40
0.0182056166
 40
0.0351229534
 40
0.0510925038
 40
0.0664010556
 40
0.0812607165
 40
0.0957765639
 40
0.1240582916
 40
0.1517259956
 40
0.1790775818
 40
0.2063148945
 40
0.2335756906
 40
0.2885210701
 40
0.344467266
 40
0.4017115735
 40
0.4604812296
 40
0.5209408709
 40
0.5832007677
 40
0.6473407638
 40
0.7134415909
 40
0.7815911692
 40
0.8519481513
 40
1.0
 40
1.0
 40
1.0
 40
1.0
 10
4.8697415191
 20
3.0317348821
 30
0.0
 10
4.8697415191
 20
3.0298195346
 30
0.0
 10
4.8699038264
 20
3.0261217174
 30
0.0
 10
4.8706341437
 20
3.0207892604
 30
0.0
 10
4.8717585148
 20
3.0158389813
 30
0.0
 10
4.8731932246
 20
3.0111980813
 30
0.0
 10
4.874851117
 20
3.0067962278
 30
0.0
 10
4.8773151355
 20
3.0012501095
 30
0.0
 10
4.8808774313
 20
2.9947325651
 30
0.0
 10
4.8857873628
 20
2.9874603072
 30
0.0
 10
4.8912131594
 20
2.9807076124
 30
0.0
 10
4.8970723229
 20
2.9743883295
 30
0.0
 10
4.9054294167
 20
2.9664587325
 30
0.0
 10
4.9168134001
 20
2.9573738944
 30
0.0
 10
4.9316625633
 20
2.9477216388
 30
0.0
 10
4.9475865877
 20
2.9390994585
 30
0.0
 10
4.9645163097
 20
2.9314440838
 30
0.0
 10
4.9823872056
 20
2.9246880266
 30
0.0
 10
5.0011560138
 20
2.9188065249
 30
0.0
 10
5.0207823287
 20
2.9137748788
 30
0.0
 10
5.0412380153
 20
2.909589113
 30
0.0
 10
5.0625104922
 20
2.9062436864
 30
0.0
 10
5.0924820319
 20
2.902919794
 30
0.0
 10
5.1154798972
 20
2.9019584525
 30
0.0
 10
5.1310559006
 20
2.9019584525
 30
0.0
  0
LINE
  5
3B2
100
AcDbEntity
  8
ALL_FEATURES
100
AcDbLine
 62
7
  6
CONTINUOUS
 10
4.906038148
 20
3.6367217412
 11
4.906018355
 21
3.6296477154
  0
LINE
  5
3B3
100
AcDbEntity
  8
ALL_FEATURES
100
AcDbLine
 62
7
  6
CONTINUOUS
 10
4.9060082505
 20
3.6267857936
 11
4.9059702184
 21
3.6181141164
  0
SPLINE
  5
3B4
100
AcDbEntity
  8
ALL_FEATURES
100
AcDbSpline
 62
7
  6
CONTINUOUS
 70
0
 71
3
 72
31
 73
27
 74
0
 42
0.0000001
 43
0.0000001
 44
0.0000000001
 40
0.0
 40
0.0
 40
0.0
 40
0.0
 40
0.018364868
 40
0.0354287308
 40
0.0515378328
 40
0.0669832593
 40
0.0819797514
 40
0.0966330056
 40
0.1110183516
 40
0.1252003988
 40
0.1531449844
 40
0.1807693071
 40
0.2082700927
 40
0.235779671
 40
0.2911604675
 40
0.3474360755
 40
0.4048857845
 40
0.4637249961
 40
0.5241137913
 40
0.5861691326
 40
0.649983633
 40
0.7156545513
 40
0.7832905928
 40
0.8530788228
 40
0.9252384252
 40
1.0
 40
1.0
 40
1.0
 40
1.0
 10
4.8595721026
 20
2.9654678842
 30
0.0
 10
4.8595721026
 20
2.9634516475
 30
0.0
 10
4.85974385
 20
2.9595591834
 30
0.0
 10
4.8605163637
 20
2.9539464711
 30
0.0
 10
4.8617049649
 20
2.9487364021
 30
0.0
 10
4.8632205423
 20
2.9438515666
 30
0.0
 10
4.864970172
 20
2.9392172387
 30
0.0
 10
4.8669364755
 20
2.9347978515
 30
0.0
 10
4.8691000608
 20
2.9305721878
 30
0.0
 10
4.8722041684
 20
2.925197828
 30
0.0
 10
4.8764864684
 20
2.9188363444
 30
0.0
 10
4.8821854835
 20
2.9117057428
 30
0.0
 10
4.8883312354
 20
2.9050231493
 30
0.0
 10
4.8970818331
 20
2.8966289637
 30
0.0
 10
4.9089752681
 20
2.8869899313
 30
0.0
 10
4.924461327
 20
2.8767099703
 30
0.0
 10
4.941035079
 20
2.8674957769
 30
0.0
 10
4.958625154
 20
2.8592865606
 30
0.0
 10
4.9771656049
 20
2.8520169993
 30
0.0
 10
4.9966149894
 20
2.8456677831
 30
0.0
 10
5.0169354314
 20
2.8402191727
 30
0.0
 10
5.0381028839
 20
2.8356733784
 30
0.0
 10
5.0601090647
 20
2.8320307578
 30
0.0
 10
5.0829716763
 20
2.8293562294
 30
0.0
 10
5.1067151386
 20
2.827711157
 30
0.0
 10
5.1228479986
 20
2.8273483724
 30
0.0
 10
5.1310559006
 20
2.8273483724
 30
0.0
  0
SPLINE
  5
3B5
100
AcDbEntity
  8
ALL_FEATURES
100
AcDbSpline
 62
7
  6
CONTINUOUS
 70
0
 71
3
 72
11
 73
7
 74
0
 42
0.0000001
 43
0.0000001
 44
0.0000000001
 40
0.0
 40
0.0
 40
0.0
 40
0.0
 40
0.2307424133
 40
0.4715002358
 40
0.7263361549
 40
1.0
 40
1.0
 40
1.0
 40
1.0
 10
4.7743754454
 20
2.632911221
 30
0.0
 10
4.7737382365
 20
2.6310859648
 30
0.0
 10
4.7725618113
 20
2.6273104677
 30
0.0
 10
4.7712179518
 20
2.6213677557
 30
0.0
 10
4.7703534371
 20
2.6149722301
 30
0.0
 10
4.7701625753
 20
2.6105410903
 30
0.0
 10
4.7701625753
 20
2.608248185
 30
0.0
  0
SPLINE
  5
3B6
100
AcDbEntity
  8
ALL_FEATURES
100
AcDbSpline
 62
7
  6
CONTINUOUS
 70
0
 71
3
 72
11
 73
7
 74
0
 42
0.0000001
 43
0.0000001
 44
0.0000000001
 40
0.0
 40
0.0
 40
0.0
 40
0.0
 40
0.2309730851
 40
0.4720104582
 40
0.7268947823
 40
1.0
 40
1.0
 40
1.0
 40
1.0
 10
4.7806176843
 20
2.6511535078
 30
0.0
 10
4.7800324897
 20
2.6494089737
 30
0.0
 10
4.7789555373
 20
2.6458023104
 30
0.0
 10
4.7777307875
 20
2.640135996
 30
0.0
 10
4.7769454405
 20
2.6340526171
 30
0.0
 10
4.7767720242
 20
2.6298436876
 30
0.0
 10
4.7767720242
 20
2.6276679696
 30
0.0
  0
SPLINE
  5
3B7
100
AcDbEntity
  8
ALL_FEATURES
100
AcDbSpline
 62
7
  6
CONTINUOUS
 70
0
 71
3
 72
26
 73
22
 74
0
 42
0.0000001
 43
0.0000001
 44
0.0000000001
 40
0.0
 40
0.0
 40
0.0
 40
0.0
 40
0.0399940514
 40
0.0776107959
 40
0.1133266117
 40
0.1475680364
 40
0.1807035017
 40
0.2130369189
 40
0.2447564201
 40
0.2759715905
 40
0.3372497712
 40
0.367484729
 40
0.3975312027
 40
0.4572346376
 40
0.516676186
 40
0.5760754687
 40
0.6355885133
 40
0.6953322273
 40
0.7553924836
 40
0.8767185249
 40
1.0
 40
1.0
 40
1.0
 40
1.0
 10
4.7767720242
 20
2.6276679696
 30
0.0
 10
4.7767720242
 20
2.625805044
 30
0.0
 10
4.7768994833
 20
2.6221882986
 30
0.0
 10
4.7774769562
 20
2.6169365783
 30
0.0
 10
4.7783880337
 20
2.6120049058
 30
0.0
 10
4.7795857208
 20
2.6073509525
 30
0.0
 10
4.7810243679
 20
2.6029321484
 30
0.0
 10
4.7826516012
 20
2.5987057752
 30
0.0
 10
4.7844400614
 20
2.5946427037
 30
0.0
 10
4.7870150641
 20
2.5894596174
 30
0.0
 10
4.7898954493
 20
2.5845123853
 30
0.0
 10
4.7930294793
 20
2.5797954727
 30
0.0
 10
4.7962893888
 20
2.5752544119
 30
0.0
 10
4.800633175
 20
2.5698228091
 30
0.0
 10
4.8062251707
 20
2.5636608094
 30
0.0
 10
4.8121355427
 20
2.5578172699
 30
0.0
 10
4.8183363285
 20
2.5522626632
 30
0.0
 10
4.8248036092
 20
2.5469727687
 30
0.0
 10
4.8337798238
 20
2.5402170554
 30
0.0
 10
4.8455987522
 20
2.5323380771
 30
0.0
 10
4.8554814788
 20
2.5266523428
 30
0.0
 10
4.8605366203
 20
2.5239281211
 30
0.0
  0
SPLINE
  5
3B8
100
AcDbEntity
  8
ALL_FEATURES
100
AcDbSpline
 62
7
  6
CONTINUOUS
 70
0
 71
3
 72
19
 73
15
 74
0
 42
0.0000001
 43
0.0000001
 44
0.0000000001
 40
0.0
 40
0.0
 40
0.0
 40
0.0
 40
0.1096037274
 40
0.1657873559
 40
0.2229398047
 40
0.3402884784
 40
0.4005722039
 40
0.4619682931
 40
0.5245154112
 40
0.5882490951
 40
0.6532232828
 40
0.719528473
 40
0.8565088551
 40
1.0
 40
1.0
 40
1.0
 40
1.0
 10
4.8605366203
 20
2.5239281211
 30
0.0
 10
4.8695106278
 20
2.5190920179
 30
0.0
 10
4.8834485251
 20
2.512434783
 30
0.0
 10
4.9026669332
 20
2.5046424439
 30
0.0
 10
4.9228402624
 20
2.4973224732
 30
0.0
 10
4.943747386
 20
2.4909540051
 30
0.0
 10
4.9652903908
 20
2.4854542691
 30
0.0
 10
4.9820116932
 20
2.4817009593
 30
0.0
 10
4.9991457795
 20
2.4783548125
 30
0.0
 10
5.0166908631
 20
2.4754101818
 30
0.0
 10
5.0346521414
 20
2.4728695426
 30
0.0
 10
5.0594415975
 20
2.4700168545
 30
0.0
 10
5.091618473
 20
2.4675885038
 30
0.0
 10
5.1177099099
 20
2.466956023
 30
0.0
 10
5.1310559006
 20
2.466956023
 30
0.0
  0
SPLINE
  5
3B9
100
AcDbEntity
  8
ALL_FEATURES
100
AcDbSpline
 62
7
  6
CONTINUOUS
 70
0
 71
3
 72
9
 73
5
 74
0
 42
0.0000001
 43
0.0000001
 44
0.0000000001
 40
0.0
 40
0.0
 40
0.0
 40
0.0
 40
0.4833262798
 40
1.0
 40
1.0
 40
1.0
 40
1.0
 10
4.8604504869
 20
2.9761681567
 30
0.0
 10
4.8601640187
 20
2.9744608068
 30
0.0
 10
4.8597171182
 20
2.9709023336
 30
0.0
 10
4.8595721026
 20
2.9673185463
 30
0.0
 10
4.8595721026
 20
2.9654678842
 30
0.0
  0
SPLINE
  5
3BA
100
AcDbEntity
  8
ALL_FEATURES
100
AcDbSpline
 62
7
  6
CONTINUOUS
 70
0
 71
3
 72
31
 73
27
 74
0
 42
0.0000001
 43
0.0000001
 44
0.0000000001
 40
0.0
 40
0.0
 40
0.0
 40
0.0
 40
0.0180037225
 40
0.0346257971
 40
0.050251986
 40
0.0652025541
 40
0.0797092576
 40
0.0938881332
 40
0.107822181
 40
0.1215809072
 40
0.1487711102
 40
0.175771785
 40
0.2027727283
 40
0.2298954779
 40
0.2572209895
 40
0.2848101189
 40
0.3409281588
 40
0.3984653699
 40
0.4575709147
 40
0.5183488827
 40
0.580898633
 40
0.6453055638
 40
0.7116631626
 40
0.7800831758
 40
0.8507819109
 40
1.0
 40
1.0
 40
1.0
 40
1.0
 10
4.7701625753
 20
2.608248185
 30
0.0
 10
4.7701625753
 20
2.6056979535
 30
0.0
 10
4.770397948
 20
2.6007887821
 30
0.0
 10
4.7714667845
 20
2.5937395877
 30
0.0
 10
4.7731121185
 20
2.5872493778
 30
0.0
 10
4.775208702
 20
2.5812109023
 30
0.0
 10
4.7776265509
 20
2.5755177444
 30
0.0
 10
4.7803412571
 20
2.5701209873
 30
0.0
 10
4.7833252284
 20
2.5649911424
 30
0.0
 10
4.7876055364
 20
2.55849758
 30
0.0
 10
4.7935037612
 20
2.5508711714
 30
0.0
 10
4.8013220898
 20
2.5424204976
 30
0.0
 10
4.8097283306
 20
2.5345724092
 30
0.0
 10
4.8186593166
 20
2.5272575713
 30
0.0
 10
4.8280531687
 20
2.520407452
 30
0.0
 10
4.841225151
 20
2.5118024422
 30
0.0
 10
4.8587230269
 20
2.5020476701
 30
0.0
 10
4.8809395217
 20
2.4917438622
 30
0.0
 10
4.904391332
 20
2.482666525
 30
0.0
 10
4.9289878155
 20
2.4747023498
 30
0.0
 10
4.9546812681
 20
2.46780544
 30
0.0
 10
4.9814348297
 20
2.4619264406
 30
0.0
 10
5.0092316926
 20
2.457045475
 30
0.0
 10
5.0380822558
 20
2.4531403593
 30
0.0
 10
5.0787475885
 20
2.4492540028
 30
0.0
 10
5.1099191238
 20
2.4481357178
 30
0.0
 10
5.1310559006
 20
2.4481357178
 30
0.0
  0
SPLINE
  5
3BB
100
AcDbEntity
  8
ALL_FEATURES
100
AcDbSpline
 62
7
  6
CONTINUOUS
 70
0
 71
3
 72
30
 73
26
 74
0
 42
0.0000001
 43
0.0000001
 44
0.0000000001
 40
0.0
 40
0.0
 40
0.0
 40
0.0
 40
0.1768371372
 40
0.2621569312
 40
0.3447886387
 40
0.4242698664
 40
0.5001559643
 40
0.5720096115
 40
0.6393898864
 40
0.7018958398
 40
0.7592536596
 40
0.7859386189
 40
0.8112568099
 40
0.8351876763
 40
0.8577229513
 40
0.8788727561
 40
0.8986796092
 40
0.9172205511
 40
0.9346178976
 40
0.9510796604
 40
0.9669514405
 40
0.9748405618
 40
0.9828512434
 40
0.991164604
 40
1.0
 40
1.0
 40
1.0
 40
1.0
 10
5.1310559006
 20
3.7241431166
 30
0.0
 10
5.1452207587
 20
3.7241431166
 30
0.0
 10
5.166223304
 20
3.7245716877
 30
0.0
 10
5.1938064647
 20
3.7259829589
 30
0.0
 10
5.2135767581
 20
3.7274023512
 30
0.0
 10
5.2325602395
 20
3.7291688933
 30
0.0
 10
5.2506403808
 20
3.7312758406
 30
0.0
 10
5.2677003225
 20
3.7337160045
 30
0.0
 10
5.2836232598
 20
3.7364890854
 30
0.0
 10
5.2982998952
 20
3.7395971902
 30
0.0
 10
5.3096689909
 20
3.7425428518
 30
0.0
 10
5.3180458632
 20
3.7451094317
 30
0.0
 10
5.3237996643
 20
3.7470857168
 30
0.0
 10
5.3291619331
 20
3.749166237
 30
0.0
 10
5.3341173283
 20
3.7513577428
 30
0.0
 10
5.338651797
 20
3.7536675005
 30
0.0
 10
5.3427488199
 20
3.7561102547
 30
0.0
 10
5.3463928656
 20
3.7587012231
 30
0.0
 10
5.3495558506
 20
3.7614738141
 30
0.0
 10
5.3522075003
 20
3.7644636093
 30
0.0
 10
5.353944429
 20
3.7671984571
 30
0.0
 10
5.3549956939
 20
3.7695204021
 30
0.0
 10
5.3555949503
 20
3.7713700116
 30
0.0
 10
5.355973717
 20
3.7733547268
 30
0.0
 10
5.3560559006
 20
3.7747302754
 30
0.0
 10
5.3560559006
 20
3.7754380007
 30
0.0
  0
SPLINE
  5
3BC
100
AcDbEntity
  8
ALL_FEATURES
100
AcDbSpline
 62
7
  6
CONTINUOUS
 70
0
 71
3
 72
30
 73
26
 74
0
 42
0.0000001
 43
0.0000001
 44
0.0000000001
 40
0.0
 40
0.0
 40
0.0
 40
0.0
 40
0.1655901664
 40
0.3222458576
 40
0.3966641139
 40
0.468149853
 40
0.5364636141
 40
0.601364596
 40
0.6626429278
 40
0.7201902743
 40
0.7475596287
 40
0.7739885555
 40
0.8240344284
 40
0.8477148802
 40
0.8705627509
 40
0.8926685954
 40
0.914161224
 40
0.924738336
 40
0.9352415514
 40
0.9457117342
 40
0.9561997626
 40
0.966766195
 40
0.9774870181
 40
0.9884996427
 40
1.0
 40
1.0
 40
1.0
 40
1.0
 10
5.1310559006
 20
3.4986022264
 30
0.0
 10
5.1447626897
 20
3.4986022264
 30
0.0
 10
5.1714433298
 20
3.4993820683
 30
0.0
 10
5.2041697189
 20
3.502282751
 30
0.0
 10
5.2289902641
 20
3.5056521534
 30
0.0
 10
5.2464760079
 20
3.5086185737
 30
0.0
 10
5.2630713368
 20
3.512059576
 30
0.0
 10
5.2786921081
 20
3.51597716
 30
0.0
 10
5.2932571363
 20
3.5203747141
 30
0.0
 10
5.3046343205
 20
3.5245232324
 30
0.0
 10
5.3131206912
 20
3.5281244112
 30
0.0
 10
5.3209005948
 20
3.531781986
 30
0.0
 10
5.3281782463
 20
3.5357864164
 30
0.0
 10
5.3348357745
 20
3.5402190295
 30
0.0
 10
5.3393578169
 20
3.5436656508
 30
0.0
 10
5.3434803897
 20
3.5473146137
 30
0.0
 10
5.3465756531
 20
3.550569723
 30
0.0
 10
5.3488014634
 20
3.5533036891
 30
0.0
 10
5.3503385783
 20
3.5554168164
 30
0.0
 10
5.351742572
 20
3.5576121667
 30
0.0
 10
5.3530038156
 20
3.5598988761
 30
0.0
 10
5.354112011
 20
3.5622865445
 30
0.0
 10
5.3550618554
 20
3.5647886882
 30
0.0
 10
5.3558146019
 20
3.5674385179
 30
0.0
 10
5.3561464068
 20
3.5692761118
 30
0.0
 10
5.3562683427
 20
3.5702202165
 30
0.0
  0
LINE
  5
3BD
100
AcDbEntity
  8
ALL_FEATURES
100
AcDbLine
 62
7
  6
CONTINUOUS
 10
5.3562683427
 20
3.5702202165
 11
5.3565101013
 21
3.5740451383
  0
LINE
  5
3BE
100
AcDbEntity
  8
ALL_FEATURES
100
AcDbLine
 62
7
  6
CONTINUOUS
 10
5.3565101013
 20
3.5740451383
 11
5.3566022155
 21
3.5665698559
  0
LINE
  5
3BF
100
AcDbEntity
  8
ALL_FEATURES
100
AcDbLine
 62
7
  6
CONTINUOUS
 10
5.359874674
 20
3.4307015802
 11
5.3601500049
 21
3.4231696957
  0
SPLINE
  5
3C0
100
AcDbEntity
  8
ALL_FEATURES
100
AcDbSpline
 62
7
  6
CONTINUOUS
 70
0
 71
3
 72
13
 73
9
 74
0
 42
0.0000001
 43
0.0000001
 44
0.0000000001
 40
0.0
 40
0.0
 40
0.0
 40
0.0
 40
0.2576367109
 40
0.5115682332
 40
0.6364900298
 40
0.7597038588
 40
0.8809566258
 40
1.0
 40
1.0
 40
1.0
 40
1.0
 10
5.3601500049
 20
3.4231696957
 30
0.0
 10
5.3613785628
 20
3.3901879467
 30
0.0
 10
5.3644146545
 20
3.32471915
 30
0.0
 10
5.3698835818
 20
3.2433576314
 30
0.0
 10
5.3753571985
 20
3.1792720085
 30
0.0
 10
5.3799959208
 20
3.1321778134
 30
0.0
 10
5.3852111304
 20
3.0859016682
 30
0.0
 10
5.3891250876
 20
3.0553667213
 30
0.0
 10
5.3911911108
 20
3.0402572333
 30
0.0
  0
SPLINE
  5
3C1
100
AcDbEntity
  8
ALL_FEATURES
100
AcDbSpline
 62
7
  6
CONTINUOUS
 70
0
 71
3
 72
29
 73
25
 74
0
 42
0.0000001
 43
0.0000001
 44
0.0000000001
 40
0.0
 40
0.0
 40
0.0
 40
0.0
 40
0.1480518487
 40
0.2184088308
 40
0.2865584091
 40
0.3526592362
 40
0.4167992323
 40
0.4790591291
 40
0.5395187704
 40
0.5982884265
 40
0.655532734
 40
0.7114789299
 40
0.7664243094
 40
0.7936851055
 40
0.8209224182
 40
0.8482740044
 40
0.8759417084
 40
0.9042234361
 40
0.9187392835
 40
0.9335989444
 40
0.9489074962
 40
0.9648770466
 40
0.9817943834
 40
1.0
 40
1.0
 40
1.0
 40
1.0
 10
5.1310559006
 20
2.9019584525
 30
0.0
 10
5.146631904
 20
2.9019584525
 30
0.0
 10
5.1696297693
 20
2.902919794
 30
0.0
 10
5.1996013091
 20
2.9062436864
 30
0.0
 10
5.2208737859
 20
2.909589113
 30
0.0
 10
5.2413294726
 20
2.9137748788
 30
0.0
 10
5.2609557874
 20
2.9188065249
 30
0.0
 10
5.2797245957
 20
2.9246880266
 30
0.0
 10
5.2975954915
 20
2.9314440838
 30
0.0
 10
5.3145252135
 20
2.9390994585
 30
0.0
 10
5.3304492379
 20
2.9477216388
 30
0.0
 10
5.3452984012
 20
2.9573738944
 30
0.0
 10
5.3566823846
 20
2.9664587325
 30
0.0
 10
5.3650394784
 20
2.9743883295
 30
0.0
 10
5.3708986418
 20
2.9807076124
 30
0.0
 10
5.3763244384
 20
2.9874603072
 30
0.0
 10
5.38123437
 20
2.9947325651
 30
0.0
 10
5.3847966658
 20
3.0012501095
 30
0.0
 10
5.3872606842
 20
3.0067962278
 30
0.0
 10
5.3889185767
 20
3.0111980813
 30
0.0
 10
5.3903532865
 20
3.0158389813
 30
0.0
 10
5.3914776576
 20
3.0207892604
 30
0.0
 10
5.3922079749
 20
3.0261217174
 30
0.0
 10
5.3923702821
 20
3.0298195346
 30
0.0
 10
5.3923702821
 20
3.0317348821
 30
0.0
  0
SPLINE
  5
3C2
100
AcDbEntity
  8
ALL_FEATURES
100
AcDbSpline
 62
7
  6
CONTINUOUS
 70
0
 71
3
 72
9
 73
5
 74
0
 42
0.0000001
 43
0.0000001
 44
0.0000000001
 40
0.0
 40
0.0
 40
0.0
 40
0.0
 40
0.5166737202
 40
1.0
 40
1.0
 40
1.0
 40
1.0
 10
5.4025396986
 20
2.9654678842
 30
0.0
 10
5.4025396986
 20
2.9673185463
 30
0.0
 10
5.4023946831
 20
2.9709023336
 30
0.0
 10
5.4019477826
 20
2.9744608068
 30
0.0
 10
5.4016613144
 20
2.9761681567
 30
0.0
  0
SPLINE
  5
3C3
100
AcDbEntity
  8
ALL_FEATURES
100
AcDbSpline
 62
7
  6
CONTINUOUS
 70
0
 71
3
 72
11
 73
7
 74
0
 42
0.0000001
 43
0.0000001
 44
0.0000000001
 40
0.0
 40
0.0
 40
0.0
 40
0.0
 40
0.2731052177
 40
0.5279895418
 40
0.7690269149
 40
1.0
 40
1.0
 40
1.0
 40
1.0
 10
5.485339777
 20
2.6276679696
 30
0.0
 10
5.485339777
 20
2.6298436876
 30
0.0
 10
5.4851663607
 20
2.6340526171
 30
0.0
 10
5.4843810137
 20
2.640135996
 30
0.0
 10
5.483156264
 20
2.6458023104
 30
0.0
 10
5.4820793115
 20
2.6494089737
 30
0.0
 10
5.4814941169
 20
2.6511535078
 30
0.0
  0
SPLINE
  5
3C4
100
AcDbEntity
  8
ALL_FEATURES
100
AcDbSpline
 62
7
  6
CONTINUOUS
 70
0
 71
3
 72
31
 73
27
 74
0
 42
0.0000001
 43
0.0000001
 44
0.0000000001
 40
0.0
 40
0.0
 40
0.0
 40
0.0
 40
0.0747615748
 40
0.1469211772
 40
0.2167094072
 40
0.2843454487
 40
0.350016367
 40
0.4138308674
 40
0.4758862087
 40
0.5362750039
 40
0.5951142155
 40
0.6525639245
 40
0.7088395325
 40
0.764220329
 40
0.7917299073
 40
0.8192306929
 40
0.8468550156
 40
0.8747996012
 40
0.8889816484
 40
0.9033669944
 40
0.9180202486
 40
0.9330167407
 40
0.9484621672
 40
0.9645712692
 40
0.981635132
 40
1.0
 40
1.0
 40
1.0
 40
1.0
 10
5.1310559006
 20
2.8273483724
 30
0.0
 10
5.1392638026
 20
2.8273483724
 30
0.0
 10
5.1553966627
 20
2.827711157
 30
0.0
 10
5.179140125
 20
2.8293562294
 30
0.0
 10
5.2020027365
 20
2.8320307578
 30
0.0
 10
5.2240089173
 20
2.8356733784
 30
0.0
 10
5.2451763698
 20
2.8402191727
 30
0.0
 10
5.2654968118
 20
2.8456677831
 30
0.0
 10
5.2849461964
 20
2.8520169993
 30
0.0
 10
5.3034866472
 20
2.8592865606
 30
0.0
 10
5.3210767222
 20
2.8674957769
 30
0.0
 10
5.3376504742
 20
2.8767099703
 30
0.0
 10
5.3531365332
 20
2.8869899313
 30
0.0
 10
5.3650299681
 20
2.8966289637
 30
0.0
 10
5.3737805658
 20
2.9050231493
 30
0.0
 10
5.3799263177
 20
2.9117057428
 30
0.0
 10
5.3856253328
 20
2.9188363444
 30
0.0
 10
5.3899076328
 20
2.925197828
 30
0.0
 10
5.3930117405
 20
2.9305721878
 30
0.0
 10
5.3951753257
 20
2.9347978515
 30
0.0
 10
5.3971416293
 20
2.9392172387
 30
0.0
 10
5.398891259
 20
2.9438515666
 30
0.0
 10
5.4004068364
 20
2.9487364021
 30
0.0
 10
5.4015954375
 20
2.9539464711
 30
0.0
 10
5.4023679512
 20
2.9595591834
 30
0.0
 10
5.4025396986
 20
2.9634516475
 30
0.0
 10
5.4025396986
 20
2.9654678842
 30
0.0
  0
SPLINE
  5
3C5
100
AcDbEntity
  8
ALL_FEATURES
100
AcDbSpline
 62
7
  6
CONTINUOUS
 70
0
 71
3
 72
11
 73
7
 74
0
 42
0.0000001
 43
0.0000001
 44
0.0000000001
 40
0.0
 40
0.0
 40
0.0
 40
0.0
 40
0.2736638451
 40
0.5284997642
 40
0.7692575867
 40
1.0
 40
1.0
 40
1.0
 40
1.0
 10
5.4919492259
 20
2.608248185
 30
0.0
 10
5.4919492259
 20
2.6105410903
 30
0.0
 10
5.4917583641
 20
2.6149722301
 30
0.0
 10
5.4908938494
 20
2.6213677557
 30
0.0
 10
5.4895499899
 20
2.6273104677
 30
0.0
 10
5.4883735647
 20
2.6310859648
 30
0.0
 10
5.4877363558
 20
2.632911221
 30
0.0
  0
LINE
  5
3C6
100
AcDbEntity
  8
ALL_FEATURES
100
AcDbLine
 62
7
  6
CONTINUOUS
 10
5.3560735007
 20
3.636788858
 11
5.3560934462
 21
3.6296477154
  0
LINE
  5
3C7
100
AcDbEntity
  8
ALL_FEATURES
100
AcDbLine
 62
7
  6
CONTINUOUS
 10
5.3561035507
 20
3.6267857936
 11
5.3561415829
 21
3.6181141164
  0
SPLINE
  5
3C8
100
AcDbEntity
  8
ALL_FEATURES
100
AcDbSpline
 62
7
  6
CONTINUOUS
 70
0
 71
3
 72
11
 73
7
 74
0
 42
0.0000001
 43
0.0000001
 44
0.0000000001
 40
0.0
 40
0.0
 40
0.0
 40
0.0
 40
0.2735160524
 40
0.5320903994
 40
0.774635981
 40
1.0
 40
1.0
 40
1.0
 40
1.0
 10
5.4025396986
 20
2.9654678842
 30
0.0
 10
5.407376315
 20
2.9365534896
 30
0.0
 10
5.4177868455
 20
2.8804660673
 30
0.0
 10
5.4358436328
 20
2.7994088441
 30
0.0
 10
5.4554426112
 20
2.7240335058
 30
0.0
 10
5.4697672918
 20
2.6759580677
 30
0.0
 10
5.4770964883
 20
2.6529417632
 30
0.0
  0
LINE
  5
3C9
100
AcDbEntity
  8
ALL_FEATURES
100
AcDbLine
 62
7
  6
CONTINUOUS
 10
5.4770964883
 20
2.6529417632
 11
5.4780408707
 21
2.6499843112
  0
SPLINE
  5
3CA
100
AcDbEntity
  8
ALL_FEATURES
100
AcDbSpline
 62
7
  6
CONTINUOUS
 70
0
 71
3
 72
19
 73
15
 74
0
 42
0.0000001
 43
0.0000001
 44
0.0000000001
 40
0.0
 40
0.0
 40
0.0
 40
0.0
 40
0.1434916815
 40
0.2804723821
 40
0.3467776675
 40
0.4117519161
 40
0.4754856296
 40
0.5380327409
 40
0.5994287899
 40
0.6597124448
 40
0.7770608882
 40
0.8342131884
 40
0.8903966461
 40
1.0
 40
1.0
 40
1.0
 40
1.0
 10
5.1310559006
 20
2.466956023
 30
0.0
 10
5.144402322
 20
2.466956023
 30
0.0
 10
5.1704945832
 20
2.4675885442
 30
0.0
 10
5.2026724599
 20
2.4700170518
 30
0.0
 10
5.2274626563
 20
2.4728699217
 30
0.0
 10
5.2454244523
 20
2.4754107203
 30
0.0
 10
5.262970028
 20
2.4783555336
 30
0.0
 10
5.2801045792
 20
2.4817018913
 30
0.0
 10
5.2968263181
 20
2.4854554397
 30
0.0
 10
5.3183698557
 20
2.490955526
 30
0.0
 10
5.3392774623
 20
2.4973244111
 30
0.0
 10
5.3594512123
 20
2.5046448693
 30
0.0
 10
5.3786699739
 20
2.5124377403
 30
0.0
 10
5.392608084
 20
2.519095444
 30
0.0
 10
5.4015821925
 20
2.5239318998
 30
0.0
  0
SPLINE
  5
3CB
100
AcDbEntity
  8
ALL_FEATURES
100
AcDbSpline
 62
7
  6
CONTINUOUS
 70
0
 71
3
 72
26
 73
22
 74
0
 42
0.0000001
 43
0.0000001
 44
0.0000000001
 40
0.0
 40
0.0
 40
0.0
 40
0.0
 40
0.1232805419
 40
0.2446058805
 40
0.3046658848
 40
0.3644094137
 40
0.423922343
 40
0.4833215863
 40
0.5427631759
 40
0.602466741
 40
0.6325133128
 40
0.6627483914
 40
0.7240268853
 40
0.755242241
 40
0.7869619394
 40
0.8192955615
 40
0.8524312586
 40
0.8866729283
 40
0.9223889723
 40
0.9600058871
 40
1.0
 40
1.0
 40
1.0
 40
1.0
 10
5.4015821925
 20
2.5239318998
 30
0.0
 10
5.4066369375
 20
2.5266560757
 30
0.0
 10
5.4165188854
 20
2.5323417083
 30
0.0
 10
5.4283368571
 20
2.5402205035
 30
0.0
 10
5.4373123433
 20
2.5469760315
 30
0.0
 10
5.4437791006
 20
2.5522657733
 30
0.0
 10
5.4499793777
 20
2.557820213
 30
0.0
 10
5.4558892637
 20
2.5636635629
 30
0.0
 10
5.46148079
 20
2.5698253567
 30
0.0
 10
5.4658242021
 20
2.575256767
 30
0.0
 10
5.4690838293
 20
2.5797976582
 30
0.0
 10
5.4722175878
 20
2.5845143935
 30
0.0
 10
5.475097715
 20
2.5894614313
 30
0.0
 10
5.4776724844
 20
2.5946443013
 30
0.0
 10
5.4794607821
 20
2.5987071976
 30
0.0
 10
5.4810878695
 20
2.602933382
 30
0.0
 10
5.4825263771
 20
2.6073519865
 30
0.0
 10
5.483723942
 20
2.612005722
 30
0.0
 10
5.4846349226
 20
2.6169371519
 30
0.0
 10
5.485212332
 20
2.6221885974
 30
0.0
 10
5.485339777
 20
2.6258051473
 30
0.0
 10
5.485339777
 20
2.6276679696
 30
0.0
  0
SPLINE
  5
3CC
100
AcDbEntity
  8
ALL_FEATURES
100
AcDbSpline
 62
7
  6
CONTINUOUS
 70
0
 71
3
 72
31
 73
27
 74
0
 42
0.0000001
 43
0.0000001
 44
0.0000000001
 40
0.0
 40
0.0
 40
0.0
 40
0.0
 40
0.1492180891
 40
0.2199168242
 40
0.2883368374
 40
0.3546944362
 40
0.419101367
 40
0.4816511173
 40
0.5424290853
 40
0.6015346301
 40
0.6590718412
 40
0.7151898811
 40
0.7427790105
 40
0.7701045221
 40
0.7972272717
 40
0.824228215
 40
0.8512288898
 40
0.8784190928
 40
0.892177819
 40
0.9061118668
 40
0.9202907424
 40
0.9347974459
 40
0.949748014
 40
0.9653742029
 40
0.9819962775
 40
1.0
 40
1.0
 40
1.0
 40
1.0
 10
5.1310559006
 20
2.4481357178
 30
0.0
 10
5.1521926774
 20
2.4481357178
 30
0.0
 10
5.1833642127
 20
2.4492540028
 30
0.0
 10
5.2240295455
 20
2.4531403593
 30
0.0
 10
5.2528801087
 20
2.457045475
 30
0.0
 10
5.2806769715
 20
2.4619264406
 30
0.0
 10
5.3074305331
 20
2.46780544
 30
0.0
 10
5.3331239858
 20
2.4747023498
 30
0.0
 10
5.3577204693
 20
2.482666525
 30
0.0
 10
5.3811722795
 20
2.4917438622
 30
0.0
 10
5.4033887744
 20
2.5020476701
 30
0.0
 10
5.4208866502
 20
2.5118024422
 30
0.0
 10
5.4340586325
 20
2.520407452
 30
0.0
 10
5.4434524847
 20
2.5272575713
 30
0.0
 10
5.4523834707
 20
2.5345724092
 30
0.0
 10
5.4607897114
 20
2.5424204976
 30
0.0
 10
5.4686080401
 20
2.5508711714
 30
0.0
 10
5.4745062648
 20
2.55849758
 30
0.0
 10
5.4787865729
 20
2.5649911424
 30
0.0
 10
5.4817705442
 20
2.5701209873
 30
0.0
 10
5.4844852503
 20
2.5755177444
 30
0.0
 10
5.4869030993
 20
2.5812109023
 30
0.0
 10
5.4889996827
 20
2.5872493778
 30
0.0
 10
5.4906450168
 20
2.5937395877
 30
0.0
 10
5.4917138532
 20
2.6007887821
 30
0.0
 10
5.4919492259
 20
2.6056979535
 30
0.0
 10
5.4919492259
 20
2.608248185
 30
0.0
  0
SPLINE
  5
3CD
100
AcDbEntity
  8
ALL_FEATURES
100
AcDbSpline
 62
7
  6
CONTINUOUS
 70
0
 71
3
 72
30
 73
26
 74
0
 42
0.0000001
 43
0.0000001
 44
0.0000000001
 40
0.0
 40
0.0
 40
0.0
 40
0.0
 40
0.1701991446
 40
0.2520609874
 40
0.331331238
 40
0.4076843265
 40
0.4807941141
 40
0.5503395189
 40
0.6159979219
 40
0.6774886696
 40
0.7346495597
 40
0.7615813734
 40
0.7873975768
 40
0.8120960846
 40
0.835689419
 40
0.8582099579
 40
0.8797225397
 40
0.9003287489
 40
0.9201802143
 40
0.9395151956
 40
0.9587103503
 40
0.9684375402
 40
0.9784211147
 40
0.9888616536
 40
1.0
 40
1.0
 40
1.0
 40
1.0
 10
5.1310559006
 20
3.5858626448
 30
0.0
 10
5.1450827581
 20
3.5858626448
 30
0.0
 10
5.1658622427
 20
3.5864138658
 30
0.0
 10
5.1931095751
 20
3.5882432793
 30
0.0
 10
5.2125978358
 20
3.5900818557
 30
0.0
 10
5.2313118276
 20
3.5923705767
 30
0.0
 10
5.2491565647
 20
3.5951012716
 30
0.0
 10
5.266034206
 20
3.5982651842
 30
0.0
 10
5.2818452302
 20
3.6018629298
 30
0.0
 10
5.2964953049
 20
3.6058975893
 30
0.0
 10
5.3078801624
 20
3.6097109554
 30
0.0
 10
5.3163120577
 20
3.613025248
 30
0.0
 10
5.3221591393
 20
3.615589278
 30
0.0
 10
5.3276399297
 20
3.6182895738
 30
0.0
 10
5.3327385321
 20
3.6211350016
 30
0.0
 10
5.3374401078
 20
3.6241350546
 30
0.0
 10
5.3417246865
 20
3.6273090203
 30
0.0
 10
5.3455730761
 20
3.6306770465
 30
0.0
 10
5.348947899
 20
3.6342808579
 30
0.0
 10
5.3518099599
 20
3.6381648179
 30
0.0
 10
5.3536954881
 20
3.6416858211
 30
0.0
 10
5.354859316
 20
3.6446773882
 30
0.0
 10
5.3555327453
 20
3.6470741127
 30
0.0
 10
5.3559619295
 20
3.6496448494
 30
0.0
 10
5.3560559006
 20
3.6514251566
 30
0.0
 10
5.3560559006
 20
3.6523431166
 30
0.0
  0
ENDSEC
  0
SECTION
  2
OBJECTS
  0
DICTIONARY
  5
C
100
AcDbDictionary
280
0
281
1
  3
ACAD_GROUP
350
D
  3
ACAD_MLINESTYLE
350
17
  3
ACAD_LAYOUT
350
1A
  3
ACAD_PLOTSETTINGS
350
19
  3
ACAD_PLOTSTYLENAME
350
E
  0
DICTIONARY
  5
D
102
{ACAD_REACTORS
330
C
102
}
100
AcDbDictionary
280
0
281
1
  0
ACDBDICTIONARYWDFLT
  5
E
102
{ACAD_REACTORS
330
C
102
}
100
AcDbDictionary
281
1
  3
Normal
350
F
100
AcDbDictionaryWithDefault
340
F
  0
DICTIONARY
  5
17
102
{ACAD_REACTORS
330
C
102
}
100
AcDbDictionary
280
0
281
1
  3
Standard
350
18
  0
DICTIONARY
  5
19
102
{ACAD_REACTORS
330
C
102
}
100
AcDbDictionary
281
1
  0
DICTIONARY
  5
1A
102
{ACAD_REACTORS
330
C
102
}
100
AcDbDictionary
281
1
  3
Model
350
3CE
  3
Layout1
350
3CF
  0
ACDBPLACEHOLDER
  5
F
102
{ACAD_REACTORS
330
E
102
}
  0
MLINESTYLE
  5
18
102
{ACAD_REACTORS
330
17
102
}
100
AcDbMlineStyle
  2
STANDARD
 70
0
  3

 62
256
 51
90.0
 52
90.0
 71
2
 49
0.5
 62
256
  6
BYLAYER
 49
-0.5
 62
256
  6
BYLAYER
  0
LAYOUT
  5
3CE
102
{ACAD_REACTORS
330
1A
102
}
100
AcDbPlotSettings
  1

  2
none_device
  4
ANSI_A_(11.00_x_8.50_Inches)
  6

 40
0.0
 41
0.0
 42
0.0
 43
0.0
 44
279.4
 45
215.9
 46
0.0
 47
0.0
 48
0.0
 49
0.0
140
0.0
141
0.0
142
1.0
143
1.0
 70
1024
 72
0
 73
0
 74
0
  7

 75
0
147
1.0
148
0.0
149
0.0
100
AcDbLayout
  1
Model
 70
0
 71
0
 10
0.0
 20
0.0
 11
11.0
 21
8.5
 12
0.0
 22
0.0
 32
0.0
 14
0.0
 24
0.0
 34
0.0
 15
0.0
 25
0.0
 35
0.0
146
0.0
 13
0.0
 23
0.0
 33
0.0
 16
1.0
 26
0.0
 36
0.0
 17
0.0
 27
1.0
 37
0.0
 76
0
330
21C
345
0
346
0
  0
LAYOUT
  5
3CF
102
{ACAD_REACTORS
330
1A
102
}
100
AcDbPlotSettings
  1

  2
none_device
  4
ANSI_A_(11.00_x_8.50_Inches)
  6

 40
0.0
 41
0.0
 42
0.0
 43
0.0
 44
279.4
 45
215.9
 46
0.0
 47
0.0
 48
0.0
 49
0.0
140
0.0
141
0.0
142
1.0
143
1.0
 70
0
 72
0
 73
0
 74
0
  7

 75
0
147
1.0
148
0.0
149
0.0
100
AcDbLayout
  1
Layout1
 70
0
 71
1
 10
0.0
 20
0.0
 11
11.0
 21
8.5
 12
0.0
 22
0.0
 32
0.0
 14
0.0
 24
0.0
 34
0.0
 15
0.0
 25
0.0
 35
0.0
146
0.0
 13
0.0
 23
0.0
 33
0.0
 16
1.0
 26
0.0
 36
0.0
 17
0.0
 27
1.0
 37
0.0
 76
0
330
21D
345
0
346
0
  0
ENDSEC
  0
EOF
