999
DXF file: 3-2403tr_FRONT.dxf
999
Pro/ENGINEER 2013150 by Parametric Technology Corporation
  0
SECTION
  2
HEADER
  9
$ACADVER
  1
AC1021
  9
$DWGCODEPAGE
  3
ANSI_1252
  9
$EXTMAX
 10
11.0
 20
8.5
 30
0.0
  9
$EXTMIN
 10
0.0
 20
0.0
 30
0.0
  9
$LIMMIN
 10
0.0
 20
0.0
  9
$LIMMAX
 10
11.0
 20
8.5
  9
$VIEWCTR
 10
5.5
 20
4.25
  9
$VIEWSIZE
 40
8.5
  9
$CLAYER
  8
0
  9
$LTSCALE
 40
0.605
  9
$CELTYPE
  6
BYLAYER
  9
$DIMSCALE
 40
1.0
  9
$DIMASZ
 40
0.1
  9
$DIMEXO
 40
0.0625
  9
$DIMDLI
 40
0.418
  9
$DIMEXE
 40
0.125
  9
$DIMCEN
 40
0.099
  9
$DIMLFAC
 40
1.0
  9
$DIMBLK
  1
_FILLED
  9
$DIMTXT
 40
0.08
  9
$DIMTOL
 70
1
  9
$DIMLIM
 70
0
  9
$DIMTFAC
 40
1.0
  9
$DIMTP
 40
0.001
  9
$DIMTM
 40
0.001
  9
$DIMGAP
 40
0.09
  9
$DIMDSEP
 70
46
  9
$PDMODE
 70
3
  9
$PDSIZE
 40
0.06
  9
$HANDSEED
  5
541
  9
$TILEMODE
 70
1
  9
$MEASUREMENT
 70
0
  9
$INSUNITS
 70
1
  0
ENDSEC
  0
SECTION
  2
CLASSES
  0
CLASS
  1
ACDBDICTIONARYWDFLT
  2
AcDbDictionaryWithDefault
  3
AutoCAD 2000
 90
0
 91
1
280
0
281
0
  0
CLASS
  1
ACDBPLACEHOLDER
  2
AcDbPlaceHolder
  3
AutoCAD 2000
 90
0
 91
1
280
0
281
0
  0
CLASS
  1
LAYOUT
  2
AcDbLayout
  3
AutoCAD 2000
 90
0
 91
0
280
0
281
0
  0
ENDSEC
  0
SECTION
  2
TABLES
  0
TABLE
  2
VPORT
  5
8
100
AcDbSymbolTable
 70
2
  0
VPORT
  5
1F4
100
AcDbSymbolTableRecord
100
AcDbViewportTableRecord
  2
*ACTIVE
 70
0
 10
0.0
 20
0.0
 11
1.0
 21
1.0
 12
5.5
 22
4.25
 13
0.0
 23
0.0
 14
1.0
 24
1.0
 15
0.0
 25
0.0
 16
0.0
 26
0.0
 36
1.0
 17
0.0
 27
0.0
 37
0.0
 40
8.5
 41
1.2941176471
 42
50.0
 43
0.0
 44
0.0
 50
0.0
 51
0.0
 71
0
 72
100
 73
1
 74
1
 75
0
 76
0
 77
0
 78
0
  0
ENDTAB
  0
TABLE
  2
LTYPE
  5
5
100
AcDbSymbolTable
 70
6
  0
LTYPE
  5
14
100
AcDbSymbolTableRecord
100
AcDbLinetypeTableRecord
  2
BYBLOCK
 70
0
  3

 72
65
 73
0
 40
0.0
  0
LTYPE
  5
15
100
AcDbSymbolTableRecord
100
AcDbLinetypeTableRecord
  2
BYLAYER
 70
0
  3

 72
65
 73
0
 40
0.0
  0
LTYPE
  5
16
100
AcDbSymbolTableRecord
100
AcDbLinetypeTableRecord
  2
CONTINUOUS
 70
64
  3
Solid line
 72
65
 73
0
 40
0.0
  0
LTYPE
  5
1F5
100
AcDbSymbolTableRecord
100
AcDbLinetypeTableRecord
  2
CENTER
 70
64
  3
____ _ ____ _ ____ _ ____ _ ____ _ ____ _ ____
 72
65
 73
4
 40
0.6
 49
0.375
 74
0
 49
-0.075
 74
0
 49
0.075
 74
0
 49
-0.075
 74
0
  0
LTYPE
  5
1F6
100
AcDbSymbolTableRecord
100
AcDbLinetypeTableRecord
  2
HIDDEN
 70
64
  3
- - - - - - - - - - - - - - - - - - - -
 72
65
 73
2
 40
0.2
 49
0.1
 74
0
 49
-0.1
 74
0
  0
LTYPE
  5
1F7
100
AcDbSymbolTableRecord
100
AcDbLinetypeTableRecord
  2
PHANTOM
 70
64
  3
_____ _ _ _____ _ _ _____ _ _ _____
 72
65
 73
6
 40
0.8
 49
0.45
 74
0
 49
-0.05
 74
0
 49
0.1
 74
0
 49
-0.05
 74
0
 49
0.1
 74
0
 49
-0.05
 74
0
  0
LTYPE
  5
1F8
100
AcDbSymbolTableRecord
100
AcDbLinetypeTableRecord
  2
DOT
 70
64
  3
. . . . . . . . . . . . . . . . . . . .
 72
65
 73
2
 40
0.2
 49
0.1
 74
0
 49
-0.1
 74
0
  0
LTYPE
  5
1F9
100
AcDbSymbolTableRecord
100
AcDbLinetypeTableRecord
  2
DASHED
 70
64
  3
- - - - - - - - - - - - - - - - - - - -
 72
65
 73
2
 40
0.2
 49
0.1
 74
0
 49
-0.1
 74
0
  0
ENDTAB
  0
TABLE
  2
LAYER
  5
2
100
AcDbSymbolTable
 70
36
  0
LAYER
  5
10
100
AcDbSymbolTableRecord
100
AcDbLayerTableRecord
  2
0
 70
0
 62
7
  6
CONTINUOUS
370
-3
390
F
  0
LAYER
  5
1FA
100
AcDbSymbolTableRecord
100
AcDbLayerTableRecord
  2
DEFAULT_1
 70
0
 62
7
  6
CENTER
370
-3
390
F
  0
LAYER
  5
1FB
100
AcDbSymbolTableRecord
100
AcDbLayerTableRecord
  2
DEFAULT_2
 70
0
 62
8
  6
HIDDEN
370
-3
390
F
  0
LAYER
  5
1FC
100
AcDbSymbolTableRecord
100
AcDbLayerTableRecord
  2
DEFAULT_3
 70
0
 62
7
  6
PHANTOM
370
-3
390
F
  0
LAYER
  5
1FD
100
AcDbSymbolTableRecord
100
AcDbLayerTableRecord
  2
ALL_FEATURES
 70
0
 62
7
  6
CONTINUOUS
370
-3
390
F
  0
LAYER
  5
1FE
100
AcDbSymbolTableRecord
100
AcDbLayerTableRecord
  2
AXES_FEATURES
 70
0
 62
7
  6
CONTINUOUS
370
-3
390
F
  0
LAYER
  5
1FF
100
AcDbSymbolTableRecord
100
AcDbLayerTableRecord
  2
CHAMFER_FEATURES
 70
0
 62
7
  6
CONTINUOUS
370
-3
390
F
  0
LAYER
  5
200
100
AcDbSymbolTableRecord
100
AcDbLayerTableRecord
  2
COORDINATE_SYSTEMS
 70
0
 62
7
  6
CONTINUOUS
370
-3
390
F
  0
LAYER
  5
201
100
AcDbSymbolTableRecord
100
AcDbLayerTableRecord
  2
CUT_FEATURES
 70
0
 62
7
  6
CONTINUOUS
370
-3
390
F
  0
LAYER
  5
202
100
AcDbSymbolTableRecord
100
AcDbLayerTableRecord
  2
DATUM_CURVES
 70
0
 62
7
  6
CONTINUOUS
370
-3
390
F
  0
LAYER
  5
203
100
AcDbSymbolTableRecord
100
AcDbLayerTableRecord
  2
DATUM_PLANES
 70
0
 62
7
  6
CONTINUOUS
370
-3
390
F
  0
LAYER
  5
204
100
AcDbSymbolTableRecord
100
AcDbLayerTableRecord
  2
DATUM_POINTS
 70
0
 62
7
  6
CONTINUOUS
370
-3
390
F
  0
LAYER
  5
205
100
AcDbSymbolTableRecord
100
AcDbLayerTableRecord
  2
DEFAULT_COORDINATE_SYSTEM
 70
0
 62
7
  6
CONTINUOUS
370
-3
390
F
  0
LAYER
  5
206
100
AcDbSymbolTableRecord
100
AcDbLayerTableRecord
  2
DEFAULT_DATUM_AXES
 70
0
 62
7
  6
CONTINUOUS
370
-3
390
F
  0
LAYER
  5
207
100
AcDbSymbolTableRecord
100
AcDbLayerTableRecord
  2
DEFAULT_DATUM_CURVES
 70
0
 62
7
  6
CONTINUOUS
370
-3
390
F
  0
LAYER
  5
208
100
AcDbSymbolTableRecord
100
AcDbLayerTableRecord
  2
DEFAULT_DATUM_PLANES
 70
0
 62
7
  6
CONTINUOUS
370
-3
390
F
  0
LAYER
  5
209
100
AcDbSymbolTableRecord
100
AcDbLayerTableRecord
  2
DEFAULT_SURFACES
 70
0
 62
7
  6
CONTINUOUS
370
-3
390
F
  0
LAYER
  5
20A
100
AcDbSymbolTableRecord
100
AcDbLayerTableRecord
  2
DIMENSIONS
 70
0
 62
7
  6
CONTINUOUS
370
-3
390
F
  0
LAYER
  5
20B
100
AcDbSymbolTableRecord
100
AcDbLayerTableRecord
  2
HOLE_FEATURES
 70
0
 62
7
  6
CONTINUOUS
370
-3
390
F
  0
LAYER
  5
20C
100
AcDbSymbolTableRecord
100
AcDbLayerTableRecord
  2
IMPORT_FEATURE
 70
0
 62
7
  6
CONTINUOUS
370
-3
390
F
  0
LAYER
  5
20D
100
AcDbSymbolTableRecord
100
AcDbLayerTableRecord
  2
INTFCLR_1
 70
0
 62
7
  6
CONTINUOUS
370
-3
390
F
  0
LAYER
  5
20E
100
AcDbSymbolTableRecord
100
AcDbLayerTableRecord
  2
NOTES
 70
0
 62
7
  6
CONTINUOUS
370
-3
390
F
  0
LAYER
  5
20F
100
AcDbSymbolTableRecord
100
AcDbLayerTableRecord
  2
PART_REFERENCE_DIMENSIONS
 70
0
 62
7
  6
CONTINUOUS
370
-3
390
F
  0
LAYER
  5
210
100
AcDbSymbolTableRecord
100
AcDbLayerTableRecord
  2
PLATED_SURFACE_AREA
 70
0
 62
7
  6
CONTINUOUS
370
-3
390
F
  0
LAYER
  5
211
100
AcDbSymbolTableRecord
100
AcDbLayerTableRecord
  2
POINTS
 70
0
 62
7
  6
CONTINUOUS
370
-3
390
F
  0
LAYER
  5
212
100
AcDbSymbolTableRecord
100
AcDbLayerTableRecord
  2
PROTRUSION
 70
0
 62
7
  6
CONTINUOUS
370
-3
390
F
  0
LAYER
  5
213
100
AcDbSymbolTableRecord
100
AcDbLayerTableRecord
  2
PROTRUSION_FEATURES
 70
0
 62
7
  6
CONTINUOUS
370
-3
390
F
  0
LAYER
  5
214
100
AcDbSymbolTableRecord
100
AcDbLayerTableRecord
  2
QUILTS
 70
0
 62
7
  6
CONTINUOUS
370
-3
390
F
  0
LAYER
  5
215
100
AcDbSymbolTableRecord
100
AcDbLayerTableRecord
  2
REFERENCE_DIMENSIONS
 70
0
 62
7
  6
CONTINUOUS
370
-3
390
F
  0
LAYER
  5
216
100
AcDbSymbolTableRecord
100
AcDbLayerTableRecord
  2
ROUND_FEATURES
 70
0
 62
7
  6
CONTINUOUS
370
-3
390
F
  0
LAYER
  5
217
100
AcDbSymbolTableRecord
100
AcDbLayerTableRecord
  2
SHELL_FEATURES
 70
0
 62
7
  6
CONTINUOUS
370
-3
390
F
  0
LAYER
  5
218
100
AcDbSymbolTableRecord
100
AcDbLayerTableRecord
  2
SIZE_REF
 70
0
 62
7
  6
CONTINUOUS
370
-3
390
F
  0
LAYER
  5
219
100
AcDbSymbolTableRecord
100
AcDbLayerTableRecord
  2
SURFACE_FEATURES
 70
0
 62
7
  6
CONTINUOUS
370
-3
390
F
  0
ENDTAB
  0
TABLE
  2
STYLE
  5
3
100
AcDbSymbolTable
 70
1
  0
STYLE
  5
11
100
AcDbSymbolTableRecord
100
AcDbTextStyleTableRecord
  2
STANDARD
 70
0
 40
0.0
 41
0.8
 50
0.0
 71
0
 42
0.2
  3
txt
  4

  0
STYLE
  5
21A
100
AcDbSymbolTableRecord
100
AcDbTextStyleTableRecord
  2
TEXTSTYLE_1
 70
0
 40
0.0
 41
0.8
 50
0.0
 71
0
 42
0.2
  3
gdt
  4

  0
ENDTAB
  0
TABLE
  2
VIEW
  5
6
100
AcDbSymbolTable
 70
0
  0
ENDTAB
  0
TABLE
  2
UCS
  5
7
100
AcDbSymbolTable
 70
0
  0
ENDTAB
  0
TABLE
  2
APPID
  5
9
100
AcDbSymbolTable
 70
1
  0
APPID
  5
21B
100
AcDbSymbolTableRecord
100
AcDbRegAppTableRecord
  2
ACAD
 70
0
  0
ENDTAB
  0
TABLE
  2
BLOCK_RECORD
  5
1
100
AcDbSymbolTable
 70
0
  0
BLOCK_RECORD
  5
21C
100
AcDbSymbolTableRecord
100
AcDbBlockTableRecord
  2
*Model_Space
  0
BLOCK_RECORD
  5
21D
100
AcDbSymbolTableRecord
100
AcDbBlockTableRecord
  2
*Paper_Space
  0
ENDTAB
  0
TABLE
  2
DIMSTYLE
  5
A
100
AcDbSymbolTable
 70
1
100
AcDbDimStyleTable
 71
0
  0
DIMSTYLE
105
21E
100
AcDbSymbolTableRecord
100
AcDbDimStyleTableRecord
  2
STANDARD
 70
0
  3

  4

 40
1.0
 41
0.1
 42
0.0625
 43
0.38
 44
0.125
 45
0.0
 46
0.0
 47
0.001
 48
0.001
140
0.08
141
0.09
142
0.0
143
25.4
144
1.0
145
0.0
146
1.0
147
0.09
 71
1.0
 72
0.0
 73
1
 74
1
 75
0
 76
0
 77
0
 78
4
170
0
171
2
172
0
173
0
174
0
175
0
176
0
177
0
178
0
270
2
271
3
272
3
273
2
274
2
275
0
280
0
281
0
282
0
283
1
284
4
285
0
286
0
287
3
288
0
340
11
278
46
  0
ENDTAB
  0
ENDSEC
  0
SECTION
  2
BLOCKS
  0
BLOCK
  5
20
100
AcDbEntity
  8
0
100
AcDbBlockBegin
  2
*Model_Space
 70
0
 10
0.0
 20
0.0
 30
0.0
  3
*Model_Space
  1

  0
ENDBLK
  5
21
100
AcDbEntity
  8
0
100
AcDbBlockEnd
  0
BLOCK
  5
1C
100
AcDbEntity
  8
0
100
AcDbBlockBegin
  2
*Paper_Space
 70
0
 10
0.0
 20
0.0
 30
0.0
  3
*Paper_Space
  1

  0
ENDBLK
  5
1D
100
AcDbEntity
  8
0
100
AcDbBlockEnd
  0
ENDSEC
  0
SECTION
  2
ENTITIES
  0
LINE
  5
21F
100
AcDbEntity
  8
0
100
AcDbLine
 62
7
  6
CONTINUOUS
 10
0.0
 20
0.0
 11
0.0
 21
8.5
  0
LINE
  5
220
100
AcDbEntity
  8
0
100
AcDbLine
 62
7
  6
CONTINUOUS
 10
0.0
 20
0.0
 11
11.0
 21
0.0
  0
LINE
  5
221
100
AcDbEntity
  8
0
100
AcDbLine
 62
7
  6
CONTINUOUS
 10
0.0
 20
8.5
 11
11.0
 21
8.5
  0
LINE
  5
222
100
AcDbEntity
  8
0
100
AcDbLine
 62
7
  6
CONTINUOUS
 10
11.0
 20
0.0
 11
11.0
 21
8.5
  0
LINE
  5
223
100
AcDbEntity
  8
0
100
AcDbLine
 62
9
  6
CONTINUOUS
 10
4.1314762254
 20
1.7095027497
 11
4.4618472858
 21
1.7095027497
  0
LINE
  5
224
100
AcDbEntity
  8
0
100
AcDbLine
 62
9
  6
CONTINUOUS
 10
4.5312555021
 20
1.7270755947
 11
4.0620680091
 21
1.7270755947
  0
LINE
  5
225
100
AcDbEntity
  8
0
100
AcDbLine
 62
9
  6
CONTINUOUS
 10
4.5666617556
 20
1.7645170987
 11
4.0266617556
 21
1.7645170987
  0
LINE
  5
226
100
AcDbEntity
  8
0
100
AcDbLine
 62
9
  6
CONTINUOUS
 10
4.5666617556
 20
1.775743831
 11
4.0266617556
 21
1.775743831
  0
LINE
  5
227
100
AcDbEntity
  8
0
100
AcDbLine
 62
9
  6
CONTINUOUS
 10
4.5442269456
 20
1.8100846238
 11
4.0490965656
 21
1.8100846238
  0
LINE
  5
228
100
AcDbEntity
  8
0
100
AcDbLine
 62
9
  6
CONTINUOUS
 10
4.0668771068
 20
1.8343933342
 11
4.5264464044
 21
1.8343933342
  0
LINE
  5
229
100
AcDbEntity
  8
0
100
AcDbLine
 62
9
  6
CONTINUOUS
 10
4.4599064574
 20
2.2122864009
 11
4.1334170537
 21
2.2122864009
  0
LINE
  5
22A
100
AcDbEntity
  8
0
100
AcDbLine
 62
7
  6
CONTINUOUS
 10
4.4316617556
 20
2.2350572581
 11
4.1616617556
 21
2.2350572581
  0
LINE
  5
22B
100
AcDbEntity
  8
0
100
AcDbLine
 62
9
  6
CONTINUOUS
 10
4.4316617556
 20
2.3025572581
 11
4.1616617556
 21
2.3025572581
  0
LINE
  5
22C
100
AcDbEntity
  8
0
100
AcDbLine
 62
7
  6
CONTINUOUS
 10
4.159067924
 20
2.3100572581
 11
4.4342555872
 21
2.3100572581
  0
LINE
  5
22D
100
AcDbEntity
  8
0
100
AcDbLine
 62
7
  6
CONTINUOUS
 10
3.6647308067
 20
2.0329062453
 11
3.6714325332
 21
2.0249589254
  0
LINE
  5
22E
100
AcDbEntity
  8
0
100
AcDbLine
 62
7
  6
CONTINUOUS
 10
3.6724410466
 20
2.2091052315
 11
3.7154731219
 21
2.1580751465
  0
LINE
  5
22F
100
AcDbEntity
  8
0
100
AcDbLine
 62
7
  6
CONTINUOUS
 10
3.7791407708
 20
2.1079694822
 11
3.7685869347
 21
2.120484871
  0
LINE
  5
230
100
AcDbEntity
  8
0
100
AcDbLine
 62
7
  6
CONTINUOUS
 10
3.7426143721
 20
2.1512847353
 11
3.6849564354
 21
2.2196590676
  0
LINE
  5
231
100
AcDbEntity
  8
0
100
AcDbLine
 62
7
  6
CONTINUOUS
 10
3.6663622241
 20
2.0918714503
 11
3.6570830619
 21
2.105359058
  0
LINE
  5
232
100
AcDbEntity
  8
0
100
AcDbLine
 62
7
  6
CONTINUOUS
 10
5.1512019149
 20
2.3490572581
 11
5.1399751826
 21
2.3490572581
  0
LINE
  5
233
100
AcDbEntity
  8
0
100
AcDbLine
 62
7
  6
CONTINUOUS
 10
3.4421215963
 20
2.3490572581
 11
3.4533483286
 21
2.3490572581
  0
LINE
  5
234
100
AcDbEntity
  8
0
100
AcDbLine
 62
7
  6
CONTINUOUS
 10
4.6806617556
 20
2.4840572581
 11
4.6131617556
 21
2.4840572581
  0
LINE
  5
235
100
AcDbEntity
  8
0
100
AcDbLine
 62
7
  6
CONTINUOUS
 10
3.9801617556
 20
2.4840572581
 11
3.9126617556
 21
2.4840572581
  0
LINE
  5
236
100
AcDbEntity
  8
0
100
AcDbLine
 62
2
  6
CONTINUOUS
 10
5.1034274867
 20
2.8625224209
 11
5.0774704291
 21
2.8605613015
  0
LINE
  5
237
100
AcDbEntity
  8
0
100
AcDbLine
 62
2
  6
CONTINUOUS
 10
5.075338316
 20
2.8604002151
 11
5.0652560697
 21
2.8596384767
  0
LINE
  5
238
100
AcDbEntity
  8
0
100
AcDbLine
 62
7
  6
CONTINUOUS
 10
4.6806617556
 20
2.7540572581
 11
4.6131617556
 21
2.7540572581
  0
LINE
  5
239
100
AcDbEntity
  8
0
100
AcDbLine
 62
7
  6
CONTINUOUS
 10
3.9801617556
 20
2.7540572581
 11
3.9126617556
 21
2.7540572581
  0
LINE
  5
23A
100
AcDbEntity
  8
0
100
AcDbLine
 62
7
  6
CONTINUOUS
 10
3.4903228494
 20
2.8822474402
 11
3.5907111157
 21
2.8503223214
  0
LINE
  5
23B
100
AcDbEntity
  8
0
100
AcDbLine
 62
2
  6
CONTINUOUS
 10
3.4709171097
 20
2.8918676336
 11
3.4861560709
 21
2.886916195
  0
LINE
  5
23C
100
AcDbEntity
  8
0
100
AcDbLine
 62
7
  6
CONTINUOUS
 10
3.5957222251
 20
2.8657449301
 11
3.4668041084
 21
2.9076329654
  0
LINE
  5
23D
100
AcDbEntity
  8
0
100
AcDbLine
 62
7
  6
CONTINUOUS
 10
3.5229597332
 20
3.0214580259
 11
3.5078959291
 21
3.0263525525
  0
LINE
  5
23E
100
AcDbEntity
  8
0
100
AcDbLine
 62
7
  6
CONTINUOUS
 10
3.4871511061
 20
2.9625065521
 11
3.5490581988
 21
2.9286423813
  0
LINE
  5
23F
100
AcDbEntity
  8
0
100
AcDbLine
 62
2
  6
CONTINUOUS
 10
3.4968141265
 20
2.9922462711
 11
3.5109549257
 21
2.9845110276
  0
LINE
  5
240
100
AcDbEntity
  8
0
100
AcDbLine
 62
7
  6
CONTINUOUS
 10
3.538571201
 20
2.9520928634
 11
3.5063126509
 21
2.9702235749
  0
LINE
  5
241
100
AcDbEntity
  8
0
100
AcDbLine
 62
2
  6
CONTINUOUS
 10
3.5158831332
 20
2.9996784908
 11
3.5018007181
 21
3.007593422
  0
LINE
  5
242
100
AcDbEntity
  8
0
100
AcDbLine
 62
7
  6
CONTINUOUS
 10
4.9485138181
 20
2.0516549918
 11
4.9614883845
 21
2.0425701026
  0
LINE
  5
243
100
AcDbEntity
  8
0
100
AcDbLine
 62
2
  6
CONTINUOUS
 10
4.9357638181
 20
2.0936549918
 11
4.9406276601
 21
2.0902492929
  0
LINE
  5
244
100
AcDbEntity
  8
0
100
AcDbLine
 62
9
  6
CONTINUOUS
 10
3.3871072472
 20
2.7842427883
 11
3.3871072472
 21
2.4538717279
  0
LINE
  5
245
100
AcDbEntity
  8
0
100
AcDbLine
 62
9
  6
CONTINUOUS
 10
3.4046800922
 20
2.3844635116
 11
3.4046800922
 21
2.8536510046
  0
LINE
  5
246
100
AcDbEntity
  8
0
100
AcDbLine
 62
9
  6
CONTINUOUS
 10
3.4421215963
 20
2.3490572581
 11
3.4421215963
 21
2.8890572581
  0
LINE
  5
247
100
AcDbEntity
  8
0
100
AcDbLine
 62
9
  6
CONTINUOUS
 10
3.4533483286
 20
2.3490572581
 11
3.4533483286
 21
2.8890572581
  0
LINE
  5
248
100
AcDbEntity
  8
0
100
AcDbLine
 62
9
  6
CONTINUOUS
 10
3.4876891213
 20
2.371492068
 11
3.4876891213
 21
2.8666224481
  0
LINE
  5
249
100
AcDbEntity
  8
0
100
AcDbLine
 62
9
  6
CONTINUOUS
 10
3.5119978317
 20
2.8488419069
 11
3.5119978317
 21
2.3892726093
  0
LINE
  5
24A
100
AcDbEntity
  8
0
100
AcDbLine
 62
7
  6
CONTINUOUS
 10
5.1512019149
 20
2.8890572581
 11
5.1399751826
 21
2.8890572581
  0
LINE
  5
24B
100
AcDbEntity
  8
0
100
AcDbLine
 62
7
  6
CONTINUOUS
 10
3.4533483286
 20
2.8890572581
 11
3.4421215963
 21
2.8890572581
  0
LINE
  5
24C
100
AcDbEntity
  8
0
100
AcDbLine
 62
7
  6
CONTINUOUS
 10
4.4342555872
 20
2.9280572581
 11
4.159067924
 21
2.9280572581
  0
LINE
  5
24D
100
AcDbEntity
  8
0
100
AcDbLine
 62
9
  6
CONTINUOUS
 10
4.1616617556
 20
2.9355572581
 11
4.4316617556
 21
2.9355572581
  0
LINE
  5
24E
100
AcDbEntity
  8
0
100
AcDbLine
 62
7
  6
CONTINUOUS
 10
4.1616617556
 20
3.0030572581
 11
4.4316617556
 21
3.0030572581
  0
LINE
  5
24F
100
AcDbEntity
  8
0
100
AcDbLine
 62
9
  6
CONTINUOUS
 10
4.1334170537
 20
3.0258281152
 11
4.4599064574
 21
3.0258281152
  0
LINE
  5
250
100
AcDbEntity
  8
0
100
AcDbLine
 62
7
  6
CONTINUOUS
 10
5.0081005795
 20
2.1314555787
 11
5.0186612723
 21
2.124060902
  0
LINE
  5
251
100
AcDbEntity
  8
0
100
AcDbLine
 62
2
  6
CONTINUOUS
 10
4.9953505795
 20
2.1734555787
 11
5.0059112723
 21
2.166060902
  0
LINE
  5
252
100
AcDbEntity
  8
0
100
AcDbLine
 62
7
  6
CONTINUOUS
 10
5.0687866119
 20
2.1956473059
 11
5.0557366134
 21
2.2047850132
  0
LINE
  5
253
100
AcDbEntity
  8
0
100
AcDbLine
 62
7
  6
CONTINUOUS
 10
3.786177831
 20
3.2823900242
 11
3.8425703849
 21
3.2075545775
  0
LINE
  5
254
100
AcDbEntity
  8
0
100
AcDbLine
 62
7
  6
CONTINUOUS
 10
3.5791868887
 20
2.9340547154
 11
3.5752098819
 21
2.9170467318
  0
LINE
  5
255
100
AcDbEntity
  8
0
100
AcDbLine
 62
7
  6
CONTINUOUS
 10
3.4668041084
 20
2.9076329654
 11
3.463503151
 21
2.897473663
  0
LINE
  5
256
100
AcDbEntity
  8
0
100
AcDbLine
 62
7
  6
CONTINUOUS
 10
3.5078959291
 20
3.0263525525
 11
3.4871511061
 21
2.9625065521
  0
LINE
  5
257
100
AcDbEntity
  8
0
100
AcDbLine
 62
7
  6
CONTINUOUS
 10
3.5063126509
 20
2.9702235749
 11
3.5229597332
 21
3.0214580259
  0
LINE
  5
258
100
AcDbEntity
  8
0
100
AcDbLine
 62
7
  6
CONTINUOUS
 10
4.9999935122
 20
2.097561124
 11
4.9506923949
 21
2.1480454804
  0
LINE
  5
259
100
AcDbEntity
  8
0
100
AcDbLine
 62
7
  6
CONTINUOUS
 10
4.9538466993
 20
2.1243384204
 11
4.9787384538
 21
2.0948202449
  0
LINE
  5
25A
100
AcDbEntity
  8
0
100
AcDbLine
 62
7
  6
CONTINUOUS
 10
3.8567938418
 20
3.217339987
 11
3.7996174746
 21
3.2916361883
  0
LINE
  5
25B
100
AcDbEntity
  8
0
100
AcDbLine
 62
2
  6
CONTINUOUS
 10
3.7986557346
 20
3.2909114653
 11
3.8298203849
 21
3.2495545775
  0
LINE
  5
25C
100
AcDbEntity
  8
0
100
AcDbLine
 62
9
  6
CONTINUOUS
 10
3.8898908984
 20
2.4558125562
 11
3.8898908984
 21
2.7823019599
  0
LINE
  5
25D
100
AcDbEntity
  8
0
100
AcDbLine
 62
7
  6
CONTINUOUS
 10
3.9126617556
 20
2.4840572581
 11
3.9126617556
 21
2.7540572581
  0
LINE
  5
25E
100
AcDbEntity
  8
0
100
AcDbLine
 62
9
  6
CONTINUOUS
 10
3.9801617556
 20
2.4840572581
 11
3.9801617556
 21
2.7540572581
  0
LINE
  5
25F
100
AcDbEntity
  8
0
100
AcDbLine
 62
7
  6
CONTINUOUS
 10
3.9876617556
 20
2.7566510897
 11
3.9876617556
 21
2.4814634264
  0
LINE
  5
260
100
AcDbEntity
  8
0
100
AcDbLine
 62
7
  6
CONTINUOUS
 10
4.0266617556
 20
4.156243831
 11
4.0266617556
 21
4.1450170987
  0
LINE
  5
261
100
AcDbEntity
  8
0
100
AcDbLine
 62
7
  6
CONTINUOUS
 10
4.0266617556
 20
3.4735974174
 11
4.0266617556
 21
3.4623706851
  0
LINE
  5
262
100
AcDbEntity
  8
0
100
AcDbLine
 62
7
  6
CONTINUOUS
 10
4.0266617556
 20
1.775743831
 11
4.0266617556
 21
1.7645170987
  0
LINE
  5
263
100
AcDbEntity
  8
0
100
AcDbLine
 62
7
  6
CONTINUOUS
 10
3.5907111157
 20
2.8503223214
 11
3.5957222251
 21
2.8657449301
  0
LINE
  5
264
100
AcDbEntity
  8
0
100
AcDbLine
 62
2
  6
CONTINUOUS
 10
3.5367201133
 20
2.9715092109
 11
3.5430441187
 21
2.9848173984
  0
LINE
  5
265
100
AcDbEntity
  8
0
100
AcDbLine
 62
7
  6
CONTINUOUS
 10
3.5490581988
 20
2.9286423813
 11
3.5557941187
 21
2.9428173984
  0
LINE
  5
266
100
AcDbEntity
  8
0
100
AcDbLine
 62
9
  6
CONTINUOUS
 10
4.5264464044
 20
3.4037211819
 11
4.0668771068
 21
3.4037211819
  0
LINE
  5
267
100
AcDbEntity
  8
0
100
AcDbLine
 62
9
  6
CONTINUOUS
 10
4.0490965656
 20
3.4280298923
 11
4.5442269456
 21
3.4280298923
  0
LINE
  5
268
100
AcDbEntity
  8
0
100
AcDbLine
 62
9
  6
CONTINUOUS
 10
4.0266617556
 20
3.4623706851
 11
4.5666617556
 21
3.4623706851
  0
LINE
  5
269
100
AcDbEntity
  8
0
100
AcDbLine
 62
9
  6
CONTINUOUS
 10
4.0266617556
 20
3.4735974174
 11
4.5666617556
 21
3.4735974174
  0
LINE
  5
26A
100
AcDbEntity
  8
0
100
AcDbLine
 62
9
  6
CONTINUOUS
 10
4.0620680091
 20
3.5110389214
 11
4.5312555021
 21
3.5110389214
  0
LINE
  5
26B
100
AcDbEntity
  8
0
100
AcDbLine
 62
9
  6
CONTINUOUS
 10
4.4618472858
 20
3.5286117665
 11
4.1314762254
 21
3.5286117665
  0
LINE
  5
26C
100
AcDbEntity
  8
0
100
AcDbLine
 62
7
  6
CONTINUOUS
 10
4.1616617556
 20
4.6830572581
 11
4.1616617556
 21
4.6155572581
  0
LINE
  5
26D
100
AcDbEntity
  8
0
100
AcDbLine
 62
7
  6
CONTINUOUS
 10
4.1616617556
 20
3.0030572581
 11
4.1616617556
 21
2.9355572581
  0
LINE
  5
26E
100
AcDbEntity
  8
0
100
AcDbLine
 62
7
  6
CONTINUOUS
 10
4.1616617556
 20
2.3025572581
 11
4.1616617556
 21
2.2350572581
  0
LINE
  5
26F
100
AcDbEntity
  8
0
100
AcDbLine
 62
7
  6
CONTINUOUS
 10
4.7671821253
 20
3.1935660263
 11
4.7801091253
 21
3.1827189853
  0
LINE
  5
270
100
AcDbEntity
  8
0
100
AcDbLine
 62
7
  6
CONTINUOUS
 10
4.8403704637
 20
3.2545356519
 11
4.8274434637
 21
3.2653826928
  0
LINE
  5
271
100
AcDbEntity
  8
0
100
AcDbLine
 62
7
  6
CONTINUOUS
 10
4.4316617556
 20
4.6830572581
 11
4.4316617556
 21
4.6155572581
  0
LINE
  5
272
100
AcDbEntity
  8
0
100
AcDbLine
 62
7
  6
CONTINUOUS
 10
4.4316617556
 20
3.0030572581
 11
4.4316617556
 21
2.9355572581
  0
LINE
  5
273
100
AcDbEntity
  8
0
100
AcDbLine
 62
7
  6
CONTINUOUS
 10
4.4316617556
 20
2.3025572581
 11
4.4316617556
 21
2.2350572581
  0
LINE
  5
274
100
AcDbEntity
  8
0
100
AcDbLine
 62
7
  6
CONTINUOUS
 10
4.5666617556
 20
3.4735974174
 11
4.5666617556
 21
3.4623706851
  0
LINE
  5
275
100
AcDbEntity
  8
0
100
AcDbLine
 62
7
  6
CONTINUOUS
 10
4.5666617556
 20
1.7645170987
 11
4.5666617556
 21
1.775743831
  0
LINE
  5
276
100
AcDbEntity
  8
0
100
AcDbLine
 62
7
  6
CONTINUOUS
 10
4.5666617556
 20
4.1450170987
 11
4.5666617556
 21
4.156243831
  0
LINE
  5
277
100
AcDbEntity
  8
0
100
AcDbLine
 62
7
  6
CONTINUOUS
 10
3.7996174746
 20
3.2916361883
 11
3.786177831
 21
3.2823900242
  0
LINE
  5
278
100
AcDbEntity
  8
0
100
AcDbLine
 62
2
  6
CONTINUOUS
 10
3.8298203849
 20
3.2495545775
 11
3.8312470237
 21
3.2505360719
  0
LINE
  5
279
100
AcDbEntity
  8
0
100
AcDbLine
 62
7
  6
CONTINUOUS
 10
3.8425703849
 20
3.2075545775
 11
3.8567938418
 21
3.217339987
  0
LINE
  5
27A
100
AcDbEntity
  8
0
100
AcDbLine
 62
7
  6
CONTINUOUS
 10
4.6056617556
 20
2.4814634264
 11
4.6056617556
 21
2.7566510897
  0
LINE
  5
27B
100
AcDbEntity
  8
0
100
AcDbLine
 62
9
  6
CONTINUOUS
 10
4.6131617556
 20
2.7540572581
 11
4.6131617556
 21
2.4840572581
  0
LINE
  5
27C
100
AcDbEntity
  8
0
100
AcDbLine
 62
7
  6
CONTINUOUS
 10
4.6806617556
 20
2.7540572581
 11
4.6806617556
 21
2.4840572581
  0
LINE
  5
27D
100
AcDbEntity
  8
0
100
AcDbLine
 62
9
  6
CONTINUOUS
 10
4.7034326128
 20
2.7823019599
 11
4.7034326128
 21
2.4558125562
  0
LINE
  5
27E
100
AcDbEntity
  8
0
100
AcDbLine
 62
9
  6
CONTINUOUS
 10
4.1314762254
 20
4.0900027497
 11
4.4618472858
 21
4.0900027497
  0
LINE
  5
27F
100
AcDbEntity
  8
0
100
AcDbLine
 62
9
  6
CONTINUOUS
 10
4.5312555021
 20
4.1075755947
 11
4.0620680091
 21
4.1075755947
  0
LINE
  5
280
100
AcDbEntity
  8
0
100
AcDbLine
 62
9
  6
CONTINUOUS
 10
4.5666617556
 20
4.1450170987
 11
4.0266617556
 21
4.1450170987
  0
LINE
  5
281
100
AcDbEntity
  8
0
100
AcDbLine
 62
9
  6
CONTINUOUS
 10
4.5666617556
 20
4.156243831
 11
4.0266617556
 21
4.156243831
  0
LINE
  5
282
100
AcDbEntity
  8
0
100
AcDbLine
 62
9
  6
CONTINUOUS
 10
4.5442269456
 20
4.1905846238
 11
4.0490965656
 21
4.1905846238
  0
LINE
  5
283
100
AcDbEntity
  8
0
100
AcDbLine
 62
9
  6
CONTINUOUS
 10
4.0668771068
 20
4.2148933342
 11
4.5264464044
 21
4.2148933342
  0
LINE
  5
284
100
AcDbEntity
  8
0
100
AcDbLine
 62
2
  6
CONTINUOUS
 10
5.0410441349
 20
2.8442589236
 11
5.0407004054
 21
2.8451072094
  0
LINE
  5
285
100
AcDbEntity
  8
0
100
AcDbLine
 62
9
  6
CONTINUOUS
 10
5.0813256794
 20
2.3892726093
 11
5.0813256794
 21
2.8488419069
  0
LINE
  5
286
100
AcDbEntity
  8
0
100
AcDbLine
 62
7
  6
CONTINUOUS
 10
4.8274434637
 20
3.2653826928
 11
4.7671821253
 21
3.1935660263
  0
LINE
  5
287
100
AcDbEntity
  8
0
100
AcDbLine
 62
7
  6
CONTINUOUS
 10
4.7801091253
 20
3.1827189853
 11
4.8403704637
 21
3.2545356519
  0
LINE
  5
288
100
AcDbEntity
  8
0
100
AcDbLine
 62
2
  6
CONTINUOUS
 10
5.0652560697
 20
2.8596384767
 11
5.0669117179
 21
2.8472019761
  0
LINE
  5
289
100
AcDbEntity
  8
0
100
AcDbLine
 62
9
  6
CONTINUOUS
 10
5.1056343898
 20
2.8666224481
 11
5.1056343898
 21
2.371492068
  0
LINE
  5
28A
100
AcDbEntity
  8
0
100
AcDbLine
 62
9
  6
CONTINUOUS
 10
5.1399751826
 20
2.8890572581
 11
5.1399751826
 21
2.3490572581
  0
LINE
  5
28B
100
AcDbEntity
  8
0
100
AcDbLine
 62
9
  6
CONTINUOUS
 10
5.1512019149
 20
2.8890572581
 11
5.1512019149
 21
2.3490572581
  0
LINE
  5
28C
100
AcDbEntity
  8
0
100
AcDbLine
 62
9
  6
CONTINUOUS
 10
5.188643419
 20
2.8536510046
 11
5.188643419
 21
2.3844635116
  0
LINE
  5
28D
100
AcDbEntity
  8
0
100
AcDbLine
 62
9
  6
CONTINUOUS
 10
5.206216264
 20
2.4538717279
 11
5.206216264
 21
2.7842427883
  0
LINE
  5
28E
100
AcDbEntity
  8
0
100
AcDbLine
 62
7
  6
CONTINUOUS
 10
3.6849564354
 20
2.2196590676
 11
3.6724410466
 21
2.2091052315
  0
LINE
  5
28F
100
AcDbEntity
  8
0
100
AcDbLine
 62
2
  6
CONTINUOUS
 10
3.7425897497
 20
2.1513139341
 11
3.7400766519
 21
2.1491947173
  0
LINE
  5
290
100
AcDbEntity
  8
0
100
AcDbLine
 62
7
  6
CONTINUOUS
 10
3.7685869347
 20
2.120484871
 11
3.6647308067
 21
2.0329062453
  0
LINE
  5
291
100
AcDbEntity
  8
0
100
AcDbLine
 62
2
  6
CONTINUOUS
 10
3.7096098302
 20
2.0586962619
 11
3.7221252189
 21
2.069250098
  0
LINE
  5
292
100
AcDbEntity
  8
0
100
AcDbLine
 62
7
  6
CONTINUOUS
 10
3.6981432975
 20
2.0396668454
 11
3.7791407708
 21
2.1079694822
  0
LINE
  5
293
100
AcDbEntity
  8
0
100
AcDbLine
 62
7
  6
CONTINUOUS
 10
3.7223598302
 20
2.0166962619
 11
3.7348752189
 21
2.027250098
  0
LINE
  5
294
100
AcDbEntity
  8
0
100
AcDbLine
 62
9
  6
CONTINUOUS
 10
4.4599064574
 20
4.5927864009
 11
4.1334170537
 21
4.5927864009
  0
LINE
  5
295
100
AcDbEntity
  8
0
100
AcDbLine
 62
7
  6
CONTINUOUS
 10
4.4316617556
 20
4.6155572581
 11
4.1616617556
 21
4.6155572581
  0
LINE
  5
296
100
AcDbEntity
  8
0
100
AcDbLine
 62
9
  6
CONTINUOUS
 10
4.4316617556
 20
4.6830572581
 11
4.1616617556
 21
4.6830572581
  0
LINE
  5
297
100
AcDbEntity
  8
0
100
AcDbLine
 62
7
  6
CONTINUOUS
 10
4.1242358686
 20
4.6905572581
 11
4.4690876426
 21
4.6905572581
  0
LINE
  5
298
100
AcDbEntity
  8
0
100
AcDbLine
 62
7
  6
CONTINUOUS
 10
4.9202977721
 20
2.151678416
 11
4.9290736512
 21
2.1667804608
  0
LINE
  5
299
100
AcDbEntity
  8
0
100
AcDbLine
 62
7
  6
CONTINUOUS
 10
4.9488064043
 20
2.2566126923
 11
4.939034869
 21
2.2426574937
  0
LINE
  5
29A
100
AcDbEntity
  8
0
100
AcDbLine
 62
2
  6
CONTINUOUS
 10
4.9641786396
 20
2.1342355624
 11
4.9557052992
 21
2.1221343782
  0
LINE
  5
29B
100
AcDbEntity
  8
0
100
AcDbLine
 62
2
  6
CONTINUOUS
 10
4.9537579068
 20
2.1193532136
 11
4.9357638181
 21
2.0936549918
  0
LINE
  5
29C
100
AcDbEntity
  8
0
100
AcDbLine
 62
2
  6
CONTINUOUS
 10
4.9662693347
 20
2.1096068942
 11
4.9754399857
 21
2.1227039412
  0
LINE
  5
29D
100
AcDbEntity
  8
0
100
AcDbLine
 62
2
  6
CONTINUOUS
 10
5.0059112723
 20
2.166060902
 11
5.0106105281
 21
2.1727721348
  0
LINE
  5
29E
100
AcDbEntity
  8
0
100
AcDbLine
 62
7
  6
CONTINUOUS
 10
5.0557366134
 20
2.2047850132
 11
5.0178124927
 21
2.1506237557
  0
LINE
  5
29F
100
AcDbEntity
  8
0
100
AcDbLine
 62
7
  6
CONTINUOUS
 10
4.9787384538
 20
2.0948202449
 11
4.9485138181
 21
2.0516549918
  0
LINE
  5
2A0
100
AcDbEntity
  8
0
100
AcDbLine
 62
7
  6
CONTINUOUS
 10
4.9614883845
 20
2.0425701026
 11
4.9999935122
 21
2.097561124
  0
LINE
  5
2A1
100
AcDbEntity
  8
0
100
AcDbLine
 62
7
  6
CONTINUOUS
 10
5.0186612723
 20
2.124060902
 11
5.0687866119
 21
2.1956473059
  0
LINE
  5
2A2
100
AcDbEntity
  8
0
100
AcDbLine
 62
7
  6
CONTINUOUS
 10
4.9506923949
 20
2.1480454804
 11
4.9401064288
 21
2.1364592366
  0
ARC
  5
2A3
100
AcDbEntity
  8
0
100
AcDbCircle
 62
7
  6
CONTINUOUS
 10
1.74454776
 20
1.5393574343
 40
2.7975
100
AcDbArc
 50
6.0539076486
 51
13.9188002726
  0
ARC
  5
2A4
100
AcDbEntity
  8
0
100
AcDbCircle
 62
7
  6
CONTINUOUS
 10
3.2169619318
 20
0.0669432625
 40
2.7975
100
AcDbArc
 50
76.0811997274
 51
83.9460923514
  0
ARC
  5
2A5
100
AcDbEntity
  8
0
100
AcDbCircle
 62
7
  6
CONTINUOUS
 10
3.5648565446
 20
1.4957486529
 40
0.6758103868
100
AcDbArc
 50
80.2966975556
 51
80.5871453607
  0
ARC
  5
2A6
100
AcDbEntity
  8
0
100
AcDbCircle
 62
7
  6
CONTINUOUS
 10
3.6016880632
 20
1.7194568293
 40
0.4335782288
100
AcDbArc
 50
79.3205657631
 51
80.9329286498
  0
ARC
  5
2A7
100
AcDbEntity
  8
0
100
AcDbCircle
 62
7
  6
CONTINUOUS
 10
3.6723018268
 20
1.9101342721
 40
0.1177338583
100
AcDbArc
 50
64.8379848673
 51
68.8334212844
  0
ARC
  5
2A8
100
AcDbEntity
  8
0
100
AcDbCircle
 62
7
  6
CONTINUOUS
 10
3.6778106928
 20
1.9240742229
 40
0.1027452794
100
AcDbArc
 50
68.8912835736
 51
72.7738714017
  0
ARC
  5
2A9
100
AcDbEntity
  8
0
100
AcDbCircle
 62
7
  6
CONTINUOUS
 10
3.6799937347
 20
1.9307927539
 40
0.0956816724
100
AcDbArc
 50
72.8310391417
 51
73.1518383524
  0
ARC
  5
2AA
100
AcDbEntity
  8
0
100
AcDbCircle
 62
7
  6
CONTINUOUS
 10
3.6838759414
 20
1.9457535727
 40
0.095124215
100
AcDbArc
 50
74.3940530074
 51
75.7030467656
  0
ARC
  5
2AB
100
AcDbEntity
  8
0
100
AcDbCircle
 62
7
  6
CONTINUOUS
 10
3.6893585312
 20
1.9440398626
 40
0.0948886171
100
AcDbArc
 50
64.4838434844
 51
66.8875852131
  0
ARC
  5
2AC
100
AcDbEntity
  8
0
100
AcDbCircle
 62
7
  6
CONTINUOUS
 10
3.6812086129
 20
1.9349006732
 40
0.0913979689
100
AcDbArc
 50
73.1343524025
 51
77.4730777989
  0
ARC
  5
2AD
100
AcDbEntity
  8
0
100
AcDbCircle
 62
7
  6
CONTINUOUS
 10
3.6829010167
 20
1.942240329
 40
0.0838659815
100
AcDbArc
 50
77.5141750521
 51
81.8981142329
  0
ARC
  5
2AE
100
AcDbEntity
  8
0
100
AcDbCircle
 62
7
  6
CONTINUOUS
 10
3.6879853439
 20
1.9621802187
 40
0.0781913
100
AcDbArc
 50
75.8240555273
 51
78.6994581838
  0
ARC
  5
2AF
100
AcDbEntity
  8
0
100
AcDbCircle
 62
7
  6
CONTINUOUS
 10
3.6898842931
 20
1.9714192974
 40
0.0687592368
100
AcDbArc
 50
78.8652573386
 51
79.8124360604
  0
ARC
  5
2B0
100
AcDbEntity
  8
0
100
AcDbCircle
 62
7
  6
CONTINUOUS
 10
3.6913146462
 20
1.9796789801
 40
0.0603768113
100
AcDbArc
 50
79.762048461
 51
82.759031886
  0
ARC
  5
2B1
100
AcDbEntity
  8
0
100
AcDbCircle
 62
7
  6
CONTINUOUS
 10
3.6924319602
 20
1.9881118734
 40
0.0518703625
100
AcDbArc
 50
82.8092904808
 51
83.6784637756
  0
ARC
  5
2B2
100
AcDbEntity
  8
0
100
AcDbCircle
 62
7
  6
CONTINUOUS
 10
3.6808905907
 20
1.9851007286
 40
0.0409649936
100
AcDbArc
 50
98.8718534706
 51
103.3489725144
  0
ARC
  5
2B3
100
AcDbEntity
  8
0
100
AcDbCircle
 62
7
  6
CONTINUOUS
 10
3.4376667499
 20
2.4099149473
 40
0.2700978352
100
AcDbArc
 50
310.1253119417
 51
311.3474895633
  0
ARC
  5
2B4
100
AcDbEntity
  8
0
100
AcDbCircle
 62
7
  6
CONTINUOUS
 10
3.2174725719
 20
2.373994779
 40
0.1875
100
AcDbArc
 50
3.2006734286
 51
25.2146348188
  0
ARC
  5
2B5
100
AcDbEntity
  8
0
100
AcDbCircle
 62
7
  6
CONTINUOUS
 10
3.4421215963
 20
2.3865572581
 40
0.0375
100
AcDbArc
 50
183.2006734286
 51
270.0
  0
ARC
  5
2B6
100
AcDbEntity
  8
0
100
AcDbCircle
 62
7
  6
CONTINUOUS
 10
3.6135594819
 20
2.1849772078
 40
0.0859506077
100
AcDbArc
 50
144.435028236
 51
148.6727869761
  0
ARC
  5
2B7
100
AcDbEntity
  8
0
100
AcDbCircle
 62
7
  6
CONTINUOUS
 10
3.6088756256
 20
2.1873936246
 40
0.0807534601
100
AcDbArc
 50
140.0707679864
 51
140.9311018261
  0
ARC
  5
2B8
100
AcDbEntity
  8
0
100
AcDbCircle
 62
7
  6
CONTINUOUS
 10
3.5669263694
 20
2.2281873788
 40
0.063237015
100
AcDbArc
 50
286.6169475645
 51
291.4591519382
  0
ARC
  5
2B9
100
AcDbEntity
  8
0
100
AcDbCircle
 62
7
  6
CONTINUOUS
 10
3.5683142037
 20
2.2236433603
 40
0.0584858901
100
AcDbArc
 50
285.8093533705
 51
286.5871520773
  0
ARC
  5
2BA
100
AcDbEntity
  8
0
100
AcDbCircle
 62
7
  6
CONTINUOUS
 10
3.5852899848
 20
2.1996564766
 40
0.0540194059
100
AcDbArc
 50
160.4529070352
 51
161.9070543748
  0
ARC
  5
2BB
100
AcDbEntity
  8
0
100
AcDbCircle
 62
7
  6
CONTINUOUS
 10
3.5838352516
 20
2.2001343694
 40
0.0524881894
100
AcDbArc
 50
161.9097635599
 51
162.8252200134
  0
ARC
  5
2BC
100
AcDbEntity
  8
0
100
AcDbCircle
 62
7
  6
CONTINUOUS
 10
3.6118320471
 20
2.2394692603
 40
0.045583916
100
AcDbArc
 50
46.0162245165
 51
48.1112335409
  0
ARC
  5
2BD
100
AcDbEntity
  8
0
100
AcDbCircle
 62
7
  6
CONTINUOUS
 10
3.5756646133
 20
2.2087944173
 40
0.0448060369
100
AcDbArc
 50
213.4819215
 51
214.721558005
  0
ARC
  5
2BE
100
AcDbEntity
  8
0
100
AcDbCircle
 62
7
  6
CONTINUOUS
 10
3.574969397
 20
2.2083324715
 40
0.0439713415
100
AcDbArc
 50
212.9564903184
 51
213.4796310315
  0
ARC
  5
2BF
100
AcDbEntity
  8
0
100
AcDbCircle
 62
7
  6
CONTINUOUS
 10
3.5742519204
 20
2.2078697542
 40
0.0431175992
100
AcDbArc
 50
211.5842092956
 51
212.9592144676
  0
ARC
  5
2C0
100
AcDbEntity
  8
0
100
AcDbCircle
 62
7
  6
CONTINUOUS
 10
3.5735575225
 20
2.2074403679
 40
0.0423011701
100
AcDbArc
 50
211.0761348993
 51
211.5813782152
  0
ARC
  5
2C1
100
AcDbEntity
  8
0
100
AcDbCircle
 62
7
  6
CONTINUOUS
 10
3.5729806486
 20
2.2070940801
 40
0.0416283422
100
AcDbArc
 50
209.950188942
 51
211.0777582471
  0
ARC
  5
2C2
100
AcDbEntity
  8
0
100
AcDbCircle
 62
7
  6
CONTINUOUS
 10
3.5707267142
 20
2.2069261297
 40
0.0414997425
100
AcDbArc
 50
259.7928994463
 51
261.4271504416
  0
ARC
  5
2C3
100
AcDbEntity
  8
0
100
AcDbCircle
 62
7
  6
CONTINUOUS
 10
3.5723281319
 20
2.2067171659
 40
0.0408747896
100
AcDbArc
 50
209.1742179623
 51
209.9490479052
  0
ARC
  5
2C4
100
AcDbEntity
  8
0
100
AcDbCircle
 62
7
  6
CONTINUOUS
 10
3.572359516
 20
2.2036357738
 40
0.040490277
100
AcDbArc
 50
162.7638487154
 51
168.4466900238
  0
ARC
  5
2C5
100
AcDbEntity
  8
0
100
AcDbCircle
 62
7
  6
CONTINUOUS
 10
3.571711059
 20
2.2063739145
 40
0.0401686739
100
AcDbArc
 50
207.7229386095
 51
209.1757805391
  0
ARC
  5
2C6
100
AcDbEntity
  8
0
100
AcDbCircle
 62
7
  6
CONTINUOUS
 10
3.5712351793
 20
2.2061219826
 40
0.0396302239
100
AcDbArc
 50
207.309834795
 51
207.7205756369
  0
ARC
  5
2C7
100
AcDbEntity
  8
0
100
AcDbCircle
 62
7
  6
CONTINUOUS
 10
3.5701980087
 20
2.2055988085
 40
0.038468626
100
AcDbArc
 50
203.536009412
 51
207.3262120176
  0
ARC
  5
2C8
100
AcDbEntity
  8
0
100
AcDbCircle
 62
7
  6
CONTINUOUS
 10
3.5685271599
 20
2.2048673144
 40
0.0366446724
100
AcDbArc
 50
197.6611886186
 51
203.5306490997
  0
ARC
  5
2C9
100
AcDbEntity
  8
0
100
AcDbCircle
 62
7
  6
CONTINUOUS
 10
3.5835145215
 20
2.2009710228
 40
0.036539418
100
AcDbArc
 50
165.2860770734
 51
167.7430564826
  0
ARC
  5
2CA
100
AcDbEntity
  8
0
100
AcDbCircle
 62
7
  6
CONTINUOUS
 10
3.5683273736
 20
2.2046560374
 40
0.0363966823
100
AcDbArc
 50
190.0620376256
 51
191.8689892707
  0
ARC
  5
2CB
100
AcDbEntity
  8
0
100
AcDbCircle
 62
7
  6
CONTINUOUS
 10
3.5672497304
 20
2.2044382612
 40
0.0352972887
100
AcDbArc
 50
191.8828251001
 51
197.6266553587
  0
ARC
  5
2CC
100
AcDbEntity
  8
0
100
AcDbCircle
 62
7
  6
CONTINUOUS
 10
3.5804699056
 20
2.2016211298
 40
0.0334261896
100
AcDbArc
 50
167.7240778473
 51
171.2950507388
  0
ARC
  5
2CD
100
AcDbEntity
  8
0
100
AcDbCircle
 62
7
  6
CONTINUOUS
 10
3.5689961096
 20
2.1973109512
 40
0.0317300624
100
AcDbArc
 50
257.7201818591
 51
259.7917099655
  0
ARC
  5
2CE
100
AcDbEntity
  8
0
100
AcDbCircle
 62
2
  6
CONTINUOUS
 10
3.5562221518
 20
2.2392288556
 40
0.0316446121
100
AcDbArc
 50
252.8782458736
 51
254.4536571175
  0
ARC
  5
2CF
100
AcDbEntity
  8
0
100
AcDbCircle
 62
7
  6
CONTINUOUS
 10
3.6763939675
 20
2.1226718169
 40
0.1743384341
100
AcDbArc
 50
132.8425429213
 51
133.789817904
  0
ARC
  5
2D0
100
AcDbEntity
  8
0
100
AcDbCircle
 62
7
  6
CONTINUOUS
 10
3.6668012801
 20
2.1327216796
 40
0.160445327
100
AcDbArc
 50
133.8004791363
 51
133.9911879376
  0
ARC
  5
2D1
100
AcDbEntity
  8
0
100
AcDbCircle
 62
7
  6
CONTINUOUS
 10
3.6641086793
 20
2.1455651405
 40
0.1488956584
100
AcDbArc
 50
124.7681233702
 51
126.0313523519
  0
ARC
  5
2D2
100
AcDbEntity
  8
0
100
AcDbCircle
 62
7
  6
CONTINUOUS
 10
3.6533900822
 20
2.146479305
 40
0.1412327637
100
AcDbArc
 50
133.9533321284
 51
136.0661505318
  0
ARC
  5
2D3
100
AcDbEntity
  8
0
100
AcDbCircle
 62
7
  6
CONTINUOUS
 10
3.6586336108
 20
2.1534088349
 40
0.1393301335
100
AcDbArc
 50
124.4048970257
 51
124.7579796359
  0
ARC
  5
2D4
100
AcDbEntity
  8
0
100
AcDbCircle
 62
7
  6
CONTINUOUS
 10
3.6414378353
 20
2.0760403504
 40
0.090200792
100
AcDbArc
 50
87.2119584344
 51
88.2654518675
  0
ARC
  5
2D5
100
AcDbEntity
  8
0
100
AcDbCircle
 62
2
  6
CONTINUOUS
 10
3.6313036374
 20
2.1416546612
 40
0.0503886383
100
AcDbArc
 50
98.2729893575
 51
99.316717363
  0
ARC
  5
2D6
100
AcDbEntity
  8
0
100
AcDbCircle
 62
2
  6
CONTINUOUS
 10
3.6307660584
 20
2.1448806823
 40
0.0471181443
100
AcDbArc
 50
99.3067201315
 51
101.1572711165
  0
ARC
  5
2D7
100
AcDbEntity
  8
0
100
AcDbCircle
 62
7
  6
CONTINUOUS
 10
3.6379483982
 20
2.1201745166
 40
0.0459161324
100
AcDbArc
 50
107.1204719317
 51
108.9487156628
  0
ARC
  5
2D8
100
AcDbEntity
  8
0
100
AcDbCircle
 62
7
  6
CONTINUOUS
 10
3.6442522537
 20
2.1041929098
 40
0.0458889121
100
AcDbArc
 50
93.2020176166
 51
94.0010714463
  0
ARC
  5
2D9
100
AcDbEntity
  8
0
100
AcDbCircle
 62
7
  6
CONTINUOUS
 10
3.6364914392
 20
2.1247787512
 40
0.0410870355
100
AcDbArc
 50
103.2020899066
 51
107.0688822443
  0
ARC
  5
2DA
100
AcDbEntity
  8
0
100
AcDbCircle
 62
7
  6
CONTINUOUS
 10
3.6354873021
 20
2.1258256547
 40
0.0396705831
100
AcDbArc
 50
136.6066448615
 51
139.1819242903
  0
ARC
  5
2DB
100
AcDbEntity
  8
0
100
AcDbCircle
 62
7
  6
CONTINUOUS
 10
3.6361009523
 20
2.128325139
 40
0.0392359059
100
AcDbArc
 50
173.5998050744
 51
176.8291843006
  0
ARC
  5
2DC
100
AcDbEntity
  8
0
100
AcDbCircle
 62
7
  6
CONTINUOUS
 10
3.6327545078
 20
2.135374948
 40
0.0386371867
100
AcDbArc
 50
305.1795984421
 51
309.0255445612
  0
ARC
  5
2DD
100
AcDbEntity
  8
0
100
AcDbCircle
 62
7
  6
CONTINUOUS
 10
3.6342050239
 20
2.1284178324
 40
0.0373377549
100
AcDbArc
 50
176.8102822395
 51
182.8398013452
  0
ARC
  5
2DE
100
AcDbEntity
  8
0
100
AcDbCircle
 62
7
  6
CONTINUOUS
 10
3.634198808
 20
2.1280141317
 40
0.0371874253
100
AcDbArc
 50
128.5689861246
 51
130.3899155771
  0
ARC
  5
2DF
100
AcDbEntity
  8
0
100
AcDbCircle
 62
7
  6
CONTINUOUS
 10
3.6409627387
 20
2.1172420423
 40
0.0346830415
100
AcDbArc
 50
259.6161188132
 51
261.5020771166
  0
ARC
  5
2E0
100
AcDbEntity
  8
0
100
AcDbCircle
 62
7
  6
CONTINUOUS
 10
3.6408514413
 20
2.1164782802
 40
0.0339112179
100
AcDbArc
 50
261.4973659725
 51
267.2436117635
  0
ARC
  5
2E1
100
AcDbEntity
  8
0
100
AcDbCircle
 62
7
  6
CONTINUOUS
 10
3.6444345223
 20
2.1300586901
 40
0.0331677875
100
AcDbArc
 50
216.5302391808
 51
220.4362174407
  0
ARC
  5
2E2
100
AcDbEntity
  8
0
100
AcDbCircle
 62
7
  6
CONTINUOUS
 10
3.6378894717
 20
2.1228867554
 40
0.0264509589
100
AcDbArc
 50
130.3310250389
 51
135.2381525983
  0
ARC
  5
2E3
100
AcDbEntity
  8
0
100
AcDbCircle
 62
7
  6
CONTINUOUS
 10
3.6391080702
 20
2.1245777655
 40
0.0261723739
100
AcDbArc
 50
265.388822871
 51
267.4543360797
  0
ARC
  5
2E4
100
AcDbEntity
  8
0
100
AcDbCircle
 62
7
  6
CONTINUOUS
 10
3.6383899529
 20
2.1254039725
 40
0.0258067253
100
AcDbArc
 50
176.5336066495
 51
178.600765081
  0
ARC
  5
2E5
100
AcDbEntity
  8
0
100
AcDbCircle
 62
7
  6
CONTINUOUS
 10
3.6379937778
 20
2.1254340985
 40
0.0254094543
100
AcDbArc
 50
173.8109730932
 51
176.5473996556
  0
ARC
  5
2E6
100
AcDbEntity
  8
0
100
AcDbCircle
 62
7
  6
CONTINUOUS
 10
3.6369107848
 20
2.1238684439
 40
0.0250647862
100
AcDbArc
 50
135.256175106
 51
136.5498716651
  0
ARC
  5
2E7
100
AcDbEntity
  8
0
100
AcDbCircle
 62
7
  6
CONTINUOUS
 10
3.6367015379
 20
2.1255768558
 40
0.0241093556
100
AcDbArc
 50
170.2776966643
 51
173.8171762874
  0
ARC
  5
2E8
100
AcDbEntity
  8
0
100
AcDbCircle
 62
7
  6
CONTINUOUS
 10
3.6388695631
 20
2.1216426179
 40
0.0232275524
100
AcDbArc
 50
263.2345941485
 51
265.3931858329
  0
ARC
  5
2E9
100
AcDbEntity
  8
0
100
AcDbCircle
 62
7
  6
CONTINUOUS
 10
3.6351700183
 20
2.1261102776
 40
0.0222335763
100
AcDbArc
 50
126.5231002628
 51
130.3649997032
  0
ARC
  5
2EA
100
AcDbEntity
  8
0
100
AcDbCircle
 62
7
  6
CONTINUOUS
 10
3.6517059449
 20
2.1636481066
 40
0.1269676947
100
AcDbArc
 50
121.6582726764
 51
124.436393647
  0
ARC
  5
2EB
100
AcDbEntity
  8
0
100
AcDbCircle
 62
7
  6
CONTINUOUS
 10
3.6364539833
 20
2.1628623757
 40
0.1176693223
100
AcDbArc
 50
136.1860789357
 51
137.196403394
  0
ARC
  5
2EC
100
AcDbEntity
  8
0
100
AcDbCircle
 62
7
  6
CONTINUOUS
 10
3.6435420689
 20
2.1768251585
 40
0.111466593
100
AcDbArc
 50
120.2847680735
 51
121.4981973263
  0
ARC
  5
2ED
100
AcDbEntity
  8
0
100
AcDbCircle
 62
7
  6
CONTINUOUS
 10
3.6305554679
 20
2.168347376
 40
0.1096146698
100
AcDbArc
 50
137.2049275531
 51
137.5214666575
  0
ARC
  5
2EE
100
AcDbEntity
  8
0
100
AcDbCircle
 62
7
  6
CONTINUOUS
 10
3.6403321578
 20
2.1822943003
 40
0.1051250758
100
AcDbArc
 50
119.7853142694
 51
120.2772600192
  0
ARC
  5
2EF
100
AcDbEntity
  8
0
100
AcDbCircle
 62
7
  6
CONTINUOUS
 10
3.6192065297
 20
2.1786276873
 40
0.0943020812
100
AcDbArc
 50
137.4716126329
 51
139.9452732367
  0
ARC
  5
2F0
100
AcDbEntity
  8
0
100
AcDbCircle
 62
7
  6
CONTINUOUS
 10
3.6349653177
 20
2.1918100927
 40
0.0942004274
100
AcDbArc
 50
116.8853672811
 51
119.8273689559
  0
ARC
  5
2F1
100
AcDbEntity
  8
0
100
AcDbCircle
 62
7
  6
CONTINUOUS
 10
3.6303143039
 20
2.2008669134
 40
0.0840193048
100
AcDbArc
 50
115.6769912867
 51
116.7027376313
  0
ARC
  5
2F2
100
AcDbEntity
  8
0
100
AcDbCircle
 62
7
  6
CONTINUOUS
 10
3.6219789835
 20
2.2201098116
 40
0.0630398754
100
AcDbArc
 50
106.829000206
 51
111.7034957016
  0
ARC
  5
2F3
100
AcDbEntity
  8
0
100
AcDbCircle
 62
7
  6
CONTINUOUS
 10
3.6180913178
 20
2.2417529987
 40
0.0409025909
100
AcDbArc
 50
79.7848228086
 51
81.4324053156
  0
ARC
  5
2F4
100
AcDbEntity
  8
0
100
AcDbCircle
 62
2
  6
CONTINUOUS
 10
3.6213944295
 20
2.1704194144
 40
0.0372771665
100
AcDbArc
 50
176.8075277971
 51
184.6928131325
  0
ARC
  5
2F5
100
AcDbEntity
  8
0
100
AcDbCircle
 62
2
  6
CONTINUOUS
 10
3.632318164
 20
2.1725753262
 40
0.0339851657
100
AcDbArc
 50
217.7889154011
 51
220.4062853543
  0
ARC
  5
2F6
100
AcDbEntity
  8
0
100
AcDbCircle
 62
7
  6
CONTINUOUS
 10
3.6190942407
 20
2.2375400631
 40
0.0297456288
100
AcDbArc
 50
86.3111922928
 51
89.1179494595
  0
ARC
  5
2F7
100
AcDbEntity
  8
0
100
AcDbCircle
 62
7
  6
CONTINUOUS
 10
3.4693646881
 20
2.3740053735
 40
0.2221995032
100
AcDbArc
 50
311.3285512378
 51
313.0678766618
  0
ARC
  5
2F8
100
AcDbEntity
  8
0
100
AcDbCircle
 62
7
  6
CONTINUOUS
 10
3.4831771272
 20
2.3557822639
 40
0.2164124325
100
AcDbArc
 50
310.1386190098
 51
310.6157131542
  0
ARC
  5
2F9
100
AcDbEntity
  8
0
100
AcDbCircle
 62
7
  6
CONTINUOUS
 10
3.5238217092
 20
2.3029059833
 40
0.1497076312
100
AcDbArc
 50
304.8346525563
 51
306.1051928552
  0
ARC
  5
2FA
100
AcDbEntity
  8
0
100
AcDbCircle
 62
7
  6
CONTINUOUS
 10
3.5300365045
 20
2.2940251659
 40
0.1388682708
100
AcDbArc
 50
304.4664915068
 51
304.8229697771
  0
ARC
  5
2FB
100
AcDbEntity
  8
0
100
AcDbCircle
 62
7
  6
CONTINUOUS
 10
3.5376575402
 20
2.2827832714
 40
0.1252869053
100
AcDbArc
 50
301.6625803547
 51
304.5025468877
  0
ARC
  5
2FC
100
AcDbEntity
  8
0
100
AcDbCircle
 62
7
  6
CONTINUOUS
 10
3.5464932937
 20
2.2685345468
 40
0.1085209765
100
AcDbArc
 50
300.282474674
 51
301.5233905719
  0
ARC
  5
2FD
100
AcDbEntity
  8
0
100
AcDbCircle
 62
7
  6
CONTINUOUS
 10
3.5492915692
 20
2.2637763057
 40
0.1030009314
100
AcDbArc
 50
300.0829829786
 51
300.2729942611
  0
ARC
  5
2FE
100
AcDbEntity
  8
0
100
AcDbCircle
 62
7
  6
CONTINUOUS
 10
3.5503838485
 20
2.2618876589
 40
0.1008191756
100
AcDbArc
 50
299.6715088077
 51
300.0838591242
  0
ARC
  5
2FF
100
AcDbEntity
  8
0
100
AcDbCircle
 62
7
  6
CONTINUOUS
 10
3.5557238
 20
2.2523726719
 40
0.089908424
100
AcDbArc
 50
296.7264707052
 51
299.7163770539
  0
ARC
  5
300
100
AcDbEntity
  8
0
100
AcDbCircle
 62
7
  6
CONTINUOUS
 10
3.5600041191
 20
2.2440007234
 40
0.0805059227
100
AcDbArc
 50
295.5921821121
 51
296.6274112313
  0
ARC
  5
301
100
AcDbEntity
  8
0
100
AcDbCircle
 62
2
  6
CONTINUOUS
 10
3.5624074575
 20
2.2487933838
 40
0.043100333
100
AcDbArc
 50
228.6684224534
 51
229.0985498851
  0
ARC
  5
302
100
AcDbEntity
  8
0
100
AcDbCircle
 62
2
  6
CONTINUOUS
 10
3.5618410077
 20
2.2481362414
 40
0.0422327519
100
AcDbArc
 50
229.0956644196
 51
230.3955770806
  0
ARC
  5
303
100
AcDbEntity
  8
0
100
AcDbCircle
 62
7
  6
CONTINUOUS
 10
3.6174844612
 20
2.2437912803
 40
0.0395126014
100
AcDbArc
 50
348.3856065566
 51
354.5761454696
  0
ARC
  5
304
100
AcDbEntity
  8
0
100
AcDbCircle
 62
7
  6
CONTINUOUS
 10
3.6176363821
 20
2.2437159758
 40
0.0393486542
100
AcDbArc
 50
346.584216848
 51
348.4484773268
  0
ARC
  5
305
100
AcDbEntity
  8
0
100
AcDbCircle
 62
7
  6
CONTINUOUS
 10
3.4533483286
 20
2.3865572581
 40
0.0375
100
AcDbArc
 50
270.0
 51
336.3131006371
  0
ARC
  5
306
100
AcDbEntity
  8
0
100
AcDbCircle
 62
2
  6
CONTINUOUS
 10
3.5926080893
 20
2.2891788926
 40
0.036562558
100
AcDbArc
 50
345.1129651667
 51
347.5902564899
  0
ARC
  5
307
100
AcDbEntity
  8
0
100
AcDbCircle
 62
7
  6
CONTINUOUS
 10
3.6197356889
 20
2.2508813165
 40
0.0316273474
100
AcDbArc
 50
77.7045710621
 51
79.7838085337
  0
ARC
  5
308
100
AcDbEntity
  8
0
100
AcDbCircle
 62
7
  6
CONTINUOUS
 10
3.619750284
 20
2.2509457514
 40
0.0315612824
100
AcDbArc
 50
74.2680527459
 51
77.7055490945
  0
ARC
  5
309
100
AcDbEntity
  8
0
100
AcDbCircle
 62
7
  6
CONTINUOUS
 10
3.5151617556
 20
2.359439916
 40
0.03
100
AcDbArc
 50
96.0539076486
 51
156.3131006371
  0
ARC
  5
30A
100
AcDbEntity
  8
0
100
AcDbCircle
 62
7
  6
CONTINUOUS
 10
3.6191184177
 20
2.2447368951
 40
0.0230175456
100
AcDbArc
 50
40.1319369996
 51
42.9545938617
  0
ARC
  5
30B
100
AcDbEntity
  8
0
100
AcDbCircle
 62
7
  6
CONTINUOUS
 10
3.6198545357
 20
2.2454277805
 40
0.0220080035
100
AcDbArc
 50
42.9440490614
 51
47.1884820081
  0
ARC
  5
30C
100
AcDbEntity
  8
0
100
AcDbCircle
 62
7
  6
CONTINUOUS
 10
4.0515992765
 20
1.5398680744
 40
0.1875
100
AcDbArc
 50
64.7853651812
 51
86.7993265714
  0
ARC
  5
30D
100
AcDbEntity
  8
0
100
AcDbCircle
 62
7
  6
CONTINUOUS
 10
3.6953949748
 20
1.9568245035
 40
0.0807506553
100
AcDbArc
 50
63.4591093299
 51
64.3505303398
  0
ARC
  5
30E
100
AcDbEntity
  8
0
100
AcDbCircle
 62
7
  6
CONTINUOUS
 10
3.7004705711
 20
1.9668694675
 40
0.0694963314
100
AcDbArc
 50
61.058450901
 51
63.502188631
  0
ARC
  5
30F
100
AcDbEntity
  8
0
100
AcDbCircle
 62
7
  6
CONTINUOUS
 10
3.7057386963
 20
1.9764861617
 40
0.0585313094
100
AcDbArc
 50
60.1458543544
 51
61.0158949661
  0
ARC
  5
310
100
AcDbEntity
  8
0
100
AcDbCircle
 62
7
  6
CONTINUOUS
 10
4.0641617556
 20
1.775743831
 40
0.0375
100
AcDbArc
 50
113.6868993629
 51
180.0
  0
ARC
  5
311
100
AcDbEntity
  8
0
100
AcDbCircle
 62
7
  6
CONTINUOUS
 10
4.0641617556
 20
1.7645170987
 40
0.0375
100
AcDbArc
 50
180.0
 51
266.7993265714
  0
ARC
  5
312
100
AcDbEntity
  8
0
100
AcDbCircle
 62
7
  6
CONTINUOUS
 10
4.0370444135
 20
1.8375572581
 40
0.03
100
AcDbArc
 50
293.6868993629
 51
353.9460923514
  0
ARC
  5
313
100
AcDbEntity
  8
0
100
AcDbCircle
 62
7
  6
CONTINUOUS
 10
3.7214288147
 20
2.3331858657
 40
0.1916361709
100
AcDbArc
 50
261.9666444034
 51
262.9795820783
  0
ARC
  5
314
100
AcDbEntity
  8
0
100
AcDbCircle
 62
7
  6
CONTINUOUS
 10
3.7157589877
 20
2.2857941472
 40
0.1439066226
100
AcDbArc
 50
262.9899877782
 51
265.4107892532
  0
ARC
  5
315
100
AcDbEntity
  8
0
100
AcDbCircle
 62
7
  6
CONTINUOUS
 10
3.7134551622
 20
2.2586661141
 40
0.1166812875
100
AcDbArc
 50
265.5201897276
 51
266.3266199841
  0
ARC
  5
316
100
AcDbEntity
  8
0
100
AcDbCircle
 62
7
  6
CONTINUOUS
 10
3.7121050435
 20
2.2662476951
 40
0.1083798253
100
AcDbArc
 50
267.6357497573
 51
268.0175507049
  0
ARC
  5
317
100
AcDbEntity
  8
0
100
AcDbCircle
 62
7
  6
CONTINUOUS
 10
3.7117831223
 20
2.2231795239
 40
0.0811526907
100
AcDbArc
 50
269.9186247226
 51
274.3942232947
  0
ARC
  5
318
100
AcDbEntity
  8
0
100
AcDbCircle
 62
7
  6
CONTINUOUS
 10
3.7111579676
 20
2.2356542937
 40
0.077771866
100
AcDbArc
 50
268.0389207057
 51
269.9147627737
  0
ARC
  5
319
100
AcDbEntity
  8
0
100
AcDbCircle
 62
7
  6
CONTINUOUS
 10
3.7110797282
 20
2.2158652979
 40
0.0579827962
100
AcDbArc
 50
269.9629843485
 51
271.0812022497
  0
ARC
  5
31A
100
AcDbEntity
  8
0
100
AcDbCircle
 62
7
  6
CONTINUOUS
 10
3.7171899296
 20
2.1883073512
 40
0.0457500734
100
AcDbArc
 50
288.285302295
 51
289.4627342932
  0
ARC
  5
31B
100
AcDbEntity
  8
0
100
AcDbCircle
 62
7
  6
CONTINUOUS
 10
3.711356851
 20
2.2035934241
 40
0.0457078004
100
AcDbArc
 50
271.1323245227
 51
273.8251490687
  0
ARC
  5
31C
100
AcDbEntity
  8
0
100
AcDbCircle
 62
7
  6
CONTINUOUS
 10
3.7117356716
 20
2.1973126161
 40
0.0394157339
100
AcDbArc
 50
273.8847881735
 51
274.0458855999
  0
ARC
  5
31D
100
AcDbEntity
  8
0
100
AcDbCircle
 62
7
  6
CONTINUOUS
 10
3.7119542737
 20
2.194372101
 40
0.0364671249
100
AcDbArc
 50
274.0292497447
 51
275.5372981249
  0
ARC
  5
31E
100
AcDbEntity
  8
0
100
AcDbCircle
 62
7
  6
CONTINUOUS
 10
3.7223060343
 20
2.1738835862
 40
0.0304458568
100
AcDbArc
 50
289.4291334334
 51
295.1953406947
  0
ARC
  5
31F
100
AcDbEntity
  8
0
100
AcDbCircle
 62
7
  6
CONTINUOUS
 10
4.1625361819
 20
2.2050700045
 40
0.03
100
AcDbArc
 50
91.6702677154
 51
166.081199757
  0
ARC
  5
320
100
AcDbEntity
  8
0
100
AcDbCircle
 62
7
  6
CONTINUOUS
 10
3.882674502
 20
2.4849316843
 40
0.03
100
AcDbArc
 50
283.918800243
 51
358.3297322846
  0
ARC
  5
321
100
AcDbEntity
  8
0
100
AcDbCircle
 62
7
  6
CONTINUOUS
 10
3.7227137605
 20
2.1730080509
 40
0.0294800474
100
AcDbArc
 50
295.2026961804
 51
299.0798204605
  0
ARC
  5
322
100
AcDbEntity
  8
0
100
AcDbCircle
 62
7
  6
CONTINUOUS
 10
3.7229235501
 20
2.1726246683
 40
0.0290430292
100
AcDbArc
 50
299.0857196244
 51
300.6354462645
  0
ARC
  5
323
100
AcDbEntity
  8
0
100
AcDbCircle
 62
7
  6
CONTINUOUS
 10
3.723008457
 20
2.1724802216
 40
0.0288754771
100
AcDbArc
 50
300.6365376243
 51
301.0679264856
  0
ARC
  5
324
100
AcDbEntity
  8
0
100
AcDbCircle
 62
7
  6
CONTINUOUS
 10
3.7230421001
 20
2.172407537
 40
0.0287966419
100
AcDbArc
 50
306.9692027218
 51
312.8180195923
  0
ARC
  5
325
100
AcDbEntity
  8
0
100
AcDbCircle
 62
7
  6
CONTINUOUS
 10
3.7230823878
 20
2.1723618457
 40
0.0287359293
100
AcDbArc
 50
301.0634651435
 51
306.2619373307
  0
ARC
  5
326
100
AcDbEntity
  8
0
100
AcDbCircle
 62
7
  6
CONTINUOUS
 10
3.7231595004
 20
2.172255177
 40
0.0286043097
100
AcDbArc
 50
306.2637693522
 51
306.9648541713
  0
ARC
  5
327
100
AcDbEntity
  8
0
100
AcDbCircle
 62
7
  6
CONTINUOUS
 10
4.1691617556
 20
2.3025572581
 40
0.0075
100
AcDbArc
 50
90.0
 51
180.0
  0
ARC
  5
328
100
AcDbEntity
  8
0
100
AcDbCircle
 62
7
  6
CONTINUOUS
 10
3.9801617556
 20
2.4915572581
 40
0.0075
100
AcDbArc
 50
270.0
 51
360.0
  0
ARC
  5
329
100
AcDbEntity
  8
0
100
AcDbCircle
 62
7
  6
CONTINUOUS
 10
1.74454776
 20
3.6987570819
 40
2.7975
100
AcDbArc
 50
346.0811997274
 51
353.9460923514
  0
ARC
  5
32A
100
AcDbEntity
  8
0
100
AcDbCircle
 62
7
  6
CONTINUOUS
 10
1.74454776
 20
3.9198574343
 40
2.7975
100
AcDbArc
 50
6.0539076486
 51
13.9188002726
  0
ARC
  5
32B
100
AcDbEntity
  8
0
100
AcDbCircle
 62
7
  6
CONTINUOUS
 10
3.2174725719
 20
2.8641197371
 40
0.1875
100
AcDbArc
 50
334.7853651812
 51
356.7993265714
  0
ARC
  5
32C
100
AcDbEntity
  8
0
100
AcDbCircle
 62
2
  6
CONTINUOUS
 10
3.3729213508
 20
2.8808690802
 40
0.098541834
100
AcDbArc
 50
15.3328968856
 51
15.554766151
  0
ARC
  5
32D
100
AcDbEntity
  8
0
100
AcDbCircle
 62
7
  6
CONTINUOUS
 10
3.4032787837
 20
2.8450383839
 40
0.0947815368
100
AcDbArc
 50
16.2716510724
 51
17.5463310286
  0
ARC
  5
32E
100
AcDbEntity
  8
0
100
AcDbCircle
 62
7
  6
CONTINUOUS
 10
3.4005765505
 20
2.8454373358
 40
0.0821933962
100
AcDbArc
 50
27.2325346367
 51
28.6081782712
  0
ARC
  5
32F
100
AcDbEntity
  8
0
100
AcDbCircle
 62
7
  6
CONTINUOUS
 10
3.4094646167
 20
2.8469726621
 40
0.0883003712
100
AcDbArc
 50
17.5596996278
 51
17.7319053137
  0
ARC
  5
330
100
AcDbEntity
  8
0
100
AcDbCircle
 62
7
  6
CONTINUOUS
 10
3.4181777488
 20
2.8498215211
 40
0.0791335464
100
AcDbArc
 50
17.6885981062
 51
20.4655430054
  0
ARC
  5
331
100
AcDbEntity
  8
0
100
AcDbCircle
 62
7
  6
CONTINUOUS
 10
3.426365134
 20
2.8528279624
 40
0.0704117458
100
AcDbArc
 50
20.6200961486
 51
21.5342942228
  0
ARC
  5
332
100
AcDbEntity
  8
0
100
AcDbCircle
 62
7
  6
CONTINUOUS
 10
3.4338438728
 20
2.8558316846
 40
0.0623525164
100
AcDbArc
 50
21.4893368921
 51
24.3475984146
  0
ARC
  5
333
100
AcDbEntity
  8
0
100
AcDbCircle
 62
7
  6
CONTINUOUS
 10
3.4413756192
 20
2.8591935127
 40
0.0541046664
100
AcDbArc
 50
24.3923854287
 51
25.220226835
  0
ARC
  5
334
100
AcDbEntity
  8
0
100
AcDbCircle
 62
7
  6
CONTINUOUS
 10
3.4343931435
 20
2.8679819355
 40
0.0414385633
100
AcDbArc
 50
40.9185367793
 51
45.3732080067
  0
ARC
  5
335
100
AcDbEntity
  8
0
100
AcDbCircle
 62
7
  6
CONTINUOUS
 10
3.4533483286
 20
2.8515572581
 40
0.0375
100
AcDbArc
 50
23.6868993629
 51
90.0
  0
ARC
  5
336
100
AcDbEntity
  8
0
100
AcDbCircle
 62
7
  6
CONTINUOUS
 10
3.4421215963
 20
2.8515572581
 40
0.0375
100
AcDbArc
 50
90.0
 51
176.7993265714
  0
ARC
  5
337
100
AcDbEntity
  8
0
100
AcDbCircle
 62
7
  6
CONTINUOUS
 10
3.5151617556
 20
2.8786746001
 40
0.03
100
AcDbArc
 50
203.6868993629
 51
263.9460923514
  0
ARC
  5
338
100
AcDbEntity
  8
0
100
AcDbCircle
 62
7
  6
CONTINUOUS
 10
3.5649953194
 20
2.9659147494
 40
0.0624794059
100
AcDbArc
 50
338.4165663983
 51
342.0489377049
  0
ARC
  5
339
100
AcDbEntity
  8
0
100
AcDbCircle
 62
7
  6
CONTINUOUS
 10
3.5744506388
 20
2.9482879193
 40
0.0600313521
100
AcDbArc
 50
68.6067445426
 51
72.0283741896
  0
ARC
  5
33A
100
AcDbEntity
  8
0
100
AcDbCircle
 62
7
  6
CONTINUOUS
 10
3.57038307
 20
2.9643008901
 40
0.0568566696
100
AcDbArc
 50
341.9227378508
 51
347.0525834263
  0
ARC
  5
33B
100
AcDbEntity
  8
0
100
AcDbCircle
 62
7
  6
CONTINUOUS
 10
3.5757409732
 20
2.9515715029
 40
0.05650334
100
AcDbArc
 50
64.4430474792
 51
68.6104814363
  0
ARC
  5
33C
100
AcDbEntity
  8
0
100
AcDbCircle
 62
7
  6
CONTINUOUS
 10
3.5755503227
 20
2.9520102757
 40
0.0561514021
100
AcDbArc
 50
71.9237970142
 51
77.0510184686
  0
ARC
  5
33D
100
AcDbEntity
  8
0
100
AcDbCircle
 62
7
  6
CONTINUOUS
 10
3.5762551517
 20
2.9472047207
 40
0.0428917458
100
AcDbArc
 50
63.8081177038
 51
66.6010014459
  0
ARC
  5
33E
100
AcDbEntity
  8
0
100
AcDbCircle
 62
7
  6
CONTINUOUS
 10
3.5761567712
 20
2.9596822602
 40
0.0264643235
100
AcDbArc
 50
204.370029558
 51
208.3485084103
  0
ARC
  5
33F
100
AcDbEntity
  8
0
100
AcDbCircle
 62
7
  6
CONTINUOUS
 10
3.5751601785
 20
2.9591388284
 40
0.0253292074
100
AcDbArc
 50
208.3370954036
 51
214.3316680117
  0
ARC
  5
340
100
AcDbEntity
  8
0
100
AcDbCircle
 62
7
  6
CONTINUOUS
 10
3.5747951417
 20
2.9588941187
 40
0.0248897531
100
AcDbArc
 50
214.3404072666
 51
220.234481039
  0
ARC
  5
341
100
AcDbEntity
  8
0
100
AcDbCircle
 62
2
  6
CONTINUOUS
 10
3.5620417314
 20
3.0008914831
 40
0.0248854473
100
AcDbArc
 50
214.9997075124
 51
220.2349201357
  0
ARC
  5
342
100
AcDbEntity
  8
0
100
AcDbCircle
 62
7
  6
CONTINUOUS
 10
3.5906942273
 20
2.9678377244
 40
0.0544491553
100
AcDbArc
 50
191.4026542438
 51
196.8080504447
  0
ARC
  5
343
100
AcDbEntity
  8
0
100
AcDbCircle
 62
7
  6
CONTINUOUS
 10
3.5866558781
 20
2.9686080606
 40
0.0528164886
100
AcDbArc
 50
257.4839814522
 51
261.2967748511
  0
ARC
  5
344
100
AcDbEntity
  8
0
100
AcDbCircle
 62
7
  6
CONTINUOUS
 10
3.57781757
 20
2.9576534615
 40
0.0503924071
100
AcDbArc
 50
33.500950618
 51
35.2794207881
  0
ARC
  5
345
100
AcDbEntity
  8
0
100
AcDbCircle
 62
7
  6
CONTINUOUS
 10
3.5796841876
 20
2.9590406573
 40
0.048067483
100
AcDbArc
 50
35.2146498761
 51
46.0256592701
  0
ARC
  5
346
100
AcDbEntity
  8
0
100
AcDbCircle
 62
7
  6
CONTINUOUS
 10
3.5840793213
 20
2.9641479449
 40
0.0480276094
100
AcDbArc
 50
156.6281857285
 51
162.023464053
  0
ARC
  5
347
100
AcDbEntity
  8
0
100
AcDbCircle
 62
7
  6
CONTINUOUS
 10
3.5801950689
 20
2.959198258
 40
0.0475572207
100
AcDbArc
 50
29.8321868509
 51
33.5299769772
  0
ARC
  5
348
100
AcDbEntity
  8
0
100
AcDbCircle
 62
7
  6
CONTINUOUS
 10
3.5795836335
 20
2.9632907029
 40
0.0450745107
100
AcDbArc
 50
116.7736448199
 51
122.33508774
  0
ARC
  5
349
100
AcDbEntity
  8
0
100
AcDbCircle
 62
7
  6
CONTINUOUS
 10
3.5801898606
 20
2.9657802308
 40
0.0438097802
100
AcDbArc
 50
151.5928462875
 51
156.569884864
  0
ARC
  5
34A
100
AcDbEntity
  8
0
100
AcDbCircle
 62
7
  6
CONTINUOUS
 10
3.5785895048
 20
2.9653906417
 40
0.0427519176
100
AcDbArc
 50
111.2056857594
 51
116.851914249
  0
ARC
  5
34B
100
AcDbEntity
  8
0
100
AcDbCircle
 62
7
  6
CONTINUOUS
 10
3.5779458388
 20
2.9661195264
 40
0.0415850647
100
AcDbArc
 50
161.9991782934
 51
163.8162891884
  0
ARC
  5
34C
100
AcDbEntity
  8
0
100
AcDbCircle
 62
7
  6
CONTINUOUS
 10
3.5772334513
 20
2.9663123798
 40
0.0408471575
100
AcDbArc
 50
163.7975715638
 51
172.6903263579
  0
ARC
  5
34D
100
AcDbEntity
  8
0
100
AcDbCircle
 62
7
  6
CONTINUOUS
 10
3.5848530206
 20
2.9560440152
 40
0.0404385666
100
AcDbArc
 50
298.4354890821
 51
300.4329485464
  0
ARC
  5
34E
100
AcDbEntity
  8
0
100
AcDbCircle
 62
7
  6
CONTINUOUS
 10
3.5856237922
 20
2.9547372252
 40
0.0389214042
100
AcDbArc
 50
300.4290493866
 51
302.3807439135
  0
ARC
  5
34F
100
AcDbEntity
  8
0
100
AcDbCircle
 62
7
  6
CONTINUOUS
 10
3.5863884245
 20
2.9587648216
 40
0.0372453009
100
AcDbArc
 50
157.9688144428
 51
162.0519272258
  0
ARC
  5
350
100
AcDbEntity
  8
0
100
AcDbCircle
 62
7
  6
CONTINUOUS
 10
3.5808807248
 20
2.9569222443
 40
0.0325152575
100
AcDbArc
 50
27.3993401257
 51
29.5164117343
  0
ARC
  5
351
100
AcDbEntity
  8
0
100
AcDbCircle
 62
7
  6
CONTINUOUS
 10
3.581309125
 20
2.9603531175
 40
0.0319237843
100
AcDbArc
 50
161.954636773
 51
167.6676693131
  0
ARC
  5
352
100
AcDbEntity
  8
0
100
AcDbCircle
 62
7
  6
CONTINUOUS
 10
3.581807482
 20
2.9605118911
 40
0.0311915697
100
AcDbArc
 50
341.9936530165
 51
344.1213979993
  0
ARC
  5
353
100
AcDbEntity
  8
0
100
AcDbCircle
 62
7
  6
CONTINUOUS
 10
3.5795236405
 20
2.9609933069
 40
0.0300806534
100
AcDbArc
 50
196.708483864
 51
198.0201933437
  0
ARC
  5
354
100
AcDbEntity
  8
0
100
AcDbCircle
 62
7
  6
CONTINUOUS
 10
3.5790729435
 20
2.9608478418
 40
0.0296070642
100
AcDbArc
 50
198.0223113011
 51
198.5454019366
  0
ARC
  5
355
100
AcDbEntity
  8
0
100
AcDbCircle
 62
7
  6
CONTINUOUS
 10
3.5836764446
 20
2.9585094125
 40
0.0293004268
100
AcDbArc
 50
29.5089777228
 51
31.4416310924
  0
ARC
  5
356
100
AcDbEntity
  8
0
100
AcDbCircle
 62
7
  6
CONTINUOUS
 10
3.5786128942
 20
2.9606921862
 40
0.0291213972
100
AcDbArc
 50
198.5429401032
 51
199.9750896738
  0
ARC
  5
357
100
AcDbEntity
  8
0
100
AcDbCircle
 62
7
  6
CONTINUOUS
 10
3.5838861799
 20
2.9586420225
 40
0.0290523135
100
AcDbArc
 50
31.4342650892
 51
39.1415146974
  0
ARC
  5
358
100
AcDbEntity
  8
0
100
AcDbCircle
 62
7
  6
CONTINUOUS
 10
3.5781690909
 20
2.9605322288
 40
0.0286496493
100
AcDbArc
 50
199.9776371863
 51
200.4908679742
  0
ARC
  5
359
100
AcDbEntity
  8
0
100
AcDbCircle
 62
7
  6
CONTINUOUS
 10
3.5777495657
 20
2.9620332253
 40
0.028369442
100
AcDbArc
 50
116.2645744677
 51
118.4162176743
  0
ARC
  5
35A
100
AcDbEntity
  8
0
100
AcDbCircle
 62
7
  6
CONTINUOUS
 10
3.5778003935
 20
2.9603936523
 40
0.0282557704
100
AcDbArc
 50
200.4893611966
 51
201.6694199744
  0
ARC
  5
35B
100
AcDbEntity
  8
0
100
AcDbCircle
 62
7
  6
CONTINUOUS
 10
3.5776474998
 20
2.9608353409
 40
0.0282168107
100
AcDbArc
 50
185.3401452811
 51
191.2109492974
  0
ARC
  5
35C
100
AcDbEntity
  8
0
100
AcDbCircle
 62
7
  6
CONTINUOUS
 10
3.5773880422
 20
2.9602303851
 40
0.0278122735
100
AcDbArc
 50
201.6705159186
 51
202.4555046645
  0
ARC
  5
35D
100
AcDbEntity
  8
0
100
AcDbCircle
 62
7
  6
CONTINUOUS
 10
3.5770249199
 20
2.9600796506
 40
0.0274191089
100
AcDbArc
 50
202.4542406651
 51
203.9658576483
  0
ARC
  5
35E
100
AcDbEntity
  8
0
100
AcDbCircle
 62
7
  6
CONTINUOUS
 10
3.576755077
 20
2.9599607292
 40
0.0271242249
100
AcDbArc
 50
203.9678414369
 51
204.3843505228
  0
ARC
  5
35F
100
AcDbEntity
  8
0
100
AcDbCircle
 62
7
  6
CONTINUOUS
 10
3.5769914349
 20
2.9635747164
 40
0.0266516087
100
AcDbArc
 50
114.2533583633
 51
116.2694635024
  0
ARC
  5
360
100
AcDbEntity
  8
0
100
AcDbCircle
 62
7
  6
CONTINUOUS
 10
3.5871005971
 20
2.9593059902
 40
0.0261687372
100
AcDbArc
 50
299.9466640415
 51
302.208052303
  0
ARC
  5
361
100
AcDbEntity
  8
0
100
AcDbCircle
 62
7
  6
CONTINUOUS
 10
3.5894106196
 20
2.9553008326
 40
0.0215451581
100
AcDbArc
 50
296.372853935
 51
299.9406449673
  0
ARC
  5
362
100
AcDbEntity
  8
0
100
AcDbCircle
 62
7
  6
CONTINUOUS
 10
3.7379117556
 20
2.6190572581
 40
0.38775
100
AcDbArc
 50
154.7853651812
 51
205.2146348188
  0
ARC
  5
363
100
AcDbEntity
  8
0
100
AcDbCircle
 62
7
  6
CONTINUOUS
 10
4.1625361819
 20
3.0330445117
 40
0.03
100
AcDbArc
 50
193.918800243
 51
268.3297322846
  0
ARC
  5
364
100
AcDbEntity
  8
0
100
AcDbCircle
 62
7
  6
CONTINUOUS
 10
3.882674502
 20
2.7531828318
 40
0.03
100
AcDbArc
 50
1.6702677154
 51
76.081199757
  0
ARC
  5
365
100
AcDbEntity
  8
0
100
AcDbCircle
 62
7
  6
CONTINUOUS
 10
4.1691617556
 20
2.9355572581
 40
0.0075
100
AcDbArc
 50
180.0
 51
270.0
  0
ARC
  5
366
100
AcDbEntity
  8
0
100
AcDbCircle
 62
7
  6
CONTINUOUS
 10
3.9801617556
 20
2.7465572581
 40
0.0075
100
AcDbArc
 50
0.0
 51
90.0
  0
ARC
  5
367
100
AcDbEntity
  8
0
100
AcDbCircle
 62
7
  6
CONTINUOUS
 10
4.0515992765
 20
3.6982464417
 40
0.1875
100
AcDbArc
 50
273.2006734286
 51
295.2146348188
  0
ARC
  5
368
100
AcDbEntity
  8
0
100
AcDbCircle
 62
7
  6
CONTINUOUS
 10
4.0641617556
 20
3.4623706851
 40
0.0375
100
AcDbArc
 50
180.0
 51
246.3131006371
  0
ARC
  5
369
100
AcDbEntity
  8
0
100
AcDbCircle
 62
7
  6
CONTINUOUS
 10
4.0641617556
 20
3.4735974174
 40
0.0375
100
AcDbArc
 50
93.2006734286
 51
180.0
  0
ARC
  5
36A
100
AcDbEntity
  8
0
100
AcDbCircle
 62
7
  6
CONTINUOUS
 10
4.0370444135
 20
3.4005572581
 40
0.03
100
AcDbArc
 50
6.0539076486
 51
66.3131006371
  0
ARC
  5
36B
100
AcDbEntity
  8
0
100
AcDbCircle
 62
7
  6
CONTINUOUS
 10
3.2169619318
 20
5.1711712537
 40
2.7975
100
AcDbArc
 50
276.0539076486
 51
283.9188002726
  0
ARC
  5
36C
100
AcDbEntity
  8
0
100
AcDbCircle
 62
7
  6
CONTINUOUS
 10
4.0515992765
 20
3.9203680744
 40
0.1875
100
AcDbArc
 50
64.7853651812
 51
86.7993265714
  0
ARC
  5
36D
100
AcDbEntity
  8
0
100
AcDbCircle
 62
7
  6
CONTINUOUS
 10
4.0641617556
 20
4.156243831
 40
0.0375
100
AcDbArc
 50
113.6868993629
 51
180.0
  0
ARC
  5
36E
100
AcDbEntity
  8
0
100
AcDbCircle
 62
7
  6
CONTINUOUS
 10
4.0641617556
 20
4.1450170987
 40
0.0375
100
AcDbArc
 50
180.0
 51
266.7993265714
  0
ARC
  5
36F
100
AcDbEntity
  8
0
100
AcDbCircle
 62
7
  6
CONTINUOUS
 10
4.1625361819
 20
4.5855700045
 40
0.03
100
AcDbArc
 50
91.6702677154
 51
166.081199757
  0
ARC
  5
370
100
AcDbEntity
  8
0
100
AcDbCircle
 62
7
  6
CONTINUOUS
 10
4.0370444135
 20
4.2180572581
 40
0.03
100
AcDbArc
 50
293.6868993629
 51
353.9460923514
  0
ARC
  5
371
100
AcDbEntity
  8
0
100
AcDbCircle
 62
7
  6
CONTINUOUS
 10
4.1691617556
 20
4.6830572581
 40
0.0075
100
AcDbArc
 50
90.0
 51
180.0
  0
ARC
  5
372
100
AcDbEntity
  8
0
100
AcDbCircle
 62
7
  6
CONTINUOUS
 10
5.3763615794
 20
0.0669432625
 40
2.7975
100
AcDbArc
 50
96.0539076486
 51
103.9188002726
  0
ARC
  5
373
100
AcDbEntity
  8
0
100
AcDbCircle
 62
7
  6
CONTINUOUS
 10
4.5417242346
 20
1.5398680744
 40
0.1875
100
AcDbArc
 50
93.2006734286
 51
115.2146348188
  0
ARC
  5
374
100
AcDbEntity
  8
0
100
AcDbCircle
 62
7
  6
CONTINUOUS
 10
4.5291617556
 20
1.775743831
 40
0.0375
100
AcDbArc
 50
0.0
 51
66.3131006371
  0
ARC
  5
375
100
AcDbEntity
  8
0
100
AcDbCircle
 62
7
  6
CONTINUOUS
 10
4.5291617556
 20
1.7645170987
 40
0.0375
100
AcDbArc
 50
273.2006734286
 51
360.0
  0
ARC
  5
376
100
AcDbEntity
  8
0
100
AcDbCircle
 62
7
  6
CONTINUOUS
 10
4.5562790976
 20
1.8375572581
 40
0.03
100
AcDbArc
 50
186.0539076486
 51
246.3131006371
  0
ARC
  5
377
100
AcDbEntity
  8
0
100
AcDbCircle
 62
7
  6
CONTINUOUS
 10
4.2966617556
 20
2.0603072581
 40
0.38775
100
AcDbArc
 50
244.7853651812
 51
295.2146348188
  0
ARC
  5
378
100
AcDbEntity
  8
0
100
AcDbCircle
 62
7
  6
CONTINUOUS
 10
4.7512713557
 20
2.0562968615
 40
0.2684736646
100
AcDbArc
 50
22.7674593769
 51
25.8445138035
  0
ARC
  5
379
100
AcDbEntity
  8
0
100
AcDbCircle
 62
7
  6
CONTINUOUS
 10
4.7931414675
 20
2.0751486225
 40
0.2398358419
100
AcDbArc
 50
40.0354684468
 51
43.0640767997
  0
ARC
  5
37A
100
AcDbEntity
  8
0
100
AcDbCircle
 62
7
  6
CONTINUOUS
 10
4.7907846431
 20
2.0826039569
 40
0.23762125
100
AcDbArc
 50
23.9105745671
 51
26.9896698906
  0
ARC
  5
37B
100
AcDbEntity
  8
0
100
AcDbCircle
 62
7
  6
CONTINUOUS
 10
4.7881164236
 20
2.0744315162
 40
0.2274085265
100
AcDbArc
 50
25.7792719721
 51
29.0148152234
  0
ARC
  5
37C
100
AcDbEntity
  8
0
100
AcDbCircle
 62
2
  6
CONTINUOUS
 10
4.7791887052
 20
2.1184415857
 40
0.2230917439
100
AcDbArc
 50
25.7413417325
 51
34.0956089315
  0
ARC
  5
37D
100
AcDbEntity
  8
0
100
AcDbCircle
 62
7
  6
CONTINUOUS
 10
4.7926393894
 20
2.0768965036
 40
0.2222576148
100
AcDbArc
 50
29.024658341
 51
32.276912792
  0
ARC
  5
37E
100
AcDbEntity
  8
0
100
AcDbCircle
 62
7
  6
CONTINUOUS
 10
4.793219911
 20
2.0771353553
 40
0.2216419567
100
AcDbArc
 50
35.5914742031
 51
38.8566607809
  0
ARC
  5
37F
100
AcDbEntity
  8
0
100
AcDbCircle
 62
7
  6
CONTINUOUS
 10
4.7942837704
 20
2.0779075907
 40
0.2203273973
100
AcDbArc
 50
32.3047770735
 51
35.5891847925
  0
ARC
  5
380
100
AcDbEntity
  8
0
100
AcDbCircle
 62
7
  6
CONTINUOUS
 10
4.8155331563
 20
2.0954418291
 40
0.2097420315
100
AcDbArc
 50
26.9328323509
 51
30.1970059452
  0
ARC
  5
381
100
AcDbEntity
  8
0
100
AcDbCircle
 62
7
  6
CONTINUOUS
 10
4.8189131208
 20
2.0952439916
 40
0.2067836636
100
AcDbArc
 50
22.8650608556
 51
23.7698098588
  0
ARC
  5
382
100
AcDbEntity
  8
0
100
AcDbCircle
 62
7
  6
CONTINUOUS
 10
4.8198417972
 20
2.0979406328
 40
0.2047612334
100
AcDbArc
 50
30.1990819009
 51
33.3819419379
  0
ARC
  5
383
100
AcDbEntity
  8
0
100
AcDbCircle
 62
7
  6
CONTINUOUS
 10
4.8231355151
 20
2.1000935866
 40
0.2008262876
100
AcDbArc
 50
33.492194741
 51
36.8036320243
  0
ARC
  5
384
100
AcDbEntity
  8
0
100
AcDbCircle
 62
7
  6
CONTINUOUS
 10
4.8235170264
 20
2.1003670574
 40
0.2003569849
100
AcDbArc
 50
36.806373713
 51
40.1015357982
  0
ARC
  5
385
100
AcDbEntity
  8
0
100
AcDbCircle
 62
7
  6
CONTINUOUS
 10
4.8260325762
 20
2.0982631473
 40
0.199050508
100
AcDbArc
 50
22.6394697868
 51
22.8605798903
  0
ARC
  5
386
100
AcDbEntity
  8
0
100
AcDbCircle
 62
7
  6
CONTINUOUS
 10
4.8152573489
 20
2.0889780824
 40
0.1973277374
100
AcDbArc
 50
47.1626984218
 51
51.151099033
  0
ARC
  5
387
100
AcDbEntity
  8
0
100
AcDbCircle
 62
7
  6
CONTINUOUS
 10
4.8246718798
 20
2.1042920655
 40
0.1969005309
100
AcDbArc
 50
43.1941645471
 51
44.1804328738
  0
ARC
  5
388
100
AcDbEntity
  8
0
100
AcDbCircle
 62
7
  6
CONTINUOUS
 10
4.8302491307
 20
2.1000164451
 40
0.19448396
100
AcDbArc
 50
21.9685750578
 51
22.6409091026
  0
ARC
  5
389
100
AcDbEntity
  8
0
100
AcDbCircle
 62
7
  6
CONTINUOUS
 10
4.8311729878
 20
2.1105802347
 40
0.1878559188
100
AcDbArc
 50
44.1868993238
 51
44.373005438
  0
ARC
  5
38A
100
AcDbEntity
  8
0
100
AcDbCircle
 62
7
  6
CONTINUOUS
 10
4.8353481242
 20
2.1146763476
 40
0.1820070012
100
AcDbArc
 50
44.3704471969
 51
45.0542815455
  0
ARC
  5
38B
100
AcDbEntity
  8
0
100
AcDbCircle
 62
7
  6
CONTINUOUS
 10
4.8316853945
 20
2.1065224937
 40
0.1732929444
100
AcDbArc
 50
43.061355387
 51
47.2016143607
  0
ARC
  5
38C
100
AcDbEntity
  8
0
100
AcDbCircle
 62
7
  6
CONTINUOUS
 10
4.4307873293
 20
2.2050700045
 40
0.03
100
AcDbArc
 50
13.918800243
 51
88.3297322846
  0
ARC
  5
38D
100
AcDbEntity
  8
0
100
AcDbCircle
 62
7
  6
CONTINUOUS
 10
4.7106490092
 20
2.4849316843
 40
0.03
100
AcDbArc
 50
181.6702677154
 51
256.081199757
  0
ARC
  5
38E
100
AcDbEntity
  8
0
100
AcDbCircle
 62
7
  6
CONTINUOUS
 10
4.4241617556
 20
2.3025572581
 40
0.0075
100
AcDbArc
 50
0.0
 51
90.0
  0
ARC
  5
38F
100
AcDbEntity
  8
0
100
AcDbCircle
 62
7
  6
CONTINUOUS
 10
4.6131617556
 20
2.4915572581
 40
0.0075
100
AcDbArc
 50
180.0
 51
270.0
  0
ARC
  5
390
100
AcDbEntity
  8
0
100
AcDbCircle
 62
7
  6
CONTINUOUS
 10
4.8385323113
 20
2.1033355096
 40
0.1855605738
100
AcDbArc
 50
20.5202803163
 51
21.9749532787
  0
ARC
  5
391
100
AcDbEntity
  8
0
100
AcDbCircle
 62
7
  6
CONTINUOUS
 10
4.8490855115
 20
2.1072979856
 40
0.1742879918
100
AcDbArc
 50
19.518522515
 51
20.5164201174
  0
ARC
  5
392
100
AcDbEntity
  8
0
100
AcDbCircle
 62
7
  6
CONTINUOUS
 10
4.8542550709
 20
2.1091430636
 40
0.1687990473
100
AcDbArc
 50
19.2575380782
 51
19.5145042277
  0
ARC
  5
393
100
AcDbEntity
  8
0
100
AcDbCircle
 62
7
  6
CONTINUOUS
 10
4.845217759
 20
2.1246068535
 40
0.1680061557
100
AcDbArc
 50
45.0441261975
 51
46.4777435845
  0
ARC
  5
394
100
AcDbEntity
  8
0
100
AcDbCircle
 62
7
  6
CONTINUOUS
 10
4.8635204807
 20
2.1123283089
 40
0.1590015439
100
AcDbArc
 50
17.1725267645
 51
19.2751420675
  0
ARC
  5
395
100
AcDbEntity
  8
0
100
AcDbCircle
 62
7
  6
CONTINUOUS
 10
4.8446926732
 20
2.1185622477
 40
0.1555690339
100
AcDbArc
 50
38.8687481803
 51
43.0925148215
  0
ARC
  5
396
100
AcDbEntity
  8
0
100
AcDbCircle
 62
7
  6
CONTINUOUS
 10
4.8580784485
 20
2.1381497883
 40
0.1493296929
100
AcDbArc
 50
46.5813933775
 51
47.5474536831
  0
ARC
  5
397
100
AcDbEntity
  8
0
100
AcDbCircle
 62
7
  6
CONTINUOUS
 10
4.8736968587
 20
2.1155094335
 40
0.1483395853
100
AcDbArc
 50
16.1792198049
 51
17.0271159119
  0
ARC
  5
398
100
AcDbEntity
  8
0
100
AcDbCircle
 62
7
  6
CONTINUOUS
 10
4.8813156297
 20
2.1176917878
 40
0.1404144624
100
AcDbArc
 50
14.3147638454
 51
16.1902346122
  0
ARC
  5
399
100
AcDbEntity
  8
0
100
AcDbCircle
 62
7
  6
CONTINUOUS
 10
4.8639558108
 20
2.1445484554
 40
0.140641425
100
AcDbArc
 50
47.554609519
 51
47.8425828711
  0
ARC
  5
39A
100
AcDbEntity
  8
0
100
AcDbCircle
 62
7
  6
CONTINUOUS
 10
4.8717445745
 20
2.1532373144
 40
0.1289727721
100
AcDbArc
 50
47.816878139
 51
50.0640883191
  0
ARC
  5
39B
100
AcDbEntity
  8
0
100
AcDbCircle
 62
7
  6
CONTINUOUS
 10
4.8795021021
 20
2.1624401609
 40
0.1169365591
100
AcDbArc
 50
50.2441135353
 51
51.0254700861
  0
ARC
  5
39C
100
AcDbEntity
  8
0
100
AcDbCircle
 62
7
  6
CONTINUOUS
 10
4.8893800935
 20
2.1197759592
 40
0.1320850775
100
AcDbArc
 50
13.5058652296
 51
14.303687739
  0
ARC
  5
39D
100
AcDbEntity
  8
0
100
AcDbCircle
 62
7
  6
CONTINUOUS
 10
4.8897305749
 20
2.1066881308
 40
0.1209333886
100
AcDbArc
 50
11.8179318421
 51
14.7368020407
  0
ARC
  5
39E
100
AcDbEntity
  8
0
100
AcDbCircle
 62
7
  6
CONTINUOUS
 10
4.9030527341
 20
2.1208187072
 40
0.0528163887
100
AcDbArc
 50
60.4839414963
 51
64.2967390189
  0
ARC
  5
39F
100
AcDbEntity
  8
0
100
AcDbCircle
 62
7
  6
CONTINUOUS
 10
4.8965842738
 20
2.1228428901
 40
0.0572819517
100
AcDbArc
 50
356.5072003778
 51
1.4960613021
  0
ARC
  5
3A0
100
AcDbEntity
  8
0
100
AcDbCircle
 62
7
  6
CONTINUOUS
 10
4.9002015732
 20
2.1226467709
 40
0.053659429
100
AcDbArc
 50
355.8562608696
 51
356.4809096047
  0
ARC
  5
3A1
100
AcDbEntity
  8
0
100
AcDbCircle
 62
7
  6
CONTINUOUS
 10
4.906820722
 20
2.1243305057
 40
0.0480275851
100
AcDbArc
 50
319.6281882601
 51
325.023464294
  0
ARC
  5
3A2
100
AcDbEntity
  8
0
100
AcDbCircle
 62
7
  6
CONTINUOUS
 10
4.9061863881
 20
2.1301535287
 40
0.0372452771
100
AcDbArc
 50
320.9688113986
 51
325.0519276588
  0
ARC
  5
3A3
100
AcDbEntity
  8
0
100
AcDbCircle
 62
7
  6
CONTINUOUS
 10
4.9053470769
 20
2.1298442569
 40
0.0261687143
100
AcDbArc
 50
102.9466396603
 51
105.2080278067
  0
ARC
  5
3A4
100
AcDbEntity
  8
0
100
AcDbCircle
 62
7
  6
CONTINUOUS
 10
4.9043089999
 20
2.134349742
 40
0.0215451882
100
AcDbArc
 50
99.3728252064
 51
102.9406203555
  0
ARC
  5
3A5
100
AcDbEntity
  8
0
100
AcDbCircle
 62
7
  6
CONTINUOUS
 10
4.9244587975
 20
2.117135542
 40
0.0623584783
100
AcDbArc
 50
141.4151855661
 51
144.8981033589
  0
ARC
  5
3A6
100
AcDbEntity
  8
0
100
AcDbCircle
 62
7
  6
CONTINUOUS
 10
4.9198739347
 20
2.1201797679
 40
0.0568568533
100
AcDbArc
 50
144.9227368369
 51
150.0525862579
  0
ARC
  5
3A7
100
AcDbEntity
  8
0
100
AcDbCircle
 62
7
  6
CONTINUOUS
 10
4.9101329324
 20
2.1215706014
 40
0.0437164604
100
AcDbArc
 50
314.2339056496
 51
319.5720730481
  0
ARC
  5
3A8
100
AcDbEntity
  8
0
100
AcDbCircle
 62
7
  6
CONTINUOUS
 10
4.9117072799
 20
2.1215370418
 40
0.0427519032
100
AcDbArc
 50
274.2057098526
 51
279.8519425712
  0
ARC
  5
3A9
100
AcDbEntity
  8
0
100
AcDbCircle
 62
7
  6
CONTINUOUS
 10
4.9121252543
 20
2.1206410023
 40
0.0415661504
100
AcDbArc
 50
324.999142862
 51
326.9155403714
  0
ARC
  5
3AA
100
AcDbEntity
  8
0
100
AcDbCircle
 62
7
  6
CONTINUOUS
 10
4.9206656638
 20
2.1366823608
 40
0.0600313405
100
AcDbArc
 50
231.6067415388
 51
235.0283743338
  0
ARC
  5
3AB
100
AcDbEntity
  8
0
100
AcDbCircle
 62
7
  6
CONTINUOUS
 10
4.9185256228
 20
2.1334440338
 40
0.0561512236
100
AcDbArc
 50
234.9237976603
 51
240.0510232618
  0
ARC
  5
3AC
100
AcDbEntity
  8
0
100
AcDbCircle
 62
7
  6
CONTINUOUS
 10
4.9147076618
 20
2.1287104442
 40
0.0503924212
100
AcDbArc
 50
196.5009220633
 51
198.2793935459
  0
ARC
  5
3AD
100
AcDbEntity
  8
0
100
AcDbCircle
 62
7
  6
CONTINUOUS
 10
4.911982493
 20
2.1279282928
 40
0.047557339
100
AcDbArc
 50
192.8321587978
 51
196.5299488403
  0
ARC
  5
3AE
100
AcDbEntity
  8
0
100
AcDbCircle
 62
7
  6
CONTINUOUS
 10
4.9113705033
 20
2.1238361655
 40
0.0450747877
100
AcDbArc
 50
279.7736713328
 51
285.3351030491
  0
ARC
  5
3AF
100
AcDbEntity
  8
0
100
AcDbCircle
 62
7
  6
CONTINUOUS
 10
4.9084501738
 20
2.1323065624
 40
0.0404385648
100
AcDbArc
 50
101.4354870355
 51
103.4329485643
  0
ARC
  5
3B0
100
AcDbEntity
  8
0
100
AcDbCircle
 62
7
  6
CONTINUOUS
 10
4.9080951402
 20
2.1337816435
 40
0.0389213616
100
AcDbArc
 50
103.4290494409
 51
105.3807431711
  0
ARC
  5
3B1
100
AcDbEntity
  8
0
100
AcDbCircle
 62
7
  6
CONTINUOUS
 10
4.9119921515
 20
2.1303053313
 40
0.0325152808
100
AcDbArc
 50
190.3993794141
 51
192.5164533801
  0
ARC
  5
3B2
100
AcDbEntity
  8
0
100
AcDbCircle
 62
7
  6
CONTINUOUS
 10
4.9105793565
 20
2.1271496026
 40
0.0319237815
100
AcDbArc
 50
324.9546368012
 51
330.6676628161
  0
ARC
  5
3B3
100
AcDbEntity
  8
0
100
AcDbCircle
 62
7
  6
CONTINUOUS
 10
4.9100564537
 20
2.1271434222
 40
0.0311916825
100
AcDbArc
 50
144.9936528805
 51
147.1213994174
  0
ARC
  5
3B4
100
AcDbEntity
  8
0
100
AcDbCircle
 62
7
  6
CONTINUOUS
 10
4.9106762083
 20
2.1300642967
 40
0.0311774453
100
AcDbArc
 50
188.1102148354
 51
190.4002314047
  0
ARC
  5
3B5
100
AcDbEntity
  8
0
100
AcDbCircle
 62
7
  6
CONTINUOUS
 10
4.909474047
 20
2.1275238054
 40
0.0304960692
100
AcDbArc
 50
147.1275781364
 51
147.625691764
  0
ARC
  5
3B6
100
AcDbEntity
  8
0
100
AcDbCircle
 62
7
  6
CONTINUOUS
 10
4.9120998231
 20
2.1260153803
 40
0.0300804853
100
AcDbArc
 50
359.7084529772
 51
1.0201738239
  0
ARC
  5
3B7
100
AcDbEntity
  8
0
100
AcDbCircle
 62
7
  6
CONTINUOUS
 10
4.9125733432
 20
2.1260227178
 40
0.0296069096
100
AcDbArc
 50
1.0222917814
 51
1.5453755309
  0
ARC
  5
3B8
100
AcDbEntity
  8
0
100
AcDbCircle
 62
7
  6
CONTINUOUS
 10
4.9088545325
 20
2.1296048984
 40
0.0293004335
100
AcDbArc
 50
192.5090193618
 51
194.4416687113
  0
ARC
  5
3B9
100
AcDbEntity
  8
0
100
AcDbCircle
 62
7
  6
CONTINUOUS
 10
4.9130587864
 20
2.126037066
 40
0.0291212561
100
AcDbArc
 50
1.5429137102
 51
2.9750722736
  0
ARC
  5
3BA
100
AcDbEntity
  8
0
100
AcDbCircle
 62
7
  6
CONTINUOUS
 10
4.9135299528
 20
2.1260602777
 40
0.02864952
100
AcDbArc
 50
2.9776197688
 51
3.4908464658
  0
ARC
  5
3BB
100
AcDbEntity
  8
0
100
AcDbCircle
 62
7
  6
CONTINUOUS
 10
4.9134921559
 20
2.124502301
 40
0.0283695363
100
AcDbArc
 50
279.2645743154
 51
281.4162200572
  0
ARC
  5
3BC
100
AcDbEntity
  8
0
100
AcDbCircle
 62
7
  6
CONTINUOUS
 10
4.9139230462
 20
2.1260850017
 40
0.0282556506
100
AcDbArc
 50
3.4893396877
 51
4.669406792
  0
ARC
  5
3BD
100
AcDbEntity
  8
0
100
AcDbCircle
 62
7
  6
CONTINUOUS
 10
4.9139398135
 20
2.12561795
 40
0.028217001
100
AcDbArc
 50
348.3401178407
 51
354.2109060481
  0
ARC
  5
3BE
100
AcDbEntity
  8
0
100
AcDbCircle
 62
7
  6
CONTINUOUS
 10
4.9143651044
 20
2.1261205741
 40
0.0278121638
100
AcDbArc
 50
4.6705027472
 51
5.4554879837
  0
ARC
  5
3BF
100
AcDbEntity
  8
0
100
AcDbCircle
 62
7
  6
CONTINUOUS
 10
4.9147564172
 20
2.1261585541
 40
0.0274190126
100
AcDbArc
 50
5.4542239954
 51
6.9658637002
  0
ARC
  5
3C0
100
AcDbEntity
  8
0
100
AcDbCircle
 62
7
  6
CONTINUOUS
 10
4.915049225
 20
2.1261933832
 40
0.0271241422
100
AcDbArc
 50
6.9678474781
 51
7.3843378627
  0
ARC
  5
3C1
100
AcDbEntity
  8
0
100
AcDbCircle
 62
7
  6
CONTINUOUS
 10
4.9137664707
 20
2.1228065144
 40
0.0266517077
100
AcDbArc
 50
277.2533693547
 51
279.2694635445
  0
ARC
  5
3C2
100
AcDbEntity
  8
0
100
AcDbCircle
 62
7
  6
CONTINUOUS
 10
4.9157027738
 20
2.1262847525
 40
0.0264642713
100
AcDbArc
 50
7.3700174148
 51
11.3485032669
  0
ARC
  5
3C3
100
AcDbEntity
  8
0
100
AcDbCircle
 62
7
  6
CONTINUOUS
 10
4.9168146353
 20
2.1265130486
 40
0.0253292258
100
AcDbArc
 50
11.3370920762
 51
17.3316688029
  0
ARC
  5
3C4
100
AcDbEntity
  8
0
100
AcDbCircle
 62
7
  6
CONTINUOUS
 10
4.9172352038
 20
2.1266403191
 40
0.0248898387
100
AcDbArc
 50
17.3404081275
 51
23.2344835914
  0
ARC
  5
3C5
100
AcDbEntity
  8
0
100
AcDbCircle
 62
7
  6
CONTINUOUS
 10
4.8879300725
 20
2.1730071052
 40
0.103420607
100
AcDbArc
 50
50.9732704229
 51
53.94024705
  0
ARC
  5
3C6
100
AcDbEntity
  8
0
100
AcDbCircle
 62
2
  6
CONTINUOUS
 10
4.9098190111
 20
2.1838999042
 40
0.0478083232
100
AcDbArc
 50
234.9878482438
 51
236.9496339655
  0
ARC
  5
3C7
100
AcDbEntity
  8
0
100
AcDbCircle
 62
7
  6
CONTINUOUS
 10
5.0781617556
 20
2.359439916
 40
0.03
100
AcDbArc
 50
23.6868993629
 51
83.9460923514
  0
ARC
  5
3C8
100
AcDbEntity
  8
0
100
AcDbCircle
 62
7
  6
CONTINUOUS
 10
5.3758509392
 20
2.373994779
 40
0.1875
100
AcDbArc
 50
154.7853651812
 51
176.7993265714
  0
ARC
  5
3C9
100
AcDbEntity
  8
0
100
AcDbCircle
 62
7
  6
CONTINUOUS
 10
5.1399751826
 20
2.3865572581
 40
0.0375
100
AcDbArc
 50
203.6868993629
 51
270.0
  0
ARC
  5
3CA
100
AcDbEntity
  8
0
100
AcDbCircle
 62
7
  6
CONTINUOUS
 10
5.1512019149
 20
2.3865572581
 40
0.0375
100
AcDbArc
 50
270.0
 51
356.7993265714
  0
ARC
  5
3CB
100
AcDbEntity
  8
0
100
AcDbCircle
 62
7
  6
CONTINUOUS
 10
6.8487757512
 20
1.5393574343
 40
2.7975
100
AcDbArc
 50
166.0811997274
 51
173.9460923514
  0
CIRCLE
  5
3CC
100
AcDbEntity
  8
ALL_FEATURES
100
AcDbCircle
 62
9
  6
CONTINUOUS
 10
4.2966617556
 20
2.6190572581
 40
1.027112353
  0
CIRCLE
  5
3CD
100
AcDbEntity
  8
ALL_FEATURES
100
AcDbCircle
 62
9
  6
CONTINUOUS
 10
4.2966617556
 20
2.6190572581
 40
1.0121174932
  0
CIRCLE
  5
3CE
100
AcDbEntity
  8
ALL_FEATURES
100
AcDbCircle
 62
9
  6
CONTINUOUS
 10
4.2966617556
 20
2.6190572581
 40
1.0111149571
  0
CIRCLE
  5
3CF
100
AcDbEntity
  8
ALL_FEATURES
100
AcDbCircle
 62
9
  6
CONTINUOUS
 10
4.2966617556
 20
2.6190572581
 40
0.9961200972
  0
ARC
  5
3D0
100
AcDbEntity
  8
0
100
AcDbCircle
 62
7
  6
CONTINUOUS
 10
4.2966617556
 20
2.6190572581
 40
0.62745
100
AcDbArc
 50
108.855695708
 51
161.1445070271
  0
ARC
  5
3D1
100
AcDbEntity
  8
0
100
AcDbCircle
 62
7
  6
CONTINUOUS
 10
4.2966617556
 20
2.6190572581
 40
0.62745
100
AcDbArc
 50
198.8554929728
 51
251.144304292
  0
ARC
  5
3D2
100
AcDbEntity
  8
0
100
AcDbCircle
 62
7
  6
CONTINUOUS
 10
4.2966617556
 20
2.6190572581
 40
0.62745
100
AcDbArc
 50
288.855695708
 51
341.1445070271
  0
ARC
  5
3D3
100
AcDbEntity
  8
0
100
AcDbCircle
 62
7
  6
CONTINUOUS
 10
4.2966617556
 20
2.6190572581
 40
0.62745
100
AcDbArc
 50
18.8554929728
 51
71.144304292
  0
ARC
  5
3D4
100
AcDbEntity
  8
0
100
AcDbCircle
 62
7
  6
CONTINUOUS
 10
4.2966617556
 20
2.6190572581
 40
0.62025
100
AcDbArc
 50
198.9595091474
 51
251.0404908524
  0
ARC
  5
3D5
100
AcDbEntity
  8
0
100
AcDbCircle
 62
7
  6
CONTINUOUS
 10
4.2966617556
 20
2.6190572581
 40
0.62025
100
AcDbArc
 50
108.959509146
 51
161.0404908541
  0
ARC
  5
3D6
100
AcDbEntity
  8
0
100
AcDbCircle
 62
7
  6
CONTINUOUS
 10
4.2966617556
 20
2.6190572581
 40
0.62025
100
AcDbArc
 50
288.9595036531
 51
341.0404969858
  0
ARC
  5
3D7
100
AcDbEntity
  8
0
100
AcDbCircle
 62
7
  6
CONTINUOUS
 10
4.2966617556
 20
2.6190572581
 40
0.62025
100
AcDbArc
 50
18.9595045788
 51
71.0404946892
  0
ARC
  5
3D8
100
AcDbEntity
  8
0
100
AcDbCircle
 62
9
  6
CONTINUOUS
 10
4.2966617556
 20
2.6190572581
 40
0.5920146191
100
AcDbArc
 50
199.3688297832
 51
250.631170311
  0
ARC
  5
3D9
100
AcDbEntity
  8
0
100
AcDbCircle
 62
9
  6
CONTINUOUS
 10
4.2966617556
 20
2.6190572581
 40
0.5920146188
100
AcDbArc
 50
289.3688298268
 51
340.63116988
  0
ARC
  5
3DA
100
AcDbEntity
  8
0
100
AcDbCircle
 62
9
  6
CONTINUOUS
 10
4.2966617556
 20
2.6190572581
 40
0.5920146153
100
AcDbArc
 50
19.3688293535
 51
70.6311709223
  0
ARC
  5
3DB
100
AcDbEntity
  8
0
100
AcDbCircle
 62
9
  6
CONTINUOUS
 10
4.2966617556
 20
2.6190572581
 40
0.5920146153
100
AcDbArc
 50
109.3688289589
 51
160.6311704979
  0
ARC
  5
3DC
100
AcDbEntity
  8
0
100
AcDbCircle
 62
9
  6
CONTINUOUS
 10
4.2966617556
 20
2.6190572581
 40
0.5840009741
100
AcDbArc
 50
19.485061256
 51
70.5125674922
  0
ARC
  5
3DD
100
AcDbEntity
  8
0
100
AcDbCircle
 62
9
  6
CONTINUOUS
 10
4.2966617556
 20
2.6190572581
 40
0.5840009741
100
AcDbArc
 50
109.487266283
 51
160.5199628824
  0
ARC
  5
3DE
100
AcDbEntity
  8
0
100
AcDbCircle
 62
9
  6
CONTINUOUS
 10
4.2966617556
 20
2.6190572581
 40
0.5840009741
100
AcDbArc
 50
199.4850613428
 51
250.5125674745
  0
ARC
  5
3DF
100
AcDbEntity
  8
0
100
AcDbCircle
 62
9
  6
CONTINUOUS
 10
4.2966617556
 20
2.6190572581
 40
0.5840009741
100
AcDbArc
 50
289.4872662601
 51
340.5199628687
  0
ARC
  5
3E0
100
AcDbEntity
  8
0
100
AcDbCircle
 62
9
  6
CONTINUOUS
 10
4.2966617556
 20
2.6190572581
 40
0.5680586424
100
AcDbArc
 50
19.7278393731
 51
70.2688751492
  0
ARC
  5
3E1
100
AcDbEntity
  8
0
100
AcDbCircle
 62
9
  6
CONTINUOUS
 10
4.2966617556
 20
2.6190572581
 40
0.5680586424
100
AcDbArc
 50
109.7307481035
 51
160.2766845175
  0
ARC
  5
3E2
100
AcDbEntity
  8
0
100
AcDbCircle
 62
9
  6
CONTINUOUS
 10
4.2966617556
 20
2.6190572581
 40
0.5680586424
100
AcDbArc
 50
199.7278393367
 51
250.2688751219
  0
ARC
  5
3E3
100
AcDbEntity
  8
0
100
AcDbCircle
 62
9
  6
CONTINUOUS
 10
4.2966617556
 20
2.6190572581
 40
0.5680586424
100
AcDbArc
 50
289.7307480728
 51
340.2766845199
  0
ARC
  5
3E4
100
AcDbEntity
  8
0
100
AcDbCircle
 62
9
  6
CONTINUOUS
 10
4.2966617556
 20
2.6190572581
 40
0.5658198696
100
AcDbArc
 50
109.7662099292
 51
160.2396814674
  0
ARC
  5
3E5
100
AcDbEntity
  8
0
100
AcDbCircle
 62
9
  6
CONTINUOUS
 10
4.2966617556
 20
2.6190572581
 40
0.5658198696
100
AcDbArc
 50
19.760394232
 51
70.2321059924
  0
ARC
  5
3E6
100
AcDbEntity
  8
0
100
AcDbCircle
 62
9
  6
CONTINUOUS
 10
4.2966617556
 20
2.6190572581
 40
0.5658198696
100
AcDbArc
 50
289.7662099335
 51
340.2396814605
  0
ARC
  5
3E7
100
AcDbEntity
  8
0
100
AcDbCircle
 62
9
  6
CONTINUOUS
 10
4.2966617556
 20
2.6190572581
 40
0.5658198696
100
AcDbArc
 50
199.7603942255
 51
250.232105993
  0
ARC
  5
3E8
100
AcDbEntity
  8
0
100
AcDbCircle
 62
9
  6
CONTINUOUS
 10
4.2966617556
 20
2.6190572581
 40
0.5373898192
100
AcDbArc
 50
110.1941849049
 51
159.8074585355
  0
ARC
  5
3E9
100
AcDbEntity
  8
0
100
AcDbCircle
 62
9
  6
CONTINUOUS
 10
4.2966617556
 20
2.6190572581
 40
0.5373898192
100
AcDbArc
 50
20.1924079999
 51
69.8033069369
  0
ARC
  5
3EA
100
AcDbEntity
  8
0
100
AcDbCircle
 62
9
  6
CONTINUOUS
 10
4.2966617556
 20
2.6190572581
 40
0.5373898192
100
AcDbArc
 50
290.1941849106
 51
339.8074585404
  0
ARC
  5
3EB
100
AcDbEntity
  8
0
100
AcDbCircle
 62
9
  6
CONTINUOUS
 10
4.2966617556
 20
2.6190572581
 40
0.5373898192
100
AcDbArc
 50
200.1924079849
 51
249.8033069408
  0
ARC
  5
3EC
100
AcDbEntity
  8
ALL_FEATURES
100
AcDbCircle
 62
7
  6
CONTINUOUS
 10
4.2966617556
 20
2.6190572581
 40
0.33825
100
AcDbArc
 50
114.0028113749
 51
155.9971886251
  0
ARC
  5
3ED
100
AcDbEntity
  8
ALL_FEATURES
100
AcDbCircle
 62
7
  6
CONTINUOUS
 10
4.2966617556
 20
2.6190572581
 40
0.33825
100
AcDbArc
 50
204.0028113749
 51
245.9971886251
  0
ARC
  5
3EE
100
AcDbEntity
  8
ALL_FEATURES
100
AcDbCircle
 62
7
  6
CONTINUOUS
 10
4.2966617556
 20
2.6190572581
 40
0.33825
100
AcDbArc
 50
294.0028113749
 51
335.9971886251
  0
ARC
  5
3EF
100
AcDbEntity
  8
ALL_FEATURES
100
AcDbCircle
 62
7
  6
CONTINUOUS
 10
4.2966617556
 20
2.6190572581
 40
0.33825
100
AcDbArc
 50
24.0028113749
 51
65.9971886251
  0
CIRCLE
  5
3F0
100
AcDbEntity
  8
0
100
AcDbCircle
 62
9
  6
CONTINUOUS
 10
4.2966617556
 20
2.6190572581
 40
0.2248135035
  0
CIRCLE
  5
3F1
100
AcDbEntity
  8
0
100
AcDbCircle
 62
9
  6
CONTINUOUS
 10
4.2966617556
 20
2.6190572581
 40
0.2198287253
  0
CIRCLE
  5
3F2
100
AcDbEntity
  8
0
100
AcDbCircle
 62
7
  6
CONTINUOUS
 10
4.2966617556
 20
2.6190572581
 40
0.21
  0
CIRCLE
  5
3F3
100
AcDbEntity
  8
0
100
AcDbCircle
 62
9
  6
CONTINUOUS
 10
4.2966617556
 20
2.6190572581
 40
0.1693548389
  0
ARC
  5
3F4
100
AcDbEntity
  8
0
100
AcDbCircle
 62
7
  6
CONTINUOUS
 10
4.2966617556
 20
3.1778072581
 40
0.38775
100
AcDbArc
 50
64.7853651812
 51
115.2146348188
  0
ARC
  5
3F5
100
AcDbEntity
  8
0
100
AcDbCircle
 62
7
  6
CONTINUOUS
 10
4.4307873293
 20
3.0330445117
 40
0.03
100
AcDbArc
 50
271.6702677154
 51
346.081199757
  0
ARC
  5
3F6
100
AcDbEntity
  8
0
100
AcDbCircle
 62
7
  6
CONTINUOUS
 10
4.4241617556
 20
2.9355572581
 40
0.0075
100
AcDbArc
 50
270.0
 51
360.0
  0
ARC
  5
3F7
100
AcDbEntity
  8
0
100
AcDbCircle
 62
7
  6
CONTINUOUS
 10
4.7106490092
 20
2.7531828318
 40
0.03
100
AcDbArc
 50
103.918800243
 51
178.3297322846
  0
ARC
  5
3F8
100
AcDbEntity
  8
0
100
AcDbCircle
 62
7
  6
CONTINUOUS
 10
4.6131617556
 20
2.7465572581
 40
0.0075
100
AcDbArc
 50
90.0
 51
180.0
  0
CIRCLE
  5
3F9
100
AcDbEntity
  8
ALL_FEATURES
100
AcDbCircle
 62
7
  6
CONTINUOUS
 10
4.2966617556
 20
3.8009072581
 40
2.657475
  0
CIRCLE
  5
3FA
100
AcDbEntity
  8
ALL_FEATURES
100
AcDbCircle
 62
9
  6
CONTINUOUS
 10
4.2966617556
 20
3.8009072581
 40
2.6057183081
  0
CIRCLE
  5
3FB
100
AcDbEntity
  8
ALL_FEATURES
100
AcDbCircle
 62
9
  6
CONTINUOUS
 10
4.2966617556
 20
3.8009072581
 40
2.4600874258
  0
CIRCLE
  5
3FC
100
AcDbEntity
  8
ALL_FEATURES
100
AcDbCircle
 62
9
  6
CONTINUOUS
 10
4.2966617556
 20
3.8009072581
 40
2.42475
  0
ARC
  5
3FD
100
AcDbEntity
  8
0
100
AcDbCircle
 62
7
  6
CONTINUOUS
 10
4.5417242346
 20
3.6982464417
 40
0.1875
100
AcDbArc
 50
244.7853651812
 51
266.7993265714
  0
ARC
  5
3FE
100
AcDbEntity
  8
0
100
AcDbCircle
 62
7
  6
CONTINUOUS
 10
4.5291617556
 20
3.4623706851
 40
0.0375
100
AcDbArc
 50
293.6868993629
 51
360.0
  0
ARC
  5
3FF
100
AcDbEntity
  8
0
100
AcDbCircle
 62
7
  6
CONTINUOUS
 10
4.5291617556
 20
3.4735974174
 40
0.0375
100
AcDbArc
 50
0.0
 51
86.7993265714
  0
ARC
  5
400
100
AcDbEntity
  8
0
100
AcDbCircle
 62
7
  6
CONTINUOUS
 10
4.5562790976
 20
3.4005572581
 40
0.03
100
AcDbArc
 50
113.6868993629
 51
173.9460923514
  0
ARC
  5
401
100
AcDbEntity
  8
0
100
AcDbCircle
 62
7
  6
CONTINUOUS
 10
4.8554117556
 20
2.6190572581
 40
0.38775
100
AcDbArc
 50
334.7853651812
 51
25.2146348188
  0
ARC
  5
402
100
AcDbEntity
  8
0
100
AcDbCircle
 62
7
  6
CONTINUOUS
 10
5.0245430578
 20
2.8660770385
 40
0.0511148364
100
AcDbArc
 50
353.6231452538
 51
356.5848912798
  0
ARC
  5
403
100
AcDbEntity
  8
0
100
AcDbCircle
 62
7
  6
CONTINUOUS
 10
5.0385124316
 20
2.869099779
 40
0.0480889422
100
AcDbArc
 50
104.9317644233
 51
110.2532325859
  0
ARC
  5
404
100
AcDbEntity
  8
0
100
AcDbCircle
 62
7
  6
CONTINUOUS
 10
5.028392113
 20
2.8656493792
 40
0.0472420968
100
AcDbArc
 50
351.1872150337
 51
353.6201235239
  0
ARC
  5
405
100
AcDbEntity
  8
0
100
AcDbCircle
 62
2
  6
CONTINUOUS
 10
5.0488503717
 20
2.817433264
 40
0.0392432353
100
AcDbArc
 50
129.1750087959
 51
129.6024896071
  0
ARC
  5
406
100
AcDbEntity
  8
0
100
AcDbCircle
 62
2
  6
CONTINUOUS
 10
5.0487190162
 20
2.8175913897
 40
0.0390376682
100
AcDbArc
 50
129.6018892699
 51
130.7158683027
  0
ARC
  5
407
100
AcDbEntity
  8
0
100
AcDbCircle
 62
2
  6
CONTINUOUS
 10
5.0478296548
 20
2.8185732344
 40
0.0377131544
100
AcDbArc
 50
130.6647770787
 51
142.9849472597
  0
ARC
  5
408
100
AcDbEntity
  8
0
100
AcDbCircle
 62
7
  6
CONTINUOUS
 10
5.0392449327
 20
2.8663407784
 40
0.0339073428
100
AcDbArc
 50
101.0072297056
 51
105.0477778457
  0
ARC
  5
409
100
AcDbEntity
  8
0
100
AcDbCircle
 62
7
  6
CONTINUOUS
 10
5.0311793969
 20
2.8712823614
 40
0.0335571391
100
AcDbArc
 50
14.9538056843
 51
18.9951574246
  0
ARC
  5
40A
100
AcDbEntity
  8
0
100
AcDbCircle
 62
7
  6
CONTINUOUS
 10
5.0312497387
 20
2.8712500717
 40
0.0334975478
100
AcDbArc
 50
11.0578398922
 51
15.0382114858
  0
ARC
  5
40B
100
AcDbEntity
  8
0
100
AcDbCircle
 62
7
  6
CONTINUOUS
 10
5.0383651186
 20
2.8695113161
 40
0.0306171142
100
AcDbArc
 50
104.9981941655
 51
107.1240388706
  0
ARC
  5
40C
100
AcDbEntity
  8
0
100
AcDbCircle
 62
7
  6
CONTINUOUS
 10
5.0370586423
 20
2.8717052408
 40
0.0271635907
100
AcDbArc
 50
241.418959846
 51
243.8788422809
  0
ARC
  5
40D
100
AcDbEntity
  8
0
100
AcDbCircle
 62
7
  6
CONTINUOUS
 10
5.0397756009
 20
2.8742924065
 40
0.0447396067
100
AcDbArc
 50
147.4978238676
 51
150.8285084966
  0
ARC
  5
40E
100
AcDbEntity
  8
0
100
AcDbCircle
 62
7
  6
CONTINUOUS
 10
5.0378363843
 20
2.8755134542
 40
0.0424480218
100
AcDbArc
 50
145.1661763538
 51
147.4813482112
  0
ARC
  5
40F
100
AcDbEntity
  8
0
100
AcDbCircle
 62
7
  6
CONTINUOUS
 10
5.0306600294
 20
2.8798892001
 40
0.0402414696
100
AcDbArc
 50
35.7126798786
 51
37.112152395
  0
ARC
  5
410
100
AcDbEntity
  8
0
100
AcDbCircle
 62
7
  6
CONTINUOUS
 10
5.0354053316
 20
2.8767082069
 40
0.039746125
100
AcDbArc
 50
150.7985416828
 51
156.4308003631
  0
ARC
  5
411
100
AcDbEntity
  8
0
100
AcDbCircle
 62
7
  6
CONTINUOUS
 10
5.0451394891
 20
2.8743910612
 40
0.0354317527
100
AcDbArc
 50
194.9502209313
 51
198.9411320702
  0
ARC
  5
412
100
AcDbEntity
  8
0
100
AcDbCircle
 62
7
  6
CONTINUOUS
 10
5.0352512932
 20
2.8788877558
 40
0.0342218862
100
AcDbArc
 50
280.9874753592
 51
285.0491600767
  0
ARC
  5
413
100
AcDbEntity
  8
0
100
AcDbCircle
 62
7
  6
CONTINUOUS
 10
5.0355396279
 20
2.8780237101
 40
0.0333126527
100
AcDbArc
 50
284.9561140501
 51
289.0610998894
  0
ARC
  5
414
100
AcDbEntity
  8
0
100
AcDbCircle
 62
7
  6
CONTINUOUS
 10
5.0424192839
 20
2.8736960932
 40
0.0326243521
100
AcDbArc
 50
193.1705875032
 51
195.0034596992
  0
ARC
  5
415
100
AcDbEntity
  8
0
100
AcDbCircle
 62
7
  6
CONTINUOUS
 10
5.0356566839
 20
2.8768266019
 40
0.0321212507
100
AcDbArc
 50
279.0349975283
 51
280.9783514922
  0
ARC
  5
416
100
AcDbEntity
  8
0
100
AcDbCircle
 62
7
  6
CONTINUOUS
 10
5.0412502573
 20
2.8726589666
 40
0.0314298522
100
AcDbArc
 50
166.5544262614
 51
168.3656966314
  0
ARC
  5
417
100
AcDbEntity
  8
0
100
AcDbCircle
 62
7
  6
CONTINUOUS
 10
5.0377022405
 20
2.8864690605
 40
0.0305891269
100
AcDbArc
 50
68.1306946596
 51
70.0611119005
  0
ARC
  5
418
100
AcDbEntity
  8
0
100
AcDbCircle
 62
7
  6
CONTINUOUS
 10
5.0377482078
 20
2.886583728
 40
0.030465589
100
AcDbArc
 50
66.117869301
 51
68.1305945175
  0
ARC
  5
419
100
AcDbEntity
  8
0
100
AcDbCircle
 62
7
  6
CONTINUOUS
 10
5.0378366173
 20
2.886780192
 40
0.030250153
100
AcDbArc
 50
62.2266494918
 51
66.1203318637
  0
ARC
  5
41A
100
AcDbEntity
  8
0
100
AcDbCircle
 62
7
  6
CONTINUOUS
 10
5.0354897972
 20
2.8731088805
 40
0.0294274614
100
AcDbArc
 50
330.7246669575
 51
334.7659449445
  0
ARC
  5
41B
100
AcDbEntity
  8
0
100
AcDbCircle
 62
7
  6
CONTINUOUS
 10
5.0361934318
 20
2.8726969003
 40
0.028612238
100
AcDbArc
 50
328.6055358398
 51
330.7552647624
  0
ARC
  5
41C
100
AcDbEntity
  8
0
100
AcDbCircle
 62
2
  6
CONTINUOUS
 10
5.0237550664
 20
2.9145173017
 40
0.0282525831
100
AcDbArc
 50
325.7075469248
 51
330.7643112724
  0
ARC
  5
41D
100
AcDbEntity
  8
0
100
AcDbCircle
 62
7
  6
CONTINUOUS
 10
5.0370742866
 20
2.8723874617
 40
0.0280745327
100
AcDbArc
 50
55.9125013947
 51
60.0286967424
  0
ARC
  5
41E
100
AcDbEntity
  8
0
100
AcDbCircle
 62
7
  6
CONTINUOUS
 10
5.0374079499
 20
2.8723499141
 40
0.0278968142
100
AcDbArc
 50
239.7401396843
 51
241.4223919725
  0
ARC
  5
41F
100
AcDbEntity
  8
0
100
AcDbCircle
 62
7
  6
CONTINUOUS
 10
5.0372740255
 20
2.8721271109
 40
0.0276368809
100
AcDbArc
 50
237.6491954172
 51
239.7471914929
  0
ARC
  5
420
100
AcDbEntity
  8
0
100
AcDbCircle
 62
7
  6
CONTINUOUS
 10
5.0373536878
 20
2.8729258096
 40
0.0274686089
100
AcDbArc
 50
59.9725829017
 51
64.1061099987
  0
ARC
  5
421
100
AcDbEntity
  8
0
100
AcDbCircle
 62
7
  6
CONTINUOUS
 10
5.0379308131
 20
2.8741190673
 40
0.026143115
100
AcDbArc
 50
64.1019060864
 51
69.4849768087
  0
ARC
  5
422
100
AcDbEntity
  8
0
100
AcDbCircle
 62
7
  6
CONTINUOUS
 10
5.0356973053
 20
2.8739894106
 40
0.025719743
100
AcDbArc
 50
164.3082189257
 51
166.5606569149
  0
ARC
  5
423
100
AcDbEntity
  8
0
100
AcDbCircle
 62
7
  6
CONTINUOUS
 10
5.0342752821
 20
2.8740289366
 40
0.0244618355
100
AcDbArc
 50
131.562818435
 51
133.8138269501
  0
ARC
  5
424
100
AcDbEntity
  8
0
100
AcDbCircle
 62
7
  6
CONTINUOUS
 10
5.0336577351
 20
2.8746451159
 40
0.0235896739
100
AcDbArc
 50
133.7676156101
 51
144.365161316
  0
ARC
  5
425
100
AcDbEntity
  8
0
100
AcDbCircle
 62
7
  6
CONTINUOUS
 10
5.0770330906
 20
2.8833953363
 40
0.0556567411
100
AcDbArc
 50
11.2347483532
 51
15.0498553046
  0
ARC
  5
426
100
AcDbEntity
  8
0
100
AcDbCircle
 62
7
  6
CONTINUOUS
 10
5.1119628953
 20
2.8957200542
 40
0.0463533908
100
AcDbArc
 50
173.2477958912
 51
175.2104243475
  0
ARC
  5
427
100
AcDbEntity
  8
0
100
AcDbCircle
 62
7
  6
CONTINUOUS
 10
5.1106794058
 20
2.8880787369
 40
0.0431300833
100
AcDbArc
 50
215.5013414245
 51
219.6456346855
  0
ARC
  5
428
100
AcDbEntity
  8
0
100
AcDbCircle
 62
7
  6
CONTINUOUS
 10
5.1076167854
 20
2.896269301
 40
0.0419728619
100
AcDbArc
 50
169.0223052199
 51
173.2948097092
  0
ARC
  5
429
100
AcDbEntity
  8
0
100
AcDbCircle
 62
7
  6
CONTINUOUS
 10
5.1078893566
 20
2.8857747102
 40
0.0395116757
100
AcDbArc
 50
219.6543980291
 51
221.6790226065
  0
ARC
  5
42A
100
AcDbEntity
  8
0
100
AcDbCircle
 62
7
  6
CONTINUOUS
 10
5.0937871069
 20
2.8898993302
 40
0.0382200414
100
AcDbArc
 50
58.4398673496
 51
61.6744172573
  0
ARC
  5
42B
100
AcDbEntity
  8
0
100
AcDbCircle
 62
2
  6
CONTINUOUS
 10
5.0930133016
 20
2.9258829103
 40
0.036665646
100
AcDbArc
 50
222.3842614524
 51
223.9629206637
  0
ARC
  5
42C
100
AcDbEntity
  8
0
100
AcDbCircle
 62
2
  6
CONTINUOUS
 10
5.0842261117
 20
2.9266840238
 40
0.0355326699
100
AcDbArc
 50
331.4324726674
 51
346.9921719541
  0
ARC
  5
42D
100
AcDbEntity
  8
0
100
AcDbCircle
 62
7
  6
CONTINUOUS
 10
5.0956560594
 20
2.8929153072
 40
0.0346719595
100
AcDbArc
 50
56.5137276964
 51
58.4629636687
  0
ARC
  5
42E
100
AcDbEntity
  8
0
100
AcDbCircle
 62
7
  6
CONTINUOUS
 10
5.095963015
 20
2.8933620483
 40
0.0341300119
100
AcDbArc
 50
47.9038947671
 51
56.5297141859
  0
ARC
  5
42F
100
AcDbEntity
  8
0
100
AcDbCircle
 62
7
  6
CONTINUOUS
 10
5.0781617556
 20
2.8786746001
 40
0.03
100
AcDbArc
 50
276.0539076486
 51
336.3131006371
  0
ARC
  5
430
100
AcDbEntity
  8
0
100
AcDbCircle
 62
7
  6
CONTINUOUS
 10
5.0907022264
 20
2.8869473991
 40
0.0279050961
100
AcDbArc
 50
14.9405822068
 51
19.5726534007
  0
ARC
  5
431
100
AcDbEntity
  8
0
100
AcDbCircle
 62
7
  6
CONTINUOUS
 10
5.0925203816
 20
2.8873783436
 40
0.0260373536
100
AcDbArc
 50
10.3174506126
 51
15.0558364137
  0
ARC
  5
432
100
AcDbEntity
  8
0
100
AcDbCircle
 62
7
  6
CONTINUOUS
 10
5.0984896497
 20
2.8850726707
 40
0.0257977412
100
AcDbArc
 50
110.713114731
 51
111.6975860038
  0
ARC
  5
433
100
AcDbEntity
  8
0
100
AcDbCircle
 62
7
  6
CONTINUOUS
 10
5.098791186
 20
2.8752554514
 40
0.0255246628
100
AcDbArc
 50
249.2460159601
 51
250.3515917171
  0
ARC
  5
434
100
AcDbEntity
  8
0
100
AcDbCircle
 62
7
  6
CONTINUOUS
 10
5.0915728751
 20
2.9011834621
 40
0.0251108466
100
AcDbArc
 50
138.3783609589
 51
140.4830772186
  0
ARC
  5
435
100
AcDbEntity
  8
0
100
AcDbCircle
 62
7
  6
CONTINUOUS
 10
5.0985806024
 20
2.8746964398
 40
0.0249273036
100
AcDbArc
 50
247.3134372574
 51
249.2433261915
  0
ARC
  5
436
100
AcDbEntity
  8
0
100
AcDbCircle
 62
7
  6
CONTINUOUS
 10
5.0914432229
 20
2.9013282077
 40
0.0249192789
100
AcDbArc
 50
142.4980739462
 51
148.8218948462
  0
ARC
  5
437
100
AcDbEntity
  8
0
100
AcDbCircle
 62
7
  6
CONTINUOUS
 10
5.0962141857
 20
2.8910306808
 40
0.0245553666
100
AcDbArc
 50
284.9432380694
 51
289.8147462395
  0
ARC
  5
438
100
AcDbEntity
  8
0
100
AcDbCircle
 62
7
  6
CONTINUOUS
 10
5.0909069144
 20
2.9017348359
 40
0.0242462577
100
AcDbArc
 50
140.4868464553
 51
142.4888420313
  0
ARC
  5
439
100
AcDbEntity
  8
0
100
AcDbCircle
 62
7
  6
CONTINUOUS
 10
5.0985120119
 20
2.8899669919
 40
0.0237290654
100
AcDbArc
 50
239.9466147761
 51
244.7576065071
  0
ARC
  5
43A
100
AcDbEntity
  8
0
100
AcDbCircle
 62
7
  6
CONTINUOUS
 10
5.096512611
 20
2.889744907
 40
0.0232361631
100
AcDbArc
 50
280.2301698035
 51
285.0498078418
  0
ARC
  5
43B
100
AcDbEntity
  8
0
100
AcDbCircle
 62
7
  6
CONTINUOUS
 10
5.0958207189
 20
2.8879905633
 40
0.0231215129
100
AcDbArc
 50
58.9858526134
 51
63.8881068316
  0
ARC
  5
43C
100
AcDbEntity
  8
0
100
AcDbCircle
 62
7
  6
CONTINUOUS
 10
5.0980121253
 20
2.8877854998
 40
0.023062324
100
AcDbArc
 50
104.3636389123
 51
105.0005371281
  0
ARC
  5
43D
100
AcDbEntity
  8
0
100
AcDbCircle
 62
7
  6
CONTINUOUS
 10
5.0961381266
 20
2.8884735142
 40
0.0225440723
100
AcDbArc
 50
56.6185780478
 51
59.0447919593
  0
ARC
  5
43E
100
AcDbEntity
  8
0
100
AcDbCircle
 62
7
  6
CONTINUOUS
 10
5.0978035377
 20
2.8886357852
 40
0.0221868743
100
AcDbArc
 50
100.142190676
 51
104.3865381111
  0
ARC
  5
43F
100
AcDbEntity
  8
0
100
AcDbCircle
 62
7
  6
CONTINUOUS
 10
5.0971754026
 20
2.8894351901
 40
0.0214979131
100
AcDbArc
 50
145.4741010722
 51
150.3613973627
  0
ARC
  5
440
100
AcDbEntity
  8
0
100
AcDbCircle
 62
7
  6
CONTINUOUS
 10
5.0966929038
 20
2.8896924193
 40
0.0209513419
100
AcDbArc
 50
150.3202806955
 51
152.7891581004
  0
ARC
  5
441
100
AcDbEntity
  8
0
100
AcDbCircle
 62
7
  6
CONTINUOUS
 10
5.0969580013
 20
2.8873224558
 40
0.0206618144
100
AcDbArc
 50
237.5221829867
 51
240.0039795237
  0
ARC
  5
442
100
AcDbEntity
  8
0
100
AcDbCircle
 62
7
  6
CONTINUOUS
 10
5.3758509392
 20
2.8641197371
 40
0.1875
100
AcDbArc
 50
183.2006734286
 51
205.2146348188
  0
ARC
  5
443
100
AcDbEntity
  8
0
100
AcDbCircle
 62
7
  6
CONTINUOUS
 10
5.1399751826
 20
2.8515572581
 40
0.0375
100
AcDbArc
 50
90.0
 51
156.3131006371
  0
ARC
  5
444
100
AcDbEntity
  8
0
100
AcDbCircle
 62
7
  6
CONTINUOUS
 10
5.1512019149
 20
2.8515572581
 40
0.0375
100
AcDbArc
 50
3.2006734286
 51
90.0
  0
ARC
  5
445
100
AcDbEntity
  8
0
100
AcDbCircle
 62
7
  6
CONTINUOUS
 10
4.2966617556
 20
4.4408072581
 40
0.38775
100
AcDbArc
 50
244.7853651812
 51
295.2146348188
  0
ARC
  5
446
100
AcDbEntity
  8
0
100
AcDbCircle
 62
7
  6
CONTINUOUS
 10
4.5417242346
 20
3.9203680744
 40
0.1875
100
AcDbArc
 50
93.2006734286
 51
115.2146348188
  0
ARC
  5
447
100
AcDbEntity
  8
0
100
AcDbCircle
 62
7
  6
CONTINUOUS
 10
4.5291617556
 20
4.156243831
 40
0.0375
100
AcDbArc
 50
0.0
 51
66.3131006371
  0
ARC
  5
448
100
AcDbEntity
  8
0
100
AcDbCircle
 62
7
  6
CONTINUOUS
 10
4.5291617556
 20
4.1450170987
 40
0.0375
100
AcDbArc
 50
273.2006734286
 51
360.0
  0
ARC
  5
449
100
AcDbEntity
  8
0
100
AcDbCircle
 62
7
  6
CONTINUOUS
 10
4.5562790976
 20
4.2180572581
 40
0.03
100
AcDbArc
 50
186.0539076486
 51
246.3131006371
  0
ARC
  5
44A
100
AcDbEntity
  8
0
100
AcDbCircle
 62
7
  6
CONTINUOUS
 10
4.2966617556
 20
4.9815572581
 40
0.6200775
100
AcDbArc
 50
289.2543651994
 51
250.7456348002
  0
ARC
  5
44B
100
AcDbEntity
  8
0
100
AcDbCircle
 62
9
  6
CONTINUOUS
 10
4.2966617556
 20
4.9815572581
 40
0.5075775
100
AcDbArc
 50
291.1154419582
 51
248.8845580432
  0
ARC
  5
44C
100
AcDbEntity
  8
0
100
AcDbCircle
 62
7
  6
CONTINUOUS
 10
4.2966617556
 20
4.9815572581
 40
0.50325
100
AcDbArc
 50
291.1909776068
 51
248.8090223928
  0
ARC
  5
44D
100
AcDbEntity
  8
ALL_FEATURES
100
AcDbCircle
 62
7
  6
CONTINUOUS
 10
4.2966617556
 20
4.9815572581
 40
0.4886988938
100
AcDbArc
 50
291.4484678858
 51
248.5515321141
  0
ARC
  5
44E
100
AcDbEntity
  8
0
100
AcDbCircle
 62
7
  6
CONTINUOUS
 10
4.2966617556
 20
4.9815572581
 40
0.485625
100
AcDbArc
 50
291.5050164418
 51
248.4949835558
  0
ARC
  5
44F
100
AcDbEntity
  8
0
100
AcDbCircle
 62
9
  6
CONTINUOUS
 10
4.2966617556
 20
4.9815572581
 40
0.4549122041
100
AcDbArc
 50
292.0935096357
 51
247.906500595
  0
ARC
  5
450
100
AcDbEntity
  8
ALL_FEATURES
100
AcDbCircle
 62
7
  6
CONTINUOUS
 10
4.2966617556
 20
4.9815572581
 40
0.33825
100
AcDbArc
 50
300.5561532409
 51
239.4438467592
  0
CIRCLE
  5
451
100
AcDbEntity
  8
0
100
AcDbCircle
 62
9
  6
CONTINUOUS
 10
4.2966617556
 20
4.9815572581
 40
0.2248135035
  0
CIRCLE
  5
452
100
AcDbEntity
  8
0
100
AcDbCircle
 62
9
  6
CONTINUOUS
 10
4.2966617556
 20
4.9815572581
 40
0.2198287253
  0
CIRCLE
  5
453
100
AcDbEntity
  8
0
100
AcDbCircle
 62
7
  6
CONTINUOUS
 10
4.2966617556
 20
4.9815572581
 40
0.21
  0
CIRCLE
  5
454
100
AcDbEntity
  8
0
100
AcDbCircle
 62
9
  6
CONTINUOUS
 10
4.2966617556
 20
4.9815572581
 40
0.1693548389
  0
ARC
  5
455
100
AcDbEntity
  8
0
100
AcDbCircle
 62
7
  6
CONTINUOUS
 10
4.4307873293
 20
4.5855700045
 40
0.03
100
AcDbArc
 50
13.918800243
 51
88.3297322846
  0
ARC
  5
456
100
AcDbEntity
  8
0
100
AcDbCircle
 62
7
  6
CONTINUOUS
 10
4.4241617556
 20
4.6830572581
 40
0.0075
100
AcDbArc
 50
0.0
 51
90.0
  0
ARC
  5
457
100
AcDbEntity
  8
0
100
AcDbCircle
 62
7
  6
CONTINUOUS
 10
5.3763615794
 20
5.1711712537
 40
2.7975
100
AcDbArc
 50
256.0811997274
 51
263.9460923514
  0
ARC
  5
458
100
AcDbEntity
  8
0
100
AcDbCircle
 62
7
  6
CONTINUOUS
 10
6.8487757512
 20
3.6987570819
 40
2.7975
100
AcDbArc
 50
186.0539076486
 51
193.9188002726
  0
ARC
  5
459
100
AcDbEntity
  8
0
100
AcDbCircle
 62
7
  6
CONTINUOUS
 10
6.8487757512
 20
3.9198574343
 40
2.7975
100
AcDbArc
 50
166.0811997274
 51
173.9460923514
  0
LINE
  5
45A
100
AcDbEntity
  8
0
100
AcDbLine
 62
7
  6
CONTINUOUS
 10
3.6947205695
 20
2.0252692458
 11
3.686986382
 21
2.0260563513
  0
SPLINE
  5
45B
100
AcDbEntity
  8
0
100
AcDbSpline
 62
7
  6
CONTINUOUS
 70
0
 71
3
 72
11
 73
7
 74
0
 42
0.0000001
 43
0.0000001
 44
0.0000000001
 40
0.0
 40
0.0
 40
0.0
 40
0.0
 40
0.250005864
 40
0.5000082226
 40
0.7500079588
 40
1.0
 40
1.0
 40
1.0
 40
1.0
 10
3.686986382
 20
2.0260563513
 30
0.0
 10
3.6859510248
 20
2.0261164503
 30
0.0
 10
3.683877636
 20
2.0261962182
 30
0.0
 10
3.6807652648
 20
2.0261713555
 30
0.0
 10
3.6776580356
 20
2.0259868196
 30
0.0
 10
3.6755972176
 20
2.0257366991
 30
0.0
 10
3.6745727632
 20
2.0255756067
 30
0.0
  0
LINE
  5
45C
100
AcDbEntity
  8
0
100
AcDbLine
 62
7
  6
CONTINUOUS
 10
3.7170200837
 20
2.0349879841
 11
3.7264619621
 21
2.0313737871
  0
LINE
  5
45D
100
AcDbEntity
  8
0
100
AcDbLine
 62
7
  6
CONTINUOUS
 10
3.7264619621
 20
2.0313737871
 11
3.7266057686
 21
2.0313123839
  0
LINE
  5
45E
100
AcDbEntity
  8
0
100
AcDbLine
 62
7
  6
CONTINUOUS
 10
3.7302332828
 20
2.0296734095
 11
3.7303490456
 21
2.0296179185
  0
LINE
  5
45F
100
AcDbEntity
  8
0
100
AcDbLine
 62
7
  6
CONTINUOUS
 10
3.703162868
 20
2.0388841927
 11
3.7033073528
 21
2.0388556088
  0
LINE
  5
460
100
AcDbEntity
  8
0
100
AcDbLine
 62
7
  6
CONTINUOUS
 10
3.7071344203
 20
2.0379904573
 11
3.707366627
 21
2.0379316827
  0
LINE
  5
461
100
AcDbEntity
  8
0
100
AcDbLine
 62
7
  6
CONTINUOUS
 10
3.7094662378
 20
2.0373710001
 11
3.7170200837
 21
2.0349879841
  0
LINE
  5
462
100
AcDbEntity
  8
0
100
AcDbLine
 62
7
  6
CONTINUOUS
 10
3.7116678639
 20
2.1420269151
 11
3.7059795481
 21
2.1422245491
  0
SPLINE
  5
463
100
AcDbEntity
  8
0
100
AcDbSpline
 62
7
  6
CONTINUOUS
 70
0
 71
3
 72
8
 73
4
 74
0
 42
0.0000001
 43
0.0000001
 44
0.0000000001
 40
0.0
 40
0.0
 40
0.0
 40
0.0
 40
1.0
 40
1.0
 40
1.0
 40
1.0
 10
3.7043414435
 20
2.1423412973
 30
0.0
 10
3.7043092434
 20
2.1423438297
 30
0.0
 10
3.7042770432
 20
2.1423463621
 30
0.0
 10
3.7042448431
 20
2.1423488945
 30
0.0
  0
LINE
  5
464
100
AcDbEntity
  8
0
100
AcDbLine
 62
7
  6
CONTINUOUS
 10
3.6981962227
 20
2.1429632495
 11
3.6980064594
 21
2.1429864565
  0
LINE
  5
465
100
AcDbEntity
  8
0
100
AcDbLine
 62
7
  6
CONTINUOUS
 10
3.6946477409
 20
2.1434302437
 11
3.6945485168
 21
2.1434442425
  0
LINE
  5
466
100
AcDbEntity
  8
0
100
AcDbLine
 62
7
  6
CONTINUOUS
 10
3.6945485168
 20
2.1434442425
 11
3.6820361375
 21
2.1455252128
  0
SPLINE
  5
467
100
AcDbEntity
  8
0
100
AcDbSpline
 62
7
  6
CONTINUOUS
 70
0
 71
3
 72
13
 73
9
 74
0
 42
0.0000001
 43
0.0000001
 44
0.0000000001
 40
0.0
 40
0.0
 40
0.0
 40
0.0
 40
0.2499806844
 40
0.3749879382
 40
0.4999948818
 40
0.6250017039
 40
0.7500078934
 40
1.0
 40
1.0
 40
1.0
 40
1.0
 10
3.7315439646
 20
2.1448673823
 30
0.0
 10
3.7304503328
 20
2.1445059433
 30
0.0
 10
3.7287890703
 20
2.1440242923
 30
0.0
 10
3.7265468095
 20
2.1434944432
 30
0.0
 10
3.7248530637
 20
2.1431508075
 30
0.0
 10
3.723149891
 20
2.1428578453
 30
0.0
 10
3.7208691509
 20
2.1425309666
 30
0.0
 10
3.7191492753
 20
2.1423552167
 30
0.0
 10
3.7180009199
 20
2.142265383
 30
0.0
  0
LINE
  5
468
100
AcDbEntity
  8
0
100
AcDbLine
 62
7
  6
CONTINUOUS
 10
3.7041240329
 20
2.1581448065
 11
3.7076341327
 21
2.1579601266
  0
LINE
  5
469
100
AcDbEntity
  8
0
100
AcDbLine
 62
7
  6
CONTINUOUS
 10
3.7083558207
 20
2.1579327383
 11
3.708496567
 21
2.1579279784
  0
SPLINE
  5
46A
100
AcDbEntity
  8
0
100
AcDbSpline
 62
7
  6
CONTINUOUS
 70
0
 71
3
 72
8
 73
4
 74
0
 42
0.0000001
 43
0.0000001
 44
0.0000000001
 40
0.0
 40
0.0
 40
0.0
 40
0.0
 40
1.0
 40
1.0
 40
1.0
 40
1.0
 10
3.7121738299
 20
2.1578928251
 30
0.0
 10
3.7122025886
 20
2.1578933999
 30
0.0
 10
3.7122313473
 20
2.1578939746
 30
0.0
 10
3.7122601059
 20
2.1578945493
 30
0.0
  0
LINE
  5
46B
100
AcDbEntity
  8
0
100
AcDbLine
 62
7
  6
CONTINUOUS
 10
3.678761813
 20
2.1618907314
 11
3.6810404486
 21
2.161502866
  0
LINE
  5
46C
100
AcDbEntity
  8
0
100
AcDbLine
 62
7
  6
CONTINUOUS
 10
3.6810404486
 20
2.161502866
 11
3.7002959167
 21
2.158521524
  0
LINE
  5
46D
100
AcDbEntity
  8
0
100
AcDbLine
 62
7
  6
CONTINUOUS
 10
3.7002959167
 20
2.158521524
 11
3.7041240329
 21
2.1581448065
  0
SPLINE
  5
46E
100
AcDbEntity
  8
0
100
AcDbSpline
 62
7
  6
CONTINUOUS
 70
0
 71
3
 72
16
 73
12
 74
0
 42
0.0000001
 43
0.0000001
 44
0.0000000001
 40
0.0
 40
0.0
 40
0.0
 40
0.0
 40
0.0625038638
 40
0.1250054889
 40
0.187505762
 40
0.2500059141
 40
0.3750052907
 40
0.5000044335
 40
0.6250036432
 40
0.7500028758
 40
1.0
 40
1.0
 40
1.0
 40
1.0
 10
3.6458253194
 20
2.1661343727
 30
0.0
 10
3.6464454689
 20
2.1661043284
 30
0.0
 10
3.6476851914
 20
2.1660324683
 30
0.0
 10
3.649542857
 20
2.1658966249
 30
0.0
 10
3.6513985683
 20
2.1657367984
 30
0.0
 10
3.6538703401
 20
2.1654968644
 30
0.0
 10
3.6569556054
 20
2.1651532506
 30
0.0
 10
3.6606514596
 20
2.1646873747
 30
0.0
 10
3.664341633
 20
2.1641786221
 30
0.0
 10
3.6692551139
 20
2.1634533872
 30
0.0
 10
3.6729335985
 20
2.1628655911
 30
0.0
 10
3.6753835095
 20
2.1624595864
 30
0.0
  0
SPLINE
  5
46F
100
AcDbEntity
  8
0
100
AcDbSpline
 62
7
  6
CONTINUOUS
 70
0
 71
3
 72
11
 73
7
 74
0
 42
0.0000001
 43
0.0000001
 44
0.0000000001
 40
0.0
 40
0.0
 40
0.0
 40
0.0
 40
0.2499945964
 40
0.4999943205
 40
0.7499958639
 40
1.0
 40
1.0
 40
1.0
 40
1.0
 10
3.6271077198
 20
2.1647798799
 30
0.0
 10
3.6279809596
 20
2.1649856131
 30
0.0
 10
3.6297402645
 20
2.165344242
 30
0.0
 10
3.6324033765
 20
2.1657408662
 30
0.0
 10
3.6350815797
 20
2.1660163715
 30
0.0
 10
3.6368730514
 20
2.1661266685
 30
0.0
 10
3.6377693762
 20
2.1661658764
 30
0.0
  0
LINE
  5
470
100
AcDbEntity
  8
0
100
AcDbLine
 62
7
  6
CONTINUOUS
 10
3.6377693762
 20
2.1661658764
 11
3.6441681187
 21
2.1661998114
  0
SPLINE
  5
471
100
AcDbEntity
  8
0
100
AcDbSpline
 62
7
  6
CONTINUOUS
 70
0
 71
3
 72
11
 73
7
 74
0
 42
0.0000001
 43
0.0000001
 44
0.0000000001
 40
0.0
 40
0.0
 40
0.0
 40
0.0
 40
0.2499994767
 40
0.499989324
 40
0.7499844506
 40
1.0
 40
1.0
 40
1.0
 40
1.0
 10
3.611014067
 20
2.1570894199
 30
0.0
 10
3.6119091725
 20
2.1578032069
 30
0.0
 10
3.6137662929
 20
2.1591489427
 30
0.0
 10
3.6167213166
 20
2.160907741
 30
0.0
 10
3.61981713
 20
2.1624042763
 30
0.0
 10
3.6219555729
 20
2.1632305651
 30
0.0
 10
3.6230384333
 20
2.1636024357
 30
0.0
  0
SPLINE
  5
472
100
AcDbEntity
  8
0
100
AcDbSpline
 62
7
  6
CONTINUOUS
 70
0
 71
3
 72
9
 73
5
 74
0
 42
0.0000001
 43
0.0000001
 44
0.0000000001
 40
0.0
 40
0.0
 40
0.0
 40
0.0
 40
0.500048332
 40
1.0
 40
1.0
 40
1.0
 40
1.0
 10
3.5971095826
 20
2.1326988562
 30
0.0
 10
3.5972298674
 20
2.1337679887
 30
0.0
 10
3.5975610366
 20
2.1358969786
 30
0.0
 10
3.5980836067
 20
2.1379877522
 30
0.0
 10
3.5983936266
 20
2.1390177778
 30
0.0
  0
SPLINE
  5
473
100
AcDbEntity
  8
0
100
AcDbSpline
 62
7
  6
CONTINUOUS
 70
0
 71
3
 72
12
 73
8
 74
0
 42
0.0000001
 43
0.0000001
 44
0.0000000001
 40
0.0
 40
0.0
 40
0.0
 40
0.0
 40
0.2499871076
 40
0.3750202366
 40
0.5000520409
 40
0.7500232728
 40
1.0
 40
1.0
 40
1.0
 40
1.0
 10
3.5983936266
 20
2.1390177778
 30
0.0
 10
3.5987460422
 20
2.140188661
 30
0.0
 10
3.5993697986
 20
2.1419187287
 30
0.0
 10
3.6003852047
 20
2.1441448732
 30
0.0
 10
3.6015202596
 20
2.1463126667
 30
0.0
 10
3.6031546495
 20
2.1489030189
 30
0.0
 10
3.6046659705
 20
2.1508312212
 30
0.0
 10
3.6054650461
 20
2.1517567038
 30
0.0
  0
LINE
  5
474
100
AcDbEntity
  8
0
100
AcDbLine
 62
7
  6
CONTINUOUS
 10
3.6066605003
 20
2.1530794739
 11
3.6101018824
 21
2.1563380223
  0
LINE
  5
475
100
AcDbEntity
  8
0
100
AcDbLine
 62
7
  6
CONTINUOUS
 10
3.6084419041
 20
2.1000084952
 11
3.604776205
 21
2.1047671074
  0
SPLINE
  5
476
100
AcDbEntity
  8
0
100
AcDbSpline
 62
7
  6
CONTINUOUS
 70
0
 71
3
 72
13
 73
9
 74
0
 42
0.0000001
 43
0.0000001
 44
0.0000000001
 40
0.0
 40
0.0
 40
0.0
 40
0.0
 40
0.249943774
 40
0.4998580188
 40
0.6248875541
 40
0.7499216685
 40
0.8749543265
 40
1.0
 40
1.0
 40
1.0
 40
1.0
 10
3.604776205
 20
2.1047671074
 30
0.0
 10
3.6036637868
 20
2.1063754344
 30
0.0
 10
3.6016091587
 20
2.1097143954
 30
0.0
 10
3.5995768614
 20
2.114178399
 30
0.0
 10
3.5983438853
 20
2.1178940951
 30
0.0
 10
3.5976290137
 20
2.1207434755
 30
0.0
 10
3.5971365266
 20
2.123639613
 30
0.0
 10
3.5969616863
 20
2.125590838
 30
0.0
 10
3.5969131211
 20
2.1265679859
 30
0.0
  0
SPLINE
  5
477
100
AcDbEntity
  8
0
100
AcDbSpline
 62
7
  6
CONTINUOUS
 70
0
 71
3
 72
15
 73
11
 74
0
 42
0.0000001
 43
0.0000001
 44
0.0000000001
 40
0.0
 40
0.0
 40
0.0
 40
0.0
 40
0.1250094812
 40
0.2500039157
 40
0.3750025186
 40
0.5000002936
 40
0.6249991747
 40
0.7499989783
 40
0.8750005217
 40
1.0
 40
1.0
 40
1.0
 40
1.0
 10
3.6347113829
 20
2.0831270321
 30
0.0
 10
3.6336627558
 20
2.0833191699
 30
0.0
 10
3.6315820789
 20
2.0838002908
 30
0.0
 10
3.6285406185
 20
2.0848017384
 30
0.0
 10
3.6255984178
 20
2.0860647097
 30
0.0
 10
3.622769715
 20
2.0875635871
 30
0.0
 10
3.6200634619
 20
2.0892727718
 30
0.0
 10
3.617482079
 20
2.0911644351
 30
0.0
 10
3.615023339
 20
2.093212237
 30
0.0
 10
3.6134644927
 20
2.0946684739
 30
0.0
 10
3.6127042249
 20
2.0954156999
 30
0.0
  0
LINE
  5
478
100
AcDbEntity
  8
0
100
AcDbLine
 62
7
  6
CONTINUOUS
 10
3.6127042249
 20
2.0954156999
 11
3.6084419041
 21
2.1000084952
  0
LINE
  5
479
100
AcDbEntity
  8
0
100
AcDbLine
 62
7
  6
CONTINUOUS
 10
3.6663622241
 20
2.0918714503
 11
3.6611813079
 21
2.0885123446
  0
SPLINE
  5
47A
100
AcDbEntity
  8
0
100
AcDbSpline
 62
7
  6
CONTINUOUS
 70
0
 71
3
 72
14
 73
10
 74
0
 42
0.0000001
 43
0.0000001
 44
0.0000000001
 40
0.0
 40
0.0
 40
0.0
 40
0.0
 40
0.24991436
 40
0.3749232059
 40
0.4999338315
 40
0.6249453853
 40
0.7499607638
 40
0.8749735136
 40
1.0
 40
1.0
 40
1.0
 40
1.0
 10
3.6611813079
 20
2.0885123446
 30
0.0
 10
3.6595185826
 20
2.0875513851
 30
0.0
 10
3.6569455814
 20
2.0862369283
 30
0.0
 10
3.6533755207
 20
2.0848123962
 30
0.0
 10
3.6506307676
 20
2.0839258384
 30
0.0
 10
3.6478282216
 20
2.0832425005
 30
0.0
 10
3.6449806046
 20
2.0827790728
 30
0.0
 10
3.6421044527
 20
2.0825500755
 30
0.0
 10
3.6401803125
 20
2.0825601443
 30
0.0
 10
3.639220668
 20
2.0826062966
 30
0.0
  0
SPLINE
  5
47B
100
AcDbEntity
  8
0
100
AcDbSpline
 62
7
  6
CONTINUOUS
 70
0
 71
3
 72
15
 73
11
 74
0
 42
0.0000001
 43
0.0000001
 44
0.0000000001
 40
0.0
 40
0.0
 40
0.0
 40
0.0
 40
0.1250086194
 40
0.2500024405
 40
0.3750007075
 40
0.499999151
 40
0.624996971
 40
0.7499979387
 40
0.8749950365
 40
1.0
 40
1.0
 40
1.0
 40
1.0
 10
3.6379456085
 20
2.0984312201
 30
0.0
 10
3.6387043911
 20
2.0983975171
 30
0.0
 10
3.6402257478
 20
2.0983967693
 30
0.0
 10
3.6424979436
 20
2.0986026091
 30
0.0
 10
3.6447417767
 20
2.0990158273
 30
0.0
 10
3.6469393684
 20
2.0996284031
 30
0.0
 10
3.6490754197
 20
2.1004288169
 30
0.0
 10
3.6511396727
 20
2.1013986477
 30
0.0
 10
3.6531250286
 20
2.1025204313
 30
0.0
 10
3.6543940724
 20
2.1033574408
 30
0.0
 10
3.6550149874
 20
2.1037948396
 30
0.0
  0
LINE
  5
47C
100
AcDbEntity
  8
0
100
AcDbLine
 62
7
  6
CONTINUOUS
 10
3.6191895749
 20
2.108546025
 11
3.6217723429
 21
2.1057882722
  0
SPLINE
  5
47D
100
AcDbEntity
  8
0
100
AcDbSpline
 62
7
  6
CONTINUOUS
 70
0
 71
3
 72
15
 73
11
 74
0
 42
0.0000001
 43
0.0000001
 44
0.0000000001
 40
0.0
 40
0.0
 40
0.0
 40
0.0
 40
0.1249954615
 40
0.2499942303
 40
0.3749957741
 40
0.4999922291
 40
0.6249917706
 40
0.7499904314
 40
0.8749869249
 40
1.0
 40
1.0
 40
1.0
 40
1.0
 10
3.6217723429
 20
2.1057882722
 30
0.0
 10
3.6222629963
 20
2.1053149377
 30
0.0
 10
3.6232724572
 20
2.1043967687
 30
0.0
 10
3.6248749359
 20
2.103123261
 30
0.0
 10
3.6265652996
 20
2.1019682888
 30
0.0
 10
3.6283419251
 20
2.1009502369
 30
0.0
 10
3.6301990873
 20
2.1000871867
 30
0.0
 10
3.6321259247
 20
2.099392764
 30
0.0
 10
3.6341083629
 20
2.0988781274
 30
0.0
 10
3.6354561576
 20
2.0986571551
 30
0.0
 10
3.6361332549
 20
2.0985768032
 30
0.0
  0
SPLINE
  5
47E
100
AcDbEntity
  8
0
100
AcDbSpline
 62
7
  6
CONTINUOUS
 70
0
 71
3
 72
15
 73
11
 74
0
 42
0.0000001
 43
0.0000001
 44
0.0000000001
 40
0.0
 40
0.0
 40
0.0
 40
0.0
 40
0.1250068071
 40
0.2500002722
 40
0.3749985127
 40
0.4999974671
 40
0.6249961053
 40
0.7499976847
 40
0.8749950777
 40
1.0
 40
1.0
 40
1.0
 40
1.0
 10
3.6125909228
 20
2.1260341425
 30
0.0
 10
3.6125738037
 20
2.1253314654
 30
0.0
 10
3.6125976769
 20
2.1239239949
 30
0.0
 10
3.6128161906
 20
2.121824164
 30
0.0
 10
3.6132212042
 20
2.1197520409
 30
0.0
 10
3.613808738
 20
2.1177241616
 30
0.0
 10
3.6145715348
 20
2.1157556655
 30
0.0
 10
3.6154952653
 20
2.1138576643
 30
0.0
 10
3.6165649897
 20
2.1120383308
 30
0.0
 10
3.6173645521
 20
2.1108805678
 30
0.0
 10
3.6177827849
 20
2.1103156655
 30
0.0
  0
SPLINE
  5
47F
100
AcDbEntity
  8
0
100
AcDbSpline
 62
7
  6
CONTINUOUS
 70
0
 71
3
 72
15
 73
11
 74
0
 42
0.0000001
 43
0.0000001
 44
0.0000000001
 40
0.0
 40
0.0
 40
0.0
 40
0.0
 40
0.125000257
 40
0.2499951251
 40
0.3749986444
 40
0.5000022207
 40
0.6250051539
 40
0.7500076723
 40
0.8750014675
 40
1.0
 40
1.0
 40
1.0
 40
1.0
 10
3.6187144204
 20
2.1411060721
 30
0.0
 10
3.6183412938
 20
2.140712156
 30
0.0
 10
3.6176206439
 20
2.1398995667
 30
0.0
 10
3.6166274035
 20
2.1386083156
 30
0.0
 10
3.615731088
 20
2.1372477454
 30
0.0
 10
3.614940247
 20
2.1358231768
 30
0.0
 10
3.6142609375
 20
2.1343421518
 30
0.0
 10
3.6136975395
 20
2.1328133219
 30
0.0
 10
3.6132509967
 20
2.1312465621
 30
0.0
 10
3.6130302373
 20
2.1301830285
 30
0.0
 10
3.6129384455
 20
2.1296482767
 30
0.0
  0
LINE
  5
480
100
AcDbEntity
  8
0
100
AcDbLine
 62
7
  6
CONTINUOUS
 10
3.6410503489
 20
2.149969979
 11
3.6359792043
 21
2.1493921859
  0
SPLINE
  5
481
100
AcDbEntity
  8
0
100
AcDbSpline
 62
7
  6
CONTINUOUS
 70
0
 71
3
 72
14
 73
10
 74
0
 42
0.0000001
 43
0.0000001
 44
0.0000000001
 40
0.0
 40
0.0
 40
0.0
 40
0.0
 40
0.1250130425
 40
0.2500253219
 40
0.3750379562
 40
0.5000504813
 40
0.7499522054
 40
0.8749679777
 40
1.0
 40
1.0
 40
1.0
 40
1.0
 10
3.6359792043
 20
2.1493921859
 30
0.0
 10
3.6353544469
 20
2.1492909711
 30
0.0
 10
3.6341086489
 20
2.1490644869
 30
0.0
 10
3.6322563947
 20
2.1486443557
 30
0.0
 10
3.6304259775
 20
2.1481363595
 30
0.0
 10
3.6280250226
 20
2.1473333859
 30
0.0
 10
3.6256965664
 20
2.1463194606
 30
0.0
 10
3.6234956545
 20
2.145065655
 30
0.0
 10
3.6224464094
 20
2.1443543589
 30
0.0
 10
3.6219377757
 20
2.1439775569
 30
0.0
  0
SPLINE
  5
482
100
AcDbEntity
  8
0
100
AcDbSpline
 62
7
  6
CONTINUOUS
 70
0
 71
3
 72
18
 73
14
 74
0
 42
0.0000001
 43
0.0000001
 44
0.0000000001
 40
0.0
 40
0.0
 40
0.0
 40
0.0
 40
0.1250000705
 40
0.2500000087
 40
0.3749996883
 40
0.499998884
 40
0.6249972082
 40
0.687497434
 40
0.7499976575
 40
0.812497877
 40
0.8749982224
 40
0.9374981886
 40
1.0
 40
1.0
 40
1.0
 40
1.0
 10
3.6700158996
 20
2.1476172983
 30
0.0
 10
3.6688440575
 20
2.1478028118
 30
0.0
 10
3.6664984172
 20
2.1481616277
 30
0.0
 10
3.6629739138
 20
2.1486587367
 30
0.0
 10
3.6594429427
 20
2.1491079685
 30
0.0
 10
3.655904712
 20
2.1494963499
 30
0.0
 10
3.6529498062
 20
2.1497569873
 30
0.0
 10
3.6505824236
 20
2.1499190979
 30
0.0
 10
3.6488052249
 20
2.150014128
 30
0.0
 10
3.6470266017
 20
2.1500778856
 30
0.0
 10
3.645246989
 20
2.150104635
 30
0.0
 10
3.6434672156
 20
2.1500881143
 30
0.0
 10
3.6422813571
 20
2.1500433781
 30
0.0
 10
3.6416890521
 20
2.1500101801
 30
0.0
  0
LINE
  5
483
100
AcDbEntity
  8
0
100
AcDbLine
 62
7
  6
CONTINUOUS
 10
3.5713077637
 20
2.1806813479
 11
3.5738946921
 21
2.1810565453
  0
SPLINE
  5
484
100
AcDbEntity
  8
0
100
AcDbSpline
 62
7
  6
CONTINUOUS
 70
0
 71
3
 72
12
 73
8
 74
0
 42
0.0000001
 43
0.0000001
 44
0.0000000001
 40
0.0
 40
0.0
 40
0.0
 40
0.0
 40
0.2499608649
 40
0.3749819322
 40
0.5000011052
 40
0.7499975022
 40
1.0
 40
1.0
 40
1.0
 40
1.0
 10
3.5738946921
 20
2.1810565453
 30
0.0
 10
3.5751178465
 20
2.1812923992
 30
0.0
 10
3.5769323509
 20
2.1817588268
 30
0.0
 10
3.579296491
 20
2.182546962
 30
0.0
 10
3.5816273426
 20
2.18343029
 30
0.0
 10
3.5844790648
 20
2.1846887443
 30
0.0
 10
3.5866990515
 20
2.1858229027
 30
0.0
 10
3.5877952214
 20
2.1864150701
 30
0.0
  0
SPLINE
  5
485
100
AcDbEntity
  8
0
100
AcDbSpline
 62
7
  6
CONTINUOUS
 70
0
 71
3
 72
11
 73
7
 74
0
 42
0.0000001
 43
0.0000001
 44
0.0000000001
 40
0.0
 40
0.0
 40
0.0
 40
0.0
 40
0.2499966398
 40
0.4999964197
 40
0.749997747
 40
1.0
 40
1.0
 40
1.0
 40
1.0
 10
3.5877952214
 20
2.1864150701
 30
0.0
 10
3.5890366931
 20
2.1870857317
 30
0.0
 10
3.5914851167
 20
2.1884915916
 30
0.0
 10
3.5950663687
 20
2.1907503415
 30
0.0
 10
3.5985670051
 20
2.1931318899
 30
0.0
 10
3.6008519819
 20
2.1947888897
 30
0.0
 10
3.6019838955
 20
2.1956314454
 30
0.0
  0
LINE
  5
486
100
AcDbEntity
  8
0
100
AcDbLine
 62
7
  6
CONTINUOUS
 10
3.6019838955
 20
2.1956314454
 11
3.6117344036
 21
2.2033882116
  0
LINE
  5
487
100
AcDbEntity
  8
0
100
AcDbLine
 62
7
  6
CONTINUOUS
 10
3.5521835752
 20
2.1884006658
 11
3.5540931875
 21
2.1863590521
  0
SPLINE
  5
488
100
AcDbEntity
  8
0
100
AcDbSpline
 62
7
  6
CONTINUOUS
 70
0
 71
3
 72
15
 73
11
 74
0
 42
0.0000001
 43
0.0000001
 44
0.0000000001
 40
0.0
 40
0.0
 40
0.0
 40
0.0
 40
0.125002005
 40
0.2500052832
 40
0.3750024112
 40
0.4999961912
 40
0.624991068
 40
0.749990965
 40
0.8749971014
 40
1.0
 40
1.0
 40
1.0
 40
1.0
 10
3.5540931875
 20
2.1863590521
 30
0.0
 10
3.5545662422
 20
2.1859070882
 30
0.0
 10
3.5555503244
 20
2.1850417217
 30
0.0
 10
3.5571377195
 20
2.1838827206
 30
0.0
 10
3.5588283389
 20
2.1828795203
 30
0.0
 10
3.5606103485
 20
2.1820492325
 30
0.0
 10
3.5624661581
 20
2.1814005516
 30
0.0
 10
3.56437646
 20
2.1809368982
 30
0.0
 10
3.5663210063
 20
2.1806517858
 30
0.0
 10
3.5676290987
 20
2.1805754592
 30
0.0
 10
3.5682832459
 20
2.1805632219
 30
0.0
  0
LINE
  5
489
100
AcDbEntity
  8
0
100
AcDbLine
 62
7
  6
CONTINUOUS
 10
3.5682832459
 20
2.1805632219
 11
3.5713077637
 21
2.1806813479
  0
SPLINE
  5
48A
100
AcDbEntity
  8
0
100
AcDbSpline
 62
7
  6
CONTINUOUS
 70
0
 71
3
 72
15
 73
11
 74
0
 42
0.0000001
 43
0.0000001
 44
0.0000000001
 40
0.0
 40
0.0
 40
0.0
 40
0.0
 40
0.124993229
 40
0.2499924189
 40
0.3749922553
 40
0.4999896793
 40
0.6249874577
 40
0.7499867224
 40
0.8749877543
 40
1.0
 40
1.0
 40
1.0
 40
1.0
 10
3.5474287584
 20
2.2066800568
 30
0.0
 10
3.5473238215
 20
2.2059918821
 30
0.0
 10
3.5471597992
 20
2.2046079025
 30
0.0
 10
3.54707084
 20
2.202519268
 30
0.0
 10
3.5471530255
 20
2.2004298038
 30
0.0
 10
3.5474235815
 20
2.1983558334
 30
0.0
 10
3.5478929012
 20
2.1963172888
 30
0.0
 10
3.5485647175
 20
2.1943359465
 30
0.0
 10
3.5494345982
 20
2.1924333683
 30
0.0
 10
3.5501384744
 20
2.1912289389
 30
0.0
 10
3.5505180299
 20
2.1906452599
 30
0.0
  0
LINE
  5
48B
100
AcDbEntity
  8
0
100
AcDbLine
 62
7
  6
CONTINUOUS
 10
3.5505180299
 20
2.1906452599
 11
3.5521835752
 21
2.1884006658
  0
LINE
  5
48C
100
AcDbEntity
  8
0
100
AcDbLine
 62
7
  6
CONTINUOUS
 10
3.5770475431
 20
2.2447264023
 11
3.5676901736
 21
2.236427207
  0
SPLINE
  5
48D
100
AcDbEntity
  8
0
100
AcDbSpline
 62
7
  6
CONTINUOUS
 70
0
 71
3
 72
13
 73
9
 74
0
 42
0.0000001
 43
0.0000001
 44
0.0000000001
 40
0.0
 40
0.0
 40
0.0
 40
0.0
 40
0.2499984264
 40
0.4999934178
 40
0.6249954176
 40
0.7499974812
 40
0.8749990676
 40
1.0
 40
1.0
 40
1.0
 40
1.0
 10
3.5676901736
 20
2.236427207
 30
0.0
 10
3.5665427926
 20
2.2353496289
 30
0.0
 10
3.5642748111
 20
2.2331656924
 30
0.0
 10
3.5615271479
 20
2.2303474334
 30
0.0
 10
3.5593948368
 20
2.2280311482
 30
0.0
 10
3.5578333843
 20
2.2262597447
 30
0.0
 10
3.5563163916
 20
2.2244500837
 30
0.0
 10
3.5553401533
 20
2.2232149004
 30
0.0
 10
3.5548626857
 20
2.2225892358
 30
0.0
  0
SPLINE
  5
48E
100
AcDbEntity
  8
0
100
AcDbSpline
 62
7
  6
CONTINUOUS
 70
0
 71
3
 72
13
 73
9
 74
0
 42
0.0000001
 43
0.0000001
 44
0.0000000001
 40
0.0
 40
0.0
 40
0.0
 40
0.0
 40
0.249992497
 40
0.4999744503
 40
0.6249792923
 40
0.7499857028
 40
0.8749934302
 40
1.0
 40
1.0
 40
1.0
 40
1.0
 10
3.5548626857
 20
2.2225892358
 30
0.0
 10
3.5542603495
 20
2.2217999458
 30
0.0
 10
3.5530896202
 20
2.2201951034
 30
0.0
 10
3.5517338836
 20
2.2181139324
 30
0.0
 10
3.5507354982
 20
2.2163969331
 30
0.0
 10
3.550037061
 20
2.2150809233
 30
0.0
 10
3.5493983643
 20
2.2137347779
 30
0.0
 10
3.5490210652
 20
2.2128155909
 30
0.0
 10
3.5488465495
 20
2.2123507986
 30
0.0
  0
LINE
  5
48F
100
AcDbEntity
  8
0
100
AcDbLine
 62
7
  6
CONTINUOUS
 10
3.5488465495
 20
2.2123507986
 11
3.548173375
 21
2.2102517786
  0
LINE
  5
490
100
AcDbEntity
  8
0
100
AcDbLine
 62
7
  6
CONTINUOUS
 10
3.6159395506
 20
2.2671426783
 11
3.6138183539
 21
2.2668430919
  0
SPLINE
  5
491
100
AcDbEntity
  8
0
100
AcDbSpline
 62
7
  6
CONTINUOUS
 70
0
 71
3
 72
18
 73
14
 74
0
 42
0.0000001
 43
0.0000001
 44
0.0000000001
 40
0.0
 40
0.0
 40
0.0
 40
0.0
 40
0.062497343
 40
0.1249975344
 40
0.1874980049
 40
0.2499990227
 40
0.3749861797
 40
0.4374887875
 40
0.4999916864
 40
0.6249913238
 40
0.749993118
 40
0.8749960714
 40
1.0
 40
1.0
 40
1.0
 40
1.0
 10
3.6138183539
 20
2.2668430919
 30
0.0
 10
3.6131852989
 20
2.2667238239
 30
0.0
 10
3.611927962
 20
2.266436668
 30
0.0
 10
3.6100744383
 20
2.2658859631
 30
0.0
 10
3.6082521242
 20
2.2652399422
 30
0.0
 10
3.6058631509
 20
2.2642726346
 30
0.0
 10
3.6035304221
 20
2.2631727836
 30
0.0
 10
3.6012487518
 20
2.2619750137
 30
0.0
 10
3.5989975679
 20
2.2607203945
 30
0.0
 10
3.5962368238
 20
2.2590590557
 30
0.0
 10
3.5929968837
 20
2.2569498561
 30
0.0
 10
3.5898218858
 20
2.2547442708
 30
0.0
 10
3.5877440868
 20
2.2532195278
 30
0.0
 10
3.586713557
 20
2.2524461017
 30
0.0
  0
LINE
  5
492
100
AcDbEntity
  8
0
100
AcDbLine
 62
7
  6
CONTINUOUS
 10
3.586713557
 20
2.2524461017
 11
3.5770475431
 21
2.2447264023
  0
SPLINE
  5
493
100
AcDbEntity
  8
0
100
AcDbSpline
 62
7
  6
CONTINUOUS
 70
0
 71
3
 72
15
 73
11
 74
0
 42
0.0000001
 43
0.0000001
 44
0.0000000001
 40
0.0
 40
0.0
 40
0.0
 40
0.0
 40
0.1250137328
 40
0.2500142553
 40
0.3750156483
 40
0.5000148358
 40
0.6250125003
 40
0.750007157
 40
0.8750056159
 40
1.0
 40
1.0
 40
1.0
 40
1.0
 10
3.6348109282
 20
2.2615727036
 30
0.0
 10
3.6343456405
 20
2.262003431
 30
0.0
 10
3.633376247
 20
2.2628240203
 30
0.0
 10
3.631815437
 20
2.263915612
 30
0.0
 10
3.6301594291
 20
2.2648567376
 30
0.0
 10
3.6284235542
 20
2.2656404092
 30
0.0
 10
3.6266247706
 20
2.2662655898
 30
0.0
 10
3.6247795907
 20
2.2667353929
 30
0.0
 10
3.6229036212
 20
2.2670585915
 30
0.0
 10
3.6216406193
 20
2.2671830477
 30
0.0
 10
3.6210079962
 20
2.2672240651
 30
0.0
  0
LINE
  5
494
100
AcDbEntity
  8
0
100
AcDbLine
 62
7
  6
CONTINUOUS
 10
3.6195521472
 20
2.2672821672
 11
3.6159395506
 21
2.2671426783
  0
LINE
  5
495
100
AcDbEntity
  8
0
100
AcDbLine
 62
7
  6
CONTINUOUS
 10
3.6406933973
 20
2.2377854555
 11
3.6414481881
 21
2.2413571133
  0
SPLINE
  5
496
100
AcDbEntity
  8
0
100
AcDbSpline
 62
7
  6
CONTINUOUS
 70
0
 71
3
 72
15
 73
11
 74
0
 42
0.0000001
 43
0.0000001
 44
0.0000000001
 40
0.0
 40
0.0
 40
0.0
 40
0.0
 40
0.1249934196
 40
0.2499929313
 40
0.3749931612
 40
0.4999906523
 40
0.6249883667
 40
0.7499873896
 40
0.87498816
 40
1.0
 40
1.0
 40
1.0
 40
1.0
 10
3.6414481881
 20
2.2413571133
 30
0.0
 10
3.6415545143
 20
2.2420430561
 30
0.0
 10
3.64172136
 20
2.2434226846
 30
0.0
 10
3.6418144417
 20
2.2455051621
 30
0.0
 10
3.6417360855
 20
2.2475888046
 30
0.0
 10
3.6414687939
 20
2.2496571933
 30
0.0
 10
3.6410019213
 20
2.2516901947
 30
0.0
 10
3.64033165
 20
2.2536657809
 30
0.0
 10
3.6394624395
 20
2.2555621208
 30
0.0
 10
3.6387585509
 20
2.256761945
 30
0.0
 10
3.6383789325
 20
2.2573431976
 30
0.0
  0
LINE
  5
497
100
AcDbEntity
  8
0
100
AcDbLine
 62
7
  6
CONTINUOUS
 10
3.6383789325
 20
2.2573431976
 11
3.636716764
 21
2.2595728518
  0
SPLINE
  5
498
100
AcDbEntity
  8
0
100
AcDbSpline
 62
7
  6
CONTINUOUS
 70
0
 71
3
 72
20
 73
16
 74
0
 42
0.0000001
 43
0.0000001
 44
0.0000000001
 40
0.0
 40
0.0
 40
0.0
 40
0.0
 40
0.1250006357
 40
0.2500003759
 40
0.3749991718
 40
0.4375006152
 40
0.5000018619
 40
0.5625031613
 40
0.625004414
 40
0.6875050965
 40
0.750005372
 40
0.8125050265
 40
0.8750040209
 40
0.9375035633
 40
1.0
 40
1.0
 40
1.0
 40
1.0
 10
3.6210967951
 20
2.2116785831
 30
0.0
 10
3.6220335359
 20
2.2125555331
 30
0.0
 10
3.6238896806
 20
2.2143281121
 30
0.0
 10
3.6266085399
 20
2.2170538099
 30
0.0
 10
3.6288088304
 20
2.2193890085
 30
0.0
 10
3.6305204816
 20
2.2213013365
 30
0.0
 10
3.631776447
 20
2.222760061
 30
0.0
 10
3.6330004938
 20
2.2242457091
 30
0.0
 10
3.6341876688
 20
2.2257610468
 30
0.0
 10
3.6353312391
 20
2.2273096332
 30
0.0
 10
3.6364237603
 20
2.2288947412
 30
0.0
 10
3.6374557975
 20
2.2305200223
 30
0.0
 10
3.6384145267
 20
2.2321898578
 30
0.0
 10
3.6392836333
 20
2.2339082876
 30
0.0
 10
3.6397864031
 20
2.2350902965
 30
0.0
 10
3.6400139794
 20
2.2356901207
 30
0.0
  0
LINE
  5
499
100
AcDbEntity
  8
0
100
AcDbLine
 62
7
  6
CONTINUOUS
 10
3.6400139794
 20
2.2356901207
 11
3.6406933973
 21
2.2377854555
  0
LINE
  5
49A
100
AcDbEntity
  8
0
100
AcDbLine
 62
7
  6
CONTINUOUS
 10
3.6471571238
 20
2.2683333538
 11
3.6502255762
 21
2.2643111502
  0
SPLINE
  5
49B
100
AcDbEntity
  8
0
100
AcDbSpline
 62
7
  6
CONTINUOUS
 70
0
 71
3
 72
17
 73
13
 74
0
 42
0.0000001
 43
0.0000001
 44
0.0000000001
 40
0.0
 40
0.0
 40
0.0
 40
0.0
 40
0.1249998574
 40
0.2500017439
 40
0.3749966301
 40
0.4999853791
 40
0.6249703171
 40
0.687480012
 40
0.7499899554
 40
0.8749804486
 40
0.9374910252
 40
1.0
 40
1.0
 40
1.0
 40
1.0
 10
3.6502255762
 20
2.2643111502
 30
0.0
 10
3.6508297095
 20
2.2634287198
 30
0.0
 10
3.6519773215
 20
2.2616211721
 30
0.0
 10
3.6534861799
 20
2.2587862309
 30
0.0
 10
3.6547575889
 20
2.2558364632
 30
0.0
 10
3.6557633927
 20
2.2527856854
 30
0.0
 10
3.6563636041
 20
2.2501761746
 30
0.0
 10
3.6566950613
 20
2.2480624248
 30
0.0
 10
3.6569268829
 20
2.2459354577
 30
0.0
 10
3.6570101178
 20
2.2437945507
 30
0.0
 10
3.6569485311
 20
2.2416560195
 30
0.0
 10
3.6568704575
 20
2.2405888552
 30
0.0
 10
3.6568201527
 20
2.2400564387
 30
0.0
  0
SPLINE
  5
49C
100
AcDbEntity
  8
0
100
AcDbSpline
 62
7
  6
CONTINUOUS
 70
0
 71
3
 72
14
 73
10
 74
0
 42
0.0000001
 43
0.0000001
 44
0.0000000001
 40
0.0
 40
0.0
 40
0.0
 40
0.0
 40
0.125017342
 40
0.2500260778
 40
0.3750394901
 40
0.5000495426
 40
0.6250571884
 40
0.7500639024
 40
1.0
 40
1.0
 40
1.0
 40
1.0
 10
3.6283077213
 20
2.2813247708
 30
0.0
 10
3.6289571032
 20
2.2811418245
 30
0.0
 10
3.6302444361
 20
2.2807340552
 30
0.0
 10
3.6321320696
 20
2.2800003677
 30
0.0
 10
3.633969929
 20
2.2791496938
 30
0.0
 10
3.6357527574
 20
2.2781893358
 30
0.0
 10
3.6374767682
 20
2.2771270992
 30
0.0
 10
3.6396929529
 20
2.2755866743
 30
0.0
 10
3.6412635197
 20
2.2743042048
 30
0.0
 10
3.6422678175
 20
2.2734038633
 30
0.0
  0
LINE
  5
49D
100
AcDbEntity
  8
0
100
AcDbLine
 62
7
  6
CONTINUOUS
 10
3.6434880094
 20
2.2722685508
 11
3.6471571238
 21
2.2683333538
  0
SPLINE
  5
49E
100
AcDbEntity
  8
0
100
AcDbSpline
 62
7
  6
CONTINUOUS
 70
0
 71
3
 72
13
 73
9
 74
0
 42
0.0000001
 43
0.0000001
 44
0.0000000001
 40
0.0
 40
0.0
 40
0.0
 40
0.0
 40
0.1250201476
 40
0.2500424908
 40
0.499999369
 40
0.7499402838
 40
0.874965235
 40
1.0
 40
1.0
 40
1.0
 40
1.0
 10
3.6037279116
 20
2.2804498834
 30
0.0
 10
3.6045535867
 20
2.2806991219
 30
0.0
 10
3.6062162326
 20
2.2811614043
 30
0.0
 10
3.6095805077
 20
2.281927197
 30
0.0
 10
3.6138523494
 20
2.2825675177
 30
0.0
 10
3.6181716333
 20
2.2827229712
 30
0.0
 10
3.621617414
 20
2.2825308993
 30
0.0
 10
3.6233318802
 20
2.2823276648
 30
0.0
 10
3.6241848263
 20
2.2821991493
 30
0.0
  0
SPLINE
  5
49F
100
AcDbEntity
  8
0
100
AcDbSpline
 62
7
  6
CONTINUOUS
 70
0
 71
3
 72
10
 73
6
 74
0
 42
0.0000001
 43
0.0000001
 44
0.0000000001
 40
0.0
 40
0.0
 40
0.0
 40
0.0
 40
0.4999930064
 40
0.7499964851
 40
1.0
 40
1.0
 40
1.0
 40
1.0
 10
3.5660969119
 20
2.2577768564
 30
0.0
 10
3.5677751998
 20
2.259192104
 30
0.0
 10
3.5703260271
 20
2.2612760514
 30
0.0
 10
3.5737983768
 20
2.2639636317
 30
0.0
 10
3.5755598065
 20
2.2652743631
 30
0.0
 10
3.5764472491
 20
2.2659204337
 30
0.0
  0
SPLINE
  5
4A0
100
AcDbEntity
  8
0
100
AcDbSpline
 62
7
  6
CONTINUOUS
 70
0
 71
3
 72
8
 73
4
 74
0
 42
0.0000001
 43
0.0000001
 44
0.0000000001
 40
0.0
 40
0.0
 40
0.0
 40
0.0
 40
1.0
 40
1.0
 40
1.0
 40
1.0
 10
3.5764472491
 20
2.2659204337
 30
0.0
 10
3.5764728677
 20
2.2659390725
 30
0.0
 10
3.5764984863
 20
2.2659577113
 30
0.0
 10
3.5765241049
 20
2.2659763501
 30
0.0
  0
LINE
  5
4A1
100
AcDbEntity
  8
0
100
AcDbLine
 62
7
  6
CONTINUOUS
 10
3.5850667112
 20
2.2717221924
 11
3.5853039243
 21
2.271867885
  0
LINE
  5
4A2
100
AcDbEntity
  8
0
100
AcDbLine
 62
7
  6
CONTINUOUS
 10
3.5923672308
 20
2.275828683
 11
3.5925592476
 21
2.2759255525
  0
LINE
  5
4A3
100
AcDbEntity
  8
0
100
AcDbLine
 62
7
  6
CONTINUOUS
 10
3.5939089746
 20
2.2765894039
 11
3.5986666204
 21
2.2786807909
  0
LINE
  5
4A4
100
AcDbEntity
  8
0
100
AcDbLine
 62
7
  6
CONTINUOUS
 10
3.5436424018
 20
2.2349682959
 11
3.5461795563
 21
2.2382888525
  0
LINE
  5
4A5
100
AcDbEntity
  8
0
100
AcDbLine
 62
7
  6
CONTINUOUS
 10
3.5469508209
 20
2.2392245023
 11
3.5470248758
 21
2.2393128695
  0
LINE
  5
4A6
100
AcDbEntity
  8
0
100
AcDbLine
 62
7
  6
CONTINUOUS
 10
3.5515447372
 20
2.2443270265
 11
3.5516825313
 21
2.2444704659
  0
LINE
  5
4A7
100
AcDbEntity
  8
0
100
AcDbLine
 62
7
  6
CONTINUOUS
 10
3.5578462867
 20
2.2505011445
 11
3.5660969119
 21
2.2577768564
  0
SPLINE
  5
4A8
100
AcDbEntity
  8
0
100
AcDbSpline
 62
7
  6
CONTINUOUS
 70
0
 71
3
 72
11
 73
7
 74
0
 42
0.0000001
 43
0.0000001
 44
0.0000000001
 40
0.0
 40
0.0
 40
0.0
 40
0.0
 40
0.2500065109
 40
0.5000030769
 40
0.7500019558
 40
1.0
 40
1.0
 40
1.0
 40
1.0
 10
3.5343838897
 20
2.217730372
 30
0.0
 10
3.5347538597
 20
2.2187726607
 30
0.0
 10
3.5355566177
 20
2.2208354135
 30
0.0
 10
3.5369315251
 20
2.2238566922
 30
0.0
 10
3.5384573888
 20
2.2268043464
 30
0.0
 10
3.5395654714
 20
2.2287197013
 30
0.0
 10
3.5401394427
 20
2.2296650676
 30
0.0
  0
SPLINE
  5
4A9
100
AcDbEntity
  8
0
100
AcDbSpline
 62
7
  6
CONTINUOUS
 70
0
 71
3
 72
11
 73
7
 74
0
 42
0.0000001
 43
0.0000001
 44
0.0000000001
 40
0.0
 40
0.0
 40
0.0
 40
0.0
 40
0.2500031209
 40
0.499999375
 40
0.749997861
 40
1.0
 40
1.0
 40
1.0
 40
1.0
 10
3.532490503
 20
2.1982970133
 30
0.0
 10
3.5322935944
 20
2.1994068461
 30
0.0
 10
3.5320027763
 20
2.2016463608
 30
0.0
 10
3.5318941784
 20
2.2050312137
 30
0.0
 10
3.5321108055
 20
2.2084106535
 30
0.0
 10
3.5324643685
 20
2.2106407262
 30
0.0
 10
3.5326896213
 20
2.2117451505
 30
0.0
  0
LINE
  5
4AA
100
AcDbEntity
  8
0
100
AcDbLine
 62
7
  6
CONTINUOUS
 10
3.5415542874
 20
2.1797220527
 11
3.538837197
 21
2.1832733996
  0
SPLINE
  5
4AB
100
AcDbEntity
  8
0
100
AcDbSpline
 62
7
  6
CONTINUOUS
 70
0
 71
3
 72
15
 73
11
 74
0
 42
0.0000001
 43
0.0000001
 44
0.0000000001
 40
0.0
 40
0.0
 40
0.0
 40
0.0
 40
0.1250142603
 40
0.2500137721
 40
0.3750129959
 40
0.5000127978
 40
0.6250100349
 40
0.7500086528
 40
0.8750062613
 40
1.0
 40
1.0
 40
1.0
 40
1.0
 10
3.5622475627
 20
2.1663068552
 30
0.0
 10
3.5614399107
 20
2.166482651
 30
0.0
 10
3.5598377403
 20
2.1668975593
 30
0.0
 10
3.5574910333
 20
2.1677054537
 30
0.0
 10
3.5552136651
 20
2.1686918636
 30
0.0
 10
3.5530161426
 20
2.1698447056
 30
0.0
 10
3.5509061611
 20
2.1711504918
 30
0.0
 10
3.5488884115
 20
2.1725942698
 30
0.0
 10
3.5469644147
 20
2.1741603227
 30
0.0
 10
3.5457449996
 20
2.1752776416
 30
0.0
 10
3.5451508434
 20
2.1758520631
 30
0.0
  0
LINE
  5
4AC
100
AcDbEntity
  8
0
100
AcDbLine
 62
7
  6
CONTINUOUS
 10
3.5451508434
 20
2.1758520631
 11
3.5415542874
 21
2.1797220527
  0
SPLINE
  5
4AD
100
AcDbEntity
  8
0
100
AcDbSpline
 62
7
  6
CONTINUOUS
 70
0
 71
3
 72
14
 73
10
 74
0
 42
0.0000001
 43
0.0000001
 44
0.0000000001
 40
0.0
 40
0.0
 40
0.0
 40
0.0
 40
0.2499436659
 40
0.3749495707
 40
0.499956264
 40
0.6249649157
 40
0.7499725001
 40
0.8749816006
 40
1.0
 40
1.0
 40
1.0
 40
1.0
 10
3.584247943
 20
2.1673697849
 30
0.0
 10
3.582651774
 20
2.1669178832
 30
0.0
 10
3.5802256201
 20
2.1663434031
 30
0.0
 10
3.5769485581
 20
2.1658155112
 30
0.0
 10
3.5744728213
 20
2.1655466514
 30
0.0
 10
3.5719861508
 20
2.1654119895
 30
0.0
 10
3.5694956769
 20
2.1654175261
 30
0.0
 10
3.5670097105
 20
2.1655680249
 30
0.0
 10
3.5653609707
 20
2.1657663579
 30
0.0
 10
3.5645404808
 20
2.1658900585
 30
0.0
  0
SPLINE
  5
4AE
100
AcDbEntity
  8
0
100
AcDbSpline
 62
7
  6
CONTINUOUS
 70
0
 71
3
 72
10
 73
6
 74
0
 42
0.0000001
 43
0.0000001
 44
0.0000000001
 40
0.0
 40
0.0
 40
0.0
 40
0.0
 40
0.4999933184
 40
0.7499965832
 40
1.0
 40
1.0
 40
1.0
 40
1.0
 10
3.6226850348
 20
2.1903377576
 30
0.0
 10
3.6209581187
 20
2.1888815032
 30
0.0
 10
3.6183344792
 20
2.1867358895
 30
0.0
 10
3.6147638994
 20
2.183967369
 30
0.0
 10
3.6129525829
 20
2.1826171139
 30
0.0
 10
3.6120398629
 20
2.1819517267
 30
0.0
  0
LINE
  5
4AF
100
AcDbEntity
  8
0
100
AcDbLine
 62
7
  6
CONTINUOUS
 10
3.6034226261
 20
2.1761448069
 11
3.6032331179
 21
2.1760283594
  0
SPLINE
  5
4B0
100
AcDbEntity
  8
0
100
AcDbSpline
 62
7
  6
CONTINUOUS
 70
0
 71
3
 72
8
 73
4
 74
0
 42
0.0000001
 43
0.0000001
 44
0.0000000001
 40
0.0
 40
0.0
 40
0.0
 40
0.0
 40
1.0
 40
1.0
 40
1.0
 40
1.0
 10
3.5961584674
 20
2.1720697306
 30
0.0
 10
3.5961342489
 20
2.1720575755
 30
0.0
 10
3.5961100305
 20
2.1720454204
 30
0.0
 10
3.5960858121
 20
2.1720332654
 30
0.0
  0
LINE
  5
4B1
100
AcDbEntity
  8
0
100
AcDbLine
 62
7
  6
CONTINUOUS
 10
3.5947796741
 20
2.171393118
 11
3.5900608603
 21
2.1693340408
  0
SPLINE
  5
4B2
100
AcDbEntity
  8
0
100
AcDbSpline
 62
7
  6
CONTINUOUS
 70
0
 71
3
 72
15
 73
11
 74
0
 42
0.0000001
 43
0.0000001
 44
0.0000000001
 40
0.0
 40
0.0
 40
0.0
 40
0.0
 40
0.1250052104
 40
0.2500025012
 40
0.3750061355
 40
0.5000074036
 40
0.6250072038
 40
0.750005757
 40
0.8750029012
 40
1.0
 40
1.0
 40
1.0
 40
1.0
 10
3.6559112903
 20
2.2345864638
 30
0.0
 10
3.6556077032
 20
2.2333130746
 30
0.0
 10
3.65487593
 20
2.2307947243
 30
0.0
 10
3.6534567039
 20
2.2271286845
 30
0.0
 10
3.6517625632
 20
2.2235821052
 30
0.0
 10
3.6498403758
 20
2.2201548015
 30
0.0
 10
3.6477251746
 20
2.2168438315
 30
0.0
 10
3.6454474874
 20
2.213643069
 30
0.0
 10
3.6430326288
 20
2.2105450251
 30
0.0
 10
3.6413461009
 20
2.2085418332
 30
0.0
 10
3.6404864832
 20
2.2075546553
 30
0.0
  0
SPLINE
  5
4B3
100
AcDbEntity
  8
0
100
AcDbSpline
 62
7
  6
CONTINUOUS
 70
0
 71
3
 72
9
 73
5
 74
0
 42
0.0000001
 43
0.0000001
 44
0.0000000001
 40
0.0
 40
0.0
 40
0.0
 40
0.0
 40
0.4999968206
 40
1.0
 40
1.0
 40
1.0
 40
1.0
 10
3.6404864832
 20
2.2075546553
 30
0.0
 10
3.6393456946
 20
2.2062445828
 30
0.0
 10
3.6370051121
 20
2.2036753514
 30
0.0
 10
3.6345657919
 20
2.2012002344
 30
0.0
 10
3.6333261494
 20
2.1999832496
 30
0.0
  0
SPLINE
  5
4B4
100
AcDbEntity
  8
0
100
AcDbSpline
 62
7
  6
CONTINUOUS
 70
0
 71
3
 72
9
 73
5
 74
0
 42
0.0000001
 43
0.0000001
 44
0.0000000001
 40
0.0
 40
0.0
 40
0.0
 40
0.0
 40
0.4999943657
 40
1.0
 40
1.0
 40
1.0
 40
1.0
 10
3.6333261494
 20
2.1999832496
 30
0.0
 10
3.6318320325
 20
2.1985164417
 30
0.0
 10
3.6287860427
 20
2.1956412333
 30
0.0
 10
3.6256471944
 20
2.1928682225
 30
0.0
 10
3.6240578163
 20
2.1915051431
 30
0.0
  0
SPLINE
  5
4B5
100
AcDbEntity
  8
0
100
AcDbSpline
 62
7
  6
CONTINUOUS
 70
0
 71
3
 72
11
 73
7
 74
0
 42
0.0000001
 43
0.0000001
 44
0.0000000001
 40
0.0
 40
0.0
 40
0.0
 40
0.0
 40
0.2500057748
 40
0.5000079642
 40
0.7500076742
 40
1.0
 40
1.0
 40
1.0
 40
1.0
 10
3.4727353363
 20
2.8847929455
 30
0.0
 10
3.4722356501
 20
2.8857086675
 30
0.0
 10
3.4711995434
 20
2.8875204555
 30
0.0
 10
3.4695186842
 20
2.8901617438
 30
0.0
 10
3.4677030479
 20
2.8927125314
 30
0.0
 10
3.466389906
 20
2.8943360725
 30
0.0
 10
3.4657058459
 20
2.8951235861
 30
0.0
  0
LINE
  5
4B6
100
AcDbEntity
  8
0
100
AcDbLine
 62
7
  6
CONTINUOUS
 10
3.4961780624
 20
2.8641238972
 11
3.4980348749
 21
2.854281247
  0
LINE
  5
4B7
100
AcDbEntity
  8
0
100
AcDbLine
 62
7
  6
CONTINUOUS
 10
3.4980348749
 20
2.854281247
 11
3.4980758876
 21
2.8540001093
  0
LINE
  5
4B8
100
AcDbEntity
  8
0
100
AcDbLine
 62
7
  6
CONTINUOUS
 10
3.4922660268
 20
2.877624863
 11
3.4923165939
 21
2.8774900919
  0
LINE
  5
4B9
100
AcDbEntity
  8
0
100
AcDbLine
 62
7
  6
CONTINUOUS
 10
3.4942637553
 20
2.8715953914
 11
3.4961780624
 21
2.8641238972
  0
LINE
  5
4BA
100
AcDbEntity
  8
0
100
AcDbLine
 62
7
  6
CONTINUOUS
 10
3.5499691217
 20
2.9553493775
 11
3.5507129943
 21
2.9523450486
  0
SPLINE
  5
4BB
100
AcDbEntity
  8
0
100
AcDbSpline
 62
7
  6
CONTINUOUS
 70
0
 71
3
 72
11
 73
7
 74
0
 42
0.0000001
 43
0.0000001
 44
0.0000000001
 40
0.0
 40
0.0
 40
0.0
 40
0.0
 40
0.2500054543
 40
0.5000038373
 40
0.7500000169
 40
1.0
 40
1.0
 40
1.0
 40
1.0
 10
3.5501219753
 20
2.9671714529
 30
0.0
 10
3.5499617462
 20
2.9664375751
 30
0.0
 10
3.549694418
 20
2.9649576099
 30
0.0
 10
3.5494616599
 20
2.9627140693
 30
0.0
 10
3.5494032434
 20
2.9604591744
 30
0.0
 10
3.5494832622
 20
2.9589571425
 30
0.0
 10
3.5495531575
 20
2.9582092521
 30
0.0
  0
SPLINE
  5
4BC
100
AcDbEntity
  8
0
100
AcDbSpline
 62
7
  6
CONTINUOUS
 70
0
 71
3
 72
15
 73
11
 74
0
 42
0.0000001
 43
0.0000001
 44
0.0000000001
 40
0.0
 40
0.0
 40
0.0
 40
0.0
 40
0.1250063582
 40
0.2499979824
 40
0.3749953276
 40
0.4999939517
 40
0.6249930904
 40
0.7499958649
 40
0.8749938608
 40
1.0
 40
1.0
 40
1.0
 40
1.0
 10
3.5642493092
 20
2.9869845442
 30
0.0
 10
3.5635430474
 20
2.9866023446
 30
0.0
 10
3.5621626493
 20
2.9857767402
 30
0.0
 10
3.5602130895
 20
2.9843560329
 30
0.0
 10
3.5584050384
 20
2.982758785
 30
0.0
 10
3.556753909
 20
2.980999887
 30
0.0
 10
3.5552714302
 20
2.9790969391
 30
0.0
 10
3.5539597164
 20
2.9770729393
 30
0.0
 10
3.5528174275
 20
2.974949201
 30
0.0
 10
3.5521642424
 20
2.9734802639
 30
0.0
 10
3.5518627821
 20
2.972735951
 30
0.0
  0
LINE
  5
4BD
100
AcDbEntity
  8
0
100
AcDbLine
 62
7
  6
CONTINUOUS
 10
3.5889391568
 20
2.9882071821
 11
3.584687353
 21
2.9893685533
  0
SPLINE
  5
4BE
100
AcDbEntity
  8
0
100
AcDbSpline
 62
7
  6
CONTINUOUS
 70
0
 71
3
 72
15
 73
11
 74
0
 42
0.0000001
 43
0.0000001
 44
0.0000000001
 40
0.0
 40
0.0
 40
0.0
 40
0.0
 40
0.1249992778
 40
0.2500014064
 40
0.3750017438
 40
0.500001073
 40
0.6249989263
 40
0.7499973485
 40
0.8749911452
 40
1.0
 40
1.0
 40
1.0
 40
1.0
 10
3.584687353
 20
2.9893685533
 30
0.0
 10
3.5839128373
 20
2.9895387218
 30
0.0
 10
3.5823533515
 20
2.9898339104
 30
0.0
 10
3.5799902984
 20
2.9901235725
 30
0.0
 10
3.5776123095
 20
2.9902464059
 30
0.0
 10
3.5752315537
 20
2.990185276
 30
0.0
 10
3.5728638358
 20
2.9899262643
 30
0.0
 10
3.5705274816
 20
2.9894615157
 30
0.0
 10
3.5682428847
 20
2.9887867505
 30
0.0
 10
3.566766752
 20
2.9881997498
 30
0.0
 10
3.5660436924
 20
2.9878739999
 30
0.0
  0
SPLINE
  5
4BF
100
AcDbEntity
  8
0
100
AcDbSpline
 62
7
  6
CONTINUOUS
 70
0
 71
3
 72
11
 73
7
 74
0
 42
0.0000001
 43
0.0000001
 44
0.0000000001
 40
0.0
 40
0.0
 40
0.0
 40
0.0
 40
0.2499807176
 40
0.4999718028
 40
0.7499778535
 40
1.0
 40
1.0
 40
1.0
 40
1.0
 10
3.6064188415
 20
2.976980945
 30
0.0
 10
3.605665671
 20
2.9779063405
 30
0.0
 10
3.6040429629
 20
2.9796655253
 30
0.0
 10
3.6013172785
 20
2.9819974055
 30
0.0
 10
3.5983540754
 20
2.9840172405
 30
0.0
 10
3.596257281
 20
2.9851652606
 30
0.0
 10
3.5951866557
 20
2.9856923812
 30
0.0
  0
LINE
  5
4C0
100
AcDbEntity
  8
0
100
AcDbLine
 62
7
  6
CONTINUOUS
 10
3.59328883
 20
2.9865691165
 11
3.5889391568
 21
2.9882071821
  0
SPLINE
  5
4C1
100
AcDbEntity
  8
0
100
AcDbSpline
 62
7
  6
CONTINUOUS
 70
0
 71
3
 72
15
 73
11
 74
0
 42
0.0000001
 43
0.0000001
 44
0.0000000001
 40
0.0
 40
0.0
 40
0.0
 40
0.0
 40
0.1250133899
 40
0.2500078007
 40
0.3750036155
 40
0.4999975907
 40
0.6249922315
 40
0.7499889659
 40
0.8749852035
 40
1.0
 40
1.0
 40
1.0
 40
1.0
 10
3.6118088924
 20
2.9519778769
 30
0.0
 10
3.6120427302
 20
2.9528002924
 30
0.0
 10
3.6124417306
 20
2.9544655944
 30
0.0
 10
3.6128107811
 20
2.9570074147
 30
0.0
 10
3.6129309446
 20
2.9595735076
 30
0.0
 10
3.6127933997
 20
2.9621388996
 30
0.0
 10
3.6123952942
 20
2.9646768915
 30
0.0
 10
3.6117481352
 20
2.9671628096
 30
0.0
 10
3.6108678128
 20
2.9695755243
 30
0.0
 10
3.610141819
 20
2.9711262695
 30
0.0
 10
3.6097484429
 20
2.9718854264
 30
0.0
  0
SPLINE
  5
4C2
100
AcDbEntity
  8
0
100
AcDbSpline
 62
7
  6
CONTINUOUS
 70
0
 71
3
 72
14
 73
10
 74
0
 42
0.0000001
 43
0.0000001
 44
0.0000000001
 40
0.0
 40
0.0
 40
0.0
 40
0.0
 40
0.2498829187
 40
0.3749023427
 40
0.4999237229
 40
0.6249426544
 40
0.7499644905
 40
0.8749849653
 40
1.0
 40
1.0
 40
1.0
 40
1.0
 10
3.6010484083
 20
2.9371641436
 30
0.0
 10
3.6020512483
 20
2.9377959686
 30
0.0
 10
3.6034937069
 20
2.9388498273
 30
0.0
 10
3.6052408604
 20
2.9404555397
 30
0.0
 10
3.6064577917
 20
2.9417557312
 30
0.0
 10
3.607573087
 20
2.9431438887
 30
0.0
 10
3.6085822276
 20
2.9446109772
 30
0.0
 10
3.6094836908
 20
2.9461463398
 30
0.0
 10
3.6100123
 20
2.9472092048
 30
0.0
 10
3.6102589697
 20
2.9477484548
 30
0.0
  0
LINE
  5
4C3
100
AcDbEntity
  8
0
100
AcDbLine
 62
7
  6
CONTINUOUS
 10
3.6102589697
 20
2.9477484548
 11
3.6114713597
 21
2.9508698799
  0
LINE
  5
4C4
100
AcDbEntity
  8
0
100
AcDbLine
 62
7
  6
CONTINUOUS
 10
3.5791868887
 20
2.9340547154
 11
3.5840957549
 21
2.9334845966
  0
SPLINE
  5
4C5
100
AcDbEntity
  8
0
100
AcDbSpline
 62
7
  6
CONTINUOUS
 70
0
 71
3
 72
14
 73
10
 74
0
 42
0.0000001
 43
0.0000001
 44
0.0000000001
 40
0.0
 40
0.0
 40
0.0
 40
0.0
 40
0.1250162165
 40
0.2500317772
 40
0.3750477867
 40
0.5000635916
 40
0.7499442501
 40
0.874963218
 40
1.0
 40
1.0
 40
1.0
 40
1.0
 10
3.5840957549
 20
2.9334845966
 30
0.0
 10
3.5847306316
 20
2.9334437802
 30
0.0
 10
3.5860023882
 20
2.9333897415
 30
0.0
 10
3.5879116777
 20
2.9334017518
 30
0.0
 10
3.5898179399
 20
2.9335161523
 30
0.0
 10
3.5923450172
 20
2.9338167856
 30
0.0
 10
3.5948398469
 20
2.9343659071
 30
0.0
 10
3.5972458597
 20
2.9351994376
 30
0.0
 10
3.5984111879
 20
2.9357153045
 30
0.0
 10
3.5989812104
 20
2.9359980446
 30
0.0
  0
SPLINE
  5
4C6
100
AcDbEntity
  8
0
100
AcDbSpline
 62
7
  6
CONTINUOUS
 70
0
 71
3
 72
15
 73
11
 74
0
 42
0.0000001
 43
0.0000001
 44
0.0000000001
 40
0.0
 40
0.0
 40
0.0
 40
0.0
 40
0.1250063395
 40
0.2499991707
 40
0.3749965746
 40
0.4999949481
 40
0.6249939479
 40
0.7499959619
 40
0.8749942048
 40
1.0
 40
1.0
 40
1.0
 40
1.0
 10
3.6041086113
 20
2.9204842079
 30
0.0
 10
3.6031471522
 20
2.9199636456
 30
0.0
 10
3.6011806162
 20
2.919000863
 30
0.0
 10
3.5981186845
 20
2.9178143349
 30
0.0
 10
3.5949643547
 20
2.9169006196
 30
0.0
 10
3.5917425927
 20
2.9162648049
 30
0.0
 10
3.5884785044
 20
2.9159067586
 30
0.0
 10
3.585196528
 20
2.9158145143
 30
0.0
 10
3.5819176017
 20
2.9159736671
 30
0.0
 10
3.5797446611
 20
2.9162345748
 30
0.0
 10
3.5786638739
 20
2.9163997344
 30
0.0
  0
SPLINE
  5
4C7
100
AcDbEntity
  8
0
100
AcDbSpline
 62
7
  6
CONTINUOUS
 70
0
 71
3
 72
15
 73
11
 74
0
 42
0.0000001
 43
0.0000001
 44
0.0000000001
 40
0.0
 40
0.0
 40
0.0
 40
0.0
 40
0.1250056319
 40
0.2500033658
 40
0.3750041983
 40
0.5000019665
 40
0.6249996378
 40
0.7499971546
 40
0.8749908646
 40
1.0
 40
1.0
 40
1.0
 40
1.0
 10
3.6230938496
 20
2.9429313435
 30
0.0
 10
3.6226752415
 20
2.94187406
 30
0.0
 10
3.6217777426
 20
2.9397826998
 30
0.0
 10
3.6202341927
 20
2.9367378298
 30
0.0
 10
3.6184811885
 20
2.9338079697
 30
0.0
 10
3.616511561
 20
2.9310184897
 30
0.0
 10
3.6143197844
 20
2.9283993608
 30
0.0
 10
3.611910979
 20
2.9259778027
 30
0.0
 10
3.6092961964
 20
2.9237801816
 30
0.0
 10
3.6074282143
 20
2.9224768113
 30
0.0
 10
3.6064678778
 20
2.9218677895
 30
0.0
  0
SPLINE
  5
4C8
100
AcDbEntity
  8
0
100
AcDbSpline
 62
7
  6
CONTINUOUS
 70
0
 71
3
 72
16
 73
12
 74
0
 42
0.0000001
 43
0.0000001
 44
0.0000000001
 40
0.0
 40
0.0
 40
0.0
 40
0.0
 40
0.1249981636
 40
0.2499927573
 40
0.3749824397
 40
0.4999695659
 40
0.6249597486
 40
0.6874746587
 40
0.7499908833
 40
0.8749956348
 40
1.0
 40
1.0
 40
1.0
 40
1.0
 10
3.6214502984
 20
2.9828561379
 30
0.0
 10
3.6221210614
 20
2.9816860068
 30
0.0
 10
3.6233613728
 20
2.9792856842
 30
0.0
 10
3.6248733728
 20
2.9755261286
 30
0.0
 10
3.6260079999
 20
2.9716352921
 30
0.0
 10
3.6267438098
 20
2.9676499386
 30
0.0
 10
3.6270223541
 20
2.9642837076
 30
0.0
 10
3.6270499074
 20
2.9615852338
 30
0.0
 10
3.6269510559
 20
2.9588882355
 30
0.0
 10
3.6265999979
 20
2.9555298197
 30
0.0
 10
3.6260957856
 20
2.9528764454
 30
0.0
 10
3.6257942215
 20
2.9515617708
 30
0.0
  0
SPLINE
  5
4C9
100
AcDbEntity
  8
0
100
AcDbSpline
 62
7
  6
CONTINUOUS
 70
0
 71
3
 72
11
 73
7
 74
0
 42
0.0000001
 43
0.0000001
 44
0.0000000001
 40
0.0
 40
0.0
 40
0.0
 40
0.0
 40
0.2500004058
 40
0.5000036807
 40
0.750001273
 40
1.0
 40
1.0
 40
1.0
 40
1.0
 10
3.6001169696
 20
3.0025463813
 30
0.0
 10
3.6013027856
 20
3.0019782838
 30
0.0
 10
3.6036337564
 20
3.000754545
 30
0.0
 10
3.6069775835
 20
2.9986543983
 30
0.0
 10
3.6101408673
 20
2.9962906177
 30
0.0
 10
3.6121120177
 20
2.9945444686
 30
0.0
 10
3.6130589624
 20
2.9936322368
 30
0.0
  0
SPLINE
  5
4CA
100
AcDbEntity
  8
0
100
AcDbSpline
 62
7
  6
CONTINUOUS
 70
0
 71
3
 72
15
 73
11
 74
0
 42
0.0000001
 43
0.0000001
 44
0.0000000001
 40
0.0
 40
0.0
 40
0.0
 40
0.0
 40
0.1250124772
 40
0.2500167102
 40
0.3750182681
 40
0.500016208
 40
0.6250125755
 40
0.7500083726
 40
0.8750051084
 40
1.0
 40
1.0
 40
1.0
 40
1.0
 10
3.5631254056
 20
3.0052477377
 30
0.0
 10
3.5641136966
 20
3.0056302737
 30
0.0
 10
3.5661206778
 20
3.0063193337
 30
0.0
 10
3.5692030761
 20
3.0071105037
 30
0.0
 10
3.5723390706
 20
3.0076519234
 30
0.0
 10
3.5755079505
 20
3.0079422637
 30
0.0
 10
3.5786895334
 20
3.0079863166
 30
0.0
 10
3.5818653288
 20
3.0077944675
 30
0.0
 10
3.5850196031
 20
3.0073820864
 30
0.0
 10
3.5871001413
 20
3.0069706257
 30
0.0
 10
3.5881329168
 20
3.0067337467
 30
0.0
  0
SPLINE
  5
4CB
100
AcDbEntity
  8
0
100
AcDbSpline
 62
7
  6
CONTINUOUS
 70
0
 71
3
 72
15
 73
11
 74
0
 42
0.0000001
 43
0.0000001
 44
0.0000000001
 40
0.0
 40
0.0
 40
0.0
 40
0.0
 40
0.1249994913
 40
0.2499995611
 40
0.3749999714
 40
0.4999992266
 40
0.6249994922
 40
0.7499998758
 40
0.8749959643
 40
1.0
 40
1.0
 40
1.0
 40
1.0
 10
3.5416552519
 20
2.9866220343
 30
0.0
 10
3.5420609608
 20
2.9873707349
 30
0.0
 10
3.5429182303
 20
2.9888438552
 30
0.0
 10
3.5443405897
 20
2.990967964
 30
0.0
 10
3.5458975762
 20
2.9929956786
 30
0.0
 10
3.5475843728
 20
2.9949167618
 30
0.0
 10
3.549393757
 20
2.9967228349
 30
0.0
 10
3.551316875
 20
2.9984072009
 30
0.0
 10
3.5533430543
 20
2.999965794
 30
0.0
 10
3.5547552745
 20
3.0009199404
 30
0.0
 10
3.5554746352
 20
3.0013757094
 30
0.0
  0
SPLINE
  5
4CC
100
AcDbEntity
  8
0
100
AcDbSpline
 62
7
  6
CONTINUOUS
 70
0
 71
3
 72
13
 73
9
 74
0
 42
0.0000001
 43
0.0000001
 44
0.0000000001
 40
0.0
 40
0.0
 40
0.0
 40
0.0
 40
0.1250081676
 40
0.2500190416
 40
0.4999969334
 40
0.6250098773
 40
0.7500253384
 40
1.0
 40
1.0
 40
1.0
 40
1.0
 10
3.5373197885
 20
2.9570729766
 30
0.0
 10
3.5372005655
 20
2.9576657737
 30
0.0
 10
3.5369830019
 20
2.9588557376
 30
0.0
 10
3.5366369217
 20
2.9612497305
 30
0.0
 10
3.5364292337
 20
2.9636623677
 30
0.0
 10
3.5363704523
 20
2.9660808161
 30
0.0
 10
3.536414178
 20
2.9684994603
 30
0.0
 10
3.5365646317
 20
2.9703101147
 30
0.0
 10
3.5367182597
 20
2.9715094484
 30
0.0
  0
SPLINE
  5
4CD
100
AcDbEntity
  8
0
100
AcDbSpline
 62
7
  6
CONTINUOUS
 70
0
 71
3
 72
12
 73
8
 74
0
 42
0.0000001
 43
0.0000001
 44
0.0000000001
 40
0.0
 40
0.0
 40
0.0
 40
0.0
 40
0.1250378524
 40
0.2500718555
 40
0.5000406874
 40
0.7500153472
 40
1.0
 40
1.0
 40
1.0
 40
1.0
 10
5.051932437
 20
2.913545461
 30
0.0
 10
5.0524644469
 20
2.9132652299
 30
0.0
 10
5.0535119849
 20
2.9126727575
 30
0.0
 10
5.0555312642
 20
2.9113649343
 30
0.0
 10
5.0579050348
 20
2.9095093645
 30
0.0
 10
5.0604850503
 20
2.9069803874
 30
0.0
 10
5.0620253885
 20
2.9051285958
 30
0.0
 10
5.0627508296
 20
2.9041699829
 30
0.0
  0
LINE
  5
4CE
100
AcDbEntity
  8
0
100
AcDbLine
 62
7
  6
CONTINUOUS
 10
5.0633342664
 20
2.9033789875
 11
5.0657713674
 21
2.899590402
  0
LINE
  5
4CF
100
AcDbEntity
  8
0
100
AcDbLine
 62
7
  6
CONTINUOUS
 10
5.0261214257
 20
2.9155649201
 11
5.030656339
 21
2.9165529688
  0
SPLINE
  5
4D0
100
AcDbEntity
  8
0
100
AcDbSpline
 62
7
  6
CONTINUOUS
 70
0
 71
3
 72
15
 73
11
 74
0
 42
0.0000001
 43
0.0000001
 44
0.0000000001
 40
0.0
 40
0.0
 40
0.0
 40
0.0
 40
0.1249936158
 40
0.2499903661
 40
0.374987954
 40
0.4999854777
 40
0.6249857717
 40
0.7499857015
 40
0.8749865548
 40
1.0
 40
1.0
 40
1.0
 40
1.0
 10
5.030656339
 20
2.9165529688
 30
0.0
 10
5.0313847099
 20
2.916674112
 30
0.0
 10
5.0328478998
 20
2.9168797496
 30
0.0
 10
5.0350561963
 20
2.9170678345
 30
0.0
 10
5.037271905
 20
2.9171280306
 30
0.0
 10
5.0394872831
 20
2.917050908
 30
0.0
 10
5.0416930252
 20
2.9168289333
 30
0.0
 10
5.0438785969
 20
2.9164564926
 30
0.0
 10
5.0460323112
 20
2.9159300022
 30
0.0
 10
5.0474394493
 20
2.9154764249
 30
0.0
 10
5.0481336733
 20
2.9152245799
 30
0.0
  0
SPLINE
  5
4D1
100
AcDbEntity
  8
0
100
AcDbSpline
 62
7
  6
CONTINUOUS
 70
0
 71
3
 72
15
 73
11
 74
0
 42
0.0000001
 43
0.0000001
 44
0.0000000001
 40
0.0
 40
0.0
 40
0.0
 40
0.0
 40
0.125016463
 40
0.250022999
 40
0.3750260761
 40
0.5000238955
 40
0.6250189581
 40
0.7500126406
 40
0.8750072787
 40
1.0
 40
1.0
 40
1.0
 40
1.0
 10
5.0029945321
 20
2.8997596887
 30
0.0
 10
5.0035695067
 20
2.9005856935
 30
0.0
 10
5.0047797895
 20
2.9021966579
 30
0.0
 10
5.0067737879
 20
2.9044674253
 30
0.0
 10
5.0089406749
 20
2.9065740909
 30
0.0
 10
5.0112692788
 20
2.9085003562
 30
0.0
 10
5.0137441671
 20
2.9102344014
 30
0.0
 10
5.016346772
 20
2.911769714
 30
0.0
 10
5.0190564128
 20
2.9131061135
 30
0.0
 10
5.0209216335
 20
2.9138666951
 30
0.0
 10
5.021865483
 20
2.9142154688
 30
0.0
  0
LINE
  5
4D2
100
AcDbEntity
  8
0
100
AcDbLine
 62
7
  6
CONTINUOUS
 10
4.9976948941
 20
2.8619008619
 11
4.9963551861
 21
2.8680973564
  0
SPLINE
  5
4D3
100
AcDbEntity
  8
0
100
AcDbSpline
 62
7
  6
CONTINUOUS
 70
0
 71
3
 72
12
 73
8
 74
0
 42
0.0000001
 43
0.0000001
 44
0.0000000001
 40
0.0
 40
0.0
 40
0.0
 40
0.0
 40
0.2499840226
 40
0.4999710183
 40
0.7499564535
 40
0.8749761235
 40
1.0
 40
1.0
 40
1.0
 40
1.0
 10
4.9963551861
 20
2.8680973564
 30
0.0
 10
4.9961592877
 20
2.8693025543
 30
0.0
 10
4.9958449986
 20
2.8717265086
 30
0.0
 10
4.9956325177
 20
2.8753865209
 30
0.0
 10
4.9956919327
 20
2.878442362
 30
0.0
 10
4.9958933926
 20
2.8808769715
 30
0.0
 10
4.9960472738
 20
2.8820890402
 30
0.0
 10
4.996137703
 20
2.8826929708
 30
0.0
  0
SPLINE
  5
4D4
100
AcDbEntity
  8
0
100
AcDbSpline
 62
7
  6
CONTINUOUS
 70
0
 71
3
 72
11
 73
7
 74
0
 42
0.0000001
 43
0.0000001
 44
0.0000000001
 40
0.0
 40
0.0
 40
0.0
 40
0.0
 40
0.2499880287
 40
0.499982753
 40
0.7499742202
 40
1.0
 40
1.0
 40
1.0
 40
1.0
 10
4.996137703
 20
2.8826929708
 30
0.0
 10
4.9962652242
 20
2.8835446203
 30
0.0
 10
4.9965741631
 20
2.8852404008
 30
0.0
 10
4.9972016237
 20
2.8877483759
 30
0.0
 10
4.9979942117
 20
2.8902093333
 30
0.0
 10
4.9986306456
 20
2.8918114729
 30
0.0
 10
4.9989749153
 20
2.8926009481
 30
0.0
  0
SPLINE
  5
4D5
100
AcDbEntity
  8
0
100
AcDbSpline
 62
7
  6
CONTINUOUS
 70
0
 71
3
 72
13
 73
9
 74
0
 42
0.0000001
 43
0.0000001
 44
0.0000000001
 40
0.0
 40
0.0
 40
0.0
 40
0.0
 40
0.1250274764
 40
0.2500497457
 40
0.3750685496
 40
0.5000863517
 40
0.7500402266
 40
1.0
 40
1.0
 40
1.0
 40
1.0
 10
5.0093605305
 20
2.8401944633
 30
0.0
 10
5.0088197645
 20
2.8407506813
 30
0.0
 10
5.0077705816
 20
2.8418950428
 30
0.0
 10
5.0062984792
 20
2.8436990045
 30
0.0
 10
5.0049298309
 20
2.8455826506
 30
0.0
 10
5.003244104
 20
2.8481885186
 30
0.0
 10
5.0013923404
 20
2.8516028911
 30
0.0
 10
5.0001708747
 20
2.8544589153
 30
0.0
 10
4.9996203369
 20
2.8559088468
 30
0.0
  0
LINE
  5
4D6
100
AcDbEntity
  8
0
100
AcDbLine
 62
7
  6
CONTINUOUS
 10
4.9996203369
 20
2.8559088468
 11
4.9976948941
 21
2.8619008619
  0
SPLINE
  5
4D7
100
AcDbEntity
  8
0
100
AcDbSpline
 62
7
  6
CONTINUOUS
 70
0
 71
3
 72
11
 73
7
 74
0
 42
0.0000001
 43
0.0000001
 44
0.0000000001
 40
0.0
 40
0.0
 40
0.0
 40
0.0
 40
0.2499987956
 40
0.5000015703
 40
0.7499991418
 40
1.0
 40
1.0
 40
1.0
 40
1.0
 10
5.07507648
 20
2.8584115902
 30
0.0
 10
5.0749336219
 20
2.857492006
 30
0.0
 10
5.0745905517
 20
2.8556610836
 30
0.0
 10
5.0738889545
 20
2.8529564277
 30
0.0
 10
5.0729888792
 20
2.8503108399
 30
0.0
 10
5.0722487503
 20
2.8486003326
 30
0.0
 10
5.0718433153
 20
2.8477626691
 30
0.0
  0
SPLINE
  5
4D8
100
AcDbEntity
  8
0
100
AcDbSpline
 62
7
  6
CONTINUOUS
 70
0
 71
3
 72
13
 73
9
 74
0
 42
0.0000001
 43
0.0000001
 44
0.0000000001
 40
0.0
 40
0.0
 40
0.0
 40
0.0
 40
0.2499373029
 40
0.3749606958
 40
0.4999857323
 40
0.6250079887
 40
0.7500287238
 40
1.0
 40
1.0
 40
1.0
 40
1.0
 10
5.0889663988
 20
2.8516977974
 30
0.0
 10
5.0879471574
 20
2.8521238192
 30
0.0
 10
5.0864580079
 20
2.8528647708
 30
0.0
 10
5.0845798874
 20
2.8540309777
 30
0.0
 10
5.0832253073
 20
2.8549884183
 30
0.0
 10
5.0819268198
 20
2.8560203383
 30
0.0
 10
5.0802710672
 20
2.8574852435
 30
0.0
 10
5.0791136548
 20
2.8586761125
 30
0.0
 10
5.0783788095
 20
2.859501147
 30
0.0
  0
LINE
  5
4D9
100
AcDbEntity
  8
0
100
AcDbLine
 62
7
  6
CONTINUOUS
 10
5.1316232915
 20
2.8942388968
 11
5.132437245
 21
2.8882647025
  0
SPLINE
  5
4DA
100
AcDbEntity
  8
0
100
AcDbSpline
 62
7
  6
CONTINUOUS
 70
0
 71
3
 72
15
 73
11
 74
0
 42
0.0000001
 43
0.0000001
 44
0.0000000001
 40
0.0
 40
0.0
 40
0.0
 40
0.0
 40
0.124999657
 40
0.2500004796
 40
0.3750006198
 40
0.50000195
 40
0.6250015994
 40
0.7500035218
 40
0.8750038598
 40
1.0
 40
1.0
 40
1.0
 40
1.0
 10
5.118842962
 20
2.9186872479
 30
0.0
 10
5.1194271772
 20
2.9181592496
 30
0.0
 10
5.1205591935
 20
2.9170621697
 30
0.0
 10
5.1221409286
 20
2.9153051989
 30
0.0
 10
5.1236029349
 20
2.9134473906
 30
0.0
 10
5.1249434672
 20
2.9115003317
 30
0.0
 10
5.1261636333
 20
2.9094758526
 30
0.0
 10
5.1272669951
 20
2.9073856058
 30
0.0
 10
5.1282574964
 20
2.9052397966
 30
0.0
 10
5.1288451509
 20
2.9037778741
 30
0.0
 10
5.129121933
 20
2.9030406859
 30
0.0
  0
LINE
  5
4DB
100
AcDbEntity
  8
0
100
AcDbLine
 62
7
  6
CONTINUOUS
 10
5.129121933
 20
2.9030406859
 11
5.1307808196
 21
2.8978471344
  0
LINE
  5
4DC
100
AcDbEntity
  8
0
100
AcDbLine
 62
7
  6
CONTINUOUS
 10
5.0871238058
 20
2.9262856463
 11
5.0912737262
 21
2.9271595283
  0
SPLINE
  5
4DD
100
AcDbEntity
  8
0
100
AcDbSpline
 62
7
  6
CONTINUOUS
 70
0
 71
3
 72
11
 73
7
 74
0
 42
0.0000001
 43
0.0000001
 44
0.0000000001
 40
0.0
 40
0.0
 40
0.0
 40
0.0
 40
0.2500001087
 40
0.4999943941
 40
0.7499895319
 40
1.0
 40
1.0
 40
1.0
 40
1.0
 10
5.0912737262
 20
2.9271595283
 30
0.0
 10
5.0924513211
 20
2.9273389409
 30
0.0
 10
5.0948263809
 20
2.9275806297
 30
0.0
 10
5.0984069001
 20
2.9275586654
 30
0.0
 10
5.1019627711
 20
2.9271345578
 30
0.0
 10
5.1042864427
 20
2.926582378
 30
0.0
 10
5.1054283677
 20
2.926243197
 30
0.0
  0
SPLINE
  5
4DE
100
AcDbEntity
  8
0
100
AcDbSpline
 62
7
  6
CONTINUOUS
 70
0
 71
3
 72
10
 73
6
 74
0
 42
0.0000001
 43
0.0000001
 44
0.0000000001
 40
0.0
 40
0.0
 40
0.0
 40
0.0
 40
0.250021295
 40
0.5000375975
 40
1.0
 40
1.0
 40
1.0
 40
1.0
 10
5.1054283677
 20
2.926243197
 30
0.0
 10
5.1059910406
 20
2.9260760688
 30
0.0
 10
5.1071075406
 20
2.9257110421
 30
0.0
 10
5.1092973699
 20
2.924862683
 30
0.0
 10
5.1108885158
 20
2.9240999014
 30
0.0
 10
5.1119218018
 20
2.9235431173
 30
0.0
  0
SPLINE
  5
4DF
100
AcDbEntity
  8
0
100
AcDbSpline
 62
7
  6
CONTINUOUS
 70
0
 71
3
 72
12
 73
8
 74
0
 42
0.0000001
 43
0.0000001
 44
0.0000000001
 40
0.0
 40
0.0
 40
0.0
 40
0.0
 40
0.249965307
 40
0.375003323
 40
0.5000426673
 40
0.7500145182
 40
1.0
 40
1.0
 40
1.0
 40
1.0
 10
5.0728013298
 20
2.9178623021
 30
0.0
 10
5.0735066626
 20
2.9186561536
 30
0.0
 10
5.0746419307
 20
2.9197818206
 30
0.0
 10
5.0762860691
 20
2.9211285617
 30
0.0
 10
5.0780101713
 20
2.9223718176
 30
0.0
 10
5.0802985258
 20
2.923730496
 30
0.0
 10
5.0822364125
 20
2.9246103668
 30
0.0
 10
5.0832237312
 20
2.9250016191
 30
0.0
  0
LINE
  5
4E0
100
AcDbEntity
  8
0
100
AcDbLine
 62
7
  6
CONTINUOUS
 10
5.0832237312
 20
2.9250016191
 11
5.0871238058
 21
2.9262856463
  0
SPLINE
  5
4E1
100
AcDbEntity
  8
0
100
AcDbSpline
 62
7
  6
CONTINUOUS
 70
0
 71
3
 72
12
 73
8
 74
0
 42
0.0000001
 43
0.0000001
 44
0.0000000001
 40
0.0
 40
0.0
 40
0.0
 40
0.0
 40
0.2499891419
 40
0.4999717172
 40
0.7499506448
 40
0.8749767176
 40
1.0
 40
1.0
 40
1.0
 40
1.0
 10
5.0664119685
 20
2.9042620602
 30
0.0
 10
5.0665824533
 20
2.9051362238
 30
0.0
 10
5.066984095
 20
2.9068735949
 30
0.0
 10
5.067791899
 20
2.909423403
 30
0.0
 10
5.0686482584
 20
2.9114826093
 30
0.0
 10
5.0694507842
 20
2.9130737288
 30
0.0
 10
5.0698924304
 20
2.913847963
 30
0.0
 10
5.0701232309
 20
2.914228921
 30
0.0
  0
SPLINE
  5
4E2
100
AcDbEntity
  8
0
100
AcDbSpline
 62
7
  6
CONTINUOUS
 70
0
 71
3
 72
11
 73
7
 74
0
 42
0.0000001
 43
0.0000001
 44
0.0000000001
 40
0.0
 40
0.0
 40
0.0
 40
0.0
 40
0.2500147878
 40
0.5000119656
 40
0.7500087853
 40
1.0
 40
1.0
 40
1.0
 40
1.0
 10
5.1169948949
 20
2.8962956592
 30
0.0
 10
5.1167255883
 20
2.8970522536
 30
0.0
 10
5.1161186243
 20
2.898542379
 30
0.0
 10
5.1149849599
 20
2.9006732385
 30
0.0
 10
5.1136231687
 20
2.9026665696
 30
0.0
 10
5.1125661437
 20
2.9038815973
 30
0.0
 10
5.1120041699
 20
2.9044552042
 30
0.0
  0
SPLINE
  5
4E3
100
AcDbEntity
  8
0
100
AcDbSpline
 62
7
  6
CONTINUOUS
 70
0
 71
3
 72
9
 73
5
 74
0
 42
0.0000001
 43
0.0000001
 44
0.0000000001
 40
0.0
 40
0.0
 40
0.0
 40
0.0
 40
0.4999658898
 40
1.0
 40
1.0
 40
1.0
 40
1.0
 10
5.1120041699
 20
2.9044552042
 30
0.0
 10
5.1114809332
 20
2.9049892722
 30
0.0
 10
5.1103744426
 20
2.906000285
 30
0.0
 10
5.1091664697
 20
2.906886921
 30
0.0
 10
5.1085421009
 20
2.9072984078
 30
0.0
  0
SPLINE
  5
4E4
100
AcDbEntity
  8
0
100
AcDbSpline
 62
7
  6
CONTINUOUS
 70
0
 71
3
 72
11
 73
7
 74
0
 42
0.0000001
 43
0.0000001
 44
0.0000000001
 40
0.0
 40
0.0
 40
0.0
 40
0.0
 40
0.2499925849
 40
0.4999889837
 40
0.7499883508
 40
1.0
 40
1.0
 40
1.0
 40
1.0
 10
5.1174981309
 20
2.8815393604
 30
0.0
 10
5.117772234
 20
2.8823813157
 30
0.0
 10
5.1182144857
 20
2.884102072
 30
0.0
 10
5.1185367774
 20
2.8867461011
 30
0.0
 10
5.1185195905
 20
2.8894092805
 30
0.0
 10
5.1182950316
 20
2.8911704304
 30
0.0
 10
5.1181367252
 20
2.8920416823
 30
0.0
  0
LINE
  5
4E5
100
AcDbEntity
  8
0
100
AcDbLine
 62
7
  6
CONTINUOUS
 10
5.1045379654
 20
2.8679291501
 11
5.106717033
 21
2.8688456172
  0
SPLINE
  5
4E6
100
AcDbEntity
  8
0
100
AcDbSpline
 62
7
  6
CONTINUOUS
 70
0
 71
3
 72
15
 73
11
 74
0
 42
0.0000001
 43
0.0000001
 44
0.0000000001
 40
0.0
 40
0.0
 40
0.0
 40
0.0
 40
0.1250048602
 40
0.2499972
 40
0.37500044
 40
0.5000032109
 40
0.625005379
 40
0.7500070704
 40
0.8749977479
 40
1.0
 40
1.0
 40
1.0
 40
1.0
 10
5.0883927837
 20
2.868503773
 30
0.0
 10
5.0888661897
 20
2.8682807627
 30
0.0
 10
5.0898286466
 20
2.8678670928
 30
0.0
 10
5.0913141219
 20
2.8673548341
 30
0.0
 10
5.0928353495
 20
2.8669604243
 30
0.0
 10
5.0943834489
 20
2.8666896336
 30
0.0
 10
5.0959484384
 20
2.8665455579
 30
0.0
 10
5.0975198811
 20
2.8665285097
 30
0.0
 10
5.0990875496
 20
2.8666357495
 30
0.0
 10
5.1001244208
 20
2.8667853633
 30
0.0
 10
5.1006394222
 20
2.8668781472
 30
0.0
  0
LINE
  5
4E7
100
AcDbEntity
  8
0
100
AcDbLine
 62
7
  6
CONTINUOUS
 10
5.0767948458
 20
2.883000296
 11
5.0778325552
 21
2.8798521592
  0
SPLINE
  5
4E8
100
AcDbEntity
  8
0
100
AcDbSpline
 62
7
  6
CONTINUOUS
 70
0
 71
3
 72
15
 73
11
 74
0
 42
0.0000001
 43
0.0000001
 44
0.0000000001
 40
0.0
 40
0.0
 40
0.0
 40
0.0
 40
0.1249919102
 40
0.2499870871
 40
0.3749864591
 40
0.4999861794
 40
0.624987761
 40
0.7499842011
 40
0.8749850789
 40
1.0
 40
1.0
 40
1.0
 40
1.0
 10
5.0778325552
 20
2.8798521592
 30
0.0
 10
5.0780327881
 20
2.8793484478
 30
0.0
 10
5.0784648509
 20
2.8783531514
 30
0.0
 10
5.0792146083
 20
2.8769085908
 30
0.0
 10
5.0800689977
 20
2.8755230372
 30
0.0
 10
5.0810287951
 20
2.8742080543
 30
0.0
 10
5.0820933487
 20
2.8729761698
 30
0.0
 10
5.0832577271
 20
2.871838055
 30
0.0
 10
5.0845139424
 20
2.870802316
 30
0.0
 10
5.0854058284
 20
2.8701833153
 30
0.0
 10
5.0858631642
 20
2.8698921614
 30
0.0
  0
SPLINE
  5
4E9
100
AcDbEntity
  8
0
100
AcDbSpline
 62
7
  6
CONTINUOUS
 70
0
 71
3
 72
11
 73
7
 74
0
 42
0.0000001
 43
0.0000001
 44
0.0000000001
 40
0.0
 40
0.0
 40
0.0
 40
0.0
 40
0.2500218649
 40
0.5000226299
 40
0.7500032542
 40
1.0
 40
1.0
 40
1.0
 40
1.0
 10
5.0780602498
 20
2.8992727603
 30
0.0
 10
5.0778358834
 20
2.8988363239
 30
0.0
 10
5.0774179479
 20
2.8979472322
 30
0.0
 10
5.0768905841
 20
2.8965714713
 30
0.0
 10
5.0764669283
 20
2.895160351
 30
0.0
 10
5.0762553717
 20
2.8942010171
 30
0.0
 10
5.0761672432
 20
2.8937183144
 30
0.0
  0
SPLINE
  5
4EA
100
AcDbEntity
  8
0
100
AcDbSpline
 62
7
  6
CONTINUOUS
 70
0
 71
3
 72
11
 73
7
 74
0
 42
0.0000001
 43
0.0000001
 44
0.0000000001
 40
0.0
 40
0.0
 40
0.0
 40
0.0
 40
0.2500008101
 40
0.5000076635
 40
0.7500086686
 40
1.0
 40
1.0
 40
1.0
 40
1.0
 10
5.0761672432
 20
2.8937183144
 30
0.0
 10
5.0760565154
 20
2.8931118302
 30
0.0
 10
5.0758910305
 20
2.8918879545
 30
0.0
 10
5.0758040712
 20
2.8900383506
 30
0.0
 10
5.0758690081
 20
2.8881880542
 30
0.0
 10
5.0760065718
 20
2.8869614887
 30
0.0
 10
5.0760962025
 20
2.8863515532
 30
0.0
  0
LINE
  5
4EB
100
AcDbEntity
  8
0
100
AcDbLine
 62
7
  6
CONTINUOUS
 10
5.0760962025
 20
2.8863515532
 11
5.0767948458
 21
2.883000296
  0
LINE
  5
4EC
100
AcDbEntity
  8
0
100
AcDbLine
 62
7
  6
CONTINUOUS
 10
5.0920429478
 20
2.9100619383
 11
5.0893652736
 21
2.9092029259
  0
SPLINE
  5
4ED
100
AcDbEntity
  8
0
100
AcDbSpline
 62
7
  6
CONTINUOUS
 70
0
 71
3
 72
15
 73
11
 74
0
 42
0.0000001
 43
0.0000001
 44
0.0000000001
 40
0.0
 40
0.0
 40
0.0
 40
0.0
 40
0.1249940853
 40
0.249989369
 40
0.3749910256
 40
0.4999950682
 40
0.6249959547
 40
0.7499982128
 40
0.8749913951
 40
1.0
 40
1.0
 40
1.0
 40
1.0
 10
5.0889520284
 20
2.9090425943
 30
0.0
 10
5.0884786978
 20
2.9088542335
 30
0.0
 10
5.0875430194
 20
2.9084489882
 30
0.0
 10
5.0861829564
 20
2.9077492824
 30
0.0
 10
5.0848755215
 20
2.906955138
 30
0.0
 10
5.083630372
 20
2.9060662768
 30
0.0
 10
5.0824574202
 20
2.9050839576
 30
0.0
 10
5.0813654648
 20
2.9040122977
 30
0.0
 10
5.0803614846
 20
2.9028579475
 30
0.0
 10
5.0797527811
 20
2.9020394379
 30
0.0
 10
5.0794639153
 20
2.9016197494
 30
0.0
  0
SPLINE
  5
4EE
100
AcDbEntity
  8
0
100
AcDbSpline
 62
7
  6
CONTINUOUS
 70
0
 71
3
 72
15
 73
11
 74
0
 42
0.0000001
 43
0.0000001
 44
0.0000000001
 40
0.0
 40
0.0
 40
0.0
 40
0.0
 40
0.1250054256
 40
0.2499976655
 40
0.375000833
 40
0.5000035136
 40
0.6250053293
 40
0.7500067994
 40
0.8749972074
 40
1.0
 40
1.0
 40
1.0
 40
1.0
 10
5.1059970879
 20
2.9087522076
 30
0.0
 10
5.105531791
 20
2.9089800865
 30
0.0
 10
5.1045849638
 20
2.9094035451
 30
0.0
 10
5.1031212119
 20
2.9099305687
 30
0.0
 10
5.101619997
 20
2.9103396361
 30
0.0
 10
5.100090261
 20
2.9106245256
 30
0.0
 10
5.0985421573
 20
2.9107816043
 30
0.0
 10
5.0969864262
 20
2.9108100159
 30
0.0
 10
5.0954337193
 20
2.9107120698
 30
0.0
 10
5.09440665
 20
2.9105669724
 30
0.0
 10
5.0938966148
 20
2.9104759625
 30
0.0
  0
SPLINE
  5
4EF
100
AcDbEntity
  8
0
100
AcDbSpline
 62
7
  6
CONTINUOUS
 70
0
 71
3
 72
15
 73
11
 74
0
 42
0.0000001
 43
0.0000001
 44
0.0000000001
 40
0.0
 40
0.0
 40
0.0
 40
0.0
 40
0.1250031269
 40
0.2499976047
 40
0.3749979536
 40
0.4999978461
 40
0.6249984272
 40
0.7499998925
 40
0.8749961631
 40
1.0
 40
1.0
 40
1.0
 40
1.0
 10
5.0621091084
 20
2.8605634528
 30
0.0
 10
5.0624203618
 20
2.8612241496
 30
0.0
 10
5.0629927996
 20
2.8625698424
 30
0.0
 10
5.0636866801
 20
2.8646504958
 30
0.0
 10
5.0642061248
 20
2.8667816071
 30
0.0
 10
5.0645459264
 20
2.8689486646
 30
0.0
 10
5.0647039282
 20
2.8711364182
 30
0.0
 10
5.0646852736
 20
2.8733296069
 30
0.0
 10
5.0644968634
 20
2.8755144806
 30
0.0
 10
5.0642652898
 20
2.8769580781
 30
0.0
 10
5.0641253732
 20
2.8776748963
 30
0.0
  0
SPLINE
  5
4F0
100
AcDbEntity
  8
0
100
AcDbSpline
 62
7
  6
CONTINUOUS
 70
0
 71
3
 72
15
 73
11
 74
0
 42
0.0000001
 43
0.0000001
 44
0.0000000001
 40
0.0
 40
0.0
 40
0.0
 40
0.0
 40
0.1250057044
 40
0.2500031779
 40
0.3750052576
 40
0.5000042238
 40
0.6250031955
 40
0.750001106
 40
0.8749937492
 40
1.0
 40
1.0
 40
1.0
 40
1.0
 10
5.0464187496
 20
2.8465375617
 30
0.0
 10
5.0471470268
 20
2.84678941
 30
0.0
 10
5.0485861234
 20
2.8473456026
 30
0.0
 10
5.050672394
 20
2.8483470758
 30
0.0
 10
5.0526673081
 20
2.849520767
 30
0.0
 10
5.0545510422
 20
2.8508661233
 30
0.0
 10
5.0563035466
 20
2.852378601
 30
0.0
 10
5.0579099231
 20
2.854045411
 30
0.0
 10
5.0593580868
 20
2.8558510279
 30
0.0
 10
5.0602153893
 20
2.8571342598
 30
0.0
 10
5.0606168705
 20
2.8577920084
 30
0.0
  0
SPLINE
  5
4F1
100
AcDbEntity
  8
0
100
AcDbSpline
 62
7
  6
CONTINUOUS
 70
0
 71
3
 72
15
 73
11
 74
0
 42
0.0000001
 43
0.0000001
 44
0.0000000001
 40
0.0
 40
0.0
 40
0.0
 40
0.0
 40
0.1250040684
 40
0.2499974355
 40
0.3749981989
 40
0.4999994663
 40
0.624999224
 40
0.7500028396
 40
0.8750032593
 40
1.0
 40
1.0
 40
1.0
 40
1.0
 10
5.0250993077
 20
2.8473160019
 30
0.0
 10
5.0256984408
 20
2.8470223027
 30
0.0
 10
5.0269192317
 20
2.8464795947
 30
0.0
 10
5.0288086439
 20
2.8458124472
 30
0.0
 10
5.0307461076
 20
2.8453007602
 30
0.0
 10
5.032718754
 20
2.8449482395
 30
0.0
 10
5.0347133758
 20
2.8447564395
 30
0.0
 10
5.0367166783
 20
2.8447201528
 30
0.0
 10
5.0387169145
 20
2.8448318119
 30
0.0
 10
5.0400419878
 20
2.8449992045
 30
0.0
 10
5.0407009324
 20
2.8451038923
 30
0.0
  0
SPLINE
  5
4F2
100
AcDbEntity
  8
0
100
AcDbSpline
 62
7
  6
CONTINUOUS
 70
0
 71
3
 72
15
 73
11
 74
0
 42
0.0000001
 43
0.0000001
 44
0.0000000001
 40
0.0
 40
0.0
 40
0.0
 40
0.0
 40
0.1250063651
 40
0.2500042845
 40
0.3750067057
 40
0.5000055742
 40
0.6250040395
 40
0.7500014652
 40
0.8749936503
 40
1.0
 40
1.0
 40
1.0
 40
1.0
 10
5.0116262744
 20
2.8628900376
 30
0.0
 10
5.0118721007
 20
2.8621744049
 30
0.0
 10
5.0124115511
 20
2.860758959
 30
0.0
 10
5.013375809
 20
2.8587015635
 30
0.0
 10
5.0145023572
 20
2.8567279162
 30
0.0
 10
5.0157931822
 20
2.8548571914
 30
0.0
 10
5.0172471934
 20
2.8531100669
 30
0.0
 10
5.0188542344
 20
2.8515025301
 30
0.0
 10
5.0206009503
 20
2.8500483003
 30
0.0
 10
5.0218462839
 20
2.8491847613
 30
0.0
 10
5.0224854852
 20
2.8487798142
 30
0.0
  0
SPLINE
  5
4F3
100
AcDbEntity
  8
0
100
AcDbSpline
 62
7
  6
CONTINUOUS
 70
0
 71
3
 72
9
 73
5
 74
0
 42
0.0000001
 43
0.0000001
 44
0.0000000001
 40
0.0
 40
0.0
 40
0.0
 40
0.0
 40
0.500011767
 40
1.0
 40
1.0
 40
1.0
 40
1.0
 10
5.0104661412
 20
2.8789972478
 30
0.0
 10
5.0102683803
 20
2.8780365175
 30
0.0
 10
5.0099629353
 20
2.8760951921
 30
0.0
 10
5.0098559917
 20
2.8741324706
 30
0.0
 10
5.0098529446
 20
2.8731516483
 30
0.0
  0
SPLINE
  5
4F4
100
AcDbEntity
  8
0
100
AcDbSpline
 62
7
  6
CONTINUOUS
 70
0
 71
3
 72
9
 73
5
 74
0
 42
0.0000001
 43
0.0000001
 44
0.0000000001
 40
0.0
 40
0.0
 40
0.0
 40
0.0
 40
0.4999854712
 40
1.0
 40
1.0
 40
1.0
 40
1.0
 10
5.0098529446
 20
2.8731516483
 30
0.0
 10
5.0098493475
 20
2.8719938054
 30
0.0
 10
5.0099823689
 20
2.8696754156
 30
0.0
 10
5.010389321
 20
2.8673900746
 30
0.0
 10
5.0106530829
 20
2.8662626001
 30
0.0
  0
SPLINE
  5
4F5
100
AcDbEntity
  8
0
100
AcDbSpline
 62
7
  6
CONTINUOUS
 70
0
 71
3
 72
11
 73
7
 74
0
 42
0.0000001
 43
0.0000001
 44
0.0000000001
 40
0.0
 40
0.0
 40
0.0
 40
0.0
 40
0.2499969693
 40
0.4999931021
 40
0.7499826628
 40
1.0
 40
1.0
 40
1.0
 40
1.0
 10
5.0144853067
 20
2.8883888673
 30
0.0
 10
5.0140834226
 20
2.8878274382
 30
0.0
 10
5.0133294042
 20
2.8866680072
 30
0.0
 10
5.012357812
 20
2.8848357472
 30
0.0
 10
5.011550851
 20
2.8829252958
 30
0.0
 10
5.0111229214
 20
2.8816103863
 30
0.0
 10
5.0109361229
 20
2.8809456326
 30
0.0
  0
SPLINE
  5
4F6
100
AcDbEntity
  8
0
100
AcDbSpline
 62
7
  6
CONTINUOUS
 70
0
 71
3
 72
11
 73
7
 74
0
 42
0.0000001
 43
0.0000001
 44
0.0000000001
 40
0.0
 40
0.0
 40
0.0
 40
0.0
 40
0.2500063408
 40
0.5000025211
 40
0.7500011314
 40
1.0
 40
1.0
 40
1.0
 40
1.0
 10
5.0293501754
 20
2.8987711602
 30
0.0
 10
5.0286006801
 20
2.8985402126
 30
0.0
 10
5.0271187615
 20
2.8980204529
 30
0.0
 10
5.0249661666
 20
2.8970646912
 30
0.0
 10
5.022897293
 20
2.8959392893
 30
0.0
 10
5.0215813124
 20
2.8950824899
 30
0.0
 10
5.020940637
 20
2.8946301865
 30
0.0
  0
LINE
  5
4F7
100
AcDbEntity
  8
0
100
AcDbLine
 62
7
  6
CONTINUOUS
 10
5.020940637
 20
2.8946301865
 11
5.0180463025
 21
2.8923319859
  0
SPLINE
  5
4F8
100
AcDbEntity
  8
0
100
AcDbSpline
 62
7
  6
CONTINUOUS
 70
0
 71
3
 72
14
 73
10
 74
0
 42
0.0000001
 43
0.0000001
 44
0.0000000001
 40
0.0
 40
0.0
 40
0.0
 40
0.0
 40
0.1250093201
 40
0.250025137
 40
0.3750411916
 40
0.5000550601
 40
0.6250731149
 40
0.7500884814
 40
1.0
 40
1.0
 40
1.0
 40
1.0
 10
5.0470927454
 20
2.8986041947
 30
0.0
 10
5.0465251059
 20
2.898816163
 30
0.0
 10
5.0453740122
 20
2.8991992063
 30
0.0
 10
5.0436101469
 20
2.8996453289
 30
0.0
 10
5.0418180714
 20
2.8999602816
 30
0.0
 10
5.0400078025
 20
2.9001427688
 30
0.0
 10
5.0381891715
 20
2.9001961578
 30
0.0
 10
5.0357663394
 20
2.9001026647
 30
0.0
 10
5.0339600186
 20
2.8998552764
 30
0.0
 10
5.0327709069
 20
2.8996243312
 30
0.0
  0
SPLINE
  5
4F9
100
AcDbEntity
  8
0
100
AcDbSpline
 62
7
  6
CONTINUOUS
 70
0
 71
3
 72
11
 73
7
 74
0
 42
0.0000001
 43
0.0000001
 44
0.0000000001
 40
0.0
 40
0.0
 40
0.0
 40
0.0
 40
0.2500078257
 40
0.4999980528
 40
0.7499996617
 40
1.0
 40
1.0
 40
1.0
 40
1.0
 10
5.0629092185
 20
2.8822048155
 30
0.0
 10
5.0626801102
 20
2.8828697834
 30
0.0
 10
5.0621784101
 20
2.8841852404
 30
0.0
 10
5.0612868067
 20
2.8860996237
 30
0.0
 10
5.0602509234
 20
2.887940119
 30
0.0
 10
5.0594636016
 20
2.8891080281
 30
0.0
 10
5.0590463283
 20
2.8896741786
 30
0.0
  0
SPLINE
  5
4FA
100
AcDbEntity
  8
0
100
AcDbSpline
 62
7
  6
CONTINUOUS
 70
0
 71
3
 72
11
 73
7
 74
0
 42
0.0000001
 43
0.0000001
 44
0.0000000001
 40
0.0
 40
0.0
 40
0.0
 40
0.0
 40
0.2500008032
 40
0.5000030777
 40
0.7499923918
 40
1.0
 40
1.0
 40
1.0
 40
1.0
 10
5.0590463283
 20
2.8896741786
 30
0.0
 10
5.0586176835
 20
2.8902557581
 30
0.0
 10
5.0577094504
 20
2.8913823524
 30
0.0
 10
5.0562056951
 20
2.8929468927
 30
0.0
 10
5.0545722806
 20
2.8943754752
 30
0.0
 10
5.0534071794
 20
2.89523327
 30
0.0
 10
5.0528088917
 20
2.8956383024
 30
0.0
  0
LINE
  5
4FB
100
AcDbEntity
  8
0
100
AcDbLine
 62
7
  6
CONTINUOUS
 10
4.954285135
 20
2.2523381966
 11
4.9545361108
 21
2.2521288583
  0
LINE
  5
4FC
100
AcDbEntity
  8
0
100
AcDbLine
 62
7
  6
CONTINUOUS
 10
4.9607162448
 20
2.2466156353
 11
4.9609128954
 21
2.2464292807
  0
LINE
  5
4FD
100
AcDbEntity
  8
0
100
AcDbLine
 62
7
  6
CONTINUOUS
 10
4.9682199166
 20
2.2390651347
 11
4.9683632625
 21
2.2389123352
  0
SPLINE
  5
4FE
100
AcDbEntity
  8
0
100
AcDbSpline
 62
7
  6
CONTINUOUS
 70
0
 71
3
 72
8
 73
4
 74
0
 42
0.0000001
 43
0.0000001
 44
0.0000000001
 40
0.0
 40
0.0
 40
0.0
 40
0.0
 40
1.0
 40
1.0
 40
1.0
 40
1.0
 10
4.9805531088
 20
2.1955846724
 30
0.0
 10
4.9805381704
 20
2.1956083083
 30
0.0
 10
4.9805232319
 20
2.1956319442
 30
0.0
 10
4.9805082935
 20
2.1956555801
 30
0.0
  0
SPLINE
  5
4FF
100
AcDbEntity
  8
0
100
AcDbSpline
 62
7
  6
CONTINUOUS
 70
0
 71
3
 72
11
 73
7
 74
0
 42
0.0000001
 43
0.0000001
 44
0.0000000001
 40
0.0
 40
0.0
 40
0.0
 40
0.0
 40
0.2499966829
 40
0.4999965232
 40
0.7499975017
 40
1.0
 40
1.0
 40
1.0
 40
1.0
 10
5.0066858064
 20
2.1374510675
 30
0.0
 10
5.0061769008
 20
2.1393921693
 30
0.0
 10
5.0050702191
 20
2.1432515495
 30
0.0
 10
5.0031809614
 20
2.1489689006
 30
0.0
 10
5.001100446
 20
2.1546192528
 30
0.0
 10
4.9996004715
 20
2.1583425703
 30
0.0
 10
4.9988263817
 20
2.1601940112
 30
0.0
  0
LINE
  5
500
100
AcDbEntity
  8
0
100
AcDbLine
 62
7
  6
CONTINUOUS
 10
5.0080130393
 20
2.1789143007
 11
5.0081557761
 21
2.1785908628
  0
LINE
  5
501
100
AcDbEntity
  8
0
100
AcDbLine
 62
7
  6
CONTINUOUS
 10
5.0154337427
 20
2.1592735086
 11
5.0155341682
 21
2.158946862
  0
LINE
  5
502
100
AcDbEntity
  8
0
100
AcDbLine
 62
7
  6
CONTINUOUS
 10
4.9906168074
 20
2.2109142279
 11
4.9908217922
 21
2.2106038655
  0
LINE
  5
503
100
AcDbEntity
  8
0
100
AcDbLine
 62
7
  6
CONTINUOUS
 10
4.9420129057
 20
2.1227717879
 11
4.942179919
 21
2.1258623177
  0
SPLINE
  5
504
100
AcDbEntity
  8
0
100
AcDbSpline
 62
7
  6
CONTINUOUS
 70
0
 71
3
 72
11
 73
7
 74
0
 42
0.0000001
 43
0.0000001
 44
0.0000000001
 40
0.0
 40
0.0
 40
0.0
 40
0.0
 40
0.2500054541
 40
0.500003837
 40
0.7500000168
 40
1.0
 40
1.0
 40
1.0
 40
1.0
 10
4.9384102835
 20
2.1115109541
 30
0.0
 10
4.9387780768
 20
2.112165919
 30
0.0
 10
4.9394664246
 20
2.1135030585
 30
0.0
 10
4.9403449608
 20
2.1155805165
 30
0.0
 10
4.941060093
 20
2.1177198054
 30
0.0
 10
4.9414227231
 20
2.1191796018
 30
0.0
 10
4.9415745443
 20
2.1199152488
 30
0.0
  0
SPLINE
  5
505
100
AcDbEntity
  8
0
100
AcDbSpline
 62
7
  6
CONTINUOUS
 70
0
 71
3
 72
15
 73
11
 74
0
 42
0.0000001
 43
0.0000001
 44
0.0000000001
 40
0.0
 40
0.0
 40
0.0
 40
0.0
 40
0.1250063581
 40
0.2499979824
 40
0.3749953276
 40
0.4999939519
 40
0.6249930906
 40
0.7499958651
 40
0.8749938609
 40
1.0
 40
1.0
 40
1.0
 40
1.0
 10
4.9191074755
 20
2.0966940509
 30
0.0
 10
4.9198946206
 20
2.0968530591
 30
0.0
 10
4.9214560836
 20
2.0972389986
 30
0.0
 10
4.9237358295
 20
2.09802763
 30
0.0
 10
4.9259318656
 20
2.0990264608
 30
0.0
 10
4.9280250988
 20
2.1002257577
 30
0.0
 10
4.9299991669
 20
2.1016121188
 30
0.0
 10
4.9318453236
 20
2.1031641695
 30
0.0
 10
4.9335586194
 20
2.1048611356
 30
0.0
 10
4.934612738
 20
2.1060749129
 30
0.0
 10
4.9351186415
 20
2.1066985638
 30
0.0
  0
LINE
  5
506
100
AcDbEntity
  8
0
100
AcDbLine
 62
7
  6
CONTINUOUS
 10
4.8951389782
 20
2.1027434352
 11
4.898865422
 21
2.1003897182
  0
SPLINE
  5
507
100
AcDbEntity
  8
0
100
AcDbSpline
 62
7
  6
CONTINUOUS
 70
0
 71
3
 72
15
 73
11
 74
0
 42
0.0000001
 43
0.0000001
 44
0.0000000001
 40
0.0
 40
0.0
 40
0.0
 40
0.0
 40
0.1249992763
 40
0.2500014031
 40
0.3750017385
 40
0.5000010663
 40
0.6249989185
 40
0.74999734
 40
0.8749911393
 40
1.0
 40
1.0
 40
1.0
 40
1.0
 10
4.898865422
 20
2.1003897182
 30
0.0
 10
4.8995563438
 20
2.100000538
 30
0.0
 10
4.9009613853
 20
2.0992622968
 30
0.0
 10
4.9031364994
 20
2.0982944001
 30
0.0
 10
4.9053746729
 20
2.0974816766
 30
0.0
 10
4.9076692783
 20
2.0968440696
 30
0.0
 10
4.9100092704
 20
2.0963995104
 30
0.0
 10
4.912379421
 20
2.0961608686
 30
0.0
 10
4.9147614786
 20
2.0961381992
 30
0.0
 10
4.9163447367
 20
2.096267972
 30
0.0
 10
4.9171314435
 20
2.0963680863
 30
0.0
  0
SPLINE
  5
508
100
AcDbEntity
  8
0
100
AcDbSpline
 62
7
  6
CONTINUOUS
 70
0
 71
3
 72
15
 73
11
 74
0
 42
0.0000001
 43
0.0000001
 44
0.0000000001
 40
0.0
 40
0.0
 40
0.0
 40
0.0
 40
0.1250083279
 40
0.2500029372
 40
0.3750016978
 40
0.499999844
 40
0.6249990564
 40
0.7499990905
 40
0.8750007145
 40
1.0
 40
1.0
 40
1.0
 40
1.0
 10
4.8804799328
 20
2.1222975393
 30
0.0
 10
4.8806911041
 20
2.1214775853
 30
0.0
 10
4.8811849717
 20
2.1198552113
 30
0.0
 10
4.8821359831
 20
2.1174966498
 30
0.0
 10
4.8832878136
 20
2.1152294341
 30
0.0
 10
4.8846242374
 20
2.1130662245
 30
0.0
 10
4.8861277791
 20
2.1110160096
 30
0.0
 10
4.8877782806
 20
2.1090825983
 30
0.0
 10
4.8895553569
 20
2.1072653988
 30
0.0
 10
4.8908137369
 20
2.106130592
 30
0.0
 10
4.8914583012
 20
2.1055816375
 30
0.0
  0
LINE
  5
509
100
AcDbEntity
  8
0
100
AcDbLine
 62
7
  6
CONTINUOUS
 10
4.8914583012
 20
2.1055816375
 11
4.8951389782
 21
2.1027434352
  0
SPLINE
  5
50A
100
AcDbEntity
  8
0
100
AcDbSpline
 62
7
  6
CONTINUOUS
 70
0
 71
3
 72
15
 73
11
 74
0
 42
0.0000001
 43
0.0000001
 44
0.0000000001
 40
0.0
 40
0.0
 40
0.0
 40
0.0
 40
0.1250138411
 40
0.2500088449
 40
0.3750061011
 40
0.5000028316
 40
0.6249978276
 40
0.7499960971
 40
0.8749906909
 40
1.0
 40
1.0
 40
1.0
 40
1.0
 10
4.8837180395
 20
2.1438528689
 30
0.0
 10
4.883293914
 20
2.143183882
 30
0.0
 10
4.8824976851
 20
2.1418120895
 30
0.0
 10
4.8814812219
 20
2.1396611669
 30
0.0
 10
4.8806621776
 20
2.1374272519
 30
0.0
 10
4.8800532513
 20
2.1351270212
 30
0.0
 10
4.8796641296
 20
2.1327795725
 30
0.0
 10
4.87949391
 20
2.1304063698
 30
0.0
 10
4.8795366391
 20
2.1280277862
 30
0.0
 10
4.879698954
 20
2.1264500212
 30
0.0
 10
4.8798105835
 20
2.1256658533
 30
0.0
  0
SPLINE
  5
50B
100
AcDbEntity
  8
0
100
AcDbSpline
 62
7
  6
CONTINUOUS
 70
0
 71
3
 72
14
 73
10
 74
0
 42
0.0000001
 43
0.0000001
 44
0.0000000001
 40
0.0
 40
0.0
 40
0.0
 40
0.0
 40
0.2498829187
 40
0.3749023426
 40
0.4999237228
 40
0.6249426543
 40
0.7499644904
 40
0.8749849652
 40
1.0
 40
1.0
 40
1.0
 40
1.0
 10
4.898482385
 20
2.1550965363
 30
0.0
 10
4.897338637
 20
2.1547855217
 30
0.0
 10
4.8956510892
 20
2.1541994466
 30
0.0
 10
4.8935108137
 20
2.1531747159
 30
0.0
 10
4.8919669177
 20
2.1522871341
 30
0.0
 10
4.8904944978
 20
2.1512857145
 30
0.0
 10
4.8891005169
 20
2.1501777761
 30
0.0
 10
4.887789547
 20
2.1489730649
 30
0.0
 10
4.8869732841
 20
2.1481111931
 30
0.0
 10
4.8865797313
 20
2.1476676253
 30
0.0
  0
LINE
  5
50C
100
AcDbEntity
  8
0
100
AcDbLine
 62
7
  6
CONTINUOUS
 10
4.8865797313
 20
2.1476676253
 11
4.8845077053
 21
2.1450370666
  0
LINE
  5
50D
100
AcDbEntity
  8
0
100
AcDbLine
 62
7
  6
CONTINUOUS
 10
4.9202977721
 20
2.151678416
 11
4.9157700896
 21
2.153658831
  0
SPLINE
  5
50E
100
AcDbEntity
  8
0
100
AcDbSpline
 62
7
  6
CONTINUOUS
 70
0
 71
3
 72
14
 73
10
 74
0
 42
0.0000001
 43
0.0000001
 44
0.0000000001
 40
0.0
 40
0.0
 40
0.0
 40
0.0
 40
0.1250162164
 40
0.250031777
 40
0.3750477863
 40
0.5000635911
 40
0.7499442503
 40
0.8749632181
 40
1.0
 40
1.0
 40
1.0
 40
1.0
 10
4.9157700896
 20
2.153658831
 30
0.0
 10
4.9151748872
 20
2.1538834833
 30
0.0
 10
4.9139744993
 20
2.1543069856
 30
0.0
 10
4.9121451245
 20
2.1548537212
 30
0.0
 10
4.910288709
 20
2.1553016556
 30
0.0
 10
4.9077841558
 20
2.1557530036
 30
0.0
 10
4.9052377903
 20
2.1559572934
 30
0.0
 10
4.9026932077
 20
2.1558636349
 30
0.0
 10
4.9014279737
 20
2.1557110184
 30
0.0
 10
4.9008001932
 20
2.1556072915
 30
0.0
  0
SPLINE
  5
50F
100
AcDbEntity
  8
0
100
AcDbSpline
 62
7
  6
CONTINUOUS
 70
0
 71
3
 72
15
 73
11
 74
0
 42
0.0000001
 43
0.0000001
 44
0.0000000001
 40
0.0
 40
0.0
 40
0.0
 40
0.0
 40
0.1250063395
 40
0.2499991707
 40
0.3749965746
 40
0.4999949481
 40
0.624993948
 40
0.749995962
 40
0.8749942048
 40
1.0
 40
1.0
 40
1.0
 40
1.0
 10
4.900432644
 20
2.1719423637
 30
0.0
 10
4.9015042897
 20
2.1721590764
 30
0.0
 10
4.9036663877
 20
2.1725048304
 30
0.0
 10
4.9069414348
 20
2.1727442905
 30
0.0
 10
4.9102250798
 20
2.1726958436
 30
0.0
 10
4.9134919602
 20
2.1723619237
 30
0.0
 10
4.9167181057
 20
2.1717499973
 30
0.0
 10
4.9198836446
 20
2.1708786528
 30
0.0
 10
4.922972765
 20
2.1697677876
 30
0.0
 10
4.924974476
 20
2.1688829729
 30
0.0
 10
4.9259597495
 20
2.1684090378
 30
0.0
  0
LINE
  5
510
100
AcDbEntity
  8
0
100
AcDbLine
 62
7
  6
CONTINUOUS
 10
4.8733435462
 20
2.152854295
 11
4.873441413
 21
2.1529936833
  0
SPLINE
  5
511
100
AcDbEntity
  8
0
100
AcDbSpline
 62
7
  6
CONTINUOUS
 70
0
 71
3
 72
15
 73
11
 74
0
 42
0.0000001
 43
0.0000001
 44
0.0000000001
 40
0.0
 40
0.0
 40
0.0
 40
0.0
 40
0.1250056319
 40
0.2500033659
 40
0.3750041983
 40
0.5000019665
 40
0.6249996378
 40
0.7499971546
 40
0.8749908645
 40
1.0
 40
1.0
 40
1.0
 40
1.0
 10
4.8757140607
 20
2.1560268064
 30
0.0
 10
4.8764234974
 20
2.1569155026
 30
0.0
 10
4.8778932347
 20
2.1586530772
 30
0.0
 10
4.8802595731
 20
2.1611136107
 30
0.0
 10
4.882792588
 20
2.1634029211
 30
0.0
 10
4.8854917176
 20
2.1654946507
 30
0.0
 10
4.8883534836
 20
2.1673585229
 30
0.0
 10
4.8913650309
 20
2.1689700041
 30
0.0
 10
4.8945080825
 20
2.1703071115
 30
0.0
 10
4.8966755115
 20
2.1710073857
 30
0.0
 10
4.8977719467
 20
2.171309021
 30
0.0
  0
SPLINE
  5
512
100
AcDbEntity
  8
0
100
AcDbSpline
 62
7
  6
CONTINUOUS
 70
0
 71
3
 72
13
 73
9
 74
0
 42
0.0000001
 43
0.0000001
 44
0.0000000001
 40
0.0
 40
0.0
 40
0.0
 40
0.0
 40
0.2499618362
 40
0.4999124829
 40
0.6249349099
 40
0.749956611
 40
0.8749777178
 40
1.0
 40
1.0
 40
1.0
 40
1.0
 10
4.8656129056
 20
2.1173660079
 30
0.0
 10
4.8652627424
 20
2.1189044076
 30
0.0
 10
4.8647191034
 20
2.1220196235
 30
0.0
 10
4.8644782219
 20
2.1259659979
 30
0.0
 10
4.8645617323
 20
2.1291223935
 30
0.0
 10
4.8647640444
 20
2.1314825815
 30
0.0
 10
4.8651050083
 20
2.1338265879
 30
0.0
 10
4.8654229628
 20
2.135373552
 30
0.0
 10
4.8656038842
 20
2.1361416674
 30
0.0
  0
SPLINE
  5
513
100
AcDbEntity
  8
0
100
AcDbSpline
 62
7
  6
CONTINUOUS
 70
0
 71
3
 72
11
 73
7
 74
0
 42
0.0000001
 43
0.0000001
 44
0.0000000001
 40
0.0
 40
0.0
 40
0.0
 40
0.0
 40
0.2499898388
 40
0.4999920722
 40
0.7499989593
 40
1.0
 40
1.0
 40
1.0
 40
1.0
 10
4.8656038842
 20
2.1361416674
 30
0.0
 10
4.8658605779
 20
2.1372314798
 30
0.0
 10
4.8664627607
 20
2.1393912421
 30
0.0
 10
4.867614681
 20
2.1425498118
 30
0.0
 10
4.8689932258
 20
2.1456159936
 30
0.0
 10
4.87004991
 20
2.1475925259
 30
0.0
 10
4.8706083843
 20
2.1485629905
 30
0.0
  0
SPLINE
  5
514
100
AcDbEntity
  8
0
100
AcDbSpline
 62
7
  6
CONTINUOUS
 70
0
 71
3
 72
15
 73
11
 74
0
 42
0.0000001
 43
0.0000001
 44
0.0000000001
 40
0.0
 40
0.0
 40
0.0
 40
0.0
 40
0.1250043735
 40
0.2500023193
 40
0.3750029691
 40
0.5000017315
 40
0.6250004647
 40
0.7499988184
 40
0.8749941285
 40
1.0
 40
1.0
 40
1.0
 40
1.0
 10
4.8833828657
 20
2.0896318049
 30
0.0
 10
4.8824373513
 20
2.0903812892
 30
0.0
 10
4.880592183
 20
2.091939282
 30
0.0
 10
4.8779860979
 20
2.0944550073
 30
0.0
 10
4.8755630075
 20
2.0971479295
 30
0.0
 10
4.8733434693
 20
2.1000112363
 30
0.0
 10
4.8713472285
 20
2.1030346118
 30
0.0
 10
4.8695881153
 20
2.1062018928
 30
0.0
 10
4.868076868
 20
2.1094944467
 30
0.0
 10
4.8672366051
 20
2.1117591629
 30
0.0
 10
4.8668581256
 20
2.1129048122
 30
0.0
  0
SPLINE
  5
515
100
AcDbEntity
  8
0
100
AcDbSpline
 62
7
  6
CONTINUOUS
 70
0
 71
3
 72
15
 73
11
 74
0
 42
0.0000001
 43
0.0000001
 44
0.0000000001
 40
0.0
 40
0.0
 40
0.0
 40
0.0
 40
0.1250124773
 40
0.2500167103
 40
0.3750182682
 40
0.5000162081
 40
0.6250125756
 40
0.7500083727
 40
0.8750051084
 40
1.0
 40
1.0
 40
1.0
 40
1.0
 10
4.9148426012
 20
2.078900262
 30
0.0
 10
4.913785651
 20
2.0788233888
 30
0.0
 10
4.9116649034
 20
2.0787512211
 30
0.0
 10
4.908485875
 20
2.0788958261
 30
0.0
 10
4.9053286121
 20
2.0792949387
 30
0.0
 10
4.9022133092
 20
2.0799437744
 30
0.0
 10
4.8991578656
 20
2.08083185
 30
0.0
 10
4.8961769277
 20
2.081943828
 30
0.0
 10
4.893281048
 20
2.08326041
 30
0.0
 10
4.8914117185
 20
2.0842621822
 30
0.0
 10
4.8904933269
 20
2.084790665
 30
0.0
  0
SPLINE
  5
516
100
AcDbEntity
  8
0
100
AcDbSpline
 62
7
  6
CONTINUOUS
 70
0
 71
3
 72
15
 73
11
 74
0
 42
0.0000001
 43
0.0000001
 44
0.0000000001
 40
0.0
 40
0.0
 40
0.0
 40
0.0
 40
0.124999992
 40
0.2500000211
 40
0.3750002302
 40
0.4999995456
 40
0.6249997369
 40
0.750000091
 40
0.8749959847
 40
1.0
 40
1.0
 40
1.0
 40
1.0
 10
4.9406290641
 20
2.0902478482
 30
0.0
 10
4.9400263683
 20
2.0896621261
 30
0.0
 10
4.9387852889
 20
2.0885267179
 30
0.0
 10
4.9368213019
 20
2.0869431472
 30
0.0
 10
4.9347599108
 20
2.0854883558
 30
0.0
 10
4.932608495
 20
2.0841703429
 30
0.0
 10
4.9303761709
 20
2.0829945892
 30
0.0
 10
4.9280729957
 20
2.0819646586
 30
0.0
 10
4.9257099235
 20
2.0810812241
 30
0.0
 10
4.9241016007
 20
2.0805888235
 30
0.0
 10
4.9232911597
 20
2.0803662399
 30
0.0
  0
SPLINE
  5
517
100
AcDbEntity
  8
0
100
AcDbSpline
 62
7
  6
CONTINUOUS
 70
0
 71
3
 72
15
 73
11
 74
0
 42
0.0000001
 43
0.0000001
 44
0.0000000001
 40
0.0
 40
0.0
 40
0.0
 40
0.0
 40
0.1249943289
 40
0.2499921402
 40
0.3749908819
 40
0.4999890108
 40
0.6249897543
 40
0.7499898095
 40
0.8749895971
 40
1.0
 40
1.0
 40
1.0
 40
1.0
 10
4.9537207317
 20
2.1187694016
 30
0.0
 10
4.953654098
 20
2.1178498745
 30
0.0
 10
4.9534728138
 20
2.1160138352
 30
0.0
 10
4.9530463454
 20
2.1132795503
 30
0.0
 10
4.9524594808
 20
2.1105748735
 30
0.0
 10
4.9517047846
 20
2.1079119432
 30
0.0
 10
4.9507784797
 20
2.1053036042
 30
0.0
 10
4.9496798819
 20
2.102762858
 30
0.0
 10
4.948410748
 20
2.1003028885
 30
0.0
 10
4.9474554661
 20
2.0987236609
 30
0.0
 10
4.9469521519
 20
2.0979510914
 30
0.0
  0
SPLINE
  5
518
100
AcDbEntity
  8
0
100
AcDbSpline
 62
2
  6
CONTINUOUS
 70
0
 71
3
 72
11
 73
7
 74
0
 42
0.0000001
 43
0.0000001
 44
0.0000000001
 40
0.0
 40
0.0
 40
0.0
 40
0.0
 40
0.249995258
 40
0.5000207258
 40
0.7500095024
 40
1.0
 40
1.0
 40
1.0
 40
1.0
 10
4.8823889782
 20
2.1447434352
 30
0.0
 10
4.8815555615
 20
2.1453269998
 30
0.0
 10
4.8799212603
 20
2.1465418502
 30
0.0
 10
4.8775912372
 20
2.1485171543
 30
0.0
 10
4.8754085725
 20
2.1506547869
 30
0.0
 10
4.8740717346
 20
2.1521926408
 30
0.0
 10
4.8734388894
 20
2.1529892577
 30
0.0
  0
SPLINE
  5
519
100
AcDbEntity
  8
0
100
AcDbSpline
 62
2
  6
CONTINUOUS
 70
0
 71
3
 72
9
 73
5
 74
0
 42
0.0000001
 43
0.0000001
 44
0.0000000001
 40
0.0
 40
0.0
 40
0.0
 40
0.0
 40
0.4999907287
 40
1.0
 40
1.0
 40
1.0
 40
1.0
 10
4.8656033001
 20
2.1361392226
 30
0.0
 10
4.8668118042
 20
2.1349108224
 30
0.0
 10
4.8693527914
 20
2.1325733781
 30
0.0
 10
4.8720958357
 20
2.1304789483
 30
0.0
 10
4.8735074582
 20
2.1294905196
 30
0.0
  0
SPLINE
  5
51A
100
AcDbEntity
  8
0
100
AcDbSpline
 62
2
  6
CONTINUOUS
 70
0
 71
3
 72
9
 73
5
 74
0
 42
0.0000001
 43
0.0000001
 44
0.0000000001
 40
0.0
 40
0.0
 40
0.0
 40
0.0
 40
0.4999795683
 40
1.0
 40
1.0
 40
1.0
 40
1.0
 10
4.8735074582
 20
2.1294905196
 30
0.0
 10
4.8745151007
 20
2.1287849608
 30
0.0
 10
4.8765739521
 20
2.1274346862
 30
0.0
 10
4.8787195395
 20
2.1262258556
 30
0.0
 10
4.8798129621
 20
2.1256620907
 30
0.0
  0
SPLINE
  5
51B
100
AcDbEntity
  8
0
100
AcDbSpline
 62
2
  6
CONTINUOUS
 70
0
 71
3
 72
16
 73
12
 74
0
 42
0.0000001
 43
0.0000001
 44
0.0000000001
 40
0.0
 40
0.0
 40
0.0
 40
0.0
 40
0.124993797
 40
0.2499951486
 40
0.3749987213
 40
0.4999996312
 40
0.6249961318
 40
0.7499951475
 40
0.8124989129
 40
0.8750074351
 40
1.0
 40
1.0
 40
1.0
 40
1.0
 10
4.9801423819
 20
2.2153327034
 30
0.0
 10
4.9809517293
 20
2.2136572196
 30
0.0
 10
4.9825404824
 20
2.2102915372
 30
0.0
 10
4.9848206584
 20
2.2051955705
 30
0.0
 10
4.9869853422
 20
2.2000492407
 30
0.0
 10
4.9890188267
 20
2.1948495786
 30
0.0
 10
4.9909013564
 20
2.1895932946
 30
0.0
 10
4.992326463
 20
2.185163824
 30
0.0
 10
4.9933657752
 20
2.1815898364
 30
0.0
 10
4.9943331685
 20
2.177995909
 30
0.0
 10
4.99497098
 20
2.1752771509
 30
0.0
 10
4.9953505795
 20
2.1734555787
 30
0.0
  0
LINE
  5
51C
100
AcDbEntity
  8
0
100
AcDbLine
 62
2
  6
CONTINUOUS
 10
5.0144869221
 20
2.8883838951
 11
5.0106001139
 21
2.8902540744
  0
SPLINE
  5
51D
100
AcDbEntity
  8
0
100
AcDbSpline
 62
2
  6
CONTINUOUS
 70
0
 71
3
 72
11
 73
7
 74
0
 42
0.0000001
 43
0.0000001
 44
0.0000000001
 40
0.0
 40
0.0
 40
0.0
 40
0.0
 40
0.2500093548
 40
0.5000075928
 40
0.7500010809
 40
1.0
 40
1.0
 40
1.0
 40
1.0
 10
5.0106001139
 20
2.8902540744
 30
0.0
 10
5.0097463757
 20
2.8907520981
 30
0.0
 10
5.0080899919
 20
2.8918394441
 30
0.0
 10
5.0058084025
 20
2.8937434916
 30
0.0
 10
5.0037696083
 20
2.8959057787
 30
0.0
 10
5.0025908058
 20
2.8974990202
 30
0.0
 10
5.0020489843
 20
2.8983256062
 30
0.0
  0
SPLINE
  5
51E
100
AcDbEntity
  8
0
100
AcDbSpline
 62
2
  6
CONTINUOUS
 70
0
 71
3
 72
13
 73
9
 74
0
 42
0.0000001
 43
0.0000001
 44
0.0000000001
 40
0.0
 40
0.0
 40
0.0
 40
0.0
 40
0.1250276319
 40
0.2500560996
 40
0.3750836747
 40
0.5001125032
 40
0.7500459656
 40
1.0
 40
1.0
 40
1.0
 40
1.0
 10
5.0519343498
 20
2.9135424174
 30
0.0
 10
5.051924891
 20
2.9129826428
 30
0.0
 10
5.051871508
 20
2.9118633431
 30
0.0
 10
5.0516856314
 20
2.9101930129
 30
0.0
 10
5.0513933266
 20
2.9085378466
 30
0.0
 10
5.0508632601
 20
2.9063612675
 30
0.0
 10
5.0499425288
 20
2.903710662
 30
0.0
 10
5.0489556622
 20
2.9016951985
 30
0.0
 10
5.0484087797
 20
2.900718647
 30
0.0
  0
SPLINE
  5
51F
100
AcDbEntity
  8
0
100
AcDbSpline
 62
2
  6
CONTINUOUS
 70
0
 71
3
 72
11
 73
7
 74
0
 42
0.0000001
 43
0.0000001
 44
0.0000000001
 40
0.0
 40
0.0
 40
0.0
 40
0.0
 40
0.2499912107
 40
0.4999826788
 40
0.7500224786
 40
1.0
 40
1.0
 40
1.0
 40
1.0
 10
5.1054315054
 20
2.926241909
 30
0.0
 10
5.1053221674
 20
2.9256416824
 30
0.0
 10
5.1050496828
 20
2.9244503313
 30
0.0
 10
5.1044853208
 20
2.9227067716
 30
0.0
 10
5.1037763706
 20
2.9210170871
 30
0.0
 10
5.1032163698
 20
2.9199313417
 30
0.0
 10
5.1029171586
 20
2.9193996853
 30
0.0
  0
SPLINE
  5
520
100
AcDbEntity
  8
0
100
AcDbSpline
 62
2
  6
CONTINUOUS
 70
0
 71
3
 72
15
 73
11
 74
0
 42
0.0000001
 43
0.0000001
 44
0.0000000001
 40
0.0
 40
0.0
 40
0.0
 40
0.0
 40
0.1249866578
 40
0.2500085105
 40
0.3750072538
 40
0.5000010733
 40
0.6250004442
 40
0.7500005072
 40
0.8749915129
 40
1.0
 40
1.0
 40
1.0
 40
1.0
 10
5.1029171586
 20
2.9193996853
 30
0.0
 10
5.1026326597
 20
2.9188941706
 30
0.0
 10
5.1020274904
 20
2.9179027337
 30
0.0
 10
5.1010083617
 20
2.9164896964
 30
0.0
 10
5.0998761821
 20
2.9151650272
 30
0.0
 10
5.0986336184
 20
2.9139432582
 30
0.0
 10
5.0972876873
 20
2.9128362754
 30
0.0
 10
5.0958485701
 20
2.9118535374
 30
0.0
 10
5.0943298318
 20
2.9109994523
 30
0.0
 10
5.0932735344
 20
2.9105158617
 30
0.0
 10
5.0927370354
 20
2.9102950201
 30
0.0
  0
SPLINE
  5
521
100
AcDbEntity
  8
0
100
AcDbSpline
 62
2
  6
CONTINUOUS
 70
0
 71
3
 72
15
 73
11
 74
0
 42
0.0000001
 43
0.0000001
 44
0.0000000001
 40
0.0
 40
0.0
 40
0.0
 40
0.0
 40
0.1250106742
 40
0.2500205005
 40
0.3750087132
 40
0.5000038302
 40
0.6249994232
 40
0.7499888741
 40
0.8750057545
 40
1.0
 40
1.0
 40
1.0
 40
1.0
 10
5.0893674348
 20
2.9091950467
 30
0.0
 10
5.088717959
 20
2.9090336656
 30
0.0
 10
5.0874047157
 20
2.908764945
 30
0.0
 10
5.085406293
 20
2.908544768
 30
0.0
 10
5.0833954516
 20
2.9085231385
 30
0.0
 10
5.081393029
 20
2.9087092245
 30
0.0
 10
5.0794210145
 20
2.9091033052
 30
0.0
 10
5.0774994815
 20
2.9096959628
 30
0.0
 10
5.0756442746
 20
2.9104701628
 30
0.0
 10
5.0744578271
 20
2.9110935136
 30
0.0
 10
5.073878337
 20
2.9114280821
 30
0.0
  0
SPLINE
  5
522
100
AcDbEntity
  8
0
100
AcDbSpline
 62
2
  6
CONTINUOUS
 70
0
 71
3
 72
9
 73
5
 74
0
 42
0.0000001
 43
0.0000001
 44
0.0000000001
 40
0.0
 40
0.0
 40
0.0
 40
0.0
 40
0.4999894938
 40
1.0
 40
1.0
 40
1.0
 40
1.0
 10
5.073878337
 20
2.9114280821
 30
0.0
 10
5.0732012947
 20
2.9118189725
 30
0.0
 10
5.0718897359
 20
2.9126773835
 30
0.0
 10
5.0706895799
 20
2.913686397
 30
0.0
 10
5.0701228839
 20
2.9142249957
 30
0.0
  0
SPLINE
  5
523
100
AcDbEntity
  8
0
100
AcDbSpline
 62
2
  6
CONTINUOUS
 70
0
 71
3
 72
11
 73
7
 74
0
 42
0.0000001
 43
0.0000001
 44
0.0000000001
 40
0.0
 40
0.0
 40
0.0
 40
0.0
 40
0.2499929018
 40
0.4999901489
 40
0.7500248705
 40
1.0
 40
1.0
 40
1.0
 40
1.0
 10
4.9961382068
 20
2.8826887187
 30
0.0
 10
4.9967651423
 20
2.8820213264
 30
0.0
 10
4.9980655558
 20
2.8807293544
 30
0.0
 10
5.0001465564
 20
2.878932573
 30
0.0
 10
5.002347617
 20
2.8772852342
 30
0.0
 10
5.0038868043
 20
2.8762897214
 30
0.0
 10
5.0046717358
 20
2.875818315
 30
0.0
  0
LINE
  5
524
100
AcDbEntity
  8
0
100
AcDbLine
 62
2
  6
CONTINUOUS
 10
5.0046717358
 20
2.875818315
 11
5.0098543554
 21
2.8731508878
  0
SPLINE
  5
525
100
AcDbEntity
  8
0
100
AcDbSpline
 62
2
  6
CONTINUOUS
 70
0
 71
3
 72
11
 73
7
 74
0
 42
0.0000001
 43
0.0000001
 44
0.0000000001
 40
0.0
 40
0.0
 40
0.0
 40
0.0
 40
0.2499739114
 40
0.4999612731
 40
0.7499693561
 40
1.0
 40
1.0
 40
1.0
 40
1.0
 10
5.0590480633
 20
2.8896697915
 30
0.0
 10
5.0595979163
 20
2.8907968036
 30
0.0
 10
5.0605691431
 20
2.8931157965
 30
0.0
 10
5.061648534
 20
2.8967261188
 30
0.0
 10
5.0623808973
 20
2.9004216478
 30
0.0
 10
5.0626625664
 20
2.9029171314
 30
0.0
 10
5.0627581818
 20
2.9041677577
 30
0.0
  0
SPLINE
  5
526
100
AcDbEntity
  8
0
100
AcDbSpline
 62
2
  6
CONTINUOUS
 70
0
 71
3
 72
11
 73
7
 74
0
 42
0.0000001
 43
0.0000001
 44
0.0000000001
 40
0.0
 40
0.0
 40
0.0
 40
0.0
 40
0.2500030024
 40
0.5000067426
 40
0.7499894757
 40
1.0
 40
1.0
 40
1.0
 40
1.0
 10
5.0666217655
 20
2.9004298865
 30
0.0
 10
5.0673015053
 20
2.8997252248
 30
0.0
 10
5.0687195955
 20
2.898370754
 30
0.0
 10
5.0710249983
 20
2.8965435018
 30
0.0
 10
5.0735058757
 20
2.8949611315
 30
0.0
 10
5.0752682518
 20
2.8940961504
 30
0.0
 10
5.0761708993
 20
2.893716836
 30
0.0
  0
SPLINE
  5
527
100
AcDbEntity
  8
0
100
AcDbSpline
 62
2
  6
CONTINUOUS
 70
0
 71
3
 72
9
 73
5
 74
0
 42
0.0000001
 43
0.0000001
 44
0.0000000001
 40
0.0
 40
0.0
 40
0.0
 40
0.0
 40
0.5000294349
 40
1.0
 40
1.0
 40
1.0
 40
1.0
 10
5.1120068182
 20
2.9044501104
 30
0.0
 10
5.1126515026
 20
2.9052722375
 30
0.0
 10
5.1138669676
 20
2.9069754608
 30
0.0
 10
5.1149348207
 20
2.9087742236
 30
0.0
 10
5.1154331563
 20
2.909692328
 30
0.0
  0
SPLINE
  5
528
100
AcDbEntity
  8
0
100
AcDbSpline
 62
2
  6
CONTINUOUS
 70
0
 71
3
 72
11
 73
7
 74
0
 42
0.0000001
 43
0.0000001
 44
0.0000000001
 40
0.0
 40
0.0
 40
0.0
 40
0.0
 40
0.2499941579
 40
0.4999791537
 40
0.7500069691
 40
1.0
 40
1.0
 40
1.0
 40
1.0
 10
3.6001162186
 20
3.0025442968
 30
0.0
 10
3.6001502396
 20
3.0017264029
 30
0.0
 10
3.6001387694
 20
3.0000862835
 30
0.0
 10
3.5998891307
 20
2.9976397385
 30
0.0
 10
3.5994205332
 20
2.9952258794
 30
0.0
 10
3.5989743202
 20
2.9936484124
 30
0.0
 10
3.5987213597
 20
2.9928698799
 30
0.0
  0
SPLINE
  5
529
100
AcDbEntity
  8
0
100
AcDbSpline
 62
2
  6
CONTINUOUS
 70
0
 71
3
 72
11
 73
7
 74
0
 42
0.0000001
 43
0.0000001
 44
0.0000000001
 40
0.0
 40
0.0
 40
0.0
 40
0.0
 40
0.2499773272
 40
0.5000137268
 40
0.7500096992
 40
1.0
 40
1.0
 40
1.0
 40
1.0
 10
3.5987213597
 20
2.9928698799
 30
0.0
 10
3.5985145554
 20
2.9922334017
 30
0.0
 10
3.5980596287
 20
2.9909732065
 30
0.0
 10
3.5972469348
 20
2.9891352367
 30
0.0
 10
3.5962985737
 20
2.9873631894
 30
0.0
 10
3.5955740926
 20
2.9862355598
 30
0.0
 10
3.5951893115
 20
2.9856879628
 30
0.0
  0
SPLINE
  5
52A
100
AcDbEntity
  8
0
100
AcDbSpline
 62
2
  6
CONTINUOUS
 70
0
 71
3
 72
10
 73
6
 74
0
 42
0.0000001
 43
0.0000001
 44
0.0000000001
 40
0.0
 40
0.0
 40
0.0
 40
0.0
 40
0.250035267
 40
0.500080496
 40
1.0
 40
1.0
 40
1.0
 40
1.0
 10
3.6064173878
 20
2.976978069
 30
0.0
 10
3.6069741568
 20
2.977891723
 30
0.0
 10
3.6080248053
 20
2.9797582185
 30
0.0
 10
3.6098830178
 20
2.9836149725
 30
0.0
 10
3.6110221796
 20
2.9866237937
 30
0.0
 10
3.6116832346
 20
2.9886583115
 30
0.0
  0
LINE
  5
52B
100
AcDbEntity
  8
0
100
AcDbLine
 62
2
  6
CONTINUOUS
 10
3.6116832346
 20
2.9886583115
 11
3.6130596037
 21
2.9936287047
  0
SPLINE
  5
52C
100
AcDbEntity
  8
0
100
AcDbSpline
 62
2
  6
CONTINUOUS
 70
0
 71
3
 72
9
 73
5
 74
0
 42
0.0000001
 43
0.0000001
 44
0.0000000001
 40
0.0
 40
0.0
 40
0.0
 40
0.0
 40
0.4999935549
 40
1.0
 40
1.0
 40
1.0
 40
1.0
 10
3.4679556625
 20
2.9069261836
 30
0.0
 10
3.468632445
 20
2.9044578632
 30
0.0
 10
3.4697943493
 20
2.8994669279
 30
0.0
 10
3.470597494
 20
2.8944070871
 30
0.0
 10
3.4709171097
 20
2.8918676336
 30
0.0
  0
SPLINE
  5
52D
100
AcDbEntity
  8
0
100
AcDbSpline
 62
2
  6
CONTINUOUS
 70
0
 71
3
 72
12
 73
8
 74
0
 42
0.0000001
 43
0.0000001
 44
0.0000000001
 40
0.0
 40
0.0
 40
0.0
 40
0.0
 40
0.2499824369
 40
0.3750017794
 40
0.5000052853
 40
0.7500012822
 40
1.0
 40
1.0
 40
1.0
 40
1.0
 10
3.4861560709
 20
2.886916195
 30
0.0
 10
3.4861196006
 20
2.8881793545
 30
0.0
 10
3.4860065756
 20
2.8900729211
 30
0.0
 10
3.4857635318
 20
2.8925888777
 30
0.0
 10
3.485466088
 20
2.8950991605
 30
0.0
 10
3.4850009979
 20
2.898224896
 30
0.0
 10
3.4845493662
 20
2.9007121393
 30
0.0
 10
3.4843066855
 20
2.9019523877
 30
0.0
  0
SPLINE
  5
52E
100
AcDbEntity
  8
0
100
AcDbSpline
 62
2
  6
CONTINUOUS
 70
0
 71
3
 72
11
 73
7
 74
0
 42
0.0000001
 43
0.0000001
 44
0.0000000001
 40
0.0
 40
0.0
 40
0.0
 40
0.0
 40
0.2500087181
 40
0.5000155438
 40
0.7500081933
 40
1.0
 40
1.0
 40
1.0
 40
1.0
 10
3.5349183265
 20
2.2155974249
 30
0.0
 10
3.5358027083
 20
2.2148657714
 30
0.0
 10
3.5376332258
 20
2.2134749304
 30
0.0
 10
3.5405581174
 20
2.2116482092
 30
0.0
 10
3.5436503943
 20
2.2101205377
 30
0.0
 10
3.5458090212
 20
2.2093245933
 30
0.0
 10
3.5469058767
 20
2.2089866914
 30
0.0
  0
SPLINE
  5
52F
100
AcDbEntity
  8
0
100
AcDbSpline
 62
2
  6
CONTINUOUS
 70
0
 71
3
 72
10
 73
6
 74
0
 42
0.0000001
 43
0.0000001
 44
0.0000000001
 40
0.0
 40
0.0
 40
0.0
 40
0.0
 40
0.2500809811
 40
0.500175301
 40
1.0
 40
1.0
 40
1.0
 40
1.0
 10
3.6359670097
 20
2.2604131067
 30
0.0
 10
3.6366169055
 20
2.2614291188
 30
0.0
 10
3.6378671783
 20
2.2634938882
 30
0.0
 10
3.6401325981
 20
2.2677525621
 30
0.0
 10
3.6415262517
 20
2.2711080019
 30
0.0
 10
3.642266972
 20
2.2734019221
 30
0.0
  0
SPLINE
  5
530
100
AcDbEntity
  8
0
100
AcDbSpline
 62
2
  6
CONTINUOUS
 70
0
 71
3
 72
15
 73
11
 74
0
 42
0.0000001
 43
0.0000001
 44
0.0000000001
 40
0.0
 40
0.0
 40
0.0
 40
0.0
 40
0.124999182
 40
0.2499983248
 40
0.3749938325
 40
0.499985799
 40
0.6249801741
 40
0.749976425
 40
0.8749787476
 40
1.0
 40
1.0
 40
1.0
 40
1.0
 10
3.5548633783
 20
2.2225850634
 30
0.0
 10
3.5541644221
 20
2.2226175625
 30
0.0
 10
3.5527684018
 20
2.2227437317
 30
0.0
 10
3.5507021852
 20
2.2231323311
 30
0.0
 10
3.5486859782
 20
2.2237300954
 30
0.0
 10
3.5467444822
 20
2.2245384641
 30
0.0
 10
3.5449003301
 20
2.2255491973
 30
0.0
 10
3.5431710436
 20
2.22674545
 30
0.0
 10
3.5415672979
 20
2.2281046589
 30
0.0
 10
3.5405838905
 20
2.229103294
 30
0.0
 10
3.5401134932
 20
2.2296214592
 30
0.0
  0
SPLINE
  5
531
100
AcDbEntity
  8
0
100
AcDbSpline
 62
2
  6
CONTINUOUS
 70
0
 71
3
 72
14
 73
10
 74
0
 42
0.0000001
 43
0.0000001
 44
0.0000000001
 40
0.0
 40
0.0
 40
0.0
 40
0.0
 40
0.1249865556
 40
0.1875229181
 40
0.2500398076
 40
0.3750491633
 40
0.5000532093
 40
0.7500295384
 40
1.0
 40
1.0
 40
1.0
 40
1.0
 10
3.6279433973
 20
2.2797854555
 30
0.0
 10
3.6277890275
 20
2.2792039891
 30
0.0
 10
3.6275156793
 20
2.2783421913
 30
0.0
 10
3.6270850571
 20
2.2772181889
 30
0.0
 10
3.6266151569
 20
2.2761097915
 30
0.0
 10
3.6259609535
 20
2.2747540893
 30
0.0
 10
3.624801107
 20
2.2726443966
 30
0.0
 10
3.6231760521
 20
2.270109029
 30
0.0
 10
3.6217481364
 20
2.2681703984
 30
0.0
 10
3.6210101723
 20
2.2672200768
 30
0.0
  0
SPLINE
  5
532
100
AcDbEntity
  8
0
100
AcDbSpline
 62
2
  6
CONTINUOUS
 70
0
 71
3
 72
9
 73
5
 74
0
 42
0.0000001
 43
0.0000001
 44
0.0000000001
 40
0.0
 40
0.0
 40
0.0
 40
0.0
 40
0.5000583207
 40
1.0
 40
1.0
 40
1.0
 40
1.0
 10
3.6989178639
 20
2.1840269151
 30
0.0
 10
3.7014079856
 20
2.1840262148
 30
0.0
 10
3.7063907648
 20
2.184230763
 30
0.0
 10
3.7113308308
 20
2.1849640732
 30
0.0
 10
3.7137627789
 20
2.1854964669
 30
0.0
  0
SPLINE
  5
533
100
AcDbEntity
  8
0
100
AcDbSpline
 62
2
  6
CONTINUOUS
 70
0
 71
3
 72
12
 73
8
 74
0
 42
0.0000001
 43
0.0000001
 44
0.0000000001
 40
0.0
 40
0.0
 40
0.0
 40
0.0
 40
0.2500296866
 40
0.5000227521
 40
0.6250210459
 40
0.7500143759
 40
1.0
 40
1.0
 40
1.0
 40
1.0
 10
3.7015493899
 20
2.1999801488
 30
0.0
 10
3.7007025182
 20
2.1999247621
 30
0.0
 10
3.6990052428
 20
2.19986762
 30
0.0
 10
3.6968834507
 20
2.199890045
 30
0.0
 10
3.695187216
 20
2.1999455474
 30
0.0
 10
3.6934917493
 20
2.2000203048
 30
0.0
 10
3.6922209951
 20
2.200093225
 30
0.0
 10
3.6913740329
 20
2.2001448065
 30
0.0
  0
SPLINE
  5
534
100
AcDbEntity
  8
0
100
AcDbSpline
 62
2
  6
CONTINUOUS
 70
0
 71
3
 72
15
 73
11
 74
0
 42
0.0000001
 43
0.0000001
 44
0.0000000001
 40
0.0
 40
0.0
 40
0.0
 40
0.0
 40
0.124986389
 40
0.250011556
 40
0.3125297599
 40
0.3750398419
 40
0.5000407496
 40
0.6250289162
 40
0.7500153067
 40
1.0
 40
1.0
 40
1.0
 40
1.0
 10
3.6913740329
 20
2.2001448065
 30
0.0
 10
3.6908378435
 20
2.2001774614
 30
0.0
 10
3.6897666205
 20
2.2002651715
 30
0.0
 10
3.6884314647
 20
2.2004129726
 30
0.0
 10
3.6873646862
 20
2.2005433402
 30
0.0
 10
3.6862986428
 20
2.2006787763
 30
0.0
 10
3.6849674342
 20
2.2008572341
 30
0.0
 10
3.6833717319
 20
2.2010832534
 30
0.0
 10
3.6812459414
 20
2.2013968558
 30
0.0
 10
3.6796531108
 20
2.2016422275
 30
0.0
 10
3.6785917447
 20
2.2018091816
 30
0.0
  0
LINE
  5
535
100
AcDbEntity
  8
0
100
AcDbLine
 62
2
  6
CONTINUOUS
 10
3.6404853252
 20
2.2075557024
 11
3.6314181187
 21
2.2081998114
  0
SPLINE
  5
536
100
AcDbEntity
  8
0
100
AcDbSpline
 62
2
  6
CONTINUOUS
 70
0
 71
3
 72
12
 73
8
 74
0
 42
0.0000001
 43
0.0000001
 44
0.0000000001
 40
0.0
 40
0.0
 40
0.0
 40
0.0
 40
0.2499944089
 40
0.3750095158
 40
0.5000284049
 40
0.7500183097
 40
1.0
 40
1.0
 40
1.0
 40
1.0
 10
3.6314181187
 20
2.2081998114
 30
0.0
 10
3.6301366138
 20
2.2082382958
 30
0.0
 10
3.6282127581
 20
2.2082591012
 30
0.0
 10
3.6256488947
 20
2.2081989009
 30
0.0
 10
3.6230872761
 20
2.2080756119
 30
0.0
 10
3.6198928608
 20
2.2077917822
 30
0.0
 10
3.6173562458
 20
2.2073998489
 30
0.0
 10
3.6160979956
 20
2.2071541356
 30
0.0
  0
SPLINE
  5
537
100
AcDbEntity
  8
0
100
AcDbSpline
 62
2
  6
CONTINUOUS
 70
0
 71
3
 72
13
 73
9
 74
0
 42
0.0000001
 43
0.0000001
 44
0.0000000001
 40
0.0
 40
0.0
 40
0.0
 40
0.0
 40
0.1250186214
 40
0.2500381965
 40
0.3750580914
 40
0.500070268
 40
0.7500405589
 40
1.0
 40
1.0
 40
1.0
 40
1.0
 10
3.5877895161
 20
2.1864185894
 30
0.0
 10
3.5875191773
 20
2.1858789601
 30
0.0
 10
3.5870071683
 20
2.184785042
 30
0.0
 10
3.5863290168
 20
2.1831052538
 30
0.0
 10
3.5857417137
 20
2.1813915413
 30
0.0
 10
3.5850813962
 20
2.1790687177
 30
0.0
 10
3.5844845284
 20
2.1761056657
 30
0.0
 10
3.5842419908
 20
2.1737002787
 30
0.0
 10
3.5841751139
 20
2.1724953919
 30
0.0
  0
SPLINE
  5
538
100
AcDbEntity
  8
0
100
AcDbSpline
 62
2
  6
CONTINUOUS
 70
0
 71
3
 72
11
 73
7
 74
0
 42
0.0000001
 43
0.0000001
 44
0.0000000001
 40
0.0
 40
0.0
 40
0.0
 40
0.0
 40
0.2500377802
 40
0.5000383889
 40
0.7500293903
 40
1.0
 40
1.0
 40
1.0
 40
1.0
 10
3.5983866795
 20
2.139009367
 30
0.0
 10
3.5994247456
 20
2.1379178889
 30
0.0
 10
3.6015738369
 20
2.1358028586
 30
0.0
 10
3.6050327381
 20
2.1328877088
 30
0.0
 10
3.6087389933
 20
2.1302926472
 30
0.0
 10
3.6113768446
 20
2.1288240712
 30
0.0
 10
3.6127326944
 20
2.128168817
 30
0.0
  0
SPLINE
  5
539
100
AcDbEntity
  8
0
100
AcDbSpline
 62
2
  6
CONTINUOUS
 70
0
 71
3
 72
13
 73
9
 74
0
 42
0.0000001
 43
0.0000001
 44
0.0000000001
 40
0.0
 40
0.0
 40
0.0
 40
0.0
 40
0.1250197889
 40
0.2500411502
 40
0.3750662907
 40
0.5000929744
 40
0.7500236963
 40
1.0
 40
1.0
 40
1.0
 40
1.0
 10
3.6191105595
 20
2.141509663
 30
0.0
 10
3.6184856491
 20
2.1417117669
 30
0.0
 10
3.6172530008
 20
2.1421713699
 30
0.0
 10
3.6154705522
 20
2.1430162601
 30
0.0
 10
3.6137628523
 20
2.1440034984
 30
0.0
 10
3.6115936845
 20
2.1454884155
 30
0.0
 10
3.6090860613
 20
2.1476224434
 30
0.0
 10
3.6072905471
 20
2.1495458204
 30
0.0
 10
3.6064395749
 20
2.150546025
 30
0.0
  0
SPLINE
  5
53A
100
AcDbEntity
  8
0
100
AcDbSpline
 62
2
  6
CONTINUOUS
 70
0
 71
3
 72
14
 73
10
 74
0
 42
0.0000001
 43
0.0000001
 44
0.0000000001
 40
0.0
 40
0.0
 40
0.0
 40
0.0
 40
0.1250144884
 40
0.250027204
 40
0.3750406778
 40
0.5000550348
 40
0.6250646069
 40
0.7500819715
 40
1.0
 40
1.0
 40
1.0
 40
1.0
 10
3.6009169881
 20
2.1746516508
 30
0.0
 10
3.60107811
 20
2.1751583436
 30
0.0
 10
3.6014377793
 20
2.1761602863
 30
0.0
 10
3.6020887124
 20
2.1776180737
 30
0.0
 10
3.6028475369
 20
2.1790228126
 30
0.0
 10
3.603708755
 20
2.1803670641
 30
0.0
 10
3.6046646449
 20
2.1816457402
 30
0.0
 10
3.6060530761
 20
2.1832577616
 30
0.0
 10
3.607210783
 20
2.1843620269
 30
0.0
 10
3.6080203408
 20
2.1850507971
 30
0.0
  0
SPLINE
  5
53B
100
AcDbEntity
  8
0
100
AcDbSpline
 62
2
  6
CONTINUOUS
 70
0
 71
3
 72
13
 73
9
 74
0
 42
0.0000001
 43
0.0000001
 44
0.0000000001
 40
0.0
 40
0.0
 40
0.0
 40
0.0
 40
0.125006257
 40
0.2500385484
 40
0.3750566358
 40
0.5000762448
 40
0.7500252753
 40
1.0
 40
1.0
 40
1.0
 40
1.0
 10
3.6080203408
 20
2.1850507971
 30
0.0
 10
3.6084986753
 20
2.1854577632
 30
0.0
 10
3.6094914337
 20
2.1862304019
 30
0.0
 10
3.6110697942
 20
2.1872630091
 30
0.0
 10
3.6127220548
 20
2.1881725967
 30
0.0
 10
3.6150030316
 20
2.1892287357
 30
0.0
 10
3.6179711007
 20
2.1902754256
 30
0.0
 10
3.6204164877
 20
2.1908649669
 30
0.0
 10
3.6216485683
 20
2.1911082812
 30
0.0
  0
LINE
  5
53C
100
AcDbEntity
  8
0
100
AcDbLine
 62
2
  6
CONTINUOUS
 10
3.6934332113
 20
2.184210363
 11
3.6989178639
 21
2.1840269151
  0
SPLINE
  5
53D
100
AcDbEntity
  8
0
100
AcDbSpline
 62
2
  6
CONTINUOUS
 70
0
 71
3
 72
9
 73
5
 74
0
 42
0.0000001
 43
0.0000001
 44
0.0000000001
 40
0.0
 40
0.0
 40
0.0
 40
0.0
 40
0.2500417929
 40
1.0
 40
1.0
 40
1.0
 40
1.0
 10
3.7000388201
 20
2.0626824569
 30
0.0
 10
3.7008514133
 20
2.0623879624
 30
0.0
 10
3.7040865137
 20
2.0611697138
 30
0.0
 10
3.7072629783
 20
2.0597974448
 30
0.0
 10
3.7096098302
 20
2.0586962619
 30
0.0
  0
SPLINE
  5
53E
100
AcDbEntity
  8
0
100
AcDbSpline
 62
2
  6
CONTINUOUS
 70
0
 71
3
 72
9
 73
5
 74
0
 42
0.0000001
 43
0.0000001
 44
0.0000000001
 40
0.0
 40
0.0
 40
0.0
 40
0.0
 40
0.4999879939
 40
1.0
 40
1.0
 40
1.0
 40
1.0
 10
3.7221252189
 20
2.069250098
 30
0.0
 10
3.7206663577
 20
2.0700876308
 30
0.0
 10
3.7176757746
 20
2.0716368436
 30
0.0
 10
3.714600168
 20
2.0730039358
 30
0.0
 10
3.7130484512
 20
2.0736536927
 30
0.0
  0
ENDSEC
  0
SECTION
  2
OBJECTS
  0
DICTIONARY
  5
C
100
AcDbDictionary
280
0
281
1
  3
ACAD_GROUP
350
D
  3
ACAD_MLINESTYLE
350
17
  3
ACAD_LAYOUT
350
1A
  3
ACAD_PLOTSETTINGS
350
19
  3
ACAD_PLOTSTYLENAME
350
E
  0
DICTIONARY
  5
D
102
{ACAD_REACTORS
330
C
102
}
100
AcDbDictionary
280
0
281
1
  0
ACDBDICTIONARYWDFLT
  5
E
102
{ACAD_REACTORS
330
C
102
}
100
AcDbDictionary
281
1
  3
Normal
350
F
100
AcDbDictionaryWithDefault
340
F
  0
DICTIONARY
  5
17
102
{ACAD_REACTORS
330
C
102
}
100
AcDbDictionary
280
0
281
1
  3
Standard
350
18
  0
DICTIONARY
  5
19
102
{ACAD_REACTORS
330
C
102
}
100
AcDbDictionary
281
1
  0
DICTIONARY
  5
1A
102
{ACAD_REACTORS
330
C
102
}
100
AcDbDictionary
281
1
  3
Model
350
53F
  3
Layout1
350
540
  0
ACDBPLACEHOLDER
  5
F
102
{ACAD_REACTORS
330
E
102
}
  0
MLINESTYLE
  5
18
102
{ACAD_REACTORS
330
17
102
}
100
AcDbMlineStyle
  2
STANDARD
 70
0
  3

 62
256
 51
90.0
 52
90.0
 71
2
 49
0.5
 62
256
  6
BYLAYER
 49
-0.5
 62
256
  6
BYLAYER
  0
LAYOUT
  5
53F
102
{ACAD_REACTORS
330
1A
102
}
100
AcDbPlotSettings
  1

  2
none_device
  4
ANSI_A_(11.00_x_8.50_Inches)
  6

 40
0.0
 41
0.0
 42
0.0
 43
0.0
 44
279.4
 45
215.9
 46
0.0
 47
0.0
 48
0.0
 49
0.0
140
0.0
141
0.0
142
1.0
143
1.0
 70
1024
 72
0
 73
0
 74
0
  7

 75
0
147
1.0
148
0.0
149
0.0
100
AcDbLayout
  1
Model
 70
0
 71
0
 10
0.0
 20
0.0
 11
11.0
 21
8.5
 12
0.0
 22
0.0
 32
0.0
 14
0.0
 24
0.0
 34
0.0
 15
0.0
 25
0.0
 35
0.0
146
0.0
 13
0.0
 23
0.0
 33
0.0
 16
1.0
 26
0.0
 36
0.0
 17
0.0
 27
1.0
 37
0.0
 76
0
330
21C
345
0
346
0
  0
LAYOUT
  5
540
102
{ACAD_REACTORS
330
1A
102
}
100
AcDbPlotSettings
  1

  2
none_device
  4
ANSI_A_(11.00_x_8.50_Inches)
  6

 40
0.0
 41
0.0
 42
0.0
 43
0.0
 44
279.4
 45
215.9
 46
0.0
 47
0.0
 48
0.0
 49
0.0
140
0.0
141
0.0
142
1.0
143
1.0
 70
0
 72
0
 73
0
 74
0
  7

 75
0
147
1.0
148
0.0
149
0.0
100
AcDbLayout
  1
Layout1
 70
0
 71
1
 10
0.0
 20
0.0
 11
11.0
 21
8.5
 12
0.0
 22
0.0
 32
0.0
 14
0.0
 24
0.0
 34
0.0
 15
0.0
 25
0.0
 35
0.0
146
0.0
 13
0.0
 23
0.0
 33
0.0
 16
1.0
 26
0.0
 36
0.0
 17
0.0
 27
1.0
 37
0.0
 76
0
330
21D
345
0
346
0
  0
ENDSEC
  0
EOF
