999
DXF file: E:\BT Custom\CADOUTPUT\_RIGHT.dxf
999
Pro/ENGINEER 2018400 by Parametric Technology Corporation
  0
SECTION
  2
HEADER
  9
$ACADVER
  1
AC1018
  9
$DWGCODEPAGE
  3
ANSI_1252
  9
$EXTMAX
 10
22.0
 20
17.0
 30
0.0
  9
$EXTMIN
 10
0.0
 20
0.0
 30
0.0
  9
$LIMMIN
 10
0.0
 20
0.0
  9
$LIMMAX
 10
22.0
 20
17.0
  9
$VIEWCTR
 10
11.0
 20
8.5
  9
$VIEWSIZE
 40
17.0
  9
$CLAYER
  8
0
  9
$LTSCALE
 40
1.21
  9
$CELTYPE
  6
BYLAYER
  9
$DIMSCALE
 40
1.0
  9
$DIMASZ
 40
0.1
  9
$DIMEXO
 40
0.0625
  9
$DIMDLI
 40
0.836
  9
$DIMEXE
 40
0.125
  9
$DIMCEN
 40
0.198
  9
$DIMLFAC
 40
1.0
  9
$DIMBLK
  1
_FILLED
  9
$DIMALT
 70
1
  9
$DIMALTD
 70
2
  9
$DIMALTTD
 70
2
  9
$DIMALTF
 40
25.4
  9
$DIMTXT
 40
0.08
  9
$DIMTOL
 70
1
  9
$DIMLIM
 70
0
  9
$DIMTFAC
 40
1.0
  9
$DIMTP
 40
0.001
  9
$DIMTM
 40
0.001
  9
$DIMGAP
 40
0.09
  9
$DIMDSEP
 70
46
  9
$AUNITS
 70
0
  9
$PDMODE
 70
3
  9
$PDSIZE
 40
0.06
  9
$HANDSEED
  5
54C
  9
$TILEMODE
 70
1
  9
$MEASUREMENT
 70
0
  9
$INSUNITS
 70
1
  0
ENDSEC
  0
SECTION
  2
CLASSES
  0
CLASS
  1
ACDBDICTIONARYWDFLT
  2
AcDbDictionaryWithDefault
  3
AutoCAD 2000
 90
0
 91
1
280
0
281
0
  0
CLASS
  1
ACDBPLACEHOLDER
  2
AcDbPlaceHolder
  3
AutoCAD 2000
 90
0
 91
1
280
0
281
0
  0
CLASS
  1
LAYOUT
  2
AcDbLayout
  3
AutoCAD 2000
 90
0
 91
0
280
0
281
0
  0
ENDSEC
  0
SECTION
  2
TABLES
  0
TABLE
  2
VPORT
  5
8
100
AcDbSymbolTable
 70
2
  0
VPORT
  5
1F4
100
AcDbSymbolTableRecord
100
AcDbViewportTableRecord
  2
*ACTIVE
 70
0
 10
0.0
 20
0.0
 11
1.0
 21
1.0
 12
11.0
 22
8.5
 13
0.0
 23
0.0
 14
1.0
 24
1.0
 15
0.0
 25
0.0
 16
0.0
 26
0.0
 36
1.0
 17
0.0
 27
0.0
 37
0.0
 40
17.0
 41
1.2941176471
 42
50.0
 43
0.0
 44
0.0
 50
0.0
 51
0.0
 71
0
 72
100
 73
1
 74
1
 75
0
 76
0
 77
0
 78
0
  0
ENDTAB
  0
TABLE
  2
LTYPE
  5
5
100
AcDbSymbolTable
 70
6
  0
LTYPE
  5
14
100
AcDbSymbolTableRecord
100
AcDbLinetypeTableRecord
  2
BYBLOCK
 70
0
  3

 72
65
 73
0
 40
0.0
  0
LTYPE
  5
15
100
AcDbSymbolTableRecord
100
AcDbLinetypeTableRecord
  2
BYLAYER
 70
0
  3

 72
65
 73
0
 40
0.0
  0
LTYPE
  5
16
100
AcDbSymbolTableRecord
100
AcDbLinetypeTableRecord
  2
CONTINUOUS
 70
64
  3
Solid line
 72
65
 73
0
 40
0.0
  0
LTYPE
  5
1F5
100
AcDbSymbolTableRecord
100
AcDbLinetypeTableRecord
  2
CENTER
 70
64
  3
____ _ ____ _ ____ _ ____ _ ____ _ ____ _ ____
 72
65
 73
4
 40
0.6
 49
0.375
 74
0
 49
-0.075
 74
0
 49
0.075
 74
0
 49
-0.075
 74
0
  0
LTYPE
  5
1F6
100
AcDbSymbolTableRecord
100
AcDbLinetypeTableRecord
  2
HIDDEN
 70
64
  3
- - - - - - - - - - - - - - - - - - - -
 72
65
 73
2
 40
0.2
 49
0.1
 74
0
 49
-0.1
 74
0
  0
LTYPE
  5
1F7
100
AcDbSymbolTableRecord
100
AcDbLinetypeTableRecord
  2
PHANTOM
 70
64
  3
_____ _ _ _____ _ _ _____ _ _ _____
 72
65
 73
6
 40
0.8
 49
0.45
 74
0
 49
-0.05
 74
0
 49
0.1
 74
0
 49
-0.05
 74
0
 49
0.1
 74
0
 49
-0.05
 74
0
  0
LTYPE
  5
1F8
100
AcDbSymbolTableRecord
100
AcDbLinetypeTableRecord
  2
DOT
 70
64
  3
. . . . . . . . . . . . . . . . . . . .
 72
65
 73
2
 40
0.2
 49
0.1
 74
0
 49
-0.1
 74
0
  0
LTYPE
  5
1F9
100
AcDbSymbolTableRecord
100
AcDbLinetypeTableRecord
  2
DASHED
 70
64
  3
- - - - - - - - - - - - - - - - - - - -
 72
65
 73
2
 40
0.2
 49
0.1
 74
0
 49
-0.1
 74
0
  0
ENDTAB
  0
TABLE
  2
LAYER
  5
2
100
AcDbSymbolTable
 70
36
  0
LAYER
  5
10
100
AcDbSymbolTableRecord
100
AcDbLayerTableRecord
  2
0
 70
0
 62
7
  6
CONTINUOUS
370
-3
390
F
  0
LAYER
  5
1FA
100
AcDbSymbolTableRecord
100
AcDbLayerTableRecord
  2
DEFAULT_1
 70
0
 62
7
  6
CENTER
370
-3
390
F
  0
LAYER
  5
1FB
100
AcDbSymbolTableRecord
100
AcDbLayerTableRecord
  2
DEFAULT_2
 70
0
 62
8
  6
HIDDEN
370
-3
390
F
  0
LAYER
  5
1FC
100
AcDbSymbolTableRecord
100
AcDbLayerTableRecord
  2
DEFAULT_3
 70
0
 62
7
  6
PHANTOM
370
-3
390
F
  0
LAYER
  5
1FD
100
AcDbSymbolTableRecord
100
AcDbLayerTableRecord
  2
ALL_FEATURES
 70
0
 62
7
  6
CONTINUOUS
370
-3
390
F
  0
LAYER
  5
1FE
100
AcDbSymbolTableRecord
100
AcDbLayerTableRecord
  2
AXES_FEATURES
 70
0
 62
7
  6
CONTINUOUS
370
-3
390
F
  0
LAYER
  5
1FF
100
AcDbSymbolTableRecord
100
AcDbLayerTableRecord
  2
DEFAULT_COORDINATE_SYSTEM
 70
0
 62
7
  6
CONTINUOUS
370
-3
390
F
  0
LAYER
  5
200
100
AcDbSymbolTableRecord
100
AcDbLayerTableRecord
  2
DEFAULT_DATUM_AXES
 70
0
 62
7
  6
CONTINUOUS
370
-3
390
F
  0
LAYER
  5
201
100
AcDbSymbolTableRecord
100
AcDbLayerTableRecord
  2
DEFAULT_DATUM_PLANES
 70
0
 62
7
  6
CONTINUOUS
370
-3
390
F
  0
LAYER
  5
202
100
AcDbSymbolTableRecord
100
AcDbLayerTableRecord
  2
DIMENSIONS
 70
0
 62
7
  6
CONTINUOUS
370
-3
390
F
  0
ENDTAB
  0
TABLE
  2
STYLE
  5
3
100
AcDbSymbolTable
 70
1
  0
STYLE
  5
11
100
AcDbSymbolTableRecord
100
AcDbTextStyleTableRecord
  2
STANDARD
 70
0
 40
0.0
 41
0.8
 50
0.0
 71
0
 42
0.2
  3
txt
  4

  0
STYLE
  5
203
100
AcDbSymbolTableRecord
100
AcDbTextStyleTableRecord
  2
TEXTSTYLE_1
 70
0
 40
0.0
 41
0.8
 50
0.0
 71
0
 42
0.2
  3
gdt
  4

  0
ENDTAB
  0
TABLE
  2
VIEW
  5
6
100
AcDbSymbolTable
 70
0
  0
ENDTAB
  0
TABLE
  2
UCS
  5
7
100
AcDbSymbolTable
 70
0
  0
ENDTAB
  0
TABLE
  2
APPID
  5
9
100
AcDbSymbolTable
 70
1
  0
APPID
  5
204
100
AcDbSymbolTableRecord
100
AcDbRegAppTableRecord
  2
ACAD
 70
0
  0
ENDTAB
  0
TABLE
  2
BLOCK_RECORD
  5
1
100
AcDbSymbolTable
 70
0
  0
BLOCK_RECORD
  5
205
100
AcDbSymbolTableRecord
100
AcDbBlockTableRecord
  2
*Model_Space
  0
BLOCK_RECORD
  5
206
100
AcDbSymbolTableRecord
100
AcDbBlockTableRecord
  2
*Paper_Space
  0
BLOCK_RECORD
  5
207
100
AcDbSymbolTableRecord
100
AcDbBlockTableRecord
  2
_FILLED
  0
ENDTAB
  0
TABLE
  2
DIMSTYLE
  5
A
100
AcDbSymbolTable
 70
1
100
AcDbDimStyleTable
 71
0
  0
DIMSTYLE
105
208
100
AcDbSymbolTableRecord
100
AcDbDimStyleTableRecord
  2
STANDARD
 70
0
  3

  4

 40
1.0
 41
0.1
 42
0.0625
 43
0.38
 44
0.125
 45
0.0
 46
0.0
 47
0.001
 48
0.001
140
0.08
141
0.09
142
0.0
143
25.4
144
1.0
145
0.0
146
1.0
147
0.09
 71
1.0
 72
0.0
 73
1
 74
1
 75
0
 76
0
 77
0
 78
4
 79
1
170
1
171
2
172
0
173
0
174
0
175
0
176
0
177
0
178
0
270
2
179
3
271
3
272
3
273
2
274
2
275
0
280
0
281
0
282
0
283
1
284
4
285
0
286
0
287
3
288
0
340
11
278
46
341
207
342
207
343
207
344
207
  0
ENDTAB
  0
ENDSEC
  0
SECTION
  2
BLOCKS
  0
BLOCK
  5
20
100
AcDbEntity
  8
0
100
AcDbBlockBegin
  2
*Model_Space
 70
0
 10
0.0
 20
0.0
 30
0.0
  3
*Model_Space
  1

  0
ENDBLK
  5
21
100
AcDbEntity
  8
0
100
AcDbBlockEnd
  0
BLOCK
  5
1C
100
AcDbEntity
  8
0
100
AcDbBlockBegin
  2
*Paper_Space
 70
0
 10
0.0
 20
0.0
 30
0.0
  3
*Paper_Space
  1

  0
ENDBLK
  5
1D
100
AcDbEntity
  8
0
100
AcDbBlockEnd
  0
BLOCK
  5
209
100
AcDbEntity
  8
0
100
AcDbBlockBegin
  2
_FILLED
 70
64
 10
0.0
 20
0.0
  3
_FILLED
  1

  0
SOLID
  5
20A
100
AcDbEntity
  8
0
  6
BYBLOCK
 62
0
100
AcDbTrace
 10
0.0
 20
0.0
 11
-1.0
 21
0.2
 12
-1.0
 22
-0.2
 13
-1.0
 23
-0.2
  0
ENDBLK
  5
20B
100
AcDbEntity
  8
0
  6
BYBLOCK
 62
0
100
AcDbBlockEnd
  0
ENDSEC
  0
SECTION
  2
ENTITIES
  0
LINE
  5
20C
100
AcDbEntity
  8
0
100
AcDbLine
 62
7
  6
CONTINUOUS
 10
16.0554876876
 20
0.542391804
 11
15.8804876876
 21
0.542391804
  0
LINE
  5
20D
100
AcDbEntity
  8
0
100
AcDbLine
 62
7
  6
CONTINUOUS
 10
5.3791239516
 20
14.7856240174
 11
5.4286214263
 21
14.835121492
  0
LINE
  5
20E
100
AcDbEntity
  8
0
100
AcDbLine
 62
7
  6
CONTINUOUS
 10
5.9996101521
 20
14.8722445981
 11
6.3465472786
 21
15.1988930037
  0
LINE
  5
20F
100
AcDbEntity
  8
0
100
AcDbLine
 62
7
  6
CONTINUOUS
 10
5.899243626
 20
14.1947936649
 11
5.8919691161
 21
14.1863395048
  0
LINE
  5
210
100
AcDbEntity
  8
0
100
AcDbLine
 62
7
  6
CONTINUOUS
 10
5.9690113139
 20
14.125025977
 11
5.961736804
 21
14.1165718168
  0
LINE
  5
211
100
AcDbEntity
  8
0
100
AcDbLine
 62
7
  6
CONTINUOUS
 10
6.105497507
 20
13.9885397838
 11
6.0982229971
 21
13.9800856237
  0
LINE
  5
212
100
AcDbEntity
  8
0
100
AcDbLine
 62
7
  6
CONTINUOUS
 10
6.1821577709
 20
13.8891929633
 11
6.1624832114
 21
13.8663279347
  0
LINE
  5
213
100
AcDbEntity
  8
0
100
AcDbLine
 62
7
  6
CONTINUOUS
 10
6.7021207392
 20
15.1398845147
 11
6.716773216
 21
15.1545369916
  0
LINE
  5
214
100
AcDbEntity
  8
0
100
AcDbLine
 62
7
  6
CONTINUOUS
 10
6.0494447103
 20
14.0445925806
 11
6.0409905501
 21
14.0373180707
  0
LINE
  5
215
100
AcDbEntity
  8
0
100
AcDbLine
 62
7
  6
CONTINUOUS
 10
6.1859309034
 20
13.9081063875
 11
6.1774767433
 21
13.9008318776
  0
LINE
  5
216
100
AcDbEntity
  8
0
100
AcDbLine
 62
7
  6
CONTINUOUS
 10
6.2263920383
 20
13.8447449909
 11
6.2068163174
 21
13.8219948288
  0
LINE
  5
217
100
AcDbEntity
  8
0
100
AcDbLine
 62
7
  6
CONTINUOUS
 10
6.3027371038
 20
13.7913001871
 11
6.2954625939
 21
13.782846027
  0
LINE
  5
218
100
AcDbEntity
  8
0
100
AcDbLine
 62
7
  6
CONTINUOUS
 10
6.3506096548
 20
13.708072297
 11
6.3367944072
 21
13.692016739
  0
LINE
  5
219
100
AcDbEntity
  8
0
100
AcDbLine
 62
7
  6
CONTINUOUS
 10
6.480285926
 20
13.5489377743
 11
6.4604729065
 21
13.5259118327
  0
LINE
  5
21A
100
AcDbEntity
  8
0
100
AcDbLine
 62
7
  6
CONTINUOUS
 10
6.5521097873
 20
13.5419275036
 11
6.5448352774
 21
13.5334733434
  0
LINE
  5
21B
100
AcDbEntity
  8
0
100
AcDbLine
 62
7
  6
CONTINUOUS
 10
6.5573749364
 20
13.5013070154
 11
6.5435596888
 21
13.4852514573
  0
LINE
  5
21C
100
AcDbEntity
  8
0
100
AcDbLine
 62
7
  6
CONTINUOUS
 10
6.5894462298
 20
13.4197382473
 11
6.5789013511
 21
13.4074833882
  0
LINE
  5
21D
100
AcDbEntity
  8
0
100
AcDbLine
 62
7
  6
CONTINUOUS
 10
6.3021256215
 20
13.7565563303
 11
6.2860700635
 21
13.7427410827
  0
LINE
  5
21E
100
AcDbEntity
  8
0
100
AcDbLine
 62
7
  6
CONTINUOUS
 10
6.3831705001
 20
13.7108667907
 11
6.37471634
 21
13.7035922808
  0
LINE
  5
21F
100
AcDbEntity
  8
0
100
AcDbLine
 62
7
  6
CONTINUOUS
 10
6.4326887785
 20
13.6270816704
 11
6.4160481533
 21
13.6127629929
  0
LINE
  5
220
100
AcDbEntity
  8
0
100
AcDbLine
 62
7
  6
CONTINUOUS
 10
6.5519815117
 20
13.4572029654
 11
6.5397266527
 21
13.4466580866
  0
LINE
  5
221
100
AcDbEntity
  8
0
100
AcDbLine
 62
7
  6
CONTINUOUS
 10
6.6325431837
 20
13.4614941072
 11
6.6240890235
 21
13.4542195973
  0
LINE
  5
222
100
AcDbEntity
  8
0
100
AcDbLine
 62
7
  6
CONTINUOUS
 10
6.6399789623
 20
13.4207680487
 11
6.6228134349
 21
13.4059977112
  0
LINE
  5
223
100
AcDbEntity
  8
0
100
AcDbLine
 62
9
  6
CONTINUOUS
 10
12.2547406607
 20
3.0776524595
 11
12.6952354079
 21
3.0776524595
  0
LINE
  5
224
100
AcDbEntity
  8
0
100
AcDbLine
 62
7
  6
CONTINUOUS
 10
15.4110112266
 20
2.5554018131
 11
15.3054876876
 21
2.5581650442
  0
LINE
  5
225
100
AcDbEntity
  8
0
100
AcDbLine
 62
7
  6
CONTINUOUS
 10
6.7534418602
 20
13.2445879506
 11
6.7317041703
 21
13.2193252299
  0
LINE
  5
226
100
AcDbEntity
  8
0
100
AcDbLine
 62
7
  6
CONTINUOUS
 10
6.8427167747
 20
13.2513205161
 11
6.8354422648
 21
13.242866356
  0
LINE
  5
227
100
AcDbEntity
  8
0
100
AcDbLine
 62
7
  6
CONTINUOUS
 10
6.8312495727
 20
13.2369737304
 11
6.8130214501
 21
13.215789696
  0
LINE
  5
228
100
AcDbEntity
  8
0
100
AcDbLine
 62
7
  6
CONTINUOUS
 10
6.8121755421
 20
13.1973476193
 11
6.8014740219
 21
13.1849107174
  0
LINE
  5
229
100
AcDbEntity
  8
0
100
AcDbLine
 62
7
  6
CONTINUOUS
 10
6.8318549555
 20
13.1349822861
 11
6.8245438289
 21
13.1264855713
  0
LINE
  5
22A
100
AcDbEntity
  8
0
100
AcDbLine
 62
7
  6
CONTINUOUS
 10
7.0991533277
 20
12.897209769
 11
7.0781864931
 21
12.8728429071
  0
LINE
  5
22B
100
AcDbEntity
  8
0
100
AcDbLine
 62
7
  6
CONTINUOUS
 10
7.1197367255
 20
12.9064131066
 11
7.1013453701
 21
12.8850393692
  0
LINE
  5
22C
100
AcDbEntity
  8
0
100
AcDbLine
 62
7
  6
CONTINUOUS
 10
7.1443497194
 20
12.9223714853
 11
7.1268163174
 21
12.9019948288
  0
LINE
  5
22D
100
AcDbEntity
  8
0
100
AcDbLine
 62
7
  6
CONTINUOUS
 10
8.2782617545
 20
14.3047914062
 11
8.3126537906
 21
14.3391834423
  0
LINE
  5
22E
100
AcDbEntity
  8
0
100
AcDbLine
 62
7
  6
CONTINUOUS
 10
8.529540858
 20
14.5560705096
 11
8.561104467
 21
14.5876341186
  0
LINE
  5
22F
100
AcDbEntity
  8
0
100
AcDbLine
 62
7
  6
CONTINUOUS
 10
9.1330738029
 20
14.9757556914
 11
9.2848876285
 21
15.127569517
  0
LINE
  5
230
100
AcDbEntity
  8
0
100
AcDbLine
 62
7
  6
CONTINUOUS
 10
9.3822465262
 20
15.1825020079
 11
9.3186069159
 21
15.1188623976
  0
LINE
  5
231
100
AcDbEntity
  8
0
100
AcDbLine
 62
7
  6
CONTINUOUS
 10
9.1417807301
 20
14.9420362117
 11
9.0781906103
 21
14.878446092
  0
LINE
  5
232
100
AcDbEntity
  8
0
100
AcDbLine
 62
7
  6
CONTINUOUS
 10
8.6277571545
 20
14.4016951769
 11
8.4670291233
 21
14.2409671457
  0
LINE
  5
233
100
AcDbEntity
  8
0
100
AcDbLine
 62
7
  6
CONTINUOUS
 10
6.6764489648
 20
13.343970877
 11
6.6581550972
 21
13.3282296421
  0
LINE
  5
234
100
AcDbEntity
  8
0
100
AcDbLine
 62
7
  6
CONTINUOUS
 10
6.8194120765
 20
13.1473459937
 11
6.8109579164
 21
13.1400714838
  0
LINE
  5
235
100
AcDbEntity
  8
0
100
AcDbLine
 62
7
  6
CONTINUOUS
 10
6.9231501711
 20
13.1708871198
 11
6.9146960109
 21
13.1636126099
  0
LINE
  5
236
100
AcDbEntity
  8
0
100
AcDbLine
 62
7
  6
CONTINUOUS
 10
6.9101262281
 20
13.1518961401
 11
6.8922751963
 21
13.1365359499
  0
LINE
  5
237
100
AcDbEntity
  8
0
100
AcDbLine
 62
7
  6
CONTINUOUS
 10
6.899588307
 20
13.1218858072
 11
6.880727768
 21
13.1056569713
  0
LINE
  5
238
100
AcDbEntity
  8
0
100
AcDbLine
 62
7
  6
CONTINUOUS
 10
6.9257308614
 20
13.0661046531
 11
6.903797575
 21
13.0472318252
  0
LINE
  5
239
100
AcDbEntity
  8
0
100
AcDbLine
 62
9
  6
CONTINUOUS
 10
12.7877796963
 20
3.1010829195
 11
12.1621963723
 21
3.1010829195
  0
LINE
  5
23A
100
AcDbEntity
  8
0
100
AcDbLine
 62
9
  6
CONTINUOUS
 10
12.8349880343
 20
3.1510049249
 11
12.1149880343
 21
3.1510049249
  0
LINE
  5
23B
100
AcDbEntity
  8
0
100
AcDbLine
 62
9
  6
CONTINUOUS
 10
12.8349880343
 20
3.1659739013
 11
12.1149880343
 21
3.1659739013
  0
LINE
  5
23C
100
AcDbEntity
  8
0
100
AcDbLine
 62
9
  6
CONTINUOUS
 10
12.8050749544
 20
3.2117616251
 11
12.1449011143
 21
3.2117616251
  0
LINE
  5
23D
100
AcDbEntity
  8
0
100
AcDbLine
 62
9
  6
CONTINUOUS
 10
12.1686085026
 20
3.2441732389
 11
12.7813675661
 21
3.2441732389
  0
LINE
  5
23E
100
AcDbEntity
  8
0
100
AcDbLine
 62
9
  6
CONTINUOUS
 10
12.6926476368
 20
3.7480306612
 11
12.2573284319
 21
3.7480306612
  0
LINE
  5
23F
100
AcDbEntity
  8
0
100
AcDbLine
 62
7
  6
CONTINUOUS
 10
7.1618571462
 20
12.9321801447
 11
7.1545826363
 21
12.9237259845
  0
LINE
  5
240
100
AcDbEntity
  8
0
100
AcDbLine
 62
7
  6
CONTINUOUS
 10
7.435513392
 20
12.5401104
 11
7.4175977481
 21
12.5192895166
  0
LINE
  5
241
100
AcDbEntity
  8
0
100
AcDbLine
 62
7
  6
CONTINUOUS
 10
7.4448671572
 20
12.5498343324
 11
7.4246688159
 21
12.5263605844
  0
LINE
  5
242
100
AcDbEntity
  8
0
100
AcDbLine
 62
7
  6
CONTINUOUS
 10
7.459984676
 20
12.5645366916
 11
7.4423464854
 21
12.5440382539
  0
LINE
  5
243
100
AcDbEntity
  8
0
100
AcDbLine
 62
7
  6
CONTINUOUS
 10
7.4803497127
 20
12.5847641878
 11
7.4635596888
 21
12.5652514573
  0
LINE
  5
244
100
AcDbEntity
  8
0
100
AcDbLine
 62
7
  6
CONTINUOUS
 10
7.4955829361
 20
12.5984543548
 11
7.4883084262
 21
12.5900001947
  0
LINE
  5
245
100
AcDbEntity
  8
0
100
AcDbLine
 62
7
  6
CONTINUOUS
 10
8.5056684028
 20
14.2023278663
 11
8.6663964339
 21
14.3630558975
  0
LINE
  5
246
100
AcDbEntity
  8
0
100
AcDbLine
 62
7
  6
CONTINUOUS
 10
9.0218852174
 20
14.6630416733
 11
9.1435979876
 21
14.7847544435
  0
LINE
  5
247
100
AcDbEntity
  8
0
100
AcDbLine
 62
7
  6
CONTINUOUS
 10
8.5475542427
 20
14.1604420263
 11
8.7082822739
 21
14.3211700575
  0
LINE
  5
248
100
AcDbEntity
  8
0
100
AcDbLine
 62
7
  6
CONTINUOUS
 10
10.2504586048
 20
15.8474208869
 11
9.6661786963
 21
15.2631409784
  0
LINE
  5
249
100
AcDbEntity
  8
0
100
AcDbLine
 62
7
  6
CONTINUOUS
 10
9.6342159558
 20
15.2311782379
 11
9.6163913932
 21
15.2133536753
  0
LINE
  5
24A
100
AcDbEntity
  8
0
100
AcDbLine
 62
7
  6
CONTINUOUS
 10
9.582985961
 20
15.1799482431
 11
9.5667324152
 21
15.1636946973
  0
LINE
  5
24B
100
AcDbEntity
  8
0
100
AcDbLine
 62
7
  6
CONTINUOUS
 10
9.5316276524
 20
15.1285899345
 11
9.5169144182
 21
15.1138767003
  0
LINE
  5
24C
100
AcDbEntity
  8
0
100
AcDbLine
 62
7
  6
CONTINUOUS
 10
9.673261602
 20
15.2367369044
 11
9.660839314
 21
15.2243146164
  0
LINE
  5
24D
100
AcDbEntity
  8
0
100
AcDbLine
 62
7
  6
CONTINUOUS
 10
9.6240016572
 20
15.1849781075
 11
9.6115803199
 21
15.1725567703
  0
LINE
  5
24E
100
AcDbEntity
  8
0
100
AcDbLine
 62
7
  6
CONTINUOUS
 10
9.5749635898
 20
15.1329966662
 11
9.5625434891
 21
15.1205765655
  0
LINE
  5
24F
100
AcDbEntity
  8
0
100
AcDbLine
 62
7
  6
CONTINUOUS
 10
9.5256530113
 20
15.0812937797
 11
9.5186960185
 21
15.0743367869
  0
LINE
  5
250
100
AcDbEntity
  8
0
100
AcDbLine
 62
7
  6
CONTINUOUS
 10
8.5922832597
 20
14.1157130094
 11
8.7530112908
 21
14.2764410406
  0
LINE
  5
251
100
AcDbEntity
  8
0
100
AcDbLine
 62
7
  6
CONTINUOUS
 10
8.6394246887
 20
14.0685715804
 11
8.8001527199
 21
14.2292996115
  0
LINE
  5
252
100
AcDbEntity
  8
0
100
AcDbLine
 62
7
  6
CONTINUOUS
 10
8.6885245321
 20
14.0194717369
 11
8.8492525633
 21
14.1801997681
  0
LINE
  5
253
100
AcDbEntity
  8
0
100
AcDbLine
 62
7
  6
CONTINUOUS
 10
8.7391099316
 20
13.9688863375
 11
8.8998379627
 21
14.1296143687
  0
LINE
  5
254
100
AcDbEntity
  8
0
100
AcDbLine
 62
7
  6
CONTINUOUS
 10
8.790693722
 20
13.9173025471
 11
8.9514217532
 21
14.0780305782
  0
LINE
  5
255
100
AcDbEntity
  8
0
100
AcDbLine
 62
7
  6
CONTINUOUS
 10
8.8427791233
 20
13.8652171457
 11
9.0035071545
 21
14.0259451769
  0
LINE
  5
256
100
AcDbEntity
  8
0
100
AcDbLine
 62
7
  6
CONTINUOUS
 10
8.8948645247
 20
13.8131317444
 11
9.0555925558
 21
13.9738597756
  0
LINE
  5
257
100
AcDbEntity
  8
0
100
AcDbLine
 62
7
  6
CONTINUOUS
 10
8.9464483151
 20
13.761547954
 11
9.1071763463
 21
13.9222759851
  0
LINE
  5
258
100
AcDbEntity
  8
0
100
AcDbLine
 62
7
  6
CONTINUOUS
 10
7.1677860345
 20
12.802491357
 11
7.1574402392
 21
12.793589161
  0
LINE
  5
259
100
AcDbEntity
  8
0
100
AcDbLine
 62
7
  6
CONTINUOUS
 10
7.1961089712
 20
12.8191313123
 11
7.1805991162
 21
12.8057856231
  0
LINE
  5
25A
100
AcDbEntity
  8
0
100
AcDbLine
 62
7
  6
CONTINUOUS
 10
7.2247214416
 20
12.8387899429
 11
7.2060700635
 21
12.8227410827
  0
LINE
  5
25B
100
AcDbEntity
  8
0
100
AcDbLine
 62
7
  6
CONTINUOUS
 10
7.2422905425
 20
12.8517467483
 11
7.2338363824
 21
12.8444722384
  0
LINE
  5
25C
100
AcDbEntity
  8
0
100
AcDbLine
 62
7
  6
CONTINUOUS
 10
7.180006347
 20
12.7940152292
 11
7.1600466545
 21
12.7768406101
  0
LINE
  5
25D
100
AcDbEntity
  8
0
100
AcDbLine
 62
7
  6
CONTINUOUS
 10
7.5760163324
 20
12.5180209584
 11
7.5675621723
 21
12.5107464486
  0
LINE
  5
25E
100
AcDbEntity
  8
0
100
AcDbLine
 62
7
  6
CONTINUOUS
 10
7.5623261654
 20
12.5027877351
 11
7.5428134349
 21
12.4859977112
  0
LINE
  5
25F
100
AcDbEntity
  8
0
100
AcDbLine
 62
7
  6
CONTINUOUS
 10
7.5420986692
 20
12.4824226983
 11
7.5216002315
 21
12.4647845078
  0
LINE
  5
260
100
AcDbEntity
  8
0
100
AcDbLine
 62
7
  6
CONTINUOUS
 10
7.52739631
 20
12.4673051796
 11
7.503922562
 21
12.4471068383
  0
LINE
  5
261
100
AcDbEntity
  8
0
100
AcDbLine
 62
7
  6
CONTINUOUS
 10
7.5176723776
 20
12.4579514144
 11
7.4968514942
 21
12.4400357704
  0
LINE
  5
262
100
AcDbEntity
  8
0
100
AcDbLine
 62
7
  6
CONTINUOUS
 10
12.6549880343
 20
3.7783918041
 11
12.2949880343
 21
3.7783918041
  0
LINE
  5
263
100
AcDbEntity
  8
0
100
AcDbLine
 62
7
  6
CONTINUOUS
 10
13.2303268897
 20
3.842391804
 11
13.2254876876
 21
3.842391804
  0
LINE
  5
264
100
AcDbEntity
  8
0
100
AcDbLine
 62
9
  6
CONTINUOUS
 10
12.6549880343
 20
3.868391804
 11
12.2949880343
 21
3.868391804
  0
LINE
  5
265
100
AcDbEntity
  8
0
100
AcDbLine
 62
7
  6
CONTINUOUS
 10
12.2960886212
 20
3.878391804
 11
12.6538874474
 21
3.878391804
  0
LINE
  5
266
100
AcDbEntity
  8
0
100
AcDbLine
 62
7
  6
CONTINUOUS
 10
13.1654876876
 20
3.967891804
 11
13.0854876876
 21
3.967891804
  0
LINE
  5
267
100
AcDbEntity
  8
0
100
AcDbLine
 62
7
  6
CONTINUOUS
 10
12.1078600542
 20
4.012391804
 11
12.1147160843
 21
4.012391804
  0
LINE
  5
268
100
AcDbEntity
  8
0
100
AcDbLine
 62
7
  6
CONTINUOUS
 10
13.0854876876
 20
4.033891804
 11
12.8354876876
 21
4.033891804
  0
LINE
  5
269
100
AcDbEntity
  8
0
100
AcDbLine
 62
7
  6
CONTINUOUS
 10
7.7715772068
 20
12.2024443694
 11
7.7544025877
 21
12.1824846769
  0
LINE
  5
26A
100
AcDbEntity
  8
0
100
AcDbLine
 62
7
  6
CONTINUOUS
 10
7.8293087259
 20
12.2647285649
 11
7.8220342161
 21
12.2562744048
  0
LINE
  5
26B
100
AcDbEntity
  8
0
100
AcDbLine
 62
7
  6
CONTINUOUS
 10
7.8163519205
 20
12.2471594639
 11
7.8003030603
 21
12.2285080858
  0
LINE
  5
26C
100
AcDbEntity
  8
0
100
AcDbLine
 62
7
  6
CONTINUOUS
 10
7.7966932899
 20
12.2185469936
 11
7.7833476007
 21
12.2030371386
  0
LINE
  5
26D
100
AcDbEntity
  8
0
100
AcDbLine
 62
7
  6
CONTINUOUS
 10
7.7800533346
 20
12.1902240569
 11
7.7711511386
 21
12.1798782616
  0
LINE
  5
26E
100
AcDbEntity
  8
0
100
AcDbLine
 62
7
  6
CONTINUOUS
 10
8.0436666307
 20
11.9481688838
 11
8.0247938028
 21
11.9262355974
  0
LINE
  5
26F
100
AcDbEntity
  8
0
100
AcDbLine
 62
7
  6
CONTINUOUS
 10
8.9970337146
 20
13.7109625545
 11
9.1577617457
 21
13.8716905857
  0
LINE
  5
270
100
AcDbEntity
  8
0
100
AcDbLine
 62
7
  6
CONTINUOUS
 10
9.046133558
 20
13.6618627111
 11
9.2068615891
 21
13.8225907423
  0
LINE
  5
271
100
AcDbEntity
  8
0
100
AcDbLine
 62
7
  6
CONTINUOUS
 10
9.093274987
 20
13.6147212821
 11
9.2540030182
 21
13.7754493132
  0
LINE
  5
272
100
AcDbEntity
  8
0
100
AcDbLine
 62
7
  6
CONTINUOUS
 10
10.0721522867
 20
14.5600453787
 11
10.0845720446
 21
14.5724651367
  0
LINE
  5
273
100
AcDbEntity
  8
0
100
AcDbLine
 62
7
  6
CONTINUOUS
 10
10.1239727084
 20
14.6092453926
 11
10.1363935115
 21
14.6216661957
  0
LINE
  5
274
100
AcDbEntity
  8
0
100
AcDbLine
 62
7
  6
CONTINUOUS
 10
10.1757635451
 20
14.6584677205
 11
10.1881853052
 21
14.6708894806
  0
LINE
  5
275
100
AcDbEntity
  8
0
100
AcDbLine
 62
7
  6
CONTINUOUS
 10
10.2275958306
 20
14.7076534153
 11
10.2400186053
 21
14.7200761901
  0
LINE
  5
276
100
AcDbEntity
  8
0
100
AcDbLine
 62
7
  6
CONTINUOUS
 10
10.8249828645
 20
15.2728966272
 11
10.2655695366
 21
14.7134832993
  0
LINE
  5
277
100
AcDbEntity
  8
0
100
AcDbLine
 62
7
  6
CONTINUOUS
 10
10.2343822689
 20
14.6822960315
 11
10.2158248918
 21
14.6637386544
  0
LINE
  5
278
100
AcDbEntity
  8
0
100
AcDbLine
 62
7
  6
CONTINUOUS
 10
10.1831096249
 20
14.6310233876
 11
10.1660577502
 21
14.6139715129
  0
LINE
  5
279
100
AcDbEntity
  8
0
100
AcDbLine
 62
7
  6
CONTINUOUS
 10
10.1318594855
 20
14.5797732482
 11
10.1163055434
 21
14.5642193061
  0
LINE
  5
27A
100
AcDbEntity
  8
0
100
AcDbLine
 62
7
  6
CONTINUOUS
 10
10.0805944412
 20
14.5285082039
 11
10.0725595213
 21
14.520473284
  0
LINE
  5
27B
100
AcDbEntity
  8
0
100
AcDbLine
 62
7
  6
CONTINUOUS
 10
9.138004004
 20
13.5699922651
 11
9.2987320351
 21
13.7307202963
  0
LINE
  5
27C
100
AcDbEntity
  8
0
100
AcDbLine
 62
7
  6
CONTINUOUS
 10
9.6406036509
 20
14.0443232398
 11
9.7623164211
 21
14.1660360099
  0
LINE
  5
27D
100
AcDbEntity
  8
0
100
AcDbLine
 62
7
  6
CONTINUOUS
 10
9.1798898439
 20
13.5281064252
 11
9.3406178751
 21
13.6888344563
  0
LINE
  5
27E
100
AcDbEntity
  8
0
100
AcDbLine
 62
7
  6
CONTINUOUS
 10
9.2185291233
 20
13.4894671457
 11
9.3792571545
 21
13.6501951769
  0
LINE
  5
27F
100
AcDbEntity
  8
0
100
AcDbLine
 62
7
  6
CONTINUOUS
 10
10.1600639855
 20
14.4046845486
 11
10.0964243752
 21
14.3410449383
  0
LINE
  5
280
100
AcDbEntity
  8
0
100
AcDbLine
 62
7
  6
CONTINUOUS
 10
9.9195981894
 20
14.1642187524
 11
9.8560080696
 21
14.1006286327
  0
LINE
  5
281
100
AcDbEntity
  8
0
100
AcDbLine
 62
7
  6
CONTINUOUS
 10
9.953317669
 20
14.1555118252
 11
10.10513149
 21
14.3073256462
  0
LINE
  5
282
100
AcDbEntity
  8
0
100
AcDbLine
 62
7
  6
CONTINUOUS
 10
9.2823533838
 20
13.3006997769
 11
9.3167454199
 21
13.335091813
  0
LINE
  5
283
100
AcDbEntity
  8
0
100
AcDbLine
 62
7
  6
CONTINUOUS
 10
9.5336324873
 20
13.5519788804
 11
9.5651960962
 21
13.5835424893
  0
LINE
  5
284
100
AcDbEntity
  8
0
100
AcDbLine
 62
7
  6
CONTINUOUS
 10
7.9097421223
 20
12.1842951686
 11
7.9012879622
 21
12.1770206587
  0
LINE
  5
285
100
AcDbEntity
  8
0
100
AcDbLine
 62
7
  6
CONTINUOUS
 10
7.8999334629
 20
12.1667877418
 11
7.8795568064
 21
12.1492543397
  0
LINE
  5
286
100
AcDbEntity
  8
0
100
AcDbLine
 62
7
  6
CONTINUOUS
 10
7.8839750842
 20
12.1421747479
 11
7.8626013468
 21
12.1237833925
  0
LINE
  5
287
100
AcDbEntity
  8
0
100
AcDbLine
 62
7
  6
CONTINUOUS
 10
7.8747717467
 20
12.1215913501
 11
7.8504048848
 21
12.1006245155
  0
LINE
  5
288
100
AcDbEntity
  8
0
100
AcDbLine
 62
7
  6
CONTINUOUS
 10
13.0854876876
 20
4.550891804
 11
12.8354876876
 21
4.550891804
  0
LINE
  5
289
100
AcDbEntity
  8
0
100
AcDbLine
 62
7
  6
CONTINUOUS
 10
12.1078600542
 20
4.572391804
 11
12.1147160843
 21
4.572391804
  0
LINE
  5
28A
100
AcDbEntity
  8
0
100
AcDbLine
 62
7
  6
CONTINUOUS
 10
13.1654876876
 20
4.616891804
 11
13.0854876876
 21
4.616891804
  0
LINE
  5
28B
100
AcDbEntity
  8
0
100
AcDbLine
 62
7
  6
CONTINUOUS
 10
12.6538874474
 20
4.706391804
 11
12.2960886212
 21
4.706391804
  0
LINE
  5
28C
100
AcDbEntity
  8
0
100
AcDbLine
 62
9
  6
CONTINUOUS
 10
12.2949880343
 20
4.716391804
 11
12.6549880343
 21
4.716391804
  0
LINE
  5
28D
100
AcDbEntity
  8
0
100
AcDbLine
 62
7
  6
CONTINUOUS
 10
13.2303268897
 20
4.742391804
 11
13.2254876876
 21
4.742391804
  0
LINE
  5
28E
100
AcDbEntity
  8
0
100
AcDbLine
 62
7
  6
CONTINUOUS
 10
12.2949880343
 20
4.806391804
 11
12.6549880343
 21
4.806391804
  0
LINE
  5
28F
100
AcDbEntity
  8
0
100
AcDbLine
 62
9
  6
CONTINUOUS
 10
12.2573284319
 20
4.8367529469
 11
12.6926476368
 21
4.8367529469
  0
LINE
  5
290
100
AcDbEntity
  8
0
100
AcDbLine
 62
7
  6
CONTINUOUS
 10
8.0994477848
 20
11.9220263294
 11
8.0832189489
 21
11.9031657904
  0
LINE
  5
291
100
AcDbEntity
  8
0
100
AcDbLine
 62
7
  6
CONTINUOUS
 10
8.1294581177
 20
11.9325642505
 11
8.1140979275
 21
11.9147132186
  0
LINE
  5
292
100
AcDbEntity
  8
0
100
AcDbLine
 62
7
  6
CONTINUOUS
 10
8.1484490974
 20
11.9455881935
 11
8.1411745875
 21
11.9371340333
  0
LINE
  5
293
100
AcDbEntity
  8
0
100
AcDbLine
 62
7
  6
CONTINUOUS
 10
8.1249079713
 20
11.8418500989
 11
8.1176334614
 21
11.8333959388
  0
LINE
  5
294
100
AcDbEntity
  8
0
100
AcDbLine
 62
7
  6
CONTINUOUS
 10
8.3215328546
 20
11.6988869872
 11
8.3057916197
 21
11.6805931196
  0
LINE
  5
295
100
AcDbEntity
  8
0
100
AcDbLine
 62
7
  6
CONTINUOUS
 10
8.3983300263
 20
11.6624169847
 11
8.3835596888
 21
11.6452514573
  0
LINE
  5
296
100
AcDbEntity
  8
0
100
AcDbLine
 62
7
  6
CONTINUOUS
 10
8.4390560848
 20
11.654981206
 11
8.4317815749
 21
11.6465270459
  0
LINE
  5
297
100
AcDbEntity
  8
0
100
AcDbLine
 62
7
  6
CONTINUOUS
 10
8.434764943
 20
11.5744195341
 11
8.4242200642
 21
11.562164675
  0
LINE
  5
298
100
AcDbEntity
  8
0
100
AcDbLine
 62
7
  6
CONTINUOUS
 10
8.1125442637
 20
11.8542929779
 11
8.104047549
 21
11.8469818513
  0
LINE
  5
299
100
AcDbEntity
  8
0
100
AcDbLine
 62
7
  6
CONTINUOUS
 10
8.1749095969
 20
11.8346135645
 11
8.162472695
 21
11.8239120443
  0
LINE
  5
29A
100
AcDbEntity
  8
0
100
AcDbLine
 62
7
  6
CONTINUOUS
 10
8.214535708
 20
11.8536875951
 11
8.1933516736
 21
11.8354594725
  0
LINE
  5
29B
100
AcDbEntity
  8
0
100
AcDbLine
 62
7
  6
CONTINUOUS
 10
8.2288824938
 20
11.8651547971
 11
8.2204283336
 21
11.8578802872
  0
LINE
  5
29C
100
AcDbEntity
  8
0
100
AcDbLine
 62
7
  6
CONTINUOUS
 10
8.2221499282
 20
11.7758798826
 11
8.1968872075
 21
11.7541421927
  0
LINE
  5
29D
100
AcDbEntity
  8
0
100
AcDbLine
 62
7
  6
CONTINUOUS
 10
8.3973002249
 20
11.6118842522
 11
8.3850453658
 21
11.6013393735
  0
LINE
  5
29E
100
AcDbEntity
  8
0
100
AcDbLine
 62
7
  6
CONTINUOUS
 10
8.478868993
 20
11.5798129588
 11
8.4628134349
 21
11.5659977112
  0
LINE
  5
29F
100
AcDbEntity
  8
0
100
AcDbLine
 62
7
  6
CONTINUOUS
 10
8.5194894812
 20
11.5745478097
 11
8.511035321
 21
11.5672732998
  0
LINE
  5
2A0
100
AcDbEntity
  8
0
100
AcDbLine
 62
7
  6
CONTINUOUS
 10
8.5264997519
 20
11.5027239484
 11
8.5034738104
 21
11.4829109289
  0
LINE
  5
2A1
100
AcDbEntity
  8
0
100
AcDbLine
 62
9
  6
CONTINUOUS
 10
12.7813675661
 20
5.3406103692
 11
12.1686085026
 21
5.3406103692
  0
LINE
  5
2A2
100
AcDbEntity
  8
0
100
AcDbLine
 62
9
  6
CONTINUOUS
 10
12.1449011143
 20
5.373021983
 11
12.8050749544
 21
5.373021983
  0
LINE
  5
2A3
100
AcDbEntity
  8
0
100
AcDbLine
 62
9
  6
CONTINUOUS
 10
12.1149880343
 20
5.4188097067
 11
12.8349880343
 21
5.4188097067
  0
LINE
  5
2A4
100
AcDbEntity
  8
0
100
AcDbLine
 62
9
  6
CONTINUOUS
 10
12.1149880343
 20
5.4337786832
 11
12.8349880343
 21
5.4337786832
  0
LINE
  5
2A5
100
AcDbEntity
  8
0
100
AcDbLine
 62
9
  6
CONTINUOUS
 10
12.1621963723
 20
5.4837006886
 11
12.7877796963
 21
5.4837006886
  0
LINE
  5
2A6
100
AcDbEntity
  8
0
100
AcDbLine
 62
9
  6
CONTINUOUS
 10
12.6952354079
 20
5.5071311486
 11
12.2547406607
 21
5.5071311486
  0
LINE
  5
2A7
100
AcDbEntity
  8
0
100
AcDbLine
 62
7
  6
CONTINUOUS
 10
8.604643648
 20
11.4551268009
 11
8.5903249705
 21
11.4384861756
  0
LINE
  5
2A8
100
AcDbEntity
  8
0
100
AcDbLine
 62
7
  6
CONTINUOUS
 10
8.6884287683
 20
11.4056085225
 11
8.6811542585
 21
11.3971543624
  0
LINE
  5
2A9
100
AcDbEntity
  8
0
100
AcDbLine
 62
7
  6
CONTINUOUS
 10
8.7341183079
 20
11.3245636439
 11
8.7203030603
 21
11.3085080858
  0
LINE
  5
2AA
100
AcDbEntity
  8
0
100
AcDbLine
 62
7
  6
CONTINUOUS
 10
8.8856683651
 20
11.2083689258
 11
8.8783938552
 21
11.1999147656
  0
LINE
  5
2AB
100
AcDbEntity
  8
0
100
AcDbLine
 62
7
  6
CONTINUOUS
 10
9.0221545582
 20
11.0718827326
 11
9.0148800483
 21
11.0634285725
  0
LINE
  5
2AC
100
AcDbEntity
  8
0
100
AcDbLine
 62
7
  6
CONTINUOUS
 10
8.6856342747
 20
11.3730476771
 11
8.6695787166
 21
11.3592324295
  0
LINE
  5
2AD
100
AcDbEntity
  8
0
100
AcDbLine
 62
7
  6
CONTINUOUS
 10
8.7688621647
 20
11.3251751262
 11
8.7604080046
 21
11.3179006163
  0
LINE
  5
2AE
100
AcDbEntity
  8
0
100
AcDbLine
 62
7
  6
CONTINUOUS
 10
8.8223069686
 20
11.2488300606
 11
8.7995568064
 21
11.2292543397
  0
LINE
  5
2AF
100
AcDbEntity
  8
0
100
AcDbLine
 62
7
  6
CONTINUOUS
 10
8.8667549409
 20
11.2045957933
 11
8.8438899123
 21
11.1849212338
  0
LINE
  5
2B0
100
AcDbEntity
  8
0
100
AcDbLine
 62
7
  6
CONTINUOUS
 10
8.9661017614
 20
11.1279355294
 11
8.9576476013
 21
11.1206610195
  0
LINE
  5
2B1
100
AcDbEntity
  8
0
100
AcDbLine
 62
7
  6
CONTINUOUS
 10
15.4110112266
 20
6.029381795
 11
15.3054876876
 21
6.0266185639
  0
LINE
  5
2B2
100
AcDbEntity
  8
0
100
AcDbLine
 62
7
  6
CONTINUOUS
 10
9.8498065757
 20
11.0220481745
 11
10.1764549813
 21
11.368985301
  0
LINE
  5
2B3
100
AcDbEntity
  8
0
100
AcDbLine
 62
7
  6
CONTINUOUS
 10
10.1174464923
 20
11.7245587616
 11
10.1320989692
 21
11.7392112384
  0
LINE
  5
2B4
100
AcDbEntity
  8
0
100
AcDbLine
 62
7
  6
CONTINUOUS
 10
9.1025879546
 20
10.9914493363
 11
9.0941337944
 21
10.9841748264
  0
LINE
  5
2B5
100
AcDbEntity
  8
0
100
AcDbLine
 62
7
  6
CONTINUOUS
 10
9.1723556425
 20
10.9216816483
 11
9.1639014824
 21
10.9144071385
  0
LINE
  5
2B6
100
AcDbEntity
  8
0
100
AcDbLine
 62
7
  6
CONTINUOUS
 10
8.9668212923
 20
14.5129374353
 11
8.9668212923
 21
14.5301055985
  0
LINE
  5
2B7
100
AcDbEntity
  8
0
100
AcDbLine
 62
7
  6
CONTINUOUS
 10
9.5666810896
 20
15.1629835214
 11
9.5667324152
 21
15.1636946973
  0
LINE
  5
2B8
100
AcDbEntity
  8
0
100
AcDbLine
 62
7
  6
CONTINUOUS
 10
9.5168635215
 20
15.1131723926
 11
9.5169144182
 21
15.1138767003
  0
LINE
  5
2B9
100
AcDbEntity
  8
0
100
AcDbLine
 62
7
  6
CONTINUOUS
 10
9.6163403145
 20
15.2126469577
 11
9.6163913932
 21
15.2133536753
  0
LINE
  5
2BA
100
AcDbEntity
  8
0
100
AcDbLine
 62
7
  6
CONTINUOUS
 10
9.6661278087
 20
15.2624367998
 11
9.6661786963
 21
15.2631409784
  0
LINE
  5
2BB
100
AcDbEntity
  8
0
100
AcDbLine
 62
7
  6
CONTINUOUS
 10
9.763185995
 20
10.401561974
 11
9.8126834697
 21
10.4510594487
  0
LINE
  5
2BC
100
AcDbEntity
  8
0
100
AcDbLine
 62
7
  6
CONTINUOUS
 10
15.0014876876
 20
3.3764259221
 11
14.878157386
 21
3.4762968312
  0
LINE
  5
2BD
100
AcDbEntity
  8
0
100
AcDbLine
 62
7
  6
CONTINUOUS
 10
10.0805944412
 20
14.5285082039
 11
10.080648562
 21
14.5292567791
  0
LINE
  5
2BE
100
AcDbEntity
  8
0
100
AcDbLine
 62
7
  6
CONTINUOUS
 10
10.1319140384
 20
14.5805273932
 11
10.1318594855
 21
14.5797732482
  0
LINE
  5
2BF
100
AcDbEntity
  8
0
100
AcDbLine
 62
7
  6
CONTINUOUS
 10
10.1831636387
 20
14.6317705637
 11
10.1831096249
 21
14.6310233876
  0
LINE
  5
2C0
100
AcDbEntity
  8
0
100
AcDbLine
 62
7
  6
CONTINUOUS
 10
10.2344363826
 20
14.6830445064
 11
10.2343822689
 21
14.6822960315
  0
LINE
  5
2C1
100
AcDbEntity
  8
0
100
AcDbLine
 62
7
  6
CONTINUOUS
 10
16.0554876876
 20
8.042391804
 11
15.8804876876
 21
8.042391804
  0
LINE
  5
2C2
100
AcDbEntity
  8
0
100
AcDbLine
 62
7
  6
CONTINUOUS
 10
6.7501395946
 20
13.2481848346
 11
6.7534418602
 21
13.2445879506
  0
LINE
  5
2C3
100
AcDbEntity
  8
0
100
AcDbLine
 62
7
  6
CONTINUOUS
 10
6.1812149653
 20
13.890295442
 11
6.1821577709
 21
13.8891929633
  0
LINE
  5
2C4
100
AcDbEntity
  8
0
100
AcDbLine
 62
7
  6
CONTINUOUS
 10
7.3418412149
 20
12.6259087463
 11
7.316067619
 21
12.6562169865
  0
LINE
  5
2C5
100
AcDbEntity
  8
0
100
AcDbLine
 62
7
  6
CONTINUOUS
 10
7.6034707239
 20
12.3642792373
 11
7.6337789641
 21
12.3385056413
  0
LINE
  5
2C6
100
AcDbEntity
  8
0
100
AcDbLine
 62
7
  6
CONTINUOUS
 10
8.8678574196
 20
11.2036529877
 11
8.8667549409
 21
11.2045957933
  0
LINE
  5
2C7
100
AcDbEntity
  8
0
100
AcDbLine
 62
7
  6
CONTINUOUS
 10
8.2257468122
 20
11.772577617
 11
8.2221499282
 21
11.7758798826
  0
LINE
  5
2C8
100
AcDbEntity
  8
0
100
AcDbLine
 62
7
  6
CONTINUOUS
 10
7.8132660334
 20
12.1039945621
 11
7.755166219
 21
12.1620943766
  0
LINE
  5
2C9
100
AcDbEntity
  8
0
100
AcDbLine
 62
7
  6
CONTINUOUS
 10
7.4764611938
 20
12.4407994017
 11
7.4183613794
 21
12.4988992162
  0
LINE
  5
2CA
100
AcDbEntity
  8
0
100
AcDbLine
 62
7
  6
CONTINUOUS
 10
7.1396563542
 20
12.7776042414
 11
7.0815565397
 21
12.8357040558
  0
LINE
  5
2CB
100
AcDbEntity
  8
0
100
AcDbLine
 62
7
  6
CONTINUOUS
 10
8.1764969072
 20
11.754905824
 11
8.1183970927
 21
11.8130056385
  0
LINE
  5
2CC
100
AcDbEntity
  8
0
100
AcDbLine
 62
7
  6
CONTINUOUS
 10
8.0836572486
 20
11.8477454826
 11
8.0255574341
 21
11.905845297
  0
LINE
  5
2CD
100
AcDbEntity
  8
0
100
AcDbLine
 62
7
  6
CONTINUOUS
 10
7.8300145844
 20
12.1013881468
 11
7.7719147699
 21
12.1594879612
  0
LINE
  5
2CE
100
AcDbEntity
  8
0
100
AcDbLine
 62
7
  6
CONTINUOUS
 10
7.4835322616
 20
12.4478704696
 11
7.4254324472
 21
12.505970284
  0
LINE
  5
2CF
100
AcDbEntity
  8
0
100
AcDbLine
 62
7
  6
CONTINUOUS
 10
7.1370499388
 20
12.7943527923
 11
7.0789501244
 21
12.8524526068
  0
LINE
  5
2D0
100
AcDbEntity
  8
0
100
AcDbLine
 62
7
  6
CONTINUOUS
 10
6.8834072746
 20
13.0479954565
 11
6.8253074602
 21
13.106095271
  0
LINE
  5
2D1
100
AcDbEntity
  8
0
100
AcDbLine
 62
7
  6
CONTINUOUS
 10
6.7905676161
 20
13.1408351151
 11
6.7324678016
 21
13.1989349296
  0
LINE
  5
2D2
100
AcDbEntity
  8
0
100
AcDbLine
 62
9
  6
CONTINUOUS
 10
7.7675515905
 20
12.1693356741
 11
7.7544025877
 21
12.1824846769
  0
LINE
  5
2D3
100
AcDbEntity
  8
0
100
AcDbLine
 62
9
  6
CONTINUOUS
 10
7.4968514942
 20
12.4400357704
 11
7.4933799745
 21
12.4435072901
  0
LINE
  5
2D4
100
AcDbEntity
  8
0
100
AcDbLine
 62
9
  6
CONTINUOUS
 10
7.4210692677
 20
12.5158179969
 11
7.4175977481
 21
12.5192895166
  0
LINE
  5
2D5
100
AcDbEntity
  8
0
100
AcDbLine
 62
9
  6
CONTINUOUS
 10
7.1600466545
 20
12.7768406101
 11
7.1468976517
 21
12.7899896129
  0
LINE
  5
2D6
100
AcDbEntity
  8
0
100
AcDbLine
 62
9
  6
CONTINUOUS
 10
8.1968872075
 20
11.7541421927
 11
8.1176334614
 21
11.8333959388
  0
LINE
  5
2D7
100
AcDbEntity
  8
0
100
AcDbLine
 62
9
  6
CONTINUOUS
 10
8.104047549
 20
11.8469818513
 11
8.0247938028
 21
11.9262355974
  0
LINE
  5
2D8
100
AcDbEntity
  8
0
100
AcDbLine
 62
9
  6
CONTINUOUS
 10
7.8504048848
 20
12.1006245155
 11
7.7711511386
 21
12.1798782616
  0
LINE
  5
2D9
100
AcDbEntity
  8
0
100
AcDbLine
 62
9
  6
CONTINUOUS
 10
7.503922562
 20
12.4471068383
 11
7.4246688159
 21
12.5263605844
  0
LINE
  5
2DA
100
AcDbEntity
  8
0
100
AcDbLine
 62
9
  6
CONTINUOUS
 10
7.1574402392
 20
12.793589161
 11
7.0781864931
 21
12.8728429071
  0
LINE
  5
2DB
100
AcDbEntity
  8
0
100
AcDbLine
 62
9
  6
CONTINUOUS
 10
6.903797575
 20
13.0472318252
 11
6.8245438289
 21
13.1264855713
  0
LINE
  5
2DC
100
AcDbEntity
  8
0
100
AcDbLine
 62
9
  6
CONTINUOUS
 10
6.8109579164
 20
13.1400714838
 11
6.7317041703
 21
13.2193252299
  0
LINE
  5
2DD
100
AcDbEntity
  8
0
100
AcDbLine
 62
7
  6
CONTINUOUS
 10
8.48308351
 20
11.4836745602
 11
8.4249836955
 21
11.5417743747
  0
LINE
  5
2DE
100
AcDbEntity
  8
0
100
AcDbLine
 62
7
  6
CONTINUOUS
 10
8.3646550655
 20
11.6021030048
 11
8.306555251
 21
11.6602028192
  0
LINE
  5
2DF
100
AcDbEntity
  8
0
100
AcDbLine
 62
7
  6
CONTINUOUS
 10
8.1420823947
 20
11.8246756756
 11
8.0839825802
 21
11.88277549
  0
LINE
  5
2E0
100
AcDbEntity
  8
0
100
AcDbLine
 62
7
  6
CONTINUOUS
 10
7.8422110465
 20
12.1245470238
 11
7.784111232
 21
12.1826468382
  0
LINE
  5
2E1
100
AcDbEntity
  8
0
100
AcDbLine
 62
7
  6
CONTINUOUS
 10
7.5012099312
 20
12.4655481391
 11
7.4431101167
 21
12.5236479535
  0
LINE
  5
2E2
100
AcDbEntity
  8
0
100
AcDbLine
 62
7
  6
CONTINUOUS
 10
7.1602088158
 20
12.8065492544
 11
7.1021090014
 21
12.8646490689
  0
LINE
  5
2E3
100
AcDbEntity
  8
0
100
AcDbLine
 62
7
  6
CONTINUOUS
 10
6.8603374676
 20
13.1064206026
 11
6.8022376532
 21
13.1645204171
  0
LINE
  5
2E4
100
AcDbEntity
  8
0
100
AcDbLine
 62
7
  6
CONTINUOUS
 10
6.6377647968
 20
13.3289932734
 11
6.5796649824
 21
13.3870930879
  0
LINE
  5
2E5
100
AcDbEntity
  8
0
100
AcDbLine
 62
7
  6
CONTINUOUS
 10
6.5193363523
 20
13.4474217179
 11
6.4612365378
 21
13.5055215324
  0
LINE
  5
2E6
100
AcDbEntity
  8
0
100
AcDbLine
 62
7
  6
CONTINUOUS
 10
7.5134401936
 20
12.4543097676
 11
7.6034707239
 21
12.3642792373
  0
LINE
  5
2E7
100
AcDbEntity
  8
0
100
AcDbLine
 62
7
  6
CONTINUOUS
 10
7.4318717452
 20
12.535878216
 11
7.3418412149
 21
12.6259087463
  0
LINE
  5
2E8
100
AcDbEntity
  8
0
100
AcDbLine
 62
7
  6
CONTINUOUS
 10
7.1791378616
 20
12.7931467438
 11
7.4339690182
 21
12.5383155872
  0
LINE
  5
2E9
100
AcDbEntity
  8
0
100
AcDbLine
 62
7
  6
CONTINUOUS
 10
7.5158775649
 20
12.4564070406
 11
7.7707087214
 21
12.201575884
  0
LINE
  5
2EA
100
AcDbEntity
  8
0
100
AcDbLine
 62
9
  6
CONTINUOUS
 10
7.1792559554
 20
12.7932648376
 11
7.4340782549
 21
12.538442538
  0
LINE
  5
2EB
100
AcDbEntity
  8
0
100
AcDbLine
 62
9
  6
CONTINUOUS
 10
7.5160045157
 20
12.4565162773
 11
7.7708268152
 21
12.2016939778
  0
LINE
  5
2EC
100
AcDbEntity
  8
0
100
AcDbLine
 62
9
  6
CONTINUOUS
 10
7.9127432524
 20
12.064989286
 11
7.8647578215
 21
12.1129747169
  0
LINE
  5
2ED
100
AcDbEntity
  8
0
100
AcDbLine
 62
9
  6
CONTINUOUS
 10
7.7803323187
 20
12.1974002197
 11
7.5182754987
 21
12.4594570396
  0
LINE
  5
2EE
100
AcDbEntity
  8
0
100
AcDbLine
 62
9
  6
CONTINUOUS
 10
7.4370190173
 20
12.5407135211
 11
7.1749621973
 21
12.8027703411
  0
LINE
  5
2EF
100
AcDbEntity
  8
0
100
AcDbLine
 62
9
  6
CONTINUOUS
 10
7.0905366945
 20
12.8871958439
 11
7.0425512636
 21
12.9351812748
  0
LINE
  5
2F0
100
AcDbEntity
  8
0
100
AcDbLine
 62
9
  6
CONTINUOUS
 10
8.5034738104
 20
11.4829109289
 11
8.4242200642
 21
11.562164675
  0
LINE
  5
2F1
100
AcDbEntity
  8
0
100
AcDbLine
 62
9
  6
CONTINUOUS
 10
8.3850453658
 20
11.6013393735
 11
8.3057916197
 21
11.6805931196
  0
LINE
  5
2F2
100
AcDbEntity
  8
0
100
AcDbLine
 62
9
  6
CONTINUOUS
 10
8.162472695
 20
11.8239120443
 11
8.0832189489
 21
11.9031657904
  0
LINE
  5
2F3
100
AcDbEntity
  8
0
100
AcDbLine
 62
9
  6
CONTINUOUS
 10
7.8626013468
 20
12.1237833925
 11
7.7833476007
 21
12.2030371386
  0
LINE
  5
2F4
100
AcDbEntity
  8
0
100
AcDbLine
 62
9
  6
CONTINUOUS
 10
7.5216002315
 20
12.4647845078
 11
7.4423464854
 21
12.5440382539
  0
LINE
  5
2F5
100
AcDbEntity
  8
0
100
AcDbLine
 62
9
  6
CONTINUOUS
 10
7.1805991162
 20
12.8057856231
 11
7.1013453701
 21
12.8850393692
  0
LINE
  5
2F6
100
AcDbEntity
  8
0
100
AcDbLine
 62
9
  6
CONTINUOUS
 10
6.880727768
 20
13.1056569713
 11
6.8014740219
 21
13.1849107174
  0
LINE
  5
2F7
100
AcDbEntity
  8
0
100
AcDbLine
 62
9
  6
CONTINUOUS
 10
6.6581550972
 20
13.3282296421
 11
6.5789013511
 21
13.4074833882
  0
LINE
  5
2F8
100
AcDbEntity
  8
0
100
AcDbLine
 62
9
  6
CONTINUOUS
 10
6.5397266527
 20
13.4466580866
 11
6.4604729065
 21
13.5259118327
  0
LINE
  5
2F9
100
AcDbEntity
  8
0
100
AcDbLine
 62
7
  6
CONTINUOUS
 10
6.9251281245
 20
13.06554322
 11
7.0965208923
 21
12.8941504522
  0
LINE
  5
2FA
100
AcDbEntity
  8
0
100
AcDbLine
 62
7
  6
CONTINUOUS
 10
7.1829031665
 20
12.8077681781
 11
7.4430032151
 21
12.5476681294
  0
LINE
  5
2FB
100
AcDbEntity
  8
0
100
AcDbLine
 62
7
  6
CONTINUOUS
 10
7.525230107
 20
12.4654412375
 11
7.7853301557
 21
12.2053411889
  0
LINE
  5
2FC
100
AcDbEntity
  8
0
100
AcDbLine
 62
7
  6
CONTINUOUS
 10
7.8717124298
 20
12.1189589147
 11
8.0431282021
 21
11.9475431425
  0
LINE
  5
2FD
100
AcDbEntity
  8
0
100
AcDbLine
 62
9
  6
CONTINUOUS
 10
6.9256597672
 20
13.0660335589
 11
7.0969935588
 21
12.8946997673
  0
LINE
  5
2FE
100
AcDbEntity
  8
0
100
AcDbLine
 62
9
  6
CONTINUOUS
 10
7.1834524816
 20
12.8082408445
 11
7.4434758816
 21
12.5482174445
  0
LINE
  5
2FF
100
AcDbEntity
  8
0
100
AcDbLine
 62
9
  6
CONTINUOUS
 10
7.5257794222
 20
12.465913904
 11
7.7858028222
 21
12.205890504
  0
LINE
  5
300
100
AcDbEntity
  8
0
100
AcDbLine
 62
9
  6
CONTINUOUS
 10
7.8722617449
 20
12.1194315812
 11
8.0435955365
 21
11.9480977896
  0
LINE
  5
301
100
AcDbEntity
  8
0
100
AcDbLine
 62
9
  6
CONTINUOUS
 10
8.2257468122
 20
11.772577617
 11
8.1688902783
 21
11.8294341508
  0
LINE
  5
302
100
AcDbEntity
  8
0
100
AcDbLine
 62
9
  6
CONTINUOUS
 10
8.0887410555
 20
11.9095833737
 11
7.8690189301
 21
12.129305499
  0
LINE
  5
303
100
AcDbEntity
  8
0
100
AcDbLine
 62
9
  6
CONTINUOUS
 10
7.7888697073
 20
12.2094547219
 11
7.5280178148
 21
12.4703066143
  0
LINE
  5
304
100
AcDbEntity
  8
0
100
AcDbLine
 62
9
  6
CONTINUOUS
 10
7.447868592
 20
12.5504558372
 11
7.1870166995
 21
12.8113077297
  0
LINE
  5
305
100
AcDbEntity
  8
0
100
AcDbLine
 62
9
  6
CONTINUOUS
 10
7.1068674766
 20
12.8914569525
 11
6.8871453513
 21
13.1111790779
  0
LINE
  5
306
100
AcDbEntity
  8
0
100
AcDbLine
 62
9
  6
CONTINUOUS
 10
6.8069961284
 20
13.1913283007
 11
6.7501395946
 21
13.2481848346
  0
LINE
  5
307
100
AcDbEntity
  8
0
100
AcDbLine
 62
7
  6
CONTINUOUS
 10
8.823499612
 20
11.1856848651
 11
8.7210666916
 21
11.2881177855
  0
LINE
  5
308
100
AcDbEntity
  8
0
100
AcDbLine
 62
7
  6
CONTINUOUS
 10
8.6491884163
 20
11.3599960608
 11
8.5910886018
 21
11.4180958753
  0
LINE
  5
309
100
AcDbEntity
  8
0
100
AcDbLine
 62
7
  6
CONTINUOUS
 10
8.4424231346
 20
11.5667613425
 11
8.3843233201
 21
11.624861157
  0
LINE
  5
30A
100
AcDbEntity
  8
0
100
AcDbLine
 62
7
  6
CONTINUOUS
 10
8.1729613733
 20
11.8362231038
 11
8.1148615588
 21
11.8943229183
  0
LINE
  5
30B
100
AcDbEntity
  8
0
100
AcDbLine
 62
7
  6
CONTINUOUS
 10
7.8591665061
 20
12.150017971
 11
7.8010666916
 21
12.2081177855
  0
LINE
  5
30C
100
AcDbEntity
  8
0
100
AcDbLine
 62
7
  6
CONTINUOUS
 10
7.5224231346
 20
12.4867613425
 11
7.4643233201
 21
12.544861157
  0
LINE
  5
30D
100
AcDbEntity
  8
0
100
AcDbLine
 62
7
  6
CONTINUOUS
 10
7.1856797631
 20
12.823504714
 11
7.1275799487
 21
12.8816045285
  0
LINE
  5
30E
100
AcDbEntity
  8
0
100
AcDbLine
 62
7
  6
CONTINUOUS
 10
6.8718848959
 20
13.1372995812
 11
6.8137850814
 21
13.1953993957
  0
LINE
  5
30F
100
AcDbEntity
  8
0
100
AcDbLine
 62
7
  6
CONTINUOUS
 10
6.6024231346
 20
13.4067613425
 11
6.5443233201
 21
13.464861157
  0
LINE
  5
310
100
AcDbEntity
  8
0
100
AcDbLine
 62
7
  6
CONTINUOUS
 10
6.3956578529
 20
13.6135266242
 11
6.3375580385
 21
13.6716264387
  0
LINE
  5
311
100
AcDbEntity
  8
0
100
AcDbLine
 62
7
  6
CONTINUOUS
 10
6.2656797631
 20
13.743504714
 11
6.1632468427
 21
13.8459376344
  0
LINE
  5
312
100
AcDbEntity
  8
0
100
AcDbLine
 62
7
  6
CONTINUOUS
 10
6.6751629346
 20
13.3426848468
 11
6.8095908966
 21
13.2082568848
  0
LINE
  5
313
100
AcDbEntity
  8
0
100
AcDbLine
 62
7
  6
CONTINUOUS
 10
6.8976391531
 20
13.1202086283
 11
7.115897027
 21
12.9019507544
  0
LINE
  5
314
100
AcDbEntity
  8
0
100
AcDbLine
 62
7
  6
CONTINUOUS
 10
7.1985372523
 20
12.8193105292
 11
7.4568981424
 21
12.560949639
  0
LINE
  5
315
100
AcDbEntity
  8
0
100
AcDbLine
 62
7
  6
CONTINUOUS
 10
7.5385116166
 20
12.4793361648
 11
7.7968725068
 21
12.2209752746
  0
LINE
  5
316
100
AcDbEntity
  8
0
100
AcDbLine
 62
7
  6
CONTINUOUS
 10
7.879512732
 20
12.1383350494
 11
8.0977706059
 21
11.9200771755
  0
LINE
  5
317
100
AcDbEntity
  8
0
100
AcDbLine
 62
7
  6
CONTINUOUS
 10
8.1858188624
 20
11.832028919
 11
8.3202468244
 21
11.697600957
  0
LINE
  5
318
100
AcDbEntity
  8
0
100
AcDbLine
 62
9
  6
CONTINUOUS
 10
6.6762546451
 20
13.3437765573
 11
6.8099781223
 21
13.2100530801
  0
LINE
  5
319
100
AcDbEntity
  8
0
100
AcDbLine
 62
9
  6
CONTINUOUS
 10
7.2003334476
 20
12.8196977548
 11
7.4579079746
 21
12.5621232278
  0
LINE
  5
31A
100
AcDbEntity
  8
0
100
AcDbLine
 62
9
  6
CONTINUOUS
 10
7.5396852054
 20
12.480345997
 11
7.7972597324
 21
12.2227714699
  0
LINE
  5
31B
100
AcDbEntity
  8
0
100
AcDbLine
 62
9
  6
CONTINUOUS
 10
8.1876150577
 20
11.8324161447
 11
8.3213385349
 21
11.6986926674
  0
LINE
  5
31C
100
AcDbEntity
  8
0
100
AcDbLine
 62
9
  6
CONTINUOUS
 10
8.8438899123
 20
11.1849212338
 11
8.7203030603
 21
11.3085080858
  0
LINE
  5
31D
100
AcDbEntity
  8
0
100
AcDbLine
 62
9
  6
CONTINUOUS
 10
8.6695787166
 20
11.3592324295
 11
8.5903249705
 21
11.4384861756
  0
LINE
  5
31E
100
AcDbEntity
  8
0
100
AcDbLine
 62
9
  6
CONTINUOUS
 10
8.4628134349
 20
11.5659977112
 11
8.3835596888
 21
11.6452514573
  0
LINE
  5
31F
100
AcDbEntity
  8
0
100
AcDbLine
 62
9
  6
CONTINUOUS
 10
8.1933516736
 20
11.8354594725
 11
8.1140979275
 21
11.9147132186
  0
LINE
  5
320
100
AcDbEntity
  8
0
100
AcDbLine
 62
9
  6
CONTINUOUS
 10
7.8795568064
 20
12.1492543397
 11
7.8003030603
 21
12.2285080858
  0
LINE
  5
321
100
AcDbEntity
  8
0
100
AcDbLine
 62
9
  6
CONTINUOUS
 10
7.5428134349
 20
12.4859977112
 11
7.4635596888
 21
12.5652514573
  0
LINE
  5
322
100
AcDbEntity
  8
0
100
AcDbLine
 62
9
  6
CONTINUOUS
 10
7.2060700635
 20
12.8227410827
 11
7.1268163174
 21
12.9019948288
  0
LINE
  5
323
100
AcDbEntity
  8
0
100
AcDbLine
 62
9
  6
CONTINUOUS
 10
6.8922751963
 20
13.1365359499
 11
6.8130214501
 21
13.215789696
  0
LINE
  5
324
100
AcDbEntity
  8
0
100
AcDbLine
 62
9
  6
CONTINUOUS
 10
6.6228134349
 20
13.4059977112
 11
6.5435596888
 21
13.4852514573
  0
LINE
  5
325
100
AcDbEntity
  8
0
100
AcDbLine
 62
9
  6
CONTINUOUS
 10
6.4160481533
 20
13.6127629929
 11
6.3367944072
 21
13.692016739
  0
LINE
  5
326
100
AcDbEntity
  8
0
100
AcDbLine
 62
9
  6
CONTINUOUS
 10
6.2860700635
 20
13.7427410827
 11
6.1624832114
 21
13.8663279347
  0
LINE
  5
327
100
AcDbEntity
  8
0
100
AcDbLine
 62
9
  6
CONTINUOUS
 10
8.5441127236
 20
11.4854601095
 11
8.4631942784
 21
11.5663785547
  0
LINE
  5
328
100
AcDbEntity
  8
0
100
AcDbLine
 62
9
  6
CONTINUOUS
 10
8.3839405323
 20
11.6456323008
 11
8.1937325171
 21
11.835840316
  0
LINE
  5
329
100
AcDbEntity
  8
0
100
AcDbLine
 62
9
  6
CONTINUOUS
 10
8.114478771
 20
11.9150940621
 11
7.8799376499
 21
12.1496351832
  0
LINE
  5
32A
100
AcDbEntity
  8
0
100
AcDbLine
 62
9
  6
CONTINUOUS
 10
7.8006839038
 20
12.2288889293
 11
7.5431942784
 21
12.4863785547
  0
LINE
  5
32B
100
AcDbEntity
  8
0
100
AcDbLine
 62
9
  6
CONTINUOUS
 10
7.4639405323
 20
12.5656323008
 11
7.2064509069
 21
12.8231219262
  0
LINE
  5
32C
100
AcDbEntity
  8
0
100
AcDbLine
 62
9
  6
CONTINUOUS
 10
7.1271971608
 20
12.9023756723
 11
6.8926560397
 21
13.1369167934
  0
LINE
  5
32D
100
AcDbEntity
  8
0
100
AcDbLine
 62
9
  6
CONTINUOUS
 10
6.8134022936
 20
13.2161705395
 11
6.6231942784
 21
13.4063785547
  0
LINE
  5
32E
100
AcDbEntity
  8
0
100
AcDbLine
 62
9
  6
CONTINUOUS
 10
6.5439405323
 20
13.4856323008
 11
6.4630220871
 21
13.566550746
  0
LINE
  5
32F
100
AcDbEntity
  8
0
100
AcDbLine
 62
7
  6
CONTINUOUS
 10
6.3072339829
 20
13.748009987
 11
6.3490195881
 21
13.7062243818
  0
LINE
  5
330
100
AcDbEntity
  8
0
100
AcDbLine
 62
7
  6
CONTINUOUS
 10
6.430255796
 20
13.6249881739
 11
6.5557848698
 21
13.4994591001
  0
LINE
  5
331
100
AcDbEntity
  8
0
100
AcDbLine
 62
7
  6
CONTINUOUS
 10
6.6370210777
 20
13.4182228922
 11
6.8252466311
 21
13.2299973388
  0
LINE
  5
332
100
AcDbEntity
  8
0
100
AcDbLine
 62
7
  6
CONTINUOUS
 10
6.906482839
 20
13.1487611309
 11
7.1390414983
 21
12.9162024716
  0
LINE
  5
333
100
AcDbEntity
  8
0
100
AcDbLine
 62
7
  6
CONTINUOUS
 10
7.2202777062
 20
12.8349662637
 11
7.4757848698
 21
12.5794591001
  0
LINE
  5
334
100
AcDbEntity
  8
0
100
AcDbLine
 62
7
  6
CONTINUOUS
 10
7.5570210777
 20
12.4982228922
 11
7.8125282413
 21
12.2427157286
  0
LINE
  5
335
100
AcDbEntity
  8
0
100
AcDbLine
 62
7
  6
CONTINUOUS
 10
7.8937644492
 20
12.1614795207
 11
8.1263231085
 21
11.9289208614
  0
LINE
  5
336
100
AcDbEntity
  8
0
100
AcDbLine
 62
7
  6
CONTINUOUS
 10
8.2075593164
 20
11.8476846535
 11
8.3957848698
 21
11.6594591001
  0
LINE
  5
337
100
AcDbEntity
  8
0
100
AcDbLine
 62
7
  6
CONTINUOUS
 10
8.4770210777
 20
11.5782228922
 11
8.6025501515
 21
11.4526938184
  0
LINE
  5
338
100
AcDbEntity
  8
0
100
AcDbLine
 62
7
  6
CONTINUOUS
 10
8.6837863594
 20
11.3714576105
 11
8.7255719646
 21
11.3296720053
  0
LINE
  5
339
100
AcDbEntity
  8
0
100
AcDbLine
 62
7
  6
CONTINUOUS
 10
9.143511182
 20
10.9151707698
 11
9.0854113676
 21
10.9732705842
  0
LINE
  5
33A
100
AcDbEntity
  8
0
100
AcDbLine
 62
7
  6
CONTINUOUS
 10
9.0737434941
 20
10.9849384577
 11
9.0156436796
 21
11.0430382722
  0
LINE
  5
33B
100
AcDbEntity
  8
0
100
AcDbLine
 62
7
  6
CONTINUOUS
 10
8.937257301
 20
11.1214246508
 11
8.8791574865
 21
11.1795244653
  0
LINE
  5
33C
100
AcDbEntity
  8
0
100
AcDbLine
 62
7
  6
CONTINUOUS
 10
8.7400177042
 20
11.3186642476
 11
8.6819178898
 21
11.376764062
  0
LINE
  5
33D
100
AcDbEntity
  8
0
100
AcDbLine
 62
7
  6
CONTINUOUS
 10
8.4906450207
 20
11.5680369311
 11
8.4325452062
 21
11.6261367456
  0
LINE
  5
33E
100
AcDbEntity
  8
0
100
AcDbLine
 62
7
  6
CONTINUOUS
 10
8.2000380333
 20
11.8586439185
 11
8.1419382188
 21
11.916743733
  0
LINE
  5
33F
100
AcDbEntity
  8
0
100
AcDbLine
 62
7
  6
CONTINUOUS
 10
7.8808976618
 20
12.17778429
 11
7.8227978474
 21
12.2358841044
  0
LINE
  5
340
100
AcDbEntity
  8
0
100
AcDbLine
 62
7
  6
CONTINUOUS
 10
7.5471718719
 20
12.5115100799
 11
7.4890720575
 21
12.5696098943
  0
LINE
  5
341
100
AcDbEntity
  8
0
100
AcDbLine
 62
7
  6
CONTINUOUS
 10
7.2134460821
 20
12.8452358697
 11
7.1553462676
 21
12.9033356842
  0
LINE
  5
342
100
AcDbEntity
  8
0
100
AcDbLine
 62
7
  6
CONTINUOUS
 10
6.8943057106
 20
13.1643762412
 11
6.8362058961
 21
13.2224760557
  0
LINE
  5
343
100
AcDbEntity
  8
0
100
AcDbLine
 62
7
  6
CONTINUOUS
 10
6.6036987232
 20
13.4549832286
 11
6.5455989087
 21
13.5130830431
  0
LINE
  5
344
100
AcDbEntity
  8
0
100
AcDbLine
 62
7
  6
CONTINUOUS
 10
6.3543260397
 20
13.7043559121
 11
6.2962262252
 21
13.7624557266
  0
LINE
  5
345
100
AcDbEntity
  8
0
100
AcDbLine
 62
7
  6
CONTINUOUS
 10
6.1570864429
 20
13.9015955089
 11
6.0989866284
 21
13.9596953234
  0
LINE
  5
346
100
AcDbEntity
  8
0
100
AcDbLine
 62
7
  6
CONTINUOUS
 10
6.0206002498
 20
14.038081702
 11
5.9625004353
 21
14.0961815165
  0
LINE
  5
347
100
AcDbEntity
  8
0
100
AcDbLine
 62
7
  6
CONTINUOUS
 10
5.9508325618
 20
14.10784939
 11
5.8927327474
 21
14.1659492044
  0
LINE
  5
348
100
AcDbEntity
  8
0
100
AcDbLine
 62
9
  6
CONTINUOUS
 10
6.4323163499
 20
13.6267092419
 11
6.5439787511
 21
13.5150468407
  0
LINE
  5
349
100
AcDbEntity
  8
0
100
AcDbLine
 62
9
  6
CONTINUOUS
 10
6.6391182527
 20
13.4199073391
 11
6.8269956312
 21
13.2320299605
  0
LINE
  5
34A
100
AcDbEntity
  8
0
100
AcDbLine
 62
9
  6
CONTINUOUS
 10
6.9086278399
 20
13.1503977519
 11
7.1407904985
 21
12.9182350933
  0
LINE
  5
34B
100
AcDbEntity
  8
0
100
AcDbLine
 62
9
  6
CONTINUOUS
 10
7.222310328
 20
12.8367152638
 11
7.4775338699
 21
12.5814917219
  0
LINE
  5
34C
100
AcDbEntity
  8
0
100
AcDbLine
 62
9
  6
CONTINUOUS
 10
7.5590536995
 20
12.4999718923
 11
7.8142772414
 21
12.2447483504
  0
LINE
  5
34D
100
AcDbEntity
  8
0
100
AcDbLine
 62
9
  6
CONTINUOUS
 10
7.8957970709
 20
12.1632285208
 11
8.1279597295
 21
11.9310658623
  0
LINE
  5
34E
100
AcDbEntity
  8
0
100
AcDbLine
 62
9
  6
CONTINUOUS
 10
8.2095919382
 20
11.8494336536
 11
8.3974693167
 21
11.6615562751
  0
LINE
  5
34F
100
AcDbEntity
  8
0
100
AcDbLine
 62
9
  6
CONTINUOUS
 10
8.4926088183
 20
11.5664167735
 11
8.6042712195
 21
11.4547543723
  0
LINE
  5
350
100
AcDbEntity
  8
0
100
AcDbLine
 62
9
  6
CONTINUOUS
 10
8.8678574196
 20
11.2036529877
 11
8.7561549124
 21
11.3153554949
  0
LINE
  5
351
100
AcDbEntity
  8
0
100
AcDbLine
 62
9
  6
CONTINUOUS
 10
8.6786091371
 20
11.3929012702
 11
8.5067822288
 21
11.5647281785
  0
LINE
  5
352
100
AcDbEntity
  8
0
100
AcDbLine
 62
9
  6
CONTINUOUS
 10
8.4292364536
 20
11.6422739537
 11
8.2161752414
 21
11.8553351659
  0
LINE
  5
353
100
AcDbEntity
  8
0
100
AcDbLine
 62
9
  6
CONTINUOUS
 10
8.1386294662
 20
11.9328809411
 11
7.8970348699
 21
12.1744755374
  0
LINE
  5
354
100
AcDbEntity
  8
0
100
AcDbLine
 62
9
  6
CONTINUOUS
 10
7.8194890947
 20
12.2520213126
 11
7.5633090801
 21
12.5082013272
  0
LINE
  5
355
100
AcDbEntity
  8
0
100
AcDbLine
 62
9
  6
CONTINUOUS
 10
7.4857633048
 20
12.5857471025
 11
7.2295832902
 21
12.8419271171
  0
LINE
  5
356
100
AcDbEntity
  8
0
100
AcDbLine
 62
9
  6
CONTINUOUS
 10
7.152037515
 20
12.9194728923
 11
6.9104429187
 21
13.1610674886
  0
LINE
  5
357
100
AcDbEntity
  8
0
100
AcDbLine
 62
9
  6
CONTINUOUS
 10
6.8328971435
 20
13.2386132638
 11
6.6198359313
 21
13.451674476
  0
LINE
  5
358
100
AcDbEntity
  8
0
100
AcDbLine
 62
9
  6
CONTINUOUS
 10
6.5422901561
 20
13.5292202512
 11
6.3704632478
 21
13.7010471595
  0
LINE
  5
359
100
AcDbEntity
  8
0
100
AcDbLine
 62
9
  6
CONTINUOUS
 10
6.2929174726
 20
13.7785929347
 11
6.1812149653
 21
13.890295442
  0
LINE
  5
35A
100
AcDbEntity
  8
0
100
AcDbLine
 62
9
  6
CONTINUOUS
 10
9.1639014824
 20
10.9144071385
 11
9.0148800483
 21
11.0634285725
  0
LINE
  5
35B
100
AcDbEntity
  8
0
100
AcDbLine
 62
9
  6
CONTINUOUS
 10
8.9576476013
 20
11.1206610195
 11
8.8783938552
 21
11.1999147656
  0
LINE
  5
35C
100
AcDbEntity
  8
0
100
AcDbLine
 62
9
  6
CONTINUOUS
 10
8.7604080046
 20
11.3179006163
 11
8.6811542585
 21
11.3971543624
  0
LINE
  5
35D
100
AcDbEntity
  8
0
100
AcDbLine
 62
9
  6
CONTINUOUS
 10
8.511035321
 20
11.5672732998
 11
8.4317815749
 21
11.6465270459
  0
LINE
  5
35E
100
AcDbEntity
  8
0
100
AcDbLine
 62
9
  6
CONTINUOUS
 10
8.2204283336
 20
11.8578802872
 11
8.1411745875
 21
11.9371340333
  0
LINE
  5
35F
100
AcDbEntity
  8
0
100
AcDbLine
 62
9
  6
CONTINUOUS
 10
7.9012879622
 20
12.1770206587
 11
7.8220342161
 21
12.2562744048
  0
LINE
  5
360
100
AcDbEntity
  8
0
100
AcDbLine
 62
9
  6
CONTINUOUS
 10
7.5675621723
 20
12.5107464486
 11
7.4883084262
 21
12.5900001947
  0
LINE
  5
361
100
AcDbEntity
  8
0
100
AcDbLine
 62
9
  6
CONTINUOUS
 10
7.2338363824
 20
12.8444722384
 11
7.1545826363
 21
12.9237259845
  0
LINE
  5
362
100
AcDbEntity
  8
0
100
AcDbLine
 62
9
  6
CONTINUOUS
 10
6.9146960109
 20
13.1636126099
 11
6.8354422648
 21
13.242866356
  0
LINE
  5
363
100
AcDbEntity
  8
0
100
AcDbLine
 62
9
  6
CONTINUOUS
 10
6.6240890235
 20
13.4542195973
 11
6.5448352774
 21
13.5334733434
  0
LINE
  5
364
100
AcDbEntity
  8
0
100
AcDbLine
 62
9
  6
CONTINUOUS
 10
6.37471634
 20
13.7035922808
 11
6.2954625939
 21
13.782846027
  0
LINE
  5
365
100
AcDbEntity
  8
0
100
AcDbLine
 62
9
  6
CONTINUOUS
 10
6.1774767433
 20
13.9008318776
 11
6.0982229971
 21
13.9800856237
  0
LINE
  5
366
100
AcDbEntity
  8
0
100
AcDbLine
 62
9
  6
CONTINUOUS
 10
6.0409905501
 20
14.0373180707
 11
5.8919691161
 21
14.1863395048
  0
LINE
  5
367
100
AcDbEntity
  8
0
100
AcDbLine
 62
7
  6
CONTINUOUS
 10
5.3791239516
 20
14.7149133392
 11
9.6924753169
 21
10.401561974
  0
LINE
  5
368
100
AcDbEntity
  8
0
100
AcDbLine
 62
9
  6
CONTINUOUS
 10
5.3791239516
 20
14.7856240174
 11
9.763185995
 21
10.401561974
  0
LINE
  5
369
100
AcDbEntity
  8
0
100
AcDbLine
 62
9
  6
CONTINUOUS
 10
9.8126834697
 20
10.4510594487
 11
5.4286214263
 21
14.835121492
  0
LINE
  5
36A
100
AcDbEntity
  8
0
100
AcDbLine
 62
9
  6
CONTINUOUS
 10
9.8246849688
 20
10.5479523938
 11
5.5255143714
 21
14.8471229912
  0
LINE
  5
36B
100
AcDbEntity
  8
0
100
AcDbLine
 62
9
  6
CONTINUOUS
 10
9.7851063052
 20
10.6497564542
 11
5.6273184318
 21
14.8075443276
  0
LINE
  5
36C
100
AcDbEntity
  8
0
100
AcDbLine
 62
7
  6
CONTINUOUS
 10
9.5254049789
 20
15.0812274682
 11
9.5254433133
 21
15.0810840817
  0
LINE
  5
36D
100
AcDbEntity
  8
0
100
AcDbLine
 62
7
  6
CONTINUOUS
 10
9.5168635215
 20
15.1131723926
 11
9.5254049789
 21
15.0812274682
  0
LINE
  5
36E
100
AcDbEntity
  8
0
100
AcDbLine
 62
7
  6
CONTINUOUS
 10
9.5747165634
 20
15.132930624
 11
9.5747547423
 21
15.1327878187
  0
LINE
  5
36F
100
AcDbEntity
  8
0
100
AcDbLine
 62
7
  6
CONTINUOUS
 10
9.5666810894
 20
15.1629835212
 11
9.5747165634
 21
15.132930624
  0
LINE
  5
370
100
AcDbEntity
  8
0
100
AcDbLine
 62
7
  6
CONTINUOUS
 10
9.6237560891
 20
15.1849124527
 11
9.6237940432
 21
15.1847704936
  0
LINE
  5
371
100
AcDbEntity
  8
0
100
AcDbLine
 62
7
  6
CONTINUOUS
 10
9.6163403145
 20
15.2126469578
 11
9.6237560891
 21
15.1849124527
  0
LINE
  5
372
100
AcDbEntity
  8
0
100
AcDbLine
 62
7
  6
CONTINUOUS
 10
9.673017154
 20
15.2366715472
 11
9.6730549354
 21
15.2365302378
  0
LINE
  5
373
100
AcDbEntity
  8
0
100
AcDbLine
 62
7
  6
CONTINUOUS
 10
9.6661278086
 20
15.2624367998
 11
9.673017154
 21
15.2366715472
  0
LINE
  5
374
100
AcDbEntity
  8
0
100
AcDbLine
 62
9
  6
CONTINUOUS
 10
12.0321366955
 20
4.5181982557
 11
12.0321366955
 21
4.0665853524
  0
LINE
  5
375
100
AcDbEntity
  8
0
100
AcDbLine
 62
9
  6
CONTINUOUS
 10
12.1078600542
 20
4.572391804
 11
12.1078600542
 21
4.012391804
  0
LINE
  5
376
100
AcDbEntity
  8
0
100
AcDbLine
 62
9
  6
CONTINUOUS
 10
12.1147160843
 20
4.572391804
 11
12.1147160843
 21
4.012391804
  0
LINE
  5
377
100
AcDbEntity
  8
0
100
AcDbLine
 62
7
  6
CONTINUOUS
 10
12.1149880343
 20
5.4337786832
 11
12.1149880343
 21
5.4188097067
  0
LINE
  5
378
100
AcDbEntity
  8
0
100
AcDbLine
 62
7
  6
CONTINUOUS
 10
12.1149880343
 20
3.1510049249
 11
12.1149880343
 21
3.1659739013
  0
LINE
  5
379
100
AcDbEntity
  8
0
100
AcDbLine
 62
7
  6
CONTINUOUS
 10
12.1347160843
 20
4.0001565581
 11
12.1347160843
 21
4.1750336941
  0
LINE
  5
37A
100
AcDbEntity
  8
0
100
AcDbLine
 62
7
  6
CONTINUOUS
 10
12.1347160843
 20
4.4097498834
 11
12.1347160843
 21
4.58462705
  0
LINE
  5
37B
100
AcDbEntity
  8
0
100
AcDbLine
 62
7
  6
CONTINUOUS
 10
9.8498065757
 20
11.0220481745
 11
5.9996101521
 21
14.8722445981
  0
LINE
  5
37C
100
AcDbEntity
  8
0
100
AcDbLine
 62
9
  6
CONTINUOUS
 10
6.3465472786
 20
15.1988930037
 11
10.1764549813
 21
11.368985301
  0
LINE
  5
37D
100
AcDbEntity
  8
0
100
AcDbLine
 62
9
  6
CONTINUOUS
 10
6.3805788319
 20
15.2038584009
 11
10.1814203785
 21
11.4030168543
  0
LINE
  5
37E
100
AcDbEntity
  8
0
100
AcDbLine
 62
7
  6
CONTINUOUS
 10
10.080648562
 20
14.5292567791
 11
10.0723614271
 21
14.5602545191
  0
LINE
  5
37F
100
AcDbEntity
  8
0
100
AcDbLine
 62
7
  6
CONTINUOUS
 10
10.1319140384
 20
14.5805273932
 11
10.1241807959
 21
14.6094534801
  0
LINE
  5
380
100
AcDbEntity
  8
0
100
AcDbLine
 62
7
  6
CONTINUOUS
 10
10.1831636387
 20
14.6317705637
 11
10.1759706862
 21
14.6586748616
  0
LINE
  5
381
100
AcDbEntity
  8
0
100
AcDbLine
 62
7
  6
CONTINUOUS
 10
10.2344363826
 20
14.6830445064
 11
10.2278019557
 21
14.7078595404
  0
LINE
  5
382
100
AcDbEntity
  8
0
100
AcDbLine
 62
9
  6
CONTINUOUS
 10
12.1372269244
 20
3.9935299085
 11
12.1372269244
 21
4.1682740733
  0
LINE
  5
383
100
AcDbEntity
  8
0
100
AcDbLine
 62
9
  6
CONTINUOUS
 10
12.1372269244
 20
4.4165095303
 11
12.1372269244
 21
4.5912536996
  0
LINE
  5
384
100
AcDbEntity
  8
0
100
AcDbLine
 62
7
  6
CONTINUOUS
 10
12.2949880343
 20
4.806391804
 11
12.2949880343
 21
4.716391804
  0
LINE
  5
385
100
AcDbEntity
  8
0
100
AcDbLine
 62
7
  6
CONTINUOUS
 10
12.2949880343
 20
3.7783918041
 11
12.2949880343
 21
3.868391804
  0
LINE
  5
386
100
AcDbEntity
  8
0
100
AcDbLine
 62
9
  6
CONTINUOUS
 10
12.3054876876
 20
15.886141804
 11
12.3054876876
 21
16.698641804
  0
LINE
  5
387
100
AcDbEntity
  8
0
100
AcDbLine
 62
7
  6
CONTINUOUS
 10
12.6549880343
 20
4.806391804
 11
12.6549880343
 21
4.716391804
  0
LINE
  5
388
100
AcDbEntity
  8
0
100
AcDbLine
 62
7
  6
CONTINUOUS
 10
12.6549880343
 20
3.7783918041
 11
12.6549880343
 21
3.868391804
  0
LINE
  5
389
100
AcDbEntity
  8
0
100
AcDbLine
 62
9
  6
CONTINUOUS
 10
6.5990045524
 20
15.1799013383
 11
10.1574633159
 21
11.6214425748
  0
LINE
  5
38A
100
AcDbEntity
  8
0
100
AcDbLine
 62
7
  6
CONTINUOUS
 10
6.627553577
 20
15.1720252701
 11
10.1495872477
 21
11.6499915994
  0
LINE
  5
38B
100
AcDbEntity
  8
0
100
AcDbLine
 62
9
  6
CONTINUOUS
 10
10.1174464923
 20
11.7245587616
 11
6.7021207392
 21
15.1398845147
  0
LINE
  5
38C
100
AcDbEntity
  8
0
100
AcDbLine
 62
9
  6
CONTINUOUS
 10
6.716773216
 20
15.1545369916
 11
10.1320989692
 21
11.7392112384
  0
LINE
  5
38D
100
AcDbEntity
  8
0
100
AcDbLine
 62
9
  6
CONTINUOUS
 10
6.7578319869
 20
15.1558216425
 11
10.1333836201
 21
11.7802700093
  0
LINE
  5
38E
100
AcDbEntity
  8
0
100
AcDbLine
 62
9
  6
CONTINUOUS
 10
8.2357579656
 20
14.3268360946
 11
9.3043980722
 21
13.258195988
  0
LINE
  5
38F
100
AcDbEntity
  8
0
100
AcDbLine
 62
7
  6
CONTINUOUS
 10
8.2782617545
 20
14.3047914062
 11
9.2823533838
 21
13.3006997769
  0
LINE
  5
390
100
AcDbEntity
  8
0
100
AcDbLine
 62
7
  6
CONTINUOUS
 10
8.3126537906
 20
14.3391834423
 11
9.3167454199
 21
13.335091813
  0
LINE
  5
391
100
AcDbEntity
  8
0
100
AcDbLine
 62
7
  6
CONTINUOUS
 10
12.8349880343
 20
5.4337786832
 11
12.8349880343
 21
5.4188097067
  0
LINE
  5
392
100
AcDbEntity
  8
0
100
AcDbLine
 62
7
  6
CONTINUOUS
 10
12.8349880343
 20
3.1510049249
 11
12.8349880343
 21
3.1659739013
  0
LINE
  5
393
100
AcDbEntity
  8
0
100
AcDbLine
 62
7
  6
CONTINUOUS
 10
12.8354876876
 20
4.021391804
 11
12.8354876876
 21
4.563391804
  0
LINE
  5
394
100
AcDbEntity
  8
0
100
AcDbLine
 62
7
  6
CONTINUOUS
 10
13.0854876876
 20
3.967891804
 11
13.0854876876
 21
4.616891804
  0
LINE
  5
395
100
AcDbEntity
  8
0
100
AcDbLine
 62
7
  6
CONTINUOUS
 10
13.1654876876
 20
3.902391804
 11
13.1654876876
 21
4.682391804
  0
LINE
  5
396
100
AcDbEntity
  8
0
100
AcDbLine
 62
9
  6
CONTINUOUS
 10
13.2254876876
 20
3.842391804
 11
13.2254876876
 21
4.742391804
  0
LINE
  5
397
100
AcDbEntity
  8
0
100
AcDbLine
 62
9
  6
CONTINUOUS
 10
13.2303268897
 20
3.842391804
 11
13.2303268897
 21
4.742391804
  0
LINE
  5
398
100
AcDbEntity
  8
0
100
AcDbLine
 62
9
  6
CONTINUOUS
 10
13.2804479637
 20
3.8694088079
 11
13.2804479637
 21
4.7153748002
  0
LINE
  5
399
100
AcDbEntity
  8
0
100
AcDbLine
 62
9
  6
CONTINUOUS
 10
13.3244542086
 20
3.8961134057
 11
13.3244542086
 21
4.6886702024
  0
LINE
  5
39A
100
AcDbEntity
  8
0
100
AcDbLine
 62
7
  6
CONTINUOUS
 10
8.529540858
 20
14.5560705096
 11
9.5336324873
 21
13.5519788804
  0
LINE
  5
39B
100
AcDbEntity
  8
0
100
AcDbLine
 62
9
  6
CONTINUOUS
 10
8.561104467
 20
14.5876341186
 11
9.5651960962
 21
13.5835424893
  0
LINE
  5
39C
100
AcDbEntity
  8
0
100
AcDbLine
 62
7
  6
CONTINUOUS
 10
8.6459572807
 20
14.5876341186
 11
9.5651960962
 21
13.6683953031
  0
LINE
  5
39D
100
AcDbEntity
  8
0
100
AcDbLine
 62
9
  6
CONTINUOUS
 10
9.4106579655
 20
13.9142935257
 11
8.8918555033
 21
14.4330959879
  0
LINE
  5
39E
100
AcDbEntity
  8
0
100
AcDbLine
 62
9
  6
CONTINUOUS
 10
9.4904994129
 20
13.9892593146
 11
8.9668212923
 21
14.5129374353
  0
LINE
  5
39F
100
AcDbEntity
  8
0
100
AcDbLine
 62
9
  6
CONTINUOUS
 10
8.9668212923
 20
14.5301055985
 11
9.5076675761
 21
13.9892593146
  0
LINE
  5
3A0
100
AcDbEntity
  8
0
100
AcDbLine
 62
9
  6
CONTINUOUS
 10
9.0218852174
 20
14.6630416733
 11
9.6406036509
 21
14.0443232398
  0
LINE
  5
3A1
100
AcDbEntity
  8
0
100
AcDbLine
 62
7
  6
CONTINUOUS
 10
9.0781906103
 20
14.8501618207
 11
9.8277237983
 21
14.1006286327
  0
LINE
  5
3A2
100
AcDbEntity
  8
0
100
AcDbLine
 62
9
  6
CONTINUOUS
 10
9.0781906103
 20
14.878446092
 11
9.8560080696
 21
14.1006286327
  0
LINE
  5
3A3
100
AcDbEntity
  8
0
100
AcDbLine
 62
7
  6
CONTINUOUS
 10
9.9195981894
 20
14.1642187524
 11
9.1417807301
 21
14.9420362117
  0
LINE
  5
3A4
100
AcDbEntity
  8
0
100
AcDbLine
 62
7
  6
CONTINUOUS
 10
10.0964243752
 20
14.3410449383
 11
9.3186069159
 21
15.1188623976
  0
LINE
  5
3A5
100
AcDbEntity
  8
0
100
AcDbLine
 62
9
  6
CONTINUOUS
 10
9.3822465262
 20
15.1825020079
 11
10.1600639855
 21
14.4046845486
  0
LINE
  5
3A6
100
AcDbEntity
  8
0
100
AcDbLine
 62
9
  6
CONTINUOUS
 10
14.4966568683
 20
4.7236023292
 11
14.4966568683
 21
3.8611812789
  0
LINE
  5
3A7
100
AcDbEntity
  8
0
100
AcDbLine
 62
9
  6
CONTINUOUS
 10
14.5451826192
 20
4.7681698982
 11
14.5451826192
 21
3.8166137099
  0
LINE
  5
3A8
100
AcDbEntity
  8
0
100
AcDbLine
 62
7
  6
CONTINUOUS
 10
14.6354876876
 20
4.797391804
 11
14.6354876876
 21
3.787391804
  0
LINE
  5
3A9
100
AcDbEntity
  8
0
100
AcDbLine
 62
7
  6
CONTINUOUS
 10
9.4105307974
 20
15.1825020079
 11
10.1600639855
 21
14.4329688198
  0
LINE
  5
3AA
100
AcDbEntity
  8
0
100
AcDbLine
 62
7
  6
CONTINUOUS
 10
14.8522098134
 20
5.0540865596
 11
14.8522098134
 21
3.5306970485
  0
LINE
  5
3AB
100
AcDbEntity
  8
0
100
AcDbLine
 62
9
  6
CONTINUOUS
 10
14.878157386
 20
3.4762968312
 11
14.878157386
 21
5.1084867769
  0
LINE
  5
3AC
100
AcDbEntity
  8
0
100
AcDbLine
 62
9
  6
CONTINUOUS
 10
15.0014876876
 20
3.3764259221
 11
15.0014876876
 21
5.208357686
  0
LINE
  5
3AD
100
AcDbEntity
  8
0
100
AcDbLine
 62
9
  6
CONTINUOUS
 10
15.0516727099
 20
5.2179039796
 11
15.0516727099
 21
3.3668796285
  0
LINE
  5
3AE
100
AcDbEntity
  8
0
100
AcDbLine
 62
9
  6
CONTINUOUS
 10
15.0912803425
 20
5.2271148341
 11
15.0912803425
 21
3.357668774
  0
LINE
  5
3AF
100
AcDbEntity
  8
0
100
AcDbLine
 62
9
  6
CONTINUOUS
 10
15.2529389053
 20
3.1891689689
 11
15.2529389053
 21
5.3956146392
  0
LINE
  5
3B0
100
AcDbEntity
  8
0
100
AcDbLine
 62
7
  6
CONTINUOUS
 10
15.3054876876
 20
6.0266185639
 11
15.3054876876
 21
2.5581650442
  0
LINE
  5
3B1
100
AcDbEntity
  8
0
100
AcDbLine
 62
9
  6
CONTINUOUS
 10
15.4110112266
 20
2.5554018131
 11
15.4110112266
 21
6.029381795
  0
LINE
  5
3B2
100
AcDbEntity
  8
0
100
AcDbLine
 62
7
  6
CONTINUOUS
 10
15.4304876876
 20
7.525391804
 11
15.4304876876
 21
1.059391804
  0
LINE
  5
3B3
100
AcDbEntity
  8
0
100
AcDbLine
 62
9
  6
CONTINUOUS
 10
10.8249828645
 20
15.2728966272
 11
10.2504586048
 21
15.8474208869
  0
LINE
  5
3B4
100
AcDbEntity
  8
0
100
AcDbLine
 62
9
  6
CONTINUOUS
 10
15.4894995509
 20
7.6025895898
 11
15.4894995509
 21
0.9821940183
  0
LINE
  5
3B5
100
AcDbEntity
  8
0
100
AcDbLine
 62
7
  6
CONTINUOUS
 10
15.5754876876
 20
15.6459819588
 11
15.5754876876
 21
16.9388016493
  0
LINE
  5
3B6
100
AcDbEntity
  8
0
100
AcDbLine
 62
9
  6
CONTINUOUS
 10
15.6774116509
 20
15.4603531637
 11
15.6774116509
 21
17.1244304444
  0
LINE
  5
3B7
100
AcDbEntity
  8
0
100
AcDbLine
 62
9
  6
CONTINUOUS
 10
15.8008856895
 20
7.970361867
 11
15.8008856895
 21
0.6144217411
  0
LINE
  5
3B8
100
AcDbEntity
  8
0
100
AcDbLine
 62
9
  6
CONTINUOUS
 10
15.8804876876
 20
8.042391804
 11
15.8804876876
 21
0.542391804
  0
LINE
  5
3B9
100
AcDbEntity
  8
0
100
AcDbLine
 62
9
  6
CONTINUOUS
 10
15.8825953487
 20
15.1826725182
 11
15.8825953487
 21
17.4021110899
  0
LINE
  5
3BA
100
AcDbEntity
  8
0
100
AcDbLine
 62
9
  6
CONTINUOUS
 10
15.9256451095
 20
15.1404426421
 11
15.9256451095
 21
17.444340966
  0
LINE
  5
3BB
100
AcDbEntity
  8
0
100
AcDbLine
 62
7
  6
CONTINUOUS
 10
16.0554876876
 20
17.477391804
 11
16.0554876876
 21
15.107391804
  0
LINE
  5
3BC
100
AcDbEntity
  8
0
100
AcDbLine
 62
7
  6
CONTINUOUS
 10
16.0554876876
 20
8.042391804
 11
16.0554876876
 21
0.542391804
  0
LINE
  5
3BD
100
AcDbEntity
  8
0
100
AcDbLine
 62
7
  6
CONTINUOUS
 10
9.4904994129
 20
13.9892593146
 11
9.5076675761
 21
13.9892593146
  0
LINE
  5
3BE
100
AcDbEntity
  8
0
100
AcDbLine
 62
7
  6
CONTINUOUS
 10
10.0840008122
 20
14.5726178577
 11
10.1156014597
 21
14.5641684234
  0
LINE
  5
3BF
100
AcDbEntity
  8
0
100
AcDbLine
 62
7
  6
CONTINUOUS
 10
10.1358251191
 20
14.6218181629
 11
10.1653593865
 21
14.613921023
  0
LINE
  5
3C0
100
AcDbEntity
  8
0
100
AcDbLine
 62
7
  6
CONTINUOUS
 10
10.1876195359
 20
14.6710407461
 11
10.2151193819
 21
14.6636876725
  0
LINE
  5
3C1
100
AcDbEntity
  8
0
100
AcDbLine
 62
7
  6
CONTINUOUS
 10
10.2394556031
 20
14.7202267196
 11
10.2648653617
 21
14.7134324093
  0
LINE
  5
3C2
100
AcDbEntity
  8
0
100
AcDbLine
 62
7
  6
CONTINUOUS
 10
15.0014876876
 20
5.208357686
 11
14.878157386
 21
5.1084867769
  0
LINE
  5
3C3
100
AcDbEntity
  8
0
100
AcDbLine
 62
7
  6
CONTINUOUS
 10
10.1156014597
 20
14.5641684234
 11
10.1163055434
 21
14.5642193061
  0
LINE
  5
3C4
100
AcDbEntity
  8
0
100
AcDbLine
 62
7
  6
CONTINUOUS
 10
10.1653593867
 20
14.6139210231
 11
10.1660577502
 21
14.6139715129
  0
LINE
  5
3C5
100
AcDbEntity
  8
0
100
AcDbLine
 62
7
  6
CONTINUOUS
 10
10.2151193819
 20
14.6636876725
 11
10.2158248918
 21
14.6637386544
  0
LINE
  5
3C6
100
AcDbEntity
  8
0
100
AcDbLine
 62
7
  6
CONTINUOUS
 10
10.2648653617
 20
14.7134324093
 11
10.2655695366
 21
14.7134832993
  0
LINE
  5
3C7
100
AcDbEntity
  8
0
100
AcDbLine
 62
7
  6
CONTINUOUS
 10
9.5631137323
 20
15.1204241266
 11
9.5323699902
 21
15.1286435268
  0
LINE
  5
3C8
100
AcDbEntity
  8
0
100
AcDbLine
 62
7
  6
CONTINUOUS
 10
9.6121471871
 20
15.1724052316
 11
9.5837317688
 21
15.1800021662
  0
LINE
  5
3C9
100
AcDbEntity
  8
0
100
AcDbLine
 62
7
  6
CONTINUOUS
 10
9.6614035836
 20
15.2241637702
 11
9.6349644662
 21
15.2312323514
  0
LINE
  5
3CA
100
AcDbEntity
  8
0
100
AcDbLine
 62
7
  6
CONTINUOUS
 10
9.5323699903
 20
15.1286435269
 11
9.5316276524
 21
15.1285899345
  0
LINE
  5
3CB
100
AcDbEntity
  8
0
100
AcDbLine
 62
7
  6
CONTINUOUS
 10
9.5837317687
 20
15.1800021661
 11
9.582985961
 21
15.1799482431
  0
LINE
  5
3CC
100
AcDbEntity
  8
0
100
AcDbLine
 62
7
  6
CONTINUOUS
 10
9.6349644662
 20
15.2312323514
 11
9.6342159558
 21
15.2311782379
  0
LINE
  5
3CD
100
AcDbEntity
  8
0
100
AcDbLine
 62
7
  6
CONTINUOUS
 10
16.0554876876
 20
17.477391804
 11
15.9256451095
 21
17.444340966
  0
LINE
  5
3CE
100
AcDbEntity
  8
0
100
AcDbLine
 62
7
  6
CONTINUOUS
 10
15.5754876876
 20
15.886141804
 11
12.3054876876
 21
15.886141804
  0
LINE
  5
3CF
100
AcDbEntity
  8
0
100
AcDbLine
 62
7
  6
CONTINUOUS
 10
16.0554876876
 20
15.107391804
 11
15.9256451095
 21
15.1404426421
  0
LINE
  5
3D0
100
AcDbEntity
  8
0
100
AcDbLine
 62
7
  6
CONTINUOUS
 10
15.5754876876
 20
16.698641804
 11
12.3054876876
 21
16.698641804
  0
ARC
  5
3D1
100
AcDbEntity
  8
0
100
AcDbCircle
 62
7
  6
CONTINUOUS
 10
2.8377795977
 20
10.2199724775
 40
4.9347851393
100
AcDbArc
 50
41.3686123718
 51
41.7470577342
  0
ARC
  5
3D2
100
AcDbEntity
  8
0
100
AcDbCircle
 62
7
  6
CONTINUOUS
 10
5.197545087
 20
7.8602295844
 40
4.9347691337
100
AcDbArc
 50
48.2529418714
 51
48.6313918203
  0
ARC
  5
3D3
100
AcDbEntity
  8
0
100
AcDbCircle
 62
7
  6
CONTINUOUS
 10
5.2580244734
 20
12.140029166
 40
1.8612436161
100
AcDbArc
 50
42.1107696392
 51
42.8495689575
  0
ARC
  5
3D4
100
AcDbEntity
  8
0
100
AcDbCircle
 62
7
  6
CONTINUOUS
 10
7.1175911698
 20
10.2804625245
 40
1.8612435773
100
AcDbArc
 50
47.1504309482
 51
47.8892303658
  0
ARC
  5
3D5
100
AcDbEntity
  8
0
100
AcDbCircle
 62
7
  6
CONTINUOUS
 10
6.5452929921
 20
12.2173301828
 40
0.8577129035
100
AcDbArc
 50
42.8300533169
 51
42.9991677643
  0
ARC
  5
3D6
100
AcDbEntity
  8
0
100
AcDbCircle
 62
7
  6
CONTINUOUS
 10
6.9412316542
 20
14.5401989984
 40
1.0
100
AcDbArc
 50
219.9082051787
 51
220.5343308342
  0
ARC
  5
3D7
100
AcDbEntity
  8
0
100
AcDbCircle
 62
7
  6
CONTINUOUS
 10
7.0143407641
 20
14.4551167682
 40
1.0
100
AcDbArc
 50
224.4370126836
 51
225.0
  0
ARC
  5
3D8
100
AcDbEntity
  8
0
100
AcDbCircle
 62
7
  6
CONTINUOUS
 10
6.7430743334
 20
13.2095416012
 40
0.015
100
AcDbArc
 50
139.2891533288
 51
225.0
  0
ARC
  5
3D9
100
AcDbEntity
  8
0
100
AcDbCircle
 62
7
  6
CONTINUOUS
 10
6.8011742877
 20
13.1514416469
 40
0.015
100
AcDbArc
 50
225.0
 51
310.7108466712
  0
ARC
  5
3DA
100
AcDbEntity
  8
0
100
AcDbCircle
 62
7
  6
CONTINUOUS
 10
6.835913992
 20
13.1167019426
 40
0.015
100
AcDbArc
 50
139.2891533288
 51
225.0
  0
ARC
  5
3DB
100
AcDbEntity
  8
0
100
AcDbCircle
 62
7
  6
CONTINUOUS
 10
6.8940139463
 20
13.0586019883
 40
0.015
100
AcDbArc
 50
225.0
 51
310.7108466712
  0
ARC
  5
3DC
100
AcDbEntity
  8
0
100
AcDbCircle
 62
7
  6
CONTINUOUS
 10
6.4718430697
 20
13.516128204
 40
0.015
100
AcDbArc
 50
139.2891533288
 51
225.0
  0
ARC
  5
3DD
100
AcDbEntity
  8
0
100
AcDbCircle
 62
7
  6
CONTINUOUS
 10
6.5299430239
 20
13.4580282497
 40
0.015
100
AcDbArc
 50
225.0
 51
310.7108466712
  0
ARC
  5
3DE
100
AcDbEntity
  8
0
100
AcDbCircle
 62
7
  6
CONTINUOUS
 10
6.812844185
 20
13.1751270887
 40
0.015
100
AcDbArc
 50
139.2891533288
 51
225.0
  0
ARC
  5
3DF
100
AcDbEntity
  8
0
100
AcDbCircle
 62
7
  6
CONTINUOUS
 10
6.8709441393
 20
13.1170271344
 40
0.015
100
AcDbArc
 50
225.0
 51
310.7108466712
  0
ARC
  5
3E0
100
AcDbEntity
  8
0
100
AcDbCircle
 62
7
  6
CONTINUOUS
 10
6.5902715142
 20
13.3976997595
 40
0.015
100
AcDbArc
 50
139.2891533288
 51
225.0
  0
ARC
  5
3E1
100
AcDbEntity
  8
0
100
AcDbCircle
 62
7
  6
CONTINUOUS
 10
6.6483714685
 20
13.3395998052
 40
0.015
100
AcDbArc
 50
225.0
 51
310.7108466712
  0
ARC
  5
3E2
100
AcDbEntity
  8
0
100
AcDbCircle
 62
7
  6
CONTINUOUS
 10
6.2181864805
 20
13.8122112001
 40
0.015
100
AcDbArc
 50
139.2891533288
 51
225.0
  0
ARC
  5
3E3
100
AcDbEntity
  8
0
100
AcDbCircle
 62
7
  6
CONTINUOUS
 10
6.2762864347
 20
13.7541112458
 40
0.015
100
AcDbArc
 50
225.0
 51
310.7108466712
  0
ARC
  5
3E4
100
AcDbEntity
  8
0
100
AcDbCircle
 62
7
  6
CONTINUOUS
 10
6.1738533746
 20
13.856544306
 40
0.015
100
AcDbArc
 50
139.2891533288
 51
225.0
  0
ARC
  5
3E5
100
AcDbEntity
  8
0
100
AcDbCircle
 62
7
  6
CONTINUOUS
 10
6.8243916132
 20
13.2060060673
 40
0.015
100
AcDbArc
 50
139.2891533288
 51
225.0
  0
ARC
  5
3E6
100
AcDbEntity
  8
0
100
AcDbCircle
 62
7
  6
CONTINUOUS
 10
6.8824915675
 20
13.147906113
 40
0.015
100
AcDbArc
 50
225.0
 51
310.7108466712
  0
ARC
  5
3E7
100
AcDbEntity
  8
0
100
AcDbCircle
 62
7
  6
CONTINUOUS
 10
6.5549298519
 20
13.4754678286
 40
0.015
100
AcDbArc
 50
139.2891533288
 51
225.0
  0
ARC
  5
3E8
100
AcDbEntity
  8
0
100
AcDbCircle
 62
7
  6
CONTINUOUS
 10
6.6130298062
 20
13.4173678743
 40
0.015
100
AcDbArc
 50
225.0
 51
310.7108466712
  0
ARC
  5
3E9
100
AcDbEntity
  8
0
100
AcDbCircle
 62
7
  6
CONTINUOUS
 10
6.3481645703
 20
13.6822331103
 40
0.015
100
AcDbArc
 50
139.2891533288
 51
225.0
  0
ARC
  5
3EA
100
AcDbEntity
  8
0
100
AcDbCircle
 62
7
  6
CONTINUOUS
 10
6.4062645245
 20
13.624133156
 40
0.015
100
AcDbArc
 50
225.0
 51
310.7108466712
  0
ARC
  5
3EB
100
AcDbEntity
  8
0
100
AcDbCircle
 62
7
  6
CONTINUOUS
 10
5.9731069671
 20
14.1067881881
 40
0.015
100
AcDbArc
 50
139.2891533288
 51
225.0
  0
ARC
  5
3EC
100
AcDbEntity
  8
0
100
AcDbCircle
 62
7
  6
CONTINUOUS
 10
6.0312069214
 20
14.0486882338
 40
0.015
100
AcDbArc
 50
225.0
 51
310.7108466712
  0
ARC
  5
3ED
100
AcDbEntity
  8
0
100
AcDbCircle
 62
7
  6
CONTINUOUS
 10
5.9033392792
 20
14.176555876
 40
0.015
100
AcDbArc
 50
139.2891533288
 51
225.0
  0
ARC
  5
3EE
100
AcDbEntity
  8
0
100
AcDbCircle
 62
7
  6
CONTINUOUS
 10
5.9614392335
 20
14.1184559218
 40
0.015
100
AcDbArc
 50
225.0
 51
258.430933962
  0
ARC
  5
3EF
100
AcDbEntity
  8
0
100
AcDbCircle
 62
7
  6
CONTINUOUS
 10
6.8468124279
 20
13.2330827273
 40
0.015
100
AcDbArc
 50
139.2891533288
 51
225.0
  0
ARC
  5
3F0
100
AcDbEntity
  8
0
100
AcDbCircle
 62
7
  6
CONTINUOUS
 10
6.9049123822
 20
13.174982773
 40
0.015
100
AcDbArc
 50
225.0
 51
310.7108466712
  0
ARC
  5
3F1
100
AcDbEntity
  8
0
100
AcDbCircle
 62
7
  6
CONTINUOUS
 10
6.5562054405
 20
13.5236897147
 40
0.015
100
AcDbArc
 50
139.2891533288
 51
225.0
  0
ARC
  5
3F2
100
AcDbEntity
  8
0
100
AcDbCircle
 62
7
  6
CONTINUOUS
 10
6.6143053948
 20
13.4655897604
 40
0.015
100
AcDbArc
 50
225.0
 51
310.7108466712
  0
ARC
  5
3F3
100
AcDbEntity
  8
0
100
AcDbCircle
 62
7
  6
CONTINUOUS
 10
6.306832757
 20
13.7730623982
 40
0.015
100
AcDbArc
 50
139.2891533288
 51
225.0
  0
ARC
  5
3F4
100
AcDbEntity
  8
0
100
AcDbCircle
 62
7
  6
CONTINUOUS
 10
6.3649327113
 20
13.714962444
 40
0.015
100
AcDbArc
 50
225.0
 51
310.7108466712
  0
ARC
  5
3F5
100
AcDbEntity
  8
0
100
AcDbCircle
 62
7
  6
CONTINUOUS
 10
6.1095931603
 20
13.970301995
 40
0.015
100
AcDbArc
 50
139.2891533288
 51
225.0
  0
ARC
  5
3F6
100
AcDbEntity
  8
0
100
AcDbCircle
 62
7
  6
CONTINUOUS
 10
6.1676931145
 20
13.9122020407
 40
0.015
100
AcDbArc
 50
225.0
 51
310.7108466712
  0
ARC
  5
3F7
100
AcDbEntity
  8
0
100
AcDbCircle
 62
7
  6
CONTINUOUS
 10
7.1596318903
 20
11.5298058449
 40
0.9094970674
100
AcDbArc
 50
47.0056445989
 51
47.1651302272
  0
ARC
  5
3F8
100
AcDbEntity
  8
0
100
AcDbCircle
 62
7
  6
CONTINUOUS
 10
7.4493258043
 20
12.5441654832
 40
0.0233443263
100
AcDbArc
 50
56.115141701
 51
56.3378643668
  0
ARC
  5
3F9
100
AcDbEntity
  8
0
100
AcDbCircle
 62
7
  6
CONTINUOUS
 10
7.4289679112
 20
12.5095058878
 40
0.015
100
AcDbArc
 50
139.2891533288
 51
225.0
  0
ARC
  5
3FA
100
AcDbEntity
  8
0
100
AcDbCircle
 62
7
  6
CONTINUOUS
 10
7.4870678654
 20
12.4514059335
 40
0.015
100
AcDbArc
 50
225.0
 51
310.7108466712
  0
ARC
  5
3FB
100
AcDbEntity
  8
0
100
AcDbCircle
 62
7
  6
CONTINUOUS
 10
7.0921630715
 20
12.8463107275
 40
0.015
100
AcDbArc
 50
154.3734764819
 51
225.0
  0
ARC
  5
3FC
100
AcDbEntity
  8
0
100
AcDbCircle
 62
7
  6
CONTINUOUS
 10
7.1502630258
 20
12.7882107732
 40
0.015
100
AcDbArc
 50
225.0
 51
310.7108466712
  0
ARC
  5
3FD
100
AcDbEntity
  8
0
100
AcDbCircle
 62
7
  6
CONTINUOUS
 10
7.436038979
 20
12.5165769556
 40
0.015
100
AcDbArc
 50
139.2891533288
 51
225.0
  0
ARC
  5
3FE
100
AcDbEntity
  8
0
100
AcDbCircle
 62
7
  6
CONTINUOUS
 10
7.4941389333
 20
12.4584770014
 40
0.015
100
AcDbArc
 50
225.0
 51
310.7108466712
  0
ARC
  5
3FF
100
AcDbEntity
  8
0
100
AcDbCircle
 62
7
  6
CONTINUOUS
 10
7.0895566562
 20
12.8630592784
 40
0.015
100
AcDbArc
 50
139.2891533288
 51
225.0
  0
ARC
  5
400
100
AcDbEntity
  8
0
100
AcDbCircle
 62
7
  6
CONTINUOUS
 10
7.1476566105
 20
12.8049593241
 40
0.015
100
AcDbArc
 50
225.0
 51
310.7108466712
  0
ARC
  5
401
100
AcDbEntity
  8
0
100
AcDbCircle
 62
7
  6
CONTINUOUS
 10
7.4537166485
 20
12.5342546252
 40
0.015
100
AcDbArc
 50
139.2891533288
 51
225.0
  0
ARC
  5
402
100
AcDbEntity
  8
0
100
AcDbCircle
 62
7
  6
CONTINUOUS
 10
7.5118166028
 20
12.4761546709
 40
0.015
100
AcDbArc
 50
225.0
 51
310.7108466712
  0
ARC
  5
403
100
AcDbEntity
  8
0
100
AcDbCircle
 62
7
  6
CONTINUOUS
 10
7.1127155332
 20
12.8752557405
 40
0.015
100
AcDbArc
 50
139.2891533288
 51
225.0
  0
ARC
  5
404
100
AcDbEntity
  8
0
100
AcDbCircle
 62
7
  6
CONTINUOUS
 10
7.1708154875
 20
12.8171557862
 40
0.015
100
AcDbArc
 50
225.0
 51
310.7108466712
  0
ARC
  5
405
100
AcDbEntity
  8
0
100
AcDbCircle
 62
7
  6
CONTINUOUS
 10
7.4749298519
 20
12.5554678286
 40
0.015
100
AcDbArc
 50
139.2891533288
 51
225.0
  0
ARC
  5
406
100
AcDbEntity
  8
0
100
AcDbCircle
 62
7
  6
CONTINUOUS
 10
7.5330298062
 20
12.4973678743
 40
0.015
100
AcDbArc
 50
225.0
 51
310.7108466712
  0
ARC
  5
407
100
AcDbEntity
  8
0
100
AcDbCircle
 62
7
  6
CONTINUOUS
 10
7.1381864805
 20
12.8922112001
 40
0.015
100
AcDbArc
 50
139.2891533288
 51
225.0
  0
ARC
  5
408
100
AcDbEntity
  8
0
100
AcDbCircle
 62
7
  6
CONTINUOUS
 10
7.1962864347
 20
12.8341112458
 40
0.015
100
AcDbArc
 50
225.0
 51
310.7108466712
  0
ARC
  5
409
100
AcDbEntity
  8
0
100
AcDbCircle
 62
7
  6
CONTINUOUS
 10
7.4996785893
 20
12.580216566
 40
0.015
100
AcDbArc
 50
139.2891533288
 51
225.0
  0
ARC
  5
40A
100
AcDbEntity
  8
0
100
AcDbCircle
 62
7
  6
CONTINUOUS
 10
7.5577785436
 20
12.5221166117
 40
0.015
100
AcDbArc
 50
225.0
 51
310.7108466712
  0
ARC
  5
40B
100
AcDbEntity
  8
0
100
AcDbCircle
 62
7
  6
CONTINUOUS
 10
7.1659527994
 20
12.9139423558
 40
0.015
100
AcDbArc
 50
139.2891533288
 51
225.0
  0
ARC
  5
40C
100
AcDbEntity
  8
0
100
AcDbCircle
 62
7
  6
CONTINUOUS
 10
7.2240527537
 20
12.8558424015
 40
0.015
100
AcDbArc
 50
225.0
 51
310.7108466712
  0
ARC
  5
40D
100
AcDbEntity
  8
0
100
AcDbCircle
 62
7
  6
CONTINUOUS
 10
7.7657727508
 20
12.1727010482
 40
0.015
100
AcDbArc
 50
139.2891533288
 51
225.0
  0
ARC
  5
40E
100
AcDbEntity
  8
0
100
AcDbCircle
 62
7
  6
CONTINUOUS
 10
7.8238727051
 20
12.1146010939
 40
0.015
100
AcDbArc
 50
225.0
 51
295.6265235181
  0
ARC
  5
40F
100
AcDbEntity
  8
0
100
AcDbCircle
 62
7
  6
CONTINUOUS
 10
8.1290036245
 20
11.8236123101
 40
0.015
100
AcDbArc
 50
139.2891533288
 51
225.0
  0
ARC
  5
410
100
AcDbEntity
  8
0
100
AcDbCircle
 62
7
  6
CONTINUOUS
 10
8.1871035788
 20
11.7655123558
 40
0.015
100
AcDbArc
 50
225.0
 51
310.7108466712
  0
ARC
  5
411
100
AcDbEntity
  8
0
100
AcDbCircle
 62
7
  6
CONTINUOUS
 10
8.036163966
 20
11.9164519687
 40
0.015
100
AcDbArc
 50
139.2891533288
 51
225.0
  0
ARC
  5
412
100
AcDbEntity
  8
0
100
AcDbCircle
 62
7
  6
CONTINUOUS
 10
8.0942639202
 20
11.8583520144
 40
0.015
100
AcDbArc
 50
225.0
 51
310.7108466712
  0
ARC
  5
413
100
AcDbEntity
  8
0
100
AcDbCircle
 62
7
  6
CONTINUOUS
 10
7.7825213018
 20
12.1700946329
 40
0.015
100
AcDbArc
 50
139.2891533288
 51
225.0
  0
ARC
  5
414
100
AcDbEntity
  8
0
100
AcDbCircle
 62
7
  6
CONTINUOUS
 10
7.840621256
 20
12.1119946786
 40
0.015
100
AcDbArc
 50
225.0
 51
310.7108466712
  0
ARC
  5
415
100
AcDbEntity
  8
0
100
AcDbCircle
 62
7
  6
CONTINUOUS
 10
8.094589112
 20
11.8933821617
 40
0.015
100
AcDbArc
 50
139.2891533288
 51
225.0
  0
ARC
  5
416
100
AcDbEntity
  8
0
100
AcDbCircle
 62
7
  6
CONTINUOUS
 10
8.1526890663
 20
11.8352822074
 40
0.015
100
AcDbArc
 50
225.0
 51
310.7108466712
  0
ARC
  5
417
100
AcDbEntity
  8
0
100
AcDbCircle
 62
7
  6
CONTINUOUS
 10
7.7947177638
 20
12.1932535098
 40
0.015
100
AcDbArc
 50
139.2891533288
 51
225.0
  0
ARC
  5
418
100
AcDbEntity
  8
0
100
AcDbCircle
 62
7
  6
CONTINUOUS
 10
7.8528177181
 20
12.1351535556
 40
0.015
100
AcDbArc
 50
225.0
 51
310.7108466712
  0
ARC
  5
419
100
AcDbEntity
  8
0
100
AcDbCircle
 62
7
  6
CONTINUOUS
 10
8.1254680906
 20
11.9049295899
 40
0.015
100
AcDbArc
 50
139.2891533288
 51
225.0
  0
ARC
  5
41A
100
AcDbEntity
  8
0
100
AcDbCircle
 62
7
  6
CONTINUOUS
 10
8.1835680449
 20
11.8468296356
 40
0.015
100
AcDbArc
 50
225.0
 51
310.7108466712
  0
ARC
  5
41B
100
AcDbEntity
  8
0
100
AcDbCircle
 62
7
  6
CONTINUOUS
 10
7.8116732234
 20
12.2187244571
 40
0.015
100
AcDbArc
 50
139.2891533288
 51
225.0
  0
ARC
  5
41C
100
AcDbEntity
  8
0
100
AcDbCircle
 62
7
  6
CONTINUOUS
 10
7.8697731777
 20
12.1606245028
 40
0.015
100
AcDbArc
 50
225.0
 51
310.7108466712
  0
ARC
  5
41D
100
AcDbEntity
  8
0
100
AcDbCircle
 62
7
  6
CONTINUOUS
 10
8.1525447506
 20
11.9273504046
 40
0.015
100
AcDbArc
 50
139.2891533288
 51
225.0
  0
ARC
  5
41E
100
AcDbEntity
  8
0
100
AcDbCircle
 62
7
  6
CONTINUOUS
 10
8.2106447049
 20
11.8692504503
 40
0.015
100
AcDbArc
 50
225.0
 51
310.7108466712
  0
ARC
  5
41F
100
AcDbEntity
  8
0
100
AcDbCircle
 62
7
  6
CONTINUOUS
 10
7.8915043334
 20
12.1883908218
 40
0.015
100
AcDbArc
 50
225.0
 51
310.7108466712
  0
ARC
  5
420
100
AcDbEntity
  8
0
100
AcDbCircle
 62
7
  6
CONTINUOUS
 10
7.8334043792
 20
12.2464907761
 40
0.015
100
AcDbArc
 50
139.2891533288
 51
225.0
  0
ARC
  5
421
100
AcDbEntity
  8
0
100
AcDbCircle
 62
7
  6
CONTINUOUS
 10
7.7672657344
 20
13.6242305734
 40
1.0
100
AcDbArc
 50
217.1497539613
 51
223.5548996513
  0
ARC
  5
422
100
AcDbEntity
  8
0
100
AcDbCircle
 62
7
  6
CONTINUOUS
 10
7.4868386764
 20
13.9244055551
 40
1.0
100
AcDbArc
 50
215.6273191301
 51
222.549018051
  0
ARC
  5
423
100
AcDbEntity
  8
0
100
AcDbCircle
 62
7
  6
CONTINUOUS
 10
7.2114887966
 20
14.2297231103
 40
1.0
100
AcDbArc
 50
217.7783136043
 51
221.542266468
  0
ARC
  5
424
100
AcDbEntity
  8
0
100
AcDbCircle
 62
7
  6
CONTINUOUS
 10
8.1988750981
 20
14.2074013673
 40
0.125
100
AcDbArc
 50
45.0
 51
72.8386883915
  0
ARC
  5
425
100
AcDbEntity
  8
0
100
AcDbCircle
 62
7
  6
CONTINUOUS
 10
9.0721693735
 20
5.7339915691
 40
3.73
100
AcDbArc
 50
346.0811997271
 51
353.9460923514
  0
ARC
  5
426
100
AcDbEntity
  8
0
100
AcDbCircle
 62
7
  6
CONTINUOUS
 10
9.0721693735
 20
2.850792039
 40
3.73
100
AcDbArc
 50
6.0539076486
 51
13.9188002729
  0
ARC
  5
427
100
AcDbEntity
  8
0
100
AcDbCircle
 62
7
  6
CONTINUOUS
 10
13.7788878551
 20
-0.5396696211
 40
4.459
100
AcDbArc
 50
80.7367477834
 51
95.849386431
  0
ARC
  5
428
100
AcDbEntity
  8
0
100
AcDbCircle
 62
7
  6
CONTINUOUS
 10
13.2761623218
 20
1.4544487208
 40
2.63
100
AcDbArc
 50
41.2685692708
 51
46.3573080802
  0
ARC
  5
429
100
AcDbEntity
  8
0
100
AcDbCircle
 62
7
  6
CONTINUOUS
 10
12.4749880343
 20
3.545391804
 40
0.517
100
AcDbArc
 50
244.7853651812
 51
295.2146348188
  0
ARC
  5
42A
100
AcDbEntity
  8
0
100
AcDbCircle
 62
7
  6
CONTINUOUS
 10
12.1482380623
 20
2.8514728925
 40
0.25
100
AcDbArc
 50
64.7853651812
 51
86.7993265714
  0
ARC
  5
42B
100
AcDbEntity
  8
0
100
AcDbCircle
 62
7
  6
CONTINUOUS
 10
12.1078600542
 20
4.092391804
 40
0.08
100
AcDbArc
 50
198.819063369
 51
270.0
  0
ARC
  5
42C
100
AcDbEntity
  8
0
100
AcDbCircle
 62
7
  6
CONTINUOUS
 10
12.1649880343
 20
3.1510049249
 40
0.05
100
AcDbArc
 50
180.0
 51
266.7993265714
  0
ARC
  5
42D
100
AcDbEntity
  8
0
100
AcDbCircle
 62
7
  6
CONTINUOUS
 10
12.1649880343
 20
3.1659739013
 40
0.05
100
AcDbArc
 50
113.6868993629
 51
180.0
  0
ARC
  5
42E
100
AcDbEntity
  8
0
100
AcDbCircle
 62
7
  6
CONTINUOUS
 10
12.6538221326
 20
3.7384087993
 40
0.04
100
AcDbArc
 50
13.9188002729
 51
88.3297322854
  0
ARC
  5
42F
100
AcDbEntity
  8
0
100
AcDbCircle
 62
7
  6
CONTINUOUS
 10
12.296153936
 20
3.7384087993
 40
0.04
100
AcDbArc
 50
91.6702677144
 51
166.0811997271
  0
ARC
  5
430
100
AcDbEntity
  8
0
100
AcDbCircle
 62
7
  6
CONTINUOUS
 10
12.1288315783
 20
3.248391804
 40
0.04
100
AcDbArc
 50
293.6868993629
 51
353.9460923514
  0
ARC
  5
431
100
AcDbEntity
  8
0
100
AcDbCircle
 62
7
  6
CONTINUOUS
 10
12.1147160843
 20
4.032391804
 40
0.02
100
AcDbArc
 50
270.0
 51
360.0
  0
ARC
  5
432
100
AcDbEntity
  8
0
100
AcDbCircle
 62
7
  6
CONTINUOUS
 10
12.6449880343
 20
3.868391804
 40
0.01
100
AcDbArc
 50
0.0
 51
90.0
  0
ARC
  5
433
100
AcDbEntity
  8
0
100
AcDbCircle
 62
7
  6
CONTINUOUS
 10
12.3049880343
 20
3.868391804
 40
0.01
100
AcDbArc
 50
90.0
 51
180.0
  0
ARC
  5
434
100
AcDbEntity
  8
0
100
AcDbCircle
 62
7
  6
CONTINUOUS
 10
12.1447160843
 20
4.0001565581
 40
0.01
100
AcDbArc
 50
180.0
 51
221.5034356405
  0
ARC
  5
435
100
AcDbEntity
  8
0
100
AcDbCircle
 62
7
  6
CONTINUOUS
 10
12.6947160843
 20
4.292391804
 40
0.7
100
AcDbArc
 50
161.180936631
 51
198.819063369
  0
ARC
  5
436
100
AcDbEntity
  8
0
100
AcDbCircle
 62
7
  6
CONTINUOUS
 10
12.4749880343
 20
5.039391804
 40
0.517
100
AcDbArc
 50
64.7853651812
 51
115.2146348188
  0
ARC
  5
437
100
AcDbEntity
  8
0
100
AcDbCircle
 62
7
  6
CONTINUOUS
 10
12.4749880343
 20
4.292391804
 40
0.451
100
AcDbArc
 50
113.370340497
 51
138.4965643543
  0
ARC
  5
438
100
AcDbEntity
  8
0
100
AcDbCircle
 62
7
  6
CONTINUOUS
 10
12.4749880343
 20
4.292391804
 40
0.451
100
AcDbArc
 50
36.933444909
 51
66.629659503
  0
ARC
  5
439
100
AcDbEntity
  8
0
100
AcDbCircle
 62
7
  6
CONTINUOUS
 10
12.4749880343
 20
4.292391804
 40
0.451
100
AcDbArc
 50
293.370340497
 51
323.066555091
  0
ARC
  5
43A
100
AcDbEntity
  8
0
100
AcDbCircle
 62
7
  6
CONTINUOUS
 10
12.4749880343
 20
4.292391804
 40
0.451
100
AcDbArc
 50
221.5034356457
 51
246.629659503
  0
CIRCLE
  5
43B
100
AcDbEntity
  8
0
100
AcDbCircle
 62
7
  6
CONTINUOUS
 10
12.4749880343
 20
4.292391804
 40
0.36
  0
ARC
  5
43C
100
AcDbEntity
  8
0
100
AcDbCircle
 62
7
  6
CONTINUOUS
 10
12.4749880343
 20
4.292391804
 40
0.36
100
AcDbArc
 50
270.0
 51
86.6037577634
  0
CIRCLE
  5
43D
100
AcDbEntity
  8
0
100
AcDbCircle
 62
9
  6
CONTINUOUS
 10
12.4749880343
 20
4.292391804
 40
0.312791662
  0
ARC
  5
43E
100
AcDbEntity
  8
0
100
AcDbCircle
 62
7
  6
CONTINUOUS
 10
12.1482380623
 20
5.7333107156
 40
0.25
100
AcDbArc
 50
273.2006734286
 51
295.2146348188
  0
CIRCLE
  5
43F
100
AcDbEntity
  8
0
100
AcDbCircle
 62
9
  6
CONTINUOUS
 10
12.4749880343
 20
4.292391804
 40
0.2202473736
  0
ARC
  5
440
100
AcDbEntity
  8
0
100
AcDbCircle
 62
7
  6
CONTINUOUS
 10
12.1078600542
 20
4.492391804
 40
0.08
100
AcDbArc
 50
90.0
 51
161.180936631
  0
ARC
  5
441
100
AcDbEntity
  8
0
100
AcDbCircle
 62
7
  6
CONTINUOUS
 10
12.1649880343
 20
5.4337786832
 40
0.05
100
AcDbArc
 50
93.2006734286
 51
180.0
  0
ARC
  5
442
100
AcDbEntity
  8
0
100
AcDbCircle
 62
7
  6
CONTINUOUS
 10
12.1649880343
 20
5.4188097067
 40
0.05
100
AcDbArc
 50
180.0
 51
246.3131006371
  0
ARC
  5
443
100
AcDbEntity
  8
0
100
AcDbCircle
 62
7
  6
CONTINUOUS
 10
12.6538221326
 20
4.8463748088
 40
0.04
100
AcDbArc
 50
271.6702677146
 51
346.0811997271
  0
ARC
  5
444
100
AcDbEntity
  8
0
100
AcDbCircle
 62
7
  6
CONTINUOUS
 10
12.296153936
 20
4.8463748088
 40
0.04
100
AcDbArc
 50
193.9188002729
 51
268.3297322856
  0
ARC
  5
445
100
AcDbEntity
  8
0
100
AcDbCircle
 62
7
  6
CONTINUOUS
 10
12.1288315783
 20
5.336391804
 40
0.04
100
AcDbArc
 50
6.0539076486
 51
66.3131006371
  0
ARC
  5
446
100
AcDbEntity
  8
0
100
AcDbCircle
 62
7
  6
CONTINUOUS
 10
12.1147160843
 20
4.552391804
 40
0.02
100
AcDbArc
 50
0.0
 51
90.0
  0
ARC
  5
447
100
AcDbEntity
  8
0
100
AcDbCircle
 62
7
  6
CONTINUOUS
 10
12.6449880343
 20
4.716391804
 40
0.01
100
AcDbArc
 50
270.0
 51
360.0
  0
ARC
  5
448
100
AcDbEntity
  8
0
100
AcDbCircle
 62
7
  6
CONTINUOUS
 10
12.3049880343
 20
4.716391804
 40
0.01
100
AcDbArc
 50
180.0
 51
270.0
  0
ARC
  5
449
100
AcDbEntity
  8
0
100
AcDbCircle
 62
7
  6
CONTINUOUS
 10
12.1447160843
 20
4.58462705
 40
0.01
100
AcDbArc
 50
138.4965643595
 51
180.0
  0
ARC
  5
44A
100
AcDbEntity
  8
0
100
AcDbCircle
 62
7
  6
CONTINUOUS
 10
12.8017380064
 20
2.8514728925
 40
0.25
100
AcDbArc
 50
93.2006734286
 51
115.2146348188
  0
ARC
  5
44B
100
AcDbEntity
  8
0
100
AcDbCircle
 62
7
  6
CONTINUOUS
 10
13.2254876876
 20
3.902391804
 40
0.06
100
AcDbArc
 50
180.0
 51
270.0
  0
ARC
  5
44C
100
AcDbEntity
  8
0
100
AcDbCircle
 62
7
  6
CONTINUOUS
 10
13.2303268907
 20
3.902391804
 40
0.06
100
AcDbArc
 50
269.9999991124
 51
326.6524271069
  0
ARC
  5
44D
100
AcDbEntity
  8
0
100
AcDbCircle
 62
7
  6
CONTINUOUS
 10
13.3305690368
 20
3.8364258117
 40
0.06
100
AcDbArc
 50
95.849386431
 51
146.6524271146
  0
ARC
  5
44E
100
AcDbEntity
  8
0
100
AcDbCircle
 62
7
  6
CONTINUOUS
 10
12.7849880343
 20
3.1510049249
 40
0.05
100
AcDbArc
 50
273.2006734286
 51
360.0
  0
ARC
  5
44F
100
AcDbEntity
  8
0
100
AcDbCircle
 62
7
  6
CONTINUOUS
 10
12.7849880343
 20
3.1659739013
 40
0.05
100
AcDbArc
 50
0.0
 51
66.3131006371
  0
ARC
  5
450
100
AcDbEntity
  8
0
100
AcDbCircle
 62
7
  6
CONTINUOUS
 10
12.8211444904
 20
3.248391804
 40
0.04
100
AcDbArc
 50
186.0539076486
 51
246.3131006371
  0
ARC
  5
451
100
AcDbEntity
  8
0
100
AcDbCircle
 62
7
  6
CONTINUOUS
 10
12.8017380064
 20
5.7333107156
 40
0.25
100
AcDbArc
 50
244.7853651812
 51
266.7993265714
  0
ARC
  5
452
100
AcDbEntity
  8
0
100
AcDbCircle
 62
7
  6
CONTINUOUS
 10
13.2254876876
 20
4.682391804
 40
0.06
100
AcDbArc
 50
90.0
 51
180.0
  0
ARC
  5
453
100
AcDbEntity
  8
0
100
AcDbCircle
 62
7
  6
CONTINUOUS
 10
13.2303268907
 20
4.682391804
 40
0.06
100
AcDbArc
 50
33.3475728867
 51
90.0000008682
  0
ARC
  5
454
100
AcDbEntity
  8
0
100
AcDbCircle
 62
7
  6
CONTINUOUS
 10
13.3305690368
 20
4.7483577963
 40
0.06
100
AcDbArc
 50
213.3475728944
 51
264.1506135687
  0
ARC
  5
455
100
AcDbEntity
  8
0
100
AcDbCircle
 62
7
  6
CONTINUOUS
 10
12.7849880343
 20
5.4337786832
 40
0.05
100
AcDbArc
 50
0.0
 51
86.7993265714
  0
ARC
  5
456
100
AcDbEntity
  8
0
100
AcDbCircle
 62
7
  6
CONTINUOUS
 10
12.7849880343
 20
5.4188097067
 40
0.05
100
AcDbArc
 50
293.6868993629
 51
360.0
  0
ARC
  5
457
100
AcDbEntity
  8
0
100
AcDbCircle
 62
7
  6
CONTINUOUS
 10
12.8211444904
 20
5.336391804
 40
0.04
100
AcDbArc
 50
113.6868993629
 51
173.9460923514
  0
ARC
  5
458
100
AcDbEntity
  8
0
100
AcDbCircle
 62
7
  6
CONTINUOUS
 10
10.2907376389
 20
10.7536511659
 40
0.5161948825
100
AcDbArc
 50
148.6709101015
 51
191.6112540042
  0
ARC
  5
459
100
AcDbEntity
  8
0
100
AcDbCircle
 62
7
  6
CONTINUOUS
 10
10.1047807065
 20
10.7154416235
 40
0.326352975
100
AcDbArc
 50
191.6112540042
 51
210.8782150372
  0
ARC
  5
45A
100
AcDbEntity
  8
0
100
AcDbCircle
 62
7
  6
CONTINUOUS
 10
9.7565395397
 20
10.5072033787
 40
0.0793995073
100
AcDbArc
 50
315.0
 51
30.8782150372
  0
ARC
  5
45B
100
AcDbEntity
  8
0
100
AcDbCircle
 62
7
  6
CONTINUOUS
 10
9.7278306559
 20
10.4369173131
 40
0.05
100
AcDbArc
 50
225.0
 51
315.0
  0
ARC
  5
45C
100
AcDbEntity
  8
0
100
AcDbCircle
 62
7
  6
CONTINUOUS
 10
8.9019675327
 20
12.5092766988
 40
1.0
100
AcDbArc
 50
227.450981949
 51
234.3726808699
  0
ARC
  5
45D
100
AcDbEntity
  8
0
100
AcDbCircle
 62
7
  6
CONTINUOUS
 10
9.2072850879
 20
12.233926819
 40
1.0
100
AcDbArc
 50
228.457733532
 51
232.2216863957
  0
ARC
  5
45E
100
AcDbEntity
  8
0
100
AcDbCircle
 62
7
  6
CONTINUOUS
 10
8.4355902274
 20
11.5523810463
 40
0.015
100
AcDbArc
 50
139.2891533288
 51
225.0
  0
ARC
  5
45F
100
AcDbEntity
  8
0
100
AcDbCircle
 62
7
  6
CONTINUOUS
 10
8.4936901816
 20
11.494281092
 40
0.015
100
AcDbArc
 50
225.0
 51
310.7108466712
  0
ARC
  5
460
100
AcDbEntity
  8
0
100
AcDbCircle
 62
7
  6
CONTINUOUS
 10
8.3171617828
 20
11.6708094908
 40
0.015
100
AcDbArc
 50
139.2891533288
 51
225.0
  0
ARC
  5
461
100
AcDbEntity
  8
0
100
AcDbCircle
 62
7
  6
CONTINUOUS
 10
8.3752617371
 20
11.6127095366
 40
0.015
100
AcDbArc
 50
225.0
 51
310.7108466712
  0
ARC
  5
462
100
AcDbEntity
  8
0
100
AcDbCircle
 62
7
  6
CONTINUOUS
 10
8.8341062836
 20
11.1962913969
 40
0.015
100
AcDbArc
 50
225.0
 51
310.7108466712
  0
ARC
  5
463
100
AcDbEntity
  8
0
100
AcDbCircle
 62
7
  6
CONTINUOUS
 10
8.7316732234
 20
11.2987244571
 40
0.015
100
AcDbArc
 50
139.2891533288
 51
225.0
  0
ARC
  5
464
100
AcDbEntity
  8
0
100
AcDbCircle
 62
7
  6
CONTINUOUS
 10
8.7897731777
 20
11.2406245028
 40
0.015
100
AcDbArc
 50
225.0
 51
310.7108466712
  0
ARC
  5
465
100
AcDbEntity
  8
0
100
AcDbCircle
 62
7
  6
CONTINUOUS
 10
8.6016951336
 20
11.4287025469
 40
0.015
100
AcDbArc
 50
139.2891533288
 51
225.0
  0
ARC
  5
466
100
AcDbEntity
  8
0
100
AcDbCircle
 62
7
  6
CONTINUOUS
 10
8.6597950879
 20
11.3706025926
 40
0.015
100
AcDbArc
 50
225.0
 51
310.7108466712
  0
ARC
  5
467
100
AcDbEntity
  8
0
100
AcDbCircle
 62
7
  6
CONTINUOUS
 10
8.3949298519
 20
11.6354678286
 40
0.015
100
AcDbArc
 50
139.2891533288
 51
225.0
  0
ARC
  5
468
100
AcDbEntity
  8
0
100
AcDbCircle
 62
7
  6
CONTINUOUS
 10
8.4530298062
 20
11.5773678743
 40
0.015
100
AcDbArc
 50
225.0
 51
310.7108466712
  0
ARC
  5
469
100
AcDbEntity
  8
0
100
AcDbCircle
 62
7
  6
CONTINUOUS
 10
9.0960178994
 20
10.9838772559
 40
0.015
100
AcDbArc
 50
191.569066038
 51
225.0
  0
ARC
  5
46A
100
AcDbEntity
  8
0
100
AcDbCircle
 62
7
  6
CONTINUOUS
 10
9.1541178537
 20
10.9257773016
 40
0.015
100
AcDbArc
 50
225.0
 51
310.7108466712
  0
ARC
  5
46B
100
AcDbEntity
  8
0
100
AcDbCircle
 62
7
  6
CONTINUOUS
 10
9.0262502114
 20
11.0536449438
 40
0.015
100
AcDbArc
 50
139.2891533288
 51
225.0
  0
ARC
  5
46C
100
AcDbEntity
  8
0
100
AcDbCircle
 62
7
  6
CONTINUOUS
 10
9.0843501657
 20
10.9955449895
 40
0.015
100
AcDbArc
 50
225.0
 51
310.7108466712
  0
ARC
  5
46D
100
AcDbEntity
  8
0
100
AcDbCircle
 62
7
  6
CONTINUOUS
 10
8.8897640183
 20
11.1901311369
 40
0.015
100
AcDbArc
 50
139.2891533288
 51
225.0
  0
ARC
  5
46E
100
AcDbEntity
  8
0
100
AcDbCircle
 62
7
  6
CONTINUOUS
 10
8.9478639726
 20
11.1320311826
 40
0.015
100
AcDbArc
 50
225.0
 51
310.7108466712
  0
ARC
  5
46F
100
AcDbEntity
  8
0
100
AcDbCircle
 62
7
  6
CONTINUOUS
 10
8.6925244216
 20
11.3873707337
 40
0.015
100
AcDbArc
 50
139.2891533288
 51
225.0
  0
ARC
  5
470
100
AcDbEntity
  8
0
100
AcDbCircle
 62
7
  6
CONTINUOUS
 10
8.7506243758
 20
11.3292707794
 40
0.015
100
AcDbArc
 50
225.0
 51
310.7108466712
  0
ARC
  5
471
100
AcDbEntity
  8
0
100
AcDbCircle
 62
7
  6
CONTINUOUS
 10
8.443151738
 20
11.6367434172
 40
0.015
100
AcDbArc
 50
139.2891533288
 51
225.0
  0
ARC
  5
472
100
AcDbEntity
  8
0
100
AcDbCircle
 62
7
  6
CONTINUOUS
 10
8.5012516923
 20
11.5786434629
 40
0.015
100
AcDbArc
 50
225.0
 51
310.7108466712
  0
ARC
  5
473
100
AcDbEntity
  8
0
100
AcDbCircle
 62
7
  6
CONTINUOUS
 10
8.601792551
 20
12.7897037567
 40
1.0
100
AcDbArc
 50
226.4451003487
 51
232.8502460387
  0
ARC
  5
474
100
AcDbEntity
  8
0
100
AcDbCircle
 62
7
  6
CONTINUOUS
 10
8.9226271184
 20
13.9450651408
 40
0.489
100
AcDbArc
 50
346.9446467099
 51
356.3921281075
  0
ARC
  5
475
100
AcDbEntity
  8
0
100
AcDbCircle
 62
7
  6
CONTINUOUS
 10
8.9226271184
 20
13.9450651408
 40
0.489
100
AcDbArc
 50
93.6078718925
 51
103.0553532901
  0
ARC
  5
476
100
AcDbEntity
  8
0
100
AcDbCircle
 62
7
  6
CONTINUOUS
 10
9.1548212923
 20
14.5301055985
 40
0.188
100
AcDbArc
 50
135.0
 51
180.0
  0
ARC
  5
477
100
AcDbEntity
  8
0
100
AcDbCircle
 62
7
  6
CONTINUOUS
 10
9.349528528
 20
13.5191957723
 40
0.187
100
AcDbArc
 50
352.428005543
 51
10.096741672
  0
ARC
  5
478
100
AcDbEntity
  8
0
100
AcDbCircle
 62
7
  6
CONTINUOUS
 10
9.349528528
 20
13.5191957723
 40
0.187
100
AcDbArc
 50
259.903258328
 51
277.571994457
  0
ARC
  5
479
100
AcDbEntity
  8
0
100
AcDbCircle
 62
7
  6
CONTINUOUS
 10
8.4967577499
 20
14.3719665504
 40
0.187
100
AcDbArc
 50
79.903258328
 51
97.571994457
  0
ARC
  5
47A
100
AcDbEntity
  8
0
100
AcDbCircle
 62
7
  6
CONTINUOUS
 10
8.4967577499
 20
14.3719665504
 40
0.187
100
AcDbArc
 50
172.428005543
 51
190.096741672
  0
ARC
  5
47B
100
AcDbEntity
  8
0
100
AcDbCircle
 62
7
  6
CONTINUOUS
 10
9.1849633449
 20
13.2213131204
 40
0.125
100
AcDbArc
 50
17.1613116085
 51
45.0
  0
ARC
  5
47C
100
AcDbEntity
  8
0
100
AcDbCircle
 62
7
  6
CONTINUOUS
 10
8.8868212923
 20
14.5129374353
 40
0.08
100
AcDbArc
 50
273.6078718925
 51
360.0
  0
ARC
  5
47D
100
AcDbEntity
  8
0
100
AcDbCircle
 62
7
  6
CONTINUOUS
 10
8.6035308738
 20
14.5452077118
 40
0.06
100
AcDbArc
 50
45.0
 51
135.0
  0
ARC
  5
47E
100
AcDbEntity
  8
0
100
AcDbCircle
 62
7
  6
CONTINUOUS
 10
9.517760976
 20
11.9636696766
 40
1.0
100
AcDbArc
 50
229.4656691658
 51
230.0917948213
  0
ARC
  5
47F
100
AcDbEntity
  8
0
100
AcDbCircle
 62
7
  6
CONTINUOUS
 10
9.4326787458
 20
12.0367787865
 40
1.0
100
AcDbArc
 50
225.0
 51
225.5629873164
  0
ARC
  5
480
100
AcDbEntity
  8
0
100
AcDbCircle
 62
7
  6
CONTINUOUS
 10
10.4629006686
 20
11.5444164521
 40
0.315
100
AcDbArc
 50
165.8460952941
 51
206.6723366731
  0
ARC
  5
481
100
AcDbEntity
  8
0
100
AcDbCircle
 62
7
  6
CONTINUOUS
 10
10.1386596958
 20
11.7033455582
 40
0.03
100
AcDbArc
 50
135.0
 51
224.9999999999
  0
ARC
  5
482
100
AcDbEntity
  8
0
100
AcDbCircle
 62
7
  6
CONTINUOUS
 10
10.1108857657
 20
11.7604244419
 40
0.03
100
AcDbArc
 50
315.0
 51
41.4158169898
  0
ARC
  5
483
100
AcDbEntity
  8
0
100
AcDbCircle
 62
7
  6
CONTINUOUS
 10
10.1283740442
 20
11.628778396
 40
0.03
100
AcDbArc
 50
345.8460953016
 51
45.0
  0
ARC
  5
484
100
AcDbEntity
  8
0
100
AcDbCircle
 62
7
  6
CONTINUOUS
 10
10.1546127318
 20
11.3895502259
 40
0.03
100
AcDbArc
 50
316.7252548757
 51
26.6723366752
  0
ARC
  5
485
100
AcDbEntity
  8
0
100
AcDbCircle
 62
7
  6
CONTINUOUS
 10
9.5076675761
 20
14.1772593146
 40
0.188
100
AcDbArc
 50
270.0
 51
315.0
  0
ARC
  5
486
100
AcDbEntity
  8
0
100
AcDbCircle
 62
7
  6
CONTINUOUS
 10
9.9701810695
 20
14.2904620582
 40
0.136
100
AcDbArc
 50
248.1651236837
 51
262.8771594229
  0
ARC
  5
487
100
AcDbEntity
  8
0
100
AcDbCircle
 62
7
  6
CONTINUOUS
 10
9.9701810695
 20
14.2904620582
 40
0.136
100
AcDbArc
 50
7.1228405771
 51
21.8348763163
  0
ARC
  5
488
100
AcDbEntity
  8
0
100
AcDbCircle
 62
7
  6
CONTINUOUS
 10
9.4904994129
 20
13.9092593146
 40
0.08
100
AcDbArc
 50
90.0
 51
176.3921281075
  0
ARC
  5
489
100
AcDbEntity
  8
0
100
AcDbCircle
 62
7
  6
CONTINUOUS
 10
9.5227696894
 20
13.6259688962
 40
0.06
100
AcDbArc
 50
315.0
 51
45.0
  0
ARC
  5
48A
100
AcDbEntity
  8
0
100
AcDbCircle
 62
7
  6
CONTINUOUS
 10
9.841865934
 20
14.1147707683
 40
0.02
100
AcDbArc
 50
225.0
 51
315.0
  0
ARC
  5
48B
100
AcDbEntity
  8
0
100
AcDbCircle
 62
7
  6
CONTINUOUS
 10
10.1459218499
 20
14.4188266842
 40
0.02
100
AcDbArc
 50
315.0
 51
45.0
  0
ARC
  5
48C
100
AcDbEntity
  8
0
100
AcDbCircle
 62
7
  6
CONTINUOUS
 10
13.7788878551
 20
9.1244532292
 40
4.459
100
AcDbArc
 50
264.150613569
 51
279.2632522166
  0
ARC
  5
48D
100
AcDbEntity
  8
0
100
AcDbCircle
 62
7
  6
CONTINUOUS
 10
13.2761623218
 20
7.1303348873
 40
2.63
100
AcDbArc
 50
313.6426919198
 51
318.7314307292
  0
ARC
  5
48E
100
AcDbEntity
  8
0
100
AcDbCircle
 62
7
  6
CONTINUOUS
 10
13.1578636718
 20
14.4481921031
 40
4.0330246567
100
AcDbArc
 50
197.1613116084
 51
221.415816989
  0
ARC
  5
48F
100
AcDbEntity
  8
0
100
AcDbCircle
 62
7
  6
CONTINUOUS
 10
12.3054876876
 20
13.792391804
 40
2.90625
100
AcDbArc
 50
90.0
 51
135.0
  0
ARC
  5
490
100
AcDbEntity
  8
0
100
AcDbCircle
 62
7
  6
CONTINUOUS
 10
12.3054876876
 20
13.792391804
 40
2.09375
100
AcDbArc
 50
90.0
 51
135.0
  0
ARC
  5
491
100
AcDbEntity
  8
0
100
AcDbCircle
 62
7
  6
CONTINUOUS
 10
9.4257540807
 20
18.1803016942
 40
4.0330246567
100
AcDbArc
 50
228.584183011
 51
252.8386883916
  0
ARC
  5
492
100
AcDbEntity
  8
0
100
AcDbCircle
 62
7
  6
CONTINUOUS
 10
5.7312131435
 20
15.3131756613
 40
0.5161948825
100
AcDbArc
 50
258.3887459958
 51
301.3290898985
  0
ARC
  5
493
100
AcDbEntity
  8
0
100
AcDbCircle
 62
7
  6
CONTINUOUS
 10
5.6930036011
 20
15.1272187289
 40
0.326352975
100
AcDbArc
 50
239.1217849628
 51
258.3887459958
  0
ARC
  5
494
100
AcDbEntity
  8
0
100
AcDbCircle
 62
7
  6
CONTINUOUS
 10
6.5219784297
 20
15.485338691
 40
0.315
100
AcDbArc
 50
243.3276633269
 51
284.1539047059
  0
ARC
  5
495
100
AcDbEntity
  8
0
100
AcDbCircle
 62
7
  6
CONTINUOUS
 10
9.2680240358
 20
14.9926190919
 40
0.136
100
AcDbArc
 50
187.1228405771
 51
201.8348763163
  0
ARC
  5
496
100
AcDbEntity
  8
0
100
AcDbCircle
 62
7
  6
CONTINUOUS
 10
9.2680240358
 20
14.9926190919
 40
0.136
100
AcDbArc
 50
68.1651236837
 51
82.8771594229
  0
ARC
  5
497
100
AcDbEntity
  8
0
100
AcDbCircle
 62
7
  6
CONTINUOUS
 10
5.4847653563
 20
14.778977562
 40
0.0793995073
100
AcDbArc
 50
59.1217849628
 51
135.0
  0
ARC
  5
498
100
AcDbEntity
  8
0
100
AcDbCircle
 62
7
  6
CONTINUOUS
 10
5.4144792907
 20
14.7502686783
 40
0.05
100
AcDbArc
 50
135.0
 51
225.0
  0
ARC
  5
499
100
AcDbEntity
  8
0
100
AcDbCircle
 62
7
  6
CONTINUOUS
 10
6.6809075358
 20
15.1610977182
 40
0.03
100
AcDbArc
 50
225.0000000001
 51
315.0
  0
ARC
  5
49A
100
AcDbEntity
  8
0
100
AcDbCircle
 62
7
  6
CONTINUOUS
 10
6.7379864195
 20
15.1333237881
 40
0.03
100
AcDbArc
 50
48.5841830102
 51
135.0
  0
ARC
  5
49B
100
AcDbEntity
  8
0
100
AcDbCircle
 62
7
  6
CONTINUOUS
 10
6.6063403736
 20
15.1508120666
 40
0.03
100
AcDbArc
 50
45.0
 51
104.1539046984
  0
ARC
  5
49C
100
AcDbEntity
  8
0
100
AcDbCircle
 62
7
  6
CONTINUOUS
 10
6.3671122035
 20
15.1770507542
 40
0.03
100
AcDbArc
 50
63.3276633248
 51
133.2747451243
  0
ARC
  5
49D
100
AcDbEntity
  8
0
100
AcDbCircle
 62
7
  6
CONTINUOUS
 10
9.0923327459
 20
14.8643039564
 40
0.02
100
AcDbArc
 50
135.0
 51
225.0
  0
ARC
  5
49E
100
AcDbEntity
  8
0
100
AcDbCircle
 62
7
  6
CONTINUOUS
 10
9.3963886618
 20
15.1683598723
 40
0.02
100
AcDbArc
 50
45.0
 51
135.0
  0
ARC
  5
49F
100
AcDbEntity
  8
0
100
AcDbCircle
 62
7
  6
CONTINUOUS
 10
15.8778066951
 20
5.7339915691
 40
3.73
100
AcDbArc
 50
186.0539076486
 51
193.9188002729
  0
ARC
  5
4A0
100
AcDbEntity
  8
0
100
AcDbCircle
 62
7
  6
CONTINUOUS
 10
15.8778066951
 20
2.850792039
 40
3.73
100
AcDbArc
 50
166.0811997271
 51
173.9460923514
  0
ARC
  5
4A1
100
AcDbEntity
  8
0
100
AcDbCircle
 62
7
  6
CONTINUOUS
 10
15.4356276753
 20
4.323391804
 40
0.93
100
AcDbArc
 50
128.8538919419
 51
149.3576548026
  0
ARC
  5
4A2
100
AcDbEntity
  8
0
100
AcDbCircle
 62
7
  6
CONTINUOUS
 10
15.4356276753
 20
4.261391804
 40
0.93
100
AcDbArc
 50
210.6423451974
 51
231.1461080581
  0
ARC
  5
4A3
100
AcDbEntity
  8
0
100
AcDbCircle
 62
7
  6
CONTINUOUS
 10
15.3780000748
 20
8.0127028263
 40
0.425
100
AcDbArc
 50
285.2096500848
 51
354.2823779725
  0
ARC
  5
4A4
100
AcDbEntity
  8
0
100
AcDbCircle
 62
7
  6
CONTINUOUS
 10
15.3780000748
 20
0.5720807818
 40
0.425
100
AcDbArc
 50
5.7176220275
 51
74.7903499152
  0
ARC
  5
4A5
100
AcDbEntity
  8
0
100
AcDbCircle
 62
7
  6
CONTINUOUS
 10
15.8804876876
 20
7.962391804
 40
0.08
100
AcDbArc
 50
90.0
 51
174.2823779725
  0
ARC
  5
4A6
100
AcDbEntity
  8
0
100
AcDbCircle
 62
7
  6
CONTINUOUS
 10
15.8804876876
 20
0.622391804
 40
0.08
100
AcDbArc
 50
185.7176220275
 51
270.0
  0
ARC
  5
4A7
100
AcDbEntity
  8
0
100
AcDbCircle
 62
7
  6
CONTINUOUS
 10
15.5104876876
 20
7.525391804
 40
0.08
100
AcDbArc
 50
105.2096500848
 51
180.0
  0
ARC
  5
4A8
100
AcDbEntity
  8
0
100
AcDbCircle
 62
7
  6
CONTINUOUS
 10
15.5104876876
 20
1.059391804
 40
0.08
100
AcDbArc
 50
180.0
 51
254.7903499152
  0
ARC
  5
4A9
100
AcDbEntity
  8
0
100
AcDbCircle
 62
7
  6
CONTINUOUS
 10
14.9222098134
 20
5.0540865596
 40
0.07
100
AcDbArc
 50
129.0
 51
180.0
  0
ARC
  5
4AA
100
AcDbEntity
  8
0
100
AcDbCircle
 62
7
  6
CONTINUOUS
 10
14.9222098134
 20
3.5306970485
 40
0.07
100
AcDbArc
 50
180.0
 51
231.0
  0
ARC
  5
4AB
100
AcDbEntity
  8
0
100
AcDbCircle
 62
7
  6
CONTINUOUS
 10
14.4869986174
 20
3.8019637292
 40
0.06
100
AcDbArc
 50
14.1325726664
 51
80.7367477834
  0
ARC
  5
4AC
100
AcDbEntity
  8
0
100
AcDbCircle
 62
7
  6
CONTINUOUS
 10
14.4869986174
 20
4.7828198789
 40
0.06
100
AcDbArc
 50
279.2632522166
 51
345.8674273336
  0
ARC
  5
4AD
100
AcDbEntity
  8
0
100
AcDbCircle
 62
7
  6
CONTINUOUS
 10
14.5994876876
 20
3.8302870252
 40
0.056
100
AcDbArc
 50
194.1325726664
 51
310.0052008849
  0
ARC
  5
4AE
100
AcDbEntity
  8
0
100
AcDbCircle
 62
7
  6
CONTINUOUS
 10
14.5994876876
 20
4.7544965829
 40
0.056
100
AcDbArc
 50
49.9947991151
 51
165.8674273336
  0
ARC
  5
4AF
100
AcDbEntity
  8
0
100
AcDbCircle
 62
7
  6
CONTINUOUS
 10
15.0354709887
 20
3.418391804
 40
0.054
100
AcDbArc
 50
231.0
 51
287.4595175183
  0
ARC
  5
4B0
100
AcDbEntity
  8
0
100
AcDbCircle
 62
7
  6
CONTINUOUS
 10
15.0354709887
 20
5.166391804
 40
0.054
100
AcDbArc
 50
72.5404824817
 51
129.0
  0
ARC
  5
4B1
100
AcDbEntity
  8
0
100
AcDbCircle
 62
7
  6
CONTINUOUS
 10
15.0636739848
 20
3.3287224614
 40
0.04
100
AcDbArc
 50
46.35730808
 51
107.4595175185
  0
ARC
  5
4B2
100
AcDbEntity
  8
0
100
AcDbCircle
 62
7
  6
CONTINUOUS
 10
15.0636739848
 20
5.2560611467
 40
0.04
100
AcDbArc
 50
252.5404824815
 51
313.64269192
  0
ARC
  5
4B3
100
AcDbEntity
  8
0
100
AcDbCircle
 62
7
  6
CONTINUOUS
 10
15.2754876876
 20
5.3758269558
 40
0.03
100
AcDbArc
 50
0.0
 51
138.7314307293
  0
ARC
  5
4B4
100
AcDbEntity
  8
0
100
AcDbCircle
 62
7
  6
CONTINUOUS
 10
15.2754876876
 20
3.2089566523
 40
0.03
100
AcDbArc
 50
221.2685692707
 51
360.0
  0
ARC
  5
4B5
100
AcDbEntity
  8
0
100
AcDbCircle
 62
7
  6
CONTINUOUS
 10
15.4104876876
 20
6.0493749415
 40
0.02
100
AcDbArc
 50
271.5
 51
360.0
  0
ARC
  5
4B6
100
AcDbEntity
  8
0
100
AcDbCircle
 62
7
  6
CONTINUOUS
 10
15.4104876876
 20
2.5354086666
 40
0.02
100
AcDbArc
 50
0.0
 51
88.5
  0
ARC
  5
4B7
100
AcDbEntity
  8
0
100
AcDbCircle
 62
7
  6
CONTINUOUS
 10
24.7248078705
 20
29.7472458929
 40
24.3989285714
100
AcDbArc
 50
226.2854429774
 51
226.4451003487
  0
ARC
  5
4B8
100
AcDbEntity
  8
0
100
AcDbCircle
 62
7
  6
CONTINUOUS
 10
24.7248078705
 20
29.7472458929
 40
24.3989285714
100
AcDbArc
 50
228.3995135595
 51
228.457733532
  0
ARC
  5
4B9
100
AcDbEntity
  8
0
100
AcDbCircle
 62
7
  6
CONTINUOUS
 10
24.7248078705
 20
29.7472458929
 40
24.3989285714
100
AcDbArc
 50
223.5548996513
 51
223.7145570226
  0
ARC
  5
4BA
100
AcDbEntity
  8
0
100
AcDbCircle
 62
7
  6
CONTINUOUS
 10
24.7248078705
 20
29.7472458929
 40
24.3989285714
100
AcDbArc
 50
221.542266468
 51
221.6004864405
  0
ARC
  5
4BB
100
AcDbEntity
  8
0
100
AcDbCircle
 62
7
  6
CONTINUOUS
 10
15.4197912071
 20
15.0553448836
 40
0.48
100
AcDbArc
 50
15.3827535349
 51
57.5400965127
  0
ARC
  5
4BC
100
AcDbEntity
  8
0
100
AcDbCircle
 62
7
  6
CONTINUOUS
 10
15.4197912071
 20
17.5294387245
 40
0.48
100
AcDbArc
 50
302.4599034873
 51
344.6172464651
  0
ARC
  5
4BD
100
AcDbEntity
  8
0
100
AcDbCircle
 62
7
  6
CONTINUOUS
 10
15.7954876876
 20
15.6459819588
 40
0.22
100
AcDbArc
 50
180.0
 51
237.5400965127
  0
ARC
  5
4BE
100
AcDbEntity
  8
0
100
AcDbCircle
 62
7
  6
CONTINUOUS
 10
15.7954876876
 20
16.9388016493
 40
0.22
100
AcDbArc
 50
122.4599034873
 51
180.0
  0
ARC
  5
4BF
100
AcDbEntity
  8
0
100
AcDbCircle
 62
7
  6
CONTINUOUS
 10
15.9404458664
 20
15.1985884725
 40
0.06
100
AcDbArc
 50
195.3827535348
 51
255.718904264
  0
ARC
  5
4C0
100
AcDbEntity
  8
0
100
AcDbCircle
 62
7
  6
CONTINUOUS
 10
15.9404458664
 20
17.3861951356
 40
0.06
100
AcDbArc
 50
104.281095736
 51
164.6172464652
  0
SPLINE
  5
4C1
100
AcDbEntity
  8
0
100
AcDbSpline
 62
7
  6
CONTINUOUS
 70
0
 71
3
 72
23
 73
19
 74
0
 42
0.0000001
 43
0.0000001
 44
0.0000000001
 40
0.0
 40
0.0
 40
0.0
 40
0.0
 40
0.0504957751
 40
0.1051210421
 40
0.1637061911
 40
0.2259451553
 40
0.2913802217
 40
0.3593951444
 40
0.4292274992
 40
0.5
 40
0.5707725009
 40
0.6406048556
 40
0.7086197783
 40
0.7740548447
 40
0.8362938089
 40
0.8948789579
 40
0.9495042249
 40
1.0
 40
1.0
 40
1.0
 40
1.0
 10
9.2535497249
 20
13.4544465442
 30
0.0
 10
9.2565297929
 20
13.4568549577
 30
0.0
 10
9.2626889639
 20
13.461924189
 30
0.0
 10
9.2721565506
 20
13.4699666803
 30
0.0
 10
9.2821787146
 20
13.4787305722
 30
0.0
 10
9.2926930543
 20
13.4881757102
 30
0.0
 10
9.3036136043
 20
13.4982375813
 30
0.0
 10
9.3148309774
 20
13.5088259501
 30
0.0
 10
9.3262151155
 20
13.5198260801
 30
0.0
 10
9.3376212478
 20
13.5311030524
 30
0.0
 10
9.3488982201
 20
13.5425091847
 30
0.0
 10
9.3598983502
 20
13.5538933228
 30
0.0
 10
9.3704867189
 20
13.5651106959
 30
0.0
 10
9.38054859
 20
13.576031246
 30
0.0
 10
9.389993728
 20
13.5865455857
 30
0.0
 10
9.3987576199
 20
13.5965677497
 30
0.0
 10
9.4068001112
 20
13.6060353364
 30
0.0
 10
9.4118693425
 20
13.6121945074
 30
0.0
 10
9.414277756
 20
13.6151745754
 30
0.0
  0
SPLINE
  5
4C2
100
AcDbEntity
  8
0
100
AcDbSpline
 62
7
  6
CONTINUOUS
 70
0
 71
3
 72
23
 73
19
 74
0
 42
0.0000001
 43
0.0000001
 44
0.0000000001
 40
0.0
 40
0.0
 40
0.0
 40
0.0
 40
0.0509744488
 40
0.1058959054
 40
0.1646157462
 40
0.2268499211
 40
0.2921645198
 40
0.359969323
 40
0.4295301926
 40
0.5
 40
0.5704698074
 40
0.640030677
 40
0.7078354802
 40
0.7731500789
 40
0.8353842538
 40
0.8941040946
 40
0.9490255512
 40
1.0
 40
1.0
 40
1.0
 40
1.0
 10
9.284614381
 20
13.4233818881
 30
0.0
 10
9.2878695544
 20
13.4255020367
 30
0.0
 10
9.2945566613
 20
13.4300228742
 30
0.0
 10
9.3047335808
 20
13.4373615343
 30
0.0
 10
9.3153821341
 20
13.445504264
 30
0.0
 10
9.3264288815
 20
13.4544218634
 30
0.0
 10
9.3377773496
 20
13.4640604813
 30
0.0
 10
9.3493087144
 20
13.4743393763
 30
0.0
 10
9.3608853775
 20
13.4851514191
 30
0.0
 10
9.372357717
 20
13.4963665833
 30
0.0
 10
9.3835728811
 20
13.5078389227
 30
0.0
 10
9.3943849239
 20
13.5194155858
 30
0.0
 10
9.4046638189
 20
13.5309469506
 30
0.0
 10
9.4143024369
 20
13.5422954188
 30
0.0
 10
9.4232200363
 20
13.5533421661
 30
0.0
 10
9.4313627659
 20
13.5639907194
 30
0.0
 10
9.4387014261
 20
13.574167639
 30
0.0
 10
9.4432222635
 20
13.5808547458
 30
0.0
 10
9.4453424121
 20
13.5841099193
 30
0.0
  0
SPLINE
  5
4C3
100
AcDbEntity
  8
0
100
AcDbSpline
 62
7
  6
CONTINUOUS
 70
0
 71
3
 72
23
 73
19
 74
0
 42
0.0000001
 43
0.0000001
 44
0.0000000001
 40
0.0
 40
0.0
 40
0.0
 40
0.0
 40
0.0517273468
 40
0.1071179712
 40
0.1660533401
 40
0.228282358
 40
0.293407801
 40
0.3608803196
 40
0.4300106972
 40
0.5
 40
0.5699893028
 40
0.6391196804
 40
0.706592199
 40
0.771717642
 40
0.8339466599
 40
0.8928820288
 40
0.9482726532
 40
1.0
 40
1.0
 40
1.0
 40
1.0
 10
9.311423922
 20
13.3965723471
 30
0.0
 10
9.3149430494
 20
13.3984088127
 30
0.0
 10
9.3221391564
 20
13.4023888727
 30
0.0
 10
9.3330143498
 20
13.4090369409
 30
0.0
 10
9.3442796609
 20
13.4165705565
 30
0.0
 10
9.355850773
 20
13.4249711902
 30
0.0
 10
9.3676209425
 20
13.4341953923
 30
0.0
 10
9.3794620969
 20
13.4441716953
 30
0.0
 10
9.3912292516
 20
13.4548004052
 30
0.0
 10
9.4027680254
 20
13.4659562749
 30
0.0
 10
9.4139238951
 20
13.4774950487
 30
0.0
 10
9.4245526049
 20
13.4892622033
 30
0.0
 10
9.4345289079
 20
13.5011033577
 30
0.0
 10
9.44375311
 20
13.5128735273
 30
0.0
 10
9.4521537437
 20
13.5244446393
 30
0.0
 10
9.4596873594
 20
13.5357099505
 30
0.0
 10
9.4663354275
 20
13.5465851438
 30
0.0
 10
9.4703154875
 20
13.5537812508
 30
0.0
 10
9.4721519531
 20
13.5573003783
 30
0.0
  0
SPLINE
  5
4C4
100
AcDbEntity
  8
0
100
AcDbSpline
 62
7
  6
CONTINUOUS
 70
0
 71
3
 72
23
 73
19
 74
0
 42
0.0000001
 43
0.0000001
 44
0.0000000001
 40
0.0
 40
0.0
 40
0.0
 40
0.0
 40
0.0526961062
 40
0.1086962198
 40
0.1679154935
 40
0.2301422172
 40
0.2950249466
 40
0.3620667403
 40
0.4306369365
 40
0.5
 40
0.5693630635
 40
0.6379332597
 40
0.7049750534
 40
0.7698577828
 40
0.8320845065
 40
0.8913037802
 40
0.9473038938
 40
1.0
 40
1.0
 40
1.0
 40
1.0
 10
9.3337201574
 20
13.3742761117
 30
0.0
 10
9.3374902764
 20
13.3758378161
 30
0.0
 10
9.3451720819
 20
13.3792920826
 30
0.0
 10
9.3567271811
 20
13.3852684633
 30
0.0
 10
9.3685933372
 20
13.3922100336
 30
0.0
 10
9.3806755625
 20
13.4001085797
 30
0.0
 10
9.3928570939
 20
13.4089306796
 30
0.0
 10
9.4050008326
 20
13.4186138171
 30
0.0
 10
9.416954586
 20
13.4290654694
 30
0.0
 10
9.4285593135
 20
13.4401649868
 30
0.0
 10
9.4396588308
 20
13.4517697142
 30
0.0
 10
9.4501104831
 20
13.4637234676
 30
0.0
 10
9.4597936206
 20
13.4758672064
 30
0.0
 10
9.4686157205
 20
13.4880487378
 30
0.0
 10
9.4765142666
 20
13.5001309631
 30
0.0
 10
9.4834558369
 20
13.5119971191
 30
0.0
 10
9.4894322176
 20
13.5235522184
 30
0.0
 10
9.4928864841
 20
13.5312340239
 30
0.0
 10
9.4944481886
 20
13.5350041428
 30
0.0
  0
SPLINE
  5
4C5
100
AcDbEntity
  8
0
100
AcDbSpline
 62
7
  6
CONTINUOUS
 70
0
 71
3
 72
23
 73
19
 74
0
 42
0.0000001
 43
0.0000001
 44
0.0000000001
 40
0.0
 40
0.0
 40
0.0
 40
0.0
 40
0.0538135836
 40
0.1105246567
 40
0.1700805753
 40
0.232310841
 40
0.2969147012
 40
0.3634553053
 40
0.4313705497
 40
0.5
 40
0.5686294503
 40
0.6365446947
 40
0.7030852988
 40
0.767689159
 40
0.8299194247
 40
0.8894753433
 40
0.9461864164
 40
1.0
 40
1.0
 40
1.0
 40
1.0
 10
9.3512883623
 20
13.3567079068
 30
0.0
 10
9.3552953034
 20
13.358007423
 30
0.0
 10
9.3634360774
 20
13.3609576811
 30
0.0
 10
9.3756452886
 20
13.3662872512
 30
0.0
 10
9.3880899767
 20
13.372659001
 30
0.0
 10
9.4006647602
 20
13.3800746599
 30
0.0
 10
9.4132431242
 20
13.3885104065
 30
0.0
 10
9.4256791923
 20
13.3979122866
 30
0.0
 10
9.4378137528
 20
13.4081946149
 30
0.0
 10
9.4494832029
 20
13.4192410974
 30
0.0
 10
9.4605296853
 20
13.4309105474
 30
0.0
 10
9.4708120137
 20
13.443045108
 30
0.0
 10
9.4802138937
 20
13.455481176
 30
0.0
 10
9.4886496403
 20
13.46805954
 30
0.0
 10
9.4960652992
 20
13.4806343235
 30
0.0
 10
9.502437049
 20
13.4930790117
 30
0.0
 10
9.5077666191
 20
13.5052882229
 30
0.0
 10
9.5107168772
 20
13.5134289969
 30
0.0
 10
9.5120163934
 20
13.5174359379
 30
0.0
  0
SPLINE
  5
4C6
100
AcDbEntity
  8
0
100
AcDbSpline
 62
7
  6
CONTINUOUS
 70
0
 71
3
 72
23
 73
19
 74
0
 42
0.0000001
 43
0.0000001
 44
0.0000000001
 40
0.0
 40
0.0
 40
0.0
 40
0.0
 40
0.0550125142
 40
0.112495502
 40
0.1724234458
 40
0.2346650485
 40
0.298971255
 40
0.3649690954
 40
0.4321711657
 40
0.5
 40
0.5678288343
 40
0.6350309046
 40
0.701028745
 40
0.7653349515
 40
0.8275765542
 40
0.887504498
 40
0.9449874858
 40
1.0
 40
1.0
 40
1.0
 40
1.0
 10
9.3639593452
 20
13.3440369239
 30
0.0
 10
9.3681879756
 20
13.3450897312
 30
0.0
 10
9.3767582316
 20
13.3475637267
 30
0.0
 10
9.3895885935
 20
13.3522775905
 30
0.0
 10
9.4025832334
 20
13.3581070394
 30
0.0
 10
9.4156267723
 20
13.3650633716
 30
0.0
 10
9.4285832718
 20
13.373131925
 30
0.0
 10
9.4412983656
 20
13.382266883
 30
0.0
 10
9.4536060284
 20
13.3923890203
 30
0.0
 10
9.4653381879
 20
13.4033861123
 30
0.0
 10
9.4763352799
 20
13.4151182718
 30
0.0
 10
9.4864574172
 20
13.4274259347
 30
0.0
 10
9.4955923752
 20
13.4401410284
 30
0.0
 10
9.5036609286
 20
13.4530975279
 30
0.0
 10
9.5106172609
 20
13.4661410669
 30
0.0
 10
9.5164467098
 20
13.4791357067
 30
0.0
 10
9.5211605736
 20
13.4919660686
 30
0.0
 10
9.5236345691
 20
13.5005363246
 30
0.0
 10
9.5246873764
 20
13.504764955
 30
0.0
  0
SPLINE
  5
4C7
100
AcDbEntity
  8
0
100
AcDbSpline
 62
7
  6
CONTINUOUS
 70
0
 71
3
 72
23
 73
19
 74
0
 42
0.0000001
 43
0.0000001
 44
0.0000000001
 40
0.0
 40
0.0
 40
0.0
 40
0.0
 40
0.0562316954
 40
0.1145090194
 40
0.1748267037
 40
0.2370880219
 40
0.3010934496
 40
0.3665341595
 40
0.432999844
 40
0.5
 40
0.567000156
 40
0.6334658405
 40
0.6989065504
 40
0.7629119781
 40
0.8251732963
 40
0.8854909806
 40
0.9437683046
 40
1.0
 40
1.0
 40
1.0
 40
1.0
 10
9.3716110777
 20
13.3363851914
 30
0.0
 10
9.3760452983
 20
13.3372090494
 30
0.0
 10
9.3850131754
 20
13.3392395644
 30
0.0
 10
9.3984250928
 20
13.3433751039
 30
0.0
 10
9.4119351878
 20
13.3486951067
 30
0.0
 10
9.4254186428
 20
13.3552200343
 30
0.0
 10
9.4387305326
 20
13.3629439309
 30
0.0
 10
9.4517083585
 20
13.3718286738
 30
0.0
 10
9.4641795206
 20
13.3818010948
 30
0.0
 10
9.475971576
 20
13.3927527242
 30
0.0
 10
9.4869232055
 20
13.4045447796
 30
0.0
 10
9.4968956264
 20
13.4170159418
 30
0.0
 10
9.5057803694
 20
13.4299937676
 30
0.0
 10
9.513504266
 20
13.4433056574
 30
0.0
 10
9.5200291935
 20
13.4567891125
 30
0.0
 10
9.5253491963
 20
13.4702992074
 30
0.0
 10
9.5294847359
 20
13.4837111248
 30
0.0
 10
9.5315152509
 20
13.4926790019
 30
0.0
 10
9.5323391089
 20
13.4971132225
 30
0.0
  0
SPLINE
  5
4C8
100
AcDbEntity
  8
0
100
AcDbSpline
 62
7
  6
CONTINUOUS
 70
0
 71
3
 72
21
 73
17
 74
0
 42
0.0000001
 43
0.0000001
 44
0.0000000001
 40
0.0
 40
0.0
 40
0.0
 40
0.0
 40
0.0574321986
 40
0.1165053439
 40
0.1772272945
 40
0.2395299007
 40
0.3032587284
 40
0.3681663881
 40
0.5
 40
0.6318336119
 40
0.6967412716
 40
0.7604700993
 40
0.8227727055
 40
0.8834946561
 40
0.9425678014
 40
1.0
 40
1.0
 40
1.0
 40
1.0
 10
9.3741698694
 20
13.3338263997
 30
0.0
 10
9.378792509
 20
13.3344408919
 30
0.0
 10
9.388123936
 20
13.3360648875
 30
0.0
 10
9.402071839
 20
13.3396655568
 30
0.0
 10
9.4160575153
 20
13.344514222
 30
0.0
 10
9.4299472018
 20
13.3506398259
 30
0.0
 10
9.4435884788
 20
13.3580453827
 30
0.0
 10
9.4613014559
 20
13.3696381984
 30
0.0
 10
9.4817477918
 20
13.3869765084
 30
0.0
 10
9.4990861019
 20
13.4074228443
 30
0.0
 10
9.5106789175
 20
13.4251358214
 30
0.0
 10
9.5180844743
 20
13.4387770984
 30
0.0
 10
9.5242100783
 20
13.4526667849
 30
0.0
 10
9.5290587435
 20
13.4666524612
 30
0.0
 10
9.5326594127
 20
13.4806003642
 30
0.0
 10
9.5342834083
 20
13.4899317912
 30
0.0
 10
9.5348979006
 20
13.4945544308
 30
0.0
  0
SPLINE
  5
4C9
100
AcDbEntity
  8
0
100
AcDbSpline
 62
7
  6
CONTINUOUS
 70
0
 71
3
 72
21
 73
17
 74
0
 42
0.0000001
 43
0.0000001
 44
0.0000000001
 40
0.0
 40
0.0
 40
0.0
 40
0.0
 40
0.0574321986
 40
0.1165053439
 40
0.1772272945
 40
0.2395299007
 40
0.3032587284
 40
0.3681663881
 40
0.5
 40
0.6318336119
 40
0.6967412716
 40
0.7604700993
 40
0.8227727055
 40
0.8834946561
 40
0.9425678014
 40
1.0
 40
1.0
 40
1.0
 40
1.0
 10
8.4721164084
 20
14.5573359229
 30
0.0
 10
8.4674937689
 20
14.5567214307
 30
0.0
 10
8.4581623419
 20
14.5550974351
 30
0.0
 10
8.4442144389
 20
14.5514967659
 30
0.0
 10
8.4302287625
 20
14.5466481007
 30
0.0
 10
8.416339076
 20
14.5405224967
 30
0.0
 10
8.402697799
 20
14.5331169399
 30
0.0
 10
8.3849848219
 20
14.5215241243
 30
0.0
 10
8.364538486
 20
14.5041858142
 30
0.0
 10
8.347200176
 20
14.4837394783
 30
0.0
 10
8.3356073604
 20
14.4660265012
 30
0.0
 10
8.3282018036
 20
14.4523852242
 30
0.0
 10
8.3220761996
 20
14.4384955377
 30
0.0
 10
8.3172275344
 20
14.4245098614
 30
0.0
 10
8.3136268651
 20
14.4105619584
 30
0.0
 10
8.3120028695
 20
14.4012305314
 30
0.0
 10
8.3113883773
 20
14.3966078918
 30
0.0
  0
SPLINE
  5
4CA
100
AcDbEntity
  8
0
100
AcDbSpline
 62
7
  6
CONTINUOUS
 70
0
 71
3
 72
23
 73
19
 74
0
 42
0.0000001
 43
0.0000001
 44
0.0000000001
 40
0.0
 40
0.0
 40
0.0
 40
0.0
 40
0.0562316954
 40
0.1145090194
 40
0.1748267037
 40
0.2370880219
 40
0.3010934496
 40
0.3665341595
 40
0.432999844
 40
0.5
 40
0.567000156
 40
0.6334658405
 40
0.6989065504
 40
0.7629119781
 40
0.8251732963
 40
0.8854909806
 40
0.9437683046
 40
1.0
 40
1.0
 40
1.0
 40
1.0
 10
8.4746752001
 20
14.5547771313
 30
0.0
 10
8.4702409795
 20
14.5539532733
 30
0.0
 10
8.4612731025
 20
14.5519227583
 30
0.0
 10
8.447861185
 20
14.5477872187
 30
0.0
 10
8.4343510901
 20
14.5424672159
 30
0.0
 10
8.4208676351
 20
14.5359422884
 30
0.0
 10
8.4075557453
 20
14.5282183917
 30
0.0
 10
8.3945779194
 20
14.5193336488
 30
0.0
 10
8.3821067572
 20
14.5093612279
 30
0.0
 10
8.3703147018
 20
14.4984095984
 30
0.0
 10
8.3593630724
 20
14.486617543
 30
0.0
 10
8.3493906514
 20
14.4741463809
 30
0.0
 10
8.3405059085
 20
14.461168555
 30
0.0
 10
8.3327820119
 20
14.4478566652
 30
0.0
 10
8.3262570843
 20
14.4343732101
 30
0.0
 10
8.3209370815
 20
14.4208631152
 30
0.0
 10
8.316801542
 20
14.4074511978
 30
0.0
 10
8.314771027
 20
14.3984833207
 30
0.0
 10
8.313947169
 20
14.3940491001
 30
0.0
  0
SPLINE
  5
4CB
100
AcDbEntity
  8
0
100
AcDbSpline
 62
7
  6
CONTINUOUS
 70
0
 71
3
 72
23
 73
19
 74
0
 42
0.0000001
 43
0.0000001
 44
0.0000000001
 40
0.0
 40
0.0
 40
0.0
 40
0.0
 40
0.0550125142
 40
0.112495502
 40
0.1724234458
 40
0.2346650485
 40
0.298971255
 40
0.3649690954
 40
0.4321711657
 40
0.5
 40
0.5678288343
 40
0.6350309046
 40
0.701028745
 40
0.7653349515
 40
0.8275765542
 40
0.887504498
 40
0.9449874858
 40
1.0
 40
1.0
 40
1.0
 40
1.0
 10
8.4823269326
 20
14.5471253988
 30
0.0
 10
8.4780983023
 20
14.5460725915
 30
0.0
 10
8.4695280462
 20
14.543598596
 30
0.0
 10
8.4566976843
 20
14.5388847321
 30
0.0
 10
8.4437030445
 20
14.5330552832
 30
0.0
 10
8.4306595055
 20
14.526098951
 30
0.0
 10
8.417703006
 20
14.5180303976
 30
0.0
 10
8.4049879123
 20
14.5088954396
 30
0.0
 10
8.3926802494
 20
14.4987733023
 30
0.0
 10
8.3809480899
 20
14.4877762103
 30
0.0
 10
8.3699509979
 20
14.4760440508
 30
0.0
 10
8.3598288606
 20
14.4637363879
 30
0.0
 10
8.3506939026
 20
14.4510212942
 30
0.0
 10
8.3426253492
 20
14.4380647947
 30
0.0
 10
8.335669017
 20
14.4250212558
 30
0.0
 10
8.3298395681
 20
14.4120266159
 30
0.0
 10
8.3251257043
 20
14.399196254
 30
0.0
 10
8.3226517088
 20
14.390625998
 30
0.0
 10
8.3215989015
 20
14.3863973676
 30
0.0
  0
SPLINE
  5
4CC
100
AcDbEntity
  8
0
100
AcDbSpline
 62
7
  6
CONTINUOUS
 70
0
 71
3
 72
23
 73
19
 74
0
 42
0.0000001
 43
0.0000001
 44
0.0000000001
 40
0.0
 40
0.0
 40
0.0
 40
0.0
 40
0.0538135836
 40
0.1105246567
 40
0.1700805753
 40
0.232310841
 40
0.2969147012
 40
0.3634553054
 40
0.4313705497
 40
0.5
 40
0.5686294503
 40
0.6365446946
 40
0.7030852988
 40
0.767689159
 40
0.8299194247
 40
0.8894753433
 40
0.9461864164
 40
1.0
 40
1.0
 40
1.0
 40
1.0
 10
8.4949979156
 20
14.5344544158
 30
0.0
 10
8.4909909745
 20
14.5331548996
 30
0.0
 10
8.4828502005
 20
14.5302046415
 30
0.0
 10
8.4706409893
 20
14.5248750714
 30
0.0
 10
8.4581963011
 20
14.5185033216
 30
0.0
 10
8.4456215176
 20
14.5110876627
 30
0.0
 10
8.4330431536
 20
14.5026519161
 30
0.0
 10
8.4206070856
 20
14.493250036
 30
0.0
 10
8.4084725251
 20
14.4829677077
 30
0.0
 10
8.396803075
 20
14.4719212253
 30
0.0
 10
8.3857565925
 20
14.4602517752
 30
0.0
 10
8.3754742642
 20
14.4481172146
 30
0.0
 10
8.3660723841
 20
14.4356811466
 30
0.0
 10
8.3576366375
 20
14.4231027826
 30
0.0
 10
8.3502209786
 20
14.4105279991
 30
0.0
 10
8.3438492288
 20
14.398083311
 30
0.0
 10
8.3385196587
 20
14.3858740997
 30
0.0
 10
8.3355694006
 20
14.3777333258
 30
0.0
 10
8.3342698844
 20
14.3737263847
 30
0.0
  0
SPLINE
  5
4CD
100
AcDbEntity
  8
0
100
AcDbSpline
 62
7
  6
CONTINUOUS
 70
0
 71
3
 72
23
 73
19
 74
0
 42
0.0000001
 43
0.0000001
 44
0.0000000001
 40
0.0
 40
0.0
 40
0.0
 40
0.0
 40
0.0526961062
 40
0.1086962198
 40
0.1679154935
 40
0.2301422172
 40
0.2950249466
 40
0.3620667403
 40
0.4306369365
 40
0.5
 40
0.5693630635
 40
0.6379332597
 40
0.7049750534
 40
0.7698577828
 40
0.8320845065
 40
0.8913037802
 40
0.9473038938
 40
1.0
 40
1.0
 40
1.0
 40
1.0
 10
8.5125661204
 20
14.5168862109
 30
0.0
 10
8.5087960015
 20
14.5153245065
 30
0.0
 10
8.501114196
 20
14.51187024
 30
0.0
 10
8.4895590967
 20
14.5058938593
 30
0.0
 10
8.4776929407
 20
14.498952289
 30
0.0
 10
8.4656107154
 20
14.4910537429
 30
0.0
 10
8.453429184
 20
14.482231643
 30
0.0
 10
8.4412854452
 20
14.4725485055
 30
0.0
 10
8.4293316918
 20
14.4620968532
 30
0.0
 10
8.4177269644
 20
14.4509973358
 30
0.0
 10
8.406627447
 20
14.4393926084
 30
0.0
 10
8.3961757948
 20
14.427438855
 30
0.0
 10
8.3864926572
 20
14.4152951163
 30
0.0
 10
8.3776705573
 20
14.4031135849
 30
0.0
 10
8.3697720113
 20
14.3910313595
 30
0.0
 10
8.3628304409
 20
14.3791652035
 30
0.0
 10
8.3568540602
 20
14.3676101042
 30
0.0
 10
8.3533997938
 20
14.3599282988
 30
0.0
 10
8.3518380893
 20
14.3561581798
 30
0.0
  0
SPLINE
  5
4CE
100
AcDbEntity
  8
0
100
AcDbSpline
 62
7
  6
CONTINUOUS
 70
0
 71
3
 72
23
 73
19
 74
0
 42
0.0000001
 43
0.0000001
 44
0.0000000001
 40
0.0
 40
0.0
 40
0.0
 40
0.0
 40
0.0517273468
 40
0.1071179711
 40
0.16605334
 40
0.2282823579
 40
0.2934078009
 40
0.3608803195
 40
0.4300106972
 40
0.5
 40
0.5699893028
 40
0.6391196805
 40
0.7065921991
 40
0.7717176421
 40
0.83394666
 40
0.8928820289
 40
0.9482726532
 40
1.0
 40
1.0
 40
1.0
 40
1.0
 10
8.5348623559
 20
14.4945899755
 30
0.0
 10
8.5313432284
 20
14.4927535099
 30
0.0
 10
8.5241471214
 20
14.4887734499
 30
0.0
 10
8.5132719281
 20
14.4821253817
 30
0.0
 10
8.5020066169
 20
14.4745917661
 30
0.0
 10
8.4904355049
 20
14.4661911324
 30
0.0
 10
8.4786653354
 20
14.4569669303
 30
0.0
 10
8.466824181
 20
14.4469906273
 30
0.0
 10
8.4550570263
 20
14.4363619175
 30
0.0
 10
8.4435182525
 20
14.4252060477
 30
0.0
 10
8.4323623828
 20
14.4136672739
 30
0.0
 10
8.4217336729
 20
14.4019001193
 30
0.0
 10
8.4117573699
 20
14.3900589649
 30
0.0
 10
8.4025331678
 20
14.3782887953
 30
0.0
 10
8.3941325341
 20
14.3667176833
 30
0.0
 10
8.3865989185
 20
14.3554523722
 30
0.0
 10
8.3799508503
 20
14.3445771788
 30
0.0
 10
8.3759707903
 20
14.3373810718
 30
0.0
 10
8.3741343247
 20
14.3338619444
 30
0.0
  0
SPLINE
  5
4CF
100
AcDbEntity
  8
0
100
AcDbSpline
 62
7
  6
CONTINUOUS
 70
0
 71
3
 72
23
 73
19
 74
0
 42
0.0000001
 43
0.0000001
 44
0.0000000001
 40
0.0
 40
0.0
 40
0.0
 40
0.0
 40
0.0509744488
 40
0.1058959054
 40
0.1646157462
 40
0.2268499211
 40
0.2921645198
 40
0.359969323
 40
0.4295301926
 40
0.5
 40
0.5704698074
 40
0.640030677
 40
0.7078354802
 40
0.7731500789
 40
0.8353842538
 40
0.8941040946
 40
0.9490255512
 40
1.0
 40
1.0
 40
1.0
 40
1.0
 10
8.5616718969
 20
14.4677804345
 30
0.0
 10
8.5584167234
 20
14.4656602859
 30
0.0
 10
8.5517296166
 20
14.4611394484
 30
0.0
 10
8.541552697
 20
14.4538007883
 30
0.0
 10
8.5309041437
 20
14.4456580587
 30
0.0
 10
8.5198573964
 20
14.4367404592
 30
0.0
 10
8.5085089282
 20
14.4271018413
 30
0.0
 10
8.4969775634
 20
14.4168229463
 30
0.0
 10
8.4854009003
 20
14.4060109035
 30
0.0
 10
8.4739285609
 20
14.3947957393
 30
0.0
 10
8.4627133967
 20
14.3833233999
 30
0.0
 10
8.451901354
 20
14.3717467368
 30
0.0
 10
8.4416224589
 20
14.360215372
 30
0.0
 10
8.431983841
 20
14.3488669038
 30
0.0
 10
8.4230662416
 20
14.3378201565
 30
0.0
 10
8.4149235119
 20
14.3271716032
 30
0.0
 10
8.4075848518
 20
14.3169946837
 30
0.0
 10
8.4030640143
 20
14.3103075768
 30
0.0
 10
8.4009438657
 20
14.3070524033
 30
0.0
  0
SPLINE
  5
4D0
100
AcDbEntity
  8
0
100
AcDbSpline
 62
7
  6
CONTINUOUS
 70
0
 71
3
 72
23
 73
19
 74
0
 42
0.0000001
 43
0.0000001
 44
0.0000000001
 40
0.0
 40
0.0
 40
0.0
 40
0.0
 40
0.0504957751
 40
0.1051210421
 40
0.1637061911
 40
0.2259451553
 40
0.2913802217
 40
0.3593951444
 40
0.4292274992
 40
0.5
 40
0.5707725008
 40
0.6406048556
 40
0.7086197783
 40
0.7740548447
 40
0.8362938089
 40
0.8948789579
 40
0.9495042249
 40
1.0
 40
1.0
 40
1.0
 40
1.0
 10
8.592736553
 20
14.4367157784
 30
0.0
 10
8.589756485
 20
14.4343073649
 30
0.0
 10
8.583597314
 20
14.4292381336
 30
0.0
 10
8.5741297273
 20
14.4211956423
 30
0.0
 10
8.5641075633
 20
14.4124317504
 30
0.0
 10
8.5535932236
 20
14.4029866124
 30
0.0
 10
8.5426726735
 20
14.3929247413
 30
0.0
 10
8.5314553004
 20
14.3823363725
 30
0.0
 10
8.5200711623
 20
14.3713362425
 30
0.0
 10
8.5086650301
 20
14.3600592702
 30
0.0
 10
8.4973880578
 20
14.3486531379
 30
0.0
 10
8.4863879277
 20
14.3372689998
 30
0.0
 10
8.4757995589
 20
14.3260516267
 30
0.0
 10
8.4657376878
 20
14.3151310766
 30
0.0
 10
8.4562925498
 20
14.3046167369
 30
0.0
 10
8.4475286579
 20
14.2945945729
 30
0.0
 10
8.4394861666
 20
14.2851269862
 30
0.0
 10
8.4344169354
 20
14.2789678153
 30
0.0
 10
8.4320085218
 20
14.2759877473
 30
0.0
  0
SPLINE
  5
4D1
100
AcDbEntity
  8
0
100
AcDbSpline
 62
7
  6
CONTINUOUS
 70
0
 71
3
 72
23
 73
19
 74
0
 42
0.0000001
 43
0.0000001
 44
0.0000000001
 40
0.0
 40
0.0
 40
0.0
 40
0.0
 40
0.0604265705
 40
0.1215050726
 40
0.183250614
 40
0.2456454797
 40
0.3086346431
 40
0.3721207284
 40
0.4359660287
 40
0.5
 40
0.5640339713
 40
0.6278792716
 40
0.6913653569
 40
0.7543545203
 40
0.816749386
 40
0.8784949274
 40
0.9395734295
 40
1.0
 40
1.0
 40
1.0
 40
1.0
 10
9.5120163934
 20
13.5174359379
 30
0.0
 10
9.511898409
 20
13.5123630142
 30
0.0
 10
9.5112404882
 20
13.5021667849
 30
0.0
 10
9.5089297406
 20
13.4869335901
 30
0.0
 10
9.5052194066
 20
13.4718061828
 30
0.0
 10
9.5000585544
 20
13.4569385917
 30
0.0
 10
9.4934241431
 20
13.4425045104
 30
0.0
 10
9.4853287923
 20
13.4286931794
 30
0.0
 10
9.4758259606
 20
13.4156995849
 30
0.0
 10
9.4650124904
 20
13.4037118098
 30
0.0
 10
9.4530247154
 20
13.3928983396
 30
0.0
 10
9.4400311209
 20
13.3833955079
 30
0.0
 10
9.4262197899
 20
13.3753001571
 30
0.0
 10
9.4117857085
 20
13.3686657458
 30
0.0
 10
9.3969181174
 20
13.3635048936
 30
0.0
 10
9.3817907102
 20
13.3597945597
 30
0.0
 10
9.3665575153
 20
13.357483812
 30
0.0
 10
9.356361286
 20
13.3568258913
 30
0.0
 10
9.3512883623
 20
13.3567079068
 30
0.0
  0
SPLINE
  5
4D2
100
AcDbEntity
  8
0
100
AcDbSpline
 62
7
  6
CONTINUOUS
 70
0
 71
3
 72
23
 73
19
 74
0
 42
0.0000001
 43
0.0000001
 44
0.0000000001
 40
0.0
 40
0.0
 40
0.0
 40
0.0
 40
0.0595441274
 40
0.1200249578
 40
0.1814590619
 40
0.2438171468
 40
0.3070173338
 40
0.3709192293
 40
0.4353269807
 40
0.5
 40
0.5646730193
 40
0.6290807707
 40
0.6929826662
 40
0.7561828532
 40
0.8185409381
 40
0.8799750422
 40
0.9404558726
 40
1.0
 40
1.0
 40
1.0
 40
1.0
 10
9.5246873764
 20
13.504764955
 30
0.0
 10
9.5244270319
 20
13.4998217478
 30
0.0
 10
9.5234919692
 20
13.4898740593
 30
0.0
 10
9.5208084917
 20
13.4750112307
 30
0.0
 10
9.5167689808
 20
13.4602129969
 30
0.0
 10
9.5113289202
 20
13.445627572
 30
0.0
 10
9.5044714348
 20
13.4314227882
 30
0.0
 10
9.4962145859
 20
13.4177823089
 30
0.0
 10
9.4866160049
 20
13.4048963115
 30
0.0
 10
9.475774912
 20
13.3929493882
 30
0.0
 10
9.4638279888
 20
13.3821082954
 30
0.0
 10
9.4509419913
 20
13.3725097143
 30
0.0
 10
9.4373015121
 20
13.3642528654
 30
0.0
 10
9.4230967283
 20
13.35739538
 30
0.0
 10
9.4085113033
 20
13.3519553194
 30
0.0
 10
9.3937130695
 20
13.3479158085
 30
0.0
 10
9.3788502409
 20
13.345232331
 30
0.0
 10
9.3689025524
 20
13.3442972683
 30
0.0
 10
9.3639593452
 20
13.3440369239
 30
0.0
  0
SPLINE
  5
4D3
100
AcDbEntity
  8
0
100
AcDbSpline
 62
7
  6
CONTINUOUS
 70
0
 71
3
 72
36
 73
32
 74
0
 42
0.0000001
 43
0.0000001
 44
0.0000000001
 40
0.0
 40
0.0
 40
0.0
 40
0.0
 40
0.0002424151
 40
0.0005487665
 40
0.0009667823
 40
0.0015157452
 40
0.0022039736
 40
0.0030355795
 40
0.0040128352
 40
0.0051370908
 40
0.0078291115
 40
0.0111145195
 40
0.014993774
 40
0.0194663102
 40
0.0301828952
 40
0.0432426829
 40
0.0586163603
 40
0.076267607
 40
0.0961538955
 40
0.1182270875
 40
0.1424330235
 40
0.1687128783
 40
0.2272305897
 40
0.2932059061
 40
0.3659912616
 40
0.4448738721
 40
0.5290827212
 40
0.6177963843
 40
0.7101517571
 40
0.8052540366
 40
1.0
 40
1.0
 40
1.0
 40
1.0
 10
8.8223069684
 20
11.2488300608
 30
0.0
 10
8.8223105459
 20
11.2488331399
 30
0.0
 10
8.8223161288
 20
11.2488431462
 30
0.0
 10
8.8223155163
 20
11.2488624214
 30
0.0
 10
8.8223087281
 20
11.2488863433
 30
0.0
 10
8.8222954702
 20
11.2489158185
 30
0.0
 10
8.8222757415
 20
11.248950966
 30
0.0
 10
8.8222494156
 20
11.2489918727
 30
0.0
 10
8.8222164723
 20
11.2490385399
 30
0.0
 10
8.8221602069
 20
11.249113027
 30
0.0
 10
8.822072664
 20
11.2492201223
 30
0.0
 10
8.8219467013
 20
11.2493649464
 30
0.0
 10
8.8217942775
 20
11.249532631
 30
0.0
 10
8.8215400913
 20
11.2498032838
 30
0.0
 10
8.8211558164
 20
11.250196899
 30
0.0
 10
8.8206149244
 20
11.2507340882
 30
0.0
 10
8.8199712207
 20
11.2513592953
 30
0.0
 10
8.8192262579
 20
11.2520709676
 30
0.0
 10
8.8183818112
 20
11.252867312
 30
0.0
 10
8.8174399418
 20
11.253746347
 30
0.0
 10
8.8164029529
 20
11.254705902
 30
0.0
 10
8.8148399204
 20
11.2561417845
 30
0.0
 10
8.8126685563
 20
11.2581176353
 30
0.0
 10
8.8098154717
 20
11.2606897001
 30
0.0
 10
8.8066571774
 20
11.2635153733
 30
0.0
 10
8.8032246193
 20
11.266566925
 30
0.0
 10
8.7995513467
 20
11.269814478
 30
0.0
 10
8.7956731938
 20
11.2732263289
 30
0.0
 10
8.7916278857
 20
11.2767692822
 30
0.0
 10
8.7860192429
 20
11.2816608392
 30
0.0
 10
8.7817548351
 20
11.2853577405
 30
0.0
 10
8.7788849627
 20
11.2878362421
 30
0.0
  0
SPLINE
  5
4D4
100
AcDbEntity
  8
0
100
AcDbSpline
 62
7
  6
CONTINUOUS
 70
0
 71
3
 72
23
 73
19
 74
0
 42
0.0000001
 43
0.0000001
 44
0.0000000001
 40
0.0
 40
0.0
 40
0.0
 40
0.0
 40
0.0585340006
 40
0.1183360669
 40
0.1794208737
 40
0.2417426135
 40
0.3051862854
 40
0.3695612026
 40
0.4346054258
 40
0.5
 40
0.5653945742
 40
0.6304387974
 40
0.6948137146
 40
0.7582573865
 40
0.8205791263
 40
0.8816639331
 40
0.9414659994
 40
1.0
 40
1.0
 40
1.0
 40
1.0
 10
9.5323391089
 20
13.4971132225
 30
0.0
 10
9.5319128863
 20
13.4923205119
 30
0.0
 10
9.5306550003
 20
13.4826617742
 30
0.0
 10
9.5275400503
 20
13.4682286925
 30
0.0
 10
9.5231197612
 20
13.4538122626
 30
0.0
 10
9.5173569283
 20
13.4395538445
 30
0.0
 10
9.5102416455
 20
13.4256144506
 30
0.0
 10
9.5017980989
 20
13.4121713503
 30
0.0
 10
9.4920886293
 20
13.3994093137
 30
0.0
 10
9.4812151954
 20
13.3875091049
 30
0.0
 10
9.4693149865
 20
13.3766356709
 30
0.0
 10
9.4565529499
 20
13.3669262013
 30
0.0
 10
9.4431098497
 20
13.3584826547
 30
0.0
 10
9.4291704557
 20
13.351367372
 30
0.0
 10
9.4149120377
 20
13.3456045391
 30
0.0
 10
9.4004956078
 20
13.34118425
 30
0.0
 10
9.386062526
 20
13.3380693
 30
0.0
 10
9.3764037883
 20
13.3368114139
 30
0.0
 10
9.3716110777
 20
13.3363851914
 30
0.0
  0
SPLINE
  5
4D5
100
AcDbEntity
  8
0
100
AcDbSpline
 62
7
  6
CONTINUOUS
 70
0
 71
3
 72
11
 73
7
 74
0
 42
0.0000001
 43
0.0000001
 44
0.0000000001
 40
0.0
 40
0.0
 40
0.0
 40
0.0
 40
0.2197177505
 40
0.4651909993
 40
0.7282066406
 40
1.0
 40
1.0
 40
1.0
 40
1.0
 10
8.6784844277
 20
11.3925495838
 30
0.0
 10
8.676410265
 20
11.3944954169
 30
0.0
 10
8.6719922641
 20
11.3985869034
 30
0.0
 10
8.6650182409
 20
11.4049281749
 30
0.0
 10
8.6574932025
 20
11.4116649547
 30
0.0
 10
8.6523033157
 20
11.4162461645
 30
0.0
 10
8.649657922
 20
11.4185653811
 30
0.0
  0
SPLINE
  5
4D6
100
AcDbEntity
  8
0
100
AcDbSpline
 62
7
  6
CONTINUOUS
 70
0
 71
3
 72
14
 73
10
 74
0
 42
0.0000001
 43
0.0000001
 44
0.0000000001
 40
0.0
 40
0.0
 40
0.0
 40
0.0
 40
0.0745623128
 40
0.1545809921
 40
0.2468353764
 40
0.3558364521
 40
0.4843252627
 40
0.6339337014
 40
1.0
 40
1.0
 40
1.0
 40
1.0
 10
8.2145357071
 20
11.8536875959
 30
0.0
 10
8.214556988
 20
11.8537059098
 30
0.0
 10
8.2145947907
 20
11.853751928
 30
0.0
 10
8.2146273735
 20
11.8538403816
 30
0.0
 10
8.2146376202
 20
11.8539466286
 30
0.0
 10
8.2146268059
 20
11.8540707934
 30
0.0
 10
8.2145953534
 20
11.8542134237
 30
0.0
 10
8.2145207151
 20
11.8544444704
 30
0.0
 10
8.2144406364
 20
11.8546220221
 30
0.0
 10
8.2143795591
 20
11.8547455928
 30
0.0
  0
SPLINE
  5
4D7
100
AcDbEntity
  8
0
100
AcDbSpline
 62
7
  6
CONTINUOUS
 70
0
 71
3
 72
20
 73
16
 74
0
 42
0.0000001
 43
0.0000001
 44
0.0000000001
 40
0.0
 40
0.0
 40
0.0
 40
0.0
 40
0.0083335251
 40
0.0169260834
 40
0.0363458697
 40
0.060628237
 40
0.0909503804
 40
0.1278950761
 40
0.1717643484
 40
0.2227091466
 40
0.2807998746
 40
0.4184651714
 40
0.5845946237
 40
0.7786807692
 40
1.0
 40
1.0
 40
1.0
 40
1.0
 10
7.8999334619
 20
12.1667877428
 30
0.0
 10
7.8999515722
 20
12.1668033283
 30
0.0
 10
7.8999847945
 20
12.1668394134
 30
0.0
 10
7.9000362243
 20
12.166930999
 30
0.0
 10
7.9000653202
 20
12.1670815192
 30
0.0
 10
7.9000487765
 20
12.1672943279
 30
0.0
 10
7.8999859271
 20
12.1675500078
 30
0.0
 10
7.8998762617
 20
12.1678496149
 30
0.0
 10
7.8997196742
 20
12.1681936932
 30
0.0
 10
7.8995160244
 20
12.1685821097
 30
0.0
 10
7.8991610882
 20
12.1691941204
 30
0.0
 10
7.898594663
 20
12.1700641547
 30
0.0
 10
7.8977657448
 20
12.1712266059
 30
0.0
 10
7.8967560599
 20
12.1725537343
 30
0.0
 10
7.896012921
 20
12.1734845934
 30
0.0
 10
7.8956127265
 20
12.1739770372
 30
0.0
  0
SPLINE
  5
4D8
100
AcDbEntity
  8
0
100
AcDbSpline
 62
7
  6
CONTINUOUS
 70
0
 71
3
 72
19
 73
15
 74
0
 42
0.0000001
 43
0.0000001
 44
0.0000000001
 40
0.0
 40
0.0
 40
0.0
 40
0.0
 40
0.0219058316
 40
0.0456494109
 40
0.0731327718
 40
0.1056011289
 40
0.143801771
 40
0.1881828596
 40
0.2390201294
 40
0.2964803312
 40
0.4316014595
 40
0.5939463484
 40
0.7834890212
 40
1.0
 40
1.0
 40
1.0
 40
1.0
 10
7.5623261607
 20
12.5027877398
 30
0.0
 10
7.5623545868
 20
12.5028122036
 30
0.0
 10
7.5624052222
 20
12.5028740445
 30
0.0
 10
7.5624497944
 20
12.5029928232
 30
0.0
 10
7.5624658707
 20
12.5031362496
 30
0.0
 10
7.5624549799
 20
12.5033045324
 30
0.0
 10
7.5624176498
 20
12.5034983092
 30
0.0
 10
7.5623539199
 20
12.5037179031
 30
0.0
 10
7.5622637626
 20
12.5039634257
 30
0.0
 10
7.5620990903
 20
12.5043464219
 30
0.0
 10
7.5618224004
 20
12.5048880741
 30
0.0
 10
7.5614024505
 20
12.5056086466
 30
0.0
 10
7.5608787628
 20
12.5064290892
 30
0.0
 10
7.5604869839
 20
12.5070034674
 30
0.0
 10
7.5602746792
 20
12.5073073207
 30
0.0
  0
SPLINE
  5
4D9
100
AcDbEntity
  8
0
100
AcDbSpline
 62
7
  6
CONTINUOUS
 70
0
 71
3
 72
16
 73
12
 74
0
 42
0.0000001
 43
0.0000001
 44
0.0000000001
 40
0.0
 40
0.0
 40
0.0
 40
0.0
 40
0.030537594
 40
0.0621457659
 40
0.1332928489
 40
0.2211790957
 40
0.3297645328
 40
0.4610935064
 40
0.6162488709
 40
0.7957879421
 40
1.0
 40
1.0
 40
1.0
 40
1.0
 10
7.2247214348
 20
12.83878995
 30
0.0
 10
7.2247386014
 20
12.8388047231
 30
0.0
 10
7.2247702985
 20
12.8388387876
 30
0.0
 10
7.2248207685
 20
12.8389245804
 30
0.0
 10
7.2248538988
 20
12.839064947
 30
0.0
 10
7.2248488016
 20
12.8392644603
 30
0.0
 10
7.2248035728
 20
12.8395040731
 30
0.0
 10
7.2247179134
 20
12.8397846703
 30
0.0
 10
7.2245917879
 20
12.8401067271
 30
0.0
 10
7.2244250766
 20
12.840470146
 30
0.0
 10
7.2242952514
 20
12.8407235093
 30
0.0
 10
7.224224023
 20
12.8408571676
 30
0.0
  0
SPLINE
  5
4DA
100
AcDbEntity
  8
0
100
AcDbSpline
 62
7
  6
CONTINUOUS
 70
0
 71
3
 72
22
 73
18
 74
0
 42
0.0000001
 43
0.0000001
 44
0.0000000001
 40
0.0
 40
0.0
 40
0.0
 40
0.0
 40
0.0071305009
 40
0.014701301
 40
0.0231430531
 40
0.0327688614
 40
0.0563181878
 40
0.0863666654
 40
0.1233392742
 40
0.1674374485
 40
0.2187481875
 40
0.277294603
 40
0.3430655055
 40
0.4160162187
 40
0.5831925267
 40
0.7781485949
 40
1.0
 40
1.0
 40
1.0
 40
1.0
 10
6.910126226
 20
13.1518961424
 30
0.0
 10
6.9101434483
 20
13.151910959
 30
0.0
 10
6.9101748026
 20
13.1519466846
 30
0.0
 10
6.9102074885
 20
13.1520135478
 30
0.0
 10
6.9102268131
 20
13.1520934372
 30
0.0
 10
6.910235906
 20
13.1522261863
 30
0.0
 10
6.9102097082
 20
13.1524274887
 30
0.0
 10
6.9101319004
 20
13.1527057651
 30
0.0
 10
6.9100049633
 20
13.1530367183
 30
0.0
 10
6.9098287598
 20
13.1534201289
 30
0.0
 10
6.9096031475
 20
13.153855848
 30
0.0
 10
6.909328262
 20
13.1543433512
 30
0.0
 10
6.9090043374
 20
13.1548820499
 30
0.0
 10
6.9084833131
 20
13.1557058009
 30
0.0
 10
6.9077089343
 20
13.1568558922
 30
0.0
 10
6.9066301843
 20
13.1583720668
 30
0.0
 10
6.9058389677
 20
13.1594387422
 30
0.0
 10
6.9054136871
 20
13.1600033399
 30
0.0
  0
SPLINE
  5
4DB
100
AcDbEntity
  8
0
100
AcDbSpline
 62
7
  6
CONTINUOUS
 70
0
 71
3
 72
29
 73
25
 74
0
 42
0.0000001
 43
0.0000001
 44
0.0000000001
 40
0.0
 40
0.0
 40
0.0
 40
0.0
 40
0.001563028
 40
0.003298299
 40
0.0053433042
 40
0.0077832904
 40
0.0106683338
 40
0.0140283003
 40
0.0222355994
 40
0.0324866237
 40
0.0448114025
 40
0.0592160355
 40
0.0756955235
 40
0.0942358153
 40
0.114816864
 40
0.1374145081
 40
0.1619990231
 40
0.2169961142
 40
0.2795083159
 40
0.3491873279
 40
0.4256412948
 40
0.5971069323
 40
0.790021223
 40
1.0
 40
1.0
 40
1.0
 40
1.0
 10
6.6399789612
 20
13.4207680499
 30
0.0
 10
6.6399940147
 20
13.4207810006
 30
0.0
 10
6.6400207827
 20
13.4208145612
 30
0.0
 10
6.6400438563
 20
13.4208793237
 30
0.0
 10
6.6400521745
 20
13.4209584208
 30
0.0
 10
6.6400464757
 20
13.4210521694
 30
0.0
 10
6.6400269831
 20
13.4211609546
 30
0.0
 10
6.6399792158
 20
13.4213384111
 30
0.0
 10
6.6398808193
 20
13.4215981445
 30
0.0
 10
6.6397154244
 20
13.4219527144
 30
0.0
 10
6.6394950752
 20
13.4223678544
 30
0.0
 10
6.6392200075
 20
13.4228430146
 30
0.0
 10
6.6388903711
 20
13.423377529
 30
0.0
 10
6.6385065813
 20
13.4239706158
 30
0.0
 10
6.6380691291
 20
13.4246214066
 30
0.0
 10
6.6375786208
 20
13.4253289428
 30
0.0
 10
6.6368261524
 20
13.4263867977
 30
0.0
 10
6.6357565612
 20
13.4278412089
 30
0.0
 10
6.634318483
 20
13.4297353832
 30
0.0
 10
6.6326899678
 20
13.431826984
 30
0.0
 10
6.6301792763
 20
13.4349857697
 30
0.0
 10
6.6266377656
 20
13.4393248376
 30
0.0
 10
6.621952992
 20
13.4449196113
 30
0.0
 10
6.6186260031
 20
13.448809651
 30
0.0
 10
6.6168831573
 20
13.4508293433
 30
0.0
  0
SPLINE
  5
4DC
100
AcDbEntity
  8
0
100
AcDbSpline
 62
7
  6
CONTINUOUS
 70
0
 71
3
 72
32
 73
28
 74
0
 42
0.0000001
 43
0.0000001
 44
0.0000000001
 40
0.0
 40
0.0
 40
0.0
 40
0.0
 40
0.0004673227
 40
0.0009795467
 40
0.0015724792
 40
0.0022695349
 40
0.004026514
 40
0.0063156188
 40
0.0091627683
 40
0.0125797673
 40
0.016572352
 40
0.0211432209
 40
0.0320193189
 40
0.0451976215
 40
0.060654544
 40
0.0783574322
 40
0.1203348296
 40
0.1707392189
 40
0.2290923229
 40
0.2948379838
 40
0.3673488376
 40
0.4459337727
 40
0.5298447596
 40
0.6182832385
 40
0.7104073686
 40
0.8053413902
 40
1.0
 40
1.0
 40
1.0
 40
1.0
 10
6.4326887785
 20
13.6270816704
 30
0.0
 10
6.4326956415
 20
13.6270875757
 30
0.0
 10
6.4327079733
 20
13.6271025088
 30
0.0
 10
6.4327195521
 20
13.6271310571
 30
0.0
 10
6.4327250457
 20
13.62716576
 30
0.0
 10
6.4327245215
 20
13.6272249757
 30
0.0
 10
6.4327067374
 20
13.6273157365
 30
0.0
 10
6.4326649781
 20
13.6274426999
 30
0.0
 10
6.4326006544
 20
13.6275955828
 30
0.0
 10
6.4325137296
 20
13.6277743355
 30
0.0
 10
6.4324040741
 20
13.627978964
 30
0.0
 10
6.4322163533
 20
13.6283055126
 30
0.0
 10
6.4319228652
 20
13.6287762555
 30
0.0
 10
6.4314991552
 20
13.6294138542
 30
0.0
 10
6.4309866207
 20
13.630150988
 30
0.0
 10
6.4301367749
 20
13.6313329195
 30
0.0
 10
6.4288588452
 20
13.6330406515
 30
0.0
 10
6.4270726545
 20
13.6353511145
 30
0.0
 10
6.4249738177
 20
13.6380016304
 30
0.0
 10
6.4225824496
 20
13.6409665816
 30
0.0
 10
6.419921296
 20
13.6442173612
 30
0.0
 10
6.4170157605
 20
13.6477227835
 30
0.0
 10
6.413893536
 20
13.6514493078
 30
0.0
 10
6.4105843756
 20
13.6553613373
 30
0.0
 10
6.4071198022
 20
13.6594215559
 30
0.0
 10
6.4022968761
 20
13.6650278893
 30
0.0
 10
6.3986135109
 20
13.6692601371
 30
0.0
 10
6.3961273587
 20
13.6720959444
 30
0.0
  0
SPLINE
  5
4DD
100
AcDbEntity
  8
0
100
AcDbSpline
 62
7
  6
CONTINUOUS
 70
0
 71
3
 72
21
 73
17
 74
0
 42
0.0000001
 43
0.0000001
 44
0.0000000001
 40
0.0
 40
0.0
 40
0.0
 40
0.0
 40
0.0574321986
 40
0.116505344
 40
0.1772272945
 40
0.2395299008
 40
0.3032587285
 40
0.3681663881
 40
0.5
 40
0.6318336119
 40
0.6967412715
 40
0.7604700992
 40
0.8227727055
 40
0.883494656
 40
0.9425678014
 40
1.0
 40
1.0
 40
1.0
 40
1.0
 10
8.8427791233
 20
13.8652171457
 30
0.0
 10
8.8433936156
 20
13.8698397853
 30
0.0
 10
8.8450176112
 20
13.8791712123
 30
0.0
 10
8.8486182804
 20
13.8931191153
 30
0.0
 10
8.8534669456
 20
13.9071047917
 30
0.0
 10
8.8595925496
 20
13.9209944782
 30
0.0
 10
8.8669981064
 20
13.9346357551
 30
0.0
 10
8.878590922
 20
13.9523487322
 30
0.0
 10
8.8959292321
 20
13.9727950681
 30
0.0
 10
8.916375568
 20
13.9901333782
 30
0.0
 10
8.9340885451
 20
14.0017261938
 30
0.0
 10
8.9477298221
 20
14.0091317506
 30
0.0
 10
8.9616195086
 20
14.0152573546
 30
0.0
 10
8.9756051849
 20
14.0201060198
 30
0.0
 10
8.9895530879
 20
14.023706689
 30
0.0
 10
8.9988845149
 20
14.0253306847
 30
0.0
 10
9.0035071545
 20
14.0259451769
 30
0.0
  0
SPLINE
  5
4DE
100
AcDbEntity
  8
0
100
AcDbSpline
 62
7
  6
CONTINUOUS
 70
0
 71
3
 72
39
 73
35
 74
0
 42
0.0000001
 43
0.0000001
 44
0.0000000001
 40
0.0
 40
0.0
 40
0.0
 40
0.0
 40
0.000136534
 40
0.0002425375
 40
0.000381059
 40
0.0007629522
 40
0.0012900503
 40
0.0019648273
 40
0.002788386
 40
0.0048837539
 40
0.0075778051
 40
0.0108697823
 40
0.0147583197
 40
0.0192417463
 40
0.0243175161
 40
0.0299824367
 40
0.0430665269
 40
0.0584629376
 40
0.0761343174
 40
0.0960376144
 40
0.1181244175
 40
0.1423405611
 40
0.1686273191
 40
0.1969200332
 40
0.2271501128
 40
0.2931213951
 40
0.3658975101
 40
0.4447699126
 40
0.5289717347
 40
0.6176852234
 40
0.7100501805
 40
0.8051737697
 40
0.9021350548
 40
1.0
 40
1.0
 40
1.0
 40
1.0
 10
8.5264997517
 20
11.5027239486
 30
0.0
 10
8.5265017657
 20
11.5027256824
 30
0.0
 10
8.5265024801
 20
11.5027312736
 30
0.0
 10
8.5265005119
 20
11.5027382506
 30
0.0
 10
8.5264958308
 20
11.5027496253
 30
0.0
 10
8.5264853065
 20
11.5027671088
 30
0.0
 10
8.5264675452
 20
11.5027923293
 30
0.0
 10
8.5264432391
 20
11.5028233784
 30
0.0
 10
8.5263984293
 20
11.5028770963
 30
0.0
 10
8.5263255526
 20
11.5029585198
 30
0.0
 10
8.5262179321
 20
11.503073238
 30
0.0
 10
8.526084203
 20
11.5032112883
 30
0.0
 10
8.5259244462
 20
11.503372589
 30
0.0
 10
8.5257387209
 20
11.5035570222
 30
0.0
 10
8.5255271361
 20
11.5037644724
 30
0.0
 10
8.5251943693
 20
11.5040874265
 30
0.0
 10
8.524714502
 20
11.5045472277
 30
0.0
 10
8.5240624132
 20
11.5051650399
 30
0.0
 10
8.5233109647
 20
11.5058709459
 30
0.0
 10
8.5224619861
 20
11.5066632095
 30
0.0
 10
8.5215175423
 20
11.5075398748
 30
0.0
 10
8.5204799344
 20
11.5084987952
 30
0.0
 10
8.5193516985
 20
11.509537615
 30
0.0
 10
8.5181355856
 20
11.5106537991
 30
0.0
 10
8.5163481619
 20
11.5122898067
 30
0.0
 10
8.5139179387
 20
11.5145058652
 30
0.0
 10
8.5107826371
 20
11.5173537901
 30
0.0
 10
8.5073796649
 20
11.5204347577
 30
0.0
 10
8.503742109
 20
11.5237187961
 30
0.0
 10
8.4999052869
 20
11.5271740022
 30
0.0
 10
8.4959063822
 20
11.530766883
 30
0.0
 10
8.4917841111
 20
11.5344626476
 30
0.0
 10
8.4875782988
 20
11.5382255896
 30
0.0
 10
8.4847497813
 20
11.540751227
 30
0.0
 10
8.4833283407
 20
11.5420192053
 30
0.0
  0
LINE
  5
4DF
100
AcDbEntity
  8
0
100
AcDbLine
 62
7
  6
CONTINUOUS
 10
7.5176723776
 20
12.4579514144
 11
7.5173335796
 21
12.4585763188
  0
SPLINE
  5
4E0
100
AcDbEntity
  8
0
100
AcDbSpline
 62
7
  6
CONTINUOUS
 70
0
 71
3
 72
70
 73
66
 74
0
 42
0.0000001
 43
0.0000001
 44
0.0000000001
 40
0.0
 40
0.0
 40
0.0
 40
0.0
 40
0.0001702588
 40
0.0003693417
 40
0.0006161401
 40
0.000920776
 40
0.0012886121
 40
0.0017226514
 40
0.0022246632
 40
0.0027957518
 40
0.0041476881
 40
0.0057819413
 40
0.0076997277
 40
0.0099013351
 40
0.0123863568
 40
0.015153953
 40
0.0182029952
 40
0.0215319854
 40
0.0290229168
 40
0.0376107657
 40
0.0472764296
 40
0.0579980077
 40
0.0697509556
 40
0.0825081883
 40
0.0962401745
 40
0.1109150643
 40
0.1429550116
 40
0.1783299939
 40
0.2167104647
 40
0.2577385957
 40
0.3010317593
 40
0.3461860154
 40
0.3927800277
 40
0.4403789753
 40
0.4885385886
 40
0.5368094072
 40
0.584740859
 40
0.6318856335
 40
0.6778036875
 40
0.7220665695
 40
0.7642612476
 40
0.8039941293
 40
0.840894711
 40
0.8746190802
 40
0.8901908222
 40
0.9048532788
 40
0.9185723885
 40
0.9313163333
 40
0.9430556145
 40
0.9537631793
 40
0.9634145173
 40
0.9719877644
 40
0.9794638589
 40
0.9827853562
 40
0.9858268634
 40
0.9885868883
 40
0.9910643135
 40
0.9932583057
 40
0.9951684757
 40
0.9967951303
 40
0.9981395223
 40
0.9987068823
 40
0.9992052134
 40
0.9996356468
 40
1.0
 40
1.0
 40
1.0
 40
1.0
 10
9.6661786963
 20
15.2631409784
 30
0.0
 10
9.6662113403
 20
15.2631736224
 30
0.0
 10
9.6662997411
 20
15.2632277292
 30
0.0
 10
9.6664667943
 20
15.2632563441
 30
0.0
 10
9.6666709701
 20
15.2632426813
 30
0.0
 10
9.6669148135
 20
15.2631879962
 30
0.0
 10
9.6671995853
 20
15.2630924113
 30
0.0
 10
9.6675258427
 20
15.2629556151
 30
0.0
 10
9.6678937948
 20
15.2627774716
 30
0.0
 10
9.668473392
 20
15.2624666293
 30
0.0
 10
9.6692999808
 20
15.261968509
 30
0.0
 10
9.6704099397
 20
15.2612359408
 30
0.0
 10
9.6716861511
 20
15.2603382917
 30
0.0
 10
9.6731279642
 20
15.2592760046
 30
0.0
 10
9.6747346109
 20
15.2580495055
 30
0.0
 10
9.6765052325
 20
15.2566595004
 30
0.0
 10
9.6784388811
 20
15.2551068278
 30
0.0
 10
9.6813495202
 20
15.2527255772
 30
0.0
 10
9.685383079
 20
15.2493454551
 30
0.0
 10
9.6906838587
 20
15.2448032305
 30
0.0
 10
9.6966062661
 20
15.2396406437
 30
0.0
 10
9.7031372737
 20
15.2338704927
 30
0.0
 10
9.7102623966
 20
15.2275069437
 30
0.0
 10
9.7179658091
 20
15.2205656516
 30
0.0
 10
9.7262303654
 20
15.213063667
 30
0.0
 10
9.7383321743
 20
15.2020099932
 30
0.0
 10
9.7547067448
 20
15.1869327177
 30
0.0
 10
9.7757356881
 20
15.1674212923
 30
0.0
 10
9.7984899222
 20
15.1461863687
 30
0.0
 10
9.8227638402
 20
15.1234331667
 30
0.0
 10
9.8483376145
 20
15.0993810732
 30
0.0
 10
9.8749793631
 20
15.0742617073
 30
0.0
 10
9.9024472456
 20
15.04831669
 30
0.0
 10
9.9304917305
 20
15.021795383
 30
0.0
 10
9.9588579165
 20
14.9949525414
 30
0.0
 10
9.987287894
 20
14.9680459407
 30
0.0
 10
10.0155231731
 20
14.9413339403
 30
0.0
 10
10.0433070615
 20
14.9150730925
 30
0.0
 10
10.0703870927
 20
14.8895157092
 30
0.0
 10
10.096517339
 20
14.864907523
 30
0.0
 10
10.1214607386
 20
14.8414853642
 30
0.0
 10
10.1449912444
 20
14.8194749131
 30
0.0
 10
10.166896023
 20
14.7990886706
 30
0.0
 10
10.1840577814
 20
14.7832224279
 30
0.0
 10
10.1968323124
 20
14.7714934427
 30
0.0
 10
10.2056323865
 20
14.7634562702
 30
0.0
 10
10.2138895203
 20
14.7559616801
 30
0.0
 10
10.221585288
 20
14.7490280378
 30
0.0
 10
10.2287025413
 20
14.7426723535
 30
0.0
 10
10.2352254772
 20
14.7369102687
 30
0.0
 10
10.2411396275
 20
14.7317559285
 30
0.0
 10
10.2464319842
 20
14.727222111
 30
0.0
 10
10.2504584467
 20
14.72384911
 30
0.0
 10
10.2533633523
 20
14.7214736395
 30
0.0
 10
10.25529264
 20
14.7199253228
 30
0.0
 10
10.2570588743
 20
14.7185396979
 30
0.0
 10
10.2586611091
 20
14.717317599
 30
0.0
 10
10.2600984888
 20
14.716259729
 30
0.0
 10
10.2613702477
 20
14.7153665052
 30
0.0
 10
10.2624757367
 20
14.714638368
 30
0.0
 10
10.263298615
 20
14.71414398
 30
0.0
 10
10.2638752397
 20
14.7138361852
 30
0.0
 10
10.2642409662
 20
14.7136602574
 30
0.0
 10
10.26456495
 20
14.7135257069
 30
0.0
 10
10.2647699091
 20
14.7134579403
 30
0.0
 10
10.2648653505
 20
14.7134324206
 30
0.0
  0
LINE
  5
4E1
100
AcDbEntity
  8
0
100
AcDbLine
 62
7
  6
CONTINUOUS
 10
7.1800063468
 20
12.7940152294
 11
7.1746329356
 21
12.8000844892
  0
LINE
  5
4E2
100
AcDbEntity
  8
0
100
AcDbLine
 62
7
  6
CONTINUOUS
 10
7.1746329356
 20
12.8000844892
 11
7.1743168003
 21
12.8004257783
  0
LINE
  5
4E3
100
AcDbEntity
  8
0
100
AcDbLine
 62
7
  6
CONTINUOUS
 10
8.2221499282
 20
11.7758798826
 11
8.1790963792
 21
11.8156051104
  0
SPLINE
  5
4E4
100
AcDbEntity
  8
0
100
AcDbSpline
 62
7
  6
CONTINUOUS
 70
0
 71
3
 72
23
 73
19
 74
0
 42
0.0000001
 43
0.0000001
 44
0.0000000001
 40
0.0
 40
0.0
 40
0.0
 40
0.0
 40
0.0063409252
 40
0.0130897391
 40
0.020742639
 40
0.0296453943
 40
0.0519744804
 40
0.0810767086
 40
0.1173425346
 40
0.1609513929
 40
0.2119747556
 40
0.2704315037
 40
0.3363099238
 40
0.4095676435
 40
0.4901495061
 40
0.5779856949
 40
0.7750627896
 40
1.0
 40
1.0
 40
1.0
 40
1.0
 10
7.8839750822
 20
12.1421747498
 30
0.0
 10
7.8839885734
 20
12.1421863611
 30
0.0
 10
7.8840127683
 20
12.142214955
 30
0.0
 10
7.8840354886
 20
12.1422693386
 30
0.0
 10
7.88404549
 20
12.1423344781
 30
0.0
 10
7.8840423206
 20
12.1424440063
 30
0.0
 10
7.8840028728
 20
12.1426100939
 30
0.0
 10
7.8839134723
 20
12.1428397244
 30
0.0
 10
7.8837775218
 20
12.1431141511
 30
0.0
 10
7.8835949238
 20
12.1434331594
 30
0.0
 10
7.8833654881
 20
12.1437966575
 30
0.0
 10
7.8830893358
 20
12.1442042333
 30
0.0
 10
7.8827666558
 20
12.1446554443
 30
0.0
 10
7.88239776
 20
12.1451497877
 30
0.0
 10
7.8819830209
 20
12.1456867041
 30
0.0
 10
7.8813445357
 20
12.1464898623
 30
0.0
 10
7.8804336109
 20
12.147593919
 30
0.0
 10
7.8796638505
 20
12.1484944685
 30
0.0
 10
7.8792504668
 20
12.1489717728
 30
0.0
  0
SPLINE
  5
4E5
100
AcDbEntity
  8
0
100
AcDbSpline
 62
7
  6
CONTINUOUS
 70
0
 71
3
 72
17
 73
13
 74
0
 42
0.0000001
 43
0.0000001
 44
0.0000000001
 40
0.0
 40
0.0
 40
0.0
 40
0.0
 40
0.0235019973
 40
0.0486193582
 40
0.0771363041
 40
0.110290978
 40
0.1932660146
 40
0.3011223086
 40
0.4352781508
 40
0.5963427039
 40
0.7845656383
 40
1.0
 40
1.0
 40
1.0
 40
1.0
 10
7.5420986608
 20
12.4824227067
 30
0.0
 10
7.54211386
 20
12.4824357859
 30
0.0
 10
7.5421411759
 20
12.482468043
 30
0.0
 10
7.5421671683
 20
12.4825293449
 30
0.0
 10
7.5421792446
 20
12.4826029349
 30
0.0
 10
7.5421773727
 20
12.4827267894
 30
0.0
 10
7.5421361709
 20
12.4829149002
 30
0.0
 10
7.5420404186
 20
12.4831754149
 30
0.0
 10
7.5418936576
 20
12.4834868496
 30
0.0
 10
7.5416958481
 20
12.4838489537
 30
0.0
 10
7.5414467881
 20
12.4842615487
 30
0.0
 10
7.5412592882
 20
12.4845504966
 30
0.0
 10
7.5411574065
 20
12.4847034861
 30
0.0
  0
SPLINE
  5
4E6
100
AcDbEntity
  8
0
100
AcDbSpline
 62
7
  6
CONTINUOUS
 70
0
 71
3
 72
49
 73
45
 74
0
 42
0.0000001
 43
0.0000001
 44
0.0000000001
 40
0.0
 40
0.0
 40
0.0
 40
0.0
 40
0.0292403811
 40
0.0608109215
 40
0.0945293862
 40
0.13020026
 40
0.2065627164
 40
0.2881311918
 40
0.3730181488
 40
0.4592596657
 40
0.5448610452
 40
0.5868013378
 40
0.6278431746
 40
0.6677491546
 40
0.7062884813
 40
0.7432383953
 40
0.77838539
 40
0.8115264877
 40
0.8424704926
 40
0.8710390411
 40
0.8970676759
 40
0.9204070043
 40
0.9409236137
 40
0.9500863442
 40
0.9585011784
 40
0.9661563943
 40
0.973041627
 40
0.979147815
 40
0.9844673772
 40
0.9868303702
 40
0.9889947212
 40
0.9909601004
 40
0.9927264243
 40
0.9942938399
 40
0.9956629459
 40
0.9968350557
 40
0.9978125585
 40
0.9986000156
 40
0.9989253248
 40
0.9992073975
 40
0.9994493538
 40
0.9996561555
 40
0.9998357267
 40
1.0
 40
1.0
 40
1.0
 40
1.0
 10
9.582373852
 20
15.0106589533
 30
0.0
 10
9.5871724179
 20
15.0062865774
 30
0.0
 10
9.5971325033
 20
14.9971720448
 30
0.0
 10
9.6125692921
 20
14.9829536592
 30
0.0
 10
9.6290167551
 20
14.9677253544
 30
0.0
 10
9.6527151773
 20
14.9456911499
 30
0.0
 10
9.6841188554
 20
14.9163427689
 30
0.0
 10
9.7234283812
 20
14.8794511205
 30
0.0
 10
9.7642904518
 20
14.8410087795
 30
0.0
 10
9.8057862616
 20
14.8019333871
 30
0.0
 10
9.8403474726
 20
14.7694020534
 30
0.0
 10
9.8676196245
 20
14.7437680268
 30
0.0
 10
9.8875120865
 20
14.7250956036
 30
0.0
 10
9.906870213
 20
14.7069572106
 30
0.0
 10
9.9255854254
 20
14.6894613656
 30
0.0
 10
9.9435528688
 20
14.6727128312
 30
0.0
 10
9.9606720284
 20
14.6568120086
 30
0.0
 10
9.976847303
 20
14.6418543483
 30
0.0
 10
9.991988545
 20
14.6279297806
 30
0.0
 10
10.0060115805
 20
14.6151222096
 30
0.0
 10
10.0188386208
 20
14.603508907
 30
0.0
 10
10.0303988644
 20
14.5931602737
 30
0.0
 10
10.0392270951
 20
14.5853742043
 30
0.0
 10
10.045614779
 20
14.5798309345
 30
0.0
 10
10.0498687335
 20
14.5761857058
 30
0.0
 10
10.053763707
 20
14.5728988415
 30
0.0
 10
10.0572944537
 20
14.5699753794
 30
0.0
 10
10.0604562596
 20
14.5674198447
 30
0.0
 10
10.0628664527
 20
14.5655320271
 30
0.0
 10
10.0646093408
 20
14.5642122209
 30
0.0
 10
10.06576945
 20
14.5633565529
 30
0.0
 10
10.0668346119
 20
14.562595554
 30
0.0
 10
10.0678044961
 20
14.5619294886
 30
0.0
 10
10.0686788093
 20
14.5613585281
 30
0.0
 10
10.0694572945
 20
14.5608827918
 30
0.0
 10
10.0701398291
 20
14.5605020719
 30
0.0
 10
10.0707263271
 20
14.5602163395
 30
0.0
 10
10.0711594036
 20
14.5600467012
 30
0.0
 10
10.0714582425
 20
14.5599643628
 30
0.0
 10
10.0716440804
 20
14.559930544
 30
0.0
 10
10.0718065316
 20
14.5599205465
 30
0.0
 10
10.071946155
 20
14.5599347903
 30
0.0
 10
10.072063212
 20
14.5599743282
 30
0.0
 10
10.0721264914
 20
14.5600195958
 30
0.0
 10
10.0721522794
 20
14.5600453861
 30
0.0
  0
LINE
  5
4E7
100
AcDbEntity
  8
0
100
AcDbLine
 62
7
  6
CONTINUOUS
 10
8.0878583018
 20
11.908556481
 11
8.0870875242
 21
11.9092755726
  0
SPLINE
  5
4E8
100
AcDbEntity
  8
0
100
AcDbSpline
 62
7
  6
CONTINUOUS
 70
0
 71
3
 72
23
 73
19
 74
0
 42
0.0000001
 43
0.0000001
 44
0.0000000001
 40
0.0
 40
0.0
 40
0.0
 40
0.0
 40
0.0585340006
 40
0.1183360668
 40
0.1794208737
 40
0.2417426135
 40
0.3051862854
 40
0.3695612026
 40
0.4346054258
 40
0.5
 40
0.5653945742
 40
0.6304387974
 40
0.6948137146
 40
0.7582573865
 40
0.8205791263
 40
0.8816639332
 40
0.9414659994
 40
1.0
 40
1.0
 40
1.0
 40
1.0
 10
8.313947169
 20
14.3940491001
 30
0.0
 10
8.3143733915
 20
14.3988418107
 30
0.0
 10
8.3156312776
 20
14.4085005484
 30
0.0
 10
8.3187462276
 20
14.4229336302
 30
0.0
 10
8.3231665167
 20
14.4373500601
 30
0.0
 10
8.3289293496
 20
14.4516084781
 30
0.0
 10
8.3360446323
 20
14.465547872
 30
0.0
 10
8.3444881789
 20
14.4789909723
 30
0.0
 10
8.3541976486
 20
14.4917530089
 30
0.0
 10
8.3650710825
 20
14.5036532178
 30
0.0
 10
8.3769712913
 20
14.5145266517
 30
0.0
 10
8.3897333279
 20
14.5242361213
 30
0.0
 10
8.4031764282
 20
14.5326796679
 30
0.0
 10
8.4171158222
 20
14.5397949506
 30
0.0
 10
8.4313742402
 20
14.5455577835
 30
0.0
 10
8.4457906701
 20
14.5499780727
 30
0.0
 10
8.4602237518
 20
14.5530930227
 30
0.0
 10
8.4698824895
 20
14.5543509087
 30
0.0
 10
8.4746752001
 20
14.5547771313
 30
0.0
  0
SPLINE
  5
4E9
100
AcDbEntity
  8
0
100
AcDbSpline
 62
7
  6
CONTINUOUS
 70
0
 71
3
 72
23
 73
19
 74
0
 42
0.0000001
 43
0.0000001
 44
0.0000000001
 40
0.0
 40
0.0
 40
0.0
 40
0.0
 40
0.0595441274
 40
0.1200249578
 40
0.1814590619
 40
0.2438171468
 40
0.3070173338
 40
0.3709192293
 40
0.4353269807
 40
0.5
 40
0.5646730193
 40
0.6290807707
 40
0.6929826662
 40
0.7561828532
 40
0.8185409381
 40
0.8799750422
 40
0.9404558726
 40
1.0
 40
1.0
 40
1.0
 40
1.0
 10
8.3215989015
 20
14.3863973676
 30
0.0
 10
8.321859246
 20
14.3913405748
 30
0.0
 10
8.3227943086
 20
14.4012882633
 30
0.0
 10
8.3254777861
 20
14.4161510919
 30
0.0
 10
8.329517297
 20
14.4309493257
 30
0.0
 10
8.3349573576
 20
14.4455347507
 30
0.0
 10
8.3418148431
 20
14.4597395345
 30
0.0
 10
8.3500716919
 20
14.4733800137
 30
0.0
 10
8.359670273
 20
14.4862660112
 30
0.0
 10
8.3705113658
 20
14.4982129344
 30
0.0
 10
8.3824582891
 20
14.5090540272
 30
0.0
 10
8.3953442865
 20
14.5186526083
 30
0.0
 10
8.4089847658
 20
14.5269094572
 30
0.0
 10
8.4231895496
 20
14.5337669426
 30
0.0
 10
8.4377749745
 20
14.5392070032
 30
0.0
 10
8.4525732083
 20
14.5432465141
 30
0.0
 10
8.4674360369
 20
14.5459299916
 30
0.0
 10
8.4773837254
 20
14.5468650543
 30
0.0
 10
8.4823269326
 20
14.5471253988
 30
0.0
  0
SPLINE
  5
4EA
100
AcDbEntity
  8
0
100
AcDbSpline
 62
7
  6
CONTINUOUS
 70
0
 71
3
 72
23
 73
19
 74
0
 42
0.0000001
 43
0.0000001
 44
0.0000000001
 40
0.0
 40
0.0
 40
0.0
 40
0.0
 40
0.0604265705
 40
0.1215050726
 40
0.183250614
 40
0.2456454797
 40
0.3086346431
 40
0.3721207284
 40
0.4359660287
 40
0.5
 40
0.5640339713
 40
0.6278792716
 40
0.6913653569
 40
0.7543545203
 40
0.816749386
 40
0.8784949274
 40
0.9395734295
 40
1.0
 40
1.0
 40
1.0
 40
1.0
 10
8.3342698844
 20
14.3737263847
 30
0.0
 10
8.3343878689
 20
14.3787993084
 30
0.0
 10
8.3350457897
 20
14.3889955377
 30
0.0
 10
8.3373565373
 20
14.4042287326
 30
0.0
 10
8.3410668712
 20
14.4193561398
 30
0.0
 10
8.3462277234
 20
14.4342237309
 30
0.0
 10
8.3528621348
 20
14.4486578122
 30
0.0
 10
8.3609574856
 20
14.4624691432
 30
0.0
 10
8.3704603172
 20
14.4754627377
 30
0.0
 10
8.3812737874
 20
14.4874505128
 30
0.0
 10
8.3932615625
 20
14.498263983
 30
0.0
 10
8.406255157
 20
14.5077668147
 30
0.0
 10
8.420066488
 20
14.5158621655
 30
0.0
 10
8.4345005693
 20
14.5224965768
 30
0.0
 10
8.4493681604
 20
14.527657429
 30
0.0
 10
8.4644955677
 20
14.531367763
 30
0.0
 10
8.4797287625
 20
14.5336785106
 30
0.0
 10
8.4899249918
 20
14.5343364314
 30
0.0
 10
8.4949979156
 20
14.5344544158
 30
0.0
  0
SPLINE
  5
4EB
100
AcDbEntity
  8
0
100
AcDbSpline
 62
7
  6
CONTINUOUS
 70
0
 71
3
 72
23
 73
19
 74
0
 42
0.0000001
 43
0.0000001
 44
0.0000000001
 40
0.0
 40
0.0
 40
0.0
 40
0.0
 40
0.0611649977
 40
0.1227469256
 40
0.1847575597
 40
0.247186862
 40
0.3100007381
 40
0.3731370815
 40
0.436507096
 40
0.5
 40
0.563492904
 40
0.6268629185
 40
0.6899992619
 40
0.752813138
 40
0.8152424403
 40
0.8772530744
 40
0.9388350023
 40
1.0
 40
1.0
 40
1.0
 40
1.0
 10
8.3518380893
 20
14.3561581798
 30
0.0
 10
8.3518382055
 20
14.3613389207
 30
0.0
 10
8.3522666584
 20
14.3717413855
 30
0.0
 10
8.3542672335
 20
14.3872822164
 30
0.0
 10
8.3577034582
 20
14.4026831045
 30
0.0
 10
8.3626316626
 20
14.4177852722
 30
0.0
 10
8.3690801236
 20
14.4324101886
 30
0.0
 10
8.3770408724
 20
14.4463639462
 30
0.0
 10
8.3864640158
 20
14.4594474573
 30
0.0
 10
8.3972547107
 20
14.4714695895
 30
0.0
 10
8.4092768429
 20
14.4822602844
 30
0.0
 10
8.422360354
 20
14.4916834279
 30
0.0
 10
8.4363141117
 20
14.4996441766
 30
0.0
 10
8.450939028
 20
14.5060926376
 30
0.0
 10
8.4660411957
 20
14.511020842
 30
0.0
 10
8.4814420839
 20
14.5144570667
 30
0.0
 10
8.4969829147
 20
14.5164576418
 30
0.0
 10
8.5073853795
 20
14.5168860947
 30
0.0
 10
8.5125661204
 20
14.5168862109
 30
0.0
  0
SPLINE
  5
4EC
100
AcDbEntity
  8
0
100
AcDbSpline
 62
7
  6
CONTINUOUS
 70
0
 71
3
 72
23
 73
19
 74
0
 42
0.0000001
 43
0.0000001
 44
0.0000000001
 40
0.0
 40
0.0
 40
0.0
 40
0.0
 40
0.0617482986
 40
0.1237299758
 40
0.1859528853
 40
0.2484117752
 40
0.3110880724
 40
0.3739470236
 40
0.4369386079
 40
0.5
 40
0.5630613921
 40
0.6260529764
 40
0.6889119276
 40
0.7515882248
 40
0.8140471147
 40
0.8762700242
 40
0.9382517014
 40
1.0
 40
1.0
 40
1.0
 40
1.0
 10
8.3741343247
 20
14.3338619444
 30
0.0
 10
8.3740418834
 20
14.3391276243
 30
0.0
 10
8.3742901659
 20
14.3496923535
 30
0.0
 10
8.3760462521
 20
14.365475338
 30
0.0
 10
8.3792662962
 20
14.3810915186
 30
0.0
 10
8.3840109139
 20
14.3963784372
 30
0.0
 10
8.3903125762
 20
14.4111537864
 30
0.0
 10
8.3981670655
 20
14.4252199715
 30
0.0
 10
8.40752737
 20
14.4383746077
 30
0.0
 10
8.4183002417
 20
14.4504240585
 30
0.0
 10
8.4303496925
 20
14.4611969302
 30
0.0
 10
8.4435043288
 20
14.4705572347
 30
0.0
 10
8.4575705138
 20
14.4784117241
 30
0.0
 10
8.472345863
 20
14.4847133863
 30
0.0
 10
8.4876327816
 20
14.489458004
 30
0.0
 10
8.5032489622
 20
14.4926780481
 30
0.0
 10
8.5190319467
 20
14.4944341344
 30
0.0
 10
8.5295966759
 20
14.4946824169
 30
0.0
 10
8.5348623559
 20
14.4945899755
 30
0.0
  0
SPLINE
  5
4ED
100
AcDbEntity
  8
0
100
AcDbSpline
 62
7
  6
CONTINUOUS
 70
0
 71
3
 72
25
 73
21
 74
0
 42
0.0000001
 43
0.0000001
 44
0.0000000001
 40
0.0
 40
0.0
 40
0.0
 40
0.0
 40
0.0038856562
 40
0.0085365995
 40
0.0145487692
 40
0.0222061553
 40
0.0316442086
 40
0.0429316117
 40
0.0561061589
 40
0.0711898722
 40
0.1071292507
 40
0.1507934032
 40
0.2021694315
 40
0.2612224472
 40
0.3278906639
 40
0.4021005759
 40
0.4837659285
 40
0.5727830638
 40
0.772422836
 40
1.0
 40
1.0
 40
1.0
 40
1.0
 10
7.8747717416
 20
12.1215913549
 30
0.0
 10
7.8747811916
 20
12.1215994893
 30
0.0
 10
7.8747968905
 20
12.1216236168
 30
0.0
 10
7.8748023395
 20
12.1216709335
 30
0.0
 10
7.8747940723
 20
12.1217294478
 30
0.0
 10
7.8747723488
 20
12.1218005561
 30
0.0
 10
7.8747371324
 20
12.1218846495
 30
0.0
 10
7.8746882722
 20
12.1219819121
 30
0.0
 10
7.8746257154
 20
12.122092364
 30
0.0
 10
7.8745174743
 20
12.1222676849
 30
0.0
 10
7.8743462237
 20
12.1225188337
 30
0.0
 10
7.874096849
 20
12.1228572259
 30
0.0
 10
7.8737930646
 20
12.1232474388
 30
0.0
 10
7.8734352105
 20
12.1236889431
 30
0.0
 10
7.8730236703
 20
12.1241811482
 30
0.0
 10
7.8725589458
 20
12.1247233911
 30
0.0
 10
7.8720416222
 20
12.1253149498
 30
0.0
 10
7.8712518819
 20
12.1262029157
 30
0.0
 10
7.8701375066
 20
12.1274286846
 30
0.0
 10
7.8692047374
 20
12.1284333671
 30
0.0
 10
7.868705764
 20
12.1289665959
 30
0.0
  0
SPLINE
  5
4EE
100
AcDbEntity
  8
0
100
AcDbSpline
 62
7
  6
CONTINUOUS
 70
0
 71
3
 72
23
 73
19
 74
0
 42
0.0000001
 43
0.0000001
 44
0.0000000001
 40
0.0
 40
0.0
 40
0.0
 40
0.0
 40
0.0621692294
 40
0.1244405043
 40
0.1868181676
 40
0.2492997292
 40
0.3118772515
 40
0.3745354251
 40
0.4372522759
 40
0.5
 40
0.5627477241
 40
0.6254645749
 40
0.6881227485
 40
0.7507002708
 40
0.8131818324
 40
0.8755594957
 40
0.9378307706
 40
1.0
 40
1.0
 40
1.0
 40
1.0
 10
8.4009438657
 20
14.3070524033
 30
0.0
 10
8.4007848318
 20
14.312379346
 30
0.0
 10
8.4009035086
 20
14.323061001
 30
0.0
 10
8.4024832221
 20
14.339018503
 30
0.0
 10
8.4055472501
 20
14.354789849
 30
0.0
 10
8.410159313
 20
14.3702099626
 30
0.0
 10
8.4163549427
 20
14.3850938364
 30
0.0
 10
8.4241326777
 20
14.3992412145
 30
0.0
 10
8.433447628
 20
14.4124472997
 30
0.0
 10
8.4442077102
 20
14.42451659
 30
0.0
 10
8.4562770006
 20
14.4352766722
 30
0.0
 10
8.4694830857
 20
14.4445916225
 30
0.0
 10
8.4836304639
 20
14.4523693575
 30
0.0
 10
8.4985143376
 20
14.4585649872
 30
0.0
 10
8.5139344512
 20
14.4631770501
 30
0.0
 10
8.5297057973
 20
14.4662410781
 30
0.0
 10
8.5456632992
 20
14.4678207916
 30
0.0
 10
8.5563449542
 20
14.4679394684
 30
0.0
 10
8.5616718969
 20
14.4677804345
 30
0.0
  0
SPLINE
  5
4EF
100
AcDbEntity
  8
0
100
AcDbSpline
 62
7
  6
CONTINUOUS
 70
0
 71
3
 72
25
 73
21
 74
0
 42
0.0000001
 43
0.0000001
 44
0.0000000001
 40
0.0
 40
0.0
 40
0.0
 40
0.0
 40
0.0038706986
 40
0.008630413
 40
0.0148393845
 40
0.0227542356
 40
0.0324947426
 40
0.0441201081
 40
0.0576618581
 40
0.0731371404
 40
0.1099069609
 40
0.1544271701
 40
0.2066398146
 40
0.2664512916
 40
0.333742556
 40
0.4083720944
 40
0.4901785066
 40
0.5789829776
 40
0.7767805515
 40
1.0
 40
1.0
 40
1.0
 40
1.0
 10
6.8995883068
 20
13.1218858075
 30
0.0
 10
6.8996042455
 20
13.1218995238
 30
0.0
 10
6.8996305246
 20
13.1219412171
 30
0.0
 10
6.8996400228
 20
13.1220226866
 30
0.0
 10
6.8996276508
 20
13.1221249912
 30
0.0
 10
6.8995933774
 20
13.1222503498
 30
0.0
 10
6.8995372322
 20
13.1223993311
 30
0.0
 10
6.8994589503
 20
13.1225721683
 30
0.0
 10
6.8993584794
 20
13.122768846
 30
0.0
 10
6.8991845667
 20
13.1230811408
 30
0.0
 10
6.8989091474
 20
13.1235291536
 30
0.0
 10
6.8985078177
 20
13.1241333638
 30
0.0
 10
6.8980193422
 20
13.1248296279
 30
0.0
 10
6.8974447641
 20
13.125616344
 30
0.0
 10
6.8967852549
 20
13.1264916742
 30
0.0
 10
6.8960422685
 20
13.1274535982
 30
0.0
 10
6.8952174618
 20
13.1284999134
 30
0.0
 10
6.8939653294
 20
13.1300613127
 30
0.0
 10
6.8922089458
 20
13.1322029661
 30
0.0
 10
6.8907395979
 20
13.1339558571
 30
0.0
 10
6.8899567344
 20
13.1348819763
 30
0.0
  0
SPLINE
  5
4F0
100
AcDbEntity
  8
0
100
AcDbSpline
 62
7
  6
CONTINUOUS
 70
0
 71
3
 72
23
 73
19
 74
0
 42
0.0000001
 43
0.0000001
 44
0.0000000001
 40
0.0
 40
0.0
 40
0.0
 40
0.0
 40
0.0624233566
 40
0.1248699207
 40
0.1873416477
 40
0.2498374362
 40
0.3123555376
 40
0.3748922564
 40
0.4374425745
 40
0.5
 40
0.5625574255
 40
0.6251077436
 40
0.6876444624
 40
0.7501625638
 40
0.8126583523
 40
0.8751300793
 40
0.9375766434
 40
1.0
 40
1.0
 40
1.0
 40
1.0
 10
8.4320085218
 20
14.2759877473
 30
0.0
 10
8.4318093382
 20
14.2813516879
 30
0.0
 10
8.4318498848
 20
14.292103915
 30
0.0
 10
8.4333230796
 20
14.3081667499
 30
0.0
 10
8.4362928568
 20
14.3240317495
 30
0.0
 10
8.4408248161
 20
14.3395322713
 30
0.0
 10
8.4469563521
 20
14.3544816881
 30
0.0
 10
8.4546876885
 20
14.3686781381
 30
0.0
 10
8.4639752358
 20
14.3819153527
 30
0.0
 10
8.4747276209
 20
14.3939966793
 30
0.0
 10
8.4868089475
 20
14.4047490644
 30
0.0
 10
8.5000461622
 20
14.4140366117
 30
0.0
 10
8.5142426121
 20
14.4217679481
 30
0.0
 10
8.5291920289
 20
14.4278994841
 30
0.0
 10
8.5446925507
 20
14.4324314434
 30
0.0
 10
8.5605575503
 20
14.4354012206
 30
0.0
 10
8.5766203853
 20
14.4368744154
 30
0.0
 10
8.5873726123
 20
14.4369149621
 30
0.0
 10
8.592736553
 20
14.4367157784
 30
0.0
  0
SPLINE
  5
4F1
100
AcDbEntity
  8
0
100
AcDbSpline
 62
7
  6
CONTINUOUS
 70
0
 71
3
 72
34
 73
30
 74
0
 42
0.0000001
 43
0.0000001
 44
0.0000000001
 40
0.0
 40
0.0
 40
0.0
 40
0.0
 40
0.0003606222
 40
0.0007762475
 40
0.0012868311
 40
0.0019144056
 40
0.0035614731
 40
0.0057659279
 40
0.0085443375
 40
0.0119036667
 40
0.015846958
 40
0.0203749789
 40
0.0254866299
 40
0.0311800826
 40
0.044302457
 40
0.059715098
 40
0.0773841638
 40
0.0972682143
 40
0.1193211386
 40
0.1697174129
 40
0.2280922615
 40
0.2938873839
 40
0.366473103
 40
0.4451546564
 40
0.5291798969
 40
0.6177457542
 40
0.7100052666
 40
0.8050771304
 40
1.0
 40
1.0
 40
1.0
 40
1.0
 10
6.6764489601
 20
13.3439708822
 30
0.0
 10
6.6764542537
 20
13.3439754399
 30
0.0
 10
6.6764634461
 20
13.3439879737
 30
0.0
 10
6.6764697923
 20
13.3440124655
 30
0.0
 10
6.6764701139
 20
13.3440427424
 30
0.0
 10
6.67646203
 20
13.3440962347
 30
0.0
 10
6.6764348504
 20
13.3441790834
 30
0.0
 10
6.6763825794
 20
13.3442964346
 30
0.0
 10
6.676307254
 20
13.3444395163
 30
0.0
 10
6.6762089009
 20
13.3446082447
 30
0.0
 10
6.6760873773
 20
13.3448025695
 30
0.0
 10
6.6759427201
 20
13.3450223598
 30
0.0
 10
6.6757749835
 20
13.3452674836
 30
0.0
 10
6.6755077329
 20
13.3456461718
 30
0.0
 10
6.6751156254
 20
13.3461808758
 30
0.0
 10
6.6745748014
 20
13.3468940057
 30
0.0
 10
6.6739449073
 20
13.3477038677
 30
0.0
 10
6.6732274501
 20
13.348608499
 30
0.0
 10
6.6721053536
 20
13.3500012538
 30
0.0
 10
6.6704963828
 20
13.3519591019
 30
0.0
 10
6.6683263993
 20
13.3545524099
 30
0.0
 10
6.6658604479
 20
13.3574583805
 30
0.0
 10
6.6631221575
 20
13.3606490364
 30
0.0
 10
6.6601377052
 20
13.3640936993
 30
0.0
 10
6.6569356447
 20
13.3677593289
 30
0.0
 10
6.6535465996
 20
13.3716107986
 30
0.0
 10
6.650002983
 20
13.3756112379
 30
0.0
 10
6.645076262
 20
13.3811386624
 30
0.0
 10
6.6413201705
 20
13.3853155219
 30
0.0
 10
6.6387876977
 20
13.3881159887
 30
0.0
  0
SPLINE
  5
4F2
100
AcDbEntity
  8
0
100
AcDbSpline
 62
7
  6
CONTINUOUS
 70
0
 71
3
 72
23
 73
19
 74
0
 42
0.0000001
 43
0.0000001
 44
0.0000000001
 40
0.0
 40
0.0
 40
0.0
 40
0.0
 40
0.0625083127
 40
0.1250135521
 40
0.1875168315
 40
0.250017467
 40
0.3125157401
 40
0.375011816
 40
0.4375063489
 40
0.5
 40
0.5624936511
 40
0.624988184
 40
0.6874842599
 40
0.749982533
 40
0.8124831685
 40
0.8749864479
 40
0.9374916873
 40
1.0
 40
1.0
 40
1.0
 40
1.0
 10
8.4670291233
 20
14.2409671457
 30
0.0
 10
8.4668165238
 20
14.2463434595
 30
0.0
 10
8.4668309658
 20
14.2571192807
 30
0.0
 10
8.4682685385
 20
14.2732173307
 30
0.0
 10
8.4712067918
 20
14.2891136406
 30
0.0
 10
8.4757119546
 20
14.3046410468
 30
0.0
 10
8.4818220467
 20
14.3196123826
 30
0.0
 10
8.4895378588
 20
14.3338252492
 30
0.0
 10
8.4988162399
 20
14.347072884
 30
0.0
 10
8.5095660553
 20
14.3591582449
 30
0.0
 10
8.5216514162
 20
14.3699080604
 30
0.0
 10
8.534899051
 20
14.3791864414
 30
0.0
 10
8.5491119176
 20
14.3869022535
 30
0.0
 10
8.5640832534
 20
14.3930123456
 30
0.0
 10
8.5796106597
 20
14.3975175084
 30
0.0
 10
8.5955069696
 20
14.4004557618
 30
0.0
 10
8.6116050195
 20
14.4018933344
 30
0.0
 10
8.6223808408
 20
14.4019077764
 30
0.0
 10
8.6277571545
 20
14.4016951769
 30
0.0
  0
SPLINE
  5
4F3
100
AcDbEntity
  8
0
100
AcDbSpline
 62
7
  6
CONTINUOUS
 70
0
 71
3
 72
23
 73
19
 74
0
 42
0.0000001
 43
0.0000001
 44
0.0000000001
 40
0.0
 40
0.0
 40
0.0
 40
0.0
 40
0.0504957751
 40
0.1051210421
 40
0.1637061911
 40
0.2259451553
 40
0.2913802217
 40
0.3593951444
 40
0.4292274992
 40
0.5
 40
0.5707725008
 40
0.6406048556
 40
0.7086197783
 40
0.7740548447
 40
0.8362938089
 40
0.8948789579
 40
0.9495042249
 40
1.0
 40
1.0
 40
1.0
 40
1.0
 10
8.6663964339
 20
14.3630558975
 30
0.0
 10
8.6639880204
 20
14.3600758295
 30
0.0
 10
8.6589187891
 20
14.3539166585
 30
0.0
 10
8.6508762978
 20
14.3444490718
 30
0.0
 10
8.6421124059
 20
14.3344269078
 30
0.0
 10
8.6326672679
 20
14.3239125681
 30
0.0
 10
8.6226053968
 20
14.312992018
 30
0.0
 10
8.6120170281
 20
14.3017746449
 30
0.0
 10
8.601016898
 20
14.2903905068
 30
0.0
 10
8.5897399257
 20
14.2789843745
 30
0.0
 10
8.5783337935
 20
14.2677074022
 30
0.0
 10
8.5669496553
 20
14.2567072722
 30
0.0
 10
8.5557322822
 20
14.2461189034
 30
0.0
 10
8.5448117322
 20
14.2360570323
 30
0.0
 10
8.5342973925
 20
14.2266118943
 30
0.0
 10
8.5242752285
 20
14.2178480024
 30
0.0
 10
8.5148076418
 20
14.2098055111
 30
0.0
 10
8.5086484708
 20
14.2047362798
 30
0.0
 10
8.5056684028
 20
14.2023278663
 30
0.0
  0
SPLINE
  5
4F4
100
AcDbEntity
  8
0
100
AcDbSpline
 62
7
  6
CONTINUOUS
 70
0
 71
3
 72
23
 73
19
 74
0
 42
0.0000001
 43
0.0000001
 44
0.0000000001
 40
0.0
 40
0.0
 40
0.0
 40
0.0
 40
0.0624233566
 40
0.1248699207
 40
0.1873416477
 40
0.2498374362
 40
0.3123555376
 40
0.3748922564
 40
0.4374425745
 40
0.5
 40
0.5625574255
 40
0.6251077436
 40
0.6876444624
 40
0.7501625638
 40
0.8126583523
 40
0.8751300793
 40
0.9375766434
 40
1.0
 40
1.0
 40
1.0
 40
1.0
 10
8.5056684028
 20
14.2023278663
 30
0.0
 10
8.5054692191
 20
14.207691807
 30
0.0
 10
8.5055097658
 20
14.218444034
 30
0.0
 10
8.5069829605
 20
14.234506869
 30
0.0
 10
8.5099527377
 20
14.2503718686
 30
0.0
 10
8.514484697
 20
14.2658723904
 30
0.0
 10
8.5206162331
 20
14.2808218072
 30
0.0
 10
8.5283475695
 20
14.2950182571
 30
0.0
 10
8.5376351168
 20
14.3082554718
 30
0.0
 10
8.5483875019
 20
14.3203367983
 30
0.0
 10
8.5604688284
 20
14.3310891834
 30
0.0
 10
8.5737060431
 20
14.3403767308
 30
0.0
 10
8.5879024931
 20
14.3481080671
 30
0.0
 10
8.6028519099
 20
14.3542396032
 30
0.0
 10
8.6183524316
 20
14.3587715625
 30
0.0
 10
8.6342174313
 20
14.3617413397
 30
0.0
 10
8.6502802662
 20
14.3632145345
 30
0.0
 10
8.6610324933
 20
14.3632550811
 30
0.0
 10
8.6663964339
 20
14.3630558975
 30
0.0
  0
SPLINE
  5
4F5
100
AcDbEntity
  8
0
100
AcDbSpline
 62
7
  6
CONTINUOUS
 70
0
 71
3
 72
23
 73
19
 74
0
 42
0.0000001
 43
0.0000001
 44
0.0000000001
 40
0.0
 40
0.0
 40
0.0
 40
0.0
 40
0.0509744488
 40
0.1058959054
 40
0.1646157462
 40
0.2268499211
 40
0.2921645198
 40
0.359969323
 40
0.4295301926
 40
0.5
 40
0.5704698074
 40
0.640030677
 40
0.7078354802
 40
0.7731500789
 40
0.8353842538
 40
0.8941040946
 40
0.9490255512
 40
1.0
 40
1.0
 40
1.0
 40
1.0
 10
8.7082822739
 20
14.3211700575
 30
0.0
 10
8.7061621253
 20
14.317914884
 30
0.0
 10
8.7016412878
 20
14.3112277772
 30
0.0
 10
8.6943026277
 20
14.3010508576
 30
0.0
 10
8.6861598981
 20
14.2904023043
 30
0.0
 10
8.6772422986
 20
14.279355557
 30
0.0
 10
8.6676036807
 20
14.2680070888
 30
0.0
 10
8.6573247857
 20
14.256475724
 30
0.0
 10
8.6465127429
 20
14.244899061
 30
0.0
 10
8.6352975787
 20
14.2334267215
 30
0.0
 10
8.6238252393
 20
14.2222115573
 30
0.0
 10
8.6122485762
 20
14.2113995146
 30
0.0
 10
8.6007172114
 20
14.2011206195
 30
0.0
 10
8.5893687432
 20
14.1914820016
 30
0.0
 10
8.5783219959
 20
14.1825644022
 30
0.0
 10
8.5676734426
 20
14.1744216726
 30
0.0
 10
8.5574965231
 20
14.1670830124
 30
0.0
 10
8.5508094162
 20
14.1625621749
 30
0.0
 10
8.5475542427
 20
14.1604420263
 30
0.0
  0
LINE
  5
4F6
100
AcDbEntity
  8
0
100
AcDbLine
 62
7
  6
CONTINUOUS
 10
6.292269245
 20
13.7696875743
 11
6.2653982197
 21
13.801322985
  0
SPLINE
  5
4F7
100
AcDbEntity
  8
0
100
AcDbSpline
 62
7
  6
CONTINUOUS
 70
0
 71
3
 72
23
 73
19
 74
0
 42
0.0000001
 43
0.0000001
 44
0.0000000001
 40
0.0
 40
0.0
 40
0.0
 40
0.0
 40
0.0621692294
 40
0.1244405043
 40
0.1868181676
 40
0.2492997292
 40
0.3118772515
 40
0.3745354251
 40
0.4372522759
 40
0.5
 40
0.5627477241
 40
0.6254645749
 40
0.6881227485
 40
0.7507002708
 40
0.8131818324
 40
0.8755594957
 40
0.9378307706
 40
1.0
 40
1.0
 40
1.0
 40
1.0
 10
8.5475542427
 20
14.1604420263
 30
0.0
 10
8.5473952088
 20
14.165768969
 30
0.0
 10
8.5475138856
 20
14.176450624
 30
0.0
 10
8.5490935991
 20
14.192408126
 30
0.0
 10
8.5521576271
 20
14.208179472
 30
0.0
 10
8.55676969
 20
14.2235995856
 30
0.0
 10
8.5629653197
 20
14.2384834594
 30
0.0
 10
8.5707430547
 20
14.2526308375
 30
0.0
 10
8.580058005
 20
14.2658369227
 30
0.0
 10
8.5908180872
 20
14.277906213
 30
0.0
 10
8.6028873776
 20
14.2886662952
 30
0.0
 10
8.6160934627
 20
14.2979812455
 30
0.0
 10
8.6302408409
 20
14.3057589805
 30
0.0
 10
8.6451247146
 20
14.3119546102
 30
0.0
 10
8.6605448282
 20
14.3165666731
 30
0.0
 10
8.6763161743
 20
14.3196307011
 30
0.0
 10
8.6922736762
 20
14.3212104146
 30
0.0
 10
8.7029553312
 20
14.3213290914
 30
0.0
 10
8.7082822739
 20
14.3211700575
 30
0.0
  0
SPLINE
  5
4F8
100
AcDbEntity
  8
0
100
AcDbSpline
 62
7
  6
CONTINUOUS
 70
0
 71
3
 72
23
 73
19
 74
0
 42
0.0000001
 43
0.0000001
 44
0.0000000001
 40
0.0
 40
0.0
 40
0.0
 40
0.0
 40
0.0517273468
 40
0.1071179711
 40
0.16605334
 40
0.228282358
 40
0.2934078009
 40
0.3608803196
 40
0.4300106972
 40
0.5
 40
0.5699893028
 40
0.6391196804
 40
0.7065921991
 40
0.771717642
 40
0.83394666
 40
0.8928820289
 40
0.9482726532
 40
1.0
 40
1.0
 40
1.0
 40
1.0
 10
8.7530112908
 20
14.2764410406
 30
0.0
 10
8.7511748252
 20
14.2729219131
 30
0.0
 10
8.7471947652
 20
14.2657258061
 30
0.0
 10
8.7405466971
 20
14.2548506128
 30
0.0
 10
8.7330130814
 20
14.2435853016
 30
0.0
 10
8.7246124477
 20
14.2320141896
 30
0.0
 10
8.7153882456
 20
14.22024402
 30
0.0
 10
8.7054119426
 20
14.2084028656
 30
0.0
 10
8.6947832328
 20
14.196635711
 30
0.0
 10
8.6836273631
 20
14.1850969372
 30
0.0
 10
8.6720885893
 20
14.1739410675
 30
0.0
 10
8.6603214346
 20
14.1633123576
 30
0.0
 10
8.6484802802
 20
14.1533360546
 30
0.0
 10
8.6367101107
 20
14.1441118525
 30
0.0
 10
8.6251389986
 20
14.1357112188
 30
0.0
 10
8.6138736875
 20
14.1281776032
 30
0.0
 10
8.6029984941
 20
14.121529535
 30
0.0
 10
8.5958023871
 20
14.117549475
 30
0.0
 10
8.5922832597
 20
14.1157130094
 30
0.0
  0
SPLINE
  5
4F9
100
AcDbEntity
  8
0
100
AcDbSpline
 62
7
  6
CONTINUOUS
 70
0
 71
3
 72
17
 73
13
 74
0
 42
0.0000001
 43
0.0000001
 44
0.0000000001
 40
0.0
 40
0.0
 40
0.0
 40
0.0
 40
0.0192235675
 40
0.040637518
 40
0.0662821981
 40
0.0973716713
 40
0.1782458503
 40
0.2861019411
 40
0.4219210384
 40
0.5861023672
 40
0.7788000741
 40
1.0
 40
1.0
 40
1.0
 40
1.0
 10
7.5273963091
 20
12.4673051805
 30
0.0
 10
7.5274056529
 20
12.4673132188
 30
0.0
 10
7.527422033
 20
12.4673344705
 30
0.0
 10
7.5274342866
 20
12.4673758525
 30
0.0
 10
7.5274359448
 20
12.4674262845
 30
0.0
 10
7.527423587
 20
12.4675139335
 30
0.0
 10
7.52737857
 20
12.4676483924
 30
0.0
 10
7.5272905054
 20
12.4678370336
 30
0.0
 10
7.5271628525
 20
12.4680655079
 30
0.0
 10
7.5269956592
 20
12.4683336106
 30
0.0
 10
7.5267887263
 20
12.4686411878
 30
0.0
 10
7.5266349314
 20
12.4688574884
 30
0.0
 10
7.5265516603
 20
12.4689722963
 30
0.0
  0
SPLINE
  5
4FA
100
AcDbEntity
  8
0
100
AcDbSpline
 62
7
  6
CONTINUOUS
 70
0
 71
3
 72
23
 73
19
 74
0
 42
0.0000001
 43
0.0000001
 44
0.0000000001
 40
0.0
 40
0.0
 40
0.0
 40
0.0
 40
0.0617482986
 40
0.1237299759
 40
0.1859528853
 40
0.2484117752
 40
0.3110880724
 40
0.3739470236
 40
0.4369386079
 40
0.5
 40
0.5630613921
 40
0.6260529764
 40
0.6889119276
 40
0.7515882248
 40
0.8140471147
 40
0.8762700241
 40
0.9382517014
 40
1.0
 40
1.0
 40
1.0
 40
1.0
 10
8.5922832597
 20
14.1157130094
 30
0.0
 10
8.5921908183
 20
14.1209786894
 30
0.0
 10
8.5924391008
 20
14.1315434186
 30
0.0
 10
8.594195187
 20
14.1473264031
 30
0.0
 10
8.5974152312
 20
14.1629425837
 30
0.0
 10
8.6021598489
 20
14.1782295022
 30
0.0
 10
8.6084615111
 20
14.1930048514
 30
0.0
 10
8.6163160005
 20
14.2070710365
 30
0.0
 10
8.625676305
 20
14.2202256728
 30
0.0
 10
8.6364491767
 20
14.2322751236
 30
0.0
 10
8.6484986275
 20
14.2430479952
 30
0.0
 10
8.6616532637
 20
14.2524082998
 30
0.0
 10
8.6757194488
 20
14.2602627891
 30
0.0
 10
8.690494798
 20
14.2665644513
 30
0.0
 10
8.7057817165
 20
14.2713090691
 30
0.0
 10
8.7213978971
 20
14.2745291132
 30
0.0
 10
8.7371808817
 20
14.2762851994
 30
0.0
 10
8.7477456109
 20
14.2765334819
 30
0.0
 10
8.7530112908
 20
14.2764410406
 30
0.0
  0
SPLINE
  5
4FB
100
AcDbEntity
  8
0
100
AcDbSpline
 62
7
  6
CONTINUOUS
 70
0
 71
3
 72
23
 73
19
 74
0
 42
0.0000001
 43
0.0000001
 44
0.0000000001
 40
0.0
 40
0.0
 40
0.0
 40
0.0
 40
0.0526961062
 40
0.1086962198
 40
0.1679154935
 40
0.2301422172
 40
0.2950249466
 40
0.3620667403
 40
0.4306369365
 40
0.5
 40
0.5693630635
 40
0.6379332597
 40
0.7049750534
 40
0.7698577828
 40
0.8320845065
 40
0.8913037802
 40
0.9473038938
 40
1.0
 40
1.0
 40
1.0
 40
1.0
 10
8.8001527199
 20
14.2292996115
 30
0.0
 10
8.7985910154
 20
14.2255294925
 30
0.0
 10
8.7951367489
 20
14.2178476871
 30
0.0
 10
8.7891603683
 20
14.2062925878
 30
0.0
 10
8.7822187979
 20
14.1944264318
 30
0.0
 10
8.7743202518
 20
14.1823442064
 30
0.0
 10
8.7654981519
 20
14.170162675
 30
0.0
 10
8.7558150144
 20
14.1580189363
 30
0.0
 10
8.7453633621
 20
14.1460651829
 30
0.0
 10
8.7342638448
 20
14.1344604555
 30
0.0
 10
8.7226591173
 20
14.1233609381
 30
0.0
 10
8.7107053639
 20
14.1129092858
 30
0.0
 10
8.6985616252
 20
14.1032261483
 30
0.0
 10
8.6863800938
 20
14.0944040484
 30
0.0
 10
8.6742978685
 20
14.0865055023
 30
0.0
 10
8.6624317124
 20
14.079563932
 30
0.0
 10
8.6508766132
 20
14.0735875513
 30
0.0
 10
8.6431948077
 20
14.0701332848
 30
0.0
 10
8.6394246887
 20
14.0685715804
 30
0.0
  0
SPLINE
  5
4FC
100
AcDbEntity
  8
0
100
AcDbSpline
 62
7
  6
CONTINUOUS
 70
0
 71
3
 72
23
 73
19
 74
0
 42
0.0000001
 43
0.0000001
 44
0.0000000001
 40
0.0
 40
0.0
 40
0.0
 40
0.0
 40
0.0611649977
 40
0.1227469256
 40
0.1847575597
 40
0.247186862
 40
0.3100007381
 40
0.3731370815
 40
0.436507096
 40
0.5
 40
0.563492904
 40
0.6268629185
 40
0.6899992619
 40
0.752813138
 40
0.8152424403
 40
0.8772530744
 40
0.9388350023
 40
1.0
 40
1.0
 40
1.0
 40
1.0
 10
8.6394246887
 20
14.0685715804
 30
0.0
 10
8.6394248049
 20
14.0737523213
 30
0.0
 10
8.6398532578
 20
14.0841547861
 30
0.0
 10
8.6418538329
 20
14.099695617
 30
0.0
 10
8.6452900576
 20
14.1150965051
 30
0.0
 10
8.650218262
 20
14.1301986728
 30
0.0
 10
8.656666723
 20
14.1448235891
 30
0.0
 10
8.6646274718
 20
14.1587773468
 30
0.0
 10
8.6740506153
 20
14.1718608579
 30
0.0
 10
8.6848413101
 20
14.1838829901
 30
0.0
 10
8.6968634424
 20
14.194673685
 30
0.0
 10
8.7099469534
 20
14.2040968284
 30
0.0
 10
8.7239007111
 20
14.2120575772
 30
0.0
 10
8.7385256275
 20
14.2185060382
 30
0.0
 10
8.7536277951
 20
14.2234342426
 30
0.0
 10
8.7690286833
 20
14.2268704673
 30
0.0
 10
8.7845695141
 20
14.2288710424
 30
0.0
 10
8.7949719789
 20
14.2292994953
 30
0.0
 10
8.8001527199
 20
14.2292996115
 30
0.0
  0
SPLINE
  5
4FD
100
AcDbEntity
  8
0
100
AcDbSpline
 62
7
  6
CONTINUOUS
 70
0
 71
3
 72
23
 73
19
 74
0
 42
0.0000001
 43
0.0000001
 44
0.0000000001
 40
0.0
 40
0.0
 40
0.0
 40
0.0
 40
0.0538135836
 40
0.1105246567
 40
0.1700805753
 40
0.232310841
 40
0.2969147012
 40
0.3634553054
 40
0.4313705497
 40
0.5
 40
0.5686294503
 40
0.6365446946
 40
0.7030852988
 40
0.767689159
 40
0.8299194247
 40
0.8894753433
 40
0.9461864164
 40
1.0
 40
1.0
 40
1.0
 40
1.0
 10
8.8492525633
 20
14.1801997681
 30
0.0
 10
8.8479530471
 20
14.176192827
 30
0.0
 10
8.845002789
 20
14.168052053
 30
0.0
 10
8.8396732189
 20
14.1558428418
 30
0.0
 10
8.8333014691
 20
14.1433981537
 30
0.0
 10
8.8258858102
 20
14.1308233702
 30
0.0
 10
8.8174500636
 20
14.1182450061
 30
0.0
 10
8.8080481835
 20
14.1058089381
 30
0.0
 10
8.7977658552
 20
14.0936743776
 30
0.0
 10
8.7867193727
 20
14.0820049275
 30
0.0
 10
8.7750499226
 20
14.0709584451
 30
0.0
 10
8.7629153621
 20
14.0606761167
 30
0.0
 10
8.7504792941
 20
14.0512742366
 30
0.0
 10
8.73790093
 20
14.0428384901
 30
0.0
 10
8.7253261466
 20
14.0354228312
 30
0.0
 10
8.7128814584
 20
14.0290510814
 30
0.0
 10
8.7006722472
 20
14.0237215112
 30
0.0
 10
8.6925314732
 20
14.0207712531
 30
0.0
 10
8.6885245321
 20
14.0194717369
 30
0.0
  0
SPLINE
  5
4FE
100
AcDbEntity
  8
0
100
AcDbSpline
 62
7
  6
CONTINUOUS
 70
0
 71
3
 72
23
 73
19
 74
0
 42
0.0000001
 43
0.0000001
 44
0.0000000001
 40
0.0
 40
0.0
 40
0.0
 40
0.0
 40
0.0604265705
 40
0.1215050726
 40
0.183250614
 40
0.2456454797
 40
0.3086346431
 40
0.3721207284
 40
0.4359660287
 40
0.5
 40
0.5640339713
 40
0.6278792716
 40
0.6913653569
 40
0.7543545203
 40
0.816749386
 40
0.8784949274
 40
0.9395734295
 40
1.0
 40
1.0
 40
1.0
 40
1.0
 10
8.6885245321
 20
14.0194717369
 30
0.0
 10
8.6886425166
 20
14.0245446607
 30
0.0
 10
8.6893004374
 20
14.03474089
 30
0.0
 10
8.691611185
 20
14.0499740848
 30
0.0
 10
8.6953215189
 20
14.0651014921
 30
0.0
 10
8.7004823712
 20
14.0799690832
 30
0.0
 10
8.7071167825
 20
14.0944031645
 30
0.0
 10
8.7152121333
 20
14.1082144955
 30
0.0
 10
8.7247149649
 20
14.12120809
 30
0.0
 10
8.7355284352
 20
14.1331958651
 30
0.0
 10
8.7475162102
 20
14.1440093353
 30
0.0
 10
8.7605098047
 20
14.1535121669
 30
0.0
 10
8.7743211357
 20
14.1616075177
 30
0.0
 10
8.788755217
 20
14.1682419291
 30
0.0
 10
8.8036228081
 20
14.1734027813
 30
0.0
 10
8.8187502154
 20
14.1771131152
 30
0.0
 10
8.8339834103
 20
14.1794238628
 30
0.0
 10
8.8441796395
 20
14.1800817836
 30
0.0
 10
8.8492525633
 20
14.1801997681
 30
0.0
  0
SPLINE
  5
4FF
100
AcDbEntity
  8
0
100
AcDbSpline
 62
7
  6
CONTINUOUS
 70
0
 71
3
 72
23
 73
19
 74
0
 42
0.0000001
 43
0.0000001
 44
0.0000000001
 40
0.0
 40
0.0
 40
0.0
 40
0.0
 40
0.0550125142
 40
0.112495502
 40
0.1724234458
 40
0.2346650485
 40
0.298971255
 40
0.3649690954
 40
0.4321711657
 40
0.5
 40
0.5678288343
 40
0.6350309046
 40
0.701028745
 40
0.7653349515
 40
0.8275765542
 40
0.887504498
 40
0.9449874858
 40
1.0
 40
1.0
 40
1.0
 40
1.0
 10
8.8998379627
 20
14.1296143687
 30
0.0
 10
8.8987851554
 20
14.1253857383
 30
0.0
 10
8.8963111599
 20
14.1168154822
 30
0.0
 10
8.8915972961
 20
14.1039851204
 30
0.0
 10
8.8857678472
 20
14.0909904805
 30
0.0
 10
8.878811515
 20
14.0779469416
 30
0.0
 10
8.8707429616
 20
14.064990442
 30
0.0
 10
8.8616080036
 20
14.0522753483
 30
0.0
 10
8.8514858663
 20
14.0399676855
 30
0.0
 10
8.8404887743
 20
14.028235526
 30
0.0
 10
8.8287566148
 20
14.017238434
 30
0.0
 10
8.8164489519
 20
14.0071162967
 30
0.0
 10
8.8037338582
 20
13.9979813387
 30
0.0
 10
8.7907773587
 20
13.9899127852
 30
0.0
 10
8.7777338197
 20
13.982956453
 30
0.0
 10
8.7647391799
 20
13.9771270041
 30
0.0
 10
8.751908818
 20
13.9724131403
 30
0.0
 10
8.7433385619
 20
13.9699391448
 30
0.0
 10
8.7391099316
 20
13.9688863375
 30
0.0
  0
SPLINE
  5
500
100
AcDbEntity
  8
0
100
AcDbSpline
 62
7
  6
CONTINUOUS
 70
0
 71
3
 72
23
 73
19
 74
0
 42
0.0000001
 43
0.0000001
 44
0.0000000001
 40
0.0
 40
0.0
 40
0.0
 40
0.0
 40
0.0595441274
 40
0.1200249578
 40
0.1814590619
 40
0.2438171468
 40
0.3070173338
 40
0.3709192293
 40
0.4353269807
 40
0.5
 40
0.5646730193
 40
0.6290807707
 40
0.6929826662
 40
0.7561828532
 40
0.8185409381
 40
0.8799750422
 40
0.9404558726
 40
1.0
 40
1.0
 40
1.0
 40
1.0
 10
8.7391099316
 20
13.9688863375
 30
0.0
 10
8.7393702761
 20
13.9738295447
 30
0.0
 10
8.7403053387
 20
13.9837772332
 30
0.0
 10
8.7429888162
 20
13.9986400618
 30
0.0
 10
8.7470283272
 20
14.0134382956
 30
0.0
 10
8.7524683877
 20
14.0280237205
 30
0.0
 10
8.7593258732
 20
14.0422285043
 30
0.0
 10
8.767582722
 20
14.0558689836
 30
0.0
 10
8.7771813031
 20
14.068754981
 30
0.0
 10
8.7880223959
 20
14.0807019043
 30
0.0
 10
8.7999693192
 20
14.0915429971
 30
0.0
 10
8.8128553166
 20
14.1011415782
 30
0.0
 10
8.8264957959
 20
14.1093984271
 30
0.0
 10
8.8407005797
 20
14.1162559125
 30
0.0
 10
8.8552860046
 20
14.1216959731
 30
0.0
 10
8.8700842384
 20
14.125735484
 30
0.0
 10
8.8849470671
 20
14.1284189615
 30
0.0
 10
8.8948947555
 20
14.1293540242
 30
0.0
 10
8.8998379627
 20
14.1296143687
 30
0.0
  0
SPLINE
  5
501
100
AcDbEntity
  8
0
100
AcDbSpline
 62
7
  6
CONTINUOUS
 70
0
 71
3
 72
23
 73
19
 74
0
 42
0.0000001
 43
0.0000001
 44
0.0000000001
 40
0.0
 40
0.0
 40
0.0
 40
0.0
 40
0.0562316954
 40
0.1145090194
 40
0.1748267037
 40
0.2370880219
 40
0.3010934496
 40
0.3665341595
 40
0.432999844
 40
0.5
 40
0.567000156
 40
0.6334658405
 40
0.6989065504
 40
0.7629119781
 40
0.8251732963
 40
0.8854909806
 40
0.9437683046
 40
1.0
 40
1.0
 40
1.0
 40
1.0
 10
8.9514217532
 20
14.0780305782
 30
0.0
 10
8.9505978952
 20
14.0735963576
 30
0.0
 10
8.9485673802
 20
14.0646284805
 30
0.0
 10
8.9444318406
 20
14.0512165631
 30
0.0
 10
8.9391118378
 20
14.0377064682
 30
0.0
 10
8.9325869103
 20
14.0242230131
 30
0.0
 10
8.9248630137
 20
14.0109111233
 30
0.0
 10
8.9159782707
 20
13.9979332975
 30
0.0
 10
8.9060058498
 20
13.9854621353
 30
0.0
 10
8.8950542203
 20
13.9736700799
 30
0.0
 10
8.8832621649
 20
13.9627184505
 30
0.0
 10
8.8707910028
 20
13.9527460295
 30
0.0
 10
8.8578131769
 20
13.9438612866
 30
0.0
 10
8.8445012871
 20
13.93613739
 30
0.0
 10
8.8310178321
 20
13.9296124624
 30
0.0
 10
8.8175077371
 20
13.9242924596
 30
0.0
 10
8.8040958197
 20
13.9201569201
 30
0.0
 10
8.7951279426
 20
13.9181264051
 30
0.0
 10
8.790693722
 20
13.9173025471
 30
0.0
  0
SPLINE
  5
502
100
AcDbEntity
  8
0
100
AcDbSpline
 62
7
  6
CONTINUOUS
 70
0
 71
3
 72
23
 73
19
 74
0
 42
0.0000001
 43
0.0000001
 44
0.0000000001
 40
0.0
 40
0.0
 40
0.0
 40
0.0
 40
0.0585340006
 40
0.1183360668
 40
0.1794208737
 40
0.2417426135
 40
0.3051862854
 40
0.3695612026
 40
0.4346054258
 40
0.5
 40
0.5653945742
 40
0.6304387974
 40
0.6948137146
 40
0.7582573865
 40
0.8205791263
 40
0.8816639332
 40
0.9414659994
 40
1.0
 40
1.0
 40
1.0
 40
1.0
 10
8.790693722
 20
13.9173025471
 30
0.0
 10
8.7911199446
 20
13.9220952576
 30
0.0
 10
8.7923778306
 20
13.9317539954
 30
0.0
 10
8.7954927806
 20
13.9461870771
 30
0.0
 10
8.7999130697
 20
13.960603507
 30
0.0
 10
8.8056759026
 20
13.974861925
 30
0.0
 10
8.8127911853
 20
13.988801319
 30
0.0
 10
8.821234732
 20
14.0022444193
 30
0.0
 10
8.8309442016
 20
14.0150064558
 30
0.0
 10
8.8418176355
 20
14.0269066647
 30
0.0
 10
8.8537178444
 20
14.0377800986
 30
0.0
 10
8.866479881
 20
14.0474895683
 30
0.0
 10
8.8799229812
 20
14.0559331149
 30
0.0
 10
8.8938623752
 20
14.0630483976
 30
0.0
 10
8.9081207932
 20
14.0688112305
 30
0.0
 10
8.9225372231
 20
14.0732315196
 30
0.0
 10
8.9369703049
 20
14.0763464696
 30
0.0
 10
8.9466290426
 20
14.0776043556
 30
0.0
 10
8.9514217532
 20
14.0780305782
 30
0.0
  0
SPLINE
  5
503
100
AcDbEntity
  8
0
100
AcDbSpline
 62
7
  6
CONTINUOUS
 70
0
 71
3
 72
36
 73
32
 74
0
 42
0.0000001
 43
0.0000001
 44
0.0000000001
 40
0.0
 40
0.0
 40
0.0
 40
0.0
 40
0.1947461022
 40
0.2898484013
 40
0.3822037738
 40
0.4709174201
 40
0.5551262401
 40
0.6340088217
 40
0.7067941613
 40
0.7727694658
 40
0.8312871614
 40
0.8575670078
 40
0.8817729405
 40
0.9038461266
 40
0.9237324131
 40
0.9413836527
 40
0.9567573284
 40
0.9698171087
 40
0.9805336932
 40
0.9850062247
 40
0.988885479
 40
0.9921708893
 40
0.9948629098
 40
0.995987163
 40
0.9969644173
 40
0.9977960235
 40
0.9984842529
 40
0.9990332172
 40
0.9994512338
 40
0.9997575852
 40
1.0
 40
1.0
 40
1.0
 40
1.0
 10
6.2653982197
 20
13.801322985
 30
0.0
 10
6.2629197164
 20
13.8041928596
 30
0.0
 10
6.259222813
 20
13.8084572696
 30
0.0
 10
6.254331254
 20
13.8140659148
 30
0.0
 10
6.2507883006
 20
13.818111223
 30
0.0
 10
6.2473764503
 20
13.8219893751
 30
0.0
 10
6.2441288982
 20
13.8256626466
 30
0.0
 10
6.2410773475
 20
13.8290952037
 30
0.0
 10
6.238251675
 20
13.8322534971
 30
0.0
 10
6.2356796108
 20
13.8351065811
 30
0.0
 10
6.2337037604
 20
13.8372779446
 30
0.0
 10
6.2322678783
 20
13.8388409768
 30
0.0
 10
6.2313083235
 20
13.8398779654
 30
0.0
 10
6.2304292886
 20
13.8408198347
 30
0.0
 10
6.2296329444
 20
13.8416642811
 30
0.0
 10
6.2289212722
 20
13.8424092437
 30
0.0
 10
6.2282960653
 20
13.8430529473
 30
0.0
 10
6.2277588762
 20
13.8435938391
 30
0.0
 10
6.2273652613
 20
13.8439781139
 30
0.0
 10
6.2270946085
 20
13.8442323
 30
0.0
 10
6.226926924
 20
13.8443847237
 30
0.0
 10
6.2267820999
 20
13.8445106865
 30
0.0
 10
6.2266750046
 20
13.8445982294
 30
0.0
 10
6.2266005175
 20
13.8446544946
 30
0.0
 10
6.2265538503
 20
13.8446874379
 30
0.0
 10
6.2265129436
 20
13.8447137638
 30
0.0
 10
6.2264777961
 20
13.8447334925
 30
0.0
 10
6.2264483209
 20
13.8447467506
 30
0.0
 10
6.2264243989
 20
13.8447535388
 30
0.0
 10
6.2264051237
 20
13.8447541513
 30
0.0
 10
6.2263951175
 20
13.8447485684
 30
0.0
 10
6.2263920384
 20
13.8447449908
 30
0.0
  0
LINE
  5
504
100
AcDbEntity
  8
0
100
AcDbLine
 62
7
  6
CONTINUOUS
 10
6.2233719568
 20
13.8412328703
 11
6.2202614616
 21
13.8448524388
  0
LINE
  5
505
100
AcDbEntity
  8
0
100
AcDbLine
 62
7
  6
CONTINUOUS
 10
6.2202614616
 20
13.8448524388
 11
6.1821577709
 21
13.8891929633
  0
SPLINE
  5
506
100
AcDbEntity
  8
0
100
AcDbSpline
 62
7
  6
CONTINUOUS
 70
0
 71
3
 72
19
 73
15
 74
0
 42
0.0000001
 43
0.0000001
 44
0.0000000001
 40
0.0
 40
0.0
 40
0.0
 40
0.0
 40
0.2165099174
 40
0.4060516762
 40
0.568395919
 40
0.7035167699
 40
0.7609769677
 40
0.8118141166
 40
0.8561953929
 40
0.8943964284
 40
0.9268651933
 40
0.9543490272
 40
0.9780933453
 40
1.0
 40
1.0
 40
1.0
 40
1.0
 10
7.4848689689
 20
12.5827129317
 30
0.0
 10
7.4845651391
 20
12.5829252164
 30
0.0
 10
7.4839908053
 20
12.5833169577
 30
0.0
 10
7.4831704254
 20
12.5838405939
 30
0.0
 10
7.4824499073
 20
12.5842605014
 30
0.0
 10
7.4819082953
 20
12.5845371618
 30
0.0
 10
7.4815253273
 20
12.5847018155
 30
0.0
 10
7.4812798221
 20
12.5847919611
 30
0.0
 10
7.4810602434
 20
12.5848556822
 30
0.0
 10
7.4808664795
 20
12.5848930063
 30
0.0
 10
7.4806982073
 20
12.5849038929
 30
0.0
 10
7.4805547899
 20
12.5848878131
 30
0.0
 10
7.4804360181
 20
12.5848432414
 30
0.0
 10
7.4803741801
 20
12.5847926082
 30
0.0
 10
7.4803497172
 20
12.5847641833
 30
0.0
  0
SPLINE
  5
507
100
AcDbEntity
  8
0
100
AcDbSpline
 62
7
  6
CONTINUOUS
 70
0
 71
3
 72
20
 73
16
 74
0
 42
0.0000001
 43
0.0000001
 44
0.0000000001
 40
0.0
 40
0.0
 40
0.0
 40
0.0
 40
0.2213183827
 40
0.4154032786
 40
0.5815313931
 40
0.719195702
 40
0.777286053
 40
0.8282307579
 40
0.872099914
 40
0.9090448883
 40
0.9393676475
 40
0.963650851
 40
0.983072106
 40
0.9916655472
 40
1.0
 40
1.0
 40
1.0
 40
1.0
 10
7.1515374284
 20
12.9180520381
 30
0.0
 10
7.1510450958
 20
12.9184521265
 30
0.0
 10
7.150114448
 20
12.9191950668
 30
0.0
 10
7.1487876201
 20
12.9202044762
 30
0.0
 10
7.1476254319
 20
12.9210331614
 30
0.0
 10
7.1467555939
 20
12.921599422
 30
0.0
 10
7.1461437192
 20
12.9219542492
 30
0.0
 10
7.1457553885
 20
12.9221578349
 30
0.0
 10
7.1454113841
 20
12.9223143688
 30
0.0
 10
7.1451118403
 20
12.9224239928
 30
0.0
 10
7.1448562125
 20
12.9224868141
 30
0.0
 10
7.1446434445
 20
12.9225033374
 30
0.0
 10
7.1444929534
 20
12.9224742367
 30
0.0
 10
7.1444013832
 20
12.9224228112
 30
0.0
 10
7.1443653034
 20
12.9223895928
 30
0.0
 10
7.1443497201
 20
12.9223714846
 30
0.0
  0
SPLINE
  5
508
100
AcDbEntity
  8
0
100
AcDbSpline
 62
7
  6
CONTINUOUS
 70
0
 71
3
 72
14
 73
10
 74
0
 42
0.0000001
 43
0.0000001
 44
0.0000000001
 40
0.0
 40
0.0
 40
0.0
 40
0.0
 40
0.3659596082
 40
0.5155387862
 40
0.6440155984
 40
0.7530243282
 40
0.8453081628
 40
0.9253761804
 40
1.0
 40
1.0
 40
1.0
 40
1.0
 10
6.8323054191
 20
13.2368186442
 30
0.0
 10
6.8321821186
 20
13.2368795176
 30
0.0
 10
6.8320049494
 20
13.2369593176
 30
0.0
 10
6.8317744013
 20
13.2370336441
 30
0.0
 10
6.8316320647
 20
13.2370649328
 30
0.0
 10
6.8315081456
 20
13.2370756344
 30
0.0
 10
6.8314020992
 20
13.2370653276
 30
0.0
 10
6.8313138053
 20
13.2370327415
 30
0.0
 10
6.8312678634
 20
13.236994983
 30
0.0
 10
6.8312495734
 20
13.2369737297
 30
0.0
  0
SPLINE
  5
509
100
AcDbEntity
  8
0
100
AcDbSpline
 62
7
  6
CONTINUOUS
 70
0
 71
3
 72
11
 73
7
 74
0
 42
0.0000001
 43
0.0000001
 44
0.0000000001
 40
0.0
 40
0.0
 40
0.0
 40
0.0
 40
0.2717919753
 40
0.5348068204
 40
0.780280362
 40
1.0
 40
1.0
 40
1.0
 40
1.0
 10
6.3961273587
 20
13.6720959444
 30
0.0
 10
6.39380821
 20
13.6747412606
 30
0.0
 10
6.3892271302
 20
13.6799310011
 30
0.0
 10
6.382490532
 20
13.6874558415
 30
0.0
 10
6.3761494059
 20
13.694429713
 30
0.0
 10
6.3720580038
 20
13.698847632
 30
0.0
 10
6.3701122041
 20
13.7009217651
 30
0.0
  0
SPLINE
  5
50A
100
AcDbEntity
  8
0
100
AcDbSpline
 62
7
  6
CONTINUOUS
 70
0
 71
3
 72
39
 73
35
 74
0
 42
0.0000001
 43
0.0000001
 44
0.0000000001
 40
0.0
 40
0.0
 40
0.0
 40
0.0
 40
0.0978650176
 40
0.1948263559
 40
0.2899499634
 40
0.3823149205
 40
0.4710283941
 40
0.55523019
 40
0.6341025664
 40
0.7068786667
 40
0.7728499385
 40
0.8030800109
 40
0.8313727187
 40
0.8576594694
 40
0.8818756095
 40
0.9039624071
 40
0.9238657017
 40
0.9415370754
 40
0.956933484
 40
0.9700175681
 40
0.9756824887
 40
0.9807582576
 40
0.9852416803
 40
0.9891302173
 40
0.9924221961
 40
0.995116247
 40
0.9972116117
 40
0.9980351705
 40
0.9987099484
 40
0.9992370476
 40
0.9996189415
 40
0.9997574632
 40
0.9998634666
 40
1.0
 40
1.0
 40
1.0
 40
1.0
 10
6.519581183
 20
13.5057663631
 30
0.0
 10
6.5183132037
 20
13.5071878047
 30
0.0
 10
6.5157875647
 20
13.510016324
 30
0.0
 10
6.5120246208
 20
13.5142221385
 30
0.0
 10
6.5083288552
 20
13.5183444106
 30
0.0
 10
6.5047359744
 20
13.5223433154
 30
0.0
 10
6.5012807688
 20
13.5261801368
 30
0.0
 10
6.4979967313
 20
13.5298176918
 30
0.0
 10
6.4949157646
 20
13.533220663
 30
0.0
 10
6.4920678403
 20
13.5363559639
 30
0.0
 10
6.4898517823
 20
13.5387861866
 30
0.0
 10
6.4882157749
 20
13.5405736099
 30
0.0
 10
6.4870995911
 20
13.5417897225
 30
0.0
 10
6.4860607715
 20
13.5429179582
 30
0.0
 10
6.4851018513
 20
13.5439555658
 30
0.0
 10
6.4842251861
 20
13.5449000095
 30
0.0
 10
6.4834329228
 20
13.5457489879
 30
0.0
 10
6.4827270169
 20
13.5465004363
 30
0.0
 10
6.4821092049
 20
13.5471525249
 30
0.0
 10
6.4816494038
 20
13.5476323921
 30
0.0
 10
6.4813264498
 20
13.5479651587
 30
0.0
 10
6.4811189997
 20
13.5481767435
 30
0.0
 10
6.4809345665
 20
13.5483624687
 30
0.0
 10
6.4807732659
 20
13.5485222254
 30
0.0
 10
6.4806352156
 20
13.5486559546
 30
0.0
 10
6.4805204974
 20
13.5487635751
 30
0.0
 10
6.4804390739
 20
13.5488364517
 30
0.0
 10
6.480385356
 20
13.5488812614
 30
0.0
 10
6.4803543069
 20
13.5489055676
 30
0.0
 10
6.4803290864
 20
13.548923329
 30
0.0
 10
6.4803116029
 20
13.5489338532
 30
0.0
 10
6.4803002281
 20
13.5489385344
 30
0.0
 10
6.4802932511
 20
13.5489405026
 30
0.0
 10
6.4802876599
 20
13.5489397882
 30
0.0
 10
6.4802859262
 20
13.5489377742
 30
0.0
  0
SPLINE
  5
50B
100
AcDbEntity
  8
0
100
AcDbSpline
 62
7
  6
CONTINUOUS
 70
0
 71
3
 72
34
 73
30
 74
0
 42
0.0000001
 43
0.0000001
 44
0.0000000001
 40
0.0
 40
0.0
 40
0.0
 40
0.0
 40
0.0005677769
 40
0.001009607
 40
0.0015825024
 40
0.0022941047
 40
0.0031482935
 40
0.0052919888
 40
0.0080226688
 40
0.0113429319
 40
0.0152532832
 40
0.0197531521
 40
0.0305129532
 40
0.0436011232
 40
0.0589883766
 40
0.0766392597
 40
0.0965117163
 40
0.1185589551
 40
0.1427277388
 40
0.1689607845
 40
0.2273617847
 40
0.2932017366
 40
0.3658490093
 40
0.4446062997
 40
0.5287179586
 40
0.6173774418
 40
0.7097339345
 40
0.8049019439
 40
1.0
 40
1.0
 40
1.0
 40
1.0
 10
6.9257308623
 20
13.0661046522
 30
0.0
 10
6.9257392335
 20
13.066111851
 30
0.0
 10
6.9257425309
 20
13.066134725
 30
0.0
 10
6.9257365573
 20
13.0661641523
 30
0.0
 10
6.9257261184
 20
13.0661964069
 30
0.0
 10
6.92570971
 20
13.0662345558
 30
0.0
 10
6.9256774992
 20
13.0662991754
 30
0.0
 10
6.9256212998
 20
13.0663954344
 30
0.0
 10
6.9255347686
 20
13.0665292806
 30
0.0
 10
6.9254245384
 20
13.0666885909
 30
0.0
 10
6.92529067
 20
13.0668733015
 30
0.0
 10
6.9250669487
 20
13.0671714952
 30
0.0
 10
6.924727516
 20
13.0676058969
 30
0.0
 10
6.9242483322
 20
13.0681996238
 30
0.0
 10
6.9236770807
 20
13.0688911697
 30
0.0
 10
6.9230151137
 20
13.0696788376
 30
0.0
 10
6.9222639696
 20
13.0705606946
 30
0.0
 10
6.9214254425
 20
13.0715345858
 30
0.0
 10
6.9205015373
 20
13.0725981624
 30
0.0
 10
6.919108114
 20
13.0741902621
 30
0.0
 10
6.9171703011
 20
13.0763827253
 30
0.0
 10
6.9146210767
 20
13.07923929
 30
0.0
 10
6.9117960512
 20
13.0823802292
 30
0.0
 10
6.908722336
 20
13.0857753342
 30
0.0
 10
6.9054294093
 20
13.0893919685
 30
0.0
 10
6.9019488633
 20
13.0931953916
 30
0.0
 10
6.8983140871
 20
13.0971490921
 30
0.0
 10
6.893266773
 20
13.1026156979
 30
0.0
 10
6.889425062
 20
13.1067510441
 30
0.0
 10
6.8868375502
 20
13.1095255466
 30
0.0
  0
SPLINE
  5
50C
100
AcDbEntity
  8
0
100
AcDbSpline
 62
7
  6
CONTINUOUS
 70
0
 71
3
 72
17
 73
13
 74
0
 42
0.0000001
 43
0.0000001
 44
0.0000000001
 40
0.0
 40
0.0
 40
0.0
 40
0.0
 40
0.2154342285
 40
0.4036570716
 40
0.5647215517
 40
0.6988773753
 40
0.8067336291
 40
0.8897086484
 40
0.9228633653
 40
0.9513803944
 40
0.9764978684
 40
1.0
 40
1.0
 40
1.0
 40
1.0
 10
7.4622654361
 20
12.5635954473
 30
0.0
 10
7.4621124485
 20
12.5636973274
 30
0.0
 10
7.4618235042
 20
12.5638848244
 30
0.0
 10
7.4614109143
 20
12.5641338802
 30
0.0
 10
7.4610488146
 20
12.5643316863
 30
0.0
 10
7.4607373837
 20
12.5644784446
 30
0.0
 10
7.4604768722
 20
12.564574195
 30
0.0
 10
7.4602887637
 20
12.5646153955
 30
0.0
 10
7.4601649107
 20
12.5646172668
 30
0.0
 10
7.4600913215
 20
12.5646051903
 30
0.0
 10
7.4600300203
 20
12.564579198
 30
0.0
 10
7.4599977635
 20
12.5645518822
 30
0.0
 10
7.4599846844
 20
12.5645366832
 30
0.0
  0
SPLINE
  5
50D
100
AcDbEntity
  8
0
100
AcDbSpline
 62
7
  6
CONTINUOUS
 70
0
 71
3
 72
23
 73
19
 74
0
 42
0.0000001
 43
0.0000001
 44
0.0000000001
 40
0.0
 40
0.0
 40
0.0
 40
0.0
 40
0.2249365257
 40
0.4220136384
 40
0.5098502152
 40
0.5904325609
 40
0.6636907905
 40
0.7295696718
 40
0.788026676
 40
0.8390500641
 40
0.8826588958
 40
0.9189246562
 40
0.9480267298
 40
0.9703555656
 40
0.9792581499
 40
0.9869108336
 40
0.9936593803
 40
1.0
 40
1.0
 40
1.0
 40
1.0
 10
7.1265344612
 20
12.9016878737
 30
0.0
 10
7.1260571078
 20
12.9021013054
 30
0.0
 10
7.1251564645
 20
12.9028711566
 30
0.0
 10
7.1240522923
 20
12.9037821912
 30
0.0
 10
7.1232490481
 20
12.9044207563
 30
0.0
 10
7.1227120726
 20
12.9048355491
 30
0.0
 10
7.1222176746
 20
12.9052044936
 30
0.0
 10
7.1217664141
 20
12.9055272168
 30
0.0
 10
7.1213587947
 20
12.9058034064
 30
0.0
 10
7.1209952586
 20
12.9060328731
 30
0.0
 10
7.1206762179
 20
12.9062154967
 30
0.0
 10
7.120401764
 20
12.9063514677
 30
0.0
 10
7.1201721113
 20
12.9064408832
 30
0.0
 10
7.120006008
 20
12.9064803399
 30
0.0
 10
7.1198964695
 20
12.9064835132
 30
0.0
 10
7.1198313241
 20
12.906473513
 30
0.0
 10
7.1197769359
 20
12.9064507927
 30
0.0
 10
7.1197483397
 20
12.9064265965
 30
0.0
 10
7.1197367276
 20
12.9064131044
 30
0.0
  0
LINE
  5
50E
100
AcDbEntity
  8
0
100
AcDbLine
 62
9
  6
CONTINUOUS
 10
6.8987908637
 20
13.1212403385
 11
7.1168753563
 21
12.9031541214
  0
LINE
  5
50F
100
AcDbEntity
  8
0
100
AcDbLine
 62
7
  6
CONTINUOUS
 10
6.793167088
 20
13.2015344016
 11
6.7534418602
 21
13.2445879506
  0
SPLINE
  5
510
100
AcDbEntity
  8
0
100
AcDbSpline
 62
7
  6
CONTINUOUS
 70
0
 71
3
 72
17
 73
13
 74
0
 42
0.0000001
 43
0.0000001
 44
0.0000000001
 40
0.0
 40
0.0
 40
0.0
 40
0.0
 40
0.2211998656
 40
0.4138975241
 40
0.5780787525
 40
0.7138977228
 40
0.8217537512
 40
0.9026279649
 40
0.9337174915
 40
0.9593622516
 40
0.9807763086
 40
1.0
 40
1.0
 40
1.0
 40
1.0
 10
7.4465342527
 20
12.5489896981
 30
0.0
 10
7.4464194464
 20
12.5490729678
 30
0.0
 10
7.4462031486
 20
12.5492267603
 30
0.0
 10
7.4458955753
 20
12.5494336899
 30
0.0
 10
7.4456274761
 20
12.5496008804
 30
0.0
 10
7.4453990049
 20
12.549728531
 30
0.0
 10
7.4452103661
 20
12.5498165939
 30
0.0
 10
7.4450759089
 20
12.5498616099
 30
0.0
 10
7.4449882609
 20
12.5498739673
 30
0.0
 10
7.4449378295
 20
12.5498723088
 30
0.0
 10
7.4448964479
 20
12.5498600553
 30
0.0
 10
7.4448751963
 20
12.5498436752
 30
0.0
 10
7.4448671581
 20
12.5498343315
 30
0.0
  0
SPLINE
  5
511
100
AcDbEntity
  8
0
100
AcDbSpline
 62
7
  6
CONTINUOUS
 70
0
 71
3
 72
25
 73
21
 74
0
 42
0.0000001
 43
0.0000001
 44
0.0000000001
 40
0.0
 40
0.0
 40
0.0
 40
0.0
 40
0.2275772136
 40
0.4272169764
 40
0.5162340911
 40
0.5978994196
 40
0.6721093165
 40
0.7387775248
 40
0.7978305416
 40
0.8492065763
 40
0.8928707381
 40
0.9288101255
 40
0.9438938363
 40
0.9570683787
 40
0.9683557783
 40
0.9777938321
 40
0.9854512218
 40
0.9914633934
 40
0.9961143391
 40
1.0
 40
1.0
 40
1.0
 40
1.0
 10
7.1065285497
 20
12.8911438087
 30
0.0
 10
7.1059953225
 20
12.8916427804
 30
0.0
 10
7.1049906432
 20
12.8925755464
 30
0.0
 10
7.1037648782
 20
12.8936899178
 30
0.0
 10
7.1028769153
 20
12.8944796552
 30
0.0
 10
7.1022853588
 20
12.8949969768
 30
0.0
 10
7.1017431177
 20
12.8954616995
 30
0.0
 10
7.1012509143
 20
12.8958732383
 30
0.0
 10
7.1008094114
 20
12.896231091
 30
0.0
 10
7.1004191997
 20
12.8965348743
 30
0.0
 10
7.1000808085
 20
12.8967842481
 30
0.0
 10
7.0998296604
 20
12.896955498
 30
0.0
 10
7.09965434
 20
12.8970637387
 30
0.0
 10
7.0995438885
 20
12.8971262952
 30
0.0
 10
7.0994466262
 20
12.8971751552
 30
0.0
 10
7.0993625331
 20
12.8972103714
 30
0.0
 10
7.099291425
 20
12.8972320948
 30
0.0
 10
7.0992329108
 20
12.8972403619
 30
0.0
 10
7.0991855943
 20
12.8972349129
 30
0.0
 10
7.0991614669
 20
12.897219214
 30
0.0
 10
7.0991533325
 20
12.897209764
 30
0.0
  0
LINE
  5
512
100
AcDbEntity
  8
0
100
AcDbLine
 62
7
  6
CONTINUOUS
 10
6.8868375502
 20
13.1095255466
 11
6.8861184586
 21
13.1102963242
  0
LINE
  5
513
100
AcDbEntity
  8
0
100
AcDbLine
 62
7
  6
CONTINUOUS
 10
6.8048776401
 20
13.188842762
 11
6.793167088
 21
13.2015344016
  0
LINE
  5
514
100
AcDbEntity
  8
0
100
AcDbLine
 62
7
  6
CONTINUOUS
 10
7.4361381592
 20
12.5397717042
 11
7.435513392
 21
12.5401104
  0
LINE
  5
515
100
AcDbEntity
  8
0
100
AcDbLine
 62
7
  6
CONTINUOUS
 10
8.8224144164
 20
11.242699484
 11
8.8187948478
 21
11.2458099793
  0
LINE
  5
516
100
AcDbEntity
  8
0
100
AcDbLine
 62
7
  6
CONTINUOUS
 10
8.7788849627
 20
11.2878362421
 11
8.7472492676
 21
11.3147075032
  0
SPLINE
  5
517
100
AcDbEntity
  8
0
100
AcDbSpline
 62
7
  6
CONTINUOUS
 70
0
 71
3
 72
32
 73
28
 74
0
 42
0.0000001
 43
0.0000001
 44
0.0000000001
 40
0.0
 40
0.0
 40
0.0
 40
0.0
 40
0.1946586212
 40
0.289592632
 40
0.3817167686
 40
0.470155245
 40
0.5540661948
 40
0.632651113
 40
0.7051619965
 40
0.7709076291
 40
0.8292607122
 40
0.8796651201
 40
0.9216425284
 40
0.9393454111
 40
0.9548023354
 40
0.9679806428
 40
0.978856762
 40
0.983427636
 40
0.9874202254
 40
0.9908372282
 40
0.9936843791
 40
0.9959734835
 40
0.9977304639
 40
0.9984275203
 40
0.9990204532
 40
0.9995326773
 40
1.0
 40
1.0
 40
1.0
 40
1.0
 10
8.649657922
 20
11.4185653811
 30
0.0
 10
8.6468221145
 20
11.4210515335
 30
0.0
 10
8.6425898667
 20
11.4247348986
 30
0.0
 10
8.6369835333
 20
11.4295578249
 30
0.0
 10
8.6329233147
 20
11.4330223981
 30
0.0
 10
8.6290112857
 20
11.4363315581
 30
0.0
 10
8.6252847623
 20
11.4394537819
 30
0.0
 10
8.6217793403
 20
11.4423593172
 30
0.0
 10
8.618528561
 20
11.4450204705
 30
0.0
 10
8.6155636101
 20
11.4474118384
 30
0.0
 10
8.6129130946
 20
11.4495106749
 30
0.0
 10
8.6106026316
 20
11.4512968658
 30
0.0
 10
8.6088948992
 20
11.4525747958
 30
0.0
 10
8.6077129676
 20
11.4534246416
 30
0.0
 10
8.6069758338
 20
11.4539371763
 30
0.0
 10
8.6063382346
 20
11.4543608865
 30
0.0
 10
8.6058674913
 20
11.4546543751
 30
0.0
 10
8.6055409422
 20
11.4548420962
 30
0.0
 10
8.6053363135
 20
11.4549517518
 30
0.0
 10
8.6051575607
 20
11.4550386767
 30
0.0
 10
8.6050046777
 20
11.4551030004
 30
0.0
 10
8.6048777142
 20
11.4551447597
 30
0.0
 10
8.6047869534
 20
11.4551625438
 30
0.0
 10
8.6047277376
 20
11.4551630681
 30
0.0
 10
8.6046930347
 20
11.4551575745
 30
0.0
 10
8.6046644863
 20
11.4551459957
 30
0.0
 10
8.6046495533
 20
11.4551336639
 30
0.0
 10
8.604643648
 20
11.4551268009
 30
0.0
  0
SPLINE
  5
518
100
AcDbEntity
  8
0
100
AcDbSpline
 62
7
  6
CONTINUOUS
 70
0
 71
3
 72
29
 73
25
 74
0
 42
0.0000001
 43
0.0000001
 44
0.0000000001
 40
0.0
 40
0.0
 40
0.0
 40
0.0
 40
0.209978095
 40
0.4028920596
 40
0.5743577587
 40
0.6508118473
 40
0.7204910275
 40
0.7830034252
 40
0.8380007028
 40
0.8625852904
 40
0.8851830004
 40
0.9057641172
 40
0.924304434
 40
0.940783976
 40
0.9551886101
 40
0.9675134078
 40
0.9777644404
 40
0.9859717182
 40
0.9893317022
 40
0.9922167491
 40
0.9946567202
 40
0.9967017094
 40
0.9984369747
 40
1.0
 40
1.0
 40
1.0
 40
1.0
 10
8.4283915376
 20
11.6393209927
 30
0.0
 10
8.4263718372
 20
11.6410638466
 30
0.0
 10
8.4224817792
 20
11.6443908533
 30
0.0
 10
8.4168869744
 20
11.6490756564
 30
0.0
 10
8.4125478768
 20
11.6526171943
 30
0.0
 10
8.409389065
 20
11.6551279088
 30
0.0
 10
8.4072974444
 20
11.6567564411
 30
0.0
 10
8.4054032511
 20
11.6581945353
 30
0.0
 10
8.4039488249
 20
11.6592641388
 30
0.0
 10
8.4028909592
 20
11.6600166159
 30
0.0
 10
8.4021834159
 20
11.6605071298
 30
0.0
 10
8.4015326189
 20
11.660944587
 30
0.0
 10
8.4009395262
 20
11.6613283808
 30
0.0
 10
8.4004050074
 20
11.6616580211
 30
0.0
 10
8.3999298429
 20
11.6619330914
 30
0.0
 10
8.3995146997
 20
11.6621534428
 30
0.0
 10
8.3991601274
 20
11.6623188399
 30
0.0
 10
8.3989003918
 20
11.6624172365
 30
0.0
 10
8.3987229343
 20
11.6624650052
 30
0.0
 10
8.3986141482
 20
11.6624844984
 30
0.0
 10
8.3985203993
 20
11.662490197
 30
0.0
 10
8.398441302
 20
11.6624818784
 30
0.0
 10
8.3983765396
 20
11.6624588045
 30
0.0
 10
8.3983429781
 20
11.6624320374
 30
0.0
 10
8.3983300272
 20
11.6624169839
 30
0.0
  0
SPLINE
  5
519
100
AcDbEntity
  8
0
100
AcDbSpline
 62
7
  6
CONTINUOUS
 70
0
 71
3
 72
22
 73
18
 74
0
 42
0.0000001
 43
0.0000001
 44
0.0000000001
 40
0.0
 40
0.0
 40
0.0
 40
0.0
 40
0.2218512048
 40
0.4168074658
 40
0.5839842186
 40
0.6569352044
 40
0.7227063631
 40
0.781252989
 40
0.8325639126
 40
0.876662206
 40
0.9136348141
 40
0.9436832039
 40
0.9672322691
 40
0.9768578542
 40
0.9852993398
 40
0.9928698383
 40
1.0
 40
1.0
 40
1.0
 40
1.0
 10
8.1375661314
 20
11.9278510964
 30
0.0
 10
8.1370014771
 20
11.928276426
 30
0.0
 10
8.1359346941
 20
11.929067735
 30
0.0
 10
8.1344183659
 20
11.9301466136
 30
0.0
 10
8.1332681572
 20
11.9309210877
 30
0.0
 10
8.1324443216
 20
11.9314421785
 30
0.0
 10
8.1319055675
 20
11.9317661455
 30
0.0
 10
8.1314180143
 20
11.932041068
 30
0.0
 10
8.1309822508
 20
11.9322667118
 30
0.0
 10
8.1305988017
 20
11.9324429414
 30
0.0
 10
8.1302678157
 20
11.9325698987
 30
0.0
 10
8.1299895127
 20
11.9326477214
 30
0.0
 10
8.1297881915
 20
11.9326739278
 30
0.0
 10
8.1296554304
 20
11.9326648378
 30
0.0
 10
8.1295755343
 20
11.932645514
 30
0.0
 10
8.1295086658
 20
11.9326128276
 30
0.0
 10
8.1294729373
 20
11.9325814719
 30
0.0
 10
8.1294581198
 20
11.9325642486
 30
0.0
  0
SPLINE
  5
51A
100
AcDbEntity
  8
0
100
AcDbSpline
 62
7
  6
CONTINUOUS
 70
0
 71
3
 72
16
 73
12
 74
0
 42
0.0000001
 43
0.0000001
 44
0.0000000001
 40
0.0
 40
0.0
 40
0.0
 40
0.0
 40
0.2042120203
 40
0.3837510579
 40
0.5389063975
 40
0.6702353595
 40
0.7788208
 40
0.866707067
 40
0.9378541862
 40
0.9694623809
 40
1.0
 40
1.0
 40
1.0
 40
1.0
 10
7.8184191417
 20
12.2466620472
 30
0.0
 10
7.8182854837
 20
12.2467332755
 30
0.0
 10
7.8180321208
 20
12.2468631004
 30
0.0
 10
7.8176687026
 20
12.2470298111
 30
0.0
 10
7.8173466464
 20
12.2471559363
 30
0.0
 10
7.8170660496
 20
12.2472415955
 30
0.0
 10
7.8168264372
 20
12.2472868241
 30
0.0
 10
7.8166269242
 20
12.2472919212
 30
0.0
 10
7.8164865578
 20
12.2472587909
 30
0.0
 10
7.8164007651
 20
12.2472083208
 30
0.0
 10
7.8163667007
 20
12.2471766237
 30
0.0
 10
7.8163519276
 20
12.2471594571
 30
0.0
  0
SPLINE
  5
51B
100
AcDbEntity
  8
0
100
AcDbSpline
 62
7
  6
CONTINUOUS
 70
0
 71
3
 72
34
 73
30
 74
0
 42
0.0000001
 43
0.0000001
 44
0.0000000001
 40
0.0
 40
0.0
 40
0.0
 40
0.0
 40
0.194922482
 40
0.2899943762
 40
0.3822537273
 40
0.4708194997
 40
0.5548449373
 40
0.6335265908
 40
0.7061121455
 40
0.7719075026
 40
0.830282633
 40
0.8806788925
 40
0.902731802
 40
0.9226158979
 40
0.9402850322
 40
0.9556976766
 40
0.9688200319
 40
0.9745134604
 40
0.9796250795
 40
0.9841530765
 40
0.9880963567
 40
0.9914556744
 40
0.9942340757
 40
0.9964385296
 40
0.998085597
 40
0.9987131704
 40
0.9992237529
 40
0.9996393777
 40
1.0
 40
1.0
 40
1.0
 40
1.0
 10
8.3656779663
 20
11.6612257201
 30
0.0
 10
8.3628775051
 20
11.6637581878
 30
0.0
 10
8.3587006507
 20
11.6675142747
 30
0.0
 10
8.3531732338
 20
11.6724409891
 30
0.0
 10
8.3491727977
 20
11.675984603
 30
0.0
 10
8.3453213288
 20
11.6793736475
 30
0.0
 10
8.3416556962
 20
11.6825757108
 30
0.0
 10
8.3382110315
 20
11.6855601649
 30
0.0
 10
8.3350203731
 20
11.6882984575
 30
0.0
 10
8.3321143974
 20
11.6907644134
 30
0.0
 10
8.329521082
 20
11.6929344032
 30
0.0
 10
8.3275632301
 20
11.694543377
 30
0.0
 10
8.3261704751
 20
11.6956654737
 30
0.0
 10
8.3252658422
 20
11.696382932
 30
0.0
 10
8.3244559784
 20
11.6970128276
 30
0.0
 10
8.3237428476
 20
11.6975536521
 30
0.0
 10
8.3232081442
 20
11.6979457591
 30
0.0
 10
8.3228294572
 20
11.6982130088
 30
0.0
 10
8.3225843346
 20
11.6983807444
 30
0.0
 10
8.3223645453
 20
11.6985254008
 30
0.0
 10
8.3221702213
 20
11.6986469239
 30
0.0
 10
8.3220014934
 20
11.6987452767
 30
0.0
 10
8.321858412
 20
11.6988206018
 30
0.0
 10
8.321741061
 20
11.6988728728
 30
0.0
 10
8.3216582123
 20
11.6989000525
 30
0.0
 10
8.32160472
 20
11.6989081363
 30
0.0
 10
8.3215744433
 20
11.6989078146
 30
0.0
 10
8.3215499515
 20
11.6989014683
 30
0.0
 10
8.3215374177
 20
11.698892276
 30
0.0
 10
8.32153286
 20
11.6988869824
 30
0.0
  0
SPLINE
  5
51C
100
AcDbEntity
  8
0
100
AcDbSpline
 62
7
  6
CONTINUOUS
 70
0
 71
3
 72
25
 73
21
 74
0
 42
0.0000001
 43
0.0000001
 44
0.0000000001
 40
0.0
 40
0.0
 40
0.0
 40
0.0
 40
0.223219457
 40
0.4210170318
 40
0.5098215021
 40
0.5916279126
 40
0.666257449
 40
0.7335487119
 40
0.7933601875
 40
0.8455728313
 40
0.89009304
 40
0.9268628601
 40
0.9423381422
 40
0.9558798921
 40
0.9675052575
 40
0.9772457645
 40
0.9851606154
 40
0.9913695869
 40
0.9961293013
 40
1.0
 40
1.0
 40
1.0
 40
1.0
 10
8.1124439533
 20
11.9123947573
 30
0.0
 10
8.1115178341
 20
11.9131776208
 30
0.0
 10
8.1097649432
 20
11.9146469686
 30
0.0
 10
8.1076232899
 20
11.9164033522
 30
0.0
 10
8.1060618906
 20
11.9176554845
 30
0.0
 10
8.1050155755
 20
11.9184802911
 30
0.0
 10
8.1040536516
 20
11.9192232775
 30
0.0
 10
8.1031783214
 20
11.9198827866
 30
0.0
 10
8.1023916053
 20
11.9204573647
 30
0.0
 10
8.1016953413
 20
11.9209458402
 30
0.0
 10
8.1010911311
 20
11.9213471698
 30
0.0
 10
8.1006431183
 20
11.9216225892
 30
0.0
 10
8.1003308236
 20
11.9217965018
 30
0.0
 10
8.1001341459
 20
11.9218969727
 30
0.0
 10
8.0999613087
 20
11.9219752546
 30
0.0
 10
8.0998123274
 20
11.9220313998
 30
0.0
 10
8.0996869688
 20
11.9220656732
 30
0.0
 10
8.0995846642
 20
11.9220780452
 30
0.0
 10
8.0995031947
 20
11.9220685469
 30
0.0
 10
8.0994615014
 20
11.9220422679
 30
0.0
 10
8.0994477851
 20
11.9220263292
 30
0.0
  0
LINE
  5
51D
100
AcDbEntity
  8
0
100
AcDbLine
 62
9
  6
CONTINUOUS
 10
7.8807161022
 20
12.1393133753
 11
8.098802318
 21
11.9212288842
  0
LINE
  5
51E
100
AcDbEntity
  8
0
100
AcDbLine
 62
7
  6
CONTINUOUS
 10
8.1790963792
 20
11.8156051104
 11
8.166404741
 21
11.8273156612
  0
SPLINE
  5
51F
100
AcDbEntity
  8
0
100
AcDbSpline
 62
7
  6
CONTINUOUS
 70
0
 71
3
 72
34
 73
30
 74
0
 42
0.0000001
 43
0.0000001
 44
0.0000000001
 40
0.0
 40
0.0
 40
0.0
 40
0.0
 40
0.1950975836
 40
0.2902656099
 40
0.3826218982
 40
0.4712813911
 40
0.5553932326
 40
0.6341504457
 40
0.7067977123
 40
0.7726379982
 40
0.8310391415
 40
0.857272175
 40
0.881441002
 40
0.9034883211
 40
0.9233608285
 40
0.9410117347
 40
0.9563989523
 40
0.9694870889
 40
0.9802468598
 40
0.984746724
 40
0.9886570733
 40
0.9919773349
 40
0.9947080165
 40
0.9968517156
 40
0.9977059034
 40
0.9984175032
 40
0.9989903958
 40
0.9994322237
 40
1.0
 40
1.0
 40
1.0
 40
1.0
 10
8.0870875242
 20
11.9092755726
 30
0.0
 10
8.0843130284
 20
11.9118630781
 30
0.0
 10
8.0801776887
 20
11.9157047831
 30
0.0
 10
8.0747110924
 20
11.9207520886
 30
0.0
 10
8.0707573945
 20
11.9243868624
 30
0.0
 10
8.0669539716
 20
11.9278674084
 30
0.0
 10
8.0633373357
 20
11.9311603367
 30
0.0
 10
8.0599422294
 20
11.9342340532
 30
0.0
 10
8.0568012866
 20
11.9370590821
 30
0.0
 10
8.0539447151
 20
11.9396083126
 30
0.0
 10
8.0517522452
 20
11.9415461316
 30
0.0
 10
8.050160143
 20
11.9429395571
 30
0.0
 10
8.0490965647
 20
11.9438634637
 30
0.0
 10
8.048122671
 20
11.9447019931
 30
0.0
 10
8.0472408117
 20
11.9454531391
 30
0.0
 10
8.0464531432
 20
11.9461151066
 30
0.0
 10
8.0457615979
 20
11.9466863574
 30
0.0
 10
8.0451678726
 20
11.94716554
 30
0.0
 10
8.0447334718
 20
11.9475049718
 30
0.0
 10
8.0444352787
 20
11.9477286927
 30
0.0
 10
8.0442505682
 20
11.947862561
 30
0.0
 10
8.0440912579
 20
11.9479727911
 30
0.0
 10
8.0439574116
 20
11.9480593224
 30
0.0
 10
8.0438611526
 20
11.9481155219
 30
0.0
 10
8.043796533
 20
11.9481477326
 30
0.0
 10
8.0437583842
 20
11.948164141
 30
0.0
 10
8.0437261297
 20
11.9481745798
 30
0.0
 10
8.0436967025
 20
11.9481805532
 30
0.0
 10
8.0436738286
 20
11.9481772559
 30
0.0
 10
8.0436666297
 20
11.9481688847
 30
0.0
  0
LINE
  5
520
100
AcDbEntity
  8
0
100
AcDbLine
 62
7
  6
CONTINUOUS
 10
7.7779877785
 20
12.1967548018
 11
7.7776468981
 21
12.1970705588
  0
LINE
  5
521
100
AcDbEntity
  8
0
100
AcDbLine
 62
7
  6
CONTINUOUS
 10
7.7776468981
 20
12.1970705588
 11
7.771577207
 21
12.2024443692
  0
SPLINE
  5
522
100
AcDbEntity
  8
0
100
AcDbSpline
 62
7
  6
CONTINUOUS
 70
0
 71
3
 72
21
 73
17
 74
0
 42
0.0000001
 43
0.0000001
 44
0.0000000001
 40
0.0
 40
0.0
 40
0.0
 40
0.0
 40
0.0574321986
 40
0.116505344
 40
0.1772272945
 40
0.2395299008
 40
0.3032587285
 40
0.3681663881
 40
0.5
 40
0.6318336119
 40
0.6967412715
 40
0.7604700992
 40
0.8227727055
 40
0.883494656
 40
0.9425678014
 40
1.0
 40
1.0
 40
1.0
 40
1.0
 10
9.0035071545
 20
14.0259451769
 30
0.0
 10
9.0028926623
 20
14.0213225373
 30
0.0
 10
9.0012686666
 20
14.0119911103
 30
0.0
 10
8.9976679974
 20
13.9980432073
 30
0.0
 10
8.9928193322
 20
13.984057531
 30
0.0
 10
8.9866937282
 20
13.9701678444
 30
0.0
 10
8.9792881714
 20
13.9565265675
 30
0.0
 10
8.9676953558
 20
13.9388135904
 30
0.0
 10
8.9503570457
 20
13.9183672545
 30
0.0
 10
8.9299107099
 20
13.9010289444
 30
0.0
 10
8.9121977328
 20
13.8894361288
 30
0.0
 10
8.8985564558
 20
13.882030572
 30
0.0
 10
8.8846667693
 20
13.875904968
 30
0.0
 10
8.8706810929
 20
13.8710563028
 30
0.0
 10
8.8567331899
 20
13.8674556336
 30
0.0
 10
8.8474017629
 20
13.865831638
 30
0.0
 10
8.8427791233
 20
13.8652171457
 30
0.0
  0
SPLINE
  5
523
100
AcDbEntity
  8
0
100
AcDbSpline
 62
7
  6
CONTINUOUS
 70
0
 71
3
 72
23
 73
19
 74
0
 42
0.0000001
 43
0.0000001
 44
0.0000000001
 40
0.0
 40
0.0
 40
0.0
 40
0.0
 40
0.0585340006
 40
0.1183360669
 40
0.1794208737
 40
0.2417426135
 40
0.3051862854
 40
0.3695612026
 40
0.4346054258
 40
0.5
 40
0.5653945742
 40
0.6304387974
 40
0.6948137146
 40
0.7582573865
 40
0.8205791263
 40
0.8816639331
 40
0.9414659994
 40
1.0
 40
1.0
 40
1.0
 40
1.0
 10
9.0555925558
 20
13.9738597756
 30
0.0
 10
9.0551663333
 20
13.969067065
 30
0.0
 10
9.0539084472
 20
13.9594083273
 30
0.0
 10
9.0507934972
 20
13.9449752455
 30
0.0
 10
9.0463732081
 20
13.9305588156
 30
0.0
 10
9.0406103752
 20
13.9163003976
 30
0.0
 10
9.0334950925
 20
13.9023610036
 30
0.0
 10
9.0250515459
 20
13.8889179034
 30
0.0
 10
9.0153420762
 20
13.8761558668
 30
0.0
 10
9.0044686423
 20
13.8642556579
 30
0.0
 10
8.9925684335
 20
13.853382224
 30
0.0
 10
8.9798063969
 20
13.8436727544
 30
0.0
 10
8.9663632966
 20
13.8352292077
 30
0.0
 10
8.9524239026
 20
13.828113925
 30
0.0
 10
8.9381654846
 20
13.8223510921
 30
0.0
 10
8.9237490547
 20
13.817930803
 30
0.0
 10
8.909315973
 20
13.814815853
 30
0.0
 10
8.8996572353
 20
13.813557967
 30
0.0
 10
8.8948645247
 20
13.8131317444
 30
0.0
  0
SPLINE
  5
524
100
AcDbEntity
  8
0
100
AcDbSpline
 62
7
  6
CONTINUOUS
 70
0
 71
3
 72
70
 73
66
 74
0
 42
0.0000001
 43
0.0000001
 44
0.0000000001
 40
0.0
 40
0.0
 40
0.0
 40
0.0
 40
0.0001752042
 40
0.0003784806
 40
0.0006285883
 40
0.0009358064
 40
0.0013056674
 40
0.0017413006
 40
0.002244563
 40
0.0028166199
 40
0.0041698016
 40
0.0058045642
 40
0.007722255
 40
0.0099232444
 40
0.0124071824
 40
0.0151732683
 40
0.0182204044
 40
0.0215471159
 40
0.0290324429
 40
0.0376133925
 40
0.0472709591
 40
0.0579833247
 40
0.0697260202
 40
0.0824720337
 40
0.0961919076
 40
0.1108538666
 40
0.142865794
 40
0.1782104013
 40
0.2165587977
 40
0.2575538366
 40
0.3008136055
 40
0.3459348824
 40
0.3924970807
 40
0.4400661009
 40
0.4881984146
 40
0.5364452527
 40
0.5843567319
 40
0.6314861675
 40
0.6773941044
 40
0.7216526225
 40
0.7638491461
 40
0.8035904795
 40
0.8405064244
 40
0.8742533048
 40
0.8898390316
 40
0.9045173101
 40
0.9182540854
 40
0.9310175403
 40
0.9427781749
 40
0.9535089348
 40
0.963185306
 40
0.9717854218
 40
0.9792902235
 40
0.9826267699
 40
0.9856837959
 40
0.9884598187
 40
0.9909537261
 40
0.9931647084
 40
0.9950923923
 40
0.9967371222
 40
0.9981001965
 40
0.9986771405
 40
0.9991852252
 40
0.9996255806
 40
1.0
 40
1.0
 40
1.0
 40
1.0
 10
10.2343822689
 20
14.6822960315
 30
0.0
 10
10.2343486746
 20
14.6822624372
 30
0.0
 10
10.2342586929
 20
14.6822063574
 30
0.0
 10
10.2340887949
 20
14.6821744334
 30
0.0
 10
10.233881641
 20
14.682184993
 30
0.0
 10
10.2336349018
 20
14.6822366176
 30
0.0
 10
10.2333473141
 20
14.6823291381
 30
0.0
 10
10.233018312
 20
14.682462831
 30
0.0
 10
10.2326476722
 20
14.6826378273
 30
0.0
 10
10.2320645135
 20
14.6829440655
 30
0.0
 10
10.23123356
 20
14.6834364953
 30
0.0
 10
10.2301186237
 20
14.684162464
 30
0.0
 10
10.2288376005
 20
14.6850533239
 30
0.0
 10
10.2273911364
 20
14.6861086409
 30
0.0
 10
10.2257799927
 20
14.6873279989
 30
0.0
 10
10.2240050258
 20
14.6887106977
 30
0.0
 10
10.2220671808
 20
14.6902559035
 30
0.0
 10
10.2191509862
 20
14.6926265136
 30
0.0
 10
10.2151109262
 20
14.695993129
 30
0.0
 10
10.209803087
 20
14.7005191705
 30
0.0
 10
10.203874152
 20
14.7056649973
 30
0.0
 10
10.1973371258
 20
14.7114178414
 30
0.0
 10
10.1902064687
 20
14.7177635703
 30
0.0
 10
10.1824979786
 20
14.7246865621
 30
0.0
 10
10.1742287699
 20
14.7321698007
 30
0.0
 10
10.1621210818
 20
14.7431971817
 30
0.0
 10
10.1457401363
 20
14.7582409918
 30
0.0
 10
10.1247048712
 20
14.7777121175
 30
0.0
 10
10.1019450762
 20
14.7989059062
 30
0.0
 10
10.0776660009
 20
14.8216175097
 30
0.0
 10
10.0520871008
 20
14.845627929
 30
0.0
 10
10.0254398688
 20
14.8707059449
 30
0.0
 10
9.9979657533
 20
14.8966103377
 30
0.0
 10
9.9699138878
 20
14.9230921512
 30
0.0
 10
9.9415387865
 20
14.9498970248
 30
0.0
 10
9.9130979774
 20
14.9767675711
 30
0.0
 10
9.8848495908
 20
15.0034457966
 30
0.0
 10
9.8570499793
 20
15.0296754953
 30
0.0
 10
9.8299513007
 20
15.0552046714
 30
0.0
 10
9.8037992067
 20
15.0797878757
 30
0.0
 10
9.7788305212
 20
15.1031885246
 30
0.0
 10
9.7552710991
 20
15.1251811419
 30
0.0
 10
9.7333336259
 20
15.1455533855
 30
0.0
 10
9.7161418118
 20
15.1614099435
 30
0.0
 10
9.7033411621
 20
15.1731330241
 30
0.0
 10
9.6945202799
 20
15.1811675799
 30
0.0
 10
9.6862413529
 20
15.1886605529
 30
0.0
 10
9.6785228136
 20
15.1955935727
 30
0.0
 10
9.6713818207
 20
15.2019496213
 30
0.0
 10
9.6648341907
 20
15.2077130474
 30
0.0
 10
9.6588944086
 20
15.2128696935
 30
0.0
 10
9.6535755037
 20
15.2174067646
 30
0.0
 10
9.6495261209
 20
15.2207827231
 30
0.0
 10
9.6466023938
 20
15.2231609175
 30
0.0
 10
9.6446588192
 20
15.2247118382
 30
0.0
 10
9.6428780879
 20
15.2261002837
 30
0.0
 10
9.6412611473
 20
15.2273254148
 30
0.0
 10
9.6398088583
 20
15.2283865266
 30
0.0
 10
9.6385219841
 20
15.229283193
 30
0.0
 10
9.6374011779
 20
15.2300149726
 30
0.0
 10
9.6365653414
 20
15.2305123056
 30
0.0
 10
9.6359782888
 20
15.2308225349
 30
0.0
 10
9.6356046945
 20
15.2310004595
 30
0.0
 10
9.6352727972
 20
15.2311370366
 30
0.0
 10
9.6350625609
 20
15.2312061183
 30
0.0
 10
9.6349644758
 20
15.2312323417
 30
0.0
  0
SPLINE
  5
525
100
AcDbEntity
  8
0
100
AcDbSpline
 62
7
  6
CONTINUOUS
 70
0
 71
3
 72
70
 73
66
 74
0
 42
0.0000001
 43
0.0000001
 44
0.0000000001
 40
0.0
 40
0.0
 40
0.0
 40
0.0
 40
0.0001705542
 40
0.0003698892
 40
0.0006168892
 40
0.0009216856
 40
0.0012896514
 40
0.0017237971
 40
0.002225897
 40
0.002797059
 40
0.0041491074
 40
0.005783437
 40
0.0077012717
 40
0.0099029041
 40
0.0123879308
 40
0.0151555139
 40
0.018204527
 40
0.021533473
 40
0.0290242751
 40
0.0376119451
 40
0.0472773849
 40
0.0579986969
 40
0.0697513409
 40
0.0825082347
 40
0.0962398494
 40
0.1109143369
 40
0.1429534007
 40
0.1783274135
 40
0.2167068479
 40
0.2577339037
 40
0.3010259715
 40
0.3461791421
 40
0.3927720979
 40
0.4403700475
 40
0.488528741
 40
0.536798745
 40
0.5847295067
 40
0.631873737
 40
0.6777914131
 40
0.7220540983
 40
0.7642487779
 40
0.8039818707
 40
0.8408828829
 40
0.8746079102
 40
0.8901800676
 40
0.9048429979
 40
0.9185626396
 40
0.9313071749
 40
0.9430471049
 40
0.9537553767
 40
0.9634074793
 40
0.9719815487
 40
0.9794585235
 40
0.9827804827
 40
0.9858224665
 40
0.988582983
 40
0.9910609148
 40
0.9932554294
 40
0.995166138
 40
0.9967933484
 40
0.9981383148
 40
0.9987059694
 40
0.9992046001
 40
0.9996353381
 40
1.0
 40
1.0
 40
1.0
 40
1.0
 10
9.6163913932
 20
15.2133536753
 30
0.0
 10
9.616424094
 20
15.2133863761
 30
0.0
 10
9.6165125901
 20
15.2134406008
 30
0.0
 10
9.6166798163
 20
15.2134694125
 30
0.0
 10
9.6168841747
 20
15.2134559335
 30
0.0
 10
9.6171281975
 20
15.2134014294
 30
0.0
 10
9.6174131458
 20
15.2133060254
 30
0.0
 10
9.6177395774
 20
15.2131694121
 30
0.0
 10
9.6181077022
 20
15.2129914539
 30
0.0
 10
9.6186875322
 20
15.2126808821
 30
0.0
 10
9.6195144113
 20
15.2121830951
 30
0.0
 10
9.6206247085
 20
15.2114509117
 30
0.0
 10
9.6219012555
 20
15.210553657
 30
0.0
 10
9.6233434017
 20
15.2094917732
 30
0.0
 10
9.6249503792
 20
15.2082656857
 30
0.0
 10
9.6267213293
 20
15.2068761002
 30
0.0
 10
9.6286553041
 20
15.2053238548
 30
0.0
 10
9.6315663887
 20
15.2029432108
 30
0.0
 10
9.6356004934
 20
15.1995638541
 30
0.0
 10
9.640901901
 20
15.1950225393
 30
0.0
 10
9.6468249268
 20
15.1898608881
 30
0.0
 10
9.653356543
 20
15.1840916966
 30
0.0
 10
9.660482265
 20
15.1777291289
 30
0.0
 10
9.6681862669
 20
15.1707888377
 30
0.0
 10
9.676451403
 20
15.163287872
 30
0.0
 10
9.6885539947
 20
15.1522356209
 30
0.0
 10
9.7049295117
 20
15.1371601399
 30
0.0
 10
9.7259595295
 20
15.1176508498
 30
0.0
 10
9.7487148105
 20
15.0964180836
 30
0.0
 10
9.7729897518
 20
15.0736670436
 30
0.0
 10
9.7985645321
 20
15.0496170967
 30
0.0
 10
9.8252072744
 20
15.0244998437
 30
0.0
 10
9.8526761452
 20
14.9985568851
 30
0.0
 10
9.8807216184
 20
14.9720375645
 30
0.0
 10
9.9090887989
 20
14.9451966167
 30
0.0
 10
9.9375197872
 20
14.918291805
 30
0.0
 10
9.9657561054
 20
14.8915814775
 30
0.0
 10
9.9935410713
 20
14.8653221758
 30
0.0
 10
10.0206222276
 20
14.8397662023
 30
0.0
 10
10.0467536554
 20
14.8151592809
 30
0.0
 10
10.0716982997
 20
14.7917382346
 30
0.0
 10
10.0952301193
 20
14.7697287376
 30
0.0
 10
10.1171362849
 20
14.7493432865
 30
0.0
 10
10.1342992563
 20
14.7334776125
 30
0.0
 10
10.1470747999
 20
14.7217490039
 30
0.0
 10
10.1558756559
 20
14.7137120429
 30
0.0
 10
10.1641335908
 20
14.7062176229
 30
0.0
 10
10.1718301785
 20
14.6992841091
 30
0.0
 10
10.1789482704
 20
14.6929285123
 30
0.0
 10
10.185472063
 20
14.6871664743
 30
0.0
 10
10.1913870874
 20
14.6820121408
 30
0.0
 10
10.1966803348
 20
14.6774782903
 30
0.0
 10
10.2007075565
 20
14.6741052474
 30
0.0
 10
10.2036130785
 20
14.6717297272
 30
0.0
 10
10.2055428299
 20
14.6701813522
 30
0.0
 10
10.2073095314
 20
14.6687956598
 30
0.0
 10
10.2089122369
 20
14.6675734843
 30
0.0
 10
10.2103500906
 20
14.6665155287
 30
0.0
 10
10.2116223271
 20
14.6656222106
 30
0.0
 10
10.2127282968
 20
14.6648939703
 30
0.0
 10
10.2135515797
 20
14.6643994976
 30
0.0
 10
10.2141285284
 20
14.6640916312
 30
0.0
 10
10.2144944985
 20
14.6639156436
 30
0.0
 10
10.2148187265
 20
14.6637810319
 30
0.0
 10
10.2150238481
 20
14.6637132251
 30
0.0
 10
10.2151193707
 20
14.6636876837
 30
0.0
  0
SPLINE
  5
526
100
AcDbEntity
  8
0
100
AcDbSpline
 62
7
  6
CONTINUOUS
 70
0
 71
3
 72
70
 73
66
 74
0
 42
0.0000001
 43
0.0000001
 44
0.0000000001
 40
0.0
 40
0.0
 40
0.0
 40
0.0
 40
0.0001750593
 40
0.0003782129
 40
0.000628225
 40
0.0009353706
 40
0.0013051776
 40
0.0017407717
 40
0.0022440072
 40
0.0028160478
 40
0.0041692235
 40
0.0058040103
 40
0.0077217517
 40
0.0099228155
 40
0.0124068497
 40
0.0151730527
 40
0.0182203256
 40
0.0215471929
 40
0.0290328857
 40
0.0376142697
 40
0.0472723355
 40
0.0579852617
 40
0.0697285751
 40
0.0824752602
 40
0.0961958557
 40
0.1108585822
 40
0.1428721664
 40
0.1782185636
 40
0.2165688454
 40
0.2575658267
 40
0.3008275531
 40
0.3459507597
 40
0.3925148197
 40
0.4400855859
 40
0.4882194919
 40
0.5364677212
 40
0.5843803558
 40
0.6315106676
 40
0.6774191694
 40
0.721677908
 40
0.7638742797
 40
0.8036150661
 40
0.8405300468
 40
0.8742755377
 40
0.8898604041
 40
0.9045377122
 40
0.9182734073
 40
0.9310356711
 40
0.9427950032
 40
0.9535243496
 40
0.9631991973
 40
0.9717976798
 40
0.9793007375
 40
0.9826363702
 40
0.9856924544
 40
0.9884675067
 40
0.9909604147
 40
0.9931703673
 40
0.9950969902
 40
0.996740626
 40
0.9981025703
 40
0.9986789351
 40
0.9991864307
 40
0.9996261874
 40
1.0
 40
1.0
 40
1.0
 40
1.0
 10
10.1831096249
 20
14.6310233876
 30
0.0
 10
10.1830760585
 20
14.6309898212
 30
0.0
 10
10.1829861228
 20
14.6309337993
 30
0.0
 10
10.1828163066
 20
14.6309019751
 30
0.0
 10
10.1826092382
 20
14.6309126305
 30
0.0
 10
10.1823625819
 20
14.6309643514
 30
0.0
 10
10.1820750743
 20
14.6310569701
 30
0.0
 10
10.1817461498
 20
14.631190764
 30
0.0
 10
10.1813755853
 20
14.6313658645
 30
0.0
 10
10.180792525
 20
14.6316722574
 30
0.0
 10
10.1799616909
 20
14.6321648833
 30
0.0
 10
10.1788468893
 20
14.632891086
 30
0.0
 10
10.1775659939
 20
14.633782193
 30
0.0
 10
10.1761196508
 20
14.6348377697
 30
0.0
 10
10.1745086219
 20
14.6360573998
 30
0.0
 10
10.1727337633
 20
14.6374403828
 30
0.0
 10
10.1707960205
 20
14.6389858848
 30
0.0
 10
10.1678799573
 20
14.6413569245
 30
0.0
 10
10.1638400447
 20
14.6447241004
 30
0.0
 10
10.1585323564
 20
14.6492508347
 30
0.0
 10
10.1526035513
 20
14.6543973988
 30
0.0
 10
10.146066635
 20
14.660151023
 30
0.0
 10
10.1389360695
 20
14.6664975731
 30
0.0
 10
10.1312276544
 20
14.6734214255
 30
0.0
 10
10.122958506
 20
14.6809055619
 30
0.0
 10
10.1108508855
 20
14.6919342228
 30
0.0
 10
10.094469998
 20
14.7069797025
 30
0.0
 10
10.073434774
 20
14.7264528946
 30
0.0
 10
10.0506750163
 20
14.7476488436
 30
0.0
 10
10.0263959959
 20
14.7703626796
 30
0.0
 10
10.0008171907
 20
14.7943753807
 30
0.0
 10
9.9741701165
 20
14.8194557044
 30
0.0
 10
9.9466962458
 20
14.8453624069
 30
0.0
 10
9.9186447351
 20
14.8718465087
 30
0.0
 10
9.890270123
 20
14.8986536246
 30
0.0
 10
9.8618299593
 20
14.9255263449
 30
0.0
 10
9.8335823981
 20
14.9522066535
 30
0.0
 10
9.8057838076
 20
14.9784383198
 30
0.0
 10
9.7786863583
 20
15.0039693211
 30
0.0
 10
9.7525357126
 20
15.0285541848
 30
0.0
 10
9.7275687027
 20
15.0519563057
 30
0.0
 10
9.7040111897
 20
15.0739501879
 30
0.0
 10
9.6820758609
 20
15.0943234738
 30
0.0
 10
9.664886009
 20
15.1101807864
 30
0.0
 10
9.6520870528
 20
15.1219043583
 30
0.0
 10
9.6432675105
 20
15.1299391682
 30
0.0
 10
9.6349899801
 20
15.1374323321
 30
0.0
 10
9.6272728931
 20
15.1443654792
 30
0.0
 10
9.6201334071
 20
15.1507215908
 30
0.0
 10
9.6135873368
 20
15.1564850154
 30
0.0
 10
9.6076491653
 20
15.1616415956
 30
0.0
 10
9.6023319199
 20
15.1661785367
 30
0.0
 10
9.5982839634
 20
15.1695543674
 30
0.0
 10
9.5953614026
 20
15.1719324336
 30
0.0
 10
9.5934187102
 20
15.1734832209
 30
0.0
 10
9.5916388716
 20
15.1748715176
 30
0.0
 10
9.5900228339
 20
15.1760964847
 30
0.0
 10
9.5885714577
 20
15.1771574174
 30
0.0
 10
9.5872855062
 20
15.1780538899
 30
0.0
 10
9.5861656323
 20
15.1787854609
 30
0.0
 10
9.5853305823
 20
15.1792826235
 30
0.0
 10
9.5847441611
 20
15.1795927099
 30
0.0
 10
9.5843710423
 20
15.1797705163
 30
0.0
 10
9.5840396226
 20
15.1799069726
 30
0.0
 10
9.5838297043
 20
15.1799759753
 30
0.0
 10
9.5837317785
 20
15.1800021564
 30
0.0
  0
SPLINE
  5
527
100
AcDbEntity
  8
0
100
AcDbSpline
 62
7
  6
CONTINUOUS
 70
0
 71
3
 72
70
 73
66
 74
0
 42
0.0000001
 43
0.0000001
 44
0.0000000001
 40
0.0
 40
0.0
 40
0.0
 40
0.0
 40
0.0001710101
 40
0.0003707281
 40
0.0006180379
 40
0.0009230911
 40
0.0012912787
 40
0.0017256237
 40
0.0022279089
 40
0.002799248
 40
0.0041516402
 40
0.005786317
 40
0.0077045139
 40
0.0099065306
 40
0.0123919683
 40
0.0151599922
 40
0.0182094779
 40
0.0215389297
 40
0.0290308461
 40
0.0376197703
 40
0.0472866034
 40
0.0580094457
 40
0.0697637524
 40
0.0825224357
 40
0.0962559599
 40
0.1109324685
 40
0.1429758737
 40
0.1783545588
 40
0.2167389046
 40
0.2577710119
 40
0.3010681656
 40
0.346226342
 40
0.3928241134
 40
0.4404265665
 40
0.4885893414
 40
0.5368628863
 40
0.5847965423
 40
0.6319429161
 40
0.6778618881
 40
0.7221249365
 40
0.7643189702
 40
0.8040503463
 40
0.840948516
 40
0.8746695443
 40
0.8902392575
 40
0.9048994457
 40
0.9186160475
 40
0.9313572443
 40
0.943093537
 40
0.9537978732
 40
0.9634457441
 40
0.9720152864
 40
0.9794874381
 40
0.9828068742
 40
0.9858462595
 40
0.9886041009
 40
0.9910792803
 40
0.9932709615
 40
0.9951787535
 40
0.9968029582
 40
0.998144823
 40
0.9987108886
 40
0.999207904
 40
0.9996370006
 40
1.0
 40
1.0
 40
1.0
 40
1.0
 10
9.5667324152
 20
15.1636946973
 30
0.0
 10
9.5667652033
 20
15.1637274854
 30
0.0
 10
9.5668538477
 20
15.1637818886
 30
0.0
 10
9.567021344
 20
15.163810976
 30
0.0
 10
9.56722598
 20
15.1637977326
 30
0.0
 10
9.5674702711
 20
15.1637434415
 30
0.0
 10
9.5677554796
 20
15.1636482315
 30
0.0
 10
9.5680821646
 20
15.1635117963
 30
0.0
 10
9.5684505373
 20
15.1633340004
 30
0.0
 10
9.569030699
 20
15.1630236427
 30
0.0
 10
9.5698579822
 20
15.1625260674
 30
0.0
 10
9.5709687367
 20
15.1617940595
 30
0.0
 10
9.5722457261
 20
15.16089692
 30
0.0
 10
9.5736883004
 20
15.1598350907
 30
0.0
 10
9.5752956924
 20
15.158608997
 30
0.0
 10
9.5770670438
 20
15.1572193447
 30
0.0
 10
9.579001407
 20
15.1556669725
 30
0.0
 10
9.5819130101
 20
15.1532860723
 30
0.0
 10
9.5859477225
 20
15.149906235
 30
0.0
 10
9.5912497908
 20
15.1453641347
 30
0.0
 10
9.5971734308
 20
15.1402014768
 30
0.0
 10
9.6037056152
 20
15.1344310642
 30
0.0
 10
9.610831859
 20
15.1280670682
 30
0.0
 10
9.6185363362
 20
15.1211251494
 30
0.0
 10
9.6268019002
 20
15.1136223655
 30
0.0
 10
9.6389050029
 20
15.1025673748
 30
0.0
 10
9.6552810122
 20
15.0874880466
 30
0.0
 10
9.6763114011
 20
15.0679736514
 30
0.0
 10
9.6990668138
 20
15.0467352602
 30
0.0
 10
9.7233416213
 20
15.0239781643
 30
0.0
 10
9.7489159719
 20
14.9999218236
 30
0.0
 10
9.7755579565
 20
14.9747979338
 30
0.0
 10
9.8030257073
 20
14.9488481936
 30
0.0
 10
9.831069664
 20
14.9223220436
 30
0.0
 10
9.8594348972
 20
14.8954743174
 30
0.0
 10
9.88786347
 20
14.8685628682
 30
0.0
 10
9.9160968675
 20
14.8418461316
 30
0.0
 10
9.9438783751
 20
14.815580733
 30
0.0
 10
9.9709555073
 20
14.7900190538
 30
0.0
 10
9.9970823224
 20
14.7654068923
 30
0.0
 10
10.0220217499
 20
14.7419811385
 30
0.0
 10
10.0455477393
 20
14.719967528
 30
0.0
 10
10.0674474614
 20
14.6995786093
 30
0.0
 10
10.0846046058
 20
14.6837103814
 30
0.0
 10
10.0973751704
 20
14.6719800615
 30
0.0
 10
10.1061721208
 20
14.6639421519
 30
0.0
 10
10.1144260082
 20
14.6564469712
 30
0.0
 10
10.1221184105
 20
14.6495128871
 30
0.0
 10
10.1292321835
 20
14.6431569127
 30
0.0
 10
10.1357515291
 20
14.6373946911
 30
0.0
 10
10.1416619848
 20
14.632240369
 30
0.0
 10
10.1469505483
 20
14.6277067251
 30
0.0
 10
10.1509737598
 20
14.6243339203
 30
0.0
 10
10.1538760148
 20
14.6219586719
 30
0.0
 10
10.1558033034
 20
14.6204106111
 30
0.0
 10
10.1575675188
 20
14.6190252804
 30
0.0
 10
10.1591677155
 20
14.6178035141
 30
0.0
 10
10.1606030392
 20
14.616746015
 30
0.0
 10
10.1618727243
 20
14.6158531997
 30
0.0
 10
10.1629761224
 20
14.6151255087
 30
0.0
 10
10.1637972396
 20
14.6146314879
 30
0.0
 10
10.1643724529
 20
14.6143240036
 30
0.0
 10
10.1647371182
 20
14.6141483356
 30
0.0
 10
10.1650600374
 20
14.6140140517
 30
0.0
 10
10.1652642881
 20
14.6139464598
 30
0.0
 10
10.165359375
 20
14.6139210344
 30
0.0
  0
SPLINE
  5
528
100
AcDbEntity
  8
0
100
AcDbSpline
 62
7
  6
CONTINUOUS
 70
0
 71
3
 72
70
 73
66
 74
0
 42
0.0000001
 43
0.0000001
 44
0.0000000001
 40
0.0
 40
0.0
 40
0.0
 40
0.0
 40
0.0001702735
 40
0.000369369
 40
0.0006161777
 40
0.000920822
 40
0.0012886652
 40
0.0017227108
 40
0.0022247281
 40
0.0027958217
 40
0.0041477671
 40
0.0057820287
 40
0.0076998229
 40
0.009901438
 40
0.0123864675
 40
0.0151540714
 40
0.0182031216
 40
0.02153212
 40
0.0290230682
 40
0.0376109344
 40
0.0472766175
 40
0.0579982165
 40
0.0697511863
 40
0.0825084417
 40
0.0962404517
 40
0.1109153669
 40
0.142955368
 40
0.1783304063
 40
0.2167109351
 40
0.2577391239
 40
0.3010323468
 40
0.3461866555
 40
0.3927807257
 40
0.440379719
 40
0.4885393814
 40
0.5368102351
 40
0.5847417211
 40
0.6318865171
 40
0.6778045823
 40
0.7220674653
 40
0.7642621303
 40
0.8039949888
 40
0.8408955283
 40
0.8746198501
 40
0.8901915591
 40
0.9048539802
 40
0.918573053
 40
0.9313169573
 40
0.9430561931
 40
0.9537637079
 40
0.9634149933
 40
0.9719881851
 40
0.9794642198
 40
0.9827856857
 40
0.9858271605
 40
0.988587152
 40
0.991064543
 40
0.9932584999
 40
0.9951686337
 40
0.9967952508
 40
0.9981396041
 40
0.9987069442
 40
0.999205255
 40
0.9996356678
 40
1.0
 40
1.0
 40
1.0
 40
1.0
 10
9.5169144182
 20
15.1138767003
 30
0.0
 10
9.5169470651
 20
15.1139093472
 30
0.0
 10
9.5170354708
 20
15.1139634598
 30
0.0
 10
9.5172025327
 20
15.1139920841
 30
0.0
 10
9.5174067177
 20
15.11397843
 30
0.0
 10
9.5176505703
 20
15.1139237531
 30
0.0
 10
9.5179353511
 20
15.1138281761
 30
0.0
 10
9.5182616174
 20
15.1136913877
 30
0.0
 10
9.5186295784
 20
15.113513252
 30
0.0
 10
9.5192091877
 20
15.1132024207
 30
0.0
 10
9.5200357917
 20
15.1127043133
 30
0.0
 10
9.5211457684
 20
15.1119717592
 30
0.0
 10
9.5224219977
 20
15.1110741238
 30
0.0
 10
9.5238638287
 20
15.1100118498
 30
0.0
 10
9.5254704935
 20
15.1087853634
 30
0.0
 10
9.5272411332
 20
15.1073953705
 30
0.0
 10
9.5291747999
 20
15.1058427096
 30
0.0
 10
9.5320854642
 20
15.1034614746
 30
0.0
 10
9.5361190542
 20
15.1000813705
 30
0.0
 10
9.5414198704
 20
15.0955391645
 30
0.0
 10
9.5473423146
 20
15.0903765944
 30
0.0
 10
9.5538733594
 20
15.0846064579
 30
0.0
 10
9.5609985196
 20
15.0782429216
 30
0.0
 10
9.5687019691
 20
15.0713016405
 30
0.0
 10
9.5769665625
 20
15.0637996652
 30
0.0
 10
9.5890684222
 20
15.0527460017
 30
0.0
 10
9.6054430551
 20
15.0376687345
 30
0.0
 10
9.6264720702
 20
15.0181573128
 30
0.0
 10
9.6492263737
 20
14.996922388
 30
0.0
 10
9.6735003586
 20
14.97416918
 30
0.0
 10
9.6990741955
 20
14.9501170777
 30
0.0
 10
9.7257160033
 20
14.9249976989
 30
0.0
 10
9.753183939
 20
14.8990526674
 30
0.0
 10
9.7812284731
 20
14.8725313431
 30
0.0
 10
9.8095947003
 20
14.8456884847
 30
0.0
 10
9.8380247132
 20
14.8187818656
 30
0.0
 10
9.8662600189
 20
14.7920698484
 30
0.0
 10
9.8940439257
 20
14.7658089847
 30
0.0
 10
9.9211239652
 20
14.7402515881
 30
0.0
 10
9.9472542094
 20
14.7156433917
 30
0.0
 10
9.9721975966
 20
14.6922212257
 30
0.0
 10
9.995728078
 20
14.6702107721
 30
0.0
 10
10.0176328219
 20
14.6498245302
 30
0.0
 10
10.0347945424
 20
14.6339582901
 30
0.0
 10
10.0475690378
 20
14.6222293083
 30
0.0
 10
10.0563690807
 20
14.6141921412
 30
0.0
 10
10.0646261811
 20
14.6066975573
 30
0.0
 10
10.0723219126
 20
14.599763922
 30
0.0
 10
10.0794391262
 20
14.5934082464
 30
0.0
 10
10.0859620193
 20
14.5876461715
 30
0.0
 10
10.091876124
 20
14.5824918423
 30
0.0
 10
10.0971684324
 20
14.5779580366
 30
0.0
 10
10.1011948524
 20
14.5745850454
 30
0.0
 10
10.1040997223
 20
14.5722095832
 30
0.0
 10
10.1060289825
 20
14.5706612737
 30
0.0
 10
10.1077951886
 20
14.5692756561
 30
0.0
 10
10.1093973944
 20
14.5680535647
 30
0.0
 10
10.1108347445
 20
14.5669957025
 30
0.0
 10
10.1121064733
 20
14.5661024867
 30
0.0
 10
10.1132119313
 20
14.5653743577
 30
0.0
 10
10.1140347833
 20
14.5648799762
 30
0.0
 10
10.1146113866
 20
14.5645721866
 30
0.0
 10
10.114977097
 20
14.5643962631
 30
0.0
 10
10.1153010644
 20
14.5642617169
 30
0.0
 10
10.1155060126
 20
14.564193953
 30
0.0
 10
10.1156014485
 20
14.5641684346
 30
0.0
  0
SPLINE
  5
529
100
AcDbEntity
  8
0
100
AcDbSpline
 62
7
  6
CONTINUOUS
 70
0
 71
3
 72
70
 73
66
 74
0
 42
0.0000001
 43
0.0000001
 44
0.0000000001
 40
0.0
 40
0.0
 40
0.0
 40
0.0
 40
0.0001758713
 40
0.0003797338
 40
0.0006303317
 40
0.000937964
 40
0.0013081846
 40
0.0017441393
 40
0.0022476961
 40
0.0028200285
 40
0.0041737237
 40
0.0058089742
 40
0.0077271437
 40
0.0099286131
 40
0.0124130387
 40
0.0151796248
 40
0.0182272766
 40
0.0215545215
 40
0.0290409737
 40
0.0376231324
 40
0.0472819943
 40
0.0579957411
 40
0.0697399019
 40
0.0824874613
 40
0.096208956
 40
0.1108726044
 40
0.1428880924
 40
0.1782364521
 40
0.2165887221
 40
0.257587686
 40
0.300851348
 40
0.3459764089
 40
0.3925421971
 40
0.4401145295
 40
0.4882497938
 40
0.5364991404
 40
0.5844126065
 40
0.6315434344
 40
0.6774521013
 40
0.7217106237
 40
0.7639063736
 40
0.803646108
 40
0.8405595895
 40
0.8743031201
 40
0.8898868294
 40
0.9045628615
 40
0.9182971611
 40
0.9310579093
 40
0.9428156052
 40
0.9535431942
 40
0.9632161629
 40
0.9718126439
 40
0.9793135757
 40
0.9826480976
 40
0.9857030383
 40
0.9884769134
 40
0.9909686093
 40
0.9931773127
 40
0.995102647
 40
0.9967449504
 40
0.998105513
 40
0.998681166
 40
0.9991879345
 40
0.9996269474
 40
1.0
 40
1.0
 40
1.0
 40
1.0
 10
10.1318594855
 20
14.5797732482
 30
0.0
 10
10.1318257629
 20
14.5797395256
 30
0.0
 10
10.1317355568
 20
14.5796831834
 30
0.0
 10
10.1315652564
 20
14.5796508321
 30
0.0
 10
10.13135767
 20
14.5796609953
 30
0.0
 10
10.131110495
 20
14.5797122364
 30
0.0
 10
10.1308224681
 20
14.5798043802
 30
0.0
 10
10.1304930225
 20
14.5799376989
 30
0.0
 10
10.1301219331
 20
14.5801123228
 30
0.0
 10
10.1295381512
 20
14.5804180254
 30
0.0
 10
10.1287063969
 20
14.5809098134
 30
0.0
 10
10.1275904943
 20
14.5816350665
 30
0.0
 10
10.1263084747
 20
14.5825252167
 30
0.0
 10
10.124860984
 20
14.583579831
 30
0.0
 10
10.1232487836
 20
14.5847984949
 30
0.0
 10
10.1214727302
 20
14.5861805086
 30
0.0
 10
10.1195337694
 20
14.5877250391
 30
0.0
 10
10.1166159963
 20
14.590094717
 30
0.0
 10
10.1125739065
 20
14.5934602161
 30
0.0
 10
10.1072635981
 20
14.5979850145
 30
0.0
 10
10.1013320939
 20
14.6031296395
 30
0.0
 10
10.0947924048
 20
14.6088813235
 30
0.0
 10
10.087658998
 20
14.6152259347
 30
0.0
 10
10.0799476789
 20
14.6221478513
 30
0.0
 10
10.0716755695
 20
14.6296300557
 30
0.0
 10
10.0595638252
 20
14.6406560556
 30
0.0
 10
10.043177712
 20
14.6556982618
 30
0.0
 10
10.0221362321
 20
14.6751676695
 30
0.0
 10
9.9993701336
 20
14.6963598587
 30
0.0
 10
9.9750847394
 20
14.7190699599
 30
0.0
 10
9.9494995797
 20
14.7430789518
 30
0.0
 10
9.9228462241
 20
14.7681555899
 30
0.0
 10
9.8953661977
 20
14.7940586293
 30
0.0
 10
9.8673087117
 20
14.8205390873
 30
0.0
 10
9.8389283569
 20
14.8473425776
 30
0.0
 10
9.8104827369
 20
14.8742116879
 30
0.0
 10
9.7822300553
 20
14.9008884021
 30
0.0
 10
9.7544267356
 20
14.9271164941
 30
0.0
 10
9.7273250025
 20
14.9526439512
 30
0.0
 10
9.701170571
 20
14.9772253116
 30
0.0
 10
9.6762003232
 20
15.0006239832
 30
0.0
 10
9.6526401674
 20
15.0226144859
 30
0.0
 10
9.6307028355
 20
15.0429844807
 30
0.0
 10
9.6135117697
 20
15.0588391509
 30
0.0
 10
9.6007122028
 20
15.0705606797
 30
0.0
 10
9.591892453
 20
15.0785939874
 30
0.0
 10
9.5836149044
 20
15.0860856903
 30
0.0
 10
9.5758979926
 20
15.0930174212
 30
0.0
 10
9.5687588788
 20
15.0993721656
 30
0.0
 10
9.5622133814
 20
15.105134276
 30
0.0
 10
9.5562759866
 20
15.1102895994
 30
0.0
 10
9.5509597247
 20
15.1148253456
 30
0.0
 10
9.5469127414
 20
15.1182002485
 30
0.0
 10
9.5439910704
 20
15.1205776161
 30
0.0
 10
9.5420491099
 20
15.1221278887
 30
0.0
 10
9.540270057
 20
15.1235156901
 30
0.0
 10
9.5386548593
 20
15.1247401822
 30
0.0
 10
9.5372043776
 20
15.1258006607
 30
0.0
 10
9.5359193757
 20
15.1266967006
 30
0.0
 10
9.5348005069
 20
15.1274278611
 30
0.0
 10
9.5339663384
 20
15.1279247148
 30
0.0
 10
9.5333806486
 20
15.1282345692
 30
0.0
 10
9.5330080952
 20
15.1284122003
 30
0.0
 10
9.5326772549
 20
15.1285484886
 30
0.0
 10
9.5324677281
 20
15.1286173885
 30
0.0
 10
9.53237
 20
15.1286435169
 30
0.0
  0
SPLINE
  5
52A
100
AcDbEntity
  8
0
100
AcDbSpline
 62
7
  6
CONTINUOUS
 70
0
 71
3
 72
23
 73
19
 74
0
 42
0.0000001
 43
0.0000001
 44
0.0000000001
 40
0.0
 40
0.0
 40
0.0
 40
0.0
 40
0.0562316954
 40
0.1145090194
 40
0.1748267037
 40
0.2370880219
 40
0.3010934496
 40
0.3665341595
 40
0.432999844
 40
0.5
 40
0.567000156
 40
0.6334658405
 40
0.6989065504
 40
0.7629119781
 40
0.8251732963
 40
0.8854909806
 40
0.9437683046
 40
1.0
 40
1.0
 40
1.0
 40
1.0
 10
8.8948645247
 20
13.8131317444
 30
0.0
 10
8.8956883827
 20
13.817565965
 30
0.0
 10
8.8977188977
 20
13.8265338421
 30
0.0
 10
8.9018544372
 20
13.8399457595
 30
0.0
 10
8.90717444
 20
13.8534558544
 30
0.0
 10
8.9136993676
 20
13.8669393095
 30
0.0
 10
8.9214232642
 20
13.8802511993
 30
0.0
 10
8.9303080071
 20
13.8932290251
 30
0.0
 10
8.9402804281
 20
13.9057001873
 30
0.0
 10
8.9512320575
 20
13.9174922427
 30
0.0
 10
8.9630241129
 20
13.9284438722
 30
0.0
 10
8.9754952751
 20
13.9384162931
 30
0.0
 10
8.988473101
 20
13.947301036
 30
0.0
 10
9.0017849908
 20
13.9550249327
 30
0.0
 10
9.0152684458
 20
13.9615498602
 30
0.0
 10
9.0287785407
 20
13.966869863
 30
0.0
 10
9.0421904582
 20
13.9710054026
 30
0.0
 10
9.0511583352
 20
13.9730359176
 30
0.0
 10
9.0555925558
 20
13.9738597756
 30
0.0
  0
SPLINE
  5
52B
100
AcDbEntity
  8
0
100
AcDbSpline
 62
7
  6
CONTINUOUS
 70
0
 71
3
 72
37
 73
33
 74
0
 42
0.0000001
 43
0.0000001
 44
0.0000000001
 40
0.0
 40
0.0
 40
0.0
 40
0.0
 40
0.1119041689
 40
0.2187197514
 40
0.3200444342
 40
0.4154951872
 40
0.5047123182
 40
0.5873596694
 40
0.6631264502
 40
0.731728455
 40
0.7929094797
 40
0.8464428085
 40
0.8702794227
 40
0.8921333889
 40
0.9119858137
 40
0.92981998
 40
0.9456221077
 40
0.9593815702
 40
0.9654932705
 40
0.9710922933
 40
0.9761789352
 40
0.9807540504
 40
0.9848192628
 40
0.9883775764
 40
0.9914342349
 40
0.9939980126
 40
0.9960844434
 40
0.9977235395
 40
0.9983945097
 40
0.9989826787
 40
0.999508431
 40
1.0
 40
1.0
 40
1.0
 40
1.0
 10
9.9442580963
 20
14.648774709
 30
0.0
 10
9.9492258109
 20
14.644134747
 30
0.0
 10
9.9589414965
 20
14.6350723971
 30
0.0
 10
9.9731799242
 20
14.6218352377
 30
0.0
 10
9.986710968
 20
14.6093051155
 30
0.0
 10
9.9994853075
 20
14.5975312643
 30
0.0
 10
10.0114564238
 20
14.5865600804
 30
0.0
 10
10.0225808455
 20
14.5764348618
 30
0.0
 10
10.0328182753
 20
14.5671956875
 30
0.0
 10
10.042131696
 20
14.5588791514
 30
0.0
 10
10.0504876305
 20
14.5515184133
 30
0.0
 10
10.0568519108
 20
14.5460109253
 30
0.0
 10
10.0614468542
 20
14.5421101695
 30
0.0
 10
10.0645010043
 20
14.5395559424
 30
0.0
 10
10.0672959897
 20
14.5372603839
 30
0.0
 10
10.0698293722
 20
14.5352257817
 30
0.0
 10
10.0720989454
 20
14.5334541873
 30
0.0
 10
10.0738308211
 20
14.5321514301
 30
0.0
 10
10.0750847421
 20
14.531245011
 30
0.0
 10
10.0759203885
 20
14.5306594287
 30
0.0
 10
10.076688837
 20
14.5301408269
 30
0.0
 10
10.0773899469
 20
14.5296893042
 30
0.0
 10
10.0780235806
 20
14.5293049135
 30
0.0
 10
10.0785896677
 20
14.5289876241
 30
0.0
 10
10.0790881392
 20
14.5287373323
 30
0.0
 10
10.0795193089
 20
14.5285536237
 30
0.0
 10
10.0798833717
 20
14.5284362317
 30
0.0
 10
10.0801483186
 20
14.5283898005
 30
0.0
 10
10.080324914
 20
14.5283927452
 30
0.0
 10
10.080432217
 20
14.5284121481
 30
0.0
 10
10.0805232773
 20
14.5284493592
 30
0.0
 10
10.0805733259
 20
14.5284870903
 30
0.0
 10
10.0805944409
 20
14.5285082042
 30
0.0
  0
SPLINE
  5
52C
100
AcDbEntity
  8
0
100
AcDbSpline
 62
7
  6
CONTINUOUS
 70
0
 71
3
 72
23
 73
19
 74
0
 42
0.0000001
 43
0.0000001
 44
0.0000000001
 40
0.0
 40
0.0
 40
0.0
 40
0.0
 40
0.0595441274
 40
0.1200249578
 40
0.1814590619
 40
0.2438171468
 40
0.3070173338
 40
0.3709192293
 40
0.4353269807
 40
0.5
 40
0.5646730193
 40
0.6290807707
 40
0.6929826662
 40
0.7561828532
 40
0.8185409381
 40
0.8799750422
 40
0.9404558726
 40
1.0
 40
1.0
 40
1.0
 40
1.0
 10
9.1071763463
 20
13.9222759851
 30
0.0
 10
9.1069160018
 20
13.9173327779
 30
0.0
 10
9.1059809391
 20
13.9073850894
 30
0.0
 10
9.1032974616
 20
13.8925222608
 30
0.0
 10
9.0992579507
 20
13.877724027
 30
0.0
 10
9.0938178901
 20
13.8631386021
 30
0.0
 10
9.0869604047
 20
13.8489338183
 30
0.0
 10
9.0787035558
 20
13.835293339
 30
0.0
 10
9.0691049747
 20
13.8224073416
 30
0.0
 10
9.0582638819
 20
13.8104604183
 30
0.0
 10
9.0463169587
 20
13.7996193255
 30
0.0
 10
9.0334309612
 20
13.7900207444
 30
0.0
 10
9.019790482
 20
13.7817638956
 30
0.0
 10
9.0055856982
 20
13.7749064101
 30
0.0
 10
8.9910002732
 20
13.7694663495
 30
0.0
 10
8.9762020394
 20
13.7654268386
 30
0.0
 10
8.9613392108
 20
13.7627433611
 30
0.0
 10
8.9513915223
 20
13.7618082985
 30
0.0
 10
8.9464483151
 20
13.761547954
 30
0.0
  0
SPLINE
  5
52D
100
AcDbEntity
  8
0
100
AcDbSpline
 62
7
  6
CONTINUOUS
 70
0
 71
3
 72
23
 73
19
 74
0
 42
0.0000001
 43
0.0000001
 44
0.0000000001
 40
0.0
 40
0.0
 40
0.0
 40
0.0
 40
0.0550125142
 40
0.112495502
 40
0.1724234458
 40
0.2346650485
 40
0.298971255
 40
0.3649690954
 40
0.4321711657
 40
0.5
 40
0.5678288343
 40
0.6350309046
 40
0.701028745
 40
0.7653349515
 40
0.8275765542
 40
0.887504498
 40
0.9449874858
 40
1.0
 40
1.0
 40
1.0
 40
1.0
 10
8.9464483151
 20
13.761547954
 30
0.0
 10
8.9475011224
 20
13.7657765843
 30
0.0
 10
8.9499751179
 20
13.7743468404
 30
0.0
 10
8.9546889817
 20
13.7871772022
 30
0.0
 10
8.9605184306
 20
13.8001718421
 30
0.0
 10
8.9674747628
 20
13.813215381
 30
0.0
 10
8.9755433163
 20
13.8261718806
 30
0.0
 10
8.9846782743
 20
13.8388869743
 30
0.0
 10
8.9948004116
 20
13.8511946371
 30
0.0
 10
9.0057975036
 20
13.8629267967
 30
0.0
 10
9.0175296631
 20
13.8739238887
 30
0.0
 10
9.0298373259
 20
13.884046026
 30
0.0
 10
9.0425524196
 20
13.893180984
 30
0.0
 10
9.0555089192
 20
13.9012495374
 30
0.0
 10
9.0685524581
 20
13.9082058696
 30
0.0
 10
9.081547098
 20
13.9140353185
 30
0.0
 10
9.0943774599
 20
13.9187491823
 30
0.0
 10
9.1029477159
 20
13.9212231778
 30
0.0
 10
9.1071763463
 20
13.9222759851
 30
0.0
  0
SPLINE
  5
52E
100
AcDbEntity
  8
0
100
AcDbSpline
 62
7
  6
CONTINUOUS
 70
0
 71
3
 72
23
 73
19
 74
0
 42
0.0000001
 43
0.0000001
 44
0.0000000001
 40
0.0
 40
0.0
 40
0.0
 40
0.0
 40
0.0604265705
 40
0.1215050726
 40
0.183250614
 40
0.2456454797
 40
0.3086346431
 40
0.3721207284
 40
0.4359660287
 40
0.5
 40
0.5640339713
 40
0.6278792716
 40
0.6913653569
 40
0.7543545203
 40
0.816749386
 40
0.8784949274
 40
0.9395734295
 40
1.0
 40
1.0
 40
1.0
 40
1.0
 10
9.1577617457
 20
13.8716905857
 30
0.0
 10
9.1576437612
 20
13.8666176619
 30
0.0
 10
9.1569858405
 20
13.8564214327
 30
0.0
 10
9.1546750928
 20
13.8411882378
 30
0.0
 10
9.1509647589
 20
13.8260608305
 30
0.0
 10
9.1458039067
 20
13.8111932394
 30
0.0
 10
9.1391694954
 20
13.7967591581
 30
0.0
 10
9.1310741446
 20
13.7829478271
 30
0.0
 10
9.1215713129
 20
13.7699542326
 30
0.0
 10
9.1107578427
 20
13.7579664575
 30
0.0
 10
9.0987700676
 20
13.7471529873
 30
0.0
 10
9.0857764731
 20
13.7376501557
 30
0.0
 10
9.0719651421
 20
13.7295548049
 30
0.0
 10
9.0575310608
 20
13.7229203935
 30
0.0
 10
9.0426634697
 20
13.7177595413
 30
0.0
 10
9.0275360624
 20
13.7140492074
 30
0.0
 10
9.0123028676
 20
13.7117384598
 30
0.0
 10
9.0021066383
 20
13.711080539
 30
0.0
 10
8.9970337146
 20
13.7109625545
 30
0.0
  0
SPLINE
  5
52F
100
AcDbEntity
  8
0
100
AcDbSpline
 62
7
  6
CONTINUOUS
 70
0
 71
3
 72
66
 73
62
 74
0
 42
0.0000001
 43
0.0000001
 44
0.0000000001
 40
0.0
 40
0.0
 40
0.0
 40
0.0
 40
0.0001837247
 40
0.0003934628
 40
0.0006473447
 40
0.0009558046
 40
0.0013246435
 40
0.0017572008
 40
0.0022555098
 40
0.0028208717
 40
0.0041557837
 40
0.0057660761
 40
0.0076534473
 40
0.0098184633
 40
0.0122608906
 40
0.0149801153
 40
0.0179750804
 40
0.0212444581
 40
0.0285999586
 40
0.0370315474
 40
0.0465210008
 40
0.0570473374
 40
0.0685870015
 40
0.0811139854
 40
0.0945998929
 40
0.10901406
 40
0.140493786
 40
0.1752662243
 40
0.213013801
 40
0.2533916798
 40
0.2960308109
 40
0.3405414463
 40
0.3865167886
 40
0.4335365935
 40
0.4811712476
 40
0.5289854899
 40
0.5765425841
 40
0.6234082205
 40
0.6691545238
 40
0.713364001
 40
0.7556333067
 40
0.7955770332
 40
0.8328311599
 40
0.8670565209
 40
0.8979418823
 40
0.9120432273
 40
0.9252070716
 40
0.9374036809
 40
0.9486056132
 40
0.9587878259
 40
0.9679277658
 40
0.9760055022
 40
0.9830039251
 40
0.9860939508
 40
0.9889092221
 40
0.9914486385
 40
0.9937113569
 40
0.995697072
 40
0.9974059936
 40
0.9988393257
 40
1.0
 40
1.0
 40
1.0
 40
1.0
 10
9.5256530183
 20
15.0812937727
 30
0.0
 10
9.5256857256
 20
15.0813264769
 30
0.0
 10
9.52577133
 20
15.0813818539
 30
0.0
 10
9.5259325002
 20
15.0814179635
 30
0.0
 10
9.5261280009
 20
15.0814149005
 30
0.0
 10
9.5263595217
 20
15.0813742017
 30
0.0
 10
9.526628198
 20
15.0812961439
 30
0.0
 10
9.5269345603
 20
15.0811805578
 30
0.0
 10
9.5272788375
 20
15.0810273302
 30
0.0
 10
9.5278190964
 20
15.0807572658
 30
0.0
 10
9.5285874331
 20
15.0803193788
 30
0.0
 10
9.5296165257
 20
15.0796700435
 30
0.0
 10
9.5307969943
 20
15.0788704389
 30
0.0
 10
9.5321282758
 20
15.0779209476
 30
0.0
 10
9.5336097053
 20
15.0768219235
 30
0.0
 10
9.535240497
 20
15.0755739777
 30
0.0
 10
9.5370198227
 20
15.0741778596
 30
0.0
 10
9.5396959468
 20
15.0720341674
 30
0.0
 10
9.5434010752
 20
15.0689862581
 30
0.0
 10
9.5482660164
 20
15.0648842502
 30
0.0
 10
9.5536977866
 20
15.0602166548
 30
0.0
 10
9.5596847152
 20
15.0549949117
 30
0.0
 10
9.5662138328
 20
15.0492316731
 30
0.0
 10
9.5732709769
 20
15.0429409299
 30
0.0
 10
9.5808408053
 20
15.0361379295
 30
0.0
 10
9.5919251918
 20
15.0261075979
 30
0.0
 10
9.6069225345
 20
15.0124148312
 30
0.0
 10
9.6261832484
 20
14.9946799175
 30
0.0
 10
9.6470300147
 20
14.9753606504
 30
0.0
 10
9.6692787348
 20
14.9546407374
 30
0.0
 10
9.692732515
 20
14.9327166321
 30
0.0
 10
9.7171835562
 20
14.909795868
 30
0.0
 10
9.742414999
 20
14.8860950847
 30
0.0
 10
9.7682029318
 20
14.8618380259
 30
0.0
 10
9.794318399
 20
14.8372534999
 30
0.0
 10
9.8205295246
 20
14.8125732531
 30
0.0
 10
9.8466035992
 20
14.7880298666
 30
0.0
 10
9.872309224
 20
14.7638546076
 30
0.0
 10
9.8974184092
 20
14.7402753164
 30
0.0
 10
9.921708652
 20
14.7175143224
 30
0.0
 10
9.9449649618
 20
14.6957863876
 30
0.0
 10
9.9669818113
 20
14.675296763
 30
0.0
 10
9.987564963
 20
14.6562392187
 30
0.0
 10
10.00653333
 20
14.638794433
 30
0.0
 10
10.0212709705
 20
14.6253602051
 30
0.0
 10
10.0321359505
 20
14.6155486376
 30
0.0
 10
10.039533074
 20
14.6089170191
 30
0.0
 10
10.0464129905
 20
14.602802087
 30
0.0
 10
10.0527608461
 20
14.5972185867
 30
0.0
 10
10.0585629711
 20
14.5921799973
 30
0.0
 10
10.0638068869
 20
14.5876984335
 30
0.0
 10
10.0684814282
 20
14.5837848023
 30
0.0
 10
10.0720269251
 20
14.5808956667
 30
0.0
 10
10.0745747247
 20
14.5788802286
 30
0.0
 10
10.0762569517
 20
14.5775801989
 30
0.0
 10
10.077790387
 20
14.576428509
 30
0.0
 10
10.0791742765
 20
14.575425818
 30
0.0
 10
10.0804078849
 20
14.5745726263
 30
0.0
 10
10.0814906626
 20
14.5738691101
 30
0.0
 10
10.0824220518
 20
14.5733154417
 30
0.0
 10
10.083002256
 20
14.5730140415
 30
0.0
 10
10.0832681578
 20
14.5728928901
 30
0.0
  0
LINE
  5
530
100
AcDbEntity
  8
0
100
AcDbLine
 62
7
  6
CONTINUOUS
 10
10.0832681578
 20
14.5728928901
 11
10.0840008029
 21
14.5726178669
  0
SPLINE
  5
531
100
AcDbEntity
  8
0
100
AcDbSpline
 62
7
  6
CONTINUOUS
 70
0
 71
3
 72
69
 73
65
 74
0
 42
0.0000001
 43
0.0000001
 44
0.0000000001
 40
0.0
 40
0.0
 40
0.0
 40
0.0
 40
0.0003933237
 40
0.0008523779
 40
0.0013789248
 40
0.0019741038
 40
0.0033730108
 40
0.0050527021
 40
0.0070146248
 40
0.0092591505
 40
0.0117859186
 40
0.0145942059
 40
0.0210503025
 40
0.0286152192
 40
0.0372729599
 40
0.0470043856
 40
0.0577875234
 40
0.0695977506
 40
0.0824079249
 40
0.0961884729
 40
0.1109074639
 40
0.126530733
 40
0.1603428863
 40
0.197310625
 40
0.2370898177
 40
0.2793101455
 40
0.3235783636
 40
0.3694821908
 40
0.4165941467
 40
0.4644754846
 40
0.512680465
 40
0.5607603182
 40
0.6082676556
 40
0.6547604587
 40
0.6998063503
 40
0.7429865507
 40
0.783899812
 40
0.8221662364
 40
0.857430711
 40
0.8893664857
 40
0.9039924852
 40
0.9176781408
 40
0.9303919456
 40
0.9421047157
 40
0.9527896769
 40
0.9624225849
 40
0.9709818862
 40
0.9784488773
 40
0.981767792
 40
0.9848080518
 40
0.9875682886
 40
0.9900474659
 40
0.9922448232
 40
0.9941601977
 40
0.9957940521
 40
0.9971480361
 40
0.9977212673
 40
0.9982263004
 40
0.9986644081
 40
0.9990376265
 40
0.9993493076
 40
0.9996052626
 40
0.999816002
 40
1.0
 40
1.0
 40
1.0
 40
1.0
 10
9.5631137349
 20
15.120424124
 30
0.0
 10
9.563209943
 20
15.1203984054
 30
0.0
 10
9.5634154825
 20
15.1203315739
 30
0.0
 10
9.5637392471
 20
15.1202004599
 30
0.0
 10
9.5641019003
 20
15.1200307572
 30
0.0
 10
9.5646684403
 20
15.1197366392
 30
0.0
 10
9.5654718172
 20
15.1192667789
 30
0.0
 10
9.5665455797
 20
15.1185766359
 30
0.0
 10
9.5677741736
 20
15.117732726
 30
0.0
 10
9.5691569924
 20
15.1167354775
 30
0.0
 10
9.5706933429
 20
15.115585327
 30
0.0
 10
9.5730574966
 20
15.1137621417
 30
0.0
 10
9.5763848011
 20
15.1110997755
 30
0.0
 10
9.5808111995
 20
15.1074418931
 30
0.0
 10
9.5858270898
 20
15.1031962714
 30
0.0
 10
9.5914215462
 20
15.0983735134
 30
0.0
 10
9.5975822217
 20
15.0929854695
 30
0.0
 10
9.604295541
 20
15.0870454867
 30
0.0
 10
9.6115466589
 20
15.0805682245
 30
0.0
 10
9.6193194917
 20
15.0735696379
 30
0.0
 10
9.6275967633
 20
15.0660669411
 30
0.0
 10
9.6396009366
 20
15.0551240073
 30
0.0
 10
9.6557135967
 20
15.0403263611
 30
0.0
 10
9.6762631947
 20
15.0213183162
 30
0.0
 10
9.6983198683
 20
15.0008045948
 30
0.0
 10
9.7216848853
 20
14.9789835896
 30
0.0
 10
9.7461473581
 20
14.956065819
 30
0.0
 10
9.7714862619
 20
14.93227207
 30
0.0
 10
9.7974724686
 20
14.907831272
 30
0.0
 10
9.823870894
 20
14.8829783492
 30
0.0
 10
9.8504426589
 20
14.8579520363
 30
0.0
 10
9.8769473453
 20
14.8329926166
 30
0.0
 10
9.9031451981
 20
14.8083397065
 30
0.0
 10
9.9287993855
 20
14.784229988
 30
0.0
 10
9.9536781724
 20
14.76089502
 30
0.0
 10
9.9775570823
 20
14.738559058
 30
0.0
 10
10.00022098
 20
14.7174369663
 30
0.0
 10
10.0214660035
 20
14.69773216
 30
0.0
 10
10.0411015812
 20
14.6796348221
 30
0.0
 10
10.0563939973
 20
14.6656573039
 30
0.0
 10
10.0676983825
 20
14.6554151805
 30
0.0
 10
10.075419563
 20
14.6484667861
 30
0.0
 10
10.0826181682
 20
14.6420404682
 30
0.0
 10
10.0892783404
 20
14.6361519881
 30
0.0
 10
10.095385437
 20
14.6308158161
 30
0.0
 10
10.1009260556
 20
14.6260450369
 30
0.0
 10
10.1058881508
 20
14.6218514613
 30
0.0
 10
10.1096668675
 20
14.61873472
 30
0.0
 10
10.1123958101
 20
14.6165420253
 30
0.0
 10
10.1142100494
 20
14.6151137222
 30
0.0
 10
10.1158726254
 20
14.6138367102
 30
0.0
 10
10.1173826647
 20
14.6127117508
 30
0.0
 10
10.1187393918
 20
14.6117394921
 30
0.0
 10
10.11994209
 20
14.6109202864
 30
0.0
 10
10.1209901973
 20
14.6102545352
 30
0.0
 10
10.1217724378
 20
14.6098050213
 30
0.0
 10
10.1223222425
 20
14.6095272737
 30
0.0
 10
10.1226724062
 20
14.6093694387
 30
0.0
 10
10.1229838381
 20
14.6092500518
 30
0.0
 10
10.1232567686
 20
14.6091689888
 30
0.0
 10
10.1234917428
 20
14.609126048
 30
0.0
 10
10.1236899277
 20
14.6091214799
 30
0.0
 10
10.1238531423
 20
14.609156822
 30
0.0
 10
10.1239397652
 20
14.6092124521
 30
0.0
 10
10.1239727052
 20
14.6092453959
 30
0.0
  0
SPLINE
  5
532
100
AcDbEntity
  8
0
100
AcDbSpline
 62
7
  6
CONTINUOUS
 70
0
 71
3
 72
69
 73
65
 74
0
 42
0.0000001
 43
0.0000001
 44
0.0000000001
 40
0.0
 40
0.0
 40
0.0
 40
0.0
 40
0.0003913814
 40
0.0008485349
 40
0.0013732168
 40
0.0019665565
 40
0.0033618584
 40
0.005038101
 40
0.0069966569
 40
0.0092379295
 40
0.0117615524
 40
0.0145667542
 40
0.0210169854
 40
0.0285763665
 40
0.0372288592
 40
0.0469553266
 40
0.0577338041
 40
0.06953967
 40
0.0823457597
 40
0.09612248
 40
0.1108379146
 40
0.1264579135
 40
0.1602643635
 40
0.1972274687
 40
0.2370031813
 40
0.27922113
 40
0.3234881369
 40
0.3693918957
 40
0.4165049306
 40
0.4643884837
 40
0.512596752
 40
0.5606809604
 40
0.6081935606
 40
0.6546925025
 40
0.6997452081
 40
0.7429327725
 40
0.7838537692
 40
0.8221280509
 40
0.8574003682
 40
0.8893436645
 40
0.9039732534
 40
0.9176623573
 40
0.9303794224
 40
0.9420952256
 40
0.9527829716
 40
0.962418405
 40
0.970979943
 40
0.9784488378
 40
0.981768551
 40
0.9848095394
 40
0.9875703841
 40
0.9900500645
 40
0.9922478229
 40
0.9941634464
 40
0.9957974306
 40
0.9971513567
 40
0.9977244799
 40
0.9982293531
 40
0.9986672388
 40
0.9990401408
 40
0.9993513937
 40
0.9996067902
 40
0.9998168255
 40
1.0
 40
1.0
 40
1.0
 40
1.0
 10
9.6121471875
 20
15.1724052311
 30
0.0
 10
9.6122434118
 20
15.17237951
 30
0.0
 10
9.612449056
 20
15.172312574
 30
0.0
 10
9.6127730584
 20
15.1721811462
 30
0.0
 10
9.6131361601
 20
15.1720109241
 30
0.0
 10
9.6137037328
 20
15.1717157305
 30
0.0
 10
9.6145089111
 20
15.1712439846
 30
0.0
 10
9.6155854291
 20
15.1705509329
 30
0.0
 10
9.6168176234
 20
15.1697032957
 30
0.0
 10
9.6182048679
 20
15.1687014907
 30
0.0
 10
9.619746467
 20
15.1675459615
 30
0.0
 10
9.6221192809
 20
15.1657139837
 30
0.0
 10
9.6254594137
 20
15.1630385859
 30
0.0
 10
9.6299035974
 20
15.1593626641
 30
0.0
 10
9.6349404355
 20
15.1550958449
 30
0.0
 10
9.6405589458
 20
15.1502487877
 30
0.0
 10
9.646746724
 20
15.1448333996
 30
0.0
 10
9.6534901254
 20
15.1388630959
 30
0.0
 10
9.6607742239
 20
15.1323526179
 30
0.0
 10
9.6685828507
 20
15.1253180068
 30
0.0
 10
9.6768986441
 20
15.1177765624
 30
0.0
 10
9.6889593729
 20
15.1067767856
 30
0.0
 10
9.7051487944
 20
15.0919020267
 30
0.0
 10
9.7257972706
 20
15.072794704
 30
0.0
 10
9.7479611467
 20
15.0521734083
 30
0.0
 10
9.7714406955
 20
15.0302375332
 30
0.0
 10
9.7960239506
 20
15.0071986786
 30
0.0
 10
9.821488765
 20
14.9832787548
 30
0.0
 10
9.8476048344
 20
14.9587078719
 30
0.0
 10
9.8741358585
 20
14.9337221706
 30
0.0
 10
9.9008417218
 20
14.9085616247
 30
0.0
 10
9.9274807344
 20
14.8834677901
 30
0.0
 10
9.9538118794
 20
14.8586815476
 30
0.0
 10
9.9795970412
 20
14.8344408622
 30
0.0
 10
10.0046032352
 20
14.8109785448
 30
0.0
 10
10.0286047452
 20
14.7885200904
 30
0.0
 10
10.0513852352
 20
14.7672815632
 30
0.0
 10
10.0727397015
 20
14.7474675232
 30
0.0
 10
10.0924764717
 20
14.7292692489
 30
0.0
 10
10.107847609
 20
14.7152132686
 30
0.0
 10
10.1192100974
 20
14.7049132783
 30
0.0
 10
10.1269709311
 20
14.6979254173
 30
0.0
 10
10.1342064246
 20
14.6914624094
 30
0.0
 10
10.1409006211
 20
14.6855401146
 30
0.0
 10
10.1470387932
 20
14.6801730894
 30
0.0
 10
10.1526074606
 20
14.6753744939
 30
0.0
 10
10.1575945061
 20
14.6711562124
 30
0.0
 10
10.161392051
 20
14.6680208591
 30
0.0
 10
10.1641344651
 20
14.6658148834
 30
0.0
 10
10.1659575783
 20
14.6643778374
 30
0.0
 10
10.167628213
 20
14.6630929054
 30
0.0
 10
10.1691454858
 20
14.661960854
 30
0.0
 10
10.1705086115
 20
14.6609823318
 30
0.0
 10
10.1717168806
 20
14.660157704
 30
0.0
 10
10.172769709
 20
14.6594873653
 30
0.0
 10
10.1735553741
 20
14.6590345565
 30
0.0
 10
10.1741075062
 20
14.6587546005
 30
0.0
 10
10.1744590857
 20
14.6585954222
 30
0.0
 10
10.1747717194
 20
14.6584748962
 30
0.0
 10
10.1750456377
 20
14.6583929073
 30
0.0
 10
10.1752813843
 20
14.6583492466
 30
0.0
 10
10.1754801375
 20
14.6583441544
 30
0.0
 10
10.1756437585
 20
14.658379156
 30
0.0
 10
10.175730583
 20
14.6584347575
 30
0.0
 10
10.1757635449
 20
14.6584677207
 30
0.0
  0
LINE
  5
533
100
AcDbEntity
  8
0
100
AcDbLine
 62
7
  6
CONTINUOUS
 10
9.6614035858
 20
15.224163768
 11
9.6615978812
 21
15.2241048179
  0
SPLINE
  5
534
100
AcDbEntity
  8
0
100
AcDbSpline
 62
7
  6
CONTINUOUS
 70
0
 71
3
 72
69
 73
65
 74
0
 42
0.0000001
 43
0.0000001
 44
0.0000000001
 40
0.0
 40
0.0
 40
0.0
 40
0.0
 40
0.0004342117
 40
0.0009351875
 40
0.0015042022
 40
0.0021420962
 40
0.0036265195
 40
0.0053911829
 40
0.0074370262
 40
0.0097641891
 40
0.0123721256
 40
0.0152599587
 40
0.0218700185
 40
0.029581552
 40
0.0383781159
 40
0.0482402572
 40
0.0591457618
 40
0.0710698104
 40
0.0839850879
 40
0.0978618695
 40
0.1126681598
 40
0.1283697704
 40
0.1623117117
 40
0.1993736146
 40
0.2392122955
 40
0.2814586753
 40
0.3257213376
 40
0.3715901696
 40
0.4186402066
 40
0.4664356159
 40
0.5145336818
 40
0.562489063
 40
0.6098577426
 40
0.6562013464
 40
0.7010910672
 40
0.7441117047
 40
0.7848655917
 40
0.8229761253
 40
0.8580915318
 40
0.8898879657
 40
0.9044488265
 40
0.9180728114
 40
0.9307286881
 40
0.9423875286
 40
0.9530228078
 40
0.9626105366
 40
0.971129361
 40
0.9785607275
 40
0.9818636719
 40
0.9848892488
 40
0.9876360519
 40
0.990103073
 40
0.9922895675
 40
0.9941953218
 40
0.9958208331
 40
0.9971676664
 40
0.9977377505
 40
0.9982399152
 40
0.9986754136
 40
0.9990462308
 40
0.9993556752
 40
0.999609499
 40
0.9998181353
 40
1.0
 40
1.0
 40
1.0
 40
1.0
 10
9.6615978812
 20
15.2241048179
 30
0.0
 10
9.6617030963
 20
15.2240694536
 30
0.0
 10
9.6619264998
 20
15.2239837085
 30
0.0
 10
9.662277076
 20
15.2238254087
 30
0.0
 10
9.6626667613
 20
15.2236282718
 30
0.0
 10
9.6632695234
 20
15.2232963668
 30
0.0
 10
9.6641186757
 20
15.2227795454
 30
0.0
 10
9.6652480506
 20
15.2220331284
 30
0.0
 10
9.6665328415
 20
15.2211322568
 30
0.0
 10
9.6679723882
 20
15.2200774015
 30
0.0
 10
9.6695659657
 20
15.2188690827
 30
0.0
 10
9.672007007
 20
15.2169667985
 30
0.0
 10
9.675431693
 20
15.2142049187
 30
0.0
 10
9.6799763661
 20
15.2104269402
 30
0.0
 10
9.6851118087
 20
15.206059834
 30
0.0
 10
9.6908268638
 20
15.2011144521
 30
0.0
 10
9.6971089749
 20
15.1956028956
 30
0.0
 10
9.7039443514
 20
15.1895387406
 30
0.0
 10
9.7113179292
 20
15.1829368772
 30
0.0
 10
9.7192134133
 20
15.1758134806
 30
0.0
 10
9.7276133262
 20
15.1681859698
 30
0.0
 10
9.7397802265
 20
15.1570768905
 30
0.0
 10
9.756094989
 20
15.1420731256
 30
0.0
 10
9.776884884
 20
15.1228205497
 30
0.0
 10
9.7991775748
 20
15.1020665448
 30
0.0
 10
9.8227731582
 20
15.0800106904
 30
0.0
 10
9.8474596755
 20
15.0568645906
 30
0.0
 10
9.8730151578
 20
15.0328499843
 30
0.0
 10
9.8992096507
 20
15.0081966364
 30
0.0
 10
9.925807337
 20
14.9831402081
 30
0.0
 10
9.9525687334
 20
14.9579200443
 30
0.0
 10
9.9792528836
 20
14.932776969
 30
0.0
 10
10.0056196138
 20
14.9079510222
 30
0.0
 10
10.0314317253
 20
14.8836792538
 30
0.0
 10
10.0564572044
 20
14.8601935048
 30
0.0
 10
10.0804713544
 20
14.8377182532
 30
0.0
 10
10.1032588594
 20
14.8164685436
 30
0.0
 10
10.1246157471
 20
14.7966479072
 30
0.0
 10
10.1443513374
 20
14.7784466318
 30
0.0
 10
10.1597196543
 20
14.7643899272
 30
0.0
 10
10.1710787822
 20
14.7540904267
 30
0.0
 10
10.1788365501
 20
14.7471035135
 30
0.0
 10
10.1860687505
 20
14.74064168
 30
0.0
 10
10.1927595168
 20
14.734720696
 30
0.0
 10
10.1988942083
 20
14.7293550319
 30
0.0
 10
10.2044594257
 20
14.7245577674
 30
0.0
 10
10.2094431268
 20
14.7203407131
 30
0.0
 10
10.2132379562
 20
14.7172062541
 30
0.0
 10
10.2159782909
 20
14.7150008827
 30
0.0
 10
10.2177999507
 20
14.7135642237
 30
0.0
 10
10.2194692009
 20
14.7122796103
 30
0.0
 10
10.220985164
 20
14.7111478038
 30
0.0
 10
10.2223470589
 20
14.7101694474
 30
0.0
 10
10.2235541818
 20
14.7093449037
 30
0.0
 10
10.2246059501
 20
14.7086745638
 30
0.0
 10
10.2253907767
 20
14.7082216714
 30
0.0
 10
10.225942284
 20
14.7079415911
 30
0.0
 10
10.2262934351
 20
14.7077823061
 30
0.0
 10
10.2266056631
 20
14.7076616492
 30
0.0
 10
10.2268791973
 20
14.7075795052
 30
0.0
 10
10.2271145807
 20
14.7075356639
 30
0.0
 10
10.2273129915
 20
14.7075303611
 30
0.0
 10
10.2274763041
 20
14.7075651136
 30
0.0
 10
10.2275629569
 20
14.707620541
 30
0.0
 10
10.2275958305
 20
14.7076534153
 30
0.0
  0
SPLINE
  5
535
100
AcDbEntity
  8
0
100
AcDbSpline
 62
7
  6
CONTINUOUS
 70
0
 71
3
 72
67
 73
63
 74
0
 42
0.0000001
 43
0.0000001
 44
0.0000000001
 40
0.0
 40
0.0
 40
0.0
 40
0.0
 40
0.000183443
 40
0.0003932034
 40
0.0006475463
 40
0.0009569309
 40
0.0013271531
 40
0.0017615393
 40
0.0022621104
 40
0.0028301577
 40
0.0041716873
 40
0.005790232
 40
0.0076874549
 40
0.0098639055
 40
0.0123193277
 40
0.0150530854
 40
0.0180641074
 40
0.0213510371
 40
0.0287460541
 40
0.037222879
 40
0.0467630788
 40
0.0573454334
 40
0.0689461182
 40
0.0815388284
 40
0.0950948607
 40
0.1095832163
 40
0.1412220169
 40
0.1761651144
 40
0.2140915031
 40
0.2546525854
 40
0.2974754336
 40
0.3421662057
 40
0.3883139808
 40
0.4354943687
 40
0.4832736124
 40
0.5312125123
 40
0.5788704643
 40
0.6258096269
 40
0.6715988183
 40
0.7158176289
 40
0.7580602122
 40
0.7979390478
 40
0.8350885861
 40
0.8691685696
 40
0.8998672966
 40
0.9138598573
 40
0.9269046764
 40
0.9389721313
 40
0.9500349348
 40
0.9600682372
 40
0.9690497206
 40
0.9769597493
 40
0.9837815949
 40
0.9867801578
 40
0.9895019492
 40
0.9919459685
 40
0.9941115032
 40
0.9959984357
 40
0.9976072676
 40
0.9989397119
 40
0.9995035027
 40
1.0
 40
1.0
 40
1.0
 40
1.0
 10
9.5749635965
 20
15.1329966596
 30
0.0
 10
9.5749964188
 20
15.1330294785
 30
0.0
 10
9.5750825272
 20
15.133084971
 30
0.0
 10
9.5752447057
 20
15.1331206904
 30
0.0
 10
9.5754415357
 20
15.1331168666
 30
0.0
 10
9.5756747718
 20
15.1330750318
 30
0.0
 10
9.5759455647
 20
15.1329954508
 30
0.0
 10
9.5762544497
 20
15.1328779462
 30
0.0
 10
9.5766016549
 20
15.1327224019
 30
0.0
 10
9.5771466654
 20
15.1324484767
 30
0.0
 10
9.5779219207
 20
15.1320047432
 30
0.0
 10
9.5789604783
 20
15.1313471681
 30
0.0
 10
9.580152015
 20
15.1305377322
 30
0.0
 10
9.5814959562
 20
15.1295768241
 30
0.0
 10
9.5829916272
 20
15.1284648062
 30
0.0
 10
9.5846382309
 20
15.1272023008
 30
0.0
 10
9.5864349242
 20
15.1257900689
 30
0.0
 10
9.5891373155
 20
15.1236218558
 30
0.0
 10
9.5928790311
 20
15.1205395128
 30
0.0
 10
9.5977922716
 20
15.1163917111
 30
0.0
 10
9.603278143
 20
15.1116725277
 30
0.0
 10
9.6093247906
 20
15.1063935851
 30
0.0
 10
9.6159190377
 20
15.1005677406
 30
0.0
 10
9.6230464954
 20
15.0942092101
 30
0.0
 10
9.6306915773
 20
15.0873334848
 30
0.0
 10
9.6418854376
 20
15.077197121
 30
0.0
 10
9.657029803
 20
15.0633615841
 30
0.0
 10
9.6764776305
 20
15.0454445655
 30
0.0
 10
9.6975238244
 20
15.0259308743
 30
0.0
 10
9.7199813755
 20
15.0050071231
 30
0.0
 10
9.7436502958
 20
14.9828728547
 30
0.0
 10
9.7683195718
 20
14.9597388125
 30
0.0
 10
9.7937690354
 20
14.9358249407
 30
0.0
 10
9.8197714216
 20
14.9113583324
 30
0.0
 10
9.846094429
 20
14.8865711384
 30
0.0
 10
9.8725028699
 20
14.8616984123
 30
0.0
 10
9.8987608292
 20
14.8369759379
 30
0.0
 10
9.9246338206
 20
14.8126380649
 30
0.0
 10
9.9498909545
 20
14.788915529
 30
0.0
 10
9.9743070393
 20
14.7660333426
 30
0.0
 10
9.9976646455
 20
14.7442086981
 30
0.0
 10
10.0197561016
 20
14.7236489811
 30
0.0
 10
10.0403853294
 20
14.7045497819
 30
0.0
 10
10.0593697615
 20
14.6870932442
 30
0.0
 10
10.074101798
 20
14.6736688089
 30
0.0
 10
10.0849466488
 20
14.6638810158
 30
0.0
 10
10.0923163948
 20
14.6572789448
 30
0.0
 10
10.0991608534
 20
14.6512016044
 30
0.0
 10
10.1054651672
 20
14.6456637344
 30
0.0
 10
10.1112156845
 20
14.6406787819
 30
0.0
 10
10.1163999625
 20
14.6362587898
 30
0.0
 10
10.1210069057
 20
14.6324145758
 30
0.0
 10
10.1244914464
 20
14.6295885644
 30
0.0
 10
10.1269867885
 20
14.6276278051
 30
0.0
 10
10.1286265132
 20
14.6263712256
 30
0.0
 10
10.130115547
 20
14.6252648194
 30
0.0
 10
10.1314531536
 20
14.6243092378
 30
0.0
 10
10.1326386341
 20
14.6235048043
 30
0.0
 10
10.1336714407
 20
14.6228519116
 30
0.0
 10
10.1344421144
 20
14.6224118817
 30
0.0
 10
10.1349835928
 20
14.6221407826
 30
0.0
 10
10.1352287777
 20
14.6220315278
 30
0.0
 10
10.135345072
 20
14.6219840158
 30
0.0
  0
LINE
  5
536
100
AcDbEntity
  8
0
100
AcDbLine
 62
7
  6
CONTINUOUS
 10
10.135345072
 20
14.6219840158
 11
10.1358251118
 21
14.6218181701
  0
SPLINE
  5
537
100
AcDbEntity
  8
0
100
AcDbSpline
 62
7
  6
CONTINUOUS
 70
0
 71
3
 72
68
 73
64
 74
0
 42
0.0000001
 43
0.0000001
 44
0.0000000001
 40
0.0
 40
0.0
 40
0.0
 40
0.0
 40
0.0001829624
 40
0.0003925783
 40
0.0006472474
 40
0.000957438
 40
0.0013289406
 40
0.0017650787
 40
0.0022678501
 40
0.002838524
 40
0.0041865341
 40
0.0058132239
 40
0.0077201704
 40
0.0099079021
 40
0.0123761659
 40
0.015124243
 40
0.0181511018
 40
0.0214553182
 40
0.0288891945
 40
0.0374103822
 40
0.0470002261
 40
0.0576372631
 40
0.0692973921
 40
0.0819539792
 40
0.0955779972
 40
0.1101381218
 40
0.1419303912
 40
0.1770375012
 40
0.2151351651
 40
0.2558712335
 40
0.2988690566
 40
0.343731039
 40
0.3900423302
 40
0.437374748
 40
0.4852906612
 40
0.5333472017
 40
0.5811001976
 40
0.6281084534
 40
0.6739377366
 40
0.7181648092
 40
0.7603814729
 40
0.8001981472
 40
0.8372477522
 40
0.8711889353
 40
0.8868950715
 40
0.9017094576
 40
0.9155981
 40
0.9285291828
 40
0.9404731647
 40
0.9514029038
 40
0.9612937246
 40
0.9701235278
 40
0.9778729521
 40
0.9845256235
 40
0.9874365379
 40
0.9900687373
 40
0.9924213259
 40
0.9944937292
 40
0.9962860344
 40
0.9977990788
 40
0.999035188
 40
0.9995509997
 40
1.0
 40
1.0
 40
1.0
 40
1.0
 10
9.6240016582
 20
15.1849781065
 30
0.0
 10
9.6240345723
 20
15.1850110179
 30
0.0
 10
9.624121164
 20
15.1850665715
 30
0.0
 10
9.6242843154
 20
15.1851017784
 30
0.0
 10
9.6244824447
 20
15.1850970654
 30
0.0
 10
9.6247173822
 20
15.18505396
 30
0.0
 10
9.624990297
 20
15.1849727046
 30
0.0
 10
9.6253017296
 20
15.1848531046
 30
0.0
 10
9.6256519081
 20
15.1846950478
 30
0.0
 10
9.6262017578
 20
15.1844169619
 30
0.0
 10
9.6269840849
 20
15.1839669792
 30
0.0
 10
9.6280323306
 20
15.1833006308
 30
0.0
 10
9.6292352233
 20
15.182480774
 30
0.0
 10
9.63059217
 20
15.1815077999
 30
0.0
 10
9.6321024748
 20
15.1803820812
 30
0.0
 10
9.6337653429
 20
15.1791042596
 30
0.0
 10
9.6355798984
 20
15.1776751029
 30
0.0
 10
9.6383093085
 20
15.1754811821
 30
0.0
 10
9.6420886515
 20
15.1723628211
 30
0.0
 10
9.6470515615
 20
15.1681672251
 30
0.0
 10
9.6525930428
 20
15.1633943104
 30
0.0
 10
9.6587010483
 20
15.1580558932
 30
0.0
 10
9.6653621798
 20
15.1521650507
 30
0.0
 10
9.6725618065
 20
15.1457362426
 30
0.0
 10
9.680284083
 20
15.1387852186
 30
0.0
 10
9.6915901498
 20
15.1285392215
 30
0.0
 10
9.7068851322
 20
15.1145562597
 30
0.0
 10
9.7265246009
 20
15.0964514036
 30
0.0
 10
9.7477749974
 20
15.0767373417
 30
0.0
 10
9.7704464018
 20
15.0556036
 30
0.0
 10
9.7943357593
 20
15.0332527915
 30
0.0
 10
9.8192288586
 20
15.0098988566
 30
0.0
 10
9.8449022733
 20
14.9857650021
 30
0.0
 10
9.8711254169
 20
14.9610816415
 30
0.0
 10
9.8976626871
 20
14.9360842288
 30
0.0
 10
9.9242756186
 20
14.9110110945
 30
0.0
 10
9.9507251079
 20
14.8861012108
 30
0.0
 10
9.9767735986
 20
14.861591996
 30
0.0
 10
10.0021872832
 20
14.8377171023
 30
0.0
 10
10.02673826
 20
14.8147042437
 30
0.0
 10
10.050206617
 20
14.7927731043
 30
0.0
 10
10.072382454
 20
14.7721332343
 30
0.0
 10
10.0930678535
 20
14.7529822316
 30
0.0
 10
10.1093040341
 20
14.7380542699
 30
0.0
 10
10.1214156258
 20
14.7269980771
 30
0.0
 10
10.1297803514
 20
14.7194040159
 30
0.0
 10
10.1376450874
 20
14.712309579
 30
0.0
 10
10.1449925424
 20
14.705732001
 30
0.0
 10
10.1518065983
 20
14.6996872821
 30
0.0
 10
10.1580723578
 20
14.6941901516
 30
0.0
 10
10.1637761793
 20
14.6892540416
 30
0.0
 10
10.1689056393
 20
14.6848909348
 30
0.0
 10
10.1734496959
 20
14.6811115752
 30
0.0
 10
10.1768771354
 20
14.6783449727
 30
0.0
 10
10.1793230473
 20
14.6764360119
 30
0.0
 10
10.1809224809
 20
14.6752207625
 30
0.0
 10
10.1823692863
 20
14.6741575619
 30
0.0
 10
10.1836627468
 20
14.6732470251
 30
0.0
 10
10.184802193
 20
14.6724893698
 30
0.0
 10
10.1857871113
 20
14.6718849421
 30
0.0
 10
10.186517027
 20
14.6714869725
 30
0.0
 10
10.1870250946
 20
14.6712512417
 30
0.0
 10
10.1872532217
 20
14.6711601207
 30
0.0
 10
10.1873608729
 20
14.6711219272
 30
0.0
  0
LINE
  5
538
100
AcDbEntity
  8
0
100
AcDbLine
 62
7
  6
CONTINUOUS
 10
10.1873608729
 20
14.6711219272
 11
10.1876195325
 21
14.6710407495
  0
SPLINE
  5
539
100
AcDbEntity
  8
0
100
AcDbSpline
 62
7
  6
CONTINUOUS
 70
0
 71
3
 72
69
 73
65
 74
0
 42
0.0000001
 43
0.0000001
 44
0.0000000001
 40
0.0
 40
0.0
 40
0.0
 40
0.0
 40
0.0001822251
 40
0.0003912451
 40
0.0006455
 40
0.0009554406
 40
0.0013268308
 40
0.0017629833
 40
0.0022658842
 40
0.0028367889
 40
0.0041855233
 40
0.0058132748
 40
0.0077215962
 40
0.0099109817
 40
0.0123811935
 40
0.0151314799
 40
0.018160815
 40
0.0214677701
 40
0.0289078584
 40
0.037436203
 40
0.0470340999
 40
0.0576800411
 40
0.0693498737
 40
0.082016906
 40
0.0956520425
 40
0.1102238992
 40
0.1420412502
 40
0.1771751161
 40
0.2153006133
 40
0.2560650227
 40
0.2990910139
 40
0.3439804114
 40
0.3903176784
 40
0.4376740244
 40
0.4856112185
 40
0.5336857669
 40
0.58145301
 40
0.6284711917
 40
0.6743056963
 40
0.7185328769
 40
0.7607442274
 40
0.8005499498
 40
0.8375827705
 40
0.8715012954
 40
0.8871938785
 40
0.9019932404
 40
0.9158654083
 40
0.928778582
 40
0.940703239
 40
0.9516122569
 40
0.9614809996
 40
0.9702874117
 40
0.9780121717
 40
0.9846389532
 40
0.9875364826
 40
0.9901550151
 40
0.9924936687
 40
0.9945518858
 40
0.9963297772
 40
0.9978282209
 40
0.9984733825
 40
0.9990498024
 40
0.9995582751
 40
1.0
 40
1.0
 40
1.0
 40
1.0
 10
9.673261602
 20
15.2367369044
 30
0.0
 10
9.6732945396
 20
15.2367698416
 30
0.0
 10
9.6733813437
 20
15.2368253809
 30
0.0
 10
9.6735449356
 20
15.2368602389
 30
0.0
 10
9.6737436751
 20
15.236854981
 30
0.0
 10
9.6739794355
 20
15.2368111285
 30
0.0
 10
9.6742533956
 20
15.2367289183
 30
0.0
 10
9.674566098
 20
15.2366081427
 30
0.0
 10
9.6749177718
 20
15.2364486882
 30
0.0
 10
9.6754700789
 20
15.2361682992
 30
0.0
 10
9.6762560175
 20
15.2357148854
 30
0.0
 10
9.6773092418
 20
15.2350437563
 30
0.0
 10
9.6785179937
 20
15.2342182393
 30
0.0
 10
9.6798816796
 20
15.2332387321
 30
0.0
 10
9.6813995902
 20
15.2321056074
 30
0.0
 10
9.683070933
 20
15.2308195155
 30
0.0
 10
9.6848948218
 20
15.2293812279
 30
0.0
 10
9.6876383877
 20
15.2271734325
 30
0.0
 10
9.6914375129
 20
15.2240356338
 30
0.0
 10
9.6964266189
 20
15.2198142367
 30
0.0
 10
9.7019975386
 20
15.2150122755
 30
0.0
 10
9.708138145
 20
15.2096416463
 30
0.0
 10
9.7148349507
 20
15.2037155153
 30
0.0
 10
9.7220732249
 20
15.1972484426
 30
0.0
 10
9.7298370137
 20
15.1902562853
 30
0.0
 10
9.7412038366
 20
15.179950041
 30
0.0
 10
9.7565810099
 20
15.1658855065
 30
0.0
 10
9.7763259532
 20
15.1476758924
 30
0.0
 10
9.7976901214
 20
15.1278487603
 30
0.0
 10
9.820482353
 20
15.1065948779
 30
0.0
 10
9.844498291
 20
15.0841181607
 30
0.0
 10
9.869522346
 20
15.0606339265
 30
0.0
 10
9.8953296826
 20
15.0363667916
 30
0.0
 10
9.9216882667
 20
15.011548617
 30
0.0
 10
9.9483610355
 20
14.9864163175
 30
0.0
 10
9.9751080709
 20
14.9612096768
 30
0.0
 10
10.0016888204
 20
14.9361691158
 30
0.0
 10
10.0278643303
 20
14.9115334506
 30
0.0
 10
10.0533994276
 20
14.8875376986
 30
0.0
 10
10.0780649194
 20
14.864410865
 30
0.0
 10
10.1016396707
 20
14.842373856
 30
0.0
 10
10.1239126455
 20
14.8216373565
 30
0.0
 10
10.1446848961
 20
14.8023999934
 30
0.0
 10
10.1609866283
 20
14.7874069556
 30
0.0
 10
10.173144851
 20
14.7763045386
 30
0.0
 10
10.1815399216
 20
14.7686803732
 30
0.0
 10
10.1894318176
 20
14.7615590126
 30
0.0
 10
10.196803175
 20
14.7549577635
 30
0.0
 10
10.2036378082
 20
14.7488926928
 30
0.0
 10
10.2099207621
 20
14.7433785847
 30
0.0
 10
10.2156383484
 20
14.738428917
 30
0.0
 10
10.2207781045
 20
14.7340557047
 30
0.0
 10
10.2253289582
 20
14.7302697202
 30
0.0
 10
10.2287599144
 20
14.7274998379
 30
0.0
 10
10.2312069117
 20
14.7255900633
 30
0.0
 10
10.2328057865
 20
14.7243754563
 30
0.0
 10
10.2342511489
 20
14.7233137934
 30
0.0
 10
10.2355422789
 20
14.7224055979
 30
0.0
 10
10.2366785204
 20
14.7216513399
 30
0.0
 10
10.2375336706
 20
14.7211275409
 30
0.0
 10
10.2381414725
 20
14.7207896765
 30
0.0
 10
10.2385351754
 20
14.7205880022
 30
0.0
 10
10.2388898965
 20
14.7204250422
 30
0.0
 10
10.2391160964
 20
14.7203359749
 30
0.0
 10
10.2392227449
 20
14.7202988844
 30
0.0
  0
LINE
  5
53A
100
AcDbEntity
  8
0
100
AcDbLine
 62
7
  6
CONTINUOUS
 10
10.2392227449
 20
14.7202988844
 11
10.2394556003
 21
14.7202267224
  0
SPLINE
  5
53B
100
AcDbEntity
  8
0
100
AcDbSpline
 62
7
  6
CONTINUOUS
 70
0
 71
3
 72
23
 73
19
 74
0
 42
0.0000001
 43
0.0000001
 44
0.0000000001
 40
0.0
 40
0.0
 40
0.0
 40
0.0
 40
0.0538135836
 40
0.1105246567
 40
0.1700805753
 40
0.232310841
 40
0.2969147012
 40
0.3634553053
 40
0.4313705497
 40
0.5
 40
0.5686294503
 40
0.6365446947
 40
0.7030852988
 40
0.767689159
 40
0.8299194247
 40
0.8894753433
 40
0.9461864164
 40
1.0
 40
1.0
 40
1.0
 40
1.0
 10
8.9970337146
 20
13.7109625545
 30
0.0
 10
8.9983332308
 20
13.7149694956
 30
0.0
 10
9.0012834889
 20
13.7231102696
 30
0.0
 10
9.006613059
 20
13.7353194808
 30
0.0
 10
9.0129848088
 20
13.747764169
 30
0.0
 10
9.0204004677
 20
13.7603389524
 30
0.0
 10
9.0288362143
 20
13.7729173165
 30
0.0
 10
9.0382380943
 20
13.7853533845
 30
0.0
 10
9.0485204227
 20
13.797487945
 30
0.0
 10
9.0595669051
 20
13.8091573951
 30
0.0
 10
9.0712363552
 20
13.8202038775
 30
0.0
 10
9.0833709157
 20
13.8304862059
 30
0.0
 10
9.0958069838
 20
13.839888086
 30
0.0
 10
9.1083853478
 20
13.8483238326
 30
0.0
 10
9.1209601313
 20
13.8557394915
 30
0.0
 10
9.1334048194
 20
13.8621112413
 30
0.0
 10
9.1456140306
 20
13.8674408114
 30
0.0
 10
9.1537548046
 20
13.8703910695
 30
0.0
 10
9.1577617457
 20
13.8716905857
 30
0.0
  0
SPLINE
  5
53C
100
AcDbEntity
  8
0
100
AcDbSpline
 62
7
  6
CONTINUOUS
 70
0
 71
3
 72
23
 73
19
 74
0
 42
0.0000001
 43
0.0000001
 44
0.0000000001
 40
0.0
 40
0.0
 40
0.0
 40
0.0
 40
0.0611649977
 40
0.1227469256
 40
0.1847575597
 40
0.247186862
 40
0.3100007381
 40
0.3731370815
 40
0.436507096
 40
0.5
 40
0.563492904
 40
0.6268629185
 40
0.6899992619
 40
0.752813138
 40
0.8152424403
 40
0.8772530744
 40
0.9388350023
 40
1.0
 40
1.0
 40
1.0
 40
1.0
 10
9.2068615891
 20
13.8225907423
 30
0.0
 10
9.2068614729
 20
13.8174100013
 30
0.0
 10
9.20643302
 20
13.8070075365
 30
0.0
 10
9.2044324449
 20
13.7914667057
 30
0.0
 10
9.2009962202
 20
13.7760658175
 30
0.0
 10
9.1960680158
 20
13.7609636499
 30
0.0
 10
9.1896195548
 20
13.7463387335
 30
0.0
 10
9.181658806
 20
13.7323849758
 30
0.0
 10
9.1722356626
 20
13.7193014647
 30
0.0
 10
9.1614449677
 20
13.7072793325
 30
0.0
 10
9.1494228355
 20
13.6964886376
 30
0.0
 10
9.1363393244
 20
13.6870654942
 30
0.0
 10
9.1223855668
 20
13.6791047454
 30
0.0
 10
9.1077606504
 20
13.6726562844
 30
0.0
 10
9.0926584827
 20
13.66772808
 30
0.0
 10
9.0772575946
 20
13.6642918553
 30
0.0
 10
9.0617167637
 20
13.6622912802
 30
0.0
 10
9.0513142989
 20
13.6618628273
 30
0.0
 10
9.046133558
 20
13.6618627111
 30
0.0
  0
SPLINE
  5
53D
100
AcDbEntity
  8
0
100
AcDbSpline
 62
7
  6
CONTINUOUS
 70
0
 71
3
 72
23
 73
19
 74
0
 42
0.0000001
 43
0.0000001
 44
0.0000000001
 40
0.0
 40
0.0
 40
0.0
 40
0.0
 40
0.0526961062
 40
0.1086962198
 40
0.1679154935
 40
0.2301422172
 40
0.2950249466
 40
0.3620667403
 40
0.4306369365
 40
0.5
 40
0.5693630635
 40
0.6379332597
 40
0.7049750534
 40
0.7698577828
 40
0.8320845065
 40
0.8913037802
 40
0.9473038938
 40
1.0
 40
1.0
 40
1.0
 40
1.0
 10
9.046133558
 20
13.6618627111
 30
0.0
 10
9.0476952624
 20
13.6656328301
 30
0.0
 10
9.0511495289
 20
13.6733146356
 30
0.0
 10
9.0571259096
 20
13.6848697348
 30
0.0
 10
9.0640674799
 20
13.6967358909
 30
0.0
 10
9.071966026
 20
13.7088181162
 30
0.0
 10
9.0807881259
 20
13.7209996476
 30
0.0
 10
9.0904712634
 20
13.7331433863
 30
0.0
 10
9.1009229157
 20
13.7450971397
 30
0.0
 10
9.1120224331
 20
13.7567018672
 30
0.0
 10
9.1236271605
 20
13.7678013845
 30
0.0
 10
9.1355809139
 20
13.7782530368
 30
0.0
 10
9.1477246527
 20
13.7879361743
 30
0.0
 10
9.159906184
 20
13.7967582742
 30
0.0
 10
9.1719884094
 20
13.8046568203
 30
0.0
 10
9.1838545654
 20
13.8115983906
 30
0.0
 10
9.1954096647
 20
13.8175747713
 30
0.0
 10
9.2030914701
 20
13.8210290378
 30
0.0
 10
9.2068615891
 20
13.8225907423
 30
0.0
  0
SPLINE
  5
53E
100
AcDbEntity
  8
0
100
AcDbSpline
 62
7
  6
CONTINUOUS
 70
0
 71
3
 72
23
 73
19
 74
0
 42
0.0000001
 43
0.0000001
 44
0.0000000001
 40
0.0
 40
0.0
 40
0.0
 40
0.0
 40
0.0617482986
 40
0.1237299758
 40
0.1859528853
 40
0.2484117751
 40
0.3110880723
 40
0.3739470236
 40
0.4369386079
 40
0.5
 40
0.5630613921
 40
0.6260529764
 40
0.6889119277
 40
0.7515882249
 40
0.8140471147
 40
0.8762700242
 40
0.9382517014
 40
1.0
 40
1.0
 40
1.0
 40
1.0
 10
9.2540030182
 20
13.7754493132
 30
0.0
 10
9.2540954595
 20
13.7701836333
 30
0.0
 10
9.253847177
 20
13.7596189041
 30
0.0
 10
9.2520910908
 20
13.7438359195
 30
0.0
 10
9.2488710467
 20
13.7282197389
 30
0.0
 10
9.2441264289
 20
13.7129328204
 30
0.0
 10
9.2378247667
 20
13.6981574712
 30
0.0
 10
9.2299702774
 20
13.6840912861
 30
0.0
 10
9.2206099729
 20
13.6709366499
 30
0.0
 10
9.2098371012
 20
13.658887199
 30
0.0
 10
9.1977876504
 20
13.6481143274
 30
0.0
 10
9.1846330141
 20
13.6387540229
 30
0.0
 10
9.170566829
 20
13.6308995335
 30
0.0
 10
9.1557914798
 20
13.6245978713
 30
0.0
 10
9.1405045613
 20
13.6198532536
 30
0.0
 10
9.1248883807
 20
13.6166332094
 30
0.0
 10
9.1091053962
 20
13.6148771232
 30
0.0
 10
9.098540667
 20
13.6146288407
 30
0.0
 10
9.093274987
 20
13.6147212821
 30
0.0
  0
SPLINE
  5
53F
100
AcDbEntity
  8
0
100
AcDbSpline
 62
7
  6
CONTINUOUS
 70
0
 71
3
 72
23
 73
19
 74
0
 42
0.0000001
 43
0.0000001
 44
0.0000000001
 40
0.0
 40
0.0
 40
0.0
 40
0.0
 40
0.0517273468
 40
0.1071179711
 40
0.16605334
 40
0.228282358
 40
0.2934078009
 40
0.3608803196
 40
0.4300106972
 40
0.5
 40
0.5699893028
 40
0.6391196804
 40
0.7065921991
 40
0.771717642
 40
0.83394666
 40
0.8928820289
 40
0.9482726532
 40
1.0
 40
1.0
 40
1.0
 40
1.0
 10
9.093274987
 20
13.6147212821
 30
0.0
 10
9.0951114526
 20
13.6182404095
 30
0.0
 10
9.0990915126
 20
13.6254365165
 30
0.0
 10
9.1057395808
 20
13.6363117099
 30
0.0
 10
9.1132731964
 20
13.647577021
 30
0.0
 10
9.1216738301
 20
13.659148133
 30
0.0
 10
9.1308980322
 20
13.6709183026
 30
0.0
 10
9.1408743353
 20
13.682759457
 30
0.0
 10
9.1515030451
 20
13.6945266117
 30
0.0
 10
9.1626589148
 20
13.7060653854
 30
0.0
 10
9.1741976886
 20
13.7172212552
 30
0.0
 10
9.1859648432
 20
13.727849965
 30
0.0
 10
9.1978059976
 20
13.737826268
 30
0.0
 10
9.2095761672
 20
13.7470504701
 30
0.0
 10
9.2211472792
 20
13.7554511038
 30
0.0
 10
9.2324125904
 20
13.7629847194
 30
0.0
 10
9.2432877837
 20
13.7696327876
 30
0.0
 10
9.2504838907
 20
13.7736128476
 30
0.0
 10
9.2540030182
 20
13.7754493132
 30
0.0
  0
SPLINE
  5
540
100
AcDbEntity
  8
0
100
AcDbSpline
 62
7
  6
CONTINUOUS
 70
0
 71
3
 72
23
 73
19
 74
0
 42
0.0000001
 43
0.0000001
 44
0.0000000001
 40
0.0
 40
0.0
 40
0.0
 40
0.0
 40
0.0621692294
 40
0.1244405043
 40
0.1868181676
 40
0.2492997292
 40
0.3118772515
 40
0.3745354251
 40
0.4372522759
 40
0.5
 40
0.5627477241
 40
0.6254645749
 40
0.6881227485
 40
0.7507002708
 40
0.8131818324
 40
0.8755594957
 40
0.9378307706
 40
1.0
 40
1.0
 40
1.0
 40
1.0
 10
9.2987320351
 20
13.7307202963
 30
0.0
 10
9.298891069
 20
13.7253933536
 30
0.0
 10
9.2987723923
 20
13.7147116986
 30
0.0
 10
9.2971926787
 20
13.6987541967
 30
0.0
 10
9.2941286507
 20
13.6829828506
 30
0.0
 10
9.2895165878
 20
13.667562737
 30
0.0
 10
9.2833209581
 20
13.6526788633
 30
0.0
 10
9.2755432231
 20
13.6385314851
 30
0.0
 10
9.2662282729
 20
13.6253254
 30
0.0
 10
9.2554681906
 20
13.6132561096
 30
0.0
 10
9.2433989003
 20
13.6024960274
 30
0.0
 10
9.2301928152
 20
13.5931810771
 30
0.0
 10
9.216045437
 20
13.5854033421
 30
0.0
 10
9.2011615632
 20
13.5792077124
 30
0.0
 10
9.1857414496
 20
13.5745956495
 30
0.0
 10
9.1699701036
 20
13.5715316215
 30
0.0
 10
9.1540126016
 20
13.569951908
 30
0.0
 10
9.1433309467
 20
13.5698332312
 30
0.0
 10
9.138004004
 20
13.5699922651
 30
0.0
  0
SPLINE
  5
541
100
AcDbEntity
  8
0
100
AcDbSpline
 62
7
  6
CONTINUOUS
 70
0
 71
3
 72
23
 73
19
 74
0
 42
0.0000001
 43
0.0000001
 44
0.0000000001
 40
0.0
 40
0.0
 40
0.0
 40
0.0
 40
0.0509744488
 40
0.1058959054
 40
0.1646157462
 40
0.2268499211
 40
0.2921645198
 40
0.359969323
 40
0.4295301926
 40
0.5
 40
0.5704698074
 40
0.640030677
 40
0.7078354802
 40
0.7731500789
 40
0.8353842538
 40
0.8941040946
 40
0.9490255512
 40
1.0
 40
1.0
 40
1.0
 40
1.0
 10
9.138004004
 20
13.5699922651
 30
0.0
 10
9.1401241526
 20
13.5732474386
 30
0.0
 10
9.14464499
 20
13.5799345454
 30
0.0
 10
9.1519836502
 20
13.590111465
 30
0.0
 10
9.1601263798
 20
13.6007600183
 30
0.0
 10
9.1690439792
 20
13.6118067656
 30
0.0
 10
9.1786825971
 20
13.6231552338
 30
0.0
 10
9.1889614922
 20
13.6346865986
 30
0.0
 10
9.199773535
 20
13.6462632617
 30
0.0
 10
9.2109886991
 20
13.6577356011
 30
0.0
 10
9.2224610386
 20
13.6689507653
 30
0.0
 10
9.2340377016
 20
13.6797628081
 30
0.0
 10
9.2455690665
 20
13.6900417031
 30
0.0
 10
9.2569175346
 20
13.699680321
 30
0.0
 10
9.2679642819
 20
13.7085979204
 30
0.0
 10
9.2786128352
 20
13.7167406501
 30
0.0
 10
9.2887897548
 20
13.7240793102
 30
0.0
 10
9.2954768616
 20
13.7286001477
 30
0.0
 10
9.2987320351
 20
13.7307202963
 30
0.0
  0
SPLINE
  5
542
100
AcDbEntity
  8
0
100
AcDbSpline
 62
7
  6
CONTINUOUS
 70
0
 71
3
 72
23
 73
19
 74
0
 42
0.0000001
 43
0.0000001
 44
0.0000000001
 40
0.0
 40
0.0
 40
0.0
 40
0.0
 40
0.0624233566
 40
0.1248699207
 40
0.1873416477
 40
0.2498374362
 40
0.3123555377
 40
0.3748922564
 40
0.4374425745
 40
0.5
 40
0.5625574255
 40
0.6251077436
 40
0.6876444623
 40
0.7501625638
 40
0.8126583523
 40
0.8751300793
 40
0.9375766434
 40
1.0
 40
1.0
 40
1.0
 40
1.0
 10
9.3406178751
 20
13.6888344563
 30
0.0
 10
9.3408170587
 20
13.6834705156
 30
0.0
 10
9.3407765121
 20
13.6727182886
 30
0.0
 10
9.3393033173
 20
13.6566554537
 30
0.0
 10
9.3363335401
 20
13.640790454
 30
0.0
 10
9.3318015808
 20
13.6252899323
 30
0.0
 10
9.3256700447
 20
13.6103405155
 30
0.0
 10
9.3179387084
 20
13.5961440655
 30
0.0
 10
9.3086511611
 20
13.5829068508
 30
0.0
 10
9.297898776
 20
13.5708255243
 30
0.0
 10
9.2858174494
 20
13.5600731392
 30
0.0
 10
9.2725802347
 20
13.5507855919
 30
0.0
 10
9.2583837848
 20
13.5430542555
 30
0.0
 10
9.243434368
 20
13.5369227194
 30
0.0
 10
9.2279338462
 20
13.5323907601
 30
0.0
 10
9.2120688466
 20
13.5294209829
 30
0.0
 10
9.1960060116
 20
13.5279477881
 30
0.0
 10
9.1852537846
 20
13.5279072415
 30
0.0
 10
9.1798898439
 20
13.5281064252
 30
0.0
  0
SPLINE
  5
543
100
AcDbEntity
  8
0
100
AcDbSpline
 62
7
  6
CONTINUOUS
 70
0
 71
3
 72
23
 73
19
 74
0
 42
0.0000001
 43
0.0000001
 44
0.0000000001
 40
0.0
 40
0.0
 40
0.0
 40
0.0
 40
0.0504957751
 40
0.1051210421
 40
0.1637061911
 40
0.2259451553
 40
0.2913802217
 40
0.3593951444
 40
0.4292274992
 40
0.5
 40
0.5707725009
 40
0.6406048556
 40
0.7086197783
 40
0.7740548447
 40
0.8362938089
 40
0.8948789579
 40
0.9495042249
 40
1.0
 40
1.0
 40
1.0
 40
1.0
 10
9.1798898439
 20
13.5281064252
 30
0.0
 10
9.1822982575
 20
13.5310864932
 30
0.0
 10
9.1873674887
 20
13.5372456642
 30
0.0
 10
9.19540998
 20
13.5467132509
 30
0.0
 10
9.2041738719
 20
13.5567354148
 30
0.0
 10
9.2136190099
 20
13.5672497545
 30
0.0
 10
9.223680881
 20
13.5781703046
 30
0.0
 10
9.2342692498
 20
13.5893876777
 30
0.0
 10
9.2452693798
 20
13.6007718158
 30
0.0
 10
9.2565463521
 20
13.6121779481
 30
0.0
 10
9.2679524844
 20
13.6234549204
 30
0.0
 10
9.2793366225
 20
13.6344550504
 30
0.0
 10
9.2905539956
 20
13.6450434192
 30
0.0
 10
9.3014745457
 20
13.6551052903
 30
0.0
 10
9.3119888854
 20
13.6645504283
 30
0.0
 10
9.3220110494
 20
13.6733143202
 30
0.0
 10
9.3314786361
 20
13.6813568115
 30
0.0
 10
9.3376378071
 20
13.6864260428
 30
0.0
 10
9.3406178751
 20
13.6888344563
 30
0.0
  0
SPLINE
  5
544
100
AcDbEntity
  8
0
100
AcDbSpline
 62
7
  6
CONTINUOUS
 70
0
 71
3
 72
23
 73
19
 74
0
 42
0.0000001
 43
0.0000001
 44
0.0000000001
 40
0.0
 40
0.0
 40
0.0
 40
0.0
 40
0.0625083127
 40
0.1250135521
 40
0.1875168315
 40
0.250017467
 40
0.3125157401
 40
0.375011816
 40
0.4375063489
 40
0.5
 40
0.5624936511
 40
0.624988184
 40
0.6874842599
 40
0.749982533
 40
0.8124831685
 40
0.8749864479
 40
0.9374916873
 40
1.0
 40
1.0
 40
1.0
 40
1.0
 10
9.3792571545
 20
13.6501951769
 30
0.0
 10
9.379469754
 20
13.6448188632
 30
0.0
 10
9.379455312
 20
13.6340430419
 30
0.0
 10
9.3780177394
 20
13.617944992
 30
0.0
 10
9.375079486
 20
13.602048682
 30
0.0
 10
9.3705743232
 20
13.5865212758
 30
0.0
 10
9.3644642311
 20
13.57154994
 30
0.0
 10
9.356748419
 20
13.5573370734
 30
0.0
 10
9.347470038
 20
13.5440894386
 30
0.0
 10
9.3367202225
 20
13.5320040777
 30
0.0
 10
9.3246348616
 20
13.5212542622
 30
0.0
 10
9.3113872269
 20
13.5119758812
 30
0.0
 10
9.2971743602
 20
13.5042600691
 30
0.0
 10
9.2822030244
 20
13.498149977
 30
0.0
 10
9.2666756182
 20
13.4936448142
 30
0.0
 10
9.2507793083
 20
13.4907065609
 30
0.0
 10
9.2346812583
 20
13.4892689882
 30
0.0
 10
9.2239054371
 20
13.4892545462
 30
0.0
 10
9.2185291233
 20
13.4894671457
 30
0.0
  0
SPLINE
  5
545
100
AcDbEntity
  8
0
100
AcDbSpline
 62
7
  6
CONTINUOUS
 70
0
 71
3
 72
23
 73
19
 74
0
 42
0.0000001
 43
0.0000001
 44
0.0000000001
 40
0.0
 40
0.0
 40
0.0
 40
0.0
 40
0.0624233566
 40
0.1248699207
 40
0.1873416477
 40
0.2498374362
 40
0.3123555377
 40
0.3748922564
 40
0.4374425745
 40
0.5
 40
0.5625574255
 40
0.6251077436
 40
0.6876444623
 40
0.7501625638
 40
0.8126583523
 40
0.8751300793
 40
0.9375766434
 40
1.0
 40
1.0
 40
1.0
 40
1.0
 10
9.414277756
 20
13.6151745754
 30
0.0
 10
9.4144769397
 20
13.6098106347
 30
0.0
 10
9.414436393
 20
13.5990584076
 30
0.0
 10
9.4129631983
 20
13.5829955727
 30
0.0
 10
9.4099934211
 20
13.5671305731
 30
0.0
 10
9.4054614618
 20
13.5516300513
 30
0.0
 10
9.3993299257
 20
13.5366806345
 30
0.0
 10
9.3915985893
 20
13.5224841845
 30
0.0
 10
9.382311042
 20
13.5092469699
 30
0.0
 10
9.3715586569
 20
13.4971656433
 30
0.0
 10
9.3594773304
 20
13.4864132582
 30
0.0
 10
9.3462401157
 20
13.4771257109
 30
0.0
 10
9.3320436657
 20
13.4693943745
 30
0.0
 10
9.3170942489
 20
13.4632628385
 30
0.0
 10
9.3015937272
 20
13.4587308792
 30
0.0
 10
9.2857287275
 20
13.455761102
 30
0.0
 10
9.2696658926
 20
13.4542879072
 30
0.0
 10
9.2589136655
 20
13.4542473605
 30
0.0
 10
9.2535497249
 20
13.4544465442
 30
0.0
  0
SPLINE
  5
546
100
AcDbEntity
  8
0
100
AcDbSpline
 62
7
  6
CONTINUOUS
 70
0
 71
3
 72
23
 73
19
 74
0
 42
0.0000001
 43
0.0000001
 44
0.0000000001
 40
0.0
 40
0.0
 40
0.0
 40
0.0
 40
0.0621692294
 40
0.1244405043
 40
0.1868181676
 40
0.2492997292
 40
0.3118772515
 40
0.3745354251
 40
0.4372522759
 40
0.5
 40
0.5627477241
 40
0.6254645749
 40
0.6881227485
 40
0.7507002708
 40
0.8131818324
 40
0.8755594957
 40
0.9378307706
 40
1.0
 40
1.0
 40
1.0
 40
1.0
 10
9.4453424121
 20
13.5841099193
 30
0.0
 10
9.445501446
 20
13.5787829766
 30
0.0
 10
9.4453827692
 20
13.5681013216
 30
0.0
 10
9.4438030557
 20
13.5521438197
 30
0.0
 10
9.4407390277
 20
13.5363724736
 30
0.0
 10
9.4361269648
 20
13.52095236
 30
0.0
 10
9.4299313351
 20
13.5060684863
 30
0.0
 10
9.4221536001
 20
13.4919211081
 30
0.0
 10
9.4128386499
 20
13.478715023
 30
0.0
 10
9.4020785676
 20
13.4666457326
 30
0.0
 10
9.3900092773
 20
13.4558856504
 30
0.0
 10
9.3768031922
 20
13.4465707001
 30
0.0
 10
9.362655814
 20
13.4387929651
 30
0.0
 10
9.3477719402
 20
13.4325973354
 30
0.0
 10
9.3323518266
 20
13.4279852725
 30
0.0
 10
9.3165804806
 20
13.4249212445
 30
0.0
 10
9.3006229786
 20
13.423341531
 30
0.0
 10
9.2899413237
 20
13.4232228542
 30
0.0
 10
9.284614381
 20
13.4233818881
 30
0.0
  0
SPLINE
  5
547
100
AcDbEntity
  8
0
100
AcDbSpline
 62
7
  6
CONTINUOUS
 70
0
 71
3
 72
23
 73
19
 74
0
 42
0.0000001
 43
0.0000001
 44
0.0000000001
 40
0.0
 40
0.0
 40
0.0
 40
0.0
 40
0.0617482986
 40
0.1237299758
 40
0.1859528853
 40
0.2484117752
 40
0.3110880724
 40
0.3739470236
 40
0.4369386079
 40
0.5
 40
0.5630613921
 40
0.6260529764
 40
0.6889119276
 40
0.7515882248
 40
0.8140471147
 40
0.8762700242
 40
0.9382517014
 40
1.0
 40
1.0
 40
1.0
 40
1.0
 10
9.4721519531
 20
13.5573003783
 30
0.0
 10
9.4722443945
 20
13.5520346983
 30
0.0
 10
9.471996112
 20
13.5414699691
 30
0.0
 10
9.4702400258
 20
13.5256869846
 30
0.0
 10
9.4670199816
 20
13.510070804
 30
0.0
 10
9.4622753639
 20
13.4947838854
 30
0.0
 10
9.4559737017
 20
13.4800085362
 30
0.0
 10
9.4481192123
 20
13.4659423511
 30
0.0
 10
9.4387589078
 20
13.4527877149
 30
0.0
 10
9.4279860362
 20
13.4407382641
 30
0.0
 10
9.4159365853
 20
13.4299653924
 30
0.0
 10
9.4027819491
 20
13.4206050879
 30
0.0
 10
9.388715764
 20
13.4127505986
 30
0.0
 10
9.3739404148
 20
13.4064489363
 30
0.0
 10
9.3586534962
 20
13.4017043186
 30
0.0
 10
9.3430373156
 20
13.3984842745
 30
0.0
 10
9.3272543311
 20
13.3967281883
 30
0.0
 10
9.3166896019
 20
13.3964799057
 30
0.0
 10
9.311423922
 20
13.3965723471
 30
0.0
  0
LINE
  5
548
100
AcDbEntity
  8
0
100
AcDbLine
 62
7
  6
CONTINUOUS
 10
8.8667549409
 20
11.2045957933
 11
8.8224144164
 21
11.242699484
  0
SPLINE
  5
549
100
AcDbEntity
  8
0
100
AcDbSpline
 62
7
  6
CONTINUOUS
 70
0
 71
3
 72
23
 73
19
 74
0
 42
0.0000001
 43
0.0000001
 44
0.0000000001
 40
0.0
 40
0.0
 40
0.0
 40
0.0
 40
0.0611649977
 40
0.1227469256
 40
0.1847575597
 40
0.247186862
 40
0.3100007381
 40
0.3731370815
 40
0.436507096
 40
0.5
 40
0.563492904
 40
0.6268629185
 40
0.6899992619
 40
0.752813138
 40
0.8152424403
 40
0.8772530744
 40
0.9388350023
 40
1.0
 40
1.0
 40
1.0
 40
1.0
 10
9.4944481886
 20
13.5350041428
 30
0.0
 10
9.4944480723
 20
13.5298234019
 30
0.0
 10
9.4940196194
 20
13.5194209371
 30
0.0
 10
9.4920190443
 20
13.5038801062
 30
0.0
 10
9.4885828197
 20
13.4884792181
 30
0.0
 10
9.4836546152
 20
13.4733770504
 30
0.0
 10
9.4772061542
 20
13.4587521341
 30
0.0
 10
9.4692454055
 20
13.4447983764
 30
0.0
 10
9.459822262
 20
13.4317148653
 30
0.0
 10
9.4490315671
 20
13.4196927331
 30
0.0
 10
9.4370094349
 20
13.4089020382
 30
0.0
 10
9.4239259238
 20
13.3994788948
 30
0.0
 10
9.4099721662
 20
13.391518146
 30
0.0
 10
9.3953472498
 20
13.385069685
 30
0.0
 10
9.3802450822
 20
13.3801414806
 30
0.0
 10
9.364844194
 20
13.3767052559
 30
0.0
 10
9.3493033631
 20
13.3747046808
 30
0.0
 10
9.3389008984
 20
13.3742762279
 30
0.0
 10
9.3337201574
 20
13.3742761117
 30
0.0
  0
ENDSEC
  0
SECTION
  2
OBJECTS
  0
DICTIONARY
  5
C
100
AcDbDictionary
280
0
281
1
  3
ACAD_GROUP
350
D
  3
ACAD_MLINESTYLE
350
17
  3
ACAD_LAYOUT
350
1A
  3
ACAD_PLOTSETTINGS
350
19
  3
ACAD_PLOTSTYLENAME
350
E
  0
DICTIONARY
  5
D
102
{ACAD_REACTORS
330
C
102
}
100
AcDbDictionary
280
0
281
1
  0
ACDBDICTIONARYWDFLT
  5
E
102
{ACAD_REACTORS
330
C
102
}
100
AcDbDictionary
281
1
  3
Normal
350
F
100
AcDbDictionaryWithDefault
340
F
  0
DICTIONARY
  5
17
102
{ACAD_REACTORS
330
C
102
}
100
AcDbDictionary
280
0
281
1
  3
Standard
350
18
  0
DICTIONARY
  5
19
102
{ACAD_REACTORS
330
C
102
}
100
AcDbDictionary
281
1
  0
DICTIONARY
  5
1A
102
{ACAD_REACTORS
330
C
102
}
100
AcDbDictionary
281
1
  3
Model
350
54A
  3
Layout1
350
54B
  0
ACDBPLACEHOLDER
  5
F
102
{ACAD_REACTORS
330
E
102
}
  0
MLINESTYLE
  5
18
102
{ACAD_REACTORS
330
17
102
}
100
AcDbMlineStyle
  2
STANDARD
 70
0
  3

 62
256
 51
90.0
 52
90.0
 71
2
 49
0.5
 62
256
  6
BYLAYER
 49
-0.5
 62
256
  6
BYLAYER
  0
LAYOUT
  5
54A
102
{ACAD_REACTORS
330
1A
102
}
100
AcDbPlotSettings
  1

  2
none_device
  4
ANSI_C_(22.00_x_17.00_Inches)
  6

 40
0.0
 41
0.0
 42
0.0
 43
0.0
 44
558.8
 45
431.8
 46
0.0
 47
0.0
 48
0.0
 49
0.0
140
0.0
141
0.0
142
1.0
143
1.0
 70
1024
 72
0
 73
0
 74
0
  7

 75
0
147
1.0
148
0.0
149
0.0
100
AcDbLayout
  1
Model
 70
0
 71
0
 10
0.0
 20
0.0
 11
22.0
 21
17.0
 12
0.0
 22
0.0
 32
0.0
 14
0.0
 24
0.0
 34
0.0
 15
0.0
 25
0.0
 35
0.0
146
0.0
 13
0.0
 23
0.0
 33
0.0
 16
1.0
 26
0.0
 36
0.0
 17
0.0
 27
1.0
 37
0.0
 76
0
330
205
345
0
346
0
  0
LAYOUT
  5
54B
102
{ACAD_REACTORS
330
1A
102
}
100
AcDbPlotSettings
  1

  2
none_device
  4
ANSI_C_(22.00_x_17.00_Inches)
  6

 40
0.0
 41
0.0
 42
0.0
 43
0.0
 44
558.8
 45
431.8
 46
0.0
 47
0.0
 48
0.0
 49
0.0
140
0.0
141
0.0
142
1.0
143
1.0
 70
0
 72
0
 73
0
 74
0
  7

 75
0
147
1.0
148
0.0
149
0.0
100
AcDbLayout
  1
Layout1
 70
0
 71
1
 10
0.0
 20
0.0
 11
22.0
 21
17.0
 12
0.0
 22
0.0
 32
0.0
 14
0.0
 24
0.0
 34
0.0
 15
0.0
 25
0.0
 35
0.0
146
0.0
 13
0.0
 23
0.0
 33
0.0
 16
1.0
 26
0.0
 36
0.0
 17
0.0
 27
1.0
 37
0.0
 76
0
330
206
345
0
346
0
  0
ENDSEC
  0
EOF
