999
DXF file: 3-2405_FRONT.dxf
999
Pro/ENGINEER 2018400 by Parametric Technology Corporation
  0
SECTION
  2
HEADER
  9
$ACADVER
  1
AC1027
  9
$DWGCODEPAGE
  3
ANSI_1252
  9
$EXTMAX
 10
11.0
 20
8.5
 30
0.0
  9
$EXTMIN
 10
0.0
 20
0.0
 30
0.0
  9
$LIMMIN
 10
0.0
 20
0.0
  9
$LIMMAX
 10
11.0
 20
8.5
  9
$VIEWCTR
 10
5.5
 20
4.25
  9
$VIEWSIZE
 40
8.5
  9
$CLAYER
  8
0
  9
$LTSCALE
 40
0.605
  9
$CELTYPE
  6
BYLAYER
  9
$DIMSCALE
 40
1.0
  9
$DIMASZ
 40
0.1
  9
$DIMEXO
 40
0.0625
  9
$DIMDLI
 40
0.418
  9
$DIMEXE
 40
0.125
  9
$DIMCEN
 40
0.099
  9
$DIMLFAC
 40
1.0
  9
$DIMBLK
  1
_FILLED
  9
$DIMALT
 70
1
  9
$DIMALTD
 70
2
  9
$DIMALTTD
 70
2
  9
$DIMALTF
 40
25.4
  9
$DIMTXT
 40
0.08
  9
$DIMTOL
 70
1
  9
$DIMLIM
 70
0
  9
$DIMTFAC
 40
1.0
  9
$DIMTP
 40
0.001
  9
$DIMTM
 40
0.001
  9
$DIMGAP
 40
0.09
  9
$DIMDSEP
 70
46
  9
$AUNITS
 70
0
  9
$PDMODE
 70
3
  9
$PDSIZE
 40
0.3125
  9
$HANDSEED
  5
3D6
  9
$TILEMODE
 70
1
  9
$MEASUREMENT
 70
0
  9
$INSUNITS
 70
1
  0
ENDSEC
  0
SECTION
  2
CLASSES
  0
CLASS
  1
ACDBDICTIONARYWDFLT
  2
AcDbDictionaryWithDefault
  3
AutoCAD 2000
 90
0
 91
1
280
0
281
0
  0
CLASS
  1
ACDBPLACEHOLDER
  2
AcDbPlaceHolder
  3
AutoCAD 2000
 90
0
 91
1
280
0
281
0
  0
CLASS
  1
LAYOUT
  2
AcDbLayout
  3
AutoCAD 2000
 90
0
 91
0
280
0
281
0
  0
ENDSEC
  0
SECTION
  2
TABLES
  0
TABLE
  2
VPORT
  5
8
100
AcDbSymbolTable
 70
2
  0
VPORT
  5
1F4
100
AcDbSymbolTableRecord
100
AcDbViewportTableRecord
  2
*ACTIVE
 70
0
 10
0.0
 20
0.0
 11
1.0
 21
1.0
 12
5.5
 22
4.25
 13
0.0
 23
0.0
 14
1.0
 24
1.0
 15
0.0
 25
0.0
 16
0.0
 26
0.0
 36
1.0
 17
0.0
 27
0.0
 37
0.0
 40
8.5
 41
1.2941176471
 42
50.0
 43
0.0
 44
0.0
 50
0.0
 51
0.0
 71
0
 72
100
 73
1
 74
1
 75
0
 76
0
 77
0
 78
0
  0
ENDTAB
  0
TABLE
  2
LTYPE
  5
5
100
AcDbSymbolTable
 70
6
  0
LTYPE
  5
14
100
AcDbSymbolTableRecord
100
AcDbLinetypeTableRecord
  2
BYBLOCK
 70
0
  3

 72
65
 73
0
 40
0.0
  0
LTYPE
  5
15
100
AcDbSymbolTableRecord
100
AcDbLinetypeTableRecord
  2
BYLAYER
 70
0
  3

 72
65
 73
0
 40
0.0
  0
LTYPE
  5
16
100
AcDbSymbolTableRecord
100
AcDbLinetypeTableRecord
  2
CONTINUOUS
 70
64
  3
Solid line
 72
65
 73
0
 40
0.0
  0
LTYPE
  5
1F5
100
AcDbSymbolTableRecord
100
AcDbLinetypeTableRecord
  2
CENTER
 70
64
  3
____ _ ____ _ ____ _ ____ _ ____ _ ____ _ ____
 72
65
 73
4
 40
0.6
 49
0.375
 74
0
 49
-0.075
 74
0
 49
0.075
 74
0
 49
-0.075
 74
0
  0
LTYPE
  5
1F6
100
AcDbSymbolTableRecord
100
AcDbLinetypeTableRecord
  2
HIDDEN
 70
64
  3
- - - - - - - - - - - - - - - - - - - -
 72
65
 73
2
 40
0.2
 49
0.1
 74
0
 49
-0.1
 74
0
  0
LTYPE
  5
1F7
100
AcDbSymbolTableRecord
100
AcDbLinetypeTableRecord
  2
PHANTOM
 70
64
  3
_____ _ _ _____ _ _ _____ _ _ _____
 72
65
 73
6
 40
0.8
 49
0.45
 74
0
 49
-0.05
 74
0
 49
0.1
 74
0
 49
-0.05
 74
0
 49
0.1
 74
0
 49
-0.05
 74
0
  0
LTYPE
  5
1F8
100
AcDbSymbolTableRecord
100
AcDbLinetypeTableRecord
  2
DOT
 70
64
  3
. . . . . . . . . . . . . . . . . . . .
 72
65
 73
2
 40
0.2
 49
0.1
 74
0
 49
-0.1
 74
0
  0
LTYPE
  5
1F9
100
AcDbSymbolTableRecord
100
AcDbLinetypeTableRecord
  2
DASHED
 70
64
  3
- - - - - - - - - - - - - - - - - - - -
 72
65
 73
2
 40
0.2
 49
0.1
 74
0
 49
-0.1
 74
0
  0
ENDTAB
  0
TABLE
  2
LAYER
  5
2
100
AcDbSymbolTable
 70
36
  0
LAYER
  5
10
100
AcDbSymbolTableRecord
100
AcDbLayerTableRecord
  2
0
 70
0
 62
7
  6
CONTINUOUS
370
-3
390
F
  0
LAYER
  5
1FA
100
AcDbSymbolTableRecord
100
AcDbLayerTableRecord
  2
DEFAULT_1
 70
0
 62
7
  6
CENTER
370
-3
390
F
  0
LAYER
  5
1FB
100
AcDbSymbolTableRecord
100
AcDbLayerTableRecord
  2
DEFAULT_2
 70
0
 62
8
  6
HIDDEN
370
-3
390
F
  0
LAYER
  5
1FC
100
AcDbSymbolTableRecord
100
AcDbLayerTableRecord
  2
DEFAULT_3
 70
0
 62
7
  6
PHANTOM
370
-3
390
F
  0
LAYER
  5
1FD
100
AcDbSymbolTableRecord
100
AcDbLayerTableRecord
  2
3-985_ASSY_PLANES
 70
0
 62
7
  6
CONTINUOUS
370
-3
390
F
  0
LAYER
  5
1FE
100
AcDbSymbolTableRecord
100
AcDbLayerTableRecord
  2
ALL_ASSEMBLY_MEMBERS
 70
0
 62
7
  6
CONTINUOUS
370
-3
390
F
  0
LAYER
  5
1FF
100
AcDbSymbolTableRecord
100
AcDbLayerTableRecord
  2
ALL_FEATURES
 70
0
 62
7
  6
CONTINUOUS
370
-3
390
F
  0
LAYER
  5
200
100
AcDbSymbolTableRecord
100
AcDbLayerTableRecord
  2
AXES_FEATURES
 70
0
 62
7
  6
CONTINUOUS
370
-3
390
F
  0
LAYER
  5
201
100
AcDbSymbolTableRecord
100
AcDbLayerTableRecord
  2
CHAMFER_FEATURES
 70
0
 62
7
  6
CONTINUOUS
370
-3
390
F
  0
LAYER
  5
202
100
AcDbSymbolTableRecord
100
AcDbLayerTableRecord
  2
COORDINATE_SYSTEMS
 70
0
 62
7
  6
CONTINUOUS
370
-3
390
F
  0
LAYER
  5
203
100
AcDbSymbolTableRecord
100
AcDbLayerTableRecord
  2
CUT_FEATURES
 70
0
 62
7
  6
CONTINUOUS
370
-3
390
F
  0
LAYER
  5
204
100
AcDbSymbolTableRecord
100
AcDbLayerTableRecord
  2
CYAN
 70
0
 62
7
  6
CONTINUOUS
370
-3
390
F
  0
LAYER
  5
205
100
AcDbSymbolTableRecord
100
AcDbLayerTableRecord
  2
DATUM_CURVES
 70
0
 62
7
  6
CONTINUOUS
370
-3
390
F
  0
LAYER
  5
206
100
AcDbSymbolTableRecord
100
AcDbLayerTableRecord
  2
DATUM_PLANES
 70
0
 62
7
  6
CONTINUOUS
370
-3
390
F
  0
LAYER
  5
207
100
AcDbSymbolTableRecord
100
AcDbLayerTableRecord
  2
DATUM_POINTS
 70
0
 62
7
  6
CONTINUOUS
370
-3
390
F
  0
LAYER
  5
208
100
AcDbSymbolTableRecord
100
AcDbLayerTableRecord
  2
DEFAULT_COORDINATE_SYSTEM
 70
0
 62
7
  6
CONTINUOUS
370
-3
390
F
  0
LAYER
  5
209
100
AcDbSymbolTableRecord
100
AcDbLayerTableRecord
  2
DEFAULT_DATUM_AXES
 70
0
 62
7
  6
CONTINUOUS
370
-3
390
F
  0
LAYER
  5
20A
100
AcDbSymbolTableRecord
100
AcDbLayerTableRecord
  2
DEFAULT_DATUM_CURVES
 70
0
 62
7
  6
CONTINUOUS
370
-3
390
F
  0
LAYER
  5
20B
100
AcDbSymbolTableRecord
100
AcDbLayerTableRecord
  2
DEFAULT_DATUM_PLANES
 70
0
 62
7
  6
CONTINUOUS
370
-3
390
F
  0
LAYER
  5
20C
100
AcDbSymbolTableRecord
100
AcDbLayerTableRecord
  2
DEFAULT_SURFACES
 70
0
 62
7
  6
CONTINUOUS
370
-3
390
F
  0
LAYER
  5
20D
100
AcDbSymbolTableRecord
100
AcDbLayerTableRecord
  2
DIMENSIONS
 70
0
 62
7
  6
CONTINUOUS
370
-3
390
F
  0
LAYER
  5
20E
100
AcDbSymbolTableRecord
100
AcDbLayerTableRecord
  2
HOLE_FEATURES
 70
0
 62
7
  6
CONTINUOUS
370
-3
390
F
  0
LAYER
  5
20F
100
AcDbSymbolTableRecord
100
AcDbLayerTableRecord
  2
PART_REFERENCE_DIMENSIONS
 70
0
 62
7
  6
CONTINUOUS
370
-3
390
F
  0
LAYER
  5
210
100
AcDbSymbolTableRecord
100
AcDbLayerTableRecord
  2
PLATED_SURFACE_AREA
 70
0
 62
7
  6
CONTINUOUS
370
-3
390
F
  0
LAYER
  5
211
100
AcDbSymbolTableRecord
100
AcDbLayerTableRecord
  2
POINTS
 70
0
 62
7
  6
CONTINUOUS
370
-3
390
F
  0
LAYER
  5
212
100
AcDbSymbolTableRecord
100
AcDbLayerTableRecord
  2
PROTRUSION_FEATURES
 70
0
 62
7
  6
CONTINUOUS
370
-3
390
F
  0
LAYER
  5
213
100
AcDbSymbolTableRecord
100
AcDbLayerTableRecord
  2
QUILTS
 70
0
 62
7
  6
CONTINUOUS
370
-3
390
F
  0
LAYER
  5
214
100
AcDbSymbolTableRecord
100
AcDbLayerTableRecord
  2
REFERENCE_DIMENSIONS
 70
0
 62
7
  6
CONTINUOUS
370
-3
390
F
  0
LAYER
  5
215
100
AcDbSymbolTableRecord
100
AcDbLayerTableRecord
  2
ROUND_FEATURES
 70
0
 62
7
  6
CONTINUOUS
370
-3
390
F
  0
LAYER
  5
216
100
AcDbSymbolTableRecord
100
AcDbLayerTableRecord
  2
SURFACE_FEATURES
 70
0
 62
7
  6
CONTINUOUS
370
-3
390
F
  0
LAYER
  5
217
100
AcDbSymbolTableRecord
100
AcDbLayerTableRecord
  2
SURFACE_FINISH_SYMBOLS
 70
0
 62
7
  6
CONTINUOUS
370
-3
390
F
  0
LAYER
  5
218
100
AcDbSymbolTableRecord
100
AcDbLayerTableRecord
  2
WETTED_SURFACES
 70
0
 62
7
  6
CONTINUOUS
370
-3
390
F
  0
LAYER
  5
219
100
AcDbSymbolTableRecord
100
AcDbLayerTableRecord
  2
WETTED_SURFACE_AREA
 70
0
 62
7
  6
CONTINUOUS
370
-3
390
F
  0
LAYER
  5
21A
100
AcDbSymbolTableRecord
100
AcDbLayerTableRecord
  2
WHITE
 70
0
 62
7
  6
CONTINUOUS
370
-3
390
F
  0
ENDTAB
  0
TABLE
  2
STYLE
  5
3
100
AcDbSymbolTable
 70
1
  0
STYLE
  5
11
100
AcDbSymbolTableRecord
100
AcDbTextStyleTableRecord
  2
STANDARD
 70
0
 40
0.0
 41
0.8
 50
0.0
 71
0
 42
0.2
  3
txt
  4

  0
STYLE
  5
21B
100
AcDbSymbolTableRecord
100
AcDbTextStyleTableRecord
  2
TEXTSTYLE_1
 70
0
 40
0.0
 41
0.8
 50
0.0
 71
0
 42
0.2
  3
gdt
  4

  0
ENDTAB
  0
TABLE
  2
VIEW
  5
6
100
AcDbSymbolTable
 70
0
  0
ENDTAB
  0
TABLE
  2
UCS
  5
7
100
AcDbSymbolTable
 70
0
  0
ENDTAB
  0
TABLE
  2
APPID
  5
9
100
AcDbSymbolTable
 70
1
  0
APPID
  5
21C
100
AcDbSymbolTableRecord
100
AcDbRegAppTableRecord
  2
ACAD
 70
0
  0
ENDTAB
  0
TABLE
  2
BLOCK_RECORD
  5
1
100
AcDbSymbolTable
 70
0
  0
BLOCK_RECORD
  5
21D
100
AcDbSymbolTableRecord
100
AcDbBlockTableRecord
  2
*Model_Space
  0
BLOCK_RECORD
  5
21E
100
AcDbSymbolTableRecord
100
AcDbBlockTableRecord
  2
*Paper_Space
  0
BLOCK_RECORD
  5
21F
100
AcDbSymbolTableRecord
100
AcDbBlockTableRecord
  2
_FILLED
  0
ENDTAB
  0
TABLE
  2
DIMSTYLE
  5
A
100
AcDbSymbolTable
 70
1
100
AcDbDimStyleTable
 71
0
  0
DIMSTYLE
105
220
100
AcDbSymbolTableRecord
100
AcDbDimStyleTableRecord
  2
STANDARD
 70
0
  3

  4

 40
1.0
 41
0.1
 42
0.0625
 43
0.38
 44
0.125
 45
0.0
 46
0.0
 47
0.001
 48
0.001
140
0.08
141
0.09
142
0.0
143
25.4
144
1.0
145
0.0
146
1.0
147
0.09
 71
1.0
 72
0.0
 73
1
 74
1
 75
0
 76
0
 77
0
 78
4
 79
1
170
1
171
2
172
0
173
0
174
0
175
0
176
0
177
0
178
0
270
2
179
3
271
3
272
3
273
2
274
2
275
0
280
0
281
0
282
0
283
1
284
4
285
0
286
0
287
3
288
0
340
11
278
46
341
21F
342
21F
343
21F
344
21F
  0
ENDTAB
  0
ENDSEC
  0
SECTION
  2
BLOCKS
  0
BLOCK
  5
20
100
AcDbEntity
  8
0
100
AcDbBlockBegin
  2
*Model_Space
 70
0
 10
0.0
 20
0.0
 30
0.0
  3
*Model_Space
  1

  0
ENDBLK
  5
21
100
AcDbEntity
  8
0
100
AcDbBlockEnd
  0
BLOCK
  5
1C
100
AcDbEntity
  8
0
100
AcDbBlockBegin
  2
*Paper_Space
 70
0
 10
0.0
 20
0.0
 30
0.0
  3
*Paper_Space
  1

  0
ENDBLK
  5
1D
100
AcDbEntity
  8
0
100
AcDbBlockEnd
  0
BLOCK
  5
221
100
AcDbEntity
  8
0
100
AcDbBlockBegin
  2
_FILLED
 70
64
 10
0.0
 20
0.0
  3
_FILLED
  1

  0
SOLID
  5
222
100
AcDbEntity
  8
0
  6
BYBLOCK
 62
0
100
AcDbTrace
 10
0.0
 20
0.0
 11
-1.0
 21
0.2
 12
-1.0
 22
-0.2
 13
-1.0
 23
-0.2
  0
ENDBLK
  5
223
100
AcDbEntity
  8
0
  6
BYBLOCK
 62
0
100
AcDbBlockEnd
  0
ENDSEC
  0
SECTION
  2
ENTITIES
  0
MTEXT
  5
224
100
AcDbEntity
  8
0
100
AcDbMText
 62
2
  6
CONTINUOUS
  7
STANDARD
 71
3
 72
1
 10
2.819390528
 20
1.6095342669
 30
0.0
 11
1.0
 21
0.0
 31
0.0
 73
2
 44
0.9
  1
SCALE  .500
 40
0.08
 41
0.704
  0
LINE
  5
225
100
AcDbEntity
  8
0
100
AcDbLine
 62
7
  6
CONTINUOUS
 10
0.0
 20
0.0
 11
0.0
 21
8.5
  0
LINE
  5
226
100
AcDbEntity
  8
0
100
AcDbLine
 62
7
  6
CONTINUOUS
 10
0.0
 20
0.0
 11
11.0
 21
0.0
  0
LINE
  5
227
100
AcDbEntity
  8
0
100
AcDbLine
 62
7
  6
CONTINUOUS
 10
0.0
 20
8.5
 11
11.0
 21
8.5
  0
LINE
  5
228
100
AcDbEntity
  8
0
100
AcDbLine
 62
7
  6
CONTINUOUS
 10
11.0
 20
0.0
 11
11.0
 21
8.5
  0
LINE
  5
229
100
AcDbEntity
  8
ALL_ASSEMBLY_MEMBERS
100
AcDbLine
 62
7
  6
CONTINUOUS
 10
2.8489385575
 20
6.3888844509
 11
2.8489385575
 21
6.1686370773
  0
LINE
  5
22A
100
AcDbEntity
  8
ALL_ASSEMBLY_MEMBERS
100
AcDbLine
 62
7
  6
CONTINUOUS
 10
2.8606537876
 20
6.1223649331
 11
2.8606537876
 21
6.4351565951
  0
LINE
  5
22B
100
AcDbEntity
  8
ALL_ASSEMBLY_MEMBERS
100
AcDbLine
 62
7
  6
CONTINUOUS
 10
2.8856147903
 20
6.0987607641
 11
2.8856147903
 21
6.4587607641
  0
LINE
  5
22C
100
AcDbEntity
  8
ALL_ASSEMBLY_MEMBERS
100
AcDbLine
 62
7
  6
CONTINUOUS
 10
2.8930992785
 20
6.0987607641
 11
2.8930992785
 21
6.4587607641
  0
LINE
  5
22D
100
AcDbEntity
  8
ALL_ASSEMBLY_MEMBERS
100
AcDbLine
 62
7
  6
CONTINUOUS
 10
2.9159931403
 20
6.1137173041
 11
2.9159931403
 21
6.4438042241
  0
LINE
  5
22E
100
AcDbEntity
  8
ALL_ASSEMBLY_MEMBERS
100
AcDbLine
 62
7
  6
CONTINUOUS
 10
2.9321989472
 20
6.43195053
 11
2.9321989472
 21
6.1255709983
  0
LINE
  5
22F
100
AcDbEntity
  8
ALL_ASSEMBLY_MEMBERS
100
AcDbLine
 62
7
  6
CONTINUOUS
 10
3.1841276584
 20
6.1699309629
 11
3.1841276584
 21
6.3875905654
  0
LINE
  5
230
100
AcDbEntity
  8
ALL_ASSEMBLY_MEMBERS
100
AcDbLine
 62
7
  6
CONTINUOUS
 10
3.1993082298
 20
6.1887607641
 11
3.1993082298
 21
6.3687607641
  0
LINE
  5
231
100
AcDbEntity
  8
ALL_ASSEMBLY_MEMBERS
100
AcDbLine
 62
7
  6
CONTINUOUS
 10
3.2443082298
 20
6.1887607641
 11
3.2443082298
 21
6.3687607641
  0
LINE
  5
232
100
AcDbEntity
  8
ALL_ASSEMBLY_MEMBERS
100
AcDbLine
 62
7
  6
CONTINUOUS
 10
3.2493082298
 20
6.3682079225
 11
3.2493082298
 21
6.1893136057
  0
LINE
  5
233
100
AcDbEntity
  8
ALL_ASSEMBLY_MEMBERS
100
AcDbLine
 62
7
  6
CONTINUOUS
 10
3.2763082298
 20
5.7155518128
 11
3.2763082298
 21
5.7080673246
  0
LINE
  5
234
100
AcDbEntity
  8
ALL_ASSEMBLY_MEMBERS
100
AcDbLine
 62
7
  6
CONTINUOUS
 10
3.2763082298
 20
6.8419697155
 11
3.2763082298
 21
6.8494542037
  0
LINE
  5
235
100
AcDbEntity
  8
ALL_ASSEMBLY_MEMBERS
100
AcDbLine
 62
7
  6
CONTINUOUS
 10
3.3663082298
 20
6.0667607641
 11
3.3663082298
 21
6.0217607641
  0
LINE
  5
236
100
AcDbEntity
  8
ALL_ASSEMBLY_MEMBERS
100
AcDbLine
 62
7
  6
CONTINUOUS
 10
3.3663082298
 20
6.4907607641
 11
3.3663082298
 21
6.5357607641
  0
LINE
  5
237
100
AcDbEntity
  8
ALL_ASSEMBLY_MEMBERS
100
AcDbLine
 62
7
  6
CONTINUOUS
 10
3.5463082298
 20
6.0667607641
 11
3.5463082298
 21
6.0217607641
  0
LINE
  5
238
100
AcDbEntity
  8
ALL_ASSEMBLY_MEMBERS
100
AcDbLine
 62
7
  6
CONTINUOUS
 10
3.5463082298
 20
6.4907607641
 11
3.5463082298
 21
6.5357607641
  0
LINE
  5
239
100
AcDbEntity
  8
ALL_ASSEMBLY_MEMBERS
100
AcDbLine
 62
7
  6
CONTINUOUS
 10
3.6363082298
 20
5.7155518128
 11
3.6363082298
 21
5.7080673246
  0
LINE
  5
23A
100
AcDbEntity
  8
ALL_ASSEMBLY_MEMBERS
100
AcDbLine
 62
7
  6
CONTINUOUS
 10
3.6363082298
 20
6.8419697155
 11
3.6363082298
 21
6.8494542037
  0
LINE
  5
23B
100
AcDbEntity
  8
ALL_ASSEMBLY_MEMBERS
100
AcDbLine
 62
7
  6
CONTINUOUS
 10
3.6633082298
 20
6.1893136057
 11
3.6633082298
 21
6.3682079225
  0
LINE
  5
23C
100
AcDbEntity
  8
ALL_ASSEMBLY_MEMBERS
100
AcDbLine
 62
7
  6
CONTINUOUS
 10
3.6683082298
 20
6.3687607641
 11
3.6683082298
 21
6.1887607641
  0
LINE
  5
23D
100
AcDbEntity
  8
ALL_ASSEMBLY_MEMBERS
100
AcDbLine
 62
7
  6
CONTINUOUS
 10
3.7133082298
 20
6.3687607641
 11
3.7133082298
 21
6.1887607641
  0
LINE
  5
23E
100
AcDbEntity
  8
ALL_ASSEMBLY_MEMBERS
100
AcDbLine
 62
7
  6
CONTINUOUS
 10
3.7284888013
 20
6.3875905654
 11
3.7284888013
 21
6.1699309629
  0
LINE
  5
23F
100
AcDbEntity
  8
ALL_ASSEMBLY_MEMBERS
100
AcDbLine
 62
7
  6
CONTINUOUS
 10
3.9804175124
 20
6.1255709983
 11
3.9804175124
 21
6.43195053
  0
LINE
  5
240
100
AcDbEntity
  8
ALL_ASSEMBLY_MEMBERS
100
AcDbLine
 62
7
  6
CONTINUOUS
 10
3.9966233193
 20
6.4438042241
 11
3.9966233193
 21
6.1137173041
  0
LINE
  5
241
100
AcDbEntity
  8
ALL_ASSEMBLY_MEMBERS
100
AcDbLine
 62
7
  6
CONTINUOUS
 10
4.0195171812
 20
6.4587607641
 11
4.0195171812
 21
6.0987607641
  0
LINE
  5
242
100
AcDbEntity
  8
ALL_ASSEMBLY_MEMBERS
100
AcDbLine
 62
7
  6
CONTINUOUS
 10
4.0270016694
 20
6.4587607641
 11
4.0270016694
 21
6.0987607641
  0
LINE
  5
243
100
AcDbEntity
  8
ALL_ASSEMBLY_MEMBERS
100
AcDbLine
 62
7
  6
CONTINUOUS
 10
4.0519626721
 20
6.4351565951
 11
4.0519626721
 21
6.1223649331
  0
LINE
  5
244
100
AcDbEntity
  8
ALL_ASSEMBLY_MEMBERS
100
AcDbLine
 62
7
  6
CONTINUOUS
 10
4.0636779021
 20
6.1686370773
 11
4.0636779021
 21
6.3888844509
  0
LINE
  5
245
100
AcDbEntity
  8
ALL_ASSEMBLY_MEMBERS
100
AcDbLine
 62
7
  6
CONTINUOUS
 10
5.4144584214
 20
3.5785993479
 11
5.4238082298
 21
3.5787607641
  0
LINE
  5
246
100
AcDbEntity
  8
ALL_ASSEMBLY_MEMBERS
100
AcDbLine
 62
7
  6
CONTINUOUS
 10
5.4238082298
 20
3.5787607641
 11
5.4332200155
 21
3.5785971969
  0
LINE
  5
247
100
AcDbEntity
  8
ALL_ASSEMBLY_MEMBERS
100
AcDbLine
 62
7
  6
CONTINUOUS
 10
4.9480582298
 20
2.4440458146
 11
4.9481303691
 21
2.4447694299
  0
LINE
  5
248
100
AcDbEntity
  8
ALL_ASSEMBLY_MEMBERS
100
AcDbLine
 62
7
  6
CONTINUOUS
 10
4.8732068683
 20
2.4454500839
 11
4.8730582298
 21
2.4440458146
  0
LINE
  5
249
100
AcDbEntity
  8
ALL_ASSEMBLY_MEMBERS
100
AcDbLine
 62
7
  6
CONTINUOUS
 10
5.4238082298
 20
3.5787607641
 11
5.4238082298
 21
2.503316679
  0
LINE
  5
24A
100
AcDbEntity
  8
ALL_ASSEMBLY_MEMBERS
100
AcDbLine
 62
7
  6
CONTINUOUS
 10
5.4238082298
 20
2.4842387989
 11
5.4238082298
 21
2.404083543
  0
LINE
  5
24B
100
AcDbEntity
  8
ALL_ASSEMBLY_MEMBERS
100
AcDbLine
 62
7
  6
CONTINUOUS
 10
5.1259306755
 20
3.3142701175
 11
5.1258524343
 21
3.3136099815
  0
LINE
  5
24C
100
AcDbEntity
  8
ALL_ASSEMBLY_MEMBERS
100
AcDbLine
 62
7
  6
CONTINUOUS
 10
5.1259527449
 20
3.3142674771
 11
5.1258563669
 21
3.3136095198
  0
LINE
  5
24D
100
AcDbEntity
  8
ALL_ASSEMBLY_MEMBERS
100
AcDbLine
 62
7
  6
CONTINUOUS
 10
5.1289196254
 20
3.3173330605
 11
5.1289126001
 21
3.317304397
  0
LWPOLYLINE
  5
24E
100
AcDbEntity
  8
ALL_ASSEMBLY_MEMBERS
100
AcDbPolyline
 62
7
  6
CONTINUOUS
 90
3
 70
0
 10
5.7772944653
 20
3.1358004191
 10
5.7655525213
 20
3.1707947126
 10
5.7609122481
 20
3.1846573448
  0
LWPOLYLINE
  5
24F
100
AcDbEntity
  8
ALL_ASSEMBLY_MEMBERS
100
AcDbPolyline
 62
7
  6
CONTINUOUS
 90
13
 70
0
 10
5.7609095128
 20
3.1846655234
 10
5.7556268092
 20
3.2004964924
 10
5.7501888028
 20
3.216878025
 10
5.7451609206
 20
3.2321256296
 10
5.7405249627
 20
3.2463003224
 10
5.7362990559
 20
3.2593502155
 10
5.7325331138
 20
3.271119689
 10
5.7292089785
 20
3.2816592345
 10
5.7263201813
 20
3.2909802733
 10
5.7239228388
 20
3.2988815544
 10
5.722017676
 20
3.3053225262
 10
5.7205540178
 20
3.3104268729
 10
5.7195782875
 20
3.3139620024
  0
LWPOLYLINE
  5
250
100
AcDbEntity
  8
ALL_ASSEMBLY_MEMBERS
100
AcDbPolyline
 62
7
  6
CONTINUOUS
 90
5
 70
0
 10
5.8215687978
 20
3.0032975886
 10
5.8140446244
 20
3.0260955309
 10
5.8059217202
 20
3.050516845
 10
5.798150716
 20
3.0737385261
 10
5.7772944653
 20
3.1358004191
  0
LWPOLYLINE
  5
251
100
AcDbEntity
  8
ALL_ASSEMBLY_MEMBERS
100
AcDbPolyline
 62
7
  6
CONTINUOUS
 90
9
 70
0
 10
5.8855905789
 20
2.7989372918
 10
5.8770319746
 20
2.8277112298
 10
5.8685508753
 20
2.8556885938
 10
5.8601764554
 20
2.8828428104
 10
5.8519303147
 20
2.9091701098
 10
5.84382659
 20
2.9346877057
 10
5.8358851149
 20
2.9593921969
 10
5.8281313589
 20
2.9832613326
 10
5.8215692954
 20
3.0032960747
  0
LINE
  5
252
100
AcDbEntity
  8
ALL_ASSEMBLY_MEMBERS
100
AcDbLine
 62
7
  6
CONTINUOUS
 10
5.8940752154
 20
2.7698164335
 11
5.8855905789
 21
2.7989372918
  0
LINE
  5
253
100
AcDbEntity
  8
ALL_ASSEMBLY_MEMBERS
100
AcDbLine
 62
7
  6
CONTINUOUS
 10
5.8979492736
 20
2.7563062827
 11
5.8940752154
 21
2.7698164335
  0
LINE
  5
254
100
AcDbEntity
  8
ALL_ASSEMBLY_MEMBERS
100
AcDbLine
 62
7
  6
CONTINUOUS
 10
5.901804464
 20
2.74272037
 11
5.8979492736
 21
2.7563062827
  0
LINE
  5
255
100
AcDbEntity
  8
ALL_ASSEMBLY_MEMBERS
100
AcDbLine
 62
7
  6
CONTINUOUS
 10
5.9056391618
 20
2.7290591374
 11
5.901804464
 21
2.74272037
  0
LINE
  5
256
100
AcDbEntity
  8
ALL_ASSEMBLY_MEMBERS
100
AcDbLine
 62
7
  6
CONTINUOUS
 10
5.9084726194
 20
2.7188657158
 11
5.9056391618
 21
2.7290591374
  0
LINE
  5
257
100
AcDbEntity
  8
ALL_ASSEMBLY_MEMBERS
100
AcDbLine
 62
7
  6
CONTINUOUS
 10
5.7195694774
 20
3.3139947086
 11
5.7195782875
 21
3.3139620024
  0
LINE
  5
258
100
AcDbEntity
  8
ALL_ASSEMBLY_MEMBERS
100
AcDbLine
 62
7
  6
CONTINUOUS
 10
5.7195694774
 20
3.3139947086
 11
5.7192338685
 21
3.3152509688
  0
LINE
  5
259
100
AcDbEntity
  8
ALL_ASSEMBLY_MEMBERS
100
AcDbLine
 62
7
  6
CONTINUOUS
 10
5.7192338685
 20
3.3152509688
 11
5.7189960738
 21
3.3161574189
  0
LINE
  5
25A
100
AcDbEntity
  8
ALL_ASSEMBLY_MEMBERS
100
AcDbLine
 62
7
  6
CONTINUOUS
 10
5.7189960738
 20
3.3161574189
 11
5.7188281238
 21
3.3168098869
  0
LINE
  5
25B
100
AcDbEntity
  8
ALL_ASSEMBLY_MEMBERS
100
AcDbLine
 62
7
  6
CONTINUOUS
 10
5.7188281238
 20
3.3168098869
 11
5.7187389012
 21
3.3171632405
  0
LWPOLYLINE
  5
25C
100
AcDbEntity
  8
ALL_ASSEMBLY_MEMBERS
100
AcDbPolyline
 62
7
  6
CONTINUOUS
 90
3
 70
0
 10
5.7187389012
 20
3.3171632405
 10
5.7186992293
 20
3.3173232573
 10
5.7186987474
 20
3.317325226
  0
LINE
  5
25D
100
AcDbEntity
  8
ALL_ASSEMBLY_MEMBERS
100
AcDbLine
 62
7
  6
CONTINUOUS
 10
5.8994859045
 20
2.4447694276
 11
5.8995582298
 21
2.4440458146
  0
LINE
  5
25E
100
AcDbEntity
  8
ALL_ASSEMBLY_MEMBERS
100
AcDbLine
 62
7
  6
CONTINUOUS
 10
5.1289126001
 20
3.317304397
 11
5.1288564593
 21
3.3170790592
  0
LINE
  5
25F
100
AcDbEntity
  8
ALL_ASSEMBLY_MEMBERS
100
AcDbLine
 62
7
  6
CONTINUOUS
 10
5.1288564593
 20
3.3170790592
 11
5.1287402165
 21
3.3166215755
  0
LINE
  5
260
100
AcDbEntity
  8
ALL_ASSEMBLY_MEMBERS
100
AcDbLine
 62
7
  6
CONTINUOUS
 10
5.1287402165
 20
3.3166215755
 11
5.128558467
 21
3.3159197448
  0
LINE
  5
261
100
AcDbEntity
  8
ALL_ASSEMBLY_MEMBERS
100
AcDbLine
 62
7
  6
CONTINUOUS
 10
5.128558467
 20
3.3159197448
 11
5.1282553772
 21
3.3147720712
  0
LINE
  5
262
100
AcDbEntity
  8
ALL_ASSEMBLY_MEMBERS
100
AcDbLine
 62
7
  6
CONTINUOUS
 10
5.1280381721
 20
3.3139620024
 11
5.1282553772
 21
3.3147720712
  0
LWPOLYLINE
  5
263
100
AcDbEntity
  8
ALL_ASSEMBLY_MEMBERS
100
AcDbPolyline
 62
7
  6
CONTINUOUS
 90
10
 70
0
 10
4.9391439269
 20
2.7188660289
 10
4.9318793274
 20
2.6923166052
 10
4.9236915438
 20
2.6616117486
 10
4.9156772542
 20
2.630659714
 10
4.9078634952
 20
2.5995146118
 10
4.9002692279
 20
2.568201604
 10
4.8929062017
 20
2.5367154698
 10
4.8857928008
 20
2.505077137
 10
4.8789532088
 20
2.4733351407
 10
4.8731984588
 20
2.4454501878
  0
LWPOLYLINE
  5
264
100
AcDbEntity
  8
ALL_ASSEMBLY_MEMBERS
100
AcDbPolyline
 62
7
  6
CONTINUOUS
 90
13
 70
0
 10
5.1280381721
 20
3.3139620024
 10
5.1270624418
 20
3.3104268729
 10
5.1255987836
 20
3.3053225262
 10
5.1236936209
 20
3.2988815544
 10
5.1212962783
 20
3.2909802733
 10
5.1184074811
 20
3.2816592345
 10
5.1150833458
 20
3.271119689
 10
5.1113174037
 20
3.2593502155
 10
5.1070914969
 20
3.2463003224
 10
5.102455539
 20
3.2321256296
 10
5.0974276568
 20
3.216878025
 10
5.0919896504
 20
3.2004964924
 10
5.0867069469
 20
3.1846655234
  0
LINE
  5
265
100
AcDbEntity
  8
ALL_ASSEMBLY_MEMBERS
100
AcDbLine
 62
7
  6
CONTINUOUS
 10
4.9419772979
 20
2.7290591374
 11
4.9391438402
 21
2.7188657158
  0
LINE
  5
266
100
AcDbEntity
  8
ALL_ASSEMBLY_MEMBERS
100
AcDbLine
 62
7
  6
CONTINUOUS
 10
4.9458119956
 20
2.74272037
 11
4.9419772979
 21
2.7290591374
  0
LINE
  5
267
100
AcDbEntity
  8
ALL_ASSEMBLY_MEMBERS
100
AcDbLine
 62
7
  6
CONTINUOUS
 10
4.9496671861
 20
2.7563062827
 11
4.9458119956
 21
2.74272037
  0
LINE
  5
268
100
AcDbEntity
  8
ALL_ASSEMBLY_MEMBERS
100
AcDbLine
 62
7
  6
CONTINUOUS
 10
4.9544044607
 20
2.7728080651
 11
4.9496671861
 21
2.7563062827
  0
LWPOLYLINE
  5
269
100
AcDbEntity
  8
ALL_ASSEMBLY_MEMBERS
100
AcDbPolyline
 62
7
  6
CONTINUOUS
 90
10
 70
0
 10
5.0260471642
 20
3.0032960747
 10
5.0194851008
 20
2.9832613326
 10
5.0117313447
 20
2.9593921969
 10
5.0037898696
 20
2.9346877057
 10
4.9956861449
 20
2.9091701098
 10
4.9874400042
 20
2.8828428104
 10
4.9790655843
 20
2.8556885938
 10
4.970584485
 20
2.8277112298
 10
4.9620258807
 20
2.7989372918
 10
4.9544042987
 20
2.7728075042
  0
LWPOLYLINE
  5
26A
100
AcDbEntity
  8
ALL_ASSEMBLY_MEMBERS
100
AcDbPolyline
 62
7
  6
CONTINUOUS
 90
4
 70
0
 10
5.0494657437
 20
3.0737385261
 10
5.0416947394
 20
3.050516845
 10
5.0335718353
 20
3.0260955309
 10
5.0260476619
 20
3.0032975886
  0
LINE
  5
26B
100
AcDbEntity
  8
ALL_ASSEMBLY_MEMBERS
100
AcDbLine
 62
7
  6
CONTINUOUS
 10
5.0867042115
 20
3.1846573448
 11
5.0764033517
 21
3.1539127574
  0
LINE
  5
26C
100
AcDbEntity
  8
ALL_ASSEMBLY_MEMBERS
100
AcDbLine
 62
7
  6
CONTINUOUS
 10
5.0764033517
 20
3.1539127574
 11
5.0494657437
 21
3.0737385261
  0
LWPOLYLINE
  5
26D
100
AcDbEntity
  8
ALL_ASSEMBLY_MEMBERS
100
AcDbPolyline
 62
7
  6
CONTINUOUS
 90
10
 70
0
 10
5.9744180008
 20
2.4454501878
 10
5.9686632508
 20
2.4733351407
 10
5.9618236588
 20
2.505077137
 10
5.9547102579
 20
2.5367154698
 10
5.9473472318
 20
2.568201604
 10
5.9397529644
 20
2.5995146118
 10
5.9319392055
 20
2.630659714
 10
5.9239249158
 20
2.6616117486
 10
5.9157371322
 20
2.6923166052
 10
5.9084725327
 20
2.7188660289
  0
LINE
  5
26E
100
AcDbEntity
  8
ALL_ASSEMBLY_MEMBERS
100
AcDbLine
 62
7
  6
CONTINUOUS
 10
5.7217600928
 20
3.3136095198
 11
5.7216637148
 21
3.3142674771
  0
LINE
  5
26F
100
AcDbEntity
  8
ALL_ASSEMBLY_MEMBERS
100
AcDbLine
 62
7
  6
CONTINUOUS
 10
5.7217640253
 20
3.3136099815
 11
5.7216857841
 21
3.3142701175
  0
LINE
  5
270
100
AcDbEntity
  8
ALL_ASSEMBLY_MEMBERS
100
AcDbLine
 62
7
  6
CONTINUOUS
 10
5.9745582298
 20
2.4440458146
 11
5.9744095975
 21
2.445450084
  0
LINE
  5
271
100
AcDbEntity
  8
ALL_ASSEMBLY_MEMBERS
100
AcDbLine
 62
7
  6
CONTINUOUS
 10
3.346184543
 20
5.6713910919
 11
3.5664319166
 21
5.6713910919
  0
LINE
  5
272
100
AcDbEntity
  8
ALL_ASSEMBLY_MEMBERS
100
AcDbLine
 62
7
  6
CONTINUOUS
 10
7.283684543
 20
5.6713910919
 11
7.5039319166
 21
5.6713910919
  0
LINE
  5
273
100
AcDbEntity
  8
ALL_ASSEMBLY_MEMBERS
100
AcDbLine
 62
7
  6
CONTINUOUS
 10
7.5502040608
 20
5.6831063219
 11
7.2374123988
 21
5.6831063219
  0
LINE
  5
274
100
AcDbEntity
  8
ALL_ASSEMBLY_MEMBERS
100
AcDbLine
 62
7
  6
CONTINUOUS
 10
3.6127040608
 20
5.6831063219
 11
3.2999123988
 21
5.6831063219
  0
LINE
  5
275
100
AcDbEntity
  8
ALL_ASSEMBLY_MEMBERS
100
AcDbLine
 62
7
  6
CONTINUOUS
 10
7.5738082298
 20
5.7080673246
 11
7.2138082298
 21
5.7080673246
  0
LINE
  5
276
100
AcDbEntity
  8
ALL_ASSEMBLY_MEMBERS
100
AcDbLine
 62
7
  6
CONTINUOUS
 10
3.6363082298
 20
5.7080673246
 11
3.2763082298
 21
5.7080673246
  0
LINE
  5
277
100
AcDbEntity
  8
ALL_ASSEMBLY_MEMBERS
100
AcDbLine
 62
7
  6
CONTINUOUS
 10
7.5738082298
 20
5.7155518128
 11
7.2138082298
 21
5.7155518128
  0
LINE
  5
278
100
AcDbEntity
  8
ALL_ASSEMBLY_MEMBERS
100
AcDbLine
 62
7
  6
CONTINUOUS
 10
3.6363082298
 20
5.7155518128
 11
3.2763082298
 21
5.7155518128
  0
LINE
  5
279
100
AcDbEntity
  8
ALL_ASSEMBLY_MEMBERS
100
AcDbLine
 62
7
  6
CONTINUOUS
 10
7.5588516898
 20
5.7384456746
 11
7.2287647698
 21
5.7384456746
  0
LINE
  5
27A
100
AcDbEntity
  8
ALL_ASSEMBLY_MEMBERS
100
AcDbLine
 62
7
  6
CONTINUOUS
 10
3.6213516898
 20
5.7384456746
 11
3.2912647698
 21
5.7384456746
  0
LINE
  5
27B
100
AcDbEntity
  8
ALL_ASSEMBLY_MEMBERS
100
AcDbLine
 62
7
  6
CONTINUOUS
 10
3.3031184639
 20
5.7546514816
 11
3.6094979957
 21
5.7546514816
  0
LINE
  5
27C
100
AcDbEntity
  8
ALL_ASSEMBLY_MEMBERS
100
AcDbLine
 62
7
  6
CONTINUOUS
 10
7.2406184639
 20
5.7546514816
 11
7.5469979957
 21
5.7546514816
  0
LINE
  5
27D
100
AcDbEntity
  8
ALL_ASSEMBLY_MEMBERS
100
AcDbLine
 62
7
  6
CONTINUOUS
 10
6.7864385575
 20
6.3888844509
 11
6.7864385575
 21
6.1686370773
  0
LINE
  5
27E
100
AcDbEntity
  8
ALL_ASSEMBLY_MEMBERS
100
AcDbLine
 62
7
  6
CONTINUOUS
 10
6.7981537876
 20
6.1223649331
 11
6.7981537876
 21
6.4351565951
  0
LINE
  5
27F
100
AcDbEntity
  8
ALL_ASSEMBLY_MEMBERS
100
AcDbLine
 62
7
  6
CONTINUOUS
 10
6.8231147903
 20
6.0987607641
 11
6.8231147903
 21
6.4587607641
  0
LINE
  5
280
100
AcDbEntity
  8
ALL_ASSEMBLY_MEMBERS
100
AcDbLine
 62
7
  6
CONTINUOUS
 10
6.8305992785
 20
6.0987607641
 11
6.8305992785
 21
6.4587607641
  0
LINE
  5
281
100
AcDbEntity
  8
ALL_ASSEMBLY_MEMBERS
100
AcDbLine
 62
7
  6
CONTINUOUS
 10
7.5026380311
 20
6.0065801927
 11
7.2849784286
 21
6.0065801927
  0
LINE
  5
282
100
AcDbEntity
  8
ALL_ASSEMBLY_MEMBERS
100
AcDbLine
 62
7
  6
CONTINUOUS
 10
3.5651380311
 20
6.0065801927
 11
3.3474784286
 21
6.0065801927
  0
LINE
  5
283
100
AcDbEntity
  8
ALL_ASSEMBLY_MEMBERS
100
AcDbLine
 62
7
  6
CONTINUOUS
 10
7.4838082298
 20
6.0217607641
 11
7.3038082298
 21
6.0217607641
  0
LINE
  5
284
100
AcDbEntity
  8
ALL_ASSEMBLY_MEMBERS
100
AcDbLine
 62
7
  6
CONTINUOUS
 10
3.5463082298
 20
6.0217607641
 11
3.3663082298
 21
6.0217607641
  0
LINE
  5
285
100
AcDbEntity
  8
ALL_ASSEMBLY_MEMBERS
100
AcDbLine
 62
7
  6
CONTINUOUS
 10
6.8534931403
 20
6.1137173041
 11
6.8534931403
 21
6.4438042241
  0
LINE
  5
286
100
AcDbEntity
  8
ALL_ASSEMBLY_MEMBERS
100
AcDbLine
 62
7
  6
CONTINUOUS
 10
6.8696989472
 20
6.43195053
 11
6.8696989472
 21
6.1255709983
  0
LINE
  5
287
100
AcDbEntity
  8
ALL_ASSEMBLY_MEMBERS
100
AcDbLine
 62
7
  6
CONTINUOUS
 10
7.4838082298
 20
6.0667607641
 11
7.3038082298
 21
6.0667607641
  0
LINE
  5
288
100
AcDbEntity
  8
ALL_ASSEMBLY_MEMBERS
100
AcDbLine
 62
7
  6
CONTINUOUS
 10
3.5463082298
 20
6.0667607641
 11
3.3663082298
 21
6.0667607641
  0
LINE
  5
289
100
AcDbEntity
  8
ALL_ASSEMBLY_MEMBERS
100
AcDbLine
 62
7
  6
CONTINUOUS
 10
3.3668610714
 20
6.0717607641
 11
3.5457553882
 21
6.0717607641
  0
LINE
  5
28A
100
AcDbEntity
  8
ALL_ASSEMBLY_MEMBERS
100
AcDbLine
 62
7
  6
CONTINUOUS
 10
7.3043610714
 20
6.0717607641
 11
7.4832553882
 21
6.0717607641
  0
LINE
  5
28B
100
AcDbEntity
  8
ALL_ASSEMBLY_MEMBERS
100
AcDbLine
 62
7
  6
CONTINUOUS
 10
6.8305992785
 20
6.0987607641
 11
6.8231147903
 21
6.0987607641
  0
LINE
  5
28C
100
AcDbEntity
  8
ALL_ASSEMBLY_MEMBERS
100
AcDbLine
 62
7
  6
CONTINUOUS
 10
2.8930992785
 20
6.0987607641
 11
2.8856147903
 21
6.0987607641
  0
LINE
  5
28D
100
AcDbEntity
  8
ALL_ASSEMBLY_MEMBERS
100
AcDbLine
 62
7
  6
CONTINUOUS
 10
4.0195171812
 20
6.0987607641
 11
4.0270016694
 21
6.0987607641
  0
LINE
  5
28E
100
AcDbEntity
  8
ALL_ASSEMBLY_MEMBERS
100
AcDbLine
 62
7
  6
CONTINUOUS
 10
7.9570171812
 20
6.0987607641
 11
7.9645016694
 21
6.0987607641
  0
LINE
  5
28F
100
AcDbEntity
  8
ALL_ASSEMBLY_MEMBERS
100
AcDbLine
 62
7
  6
CONTINUOUS
 10
7.1818082298
 20
6.1887607641
 11
7.1368082298
 21
6.1887607641
  0
LINE
  5
290
100
AcDbEntity
  8
ALL_ASSEMBLY_MEMBERS
100
AcDbLine
 62
7
  6
CONTINUOUS
 10
3.2443082298
 20
6.1887607641
 11
3.1993082298
 21
6.1887607641
  0
LINE
  5
291
100
AcDbEntity
  8
ALL_ASSEMBLY_MEMBERS
100
AcDbLine
 62
7
  6
CONTINUOUS
 10
3.6683082298
 20
6.1887607641
 11
3.7133082298
 21
6.1887607641
  0
LINE
  5
292
100
AcDbEntity
  8
ALL_ASSEMBLY_MEMBERS
100
AcDbLine
 62
7
  6
CONTINUOUS
 10
7.6058082298
 20
6.1887607641
 11
7.6508082298
 21
6.1887607641
  0
LINE
  5
293
100
AcDbEntity
  8
ALL_ASSEMBLY_MEMBERS
100
AcDbLine
 62
7
  6
CONTINUOUS
 10
7.1216276584
 20
6.1699309629
 11
7.1216276584
 21
6.3875905654
  0
LINE
  5
294
100
AcDbEntity
  8
ALL_ASSEMBLY_MEMBERS
100
AcDbLine
 62
7
  6
CONTINUOUS
 10
7.1368082298
 20
6.1887607641
 11
7.1368082298
 21
6.3687607641
  0
LINE
  5
295
100
AcDbEntity
  8
ALL_ASSEMBLY_MEMBERS
100
AcDbLine
 62
7
  6
CONTINUOUS
 10
7.1818082298
 20
6.1887607641
 11
7.1818082298
 21
6.3687607641
  0
LINE
  5
296
100
AcDbEntity
  8
ALL_ASSEMBLY_MEMBERS
100
AcDbLine
 62
7
  6
CONTINUOUS
 10
7.1868082298
 20
6.3682079225
 11
7.1868082298
 21
6.1893136057
  0
LINE
  5
297
100
AcDbEntity
  8
ALL_ASSEMBLY_MEMBERS
100
AcDbLine
 62
7
  6
CONTINUOUS
 10
7.2138082298
 20
5.7155518128
 11
7.2138082298
 21
5.7080673246
  0
LINE
  5
298
100
AcDbEntity
  8
ALL_ASSEMBLY_MEMBERS
100
AcDbLine
 62
7
  6
CONTINUOUS
 10
7.2138082298
 20
6.8419697155
 11
7.2138082298
 21
6.8494542037
  0
LINE
  5
299
100
AcDbEntity
  8
ALL_ASSEMBLY_MEMBERS
100
AcDbLine
 62
7
  6
CONTINUOUS
 10
7.1818082298
 20
6.3687607641
 11
7.1368082298
 21
6.3687607641
  0
LINE
  5
29A
100
AcDbEntity
  8
ALL_ASSEMBLY_MEMBERS
100
AcDbLine
 62
7
  6
CONTINUOUS
 10
3.2443082298
 20
6.3687607641
 11
3.1993082298
 21
6.3687607641
  0
LINE
  5
29B
100
AcDbEntity
  8
ALL_ASSEMBLY_MEMBERS
100
AcDbLine
 62
7
  6
CONTINUOUS
 10
3.6683082298
 20
6.3687607641
 11
3.7133082298
 21
6.3687607641
  0
LINE
  5
29C
100
AcDbEntity
  8
ALL_ASSEMBLY_MEMBERS
100
AcDbLine
 62
7
  6
CONTINUOUS
 10
7.6058082298
 20
6.3687607641
 11
7.6508082298
 21
6.3687607641
  0
LINE
  5
29D
100
AcDbEntity
  8
ALL_ASSEMBLY_MEMBERS
100
AcDbLine
 62
7
  6
CONTINUOUS
 10
6.8305992785
 20
6.4587607641
 11
6.8231147903
 21
6.4587607641
  0
LINE
  5
29E
100
AcDbEntity
  8
ALL_ASSEMBLY_MEMBERS
100
AcDbLine
 62
7
  6
CONTINUOUS
 10
2.8930992785
 20
6.4587607641
 11
2.8856147903
 21
6.4587607641
  0
LINE
  5
29F
100
AcDbEntity
  8
ALL_ASSEMBLY_MEMBERS
100
AcDbLine
 62
7
  6
CONTINUOUS
 10
4.0195171812
 20
6.4587607641
 11
4.0270016694
 21
6.4587607641
  0
LINE
  5
2A0
100
AcDbEntity
  8
ALL_ASSEMBLY_MEMBERS
100
AcDbLine
 62
7
  6
CONTINUOUS
 10
7.9570171812
 20
6.4587607641
 11
7.9645016694
 21
6.4587607641
  0
LINE
  5
2A1
100
AcDbEntity
  8
ALL_ASSEMBLY_MEMBERS
100
AcDbLine
 62
7
  6
CONTINUOUS
 10
7.4832553882
 20
6.4857607641
 11
7.3043610714
 21
6.4857607641
  0
LINE
  5
2A2
100
AcDbEntity
  8
ALL_ASSEMBLY_MEMBERS
100
AcDbLine
 62
7
  6
CONTINUOUS
 10
3.5457553882
 20
6.4857607641
 11
3.3668610714
 21
6.4857607641
  0
LINE
  5
2A3
100
AcDbEntity
  8
ALL_ASSEMBLY_MEMBERS
100
AcDbLine
 62
7
  6
CONTINUOUS
 10
3.3663082298
 20
6.4907607641
 11
3.5463082298
 21
6.4907607641
  0
LINE
  5
2A4
100
AcDbEntity
  8
ALL_ASSEMBLY_MEMBERS
100
AcDbLine
 62
7
  6
CONTINUOUS
 10
7.3038082298
 20
6.4907607641
 11
7.4838082298
 21
6.4907607641
  0
LINE
  5
2A5
100
AcDbEntity
  8
ALL_ASSEMBLY_MEMBERS
100
AcDbLine
 62
7
  6
CONTINUOUS
 10
7.3038082298
 20
6.0667607641
 11
7.3038082298
 21
6.0217607641
  0
LINE
  5
2A6
100
AcDbEntity
  8
ALL_ASSEMBLY_MEMBERS
100
AcDbLine
 62
7
  6
CONTINUOUS
 10
7.3038082298
 20
6.4907607641
 11
7.3038082298
 21
6.5357607641
  0
LINE
  5
2A7
100
AcDbEntity
  8
ALL_ASSEMBLY_MEMBERS
100
AcDbLine
 62
7
  6
CONTINUOUS
 10
7.4838082298
 20
6.0667607641
 11
7.4838082298
 21
6.0217607641
  0
LINE
  5
2A8
100
AcDbEntity
  8
ALL_ASSEMBLY_MEMBERS
100
AcDbLine
 62
7
  6
CONTINUOUS
 10
7.4838082298
 20
6.4907607641
 11
7.4838082298
 21
6.5357607641
  0
LINE
  5
2A9
100
AcDbEntity
  8
ALL_ASSEMBLY_MEMBERS
100
AcDbLine
 62
7
  6
CONTINUOUS
 10
3.3663082298
 20
6.5357607641
 11
3.5463082298
 21
6.5357607641
  0
LINE
  5
2AA
100
AcDbEntity
  8
ALL_ASSEMBLY_MEMBERS
100
AcDbLine
 62
7
  6
CONTINUOUS
 10
7.3038082298
 20
6.5357607641
 11
7.4838082298
 21
6.5357607641
  0
LINE
  5
2AB
100
AcDbEntity
  8
ALL_ASSEMBLY_MEMBERS
100
AcDbLine
 62
7
  6
CONTINUOUS
 10
3.3474784286
 20
6.5509413356
 11
3.5651380311
 21
6.5509413356
  0
LINE
  5
2AC
100
AcDbEntity
  8
ALL_ASSEMBLY_MEMBERS
100
AcDbLine
 62
7
  6
CONTINUOUS
 10
7.2849784286
 20
6.5509413356
 11
7.5026380311
 21
6.5509413356
  0
LINE
  5
2AD
100
AcDbEntity
  8
ALL_ASSEMBLY_MEMBERS
100
AcDbLine
 62
7
  6
CONTINUOUS
 10
7.5738082298
 20
5.7155518128
 11
7.5738082298
 21
5.7080673246
  0
LINE
  5
2AE
100
AcDbEntity
  8
ALL_ASSEMBLY_MEMBERS
100
AcDbLine
 62
7
  6
CONTINUOUS
 10
7.5738082298
 20
6.8419697155
 11
7.5738082298
 21
6.8494542037
  0
LINE
  5
2AF
100
AcDbEntity
  8
ALL_ASSEMBLY_MEMBERS
100
AcDbLine
 62
7
  6
CONTINUOUS
 10
7.6008082298
 20
6.1893136057
 11
7.6008082298
 21
6.3682079225
  0
LINE
  5
2B0
100
AcDbEntity
  8
ALL_ASSEMBLY_MEMBERS
100
AcDbLine
 62
7
  6
CONTINUOUS
 10
7.6058082298
 20
6.3687607641
 11
7.6058082298
 21
6.1887607641
  0
LINE
  5
2B1
100
AcDbEntity
  8
ALL_ASSEMBLY_MEMBERS
100
AcDbLine
 62
7
  6
CONTINUOUS
 10
7.6508082298
 20
6.3687607641
 11
7.6508082298
 21
6.1887607641
  0
LINE
  5
2B2
100
AcDbEntity
  8
ALL_ASSEMBLY_MEMBERS
100
AcDbLine
 62
7
  6
CONTINUOUS
 10
7.6659888013
 20
6.3875905654
 11
7.6659888013
 21
6.1699309629
  0
LINE
  5
2B3
100
AcDbEntity
  8
ALL_ASSEMBLY_MEMBERS
100
AcDbLine
 62
7
  6
CONTINUOUS
 10
7.5469979957
 20
6.8028700467
 11
7.2406184639
 21
6.8028700467
  0
LINE
  5
2B4
100
AcDbEntity
  8
ALL_ASSEMBLY_MEMBERS
100
AcDbLine
 62
7
  6
CONTINUOUS
 10
3.6094979957
 20
6.8028700467
 11
3.3031184639
 21
6.8028700467
  0
LINE
  5
2B5
100
AcDbEntity
  8
ALL_ASSEMBLY_MEMBERS
100
AcDbLine
 62
7
  6
CONTINUOUS
 10
3.2912647698
 20
6.8190758536
 11
3.6213516898
 21
6.8190758536
  0
LINE
  5
2B6
100
AcDbEntity
  8
ALL_ASSEMBLY_MEMBERS
100
AcDbLine
 62
7
  6
CONTINUOUS
 10
7.2287647698
 20
6.8190758536
 11
7.5588516898
 21
6.8190758536
  0
LINE
  5
2B7
100
AcDbEntity
  8
ALL_ASSEMBLY_MEMBERS
100
AcDbLine
 62
7
  6
CONTINUOUS
 10
3.2763082298
 20
6.8419697155
 11
3.6363082298
 21
6.8419697155
  0
LINE
  5
2B8
100
AcDbEntity
  8
ALL_ASSEMBLY_MEMBERS
100
AcDbLine
 62
7
  6
CONTINUOUS
 10
7.2138082298
 20
6.8419697155
 11
7.5738082298
 21
6.8419697155
  0
LINE
  5
2B9
100
AcDbEntity
  8
ALL_ASSEMBLY_MEMBERS
100
AcDbLine
 62
7
  6
CONTINUOUS
 10
3.2763082298
 20
6.8494542037
 11
3.6363082298
 21
6.8494542037
  0
LINE
  5
2BA
100
AcDbEntity
  8
ALL_ASSEMBLY_MEMBERS
100
AcDbLine
 62
7
  6
CONTINUOUS
 10
7.2138082298
 20
6.8494542037
 11
7.5738082298
 21
6.8494542037
  0
LINE
  5
2BB
100
AcDbEntity
  8
ALL_ASSEMBLY_MEMBERS
100
AcDbLine
 62
7
  6
CONTINUOUS
 10
3.2999123988
 20
6.8744152064
 11
3.6127040608
 21
6.8744152064
  0
LINE
  5
2BC
100
AcDbEntity
  8
ALL_ASSEMBLY_MEMBERS
100
AcDbLine
 62
7
  6
CONTINUOUS
 10
7.2374123988
 20
6.8744152064
 11
7.5502040608
 21
6.8744152064
  0
LINE
  5
2BD
100
AcDbEntity
  8
ALL_ASSEMBLY_MEMBERS
100
AcDbLine
 62
7
  6
CONTINUOUS
 10
7.5039319166
 20
6.8861304364
 11
7.283684543
 21
6.8861304364
  0
LINE
  5
2BE
100
AcDbEntity
  8
ALL_ASSEMBLY_MEMBERS
100
AcDbLine
 62
7
  6
CONTINUOUS
 10
3.5664319166
 20
6.8861304364
 11
3.346184543
 21
6.8861304364
  0
LINE
  5
2BF
100
AcDbEntity
  8
ALL_ASSEMBLY_MEMBERS
100
AcDbLine
 62
7
  6
CONTINUOUS
 10
7.9179175124
 20
6.1255709983
 11
7.9179175124
 21
6.43195053
  0
LINE
  5
2C0
100
AcDbEntity
  8
ALL_ASSEMBLY_MEMBERS
100
AcDbLine
 62
7
  6
CONTINUOUS
 10
7.9341233193
 20
6.4438042241
 11
7.9341233193
 21
6.1137173041
  0
LINE
  5
2C1
100
AcDbEntity
  8
ALL_ASSEMBLY_MEMBERS
100
AcDbLine
 62
7
  6
CONTINUOUS
 10
7.9570171812
 20
6.4587607641
 11
7.9570171812
 21
6.0987607641
  0
LINE
  5
2C2
100
AcDbEntity
  8
ALL_ASSEMBLY_MEMBERS
100
AcDbLine
 62
7
  6
CONTINUOUS
 10
7.9645016694
 20
6.4587607641
 11
7.9645016694
 21
6.0987607641
  0
LINE
  5
2C3
100
AcDbEntity
  8
ALL_ASSEMBLY_MEMBERS
100
AcDbLine
 62
7
  6
CONTINUOUS
 10
7.9894626721
 20
6.4351565951
 11
7.9894626721
 21
6.1223649331
  0
LINE
  5
2C4
100
AcDbEntity
  8
ALL_ASSEMBLY_MEMBERS
100
AcDbLine
 62
7
  6
CONTINUOUS
 10
8.0011779021
 20
6.1686370773
 11
8.0011779021
 21
6.3888844509
  0
ARC
  5
2C5
100
AcDbEntity
  8
ALL_ASSEMBLY_MEMBERS
100
AcDbCircle
 62
7
  6
CONTINUOUS
 10
2.7355083473
 20
4.5773514337
 40
1.865
100
AcDbArc
 50
76.0811997274
 51
83.9460923514
  0
ARC
  5
2C6
100
AcDbEntity
  8
ALL_ASSEMBLY_MEMBERS
100
AcDbCircle
 62
7
  6
CONTINUOUS
 10
1.7548988994
 20
5.5579608816
 40
1.865
100
AcDbArc
 50
6.0539076486
 51
13.9188002726
  0
ARC
  5
2C7
100
AcDbEntity
  8
ALL_ASSEMBLY_MEMBERS
100
AcDbCircle
 62
7
  6
CONTINUOUS
 10
3.2929332438
 20
5.5583013084
 40
0.125
100
AcDbArc
 50
64.7853651812
 51
86.7993265714
  0
ARC
  5
2C8
100
AcDbEntity
  8
ALL_ASSEMBLY_MEMBERS
100
AcDbCircle
 62
7
  6
CONTINUOUS
 10
5.3948116561
 20
3.2684328205
 40
0.27160209
100
AcDbArc
 50
170.3139260595
 51
170.9574406897
  0
ARC
  5
2C9
100
AcDbEntity
  8
ALL_ASSEMBLY_MEMBERS
100
AcDbCircle
 62
7
  6
CONTINUOUS
 10
5.3876858088
 20
3.2695483418
 40
0.26438948
100
AcDbArc
 50
170.9534752762
 51
171.9409291608
  0
ARC
  5
2CA
100
AcDbEntity
  8
ALL_ASSEMBLY_MEMBERS
100
AcDbCircle
 62
7
  6
CONTINUOUS
 10
5.4226523801
 20
3.2784926918
 40
0.3011660687
100
AcDbArc
 50
6.8226408528
 51
7.4799680788
  0
ARC
  5
2CB
100
AcDbEntity
  8
ALL_ASSEMBLY_MEMBERS
100
AcDbCircle
 62
7
  6
CONTINUOUS
 10
5.4233135074
 20
3.2785682101
 40
0.3005006446
100
AcDbArc
 50
4.6781807646
 51
6.6965712217
  0
ARC
  5
2CC
100
AcDbEntity
  8
ALL_ASSEMBLY_MEMBERS
100
AcDbCircle
 62
7
  6
CONTINUOUS
 10
5.4238035712
 20
3.2817262396
 40
0.2970345245
100
AcDbArc
 50
88.1831902901
 51
89.9991013953
  0
ARC
  5
2CD
100
AcDbEntity
  8
ALL_ASSEMBLY_MEMBERS
100
AcDbCircle
 62
7
  6
CONTINUOUS
 10
5.4238082298
 20
3.2787607641
 40
0.6926642831
100
AcDbArc
 50
312.7569499621
 51
227.2430500379
  0
ARC
  5
2CE
100
AcDbEntity
  8
ALL_ASSEMBLY_MEMBERS
100
AcDbCircle
 62
7
  6
CONTINUOUS
 10
5.4238082298
 20
3.2787607641
 40
0.6901608831
100
AcDbArc
 50
312.85399301
 51
227.146006694
  0
ARC
  5
2CF
100
AcDbEntity
  8
ALL_ASSEMBLY_MEMBERS
100
AcDbCircle
 62
7
  6
CONTINUOUS
 10
5.4238082298
 20
3.2787607641
 40
0.6754366908
100
AcDbArc
 50
313.4814918825
 51
226.5185081175
  0
ARC
  5
2D0
100
AcDbEntity
  8
ALL_ASSEMBLY_MEMBERS
100
AcDbCircle
 62
7
  6
CONTINUOUS
 10
5.4238082298
 20
3.2787607641
 40
0.6476220443
100
AcDbArc
 50
314.747496464
 51
225.252503536
  0
ARC
  5
2D1
100
AcDbEntity
  8
ALL_ASSEMBLY_MEMBERS
100
AcDbCircle
 62
7
  6
CONTINUOUS
 10
5.4238082298
 20
3.2787607641
 40
0.6449573905
100
AcDbArc
 50
314.8760240121
 51
225.1238860268
  0
ARC
  5
2D2
100
AcDbEntity
  8
ALL_ASSEMBLY_MEMBERS
100
AcDbCircle
 62
7
  6
CONTINUOUS
 10
5.4238082298
 20
3.2787607641
 40
0.593
100
AcDbArc
 50
317.5719036897
 51
222.4280963103
  0
ARC
  5
2D3
100
AcDbEntity
  8
ALL_ASSEMBLY_MEMBERS
100
AcDbCircle
 62
7
  6
CONTINUOUS
 10
5.4238082298
 20
3.2787607641
 40
0.568648488
100
AcDbArc
 50
319.0067108604
 51
220.9932891396
  0
ARC
  5
2D4
100
AcDbEntity
  8
ALL_ASSEMBLY_MEMBERS
100
AcDbCircle
 62
7
  6
CONTINUOUS
 10
5.4238082298
 20
3.2787607641
 40
0.5541335472
100
AcDbArc
 50
319.9331639882
 51
220.0668360118
  0
ARC
  5
2D5
100
AcDbEntity
  8
ALL_ASSEMBLY_MEMBERS
100
AcDbCircle
 62
7
  6
CONTINUOUS
 10
5.4238082298
 20
3.2787607641
 40
0.3645065747
100
AcDbArc
 50
341.1802130951
 51
198.8203221651
  0
ARC
  5
2D6
100
AcDbEntity
  8
ALL_ASSEMBLY_MEMBERS
100
AcDbCircle
 62
7
  6
CONTINUOUS
 10
5.4238082298
 20
3.2787607641
 40
0.35
100
AcDbArc
 50
344.4039620748
 51
195.5972070687
  0
ARC
  5
2D7
100
AcDbEntity
  8
ALL_ASSEMBLY_MEMBERS
100
AcDbCircle
 62
7
  6
CONTINUOUS
 10
5.4238082298
 20
3.2787607641
 40
0.3149999998
100
AcDbArc
 50
355.582368645
 51
184.4180253672
  0
ARC
  5
2D8
100
AcDbEntity
  8
ALL_ASSEMBLY_MEMBERS
100
AcDbCircle
 62
7
  6
CONTINUOUS
 10
5.4249638508
 20
3.2784927201
 40
0.3011658382
100
AcDbArc
 50
172.5211931495
 51
173.1773593204
  0
ARC
  5
2D9
100
AcDbEntity
  8
ALL_ASSEMBLY_MEMBERS
100
AcDbCircle
 62
7
  6
CONTINUOUS
 10
5.4243029523
 20
3.2785682101
 40
0.3005006446
100
AcDbArc
 50
173.3034287783
 51
175.3218192354
  0
ARC
  5
2DA
100
AcDbEntity
  8
ALL_ASSEMBLY_MEMBERS
100
AcDbCircle
 62
7
  6
CONTINUOUS
 10
5.4238128274
 20
3.2817317857
 40
0.2970289785
100
AcDbArc
 50
90.000886863
 51
91.8048647099
  0
ARC
  5
2DB
100
AcDbEntity
  8
ALL_ASSEMBLY_MEMBERS
100
AcDbCircle
 62
7
  6
CONTINUOUS
 10
5.4238093631
 20
3.3011657912
 40
0.2775949729
100
AcDbArc
 50
88.057099866
 51
90.0002339138
  0
ARC
  5
2DC
100
AcDbEntity
  8
ALL_ASSEMBLY_MEMBERS
100
AcDbCircle
 62
7
  6
CONTINUOUS
 10
5.4238049986
 20
3.3012891296
 40
0.2774716345
100
AcDbArc
 50
89.9993327772
 51
91.9305225476
  0
ARC
  5
2DD
100
AcDbEntity
  8
ALL_ASSEMBLY_MEMBERS
100
AcDbCircle
 62
7
  6
CONTINUOUS
 10
5.1577175602
 20
5.5579608816
 40
1.865
100
AcDbArc
 50
166.0811997274
 51
173.9460923514
  0
ARC
  5
2DE
100
AcDbEntity
  8
ALL_ASSEMBLY_MEMBERS
100
AcDbCircle
 62
7
  6
CONTINUOUS
 10
4.1771081123
 20
4.5773514337
 40
1.865
100
AcDbArc
 50
96.0539076486
 51
103.9188002726
  0
ARC
  5
2DF
100
AcDbEntity
  8
ALL_ASSEMBLY_MEMBERS
100
AcDbCircle
 62
7
  6
CONTINUOUS
 10
3.6196832158
 20
5.5583013084
 40
0.125
100
AcDbArc
 50
93.2006734286
 51
115.2146348188
  0
ARC
  5
2E0
100
AcDbEntity
  8
ALL_ASSEMBLY_MEMBERS
100
AcDbCircle
 62
7
  6
CONTINUOUS
 10
3.0828082298
 20
6.2787607641
 40
0.2585
100
AcDbArc
 50
154.7853651812
 51
205.2146348188
  0
ARC
  5
2E1
100
AcDbEntity
  8
ALL_ASSEMBLY_MEMBERS
100
AcDbCircle
 62
7
  6
CONTINUOUS
 10
2.7358487741
 20
6.1153857781
 40
0.125
100
AcDbArc
 50
3.2006734286
 51
25.2146348188
  0
ARC
  5
2E2
100
AcDbEntity
  8
ALL_ASSEMBLY_MEMBERS
100
AcDbCircle
 62
7
  6
CONTINUOUS
 10
2.7358487741
 20
6.4421357502
 40
0.125
100
AcDbArc
 50
334.7853651812
 51
356.7993265714
  0
ARC
  5
2E3
100
AcDbEntity
  8
ALL_ASSEMBLY_MEMBERS
100
AcDbCircle
 62
7
  6
CONTINUOUS
 10
3.3013082298
 20
6.8419697155
 40
0.025
100
AcDbArc
 50
180.0
 51
246.3131006371
  0
ARC
  5
2E4
100
AcDbEntity
  8
ALL_ASSEMBLY_MEMBERS
100
AcDbCircle
 62
7
  6
CONTINUOUS
 10
2.8930992785
 20
6.4337607641
 40
0.025
100
AcDbArc
 50
23.6868993629
 51
90.0
  0
ARC
  5
2E5
100
AcDbEntity
  8
ALL_ASSEMBLY_MEMBERS
100
AcDbCircle
 62
7
  6
CONTINUOUS
 10
2.8930992785
 20
6.1237607641
 40
0.025
100
AcDbArc
 50
270.0
 51
336.3131006371
  0
ARC
  5
2E6
100
AcDbEntity
  8
ALL_ASSEMBLY_MEMBERS
100
AcDbCircle
 62
7
  6
CONTINUOUS
 10
2.8856147903
 20
6.1237607641
 40
0.025
100
AcDbArc
 50
183.2006734286
 51
270.0
  0
ARC
  5
2E7
100
AcDbEntity
  8
ALL_ASSEMBLY_MEMBERS
100
AcDbCircle
 62
7
  6
CONTINUOUS
 10
2.8856147903
 20
6.4337607641
 40
0.025
100
AcDbArc
 50
90.0
 51
176.7993265714
  0
ARC
  5
2E8
100
AcDbEntity
  8
ALL_ASSEMBLY_MEMBERS
100
AcDbCircle
 62
7
  6
CONTINUOUS
 10
3.3013082298
 20
5.7155518128
 40
0.025
100
AcDbArc
 50
113.6868993629
 51
180.0
  0
ARC
  5
2E9
100
AcDbEntity
  8
ALL_ASSEMBLY_MEMBERS
100
AcDbCircle
 62
7
  6
CONTINUOUS
 10
3.3013082298
 20
5.7080673246
 40
0.025
100
AcDbArc
 50
180.0
 51
266.7993265714
  0
ARC
  5
2EA
100
AcDbEntity
  8
ALL_ASSEMBLY_MEMBERS
100
AcDbCircle
 62
7
  6
CONTINUOUS
 10
3.2832300018
 20
6.8007607641
 40
0.02
100
AcDbArc
 50
6.0539076486
 51
66.3131006371
  0
ARC
  5
2EB
100
AcDbEntity
  8
ALL_ASSEMBLY_MEMBERS
100
AcDbCircle
 62
7
  6
CONTINUOUS
 10
3.3668911807
 20
6.5557522665
 40
0.02
100
AcDbArc
 50
193.9188002437
 51
268.3297322848
  0
ARC
  5
2EC
100
AcDbEntity
  8
ALL_ASSEMBLY_MEMBERS
100
AcDbCircle
 62
7
  6
CONTINUOUS
 10
2.9343082298
 20
6.1056825361
 40
0.02
100
AcDbArc
 50
96.0539076486
 51
156.3131006371
  0
ARC
  5
2ED
100
AcDbEntity
  8
ALL_ASSEMBLY_MEMBERS
100
AcDbCircle
 62
7
  6
CONTINUOUS
 10
2.9343082298
 20
6.4518389922
 40
0.02
100
AcDbArc
 50
203.6868993629
 51
263.9460923514
  0
ARC
  5
2EE
100
AcDbEntity
  8
ALL_ASSEMBLY_MEMBERS
100
AcDbCircle
 62
7
  6
CONTINUOUS
 10
3.1793167274
 20
6.3681778133
 40
0.02
100
AcDbArc
 50
1.6702677154
 51
76.081199757
  0
ARC
  5
2EF
100
AcDbEntity
  8
ALL_ASSEMBLY_MEMBERS
100
AcDbCircle
 62
7
  6
CONTINUOUS
 10
3.1793167274
 20
6.189343715
 40
0.02
100
AcDbArc
 50
283.9188002437
 51
358.3297322848
  0
ARC
  5
2F0
100
AcDbEntity
  8
ALL_ASSEMBLY_MEMBERS
100
AcDbCircle
 62
7
  6
CONTINUOUS
 10
3.2832300018
 20
5.7567607641
 40
0.02
100
AcDbArc
 50
293.6868993629
 51
353.9460923514
  0
ARC
  5
2F1
100
AcDbEntity
  8
ALL_ASSEMBLY_MEMBERS
100
AcDbCircle
 62
7
  6
CONTINUOUS
 10
3.3668911807
 20
6.0017692617
 40
0.02
100
AcDbArc
 50
91.6702677154
 51
166.081199757
  0
ARC
  5
2F2
100
AcDbEntity
  8
ALL_ASSEMBLY_MEMBERS
100
AcDbCircle
 62
7
  6
CONTINUOUS
 10
3.3713082298
 20
6.4907607641
 40
0.005
100
AcDbArc
 50
180.0
 51
270.0
  0
ARC
  5
2F3
100
AcDbEntity
  8
ALL_ASSEMBLY_MEMBERS
100
AcDbCircle
 62
7
  6
CONTINUOUS
 10
3.2443082298
 20
6.3637607641
 40
0.005
100
AcDbArc
 50
0.0
 51
90.0
  0
ARC
  5
2F4
100
AcDbEntity
  8
ALL_ASSEMBLY_MEMBERS
100
AcDbCircle
 62
7
  6
CONTINUOUS
 10
3.2443082298
 20
6.1937607641
 40
0.005
100
AcDbArc
 50
270.0
 51
360.0
  0
ARC
  5
2F5
100
AcDbEntity
  8
ALL_ASSEMBLY_MEMBERS
100
AcDbCircle
 62
7
  6
CONTINUOUS
 10
3.3713082298
 20
6.0667607641
 40
0.005
100
AcDbArc
 50
90.0
 51
180.0
  0
ARC
  5
2F6
100
AcDbEntity
  8
ALL_ASSEMBLY_MEMBERS
100
AcDbCircle
 62
7
  6
CONTINUOUS
 10
1.7548988994
 20
6.9995606467
 40
1.865
100
AcDbArc
 50
346.0811997274
 51
353.9460923514
  0
ARC
  5
2F7
100
AcDbEntity
  8
ALL_ASSEMBLY_MEMBERS
100
AcDbCircle
 62
7
  6
CONTINUOUS
 10
2.7355083473
 20
7.9801700945
 40
1.865
100
AcDbArc
 50
276.0539076486
 51
283.9188002726
  0
ARC
  5
2F8
100
AcDbEntity
  8
ALL_ASSEMBLY_MEMBERS
100
AcDbCircle
 62
7
  6
CONTINUOUS
 10
3.2929332438
 20
6.9992202199
 40
0.125
100
AcDbArc
 50
273.2006734286
 51
295.2146348188
  0
ARC
  5
2F9
100
AcDbEntity
  8
ALL_ASSEMBLY_MEMBERS
100
AcDbCircle
 62
7
  6
CONTINUOUS
 10
3.3013082298
 20
6.8494542037
 40
0.025
100
AcDbArc
 50
93.2006734286
 51
180.0
  0
ARC
  5
2FA
100
AcDbEntity
  8
ALL_ASSEMBLY_MEMBERS
100
AcDbCircle
 62
7
  6
CONTINUOUS
 10
3.4563082298
 20
5.9052607641
 40
0.2585
100
AcDbArc
 50
244.7853651812
 51
295.2146348188
  0
ARC
  5
2FB
100
AcDbEntity
  8
ALL_ASSEMBLY_MEMBERS
100
AcDbCircle
 62
7
  6
CONTINUOUS
 10
3.6113082298
 20
5.7155518128
 40
0.025
100
AcDbArc
 50
0.0
 51
66.3131006371
  0
ARC
  5
2FC
100
AcDbEntity
  8
ALL_ASSEMBLY_MEMBERS
100
AcDbCircle
 62
7
  6
CONTINUOUS
 10
3.6113082298
 20
5.7080673246
 40
0.025
100
AcDbArc
 50
273.2006734286
 51
360.0
  0
ARC
  5
2FD
100
AcDbEntity
  8
ALL_ASSEMBLY_MEMBERS
100
AcDbCircle
 62
7
  6
CONTINUOUS
 10
3.6293864578
 20
5.7567607641
 40
0.02
100
AcDbArc
 50
186.0539076486
 51
246.3131006371
  0
ARC
  5
2FE
100
AcDbEntity
  8
ALL_ASSEMBLY_MEMBERS
100
AcDbCircle
 62
7
  6
CONTINUOUS
 10
3.545725279
 20
6.0017692617
 40
0.02
100
AcDbArc
 50
13.9188002437
 51
88.3297322848
  0
ARC
  5
2FF
100
AcDbEntity
  8
ALL_ASSEMBLY_MEMBERS
100
AcDbCircle
 62
7
  6
CONTINUOUS
 10
3.7332997322
 20
6.189343715
 40
0.02
100
AcDbArc
 50
181.6702677154
 51
256.081199757
  0
ARC
  5
300
100
AcDbEntity
  8
ALL_ASSEMBLY_MEMBERS
100
AcDbCircle
 62
7
  6
CONTINUOUS
 10
3.5413082298
 20
6.0667607641
 40
0.005
100
AcDbArc
 50
0.0
 51
90.0
  0
ARC
  5
301
100
AcDbEntity
  8
ALL_ASSEMBLY_MEMBERS
100
AcDbCircle
 62
7
  6
CONTINUOUS
 10
3.6683082298
 20
6.1937607641
 40
0.005
100
AcDbArc
 50
180.0
 51
270.0
  0
ARC
  5
302
100
AcDbEntity
  8
ALL_ASSEMBLY_MEMBERS
100
AcDbCircle
 62
7
  6
CONTINUOUS
 10
3.4563082298
 20
6.2787607641
 40
0.5567175759
100
AcDbArc
 50
196.3924247627
 51
253.6081289853
  0
ARC
  5
303
100
AcDbEntity
  8
ALL_ASSEMBLY_MEMBERS
100
AcDbCircle
 62
7
  6
CONTINUOUS
 10
3.4563082298
 20
6.2787607641
 40
0.5567175759
100
AcDbArc
 50
106.3918710147
 51
163.6075752373
  0
ARC
  5
304
100
AcDbEntity
  8
ALL_ASSEMBLY_MEMBERS
100
AcDbCircle
 62
7
  6
CONTINUOUS
 10
3.4563082298
 20
6.2787607641
 40
0.5567175759
100
AcDbArc
 50
16.3924247627
 51
73.6081289853
  0
ARC
  5
305
100
AcDbEntity
  8
ALL_ASSEMBLY_MEMBERS
100
AcDbCircle
 62
7
  6
CONTINUOUS
 10
3.4563082298
 20
6.2787607641
 40
0.5567175759
100
AcDbArc
 50
286.3918710147
 51
343.6075752373
  0
ARC
  5
306
100
AcDbEntity
  8
ALL_ASSEMBLY_MEMBERS
100
AcDbCircle
 62
7
  6
CONTINUOUS
 10
3.4563082298
 20
6.2787607641
 40
0.5516114179
100
AcDbArc
 50
286.2702952874
 51
343.7295598153
  0
ARC
  5
307
100
AcDbEntity
  8
ALL_ASSEMBLY_MEMBERS
100
AcDbCircle
 62
7
  6
CONTINUOUS
 10
3.4563082298
 20
6.2787607641
 40
0.5516114179
100
AcDbArc
 50
16.2704480581
 51
73.7297172472
  0
ARC
  5
308
100
AcDbEntity
  8
ALL_ASSEMBLY_MEMBERS
100
AcDbCircle
 62
7
  6
CONTINUOUS
 10
3.4563082298
 20
6.2787607641
 40
0.5516114179
100
AcDbArc
 50
106.2702952874
 51
163.7295598153
  0
ARC
  5
309
100
AcDbEntity
  8
ALL_ASSEMBLY_MEMBERS
100
AcDbCircle
 62
7
  6
CONTINUOUS
 10
3.4563082298
 20
6.2787607641
 40
0.5516114179
100
AcDbArc
 50
196.2704480581
 51
253.7297172472
  0
ARC
  5
30A
100
AcDbEntity
  8
ALL_ASSEMBLY_MEMBERS
100
AcDbCircle
 62
7
  6
CONTINUOUS
 10
3.4563082298
 20
6.2787607641
 40
0.4673615154
100
AcDbArc
 50
17.8246962411
 51
72.1758637577
  0
ARC
  5
30B
100
AcDbEntity
  8
ALL_ASSEMBLY_MEMBERS
100
AcDbCircle
 62
7
  6
CONTINUOUS
 10
3.4563082298
 20
6.2787607641
 40
0.4673615154
100
AcDbArc
 50
287.8241370158
 51
342.1753097766
  0
ARC
  5
30C
100
AcDbEntity
  8
ALL_ASSEMBLY_MEMBERS
100
AcDbCircle
 62
7
  6
CONTINUOUS
 10
3.4563082298
 20
6.2787607641
 40
0.4673615154
100
AcDbArc
 50
197.8246962411
 51
252.1758637577
  0
ARC
  5
30D
100
AcDbEntity
  8
ALL_ASSEMBLY_MEMBERS
100
AcDbCircle
 62
7
  6
CONTINUOUS
 10
3.4563082298
 20
6.2787607641
 40
0.4673615154
100
AcDbArc
 50
107.8241370158
 51
162.1753097766
  0
ARC
  5
30E
100
AcDbEntity
  8
ALL_ASSEMBLY_MEMBERS
100
AcDbCircle
 62
7
  6
CONTINUOUS
 10
3.4563082298
 20
6.2787607641
 40
0.464
100
AcDbArc
 50
17.8947548004
 51
72.1052451996
  0
ARC
  5
30F
100
AcDbEntity
  8
ALL_ASSEMBLY_MEMBERS
100
AcDbCircle
 62
7
  6
CONTINUOUS
 10
3.4563082298
 20
6.2787607641
 40
0.464
100
AcDbArc
 50
287.8947548004
 51
342.1052451996
  0
ARC
  5
310
100
AcDbEntity
  8
ALL_ASSEMBLY_MEMBERS
100
AcDbCircle
 62
7
  6
CONTINUOUS
 10
3.4563082298
 20
6.2787607641
 40
0.464
100
AcDbArc
 50
197.8947548004
 51
252.1052451996
  0
ARC
  5
311
100
AcDbEntity
  8
ALL_ASSEMBLY_MEMBERS
100
AcDbCircle
 62
7
  6
CONTINUOUS
 10
3.4563082298
 20
6.2787607641
 40
0.464
100
AcDbArc
 50
107.8947548004
 51
162.1052451996
  0
ARC
  5
312
100
AcDbEntity
  8
ALL_ASSEMBLY_MEMBERS
100
AcDbCircle
 62
7
  6
CONTINUOUS
 10
3.4563082298
 20
6.2787607641
 40
0.457982941
100
AcDbArc
 50
288.0130718271
 51
341.9860258005
  0
ARC
  5
313
100
AcDbEntity
  8
ALL_ASSEMBLY_MEMBERS
100
AcDbCircle
 62
7
  6
CONTINUOUS
 10
3.4563082298
 20
6.2787607641
 40
0.457982941
100
AcDbArc
 50
18.0139741995
 51
71.9869281729
  0
ARC
  5
314
100
AcDbEntity
  8
ALL_ASSEMBLY_MEMBERS
100
AcDbCircle
 62
7
  6
CONTINUOUS
 10
3.4563082298
 20
6.2787607641
 40
0.457982941
100
AcDbArc
 50
198.0139741995
 51
251.9869281729
  0
ARC
  5
315
100
AcDbEntity
  8
ALL_ASSEMBLY_MEMBERS
100
AcDbCircle
 62
7
  6
CONTINUOUS
 10
3.4563082298
 20
6.2787607641
 40
0.457982941
100
AcDbArc
 50
108.0130718271
 51
161.9860258005
  0
ARC
  5
316
100
AcDbEntity
  8
ALL_ASSEMBLY_MEMBERS
100
AcDbCircle
 62
7
  6
CONTINUOUS
 10
3.4563082298
 20
6.2787607641
 40
0.4080474864
100
AcDbArc
 50
199.0573291167
 51
250.9442509461
  0
ARC
  5
317
100
AcDbEntity
  8
ALL_ASSEMBLY_MEMBERS
100
AcDbCircle
 62
7
  6
CONTINUOUS
 10
3.4563082298
 20
6.2787607641
 40
0.4080474864
100
AcDbArc
 50
109.0557490539
 51
160.9426708833
  0
ARC
  5
318
100
AcDbEntity
  8
ALL_ASSEMBLY_MEMBERS
100
AcDbCircle
 62
7
  6
CONTINUOUS
 10
3.4563082298
 20
6.2787607641
 40
0.4080474864
100
AcDbArc
 50
289.0557490539
 51
340.9426708833
  0
ARC
  5
319
100
AcDbEntity
  8
ALL_ASSEMBLY_MEMBERS
100
AcDbCircle
 62
7
  6
CONTINUOUS
 10
3.4563082298
 20
6.2787607641
 40
0.4080474864
100
AcDbArc
 50
19.0573291167
 51
70.9442509461
  0
ARC
  5
31A
100
AcDbEntity
  8
ALL_ASSEMBLY_MEMBERS
100
AcDbCircle
 62
7
  6
CONTINUOUS
 10
3.4563082298
 20
6.2787607641
 40
0.3777318852
100
AcDbArc
 50
199.7243796917
 51
250.2756203083
  0
ARC
  5
31B
100
AcDbEntity
  8
ALL_ASSEMBLY_MEMBERS
100
AcDbCircle
 62
7
  6
CONTINUOUS
 10
3.4563082298
 20
6.2787607641
 40
0.3777318852
100
AcDbArc
 50
109.7243796917
 51
160.2756203083
  0
ARC
  5
31C
100
AcDbEntity
  8
ALL_ASSEMBLY_MEMBERS
100
AcDbCircle
 62
7
  6
CONTINUOUS
 10
3.4563082298
 20
6.2787607641
 40
0.3777318852
100
AcDbArc
 50
289.7243796917
 51
340.2756203083
  0
ARC
  5
31D
100
AcDbEntity
  8
ALL_ASSEMBLY_MEMBERS
100
AcDbCircle
 62
7
  6
CONTINUOUS
 10
3.4563082298
 20
6.2787607641
 40
0.3777318852
100
AcDbArc
 50
19.7243796917
 51
70.2756203083
  0
ARC
  5
31E
100
AcDbEntity
  8
ALL_ASSEMBLY_MEMBERS
100
AcDbCircle
 62
7
  6
CONTINUOUS
 10
3.4563082298
 20
6.2787607641
 40
0.2590523894
100
AcDbArc
 50
20.3357659094
 51
69.6675969962
  0
ARC
  5
31F
100
AcDbEntity
  8
ALL_ASSEMBLY_MEMBERS
100
AcDbCircle
 62
7
  6
CONTINUOUS
 10
3.4563082298
 20
6.2787607641
 40
0.2590523894
100
AcDbArc
 50
290.3324030038
 51
339.6642340906
  0
ARC
  5
320
100
AcDbEntity
  8
ALL_ASSEMBLY_MEMBERS
100
AcDbCircle
 62
7
  6
CONTINUOUS
 10
3.4563082298
 20
6.2787607641
 40
0.2590523894
100
AcDbArc
 50
200.3357659094
 51
249.6675969962
  0
ARC
  5
321
100
AcDbEntity
  8
ALL_ASSEMBLY_MEMBERS
100
AcDbCircle
 62
7
  6
CONTINUOUS
 10
3.4563082298
 20
6.2787607641
 40
0.2590523894
100
AcDbArc
 50
110.3324030038
 51
159.6642340906
  0
ARC
  5
322
100
AcDbEntity
  8
ALL_ASSEMBLY_MEMBERS
100
AcDbCircle
 62
7
  6
CONTINUOUS
 10
3.4563082298
 20
6.2787607641
 40
0.2378890431
100
AcDbArc
 50
22.2306916525
 51
67.7731451103
  0
ARC
  5
323
100
AcDbEntity
  8
ALL_ASSEMBLY_MEMBERS
100
AcDbCircle
 62
7
  6
CONTINUOUS
 10
3.4563082298
 20
6.2787607641
 40
0.2378890431
100
AcDbArc
 50
292.2301109878
 51
337.7645574315
  0
ARC
  5
324
100
AcDbEntity
  8
ALL_ASSEMBLY_MEMBERS
100
AcDbCircle
 62
7
  6
CONTINUOUS
 10
3.4563082298
 20
6.2787607641
 40
0.2378890431
100
AcDbArc
 50
202.2306916525
 51
247.7731451103
  0
ARC
  5
325
100
AcDbEntity
  8
ALL_ASSEMBLY_MEMBERS
100
AcDbCircle
 62
7
  6
CONTINUOUS
 10
3.4563082298
 20
6.2787607641
 40
0.2378890431
100
AcDbArc
 50
112.2301109878
 51
157.7645574315
  0
ARC
  5
326
100
AcDbEntity
  8
ALL_ASSEMBLY_MEMBERS
100
AcDbCircle
 62
7
  6
CONTINUOUS
 10
3.4563082298
 20
6.2787607641
 40
0.2255
100
AcDbArc
 50
293.370340497
 51
336.629659503
  0
ARC
  5
327
100
AcDbEntity
  8
ALL_ASSEMBLY_MEMBERS
100
AcDbCircle
 62
7
  6
CONTINUOUS
 10
3.4563082298
 20
6.2787607641
 40
0.2255
100
AcDbArc
 50
23.370340497
 51
66.629659503
  0
ARC
  5
328
100
AcDbEntity
  8
ALL_ASSEMBLY_MEMBERS
100
AcDbCircle
 62
7
  6
CONTINUOUS
 10
3.4563082298
 20
6.2787607641
 40
0.2255
100
AcDbArc
 50
113.370340497
 51
156.629659503
  0
ARC
  5
329
100
AcDbEntity
  8
ALL_ASSEMBLY_MEMBERS
100
AcDbCircle
 62
7
  6
CONTINUOUS
 10
3.4563082298
 20
6.2787607641
 40
0.2255
100
AcDbArc
 50
203.370340497
 51
246.629659503
  0
ARC
  5
32A
100
AcDbEntity
  8
ALL_ASSEMBLY_MEMBERS
100
AcDbCircle
 62
7
  6
CONTINUOUS
 10
3.4563082298
 20
6.2787607641
 40
0.225
100
AcDbArc
 50
112.7584314117
 51
113.062939478
  0
ARC
  5
32B
100
AcDbEntity
  8
ALL_ASSEMBLY_MEMBERS
100
AcDbCircle
 62
7
  6
CONTINUOUS
 10
3.4563082298
 20
6.2787607641
 40
0.225
100
AcDbArc
 50
156.9378621041
 51
157.2379102624
  0
ARC
  5
32C
100
AcDbEntity
  8
ALL_ASSEMBLY_MEMBERS
100
AcDbCircle
 62
7
  6
CONTINUOUS
 10
3.4563082298
 20
6.2787607641
 40
0.225
100
AcDbArc
 50
202.7620896698
 51
203.061996453
  0
ARC
  5
32D
100
AcDbEntity
  8
ALL_ASSEMBLY_MEMBERS
100
AcDbCircle
 62
7
  6
CONTINUOUS
 10
3.4563082298
 20
6.2787607641
 40
0.225
100
AcDbArc
 50
246.9370619699
 51
247.2416278368
  0
ARC
  5
32E
100
AcDbEntity
  8
ALL_ASSEMBLY_MEMBERS
100
AcDbCircle
 62
7
  6
CONTINUOUS
 10
3.4563082298
 20
6.2787607641
 40
0.225
100
AcDbArc
 50
292.766698007
 51
293.0610691491
  0
ARC
  5
32F
100
AcDbEntity
  8
ALL_ASSEMBLY_MEMBERS
100
AcDbCircle
 62
7
  6
CONTINUOUS
 10
3.4563082298
 20
6.2787607641
 40
0.225
100
AcDbArc
 50
336.9378621041
 51
337.2323328689
  0
ARC
  5
330
100
AcDbEntity
  8
ALL_ASSEMBLY_MEMBERS
100
AcDbCircle
 62
7
  6
CONTINUOUS
 10
3.4563082298
 20
6.2787607641
 40
0.225
100
AcDbArc
 50
22.7675357405
 51
23.061996453
  0
ARC
  5
331
100
AcDbEntity
  8
ALL_ASSEMBLY_MEMBERS
100
AcDbCircle
 62
7
  6
CONTINUOUS
 10
3.4563082298
 20
6.2787607641
 40
0.225
100
AcDbArc
 50
66.9388240596
 51
67.2331554412
  0
CIRCLE
  5
332
100
AcDbEntity
  8
ALL_ASSEMBLY_MEMBERS
100
AcDbCircle
 62
7
  6
CONTINUOUS
 10
3.4563082298
 20
6.2787607641
 40
0.1494309478
  0
CIRCLE
  5
333
100
AcDbEntity
  8
ALL_ASSEMBLY_MEMBERS
100
AcDbCircle
 62
7
  6
CONTINUOUS
 10
3.4563082298
 20
6.2787607641
 40
0.146117623
  0
CIRCLE
  5
334
100
AcDbEntity
  8
ALL_ASSEMBLY_MEMBERS
100
AcDbCircle
 62
7
  6
CONTINUOUS
 10
3.4563082298
 20
6.2787607641
 40
0.14
  0
CIRCLE
  5
335
100
AcDbEntity
  8
ALL_ASSEMBLY_MEMBERS
100
AcDbCircle
 62
7
  6
CONTINUOUS
 10
3.4563082298
 20
6.2787607641
 40
0.1129032259
  0
ARC
  5
336
100
AcDbEntity
  8
ALL_ASSEMBLY_MEMBERS
100
AcDbCircle
 62
7
  6
CONTINUOUS
 10
3.545725279
 20
6.5557522665
 40
0.02
100
AcDbArc
 50
271.6702677154
 51
346.081199757
  0
ARC
  5
337
100
AcDbEntity
  8
ALL_ASSEMBLY_MEMBERS
100
AcDbCircle
 62
7
  6
CONTINUOUS
 10
3.5413082298
 20
6.4907607641
 40
0.005
100
AcDbArc
 50
270.0
 51
360.0
  0
ARC
  5
338
100
AcDbEntity
  8
ALL_ASSEMBLY_MEMBERS
100
AcDbCircle
 62
7
  6
CONTINUOUS
 10
3.4563082298
 20
6.6522607641
 40
0.2585
100
AcDbArc
 50
64.7853651812
 51
115.2146348188
  0
ARC
  5
339
100
AcDbEntity
  8
ALL_ASSEMBLY_MEMBERS
100
AcDbCircle
 62
7
  6
CONTINUOUS
 10
3.7332997322
 20
6.3681778133
 40
0.02
100
AcDbArc
 50
103.9188002437
 51
178.3297322848
  0
ARC
  5
33A
100
AcDbEntity
  8
ALL_ASSEMBLY_MEMBERS
100
AcDbCircle
 62
7
  6
CONTINUOUS
 10
3.6683082298
 20
6.3637607641
 40
0.005
100
AcDbArc
 50
90.0
 51
180.0
  0
ARC
  5
33B
100
AcDbEntity
  8
ALL_ASSEMBLY_MEMBERS
100
AcDbCircle
 62
7
  6
CONTINUOUS
 10
3.6113082298
 20
6.8419697155
 40
0.025
100
AcDbArc
 50
293.6868993629
 51
360.0
  0
ARC
  5
33C
100
AcDbEntity
  8
ALL_ASSEMBLY_MEMBERS
100
AcDbCircle
 62
7
  6
CONTINUOUS
 10
3.6293864578
 20
6.8007607641
 40
0.02
100
AcDbArc
 50
113.6868993629
 51
173.9460923514
  0
ARC
  5
33D
100
AcDbEntity
  8
ALL_ASSEMBLY_MEMBERS
100
AcDbCircle
 62
7
  6
CONTINUOUS
 10
4.1767676856
 20
6.1153857781
 40
0.125
100
AcDbArc
 50
154.7853651812
 51
176.7993265714
  0
ARC
  5
33E
100
AcDbEntity
  8
ALL_ASSEMBLY_MEMBERS
100
AcDbCircle
 62
7
  6
CONTINUOUS
 10
4.0195171812
 20
6.1237607641
 40
0.025
100
AcDbArc
 50
203.6868993629
 51
270.0
  0
ARC
  5
33F
100
AcDbEntity
  8
ALL_ASSEMBLY_MEMBERS
100
AcDbCircle
 62
7
  6
CONTINUOUS
 10
4.0270016694
 20
6.1237607641
 40
0.025
100
AcDbArc
 50
270.0
 51
356.7993265714
  0
ARC
  5
340
100
AcDbEntity
  8
ALL_ASSEMBLY_MEMBERS
100
AcDbCircle
 62
7
  6
CONTINUOUS
 10
3.9783082298
 20
6.1056825361
 40
0.02
100
AcDbArc
 50
23.6868993629
 51
83.9460923514
  0
ARC
  5
341
100
AcDbEntity
  8
ALL_ASSEMBLY_MEMBERS
100
AcDbCircle
 62
7
  6
CONTINUOUS
 10
3.8298082298
 20
6.2787607641
 40
0.2585
100
AcDbArc
 50
334.7853651812
 51
25.2146348188
  0
ARC
  5
342
100
AcDbEntity
  8
ALL_ASSEMBLY_MEMBERS
100
AcDbCircle
 62
7
  6
CONTINUOUS
 10
4.1767676856
 20
6.4421357502
 40
0.125
100
AcDbArc
 50
183.2006734286
 51
205.2146348188
  0
ARC
  5
343
100
AcDbEntity
  8
ALL_ASSEMBLY_MEMBERS
100
AcDbCircle
 62
7
  6
CONTINUOUS
 10
4.0195171812
 20
6.4337607641
 40
0.025
100
AcDbArc
 50
90.0
 51
156.3131006371
  0
ARC
  5
344
100
AcDbEntity
  8
ALL_ASSEMBLY_MEMBERS
100
AcDbCircle
 62
7
  6
CONTINUOUS
 10
4.0270016694
 20
6.4337607641
 40
0.025
100
AcDbArc
 50
3.2006734286
 51
90.0
  0
ARC
  5
345
100
AcDbEntity
  8
ALL_ASSEMBLY_MEMBERS
100
AcDbCircle
 62
7
  6
CONTINUOUS
 10
3.9783082298
 20
6.4518389922
 40
0.02
100
AcDbArc
 50
276.0539076486
 51
336.3131006371
  0
ARC
  5
346
100
AcDbEntity
  8
ALL_ASSEMBLY_MEMBERS
100
AcDbCircle
 62
7
  6
CONTINUOUS
 10
5.1577175602
 20
6.9995606467
 40
1.865
100
AcDbArc
 50
186.0539076486
 51
193.9188002726
  0
ARC
  5
347
100
AcDbEntity
  8
ALL_ASSEMBLY_MEMBERS
100
AcDbCircle
 62
7
  6
CONTINUOUS
 10
4.1771081123
 20
7.9801700945
 40
1.865
100
AcDbArc
 50
256.0811997274
 51
263.9460923514
  0
ARC
  5
348
100
AcDbEntity
  8
ALL_ASSEMBLY_MEMBERS
100
AcDbCircle
 62
7
  6
CONTINUOUS
 10
3.6196832158
 20
6.9992202199
 40
0.125
100
AcDbArc
 50
244.7853651812
 51
266.7993265714
  0
ARC
  5
349
100
AcDbEntity
  8
ALL_ASSEMBLY_MEMBERS
100
AcDbCircle
 62
7
  6
CONTINUOUS
 10
3.6113082298
 20
6.8494542037
 40
0.025
100
AcDbArc
 50
0.0
 51
86.7993265714
  0
ARC
  5
34A
100
AcDbEntity
  8
ALL_ASSEMBLY_MEMBERS
100
AcDbCircle
 62
7
  6
CONTINUOUS
 10
8.1146081123
 20
4.5773514337
 40
1.865
100
AcDbArc
 50
96.0539076486
 51
103.9188002726
  0
ARC
  5
34B
100
AcDbEntity
  8
ALL_ASSEMBLY_MEMBERS
100
AcDbCircle
 62
7
  6
CONTINUOUS
 10
9.0952175602
 20
5.5579608816
 40
1.865
100
AcDbArc
 50
166.0811997274
 51
173.9460923514
  0
ARC
  5
34C
100
AcDbEntity
  8
ALL_ASSEMBLY_MEMBERS
100
AcDbCircle
 62
7
  6
CONTINUOUS
 10
5.6923988994
 20
5.5579608816
 40
1.865
100
AcDbArc
 50
6.0539076486
 51
13.9188002726
  0
ARC
  5
34D
100
AcDbEntity
  8
ALL_ASSEMBLY_MEMBERS
100
AcDbCircle
 62
7
  6
CONTINUOUS
 10
6.6730083473
 20
4.5773514337
 40
1.865
100
AcDbArc
 50
76.0811997274
 51
83.9460923514
  0
ARC
  5
34E
100
AcDbEntity
  8
ALL_ASSEMBLY_MEMBERS
100
AcDbCircle
 62
7
  6
CONTINUOUS
 10
5.4527215371
 20
3.2684189226
 40
0.2716865077
100
AcDbArc
 50
9.0701479965
 51
9.6861433003
  0
ARC
  5
34F
100
AcDbEntity
  8
ALL_ASSEMBLY_MEMBERS
100
AcDbCircle
 62
7
  6
CONTINUOUS
 10
5.4597730303
 20
3.2695252193
 40
0.264548786
100
AcDbArc
 50
8.0605516347
 51
9.0742974463
  0
ARC
  5
350
100
AcDbEntity
  8
ALL_ASSEMBLY_MEMBERS
100
AcDbCircle
 62
7
  6
CONTINUOUS
 10
7.5571832158
 20
5.5583013084
 40
0.125
100
AcDbArc
 50
93.2006734286
 51
115.2146348188
  0
ARC
  5
351
100
AcDbEntity
  8
ALL_ASSEMBLY_MEMBERS
100
AcDbCircle
 62
7
  6
CONTINUOUS
 10
7.2304332438
 20
5.5583013084
 40
0.125
100
AcDbArc
 50
64.7853651812
 51
86.7993265714
  0
ARC
  5
352
100
AcDbEntity
  8
ALL_ASSEMBLY_MEMBERS
100
AcDbCircle
 62
7
  6
CONTINUOUS
 10
7.0203082298
 20
6.2787607641
 40
0.2585
100
AcDbArc
 50
154.7853651812
 51
205.2146348188
  0
ARC
  5
353
100
AcDbEntity
  8
ALL_ASSEMBLY_MEMBERS
100
AcDbCircle
 62
7
  6
CONTINUOUS
 10
6.6733487741
 20
6.1153857781
 40
0.125
100
AcDbArc
 50
3.2006734286
 51
25.2146348188
  0
ARC
  5
354
100
AcDbEntity
  8
ALL_ASSEMBLY_MEMBERS
100
AcDbCircle
 62
7
  6
CONTINUOUS
 10
6.6733487741
 20
6.4421357502
 40
0.125
100
AcDbArc
 50
334.7853651812
 51
356.7993265714
  0
ARC
  5
355
100
AcDbEntity
  8
ALL_ASSEMBLY_MEMBERS
100
AcDbCircle
 62
7
  6
CONTINUOUS
 10
7.2388082298
 20
6.8419697155
 40
0.025
100
AcDbArc
 50
180.0
 51
246.3131006371
  0
ARC
  5
356
100
AcDbEntity
  8
ALL_ASSEMBLY_MEMBERS
100
AcDbCircle
 62
7
  6
CONTINUOUS
 10
7.2388082298
 20
5.7155518128
 40
0.025
100
AcDbArc
 50
113.6868993629
 51
180.0
  0
ARC
  5
357
100
AcDbEntity
  8
ALL_ASSEMBLY_MEMBERS
100
AcDbCircle
 62
7
  6
CONTINUOUS
 10
7.2388082298
 20
5.7080673246
 40
0.025
100
AcDbArc
 50
180.0
 51
266.7993265714
  0
ARC
  5
358
100
AcDbEntity
  8
ALL_ASSEMBLY_MEMBERS
100
AcDbCircle
 62
7
  6
CONTINUOUS
 10
6.8305992785
 20
6.4337607641
 40
0.025
100
AcDbArc
 50
23.6868993629
 51
90.0
  0
ARC
  5
359
100
AcDbEntity
  8
ALL_ASSEMBLY_MEMBERS
100
AcDbCircle
 62
7
  6
CONTINUOUS
 10
6.8305992785
 20
6.1237607641
 40
0.025
100
AcDbArc
 50
270.0
 51
336.3131006371
  0
ARC
  5
35A
100
AcDbEntity
  8
ALL_ASSEMBLY_MEMBERS
100
AcDbCircle
 62
7
  6
CONTINUOUS
 10
6.8231147903
 20
6.1237607641
 40
0.025
100
AcDbArc
 50
183.2006734286
 51
270.0
  0
ARC
  5
35B
100
AcDbEntity
  8
ALL_ASSEMBLY_MEMBERS
100
AcDbCircle
 62
7
  6
CONTINUOUS
 10
6.8231147903
 20
6.4337607641
 40
0.025
100
AcDbArc
 50
90.0
 51
176.7993265714
  0
ARC
  5
35C
100
AcDbEntity
  8
ALL_ASSEMBLY_MEMBERS
100
AcDbCircle
 62
7
  6
CONTINUOUS
 10
7.2207300018
 20
6.8007607641
 40
0.02
100
AcDbArc
 50
6.0539076486
 51
66.3131006371
  0
ARC
  5
35D
100
AcDbEntity
  8
ALL_ASSEMBLY_MEMBERS
100
AcDbCircle
 62
7
  6
CONTINUOUS
 10
7.3043911807
 20
6.5557522665
 40
0.02
100
AcDbArc
 50
193.9188002437
 51
268.3297322848
  0
ARC
  5
35E
100
AcDbEntity
  8
ALL_ASSEMBLY_MEMBERS
100
AcDbCircle
 62
7
  6
CONTINUOUS
 10
7.2207300018
 20
5.7567607641
 40
0.02
100
AcDbArc
 50
293.6868993629
 51
353.9460923514
  0
ARC
  5
35F
100
AcDbEntity
  8
ALL_ASSEMBLY_MEMBERS
100
AcDbCircle
 62
7
  6
CONTINUOUS
 10
7.3043911807
 20
6.0017692617
 40
0.02
100
AcDbArc
 50
91.6702677154
 51
166.081199757
  0
ARC
  5
360
100
AcDbEntity
  8
ALL_ASSEMBLY_MEMBERS
100
AcDbCircle
 62
7
  6
CONTINUOUS
 10
6.8718082298
 20
6.1056825361
 40
0.02
100
AcDbArc
 50
96.0539076486
 51
156.3131006371
  0
ARC
  5
361
100
AcDbEntity
  8
ALL_ASSEMBLY_MEMBERS
100
AcDbCircle
 62
7
  6
CONTINUOUS
 10
6.8718082298
 20
6.4518389922
 40
0.02
100
AcDbArc
 50
203.6868993629
 51
263.9460923514
  0
ARC
  5
362
100
AcDbEntity
  8
ALL_ASSEMBLY_MEMBERS
100
AcDbCircle
 62
7
  6
CONTINUOUS
 10
7.1168167274
 20
6.3681778133
 40
0.02
100
AcDbArc
 50
1.6702677154
 51
76.081199757
  0
ARC
  5
363
100
AcDbEntity
  8
ALL_ASSEMBLY_MEMBERS
100
AcDbCircle
 62
7
  6
CONTINUOUS
 10
7.1168167274
 20
6.189343715
 40
0.02
100
AcDbArc
 50
283.9188002437
 51
358.3297322848
  0
ARC
  5
364
100
AcDbEntity
  8
ALL_ASSEMBLY_MEMBERS
100
AcDbCircle
 62
7
  6
CONTINUOUS
 10
7.3088082298
 20
6.4907607641
 40
0.005
100
AcDbArc
 50
180.0
 51
270.0
  0
ARC
  5
365
100
AcDbEntity
  8
ALL_ASSEMBLY_MEMBERS
100
AcDbCircle
 62
7
  6
CONTINUOUS
 10
7.3088082298
 20
6.0667607641
 40
0.005
100
AcDbArc
 50
90.0
 51
180.0
  0
ARC
  5
366
100
AcDbEntity
  8
ALL_ASSEMBLY_MEMBERS
100
AcDbCircle
 62
7
  6
CONTINUOUS
 10
7.1818082298
 20
6.3637607641
 40
0.005
100
AcDbArc
 50
0.0
 51
90.0
  0
ARC
  5
367
100
AcDbEntity
  8
ALL_ASSEMBLY_MEMBERS
100
AcDbCircle
 62
7
  6
CONTINUOUS
 10
7.1818082298
 20
6.1937607641
 40
0.005
100
AcDbArc
 50
270.0
 51
360.0
  0
ARC
  5
368
100
AcDbEntity
  8
ALL_ASSEMBLY_MEMBERS
100
AcDbCircle
 62
7
  6
CONTINUOUS
 10
5.6923988994
 20
6.9995606467
 40
1.865
100
AcDbArc
 50
346.0811997274
 51
353.9460923514
  0
ARC
  5
369
100
AcDbEntity
  8
ALL_ASSEMBLY_MEMBERS
100
AcDbCircle
 62
7
  6
CONTINUOUS
 10
6.6730083473
 20
7.9801700945
 40
1.865
100
AcDbArc
 50
276.0539076486
 51
283.9188002726
  0
ARC
  5
36A
100
AcDbEntity
  8
ALL_ASSEMBLY_MEMBERS
100
AcDbCircle
 62
7
  6
CONTINUOUS
 10
7.2304332438
 20
6.9992202199
 40
0.125
100
AcDbArc
 50
273.2006734286
 51
295.2146348188
  0
ARC
  5
36B
100
AcDbEntity
  8
ALL_ASSEMBLY_MEMBERS
100
AcDbCircle
 62
7
  6
CONTINUOUS
 10
7.2388082298
 20
6.8494542037
 40
0.025
100
AcDbArc
 50
93.2006734286
 51
180.0
  0
ARC
  5
36C
100
AcDbEntity
  8
ALL_ASSEMBLY_MEMBERS
100
AcDbCircle
 62
7
  6
CONTINUOUS
 10
7.3938082298
 20
5.9052607641
 40
0.2585
100
AcDbArc
 50
244.7853651812
 51
295.2146348188
  0
ARC
  5
36D
100
AcDbEntity
  8
ALL_ASSEMBLY_MEMBERS
100
AcDbCircle
 62
7
  6
CONTINUOUS
 10
7.5488082298
 20
5.7155518128
 40
0.025
100
AcDbArc
 50
0.0
 51
66.3131006371
  0
ARC
  5
36E
100
AcDbEntity
  8
ALL_ASSEMBLY_MEMBERS
100
AcDbCircle
 62
7
  6
CONTINUOUS
 10
7.5488082298
 20
5.7080673246
 40
0.025
100
AcDbArc
 50
273.2006734286
 51
360.0
  0
ARC
  5
36F
100
AcDbEntity
  8
ALL_ASSEMBLY_MEMBERS
100
AcDbCircle
 62
7
  6
CONTINUOUS
 10
7.6707997322
 20
6.189343715
 40
0.02
100
AcDbArc
 50
181.6702677154
 51
256.081199757
  0
ARC
  5
370
100
AcDbEntity
  8
ALL_ASSEMBLY_MEMBERS
100
AcDbCircle
 62
7
  6
CONTINUOUS
 10
7.5668864578
 20
5.7567607641
 40
0.02
100
AcDbArc
 50
186.0539076486
 51
246.3131006371
  0
ARC
  5
371
100
AcDbEntity
  8
ALL_ASSEMBLY_MEMBERS
100
AcDbCircle
 62
7
  6
CONTINUOUS
 10
7.483225279
 20
6.0017692617
 40
0.02
100
AcDbArc
 50
13.9188002437
 51
88.3297322848
  0
ARC
  5
372
100
AcDbEntity
  8
ALL_ASSEMBLY_MEMBERS
100
AcDbCircle
 62
7
  6
CONTINUOUS
 10
7.6058082298
 20
6.1937607641
 40
0.005
100
AcDbArc
 50
180.0
 51
270.0
  0
ARC
  5
373
100
AcDbEntity
  8
ALL_ASSEMBLY_MEMBERS
100
AcDbCircle
 62
7
  6
CONTINUOUS
 10
7.4788082298
 20
6.0667607641
 40
0.005
100
AcDbArc
 50
0.0
 51
90.0
  0
ARC
  5
374
100
AcDbEntity
  8
ALL_ASSEMBLY_MEMBERS
100
AcDbCircle
 62
7
  6
CONTINUOUS
 10
7.3938082298
 20
6.2787607641
 40
0.5567175759
100
AcDbArc
 50
16.3924247627
 51
73.6081289853
  0
ARC
  5
375
100
AcDbEntity
  8
ALL_ASSEMBLY_MEMBERS
100
AcDbCircle
 62
7
  6
CONTINUOUS
 10
7.3938082298
 20
6.2787607641
 40
0.5567175759
100
AcDbArc
 50
286.3918710147
 51
343.6075752373
  0
ARC
  5
376
100
AcDbEntity
  8
ALL_ASSEMBLY_MEMBERS
100
AcDbCircle
 62
7
  6
CONTINUOUS
 10
7.3938082298
 20
6.2787607641
 40
0.5567175759
100
AcDbArc
 50
196.3924247627
 51
253.6081289853
  0
ARC
  5
377
100
AcDbEntity
  8
ALL_ASSEMBLY_MEMBERS
100
AcDbCircle
 62
7
  6
CONTINUOUS
 10
7.3938082298
 20
6.2787607641
 40
0.5567175759
100
AcDbArc
 50
106.3918710147
 51
163.6075752373
  0
ARC
  5
378
100
AcDbEntity
  8
ALL_ASSEMBLY_MEMBERS
100
AcDbCircle
 62
7
  6
CONTINUOUS
 10
7.3938082298
 20
6.2787607641
 40
0.5516114179
100
AcDbArc
 50
106.2702952874
 51
163.7295598153
  0
ARC
  5
379
100
AcDbEntity
  8
ALL_ASSEMBLY_MEMBERS
100
AcDbCircle
 62
7
  6
CONTINUOUS
 10
7.3938082298
 20
6.2787607641
 40
0.5516114179
100
AcDbArc
 50
196.2704480581
 51
253.7297172472
  0
ARC
  5
37A
100
AcDbEntity
  8
ALL_ASSEMBLY_MEMBERS
100
AcDbCircle
 62
7
  6
CONTINUOUS
 10
7.3938082298
 20
6.2787607641
 40
0.5516114179
100
AcDbArc
 50
286.2702952874
 51
343.7295598153
  0
ARC
  5
37B
100
AcDbEntity
  8
ALL_ASSEMBLY_MEMBERS
100
AcDbCircle
 62
7
  6
CONTINUOUS
 10
7.3938082298
 20
6.2787607641
 40
0.5516114179
100
AcDbArc
 50
16.2704480581
 51
73.7297172472
  0
ARC
  5
37C
100
AcDbEntity
  8
ALL_ASSEMBLY_MEMBERS
100
AcDbCircle
 62
7
  6
CONTINUOUS
 10
7.3938082298
 20
6.2787607641
 40
0.4673615154
100
AcDbArc
 50
197.8246962411
 51
252.1758637577
  0
ARC
  5
37D
100
AcDbEntity
  8
ALL_ASSEMBLY_MEMBERS
100
AcDbCircle
 62
7
  6
CONTINUOUS
 10
7.3938082298
 20
6.2787607641
 40
0.4673615154
100
AcDbArc
 50
107.8241370158
 51
162.1753097766
  0
ARC
  5
37E
100
AcDbEntity
  8
ALL_ASSEMBLY_MEMBERS
100
AcDbCircle
 62
7
  6
CONTINUOUS
 10
7.3938082298
 20
6.2787607641
 40
0.4673615154
100
AcDbArc
 50
17.8246962411
 51
72.1758637577
  0
ARC
  5
37F
100
AcDbEntity
  8
ALL_ASSEMBLY_MEMBERS
100
AcDbCircle
 62
7
  6
CONTINUOUS
 10
7.3938082298
 20
6.2787607641
 40
0.4673615154
100
AcDbArc
 50
287.8241370158
 51
342.1753097766
  0
ARC
  5
380
100
AcDbEntity
  8
ALL_ASSEMBLY_MEMBERS
100
AcDbCircle
 62
7
  6
CONTINUOUS
 10
7.3938082298
 20
6.2787607641
 40
0.464
100
AcDbArc
 50
197.8947548004
 51
252.1052451996
  0
ARC
  5
381
100
AcDbEntity
  8
ALL_ASSEMBLY_MEMBERS
100
AcDbCircle
 62
7
  6
CONTINUOUS
 10
7.3938082298
 20
6.2787607641
 40
0.464
100
AcDbArc
 50
107.8947548004
 51
162.1052451996
  0
ARC
  5
382
100
AcDbEntity
  8
ALL_ASSEMBLY_MEMBERS
100
AcDbCircle
 62
7
  6
CONTINUOUS
 10
7.3938082298
 20
6.2787607641
 40
0.464
100
AcDbArc
 50
17.8947548004
 51
72.1052451996
  0
ARC
  5
383
100
AcDbEntity
  8
ALL_ASSEMBLY_MEMBERS
100
AcDbCircle
 62
7
  6
CONTINUOUS
 10
7.3938082298
 20
6.2787607641
 40
0.464
100
AcDbArc
 50
287.8947548004
 51
342.1052451996
  0
ARC
  5
384
100
AcDbEntity
  8
ALL_ASSEMBLY_MEMBERS
100
AcDbCircle
 62
7
  6
CONTINUOUS
 10
7.3938082298
 20
6.2787607641
 40
0.457982941
100
AcDbArc
 50
108.0130718271
 51
161.9860258005
  0
ARC
  5
385
100
AcDbEntity
  8
ALL_ASSEMBLY_MEMBERS
100
AcDbCircle
 62
7
  6
CONTINUOUS
 10
7.3938082298
 20
6.2787607641
 40
0.457982941
100
AcDbArc
 50
198.0139741995
 51
251.9869281729
  0
ARC
  5
386
100
AcDbEntity
  8
ALL_ASSEMBLY_MEMBERS
100
AcDbCircle
 62
7
  6
CONTINUOUS
 10
7.3938082298
 20
6.2787607641
 40
0.457982941
100
AcDbArc
 50
18.0139741995
 51
71.9869281729
  0
ARC
  5
387
100
AcDbEntity
  8
ALL_ASSEMBLY_MEMBERS
100
AcDbCircle
 62
7
  6
CONTINUOUS
 10
7.3938082298
 20
6.2787607641
 40
0.457982941
100
AcDbArc
 50
288.0130718271
 51
341.9860258005
  0
ARC
  5
388
100
AcDbEntity
  8
ALL_ASSEMBLY_MEMBERS
100
AcDbCircle
 62
7
  6
CONTINUOUS
 10
7.3938082298
 20
6.2787607641
 40
0.4080474864
100
AcDbArc
 50
19.0573291167
 51
70.9442509461
  0
ARC
  5
389
100
AcDbEntity
  8
ALL_ASSEMBLY_MEMBERS
100
AcDbCircle
 62
7
  6
CONTINUOUS
 10
7.3938082298
 20
6.2787607641
 40
0.4080474864
100
AcDbArc
 50
289.0557490539
 51
340.9426708833
  0
ARC
  5
38A
100
AcDbEntity
  8
ALL_ASSEMBLY_MEMBERS
100
AcDbCircle
 62
7
  6
CONTINUOUS
 10
7.3938082298
 20
6.2787607641
 40
0.4080474864
100
AcDbArc
 50
109.0557490539
 51
160.9426708833
  0
ARC
  5
38B
100
AcDbEntity
  8
ALL_ASSEMBLY_MEMBERS
100
AcDbCircle
 62
7
  6
CONTINUOUS
 10
7.3938082298
 20
6.2787607641
 40
0.4080474864
100
AcDbArc
 50
199.0573291167
 51
250.9442509461
  0
ARC
  5
38C
100
AcDbEntity
  8
ALL_ASSEMBLY_MEMBERS
100
AcDbCircle
 62
7
  6
CONTINUOUS
 10
7.3938082298
 20
6.2787607641
 40
0.3777318852
100
AcDbArc
 50
19.7243796917
 51
70.2756203083
  0
ARC
  5
38D
100
AcDbEntity
  8
ALL_ASSEMBLY_MEMBERS
100
AcDbCircle
 62
7
  6
CONTINUOUS
 10
7.3938082298
 20
6.2787607641
 40
0.3777318852
100
AcDbArc
 50
289.7243796917
 51
340.2756203083
  0
ARC
  5
38E
100
AcDbEntity
  8
ALL_ASSEMBLY_MEMBERS
100
AcDbCircle
 62
7
  6
CONTINUOUS
 10
7.3938082298
 20
6.2787607641
 40
0.3777318852
100
AcDbArc
 50
109.7243796917
 51
160.2756203083
  0
ARC
  5
38F
100
AcDbEntity
  8
ALL_ASSEMBLY_MEMBERS
100
AcDbCircle
 62
7
  6
CONTINUOUS
 10
7.3938082298
 20
6.2787607641
 40
0.3777318852
100
AcDbArc
 50
199.7243796917
 51
250.2756203083
  0
ARC
  5
390
100
AcDbEntity
  8
ALL_ASSEMBLY_MEMBERS
100
AcDbCircle
 62
7
  6
CONTINUOUS
 10
7.3938082298
 20
6.2787607641
 40
0.2590523894
100
AcDbArc
 50
200.3357659094
 51
249.6675969962
  0
ARC
  5
391
100
AcDbEntity
  8
ALL_ASSEMBLY_MEMBERS
100
AcDbCircle
 62
7
  6
CONTINUOUS
 10
7.3938082298
 20
6.2787607641
 40
0.2590523894
100
AcDbArc
 50
110.3324030038
 51
159.6642340906
  0
ARC
  5
392
100
AcDbEntity
  8
ALL_ASSEMBLY_MEMBERS
100
AcDbCircle
 62
7
  6
CONTINUOUS
 10
7.3938082298
 20
6.2787607641
 40
0.2590523894
100
AcDbArc
 50
20.3357659094
 51
69.6675969962
  0
ARC
  5
393
100
AcDbEntity
  8
ALL_ASSEMBLY_MEMBERS
100
AcDbCircle
 62
7
  6
CONTINUOUS
 10
7.3938082298
 20
6.2787607641
 40
0.2590523894
100
AcDbArc
 50
290.3324030038
 51
339.6642340906
  0
ARC
  5
394
100
AcDbEntity
  8
ALL_ASSEMBLY_MEMBERS
100
AcDbCircle
 62
7
  6
CONTINUOUS
 10
7.3938082298
 20
6.2787607641
 40
0.2378890431
100
AcDbArc
 50
202.2306916525
 51
247.7731451103
  0
ARC
  5
395
100
AcDbEntity
  8
ALL_ASSEMBLY_MEMBERS
100
AcDbCircle
 62
7
  6
CONTINUOUS
 10
7.3938082298
 20
6.2787607641
 40
0.2378890431
100
AcDbArc
 50
112.2301109878
 51
157.7645574315
  0
ARC
  5
396
100
AcDbEntity
  8
ALL_ASSEMBLY_MEMBERS
100
AcDbCircle
 62
7
  6
CONTINUOUS
 10
7.3938082298
 20
6.2787607641
 40
0.2378890431
100
AcDbArc
 50
22.2306916525
 51
67.7731451103
  0
ARC
  5
397
100
AcDbEntity
  8
ALL_ASSEMBLY_MEMBERS
100
AcDbCircle
 62
7
  6
CONTINUOUS
 10
7.3938082298
 20
6.2787607641
 40
0.2378890431
100
AcDbArc
 50
292.2301109878
 51
337.7645574315
  0
ARC
  5
398
100
AcDbEntity
  8
ALL_ASSEMBLY_MEMBERS
100
AcDbCircle
 62
7
  6
CONTINUOUS
 10
7.3938082298
 20
6.2787607641
 40
0.2255
100
AcDbArc
 50
113.370340497
 51
156.629659503
  0
ARC
  5
399
100
AcDbEntity
  8
ALL_ASSEMBLY_MEMBERS
100
AcDbCircle
 62
7
  6
CONTINUOUS
 10
7.3938082298
 20
6.2787607641
 40
0.2255
100
AcDbArc
 50
203.370340497
 51
246.629659503
  0
ARC
  5
39A
100
AcDbEntity
  8
ALL_ASSEMBLY_MEMBERS
100
AcDbCircle
 62
7
  6
CONTINUOUS
 10
7.3938082298
 20
6.2787607641
 40
0.2255
100
AcDbArc
 50
293.370340497
 51
336.629659503
  0
ARC
  5
39B
100
AcDbEntity
  8
ALL_ASSEMBLY_MEMBERS
100
AcDbCircle
 62
7
  6
CONTINUOUS
 10
7.3938082298
 20
6.2787607641
 40
0.2255
100
AcDbArc
 50
23.370340497
 51
66.629659503
  0
ARC
  5
39C
100
AcDbEntity
  8
ALL_ASSEMBLY_MEMBERS
100
AcDbCircle
 62
7
  6
CONTINUOUS
 10
7.3938082298
 20
6.2787607641
 40
0.225
100
AcDbArc
 50
292.766698007
 51
293.0610691491
  0
ARC
  5
39D
100
AcDbEntity
  8
ALL_ASSEMBLY_MEMBERS
100
AcDbCircle
 62
7
  6
CONTINUOUS
 10
7.3938082298
 20
6.2787607641
 40
0.225
100
AcDbArc
 50
336.9378621041
 51
337.2323328689
  0
ARC
  5
39E
100
AcDbEntity
  8
ALL_ASSEMBLY_MEMBERS
100
AcDbCircle
 62
7
  6
CONTINUOUS
 10
7.3938082298
 20
6.2787607641
 40
0.225
100
AcDbArc
 50
22.7675357405
 51
23.061996453
  0
ARC
  5
39F
100
AcDbEntity
  8
ALL_ASSEMBLY_MEMBERS
100
AcDbCircle
 62
7
  6
CONTINUOUS
 10
7.3938082298
 20
6.2787607641
 40
0.225
100
AcDbArc
 50
66.9388240596
 51
67.2331554412
  0
ARC
  5
3A0
100
AcDbEntity
  8
ALL_ASSEMBLY_MEMBERS
100
AcDbCircle
 62
7
  6
CONTINUOUS
 10
7.3938082298
 20
6.2787607641
 40
0.225
100
AcDbArc
 50
112.7584315324
 51
113.062939478
  0
ARC
  5
3A1
100
AcDbEntity
  8
ALL_ASSEMBLY_MEMBERS
100
AcDbCircle
 62
7
  6
CONTINUOUS
 10
7.3938082298
 20
6.2787607641
 40
0.225
100
AcDbArc
 50
156.9378621041
 51
157.2379102662
  0
ARC
  5
3A2
100
AcDbEntity
  8
ALL_ASSEMBLY_MEMBERS
100
AcDbCircle
 62
7
  6
CONTINUOUS
 10
7.3938082298
 20
6.2787607641
 40
0.225
100
AcDbArc
 50
202.7620896736
 51
203.061996453
  0
ARC
  5
3A3
100
AcDbEntity
  8
ALL_ASSEMBLY_MEMBERS
100
AcDbCircle
 62
7
  6
CONTINUOUS
 10
7.3938082298
 20
6.2787607641
 40
0.225
100
AcDbArc
 50
246.9370619699
 51
247.2416279587
  0
CIRCLE
  5
3A4
100
AcDbEntity
  8
ALL_ASSEMBLY_MEMBERS
100
AcDbCircle
 62
7
  6
CONTINUOUS
 10
7.3938082298
 20
6.2787607641
 40
0.1494309478
  0
CIRCLE
  5
3A5
100
AcDbEntity
  8
ALL_ASSEMBLY_MEMBERS
100
AcDbCircle
 62
7
  6
CONTINUOUS
 10
7.3938082298
 20
6.2787607641
 40
0.146117623
  0
CIRCLE
  5
3A6
100
AcDbEntity
  8
ALL_ASSEMBLY_MEMBERS
100
AcDbCircle
 62
7
  6
CONTINUOUS
 10
7.3938082298
 20
6.2787607641
 40
0.14
  0
CIRCLE
  5
3A7
100
AcDbEntity
  8
ALL_ASSEMBLY_MEMBERS
100
AcDbCircle
 62
7
  6
CONTINUOUS
 10
7.3938082298
 20
6.2787607641
 40
0.1129032259
  0
ARC
  5
3A8
100
AcDbEntity
  8
ALL_ASSEMBLY_MEMBERS
100
AcDbCircle
 62
7
  6
CONTINUOUS
 10
7.483225279
 20
6.5557522665
 40
0.02
100
AcDbArc
 50
271.6702677154
 51
346.081199757
  0
ARC
  5
3A9
100
AcDbEntity
  8
ALL_ASSEMBLY_MEMBERS
100
AcDbCircle
 62
7
  6
CONTINUOUS
 10
7.4788082298
 20
6.4907607641
 40
0.005
100
AcDbArc
 50
270.0
 51
360.0
  0
ARC
  5
3AA
100
AcDbEntity
  8
ALL_ASSEMBLY_MEMBERS
100
AcDbCircle
 62
7
  6
CONTINUOUS
 10
7.3938082298
 20
6.6522607641
 40
0.2585
100
AcDbArc
 50
64.7853651812
 51
115.2146348188
  0
ARC
  5
3AB
100
AcDbEntity
  8
ALL_ASSEMBLY_MEMBERS
100
AcDbCircle
 62
7
  6
CONTINUOUS
 10
7.6707997322
 20
6.3681778133
 40
0.02
100
AcDbArc
 50
103.9188002437
 51
178.3297322848
  0
ARC
  5
3AC
100
AcDbEntity
  8
ALL_ASSEMBLY_MEMBERS
100
AcDbCircle
 62
7
  6
CONTINUOUS
 10
7.6058082298
 20
6.3637607641
 40
0.005
100
AcDbArc
 50
90.0
 51
180.0
  0
ARC
  5
3AD
100
AcDbEntity
  8
ALL_ASSEMBLY_MEMBERS
100
AcDbCircle
 62
7
  6
CONTINUOUS
 10
7.5488082298
 20
6.8419697155
 40
0.025
100
AcDbArc
 50
293.6868993629
 51
360.0
  0
ARC
  5
3AE
100
AcDbEntity
  8
ALL_ASSEMBLY_MEMBERS
100
AcDbCircle
 62
7
  6
CONTINUOUS
 10
7.5668864578
 20
6.8007607641
 40
0.02
100
AcDbArc
 50
113.6868993629
 51
173.9460923514
  0
ARC
  5
3AF
100
AcDbEntity
  8
ALL_ASSEMBLY_MEMBERS
100
AcDbCircle
 62
7
  6
CONTINUOUS
 10
8.1142676856
 20
6.1153857781
 40
0.125
100
AcDbArc
 50
154.7853651812
 51
176.7993265714
  0
ARC
  5
3B0
100
AcDbEntity
  8
ALL_ASSEMBLY_MEMBERS
100
AcDbCircle
 62
7
  6
CONTINUOUS
 10
7.9570171812
 20
6.1237607641
 40
0.025
100
AcDbArc
 50
203.6868993629
 51
270.0
  0
ARC
  5
3B1
100
AcDbEntity
  8
ALL_ASSEMBLY_MEMBERS
100
AcDbCircle
 62
7
  6
CONTINUOUS
 10
7.9645016694
 20
6.1237607641
 40
0.025
100
AcDbArc
 50
270.0
 51
356.7993265714
  0
ARC
  5
3B2
100
AcDbEntity
  8
ALL_ASSEMBLY_MEMBERS
100
AcDbCircle
 62
7
  6
CONTINUOUS
 10
7.9158082298
 20
6.1056825361
 40
0.02
100
AcDbArc
 50
23.6868993629
 51
83.9460923514
  0
ARC
  5
3B3
100
AcDbEntity
  8
ALL_ASSEMBLY_MEMBERS
100
AcDbCircle
 62
7
  6
CONTINUOUS
 10
7.7673082298
 20
6.2787607641
 40
0.2585
100
AcDbArc
 50
334.7853651812
 51
25.2146348188
  0
ARC
  5
3B4
100
AcDbEntity
  8
ALL_ASSEMBLY_MEMBERS
100
AcDbCircle
 62
7
  6
CONTINUOUS
 10
8.1142676856
 20
6.4421357502
 40
0.125
100
AcDbArc
 50
183.2006734286
 51
205.2146348188
  0
ARC
  5
3B5
100
AcDbEntity
  8
ALL_ASSEMBLY_MEMBERS
100
AcDbCircle
 62
7
  6
CONTINUOUS
 10
7.9570171812
 20
6.4337607641
 40
0.025
100
AcDbArc
 50
90.0
 51
156.3131006371
  0
ARC
  5
3B6
100
AcDbEntity
  8
ALL_ASSEMBLY_MEMBERS
100
AcDbCircle
 62
7
  6
CONTINUOUS
 10
7.9645016694
 20
6.4337607641
 40
0.025
100
AcDbArc
 50
3.2006734286
 51
90.0
  0
ARC
  5
3B7
100
AcDbEntity
  8
ALL_ASSEMBLY_MEMBERS
100
AcDbCircle
 62
7
  6
CONTINUOUS
 10
7.9158082298
 20
6.4518389922
 40
0.02
100
AcDbArc
 50
276.0539076486
 51
336.3131006371
  0
ARC
  5
3B8
100
AcDbEntity
  8
ALL_ASSEMBLY_MEMBERS
100
AcDbCircle
 62
7
  6
CONTINUOUS
 10
9.0952175602
 20
6.9995606467
 40
1.865
100
AcDbArc
 50
186.0539076486
 51
193.9188002726
  0
ARC
  5
3B9
100
AcDbEntity
  8
ALL_ASSEMBLY_MEMBERS
100
AcDbCircle
 62
7
  6
CONTINUOUS
 10
8.1146081123
 20
7.9801700945
 40
1.865
100
AcDbArc
 50
256.0811997274
 51
263.9460923514
  0
ARC
  5
3BA
100
AcDbEntity
  8
ALL_ASSEMBLY_MEMBERS
100
AcDbCircle
 62
7
  6
CONTINUOUS
 10
7.5571832158
 20
6.9992202199
 40
0.125
100
AcDbArc
 50
244.7853651812
 51
266.7993265714
  0
ARC
  5
3BB
100
AcDbEntity
  8
ALL_ASSEMBLY_MEMBERS
100
AcDbCircle
 62
7
  6
CONTINUOUS
 10
7.5488082298
 20
6.8494542037
 40
0.025
100
AcDbArc
 50
0.0
 51
86.7993265714
  0
SPLINE
  5
3BC
100
AcDbEntity
  8
ALL_ASSEMBLY_MEMBERS
100
AcDbSpline
 62
7
  6
CONTINUOUS
 70
0
 71
3
 72
24
 73
20
 74
0
 42
0.0000001
 43
0.0000001
 44
0.0000000001
 40
0.0
 40
0.0
 40
0.0
 40
0.0
 40
0.0625034867
 40
0.1250029487
 40
0.1874950607
 40
0.2499886996
 40
0.3124907759
 40
0.3749953743
 40
0.4374942631
 40
0.4687489068
 40
0.5000037834
 40
0.5625036076
 40
0.6250083999
 40
0.6875095991
 40
0.7500023535
 40
0.8124951706
 40
0.874995461
 40
0.9374989565
 40
1.0
 40
1.0
 40
1.0
 40
1.0
 10
5.7212556568
 20
3.3176983558
 30
0.0
 10
5.7201093959
 20
3.3264287093
 30
0.0
 10
5.7170497937
 20
3.3437978967
 30
0.0
 10
5.710203977
 20
3.3693422442
 30
0.0
 10
5.7011392655
 20
3.3941877665
 30
0.0
 10
5.6898980959
 20
3.4181270616
 30
0.0
 10
5.6765972205
 20
3.4409875829
 30
0.0
 10
5.6613509555
 20
3.4625989125
 30
0.0
 10
5.6471151259
 20
3.4794299495
 30
0.0
 10
5.6348709842
 20
3.492094787
 30
0.0
 10
5.6220743601
 20
3.5042012952
 30
0.0
 10
5.6050921599
 20
3.518256618
 30
0.0
 10
5.5833199722
 20
3.5332723197
 30
0.0
 10
5.5603194481
 20
3.546329245
 30
0.0
 10
5.5362600446
 20
3.5573111959
 30
0.0
 10
5.5113188302
 20
3.5661075074
 30
0.0
 10
5.4857008671
 20
3.5726815225
 30
0.0
 10
5.459607563
 20
3.5769929291
 30
0.0
 10
5.4420212682
 20
3.5783324143
 30
0.0
 10
5.4332207531
 20
3.5786114455
 30
0.0
  0
SPLINE
  5
3BD
100
AcDbEntity
  8
ALL_ASSEMBLY_MEMBERS
100
AcDbSpline
 62
7
  6
CONTINUOUS
 70
0
 71
3
 72
35
 73
31
 74
0
 42
0.0000001
 43
0.0000001
 44
0.0000000001
 40
0.0
 40
0.0
 40
0.0
 40
0.0
 40
0.0024559575
 40
0.0050717253
 40
0.0079337053
 40
0.0110510307
 40
0.01441493
 40
0.0180197327
 40
0.0218515146
 40
0.0258910247
 40
0.0345433432
 40
0.0439040696
 40
0.0538916578
 40
0.064415126
 40
0.0754002686
 40
0.0868121057
 40
0.1107868715
 40
0.1360998155
 40
0.1625723444
 40
0.2184647045
 40
0.2777592018
 40
0.3399134312
 40
0.4046253158
 40
0.471668752
 40
0.5409095034
 40
0.6122451853
 40
0.685617902
 40
0.7610037397
 40
0.8384700857
 40
1.0
 40
1.0
 40
1.0
 40
1.0
 10
4.9481306433
 20
2.4447694266
 30
0.0
 10
4.9482086118
 20
2.4451551757
 30
0.0
 10
4.9485020893
 20
2.4459279855
 30
0.0
 10
4.9492485476
 20
2.4469681416
 30
0.0
 10
4.9502393896
 20
2.4479315563
 30
0.0
 10
4.951428275
 20
2.4488451909
 30
0.0
 10
4.952789788
 20
2.4497189039
 30
0.0
 10
4.9543068831
 20
2.450553917
 30
0.0
 10
4.9559627587
 20
2.4513553176
 30
0.0
 10
4.9583918269
 20
2.4524104997
 30
0.0
 10
4.9617033946
 20
2.4536504049
 30
0.0
 10
4.9659795213
 20
2.4550134732
 30
0.0
 10
4.9705919322
 20
2.4562967121
 30
0.0
 10
4.9754902874
 20
2.4575146529
 30
0.0
 10
4.9806358317
 20
2.4586788818
 30
0.0
 10
4.9879127427
 20
2.4601847401
 30
0.0
 10
4.9974828762
 20
2.4619301796
 30
0.0
 10
5.0094730595
 20
2.4638364736
 30
0.0
 10
5.0265604637
 20
2.466237908
 30
0.0
 10
5.0491049328
 20
2.4689119489
 30
0.0
 10
5.0773897697
 20
2.4716700203
 30
0.0
 10
5.1071220386
 20
2.4741062992
 30
0.0
 10
5.1381218808
 20
2.4762423842
 30
0.0
 10
5.1702764834
 20
2.4781092002
 30
0.0
 10
5.2035076301
 20
2.4797181104
 30
0.0
 10
5.2377646637
 20
2.4810832533
 30
0.0
 10
5.2730155384
 20
2.4822099101
 30
0.0
 10
5.3092557863
 20
2.4831041261
 30
0.0
 10
5.3596259281
 20
2.4839837245
 30
0.0
 10
5.3979242015
 20
2.4842387989
 30
0.0
 10
5.4238082298
 20
2.4842387989
 30
0.0
  0
SPLINE
  5
3BE
100
AcDbEntity
  8
ALL_ASSEMBLY_MEMBERS
100
AcDbSpline
 62
7
  6
CONTINUOUS
 70
0
 71
3
 72
37
 73
33
 74
0
 42
0.0000001
 43
0.0000001
 44
0.0000000001
 40
0.0
 40
0.0
 40
0.0
 40
0.0
 40
0.1708191994
 40
0.3295352616
 40
0.4047999199
 40
0.4773938463
 40
0.5472756563
 40
0.6143551375
 40
0.6785043717
 40
0.7394887787
 40
0.768706265
 40
0.7969871599
 40
0.8242514212
 40
0.8504212302
 40
0.8754073871
 40
0.8990685971
 40
0.9103532203
 40
0.9212333081
 40
0.9316740488
 40
0.9416428924
 40
0.9511053776
 40
0.9600123671
 40
0.9683184998
 40
0.9759916006
 40
0.9795831244
 40
0.9829928577
 40
0.9862079702
 40
0.9892268044
 40
0.9920639039
 40
0.9947563363
 40
0.9973697181
 40
1.0
 40
1.0
 40
1.0
 40
1.0
 10
5.4238082298
 20
2.3847749502
 30
0.0
 10
5.4557365431
 20
2.3847749502
 30
0.0
 10
5.5173327261
 20
2.3853268922
 30
0.0
 10
5.592969778
 20
2.3874677459
 30
0.0
 10
5.6502199041
 20
2.3899430622
 30
0.0
 10
5.6908603466
 20
2.3921317973
 30
0.0
 10
5.7299462268
 20
2.3946905042
 30
0.0
 10
5.7674221123
 20
2.3976347355
 30
0.0
 10
5.8031949375
 20
2.4009762987
 30
0.0
 10
5.8318701486
 20
2.4041680939
 30
0.0
 10
5.8538375983
 20
2.4069778693
 30
0.0
 10
5.8695266712
 20
2.4091862127
 30
0.0
 10
5.8846187643
 20
2.4115379288
 30
0.0
 10
5.8990614553
 20
2.4140446244
 30
0.0
 10
5.9127896256
 20
2.4167145041
 30
0.0
 10
5.9237292966
 20
2.4191331067
 30
0.0
 10
5.932044944
 20
2.4211883694
 30
0.0
 10
5.9379323219
 20
2.4227650056
 30
0.0
 10
5.9435460742
 20
2.424407316
 30
0.0
 10
5.9488609099
 20
2.4261210192
 30
0.0
 10
5.9538477176
 20
2.4279098325
 30
0.0
 10
5.958469363
 20
2.4297857428
 30
0.0
 10
5.9626840048
 20
2.4317597726
 30
0.0
 10
5.9658885068
 20
2.4335324704
 30
0.0
 10
5.968195262
 20
2.4350183053
 30
0.0
 10
5.969739838
 20
2.436143437
 30
0.0
 10
5.9711156778
 20
2.437311231
 30
0.0
 10
5.9722999876
 20
2.4385291061
 30
0.0
 10
5.9732692169
 20
2.4398055433
 30
0.0
 10
5.9739976504
 20
2.4411502656
 30
0.0
 10
5.9744557966
 20
2.4425707806
 30
0.0
 10
5.9745582298
 20
2.4435541809
 30
0.0
 10
5.9745582298
 20
2.4440458146
 30
0.0
  0
SPLINE
  5
3BF
100
AcDbEntity
  8
ALL_ASSEMBLY_MEMBERS
100
AcDbSpline
 62
7
  6
CONTINUOUS
 70
0
 71
3
 72
37
 73
33
 74
0
 42
0.0000001
 43
0.0000001
 44
0.0000000001
 40
0.0
 40
0.0
 40
0.0
 40
0.0
 40
0.0026302819
 40
0.0052436637
 40
0.0079360961
 40
0.0107731956
 40
0.0137920298
 40
0.0170071423
 40
0.0204168756
 40
0.0240083994
 40
0.0316815002
 40
0.0399876329
 40
0.0488946224
 40
0.0583571076
 40
0.0683259512
 40
0.0787666919
 40
0.0896467797
 40
0.1009314029
 40
0.1245926129
 40
0.1495787698
 40
0.1757485788
 40
0.2030128401
 40
0.231293735
 40
0.2605112213
 40
0.3214956283
 40
0.3856448625
 40
0.4527243437
 40
0.5226061537
 40
0.5952000801
 40
0.6704647384
 40
0.8291808006
 40
1.0
 40
1.0
 40
1.0
 40
1.0
 10
4.8730582298
 20
2.4440458146
 30
0.0
 10
4.8730582298
 20
2.4435541809
 30
0.0
 10
4.873160663
 20
2.4425707806
 30
0.0
 10
4.8736188092
 20
2.4411502656
 30
0.0
 10
4.8743472427
 20
2.4398055433
 30
0.0
 10
4.875316472
 20
2.4385291061
 30
0.0
 10
4.8765007818
 20
2.437311231
 30
0.0
 10
4.8778766216
 20
2.436143437
 30
0.0
 10
4.8794211976
 20
2.4350183053
 30
0.0
 10
4.8817279528
 20
2.4335324704
 30
0.0
 10
4.8849324548
 20
2.4317597726
 30
0.0
 10
4.8891470966
 20
2.4297857428
 30
0.0
 10
4.893768742
 20
2.4279098325
 30
0.0
 10
4.8987555497
 20
2.4261210192
 30
0.0
 10
4.9040703854
 20
2.424407316
 30
0.0
 10
4.9096841377
 20
2.4227650056
 30
0.0
 10
4.9155715156
 20
2.4211883694
 30
0.0
 10
4.923887163
 20
2.4191331067
 30
0.0
 10
4.934826834
 20
2.4167145041
 30
0.0
 10
4.9485550043
 20
2.4140446244
 30
0.0
 10
4.9629976953
 20
2.4115379288
 30
0.0
 10
4.9780897885
 20
2.4091862127
 30
0.0
 10
4.9937788613
 20
2.4069778693
 30
0.0
 10
5.0157463111
 20
2.4041680939
 30
0.0
 10
5.0444215222
 20
2.4009762987
 30
0.0
 10
5.0801943474
 20
2.3976347355
 30
0.0
 10
5.1176702328
 20
2.3946905042
 30
0.0
 10
5.1567561131
 20
2.3921317973
 30
0.0
 10
5.1973965555
 20
2.3899430622
 30
0.0
 10
5.2546466816
 20
2.3874677459
 30
0.0
 10
5.3302837335
 20
2.3853268922
 30
0.0
 10
5.3918799166
 20
2.3847749502
 30
0.0
 10
5.4238082298
 20
2.3847749502
 30
0.0
  0
SPLINE
  5
3C0
100
AcDbEntity
  8
ALL_ASSEMBLY_MEMBERS
100
AcDbSpline
 62
7
  6
CONTINUOUS
 70
0
 71
3
 72
24
 73
20
 74
0
 42
0.0000001
 43
0.0000001
 44
0.0000000001
 40
0.0
 40
0.0
 40
0.0
 40
0.0
 40
0.0625010364
 40
0.1250045308
 40
0.1875048333
 40
0.2499976612
 40
0.3124904043
 40
0.3749915919
 40
0.437496385
 40
0.4999962173
 40
0.5312510985
 40
0.562505743
 40
0.625004625
 40
0.6875092214
 40
0.7500113006
 40
0.8125049417
 40
0.8749970523
 40
0.9374965138
 40
1.0
 40
1.0
 40
1.0
 40
1.0
 10
5.4144577149
 20
3.5786134051
 30
0.0
 10
5.4056557252
 20
3.5783361625
 30
0.0
 10
5.3880663214
 20
3.5769999729
 30
0.0
 10
5.3619680088
 20
3.5726926778
 30
0.0
 10
5.3363447874
 20
3.5661219616
 30
0.0
 10
5.3113981549
 20
3.557328171
 30
0.0
 10
5.2873332804
 20
3.5463479212
 30
0.0
 10
5.2643273735
 20
3.5332918297
 30
0.0
 10
5.2425499627
 20
3.51827618
 30
0.0
 10
5.2255636112
 20
3.504220286
 30
0.0
 10
5.2127638277
 20
3.4921129834
 30
0.0
 10
5.200516654
 20
3.4794471281
 30
0.0
 10
5.1862773171
 20
3.4626143942
 30
0.0
 10
5.1710273514
 20
3.4410004494
 30
0.0
 10
5.1577233381
 20
3.4181368117
 30
0.0
 10
5.1464796444
 20
3.3941939825
 30
0.0
 10
5.1374130898
 20
3.3693445852
 30
0.0
 10
5.1305661448
 20
3.3437961192
 30
0.0
 10
5.1275062767
 20
3.3264240852
 30
0.0
 10
5.1263600081
 20
3.3176923022
 30
0.0
  0
SPLINE
  5
3C1
100
AcDbEntity
  8
ALL_ASSEMBLY_MEMBERS
100
AcDbSpline
 62
7
  6
CONTINUOUS
 70
0
 71
3
 72
35
 73
31
 74
0
 42
0.0000001
 43
0.0000001
 44
0.0000000001
 40
0.0
 40
0.0
 40
0.0
 40
0.0
 40
0.1615299144
 40
0.2389962603
 40
0.3143820981
 40
0.3877548148
 40
0.4590904967
 40
0.5283312481
 40
0.5953746844
 40
0.660086569
 40
0.7222407983
 40
0.7815352957
 40
0.8374276558
 40
0.8639001847
 40
0.8892131286
 40
0.9131878945
 40
0.9245997316
 40
0.9355848741
 40
0.9461083423
 40
0.9560959305
 40
0.9654566569
 40
0.9741089754
 40
0.9781484855
 40
0.9819802673
 40
0.98558507
 40
0.9889489693
 40
0.9920662948
 40
0.9949282747
 40
0.9975440425
 40
1.0
 40
1.0
 40
1.0
 40
1.0
 10
5.4238082298
 20
2.4842387989
 30
0.0
 10
5.4496922581
 20
2.4842387989
 30
0.0
 10
5.4879905315
 20
2.4839837245
 30
0.0
 10
5.5383606733
 20
2.4831041261
 30
0.0
 10
5.5746009213
 20
2.4822099101
 30
0.0
 10
5.609851796
 20
2.4810832533
 30
0.0
 10
5.6441088296
 20
2.4797181104
 30
0.0
 10
5.6773399763
 20
2.4781092002
 30
0.0
 10
5.7094945789
 20
2.4762423842
 30
0.0
 10
5.7404944211
 20
2.4741062992
 30
0.0
 10
5.7702266901
 20
2.4716700203
 30
0.0
 10
5.798511527
 20
2.4689119489
 30
0.0
 10
5.8210559961
 20
2.466237908
 30
0.0
 10
5.8381434003
 20
2.4638364736
 30
0.0
 10
5.8501335836
 20
2.4619301796
 30
0.0
 10
5.8597037171
 20
2.4601847401
 30
0.0
 10
5.8669806281
 20
2.4586788817
 30
0.0
 10
5.8721261724
 20
2.4575146529
 30
0.0
 10
5.8770245275
 20
2.4562967121
 30
0.0
 10
5.8816369385
 20
2.4550134732
 30
0.0
 10
5.8859130651
 20
2.4536504048
 30
0.0
 10
5.8892246328
 20
2.4524104997
 30
0.0
 10
5.8916537011
 20
2.4513553175
 30
0.0
 10
5.8933095767
 20
2.4505539169
 30
0.0
 10
5.8948266717
 20
2.4497189038
 30
0.0
 10
5.8961881847
 20
2.4488451909
 30
0.0
 10
5.8973770701
 20
2.4479315562
 30
0.0
 10
5.8983679121
 20
2.4469681416
 30
0.0
 10
5.8991143703
 20
2.4459279855
 30
0.0
 10
5.8994078478
 20
2.4451551757
 30
0.0
 10
5.8994858164
 20
2.4447694265
 30
0.0
  0
SPLINE
  5
3C2
100
AcDbEntity
  8
ALL_ASSEMBLY_MEMBERS
100
AcDbSpline
 62
7
  6
CONTINUOUS
 70
0
 71
3
 72
23
 73
19
 74
0
 42
0.0000001
 43
0.0000001
 44
0.0000000001
 40
0.0
 40
0.0
 40
0.0
 40
0.0
 40
0.060971372
 40
0.1212781215
 40
0.1812490485
 40
0.2411887862
 40
0.3013660832
 40
0.3619709406
 40
0.4231344061
 40
0.484937995
 40
0.5474278918
 40
0.6106082669
 40
0.6744380301
 40
0.7388320091
 40
0.8036802461
 40
0.8688783668
 40
0.9343268378
 40
1.0
 40
1.0
 40
1.0
 40
1.0
 10
5.4332200155
 20
3.5785971969
 30
0.0
 10
5.4417225405
 20
3.5783011258
 30
0.0
 10
5.458618454
 20
3.5769081286
 30
0.0
 10
5.4835448915
 20
3.5724187897
 30
0.0
 10
5.5077934644
 20
3.5656154919
 30
0.0
 10
5.5312767225
 20
3.5565699954
 30
0.0
 10
5.5539033146
 20
3.5453589186
 30
0.0
 10
5.5755912535
 20
3.5321000423
 30
0.0
 10
5.5962548252
 20
3.5169125621
 30
0.0
 10
5.6158021531
 20
3.4999118974
 30
0.0
 10
5.6341321864
 20
3.4812112524
 30
0.0
 10
5.6511588818
 20
3.4609485778
 30
0.0
 10
5.6668118434
 20
3.4392801504
 30
0.0
 10
5.6809953195
 20
3.4163484022
 30
0.0
 10
5.6935757312
 20
3.392283296
 30
0.0
 10
5.7044179515
 20
3.3672238141
 30
0.0
 10
5.71333773
 20
3.3412945763
 30
0.0
 10
5.7177576286
 20
3.3235039456
 30
0.0
 10
5.7194814344
 20
3.3145037943
 30
0.0
  0
SPLINE
  5
3C3
100
AcDbEntity
  8
ALL_ASSEMBLY_MEMBERS
100
AcDbSpline
 62
7
  6
CONTINUOUS
 70
0
 71
3
 72
32
 73
28
 74
0
 42
0.0000001
 43
0.0000001
 44
0.0000000001
 40
0.0
 40
0.0
 40
0.0
 40
0.0
 40
0.1644101807
 40
0.2422779653
 40
0.3175369924
 40
0.4608164292
 40
0.5288999673
 40
0.5945630413
 40
0.6577321855
 40
0.7182518101
 40
0.7474609023
 40
0.7759121519
 40
0.8302894359
 40
0.8561016753
 40
0.8808860595
 40
0.8928594272
 40
0.9045330129
 40
0.9158822964
 40
0.9268835677
 40
0.9375163234
 40
0.9477595739
 40
0.9575840086
 40
0.9669679175
 40
0.9759041421
 40
0.9843859158
 40
0.9923864065
 40
1.0
 40
1.0
 40
1.0
 40
1.0
 10
5.4238082298
 20
2.8785075384
 30
0.0
 10
5.4507170319
 20
2.8785075384
 30
0.0
 10
5.4903817563
 20
2.8775479775
 30
0.0
 10
5.5422509507
 20
2.8742224675
 30
0.0
 10
5.5905696043
 20
2.8698443142
 30
0.0
 10
5.6371164952
 20
2.8637968303
 30
0.0
 10
5.6817993217
 20
2.8560739229
 30
0.0
 10
5.7133913491
 20
2.8496736936
 30
0.0
 10
5.7435708855
 20
2.8426072767
 30
0.0
 10
5.7677424518
 20
2.836108494
 30
0.0
 10
5.7862788603
 20
2.8305791498
 30
0.0
 10
5.8037452331
 20
2.8249937431
 30
0.0
 10
5.8205071496
 20
2.8190345634
 30
0.0
 10
5.8364455673
 20
2.8126141713
 30
0.0
 10
5.8458198164
 20
2.8084854228
 30
0.0
 10
5.8529774123
 20
2.8050782135
 30
0.0
 10
5.8580955189
 20
2.8025055761
 30
0.0
 10
5.8630076961
 20
2.7998810465
 30
0.0
 10
5.8676945234
 20
2.7972005574
 30
0.0
 10
5.8721356947
 20
2.7944605419
 30
0.0
 10
5.8763085481
 20
2.79165874
 30
0.0
 10
5.8801810669
 20
2.7887848353
 30
0.0
 10
5.8837190579
 20
2.7858300219
 30
0.0
 10
5.8868841813
 20
2.7827873901
 30
0.0
 10
5.8896365325
 20
2.7796578056
 30
0.0
 10
5.8918484823
 20
2.7763758464
 30
0.0
 10
5.8928661749
 20
2.7740052236
 30
0.0
 10
5.8932119989
 20
2.7728080651
 30
0.0
  0
SPLINE
  5
3C4
100
AcDbEntity
  8
ALL_ASSEMBLY_MEMBERS
100
AcDbSpline
 62
7
  6
CONTINUOUS
 70
0
 71
3
 72
27
 73
23
 74
0
 42
0.0000001
 43
0.0000001
 44
0.0000000001
 40
0.0
 40
0.0
 40
0.0
 40
0.0
 40
0.0219896961
 40
0.0333195717
 40
0.0448801191
 40
0.0687122417
 40
0.0934558022
 40
0.1190367003
 40
0.1453594232
 40
0.172351672
 40
0.1999513699
 40
0.2568050606
 40
0.2859950372
 40
0.3156387328
 40
0.3762027905
 40
0.4384083511
 40
0.5675656883
 40
0.7033470993
 40
0.7739989633
 40
0.8467930578
 40
0.9220254371
 40
1.0
 40
1.0
 40
1.0
 40
1.0
 10
5.0260476619
 20
3.0032975886
 30
0.0
 10
5.0270623785
 20
3.0063846382
 30
0.0
 10
5.0292170633
 20
3.0108592324
 30
0.0
 10
5.0326894248
 20
3.0165075147
 30
0.0
 10
5.0366519582
 20
3.0221678808
 30
0.0
 10
5.0423160305
 20
3.0290322939
 30
0.0
 10
5.0499212185
 20
3.0369330104
 30
0.0
 10
5.0582674558
 20
3.0445987251
 30
0.0
 10
5.0672325197
 20
3.0520583639
 30
0.0
 10
5.07674118
 20
3.0593135061
 30
0.0
 10
5.0901959302
 20
3.0688155927
 30
0.0
 10
5.1044005438
 20
3.0777991983
 30
0.0
 10
5.1192331931
 20
3.0863025356
 30
0.0
 10
5.1347755754
 20
3.0946582004
 30
0.0
 10
5.1550313773
 20
3.1045320453
 30
0.0
 10
5.1892897386
 20
3.11913685
 30
0.0
 10
5.2351267435
 20
3.1347572415
 30
0.0
 10
5.2834594946
 20
3.1462105361
 30
0.0
 10
5.3241936626
 20
3.1528748055
 30
0.0
 10
5.3563094338
 20
3.1565739557
 30
0.0
 10
5.3896414856
 20
3.1588365874
 30
0.0
 10
5.4122854857
 20
3.1593318303
 30
0.0
 10
5.4238082298
 20
3.1593318303
 30
0.0
  0
SPLINE
  5
3C5
100
AcDbEntity
  8
ALL_ASSEMBLY_MEMBERS
100
AcDbSpline
 62
7
  6
CONTINUOUS
 70
0
 71
3
 72
37
 73
33
 74
0
 42
0.0000001
 43
0.0000001
 44
0.0000000001
 40
0.0
 40
0.0
 40
0.0
 40
0.0
 40
0.1700174183
 40
0.3280704284
 40
0.403049984
 40
0.4753930151
 40
0.5450605077
 40
0.6119656764
 40
0.6759875941
 40
0.7369011315
 40
0.7661091177
 40
0.7944046674
 40
0.8217090482
 40
0.8479455733
 40
0.8730325315
 40
0.8968390305
 40
0.9082158444
 40
0.9192070546
 40
0.9297780011
 40
0.9398957987
 40
0.9495292191
 40
0.9586355692
 40
0.9671666197
 40
0.9750845136
 40
0.9788067206
 40
0.9823644893
 40
0.9857412495
 40
0.9889251939
 40
0.9919157233
 40
0.9947284151
 40
0.9974011862
 40
1.0
 40
1.0
 40
1.0
 40
1.0
 10
5.4238082298
 20
2.503316679
 30
0.0
 10
5.392109708
 20
2.503316679
 30
0.0
 10
5.330941592
 20
2.5027725882
 30
0.0
 10
5.2558205663
 20
2.5006621312
 30
0.0
 10
5.1989369789
 20
2.4982217526
 30
0.0
 10
5.1585374903
 20
2.4960642143
 30
0.0
 10
5.1196674333
 20
2.493542613
 30
0.0
 10
5.0823795196
 20
2.490641772
 30
0.0
 10
5.0467625402
 20
2.4873509174
 30
0.0
 10
5.0181937542
 20
2.4842100696
 30
0.0
 10
4.9962888824
 20
2.4814471281
 30
0.0
 10
4.9806262234
 20
2.4792769675
 30
0.0
 10
4.9655435954
 20
2.476967508
 30
0.0
 10
4.9510911839
 20
2.4745068105
 30
0.0
 10
4.9373297467
 20
2.4718878235
 30
0.0
 10
4.9263434534
 20
2.4695200029
 30
0.0
 10
4.9179720846
 20
2.4675101103
 30
0.0
 10
4.9120267839
 20
2.4659696713
 30
0.0
 10
4.9063413781
 20
2.4643668289
 30
0.0
 10
4.9009399483
 20
2.4626956354
 30
0.0
 10
4.8958488773
 20
2.4609524777
 30
0.0
 10
4.8911010312
 20
2.4591290759
 30
0.0
 10
4.8867362917
 20
2.4572134733
 30
0.0
 10
4.8833859451
 20
2.4554976947
 30
0.0
 10
4.8809439785
 20
2.4540589949
 30
0.0
 10
4.8792780072
 20
2.4529747671
 30
0.0
 10
4.8777583382
 20
2.4518546404
 30
0.0
 10
4.8764067431
 20
2.450691921
 30
0.0
 10
4.8752455722
 20
2.4494793981
 30
0.0
 10
4.8742979065
 20
2.4482084457
 30
0.0
 10
4.8735891711
 20
2.4468705888
 30
0.0
 10
4.8732943984
 20
2.44592512
 30
0.0
 10
4.8731984579
 20
2.4454501833
 30
0.0
  0
SPLINE
  5
3C6
100
AcDbEntity
  8
ALL_ASSEMBLY_MEMBERS
100
AcDbSpline
 62
7
  6
CONTINUOUS
 70
0
 71
3
 72
39
 73
35
 74
0
 42
0.0000001
 43
0.0000001
 44
0.0000000001
 40
0.0
 40
0.0
 40
0.0
 40
0.0
 40
0.1618340393
 40
0.2394456524
 40
0.3149738048
 40
0.3884856511
 40
0.4599565069
 40
0.529327842
 40
0.5964960725
 40
0.6613237923
 40
0.7235806029
 40
0.7536589885
 40
0.7829540998
 40
0.8113888296
 40
0.8388873058
 40
0.865358245
 40
0.890645321
 40
0.9027900921
 40
0.9145628099
 40
0.9259303359
 40
0.9368606831
 40
0.9473116218
 40
0.9571972178
 40
0.9664266606
 40
0.9749202315
 40
0.9788686586
 40
0.9825952492
 40
0.9860827746
 40
0.9893215252
 40
0.9923056924
 40
0.9950277978
 40
0.9975384578
 40
0.9987618386
 40
1.0
 40
1.0
 40
1.0
 40
1.0
 10
5.4238082298
 20
2.404083543
 30
0.0
 10
5.3978391052
 20
2.404083543
 30
0.0
 10
5.3594150197
 20
2.4043388319
 30
0.0
 10
5.3088792807
 20
2.4052193299
 30
0.0
 10
5.2725197153
 20
2.4061144478
 30
0.0
 10
5.2371525177
 20
2.4072424601
 30
0.0
 10
5.2027824321
 20
2.4086096925
 30
0.0
 10
5.1694419871
 20
2.4102216813
 30
0.0
 10
5.1371827086
 20
2.4120927396
 30
0.0
 10
5.1060844551
 20
2.414235087
 30
0.0
 10
5.0809482163
 20
2.4162953355
 30
0.0
 10
5.0615158144
 20
2.4181206048
 30
0.0
 10
5.0474996419
 20
2.4195670682
 30
0.0
 10
5.033911
 20
2.4211164469
 30
0.0
 10
5.0207922092
 20
2.4227780062
 30
0.0
 10
5.0081988377
 20
2.4245584704
 30
0.0
 10
4.9980728608
 20
2.4261812582
 30
0.0
 10
4.9903000523
 20
2.4275702483
 30
0.0
 10
4.9847404156
 20
2.4286436877
 30
0.0
 10
4.9793896076
 20
2.4297673092
 30
0.0
 10
4.9742678278
 20
2.4309452194
 30
0.0
 10
4.9694039049
 20
2.4321785235
 30
0.0
 10
4.9648411577
 20
2.4334823219
 30
0.0
 10
4.9606323955
 20
2.4348701806
 30
0.0
 10
4.9573905828
 20
2.4361361768
 30
0.0
 10
4.95503024
 20
2.4372150954
 30
0.0
 10
4.9534374567
 20
2.4380363893
 30
0.0
 10
4.951994589
 20
2.4388943623
 30
0.0
 10
4.9507196302
 20
2.4397933573
 30
0.0
 10
4.9496316456
 20
2.4407349753
 30
0.0
 10
4.9487707644
 20
2.4417427615
 30
0.0
 10
4.9482867576
 20
2.4426746302
 30
0.0
 10
4.9480909092
 20
2.4434512983
 30
0.0
 10
4.9480582298
 20
2.4438471298
 30
0.0
 10
4.9480582298
 20
2.4440458146
 30
0.0
  0
SPLINE
  5
3C7
100
AcDbEntity
  8
ALL_ASSEMBLY_MEMBERS
100
AcDbSpline
 62
7
  6
CONTINUOUS
 70
0
 71
3
 72
39
 73
35
 74
0
 42
0.0000001
 43
0.0000001
 44
0.0000000001
 40
0.0
 40
0.0
 40
0.0
 40
0.0
 40
0.0012381614
 40
0.0024615422
 40
0.0049722022
 40
0.0076943076
 40
0.0106784748
 40
0.0139172254
 40
0.0174047508
 40
0.0211313414
 40
0.0250797685
 40
0.0335733394
 40
0.0428027822
 40
0.0526883782
 40
0.0631393169
 40
0.0740696641
 40
0.0854371901
 40
0.0972099079
 40
0.109354679
 40
0.134641755
 40
0.1611126942
 40
0.1886111704
 40
0.2170459002
 40
0.2463410115
 40
0.2764193971
 40
0.3386762077
 40
0.4035039275
 40
0.470672158
 40
0.5400434931
 40
0.6115143489
 40
0.6850261952
 40
0.7605543476
 40
0.8381659607
 40
1.0
 40
1.0
 40
1.0
 40
1.0
 10
5.8995582298
 20
2.4440458146
 30
0.0
 10
5.8995582298
 20
2.4438471298
 30
0.0
 10
5.8995255505
 20
2.4434512983
 30
0.0
 10
5.8993297021
 20
2.4426746302
 30
0.0
 10
5.8988456952
 20
2.4417427615
 30
0.0
 10
5.897984814
 20
2.4407349753
 30
0.0
 10
5.8968968294
 20
2.4397933573
 30
0.0
 10
5.8956218706
 20
2.4388943623
 30
0.0
 10
5.8941790029
 20
2.4380363893
 30
0.0
 10
5.8925862197
 20
2.4372150954
 30
0.0
 10
5.8902258769
 20
2.4361361768
 30
0.0
 10
5.8869840641
 20
2.4348701806
 30
0.0
 10
5.8827753019
 20
2.4334823219
 30
0.0
 10
5.8782125547
 20
2.4321785235
 30
0.0
 10
5.8733486318
 20
2.4309452194
 30
0.0
 10
5.868226852
 20
2.4297673092
 30
0.0
 10
5.8628760441
 20
2.4286436877
 30
0.0
 10
5.8573164073
 20
2.4275702483
 30
0.0
 10
5.8495435988
 20
2.4261812582
 30
0.0
 10
5.8394176219
 20
2.4245584704
 30
0.0
 10
5.8268242504
 20
2.4227780062
 30
0.0
 10
5.8137054596
 20
2.4211164469
 30
0.0
 10
5.8001168178
 20
2.4195670682
 30
0.0
 10
5.7861006452
 20
2.4181206048
 30
0.0
 10
5.7666682434
 20
2.4162953355
 30
0.0
 10
5.7415320045
 20
2.414235087
 30
0.0
 10
5.710433751
 20
2.4120927396
 30
0.0
 10
5.6781744725
 20
2.4102216813
 30
0.0
 10
5.6448340275
 20
2.4086096925
 30
0.0
 10
5.6104639419
 20
2.4072424601
 30
0.0
 10
5.5750967444
 20
2.4061144478
 30
0.0
 10
5.5387371789
 20
2.4052193299
 30
0.0
 10
5.4882014399
 20
2.4043388319
 30
0.0
 10
5.4497773544
 20
2.404083543
 30
0.0
 10
5.4238082298
 20
2.404083543
 30
0.0
  0
SPLINE
  5
3C8
100
AcDbEntity
  8
ALL_ASSEMBLY_MEMBERS
100
AcDbSpline
 62
7
  6
CONTINUOUS
 70
0
 71
3
 72
31
 73
27
 74
0
 42
0.0000001
 43
0.0000001
 44
0.0000000001
 40
0.0
 40
0.0
 40
0.0
 40
0.0
 40
0.0143011853
 40
0.0286208765
 40
0.0429759989
 40
0.0573769627
 40
0.0718275642
 40
0.0863277922
 40
0.1154761297
 40
0.1448086678
 40
0.1743005734
 40
0.203935555
 40
0.2336985723
 40
0.2935754859
 40
0.3236785724
 40
0.3538742032
 40
0.4145555282
 40
0.4756841531
 40
0.5373528961
 40
0.5996950692
 40
0.6628685865
 40
0.7270671521
 40
0.7925371896
 40
0.8596168176
 40
0.9286557238
 40
1.0
 40
1.0
 40
1.0
 40
1.0
 10
5.0867069469
 20
3.1846655234
 30
0.0
 10
5.0873229754
 20
3.1865071709
 30
0.0
 10
5.0886627175
 20
3.1901575794
 30
0.0
 10
5.090927113
 20
3.1955379272
 30
0.0
 10
5.0934303585
 20
3.2008263835
 30
0.0
 10
5.096148005
 20
3.2060275176
 30
0.0
 10
5.0990577989
 20
3.2111460742
 30
0.0
 10
5.1031727679
 20
3.2178784146
 30
0.0
 10
5.1087169843
 20
3.2260992281
 30
0.0
 10
5.1158927131
 20
3.2356549165
 30
0.0
 10
5.1235318016
 20
3.2449295106
 30
0.0
 10
5.1315891172
 20
3.2539213277
 30
0.0
 10
5.1428592142
 20
3.2655576781
 30
0.0
 10
5.1548225432
 20
3.2765943692
 30
0.0
 10
5.1673753269
 20
3.2870249157
 30
0.0
 10
5.1803572498
 20
3.2970962954
 30
0.0
 10
5.1972946021
 20
3.3089221819
 30
0.0
 10
5.218640637
 20
3.3218050007
 30
0.0
 10
5.2409942531
 20
3.3333488877
 30
0.0
 10
5.2643149664
 20
3.3435042852
 30
0.0
 10
5.2885759878
 20
3.3522218056
 30
0.0
 10
5.3137651284
 20
3.3594459907
 30
0.0
 10
5.3398894408
 20
3.3651269863
 30
0.0
 10
5.3669734401
 20
3.3692228928
 30
0.0
 10
5.3950526393
 20
3.3716970184
 30
0.0
 10
5.4141204468
 20
3.3722315365
 30
0.0
 10
5.4238082298
 20
3.3722315365
 30
0.0
  0
SPLINE
  5
3C9
100
AcDbEntity
  8
ALL_ASSEMBLY_MEMBERS
100
AcDbSpline
 62
7
  6
CONTINUOUS
 70
0
 71
3
 72
23
 73
19
 74
0
 42
0.0000001
 43
0.0000001
 44
0.0000000001
 40
0.0
 40
0.0
 40
0.0
 40
0.0
 40
0.0614806586
 40
0.122570461
 40
0.1834738008
 40
0.2443788642
 40
0.3054552752
 40
0.3668227374
 40
0.4285572251
 40
0.4907011705
 40
0.5532760582
 40
0.6162797367
 40
0.6796753441
 40
0.7433950921
 40
0.8073548685
 40
0.8714799145
 40
0.9357027443
 40
1.0
 40
1.0
 40
1.0
 40
1.0
 10
5.4332208059
 20
3.5786011778
 30
0.0
 10
5.4418523145
 20
3.5783082731
 30
0.0
 10
5.4590441183
 20
3.5769180815
 30
0.0
 10
5.4844621391
 20
3.5724428198
 30
0.0
 10
5.5092787268
 20
3.5656491013
 30
0.0
 10
5.5333616373
 20
3.5566000995
 30
0.0
 10
5.5565747824
 20
3.5453608109
 30
0.0
 10
5.5787992163
 20
3.5320507773
 30
0.0
 10
5.5999165005
 20
3.5167911569
 30
0.0
 10
5.6198047614
 20
3.4997009964
 30
0.0
 10
5.6383330397
 20
3.4808951389
 30
0.0
 10
5.655391198
 20
3.4605185677
 30
0.0
 10
5.6708941191
 20
3.4387390825
 30
0.0
 10
5.6847412021
 20
3.4157142016
 30
0.0
 10
5.6968064476
 20
3.3915923262
 30
0.0
 10
5.7069650413
 20
3.3665297008
 30
0.0
 10
5.7150955279
 20
3.3406885342
 30
0.0
 10
5.7190153779
 20
3.3230338417
 30
0.0
 10
5.7205349332
 20
3.3141304457
 30
0.0
  0
SPLINE
  5
3CA
100
AcDbEntity
  8
ALL_ASSEMBLY_MEMBERS
100
AcDbSpline
 62
7
  6
CONTINUOUS
 70
0
 71
3
 72
24
 73
20
 74
0
 42
0.0000001
 43
0.0000001
 44
0.0000000001
 40
0.0
 40
0.0
 40
0.0
 40
0.0
 40
0.0328642588
 40
0.0656375702
 40
0.130926976
 40
0.1958380954
 40
0.2602750153
 40
0.3241506766
 40
0.3873745511
 40
0.4499097566
 40
0.5117657655
 40
0.5730058594
 40
0.6337348935
 40
0.6941029853
 40
0.7543124651
 40
0.8146406959
 40
0.8754423882
 40
0.937097256
 40
1.0
 40
1.0
 40
1.0
 40
1.0
 10
5.128046971
 20
3.3139946669
 30
0.0
 10
5.1292067877
 20
3.3182990429
 30
0.0
 10
5.1317731492
 20
3.3268301589
 30
0.0
 10
5.1377351265
 20
3.3435648523
 30
0.0
 10
5.1465317103
 20
3.3638760078
 30
0.0
 10
5.1588328532
 20
3.3872616306
 30
0.0
 10
5.1726665033
 20
3.4095494743
 30
0.0
 10
5.1878882179
 20
3.4306299955
 30
0.0
 10
5.2043623235
 20
3.4504127961
 30
0.0
 10
5.2220175183
 20
3.4687733134
 30
0.0
 10
5.2407942283
 20
3.4855869498
 30
0.0
 10
5.2606227593
 20
3.5007485906
 30
0.0
 10
5.2814337456
 20
3.5141648961
 30
0.0
 10
5.3031674085
 20
3.5257382625
 30
0.0
 10
5.3257730577
 20
3.535367035
 30
0.0
 10
5.3492038729
 20
3.5429617491
 30
0.0
 10
5.37341598
 20
3.5484581146
 30
0.0
 10
5.3983697885
 20
3.5517929775
 30
0.0
 10
5.415275744
 20
3.5525255181
 30
0.0
 10
5.4238082298
 20
3.5525255181
 30
0.0
  0
SPLINE
  5
3CB
100
AcDbEntity
  8
ALL_ASSEMBLY_MEMBERS
100
AcDbSpline
 62
7
  6
CONTINUOUS
 70
0
 71
3
 72
32
 73
28
 74
0
 42
0.0000001
 43
0.0000001
 44
0.0000000001
 40
0.0
 40
0.0
 40
0.0
 40
0.0
 40
0.16601135
 40
0.3205072584
 40
0.3939165357
 40
0.4648579675
 40
0.5333203592
 40
0.5992476621
 40
0.6625560976
 40
0.7230768041
 40
0.7522301277
 40
0.7805839365
 40
0.8346298846
 40
0.8602011259
 40
0.8725870495
 40
0.8846865794
 40
0.9079652822
 40
0.9298646115
 40
0.9402379932
 40
0.9501946692
 40
0.9597019604
 40
0.9687360821
 40
0.977288608
 40
0.9853434399
 40
0.9928706807
 40
0.9964698427
 40
1.0
 40
1.0
 40
1.0
 40
1.0
 10
5.4238082298
 20
2.812828418
 30
0.0
 10
5.4516201952
 20
2.812828418
 30
0.0
 10
5.5053224723
 20
2.8117797527
 30
0.0
 10
5.571209575
 20
2.8076751645
 30
0.0
 10
5.6210505215
 20
2.8028961275
 30
0.0
 10
5.6564576569
 20
2.7986914245
 30
0.0
 10
5.6905153538
 20
2.7938325675
 30
0.0
 10
5.7231804972
 20
2.7883372975
 30
0.0
 10
5.7543822392
 20
2.7822293125
 30
0.0
 10
5.7793823489
 20
2.7765647646
 30
0.0
 10
5.7985517277
 20
2.7717110867
 30
0.0
 10
5.816581869
 20
2.7667920517
 30
0.0
 10
5.8338879872
 20
2.7615031759
 30
0.0
 10
5.8484391974
 20
2.7564142563
 30
0.0
 10
5.8562878754
 20
2.753459545
 30
0.0
 10
5.8637267679
 20
2.7505100741
 30
0.0
 10
5.8725475542
 20
2.7467254706
 30
0.0
 10
5.8809160861
 20
2.7426402227
 30
0.0
 10
5.8871091019
 20
2.739216994
 30
0.0
 10
5.8913871115
 20
2.7366283733
 30
0.0
 10
5.8953495902
 20
2.7339611121
 30
0.0
 10
5.8989606562
 20
2.7312056233
 30
0.0
 10
5.9021814489
 20
2.7283563343
 30
0.0
 10
5.9049624733
 20
2.7254117426
 30
0.0
 10
5.9068283737
 20
2.7227723879
 30
0.0
 10
5.907917418
 20
2.7205665325
 30
0.0
 10
5.9083147567
 20
2.7194360037
 30
0.0
 10
5.9084725327
 20
2.7188660289
 30
0.0
  0
SPLINE
  5
3CC
100
AcDbEntity
  8
ALL_ASSEMBLY_MEMBERS
100
AcDbSpline
 62
7
  6
CONTINUOUS
 70
0
 71
3
 72
31
 73
27
 74
0
 42
0.0000001
 43
0.0000001
 44
0.0000000001
 40
0.0
 40
0.0
 40
0.0
 40
0.0
 40
0.0713442762
 40
0.1403831824
 40
0.2074628104
 40
0.2729328479
 40
0.3371314135
 40
0.4003049308
 40
0.4626471039
 40
0.5243158469
 40
0.5854444718
 40
0.6461257968
 40
0.6763214276
 40
0.7064245141
 40
0.7663014277
 40
0.796064445
 40
0.8256994266
 40
0.8551913322
 40
0.8845238703
 40
0.9136722078
 40
0.9281724358
 40
0.9426230373
 40
0.9570240011
 40
0.9713791235
 40
0.9856988147
 40
1.0
 40
1.0
 40
1.0
 40
1.0
 10
5.4238082298
 20
3.3722315365
 30
0.0
 10
5.4334960128
 20
3.3722315365
 30
0.0
 10
5.4525638203
 20
3.3716970184
 30
0.0
 10
5.4806430195
 20
3.3692228928
 30
0.0
 10
5.5077270188
 20
3.3651269863
 30
0.0
 10
5.5338513312
 20
3.3594459907
 30
0.0
 10
5.5590404718
 20
3.3522218056
 30
0.0
 10
5.5833014932
 20
3.3435042852
 30
0.0
 10
5.6066222066
 20
3.3333488877
 30
0.0
 10
5.6289758226
 20
3.3218050007
 30
0.0
 10
5.6503218575
 20
3.3089221819
 30
0.0
 10
5.6672592099
 20
3.2970962954
 30
0.0
 10
5.6802411327
 20
3.2870249157
 30
0.0
 10
5.6927939165
 20
3.2765943692
 30
0.0
 10
5.7047572455
 20
3.2655576781
 30
0.0
 10
5.7160273425
 20
3.2539213277
 30
0.0
 10
5.7240846581
 20
3.2449295106
 30
0.0
 10
5.7317237465
 20
3.2356549165
 30
0.0
 10
5.7388994753
 20
3.2260992281
 30
0.0
 10
5.7444436917
 20
3.2178784146
 30
0.0
 10
5.7485586607
 20
3.2111460742
 30
0.0
 10
5.7514684546
 20
3.2060275176
 30
0.0
 10
5.7541861011
 20
3.2008263835
 30
0.0
 10
5.7566893466
 20
3.1955379272
 30
0.0
 10
5.7589537422
 20
3.1901575794
 30
0.0
 10
5.7602934842
 20
3.1865071709
 30
0.0
 10
5.7609095128
 20
3.1846655234
 30
0.0
  0
SPLINE
  5
3CD
100
AcDbEntity
  8
ALL_ASSEMBLY_MEMBERS
100
AcDbSpline
 62
7
  6
CONTINUOUS
 70
0
 71
3
 72
37
 73
33
 74
0
 42
0.0000001
 43
0.0000001
 44
0.0000000001
 40
0.0
 40
0.0
 40
0.0
 40
0.0
 40
0.0025988138
 40
0.0052715849
 40
0.0080842767
 40
0.0110748061
 40
0.0142587505
 40
0.0176355107
 40
0.0211932794
 40
0.0249154864
 40
0.0328333803
 40
0.0413644308
 40
0.0504707809
 40
0.0601042014
 40
0.0702219989
 40
0.0807929454
 40
0.0917841556
 40
0.1031609695
 40
0.1269674685
 40
0.1520544267
 40
0.1782909518
 40
0.2055953326
 40
0.2338908824
 40
0.2630988685
 40
0.3240124059
 40
0.3880343236
 40
0.4549394923
 40
0.5246069849
 40
0.596950016
 40
0.6719295716
 40
0.8299825817
 40
1.0
 40
1.0
 40
1.0
 40
1.0
 10
5.9744180017
 20
2.4454501833
 30
0.0
 10
5.9743220612
 20
2.44592512
 30
0.0
 10
5.9740272885
 20
2.4468705888
 30
0.0
 10
5.9733185532
 20
2.4482084457
 30
0.0
 10
5.9723708874
 20
2.4494793981
 30
0.0
 10
5.9712097166
 20
2.450691921
 30
0.0
 10
5.9698581214
 20
2.4518546404
 30
0.0
 10
5.9683384524
 20
2.4529747671
 30
0.0
 10
5.9666724811
 20
2.4540589949
 30
0.0
 10
5.9642305146
 20
2.4554976947
 30
0.0
 10
5.9608801679
 20
2.4572134733
 30
0.0
 10
5.9565154285
 20
2.4591290759
 30
0.0
 10
5.9517675823
 20
2.4609524777
 30
0.0
 10
5.9466765113
 20
2.4626956354
 30
0.0
 10
5.9412750815
 20
2.4643668289
 30
0.0
 10
5.9355896757
 20
2.4659696713
 30
0.0
 10
5.929644375
 20
2.4675101103
 30
0.0
 10
5.9212730062
 20
2.4695200029
 30
0.0
 10
5.9102867129
 20
2.4718878235
 30
0.0
 10
5.8965252757
 20
2.4745068105
 30
0.0
 10
5.8820728643
 20
2.476967508
 30
0.0
 10
5.8669902362
 20
2.4792769676
 30
0.0
 10
5.8513275773
 20
2.4814471281
 30
0.0
 10
5.8294227054
 20
2.4842100696
 30
0.0
 10
5.8008539194
 20
2.4873509174
 30
0.0
 10
5.76523694
 20
2.490641772
 30
0.0
 10
5.7279490263
 20
2.493542613
 30
0.0
 10
5.6890789693
 20
2.4960642143
 30
0.0
 10
5.6486794807
 20
2.4982217526
 30
0.0
 10
5.5917958933
 20
2.5006621312
 30
0.0
 10
5.5166748676
 20
2.5027725882
 30
0.0
 10
5.4555067517
 20
2.503316679
 30
0.0
 10
5.4238082298
 20
2.503316679
 30
0.0
  0
SPLINE
  5
3CE
100
AcDbEntity
  8
ALL_ASSEMBLY_MEMBERS
100
AcDbSpline
 62
7
  6
CONTINUOUS
 70
0
 71
3
 72
27
 73
23
 74
0
 42
0.0000001
 43
0.0000001
 44
0.0000000001
 40
0.0
 40
0.0
 40
0.0
 40
0.0
 40
0.0779745629
 40
0.1532069422
 40
0.2260010367
 40
0.2966529007
 40
0.4324343117
 40
0.5615916489
 40
0.6237972095
 40
0.6843612672
 40
0.7140049628
 40
0.7431949394
 40
0.8000486301
 40
0.827648328
 40
0.8546405768
 40
0.8809632997
 40
0.9065441978
 40
0.9312877583
 40
0.9551198809
 40
0.9666804283
 40
0.9780103039
 40
1.0
 40
1.0
 40
1.0
 40
1.0
 10
5.4238082298
 20
3.1593318303
 30
0.0
 10
5.4353309739
 20
3.1593318303
 30
0.0
 10
5.4579749741
 20
3.1588365874
 30
0.0
 10
5.4913070259
 20
3.1565739557
 30
0.0
 10
5.523422797
 20
3.1528748055
 30
0.0
 10
5.564156965
 20
3.1462105361
 30
0.0
 10
5.6124897161
 20
3.1347572415
 30
0.0
 10
5.658326721
 20
3.11913685
 30
0.0
 10
5.6925850823
 20
3.1045320453
 30
0.0
 10
5.7128408842
 20
3.0946582004
 30
0.0
 10
5.7283832665
 20
3.0863025356
 30
0.0
 10
5.7432159159
 20
3.0777991983
 30
0.0
 10
5.7574205294
 20
3.0688155927
 30
0.0
 10
5.7708752796
 20
3.0593135061
 30
0.0
 10
5.78038394
 20
3.0520583639
 30
0.0
 10
5.7893490038
 20
3.0445987251
 30
0.0
 10
5.7976952411
 20
3.0369330104
 30
0.0
 10
5.8053004291
 20
3.0290322939
 30
0.0
 10
5.8109645015
 20
3.0221678808
 30
0.0
 10
5.8149270348
 20
3.0165075147
 30
0.0
 10
5.8183993963
 20
3.0108592324
 30
0.0
 10
5.8205540811
 20
3.0063846382
 30
0.0
 10
5.8215687978
 20
3.0032975886
 30
0.0
  0
SPLINE
  5
3CF
100
AcDbEntity
  8
ALL_ASSEMBLY_MEMBERS
100
AcDbSpline
 62
7
  6
CONTINUOUS
 70
0
 71
3
 72
32
 73
28
 74
0
 42
0.0000001
 43
0.0000001
 44
0.0000000001
 40
0.0
 40
0.0
 40
0.0
 40
0.0
 40
0.0035301573
 40
0.0071293193
 40
0.0146565601
 40
0.022711392
 40
0.0312639179
 40
0.0402980396
 40
0.0498053308
 40
0.0597620068
 40
0.0701353885
 40
0.0920347178
 40
0.1153134206
 40
0.1274129505
 40
0.1397988741
 40
0.1653701154
 40
0.2194160635
 40
0.2477698723
 40
0.2769231959
 40
0.3374439024
 40
0.4007523379
 40
0.4666796408
 40
0.5351420325
 40
0.6060834643
 40
0.6794927416
 40
0.83398865
 40
1.0
 40
1.0
 40
1.0
 40
1.0
 10
4.9391439269
 20
2.7188660289
 30
0.0
 10
4.9393017029
 20
2.7194360037
 30
0.0
 10
4.9396990416
 20
2.7205665325
 30
0.0
 10
4.9407880859
 20
2.7227723879
 30
0.0
 10
4.9426539864
 20
2.7254117426
 30
0.0
 10
4.9454350108
 20
2.7283563343
 30
0.0
 10
4.9486558035
 20
2.7312056233
 30
0.0
 10
4.9522668694
 20
2.7339611121
 30
0.0
 10
4.9562293482
 20
2.7366283733
 30
0.0
 10
4.9605073578
 20
2.739216994
 30
0.0
 10
4.9667003735
 20
2.7426402227
 30
0.0
 10
4.9750689054
 20
2.7467254706
 30
0.0
 10
4.9838896917
 20
2.7505100741
 30
0.0
 10
4.9913285842
 20
2.753459545
 30
0.0
 10
4.9991772622
 20
2.7564142563
 30
0.0
 10
5.0137284724
 20
2.7615031759
 30
0.0
 10
5.0310345907
 20
2.7667920517
 30
0.0
 10
5.0490647319
 20
2.7717110867
 30
0.0
 10
5.0682341107
 20
2.7765647646
 30
0.0
 10
5.0932342204
 20
2.7822293125
 30
0.0
 10
5.1244359624
 20
2.7883372975
 30
0.0
 10
5.1571011058
 20
2.7938325675
 30
0.0
 10
5.1911588027
 20
2.7986914245
 30
0.0
 10
5.2265659382
 20
2.8028961275
 30
0.0
 10
5.2764068847
 20
2.8076751645
 30
0.0
 10
5.3422939873
 20
2.8117797527
 30
0.0
 10
5.3959962645
 20
2.812828418
 30
0.0
 10
5.4238082298
 20
2.812828418
 30
0.0
  0
SPLINE
  5
3D0
100
AcDbEntity
  8
ALL_ASSEMBLY_MEMBERS
100
AcDbSpline
 62
7
  6
CONTINUOUS
 70
0
 71
3
 72
24
 73
20
 74
0
 42
0.0000001
 43
0.0000001
 44
0.0000000001
 40
0.0
 40
0.0
 40
0.0
 40
0.0
 40
0.0629027444
 40
0.1245576127
 40
0.1853593055
 40
0.2456875367
 40
0.3058970168
 40
0.3662651088
 40
0.4269941429
 40
0.4882342367
 40
0.5500902454
 40
0.6126254506
 40
0.6758493247
 40
0.7397249856
 40
0.8041619052
 40
0.8690730244
 40
0.9343624301
 40
0.9671357413
 40
1.0
 40
1.0
 40
1.0
 40
1.0
 10
5.4238082298
 20
3.5525255181
 30
0.0
 10
5.4323407148
 20
3.5525255181
 30
0.0
 10
5.4492466686
 20
3.5517929776
 30
0.0
 10
5.4742004747
 20
3.5484581154
 30
0.0
 10
5.4984125795
 20
3.542961751
 30
0.0
 10
5.5218433926
 20
3.5353670384
 30
0.0
 10
5.54444904
 20
3.5257382678
 30
0.0
 10
5.5661827011
 20
3.5141649036
 30
0.0
 10
5.586993686
 20
3.5007486006
 30
0.0
 10
5.6068222157
 20
3.4855869626
 30
0.0
 10
5.6255989248
 20
3.4687733293
 30
0.0
 10
5.6432541189
 20
3.4504128152
 30
0.0
 10
5.6597282241
 20
3.4306300181
 30
0.0
 10
5.6749499387
 20
3.4095495005
 30
0.0
 10
5.6887835893
 20
3.3872616604
 30
0.0
 10
5.7010847331
 20
3.3638760414
 30
0.0
 10
5.7098813183
 20
3.3435648892
 30
0.0
 10
5.7158432973
 20
3.3268301984
 30
0.0
 10
5.71840966
 20
3.3182990838
 30
0.0
 10
5.7195694774
 20
3.3139947086
 30
0.0
  0
SPLINE
  5
3D1
100
AcDbEntity
  8
ALL_ASSEMBLY_MEMBERS
100
AcDbSpline
 62
7
  6
CONTINUOUS
 70
0
 71
3
 72
23
 73
19
 74
0
 42
0.0000001
 43
0.0000001
 44
0.0000000001
 40
0.0
 40
0.0
 40
0.0
 40
0.0
 40
0.0642973631
 40
0.1285202903
 40
0.1926454023
 40
0.2566051891
 40
0.3203248645
 40
0.3837202902
 40
0.4467236828
 40
0.5092981986
 40
0.5714417227
 40
0.6331757661
 40
0.6945428153
 40
0.7556189226
 40
0.8165239243
 40
0.8774275527
 40
0.9385180798
 40
1.0
 40
1.0
 40
1.0
 40
1.0
 10
5.1270814189
 20
3.3141298162
 30
0.0
 10
5.1286011817
 20
3.3230345532
 30
0.0
 10
5.1325217132
 20
3.340691885
 30
0.0
 10
5.1406538576
 20
3.3665367965
 30
0.0
 10
5.1508146722
 20
3.3916028918
 30
0.0
 10
5.1628826625
 20
3.4157278836
 30
0.0
 10
5.1767329509
 20
3.4387554632
 30
0.0
 10
5.1922394895
 20
3.4605371653
 30
0.0
 10
5.2093016555
 20
3.4809153895
 30
0.0
 10
5.2278342958
 20
3.4997222563
 30
0.0
 10
5.2477271734
 20
3.5168127694
 30
0.0
 10
5.2688492804
 20
3.532072036
 30
0.0
 10
5.2910786919
 20
3.5453809554
 30
0.0
 10
5.3142969304
 20
3.5566182965
 30
0.0
 10
5.338384965
 20
3.5656645293
 30
0.0
 10
5.3632066414
 20
3.5724546864
 30
0.0
 10
5.3886296653
 20
3.5769255545
 30
0.0
 10
5.4058246119
 20
3.5783122522
 30
0.0
 10
5.4144576452
 20
3.5786032745
 30
0.0
  0
SPLINE
  5
3D2
100
AcDbEntity
  8
ALL_ASSEMBLY_MEMBERS
100
AcDbSpline
 62
7
  6
CONTINUOUS
 70
0
 71
3
 72
32
 73
28
 74
0
 42
0.0000001
 43
0.0000001
 44
0.0000000001
 40
0.0
 40
0.0
 40
0.0
 40
0.0
 40
0.0076135935
 40
0.0156140842
 40
0.0240958579
 40
0.0330320825
 40
0.0424159914
 40
0.0522404261
 40
0.0624836766
 40
0.0731164323
 40
0.0841177036
 40
0.0954669871
 40
0.1071405728
 40
0.1191139405
 40
0.1438983247
 40
0.1697105641
 40
0.2240878481
 40
0.2525390977
 40
0.2817481899
 40
0.3422678145
 40
0.4054369587
 40
0.4711000327
 40
0.5391835708
 40
0.6824630076
 40
0.7577220347
 40
0.8355898193
 40
1.0
 40
1.0
 40
1.0
 40
1.0
 10
4.9544044607
 20
2.7728080651
 30
0.0
 10
4.9547502847
 20
2.7740052236
 30
0.0
 10
4.9557679773
 20
2.7763758464
 30
0.0
 10
4.9579799272
 20
2.7796578056
 30
0.0
 10
4.9607322784
 20
2.7827873901
 30
0.0
 10
4.9638974018
 20
2.7858300219
 30
0.0
 10
4.9674353927
 20
2.7887848353
 30
0.0
 10
4.9713079115
 20
2.79165874
 30
0.0
 10
4.9754807649
 20
2.7944605419
 30
0.0
 10
4.9799219363
 20
2.7972005574
 30
0.0
 10
4.9846087636
 20
2.7998810465
 30
0.0
 10
4.9895209407
 20
2.8025055761
 30
0.0
 10
4.9946390473
 20
2.8050782135
 30
0.0
 10
5.0017966432
 20
2.8084854228
 30
0.0
 10
5.0111708924
 20
2.8126141713
 30
0.0
 10
5.0271093101
 20
2.8190345634
 30
0.0
 10
5.0438712265
 20
2.8249937431
 30
0.0
 10
5.0613375993
 20
2.8305791498
 30
0.0
 10
5.0798740078
 20
2.836108494
 30
0.0
 10
5.1040455742
 20
2.8426072767
 30
0.0
 10
5.1342251106
 20
2.8496736936
 30
0.0
 10
5.1658171379
 20
2.8560739229
 30
0.0
 10
5.2104999644
 20
2.8637968303
 30
0.0
 10
5.2570468553
 20
2.8698443142
 30
0.0
 10
5.3053655089
 20
2.8742224675
 30
0.0
 10
5.3572347033
 20
2.8775479775
 30
0.0
 10
5.3968994277
 20
2.8785075384
 30
0.0
 10
5.4238082298
 20
2.8785075384
 30
0.0
  0
SPLINE
  5
3D3
100
AcDbEntity
  8
ALL_ASSEMBLY_MEMBERS
100
AcDbSpline
 62
7
  6
CONTINUOUS
 70
0
 71
3
 72
23
 73
19
 74
0
 42
0.0000001
 43
0.0000001
 44
0.0000000001
 40
0.0
 40
0.0
 40
0.0
 40
0.0
 40
0.065673309
 40
0.1311219039
 40
0.1963200796
 40
0.2611682655
 40
0.3255620561
 40
0.3893914605
 40
0.4525713241
 40
0.5150605833
 40
0.5768634702
 40
0.6380262237
 40
0.6986304498
 40
0.7588073136
 40
0.8187470116
 40
0.8787184802
 40
0.939026494
 40
1.0
 40
1.0
 40
1.0
 40
1.0
 10
5.1281354292
 20
3.3145059034
 30
0.0
 10
5.1298595614
 20
3.3235073462
 30
0.0
 10
5.1342803751
 20
3.3413004956
 30
0.0
 10
5.1432020774
 20
3.3672332683
 30
0.0
 10
5.1540466831
 20
3.3922959952
 30
0.0
 10
5.1666299112
 20
3.4163639853
 30
0.0
 10
5.1808165832
 20
3.4392981958
 30
0.0
 10
5.1964730679
 20
3.4609686163
 30
0.0
 10
5.2135036177
 20
3.4812327287
 30
0.0
 10
5.2318378087
 20
3.4999341892
 30
0.0
 10
5.2513895257
 20
3.5169350263
 30
0.0
 10
5.2720576811
 20
3.5321219938
 30
0.0
 10
5.2937503682
 20
3.5453796163
 30
0.0
 10
5.3163818511
 20
3.5565886339
 30
0.0
 10
5.3398700922
 20
3.5656312596
 30
0.0
 10
5.3641236994
 20
3.5724308944
 30
0.0
 10
5.3890551942
 20
3.5769157394
 30
0.0
 10
5.405954316
 20
3.5783051827
 30
0.0
 10
5.4144584214
 20
3.5785993479
 30
0.0
  0
ENDSEC
  0
SECTION
  2
OBJECTS
  0
DICTIONARY
  5
C
100
AcDbDictionary
280
0
281
1
  3
ACAD_GROUP
350
D
  3
ACAD_MLINESTYLE
350
17
  3
ACAD_LAYOUT
350
1A
  3
ACAD_PLOTSETTINGS
350
19
  3
ACAD_PLOTSTYLENAME
350
E
  0
DICTIONARY
  5
D
102
{ACAD_REACTORS
330
C
102
}
100
AcDbDictionary
280
0
281
1
  0
ACDBDICTIONARYWDFLT
  5
E
102
{ACAD_REACTORS
330
C
102
}
100
AcDbDictionary
281
1
  3
Normal
350
F
100
AcDbDictionaryWithDefault
340
F
  0
DICTIONARY
  5
17
102
{ACAD_REACTORS
330
C
102
}
100
AcDbDictionary
280
0
281
1
  3
Standard
350
18
  0
DICTIONARY
  5
19
102
{ACAD_REACTORS
330
C
102
}
100
AcDbDictionary
281
1
  0
DICTIONARY
  5
1A
102
{ACAD_REACTORS
330
C
102
}
100
AcDbDictionary
281
1
  3
Model
350
3D4
  3
Layout1
350
3D5
  0
ACDBPLACEHOLDER
  5
F
102
{ACAD_REACTORS
330
E
102
}
  0
MLINESTYLE
  5
18
102
{ACAD_REACTORS
330
17
102
}
100
AcDbMlineStyle
  2
STANDARD
 70
0
  3

 62
256
 51
90.0
 52
90.0
 71
2
 49
0.5
 62
256
  6
BYLAYER
 49
-0.5
 62
256
  6
BYLAYER
  0
LAYOUT
  5
3D4
102
{ACAD_REACTORS
330
1A
102
}
100
AcDbPlotSettings
  1

  2
none_device
  4
ANSI_A_(11.00_x_8.50_Inches)
  6

 40
0.0
 41
0.0
 42
0.0
 43
0.0
 44
279.4
 45
215.9
 46
0.0
 47
0.0
 48
0.0
 49
0.0
140
0.0
141
0.0
142
1.0
143
1.0
 70
1024
 72
0
 73
0
 74
0
  7

 75
0
147
1.0
148
0.0
149
0.0
100
AcDbLayout
  1
Model
 70
0
 71
0
 10
0.0
 20
0.0
 11
11.0
 21
8.5
 12
0.0
 22
0.0
 32
0.0
 14
0.0
 24
0.0
 34
0.0
 15
0.0
 25
0.0
 35
0.0
146
0.0
 13
0.0
 23
0.0
 33
0.0
 16
1.0
 26
0.0
 36
0.0
 17
0.0
 27
1.0
 37
0.0
 76
0
330
21D
345
0
346
0
  0
LAYOUT
  5
3D5
102
{ACAD_REACTORS
330
1A
102
}
100
AcDbPlotSettings
  1

  2
none_device
  4
ANSI_A_(11.00_x_8.50_Inches)
  6

 40
0.0
 41
0.0
 42
0.0
 43
0.0
 44
279.4
 45
215.9
 46
0.0
 47
0.0
 48
0.0
 49
0.0
140
0.0
141
0.0
142
1.0
143
1.0
 70
0
 72
0
 73
0
 74
0
  7

 75
0
147
1.0
148
0.0
149
0.0
100
AcDbLayout
  1
Layout1
 70
0
 71
1
 10
0.0
 20
0.0
 11
11.0
 21
8.5
 12
0.0
 22
0.0
 32
0.0
 14
0.0
 24
0.0
 34
0.0
 15
0.0
 25
0.0
 35
0.0
146
0.0
 13
0.0
 23
0.0
 33
0.0
 16
1.0
 26
0.0
 36
0.0
 17
0.0
 27
1.0
 37
0.0
 76
0
330
21E
345
0
346
0
  0
ENDSEC
  0
EOF
