999
DXF file: E:\BT Custom\CADOUTPUT\_TOP.dxf
999
Pro/ENGINEER 2018400 by Parametric Technology Corporation
  0
SECTION
  2
HEADER
  9
$ACADVER
  1
AC1018
  9
$DWGCODEPAGE
  3
ANSI_1252
  9
$EXTMAX
 10
22.0
 20
17.0
 30
0.0
  9
$EXTMIN
 10
0.0
 20
0.0
 30
0.0
  9
$LIMMIN
 10
0.0
 20
0.0
  9
$LIMMAX
 10
22.0
 20
17.0
  9
$VIEWCTR
 10
11.0
 20
8.5
  9
$VIEWSIZE
 40
17.0
  9
$CLAYER
  8
0
  9
$LTSCALE
 40
1.21
  9
$CELTYPE
  6
BYLAYER
  9
$DIMSCALE
 40
1.0
  9
$DIMASZ
 40
0.1
  9
$DIMEXO
 40
0.0625
  9
$DIMDLI
 40
0.836
  9
$DIMEXE
 40
0.125
  9
$DIMCEN
 40
0.198
  9
$DIMLFAC
 40
1.0
  9
$DIMBLK
  1
_FILLED
  9
$DIMALT
 70
1
  9
$DIMALTD
 70
2
  9
$DIMALTTD
 70
2
  9
$DIMALTF
 40
25.4
  9
$DIMTXT
 40
0.08
  9
$DIMTOL
 70
1
  9
$DIMLIM
 70
0
  9
$DIMTFAC
 40
1.0
  9
$DIMTP
 40
0.001
  9
$DIMTM
 40
0.001
  9
$DIMGAP
 40
0.09
  9
$DIMDSEP
 70
46
  9
$AUNITS
 70
0
  9
$PDMODE
 70
3
  9
$PDSIZE
 40
0.06
  9
$HANDSEED
  5
3DF
  9
$TILEMODE
 70
1
  9
$MEASUREMENT
 70
0
  9
$INSUNITS
 70
1
  0
ENDSEC
  0
SECTION
  2
CLASSES
  0
CLASS
  1
ACDBDICTIONARYWDFLT
  2
AcDbDictionaryWithDefault
  3
AutoCAD 2000
 90
0
 91
1
280
0
281
0
  0
CLASS
  1
ACDBPLACEHOLDER
  2
AcDbPlaceHolder
  3
AutoCAD 2000
 90
0
 91
1
280
0
281
0
  0
CLASS
  1
LAYOUT
  2
AcDbLayout
  3
AutoCAD 2000
 90
0
 91
0
280
0
281
0
  0
ENDSEC
  0
SECTION
  2
TABLES
  0
TABLE
  2
VPORT
  5
8
100
AcDbSymbolTable
 70
2
  0
VPORT
  5
1F4
100
AcDbSymbolTableRecord
100
AcDbViewportTableRecord
  2
*ACTIVE
 70
0
 10
0.0
 20
0.0
 11
1.0
 21
1.0
 12
11.0
 22
8.5
 13
0.0
 23
0.0
 14
1.0
 24
1.0
 15
0.0
 25
0.0
 16
0.0
 26
0.0
 36
1.0
 17
0.0
 27
0.0
 37
0.0
 40
17.0
 41
1.2941176471
 42
50.0
 43
0.0
 44
0.0
 50
0.0
 51
0.0
 71
0
 72
100
 73
1
 74
1
 75
0
 76
0
 77
0
 78
0
  0
ENDTAB
  0
TABLE
  2
LTYPE
  5
5
100
AcDbSymbolTable
 70
6
  0
LTYPE
  5
14
100
AcDbSymbolTableRecord
100
AcDbLinetypeTableRecord
  2
BYBLOCK
 70
0
  3

 72
65
 73
0
 40
0.0
  0
LTYPE
  5
15
100
AcDbSymbolTableRecord
100
AcDbLinetypeTableRecord
  2
BYLAYER
 70
0
  3

 72
65
 73
0
 40
0.0
  0
LTYPE
  5
16
100
AcDbSymbolTableRecord
100
AcDbLinetypeTableRecord
  2
CONTINUOUS
 70
64
  3
Solid line
 72
65
 73
0
 40
0.0
  0
LTYPE
  5
1F5
100
AcDbSymbolTableRecord
100
AcDbLinetypeTableRecord
  2
CENTER
 70
64
  3
____ _ ____ _ ____ _ ____ _ ____ _ ____ _ ____
 72
65
 73
4
 40
0.6
 49
0.375
 74
0
 49
-0.075
 74
0
 49
0.075
 74
0
 49
-0.075
 74
0
  0
LTYPE
  5
1F6
100
AcDbSymbolTableRecord
100
AcDbLinetypeTableRecord
  2
HIDDEN
 70
64
  3
- - - - - - - - - - - - - - - - - - - -
 72
65
 73
2
 40
0.2
 49
0.1
 74
0
 49
-0.1
 74
0
  0
LTYPE
  5
1F7
100
AcDbSymbolTableRecord
100
AcDbLinetypeTableRecord
  2
PHANTOM
 70
64
  3
_____ _ _ _____ _ _ _____ _ _ _____
 72
65
 73
6
 40
0.8
 49
0.45
 74
0
 49
-0.05
 74
0
 49
0.1
 74
0
 49
-0.05
 74
0
 49
0.1
 74
0
 49
-0.05
 74
0
  0
LTYPE
  5
1F8
100
AcDbSymbolTableRecord
100
AcDbLinetypeTableRecord
  2
DOT
 70
64
  3
. . . . . . . . . . . . . . . . . . . .
 72
65
 73
2
 40
0.2
 49
0.1
 74
0
 49
-0.1
 74
0
  0
LTYPE
  5
1F9
100
AcDbSymbolTableRecord
100
AcDbLinetypeTableRecord
  2
DASHED
 70
64
  3
- - - - - - - - - - - - - - - - - - - -
 72
65
 73
2
 40
0.2
 49
0.1
 74
0
 49
-0.1
 74
0
  0
ENDTAB
  0
TABLE
  2
LAYER
  5
2
100
AcDbSymbolTable
 70
36
  0
LAYER
  5
10
100
AcDbSymbolTableRecord
100
AcDbLayerTableRecord
  2
0
 70
0
 62
7
  6
CONTINUOUS
370
-3
390
F
  0
LAYER
  5
1FA
100
AcDbSymbolTableRecord
100
AcDbLayerTableRecord
  2
DEFAULT_1
 70
0
 62
7
  6
CENTER
370
-3
390
F
  0
LAYER
  5
1FB
100
AcDbSymbolTableRecord
100
AcDbLayerTableRecord
  2
DEFAULT_2
 70
0
 62
8
  6
HIDDEN
370
-3
390
F
  0
LAYER
  5
1FC
100
AcDbSymbolTableRecord
100
AcDbLayerTableRecord
  2
DEFAULT_3
 70
0
 62
7
  6
PHANTOM
370
-3
390
F
  0
LAYER
  5
1FD
100
AcDbSymbolTableRecord
100
AcDbLayerTableRecord
  2
ALL_FEATURES
 70
0
 62
7
  6
CONTINUOUS
370
-3
390
F
  0
LAYER
  5
1FE
100
AcDbSymbolTableRecord
100
AcDbLayerTableRecord
  2
AXES_FEATURES
 70
0
 62
7
  6
CONTINUOUS
370
-3
390
F
  0
LAYER
  5
1FF
100
AcDbSymbolTableRecord
100
AcDbLayerTableRecord
  2
DIMENSIONS
 70
0
 62
7
  6
CONTINUOUS
370
-3
390
F
  0
ENDTAB
  0
TABLE
  2
STYLE
  5
3
100
AcDbSymbolTable
 70
1
  0
STYLE
  5
11
100
AcDbSymbolTableRecord
100
AcDbTextStyleTableRecord
  2
STANDARD
 70
0
 40
0.0
 41
0.8
 50
0.0
 71
0
 42
0.2
  3
txt
  4

  0
STYLE
  5
200
100
AcDbSymbolTableRecord
100
AcDbTextStyleTableRecord
  2
TEXTSTYLE_1
 70
0
 40
0.0
 41
0.8
 50
0.0
 71
0
 42
0.2
  3
gdt
  4

  0
ENDTAB
  0
TABLE
  2
VIEW
  5
6
100
AcDbSymbolTable
 70
0
  0
ENDTAB
  0
TABLE
  2
UCS
  5
7
100
AcDbSymbolTable
 70
0
  0
ENDTAB
  0
TABLE
  2
APPID
  5
9
100
AcDbSymbolTable
 70
1
  0
APPID
  5
201
100
AcDbSymbolTableRecord
100
AcDbRegAppTableRecord
  2
ACAD
 70
0
  0
ENDTAB
  0
TABLE
  2
BLOCK_RECORD
  5
1
100
AcDbSymbolTable
 70
0
  0
BLOCK_RECORD
  5
202
100
AcDbSymbolTableRecord
100
AcDbBlockTableRecord
  2
*Model_Space
  0
BLOCK_RECORD
  5
203
100
AcDbSymbolTableRecord
100
AcDbBlockTableRecord
  2
*Paper_Space
  0
BLOCK_RECORD
  5
204
100
AcDbSymbolTableRecord
100
AcDbBlockTableRecord
  2
_FILLED
  0
ENDTAB
  0
TABLE
  2
DIMSTYLE
  5
A
100
AcDbSymbolTable
 70
1
100
AcDbDimStyleTable
 71
0
  0
DIMSTYLE
105
205
100
AcDbSymbolTableRecord
100
AcDbDimStyleTableRecord
  2
STANDARD
 70
0
  3

  4

 40
1.0
 41
0.1
 42
0.0625
 43
0.38
 44
0.125
 45
0.0
 46
0.0
 47
0.001
 48
0.001
140
0.08
141
0.09
142
0.0
143
25.4
144
1.0
145
0.0
146
1.0
147
0.09
 71
1.0
 72
0.0
 73
1
 74
1
 75
0
 76
0
 77
0
 78
4
 79
1
170
1
171
2
172
0
173
0
174
0
175
0
176
0
177
0
178
0
270
2
179
3
271
3
272
3
273
2
274
2
275
0
280
0
281
0
282
0
283
1
284
4
285
0
286
0
287
3
288
0
340
11
278
46
341
204
342
204
343
204
344
204
  0
ENDTAB
  0
ENDSEC
  0
SECTION
  2
BLOCKS
  0
BLOCK
  5
20
100
AcDbEntity
  8
0
100
AcDbBlockBegin
  2
*Model_Space
 70
0
 10
0.0
 20
0.0
 30
0.0
  3
*Model_Space
  1

  0
ENDBLK
  5
21
100
AcDbEntity
  8
0
100
AcDbBlockEnd
  0
BLOCK
  5
1C
100
AcDbEntity
  8
0
100
AcDbBlockBegin
  2
*Paper_Space
 70
0
 10
0.0
 20
0.0
 30
0.0
  3
*Paper_Space
  1

  0
ENDBLK
  5
1D
100
AcDbEntity
  8
0
100
AcDbBlockEnd
  0
BLOCK
  5
206
100
AcDbEntity
  8
0
100
AcDbBlockBegin
  2
_FILLED
 70
64
 10
0.0
 20
0.0
  3
_FILLED
  1

  0
SOLID
  5
207
100
AcDbEntity
  8
0
  6
BYBLOCK
 62
0
100
AcDbTrace
 10
0.0
 20
0.0
 11
-1.0
 21
0.2
 12
-1.0
 22
-0.2
 13
-1.0
 23
-0.2
  0
ENDBLK
  5
208
100
AcDbEntity
  8
0
  6
BYBLOCK
 62
0
100
AcDbBlockEnd
  0
ENDSEC
  0
SECTION
  2
ENTITIES
  0
LINE
  5
209
100
AcDbEntity
  8
0
100
AcDbLine
 62
9
  6
CONTINUOUS
 10
5.8325789938
 20
10.3751423222
 11
5.8325789938
 21
10.8156370694
  0
LINE
  5
20A
100
AcDbEntity
  8
0
100
AcDbLine
 62
9
  6
CONTINUOUS
 10
5.8560094538
 20
10.9081713848
 11
5.8560094538
 21
10.2826445135
  0
LINE
  5
20B
100
AcDbEntity
  8
0
100
AcDbLine
 62
9
  6
CONTINUOUS
 10
5.9059314592
 20
10.9553896958
 11
5.9059314592
 21
10.2353896958
  0
LINE
  5
20C
100
AcDbEntity
  8
0
100
AcDbLine
 62
9
  6
CONTINUOUS
 10
5.9209004356
 20
10.2353896958
 11
5.9209004356
 21
10.9553896958
  0
LINE
  5
20D
100
AcDbEntity
  8
0
100
AcDbLine
 62
9
  6
CONTINUOUS
 10
5.9666881593
 20
10.9254705997
 11
5.9666881593
 21
10.2653142528
  0
LINE
  5
20E
100
AcDbEntity
  8
0
100
AcDbLine
 62
9
  6
CONTINUOUS
 10
5.9990997731
 20
10.289010164
 11
5.9990997731
 21
10.9017692275
  0
LINE
  5
20F
100
AcDbEntity
  8
0
100
AcDbLine
 62
9
  6
CONTINUOUS
 10
6.5029571954
 20
10.8130492982
 11
6.5029571954
 21
10.3777300933
  0
LINE
  5
210
100
AcDbEntity
  8
0
100
AcDbLine
 62
7
  6
CONTINUOUS
 10
6.5333183383
 20
10.7753896958
 11
6.5333183383
 21
10.4153896958
  0
LINE
  5
211
100
AcDbEntity
  8
0
100
AcDbLine
 62
9
  6
CONTINUOUS
 10
6.6233183383
 20
10.4153896958
 11
6.6233183383
 21
10.7753896958
  0
LINE
  5
212
100
AcDbEntity
  8
0
100
AcDbLine
 62
7
  6
CONTINUOUS
 10
6.6333183383
 20
10.416492848
 11
6.6333183383
 21
10.7741876425
  0
LINE
  5
213
100
AcDbEntity
  8
0
100
AcDbLine
 62
7
  6
CONTINUOUS
 10
6.6873183383
 20
11.7367765749
 11
6.6873183383
 21
11.7218075985
  0
LINE
  5
214
100
AcDbEntity
  8
0
100
AcDbLine
 62
7
  6
CONTINUOUS
 10
6.6873183383
 20
9.4540028167
 11
6.6873183383
 21
9.4689717931
  0
LINE
  5
215
100
AcDbEntity
  8
0
100
AcDbLine
 62
7
  6
CONTINUOUS
 10
6.8673183383
 20
11.1093896957
 11
6.8673183383
 21
11.0193896958
  0
LINE
  5
216
100
AcDbEntity
  8
0
100
AcDbLine
 62
7
  6
CONTINUOUS
 10
6.8673183383
 20
10.0813896958
 11
6.8673183383
 21
10.1713896958
  0
LINE
  5
217
100
AcDbEntity
  8
0
100
AcDbLine
 62
7
  6
CONTINUOUS
 10
7.2273183383
 20
11.1093896957
 11
7.2273183383
 21
11.0193896958
  0
LINE
  5
218
100
AcDbEntity
  8
0
100
AcDbLine
 62
7
  6
CONTINUOUS
 10
7.2273183383
 20
10.0813896958
 11
7.2273183383
 21
10.1713896958
  0
LINE
  5
219
100
AcDbEntity
  8
0
100
AcDbLine
 62
7
  6
CONTINUOUS
 10
7.4073183383
 20
11.7367765749
 11
7.4073183383
 21
11.7218075985
  0
LINE
  5
21A
100
AcDbEntity
  8
0
100
AcDbLine
 62
7
  6
CONTINUOUS
 10
7.4073183383
 20
9.4540028167
 11
7.4073183383
 21
9.4689717931
  0
LINE
  5
21B
100
AcDbEntity
  8
0
100
AcDbLine
 62
7
  6
CONTINUOUS
 10
7.4613183383
 20
10.7742788128
 11
7.4613183383
 21
10.4166375696
  0
LINE
  5
21C
100
AcDbEntity
  8
0
100
AcDbLine
 62
9
  6
CONTINUOUS
 10
7.4713183383
 20
10.7753896958
 11
7.4713183383
 21
10.4153896958
  0
LINE
  5
21D
100
AcDbEntity
  8
0
100
AcDbLine
 62
7
  6
CONTINUOUS
 10
7.5613183383
 20
10.4153896958
 11
7.5613183383
 21
10.7753896958
  0
LINE
  5
21E
100
AcDbEntity
  8
0
100
AcDbLine
 62
9
  6
CONTINUOUS
 10
7.5916794812
 20
10.3777300933
 11
7.5916794812
 21
10.8130492982
  0
LINE
  5
21F
100
AcDbEntity
  8
0
100
AcDbLine
 62
9
  6
CONTINUOUS
 10
8.0955369034
 20
10.9017692275
 11
8.0955369034
 21
10.289010164
  0
LINE
  5
220
100
AcDbEntity
  8
0
100
AcDbLine
 62
9
  6
CONTINUOUS
 10
8.1279485173
 20
10.2653027757
 11
8.1279485173
 21
10.9254651387
  0
LINE
  5
221
100
AcDbEntity
  8
0
100
AcDbLine
 62
9
  6
CONTINUOUS
 10
8.173736241
 20
10.9553896958
 11
8.173736241
 21
10.2353896958
  0
LINE
  5
222
100
AcDbEntity
  8
0
100
AcDbLine
 62
9
  6
CONTINUOUS
 10
8.1887052174
 20
10.2353896958
 11
8.1887052174
 21
10.9553896958
  0
LINE
  5
223
100
AcDbEntity
  8
0
100
AcDbLine
 62
9
  6
CONTINUOUS
 10
8.2386272228
 20
10.2825980338
 11
8.2386272228
 21
10.908134878
  0
LINE
  5
224
100
AcDbEntity
  8
0
100
AcDbLine
 62
9
  6
CONTINUOUS
 10
8.2620576828
 20
10.8156043414
 11
8.2620576828
 21
10.3751423222
  0
LINE
  5
225
100
AcDbEntity
  8
0
100
AcDbLine
 62
7
  6
CONTINUOUS
 10
10.4490880641
 20
6.7286618986
 11
10.4490301101
 21
6.8107825321
  0
LINE
  5
226
100
AcDbEntity
  8
0
100
AcDbLine
 62
7
  6
CONTINUOUS
 10
10.3473183383
 20
8.6003896958
 11
10.3473183383
 21
8.6130585153
  0
LINE
  5
227
100
AcDbEntity
  8
0
100
AcDbLine
 62
7
  6
CONTINUOUS
 10
10.3473183383
 20
9.6452208762
 11
10.3473183383
 21
9.6503896958
  0
LINE
  5
228
100
AcDbEntity
  8
0
100
AcDbLine
 62
7
  6
CONTINUOUS
 10
10.4473183383
 20
7.4943896958
 11
10.4473183383
 21
8.5253896958
  0
LWPOLYLINE
  5
229
100
AcDbEntity
  8
0
100
AcDbPolyline
 62
7
  6
CONTINUOUS
 90
4
 70
0
 10
10.4490880641
 20
6.7286618986
 10
10.4488157857
 20
6.5618383822
 10
10.4470711623
 20
6.3153230965
 10
10.4439569384
 20
6.1109262941
  0
LINE
  5
22A
100
AcDbEntity
  8
0
100
AcDbLine
 62
9
  6
CONTINUOUS
 10
10.4439319581
 20
6.1083807842
 11
10.4439569384
 21
6.1109262941
  0
LINE
  5
22B
100
AcDbEntity
  8
0
100
AcDbLine
 62
7
  6
CONTINUOUS
 10
10.4439569384
 20
6.1109262941
 11
10.443956995
 21
6.110929168
  0
LWPOLYLINE
  5
22C
100
AcDbEntity
  8
0
100
AcDbPolyline
 62
7
  6
CONTINUOUS
 90
4
 70
0
 10
10.443956995
 20
6.110929168
 10
10.4299890335
 20
5.6734769023
 10
10.4036358404
 20
5.2609722776
 10
10.3672348093
 20
4.9171226118
  0
LINE
  5
22D
100
AcDbEntity
  8
0
100
AcDbLine
 62
9
  6
CONTINUOUS
 10
10.365638725
 20
4.8922363371
 11
10.3672348093
 21
4.9171226118
  0
LINE
  5
22E
100
AcDbEntity
  8
0
100
AcDbLine
 62
9
  6
CONTINUOUS
 10
10.2485677578
 20
4.2675067206
 11
10.2545353119
 21
4.316568116
  0
LWPOLYLINE
  5
22F
100
AcDbEntity
  8
0
100
AcDbPolyline
 62
7
  6
CONTINUOUS
 90
3
 70
0
 10
12.1316231736
 20
3.4478279257
 10
12.0932012943
 20
3.5412810772
 10
12.0483249795
 20
3.6555834184
  0
LINE
  5
230
100
AcDbEntity
  8
0
100
AcDbLine
 62
9
  6
CONTINUOUS
 10
11.0473183383
 20
2.8887363334
 11
11.0473183383
 21
8.5253896958
  0
LINE
  5
231
100
AcDbEntity
  8
0
100
AcDbLine
 62
7
  6
CONTINUOUS
 10
10.3672348093
 20
4.9171226118
 11
10.367235426
 21
4.9171273444
  0
LWPOLYLINE
  5
232
100
AcDbEntity
  8
0
100
AcDbPolyline
 62
7
  6
CONTINUOUS
 90
4
 70
0
 10
10.367235426
 20
4.9171273444
 10
10.3397636856
 20
4.7295880954
 10
10.3003990589
 20
4.5172250215
 10
10.2545353119
 20
4.316568116
  0
LINE
  5
233
100
AcDbEntity
  8
0
100
AcDbLine
 62
7
  6
CONTINUOUS
 10
10.2545353119
 20
4.316568116
 11
10.2545401404
 21
4.3165875362
  0
LWPOLYLINE
  5
234
100
AcDbEntity
  8
0
100
AcDbPolyline
 62
7
  6
CONTINUOUS
 90
4
 70
0
 10
10.2545401404
 20
4.3165875362
 10
10.2127788514
 20
4.1587257082
 10
10.1642241295
 20
3.9949871132
 10
10.118091741
 20
3.8538482637
  0
LINE
  5
235
100
AcDbEntity
  8
0
100
AcDbLine
 62
7
  6
CONTINUOUS
 10
12.0483249795
 20
3.6555834184
 11
12.0055499185
 21
3.77099634
  0
LINE
  5
236
100
AcDbEntity
  8
0
100
AcDbLine
 62
7
  6
CONTINUOUS
 10
12.0055522834
 20
3.7709897589
 11
11.997283588
 21
3.7941708985
  0
LWPOLYLINE
  5
237
100
AcDbEntity
  8
0
100
AcDbPolyline
 62
7
  6
CONTINUOUS
 90
3
 70
0
 10
11.997283588
 20
3.7941708985
 10
11.9848902035
 20
3.8295632909
 10
11.9765492649
 20
3.8538355695
  0
LWPOLYLINE
  5
238
100
AcDbEntity
  8
0
100
AcDbPolyline
 62
7
  6
CONTINUOUS
 90
3
 70
0
 10
11.9765449356
 20
3.8538482637
 10
11.9304125471
 20
3.9949871132
 10
11.8818578251
 20
4.1587257082
  0
LINE
  5
239
100
AcDbEntity
  8
0
100
AcDbLine
 62
7
  6
CONTINUOUS
 10
11.8818578251
 20
4.1587257082
 11
11.8400965362
 21
4.3165875362
  0
LINE
  5
23A
100
AcDbEntity
  8
0
100
AcDbLine
 62
7
  6
CONTINUOUS
 10
11.8400965362
 20
4.3165875362
 11
11.8401013646
 21
4.316568116
  0
LWPOLYLINE
  5
23B
100
AcDbEntity
  8
0
100
AcDbPolyline
 62
7
  6
CONTINUOUS
 90
3
 70
0
 10
11.7274018672
 20
4.9171226118
 10
11.6910008361
 20
5.2609722776
 10
11.6646476431
 20
5.6734769023
  0
LINE
  5
23C
100
AcDbEntity
  8
0
100
AcDbLine
 62
9
  6
CONTINUOUS
 10
11.7274018672
 20
4.9171226118
 11
11.7289979516
 21
4.8922363371
  0
LWPOLYLINE
  5
23D
100
AcDbEntity
  8
0
100
AcDbPolyline
 62
7
  6
CONTINUOUS
 90
3
 70
0
 10
10.118091741
 20
3.8538482637
 10
10.1097464731
 20
3.8295632909
 10
10.0973530886
 20
3.7941708985
  0
LINE
  5
23E
100
AcDbEntity
  8
0
100
AcDbLine
 62
7
  6
CONTINUOUS
 10
10.0973530886
 20
3.7941708985
 11
10.0890843932
 21
3.7709897589
  0
LWPOLYLINE
  5
23F
100
AcDbEntity
  8
0
100
AcDbPolyline
 62
7
  6
CONTINUOUS
 90
4
 70
0
 10
10.0890867581
 20
3.77099634
 10
10.0463116971
 20
3.6555834184
 10
10.0014353823
 20
3.5412810772
 10
9.963013503
 20
3.4478279257
  0
LWPOLYLINE
  5
240
100
AcDbEntity
  8
0
100
AcDbPolyline
 62
7
  6
CONTINUOUS
 90
3
 70
0
 10
11.8401013646
 20
4.316568116
 10
11.7942376177
 20
4.5172250215
 10
11.754872991
 20
4.7295880954
  0
LINE
  5
241
100
AcDbEntity
  8
0
100
AcDbLine
 62
7
  6
CONTINUOUS
 10
11.754872991
 20
4.7295880954
 11
11.7274012506
 21
4.9171273444
  0
LINE
  5
242
100
AcDbEntity
  8
0
100
AcDbLine
 62
7
  6
CONTINUOUS
 10
11.7274012506
 20
4.9171273444
 11
11.7274018672
 21
4.9171226118
  0
LINE
  5
243
100
AcDbEntity
  8
0
100
AcDbLine
 62
9
  6
CONTINUOUS
 10
11.8401013646
 20
4.316568116
 11
11.8460689187
 21
4.2675067206
  0
LINE
  5
244
100
AcDbEntity
  8
0
100
AcDbLine
 62
7
  6
CONTINUOUS
 10
11.6646476431
 20
5.6734769023
 11
11.6506796816
 21
6.110929168
  0
LINE
  5
245
100
AcDbEntity
  8
0
100
AcDbLine
 62
7
  6
CONTINUOUS
 10
11.6506796816
 20
6.110929168
 11
11.6506797382
 21
6.1109262941
  0
LWPOLYLINE
  5
246
100
AcDbEntity
  8
0
100
AcDbPolyline
 62
7
  6
CONTINUOUS
 90
4
 70
0
 10
11.6506797382
 20
6.1109262941
 10
11.6475655143
 20
6.3153230965
 10
11.6458208908
 20
6.5618383822
 10
11.6455486124
 20
6.7286618986
  0
LINE
  5
247
100
AcDbEntity
  8
0
100
AcDbLine
 62
9
  6
CONTINUOUS
 10
11.6506797382
 20
6.1109262941
 11
11.6507047185
 21
6.1083807842
  0
LINE
  5
248
100
AcDbEntity
  8
0
100
AcDbLine
 62
7
  6
CONTINUOUS
 10
11.6473183383
 20
7.4943896958
 11
11.6473183383
 21
8.5253896958
  0
LINE
  5
249
100
AcDbEntity
  8
0
100
AcDbLine
 62
7
  6
CONTINUOUS
 10
11.7473183383
 20
8.6003896958
 11
11.7473183383
 21
8.6130585153
  0
LINE
  5
24A
100
AcDbEntity
  8
0
100
AcDbLine
 62
7
  6
CONTINUOUS
 10
11.7473183383
 20
9.6452208762
 11
11.7473183383
 21
9.6503896958
  0
LINE
  5
24B
100
AcDbEntity
  8
0
100
AcDbLine
 62
7
  6
CONTINUOUS
 10
11.6455486124
 20
6.7286618986
 11
11.6456065665
 21
6.8107825321
  0
LINE
  5
24C
100
AcDbEntity
  8
0
100
AcDbLine
 62
7
  6
CONTINUOUS
 10
10.4223445536
 20
8.5253896958
 11
11.672292123
 21
8.5253896958
  0
LINE
  5
24D
100
AcDbEntity
  8
0
100
AcDbLine
 62
9
  6
CONTINUOUS
 10
10.3473183383
 20
8.6003896958
 11
11.7473183383
 21
8.6003896958
  0
LINE
  5
24E
100
AcDbEntity
  8
0
100
AcDbLine
 62
9
  6
CONTINUOUS
 10
11.7473183383
 20
8.6130585153
 11
10.3473183383
 21
8.6130585153
  0
LINE
  5
24F
100
AcDbEntity
  8
0
100
AcDbLine
 62
9
  6
CONTINUOUS
 10
10.3927275635
 20
8.6819743049
 11
11.7019091131
 21
8.6819743049
  0
LINE
  5
250
100
AcDbEntity
  8
0
100
AcDbLine
 62
9
  6
CONTINUOUS
 10
10.4224326283
 20
8.7204046527
 11
11.6722040483
 21
8.7204046527
  0
LINE
  5
251
100
AcDbEntity
  8
0
100
AcDbLine
 62
9
  6
CONTINUOUS
 10
15.2675657119
 20
9.3806503512
 11
14.8270709647
 21
9.3806503512
  0
LINE
  5
252
100
AcDbEntity
  8
0
100
AcDbLine
 62
9
  6
CONTINUOUS
 10
7.2675657119
 20
9.3806503512
 11
6.8270709647
 21
9.3806503512
  0
LINE
  5
253
100
AcDbEntity
  8
0
100
AcDbLine
 62
9
  6
CONTINUOUS
 10
6.7345266763
 20
9.4040808113
 11
7.3600635205
 21
9.4040808113
  0
LINE
  5
254
100
AcDbEntity
  8
0
100
AcDbLine
 62
9
  6
CONTINUOUS
 10
14.7345266763
 20
9.4040808113
 11
15.3600635205
 21
9.4040808113
  0
LINE
  5
255
100
AcDbEntity
  8
0
100
AcDbLine
 62
9
  6
CONTINUOUS
 10
6.6873183383
 20
9.4540028167
 11
7.4073183383
 21
9.4540028167
  0
LINE
  5
256
100
AcDbEntity
  8
0
100
AcDbLine
 62
9
  6
CONTINUOUS
 10
14.6873183383
 20
9.4540028167
 11
15.4073183383
 21
9.4540028167
  0
LINE
  5
257
100
AcDbEntity
  8
0
100
AcDbLine
 62
9
  6
CONTINUOUS
 10
15.4073183383
 20
9.4689717931
 11
14.6873248996
 21
9.4689717931
  0
LINE
  5
258
100
AcDbEntity
  8
0
100
AcDbLine
 62
9
  6
CONTINUOUS
 10
7.4073183383
 20
9.4689717931
 11
6.6873248996
 21
9.4689717931
  0
LINE
  5
259
100
AcDbEntity
  8
0
100
AcDbLine
 62
9
  6
CONTINUOUS
 10
6.7172314183
 20
9.5147595168
 11
7.3773937812
 21
9.5147595168
  0
LINE
  5
25A
100
AcDbEntity
  8
0
100
AcDbLine
 62
9
  6
CONTINUOUS
 10
14.7172314183
 20
9.5147595168
 11
15.3773937812
 21
9.5147595168
  0
LINE
  5
25B
100
AcDbEntity
  8
0
100
AcDbLine
 62
9
  6
CONTINUOUS
 10
11.6722040483
 20
9.5378747388
 11
10.4224326283
 21
9.5378747388
  0
LINE
  5
25C
100
AcDbEntity
  8
0
100
AcDbLine
 62
9
  6
CONTINUOUS
 10
15.35369787
 20
9.5471711306
 11
14.7409388065
 21
9.5471711306
  0
LINE
  5
25D
100
AcDbEntity
  8
0
100
AcDbLine
 62
9
  6
CONTINUOUS
 10
7.35369787
 20
9.5471711306
 11
6.7409388065
 21
9.5471711306
  0
LINE
  5
25E
100
AcDbEntity
  8
0
100
AcDbLine
 62
9
  6
CONTINUOUS
 10
11.7019091131
 20
9.5763050867
 11
10.3927275635
 21
9.5763050867
  0
LINE
  5
25F
100
AcDbEntity
  8
0
100
AcDbLine
 62
9
  6
CONTINUOUS
 10
10.3473183383
 20
9.6452208762
 11
11.7473183383
 21
9.6452208762
  0
LINE
  5
260
100
AcDbEntity
  8
0
100
AcDbLine
 62
9
  6
CONTINUOUS
 10
11.7473183383
 20
9.6503896958
 11
10.3473183383
 21
9.6503896958
  0
LINE
  5
261
100
AcDbEntity
  8
0
100
AcDbLine
 62
7
  6
CONTINUOUS
 10
11.6722920497
 20
9.7253896958
 11
10.4223446269
 21
9.7253896958
  0
LINE
  5
262
100
AcDbEntity
  8
0
100
AcDbLine
 62
9
  6
CONTINUOUS
 10
13.8325789938
 20
10.3751423222
 11
13.8325789938
 21
10.8156370694
  0
LINE
  5
263
100
AcDbEntity
  8
0
100
AcDbLine
 62
9
  6
CONTINUOUS
 10
13.8560094538
 20
10.9081713848
 11
13.8560094538
 21
10.2826445135
  0
LINE
  5
264
100
AcDbEntity
  8
0
100
AcDbLine
 62
9
  6
CONTINUOUS
 10
6.8296587358
 20
10.0510285529
 11
7.2649779408
 21
10.0510285529
  0
LINE
  5
265
100
AcDbEntity
  8
0
100
AcDbLine
 62
9
  6
CONTINUOUS
 10
14.8296587358
 20
10.0510285529
 11
15.2649779408
 21
10.0510285529
  0
LINE
  5
266
100
AcDbEntity
  8
0
100
AcDbLine
 62
7
  6
CONTINUOUS
 10
6.8673183383
 20
10.0813896958
 11
7.2273183383
 21
10.0813896958
  0
LINE
  5
267
100
AcDbEntity
  8
0
100
AcDbLine
 62
7
  6
CONTINUOUS
 10
14.8673183383
 20
10.0813896958
 11
15.2273183383
 21
10.0813896958
  0
LINE
  5
268
100
AcDbEntity
  8
0
100
AcDbLine
 62
9
  6
CONTINUOUS
 10
15.2273183383
 20
10.1713896958
 11
14.867331617
 21
10.1713896958
  0
LINE
  5
269
100
AcDbEntity
  8
0
100
AcDbLine
 62
9
  6
CONTINUOUS
 10
7.2273183383
 20
10.1713896958
 11
6.867331617
 21
10.1713896958
  0
LINE
  5
26A
100
AcDbEntity
  8
0
100
AcDbLine
 62
7
  6
CONTINUOUS
 10
15.2261999383
 20
10.1813896958
 11
14.8684321589
 21
10.1813896958
  0
LINE
  5
26B
100
AcDbEntity
  8
0
100
AcDbLine
 62
7
  6
CONTINUOUS
 10
7.2261999383
 20
10.1813896958
 11
6.8684321589
 21
10.1813896958
  0
LINE
  5
26C
100
AcDbEntity
  8
0
100
AcDbLine
 62
7
  6
CONTINUOUS
 10
16.1887052174
 20
10.2353896958
 11
16.173736241
 21
10.2353896958
  0
LINE
  5
26D
100
AcDbEntity
  8
0
100
AcDbLine
 62
7
  6
CONTINUOUS
 10
8.1887052174
 20
10.2353896958
 11
8.173736241
 21
10.2353896958
  0
LINE
  5
26E
100
AcDbEntity
  8
0
100
AcDbLine
 62
7
  6
CONTINUOUS
 10
5.9059314592
 20
10.2353896958
 11
5.9209004356
 21
10.2353896958
  0
LINE
  5
26F
100
AcDbEntity
  8
0
100
AcDbLine
 62
7
  6
CONTINUOUS
 10
13.9059314592
 20
10.2353896958
 11
13.9209004356
 21
10.2353896958
  0
LINE
  5
270
100
AcDbEntity
  8
0
100
AcDbLine
 62
9
  6
CONTINUOUS
 10
13.9059314592
 20
10.9553896958
 11
13.9059314592
 21
10.2353896958
  0
LINE
  5
271
100
AcDbEntity
  8
0
100
AcDbLine
 62
9
  6
CONTINUOUS
 10
13.9209004356
 20
10.2353896958
 11
13.9209004356
 21
10.9553896958
  0
LINE
  5
272
100
AcDbEntity
  8
0
100
AcDbLine
 62
9
  6
CONTINUOUS
 10
13.9666881593
 20
10.9254705997
 11
13.9666881593
 21
10.2653142528
  0
LINE
  5
273
100
AcDbEntity
  8
0
100
AcDbLine
 62
9
  6
CONTINUOUS
 10
13.9990997731
 20
10.289010164
 11
13.9990997731
 21
10.9017692275
  0
LINE
  5
274
100
AcDbEntity
  8
0
100
AcDbLine
 62
7
  6
CONTINUOUS
 10
15.5613183383
 20
10.4153896958
 11
15.4713183383
 21
10.4153896958
  0
LINE
  5
275
100
AcDbEntity
  8
0
100
AcDbLine
 62
7
  6
CONTINUOUS
 10
7.5613183383
 20
10.4153896958
 11
7.4713183383
 21
10.4153896958
  0
LINE
  5
276
100
AcDbEntity
  8
0
100
AcDbLine
 62
7
  6
CONTINUOUS
 10
6.5333183383
 20
10.4153896958
 11
6.6233183383
 21
10.4153896958
  0
LINE
  5
277
100
AcDbEntity
  8
0
100
AcDbLine
 62
7
  6
CONTINUOUS
 10
14.5333183383
 20
10.4153896958
 11
14.6233183383
 21
10.4153896958
  0
LINE
  5
278
100
AcDbEntity
  8
0
100
AcDbLine
 62
7
  6
CONTINUOUS
 10
15.5613183383
 20
10.7753896958
 11
15.4713183383
 21
10.7753896958
  0
LINE
  5
279
100
AcDbEntity
  8
0
100
AcDbLine
 62
7
  6
CONTINUOUS
 10
7.5613183383
 20
10.7753896958
 11
7.4713183383
 21
10.7753896958
  0
LINE
  5
27A
100
AcDbEntity
  8
0
100
AcDbLine
 62
7
  6
CONTINUOUS
 10
6.5333183383
 20
10.7753896958
 11
6.6233183383
 21
10.7753896958
  0
LINE
  5
27B
100
AcDbEntity
  8
0
100
AcDbLine
 62
7
  6
CONTINUOUS
 10
14.5333183383
 20
10.7753896958
 11
14.6233183383
 21
10.7753896958
  0
LINE
  5
27C
100
AcDbEntity
  8
0
100
AcDbLine
 62
9
  6
CONTINUOUS
 10
14.5029571954
 20
10.8130492982
 11
14.5029571954
 21
10.3777300933
  0
LINE
  5
27D
100
AcDbEntity
  8
0
100
AcDbLine
 62
7
  6
CONTINUOUS
 10
14.5333183383
 20
10.7753896958
 11
14.5333183383
 21
10.4153896958
  0
LINE
  5
27E
100
AcDbEntity
  8
0
100
AcDbLine
 62
9
  6
CONTINUOUS
 10
14.6233183383
 20
10.4153896958
 11
14.6233183383
 21
10.7753896958
  0
LINE
  5
27F
100
AcDbEntity
  8
0
100
AcDbLine
 62
7
  6
CONTINUOUS
 10
14.6333183383
 20
10.416492848
 11
14.6333183383
 21
10.7741876425
  0
LINE
  5
280
100
AcDbEntity
  8
0
100
AcDbLine
 62
7
  6
CONTINUOUS
 10
14.6873183383
 20
11.7367765749
 11
14.6873183383
 21
11.7218075985
  0
LINE
  5
281
100
AcDbEntity
  8
0
100
AcDbLine
 62
7
  6
CONTINUOUS
 10
14.6873183383
 20
9.4540028167
 11
14.6873183383
 21
9.4689717931
  0
LINE
  5
282
100
AcDbEntity
  8
0
100
AcDbLine
 62
7
  6
CONTINUOUS
 10
16.1887052174
 20
10.9553896958
 11
16.173736241
 21
10.9553896958
  0
LINE
  5
283
100
AcDbEntity
  8
0
100
AcDbLine
 62
7
  6
CONTINUOUS
 10
8.1887052174
 20
10.9553896958
 11
8.173736241
 21
10.9553896958
  0
LINE
  5
284
100
AcDbEntity
  8
0
100
AcDbLine
 62
7
  6
CONTINUOUS
 10
5.9059314592
 20
10.9553896958
 11
5.9209004356
 21
10.9553896958
  0
LINE
  5
285
100
AcDbEntity
  8
0
100
AcDbLine
 62
7
  6
CONTINUOUS
 10
13.9059314592
 20
10.9553896958
 11
13.9209004356
 21
10.9553896958
  0
LINE
  5
286
100
AcDbEntity
  8
0
100
AcDbLine
 62
7
  6
CONTINUOUS
 10
6.8684321601
 20
11.0093896958
 11
7.2261998982
 21
11.0093896958
  0
LINE
  5
287
100
AcDbEntity
  8
0
100
AcDbLine
 62
7
  6
CONTINUOUS
 10
14.8684321601
 20
11.0093896958
 11
15.2261998982
 21
11.0093896958
  0
LINE
  5
288
100
AcDbEntity
  8
0
100
AcDbLine
 62
9
  6
CONTINUOUS
 10
6.8673183383
 20
11.0193896958
 11
7.2273050596
 21
11.0193896958
  0
LINE
  5
289
100
AcDbEntity
  8
0
100
AcDbLine
 62
9
  6
CONTINUOUS
 10
14.8673183383
 20
11.0193896958
 11
15.2273050596
 21
11.0193896958
  0
LINE
  5
28A
100
AcDbEntity
  8
0
100
AcDbLine
 62
7
  6
CONTINUOUS
 10
15.2273183383
 20
11.1093896957
 11
14.8673183383
 21
11.1093896957
  0
LINE
  5
28B
100
AcDbEntity
  8
0
100
AcDbLine
 62
7
  6
CONTINUOUS
 10
7.2273183383
 20
11.1093896957
 11
6.8673183383
 21
11.1093896957
  0
LINE
  5
28C
100
AcDbEntity
  8
0
100
AcDbLine
 62
9
  6
CONTINUOUS
 10
15.2649779408
 20
11.1397508387
 11
14.8296587358
 21
11.1397508387
  0
LINE
  5
28D
100
AcDbEntity
  8
0
100
AcDbLine
 62
9
  6
CONTINUOUS
 10
7.2649779408
 20
11.1397508387
 11
6.8296587358
 21
11.1397508387
  0
LINE
  5
28E
100
AcDbEntity
  8
0
100
AcDbLine
 62
7
  6
CONTINUOUS
 10
14.8673183383
 20
11.1093896957
 11
14.8673183383
 21
11.0193896958
  0
LINE
  5
28F
100
AcDbEntity
  8
0
100
AcDbLine
 62
7
  6
CONTINUOUS
 10
14.8673183383
 20
10.0813896958
 11
14.8673183383
 21
10.1713896958
  0
LINE
  5
290
100
AcDbEntity
  8
0
100
AcDbLine
 62
7
  6
CONTINUOUS
 10
15.2273183383
 20
11.1093896957
 11
15.2273183383
 21
11.0193896958
  0
LINE
  5
291
100
AcDbEntity
  8
0
100
AcDbLine
 62
7
  6
CONTINUOUS
 10
15.2273183383
 20
10.0813896958
 11
15.2273183383
 21
10.1713896958
  0
LINE
  5
292
100
AcDbEntity
  8
0
100
AcDbLine
 62
9
  6
CONTINUOUS
 10
6.7409388065
 20
11.6436082609
 11
7.35369787
 21
11.6436082609
  0
LINE
  5
293
100
AcDbEntity
  8
0
100
AcDbLine
 62
9
  6
CONTINUOUS
 10
14.7409388065
 20
11.6436082609
 11
15.35369787
 21
11.6436082609
  0
LINE
  5
294
100
AcDbEntity
  8
0
100
AcDbLine
 62
9
  6
CONTINUOUS
 10
15.3774052583
 20
11.6760198747
 11
14.7172428954
 21
11.6760198747
  0
LINE
  5
295
100
AcDbEntity
  8
0
100
AcDbLine
 62
9
  6
CONTINUOUS
 10
7.3774052583
 20
11.6760198747
 11
6.7172428954
 21
11.6760198747
  0
LINE
  5
296
100
AcDbEntity
  8
0
100
AcDbLine
 62
9
  6
CONTINUOUS
 10
6.6873183383
 20
11.7218075985
 11
7.407311777
 21
11.7218075985
  0
LINE
  5
297
100
AcDbEntity
  8
0
100
AcDbLine
 62
9
  6
CONTINUOUS
 10
14.6873183383
 20
11.7218075985
 11
15.407311777
 21
11.7218075985
  0
LINE
  5
298
100
AcDbEntity
  8
0
100
AcDbLine
 62
7
  6
CONTINUOUS
 10
15.4073183383
 20
11.7367765749
 11
15.4073183383
 21
11.7218075985
  0
LINE
  5
299
100
AcDbEntity
  8
0
100
AcDbLine
 62
7
  6
CONTINUOUS
 10
15.4073183383
 20
9.4540028167
 11
15.4073183383
 21
9.4689717931
  0
LINE
  5
29A
100
AcDbEntity
  8
0
100
AcDbLine
 62
7
  6
CONTINUOUS
 10
15.4613183383
 20
10.7742788128
 11
15.4613183383
 21
10.4166375696
  0
LINE
  5
29B
100
AcDbEntity
  8
0
100
AcDbLine
 62
9
  6
CONTINUOUS
 10
15.4713183383
 20
10.7753896958
 11
15.4713183383
 21
10.4153896958
  0
LINE
  5
29C
100
AcDbEntity
  8
0
100
AcDbLine
 62
7
  6
CONTINUOUS
 10
15.5613183383
 20
10.4153896958
 11
15.5613183383
 21
10.7753896958
  0
LINE
  5
29D
100
AcDbEntity
  8
0
100
AcDbLine
 62
9
  6
CONTINUOUS
 10
15.5916794812
 20
10.3777300933
 11
15.5916794812
 21
10.8130492982
  0
LINE
  5
29E
100
AcDbEntity
  8
0
100
AcDbLine
 62
9
  6
CONTINUOUS
 10
15.4073183383
 20
11.7367765749
 11
14.6873183383
 21
11.7367765749
  0
LINE
  5
29F
100
AcDbEntity
  8
0
100
AcDbLine
 62
9
  6
CONTINUOUS
 10
7.4073183383
 20
11.7367765749
 11
6.6873183383
 21
11.7367765749
  0
LINE
  5
2A0
100
AcDbEntity
  8
0
100
AcDbLine
 62
9
  6
CONTINUOUS
 10
15.3601100003
 20
11.7866985803
 11
14.734573156
 21
11.7866985803
  0
LINE
  5
2A1
100
AcDbEntity
  8
0
100
AcDbLine
 62
9
  6
CONTINUOUS
 10
7.3601100003
 20
11.7866985803
 11
6.734573156
 21
11.7866985803
  0
LINE
  5
2A2
100
AcDbEntity
  8
0
100
AcDbLine
 62
9
  6
CONTINUOUS
 10
6.8270709647
 20
11.8101290403
 11
7.2675657119
 21
11.8101290403
  0
LINE
  5
2A3
100
AcDbEntity
  8
0
100
AcDbLine
 62
9
  6
CONTINUOUS
 10
14.8270709647
 20
11.8101290403
 11
15.2675657119
 21
11.8101290403
  0
LINE
  5
2A4
100
AcDbEntity
  8
0
100
AcDbLine
 62
9
  6
CONTINUOUS
 10
16.0955369034
 20
10.9017692275
 11
16.0955369034
 21
10.289010164
  0
LINE
  5
2A5
100
AcDbEntity
  8
0
100
AcDbLine
 62
9
  6
CONTINUOUS
 10
16.1279485173
 20
10.2653027757
 11
16.1279485173
 21
10.9254651387
  0
LINE
  5
2A6
100
AcDbEntity
  8
0
100
AcDbLine
 62
9
  6
CONTINUOUS
 10
16.173736241
 20
10.9553896958
 11
16.173736241
 21
10.2353896958
  0
LINE
  5
2A7
100
AcDbEntity
  8
0
100
AcDbLine
 62
9
  6
CONTINUOUS
 10
16.1887052174
 20
10.2353896958
 11
16.1887052174
 21
10.9553896958
  0
LINE
  5
2A8
100
AcDbEntity
  8
0
100
AcDbLine
 62
9
  6
CONTINUOUS
 10
16.2386272228
 20
10.2825980338
 11
16.2386272228
 21
10.908134878
  0
LINE
  5
2A9
100
AcDbEntity
  8
0
100
AcDbLine
 62
9
  6
CONTINUOUS
 10
16.2620576828
 20
10.8156043414
 11
16.2620576828
 21
10.3751423222
  0
ARC
  5
2AA
100
AcDbEntity
  8
0
100
AcDbCircle
 62
9
  6
CONTINUOUS
 10
-9.5710157079
 20
6.5013771661
 40
20.0188055645
100
AcDbArc
 50
358.6002394075
 51
358.875133657
  0
ARC
  5
2AB
100
AcDbEntity
  8
0
100
AcDbCircle
 62
9
  6
CONTINUOUS
 10
-5.1647150181
 20
6.3799184186
 40
15.610858843
100
AcDbArc
 50
357.3825172531
 51
358.6508352481
  0
ARC
  5
2AC
100
AcDbEntity
  8
0
100
AcDbCircle
 62
9
  6
CONTINUOUS
 10
2.3697509242
 20
6.5173981176
 40
8.206069348
100
AcDbArc
 50
337.4025500979
 51
337.9814918659
  0
ARC
  5
2AD
100
AcDbEntity
  8
0
100
AcDbCircle
 62
9
  6
CONTINUOUS
 10
3.035361555
 20
6.2466614934
 40
7.487505828
100
AcDbArc
 50
337.9925751363
 51
338.1645102673
  0
ARC
  5
2AE
100
AcDbEntity
  8
0
100
AcDbCircle
 62
9
  6
CONTINUOUS
 10
3.6978906815
 20
5.9843850037
 40
6.7749582188
100
AcDbArc
 50
338.1394490971
 51
340.3192458157
  0
ARC
  5
2AF
100
AcDbEntity
  8
0
100
AcDbCircle
 62
9
  6
CONTINUOUS
 10
3.6864419437
 20
5.7598607854
 40
6.735313046
100
AcDbArc
 50
352.5987494104
 51
352.8064588486
  0
ARC
  5
2B0
100
AcDbEntity
  8
0
100
AcDbCircle
 62
9
  6
CONTINUOUS
 10
4.0663459765
 20
5.8500947732
 40
6.3828010096
100
AcDbArc
 50
340.3404082132
 51
340.8866704782
  0
ARC
  5
2B1
100
AcDbEntity
  8
0
100
AcDbCircle
 62
9
  6
CONTINUOUS
 10
4.1475476953
 20
5.8218269893
 40
6.2968197796
100
AcDbArc
 50
340.887771048
 51
341.1705761088
  0
ARC
  5
2B2
100
AcDbEntity
  8
0
100
AcDbCircle
 62
9
  6
CONTINUOUS
 10
4.2160793708
 20
5.7984681031
 40
6.2244165542
100
AcDbArc
 50
341.1704846371
 51
341.7508479333
  0
ARC
  5
2B3
100
AcDbEntity
  8
0
100
AcDbCircle
 62
9
  6
CONTINUOUS
 10
4.5149083037
 20
5.7016265997
 40
5.9102919186
100
AcDbArc
 50
341.735264773
 51
345.9571260071
  0
ARC
  5
2B4
100
AcDbEntity
  8
0
100
AcDbCircle
 62
9
  6
CONTINUOUS
 10
4.8059375839
 20
5.6232986911
 40
5.6089566835
100
AcDbArc
 50
346.011974636
 51
346.5025745077
  0
ARC
  5
2B5
100
AcDbEntity
  8
0
100
AcDbCircle
 62
7
  6
CONTINUOUS
 10
8.4889181033
 20
7.1925710349
 40
3.73
100
AcDbArc
 50
96.0539076486
 51
103.9188002725
  0
ARC
  5
2B6
100
AcDbEntity
  8
0
100
AcDbCircle
 62
7
  6
CONTINUOUS
 10
10.4501369991
 20
9.1537899307
 40
3.73
100
AcDbArc
 50
166.0811997274
 51
173.9460923513
  0
ARC
  5
2B7
100
AcDbEntity
  8
0
100
AcDbCircle
 62
7
  6
CONTINUOUS
 10
3.6444996775
 20
9.1537899307
 40
3.73
100
AcDbArc
 50
6.0539076487
 51
13.9188002726
  0
ARC
  5
2B8
100
AcDbEntity
  8
0
100
AcDbCircle
 62
7
  6
CONTINUOUS
 10
5.6057185732
 20
7.192571035
 40
3.73
100
AcDbArc
 50
76.0811997274
 51
83.9460923514
  0
ARC
  5
2B9
100
AcDbEntity
  8
0
100
AcDbCircle
 62
7
  6
CONTINUOUS
 10
7.7333183383
 20
9.1291396958
 40
2.72
100
AcDbArc
 50
351.3574125267
 51
8.6425874733
  0
ARC
  5
2BA
100
AcDbEntity
  8
0
100
AcDbCircle
 62
7
  6
CONTINUOUS
 10
7.3740683103
 20
9.1544707843
 40
0.25
100
AcDbArc
 50
93.2006734286
 51
115.2146348189
  0
ARC
  5
2BB
100
AcDbEntity
  8
0
100
AcDbCircle
 62
7
  6
CONTINUOUS
 10
6.7205683662
 20
9.1544707843
 40
0.25
100
AcDbArc
 50
64.7853651811
 51
86.7993265714
  0
ARC
  5
2BC
100
AcDbEntity
  8
0
100
AcDbCircle
 62
7
  6
CONTINUOUS
 10
10.4223183383
 20
9.6503896958
 40
0.075
100
AcDbArc
 50
90.0
 51
180.0
  0
ARC
  5
2BD
100
AcDbEntity
  8
0
100
AcDbCircle
 62
7
  6
CONTINUOUS
 10
10.4223183383
 20
9.6452208762
 40
0.075
100
AcDbArc
 50
180.0
 51
246.7624834073
  0
ARC
  5
2BE
100
AcDbEntity
  8
0
100
AcDbCircle
 62
7
  6
CONTINUOUS
 10
10.4223183383
 20
8.6130585153
 40
0.075
100
AcDbArc
 50
113.2375165928
 51
180.0
  0
ARC
  5
2BF
100
AcDbEntity
  8
0
100
AcDbCircle
 62
7
  6
CONTINUOUS
 10
10.4223183383
 20
8.6003896958
 40
0.075
100
AcDbArc
 50
180.0
 51
270.0
  0
ARC
  5
2C0
100
AcDbEntity
  8
0
100
AcDbCircle
 62
7
  6
CONTINUOUS
 10
6.7373183383
 20
9.4689717931
 40
0.05
100
AcDbArc
 50
113.6868993625
 51
180.0
  0
ARC
  5
2C1
100
AcDbEntity
  8
0
100
AcDbCircle
 62
7
  6
CONTINUOUS
 10
7.3573183383
 20
9.4689717931
 40
0.05
100
AcDbArc
 50
0.0
 51
66.3131006375
  0
ARC
  5
2C2
100
AcDbEntity
  8
0
100
AcDbCircle
 62
7
  6
CONTINUOUS
 10
7.3573183383
 20
9.4540028167
 40
0.05
100
AcDbArc
 50
273.2006734286
 51
360.0
  0
ARC
  5
2C3
100
AcDbEntity
  8
0
100
AcDbCircle
 62
7
  6
CONTINUOUS
 10
6.7373183383
 20
9.4540028167
 40
0.05
100
AcDbArc
 50
180.0
 51
266.7993265714
  0
ARC
  5
2C4
100
AcDbEntity
  8
0
100
AcDbCircle
 62
7
  6
CONTINUOUS
 10
10.3730003803
 20
9.530361227
 40
0.05
100
AcDbArc
 50
8.6425874733
 51
66.762483407
  0
ARC
  5
2C5
100
AcDbEntity
  8
0
100
AcDbCircle
 62
7
  6
CONTINUOUS
 10
10.3730003803
 20
8.7279181646
 40
0.05
100
AcDbArc
 50
293.2375165927
 51
351.3574125261
  0
ARC
  5
2C6
100
AcDbEntity
  8
0
100
AcDbCircle
 62
7
  6
CONTINUOUS
 10
6.7011618822
 20
9.5513896958
 40
0.04
100
AcDbArc
 50
293.6868993632
 51
353.9460923521
  0
ARC
  5
2C7
100
AcDbEntity
  8
0
100
AcDbCircle
 62
7
  6
CONTINUOUS
 10
7.3934747943
 20
9.5513896958
 40
0.04
100
AcDbArc
 50
186.0539076479
 51
246.3131006368
  0
ARC
  5
2C8
100
AcDbEntity
  8
0
100
AcDbCircle
 62
7
  6
CONTINUOUS
 10
6.3003183383
 20
10.5953896958
 40
0.517
100
AcDbArc
 50
154.7853651812
 51
205.2146348188
  0
ARC
  5
2C9
100
AcDbEntity
  8
0
100
AcDbCircle
 62
7
  6
CONTINUOUS
 10
5.6063994268
 20
10.2686397237
 40
0.25
100
AcDbArc
 50
3.2006734286
 51
25.2146348189
  0
ARC
  5
2CA
100
AcDbEntity
  8
0
100
AcDbCircle
 62
7
  6
CONTINUOUS
 10
5.9059314592
 20
10.2853896958
 40
0.05
100
AcDbArc
 50
183.2006734286
 51
270.0
  0
ARC
  5
2CB
100
AcDbEntity
  8
0
100
AcDbCircle
 62
7
  6
CONTINUOUS
 10
5.9209004356
 20
10.2853896958
 40
0.05
100
AcDbArc
 50
270.0
 51
336.3131006375
  0
ARC
  5
2CC
100
AcDbEntity
  8
0
100
AcDbCircle
 62
7
  6
CONTINUOUS
 10
6.0033183383
 20
10.2492332397
 40
0.04
100
AcDbArc
 50
96.0539076479
 51
156.3131006368
  0
ARC
  5
2CD
100
AcDbEntity
  8
0
100
AcDbCircle
 62
7
  6
CONTINUOUS
 10
5.6063994268
 20
10.9221396678
 40
0.25
100
AcDbArc
 50
334.7853651811
 51
356.7993265714
  0
ARC
  5
2CE
100
AcDbEntity
  8
0
100
AcDbCircle
 62
7
  6
CONTINUOUS
 10
5.9059314592
 20
10.9053896958
 40
0.05
100
AcDbArc
 50
90.0
 51
176.7993265714
  0
ARC
  5
2CF
100
AcDbEntity
  8
0
100
AcDbCircle
 62
7
  6
CONTINUOUS
 10
5.9209004356
 20
10.9053896958
 40
0.05
100
AcDbArc
 50
23.6868993625
 51
90.0
  0
ARC
  5
2D0
100
AcDbEntity
  8
0
100
AcDbCircle
 62
7
  6
CONTINUOUS
 10
6.0033183383
 20
10.9415461518
 40
0.04
100
AcDbArc
 50
203.6868993632
 51
263.9460923521
  0
ARC
  5
2D1
100
AcDbEntity
  8
0
100
AcDbCircle
 62
7
  6
CONTINUOUS
 10
6.4933353335
 20
10.7742237941
 40
0.04
100
AcDbArc
 50
1.6702677146
 51
76.081199727
  0
ARC
  5
2D2
100
AcDbEntity
  8
0
100
AcDbCircle
 62
7
  6
CONTINUOUS
 10
6.4933353335
 20
10.4165555975
 40
0.04
100
AcDbArc
 50
283.918800273
 51
358.3297322857
  0
ARC
  5
2D3
100
AcDbEntity
  8
0
100
AcDbCircle
 62
7
  6
CONTINUOUS
 10
6.6233183383
 20
10.7653896958
 40
0.01
100
AcDbArc
 50
0.0
 51
90.0
  0
ARC
  5
2D4
100
AcDbEntity
  8
0
100
AcDbCircle
 62
7
  6
CONTINUOUS
 10
6.6233183383
 20
10.4253896958
 40
0.01
100
AcDbArc
 50
270.0
 51
360.0
  0
ARC
  5
2D5
100
AcDbEntity
  8
0
100
AcDbCircle
 62
7
  6
CONTINUOUS
 10
7.0473183383
 20
9.8483896958
 40
0.517
100
AcDbArc
 50
244.7853651812
 51
295.2146348188
  0
ARC
  5
2D6
100
AcDbEntity
  8
0
100
AcDbCircle
 62
7
  6
CONTINUOUS
 10
7.2261524366
 20
10.041406691
 40
0.04
100
AcDbArc
 50
13.9188002729
 51
88.3297322857
  0
ARC
  5
2D7
100
AcDbEntity
  8
0
100
AcDbCircle
 62
7
  6
CONTINUOUS
 10
6.86848424
 20
10.041406691
 40
0.04
100
AcDbArc
 50
91.6702677146
 51
166.0811997272
  0
ARC
  5
2D8
100
AcDbEntity
  8
0
100
AcDbCircle
 62
7
  6
CONTINUOUS
 10
7.2173183383
 20
10.1713896958
 40
0.01
100
AcDbArc
 50
0.0
 51
90.0
  0
ARC
  5
2D9
100
AcDbEntity
  8
0
100
AcDbCircle
 62
7
  6
CONTINUOUS
 10
6.8773183383
 20
10.1713896958
 40
0.01
100
AcDbArc
 50
90.0
 51
180.0
  0
ARC
  5
2DA
100
AcDbEntity
  8
0
100
AcDbCircle
 62
7
  6
CONTINUOUS
 10
7.0473183383
 20
10.5953896958
 40
1.1134351517
100
AcDbArc
 50
196.3732771418
 51
253.5921230556
  0
ARC
  5
2DB
100
AcDbEntity
  8
0
100
AcDbCircle
 62
7
  6
CONTINUOUS
 10
7.0473183383
 20
10.5953896958
 40
1.1134351517
100
AcDbArc
 50
106.4078769444
 51
163.6267228582
  0
ARC
  5
2DC
100
AcDbEntity
  8
0
100
AcDbCircle
 62
7
  6
CONTINUOUS
 10
7.0473183383
 20
10.5953896958
 40
1.1134351517
100
AcDbArc
 50
16.3732771418
 51
73.5921230556
  0
ARC
  5
2DD
100
AcDbEntity
  8
0
100
AcDbCircle
 62
7
  6
CONTINUOUS
 10
7.0473183383
 20
10.5953896958
 40
1.1134351517
100
AcDbArc
 50
286.4078769444
 51
343.6267228582
  0
ARC
  5
2DE
100
AcDbEntity
  8
0
100
AcDbCircle
 62
9
  6
CONTINUOUS
 10
7.0473183383
 20
10.5953896958
 40
1.1032228352
100
AcDbArc
 50
196.2992285687
 51
253.7379462369
  0
ARC
  5
2DF
100
AcDbEntity
  8
0
100
AcDbCircle
 62
9
  6
CONTINUOUS
 10
7.0473183383
 20
10.5953896958
 40
1.1032228352
100
AcDbArc
 50
106.2590950599
 51
163.6982381156
  0
ARC
  5
2E0
100
AcDbEntity
  8
0
100
AcDbCircle
 62
9
  6
CONTINUOUS
 10
7.0473183383
 20
10.5953896958
 40
1.1032228352
100
AcDbArc
 50
16.2992285687
 51
73.7379462369
  0
ARC
  5
2E1
100
AcDbEntity
  8
0
100
AcDbCircle
 62
9
  6
CONTINUOUS
 10
7.0473183383
 20
10.5953896958
 40
1.1032228352
100
AcDbArc
 50
286.2590950599
 51
343.6982381156
  0
ARC
  5
2E2
100
AcDbEntity
  8
0
100
AcDbCircle
 62
9
  6
CONTINUOUS
 10
7.0473183383
 20
10.5953896958
 40
0.9347230301
100
AcDbArc
 50
107.8160570201
 51
162.1882894335
  0
ARC
  5
2E3
100
AcDbEntity
  8
0
100
AcDbCircle
 62
9
  6
CONTINUOUS
 10
7.0473183383
 20
10.5953896958
 40
0.9347230301
100
AcDbArc
 50
197.8146199648
 51
252.1868294476
  0
ARC
  5
2E4
100
AcDbEntity
  8
0
100
AcDbCircle
 62
9
  6
CONTINUOUS
 10
7.0473183383
 20
10.5953896958
 40
0.9347230301
100
AcDbArc
 50
287.8160570201
 51
342.1882894335
  0
ARC
  5
2E5
100
AcDbEntity
  8
0
100
AcDbCircle
 62
9
  6
CONTINUOUS
 10
7.0473183383
 20
10.5953896958
 40
0.9347230301
100
AcDbArc
 50
17.8146199648
 51
72.1868294476
  0
ARC
  5
2E6
100
AcDbEntity
  8
0
100
AcDbCircle
 62
7
  6
CONTINUOUS
 10
7.0473183383
 20
10.5953896958
 40
0.928
100
AcDbArc
 50
17.8892408728
 51
72.1107591272
  0
ARC
  5
2E7
100
AcDbEntity
  8
0
100
AcDbCircle
 62
7
  6
CONTINUOUS
 10
7.0473183383
 20
10.5953896958
 40
0.928
100
AcDbArc
 50
287.8892408728
 51
342.1107591272
  0
ARC
  5
2E8
100
AcDbEntity
  8
0
100
AcDbCircle
 62
7
  6
CONTINUOUS
 10
7.0473183383
 20
10.5953896958
 40
0.928
100
AcDbArc
 50
197.8892408728
 51
252.1107591272
  0
ARC
  5
2E9
100
AcDbEntity
  8
0
100
AcDbCircle
 62
7
  6
CONTINUOUS
 10
7.0473183383
 20
10.5953896958
 40
0.928
100
AcDbArc
 50
107.8892408728
 51
162.1107591272
  0
ARC
  5
2EA
100
AcDbEntity
  8
0
100
AcDbCircle
 62
9
  6
CONTINUOUS
 10
7.0473183383
 20
10.5953896958
 40
0.9159658819
100
AcDbArc
 50
108.0047267002
 51
161.9952732998
  0
ARC
  5
2EB
100
AcDbEntity
  8
0
100
AcDbCircle
 62
9
  6
CONTINUOUS
 10
7.0473183383
 20
10.5953896958
 40
0.9159658819
100
AcDbArc
 50
198.0047267002
 51
251.9952732998
  0
ARC
  5
2EC
100
AcDbEntity
  8
0
100
AcDbCircle
 62
9
  6
CONTINUOUS
 10
7.0473183383
 20
10.5953896958
 40
0.9159658819
100
AcDbArc
 50
288.0047267002
 51
341.9952732998
  0
ARC
  5
2ED
100
AcDbEntity
  8
0
100
AcDbCircle
 62
9
  6
CONTINUOUS
 10
7.0473183383
 20
10.5953896958
 40
0.9159658819
100
AcDbArc
 50
18.0047267002
 51
71.9952732998
  0
ARC
  5
2EE
100
AcDbEntity
  8
0
100
AcDbCircle
 62
9
  6
CONTINUOUS
 10
7.0473183383
 20
10.5953896958
 40
0.8160949729
100
AcDbArc
 50
199.0246152498
 51
251.0055052397
  0
ARC
  5
2EF
100
AcDbEntity
  8
0
100
AcDbCircle
 62
9
  6
CONTINUOUS
 10
7.0473183383
 20
10.5953896958
 40
0.8160949729
100
AcDbArc
 50
108.9944947603
 51
160.9753847502
  0
ARC
  5
2F0
100
AcDbEntity
  8
0
100
AcDbCircle
 62
9
  6
CONTINUOUS
 10
7.0473183383
 20
10.5953896958
 40
0.8160949729
100
AcDbArc
 50
19.0246152498
 51
71.0055052397
  0
ARC
  5
2F1
100
AcDbEntity
  8
0
100
AcDbCircle
 62
9
  6
CONTINUOUS
 10
7.0473183383
 20
10.5953896958
 40
0.8160949729
100
AcDbArc
 50
288.9944947603
 51
340.9753847502
  0
ARC
  5
2F2
100
AcDbEntity
  8
0
100
AcDbCircle
 62
7
  6
CONTINUOUS
 10
7.0473183383
 20
10.5953896958
 40
0.7554637704
100
AcDbArc
 50
19.728040331
 51
70.272150174
  0
ARC
  5
2F3
100
AcDbEntity
  8
0
100
AcDbCircle
 62
7
  6
CONTINUOUS
 10
7.0473183383
 20
10.5953896958
 40
0.7554637704
100
AcDbArc
 50
289.7282671289
 51
340.2721743463
  0
ARC
  5
2F4
100
AcDbEntity
  8
0
100
AcDbCircle
 62
7
  6
CONTINUOUS
 10
7.0473183383
 20
10.5953896958
 40
0.7554637704
100
AcDbArc
 50
199.728040331
 51
250.272150174
  0
ARC
  5
2F5
100
AcDbEntity
  8
0
100
AcDbCircle
 62
7
  6
CONTINUOUS
 10
7.0473183383
 20
10.5953896958
 40
0.7554637704
100
AcDbArc
 50
109.7282671289
 51
160.2721743463
  0
ARC
  5
2F6
100
AcDbEntity
  8
0
100
AcDbCircle
 62
7
  6
CONTINUOUS
 10
7.0473183383
 20
10.5953896958
 40
0.5181047788
100
AcDbArc
 50
200.4208140034
 51
249.6480519823
  0
ARC
  5
2F7
100
AcDbEntity
  8
0
100
AcDbCircle
 62
7
  6
CONTINUOUS
 10
7.0473183383
 20
10.5953896958
 40
0.5181047788
100
AcDbArc
 50
110.3519480177
 51
159.5791859966
  0
ARC
  5
2F8
100
AcDbEntity
  8
0
100
AcDbCircle
 62
7
  6
CONTINUOUS
 10
7.0473183383
 20
10.5953896958
 40
0.5181047788
100
AcDbArc
 50
20.4208140034
 51
69.6480519823
  0
ARC
  5
2F9
100
AcDbEntity
  8
0
100
AcDbCircle
 62
7
  6
CONTINUOUS
 10
7.0473183383
 20
10.5953896958
 40
0.5181047788
100
AcDbArc
 50
290.3519480177
 51
339.5791859966
  0
ARC
  5
2FA
100
AcDbEntity
  8
0
100
AcDbCircle
 62
9
  6
CONTINUOUS
 10
7.0473183383
 20
10.5953896958
 40
0.4757780941
100
AcDbArc
 50
292.2601196249
 51
337.6803119349
  0
ARC
  5
2FB
100
AcDbEntity
  8
0
100
AcDbCircle
 62
9
  6
CONTINUOUS
 10
7.0473183383
 20
10.5953896958
 40
0.4757780941
100
AcDbArc
 50
22.3236634594
 51
67.7270407389
  0
ARC
  5
2FC
100
AcDbEntity
  8
0
100
AcDbCircle
 62
9
  6
CONTINUOUS
 10
7.0473183383
 20
10.5953896958
 40
0.4757780941
100
AcDbArc
 50
112.2601196249
 51
157.6803119349
  0
ARC
  5
2FD
100
AcDbEntity
  8
0
100
AcDbCircle
 62
9
  6
CONTINUOUS
 10
7.0473183383
 20
10.5953896958
 40
0.4757780941
100
AcDbArc
 50
202.3236634594
 51
247.7270407389
  0
ARC
  5
2FE
100
AcDbEntity
  8
0
100
AcDbCircle
 62
7
  6
CONTINUOUS
 10
7.0473167449
 20
10.5953875739
 40
0.4509971357
100
AcDbArc
 50
203.3701733381
 51
246.6297384361
  0
ARC
  5
2FF
100
AcDbEntity
  8
0
100
AcDbCircle
 62
7
  6
CONTINUOUS
 10
7.047322133
 20
10.5953866537
 40
0.4509947428
100
AcDbArc
 50
293.3700495756
 51
336.6298230492
  0
ARC
  5
300
100
AcDbEntity
  8
0
100
AcDbCircle
 62
7
  6
CONTINUOUS
 10
7.0473140133
 20
10.5953959991
 40
0.4509917904
100
AcDbArc
 50
113.3701522066
 51
156.6301772815
  0
ARC
  5
301
100
AcDbEntity
  8
0
100
AcDbCircle
 62
7
  6
CONTINUOUS
 10
7.0473261756
 20
10.5953960947
 40
0.4509890482
100
AcDbArc
 50
23.3699888303
 51
66.6302511615
  0
ARC
  5
302
100
AcDbEntity
  8
0
100
AcDbCircle
 62
7
  6
CONTINUOUS
 10
7.0473183383
 20
10.5953896958
 40
0.45
100
AcDbArc
 50
247.0821777294
 51
247.2180495117
  0
ARC
  5
303
100
AcDbEntity
  8
0
100
AcDbCircle
 62
7
  6
CONTINUOUS
 10
7.0473183383
 20
10.5953896958
 40
0.45
100
AcDbArc
 50
156.9519382612
 51
157.474320816
  0
ARC
  5
304
100
AcDbEntity
  8
0
100
AcDbCircle
 62
7
  6
CONTINUOUS
 10
7.0473183383
 20
10.5953896958
 40
0.45
100
AcDbArc
 50
112.7819504883
 51
112.9178222706
  0
ARC
  5
305
100
AcDbEntity
  8
0
100
AcDbCircle
 62
7
  6
CONTINUOUS
 10
7.0473183383
 20
10.5953896958
 40
0.45
100
AcDbArc
 50
336.9519382612
 51
337.474320816
  0
ARC
  5
306
100
AcDbEntity
  8
0
100
AcDbCircle
 62
7
  6
CONTINUOUS
 10
7.0473183383
 20
10.5953896958
 40
0.45
100
AcDbArc
 50
292.7819504883
 51
292.9178222706
  0
ARC
  5
307
100
AcDbEntity
  8
0
100
AcDbCircle
 62
7
  6
CONTINUOUS
 10
7.0473183383
 20
10.5953896958
 40
0.45
100
AcDbArc
 50
22.525679184
 51
23.0480617388
  0
ARC
  5
308
100
AcDbEntity
  8
0
100
AcDbCircle
 62
7
  6
CONTINUOUS
 10
7.0473183383
 20
10.5953896958
 40
0.45
100
AcDbArc
 50
67.0821777294
 51
67.2180495117
  0
CIRCLE
  5
309
100
AcDbEntity
  8
0
100
AcDbCircle
 62
9
  6
CONTINUOUS
 10
7.0473183383
 20
10.5953896958
 40
0.2988618956
  0
CIRCLE
  5
30A
100
AcDbEntity
  8
0
100
AcDbCircle
 62
9
  6
CONTINUOUS
 10
7.0473183383
 20
10.5953896958
 40
0.292235246
  0
CIRCLE
  5
30B
100
AcDbEntity
  8
0
100
AcDbCircle
 62
7
  6
CONTINUOUS
 10
7.0473183383
 20
10.5953896958
 40
0.28
  0
ARC
  5
30C
100
AcDbEntity
  8
0
100
AcDbCircle
 62
7
  6
CONTINUOUS
 10
7.0473183383
 20
10.5953896958
 40
0.28
100
AcDbArc
 50
0.0
 51
168.0185110481
  0
CIRCLE
  5
30D
100
AcDbEntity
  8
0
100
AcDbCircle
 62
9
  6
CONTINUOUS
 10
7.0473183383
 20
10.5953896958
 40
0.2258064516
  0
ARC
  5
30E
100
AcDbEntity
  8
0
100
AcDbCircle
 62
7
  6
CONTINUOUS
 10
7.0473183383
 20
11.3423896958
 40
0.517
100
AcDbArc
 50
64.7853651812
 51
115.2146348188
  0
ARC
  5
30F
100
AcDbEntity
  8
0
100
AcDbCircle
 62
7
  6
CONTINUOUS
 10
6.7373183383
 20
11.7218075985
 40
0.05
100
AcDbArc
 50
180.0
 51
246.3131006375
  0
ARC
  5
310
100
AcDbEntity
  8
0
100
AcDbCircle
 62
7
  6
CONTINUOUS
 10
6.7373183383
 20
11.7367765749
 40
0.05
100
AcDbArc
 50
93.2006734286
 51
180.0
  0
ARC
  5
311
100
AcDbEntity
  8
0
100
AcDbCircle
 62
7
  6
CONTINUOUS
 10
6.86848424
 20
11.1493727006
 40
0.04
100
AcDbArc
 50
193.9188002729
 51
268.3297322857
  0
ARC
  5
312
100
AcDbEntity
  8
0
100
AcDbCircle
 62
7
  6
CONTINUOUS
 10
6.7011618822
 20
11.6393896958
 40
0.04
100
AcDbArc
 50
6.0539076479
 51
66.3131006368
  0
ARC
  5
313
100
AcDbEntity
  8
0
100
AcDbCircle
 62
7
  6
CONTINUOUS
 10
7.2261524366
 20
11.1493727006
 40
0.04
100
AcDbArc
 50
271.6702677146
 51
346.0811997272
  0
ARC
  5
314
100
AcDbEntity
  8
0
100
AcDbCircle
 62
7
  6
CONTINUOUS
 10
6.8773183383
 20
11.0193896958
 40
0.01
100
AcDbArc
 50
180.0
 51
270.0
  0
ARC
  5
315
100
AcDbEntity
  8
0
100
AcDbCircle
 62
7
  6
CONTINUOUS
 10
7.2173183383
 20
11.0193896958
 40
0.01
100
AcDbArc
 50
270.0
 51
360.0
  0
ARC
  5
316
100
AcDbEntity
  8
0
100
AcDbCircle
 62
7
  6
CONTINUOUS
 10
3.6444996775
 20
12.0369894608
 40
3.73
100
AcDbArc
 50
346.0811997274
 51
353.9460923513
  0
ARC
  5
317
100
AcDbEntity
  8
0
100
AcDbCircle
 62
7
  6
CONTINUOUS
 10
5.6057185732
 20
13.9982083566
 40
3.73
100
AcDbArc
 50
276.0539076486
 51
283.9188002725
  0
ARC
  5
318
100
AcDbEntity
  8
0
100
AcDbCircle
 62
7
  6
CONTINUOUS
 10
6.7205683662
 20
12.0363086073
 40
0.25
100
AcDbArc
 50
273.2006734286
 51
295.2146348189
  0
ARC
  5
319
100
AcDbEntity
  8
0
100
AcDbCircle
 62
7
  6
CONTINUOUS
 10
11.0465369285
 20
10.5964303348
 40
1.0612978978
100
AcDbArc
 50
305.1563515685
 51
305.6633240375
  0
ARC
  5
31A
100
AcDbEntity
  8
0
100
AcDbCircle
 62
7
  6
CONTINUOUS
 10
11.0466583571
 20
10.5962581116
 40
1.0610871711
100
AcDbArc
 50
304.8420454758
 51
305.1563456142
  0
ARC
  5
31B
100
AcDbEntity
  8
0
100
AcDbCircle
 62
7
  6
CONTINUOUS
 10
11.0470942319
 20
10.5950640235
 40
1.0596062227
100
AcDbArc
 50
234.8370178023
 51
235.1603090245
  0
ARC
  5
31C
100
AcDbEntity
  8
0
100
AcDbCircle
 62
7
  6
CONTINUOUS
 10
11.0469873037
 20
10.5949124185
 40
1.0594207026
100
AcDbArc
 50
234.3144657785
 51
234.8370235192
  0
ARC
  5
31D
100
AcDbEntity
  8
0
100
AcDbCircle
 62
7
  6
CONTINUOUS
 10
7.7943183383
 20
10.5953896958
 40
0.517
100
AcDbArc
 50
334.7853651812
 51
25.2146348188
  0
ARC
  5
31E
100
AcDbEntity
  8
0
100
AcDbCircle
 62
7
  6
CONTINUOUS
 10
8.4882372498
 20
10.9221396678
 40
0.25
100
AcDbArc
 50
183.2006734286
 51
205.2146348189
  0
ARC
  5
31F
100
AcDbEntity
  8
0
100
AcDbCircle
 62
7
  6
CONTINUOUS
 10
8.4882372498
 20
10.2686397237
 40
0.25
100
AcDbArc
 50
154.7853651811
 51
176.7993265714
  0
ARC
  5
320
100
AcDbEntity
  8
0
100
AcDbCircle
 62
7
  6
CONTINUOUS
 10
8.173736241
 20
10.2853896958
 40
0.05
100
AcDbArc
 50
203.6868993625
 51
270.0
  0
ARC
  5
321
100
AcDbEntity
  8
0
100
AcDbCircle
 62
7
  6
CONTINUOUS
 10
8.1887052174
 20
10.9053896958
 40
0.05
100
AcDbArc
 50
3.2006734286
 51
90.0
  0
ARC
  5
322
100
AcDbEntity
  8
0
100
AcDbCircle
 62
7
  6
CONTINUOUS
 10
8.1887052174
 20
10.2853896958
 40
0.05
100
AcDbArc
 50
270.0
 51
356.7993265714
  0
ARC
  5
323
100
AcDbEntity
  8
0
100
AcDbCircle
 62
7
  6
CONTINUOUS
 10
8.173736241
 20
10.9053896958
 40
0.05
100
AcDbArc
 50
90.0
 51
156.3131006375
  0
ARC
  5
324
100
AcDbEntity
  8
0
100
AcDbCircle
 62
7
  6
CONTINUOUS
 10
7.3573183383
 20
11.7218075985
 40
0.05
100
AcDbArc
 50
293.6868993625
 51
360.0
  0
ARC
  5
325
100
AcDbEntity
  8
0
100
AcDbCircle
 62
7
  6
CONTINUOUS
 10
7.3573183383
 20
11.7367765749
 40
0.05
100
AcDbArc
 50
0.0
 51
86.7993265714
  0
ARC
  5
326
100
AcDbEntity
  8
0
100
AcDbCircle
 62
7
  6
CONTINUOUS
 10
7.6013013431
 20
10.4165555975
 40
0.04
100
AcDbArc
 50
181.6702677146
 51
256.081199727
  0
ARC
  5
327
100
AcDbEntity
  8
0
100
AcDbCircle
 62
7
  6
CONTINUOUS
 10
7.6013013431
 20
10.7742237941
 40
0.04
100
AcDbArc
 50
103.918800273
 51
178.3297322857
  0
ARC
  5
328
100
AcDbEntity
  8
0
100
AcDbCircle
 62
7
  6
CONTINUOUS
 10
8.0913183383
 20
10.2492332397
 40
0.04
100
AcDbArc
 50
23.6868993632
 51
83.9460923521
  0
ARC
  5
329
100
AcDbEntity
  8
0
100
AcDbCircle
 62
7
  6
CONTINUOUS
 10
8.0913183383
 20
10.9415461518
 40
0.04
100
AcDbArc
 50
276.0539076479
 51
336.3131006368
  0
ARC
  5
32A
100
AcDbEntity
  8
0
100
AcDbCircle
 62
7
  6
CONTINUOUS
 10
7.3934747943
 20
11.6393896958
 40
0.04
100
AcDbArc
 50
113.6868993632
 51
173.9460923521
  0
ARC
  5
32B
100
AcDbEntity
  8
0
100
AcDbCircle
 62
7
  6
CONTINUOUS
 10
7.4713183383
 20
10.7653896958
 40
0.01
100
AcDbArc
 50
90.0
 51
180.0
  0
ARC
  5
32C
100
AcDbEntity
  8
0
100
AcDbCircle
 62
7
  6
CONTINUOUS
 10
7.4713183383
 20
10.4253896958
 40
0.01
100
AcDbArc
 50
180.0
 51
270.0
  0
ARC
  5
32D
100
AcDbEntity
  8
0
100
AcDbCircle
 62
7
  6
CONTINUOUS
 10
10.4501369991
 20
12.0369894608
 40
3.73
100
AcDbArc
 50
186.0539076487
 51
193.9188002726
  0
ARC
  5
32E
100
AcDbEntity
  8
0
100
AcDbCircle
 62
7
  6
CONTINUOUS
 10
8.4889181033
 20
13.9982083566
 40
3.73
100
AcDbArc
 50
256.0811997274
 51
263.9460923514
  0
ARC
  5
32F
100
AcDbEntity
  8
0
100
AcDbCircle
 62
7
  6
CONTINUOUS
 10
7.3740683103
 20
12.0363086073
 40
0.25
100
AcDbArc
 50
244.7853651811
 51
266.7993265714
  0
ARC
  5
330
100
AcDbEntity
  8
0
100
AcDbCircle
 62
9
  6
CONTINUOUS
 10
31.6656523838
 20
6.5013771661
 40
20.0188055638
100
AcDbArc
 50
181.124866343
 51
181.3997605925
  0
ARC
  5
331
100
AcDbEntity
  8
0
100
AcDbCircle
 62
9
  6
CONTINUOUS
 10
27.2593516947
 20
6.3799184186
 40
15.610858843
100
AcDbArc
 50
181.3491647519
 51
182.6174827469
  0
ARC
  5
332
100
AcDbEntity
  8
0
100
AcDbCircle
 62
9
  6
CONTINUOUS
 10
19.724885752
 20
6.5173981175
 40
8.2060693476
100
AcDbArc
 50
202.0185081341
 51
202.5974499021
  0
ARC
  5
333
100
AcDbEntity
  8
0
100
AcDbCircle
 62
9
  6
CONTINUOUS
 10
19.0592751197
 20
6.2466614927
 40
7.487505826
100
AcDbArc
 50
201.8354897327
 51
202.0074248637
  0
ARC
  5
334
100
AcDbEntity
  8
0
100
AcDbCircle
 62
9
  6
CONTINUOUS
 10
18.3967459951
 20
5.9843850037
 40
6.7749582188
100
AcDbArc
 50
199.6807541843
 51
201.8605509029
  0
ARC
  5
335
100
AcDbEntity
  8
0
100
AcDbCircle
 62
9
  6
CONTINUOUS
 10
18.4081947334
 20
5.7598607855
 40
6.7353130465
100
AcDbArc
 50
187.1935411514
 51
187.4012505896
  0
ARC
  5
336
100
AcDbEntity
  8
0
100
AcDbCircle
 62
9
  6
CONTINUOUS
 10
18.0282906997
 20
5.8500947731
 40
6.3828010093
100
AcDbArc
 50
199.1133295218
 51
199.6595917868
  0
ARC
  5
337
100
AcDbEntity
  8
0
100
AcDbCircle
 62
9
  6
CONTINUOUS
 10
17.9470889817
 20
5.8218269894
 40
6.2968197801
100
AcDbArc
 50
198.8294238912
 51
199.112228952
  0
ARC
  5
338
100
AcDbEntity
  8
0
100
AcDbCircle
 62
9
  6
CONTINUOUS
 10
17.8785573057
 20
5.7984681031
 40
6.2244165541
100
AcDbArc
 50
198.2491520667
 51
198.8295153629
  0
ARC
  5
339
100
AcDbEntity
  8
0
100
AcDbCircle
 62
9
  6
CONTINUOUS
 10
17.5797283728
 20
5.7016265997
 40
5.9102919186
100
AcDbArc
 50
194.0428739929
 51
198.264735227
  0
ARC
  5
33A
100
AcDbEntity
  8
0
100
AcDbCircle
 62
9
  6
CONTINUOUS
 10
17.2886990925
 20
5.623298691
 40
5.6089566833
100
AcDbArc
 50
193.4974254923
 51
193.988025364
  0
ARC
  5
33B
100
AcDbEntity
  8
0
100
AcDbCircle
 62
7
  6
CONTINUOUS
 10
16.4889181033
 20
7.1925710349
 40
3.73
100
AcDbArc
 50
96.0539076486
 51
103.9188002725
  0
ARC
  5
33C
100
AcDbEntity
  8
0
100
AcDbCircle
 62
7
  6
CONTINUOUS
 10
18.4501369991
 20
9.1537899307
 40
3.73
100
AcDbArc
 50
166.0811997274
 51
173.9460923513
  0
ARC
  5
33D
100
AcDbEntity
  8
0
100
AcDbCircle
 62
7
  6
CONTINUOUS
 10
11.6444996775
 20
9.1537899307
 40
3.73
100
AcDbArc
 50
6.0539076487
 51
13.9188002726
  0
ARC
  5
33E
100
AcDbEntity
  8
0
100
AcDbCircle
 62
7
  6
CONTINUOUS
 10
13.6057185732
 20
7.192571035
 40
3.73
100
AcDbArc
 50
76.0811997274
 51
83.9460923514
  0
ARC
  5
33F
100
AcDbEntity
  8
0
100
AcDbCircle
 62
7
  6
CONTINUOUS
 10
14.3613183383
 20
9.1291396958
 40
2.72
100
AcDbArc
 50
171.3574125268
 51
188.6425874731
  0
ARC
  5
340
100
AcDbEntity
  8
0
100
AcDbCircle
 62
7
  6
CONTINUOUS
 10
15.3740683103
 20
9.1544707843
 40
0.25
100
AcDbArc
 50
93.2006734286
 51
115.2146348189
  0
ARC
  5
341
100
AcDbEntity
  8
0
100
AcDbCircle
 62
7
  6
CONTINUOUS
 10
14.7205683662
 20
9.1544707843
 40
0.25
100
AcDbArc
 50
64.7853651811
 51
86.7993265714
  0
ARC
  5
342
100
AcDbEntity
  8
0
100
AcDbCircle
 62
7
  6
CONTINUOUS
 10
11.6723183383
 20
9.6503896958
 40
0.075
100
AcDbArc
 50
0.0
 51
90.0
  0
ARC
  5
343
100
AcDbEntity
  8
0
100
AcDbCircle
 62
7
  6
CONTINUOUS
 10
11.6723183383
 20
9.6452208762
 40
0.075
100
AcDbArc
 50
293.2375165924
 51
360.0
  0
ARC
  5
344
100
AcDbEntity
  8
0
100
AcDbCircle
 62
7
  6
CONTINUOUS
 10
11.6723183383
 20
8.6130585153
 40
0.075
100
AcDbArc
 50
0.0
 51
66.7624834078
  0
ARC
  5
345
100
AcDbEntity
  8
0
100
AcDbCircle
 62
7
  6
CONTINUOUS
 10
11.6723183383
 20
8.6003896958
 40
0.075
100
AcDbArc
 50
270.0
 51
360.0
  0
ARC
  5
346
100
AcDbEntity
  8
0
100
AcDbCircle
 62
7
  6
CONTINUOUS
 10
14.7373183383
 20
9.4689717931
 40
0.05
100
AcDbArc
 50
113.6868993625
 51
180.0
  0
ARC
  5
347
100
AcDbEntity
  8
0
100
AcDbCircle
 62
7
  6
CONTINUOUS
 10
15.3573183383
 20
9.4689717931
 40
0.05
100
AcDbArc
 50
0.0
 51
66.3131006375
  0
ARC
  5
348
100
AcDbEntity
  8
0
100
AcDbCircle
 62
7
  6
CONTINUOUS
 10
15.3573183383
 20
9.4540028167
 40
0.05
100
AcDbArc
 50
273.2006734286
 51
360.0
  0
ARC
  5
349
100
AcDbEntity
  8
0
100
AcDbCircle
 62
7
  6
CONTINUOUS
 10
14.7373183383
 20
9.4540028167
 40
0.05
100
AcDbArc
 50
180.0
 51
266.7993265714
  0
ARC
  5
34A
100
AcDbEntity
  8
0
100
AcDbCircle
 62
7
  6
CONTINUOUS
 10
11.7216362963
 20
9.530361227
 40
0.05
100
AcDbArc
 50
113.2375165923
 51
171.3574125268
  0
ARC
  5
34B
100
AcDbEntity
  8
0
100
AcDbCircle
 62
7
  6
CONTINUOUS
 10
11.7216362963
 20
8.7279181646
 40
0.05
100
AcDbArc
 50
188.6425874731
 51
246.7624834078
  0
ARC
  5
34C
100
AcDbEntity
  8
0
100
AcDbCircle
 62
7
  6
CONTINUOUS
 10
14.7011618822
 20
9.5513896958
 40
0.04
100
AcDbArc
 50
293.6868993632
 51
353.9460923521
  0
ARC
  5
34D
100
AcDbEntity
  8
0
100
AcDbCircle
 62
7
  6
CONTINUOUS
 10
15.3934747943
 20
9.5513896958
 40
0.04
100
AcDbArc
 50
186.0539076479
 51
246.3131006368
  0
ARC
  5
34E
100
AcDbEntity
  8
0
100
AcDbCircle
 62
7
  6
CONTINUOUS
 10
11.0473183383
 20
10.5953896958
 40
1.4805376917
100
AcDbArc
 50
294.134371545
 51
245.865628455
  0
ARC
  5
34F
100
AcDbEntity
  8
0
100
AcDbCircle
 62
9
  6
CONTINUOUS
 10
11.0473183383
 20
10.5953896958
 40
1.4732398165
100
AcDbArc
 50
294.2888971444
 51
245.7124752297
  0
ARC
  5
350
100
AcDbEntity
  8
0
100
AcDbCircle
 62
7
  6
CONTINUOUS
 10
11.0473183383
 20
10.5953896958
 40
1.4111559232
100
AcDbArc
 50
295.670019008
 51
244.329980992
  0
ARC
  5
351
100
AcDbEntity
  8
0
100
AcDbCircle
 62
9
  6
CONTINUOUS
 10
11.0473183383
 20
10.5953896958
 40
1.4054048715
100
AcDbArc
 50
295.8033447954
 51
244.1940885716
  0
ARC
  5
352
100
AcDbEntity
  8
0
100
AcDbCircle
 62
7
  6
CONTINUOUS
 10
11.0473183383
 20
10.5953896958
 40
1.3064829068
100
AcDbArc
 50
298.2954259989
 51
241.7045740011
  0
ARC
  5
353
100
AcDbEntity
  8
0
100
AcDbCircle
 62
7
  6
CONTINUOUS
 10
11.0473183383
 20
10.5953896958
 40
1.2523002331
100
AcDbArc
 50
299.9231901047
 51
240.0833578932
  0
ARC
  5
354
100
AcDbEntity
  8
0
100
AcDbCircle
 62
7
  6
CONTINUOUS
 10
11.0473183383
 20
10.5953896958
 40
1.2500007563
100
AcDbArc
 50
299.9333801533
 51
240.0661956426
  0
ARC
  5
355
100
AcDbEntity
  8
0
100
AcDbCircle
 62
7
  6
CONTINUOUS
 10
11.0473183835
 20
10.5953892938
 40
1.059998451
100
AcDbArc
 50
305.6618132931
 51
234.3146217617
  0
CIRCLE
  5
356
100
AcDbEntity
  8
0
100
AcDbCircle
 62
7
  6
CONTINUOUS
 10
11.0473183383
 20
10.5953896958
 40
0.545
  0
CIRCLE
  5
357
100
AcDbEntity
  8
0
100
AcDbCircle
 62
9
  6
CONTINUOUS
 10
11.0473183383
 20
10.5953896958
 40
0.525
  0
CIRCLE
  5
358
100
AcDbEntity
  8
0
100
AcDbCircle
 62
7
  6
CONTINUOUS
 10
11.0473183383
 20
10.5953896958
 40
0.49
  0
ARC
  5
359
100
AcDbEntity
  8
0
100
AcDbCircle
 62
7
  6
CONTINUOUS
 10
14.3003183383
 20
10.5953896958
 40
0.517
100
AcDbArc
 50
154.7853651812
 51
205.2146348188
  0
ARC
  5
35A
100
AcDbEntity
  8
0
100
AcDbCircle
 62
7
  6
CONTINUOUS
 10
13.6063994268
 20
10.9221396678
 40
0.25
100
AcDbArc
 50
334.7853651811
 51
356.7993265714
  0
ARC
  5
35B
100
AcDbEntity
  8
0
100
AcDbCircle
 62
7
  6
CONTINUOUS
 10
13.6063994268
 20
10.2686397237
 40
0.25
100
AcDbArc
 50
3.2006734286
 51
25.2146348189
  0
ARC
  5
35C
100
AcDbEntity
  8
0
100
AcDbCircle
 62
7
  6
CONTINUOUS
 10
13.9059314592
 20
10.9053896958
 40
0.05
100
AcDbArc
 50
90.0
 51
176.7993265714
  0
ARC
  5
35D
100
AcDbEntity
  8
0
100
AcDbCircle
 62
7
  6
CONTINUOUS
 10
13.9059314592
 20
10.2853896958
 40
0.05
100
AcDbArc
 50
183.2006734286
 51
270.0
  0
ARC
  5
35E
100
AcDbEntity
  8
0
100
AcDbCircle
 62
7
  6
CONTINUOUS
 10
13.9209004356
 20
10.2853896958
 40
0.05
100
AcDbArc
 50
270.0
 51
336.3131006375
  0
ARC
  5
35F
100
AcDbEntity
  8
0
100
AcDbCircle
 62
7
  6
CONTINUOUS
 10
13.9209004356
 20
10.9053896958
 40
0.05
100
AcDbArc
 50
23.6868993625
 51
90.0
  0
ARC
  5
360
100
AcDbEntity
  8
0
100
AcDbCircle
 62
7
  6
CONTINUOUS
 10
14.4933353335
 20
10.7742237941
 40
0.04
100
AcDbArc
 50
1.6702677146
 51
76.081199727
  0
ARC
  5
361
100
AcDbEntity
  8
0
100
AcDbCircle
 62
7
  6
CONTINUOUS
 10
14.0033183383
 20
10.2492332397
 40
0.04
100
AcDbArc
 50
96.0539076479
 51
156.3131006368
  0
ARC
  5
362
100
AcDbEntity
  8
0
100
AcDbCircle
 62
7
  6
CONTINUOUS
 10
14.0033183383
 20
10.9415461518
 40
0.04
100
AcDbArc
 50
203.6868993632
 51
263.9460923521
  0
ARC
  5
363
100
AcDbEntity
  8
0
100
AcDbCircle
 62
7
  6
CONTINUOUS
 10
14.4933353335
 20
10.4165555975
 40
0.04
100
AcDbArc
 50
283.918800273
 51
358.3297322857
  0
ARC
  5
364
100
AcDbEntity
  8
0
100
AcDbCircle
 62
7
  6
CONTINUOUS
 10
14.6233183383
 20
10.7653896958
 40
0.01
100
AcDbArc
 50
0.0
 51
90.0
  0
ARC
  5
365
100
AcDbEntity
  8
0
100
AcDbCircle
 62
7
  6
CONTINUOUS
 10
14.6233183383
 20
10.4253896958
 40
0.01
100
AcDbArc
 50
270.0
 51
360.0
  0
ARC
  5
366
100
AcDbEntity
  8
0
100
AcDbCircle
 62
7
  6
CONTINUOUS
 10
14.7373183383
 20
11.7218075985
 40
0.05
100
AcDbArc
 50
180.0
 51
246.3131006375
  0
ARC
  5
367
100
AcDbEntity
  8
0
100
AcDbCircle
 62
7
  6
CONTINUOUS
 10
14.7373183383
 20
11.7367765749
 40
0.05
100
AcDbArc
 50
93.2006734286
 51
180.0
  0
ARC
  5
368
100
AcDbEntity
  8
0
100
AcDbCircle
 62
7
  6
CONTINUOUS
 10
14.7011618822
 20
11.6393896958
 40
0.04
100
AcDbArc
 50
6.0539076479
 51
66.3131006368
  0
ARC
  5
369
100
AcDbEntity
  8
0
100
AcDbCircle
 62
7
  6
CONTINUOUS
 10
11.6444996775
 20
12.0369894608
 40
3.73
100
AcDbArc
 50
346.0811997274
 51
353.9460923513
  0
ARC
  5
36A
100
AcDbEntity
  8
0
100
AcDbCircle
 62
7
  6
CONTINUOUS
 10
13.6057185732
 20
13.9982083566
 40
3.73
100
AcDbArc
 50
276.0539076486
 51
283.9188002725
  0
ARC
  5
36B
100
AcDbEntity
  8
0
100
AcDbCircle
 62
7
  6
CONTINUOUS
 10
14.7205683662
 20
12.0363086073
 40
0.25
100
AcDbArc
 50
273.2006734286
 51
295.2146348189
  0
ARC
  5
36C
100
AcDbEntity
  8
0
100
AcDbCircle
 62
7
  6
CONTINUOUS
 10
15.0473183383
 20
9.8483896958
 40
0.517
100
AcDbArc
 50
244.7853651812
 51
295.2146348188
  0
ARC
  5
36D
100
AcDbEntity
  8
0
100
AcDbCircle
 62
7
  6
CONTINUOUS
 10
15.2261524366
 20
10.041406691
 40
0.04
100
AcDbArc
 50
13.9188002729
 51
88.3297322857
  0
ARC
  5
36E
100
AcDbEntity
  8
0
100
AcDbCircle
 62
7
  6
CONTINUOUS
 10
14.86848424
 20
10.041406691
 40
0.04
100
AcDbArc
 50
91.6702677146
 51
166.0811997272
  0
ARC
  5
36F
100
AcDbEntity
  8
0
100
AcDbCircle
 62
7
  6
CONTINUOUS
 10
15.2173183383
 20
10.1713896958
 40
0.01
100
AcDbArc
 50
0.0
 51
90.0
  0
ARC
  5
370
100
AcDbEntity
  8
0
100
AcDbCircle
 62
7
  6
CONTINUOUS
 10
14.8773183383
 20
10.1713896958
 40
0.01
100
AcDbArc
 50
90.0
 51
180.0
  0
ARC
  5
371
100
AcDbEntity
  8
0
100
AcDbCircle
 62
7
  6
CONTINUOUS
 10
15.0473183383
 20
10.5953896958
 40
1.1134351517
100
AcDbArc
 50
196.3732771418
 51
253.5921230556
  0
ARC
  5
372
100
AcDbEntity
  8
0
100
AcDbCircle
 62
7
  6
CONTINUOUS
 10
15.0473183383
 20
10.5953896958
 40
1.1134351517
100
AcDbArc
 50
106.4078769444
 51
163.6267228582
  0
ARC
  5
373
100
AcDbEntity
  8
0
100
AcDbCircle
 62
7
  6
CONTINUOUS
 10
15.0473183383
 20
10.5953896958
 40
1.1134351517
100
AcDbArc
 50
16.3732771418
 51
73.5921230556
  0
ARC
  5
374
100
AcDbEntity
  8
0
100
AcDbCircle
 62
7
  6
CONTINUOUS
 10
15.0473183383
 20
10.5953896958
 40
1.1134351517
100
AcDbArc
 50
286.4078769444
 51
343.6267228582
  0
ARC
  5
375
100
AcDbEntity
  8
0
100
AcDbCircle
 62
9
  6
CONTINUOUS
 10
15.0473183383
 20
10.5953896958
 40
1.1032228352
100
AcDbArc
 50
196.2992285687
 51
253.7379462369
  0
ARC
  5
376
100
AcDbEntity
  8
0
100
AcDbCircle
 62
9
  6
CONTINUOUS
 10
15.0473183383
 20
10.5953896958
 40
1.1032228352
100
AcDbArc
 50
106.2590950599
 51
163.6982381156
  0
ARC
  5
377
100
AcDbEntity
  8
0
100
AcDbCircle
 62
9
  6
CONTINUOUS
 10
15.0473183383
 20
10.5953896958
 40
1.1032228352
100
AcDbArc
 50
16.2992285687
 51
73.7379462369
  0
ARC
  5
378
100
AcDbEntity
  8
0
100
AcDbCircle
 62
9
  6
CONTINUOUS
 10
15.0473183383
 20
10.5953896958
 40
1.1032228352
100
AcDbArc
 50
286.2590950599
 51
343.6982381156
  0
ARC
  5
379
100
AcDbEntity
  8
0
100
AcDbCircle
 62
9
  6
CONTINUOUS
 10
15.0473183383
 20
10.5953896958
 40
0.9347230301
100
AcDbArc
 50
107.8160570201
 51
162.1882894335
  0
ARC
  5
37A
100
AcDbEntity
  8
0
100
AcDbCircle
 62
9
  6
CONTINUOUS
 10
15.0473183383
 20
10.5953896958
 40
0.9347230301
100
AcDbArc
 50
197.8146199648
 51
252.1868294476
  0
ARC
  5
37B
100
AcDbEntity
  8
0
100
AcDbCircle
 62
9
  6
CONTINUOUS
 10
15.0473183383
 20
10.5953896958
 40
0.9347230301
100
AcDbArc
 50
287.8160570201
 51
342.1882894335
  0
ARC
  5
37C
100
AcDbEntity
  8
0
100
AcDbCircle
 62
9
  6
CONTINUOUS
 10
15.0473183383
 20
10.5953896958
 40
0.9347230301
100
AcDbArc
 50
17.8146199648
 51
72.1868294476
  0
ARC
  5
37D
100
AcDbEntity
  8
0
100
AcDbCircle
 62
7
  6
CONTINUOUS
 10
15.0473183383
 20
10.5953896958
 40
0.928
100
AcDbArc
 50
17.8892408728
 51
72.1107591272
  0
ARC
  5
37E
100
AcDbEntity
  8
0
100
AcDbCircle
 62
7
  6
CONTINUOUS
 10
15.0473183383
 20
10.5953896958
 40
0.928
100
AcDbArc
 50
287.8892408728
 51
342.1107591272
  0
ARC
  5
37F
100
AcDbEntity
  8
0
100
AcDbCircle
 62
7
  6
CONTINUOUS
 10
15.0473183383
 20
10.5953896958
 40
0.928
100
AcDbArc
 50
197.8892408728
 51
252.1107591272
  0
ARC
  5
380
100
AcDbEntity
  8
0
100
AcDbCircle
 62
7
  6
CONTINUOUS
 10
15.0473183383
 20
10.5953896958
 40
0.928
100
AcDbArc
 50
107.8892408728
 51
162.1107591272
  0
ARC
  5
381
100
AcDbEntity
  8
0
100
AcDbCircle
 62
9
  6
CONTINUOUS
 10
15.0473183383
 20
10.5953896958
 40
0.9159658819
100
AcDbArc
 50
108.0047267002
 51
161.9952732998
  0
ARC
  5
382
100
AcDbEntity
  8
0
100
AcDbCircle
 62
9
  6
CONTINUOUS
 10
15.0473183383
 20
10.5953896958
 40
0.9159658819
100
AcDbArc
 50
198.0047267002
 51
251.9952732998
  0
ARC
  5
383
100
AcDbEntity
  8
0
100
AcDbCircle
 62
9
  6
CONTINUOUS
 10
15.0473183383
 20
10.5953896958
 40
0.9159658819
100
AcDbArc
 50
288.0047267002
 51
341.9952732998
  0
ARC
  5
384
100
AcDbEntity
  8
0
100
AcDbCircle
 62
9
  6
CONTINUOUS
 10
15.0473183383
 20
10.5953896958
 40
0.9159658819
100
AcDbArc
 50
18.0047267002
 51
71.9952732998
  0
ARC
  5
385
100
AcDbEntity
  8
0
100
AcDbCircle
 62
9
  6
CONTINUOUS
 10
15.0473183383
 20
10.5953896958
 40
0.8160949729
100
AcDbArc
 50
199.0246152498
 51
251.0055052397
  0
ARC
  5
386
100
AcDbEntity
  8
0
100
AcDbCircle
 62
9
  6
CONTINUOUS
 10
15.0473183383
 20
10.5953896958
 40
0.8160949729
100
AcDbArc
 50
108.9944947603
 51
160.9753847502
  0
ARC
  5
387
100
AcDbEntity
  8
0
100
AcDbCircle
 62
9
  6
CONTINUOUS
 10
15.0473183383
 20
10.5953896958
 40
0.8160949729
100
AcDbArc
 50
19.0246152498
 51
71.0055052397
  0
ARC
  5
388
100
AcDbEntity
  8
0
100
AcDbCircle
 62
9
  6
CONTINUOUS
 10
15.0473183383
 20
10.5953896958
 40
0.8160949729
100
AcDbArc
 50
288.9944947603
 51
340.9753847502
  0
ARC
  5
389
100
AcDbEntity
  8
0
100
AcDbCircle
 62
7
  6
CONTINUOUS
 10
15.0473183383
 20
10.5953896958
 40
0.7554637704
100
AcDbArc
 50
19.728040331
 51
70.272150174
  0
ARC
  5
38A
100
AcDbEntity
  8
0
100
AcDbCircle
 62
7
  6
CONTINUOUS
 10
15.0473183383
 20
10.5953896958
 40
0.7554637704
100
AcDbArc
 50
289.7282671289
 51
340.2721743463
  0
ARC
  5
38B
100
AcDbEntity
  8
0
100
AcDbCircle
 62
7
  6
CONTINUOUS
 10
15.0473183383
 20
10.5953896958
 40
0.7554637704
100
AcDbArc
 50
199.728040331
 51
250.272150174
  0
ARC
  5
38C
100
AcDbEntity
  8
0
100
AcDbCircle
 62
7
  6
CONTINUOUS
 10
15.0473183383
 20
10.5953896958
 40
0.7554637704
100
AcDbArc
 50
109.7282671289
 51
160.2721743463
  0
ARC
  5
38D
100
AcDbEntity
  8
0
100
AcDbCircle
 62
7
  6
CONTINUOUS
 10
15.0473183383
 20
10.5953896958
 40
0.5181047788
100
AcDbArc
 50
200.4208140034
 51
249.6480519823
  0
ARC
  5
38E
100
AcDbEntity
  8
0
100
AcDbCircle
 62
7
  6
CONTINUOUS
 10
15.0473183383
 20
10.5953896958
 40
0.5181047788
100
AcDbArc
 50
110.3519480177
 51
159.5791859966
  0
ARC
  5
38F
100
AcDbEntity
  8
0
100
AcDbCircle
 62
7
  6
CONTINUOUS
 10
15.0473183383
 20
10.5953896958
 40
0.5181047788
100
AcDbArc
 50
20.4208140034
 51
69.6480519823
  0
ARC
  5
390
100
AcDbEntity
  8
0
100
AcDbCircle
 62
7
  6
CONTINUOUS
 10
15.0473183383
 20
10.5953896958
 40
0.5181047788
100
AcDbArc
 50
290.3519480177
 51
339.5791859966
  0
ARC
  5
391
100
AcDbEntity
  8
0
100
AcDbCircle
 62
9
  6
CONTINUOUS
 10
15.0473183383
 20
10.5953896958
 40
0.4757780941
100
AcDbArc
 50
292.2601196249
 51
337.6803119349
  0
ARC
  5
392
100
AcDbEntity
  8
0
100
AcDbCircle
 62
9
  6
CONTINUOUS
 10
15.0473183383
 20
10.5953896958
 40
0.4757780941
100
AcDbArc
 50
22.3236634594
 51
67.7270407389
  0
ARC
  5
393
100
AcDbEntity
  8
0
100
AcDbCircle
 62
9
  6
CONTINUOUS
 10
15.0473183383
 20
10.5953896958
 40
0.4757780941
100
AcDbArc
 50
112.2601196249
 51
157.6803119349
  0
ARC
  5
394
100
AcDbEntity
  8
0
100
AcDbCircle
 62
9
  6
CONTINUOUS
 10
15.0473183383
 20
10.5953896958
 40
0.4757780941
100
AcDbArc
 50
202.3236634594
 51
247.7270407389
  0
ARC
  5
395
100
AcDbEntity
  8
0
100
AcDbCircle
 62
7
  6
CONTINUOUS
 10
15.0473167449
 20
10.5953875739
 40
0.4509971357
100
AcDbArc
 50
203.3701733382
 51
246.629738436
  0
ARC
  5
396
100
AcDbEntity
  8
0
100
AcDbCircle
 62
7
  6
CONTINUOUS
 10
15.047322133
 20
10.5953866537
 40
0.4509947428
100
AcDbArc
 50
293.3700495756
 51
336.6298230492
  0
ARC
  5
397
100
AcDbEntity
  8
0
100
AcDbCircle
 62
7
  6
CONTINUOUS
 10
15.0473140133
 20
10.5953959991
 40
0.4509917904
100
AcDbArc
 50
113.3701522059
 51
156.6301772809
  0
ARC
  5
398
100
AcDbEntity
  8
0
100
AcDbCircle
 62
7
  6
CONTINUOUS
 10
15.0473261756
 20
10.5953960947
 40
0.4509890482
100
AcDbArc
 50
23.3699888303
 51
66.6302511615
  0
ARC
  5
399
100
AcDbEntity
  8
0
100
AcDbCircle
 62
7
  6
CONTINUOUS
 10
15.0473183383
 20
10.5953896958
 40
0.45
100
AcDbArc
 50
247.0821777294
 51
247.2180495117
  0
ARC
  5
39A
100
AcDbEntity
  8
0
100
AcDbCircle
 62
7
  6
CONTINUOUS
 10
15.0473183383
 20
10.5953896958
 40
0.45
100
AcDbArc
 50
156.9519382612
 51
157.474320816
  0
ARC
  5
39B
100
AcDbEntity
  8
0
100
AcDbCircle
 62
7
  6
CONTINUOUS
 10
15.0473183383
 20
10.5953896958
 40
0.45
100
AcDbArc
 50
112.7819504883
 51
112.9178222706
  0
ARC
  5
39C
100
AcDbEntity
  8
0
100
AcDbCircle
 62
7
  6
CONTINUOUS
 10
15.0473183383
 20
10.5953896958
 40
0.45
100
AcDbArc
 50
336.9519382612
 51
337.474320816
  0
ARC
  5
39D
100
AcDbEntity
  8
0
100
AcDbCircle
 62
7
  6
CONTINUOUS
 10
15.0473183383
 20
10.5953896958
 40
0.45
100
AcDbArc
 50
292.7819504883
 51
292.9178222706
  0
ARC
  5
39E
100
AcDbEntity
  8
0
100
AcDbCircle
 62
7
  6
CONTINUOUS
 10
15.0473183383
 20
10.5953896958
 40
0.45
100
AcDbArc
 50
202.525679184
 51
203.0480617388
  0
ARC
  5
39F
100
AcDbEntity
  8
0
100
AcDbCircle
 62
7
  6
CONTINUOUS
 10
15.0473183383
 20
10.5953896958
 40
0.45
100
AcDbArc
 50
67.0821777294
 51
67.2180495117
  0
CIRCLE
  5
3A0
100
AcDbEntity
  8
0
100
AcDbCircle
 62
9
  6
CONTINUOUS
 10
15.0473183383
 20
10.5953896958
 40
0.2988618956
  0
CIRCLE
  5
3A1
100
AcDbEntity
  8
0
100
AcDbCircle
 62
9
  6
CONTINUOUS
 10
15.0473183383
 20
10.5953896958
 40
0.292235246
  0
CIRCLE
  5
3A2
100
AcDbEntity
  8
0
100
AcDbCircle
 62
7
  6
CONTINUOUS
 10
15.0473183383
 20
10.5953896958
 40
0.28
  0
ARC
  5
3A3
100
AcDbEntity
  8
0
100
AcDbCircle
 62
7
  6
CONTINUOUS
 10
15.0473183383
 20
10.5953896958
 40
0.28
100
AcDbArc
 50
0.0
 51
180.1234283822
  0
CIRCLE
  5
3A4
100
AcDbEntity
  8
0
100
AcDbCircle
 62
9
  6
CONTINUOUS
 10
15.0473183383
 20
10.5953896958
 40
0.2258064516
  0
ARC
  5
3A5
100
AcDbEntity
  8
0
100
AcDbCircle
 62
7
  6
CONTINUOUS
 10
15.6013013431
 20
10.4165555975
 40
0.04
100
AcDbArc
 50
181.6702677146
 51
256.081199727
  0
ARC
  5
3A6
100
AcDbEntity
  8
0
100
AcDbCircle
 62
7
  6
CONTINUOUS
 10
15.6013013431
 20
10.7742237941
 40
0.04
100
AcDbArc
 50
103.918800273
 51
178.3297322857
  0
ARC
  5
3A7
100
AcDbEntity
  8
0
100
AcDbCircle
 62
7
  6
CONTINUOUS
 10
15.4713183383
 20
10.7653896958
 40
0.01
100
AcDbArc
 50
90.0
 51
180.0
  0
ARC
  5
3A8
100
AcDbEntity
  8
0
100
AcDbCircle
 62
7
  6
CONTINUOUS
 10
15.4713183383
 20
10.4253896958
 40
0.01
100
AcDbArc
 50
180.0
 51
270.0
  0
ARC
  5
3A9
100
AcDbEntity
  8
0
100
AcDbCircle
 62
7
  6
CONTINUOUS
 10
15.0473183383
 20
11.3423896958
 40
0.517
100
AcDbArc
 50
64.7853651812
 51
115.2146348188
  0
ARC
  5
3AA
100
AcDbEntity
  8
0
100
AcDbCircle
 62
7
  6
CONTINUOUS
 10
15.3573183383
 20
11.7218075985
 40
0.05
100
AcDbArc
 50
293.6868993625
 51
360.0
  0
ARC
  5
3AB
100
AcDbEntity
  8
0
100
AcDbCircle
 62
7
  6
CONTINUOUS
 10
15.3573183383
 20
11.7367765749
 40
0.05
100
AcDbArc
 50
0.0
 51
86.7993265714
  0
ARC
  5
3AC
100
AcDbEntity
  8
0
100
AcDbCircle
 62
7
  6
CONTINUOUS
 10
14.86848424
 20
11.1493727006
 40
0.04
100
AcDbArc
 50
193.9188002729
 51
268.3297322857
  0
ARC
  5
3AD
100
AcDbEntity
  8
0
100
AcDbCircle
 62
7
  6
CONTINUOUS
 10
15.3934747943
 20
11.6393896958
 40
0.04
100
AcDbArc
 50
113.6868993632
 51
173.9460923521
  0
ARC
  5
3AE
100
AcDbEntity
  8
0
100
AcDbCircle
 62
7
  6
CONTINUOUS
 10
15.2261524366
 20
11.1493727006
 40
0.04
100
AcDbArc
 50
271.6702677146
 51
346.0811997272
  0
ARC
  5
3AF
100
AcDbEntity
  8
0
100
AcDbCircle
 62
7
  6
CONTINUOUS
 10
14.8773183383
 20
11.0193896958
 40
0.01
100
AcDbArc
 50
180.0
 51
270.0
  0
ARC
  5
3B0
100
AcDbEntity
  8
0
100
AcDbCircle
 62
7
  6
CONTINUOUS
 10
15.2173183383
 20
11.0193896958
 40
0.01
100
AcDbArc
 50
270.0
 51
360.0
  0
ARC
  5
3B1
100
AcDbEntity
  8
0
100
AcDbCircle
 62
7
  6
CONTINUOUS
 10
15.7943183383
 20
10.5953896958
 40
0.517
100
AcDbArc
 50
334.7853651812
 51
25.2146348188
  0
ARC
  5
3B2
100
AcDbEntity
  8
0
100
AcDbCircle
 62
7
  6
CONTINUOUS
 10
16.4882372498
 20
10.2686397237
 40
0.25
100
AcDbArc
 50
154.7853651811
 51
176.7993265714
  0
ARC
  5
3B3
100
AcDbEntity
  8
0
100
AcDbCircle
 62
7
  6
CONTINUOUS
 10
16.173736241
 20
10.2853896958
 40
0.05
100
AcDbArc
 50
203.6868993625
 51
270.0
  0
ARC
  5
3B4
100
AcDbEntity
  8
0
100
AcDbCircle
 62
7
  6
CONTINUOUS
 10
16.1887052174
 20
10.2853896958
 40
0.05
100
AcDbArc
 50
270.0
 51
356.7993265714
  0
ARC
  5
3B5
100
AcDbEntity
  8
0
100
AcDbCircle
 62
7
  6
CONTINUOUS
 10
16.0913183383
 20
10.2492332397
 40
0.04
100
AcDbArc
 50
23.6868993632
 51
83.9460923521
  0
ARC
  5
3B6
100
AcDbEntity
  8
0
100
AcDbCircle
 62
7
  6
CONTINUOUS
 10
16.4882372498
 20
10.9221396678
 40
0.25
100
AcDbArc
 50
183.2006734286
 51
205.2146348189
  0
ARC
  5
3B7
100
AcDbEntity
  8
0
100
AcDbCircle
 62
7
  6
CONTINUOUS
 10
16.1887052174
 20
10.9053896958
 40
0.05
100
AcDbArc
 50
3.2006734286
 51
90.0
  0
ARC
  5
3B8
100
AcDbEntity
  8
0
100
AcDbCircle
 62
7
  6
CONTINUOUS
 10
16.173736241
 20
10.9053896958
 40
0.05
100
AcDbArc
 50
90.0
 51
156.3131006375
  0
ARC
  5
3B9
100
AcDbEntity
  8
0
100
AcDbCircle
 62
7
  6
CONTINUOUS
 10
16.0913183383
 20
10.9415461518
 40
0.04
100
AcDbArc
 50
276.0539076479
 51
336.3131006368
  0
ARC
  5
3BA
100
AcDbEntity
  8
0
100
AcDbCircle
 62
7
  6
CONTINUOUS
 10
18.4501369991
 20
12.0369894608
 40
3.73
100
AcDbArc
 50
186.0539076487
 51
193.9188002726
  0
ARC
  5
3BB
100
AcDbEntity
  8
0
100
AcDbCircle
 62
7
  6
CONTINUOUS
 10
16.4889181033
 20
13.9982083566
 40
3.73
100
AcDbArc
 50
256.0811997274
 51
263.9460923514
  0
ARC
  5
3BC
100
AcDbEntity
  8
0
100
AcDbCircle
 62
7
  6
CONTINUOUS
 10
15.3740683103
 20
12.0363086073
 40
0.25
100
AcDbArc
 50
244.7853651811
 51
266.7993265714
  0
SPLINE
  5
3BD
100
AcDbEntity
  8
0
100
AcDbSpline
 62
7
  6
CONTINUOUS
 70
0
 71
3
 72
11
 73
7
 74
0
 42
0.0000001
 43
0.0000001
 44
0.0000000001
 40
0.0
 40
0.0
 40
0.0
 40
0.0
 40
0.2285811527
 40
0.4674820252
 40
0.7223195876
 40
1.0
 40
1.0
 40
1.0
 40
1.0
 10
9.9630126281
 20
3.4478258359
 30
0.0
 10
9.9604836334
 20
3.4417846642
 30
0.0
 10
9.9557458592
 20
3.4292391196
 30
0.0
 10
9.9502178761
 20
3.4092604078
 30
0.0
 10
9.9466094238
 20
3.3874110455
 30
0.0
 10
9.9458183383
 20
3.3721371665
 30
0.0
 10
9.9458183383
 20
3.3641812393
 30
0.0
  0
LINE
  5
3BE
100
AcDbEntity
  8
0
100
AcDbLine
 62
7
  6
CONTINUOUS
 10
11.6507047185
 20
6.1083807842
 11
11.65065472
 21
6.1109268648
  0
SPLINE
  5
3BF
100
AcDbEntity
  8
0
100
AcDbSpline
 62
7
  6
CONTINUOUS
 70
0
 71
3
 72
9
 73
5
 74
0
 42
0.0000001
 43
0.0000001
 44
0.0000000001
 40
0.0
 40
0.0
 40
0.0
 40
0.0
 40
0.499100681
 40
1.0
 40
1.0
 40
1.0
 40
1.0
 10
11.65065472
 20
6.1109268648
 30
0.0
 10
11.6486429965
 20
6.213682572
 30
0.0
 10
11.6460929472
 20
6.4195940829
 30
0.0
 10
11.6455447043
 20
6.6255161232
 30
0.0
 10
11.6455486124
 20
6.7286618986
 30
0.0
  0
LINE
  5
3C0
100
AcDbEntity
  8
0
100
AcDbLine
 62
7
  6
CONTINUOUS
 10
10.4439319581
 20
6.1083807842
 11
10.4439819004
 21
6.110923993
  0
SPLINE
  5
3C1
100
AcDbEntity
  8
0
100
AcDbSpline
 62
7
  6
CONTINUOUS
 70
0
 71
3
 72
9
 73
5
 74
0
 42
0.0000001
 43
0.0000001
 44
0.0000000001
 40
0.0
 40
0.0
 40
0.0
 40
0.0
 40
0.4991006685
 40
1.0
 40
1.0
 40
1.0
 40
1.0
 10
10.4439819004
 20
6.110923993
 30
0.0
 10
10.445993647
 20
6.2136801751
 30
0.0
 10
10.4485437243
 20
6.4195926433
 30
0.0
 10
10.4490919723
 20
6.6255156411
 30
0.0
 10
10.4490880641
 20
6.7286618986
 30
0.0
  0
SPLINE
  5
3C2
100
AcDbEntity
  8
0
100
AcDbSpline
 62
7
  6
CONTINUOUS
 70
0
 71
3
 72
9
 73
5
 74
0
 42
0.0000001
 43
0.0000001
 44
0.0000000001
 40
0.0
 40
0.0
 40
0.0
 40
0.0
 40
0.5038162479
 40
1.0
 40
1.0
 40
1.0
 40
1.0
 10
11.6456065665
 20
6.8107825321
 30
0.0
 10
11.6457585008
 20
6.9255869293
 30
0.0
 10
11.6466035226
 20
7.1534552309
 30
0.0
 10
11.6473183383
 20
7.3813244132
 30
0.0
 10
11.6473183383
 20
7.4943896958
 30
0.0
  0
SPLINE
  5
3C3
100
AcDbEntity
  8
0
100
AcDbSpline
 62
7
  6
CONTINUOUS
 70
0
 71
3
 72
9
 73
5
 74
0
 42
0.0000001
 43
0.0000001
 44
0.0000000001
 40
0.0
 40
0.0
 40
0.0
 40
0.0
 40
0.5038162479
 40
1.0
 40
1.0
 40
1.0
 40
1.0
 10
10.4490301101
 20
6.8107825321
 30
0.0
 10
10.4488781757
 20
6.9255869293
 30
0.0
 10
10.4480331539
 20
7.1534552309
 30
0.0
 10
10.4473183383
 20
7.3813244132
 30
0.0
 10
10.4473183383
 20
7.4943896958
 30
0.0
  0
SPLINE
  5
3C4
100
AcDbEntity
  8
0
100
AcDbSpline
 62
7
  6
CONTINUOUS
 70
0
 71
3
 72
29
 73
25
 74
0
 42
0.0000001
 43
0.0000001
 44
0.0000000001
 40
0.0
 40
0.0
 40
0.0
 40
0.0
 40
0.1488749596
 40
0.2195271698
 40
0.287984935
 40
0.3544624875
 40
0.4190654795
 40
0.481877622
 40
0.5429704573
 40
0.6024220827
 40
0.6602988665
 40
0.7167023793
 40
0.7717716076
 40
0.7989166511
 40
0.8258829379
 40
0.8527800881
 40
0.8797867677
 40
0.9071991588
 40
0.9212114149
 40
0.935531984
 40
0.950280725
 40
0.9657017251
 40
0.9821366791
 40
1.0
 40
1.0
 40
1.0
 40
1.0
 10
11.0473183383
 20
2.8887363334
 30
0.0
 10
11.1112167428
 20
2.8887363334
 30
0.0
 10
11.2054995625
 20
2.8921375781
 30
0.0
 10
11.3285708257
 20
2.9038550395
 30
0.0
 10
11.4160481506
 20
2.91560501
 30
0.0
 10
11.5004519993
 20
2.9302519318
 30
0.0
 10
11.581817645
 20
2.9478429058
 30
0.0
 10
11.6600969385
 20
2.9684177154
 30
0.0
 10
11.7351800478
 20
2.9921075268
 30
0.0
 10
11.8069166838
 20
3.0190286117
 30
0.0
 10
11.8750269411
 20
3.0495128818
 30
0.0
 10
11.939166806
 20
3.0838599536
 30
0.0
 10
11.9889852986
 20
3.1165862398
 30
0.0
 10
12.0259197718
 20
3.1454676437
 30
0.0
 10
12.0519117453
 20
3.1686014884
 30
0.0
 10
12.0761250159
 20
3.1935237379
 30
0.0
 10
12.0981705551
 20
3.2206457816
 30
0.0
 10
12.1142895348
 20
3.2452830556
 30
0.0
 10
12.1254748945
 20
3.2664511126
 30
0.0
 10
12.133017464
 20
3.2833488534
 30
0.0
 10
12.1395745595
 20
3.3013039817
 30
0.0
 10
12.1447305002
 20
3.3206646192
 30
0.0
 10
12.1480831994
 20
3.3417783195
 30
0.0
 10
12.1488183383
 20
3.3565141493
 30
0.0
 10
12.1488183383
 20
3.3641812393
 30
0.0
  0
SPLINE
  5
3C5
100
AcDbEntity
  8
0
100
AcDbSpline
 62
7
  6
CONTINUOUS
 70
0
 71
3
 72
11
 73
7
 74
0
 42
0.0000001
 43
0.0000001
 44
0.0000000001
 40
0.0
 40
0.0
 40
0.0
 40
0.0
 40
0.2776802055
 40
0.5325178047
 40
0.7714187836
 40
1.0
 40
1.0
 40
1.0
 40
1.0
 10
12.1488183383
 20
3.3641812393
 30
0.0
 10
12.1488183383
 20
3.3721370629
 30
0.0
 10
12.1480272732
 20
3.3874107491
 30
0.0
 10
12.1444189143
 20
3.4092598482
 30
0.0
 10
12.1388910668
 20
3.429238339
 30
0.0
 10
12.1341533972
 20
3.4417837524
 30
0.0
 10
12.1316244564
 20
3.4478248615
 30
0.0
  0
SPLINE
  5
3C6
100
AcDbEntity
  8
0
100
AcDbSpline
 62
7
  6
CONTINUOUS
 70
0
 71
3
 72
29
 73
25
 74
0
 42
0.0000001
 43
0.0000001
 44
0.0000000001
 40
0.0
 40
0.0
 40
0.0
 40
0.0
 40
0.0178633209
 40
0.0342982749
 40
0.049719275
 40
0.064468016
 40
0.0787885851
 40
0.0928008412
 40
0.1202132323
 40
0.1472199119
 40
0.1741170621
 40
0.2010833489
 40
0.2282283924
 40
0.2832976207
 40
0.3397011335
 40
0.3975779173
 40
0.4570295427
 40
0.518122378
 40
0.5809345205
 40
0.6455375125
 40
0.712015065
 40
0.7804728302
 40
0.8511250404
 40
1.0
 40
1.0
 40
1.0
 40
1.0
 10
9.9458183383
 20
3.3641812393
 30
0.0
 10
9.9458183383
 20
3.3565141493
 30
0.0
 10
9.9465534772
 20
3.3417783195
 30
0.0
 10
9.9499061763
 20
3.3206646192
 30
0.0
 10
9.955062117
 20
3.3013039817
 30
0.0
 10
9.9616192126
 20
3.2833488534
 30
0.0
 10
9.969161782
 20
3.2664511126
 30
0.0
 10
9.9803471417
 20
3.2452830556
 30
0.0
 10
9.9964661215
 20
3.2206457816
 30
0.0
 10
10.0185116607
 20
3.1935237379
 30
0.0
 10
10.0427249313
 20
3.1686014884
 30
0.0
 10
10.0687169048
 20
3.1454676437
 30
0.0
 10
10.105651378
 20
3.1165862398
 30
0.0
 10
10.1554698705
 20
3.0838599536
 30
0.0
 10
10.2196097355
 20
3.0495128818
 30
0.0
 10
10.2877199927
 20
3.0190286117
 30
0.0
 10
10.3594566288
 20
2.9921075268
 30
0.0
 10
10.4345397381
 20
2.9684177154
 30
0.0
 10
10.5128190315
 20
2.9478429058
 30
0.0
 10
10.5941846773
 20
2.9302519318
 30
0.0
 10
10.678588526
 20
2.91560501
 30
0.0
 10
10.7660658509
 20
2.9038550395
 30
0.0
 10
10.889137114
 20
2.8921375781
 30
0.0
 10
10.9834199337
 20
2.8887363334
 30
0.0
 10
11.0473183383
 20
2.8887363334
 30
0.0
  0
SPLINE
  5
3C7
100
AcDbEntity
  8
0
100
AcDbSpline
 62
9
  6
CONTINUOUS
 70
0
 71
3
 72
11
 73
7
 74
0
 42
0.0000001
 43
0.0000001
 44
0.0000000001
 40
0.0
 40
0.0
 40
0.0
 40
0.0
 40
0.230258788
 40
0.470906506
 40
0.7259414846
 40
1.0
 40
1.0
 40
1.0
 40
1.0
 10
11.9765492645
 20
3.8538355704
 30
0.0
 10
11.97817164
 20
3.8490780137
 30
0.0
 10
11.981164138
 20
3.8392325248
 30
0.0
 10
11.9845758448
 20
3.8237385139
 30
0.0
 10
11.9867685275
 20
3.807057565
 30
0.0
 10
11.98725209
 20
3.7954997869
 30
0.0
 10
11.98725209
 20
3.78951706
 30
0.0
  0
SPLINE
  5
3C8
100
AcDbEntity
  8
0
100
AcDbSpline
 62
9
  6
CONTINUOUS
 70
0
 71
3
 72
11
 73
7
 74
0
 42
0.0000001
 43
0.0000001
 44
0.0000000001
 40
0.0
 40
0.0
 40
0.0
 40
0.0
 40
0.2300199255
 40
0.4703186467
 40
0.7252657525
 40
1.0
 40
1.0
 40
1.0
 40
1.0
 10
12.0055522834
 20
3.7709897589
 30
0.0
 10
12.0073582495
 20
3.7659637681
 30
0.0
 10
12.0107026116
 20
3.7555565389
 30
0.0
 10
12.0145367287
 20
3.7391381789
 30
0.0
 10
12.0170104133
 20
3.7214075363
 30
0.0
 10
12.017555612
 20
3.7091001788
 30
0.0
 10
12.0175556126
 20
3.7027213922
 30
0.0
  0
SPLINE
  5
3C9
100
AcDbEntity
  8
0
100
AcDbSpline
 62
9
  6
CONTINUOUS
 70
0
 71
3
 72
11
 73
7
 74
0
 42
0.0000001
 43
0.0000001
 44
0.0000000001
 40
0.0
 40
0.0
 40
0.0
 40
0.0
 40
0.2422706575
 40
0.490134029
 40
0.7429400084
 40
1.0
 40
1.0
 40
1.0
 40
1.0
 10
11.725896524
 20
4.9164555002
 30
0.0
 10
11.7182789853
 20
4.9768041642
 30
0.0
 10
11.7044949876
 20
5.0991039552
 30
0.0
 10
11.6878245783
 20
5.2849022907
 30
0.0
 10
11.6745401932
 20
5.4746934233
 30
0.0
 10
11.6677477057
 20
5.6025323304
 30
0.0
 10
11.6647799478
 20
5.6670047861
 30
0.0
  0
SPLINE
  5
3CA
100
AcDbEntity
  8
0
100
AcDbSpline
 62
9
  6
CONTINUOUS
 70
0
 71
3
 72
26
 73
22
 74
0
 42
0.0000001
 43
0.0000001
 44
0.0000000001
 40
0.0
 40
0.0
 40
0.0
 40
0.0
 40
0.0200856366
 40
0.0386968684
 40
0.056205037
 40
0.0729251229
 40
0.1048050904
 40
0.1352319709
 40
0.1647095903
 40
0.1935653112
 40
0.222027538
 40
0.2502550182
 40
0.3064336733
 40
0.362796096
 40
0.4197673824
 40
0.4776856077
 40
0.5973045504
 40
0.6594326646
 40
0.7233005708
 40
0.8569161388
 40
1.0
 40
1.0
 40
1.0
 40
1.0
 10
11.7289979516
 20
4.8922363371
 30
0.0
 10
11.7289979516
 20
4.8866001715
 30
0.0
 10
11.728540719
 20
4.8757343435
 30
0.0
 10
11.7264868897
 20
4.8600783317
 30
0.0
 10
11.7233366535
 20
4.8455732434
 30
0.0
 10
11.7180898353
 20
4.8277694082
 30
0.0
 10
11.7100410867
 20
4.8070543154
 30
0.0
 10
11.6982264848
 20
4.7841242361
 30
0.0
 10
11.6848639129
 20
4.7630700909
 30
0.0
 10
11.6701846188
 20
4.743607216
 30
0.0
 10
11.6544232742
 20
4.7254782474
 30
0.0
 10
11.6321522075
 20
4.7029357985
 30
0.0
 10
11.6020144339
 20
4.6772696415
 30
0.0
 10
11.5628344404
 20
4.6501858249
 30
0.0
 10
11.5210959488
 20
4.6262654616
 30
0.0
 10
11.4616273742
 20
4.5979758525
 30
0.0
 10
11.3980549681
 20
4.5754093124
 30
0.0
 10
11.3313879084
 20
4.5578512101
 30
0.0
 10
11.2600407271
 20
4.542985042
 30
0.0
 10
11.165162801
 20
4.5303710123
 30
0.0
 10
11.0874686388
 20
4.5272116258
 30
0.0
 10
11.0473183383
 20
4.5272116258
 30
0.0
  0
SPLINE
  5
3CB
100
AcDbEntity
  8
0
100
AcDbSpline
 62
9
  6
CONTINUOUS
 70
0
 71
3
 72
27
 73
23
 74
0
 42
0.0000001
 43
0.0000001
 44
0.0000000001
 40
0.0
 40
0.0
 40
0.0
 40
0.0
 40
0.0125417648
 40
0.0242484391
 40
0.0353826964
 40
0.0461647626
 40
0.0672331012
 40
0.0881516754
 40
0.109326419
 40
0.1310213092
 40
0.1534111548
 40
0.1766165988
 40
0.225749753
 40
0.2787621308
 40
0.3357091871
 40
0.3965745342
 40
0.4612616993
 40
0.5295535486
 40
0.6011860983
 40
0.6758929925
 40
0.8334220333
 40
1.0
 40
1.0
 40
1.0
 40
1.0
 10
11.6456065665
 20
6.8107825321
 30
0.0
 10
11.6456065665
 20
6.8079954239
 30
0.0
 10
11.6453376308
 20
6.8026016269
 30
0.0
 10
11.6441115642
 20
6.7948208899
 30
0.0
 10
11.6421966205
 20
6.7875856472
 30
0.0
 10
11.6389154651
 20
6.7786047089
 30
0.0
 10
11.6336610122
 20
6.7680714238
 30
0.0
 10
11.6257197832
 20
6.7564544086
 30
0.0
 10
11.6164167166
 20
6.7457235696
 30
0.0
 10
11.6058683582
 20
6.7357427488
 30
0.0
 10
11.5941870152
 20
6.7263835688
 30
0.0
 10
11.5768462375
 20
6.7144228421
 30
0.0
 10
11.5524845214
 20
6.7007871011
 30
0.0
 10
11.5201147566
 20
6.6864806421
 30
0.0
 10
11.4843513734
 20
6.6736688553
 30
0.0
 10
11.4454086127
 20
6.662274596
 30
0.0
 10
11.4035078905
 20
6.6522131853
 30
0.0
 10
11.3588790388
 20
6.6434488477
 30
0.0
 10
11.3117658334
 20
6.6359512976
 30
0.0
 10
11.2447605571
 20
6.6274938798
 30
0.0
 10
11.1563764014
 20
6.620300704
 30
0.0
 10
11.0843363197
 20
6.6183896958
 30
0.0
 10
11.0473183383
 20
6.6183896958
 30
0.0
  0
SPLINE
  5
3CC
100
AcDbEntity
  8
0
100
AcDbSpline
 62
9
  6
CONTINUOUS
 70
0
 71
3
 72
11
 73
7
 74
0
 42
0.0000001
 43
0.0000001
 44
0.0000000001
 40
0.0
 40
0.0
 40
0.0
 40
0.0
 40
0.2422706575
 40
0.490134029
 40
0.7429400084
 40
1.0
 40
1.0
 40
1.0
 40
1.0
 10
10.3687401525
 20
4.9164555002
 30
0.0
 10
10.3763576912
 20
4.9768041642
 30
0.0
 10
10.390141689
 20
5.0991039552
 30
0.0
 10
10.4068120982
 20
5.2849022907
 30
0.0
 10
10.4200964834
 20
5.4746934233
 30
0.0
 10
10.4268889708
 20
5.6025323304
 30
0.0
 10
10.4298567288
 20
5.6670047861
 30
0.0
  0
SPLINE
  5
3CD
100
AcDbEntity
  8
0
100
AcDbSpline
 62
9
  6
CONTINUOUS
 70
0
 71
3
 72
27
 73
23
 74
0
 42
0.0000001
 43
0.0000001
 44
0.0000000001
 40
0.0
 40
0.0
 40
0.0
 40
0.0
 40
0.1665779667
 40
0.3241070075
 40
0.3988139017
 40
0.4704464514
 40
0.5387383007
 40
0.6034254658
 40
0.6642908129
 40
0.7212378692
 40
0.774250247
 40
0.8233834012
 40
0.8465888452
 40
0.8689786908
 40
0.890673581
 40
0.9118483246
 40
0.9327668988
 40
0.9538352374
 40
0.9646173036
 40
0.9757515609
 40
0.9874582352
 40
1.0
 40
1.0
 40
1.0
 40
1.0
 10
11.0473183383
 20
6.6183896958
 30
0.0
 10
11.0103003569
 20
6.6183896958
 30
0.0
 10
10.9382602751
 20
6.620300704
 30
0.0
 10
10.8498761195
 20
6.6274938798
 30
0.0
 10
10.7828708431
 20
6.6359512976
 30
0.0
 10
10.7357576377
 20
6.6434488477
 30
0.0
 10
10.691128786
 20
6.6522131853
 30
0.0
 10
10.6492280639
 20
6.662274596
 30
0.0
 10
10.6102853032
 20
6.6736688553
 30
0.0
 10
10.57452192
 20
6.6864806421
 30
0.0
 10
10.5421521551
 20
6.7007871011
 30
0.0
 10
10.5177904391
 20
6.7144228421
 30
0.0
 10
10.5004496613
 20
6.7263835688
 30
0.0
 10
10.4887683183
 20
6.7357427488
 30
0.0
 10
10.47821996
 20
6.7457235696
 30
0.0
 10
10.4689168934
 20
6.7564544086
 30
0.0
 10
10.4609756644
 20
6.7680714238
 30
0.0
 10
10.4557212114
 20
6.7786047089
 30
0.0
 10
10.4524400561
 20
6.7875856472
 30
0.0
 10
10.4505251124
 20
6.7948208899
 30
0.0
 10
10.4492990458
 20
6.8026016269
 30
0.0
 10
10.4490301101
 20
6.8079954239
 30
0.0
 10
10.4490301101
 20
6.8107825321
 30
0.0
  0
SPLINE
  5
3CE
100
AcDbEntity
  8
0
100
AcDbSpline
 62
9
  6
CONTINUOUS
 70
0
 71
3
 72
26
 73
22
 74
0
 42
0.0000001
 43
0.0000001
 44
0.0000000001
 40
0.0
 40
0.0
 40
0.0
 40
0.0
 40
0.1430838612
 40
0.2766994292
 40
0.3405673354
 40
0.4026954496
 40
0.5223143923
 40
0.5802326176
 40
0.637203904
 40
0.6935663267
 40
0.7497449818
 40
0.777972462
 40
0.8064346888
 40
0.8352904097
 40
0.8647680291
 40
0.8951949096
 40
0.9270748771
 40
0.943794963
 40
0.9613031316
 40
0.9799143634
 40
1.0
 40
1.0
 40
1.0
 40
1.0
 10
11.0473183383
 20
4.5272116258
 30
0.0
 10
11.0071680378
 20
4.5272116258
 30
0.0
 10
10.9294738755
 20
4.5303710123
 30
0.0
 10
10.8345959495
 20
4.542985042
 30
0.0
 10
10.7632487682
 20
4.5578512101
 30
0.0
 10
10.6965817085
 20
4.5754093124
 30
0.0
 10
10.6330093024
 20
4.5979758525
 30
0.0
 10
10.5735407278
 20
4.6262654616
 30
0.0
 10
10.5318022362
 20
4.6501858249
 30
0.0
 10
10.4926222427
 20
4.6772696415
 30
0.0
 10
10.4624844691
 20
4.7029357985
 30
0.0
 10
10.4402134023
 20
4.7254782474
 30
0.0
 10
10.4244520578
 20
4.743607216
 30
0.0
 10
10.4097727637
 20
4.7630700909
 30
0.0
 10
10.3964101917
 20
4.7841242361
 30
0.0
 10
10.3845955899
 20
4.8070543154
 30
0.0
 10
10.3765468413
 20
4.8277694082
 30
0.0
 10
10.3713000231
 20
4.8455732434
 30
0.0
 10
10.3681497869
 20
4.8600783317
 30
0.0
 10
10.3660959576
 20
4.8757343435
 30
0.0
 10
10.365638725
 20
4.8866001715
 30
0.0
 10
10.365638725
 20
4.8922363371
 30
0.0
  0
SPLINE
  5
3CF
100
AcDbEntity
  8
0
100
AcDbSpline
 62
9
  6
CONTINUOUS
 70
0
 71
3
 72
28
 73
24
 74
0
 42
0.0000001
 43
0.0000001
 44
0.0000000001
 40
0.0
 40
0.0
 40
0.0
 40
0.0
 40
0.178419622
 40
0.3482106397
 40
0.4285858666
 40
0.505288722
 40
0.5778429327
 40
0.6457685183
 40
0.7086254803
 40
0.7661056404
 40
0.817958289
 40
0.8417050357
 40
0.8639730616
 40
0.8847651366
 40
0.9041163968
 40
0.9220948966
 40
0.9388115989
 40
0.9544611807
 40
0.9693743882
 40
0.9767251271
 40
0.9841543389
 40
0.9918403071
 40
1.0
 40
1.0
 40
1.0
 40
1.0
 10
11.0473183383
 20
7.3673895936
 30
0.0
 10
11.0094755935
 20
7.3673895936
 30
0.0
 10
10.9356131939
 20
7.368817808
 30
0.0
 10
10.8448348885
 20
7.3740043168
 30
0.0
 10
10.775764639
 20
7.3800373424
 30
0.0
 10
10.7273437247
 20
7.3853294878
 30
0.0
 10
10.6816821162
 20
7.3914473146
 30
0.0
 10
10.6391094184
 20
7.3983849582
 30
0.0
 10
10.5999293184
 20
7.4061407274
 30
0.0
 10
10.5644224776
 20
7.4147386123
 30
0.0
 10
10.5373602227
 20
7.4228367058
 30
0.0
 10
10.5178396365
 20
7.4299115562
 30
0.0
 10
10.5047396523
 20
7.4353268427
 30
0.0
 10
10.4927824634
 20
7.441023506
 30
0.0
 10
10.4820091328
 20
7.4470365129
 30
0.0
 10
10.4724573241
 20
7.4534013247
 30
0.0
 10
10.4641938726
 20
7.4601995978
 30
0.0
 10
10.4572909711
 20
7.467518694
 30
0.0
 10
10.4527705229
 20
7.4742268992
 30
0.0
 10
10.4500479898
 20
7.4799177184
 30
0.0
 10
10.4485033566
 20
7.4844390056
 30
0.0
 10
10.447529047
 20
7.4892929839
 30
0.0
 10
10.4473183383
 20
7.4926590275
 30
0.0
 10
10.4473183383
 20
7.4943896958
 30
0.0
  0
SPLINE
  5
3D0
100
AcDbEntity
  8
0
100
AcDbSpline
 62
9
  6
CONTINUOUS
 70
0
 71
3
 72
28
 73
24
 74
0
 42
0.0000001
 43
0.0000001
 44
0.0000000001
 40
0.0
 40
0.0
 40
0.0
 40
0.0
 40
0.0081596929
 40
0.0158456611
 40
0.0232748729
 40
0.0306256118
 40
0.0455388193
 40
0.0611884011
 40
0.0779051034
 40
0.0958836032
 40
0.1152348634
 40
0.1360269384
 40
0.1582949643
 40
0.182041711
 40
0.2338943596
 40
0.2913745197
 40
0.3542314817
 40
0.4221570673
 40
0.494711278
 40
0.5714141334
 40
0.6517893603
 40
0.821580378
 40
1.0
 40
1.0
 40
1.0
 40
1.0
 10
11.6473183383
 20
7.4943896958
 30
0.0
 10
11.6473183383
 20
7.4926590275
 30
0.0
 10
11.6471076296
 20
7.4892929839
 30
0.0
 10
11.64613332
 20
7.4844390056
 30
0.0
 10
11.6445886868
 20
7.4799177184
 30
0.0
 10
11.6418661536
 20
7.4742268992
 30
0.0
 10
11.6373457055
 20
7.467518694
 30
0.0
 10
11.6304428039
 20
7.4601995978
 30
0.0
 10
11.6221793524
 20
7.4534013247
 30
0.0
 10
11.6126275438
 20
7.4470365129
 30
0.0
 10
11.6018542131
 20
7.441023506
 30
0.0
 10
11.5898970243
 20
7.4353268427
 30
0.0
 10
11.5767970401
 20
7.4299115562
 30
0.0
 10
11.5572764539
 20
7.4228367058
 30
0.0
 10
11.5302141989
 20
7.4147386123
 30
0.0
 10
11.4947073582
 20
7.4061407274
 30
0.0
 10
11.4555272582
 20
7.3983849582
 30
0.0
 10
11.4129545604
 20
7.3914473146
 30
0.0
 10
11.3672929519
 20
7.3853294878
 30
0.0
 10
11.3188720376
 20
7.3800373424
 30
0.0
 10
11.2498017881
 20
7.3740043168
 30
0.0
 10
11.1590234826
 20
7.368817808
 30
0.0
 10
11.0851610831
 20
7.3673895936
 30
0.0
 10
11.0473183383
 20
7.3673895936
 30
0.0
  0
SPLINE
  5
3D1
100
AcDbEntity
  8
0
100
AcDbSpline
 62
9
  6
CONTINUOUS
 70
0
 71
3
 72
26
 73
22
 74
0
 42
0.0000001
 43
0.0000001
 44
0.0000000001
 40
0.0
 40
0.0
 40
0.0
 40
0.0
 40
0.0164069185
 40
0.031644658
 40
0.0460257827
 40
0.0598151212
 40
0.0862974585
 40
0.1118908591
 40
0.1370615791
 40
0.1621207568
 40
0.212682177
 40
0.2647332315
 40
0.3188586174
 40
0.3753608509
 40
0.4344426011
 40
0.4962103027
 40
0.560659329
 40
0.6277302035
 40
0.6973522155
 40
0.8439344902
 40
1.0
 40
1.0
 40
1.0
 40
1.0
 10
11.6507047185
 20
6.1083807842
 30
0.0
 10
11.6507047185
 20
6.1045327675
 30
0.0
 10
11.6503749843
 20
6.0971053726
 30
0.0
 10
11.6488834325
 20
6.0863994369
 30
0.0
 10
11.6465766383
 20
6.0764700498
 30
0.0
 10
11.6426890105
 20
6.0642463438
 30
0.0
 10
11.6366104074
 20
6.0499975838
 30
0.0
 10
11.6275435758
 20
6.0342706068
 30
0.0
 10
11.6171061308
 20
6.0198373317
 30
0.0
 10
11.6015329712
 20
6.0020175758
 30
0.0
 10
11.5791945983
 20
5.9819071612
 30
0.0
 10
11.54890802
 20
5.9609393037
 30
0.0
 10
11.5153941156
 20
5.9425857134
 30
0.0
 10
11.47897243
 20
5.926437137
 30
0.0
 10
11.4398151341
 20
5.9123175483
 30
0.0
 10
11.3980997959
 20
5.9000510215
 30
0.0
 10
11.3539854043
 20
5.8895349316
 30
0.0
 10
11.3076357023
 20
5.8806723134
 30
0.0
 10
11.2419181985
 20
5.8708163619
 30
0.0
 10
11.1549247816
 20
5.8625740048
 30
0.0
 10
11.0839213534
 20
5.860483197
 30
0.0
 10
11.0473183383
 20
5.860483197
 30
0.0
  0
SPLINE
  5
3D2
100
AcDbEntity
  8
0
100
AcDbSpline
 62
9
  6
CONTINUOUS
 70
0
 71
3
 72
12
 73
8
 74
0
 42
0.0000001
 43
0.0000001
 44
0.0000000001
 40
0.0
 40
0.0
 40
0.0
 40
0.0
 40
0.239394532
 40
0.3619196125
 40
0.4862225421
 40
0.7399045431
 40
1.0
 40
1.0
 40
1.0
 40
1.0
 10
11.8346594989
 20
4.3141588257
 30
0.0
 10
11.8237102305
 20
4.3597789386
 30
0.0
 10
11.808031641
 20
4.4289628969
 30
0.0
 10
11.7888511806
 20
4.5223030274
 30
0.0
 10
11.7704758356
 20
4.6186579624
 30
0.0
 10
11.7497087189
 20
4.7419869756
 30
0.0
 10
11.7355642751
 20
4.8416884712
 30
0.0
 10
11.7289979516
 20
4.8922363371
 30
0.0
  0
SPLINE
  5
3D3
100
AcDbEntity
  8
0
100
AcDbSpline
 62
9
  6
CONTINUOUS
 70
0
 71
3
 72
28
 73
24
 74
0
 42
0.0000001
 43
0.0000001
 44
0.0000000001
 40
0.0
 40
0.0
 40
0.0
 40
0.0
 40
0.0195573147
 40
0.0376657343
 40
0.0547107692
 40
0.0710160038
 40
0.1022202649
 40
0.1321757774
 40
0.1613703144
 40
0.1901079793
 40
0.2185904825
 40
0.2469503829
 40
0.3036372895
 40
0.3606996837
 40
0.4184327734
 40
0.4770704148
 40
0.5367995251
 40
0.5977843445
 40
0.6601731361
 40
0.7241225663
 40
0.7898054273
 40
0.8574844061
 40
1.0
 40
1.0
 40
1.0
 40
1.0
 10
11.8460689187
 20
4.2675067206
 30
0.0
 10
11.8460689187
 20
4.2611036508
 30
0.0
 10
11.8455216497
 20
4.2487626803
 30
0.0
 10
11.8430584139
 20
4.2309966239
 30
0.0
 10
11.8392806266
 20
4.2145572248
 30
0.0
 10
11.8329845145
 20
4.1943678545
 30
0.0
 10
11.8233230307
 20
4.1708542642
 30
0.0
 10
11.8091812679
 20
4.1448185103
 30
0.0
 10
11.7932112337
 20
4.1208417331
 30
0.0
 10
11.7756950164
 20
4.0985923634
 30
0.0
 10
11.756918327
 20
4.0777703343
 30
0.0
 10
11.7303933559
 20
4.0517066998
 30
0.0
 10
11.6946313365
 20
4.0218096832
 30
0.0
 10
11.6483616145
 20
3.9898994214
 30
0.0
 10
11.599230019
 20
3.9613327307
 30
0.0
 10
11.5474359296
 20
3.9359081063
 30
0.0
 10
11.4931574697
 20
3.9134104889
 30
0.0
 10
11.4364810423
 20
3.8937769222
 30
0.0
 10
11.3774766901
 20
3.8769397526
 30
0.0
 10
11.3161686321
 20
3.8629013968
 30
0.0
 10
11.2525252989
 20
3.8516581468
 30
0.0
 10
11.1628710385
 20
3.8404636917
 30
0.0
 10
11.0939779804
 20
3.8372232077
 30
0.0
 10
11.0473183383
 20
3.8372232077
 30
0.0
  0
SPLINE
  5
3D4
100
AcDbEntity
  8
0
100
AcDbSpline
 62
9
  6
CONTINUOUS
 70
0
 71
3
 72
12
 73
8
 74
0
 42
0.0000001
 43
0.0000001
 44
0.0000000001
 40
0.0
 40
0.0
 40
0.0
 40
0.0
 40
0.239394532
 40
0.3619196125
 40
0.4862225421
 40
0.7399045431
 40
1.0
 40
1.0
 40
1.0
 40
1.0
 10
10.2599771776
 20
4.3141588257
 30
0.0
 10
10.270926446
 20
4.3597789386
 30
0.0
 10
10.2866050356
 20
4.4289628969
 30
0.0
 10
10.305785496
 20
4.5223030274
 30
0.0
 10
10.3241608409
 20
4.6186579624
 30
0.0
 10
10.3449279577
 20
4.7419869756
 30
0.0
 10
10.3590724015
 20
4.8416884712
 30
0.0
 10
10.365638725
 20
4.8922363371
 30
0.0
  0
SPLINE
  5
3D5
100
AcDbEntity
  8
0
100
AcDbSpline
 62
9
  6
CONTINUOUS
 70
0
 71
3
 72
28
 73
24
 74
0
 42
0.0000001
 43
0.0000001
 44
0.0000000001
 40
0.0
 40
0.0
 40
0.0
 40
0.0
 40
0.1425155939
 40
0.2101945727
 40
0.2758774337
 40
0.3398268639
 40
0.4022156555
 40
0.4632004749
 40
0.5229295852
 40
0.5815672266
 40
0.6393003163
 40
0.6963627105
 40
0.7530496171
 40
0.7814095175
 40
0.8098920207
 40
0.8386296856
 40
0.8678242226
 40
0.8977797351
 40
0.9289839962
 40
0.9452892308
 40
0.9623342657
 40
0.9804426853
 40
1.0
 40
1.0
 40
1.0
 40
1.0
 10
11.0473183383
 20
3.8372232077
 30
0.0
 10
11.0006586961
 20
3.8372232077
 30
0.0
 10
10.9317656381
 20
3.8404636917
 30
0.0
 10
10.8421113777
 20
3.8516581468
 30
0.0
 10
10.7784680445
 20
3.8629013968
 30
0.0
 10
10.7171599865
 20
3.8769397526
 30
0.0
 10
10.6581556343
 20
3.8937769222
 30
0.0
 10
10.6014792069
 20
3.9134104889
 30
0.0
 10
10.547200747
 20
3.9359081063
 30
0.0
 10
10.4954066575
 20
3.9613327307
 30
0.0
 10
10.446275062
 20
3.9898994214
 30
0.0
 10
10.40000534
 20
4.0218096832
 30
0.0
 10
10.3642433207
 20
4.0517066998
 30
0.0
 10
10.3377183495
 20
4.0777703343
 30
0.0
 10
10.3189416602
 20
4.0985923634
 30
0.0
 10
10.3014254429
 20
4.1208417331
 30
0.0
 10
10.2854554087
 20
4.1448185103
 30
0.0
 10
10.2713136459
 20
4.1708542642
 30
0.0
 10
10.2616521621
 20
4.1943678545
 30
0.0
 10
10.25535605
 20
4.2145572248
 30
0.0
 10
10.2515782627
 20
4.2309966239
 30
0.0
 10
10.2491150269
 20
4.2487626803
 30
0.0
 10
10.2485677578
 20
4.2611036508
 30
0.0
 10
10.2485677578
 20
4.2675067206
 30
0.0
  0
SPLINE
  5
3D6
100
AcDbEntity
  8
0
100
AcDbSpline
 62
9
  6
CONTINUOUS
 70
0
 71
3
 72
11
 73
7
 74
0
 42
0.0000001
 43
0.0000001
 44
0.0000000001
 40
0.0
 40
0.0
 40
0.0
 40
0.0
 40
0.2740585154
 40
0.529093494
 40
0.769741212
 40
1.0
 40
1.0
 40
1.0
 40
1.0
 10
10.1073845866
 20
3.78951706
 30
0.0
 10
10.1073845866
 20
3.7954997869
 30
0.0
 10
10.1078681491
 20
3.807057565
 30
0.0
 10
10.1100608318
 20
3.8237385139
 30
0.0
 10
10.1134725386
 20
3.8392325248
 30
0.0
 10
10.1164650366
 20
3.8490780137
 30
0.0
 10
10.118087412
 20
3.8538355704
 30
0.0
  0
SPLINE
  5
3D7
100
AcDbEntity
  8
0
100
AcDbSpline
 62
9
  6
CONTINUOUS
 70
0
 71
3
 72
26
 73
22
 74
0
 42
0.0000001
 43
0.0000001
 44
0.0000000001
 40
0.0
 40
0.0
 40
0.0
 40
0.0
 40
0.1560655098
 40
0.3026477845
 40
0.3722697965
 40
0.439340671
 40
0.5037896973
 40
0.5655573989
 40
0.6246391491
 40
0.6811413826
 40
0.7352667685
 40
0.787317823
 40
0.8378792432
 40
0.8629384209
 40
0.8881091409
 40
0.9137025415
 40
0.9401848788
 40
0.9539742173
 40
0.968355342
 40
0.9835930815
 40
1.0
 40
1.0
 40
1.0
 40
1.0
 10
11.0473183383
 20
5.860483197
 30
0.0
 10
11.0107153232
 20
5.860483197
 30
0.0
 10
10.939711895
 20
5.8625740048
 30
0.0
 10
10.8527184781
 20
5.8708163619
 30
0.0
 10
10.7870009743
 20
5.8806723134
 30
0.0
 10
10.7406512723
 20
5.8895349316
 30
0.0
 10
10.6965368807
 20
5.9000510215
 30
0.0
 10
10.6548215425
 20
5.9123175483
 30
0.0
 10
10.6156642465
 20
5.926437137
 30
0.0
 10
10.579242561
 20
5.9425857134
 30
0.0
 10
10.5457286565
 20
5.9609393037
 30
0.0
 10
10.5154420783
 20
5.9819071612
 30
0.0
 10
10.4931037054
 20
6.0020175758
 30
0.0
 10
10.4775305458
 20
6.0198373317
 30
0.0
 10
10.4670931007
 20
6.0342706068
 30
0.0
 10
10.4580262691
 20
6.0499975838
 30
0.0
 10
10.451947666
 20
6.0642463438
 30
0.0
 10
10.4480600383
 20
6.0764700498
 30
0.0
 10
10.445753244
 20
6.0863994369
 30
0.0
 10
10.4442616922
 20
6.0971053726
 30
0.0
 10
10.4439319581
 20
6.1045327675
 30
0.0
 10
10.4439319581
 20
6.1083807842
 30
0.0
  0
SPLINE
  5
3D8
100
AcDbEntity
  8
0
100
AcDbSpline
 62
9
  6
CONTINUOUS
 70
0
 71
3
 72
29
 73
25
 74
0
 42
0.0000001
 43
0.0000001
 44
0.0000000001
 40
0.0
 40
0.0
 40
0.0
 40
0.0
 40
0.0184533753
 40
0.035458664
 40
0.0514221975
 40
0.0666811716
 40
0.0814788393
 40
0.0959336665
 40
0.1241251578
 40
0.1517722487
 40
0.1791799148
 40
0.2065399268
 40
0.2339744044
 40
0.2893555285
 40
0.3457758039
 40
0.4034421218
 40
0.4625126711
 40
0.523102285
 40
0.5853200517
 40
0.6492621134
 40
0.7150338163
 40
0.7827585427
 40
0.8526593809
 40
1.0
 40
1.0
 40
1.0
 40
1.0
 10
11.98725209
 20
3.78951706
 30
0.0
 10
11.98725209
 20
3.782665311
 30
0.0
 10
11.9866199348
 20
3.7694875279
 30
0.0
 10
11.9837483045
 20
3.7505801581
 30
0.0
 10
11.9793365375
 20
3.7331981408
 30
0.0
 10
11.9737297008
 20
3.717040351
 30
0.0
 10
11.9672859124
 20
3.7018090854
 30
0.0
 10
11.9577465349
 20
3.6827184588
 30
0.0
 10
11.9440183384
 20
3.6604528174
 30
0.0
 10
11.925235753
 20
3.6358522163
 30
0.0
 10
11.9046167312
 20
3.6131982083
 30
0.0
 10
11.8824939773
 20
3.5921374175
 30
0.0
 10
11.8511193447
 20
3.5658528314
 30
0.0
 10
11.8087930025
 20
3.5359961429
 30
0.0
 10
11.7542051876
 20
3.5045655404
 30
0.0
 10
11.6962284897
 20
3.4766569619
 30
0.0
 10
11.635132451
 20
3.452005716
 30
0.0
 10
11.5711421421
 20
3.4303228221
 30
0.0
 10
11.5043757177
 20
3.4115017175
 30
0.0
 10
11.4349228667
 20
3.3954259452
 30
0.0
 10
11.3628209317
 20
3.3820587877
 30
0.0
 10
11.2880386279
 20
3.3713571728
 30
0.0
 10
11.1827462148
 20
3.3607040396
 30
0.0
 10
11.1020259955
 20
3.3576268717
 30
0.0
 10
11.0473183383
 20
3.3576268717
 30
0.0
  0
SPLINE
  5
3D9
100
AcDbEntity
  8
0
100
AcDbSpline
 62
9
  6
CONTINUOUS
 70
0
 71
3
 72
29
 73
25
 74
0
 42
0.0000001
 43
0.0000001
 44
0.0000000001
 40
0.0
 40
0.0
 40
0.0
 40
0.0
 40
0.1473406191
 40
0.2172414573
 40
0.2849661837
 40
0.3507378866
 40
0.4146799483
 40
0.476897715
 40
0.5374873289
 40
0.5965578782
 40
0.6542241961
 40
0.7106444715
 40
0.7660255956
 40
0.7934600732
 40
0.8208200852
 40
0.8482277513
 40
0.8758748422
 40
0.9040663335
 40
0.9185211607
 40
0.9333188284
 40
0.9485778025
 40
0.964541336
 40
0.9815466247
 40
1.0
 40
1.0
 40
1.0
 40
1.0
 10
11.0473183383
 20
3.3576268717
 30
0.0
 10
10.9926106811
 20
3.3576268717
 30
0.0
 10
10.9118904618
 20
3.3607040396
 30
0.0
 10
10.8065980487
 20
3.3713571728
 30
0.0
 10
10.7318157449
 20
3.3820587877
 30
0.0
 10
10.6597138099
 20
3.3954259452
 30
0.0
 10
10.5902609589
 20
3.4115017175
 30
0.0
 10
10.5234945345
 20
3.4303228221
 30
0.0
 10
10.4595042256
 20
3.452005716
 30
0.0
 10
10.3984081869
 20
3.4766569619
 30
0.0
 10
10.340431489
 20
3.5045655404
 30
0.0
 10
10.2858436741
 20
3.5359961429
 30
0.0
 10
10.2435173319
 20
3.5658528314
 30
0.0
 10
10.2121426992
 20
3.5921374175
 30
0.0
 10
10.1900199454
 20
3.6131982083
 30
0.0
 10
10.1694009236
 20
3.6358522163
 30
0.0
 10
10.1506183382
 20
3.6604528174
 30
0.0
 10
10.1368901416
 20
3.6827184588
 30
0.0
 10
10.1273507642
 20
3.7018090854
 30
0.0
 10
10.1209069757
 20
3.717040351
 30
0.0
 10
10.1153001391
 20
3.7331981408
 30
0.0
 10
10.1108883721
 20
3.7505801581
 30
0.0
 10
10.1080167418
 20
3.7694875279
 30
0.0
 10
10.1073845866
 20
3.782665311
 30
0.0
 10
10.1073845866
 20
3.78951706
 30
0.0
  0
SPLINE
  5
3DA
100
AcDbEntity
  8
0
100
AcDbSpline
 62
9
  6
CONTINUOUS
 70
0
 71
3
 72
29
 73
25
 74
0
 42
0.0000001
 43
0.0000001
 44
0.0000000001
 40
0.0
 40
0.0
 40
0.0
 40
0.0
 40
0.1483564476
 40
0.2187088219
 40
0.2868315662
 40
0.3529379158
 40
0.4171407969
 40
0.4795363817
 40
0.5402133268
 40
0.5992749917
 40
0.6568296476
 40
0.7130315899
 40
0.7680850721
 40
0.7953168057
 40
0.8224492482
 40
0.849606438
 40
0.8769828515
 40
0.904889181
 40
0.9191988458
 40
0.9338516042
 40
0.9489677738
 40
0.9647925617
 40
0.981666438
 40
1.0
 40
1.0
 40
1.0
 40
1.0
 10
11.0473183383
 20
3.2755451329
 30
0.0
 10
10.9908823461
 20
3.2755451329
 30
0.0
 10
10.9076325526
 20
3.2784352474
 30
0.0
 10
10.7989664065
 20
3.2885136507
 30
0.0
 10
10.7217868123
 20
3.2986668393
 30
0.0
 10
10.6473613689
 20
3.3113876795
 30
0.0
 10
10.5756592315
 20
3.3267508339
 30
0.0
 10
10.506721001
 20
3.34482483
 30
0.0
 10
10.4406407043
 20
3.3657599523
 30
0.0
 10
10.3775440973
 20
3.3896957428
 30
0.0
 10
10.3176657969
 20
3.416960404
 30
0.0
 10
10.2612913315
 20
3.4478558078
 30
0.0
 10
10.2175584331
 20
3.4774152034
 30
0.0
 10
10.1851503943
 20
3.5035710633
 30
0.0
 10
10.1623133778
 20
3.5245874218
 30
0.0
 10
10.1410329356
 20
3.5472672384
 30
0.0
 10
10.1216515302
 20
3.5719788025
 30
0.0
 10
10.1074898529
 20
3.5944187434
 30
0.0
 10
10.0976540838
 20
3.6137015327
 30
0.0
 10
10.0910114335
 20
3.62911038
 30
0.0
 10
10.0852332776
 20
3.6454813626
 30
0.0
 10
10.0806879908
 20
3.6631218968
 30
0.0
 10
10.0777307328
 20
3.6823414234
 30
0.0
 10
10.0770810633
 20
3.695747157
 30
0.0
 10
10.077081064
 20
3.7027213922
 30
0.0
  0
SPLINE
  5
3DB
100
AcDbEntity
  8
0
100
AcDbSpline
 62
9
  6
CONTINUOUS
 70
0
 71
3
 72
11
 73
7
 74
0
 42
0.0000001
 43
0.0000001
 44
0.0000000001
 40
0.0
 40
0.0
 40
0.0
 40
0.0
 40
0.2747342475
 40
0.5296813533
 40
0.7699800745
 40
1.0
 40
1.0
 40
1.0
 40
1.0
 10
10.077081064
 20
3.7027213922
 30
0.0
 10
10.0770810646
 20
3.7091001788
 30
0.0
 10
10.0776262633
 20
3.7214075363
 30
0.0
 10
10.0800999478
 20
3.7391381789
 30
0.0
 10
10.083934065
 20
3.7555565389
 30
0.0
 10
10.0872784271
 20
3.7659637681
 30
0.0
 10
10.0890843932
 20
3.7709897589
 30
0.0
  0
SPLINE
  5
3DC
100
AcDbEntity
  8
0
100
AcDbSpline
 62
9
  6
CONTINUOUS
 70
0
 71
3
 72
29
 73
25
 74
0
 42
0.0000001
 43
0.0000001
 44
0.0000000001
 40
0.0
 40
0.0
 40
0.0
 40
0.0
 40
0.018333562
 40
0.0352074383
 40
0.0510322262
 40
0.0661483958
 40
0.0808011542
 40
0.095110819
 40
0.1230171485
 40
0.150393562
 40
0.1775507518
 40
0.2046831943
 40
0.2319149279
 40
0.2869684101
 40
0.3431703524
 40
0.4007250083
 40
0.4597866732
 40
0.5204636183
 40
0.5828592031
 40
0.6470620842
 40
0.7131684338
 40
0.7812911781
 40
0.8516435524
 40
1.0
 40
1.0
 40
1.0
 40
1.0
 10
12.0175556126
 20
3.7027213922
 30
0.0
 10
12.0175556133
 20
3.695747157
 30
0.0
 10
12.0169059438
 20
3.6823414234
 30
0.0
 10
12.0139486857
 20
3.6631218968
 30
0.0
 10
12.009403399
 20
3.6454813626
 30
0.0
 10
12.0036252431
 20
3.62911038
 30
0.0
 10
11.9969825928
 20
3.6137015327
 30
0.0
 10
11.9871468236
 20
3.5944187434
 30
0.0
 10
11.9729851463
 20
3.5719788025
 30
0.0
 10
11.953603741
 20
3.5472672384
 30
0.0
 10
11.9323232987
 20
3.5245874218
 30
0.0
 10
11.9094862822
 20
3.5035710633
 30
0.0
 10
11.8770782435
 20
3.4774152034
 30
0.0
 10
11.8333453451
 20
3.4478558078
 30
0.0
 10
11.7769708796
 20
3.416960404
 30
0.0
 10
11.7170925792
 20
3.3896957428
 30
0.0
 10
11.6539959722
 20
3.3657599523
 30
0.0
 10
11.5879156756
 20
3.34482483
 30
0.0
 10
11.5189774451
 20
3.3267508339
 30
0.0
 10
11.4472753077
 20
3.3113876795
 30
0.0
 10
11.3728498642
 20
3.2986668393
 30
0.0
 10
11.29567027
 20
3.2885136507
 30
0.0
 10
11.1870041239
 20
3.2784352474
 30
0.0
 10
11.1037543305
 20
3.2755451329
 30
0.0
 10
11.0473183383
 20
3.2755451329
 30
0.0
  0
ENDSEC
  0
SECTION
  2
OBJECTS
  0
DICTIONARY
  5
C
100
AcDbDictionary
280
0
281
1
  3
ACAD_GROUP
350
D
  3
ACAD_MLINESTYLE
350
17
  3
ACAD_LAYOUT
350
1A
  3
ACAD_PLOTSETTINGS
350
19
  3
ACAD_PLOTSTYLENAME
350
E
  0
DICTIONARY
  5
D
102
{ACAD_REACTORS
330
C
102
}
100
AcDbDictionary
280
0
281
1
  0
ACDBDICTIONARYWDFLT
  5
E
102
{ACAD_REACTORS
330
C
102
}
100
AcDbDictionary
281
1
  3
Normal
350
F
100
AcDbDictionaryWithDefault
340
F
  0
DICTIONARY
  5
17
102
{ACAD_REACTORS
330
C
102
}
100
AcDbDictionary
280
0
281
1
  3
Standard
350
18
  0
DICTIONARY
  5
19
102
{ACAD_REACTORS
330
C
102
}
100
AcDbDictionary
281
1
  0
DICTIONARY
  5
1A
102
{ACAD_REACTORS
330
C
102
}
100
AcDbDictionary
281
1
  3
Model
350
3DD
  3
Layout1
350
3DE
  0
ACDBPLACEHOLDER
  5
F
102
{ACAD_REACTORS
330
E
102
}
  0
MLINESTYLE
  5
18
102
{ACAD_REACTORS
330
17
102
}
100
AcDbMlineStyle
  2
STANDARD
 70
0
  3

 62
256
 51
90.0
 52
90.0
 71
2
 49
0.5
 62
256
  6
BYLAYER
 49
-0.5
 62
256
  6
BYLAYER
  0
LAYOUT
  5
3DD
102
{ACAD_REACTORS
330
1A
102
}
100
AcDbPlotSettings
  1

  2
none_device
  4
ANSI_C_(22.00_x_17.00_Inches)
  6

 40
0.0
 41
0.0
 42
0.0
 43
0.0
 44
558.8
 45
431.8
 46
0.0
 47
0.0
 48
0.0
 49
0.0
140
0.0
141
0.0
142
1.0
143
1.0
 70
1024
 72
0
 73
0
 74
0
  7

 75
0
147
1.0
148
0.0
149
0.0
100
AcDbLayout
  1
Model
 70
0
 71
0
 10
0.0
 20
0.0
 11
22.0
 21
17.0
 12
0.0
 22
0.0
 32
0.0
 14
0.0
 24
0.0
 34
0.0
 15
0.0
 25
0.0
 35
0.0
146
0.0
 13
0.0
 23
0.0
 33
0.0
 16
1.0
 26
0.0
 36
0.0
 17
0.0
 27
1.0
 37
0.0
 76
0
330
202
345
0
346
0
  0
LAYOUT
  5
3DE
102
{ACAD_REACTORS
330
1A
102
}
100
AcDbPlotSettings
  1

  2
none_device
  4
ANSI_C_(22.00_x_17.00_Inches)
  6

 40
0.0
 41
0.0
 42
0.0
 43
0.0
 44
558.8
 45
431.8
 46
0.0
 47
0.0
 48
0.0
 49
0.0
140
0.0
141
0.0
142
1.0
143
1.0
 70
0
 72
0
 73
0
 74
0
  7

 75
0
147
1.0
148
0.0
149
0.0
100
AcDbLayout
  1
Layout1
 70
0
 71
1
 10
0.0
 20
0.0
 11
22.0
 21
17.0
 12
0.0
 22
0.0
 32
0.0
 14
0.0
 24
0.0
 34
0.0
 15
0.0
 25
0.0
 35
0.0
146
0.0
 13
0.0
 23
0.0
 33
0.0
 16
1.0
 26
0.0
 36
0.0
 17
0.0
 27
1.0
 37
0.0
 76
0
330
203
345
0
346
0
  0
ENDSEC
  0
EOF
