999
DXF file: E:\BT Custom\CADOUTPUT\_RIGHT.dxf
999
Pro/ENGINEER 2018400 by Parametric Technology Corporation
  0
SECTION
  2
HEADER
  9
$ACADVER
  1
AC1018
  9
$DWGCODEPAGE
  3
ANSI_1252
  9
$EXTMAX
 10
22.0
 20
17.0
 30
0.0
  9
$EXTMIN
 10
0.0
 20
0.0
 30
0.0
  9
$LIMMIN
 10
0.0
 20
0.0
  9
$LIMMAX
 10
22.0
 20
17.0
  9
$VIEWCTR
 10
11.0
 20
8.5
  9
$VIEWSIZE
 40
17.0
  9
$CLAYER
  8
0
  9
$LTSCALE
 40
1.21
  9
$CELTYPE
  6
BYLAYER
  9
$DIMSCALE
 40
1.0
  9
$DIMASZ
 40
0.1
  9
$DIMEXO
 40
0.0625
  9
$DIMDLI
 40
0.836
  9
$DIMEXE
 40
0.125
  9
$DIMCEN
 40
0.198
  9
$DIMLFAC
 40
1.0
  9
$DIMBLK
  1
_FILLED
  9
$DIMALT
 70
1
  9
$DIMALTD
 70
2
  9
$DIMALTTD
 70
2
  9
$DIMALTF
 40
25.4
  9
$DIMTXT
 40
0.08
  9
$DIMTOL
 70
1
  9
$DIMLIM
 70
0
  9
$DIMTFAC
 40
1.0
  9
$DIMTP
 40
0.001
  9
$DIMTM
 40
0.001
  9
$DIMGAP
 40
0.09
  9
$DIMDSEP
 70
46
  9
$AUNITS
 70
0
  9
$PDMODE
 70
3
  9
$PDSIZE
 40
0.06
  9
$HANDSEED
  5
488
  9
$TILEMODE
 70
1
  9
$MEASUREMENT
 70
0
  9
$INSUNITS
 70
1
  0
ENDSEC
  0
SECTION
  2
CLASSES
  0
CLASS
  1
ACDBDICTIONARYWDFLT
  2
AcDbDictionaryWithDefault
  3
AutoCAD 2000
 90
0
 91
1
280
0
281
0
  0
CLASS
  1
ACDBPLACEHOLDER
  2
AcDbPlaceHolder
  3
AutoCAD 2000
 90
0
 91
1
280
0
281
0
  0
CLASS
  1
LAYOUT
  2
AcDbLayout
  3
AutoCAD 2000
 90
0
 91
0
280
0
281
0
  0
ENDSEC
  0
SECTION
  2
TABLES
  0
TABLE
  2
VPORT
  5
8
100
AcDbSymbolTable
 70
2
  0
VPORT
  5
1F4
100
AcDbSymbolTableRecord
100
AcDbViewportTableRecord
  2
*ACTIVE
 70
0
 10
0.0
 20
0.0
 11
1.0
 21
1.0
 12
11.0
 22
8.5
 13
0.0
 23
0.0
 14
1.0
 24
1.0
 15
0.0
 25
0.0
 16
0.0
 26
0.0
 36
1.0
 17
0.0
 27
0.0
 37
0.0
 40
17.0
 41
1.2941176471
 42
50.0
 43
0.0
 44
0.0
 50
0.0
 51
0.0
 71
0
 72
100
 73
1
 74
1
 75
0
 76
0
 77
0
 78
0
  0
ENDTAB
  0
TABLE
  2
LTYPE
  5
5
100
AcDbSymbolTable
 70
6
  0
LTYPE
  5
14
100
AcDbSymbolTableRecord
100
AcDbLinetypeTableRecord
  2
BYBLOCK
 70
0
  3

 72
65
 73
0
 40
0.0
  0
LTYPE
  5
15
100
AcDbSymbolTableRecord
100
AcDbLinetypeTableRecord
  2
BYLAYER
 70
0
  3

 72
65
 73
0
 40
0.0
  0
LTYPE
  5
16
100
AcDbSymbolTableRecord
100
AcDbLinetypeTableRecord
  2
CONTINUOUS
 70
64
  3
Solid line
 72
65
 73
0
 40
0.0
  0
LTYPE
  5
1F5
100
AcDbSymbolTableRecord
100
AcDbLinetypeTableRecord
  2
CENTER
 70
64
  3
____ _ ____ _ ____ _ ____ _ ____ _ ____ _ ____
 72
65
 73
4
 40
0.6
 49
0.375
 74
0
 49
-0.075
 74
0
 49
0.075
 74
0
 49
-0.075
 74
0
  0
LTYPE
  5
1F6
100
AcDbSymbolTableRecord
100
AcDbLinetypeTableRecord
  2
HIDDEN
 70
64
  3
- - - - - - - - - - - - - - - - - - - -
 72
65
 73
2
 40
0.2
 49
0.1
 74
0
 49
-0.1
 74
0
  0
LTYPE
  5
1F7
100
AcDbSymbolTableRecord
100
AcDbLinetypeTableRecord
  2
PHANTOM
 70
64
  3
_____ _ _ _____ _ _ _____ _ _ _____
 72
65
 73
6
 40
0.8
 49
0.45
 74
0
 49
-0.05
 74
0
 49
0.1
 74
0
 49
-0.05
 74
0
 49
0.1
 74
0
 49
-0.05
 74
0
  0
LTYPE
  5
1F8
100
AcDbSymbolTableRecord
100
AcDbLinetypeTableRecord
  2
DOT
 70
64
  3
. . . . . . . . . . . . . . . . . . . .
 72
65
 73
2
 40
0.2
 49
0.1
 74
0
 49
-0.1
 74
0
  0
LTYPE
  5
1F9
100
AcDbSymbolTableRecord
100
AcDbLinetypeTableRecord
  2
DASHED
 70
64
  3
- - - - - - - - - - - - - - - - - - - -
 72
65
 73
2
 40
0.2
 49
0.1
 74
0
 49
-0.1
 74
0
  0
ENDTAB
  0
TABLE
  2
LAYER
  5
2
100
AcDbSymbolTable
 70
36
  0
LAYER
  5
10
100
AcDbSymbolTableRecord
100
AcDbLayerTableRecord
  2
0
 70
0
 62
7
  6
CONTINUOUS
370
-3
390
F
  0
LAYER
  5
1FA
100
AcDbSymbolTableRecord
100
AcDbLayerTableRecord
  2
DEFAULT_1
 70
0
 62
7
  6
CENTER
370
-3
390
F
  0
LAYER
  5
1FB
100
AcDbSymbolTableRecord
100
AcDbLayerTableRecord
  2
DEFAULT_2
 70
0
 62
8
  6
HIDDEN
370
-3
390
F
  0
LAYER
  5
1FC
100
AcDbSymbolTableRecord
100
AcDbLayerTableRecord
  2
DEFAULT_3
 70
0
 62
7
  6
PHANTOM
370
-3
390
F
  0
LAYER
  5
1FD
100
AcDbSymbolTableRecord
100
AcDbLayerTableRecord
  2
ALL_FEATURES
 70
0
 62
7
  6
CONTINUOUS
370
-3
390
F
  0
LAYER
  5
1FE
100
AcDbSymbolTableRecord
100
AcDbLayerTableRecord
  2
AXES_FEATURES
 70
0
 62
7
  6
CONTINUOUS
370
-3
390
F
  0
LAYER
  5
1FF
100
AcDbSymbolTableRecord
100
AcDbLayerTableRecord
  2
DEFAULT_COORDINATE_SYSTEM
 70
0
 62
7
  6
CONTINUOUS
370
-3
390
F
  0
LAYER
  5
200
100
AcDbSymbolTableRecord
100
AcDbLayerTableRecord
  2
DEFAULT_DATUM_AXES
 70
0
 62
7
  6
CONTINUOUS
370
-3
390
F
  0
LAYER
  5
201
100
AcDbSymbolTableRecord
100
AcDbLayerTableRecord
  2
DEFAULT_DATUM_PLANES
 70
0
 62
7
  6
CONTINUOUS
370
-3
390
F
  0
LAYER
  5
202
100
AcDbSymbolTableRecord
100
AcDbLayerTableRecord
  2
DIMENSIONS
 70
0
 62
7
  6
CONTINUOUS
370
-3
390
F
  0
ENDTAB
  0
TABLE
  2
STYLE
  5
3
100
AcDbSymbolTable
 70
1
  0
STYLE
  5
11
100
AcDbSymbolTableRecord
100
AcDbTextStyleTableRecord
  2
STANDARD
 70
0
 40
0.0
 41
0.8
 50
0.0
 71
0
 42
0.2
  3
txt
  4

  0
STYLE
  5
203
100
AcDbSymbolTableRecord
100
AcDbTextStyleTableRecord
  2
TEXTSTYLE_1
 70
0
 40
0.0
 41
0.8
 50
0.0
 71
0
 42
0.2
  3
gdt
  4

  0
ENDTAB
  0
TABLE
  2
VIEW
  5
6
100
AcDbSymbolTable
 70
0
  0
ENDTAB
  0
TABLE
  2
UCS
  5
7
100
AcDbSymbolTable
 70
0
  0
ENDTAB
  0
TABLE
  2
APPID
  5
9
100
AcDbSymbolTable
 70
1
  0
APPID
  5
204
100
AcDbSymbolTableRecord
100
AcDbRegAppTableRecord
  2
ACAD
 70
0
  0
ENDTAB
  0
TABLE
  2
BLOCK_RECORD
  5
1
100
AcDbSymbolTable
 70
0
  0
BLOCK_RECORD
  5
205
100
AcDbSymbolTableRecord
100
AcDbBlockTableRecord
  2
*Model_Space
  0
BLOCK_RECORD
  5
206
100
AcDbSymbolTableRecord
100
AcDbBlockTableRecord
  2
*Paper_Space
  0
BLOCK_RECORD
  5
207
100
AcDbSymbolTableRecord
100
AcDbBlockTableRecord
  2
_FILLED
  0
ENDTAB
  0
TABLE
  2
DIMSTYLE
  5
A
100
AcDbSymbolTable
 70
1
100
AcDbDimStyleTable
 71
0
  0
DIMSTYLE
105
208
100
AcDbSymbolTableRecord
100
AcDbDimStyleTableRecord
  2
STANDARD
 70
0
  3

  4

 40
1.0
 41
0.1
 42
0.0625
 43
0.38
 44
0.125
 45
0.0
 46
0.0
 47
0.001
 48
0.001
140
0.08
141
0.09
142
0.0
143
25.4
144
1.0
145
0.0
146
1.0
147
0.09
 71
1.0
 72
0.0
 73
1
 74
1
 75
0
 76
0
 77
0
 78
4
 79
1
170
1
171
2
172
0
173
0
174
0
175
0
176
0
177
0
178
0
270
2
179
3
271
3
272
3
273
2
274
2
275
0
280
0
281
0
282
0
283
1
284
4
285
0
286
0
287
3
288
0
340
11
278
46
341
207
342
207
343
207
344
207
  0
ENDTAB
  0
ENDSEC
  0
SECTION
  2
BLOCKS
  0
BLOCK
  5
20
100
AcDbEntity
  8
0
100
AcDbBlockBegin
  2
*Model_Space
 70
0
 10
0.0
 20
0.0
 30
0.0
  3
*Model_Space
  1

  0
ENDBLK
  5
21
100
AcDbEntity
  8
0
100
AcDbBlockEnd
  0
BLOCK
  5
1C
100
AcDbEntity
  8
0
100
AcDbBlockBegin
  2
*Paper_Space
 70
0
 10
0.0
 20
0.0
 30
0.0
  3
*Paper_Space
  1

  0
ENDBLK
  5
1D
100
AcDbEntity
  8
0
100
AcDbBlockEnd
  0
BLOCK
  5
209
100
AcDbEntity
  8
0
100
AcDbBlockBegin
  2
_FILLED
 70
64
 10
0.0
 20
0.0
  3
_FILLED
  1

  0
SOLID
  5
20A
100
AcDbEntity
  8
0
  6
BYBLOCK
 62
0
100
AcDbTrace
 10
0.0
 20
0.0
 11
-1.0
 21
0.2
 12
-1.0
 22
-0.2
 13
-1.0
 23
-0.2
  0
ENDBLK
  5
20B
100
AcDbEntity
  8
0
  6
BYBLOCK
 62
0
100
AcDbBlockEnd
  0
ENDSEC
  0
SECTION
  2
ENTITIES
  0
LINE
  5
20C
100
AcDbEntity
  8
0
100
AcDbLine
 62
7
  6
CONTINUOUS
 10
6.5852795986
 20
9.8074967371
 11
6.1163890603
 21
9.0571150182
  0
LINE
  5
20D
100
AcDbEntity
  8
0
100
AcDbLine
 62
7
  6
CONTINUOUS
 10
7.9440048678
 20
11.7209456636
 11
7.941962172
 21
11.7163819597
  0
LINE
  5
20E
100
AcDbEntity
  8
0
100
AcDbLine
 62
7
  6
CONTINUOUS
 10
8.0168288595
 20
11.6719159152
 11
8.0146367501
 21
11.6670183975
  0
LINE
  5
20F
100
AcDbEntity
  8
0
100
AcDbLine
 62
7
  6
CONTINUOUS
 10
8.1717179919
 20
11.5406521923
 11
8.1686178963
 21
11.5337260905
  0
LINE
  5
210
100
AcDbEntity
  8
0
100
AcDbLine
 62
7
  6
CONTINUOUS
 10
8.3088850518
 20
11.4187494849
 11
8.3057849562
 21
11.4118233831
  0
LINE
  5
211
100
AcDbEntity
  8
0
100
AcDbLine
 62
7
  6
CONTINUOUS
 10
8.4586626764
 20
11.2883045778
 11
8.4555625808
 21
11.2813784761
  0
LINE
  5
212
100
AcDbEntity
  8
0
100
AcDbLine
 62
7
  6
CONTINUOUS
 10
12.382504731
 20
5.7171530747
 11
15.2635801143
 21
5.7171530747
  0
LINE
  5
213
100
AcDbEntity
  8
0
100
AcDbLine
 62
9
  6
CONTINUOUS
 10
12.4553579228
 20
5.7674132218
 11
15.1907269226
 21
5.7674132218
  0
LINE
  5
214
100
AcDbEntity
  8
0
100
AcDbLine
 62
9
  6
CONTINUOUS
 10
12.3498026062
 20
5.7801872022
 11
12.4667890222
 21
5.7801872022
  0
LINE
  5
215
100
AcDbEntity
  8
0
100
AcDbLine
 62
9
  6
CONTINUOUS
 10
15.1792958232
 20
5.7801872022
 11
15.2962822392
 21
5.7801872022
  0
LINE
  5
216
100
AcDbEntity
  8
0
100
AcDbLine
 62
9
  6
CONTINUOUS
 10
15.0792009709
 20
5.897934591
 11
12.5668838745
 21
5.897934591
  0
LINE
  5
217
100
AcDbEntity
  8
0
100
AcDbLine
 62
9
  6
CONTINUOUS
 10
15.0719130014
 20
5.9334496792
 11
12.5741718439
 21
5.9334496792
  0
LINE
  5
218
100
AcDbEntity
  8
0
100
AcDbLine
 62
9
  6
CONTINUOUS
 10
15.2214097275
 20
5.9503068637
 11
15.0735263409
 21
5.9503068637
  0
LINE
  5
219
100
AcDbEntity
  8
0
100
AcDbLine
 62
9
  6
CONTINUOUS
 10
12.5725585045
 20
5.9503068637
 11
12.4246751179
 21
5.9503068637
  0
LINE
  5
21A
100
AcDbEntity
  8
0
100
AcDbLine
 62
9
  6
CONTINUOUS
 10
15.0625544112
 20
5.9781530747
 11
12.5835304341
 21
5.9781530747
  0
LINE
  5
21B
100
AcDbEntity
  8
0
100
AcDbLine
 62
9
  6
CONTINUOUS
 10
15.2255201349
 20
5.9782928397
 11
15.0624412318
 21
5.9782928397
  0
LINE
  5
21C
100
AcDbEntity
  8
0
100
AcDbLine
 62
9
  6
CONTINUOUS
 10
12.5836436136
 20
5.9782928397
 11
12.4205647105
 21
5.9782928397
  0
LINE
  5
21D
100
AcDbEntity
  8
0
100
AcDbLine
 62
9
  6
CONTINUOUS
 10
12.4127229575
 20
5.9983937198
 11
12.5999209853
 21
5.9983937198
  0
LINE
  5
21E
100
AcDbEntity
  8
0
100
AcDbLine
 62
9
  6
CONTINUOUS
 10
15.04616386
 20
5.9983937198
 11
15.2333618878
 21
5.9983937198
  0
LINE
  5
21F
100
AcDbEntity
  8
0
100
AcDbLine
 62
9
  6
CONTINUOUS
 10
12.4176375511
 20
6.0230916743
 11
12.6199209945
 21
6.0230916743
  0
LINE
  5
220
100
AcDbEntity
  8
0
100
AcDbLine
 62
9
  6
CONTINUOUS
 10
15.0261638508
 20
6.0230916743
 11
15.2284472942
 21
6.0230916743
  0
LINE
  5
221
100
AcDbEntity
  8
0
100
AcDbLine
 62
7
  6
CONTINUOUS
 10
8.6640581646
 20
11.1597314451
 11
8.6670332453
 21
11.1663782438
  0
LINE
  5
222
100
AcDbEntity
  8
0
100
AcDbLine
 62
9
  6
CONTINUOUS
 10
8.7759681045
 20
11.3485622285
 11
8.9393837656
 21
11.7136585499
  0
LINE
  5
223
100
AcDbEntity
  8
0
100
AcDbLine
 62
7
  6
CONTINUOUS
 10
8.7096952045
 20
11.1393044876
 11
8.7126702851
 21
11.1459512863
  0
LINE
  5
224
100
AcDbEntity
  8
0
100
AcDbLine
 62
7
  6
CONTINUOUS
 10
7.3904923702
 20
9.2992152775
 11
7.067278872
 21
8.8200315605
  0
LINE
  5
225
100
AcDbEntity
  8
0
100
AcDbLine
 62
7
  6
CONTINUOUS
 10
15.1295253295
 20
6.1588968562
 11
14.9161909828
 21
6.1588968562
  0
LINE
  5
226
100
AcDbEntity
  8
0
100
AcDbLine
 62
7
  6
CONTINUOUS
 10
12.7298938625
 20
6.1588968562
 11
12.5165595158
 21
6.1588968562
  0
LINE
  5
227
100
AcDbEntity
  8
0
100
AcDbLine
 62
7
  6
CONTINUOUS
 10
15.1061220086
 20
6.1636493715
 11
14.9123424719
 21
6.1636493715
  0
LINE
  5
228
100
AcDbEntity
  8
0
100
AcDbLine
 62
7
  6
CONTINUOUS
 10
12.7337423735
 20
6.1636493715
 11
12.5399628368
 21
6.1636493715
  0
LINE
  5
229
100
AcDbEntity
  8
0
100
AcDbLine
 62
9
  6
CONTINUOUS
 10
14.8292119168
 20
6.2663070575
 11
12.8168729285
 21
6.2663070575
  0
LINE
  5
22A
100
AcDbEntity
  8
0
100
AcDbLine
 62
7
  6
CONTINUOUS
 10
14.7748116995
 20
6.2922546301
 11
12.8712731458
 21
6.2922546301
  0
LINE
  5
22B
100
AcDbEntity
  8
0
100
AcDbLine
 62
7
  6
CONTINUOUS
 10
8.942415299
 20
11.0717788283
 11
8.9393152034
 21
11.0648527266
  0
LINE
  5
22C
100
AcDbEntity
  8
0
100
AcDbLine
 62
7
  6
CONTINUOUS
 10
9.1394791773
 20
11.0469788584
 11
9.1363790817
 21
11.0400527567
  0
LINE
  5
22D
100
AcDbEntity
  8
0
100
AcDbLine
 62
9
  6
CONTINUOUS
 10
13.0140865723
 20
6.4627657605
 11
14.631998273
 21
6.4627657605
  0
LINE
  5
22E
100
AcDbEntity
  8
0
100
AcDbLine
 62
7
  6
CONTINUOUS
 10
13.0848951071
 20
6.4921530747
 11
14.5611897382
 21
6.4921530747
  0
LINE
  5
22F
100
AcDbEntity
  8
0
100
AcDbLine
 62
9
  6
CONTINUOUS
 10
13.5895743745
 20
6.5164423966
 11
14.0565104708
 21
6.5164423967
  0
LINE
  5
230
100
AcDbEntity
  8
0
100
AcDbLine
 62
9
  6
CONTINUOUS
 10
13.6896707768
 20
6.5517977356
 11
13.9564140686
 21
6.5517977356
  0
LINE
  5
231
100
AcDbEntity
  8
0
100
AcDbLine
 62
9
  6
CONTINUOUS
 10
14.6457360813
 20
6.5994898147
 11
14.3705424227
 21
6.5994898147
  0
LINE
  5
232
100
AcDbEntity
  8
0
100
AcDbLine
 62
9
  6
CONTINUOUS
 10
13.2755424227
 20
6.5994898147
 11
13.000348764
 21
6.5994898147
  0
LINE
  5
233
100
AcDbEntity
  8
0
100
AcDbLine
 62
9
  6
CONTINUOUS
 10
13.2755424227
 20
6.6393245061
 11
14.3705424227
 21
6.6393245061
  0
LINE
  5
234
100
AcDbEntity
  8
0
100
AcDbLine
 62
9
  6
CONTINUOUS
 10
14.6471577058
 20
6.6472683755
 11
14.370147188
 21
6.6472683755
  0
LINE
  5
235
100
AcDbEntity
  8
0
100
AcDbLine
 62
9
  6
CONTINUOUS
 10
13.2759376573
 20
6.6472683755
 11
12.9989271395
 21
6.6472683755
  0
LINE
  5
236
100
AcDbEntity
  8
0
100
AcDbLine
 62
9
  6
CONTINUOUS
 10
13.3055424227
 20
6.7107387904
 11
14.3405424227
 21
6.7107387904
  0
LINE
  5
237
100
AcDbEntity
  8
0
100
AcDbLine
 62
9
  6
CONTINUOUS
 10
14.6246947081
 20
6.7820044756
 11
14.3105424227
 21
6.7820044756
  0
LINE
  5
238
100
AcDbEntity
  8
0
100
AcDbLine
 62
9
  6
CONTINUOUS
 10
13.3355424227
 20
6.7820044756
 11
13.0213901373
 21
6.7820044756
  0
LINE
  5
239
100
AcDbEntity
  8
0
100
AcDbLine
 62
7
  6
CONTINUOUS
 10
14.3105424227
 20
6.7821530747
 11
13.3355424227
 21
6.7821530747
  0
LINE
  5
23A
100
AcDbEntity
  8
0
100
AcDbLine
 62
7
  6
CONTINUOUS
 10
9.3217713965
 20
11.0258928634
 11
9.3186713009
 21
11.0189667616
  0
LINE
  5
23B
100
AcDbEntity
  8
0
100
AcDbLine
 62
7
  6
CONTINUOUS
 10
9.522851175
 20
10.9978263178
 11
9.5206590655
 21
10.9929288001
  0
LINE
  5
23C
100
AcDbEntity
  8
0
100
AcDbLine
 62
9
  6
CONTINUOUS
 10
10.3026473146
 20
11.0762108081
 11
10.6033686491
 21
11.3285452245
  0
LINE
  5
23D
100
AcDbEntity
  8
0
100
AcDbLine
 62
7
  6
CONTINUOUS
 10
10.14652551
 20
10.9452069092
 11
10.3026447782
 21
11.0762133023
  0
LINE
  5
23E
100
AcDbEntity
  8
0
100
AcDbLine
 62
9
  6
CONTINUOUS
 10
14.6032424883
 20
6.8109837534
 11
14.3097680977
 21
6.8109837534
  0
LINE
  5
23F
100
AcDbEntity
  8
0
100
AcDbLine
 62
9
  6
CONTINUOUS
 10
13.332937817
 20
6.8109837534
 11
13.0428423571
 21
6.8109837534
  0
LINE
  5
240
100
AcDbEntity
  8
0
100
AcDbLine
 62
7
  6
CONTINUOUS
 10
9.6079313412
 20
10.9761787933
 11
9.6058886454
 21
10.9716150893
  0
LINE
  5
241
100
AcDbEntity
  8
0
100
AcDbLine
 62
9
  6
CONTINUOUS
 10
14.1991970174
 20
7.3958272298
 11
14.6032427688
 21
7.3958272298
  0
LINE
  5
242
100
AcDbEntity
  8
0
100
AcDbLine
 62
9
  6
CONTINUOUS
 10
14.2005185273
 20
7.4248067658
 11
14.6246949077
 21
7.4248067658
  0
LINE
  5
243
100
AcDbEntity
  8
0
100
AcDbLine
 62
9
  6
CONTINUOUS
 10
14.6217808889
 20
7.571310807
 11
14.20873386
 21
7.571310807
  0
LINE
  5
244
100
AcDbEntity
  8
0
100
AcDbLine
 62
9
  6
CONTINUOUS
 10
14.5995406208
 20
7.5957320745
 11
14.2107716569
 21
7.5957320745
  0
LINE
  5
245
100
AcDbEntity
  8
0
100
AcDbLine
 62
9
  6
CONTINUOUS
 10
13.8925633781
 20
7.6981865537
 11
14.219320821
 21
7.6981865537
  0
LINE
  5
246
100
AcDbEntity
  8
0
100
AcDbLine
 62
9
  6
CONTINUOUS
 10
13.8556377543
 20
7.7421927986
 11
14.2460254188
 21
7.7421927986
  0
LINE
  5
247
100
AcDbEntity
  8
0
100
AcDbLine
 62
9
  6
CONTINUOUS
 10
13.8135811804
 20
7.7923138716
 11
14.2730424227
 21
7.7923138725
  0
LINE
  5
248
100
AcDbEntity
  8
0
100
AcDbLine
 62
9
  6
CONTINUOUS
 10
13.8095206069
 20
7.7971530747
 11
14.2730424227
 21
7.7971530747
  0
LINE
  5
249
100
AcDbEntity
  8
0
100
AcDbLine
 62
7
  6
CONTINUOUS
 10
13.759174629
 20
7.8571530747
 11
14.2130424227
 21
7.8571530747
  0
LINE
  5
24A
100
AcDbEntity
  8
0
100
AcDbLine
 62
7
  6
CONTINUOUS
 10
10.5699289114
 20
10.0938999873
 11
11.3594920806
 21
10.7564221514
  0
LINE
  5
24B
100
AcDbEntity
  8
0
100
AcDbLine
 62
9
  6
CONTINUOUS
 10
10.679986406
 20
10.00349217
 11
11.4294151167
 21
10.6323375248
  0
LINE
  5
24C
100
AcDbEntity
  8
0
100
AcDbLine
 62
7
  6
CONTINUOUS
 10
14.1475424227
 20
7.9371530747
 11
13.6920466585
 21
7.9371530747
  0
LINE
  5
24D
100
AcDbEntity
  8
0
100
AcDbLine
 62
7
  6
CONTINUOUS
 10
14.0940424227
 20
8.1871530747
 11
13.5520424227
 21
8.1871530747
  0
LINE
  5
24E
100
AcDbEntity
  8
0
100
AcDbLine
 62
7
  6
CONTINUOUS
 10
14.9644293018
 20
8.187652728
 11
14.9494603254
 21
8.187652728
  0
LINE
  5
24F
100
AcDbEntity
  8
0
100
AcDbLine
 62
7
  6
CONTINUOUS
 10
7.067278872
 20
8.8200315605
 11
6.1163890603
 21
9.0571150182
  0
LINE
  5
250
100
AcDbEntity
  8
0
100
AcDbLine
 62
7
  6
CONTINUOUS
 10
14.3370424226
 20
8.367652728
 11
14.2470424227
 21
8.367652728
  0
LINE
  5
251
100
AcDbEntity
  8
0
100
AcDbLine
 62
7
  6
CONTINUOUS
 10
13.3297112945
 20
8.367652728
 11
13.3990424227
 21
8.367652728
  0
LINE
  5
252
100
AcDbEntity
  8
0
100
AcDbLine
 62
7
  6
CONTINUOUS
 10
14.3370424226
 20
8.727652728
 11
14.2470424227
 21
8.727652728
  0
LINE
  5
253
100
AcDbEntity
  8
0
100
AcDbLine
 62
7
  6
CONTINUOUS
 10
13.3090424227
 20
8.727652728
 11
13.3990424227
 21
8.727652728
  0
LINE
  5
254
100
AcDbEntity
  8
0
100
AcDbLine
 62
9
  6
CONTINUOUS
 10
13.5241805271
 20
8.8854138379
 11
13.6988450948
 21
8.8854138379
  0
LINE
  5
255
100
AcDbEntity
  8
0
100
AcDbLine
 62
9
  6
CONTINUOUS
 10
13.9472397938
 20
8.8854138379
 11
14.1219043182
 21
8.8854138379
  0
LINE
  5
256
100
AcDbEntity
  8
0
100
AcDbLine
 62
7
  6
CONTINUOUS
 10
13.5308071767
 20
8.887924678
 11
13.7063659772
 21
8.887924678
  0
LINE
  5
257
100
AcDbEntity
  8
0
100
AcDbLine
 62
7
  6
CONTINUOUS
 10
13.9397188797
 20
8.887924678
 11
14.1152776687
 21
8.887924678
  0
LINE
  5
258
100
AcDbEntity
  8
0
100
AcDbLine
 62
7
  6
CONTINUOUS
 10
14.9644293018
 20
8.907652728
 11
14.9494603254
 21
8.907652728
  0
LINE
  5
259
100
AcDbEntity
  8
0
100
AcDbLine
 62
9
  6
CONTINUOUS
 10
14.1030424227
 20
8.907924678
 11
13.5430424227
 21
8.907924678
  0
LINE
  5
25A
100
AcDbEntity
  8
0
100
AcDbLine
 62
9
  6
CONTINUOUS
 10
14.1030424227
 20
8.9147807081
 11
13.5430424227
 21
8.9147807081
  0
LINE
  5
25B
100
AcDbEntity
  8
0
100
AcDbLine
 62
9
  6
CONTINUOUS
 10
14.0488488743
 20
8.9905040668
 11
13.5972359711
 21
8.9905040668
  0
LWPOLYLINE
  5
25C
100
AcDbEntity
  8
0
100
AcDbPolyline
 62
7
  6
CONTINUOUS
 90
8
 70
0
 10
10.7167439263
 20
10.1976144623
 10
10.7190179386
 20
10.1910183917
 10
10.7263203931
 20
10.1726310399
 10
10.7349597399
 20
10.1544060624
 10
10.7448155975
 20
10.1364344938
 10
10.7558247208
 20
10.1188416272
 10
10.7679450583
 20
10.1017729577
 10
10.7796277753
 20
10.0871012062
  0
LINE
  5
25D
100
AcDbEntity
  8
0
100
AcDbLine
 62
7
  6
CONTINUOUS
 10
10.7167439263
 20
10.1976144623
 11
10.7120966443
 21
10.2131928796
  0
LWPOLYLINE
  5
25E
100
AcDbEntity
  8
0
100
AcDbPolyline
 62
7
  6
CONTINUOUS
 90
9
 70
0
 10
10.6665433864
 20
10.1749691577
 10
10.6698352312
 20
10.1593312309
 10
10.6748863694
 20
10.1414412096
 10
10.6812569378
 20
10.1238212153
 10
10.6888650563
 20
10.1065518746
 10
10.6976127061
 20
10.0896981898
 10
10.7074681388
 20
10.0733757359
 10
10.7183929745
 20
10.0576942575
 10
10.7288470667
 20
10.0444911323
  0
LWPOLYLINE
  5
25F
100
AcDbEntity
  8
0
100
AcDbPolyline
 62
7
  6
CONTINUOUS
 90
9
 70
0
 10
10.6361045123
 20
10.1494279097
 10
10.6386641908
 20
10.1331885916
 10
10.642971938
 20
10.1146840062
 10
10.6487130201
 20
10.0965412446
 10
10.6558061927
 20
10.0788417477
 10
10.6641517917
 20
10.0616493749
 10
10.6737227537
 20
10.045083099
 10
10.6844847974
 20
10.0292556827
 10
10.6948986208
 20
10.0160050039
  0
LWPOLYLINE
  5
260
100
AcDbEntity
  8
0
100
AcDbPolyline
 62
7
  6
CONTINUOUS
 90
9
 70
0
 10
10.6227243049
 20
10.1382005825
 10
10.6249660176
 20
10.121689295
 10
10.6289516157
 20
10.102910322
 10
10.6344203425
 20
10.0845363164
 10
10.6412905458
 20
10.0666486506
 10
10.6494613692
 20
10.0493103337
 10
10.6589073581
 20
10.0326416187
 10
10.6695955066
 20
10.0167563177
 10
10.679986406
 20
10.00349217
  0
LINE
  5
261
100
AcDbEntity
  8
0
100
AcDbLine
 62
9
  6
CONTINUOUS
 10
13.0465643207
 20
9.6994540863
 11
14.5995205246
 21
9.6994540863
  0
LINE
  5
262
100
AcDbEntity
  8
0
100
AcDbLine
 62
9
  6
CONTINUOUS
 10
13.0240495355
 20
9.7239443492
 11
14.6220353098
 21
9.7239443492
  0
LINE
  5
263
100
AcDbEntity
  8
0
100
AcDbLine
 62
7
  6
CONTINUOUS
 10
9.0339488802
 20
11.0578309971
 11
9.0337596709
 21
11.0579561636
  0
LINE
  5
264
100
AcDbEntity
  8
0
100
AcDbLine
 62
7
  6
CONTINUOUS
 10
8.4590817058
 20
11.2690137632
 11
8.4999488373
 21
11.2413310066
  0
LINE
  5
265
100
AcDbEntity
  8
0
100
AcDbLine
 62
7
  6
CONTINUOUS
 10
8.3093040812
 20
11.3994586703
 11
8.4551435514
 21
11.3006692907
  0
LINE
  5
266
100
AcDbEntity
  8
0
100
AcDbLine
 62
7
  6
CONTINUOUS
 10
8.1721370213
 20
11.5213613777
 11
8.3053659268
 21
11.4311141978
  0
LINE
  5
267
100
AcDbEntity
  8
0
100
AcDbLine
 62
7
  6
CONTINUOUS
 10
8.0181558751
 20
11.6546536847
 11
8.0898145537
 21
11.6061132148
  0
LINE
  5
268
100
AcDbEntity
  8
0
100
AcDbLine
 62
7
  6
CONTINUOUS
 10
8.1284869525
 20
11.5799171358
 11
8.1681988669
 21
11.5530169051
  0
LINE
  5
269
100
AcDbEntity
  8
0
100
AcDbLine
 62
7
  6
CONTINUOUS
 10
8.9886815309
 20
11.0692929183
 11
8.988868522
 21
11.0691627961
  0
LINE
  5
26A
100
AcDbEntity
  8
0
100
AcDbLine
 62
7
  6
CONTINUOUS
 10
9.1758218932
 20
11.046479281
 11
9.1758453208
 21
11.046462962
  0
LWPOLYLINE
  5
26B
100
AcDbEntity
  8
0
100
AcDbPolyline
 62
7
  6
CONTINUOUS
 90
5
 70
0
 10
12.8011855179
 20
7.4755455077
 10
12.8134568464
 20
7.4619537342
 10
12.8283924413
 20
7.4478020111
 10
12.8445307097
 20
7.4348720745
 10
12.8596124398
 20
7.4245883865
  0
LWPOLYLINE
  5
26C
100
AcDbEntity
  8
0
100
AcDbPolyline
 62
7
  6
CONTINUOUS
 90
5
 70
0
 10
12.8160977327
 20
7.4880583416
 10
12.8283466613
 20
7.4744450781
 10
12.8431989295
 20
7.4602224591
 10
12.859191921
 20
7.4471712836
 10
12.8732959079
 20
7.4372620406
  0
LWPOLYLINE
  5
26D
100
AcDbEntity
  8
0
100
AcDbPolyline
 62
7
  6
CONTINUOUS
 90
5
 70
0
 10
12.8500461787
 20
7.51654447
 10
12.8622374888
 20
7.5028884069
 10
12.8768958544
 20
7.4885048344
 10
12.8925570921
 20
7.4751736052
 10
12.9057082424
 20
7.4653449405
  0
LWPOLYLINE
  5
26E
100
AcDbEntity
  8
0
100
AcDbPolyline
 62
7
  6
CONTINUOUS
 90
5
 70
0
 10
12.9008268873
 20
7.5591545439
 10
12.9129380925
 20
7.5454281872
 10
12.9273088893
 20
7.5308029171
 10
12.9424729485
 20
7.5170554431
 10
12.9550781306
 20
7.5067711954
  0
LINE
  5
26F
100
AcDbEntity
  8
0
100
AcDbLine
 62
7
  6
CONTINUOUS
 10
13.1508573435
 20
7.0575080348
 11
12.8616029191
 21
7.4022280342
  0
LINE
  5
270
100
AcDbEntity
  8
0
100
AcDbLine
 62
7
  6
CONTINUOUS
 10
10.679986406
 20
10.00349217
 11
12.8011855179
 21
7.4755455077
  0
LINE
  5
271
100
AcDbEntity
  8
0
100
AcDbLine
 62
7
  6
CONTINUOUS
 10
13.2975246447
 20
6.8866060613
 11
13.1656282068
 21
7.043794115
  0
LINE
  5
272
100
AcDbEntity
  8
0
100
AcDbLine
 62
7
  6
CONTINUOUS
 10
10.6948986208
 20
10.0160050039
 11
12.8160977327
 21
7.4880583416
  0
LINE
  5
273
100
AcDbEntity
  8
0
100
AcDbLine
 62
7
  6
CONTINUOUS
 10
10.7288470667
 20
10.0444911323
 11
12.8500461787
 21
7.51654447
  0
LINE
  5
274
100
AcDbEntity
  8
0
100
AcDbLine
 62
7
  6
CONTINUOUS
 10
10.7796277753
 20
10.0871012062
 11
12.9008268873
 21
7.5591545439
  0
LINE
  5
275
100
AcDbEntity
  8
0
100
AcDbLine
 62
7
  6
CONTINUOUS
 10
10.0019267969
 20
10.8238755887
 11
10.5699291668
 21
10.0939001713
  0
LINE
  5
276
100
AcDbEntity
  8
0
100
AcDbLine
 62
7
  6
CONTINUOUS
 10
11.7530424227
 20
10.2466535203
 11
11.7530424227
 21
11.2330031885
  0
LINE
  5
277
100
AcDbEntity
  8
0
100
AcDbLine
 62
9
  6
CONTINUOUS
 10
11.8280424227
 20
10.1572720008
 11
11.8280424227
 21
11.3080031885
  0
LINE
  5
278
100
AcDbEntity
  8
0
100
AcDbLine
 62
9
  6
CONTINUOUS
 10
11.8407112422
 20
10.1421738896
 11
11.8407112419
 21
11.3080031885
  0
LINE
  5
279
100
AcDbEntity
  8
0
100
AcDbLine
 62
9
  6
CONTINUOUS
 10
13.0074708737
 20
9.8733136672
 11
14.6386139716
 21
9.8733136672
  0
LINE
  5
27A
100
AcDbEntity
  8
0
100
AcDbLine
 62
7
  6
CONTINUOUS
 10
12.8780424227
 20
9.9080031885
 11
12.8728736034
 21
9.9080031885
  0
LINE
  5
27B
100
AcDbEntity
  8
0
100
AcDbLine
 62
9
  6
CONTINUOUS
 10
13.0169456037
 20
9.919666121
 11
14.6291392416
 21
9.919666121
  0
LINE
  5
27C
100
AcDbEntity
  8
0
100
AcDbLine
 62
7
  6
CONTINUOUS
 10
10.6764525536
 20
10.0080031885
 11
9.6540424227
 21
10.0080031885
  0
LINE
  5
27D
100
AcDbEntity
  8
0
100
AcDbLine
 62
7
  6
CONTINUOUS
 10
8.5014717288
 20
11.2404829199
 11
8.8782318016
 21
11.0718466101
  0
LINE
  5
27E
100
AcDbEntity
  8
0
100
AcDbLine
 62
9
  6
CONTINUOUS
 10
8.8798788256
 20
11.0712758551
 11
8.4999488373
 21
11.2413310066
  0
LINE
  5
27F
100
AcDbEntity
  8
0
100
AcDbLine
 62
9
  6
CONTINUOUS
 10
8.9277494279
 20
11.0592399552
 11
8.4590817058
 21
11.2690137632
  0
LINE
  5
280
100
AcDbEntity
  8
0
100
AcDbLine
 62
9
  6
CONTINUOUS
 10
8.9393152034
 20
11.0648527266
 11
8.4555625808
 21
11.2813784761
  0
LINE
  5
281
100
AcDbEntity
  8
0
100
AcDbLine
 62
9
  6
CONTINUOUS
 10
8.4586626764
 20
11.2883045778
 11
8.942415299
 21
11.0717788283
  0
LINE
  5
282
100
AcDbEntity
  8
0
100
AcDbLine
 62
9
  6
CONTINUOUS
 10
8.4551435514
 20
11.3006692907
 11
8.9539810744
 21
11.0773915998
  0
LINE
  5
283
100
AcDbEntity
  8
0
100
AcDbLine
 62
7
  6
CONTINUOUS
 10
8.5014717288
 20
11.2404829199
 11
8.4999488373
 21
11.2413310066
  0
LINE
  5
284
100
AcDbEntity
  8
0
100
AcDbLine
 62
7
  6
CONTINUOUS
 10
9.2211175184
 20
11.0350805328
 11
9.22109387
 21
11.0350963585
  0
LINE
  5
285
100
AcDbEntity
  8
0
100
AcDbLine
 62
7
  6
CONTINUOUS
 10
12.9661818033
 20
7.6139938299
 11
10.8449826914
 21
10.1419404922
  0
LINE
  5
286
100
AcDbEntity
  8
0
100
AcDbLine
 62
7
  6
CONTINUOUS
 10
13.0445553552
 20
7.6797570484
 11
10.9233562433
 21
10.2077037107
  0
LINE
  5
287
100
AcDbEntity
  8
0
100
AcDbLine
 62
7
  6
CONTINUOUS
 10
13.3365104996
 20
7.3829924773
 11
13.1308184645
 21
7.6281266991
  0
LINE
  5
288
100
AcDbEntity
  8
0
100
AcDbLine
 62
7
  6
CONTINUOUS
 10
13.1311817663
 20
7.7524452379
 11
11.0099826543
 21
10.2803919002
  0
LINE
  5
289
100
AcDbEntity
  8
0
100
AcDbLine
 62
7
  6
CONTINUOUS
 10
13.2206179804
 20
7.8274911322
 11
11.0994188684
 21
10.3554377945
  0
LINE
  5
28A
100
AcDbEntity
  8
0
100
AcDbLine
 62
9
  6
CONTINUOUS
 10
11.9096270318
 20
10.0600432498
 11
11.9096270318
 21
11.2625939633
  0
LINE
  5
28B
100
AcDbEntity
  8
0
100
AcDbLine
 62
9
  6
CONTINUOUS
 10
11.9480573796
 20
10.0142437447
 11
11.9480573796
 21
11.2328888985
  0
LINE
  5
28C
100
AcDbEntity
  8
0
100
AcDbLine
 62
7
  6
CONTINUOUS
 10
8.9277494279
 20
11.0592399552
 11
8.8798788256
 21
11.0712758551
  0
LINE
  5
28D
100
AcDbEntity
  8
0
100
AcDbLine
 62
7
  6
CONTINUOUS
 10
8.8782318016
 20
11.0718466101
 11
8.8798788256
 21
11.0712758551
  0
LINE
  5
28E
100
AcDbEntity
  8
0
100
AcDbLine
 62
9
  6
CONTINUOUS
 10
9.1248133062
 20
11.0344399853
 11
8.3093040812
 21
11.3994586703
  0
LINE
  5
28F
100
AcDbEntity
  8
0
100
AcDbLine
 62
9
  6
CONTINUOUS
 10
9.1363790817
 20
11.0400527567
 11
8.3057849562
 21
11.4118233831
  0
LINE
  5
290
100
AcDbEntity
  8
0
100
AcDbLine
 62
9
  6
CONTINUOUS
 10
8.3088850518
 20
11.4187494849
 11
9.1394791773
 21
11.0469788584
  0
LINE
  5
291
100
AcDbEntity
  8
0
100
AcDbLine
 62
9
  6
CONTINUOUS
 10
8.3053659268
 20
11.4311141978
 11
9.1510449527
 21
11.0525916299
  0
LINE
  5
292
100
AcDbEntity
  8
0
100
AcDbLine
 62
9
  6
CONTINUOUS
 10
9.3071055254
 20
11.0133539902
 11
8.1721370213
 21
11.5213613777
  0
LINE
  5
293
100
AcDbEntity
  8
0
100
AcDbLine
 62
9
  6
CONTINUOUS
 10
9.3186713009
 20
11.0189667616
 11
8.1686178963
 21
11.5337260905
  0
LINE
  5
294
100
AcDbEntity
  8
0
100
AcDbLine
 62
9
  6
CONTINUOUS
 10
8.1717179919
 20
11.5406521923
 11
9.3217713965
 21
11.0258928634
  0
LINE
  5
295
100
AcDbEntity
  8
0
100
AcDbLine
 62
9
  6
CONTINUOUS
 10
8.1681988669
 20
11.5530169051
 11
9.3333371719
 21
11.0315056348
  0
LINE
  5
296
100
AcDbEntity
  8
0
100
AcDbLine
 62
9
  6
CONTINUOUS
 10
9.5090932901
 20
10.9873160287
 11
8.0181558751
 21
11.6546536847
  0
LINE
  5
297
100
AcDbEntity
  8
0
100
AcDbLine
 62
9
  6
CONTINUOUS
 10
9.5206590655
 20
10.9929288001
 11
8.0146367501
 21
11.6670183975
  0
LINE
  5
298
100
AcDbEntity
  8
0
100
AcDbLine
 62
9
  6
CONTINUOUS
 10
8.0168288595
 20
11.6719159152
 11
9.522851175
 21
10.9978263178
  0
LINE
  5
299
100
AcDbEntity
  8
0
100
AcDbLine
 62
7
  6
CONTINUOUS
 10
7.941962172
 20
11.7163819597
 11
9.6058886454
 21
10.9716150893
  0
LINE
  5
29A
100
AcDbEntity
  8
0
100
AcDbLine
 62
7
  6
CONTINUOUS
 10
7.8906092156
 20
11.7448453452
 11
9.6613274464
 21
10.952278909
  0
LWPOLYLINE
  5
29B
100
AcDbEntity
  8
0
100
AcDbPolyline
 62
7
  6
CONTINUOUS
 90
9
 70
0
 10
11.380554456
 20
10.5913385624
 10
11.3693672501
 20
10.603926532
 10
11.3558210864
 20
10.6174084551
 10
11.3414579851
 20
10.629948526
 10
11.3263793592
 20
10.6414898909
 10
11.3106935144
 20
10.6519812146
 10
11.294447445
 20
10.6613146797
 10
11.2777063343
 20
10.6693956493
 10
11.2628776056
 20
10.6753529811
  0
LWPOLYLINE
  5
29C
100
AcDbEntity
  8
0
100
AcDbPolyline
 62
7
  6
CONTINUOUS
 90
8
 70
0
 10
11.3297737474
 20
10.5487284885
 10
11.317442733
 20
10.5626856343
 10
11.3028416745
 20
10.5774972075
 10
11.2875442606
 20
10.5913151772
 10
11.2716839871
 20
10.6040749424
 10
11.2553728577
 20
10.6156972898
 10
11.2386784124
 20
10.6260510801
 10
11.2318595492
 20
10.629847175
  0
LINE
  5
29D
100
AcDbEntity
  8
0
100
AcDbLine
 62
7
  6
CONTINUOUS
 10
13.5488029631
 20
7.561127005
 11
13.343110928
 21
7.8062612268
  0
LINE
  5
29E
100
AcDbEntity
  8
0
100
AcDbLine
 62
7
  6
CONTINUOUS
 10
13.3072443914
 20
7.9001793217
 11
11.1860452795
 21
10.428125984
  0
LINE
  5
29F
100
AcDbEntity
  8
0
100
AcDbLine
 62
7
  6
CONTINUOUS
 10
13.3856179433
 20
7.9659425402
 11
11.2644188313
 21
10.4938892025
  0
LINE
  5
2A0
100
AcDbEntity
  8
0
100
AcDbLine
 62
7
  6
CONTINUOUS
 10
13.4509728594
 20
8.0207818262
 11
11.3297737474
 21
10.5487284885
  0
LINE
  5
2A1
100
AcDbEntity
  8
0
100
AcDbLine
 62
7
  6
CONTINUOUS
 10
13.501753568
 20
8.0633919001
 11
11.380554456
 21
10.5913385624
  0
LINE
  5
2A2
100
AcDbEntity
  8
0
100
AcDbLine
 62
7
  6
CONTINUOUS
 10
15.0625544112
 20
5.9781530747
 11
14.8292119168
 21
6.2663070575
  0
LINE
  5
2A3
100
AcDbEntity
  8
0
100
AcDbLine
 62
9
  6
CONTINUOUS
 10
11.7530424227
 20
10.6080031885
 11
11.4498340493
 21
10.6080031885
  0
LWPOLYLINE
  5
2A4
100
AcDbEntity
  8
0
100
AcDbPolyline
 62
7
  6
CONTINUOUS
 90
4
 70
0
 10
9.6861880891
 20
10.9481473984
 10
9.7219188392
 20
10.9460406904
 10
9.7581616874
 20
10.9438455082
 10
9.7882123147
 20
10.9419733065
  0
LWPOLYLINE
  5
2A5
100
AcDbEntity
  8
0
100
AcDbPolyline
 62
7
  6
CONTINUOUS
 90
12
 70
0
 10
9.7882147076
 20
10.9419731554
 10
9.7990244196
 20
10.9410411126
 10
9.8128858881
 20
10.9391399613
 10
9.8274620821
 20
10.9363131033
 10
9.8426879859
 20
10.9324671696
 10
9.8585177918
 20
10.92749486
 10
9.8748917744
 20
10.9212780212
 10
9.8917466912
 20
10.9136805502
 10
9.9090111772
 20
10.9045437834
 10
9.9264447097
 20
10.8938048802
 10
9.9436666823
 20
10.8815490047
 10
9.960471207
 20
10.8677971852
  0
LINE
  5
2A6
100
AcDbEntity
  8
0
100
AcDbLine
 62
7
  6
CONTINUOUS
 10
9.1248133062
 20
11.0344399853
 11
8.9539810744
 21
11.0773915998
  0
LINE
  5
2A7
100
AcDbEntity
  8
0
100
AcDbLine
 62
7
  6
CONTINUOUS
 10
9.3071055254
 20
11.0133539902
 11
9.2210922279
 21
11.0349799442
  0
LINE
  5
2A8
100
AcDbEntity
  8
0
100
AcDbLine
 62
7
  6
CONTINUOUS
 10
9.1757941755
 20
11.046369039
 11
9.1510449527
 21
11.0525916299
  0
LINE
  5
2A9
100
AcDbEntity
  8
0
100
AcDbLine
 62
7
  6
CONTINUOUS
 10
9.5090932901
 20
10.9873160287
 11
9.4251543401
 21
11.0084204384
  0
LINE
  5
2AA
100
AcDbEntity
  8
0
100
AcDbLine
 62
7
  6
CONTINUOUS
 10
9.3798545856
 20
11.0198099612
 11
9.3333371719
 21
11.0315056348
  0
LINE
  5
2AB
100
AcDbEntity
  8
0
100
AcDbLine
 62
7
  6
CONTINUOUS
 10
11.2318595492
 20
10.629847175
 11
11.2173243477
 21
10.6371292592
  0
LWPOLYLINE
  5
2AC
100
AcDbEntity
  8
0
100
AcDbPolyline
 62
7
  6
CONTINUOUS
 90
3
 70
0
 10
10.6033686491
 20
11.3285452245
 10
10.5075672019
 20
11.4010563268
 10
10.0947186535
 20
11.7133849494
  0
LINE
  5
2AD
100
AcDbEntity
  8
0
100
AcDbLine
 62
7
  6
CONTINUOUS
 10
10.6033686488
 20
11.3285452248
 11
11.3594919518
 21
10.7564218642
  0
LINE
  5
2AE
100
AcDbEntity
  8
0
100
AcDbLine
 62
7
  6
CONTINUOUS
 10
10.104556069
 20
11.7059735203
 11
10.1045519493
 21
11.7059767772
  0
LWPOLYLINE
  5
2AF
100
AcDbEntity
  8
0
100
AcDbPolyline
 62
7
  6
CONTINUOUS
 90
9
 70
0
 10
11.4294151167
 20
10.6323375248
 10
11.418156842
 20
10.6448738581
 10
11.4043688519
 20
10.6581580832
 10
11.3895936509
 20
10.6703550583
 10
11.3739375905
 20
10.6814125157
 10
11.3575146769
 20
10.6912845057
 10
11.3403694482
 20
10.6998607628
 10
11.3225678618
 20
10.7070467452
 10
11.3066966872
 20
10.7121215563
  0
LWPOLYLINE
  5
2B0
100
AcDbEntity
  8
0
100
AcDbPolyline
 62
7
  6
CONTINUOUS
 90
9
 70
0
 10
11.414502902
 20
10.6198246908
 10
11.4032618722
 20
10.6323812611
 10
11.3895437192
 20
10.6457282071
 10
11.3748911024
 20
10.6580304683
 10
11.3594091184
 20
10.6692347031
 10
11.3432102331
 20
10.6792935999
 10
11.3263400293
 20
10.6880979196
 10
11.3088646025
 20
10.6955535099
 10
11.2933164797
 20
10.7008942291
  0
LINE
  5
2B1
100
AcDbEntity
  8
0
100
AcDbLine
 62
7
  6
CONTINUOUS
 10
13.5357020139
 20
8.0918780285
 11
11.414502902
 21
10.6198246908
  0
LINE
  5
2B2
100
AcDbEntity
  8
0
100
AcDbLine
 62
7
  6
CONTINUOUS
 10
14.0444179767
 20
7.5133239807
 11
13.9125215388
 21
7.6705120344
  0
LINE
  5
2B3
100
AcDbEntity
  8
0
100
AcDbLine
 62
7
  6
CONTINUOUS
 10
13.5506142287
 20
8.1043908625
 11
11.4294151167
 21
10.6323375248
  0
LINE
  5
2B4
100
AcDbEntity
  8
0
100
AcDbLine
 62
7
  6
CONTINUOUS
 10
13.9015808977
 20
7.6874398923
 11
13.6123264734
 21
8.0321598917
  0
LINE
  5
2B5
100
AcDbEntity
  8
0
100
AcDbLine
 62
7
  6
CONTINUOUS
 10
15.2284472942
 20
6.0230916743
 11
15.1295253295
 21
6.1588968562
  0
LWPOLYLINE
  5
2B6
100
AcDbEntity
  8
0
100
AcDbPolyline
 62
7
  6
CONTINUOUS
 90
5
 70
0
 10
13.4931397576
 20
7.9582585082
 10
13.4852006176
 20
7.9724580301
 10
13.4742952099
 20
7.9897789369
 10
13.4623875932
 20
8.0064710606
 10
13.4509728594
 20
8.0207818262
  0
LINE
  5
2B7
100
AcDbEntity
  8
0
100
AcDbLine
 62
9
  6
CONTINUOUS
 10
12.7655274657
 20
11.2328888985
 11
12.7655274657
 21
9.9831174785
  0
LINE
  5
2B8
100
AcDbEntity
  8
0
100
AcDbLine
 62
9
  6
CONTINUOUS
 10
12.8039578136
 20
11.2625939633
 11
12.8039578136
 21
9.9534124137
  0
LINE
  5
2B9
100
AcDbEntity
  8
0
100
AcDbLine
 62
9
  6
CONTINUOUS
 10
12.8728736034
 20
9.9080031885
 11
12.8728736034
 21
11.3080031885
  0
LINE
  5
2BA
100
AcDbEntity
  8
0
100
AcDbLine
 62
9
  6
CONTINUOUS
 10
12.8780424227
 20
9.9080031885
 11
12.8780424227
 21
11.3080031885
  0
LINE
  5
2BB
100
AcDbEntity
  8
0
100
AcDbLine
 62
7
  6
CONTINUOUS
 10
12.9530424227
 20
9.9830031885
 11
12.9530424227
 21
11.2330031885
  0
LINE
  5
2BC
100
AcDbEntity
  8
0
100
AcDbLine
 62
7
  6
CONTINUOUS
 10
11.7530424227
 20
11.2080031885
 11
10.7626780721
 21
11.2080031885
  0
LINE
  5
2BD
100
AcDbEntity
  8
0
100
AcDbLine
 62
7
  6
CONTINUOUS
 10
12.8780424227
 20
11.3080031885
 11
12.8728736034
 21
11.3080031885
  0
LINE
  5
2BE
100
AcDbEntity
  8
0
100
AcDbLine
 62
7
  6
CONTINUOUS
 10
11.8407112419
 20
11.3080031885
 11
11.8280424227
 21
11.3080031885
  0
LWPOLYLINE
  5
2BF
100
AcDbEntity
  8
0
100
AcDbPolyline
 62
7
  6
CONTINUOUS
 90
5
 70
0
 10
13.5425096457
 20
7.9996847631
 10
13.5351139958
 20
8.0143428069
 10
13.5247048376
 20
8.0320810739
 10
13.5130851749
 20
8.0490144409
 10
13.501753568
 20
8.0633919001
  0
LWPOLYLINE
  5
2C0
100
AcDbEntity
  8
0
100
AcDbPolyline
 62
7
  6
CONTINUOUS
 90
5
 70
0
 10
13.5757942461
 20
8.0267281371
 10
13.5684842005
 20
8.0423395143
 10
13.5584085732
 20
8.0603554976
 10
13.5469812583
 20
8.0774515439
 10
13.5357020139
 20
8.0918780285
  0
LWPOLYLINE
  5
2C1
100
AcDbEntity
  8
0
100
AcDbPolyline
 62
7
  6
CONTINUOUS
 90
5
 70
0
 10
13.5906514682
 20
8.0380029656
 10
13.5831428988
 20
8.0546413718
 10
13.5732117848
 20
8.0727797019
 10
13.5618686067
 20
8.0899457931
 10
13.5506142287
 20
8.1043908625
  0
LINE
  5
2C2
100
AcDbEntity
  8
0
100
AcDbLine
 62
7
  6
CONTINUOUS
 10
13.2755424227
 20
6.6393245061
 11
13.2755424227
 21
6.4921530747
  0
LINE
  5
2C3
100
AcDbEntity
  8
0
100
AcDbLine
 62
7
  6
CONTINUOUS
 10
13.2780424227
 20
11.971657091
 11
13.2780424227
 21
12.061657091
  0
LINE
  5
2C4
100
AcDbEntity
  8
0
100
AcDbLine
 62
9
  6
CONTINUOUS
 10
13.2786812798
 20
8.4284679313
 11
13.2786812798
 21
8.7653123304
  0
LINE
  5
2C5
100
AcDbEntity
  8
0
100
AcDbLine
 62
7
  6
CONTINUOUS
 10
13.3090424227
 20
8.3922849302
 11
13.3090424227
 21
8.727652728
  0
LINE
  5
2C6
100
AcDbEntity
  8
0
100
AcDbLine
 62
9
  6
CONTINUOUS
 10
12.8011855179
 20
7.4755455077
 11
13.5506142287
 21
8.1043908625
  0
LINE
  5
2C7
100
AcDbEntity
  8
0
100
AcDbLine
 62
7
  6
CONTINUOUS
 10
13.5805117873
 20
8.0315723461
 11
13.5754964949
 21
8.0273640162
  0
LINE
  5
2C8
100
AcDbEntity
  8
0
100
AcDbLine
 62
7
  6
CONTINUOUS
 10
13.5566182603
 20
8.0115232965
 11
13.5424533649
 21
7.999637538
  0
LINE
  5
2C9
100
AcDbEntity
  8
0
100
AcDbLine
 62
7
  6
CONTINUOUS
 10
13.5118319502
 20
7.9739431201
 11
13.4906260242
 21
7.9561492355
  0
LINE
  5
2CA
100
AcDbEntity
  8
0
100
AcDbLine
 62
7
  6
CONTINUOUS
 10
13.4489669453
 20
7.9211931178
 11
13.4220524351
 21
7.8986091622
  0
LINE
  5
2CB
100
AcDbEntity
  8
0
100
AcDbLine
 62
7
  6
CONTINUOUS
 10
13.3719732853
 20
7.8565877661
 11
13.3410413285
 21
7.8306327725
  0
LINE
  5
2CC
100
AcDbEntity
  8
0
100
AcDbLine
 62
7
  6
CONTINUOUS
 10
13.285688765
 20
7.7841864568
 11
13.2526829302
 21
7.756491273
  0
LINE
  5
2CD
100
AcDbEntity
  8
0
100
AcDbLine
 62
7
  6
CONTINUOUS
 10
13.195534958
 20
7.7085384306
 11
13.1625291232
 21
7.6808432468
  0
LINE
  5
2CE
100
AcDbEntity
  8
0
100
AcDbLine
 62
7
  6
CONTINUOUS
 10
13.1071765596
 20
7.6343969311
 11
13.0762446028
 21
7.6084419376
  0
LINE
  5
2CF
100
AcDbEntity
  8
0
100
AcDbLine
 62
7
  6
CONTINUOUS
 10
13.026165453
 20
7.5664205415
 11
12.9992509428
 21
7.5438365859
  0
LINE
  5
2D0
100
AcDbEntity
  8
0
100
AcDbLine
 62
7
  6
CONTINUOUS
 10
12.9575918639
 20
7.5088804682
 11
12.936385938
 21
7.4910865835
  0
LINE
  5
2D1
100
AcDbEntity
  8
0
100
AcDbLine
 62
7
  6
CONTINUOUS
 10
12.9057645232
 20
7.4653921657
 11
12.8915996278
 21
7.4535064072
  0
LINE
  5
2D2
100
AcDbEntity
  8
0
100
AcDbLine
 62
7
  6
CONTINUOUS
 10
12.872859775
 20
7.4377818036
 11
12.8677061008
 21
7.4334573575
  0
LINE
  5
2D3
100
AcDbEntity
  8
0
100
AcDbLine
 62
9
  6
CONTINUOUS
 10
13.6123264734
 20
8.0321598917
 11
13.343110928
 21
7.8062612268
  0
LINE
  5
2D4
100
AcDbEntity
  8
0
100
AcDbLine
 62
9
  6
CONTINUOUS
 10
13.1308184645
 20
7.6281266991
 11
12.8616029191
 21
7.4022280342
  0
LINE
  5
2D5
100
AcDbEntity
  8
0
100
AcDbLine
 62
7
  6
CONTINUOUS
 10
14.2180424227
 20
11.591657091
 11
13.4280424227
 21
11.591657091
  0
LINE
  5
2D6
100
AcDbEntity
  8
0
100
AcDbLine
 62
9
  6
CONTINUOUS
 10
13.4280424227
 20
11.646657091
 11
14.2180424227
 21
11.646657091
  0
LINE
  5
2D7
100
AcDbEntity
  8
0
100
AcDbLine
 62
7
  6
CONTINUOUS
 10
9.1509142851
 20
12.1864296031
 11
9.0521682895
 21
12.2135793028
  0
LINE
  5
2D8
100
AcDbEntity
  8
0
100
AcDbLine
 62
9
  6
CONTINUOUS
 10
13.3990424227
 20
8.367652728
 11
13.3990424227
 21
8.727652728
  0
LINE
  5
2D9
100
AcDbEntity
  8
0
100
AcDbLine
 62
7
  6
CONTINUOUS
 10
13.4090424227
 20
8.7265521411
 11
13.4090424227
 21
8.3687533149
  0
LINE
  5
2DA
100
AcDbEntity
  8
0
100
AcDbLine
 62
7
  6
CONTINUOUS
 10
13.4280424227
 20
11.591657091
 11
13.4280424227
 21
11.646657091
  0
LINE
  5
2DB
100
AcDbEntity
  8
0
100
AcDbLine
 62
7
  6
CONTINUOUS
 10
13.5430424227
 20
8.9147807081
 11
13.5430424227
 21
8.907924678
  0
LINE
  5
2DC
100
AcDbEntity
  8
0
100
AcDbLine
 62
7
  6
CONTINUOUS
 10
13.5645424227
 20
8.085899399
 11
13.5645424227
 21
8.1871530747
  0
LINE
  5
2DD
100
AcDbEntity
  8
0
100
AcDbLine
 62
9
  6
CONTINUOUS
 10
13.5895743745
 20
6.5164423966
 11
13.5895743745
 21
6.4921530747
  0
LINE
  5
2DE
100
AcDbEntity
  8
0
100
AcDbLine
 62
9
  6
CONTINUOUS
 10
13.6108956574
 20
6.5164423966
 11
13.6108956574
 21
6.4921530747
  0
LINE
  5
2DF
100
AcDbEntity
  8
0
100
AcDbLine
 62
7
  6
CONTINUOUS
 10
13.3365104996
 20
7.3829924773
 11
13.5488029631
 21
7.561127005
  0
LINE
  5
2E0
100
AcDbEntity
  8
0
100
AcDbLine
 62
9
  6
CONTINUOUS
 10
13.9015808977
 20
7.6874398923
 11
13.1508573435
 21
7.0575080348
  0
LINE
  5
2E1
100
AcDbEntity
  8
0
100
AcDbLine
 62
7
  6
CONTINUOUS
 10
13.4980424227
 20
11.716657091
 11
14.1480424227
 21
11.716657091
  0
LINE
  5
2E2
100
AcDbEntity
  8
0
100
AcDbLine
 62
7
  6
CONTINUOUS
 10
13.2980424227
 20
11.951657091
 11
14.3480424227
 21
11.951657091
  0
LINE
  5
2E3
100
AcDbEntity
  8
0
100
AcDbLine
 62
9
  6
CONTINUOUS
 10
13.2780424227
 20
11.971657091
 11
14.3680424227
 21
11.971657091
  0
LINE
  5
2E4
100
AcDbEntity
  8
0
100
AcDbLine
 62
9
  6
CONTINUOUS
 10
13.2780424227
 20
12.061657091
 11
14.3680424227
 21
12.061657091
  0
LINE
  5
2E5
100
AcDbEntity
  8
0
100
AcDbLine
 62
7
  6
CONTINUOUS
 10
8.8202075618
 20
12.2632673442
 11
8.8519252227
 21
12.257610504
  0
LINE
  5
2E6
100
AcDbEntity
  8
0
100
AcDbLine
 62
7
  6
CONTINUOUS
 10
8.8558694515
 20
12.2568822149
 11
8.8359442922
 21
12.2605050513
  0
LINE
  5
2E7
100
AcDbEntity
  8
0
100
AcDbLine
 62
7
  6
CONTINUOUS
 10
8.9559639516
 20
12.2365443958
 11
8.958560886
 21
12.2359688403
  0
LINE
  5
2E8
100
AcDbEntity
  8
0
100
AcDbLine
 62
7
  6
CONTINUOUS
 10
9.0521682895
 20
12.2135793028
 11
8.9559639516
 21
12.2365443958
  0
LINE
  5
2E9
100
AcDbEntity
  8
0
100
AcDbLine
 62
9
  6
CONTINUOUS
 10
14.0351891879
 20
6.4921530747
 11
14.0351891879
 21
6.5164423966
  0
LINE
  5
2EA
100
AcDbEntity
  8
0
100
AcDbLine
 62
9
  6
CONTINUOUS
 10
14.0565104708
 20
6.4921530747
 11
14.0565104708
 21
6.5164423967
  0
LINE
  5
2EB
100
AcDbEntity
  8
0
100
AcDbLine
 62
7
  6
CONTINUOUS
 10
14.0815424227
 20
7.9371530747
 11
14.0815424227
 21
8.1871530747
  0
LINE
  5
2EC
100
AcDbEntity
  8
0
100
AcDbLine
 62
7
  6
CONTINUOUS
 10
14.1030424227
 20
8.9147807081
 11
14.1030424227
 21
8.907924678
  0
LINE
  5
2ED
100
AcDbEntity
  8
0
100
AcDbLine
 62
7
  6
CONTINUOUS
 10
14.1475424227
 20
7.8571530747
 11
14.1475424227
 21
7.9371530747
  0
LINE
  5
2EE
100
AcDbEntity
  8
0
100
AcDbLine
 62
7
  6
CONTINUOUS
 10
12.4176375511
 20
6.0230916743
 11
12.5165595158
 21
6.1588968562
  0
LINE
  5
2EF
100
AcDbEntity
  8
0
100
AcDbLine
 62
7
  6
CONTINUOUS
 10
12.5835304341
 20
5.9781530747
 11
12.8168729285
 21
6.2663070575
  0
LINE
  5
2F0
100
AcDbEntity
  8
0
100
AcDbLine
 62
7
  6
CONTINUOUS
 10
13.1656281282
 20
7.0437940491
 11
13.9125216174
 21
7.6705121003
  0
LINE
  5
2F1
100
AcDbEntity
  8
0
100
AcDbLine
 62
9
  6
CONTINUOUS
 10
13.2975246447
 20
6.8866060613
 11
14.0444179767
 21
7.5133239807
  0
LINE
  5
2F2
100
AcDbEntity
  8
0
100
AcDbLine
 62
7
  6
CONTINUOUS
 10
8.4573091363
 20
12.3026327187
 11
8.4306235669
 21
12.3020653776
  0
LINE
  5
2F3
100
AcDbEntity
  8
0
100
AcDbLine
 62
7
  6
CONTINUOUS
 10
13.2980424227
 20
12.081657091
 11
14.3480424227
 21
12.081657091
  0
LINE
  5
2F4
100
AcDbEntity
  8
0
100
AcDbLine
 62
7
  6
CONTINUOUS
 10
8.4828163627
 20
12.3018427932
 11
8.4573091363
 21
12.3026327187
  0
LINE
  5
2F5
100
AcDbEntity
  8
0
100
AcDbLine
 62
7
  6
CONTINUOUS
 10
14.2180424227
 20
11.591657091
 11
14.2180424227
 21
11.646657091
  0
LINE
  5
2F6
100
AcDbEntity
  8
0
100
AcDbLine
 62
7
  6
CONTINUOUS
 10
14.2370424227
 20
8.3687533149
 11
14.2370424227
 21
8.7265521411
  0
LINE
  5
2F7
100
AcDbEntity
  8
0
100
AcDbLine
 62
9
  6
CONTINUOUS
 10
14.2470424227
 20
8.727652728
 11
14.2470424227
 21
8.367652728
  0
LINE
  5
2F8
100
AcDbEntity
  8
0
100
AcDbLine
 62
7
  6
CONTINUOUS
 10
14.2730424227
 20
7.7923138725
 11
14.2730424227
 21
7.7971530747
  0
LINE
  5
2F9
100
AcDbEntity
  8
0
100
AcDbLine
 62
7
  6
CONTINUOUS
 10
14.3370424226
 20
8.727652728
 11
14.3370424226
 21
8.367652728
  0
LINE
  5
2FA
100
AcDbEntity
  8
0
100
AcDbLine
 62
9
  6
CONTINUOUS
 10
14.3674035656
 20
8.7653123304
 11
14.3674035655
 21
8.3299931255
  0
LINE
  5
2FB
100
AcDbEntity
  8
0
100
AcDbLine
 62
7
  6
CONTINUOUS
 10
14.3680424227
 20
11.971657091
 11
14.3680424227
 21
12.061657091
  0
LINE
  5
2FC
100
AcDbEntity
  8
0
100
AcDbLine
 62
7
  6
CONTINUOUS
 10
14.3705424227
 20
6.6393245061
 11
14.3705424227
 21
6.4921530747
  0
LINE
  5
2FD
100
AcDbEntity
  8
0
100
AcDbLine
 62
7
  6
CONTINUOUS
 10
8.4074537608
 20
12.3004133239
 11
8.4074576912
 21
12.3004136954
  0
LINE
  5
2FE
100
AcDbEntity
  8
0
100
AcDbLine
 62
7
  6
CONTINUOUS
 10
8.4306235669
 20
12.3020653776
 11
8.4074576912
 21
12.3004136954
  0
LINE
  5
2FF
100
AcDbEntity
  8
0
100
AcDbLine
 62
9
  6
CONTINUOUS
 10
14.8712609878
 20
8.2412731962
 11
14.8712609878
 21
8.8540322597
  0
LINE
  5
300
100
AcDbEntity
  8
0
100
AcDbLine
 62
9
  6
CONTINUOUS
 10
14.9036726016
 20
8.877739648
 11
14.9036726016
 21
8.2175658079
  0
LINE
  5
301
100
AcDbEntity
  8
0
100
AcDbLine
 62
9
  6
CONTINUOUS
 10
14.9494603254
 20
8.907652728
 11
14.9494603254
 21
8.187652728
  0
LINE
  5
302
100
AcDbEntity
  8
0
100
AcDbLine
 62
9
  6
CONTINUOUS
 10
14.9644293018
 20
8.907652728
 11
14.9644293018
 21
8.187652728
  0
LINE
  5
303
100
AcDbEntity
  8
0
100
AcDbLine
 62
9
  6
CONTINUOUS
 10
15.0143513072
 20
8.86044439
 11
15.0143513072
 21
8.2348610659
  0
LINE
  5
304
100
AcDbEntity
  8
0
100
AcDbLine
 62
9
  6
CONTINUOUS
 10
15.0377817672
 20
8.3274053544
 11
15.0377817672
 21
8.7679001016
  0
ARC
  5
305
100
AcDbEntity
  8
0
100
AcDbCircle
 62
9
  6
CONTINUOUS
 10
9.821445929
 20
-25.0301507134
 40
35.6445112515
100
AcDbArc
 50
89.4455338442
 51
89.6512043746
  0
ARC
  5
306
100
AcDbEntity
  8
0
100
AcDbCircle
 62
7
  6
CONTINUOUS
 10
-24.8034072632
 20
7.1034243935
 40
39.407734852
100
AcDbArc
 50
359.5748101664
 51
0.4251348685
  0
ARC
  5
307
100
AcDbEntity
  8
0
100
AcDbCircle
 62
7
  6
CONTINUOUS
 10
9.654535114
 20
4.7262783341
 40
5.2817267986
100
AcDbArc
 50
90.005344681
 51
101.9008337548
  0
ARC
  5
308
100
AcDbEntity
  8
0
100
AcDbCircle
 62
7
  6
CONTINUOUS
 10
9.6540424227
 20
4.7310031885
 40
5.277
100
AcDbArc
 50
101.9061784358
 51
108.9079827008
  0
ARC
  5
309
100
AcDbEntity
  8
0
100
AcDbCircle
 62
7
  6
CONTINUOUS
 10
8.3763766106
 20
6.9331304233
 40
4.2080780211
100
AcDbArc
 50
75.5680707972
 51
76.2040566457
  0
ARC
  5
30A
100
AcDbEntity
  8
0
100
AcDbCircle
 62
7
  6
CONTINUOUS
 10
5.7492287453
 20
8.1090313872
 40
4.2080779978
100
AcDbArc
 50
55.5697440545
 51
56.2057299065
  0
ARC
  5
30B
100
AcDbEntity
  8
0
100
AcDbCircle
 62
9
  6
CONTINUOUS
 10
9.3685935
 20
7.5862591902
 40
3.0882421312
100
AcDbArc
 50
139.5888094204
 51
142.1403893844
  0
ARC
  5
30C
100
AcDbEntity
  8
0
100
AcDbCircle
 62
7
  6
CONTINUOUS
 10
8.7088867424
 20
8.4797210811
 40
2.5045387572
100
AcDbArc
 50
131.0269231405
 51
147.9845059448
  0
ARC
  5
30D
100
AcDbEntity
  8
0
100
AcDbCircle
 62
7
  6
CONTINUOUS
 10
8.7054008162
 20
8.4826969931
 40
2.5
100
AcDbArc
 50
112.3469579043
 51
131.0114221702
  0
ARC
  5
30E
100
AcDbEntity
  8
0
100
AcDbCircle
 62
7
  6
CONTINUOUS
 10
8.3145299036
 20
9.3361472533
 40
2.9704782817
100
AcDbArc
 50
77.5295370624
 51
79.499747388
  0
ARC
  5
30F
100
AcDbEntity
  8
0
100
AcDbCircle
 62
7
  6
CONTINUOUS
 10
8.3151531235
 20
9.3406706768
 40
2.9659149121
100
AcDbArc
 50
80.1955390642
 51
86.7593406943
  0
ARC
  5
310
100
AcDbEntity
  8
0
100
AcDbCircle
 62
7
  6
CONTINUOUS
 10
8.3152291332
 20
9.3411241921
 40
2.9655035674
100
AcDbArc
 50
56.0171864141
 51
60.5094916604
  0
ARC
  5
311
100
AcDbEntity
  8
0
100
AcDbCircle
 62
7
  6
CONTINUOUS
 10
8.3153178658
 20
9.3412913073
 40
2.9653153981
100
AcDbArc
 50
53.125057472
 51
56.0168032494
  0
ARC
  5
312
100
AcDbEntity
  8
0
100
AcDbCircle
 62
7
  6
CONTINUOUS
 10
8.3153754297
 20
9.3413498577
 40
2.9652351209
100
AcDbArc
 50
60.5098056784
 51
61.913069333
  0
ARC
  5
313
100
AcDbEntity
  8
0
100
AcDbCircle
 62
7
  6
CONTINUOUS
 10
8.3154289683
 20
9.3414472901
 40
2.9651239562
100
AcDbArc
 50
61.913100391
 51
73.6326578193
  0
ARC
  5
314
100
AcDbEntity
  8
0
100
AcDbCircle
 62
7
  6
CONTINUOUS
 10
8.3157755838
 20
9.3419051911
 40
2.9645496605
100
AcDbArc
 50
52.8869027367
 51
53.1249497672
  0
ARC
  5
315
100
AcDbEntity
  8
0
100
AcDbCircle
 62
7
  6
CONTINUOUS
 10
8.3162060754
 20
9.3435927769
 40
2.9628464345
100
AcDbArc
 50
73.6353852155
 51
77.4786569747
  0
ARC
  5
316
100
AcDbEntity
  8
0
100
AcDbCircle
 62
7
  6
CONTINUOUS
 10
9.4587784833
 20
10.2176698
 40
1.2038326632
100
AcDbArc
 50
45.4937900229
 51
54.4698993365
  0
ARC
  5
317
100
AcDbEntity
  8
0
100
AcDbCircle
 62
7
  6
CONTINUOUS
 10
8.29946856
 20
8.6860838047
 40
1.0964341825
100
AcDbArc
 50
139.5897552114
 51
145.9991642558
  0
ARC
  5
318
100
AcDbEntity
  8
0
100
AcDbCircle
 62
7
  6
CONTINUOUS
 10
8.7737457842
 20
11.556619108
 40
0.9029695368
100
AcDbArc
 50
142.3731155407
 51
167.9683656294
  0
ARC
  5
319
100
AcDbEntity
  8
0
100
AcDbCircle
 62
7
  6
CONTINUOUS
 10
8.4545876417
 20
11.802533157
 40
0.5001069622
100
AcDbArc
 50
86.7641989597
 51
89.6668702777
  0
ARC
  5
31A
100
AcDbEntity
  8
0
100
AcDbCircle
 62
7
  6
CONTINUOUS
 10
8.4545963903
 20
11.8025433873
 40
0.5000968919
100
AcDbArc
 50
92.641339495
 51
95.4091321971
  0
ARC
  5
31B
100
AcDbEntity
  8
0
100
AcDbCircle
 62
7
  6
CONTINUOUS
 10
8.4545886628
 20
11.8025946535
 40
0.5000454609
100
AcDbArc
 50
89.6669463165
 51
90.1530513124
  0
ARC
  5
31C
100
AcDbEntity
  8
0
100
AcDbCircle
 62
7
  6
CONTINUOUS
 10
8.454590846
 20
11.8026391953
 40
0.5
100
AcDbArc
 50
95.4095346333
 51
142.373028687
  0
ARC
  5
31D
100
AcDbEntity
  8
0
100
AcDbCircle
 62
7
  6
CONTINUOUS
 10
8.4545905238
 20
11.8026475718
 40
0.4999925477
100
AcDbArc
 50
90.1532807577
 51
92.6412181269
  0
ARC
  5
31E
100
AcDbEntity
  8
0
100
AcDbCircle
 62
7
  6
CONTINUOUS
 10
8.8189984189
 20
11.4446987273
 40
0.3243652792
100
AcDbArc
 50
232.9855516627
 51
241.4665246898
  0
ARC
  5
31F
100
AcDbEntity
  8
0
100
AcDbCircle
 62
7
  6
CONTINUOUS
 10
8.8189984189
 20
11.4446987273
 40
0.3243652792
100
AcDbArc
 50
250.307276371
 51
258.7866593706
  0
ARC
  5
320
100
AcDbEntity
  8
0
100
AcDbCircle
 62
7
  6
CONTINUOUS
 10
9.7503262286
 20
10.6279261148
 40
0.3189028728
100
AcDbArc
 50
37.9118769244
 51
48.7791145228
  0
ARC
  5
321
100
AcDbEntity
  8
0
100
AcDbCircle
 62
7
  6
CONTINUOUS
 10
8.4646899888
 20
11.2772930846
 40
0.01
100
AcDbArc
 50
155.8869005304
 51
235.8869005305
  0
ARC
  5
322
100
AcDbEntity
  8
0
100
AcDbCircle
 62
7
  6
CONTINUOUS
 10
8.9301877954
 20
11.0689381181
 40
0.01
100
AcDbArc
 50
255.8869005303
 51
335.8869005304
  0
ARC
  5
323
100
AcDbEntity
  8
0
100
AcDbCircle
 62
7
  6
CONTINUOUS
 10
8.9515427069
 20
11.0676934368
 40
0.01
100
AcDbArc
 50
75.8869005304
 51
155.8869005304
  0
ARC
  5
324
100
AcDbEntity
  8
0
100
AcDbCircle
 62
7
  6
CONTINUOUS
 10
8.4495352685
 20
11.2923899693
 40
0.01
100
AcDbArc
 50
335.8869005304
 51
55.8869005305
  0
ARC
  5
325
100
AcDbEntity
  8
0
100
AcDbCircle
 62
7
  6
CONTINUOUS
 10
8.3149123641
 20
11.4077379916
 40
0.01
100
AcDbArc
 50
155.8869005304
 51
235.8869005337
  0
ARC
  5
326
100
AcDbEntity
  8
0
100
AcDbCircle
 62
7
  6
CONTINUOUS
 10
9.1272516737
 20
11.0441381482
 40
0.01
100
AcDbArc
 50
255.8869005271
 51
335.8869005304
  0
ARC
  5
327
100
AcDbEntity
  8
0
100
AcDbCircle
 62
7
  6
CONTINUOUS
 10
8.0077014515
 20
11.6760013067
 40
0.01
100
AcDbArc
 50
335.8869005304
 51
65.8869005303
  0
ARC
  5
328
100
AcDbEntity
  8
0
100
AcDbCircle
 62
7
  6
CONTINUOUS
 10
9.1486065852
 20
11.0428934669
 40
0.01
100
AcDbArc
 50
75.8869005304
 51
155.8869005304
  0
ARC
  5
329
100
AcDbEntity
  8
0
100
AcDbCircle
 62
7
  6
CONTINUOUS
 10
9.5319785829
 20
10.9937409263
 40
0.01
100
AcDbArc
 50
65.8869005305
 51
155.8869005304
  0
ARC
  5
32A
100
AcDbEntity
  8
0
100
AcDbCircle
 62
7
  6
CONTINUOUS
 10
9.5115316575
 20
10.9970141916
 40
0.01
100
AcDbArc
 50
255.8869005295
 51
335.8869005304
  0
ARC
  5
32B
100
AcDbEntity
  8
0
100
AcDbCircle
 62
7
  6
CONTINUOUS
 10
8.2997576438
 20
11.4228348764
 40
0.01
100
AcDbArc
 50
335.8869005304
 51
55.8869005304
  0
ARC
  5
32C
100
AcDbEntity
  8
0
100
AcDbCircle
 62
7
  6
CONTINUOUS
 10
8.023764158
 20
11.662933006
 40
0.01
100
AcDbArc
 50
155.8869005304
 51
235.8869005313
  0
ARC
  5
32D
100
AcDbEntity
  8
0
100
AcDbCircle
 62
7
  6
CONTINUOUS
 10
8.162590584
 20
11.5447375838
 40
0.01
100
AcDbArc
 50
335.8869005304
 51
55.8869005313
  0
ARC
  5
32E
100
AcDbEntity
  8
0
100
AcDbCircle
 62
7
  6
CONTINUOUS
 10
9.3308988044
 20
11.0218074719
 40
0.01
100
AcDbArc
 50
75.8869005295
 51
155.8869005304
  0
ARC
  5
32F
100
AcDbEntity
  8
0
100
AcDbCircle
 62
7
  6
CONTINUOUS
 10
8.1777453043
 20
11.529640699
 40
0.01
100
AcDbArc
 50
155.8869005304
 51
235.8869005321
  0
ARC
  5
330
100
AcDbEntity
  8
0
100
AcDbCircle
 62
7
  6
CONTINUOUS
 10
9.3095438929
 20
11.0230521531
 40
0.01
100
AcDbArc
 50
255.8869005287
 51
335.8869005304
  0
ARC
  5
331
100
AcDbEntity
  8
0
100
AcDbCircle
 62
7
  6
CONTINUOUS
 10
9.8481997755
 20
5.7002174486
 40
5.5080266175
100
AcDbArc
 50
100.968460982
 51
112.3369136925
  0
ARC
  5
332
100
AcDbEntity
  8
0
100
AcDbCircle
 62
7
  6
CONTINUOUS
 10
11.5732362458
 20
6.4435234136
 40
2.1515652966
100
AcDbArc
 50
38.0360452783
 51
40.0336657531
  0
ARC
  5
333
100
AcDbEntity
  8
0
100
AcDbCircle
 62
7
  6
CONTINUOUS
 10
10.6115875539
 20
7.4557588105
 40
2.5
100
AcDbArc
 50
317.5195783577
 51
321.4549572017
  0
ARC
  5
334
100
AcDbEntity
  8
0
100
AcDbCircle
 62
7
  6
CONTINUOUS
 10
12.3814426576
 20
5.1448340672
 40
3.73
100
AcDbArc
 50
76.0811997271
 51
81.3898485381
  0
ARC
  5
335
100
AcDbEntity
  8
0
100
AcDbCircle
 62
7
  6
CONTINUOUS
 10
13.1074993283
 20
4.692574061
 40
2.45
100
AcDbArc
 50
36.9049486426
 51
51.1081952499
  0
ARC
  5
336
100
AcDbEntity
  8
0
100
AcDbCircle
 62
7
  6
CONTINUOUS
 10
13.7929804555
 20
5.6860262168
 40
1.1
100
AcDbArc
 50
135.0793467699
 51
146.5626793777
  0
ARC
  5
337
100
AcDbEntity
  8
0
100
AcDbCircle
 62
9
  6
CONTINUOUS
 10
13.8232180384
 20
6.0061762584
 40
0.5991875201
100
AcDbArc
 50
75.8379627567
 51
90.0167928101
  0
ARC
  5
338
100
AcDbEntity
  8
0
100
AcDbCircle
 62
9
  6
CONTINUOUS
 10
13.8228438874
 20
6.0061764956
 40
0.5991844877
100
AcDbArc
 50
89.9810155636
 51
104.159917762
  0
ARC
  5
339
100
AcDbEntity
  8
0
100
AcDbCircle
 62
9
  6
CONTINUOUS
 10
13.8230434744
 20
6.0725079121
 40
0.4975001246
100
AcDbArc
 50
74.4498639587
 51
105.5497701126
  0
ARC
  5
33A
100
AcDbEntity
  8
0
100
AcDbCircle
 62
7
  6
CONTINUOUS
 10
11.9655526393
 20
6.0508382007
 40
0.47
100
AcDbArc
 50
324.8405965889
 51
347.6492068003
  0
ARC
  5
33B
100
AcDbEntity
  8
0
100
AcDbCircle
 62
7
  6
CONTINUOUS
 10
13.0848951071
 20
6.3921530747
 40
0.1
100
AcDbArc
 50
90.0
 51
135.0793467699
  0
ARC
  5
33C
100
AcDbEntity
  8
0
100
AcDbCircle
 62
7
  6
CONTINUOUS
 10
12.4904924026
 20
6.0171530747
 40
0.08
100
AcDbArc
 50
193.561676092
 51
209.0618146147
  0
ARC
  5
33D
100
AcDbEntity
  8
0
100
AcDbCircle
 62
7
  6
CONTINUOUS
 10
12.8712731458
 20
6.2222546301
 40
0.07
100
AcDbArc
 50
90.0
 51
141.0
  0
ARC
  5
33E
100
AcDbEntity
  8
0
100
AcDbCircle
 62
7
  6
CONTINUOUS
 10
12.5399628368
 20
6.1036493715
 40
0.06
100
AcDbArc
 50
90.0
 51
112.9579434027
  0
ARC
  5
33F
100
AcDbEntity
  8
0
100
AcDbCircle
 62
7
  6
CONTINUOUS
 10
12.6223877322
 20
5.9466870551
 40
0.05
100
AcDbArc
 50
141.0
 51
195.3519508339
  0
ARC
  5
340
100
AcDbEntity
  8
0
100
AcDbCircle
 62
7
  6
CONTINUOUS
 10
12.382504731
 20
5.7571530747
 40
0.04
100
AcDbArc
 50
144.8405965888
 51
270.0
  0
ARC
  5
341
100
AcDbEntity
  8
0
100
AcDbCircle
 62
7
  6
CONTINUOUS
 10
12.3856008644
 20
5.9588627222
 40
0.04
100
AcDbArc
 50
347.6492068002
 51
29.061814615
  0
ARC
  5
342
100
AcDbEntity
  8
0
100
AcDbCircle
 62
7
  6
CONTINUOUS
 10
12.5355991333
 20
5.9228597785
 40
0.04
100
AcDbArc
 50
321.4549572015
 51
15.351950834
  0
ARC
  5
343
100
AcDbEntity
  8
0
100
AcDbCircle
 62
7
  6
CONTINUOUS
 10
12.4418864994
 20
6.0054284779
 40
0.03
100
AcDbArc
 50
143.9299999994
 51
193.5616760922
  0
ARC
  5
344
100
AcDbEntity
  8
0
100
AcDbCircle
 62
7
  6
CONTINUOUS
 10
12.4774831672
 20
5.7471530747
 40
0.03
100
AcDbArc
 50
137.5195783576
 51
270.0
  0
ARC
  5
345
100
AcDbEntity
  8
0
100
AcDbCircle
 62
7
  6
CONTINUOUS
 10
12.3567924227
 20
7.2940031885
 40
2.72
100
AcDbArc
 50
81.3574125268
 51
98.1411562904
  0
ARC
  5
346
100
AcDbEntity
  8
0
100
AcDbCircle
 62
7
  6
CONTINUOUS
 10
13.1730424227
 20
6.7821530747
 40
1.1375
100
AcDbArc
 50
0.0
 51
40.0
  0
ARC
  5
347
100
AcDbEntity
  8
0
100
AcDbCircle
 62
7
  6
CONTINUOUS
 10
12.7380899814
 20
7.4215637361
 40
0.7436461668
100
AcDbArc
 50
34.2732208646
 51
40.0612838167
  0
ARC
  5
348
100
AcDbEntity
  8
0
100
AcDbCircle
 62
7
  6
CONTINUOUS
 10
13.6147323209
 20
8.1571539998
 40
0.7436461668
100
AcDbArc
 50
219.9387161834
 51
225.7267791353
  0
ARC
  5
349
100
AcDbEntity
  8
0
100
AcDbCircle
 62
7
  6
CONTINUOUS
 10
13.8230424227
 20
8.327924678
 40
0.7
100
AcDbArc
 50
71.180936631
 51
108.819063369
  0
ARC
  5
34A
100
AcDbEntity
  8
0
100
AcDbCircle
 62
7
  6
CONTINUOUS
 10
13.1730424227
 20
6.7821530747
 40
0.1625
100
AcDbArc
 50
0.0
 51
40.0
  0
ARC
  5
34B
100
AcDbEntity
  8
0
100
AcDbCircle
 62
7
  6
CONTINUOUS
 10
13.317931537
 20
7.6789363911
 40
0.1013515684
100
AcDbArc
 50
130.0746306891
 51
131.6183802027
  0
ARC
  5
34C
100
AcDbEntity
  8
0
100
AcDbCircle
 62
7
  6
CONTINUOUS
 10
13.2355424227
 20
6.7821530747
 40
0.1
100
AcDbArc
 50
314.4270040008
 51
360.0
  0
ARC
  5
34D
100
AcDbEntity
  8
0
100
AcDbCircle
 62
7
  6
CONTINUOUS
 10
13.3755424227
 20
6.6393245061
 40
0.1
100
AcDbArc
 50
134.4270040008
 51
180.0
  0
ARC
  5
34E
100
AcDbEntity
  8
0
100
AcDbCircle
 62
7
  6
CONTINUOUS
 10
13.2567602873
 20
7.6355066355
 40
0.0953004935
100
AcDbArc
 50
128.3326065985
 51
129.9743825097
  0
ARC
  5
34F
100
AcDbEntity
  8
0
100
AcDbCircle
 62
7
  6
CONTINUOUS
 10
13.0430424227
 20
6.709154091
 40
0.076
100
AcDbArc
 50
106.5527810609
 51
234.5167977112
  0
ARC
  5
350
100
AcDbEntity
  8
0
100
AcDbCircle
 62
7
  6
CONTINUOUS
 10
12.9815132119
 20
6.6228398035
 40
0.03
100
AcDbArc
 50
308.8918047501
 51
54.5167977112
  0
ARC
  5
351
100
AcDbEntity
  8
0
100
AcDbCircle
 62
7
  6
CONTINUOUS
 10
13.0128431825
 20
6.8107612064
 40
0.03
100
AcDbArc
 50
286.5527810609
 51
0.4250373634
  0
ARC
  5
352
100
AcDbEntity
  8
0
100
AcDbCircle
 62
7
  6
CONTINUOUS
 10
12.876923808
 20
7.4150837864
 40
0.02
100
AcDbArc
 50
151.1743774631
 51
220.0
  0
ARC
  5
353
100
AcDbEntity
  8
0
100
AcDbCircle
 62
7
  6
CONTINUOUS
 10
13.1661782323
 20
7.070363787
 40
0.02
100
AcDbArc
 50
220.0
 51
310.0
  0
ARC
  5
354
100
AcDbEntity
  8
0
100
AcDbCircle
 62
7
  6
CONTINUOUS
 10
13.5970055845
 20
8.0193041395
 40
0.02
100
AcDbArc
 50
40.0
 51
108.8256226106
  0
ARC
  5
355
100
AcDbEntity
  8
0
100
AcDbCircle
 62
7
  6
CONTINUOUS
 10
13.3990424227
 20
8.377652728
 40
0.01
100
AcDbArc
 50
270.0
 51
360.0
  0
ARC
  5
356
100
AcDbEntity
  8
0
100
AcDbCircle
 62
7
  6
CONTINUOUS
 10
12.7580139539
 20
9.9336852305
 40
0.05
100
AcDbArc
 50
23.2375165936
 51
81.3574125267
  0
ARC
  5
357
100
AcDbEntity
  8
0
100
AcDbCircle
 62
7
  6
CONTINUOUS
 10
11.8280424227
 20
11.2330031885
 40
0.075
100
AcDbArc
 50
90.0
 51
180.0
  0
ARC
  5
358
100
AcDbEntity
  8
0
100
AcDbCircle
 62
7
  6
CONTINUOUS
 10
11.8407112422
 20
11.2330031885
 40
0.075
100
AcDbArc
 50
23.2375165917
 51
90.0000002547
  0
ARC
  5
359
100
AcDbEntity
  8
0
100
AcDbCircle
 62
7
  6
CONTINUOUS
 10
11.9555708915
 20
11.2823211465
 40
0.05
100
AcDbArc
 50
203.2375165944
 51
261.3574125267
  0
ARC
  5
35A
100
AcDbEntity
  8
0
100
AcDbCircle
 62
7
  6
CONTINUOUS
 10
12.7580139539
 20
11.2823211465
 40
0.05
100
AcDbArc
 50
278.6425874732
 51
336.7624834087
  0
ARC
  5
35B
100
AcDbEntity
  8
0
100
AcDbCircle
 62
7
  6
CONTINUOUS
 10
13.8230424227
 20
8.547652728
 40
0.451
100
AcDbArc
 50
203.3703404989
 51
233.066555091
  0
ARC
  5
35C
100
AcDbEntity
  8
0
100
AcDbCircle
 62
7
  6
CONTINUOUS
 10
13.8230424227
 20
8.547652728
 40
0.451
100
AcDbArc
 50
306.933444909
 51
336.6296595011
  0
ARC
  5
35D
100
AcDbEntity
  8
0
100
AcDbCircle
 62
7
  6
CONTINUOUS
 10
13.8230424227
 20
8.547652728
 40
0.451
100
AcDbArc
 50
23.3703404989
 51
48.4965643543
  0
ARC
  5
35E
100
AcDbEntity
  8
0
100
AcDbCircle
 62
7
  6
CONTINUOUS
 10
13.8230424227
 20
8.547652728
 40
0.451
100
AcDbArc
 50
131.5034356457
 51
156.6296595011
  0
CIRCLE
  5
35F
100
AcDbEntity
  8
0
100
AcDbCircle
 62
7
  6
CONTINUOUS
 10
13.8230424227
 20
8.547652728
 40
0.36
  0
ARC
  5
360
100
AcDbEntity
  8
0
100
AcDbCircle
 62
7
  6
CONTINUOUS
 10
13.8230424227
 20
8.547652728
 40
0.36
100
AcDbArc
 50
180.0
 51
360.0
  0
CIRCLE
  5
361
100
AcDbEntity
  8
0
100
AcDbCircle
 62
9
  6
CONTINUOUS
 10
13.8230424227
 20
8.547652728
 40
0.312791662
  0
CIRCLE
  5
362
100
AcDbEntity
  8
0
100
AcDbCircle
 62
9
  6
CONTINUOUS
 10
13.8230424227
 20
8.547652728
 40
0.2202473736
  0
ARC
  5
363
100
AcDbEntity
  8
0
100
AcDbCircle
 62
7
  6
CONTINUOUS
 10
13.6230424227
 20
8.9147807081
 40
0.08
100
AcDbArc
 50
108.819063369
 51
180.0
  0
ARC
  5
364
100
AcDbEntity
  8
0
100
AcDbCircle
 62
7
  6
CONTINUOUS
 10
13.0430424227
 20
9.801657091
 40
0.08
100
AcDbArc
 50
116.4005874121
 51
256.2662090435
  0
ARC
  5
365
100
AcDbEntity
  8
0
100
AcDbCircle
 62
7
  6
CONTINUOUS
 10
12.8780424227
 20
9.9830031885
 40
0.075
100
AcDbArc
 50
270.0
 51
360.0
  0
ARC
  5
366
100
AcDbEntity
  8
0
100
AcDbCircle
 62
7
  6
CONTINUOUS
 10
12.8728736031
 20
9.9830031885
 40
0.075
100
AcDbArc
 50
203.2375165929
 51
270.0
  0
ARC
  5
367
100
AcDbEntity
  8
0
100
AcDbCircle
 62
7
  6
CONTINUOUS
 10
13.2690594179
 20
8.7264868263
 40
0.04
100
AcDbArc
 50
1.6702677144
 51
76.0811997271
  0
ARC
  5
368
100
AcDbEntity
  8
0
100
AcDbCircle
 62
7
  6
CONTINUOUS
 10
12.9941315428
 20
9.9001848832
 40
0.03
100
AcDbArc
 50
296.4005874084
 51
40.4944653761
  0
ARC
  5
369
100
AcDbEntity
  8
0
100
AcDbCircle
 62
7
  6
CONTINUOUS
 10
13.0169272029
 20
9.694802071
 40
0.03
100
AcDbArc
 50
8.9206921814
 51
76.2662090435
  0
ARC
  5
36A
100
AcDbEntity
  8
0
100
AcDbCircle
 62
7
  6
CONTINUOUS
 10
13.5630424227
 20
8.907924678
 40
0.02
100
AcDbArc
 50
180.0
 51
270.0
  0
ARC
  5
36B
100
AcDbEntity
  8
0
100
AcDbCircle
 62
7
  6
CONTINUOUS
 10
13.5308071767
 20
8.877924678
 40
0.01
100
AcDbArc
 50
90.0
 51
131.5034356405
  0
ARC
  5
36C
100
AcDbEntity
  8
0
100
AcDbCircle
 62
7
  6
CONTINUOUS
 10
13.3990424227
 20
8.717652728
 40
0.01
100
AcDbArc
 50
0.0
 51
90.0
  0
ARC
  5
36D
100
AcDbEntity
  8
0
100
AcDbCircle
 62
7
  6
CONTINUOUS
 10
13.8230424227
 20
10.6080031885
 40
1.06
100
AcDbArc
 50
214.8395846707
 51
220.4944653712
  0
ARC
  5
36E
100
AcDbEntity
  8
0
100
AcDbCircle
 62
7
  6
CONTINUOUS
 10
13.8230424227
 20
10.6080031885
 40
1.06
100
AcDbArc
 50
319.5055346288
 51
68.1213814689
  0
ARC
  5
36F
100
AcDbEntity
  8
0
100
AcDbCircle
 62
7
  6
CONTINUOUS
 10
13.8230424227
 20
10.6080031885
 40
1.06
100
AcDbArc
 50
111.8786185311
 51
145.1604153293
  0
ARC
  5
370
100
AcDbEntity
  8
0
100
AcDbCircle
 62
7
  6
CONTINUOUS
 10
13.8230424227
 20
11.2231955526
 40
0.9884615385
100
AcDbArc
 50
60.2827711042
 51
119.7172288958
  0
ARC
  5
371
100
AcDbEntity
  8
0
100
AcDbCircle
 62
7
  6
CONTINUOUS
 10
13.7512737621
 20
12.2898482875
 40
0.66
100
AcDbArc
 50
299.7184980025
 51
329.1754473177
  0
ARC
  5
372
100
AcDbEntity
  8
0
100
AcDbCircle
 62
7
  6
CONTINUOUS
 10
12.8780424227
 20
11.2330031885
 40
0.075
100
AcDbArc
 50
0.0
 51
90.0
  0
ARC
  5
373
100
AcDbEntity
  8
0
100
AcDbCircle
 62
7
  6
CONTINUOUS
 10
12.8728736031
 20
11.2330031885
 40
0.075
100
AcDbArc
 50
90.0
 51
156.762483408
  0
ARC
  5
374
100
AcDbEntity
  8
0
100
AcDbCircle
 62
7
  6
CONTINUOUS
 10
13.4980424227
 20
11.646657091
 40
0.07
100
AcDbArc
 50
90.0
 51
180.0
  0
ARC
  5
375
100
AcDbEntity
  8
0
100
AcDbCircle
 62
7
  6
CONTINUOUS
 10
13.2980424227
 20
12.061657091
 40
0.02
100
AcDbArc
 50
90.0
 51
180.0
  0
ARC
  5
376
100
AcDbEntity
  8
0
100
AcDbCircle
 62
7
  6
CONTINUOUS
 10
13.2980424227
 20
11.971657091
 40
0.02
100
AcDbArc
 50
180.0
 51
270.0
  0
ARC
  5
377
100
AcDbEntity
  8
0
100
AcDbCircle
 62
7
  6
CONTINUOUS
 10
13.2473682285
 20
21.3433970408
 40
10.5495226943
100
AcDbArc
 50
250.3745771135
 51
251.2017883993
  0
ARC
  5
378
100
AcDbEntity
  8
0
100
AcDbCircle
 62
9
  6
CONTINUOUS
 10
13.2394689169
 20
21.3207280566
 40
10.5255174487
100
AcDbArc
 50
250.1363430914
 51
250.3736332501
  0
ARC
  5
379
100
AcDbEntity
  8
0
100
AcDbCircle
 62
7
  6
CONTINUOUS
 10
12.3567924227
 20
13.9220031885
 40
2.72
100
AcDbArc
 50
261.3574125269
 51
278.6425874732
  0
ARC
  5
37A
100
AcDbEntity
  8
0
100
AcDbCircle
 62
7
  6
CONTINUOUS
 10
18.6551038478
 20
7.2437529071
 40
4.459
100
AcDbArc
 50
174.150613569
 51
179.5774539241
  0
ARC
  5
37B
100
AcDbEntity
  8
0
100
AcDbCircle
 62
7
  6
CONTINUOUS
 10
15.2646421877
 20
5.1448340672
 40
3.73
100
AcDbArc
 50
96.0539076486
 51
103.9188002729
  0
ARC
  5
37C
100
AcDbEntity
  8
0
100
AcDbCircle
 62
7
  6
CONTINUOUS
 10
17.0344972914
 20
7.4557588105
 40
2.5
100
AcDbArc
 50
218.5450427983
 51
222.4804216423
  0
ARC
  5
37D
100
AcDbEntity
  8
0
100
AcDbCircle
 62
7
  6
CONTINUOUS
 10
14.538585517
 20
4.692574061
 40
2.45
100
AcDbArc
 50
128.8918047501
 51
143.0950513574
  0
ARC
  5
37E
100
AcDbEntity
  8
0
100
AcDbCircle
 62
7
  6
CONTINUOUS
 10
13.8531043898
 20
5.6860262168
 40
1.1
100
AcDbArc
 50
33.4373206223
 51
44.9206532301
  0
ARC
  5
37F
100
AcDbEntity
  8
0
100
AcDbCircle
 62
7
  6
CONTINUOUS
 10
15.680532206
 20
6.0508382007
 40
0.47
100
AcDbArc
 50
192.3507931997
 51
215.1594034111
  0
ARC
  5
380
100
AcDbEntity
  8
0
100
AcDbCircle
 62
7
  6
CONTINUOUS
 10
15.2639613342
 20
8.2209027559
 40
0.25
100
AcDbArc
 50
154.7853651812
 51
176.7993265714
  0
ARC
  5
381
100
AcDbEntity
  8
0
100
AcDbCircle
 62
7
  6
CONTINUOUS
 10
14.4105424227
 20
6.7821530747
 40
0.1
100
AcDbArc
 50
180.0
 51
225.5729959992
  0
ARC
  5
382
100
AcDbEntity
  8
0
100
AcDbCircle
 62
7
  6
CONTINUOUS
 10
14.2705424227
 20
6.6393245061
 40
0.1
100
AcDbArc
 50
0.0
 51
45.5729959992
  0
ARC
  5
383
100
AcDbEntity
  8
0
100
AcDbCircle
 62
7
  6
CONTINUOUS
 10
14.5611897382
 20
6.3921530747
 40
0.1
100
AcDbArc
 50
44.9206532301
 51
90.0
  0
ARC
  5
384
100
AcDbEntity
  8
0
100
AcDbCircle
 62
7
  6
CONTINUOUS
 10
15.1555924427
 20
6.0171530747
 40
0.08
100
AcDbArc
 50
330.9381853853
 51
346.438323908
  0
ARC
  5
385
100
AcDbEntity
  8
0
100
AcDbCircle
 62
7
  6
CONTINUOUS
 10
14.6030424227
 20
6.709154091
 40
0.076
100
AcDbArc
 50
305.4832022888
 51
73.4472189391
  0
ARC
  5
386
100
AcDbEntity
  8
0
100
AcDbCircle
 62
7
  6
CONTINUOUS
 10
14.6030424227
 20
7.497657091
 40
0.076
100
AcDbArc
 50
286.5529380701
 51
75.7260292945
  0
ARC
  5
387
100
AcDbEntity
  8
0
100
AcDbCircle
 62
7
  6
CONTINUOUS
 10
14.7748116995
 20
6.2222546301
 40
0.07
100
AcDbArc
 50
39.0
 51
90.0
  0
ARC
  5
388
100
AcDbEntity
  8
0
100
AcDbCircle
 62
7
  6
CONTINUOUS
 10
14.2130424227
 20
7.7971530747
 40
0.06
100
AcDbArc
 50
0.0
 51
90.0
  0
ARC
  5
389
100
AcDbEntity
  8
0
100
AcDbCircle
 62
7
  6
CONTINUOUS
 10
14.2130424227
 20
7.7923138716
 40
0.06
100
AcDbArc
 50
303.3475728931
 51
0.0000008876
  0
ARC
  5
38A
100
AcDbEntity
  8
0
100
AcDbCircle
 62
7
  6
CONTINUOUS
 10
14.279008415
 20
7.6920717255
 40
0.06
100
AcDbArc
 50
123.3475728854
 51
174.150613569
  0
ARC
  5
38B
100
AcDbEntity
  8
0
100
AcDbCircle
 62
7
  6
CONTINUOUS
 10
15.1061220086
 20
6.1036493715
 40
0.06
100
AcDbArc
 50
67.0420565973
 51
90.0
  0
ARC
  5
38C
100
AcDbEntity
  8
0
100
AcDbCircle
 62
7
  6
CONTINUOUS
 10
14.9644293018
 20
8.237652728
 40
0.05
100
AcDbArc
 50
270.0
 51
356.7993265714
  0
ARC
  5
38D
100
AcDbEntity
  8
0
100
AcDbCircle
 62
7
  6
CONTINUOUS
 10
14.9494603254
 20
8.237652728
 40
0.05
100
AcDbArc
 50
203.6868993629
 51
270.0
  0
ARC
  5
38E
100
AcDbEntity
  8
0
100
AcDbCircle
 62
7
  6
CONTINUOUS
 10
15.0236971132
 20
5.9466870551
 40
0.05
100
AcDbArc
 50
344.6480491661
 51
39.0
  0
ARC
  5
38F
100
AcDbEntity
  8
0
100
AcDbCircle
 62
7
  6
CONTINUOUS
 10
15.2635801143
 20
5.7571530747
 40
0.04
100
AcDbArc
 50
270.0
 51
35.1594034112
  0
ARC
  5
390
100
AcDbEntity
  8
0
100
AcDbCircle
 62
7
  6
CONTINUOUS
 10
15.260483981
 20
5.9588627222
 40
0.04
100
AcDbArc
 50
150.938185385
 51
192.3507931998
  0
ARC
  5
391
100
AcDbEntity
  8
0
100
AcDbCircle
 62
7
  6
CONTINUOUS
 10
14.3770254274
 20
8.3688186296
 40
0.04
100
AcDbArc
 50
181.6702677146
 51
256.0811997271
  0
ARC
  5
392
100
AcDbEntity
  8
0
100
AcDbCircle
 62
7
  6
CONTINUOUS
 10
14.8670424227
 20
8.2014962719
 40
0.04
100
AcDbArc
 50
23.6868993629
 51
83.9460923514
  0
ARC
  5
393
100
AcDbEntity
  8
0
100
AcDbCircle
 62
7
  6
CONTINUOUS
 10
15.110485712
 20
5.9228597785
 40
0.04
100
AcDbArc
 50
164.648049166
 51
218.5450427985
  0
ARC
  5
394
100
AcDbEntity
  8
0
100
AcDbCircle
 62
7
  6
CONTINUOUS
 10
15.2041983459
 20
6.0054284779
 40
0.03
100
AcDbArc
 50
346.4383239078
 51
36.0700000006
  0
ARC
  5
395
100
AcDbEntity
  8
0
100
AcDbCircle
 62
7
  6
CONTINUOUS
 10
15.1686016781
 20
5.7471530747
 40
0.03
100
AcDbArc
 50
270.0
 51
42.4804216424
  0
ARC
  5
396
100
AcDbEntity
  8
0
100
AcDbCircle
 62
7
  6
CONTINUOUS
 10
14.6645716334
 20
6.6228398035
 40
0.03
100
AcDbArc
 50
125.4832022888
 51
231.1081952499
  0
ARC
  5
397
100
AcDbEntity
  8
0
100
AcDbCircle
 62
7
  6
CONTINUOUS
 10
14.6332416628
 20
6.8107612064
 40
0.03
100
AcDbArc
 50
179.5749626366
 51
253.4472189391
  0
ARC
  5
398
100
AcDbEntity
  8
0
100
AcDbCircle
 62
7
  6
CONTINUOUS
 10
14.6332419412
 20
7.3960500584
 40
0.03
100
AcDbArc
 50
106.5529380701
 51
180.4255751798
  0
ARC
  5
399
100
AcDbEntity
  8
0
100
AcDbCircle
 62
7
  6
CONTINUOUS
 10
14.6291776519
 20
7.6003846423
 40
0.03
100
AcDbArc
 50
188.9217605135
 51
255.7260292945
  0
ARC
  5
39A
100
AcDbEntity
  8
0
100
AcDbCircle
 62
7
  6
CONTINUOUS
 10
13.8862600089
 20
7.6745841401
 40
0.02
100
AcDbArc
 50
310.0
 51
40.0
  0
ARC
  5
39B
100
AcDbEntity
  8
0
100
AcDbCircle
 62
7
  6
CONTINUOUS
 10
14.2470424227
 20
8.377652728
 40
0.01
100
AcDbArc
 50
180.0
 51
270.0
  0
ARC
  5
39C
100
AcDbEntity
  8
0
100
AcDbCircle
 62
7
  6
CONTINUOUS
 10
15.2646421877
 20
11.9504713888
 40
3.73
100
AcDbArc
 50
256.0811997271
 51
263.9460923514
  0
ARC
  5
39D
100
AcDbEntity
  8
0
100
AcDbCircle
 62
7
  6
CONTINUOUS
 10
14.7801887415
 20
9.13447607
 40
2.1515652965
100
AcDbArc
 50
219.9663342468
 51
221.9639547217
  0
ARC
  5
39E
100
AcDbEntity
  8
0
100
AcDbCircle
 62
7
  6
CONTINUOUS
 10
13.8948110833
 20
12.2898482875
 40
0.66
100
AcDbArc
 50
210.8245526823
 51
240.2815019975
  0
ARC
  5
39F
100
AcDbEntity
  8
0
100
AcDbCircle
 62
7
  6
CONTINUOUS
 10
14.5700424227
 20
8.547652728
 40
0.517
100
AcDbArc
 50
334.7853651812
 51
25.2146348188
  0
ARC
  5
3A0
100
AcDbEntity
  8
0
100
AcDbCircle
 62
7
  6
CONTINUOUS
 10
15.2639613342
 20
8.8744027
 40
0.25
100
AcDbArc
 50
183.2006734286
 51
205.2146348188
  0
ARC
  5
3A1
100
AcDbEntity
  8
0
100
AcDbCircle
 62
7
  6
CONTINUOUS
 10
14.0230424227
 20
8.9147807081
 40
0.08
100
AcDbArc
 50
0.0
 51
71.180936631
  0
ARC
  5
3A2
100
AcDbEntity
  8
0
100
AcDbCircle
 62
7
  6
CONTINUOUS
 10
14.6030424227
 20
9.801657091
 40
0.08
100
AcDbArc
 50
283.7337909565
 51
63.5994125879
  0
ARC
  5
3A3
100
AcDbEntity
  8
0
100
AcDbCircle
 62
7
  6
CONTINUOUS
 10
14.1480424227
 20
11.646657091
 40
0.07
100
AcDbArc
 50
0.0
 51
90.0
  0
ARC
  5
3A4
100
AcDbEntity
  8
0
100
AcDbCircle
 62
7
  6
CONTINUOUS
 10
14.9644293018
 20
8.857652728
 40
0.05
100
AcDbArc
 50
3.2006734286
 51
90.0
  0
ARC
  5
3A5
100
AcDbEntity
  8
0
100
AcDbCircle
 62
7
  6
CONTINUOUS
 10
14.9494603254
 20
8.857652728
 40
0.05
100
AcDbArc
 50
90.0
 51
156.3131006371
  0
ARC
  5
3A6
100
AcDbEntity
  8
0
100
AcDbCircle
 62
7
  6
CONTINUOUS
 10
14.3770254275
 20
8.7264868263
 40
0.04
100
AcDbArc
 50
103.9188002729
 51
178.3297322856
  0
ARC
  5
3A7
100
AcDbEntity
  8
0
100
AcDbCircle
 62
7
  6
CONTINUOUS
 10
14.8670424227
 20
8.893809184
 40
0.04
100
AcDbArc
 50
276.0539076486
 51
336.3131006371
  0
ARC
  5
3A8
100
AcDbEntity
  8
0
100
AcDbCircle
 62
7
  6
CONTINUOUS
 10
14.6519533025
 20
9.9001848832
 40
0.03
100
AcDbArc
 50
139.5055346288
 51
243.5994125879
  0
ARC
  5
3A9
100
AcDbEntity
  8
0
100
AcDbCircle
 62
7
  6
CONTINUOUS
 10
14.6291576425
 20
9.694802071
 40
0.03
100
AcDbArc
 50
103.7337909565
 51
171.0793078186
  0
ARC
  5
3AA
100
AcDbEntity
  8
0
100
AcDbCircle
 62
7
  6
CONTINUOUS
 10
14.3480424227
 20
12.061657091
 40
0.02
100
AcDbArc
 50
0.0
 51
90.0
  0
ARC
  5
3AB
100
AcDbEntity
  8
0
100
AcDbCircle
 62
7
  6
CONTINUOUS
 10
14.3480424227
 20
11.971657091
 40
0.02
100
AcDbArc
 50
270.0
 51
360.0
  0
ARC
  5
3AC
100
AcDbEntity
  8
0
100
AcDbCircle
 62
7
  6
CONTINUOUS
 10
14.0830424227
 20
8.907924678
 40
0.02
100
AcDbArc
 50
270.0
 51
360.0
  0
ARC
  5
3AD
100
AcDbEntity
  8
0
100
AcDbCircle
 62
7
  6
CONTINUOUS
 10
14.2470424227
 20
8.717652728
 40
0.01
100
AcDbArc
 50
90.0
 51
180.0
  0
ARC
  5
3AE
100
AcDbEntity
  8
0
100
AcDbCircle
 62
7
  6
CONTINUOUS
 10
14.1152776687
 20
8.877924678
 40
0.01
100
AcDbArc
 50
48.4965643595
 51
90.0
  0
ARC
  5
3AF
100
AcDbEntity
  8
0
100
AcDbCircle
 62
7
  6
CONTINUOUS
 10
52.4742441558
 20
7.1035473106
 40
39.4324871299
100
AcDbArc
 50
179.8781825006
 51
180.4251015363
  0
SPLINE
  5
3B0
100
AcDbEntity
  8
0
100
AcDbSpline
 62
7
  6
CONTINUOUS
 70
0
 71
3
 72
19
 73
15
 74
0
 42
0.0000001
 43
0.0000001
 44
0.0000000001
 40
0.0
 40
0.0
 40
0.0
 40
0.0
 40
0.0189998375
 40
0.0400394188
 40
0.0654303595
 40
0.0965168169
 40
0.1339996416
 40
0.1782501338
 40
0.2294637277
 40
0.2877083623
 40
0.4252504768
 40
0.5904899699
 40
0.7825572749
 40
1.0
 40
1.0
 40
1.0
 40
1.0
 10
8.9651405672
 20
11.087690212
 30
0.0
 10
8.9651551193
 20
11.0877227442
 30
0.0
 10
8.9651711933
 20
11.0877987134
 30
0.0
 10
8.965147362
 20
11.0879214242
 30
0.0
 10
8.9650814169
 20
11.0880522891
 30
0.0
 10
8.9649747954
 20
11.0881933944
 30
0.0
 10
8.9648274014
 20
11.0883457355
 30
0.0
 10
8.964639042
 20
11.0885094963
 30
0.0
 10
8.9644097553
 20
11.0886845329
 30
0.0
 10
8.9640281106
 20
11.088947455
 30
0.0
 10
8.9634482663
 20
11.089298259
 30
0.0
 10
8.9626312845
 20
11.0897392682
 30
0.0
 10
8.9616645463
 20
11.0902168377
 30
0.0
 10
8.960966692
 20
11.0905380114
 30
0.0
 10
8.9605944177
 20
11.0907046399
 30
0.0
  0
SPLINE
  5
3B1
100
AcDbEntity
  8
0
100
AcDbSpline
 62
7
  6
CONTINUOUS
 70
0
 71
3
 72
22
 73
18
 74
0
 42
0.0000001
 43
0.0000001
 44
0.0000000001
 40
0.0
 40
0.0
 40
0.0
 40
0.0
 40
0.008859301
 40
0.0180725574
 40
0.028072547
 40
0.0391978287
 40
0.0656783443
 40
0.0987243467
 40
0.1388096563
 40
0.1860860125
 40
0.2405044782
 40
0.3019028401
 40
0.3700183297
 40
0.4445220688
 40
0.6110451863
 40
0.7976908713
 40
1.0
 40
1.0
 40
1.0
 40
1.0
 10
8.8248755158
 20
11.1485168365
 30
0.0
 10
8.8248955011
 20
11.148561498
 30
0.0
 10
8.8249253451
 20
11.1486579349
 30
0.0
 10
8.8249352234
 20
11.1488138908
 30
0.0
 10
8.8249111639
 20
11.1489807203
 30
0.0
 10
8.824829985
 20
11.1492318207
 30
0.0
 10
8.8246343804
 20
11.1495734803
 30
0.0
 10
8.8242870171
 20
11.1500015206
 30
0.0
 10
8.8238141022
 20
11.1504704878
 30
0.0
 10
8.823217202
 20
11.1509780732
 30
0.0
 10
8.8224987563
 20
11.1515220132
 30
0.0
 10
8.8216624381
 20
11.1520990924
 30
0.0
 10
8.8207129012
 20
11.1527060766
 30
0.0
 10
8.8192479046
 20
11.1535833113
 30
0.0
 10
8.8171762217
 20
11.1547195877
 30
0.0
 10
8.814433336
 20
11.1560948359
 30
0.0
 10
8.8124839896
 20
11.1569982783
 30
0.0
 10
8.8114641515
 20
11.1574547538
 30
0.0
  0
SPLINE
  5
3B2
100
AcDbEntity
  8
0
100
AcDbSpline
 62
7
  6
CONTINUOUS
 70
0
 71
3
 72
25
 73
21
 74
0
 42
0.0000001
 43
0.0000001
 44
0.0000000001
 40
0.0
 40
0.0
 40
0.0
 40
0.0
 40
0.0077312556
 40
0.0162564458
 40
0.0261137644
 40
0.0376436813
 40
0.0510453656
 40
0.0664250112
 40
0.0838366304
 40
0.1032953886
 40
0.1482899186
 40
0.2011455489
 40
0.2613891608
 40
0.3283981373
 40
0.4014272032
 40
0.4796245446
 40
0.5620466911
 40
0.6476737554
 40
0.8241528086
 40
1.0
 40
1.0
 40
1.0
 40
1.0
 10
8.6557586297
 20
11.2217758581
 30
0.0
 10
8.6557898023
 20
11.2218454995
 30
0.0
 10
8.655830506
 20
11.2220039674
 30
0.0
 10
8.6558187213
 20
11.2222641266
 30
0.0
 10
8.6557404454
 20
11.2225505771
 30
0.0
 10
8.6555975139
 20
11.2228638962
 30
0.0
 10
8.6553905629
 20
11.2232044548
 30
0.0
 10
8.6551200449
 20
11.2235719507
 30
0.0
 10
8.6547864567
 20
11.2239655827
 30
0.0
 10
8.6542311147
 20
11.2245528114
 30
0.0
 10
8.6533793917
 20
11.2253387578
 30
0.0
 10
8.6521710299
 20
11.2263266651
 30
0.0
 10
8.6507446394
 20
11.2273881292
 30
0.0
 10
8.6491171589
 20
11.2285104047
 30
0.0
 10
8.6473081789
 20
11.2296797975
 30
0.0
 10
8.645340159
 20
11.2308818679
 30
0.0
 10
8.643237989
 20
11.232101591
 30
0.0
 10
8.6402623471
 20
11.2337471713
 30
0.0
 10
8.636420278
 20
11.2357292001
 30
0.0
 10
8.6332741317
 20
11.2372118978
 30
0.0
 10
8.6316901279
 20
11.2379208916
 30
0.0
  0
SPLINE
  5
3B3
100
AcDbEntity
  8
0
100
AcDbSpline
 62
7
  6
CONTINUOUS
 70
0
 71
3
 72
27
 73
23
 74
0
 42
0.0000001
 43
0.0000001
 44
0.0000000001
 40
0.0
 40
0.0
 40
0.0
 40
0.0
 40
0.0131157479
 40
0.0177738812
 40
0.0230687235
 40
0.0356405251
 40
0.0509101327
 40
0.0688702486
 40
0.0894681542
 40
0.1126229625
 40
0.1661716143
 40
0.2285064188
 40
0.2983984949
 40
0.3744409847
 40
0.4550785469
 40
0.5386300907
 40
0.6233205689
 40
0.7073128968
 40
0.7887530715
 40
0.865817177
 40
0.9367648557
 40
1.0
 40
1.0
 40
1.0
 40
1.0
 10
8.5091807349
 20
11.2851936827
 30
0.0
 10
8.5092532837
 20
11.2853557686
 30
0.0
 10
8.5091915973
 20
11.2856263639
 30
0.0
 10
8.5090630735
 20
11.2859057909
 30
0.0
 10
8.5089127805
 20
11.2861729769
 30
0.0
 10
8.5086539
 20
11.2865396551
 30
0.0
 10
8.5082558771
 20
11.2870160764
 30
0.0
 10
8.5077561718
 20
11.2875469247
 30
0.0
 10
8.5071571947
 20
11.2881298253
 30
0.0
 10
8.5061817114
 20
11.2890155636
 30
0.0
 10
8.5047344444
 20
11.2902206746
 30
0.0
 10
8.5027412088
 20
11.2917555359
 30
0.0
 10
8.5004562543
 20
11.2934086344
 30
0.0
 10
8.4979272712
 20
11.295145446
 30
0.0
 10
8.4952073847
 20
11.2969296165
 30
0.0
 10
8.4923547171
 20
11.2987236632
 30
0.0
 10
8.4894312761
 20
11.3004894293
 30
0.0
 10
8.4865017599
 20
11.3021888184
 30
0.0
 10
8.483632122
 20
11.3037845828
 30
0.0
 10
8.48088788
 20
11.3052413025
 30
0.0
 10
8.4783323293
 20
11.3065262943
 30
0.0
 10
8.4766878244
 20
11.3072993061
 30
0.0
 10
8.4759063572
 20
11.3076490877
 30
0.0
  0
SPLINE
  5
3B4
100
AcDbEntity
  8
0
100
AcDbSpline
 62
7
  6
CONTINUOUS
 70
0
 71
3
 72
18
 73
14
 74
0
 42
0.0000001
 43
0.0000001
 44
0.0000000001
 40
0.0
 40
0.0
 40
0.0
 40
0.0
 40
0.0092873458
 40
0.0160619063
 40
0.0245292905
 40
0.0468544578
 40
0.0765979366
 40
0.1585922979
 40
0.2704430972
 40
0.4115085878
 40
0.5808872319
 40
0.7774800916
 40
1.0
 40
1.0
 40
1.0
 40
1.0
 10
8.4297086155
 20
11.3195447216
 30
0.0
 10
8.4297144226
 20
11.3195577004
 30
0.0
 10
8.4297107108
 20
11.3195847001
 30
0.0
 10
8.4296964608
 20
11.3196188629
 30
0.0
 10
8.429668041
 20
11.3196692811
 30
0.0
 10
8.4296124181
 20
11.3197435321
 30
0.0
 10
8.4294769296
 20
11.3198979065
 30
0.0
 10
8.4292312377
 20
11.3201367554
 30
0.0
 10
8.4288485723
 20
11.320478049
 30
0.0
 10
8.4283536878
 20
11.3208942223
 30
0.0
 10
8.4277501262
 20
11.321382408
 30
0.0
 10
8.4270415301
 20
11.3219388962
 30
0.0
 10
8.4265325119
 20
11.3223295754
 30
0.0
 10
8.4262613726
 20
11.32253583
 30
0.0
  0
SPLINE
  5
3B5
100
AcDbEntity
  8
0
100
AcDbSpline
 62
7
  6
CONTINUOUS
 70
0
 71
3
 72
17
 73
13
 74
0
 42
0.0000001
 43
0.0000001
 44
0.0000000001
 40
0.0
 40
0.0
 40
0.0
 40
0.0
 40
0.0479693281
 40
0.1026313574
 40
0.2284571926
 40
0.3696775626
 40
0.51770714
 40
0.6635285811
 40
0.7980841937
 40
0.9127626116
 40
0.9602254974
 40
1.0
 40
1.0
 40
1.0
 40
1.0
 10
8.4262613726
 20
11.32253583
 30
0.0
 10
8.4257600448
 20
11.3229171882
 30
0.0
 10
8.4246810595
 20
11.323724727
 30
0.0
 10
8.4222594066
 20
11.3254953935
 30
0.0
 10
8.418814408
 20
11.3279406445
 30
0.0
 10
8.4143272445
 20
11.331034799
 30
0.0
 10
8.4095856205
 20
11.3342217455
 30
0.0
 10
8.4048819969
 20
11.3373077117
 30
0.0
 10
8.4005122513
 20
11.340103566
 30
0.0
 10
8.3972036503
 20
11.3421610505
 30
0.0
 10
8.394931812
 20
11.343528087
 30
0.0
 10
8.3939429723
 20
11.344106495
 30
0.0
 10
8.39348951
 20
11.3443656339
 30
0.0
  0
LINE
  5
3B6
100
AcDbEntity
  8
0
100
AcDbLine
 62
7
  6
CONTINUOUS
 10
8.39348951
 20
11.3443656339
 11
8.3914561206
 21
11.3454486776
  0
SPLINE
  5
3B7
100
AcDbEntity
  8
0
100
AcDbSpline
 62
7
  6
CONTINUOUS
 70
0
 71
3
 72
17
 73
13
 74
0
 42
0.0000001
 43
0.0000001
 44
0.0000000001
 40
0.0
 40
0.0
 40
0.0
 40
0.0
 40
0.0196516612
 40
0.0410006136
 40
0.0663223793
 40
0.0970176536
 40
0.1772591166
 40
0.2849010819
 40
0.4209180842
 40
0.5856157642
 40
0.7787937358
 40
1.0
 40
1.0
 40
1.0
 40
1.0
 10
9.1817138596
 20
11.0523595467
 30
0.0
 10
9.1817193545
 20
11.0523718365
 30
0.0
 10
9.181725767
 20
11.0524000671
 30
0.0
 10
9.1817182501
 20
11.052445706
 30
0.0
 10
9.1816954326
 20
11.0524940375
 30
0.0
 10
9.181640296
 20
11.0525697938
 30
0.0
 10
9.1815292786
 20
11.0526718388
 30
0.0
 10
9.1813489172
 20
11.0528012465
 30
0.0
 10
9.1811095408
 20
11.0529465028
 30
0.0
 10
9.1808116902
 20
11.05310714
 30
0.0
 10
9.180455848
 20
11.0532826479
 30
0.0
 10
9.1801978998
 20
11.0534012321
 30
0.0
 10
9.1800595865
 20
11.0534631406
 30
0.0
  0
SPLINE
  5
3B8
100
AcDbEntity
  8
0
100
AcDbSpline
 62
7
  6
CONTINUOUS
 70
0
 71
3
 72
19
 73
15
 74
0
 42
0.0000001
 43
0.0000001
 44
0.0000000001
 40
0.0
 40
0.0
 40
0.0
 40
0.0
 40
0.0191705803
 40
0.0404401644
 40
0.0661080836
 40
0.0974982577
 40
0.1353162287
 40
0.1799140623
 40
0.2314570887
 40
0.2900127326
 40
0.4279979532
 40
0.5932071528
 40
0.7844660905
 40
1.0
 40
1.0
 40
1.0
 40
1.0
 10
9.0853286789
 20
11.0946202903
 30
0.0
 10
9.0853469587
 20
11.0946611227
 30
0.0
 10
9.0853671831
 20
11.094756565
 30
0.0
 10
9.0853374792
 20
11.094910833
 30
0.0
 10
9.0852551902
 20
11.0950756282
 30
0.0
 10
9.085122087
 20
11.0952535216
 30
0.0
 10
9.0849379729
 20
11.0954455475
 30
0.0
 10
9.0847027666
 20
11.0956518904
 30
0.0
 10
9.0844166299
 20
11.0958723107
 30
0.0
 10
9.0839410091
 20
11.0962027053
 30
0.0
 10
9.0832196092
 20
11.096642436
 30
0.0
 10
9.0822053171
 20
11.0971931447
 30
0.0
 10
9.0810092032
 20
11.0977862709
 30
0.0
 10
9.0801469391
 20
11.0981836441
 30
0.0
 10
9.0796878488
 20
11.0983891311
 30
0.0
  0
SPLINE
  5
3B9
100
AcDbEntity
  8
0
100
AcDbSpline
 62
7
  6
CONTINUOUS
 70
0
 71
3
 72
20
 73
16
 74
0
 42
0.0000001
 43
0.0000001
 44
0.0000000001
 40
0.0
 40
0.0
 40
0.0
 40
0.0
 40
0.0091007618
 40
0.0185002841
 40
0.0396896458
 40
0.0660034938
 40
0.0986257463
 40
0.1381056258
 40
0.184644159
 40
0.2382666495
 40
0.2988640854
 40
0.4401578431
 40
0.6062761989
 40
0.7941307972
 40
1.0
 40
1.0
 40
1.0
 40
1.0
 10
8.9447614377
 20
11.1562392189
 30
0.0
 10
8.9447790146
 20
11.1562784945
 30
0.0
 10
8.9448056707
 20
11.1563627504
 30
0.0
 10
8.944820681
 20
11.1565512261
 30
0.0
 10
8.9447569419
 20
11.1568186316
 30
0.0
 10
8.9445739042
 20
11.1571528582
 30
0.0
 10
8.9442853948
 20
11.1575198205
 30
0.0
 10
8.9438906649
 20
11.1579194633
 30
0.0
 10
8.9433905959
 20
11.158351331
 30
0.0
 10
8.9427866932
 20
11.1588134306
 30
0.0
 10
8.941794353
 20
11.1595030181
 30
0.0
 10
8.9403106761
 20
11.1604143853
 30
0.0
 10
8.9382573266
 20
11.1615412698
 30
0.0
 10
8.9358899477
 20
11.1627265335
 30
0.0
 10
8.9342003877
 20
11.16350874
 30
0.0
 10
8.9333119531
 20
11.1639063998
 30
0.0
  0
SPLINE
  5
3BA
100
AcDbEntity
  8
0
100
AcDbSpline
 62
7
  6
CONTINUOUS
 70
0
 71
3
 72
24
 73
20
 74
0
 42
0.0000001
 43
0.0000001
 44
0.0000000001
 40
0.0
 40
0.0
 40
0.0
 40
0.0
 40
0.0084362168
 40
0.0173977461
 40
0.027356334
 40
0.0386521984
 40
0.0515136236
 40
0.0660854848
 40
0.1006531743
 40
0.1426963247
 40
0.1921933666
 40
0.2489322137
 40
0.3125710152
 40
0.3826571406
 40
0.4586515028
 40
0.5399407777
 40
0.6258409068
 40
0.8084357825
 40
1.0
 40
1.0
 40
1.0
 40
1.0
 10
8.7786802492
 20
11.2290206036
 30
0.0
 10
8.7787062285
 20
11.2290786431
 30
0.0
 10
8.7787434413
 20
11.2292063147
 30
0.0
 10
8.7787486253
 20
11.2294142861
 30
0.0
 10
8.7787057257
 20
11.2296393543
 30
0.0
 10
8.7786161278
 20
11.229881336
 30
0.0
 10
8.7784804242
 20
11.2301404907
 30
0.0
 10
8.7782232601
 20
11.2305314064
 30
0.0
 10
8.7777778928
 20
11.2310576827
 30
0.0
 10
8.77709528
 20
11.2317203302
 30
0.0
 10
8.7762402045
 20
11.2324412236
 30
0.0
 10
8.7752190884
 20
11.2332144832
 30
0.0
 10
8.7740396735
 20
11.2340336187
 30
0.0
 10
8.772711721
 20
11.2348916135
 30
0.0
 10
8.7712465093
 20
11.2357809872
 30
0.0
 10
8.7696568064
 20
11.2366938861
 30
0.0
 10
8.7673425615
 20
11.2379573854
 30
0.0
 10
8.7642504149
 20
11.2395288307
 30
0.0
 10
8.7616942825
 20
11.2407217864
 30
0.0
 10
8.7603763484
 20
11.2413116885
 30
0.0
  0
SPLINE
  5
3BB
100
AcDbEntity
  8
0
100
AcDbSpline
 62
7
  6
CONTINUOUS
 70
0
 71
3
 72
22
 73
18
 74
0
 42
0.0000001
 43
0.0000001
 44
0.0000000001
 40
0.0
 40
0.0
 40
0.0
 40
0.0
 40
0.0362063389
 40
0.0497850352
 40
0.0654202866
 40
0.0831508264
 40
0.1029834657
 40
0.1248989898
 40
0.1488589626
 40
0.2026940211
 40
0.263948429
 40
0.3319239447
 40
0.4057979081
 40
0.4846389133
 40
0.6530269221
 40
0.8280443779
 40
1.0
 40
1.0
 40
1.0
 40
1.0
 10
8.609144656
 20
11.3032903291
 30
0.0
 10
8.6092979017
 20
11.303632684
 30
0.0
 10
8.6090822005
 20
11.3042179848
 30
0.0
 10
8.6087280107
 20
11.3047774217
 30
0.0
 10
8.6084333049
 20
11.3051690957
 30
0.0
 10
8.6080735308
 20
11.3055855646
 30
0.0
 10
8.6076470177
 20
11.3060310474
 30
0.0
 10
8.6071558357
 20
11.3065024339
 30
0.0
 10
8.606385859
 20
11.307191348
 30
0.0
 10
8.6052691821
 20
11.3081024666
 30
0.0
 10
8.6037486592
 20
11.3092366386
 30
0.0
 10
8.602018877
 20
11.3104352334
 30
0.0
 10
8.6001024263
 20
11.3116824795
 30
0.0
 10
8.5972693474
 20
11.3134264398
 30
0.0
 10
8.5934672841
 20
11.315592483
 30
0.0
 10
8.588729595
 20
11.3180564006
 30
0.0
 10
8.585479623
 20
11.319594767
 30
0.0
 10
8.5838536529
 20
11.3203225448
 30
0.0
  0
SPLINE
  5
3BC
100
AcDbEntity
  8
0
100
AcDbSpline
 62
7
  6
CONTINUOUS
 70
0
 71
3
 72
28
 73
24
 74
0
 42
0.0000001
 43
0.0000001
 44
0.0000000001
 40
0.0
 40
0.0
 40
0.0
 40
0.0
 40
0.0062472319
 40
0.0098861138
 40
0.0139926943
 40
0.0238270048
 40
0.0360475659
 40
0.0507585691
 40
0.0679820859
 40
0.087690544
 40
0.1098280804
 40
0.161051727
 40
0.220838716
 40
0.2881614004
 40
0.3618240115
 40
0.4404882115
 40
0.5226924397
 40
0.6068778994
 40
0.6914131034
 40
0.7746313874
 40
0.8548659514
 40
0.9304982677
 40
1.0
 40
1.0
 40
1.0
 40
1.0
 10
8.4586764306
 20
11.3691844788
 30
0.0
 10
8.4587092011
 20
11.3692577117
 30
0.0
 10
8.4587290578
 20
11.3693884771
 30
0.0
 10
8.4587076841
 20
11.3695670183
 30
0.0
 10
8.4586492676
 20
11.3697859217
 30
0.0
 10
8.4585066761
 20
11.3700923482
 30
0.0
 10
8.4582515802
 20
11.3704905086
 30
0.0
 10
8.4579027949
 20
11.3709384181
 30
0.0
 10
8.4574616433
 20
11.3714340819
 30
0.0
 10
8.4569297799
 20
11.3719753573
 30
0.0
 10
8.4560593908
 20
11.3727948709
 30
0.0
 10
8.454758703
 20
11.3739063178
 30
0.0
 10
8.4529552636
 20
11.3753187355
 30
0.0
 10
8.4508732465
 20
11.3768404613
 30
0.0
 10
8.448551376
 20
11.378442903
 30
0.0
 10
8.4460331282
 20
11.3800957692
 30
0.0
 10
8.4433665506
 20
11.3817676249
 30
0.0
 10
8.4406034156
 20
11.3834262458
 30
0.0
 10
8.4377983434
 20
11.3850391912
 30
0.0
 10
8.4350077586
 20
11.3865744104
 30
0.0
 10
8.4322885742
 20
11.3880010258
 30
0.0
 10
8.4296968785
 20
11.3892900248
 30
0.0
 10
8.4280076879
 20
11.3900785787
 30
0.0
 10
8.427192991
 20
11.3904432338
 30
0.0
  0
SPLINE
  5
3BD
100
AcDbEntity
  8
0
100
AcDbSpline
 62
7
  6
CONTINUOUS
 70
0
 71
3
 72
17
 73
13
 74
0
 42
0.0000001
 43
0.0000001
 44
0.0000000001
 40
0.0
 40
0.0
 40
0.0
 40
0.0
 40
0.0406310818
 40
0.0680088097
 40
0.1012082929
 40
0.1406435594
 40
0.1865275759
 40
0.2979193087
 40
0.435537483
 40
0.5989400998
 40
0.7874113528
 40
1.0
 40
1.0
 40
1.0
 40
1.0
 10
8.3472678776
 20
11.4179590426
 30
0.0
 10
8.3472923776
 20
11.4180137471
 30
0.0
 10
8.3472887018
 20
11.4181224403
 30
0.0
 10
8.3472420195
 20
11.4182631405
 30
0.0
 10
8.3471775596
 20
11.41839671
 30
0.0
 10
8.3470866625
 20
11.4185461068
 30
0.0
 10
8.3469190516
 20
11.4187832838
 30
0.0
 10
8.3466397414
 20
11.4191175284
 30
0.0
 10
8.346221349
 20
11.4195595077
 30
0.0
 10
8.3457022658
 20
11.4200617755
 30
0.0
 10
8.3450854045
 20
11.4206212897
 30
0.0
 10
8.3446373009
 20
11.4210077228
 30
0.0
 10
8.3443978519
 20
11.4212102571
 30
0.0
  0
SPLINE
  5
3BE
100
AcDbEntity
  8
0
100
AcDbSpline
 62
7
  6
CONTINUOUS
 70
0
 71
3
 72
19
 73
15
 74
0
 42
0.0000001
 43
0.0000001
 44
0.0000000001
 40
0.0
 40
0.0
 40
0.0
 40
0.0
 40
0.0463988584
 40
0.0995538367
 40
0.1586622831
 40
0.2228354402
 40
0.3624619603
 40
0.5100462255
 40
0.6565485513
 40
0.7927335587
 40
0.8541655443
 40
0.9097775435
 40
0.9586563275
 40
1.0
 40
1.0
 40
1.0
 40
1.0
 10
8.3443978519
 20
11.4212102571
 30
0.0
 10
8.3439322364
 20
11.4216040911
 30
0.0
 10
8.3429177593
 20
11.4224308634
 30
0.0
 10
8.341268867
 20
11.4237077607
 30
0.0
 10
8.3394074738
 20
11.4250910509
 30
0.0
 10
8.3366000656
 20
11.4271059496
 30
0.0
 10
8.3327895718
 20
11.4297164958
 30
0.0
 10
8.328012398
 20
11.4328276235
 30
0.0
 10
8.3232058567
 20
11.4358081936
 30
0.0
 10
8.3193073052
 20
11.4381023391
 30
0.0
 10
8.3164020015
 20
11.4397263833
 30
0.0
 10
8.314480334
 20
11.4407577238
 30
0.0
 10
8.3127724278
 20
11.4416281062
 30
0.0
 10
8.3117010113
 20
11.4421369845
 30
0.0
 10
8.3112050314
 20
11.4423589832
 30
0.0
  0
LINE
  5
3BF
100
AcDbEntity
  8
0
100
AcDbLine
 62
7
  6
CONTINUOUS
 10
8.2897237894
 20
11.4431468706
 11
8.2870970634
 21
11.4453580855
  0
SPLINE
  5
3C0
100
AcDbEntity
  8
0
100
AcDbSpline
 62
7
  6
CONTINUOUS
 70
0
 71
3
 72
17
 73
13
 74
0
 42
0.0000001
 43
0.0000001
 44
0.0000000001
 40
0.0
 40
0.0
 40
0.0
 40
0.0
 40
0.0442812306
 40
0.096444544
 40
0.2204154106
 40
0.3630153775
 40
0.5143096408
 40
0.6638215737
 40
0.8010294272
 40
0.9159698842
 40
0.9623141165
 40
1.0
 40
1.0
 40
1.0
 40
1.0
 10
8.2870970634
 20
11.4453580855
 30
0.0
 10
8.2866131247
 20
11.4457225019
 30
0.0
 10
8.2855528706
 20
11.4465079208
 30
0.0
 10
8.2831118069
 20
11.4482783334
 30
0.0
 10
8.2795508631
 20
11.4507953284
 30
0.0
 10
8.2748465935
 20
11.4540436635
 30
0.0
 10
8.2698221173
 20
11.4574427513
 30
0.0
 10
8.2648290099
 20
11.4607561313
 30
0.0
 10
8.2602221688
 20
11.4637516363
 30
0.0
 10
8.2567749977
 20
11.465941196
 30
0.0
 10
8.2544584337
 20
11.4673706598
 30
0.0
 10
8.2534731938
 20
11.4679631143
 30
0.0
 10
8.2530286443
 20
11.4682242476
 30
0.0
  0
LINE
  5
3C1
100
AcDbEntity
  8
0
100
AcDbLine
 62
7
  6
CONTINUOUS
 10
8.2530286443
 20
11.4682242476
 11
8.2512975156
 21
11.4691733489
  0
LINE
  5
3C2
100
AcDbEntity
  8
0
100
AcDbLine
 62
7
  6
CONTINUOUS
 10
9.4030646518
 20
11.0181609799
 11
9.4024040402
 21
11.0186033822
  0
SPLINE
  5
3C3
100
AcDbEntity
  8
0
100
AcDbSpline
 62
7
  6
CONTINUOUS
 70
0
 71
3
 72
17
 73
13
 74
0
 42
0.0000001
 43
0.0000001
 44
0.0000000001
 40
0.0
 40
0.0
 40
0.0
 40
0.0
 40
0.0197253472
 40
0.0411981661
 40
0.0667029114
 40
0.0976311007
 40
0.1783928837
 40
0.2865457785
 40
0.4229237857
 40
0.5876136565
 40
0.7802476447
 40
1.0
 40
1.0
 40
1.0
 40
1.0
 10
9.3383006068
 20
11.0467180751
 30
0.0
 10
9.3383092871
 20
11.0467374664
 30
0.0
 10
9.3383194133
 20
11.0467820682
 30
0.0
 10
9.338307535
 20
11.0468542344
 30
0.0
 10
9.3382714457
 20
11.0469307673
 30
0.0
 10
9.3381843168
 20
11.047050798
 30
0.0
 10
9.3380091697
 20
11.0472125908
 30
0.0
 10
9.3377248398
 20
11.047417589
 30
0.0
 10
9.3373481313
 20
11.0476471909
 30
0.0
 10
9.3368804037
 20
11.0479003857
 30
0.0
 10
9.336323114
 20
11.048175882
 30
0.0
 10
9.3359195702
 20
11.0483615665
 30
0.0
 10
9.3357035357
 20
11.0484582626
 30
0.0
  0
SPLINE
  5
3C4
100
AcDbEntity
  8
0
100
AcDbSpline
 62
7
  6
CONTINUOUS
 70
0
 71
3
 72
19
 73
15
 74
0
 42
0.0000001
 43
0.0000001
 44
0.0000000001
 40
0.0
 40
0.0
 40
0.0
 40
0.0
 40
0.0193167095
 40
0.0407097984
 40
0.0664657794
 40
0.0979186709
 40
0.1357778714
 40
0.1803950673
 40
0.2319459364
 40
0.2904974126
 40
0.4284306011
 40
0.5935472968
 40
0.7846732247
 40
1.0
 40
1.0
 40
1.0
 40
1.0
 10
9.2352749259
 20
11.0921435603
 30
0.0
 10
9.2352934969
 20
11.0921850253
 30
0.0
 10
9.2353141741
 20
11.0922817819
 30
0.0
 10
9.2352847846
 20
11.0924382118
 30
0.0
 10
9.235202387
 20
11.0926053093
 30
0.0
 10
9.2350687066
 20
11.0927855336
 30
0.0
 10
9.2348836273
 20
11.0929799459
 30
0.0
 10
9.2346470758
 20
11.0931887449
 30
0.0
 10
9.2343591846
 20
11.0934116469
 30
0.0
 10
9.2338805838
 20
11.0937455584
 30
0.0
 10
9.2331544465
 20
11.0941896662
 30
0.0
 10
9.2321332414
 20
11.0947453587
 30
0.0
 10
9.2309289004
 20
11.0953433097
 30
0.0
 10
9.2300606212
 20
11.0957436109
 30
0.0
 10
9.229598356
 20
11.095950519
 30
0.0
  0
SPLINE
  5
3C5
100
AcDbEntity
  8
0
100
AcDbSpline
 62
7
  6
CONTINUOUS
 70
0
 71
3
 72
20
 73
16
 74
0
 42
0.0000001
 43
0.0000001
 44
0.0000000001
 40
0.0
 40
0.0
 40
0.0
 40
0.0
 40
0.009301211
 40
0.018852919
 40
0.0401522758
 40
0.0663159348
 40
0.0985774025
 40
0.1375363904
 40
0.1834537378
 40
0.2363948704
 40
0.2963192926
 40
0.4364994755
 40
0.602254884
 40
0.7911258068
 40
1.0
 40
1.0
 40
1.0
 40
1.0
 10
9.1010073363
 20
11.1513389471
 30
0.0
 10
9.101022566
 20
11.1513729784
 30
0.0
 10
9.1010459428
 20
11.151445599
 30
0.0
 10
9.1010609167
 20
11.1516069987
 30
0.0
 10
9.1010112136
 20
11.1518350844
 30
0.0
 10
9.1008612385
 20
11.1521195815
 30
0.0
 10
9.100622699
 20
11.1524302093
 30
0.0
 10
9.1002949275
 20
11.1527673953
 30
0.0
 10
9.0998783605
 20
11.1531309293
 30
0.0
 10
9.0993739696
 20
11.153519613
 30
0.0
 10
9.0985418635
 20
11.154100172
 30
0.0
 10
9.0972915811
 20
11.1548687876
 30
0.0
 10
9.0955518666
 20
11.1558223728
 30
0.0
 10
9.0935309262
 20
11.1568322875
 30
0.0
 10
9.0920836029
 20
11.1575015754
 30
0.0
 10
9.0913193935
 20
11.1578436325
 30
0.0
  0
SPLINE
  5
3C6
100
AcDbEntity
  8
0
100
AcDbSpline
 62
7
  6
CONTINUOUS
 70
0
 71
3
 72
22
 73
18
 74
0
 42
0.0000001
 43
0.0000001
 44
0.0000000001
 40
0.0
 40
0.0
 40
0.0
 40
0.0
 40
0.0088682052
 40
0.0181224607
 40
0.0281964639
 40
0.0394264073
 40
0.066191182
 40
0.0995944558
 40
0.1400828451
 40
0.1877831289
 40
0.2426199547
 40
0.304403661
 40
0.3728393859
 40
0.4475647196
 40
0.6140806046
 40
0.7998341857
 40
1.0
 40
1.0
 40
1.0
 40
1.0
 10
8.9446466106
 20
11.2202672575
 30
0.0
 10
8.9446680843
 20
11.2203152487
 30
0.0
 10
8.9447000515
 20
11.2204191246
 30
0.0
 10
8.9447102859
 20
11.2205873003
 30
0.0
 10
8.9446839627
 20
11.2207676244
 30
0.0
 10
8.9445958615
 20
11.2210397348
 30
0.0
 10
8.9443843831
 20
11.2214106774
 30
0.0
 10
8.9440093488
 20
11.2218763672
 30
0.0
 10
8.9434991087
 20
11.2223871341
 30
0.0
 10
8.9428555663
 20
11.2229401066
 30
0.0
 10
8.9420816201
 20
11.2235324531
 30
0.0
 10
8.9411815479
 20
11.2241602868
 30
0.0
 10
8.9401607566
 20
11.224819708
 30
0.0
 10
8.9385895378
 20
11.225769874
 30
0.0
 10
8.9363735576
 20
11.226995721
 30
0.0
 10
8.9334487074
 20
11.2284707938
 30
0.0
 10
8.9313732911
 20
11.2294348717
 30
0.0
 10
8.9302901311
 20
11.2299196898
 30
0.0
  0
SPLINE
  5
3C7
100
AcDbEntity
  8
0
100
AcDbSpline
 62
7
  6
CONTINUOUS
 70
0
 71
3
 72
24
 73
20
 74
0
 42
0.0000001
 43
0.0000001
 44
0.0000000001
 40
0.0
 40
0.0
 40
0.0
 40
0.0
 40
0.0083198079
 40
0.0172130198
 40
0.0271604681
 40
0.0385017566
 40
0.0514603937
 40
0.0661737516
 40
0.1011340774
 40
0.143675762
 40
0.1937349326
 40
0.2510555
 40
0.3152509904
 40
0.3858217765
 40
0.4621775419
 40
0.5436517689
 40
0.6295048162
 40
0.8110766852
 40
1.0
 40
1.0
 40
1.0
 40
1.0
 10
8.7768475096
 20
11.2942288638
 30
0.0
 10
8.7768746226
 20
11.2942894277
 30
0.0
 10
8.7769129682
 20
11.2944233777
 30
0.0
 10
8.7769160916
 20
11.2946419569
 30
0.0
 10
8.7768679601
 20
11.2948792832
 30
0.0
 10
8.7767700351
 20
11.2951352576
 30
0.0
 10
8.7766229157
 20
11.2954101499
 30
0.0
 10
8.776345106
 20
11.2958260238
 30
0.0
 10
8.7758660901
 20
11.2963869941
 30
0.0
 10
8.77513411
 20
11.2970947547
 30
0.0
 10
8.7742190544
 20
11.297865631
 30
0.0
 10
8.7731283915
 20
11.2986928049
 30
0.0
 10
8.7718710608
 20
11.2995687335
 30
0.0
 10
8.770458243
 20
11.3004853006
 30
0.0
 10
8.7689028266
 20
11.3014338834
 30
0.0
 10
8.767219355
 20
11.3024054292
 30
0.0
 10
8.7647795438
 20
11.3037439837
 30
0.0
 10
8.7615369629
 20
11.305399071
 30
0.0
 10
8.7588597524
 20
11.3066512453
 30
0.0
 10
8.7574844469
 20
11.3072668266
 30
0.0
  0
SPLINE
  5
3C8
100
AcDbEntity
  8
0
100
AcDbSpline
 62
7
  6
CONTINUOUS
 70
0
 71
3
 72
25
 73
21
 74
0
 42
0.0000001
 43
0.0000001
 44
0.0000000001
 40
0.0
 40
0.0
 40
0.0
 40
0.0
 40
0.0076360233
 40
0.0161038782
 40
0.0259437414
 40
0.0374930981
 40
0.0509417864
 40
0.0663929915
 40
0.0838951471
 40
0.1034576508
 40
0.1486922809
 40
0.2018078713
 40
0.2623089136
 40
0.3295542372
 40
0.4027801834
 40
0.4811153912
 40
0.5635973717
 40
0.6491871719
 40
0.8252199167
 40
1.0
 40
1.0
 40
1.0
 40
1.0
 10
8.6090448317
 20
11.3681824233
 30
0.0
 10
8.6090760487
 20
11.3682521451
 30
0.0
 10
8.6091162426
 20
11.3684115616
 30
0.0
 10
8.6091024808
 20
11.3686734755
 30
0.0
 10
8.6090213741
 20
11.3689627586
 30
0.0
 10
8.6088746365
 20
11.3692800254
 30
0.0
 10
8.6086630619
 20
11.3696257425
 30
0.0
 10
8.6083869543
 20
11.3699994603
 30
0.0
 10
8.6080469155
 20
11.3704003523
 30
0.0
 10
8.6074813905
 20
11.3709991424
 30
0.0
 10
8.6066151042
 20
11.3718015451
 30
0.0
 10
8.6053872681
 20
11.3728113202
 30
0.0
 10
8.6039390895
 20
11.3738968625
 30
0.0
 10
8.6022879755
 20
11.3750446674
 30
0.0
 10
8.6004540257
 20
11.3762402324
 30
0.0
 10
8.5984602853
 20
11.3774682898
 30
0.0
 10
8.5963322938
 20
11.3787129681
 30
0.0
 10
8.5933248512
 20
11.380388428
 30
0.0
 10
8.5894487616
 20
11.3823998257
 30
0.0
 10
8.5862747011
 20
11.3838996278
 30
0.0
 10
8.5846787627
 20
11.3846139635
 30
0.0
  0
SPLINE
  5
3C9
100
AcDbEntity
  8
0
100
AcDbSpline
 62
7
  6
CONTINUOUS
 70
0
 71
3
 72
26
 73
22
 74
0
 42
0.0000001
 43
0.0000001
 44
0.0000000001
 40
0.0
 40
0.0
 40
0.0
 40
0.0
 40
0.0067904548
 40
0.0147785412
 40
0.0245699536
 40
0.0364711001
 40
0.0506263809
 40
0.0670890636
 40
0.0858623106
 40
0.1069179672
 40
0.1556434602
 40
0.2126672411
 40
0.277182315
 40
0.3482235984
 40
0.4246891147
 40
0.5053604827
 40
0.5889192187
 40
0.6739696842
 40
0.8427251894
 40
0.9235151823
 40
1.0
 40
1.0
 40
1.0
 40
1.0
 10
8.4526742944
 20
11.4370887597
 30
0.0
 10
8.4527072176
 20
11.4371623392
 30
0.0
 10
8.4527421537
 20
11.4373396742
 30
0.0
 10
8.4526981614
 20
11.4376314567
 30
0.0
 10
8.4525703666
 20
11.4379617383
 30
0.0
 10
8.4523598246
 20
11.4383327232
 30
0.0
 10
8.4520670106
 20
11.4387446002
 30
0.0
 10
8.4516925615
 20
11.4391962929
 30
0.0
 10
8.4512376788
 20
11.4396861779
 30
0.0
 10
8.450488688
 20
11.4404241845
 30
0.0
 10
8.4493590413
 20
11.4414206646
 30
0.0
 10
8.4477795369
 20
11.4426825958
 30
0.0
 10
8.4459406071
 20
11.4440415572
 30
0.0
 10
8.4438716531
 20
11.4454753787
 30
0.0
 10
8.4416060155
 20
11.4469604379
 30
0.0
 10
8.4391810563
 20
11.4484720495
 30
0.0
 10
8.4366374852
 20
11.4499848172
 30
0.0
 10
8.4331552515
 20
11.4519632707
 30
0.0
 10
8.4296457796
 20
11.4538261881
 30
0.0
 10
8.4261722023
 20
11.455533584
 30
0.0
 10
8.4244782242
 20
11.4563190872
 30
0.0
 10
8.4236495003
 20
11.4566900207
 30
0.0
  0
SPLINE
  5
3CA
100
AcDbEntity
  8
0
100
AcDbSpline
 62
7
  6
CONTINUOUS
 70
0
 71
3
 72
18
 73
14
 74
0
 42
0.0000001
 43
0.0000001
 44
0.0000000001
 40
0.0
 40
0.0
 40
0.0
 40
0.0
 40
0.0212815267
 40
0.0456668248
 40
0.0746503673
 40
0.1090902781
 40
0.149454693
 40
0.1959983093
 40
0.3079674157
 40
0.4451334689
 40
0.6068966273
 40
0.7922786333
 40
1.0
 40
1.0
 40
1.0
 40
1.0
 10
8.3183932372
 20
11.4962541361
 30
0.0
 10
8.3184119934
 20
11.4962960588
 30
0.0
 10
8.3184351817
 20
11.4963940544
 30
0.0
 10
8.3184246898
 20
11.4965563385
 30
0.0
 10
8.3183737929
 20
11.4967398371
 30
0.0
 10
8.3182832556
 20
11.496945284
 30
0.0
 10
8.3181533605
 20
11.4971730672
 30
0.0
 10
8.3179124018
 20
11.4975286136
 30
0.0
 10
8.3175071358
 20
11.4980229249
 30
0.0
 10
8.3168970523
 20
11.4986669688
 30
0.0
 10
8.3161401166
 20
11.4993882471
 30
0.0
 10
8.3152422265
 20
11.5001807995
 30
0.0
 10
8.3145895947
 20
11.5007229919
 30
0.0
 10
8.3142414791
 20
11.5010054257
 30
0.0
  0
SPLINE
  5
3CB
100
AcDbEntity
  8
0
100
AcDbSpline
 62
7
  6
CONTINUOUS
 70
0
 71
3
 72
15
 73
11
 74
0
 42
0.0000001
 43
0.0000001
 44
0.0000000001
 40
0.0
 40
0.0
 40
0.0
 40
0.0
 40
0.1036685797
 40
0.2236740753
 40
0.3554162836
 40
0.4937258755
 40
0.6330312543
 40
0.7675694279
 40
0.8916507947
 40
1.0
 40
1.0
 40
1.0
 40
1.0
 10
8.3142414791
 20
11.5010054257
 30
0.0
 10
8.3133326107
 20
11.5017428103
 30
0.0
 10
8.3113250836
 20
11.5032763947
 30
0.0
 10
8.3080474134
 20
11.5055919287
 30
0.0
 10
8.3043755749
 20
11.5080239097
 30
0.0
 10
8.3004567676
 20
11.5104744964
 30
0.0
 10
8.2964514341
 20
11.5128435512
 30
0.0
 10
8.2925278178
 20
11.5150326003
 30
0.0
 10
8.2888542212
 20
11.5169490596
 30
0.0
 10
8.2864870182
 20
11.5180834021
 30
0.0
 10
8.2853705378
 20
11.5185831343
 30
0.0
  0
SPLINE
  5
3CC
100
AcDbEntity
  8
0
100
AcDbSpline
 62
7
  6
CONTINUOUS
 70
0
 71
3
 72
16
 73
12
 74
0
 42
0.0000001
 43
0.0000001
 44
0.0000000001
 40
0.0
 40
0.0
 40
0.0
 40
0.0
 40
0.0443548217
 40
0.0729478644
 40
0.1069536949
 40
0.1927804956
 40
0.3037121752
 40
0.4401659443
 40
0.6020117463
 40
0.7888367127
 40
1.0
 40
1.0
 40
1.0
 40
1.0
 10
8.2153540927
 20
11.5416495848
 30
0.0
 10
8.2153742138
 20
11.541694534
 30
0.0
 10
8.2153766932
 20
11.5417810402
 30
0.0
 10
8.2153466201
 20
11.5418954534
 30
0.0
 10
8.2152834054
 20
11.5420484039
 30
0.0
 10
8.2151493174
 20
11.542267875
 30
0.0
 10
8.21492447
 20
11.5425620529
 30
0.0
 10
8.2146238317
 20
11.5429031282
 30
0.0
 10
8.214248641
 20
11.54328978
 30
0.0
 10
8.2138000813
 20
11.543720233
 30
0.0
 10
8.2134729539
 20
11.5440173787
 30
0.0
 10
8.2132977761
 20
11.5441732054
 30
0.0
  0
SPLINE
  5
3CD
100
AcDbEntity
  8
0
100
AcDbSpline
 62
7
  6
CONTINUOUS
 70
0
 71
3
 72
19
 73
15
 74
0
 42
0.0000001
 43
0.0000001
 44
0.0000000001
 40
0.0
 40
0.0
 40
0.0
 40
0.0
 40
0.0421455289
 40
0.0919537525
 40
0.1486009163
 40
0.2111527321
 40
0.3497863548
 40
0.4987884254
 40
0.6482560267
 40
0.7879674917
 40
0.8510526326
 40
0.9080802883
 40
0.9580276956
 40
1.0
 40
1.0
 40
1.0
 40
1.0
 10
8.2132977761
 20
11.5441732054
 30
0.0
 10
8.2128721047
 20
11.5445518548
 30
0.0
 10
8.2119231944
 20
11.5453553058
 30
0.0
 10
8.2103515055
 20
11.5466065273
 30
0.0
 10
8.2085317194
 20
11.5479880323
 30
0.0
 10
8.205716972
 20
11.550043664
 30
0.0
 10
8.2018280764
 20
11.5527439069
 30
0.0
 10
8.1968933122
 20
11.5559944583
 30
0.0
 10
8.1918733012
 20
11.5591392556
 30
0.0
 10
8.1877787193
 20
11.5615713895
 30
0.0
 10
8.1847190821
 20
11.5632963062
 30
0.0
 10
8.18269688
 20
11.5643899484
 30
0.0
 10
8.1809051514
 20
11.5653087698
 30
0.0
 10
8.17978322
 20
11.5658435977
 30
0.0
 10
8.1792653581
 20
11.5660753906
 30
0.0
  0
SPLINE
  5
3CE
100
AcDbEntity
  8
0
100
AcDbSpline
 62
7
  6
CONTINUOUS
 70
0
 71
3
 72
18
 73
14
 74
0
 42
0.0000001
 43
0.0000001
 44
0.0000000001
 40
0.0
 40
0.0
 40
0.0
 40
0.0
 40
0.0106424856
 40
0.0267409518
 40
0.0496392929
 40
0.0797492693
 40
0.117217501
 40
0.162077679
 40
0.2738030175
 40
0.4144117265
 40
0.5830434588
 40
0.7786574846
 40
1.0
 40
1.0
 40
1.0
 40
1.0
 10
8.1505802476
 20
11.570184652
 30
0.0
 10
8.1505868824
 20
11.5701994684
 30
0.0
 10
8.1505847231
 20
11.5702433402
 30
0.0
 10
8.1505526423
 20
11.5703118879
 30
0.0
 10
8.1504943082
 20
11.5704002136
 30
0.0
 10
8.1504071928
 20
11.5705073298
 30
0.0
 10
8.1502915482
 20
11.5706341031
 30
0.0
 10
8.1500832038
 20
11.5708444445
 30
0.0
 10
8.1497498528
 20
11.5711519584
 30
0.0
 10
8.14926381
 20
11.5715716834
 30
0.0
 10
8.1486695558
 20
11.5720615965
 30
0.0
 10
8.1479709669
 20
11.5726183102
 30
0.0
 10
8.1474685045
 20
11.5730082886
 30
0.0
 10
8.147200769
 20
11.5732139975
 30
0.0
  0
SPLINE
  5
3CF
100
AcDbEntity
  8
0
100
AcDbSpline
 62
7
  6
CONTINUOUS
 70
0
 71
3
 72
18
 73
14
 74
0
 42
0.0000001
 43
0.0000001
 44
0.0000000001
 40
0.0
 40
0.0
 40
0.0
 40
0.0
 40
0.048934308
 40
0.1049729891
 40
0.2343852544
 40
0.3795272675
 40
0.5307930828
 40
0.6781143224
 40
0.8114471471
 40
0.8698866571
 40
0.9213981304
 40
0.9650357632
 40
1.0
 40
1.0
 40
1.0
 40
1.0
 10
8.147200769
 20
11.5732139975
 30
0.0
 10
8.1466793011
 20
11.5736146565
 30
0.0
 10
8.1455526273
 20
11.5744636989
 30
0.0
 10
8.1430129192
 20
11.5763269478
 30
0.0
 10
8.1393895472
 20
11.5788982398
 30
0.0
 10
8.1346743121
 20
11.5821409227
 30
0.0
 10
8.1297173802
 20
11.5854560415
 30
0.0
 10
8.124852229
 20
11.5886220393
 30
0.0
 10
8.1209992425
 20
11.5910556692
 30
0.0
 10
8.1182111743
 20
11.5927633242
 30
0.0
 10
8.1164392026
 20
11.5938219169
 30
0.0
 10
8.1149252685
 20
11.5946969139
 30
0.0
 10
8.1140000815
 20
11.5952069848
 30
0.0
 10
8.1135842785
 20
11.5954258221
 30
0.0
  0
LINE
  5
3D0
100
AcDbEntity
  8
0
100
AcDbLine
 62
7
  6
CONTINUOUS
 10
8.1135842785
 20
11.5954258221
 11
8.1125648536
 21
11.5959302711
  0
SPLINE
  5
3D1
100
AcDbEntity
  8
0
100
AcDbSpline
 62
7
  6
CONTINUOUS
 70
0
 71
3
 72
15
 73
11
 74
0
 42
0.0000001
 43
0.0000001
 44
0.0000000001
 40
0.0
 40
0.0
 40
0.0
 40
0.0
 40
0.124999448
 40
0.2499919442
 40
0.374992181
 40
0.5
 40
0.625007819
 40
0.7500080558
 40
0.875000552
 40
1.0
 40
1.0
 40
1.0
 40
1.0
 10
7.9440346474
 20
9.7232574296
 30
0.0
 10
7.9209043209
 20
9.7153345483
 30
0.0
 10
7.8751725918
 20
9.6978996077
 30
0.0
 10
7.8085069768
 20
9.6671875314
 30
0.0
 10
7.7440334294
 20
9.632097476
 30
0.0
 10
7.6820237387
 20
9.592814042
 30
0.0
 10
7.622744773
 20
9.5495197682
 30
0.0
 10
7.5664641869
 20
9.5023960383
 30
0.0
 10
7.5134533569
 20
9.4516280586
 30
0.0
 10
7.4804688921
 20
9.4154701648
 30
0.0
 10
7.4646190045
 20
9.3968539054
 30
0.0
  0
SPLINE
  5
3D2
100
AcDbEntity
  8
0
100
AcDbSpline
 62
7
  6
CONTINUOUS
 70
0
 71
3
 72
11
 73
7
 74
0
 42
0.0000001
 43
0.0000001
 44
0.0000000001
 40
0.0
 40
0.0
 40
0.0
 40
0.0
 40
0.2490188559
 40
0.4985066294
 40
0.7487417091
 40
1.0
 40
1.0
 40
1.0
 40
1.0
 10
13.1273983498
 20
8.7992200307
 30
0.0
 10
13.1257006284
 20
8.8742785793
 30
0.0
 10
13.1197771785
 20
9.0244919342
 30
0.0
 10
13.1033297772
 20
9.2496738612
 30
0.0
 10
13.079315582
 20
9.4748537052
 30
0.0
 10
13.0583111124
 20
9.6246174762
 30
0.0
 10
13.0465643207
 20
9.6994540863
 30
0.0
  0
SPLINE
  5
3D3
100
AcDbEntity
  8
0
100
AcDbSpline
 62
7
  6
CONTINUOUS
 70
0
 71
3
 72
11
 73
7
 74
0
 42
0.0000001
 43
0.0000001
 44
0.0000000001
 40
0.0
 40
0.0
 40
0.0
 40
0.0
 40
0.2510959403
 40
0.5013506714
 40
0.7509297301
 40
1.0
 40
1.0
 40
1.0
 40
1.0
 10
14.5995406208
 20
7.5957320745
 30
0.0
 10
14.590413956
 20
7.6538692706
 30
0.0
 10
14.5736650584
 20
7.7701859059
 30
0.0
 10
14.5530546583
 20
7.9449887671
 30
0.0
 10
14.5370041592
 20
8.1197925028
 30
0.0
 10
14.5293376694
 20
8.2364244535
 30
0.0
 10
14.5262672753
 20
8.2947181042
 30
0.0
  0
SPLINE
  5
3D4
100
AcDbEntity
  8
0
100
AcDbSpline
 62
7
  6
CONTINUOUS
 70
0
 71
3
 72
11
 73
7
 74
0
 42
0.0000001
 43
0.0000001
 44
0.0000000001
 40
0.0
 40
0.0
 40
0.0
 40
0.0
 40
0.2490188559
 40
0.4985066294
 40
0.7487417091
 40
1.0
 40
1.0
 40
1.0
 40
1.0
 10
14.5186864955
 20
8.7992200307
 30
0.0
 10
14.5203842169
 20
8.8742785793
 30
0.0
 10
14.5263076668
 20
9.0244919342
 30
0.0
 10
14.5427550681
 20
9.2496738612
 30
0.0
 10
14.5667692634
 20
9.4748537052
 30
0.0
 10
14.5877737329
 20
9.6246174762
 30
0.0
 10
14.5995205246
 20
9.6994540863
 30
0.0
  0
SPLINE
  5
3D5
100
AcDbEntity
  8
0
100
AcDbSpline
 62
7
  6
CONTINUOUS
 70
0
 71
3
 72
9
 73
5
 74
0
 42
0.0000001
 43
0.0000001
 44
0.0000000001
 40
0.0
 40
0.0
 40
0.0
 40
0.0
 40
0.4905404525
 40
1.0
 40
1.0
 40
1.0
 40
1.0
 10
9.6613266778
 20
10.952279253
 30
0.0
 10
9.6652911592
 20
10.9511310868
 30
0.0
 10
9.6735259275
 20
10.9492969074
 30
0.0
 10
9.6819087584
 20
10.9483966065
 30
0.0
 10
9.6861880891
 20
10.9481473984
 30
0.0
  0
LINE
  5
3D6
100
AcDbEntity
  8
0
100
AcDbLine
 62
7
  6
CONTINUOUS
 10
8.1125648536
 20
11.5959302711
 11
8.1117948247
 21
11.5961282179
  0
SPLINE
  5
3D7
100
AcDbEntity
  8
0
100
AcDbSpline
 62
7
  6
CONTINUOUS
 70
0
 71
3
 72
17
 73
13
 74
0
 42
0.0000001
 43
0.0000001
 44
0.0000000001
 40
0.0
 40
0.0
 40
0.0
 40
0.0
 40
0.2197523585
 40
0.4123863517
 40
0.5770762258
 40
0.7134542291
 40
0.8216071182
 40
0.9023688991
 40
0.9332970895
 40
0.9588018368
 40
0.9802746556
 40
1.0
 40
1.0
 40
1.0
 40
1.0
 10
8.1792653581
 20
11.5660753906
 30
0.0
 10
8.1790493236
 20
11.5661720868
 30
0.0
 10
8.1786420062
 20
11.5663493406
 30
0.0
 10
8.1780652847
 20
11.5665814232
 30
0.0
 10
8.1775648608
 20
11.5667615692
 30
0.0
 10
8.1771426681
 20
11.5668895522
 30
0.0
 10
8.1768003662
 20
11.5669650319
 30
0.0
 10
8.1765630228
 20
11.5669878683
 30
0.0
 10
8.1764154616
 20
11.5669728839
 30
0.0
 10
8.1763343425
 20
11.5669488131
 30
0.0
 10
8.1762726091
 20
11.5669095951
 30
0.0
 10
8.1762460919
 20
11.5668723299
 30
0.0
 10
8.176237413
 20
11.566852938
 30
0.0
  0
SPLINE
  5
3D8
100
AcDbEntity
  8
0
100
AcDbSpline
 62
7
  6
CONTINUOUS
 70
0
 71
3
 72
19
 73
15
 74
0
 42
0.0000001
 43
0.0000001
 44
0.0000000001
 40
0.0
 40
0.0
 40
0.0
 40
0.0
 40
0.2153267804
 40
0.4064527121
 40
0.5715694048
 40
0.7095025958
 40
0.7680540737
 40
0.8196049415
 40
0.8642221327
 40
0.902081327
 40
0.9335342153
 40
0.9592901992
 40
0.9806832919
 40
1.0
 40
1.0
 40
1.0
 40
1.0
 10
8.2853705378
 20
11.5185831343
 30
0.0
 10
8.2849082726
 20
11.5187900423
 30
0.0
 10
8.2840312954
 20
11.5191709109
 30
0.0
 10
8.2827830333
 20
11.5196707353
 30
0.0
 10
8.2816882904
 20
11.5200621327
 30
0.0
 10
8.2808733368
 20
11.520307811
 30
0.0
 10
8.2803054723
 20
11.5204422932
 30
0.0
 10
8.2799474456
 20
11.5205085016
 30
0.0
 10
8.2796341387
 20
11.520545817
 30
0.0
 10
8.2793658515
 20
11.5205543297
 30
0.0
 10
8.2791423871
 20
11.520533962
 30
0.0
 10
8.2789628764
 20
11.5204840936
 30
0.0
 10
8.2788266349
 20
11.5204017995
 30
0.0
 10
8.2787682507
 20
11.5203219204
 30
0.0
 10
8.2787496987
 20
11.5202804469
 30
0.0
  0
SPLINE
  5
3D9
100
AcDbEntity
  8
0
100
AcDbSpline
 62
7
  6
CONTINUOUS
 70
0
 71
3
 72
20
 73
16
 74
0
 42
0.0000001
 43
0.0000001
 44
0.0000000001
 40
0.0
 40
0.0
 40
0.0
 40
0.0
 40
0.2088741989
 40
0.397745121
 40
0.5635005335
 40
0.7036807101
 40
0.7636051247
 40
0.8165462579
 40
0.8624636123
 40
0.9014226025
 40
0.9336840651
 40
0.9598477177
 40
0.9811470774
 40
0.9906987878
 40
1.0
 40
1.0
 40
1.0
 40
1.0
 10
8.4236495003
 20
11.4566900207
 30
0.0
 10
8.4228852908
 20
11.4570320778
 30
0.0
 10
8.4214219543
 20
11.4576655897
 30
0.0
 10
8.419322446
 20
11.4584999714
 30
0.0
 10
8.4174522975
 20
11.4591621465
 30
0.0
 10
8.4160461514
 20
11.4595825378
 30
0.0
 10
8.4150588397
 20
11.4598163429
 30
0.0
 10
8.4144329459
 20
11.4599335701
 30
0.0
 10
8.4138843159
 20
11.4600020545
 30
0.0
 10
8.4134144905
 20
11.4600218698
 30
0.0
 10
8.4130239173
 20
11.4599928303
 30
0.0
 10
8.4127118327
 20
11.4599151493
 30
0.0
 10
8.412508619
 20
11.4598002681
 30
0.0
 10
8.4123982257
 20
11.4596815777
 30
0.0
 10
8.4123596401
 20
11.4596157646
 30
0.0
 10
8.412344406
 20
11.4595817352
 30
0.0
  0
SPLINE
  5
3DA
100
AcDbEntity
  8
0
100
AcDbSpline
 62
7
  6
CONTINUOUS
 70
0
 71
3
 72
22
 73
18
 74
0
 42
0.0000001
 43
0.0000001
 44
0.0000000001
 40
0.0
 40
0.0
 40
0.0
 40
0.0
 40
0.2001658192
 40
0.3859193998
 40
0.5524352846
 40
0.6271606086
 40
0.6955963348
 40
0.7573800489
 40
0.8122168699
 40
0.8599171436
 40
0.9004055369
 40
0.9338088192
 40
0.9605735926
 40
0.9718035335
 40
0.9818775356
 40
0.9911317927
 40
1.0
 40
1.0
 40
1.0
 40
1.0
 10
8.5846787627
 20
11.3846139635
 30
0.0
 10
8.5835956027
 20
11.3850987816
 30
0.0
 10
8.5814939872
 20
11.3860043265
 30
0.0
 10
8.5784453959
 20
11.3872029423
 30
0.0
 10
8.5760549158
 20
11.3880389287
 30
0.0
 10
8.5742995677
 20
11.3885777208
 30
0.0
 10
8.5731277415
 20
11.3888997064
 30
0.0
 10
8.5720598948
 20
11.3891527053
 30
0.0
 10
8.5711025379
 20
11.3893352833
 30
0.0
 10
8.5702614192
 20
11.3894468393
 30
0.0
 10
8.5695405815
 20
11.3894870978
 30
0.0
 10
8.5689434343
 20
11.3894565526
 30
0.0
 10
8.5685259073
 20
11.3893671504
 30
0.0
 10
8.5682642803
 20
11.3892515769
 30
0.0
 10
8.5681122618
 20
11.3891510778
 30
0.0
 10
8.5679936577
 20
11.3890314079
 30
0.0
 10
8.5679374854
 20
11.3889383662
 30
0.0
 10
8.567916
 20
11.3888903801
 30
0.0
  0
SPLINE
  5
3DB
100
AcDbEntity
  8
0
100
AcDbSpline
 62
7
  6
CONTINUOUS
 70
0
 71
3
 72
24
 73
20
 74
0
 42
0.0000001
 43
0.0000001
 44
0.0000000001
 40
0.0
 40
0.0
 40
0.0
 40
0.0
 40
0.1889233229
 40
0.3704951992
 40
0.4563482442
 40
0.5378224629
 40
0.6141782361
 40
0.6847490237
 40
0.748944501
 40
0.8062650728
 40
0.8563242509
 40
0.898865928
 40
0.9338262534
 40
0.948539615
 40
0.9614982534
 40
0.9728395399
 40
0.9827869845
 40
0.9916801932
 40
1.0
 40
1.0
 40
1.0
 40
1.0
 10
8.7574844469
 20
11.3072668266
 30
0.0
 10
8.7561091413
 20
11.3078824079
 30
0.0
 10
8.7533917588
 20
11.309044832
 30
0.0
 10
8.7499972466
 20
11.310360481
 30
0.0
 10
8.747373597
 20
11.3112883116
 30
0.0
 10
8.7455275224
 20
11.3118965766
 30
0.0
 10
8.7437838824
 20
11.3124246382
 30
0.0
 10
8.7421591172
 20
11.3128676813
 30
0.0
 10
8.7406682435
 20
11.3132218381
 30
0.0
 10
8.7393247628
 20
11.313484177
 30
0.0
 10
8.7381402559
 20
11.3136530566
 30
0.0
 10
8.7371247827
 20
11.3137274491
 30
0.0
 10
8.7363873055
 20
11.3137109762
 30
0.0
 10
8.7358920803
 20
11.3136411096
 30
0.0
 10
8.7355890612
 20
11.3135676976
 30
0.0
 10
8.7353329237
 20
11.3134702002
 30
0.0
 10
8.7351238655
 20
11.313347991
 30
0.0
 10
8.7349629343
 20
11.3132000459
 30
0.0
 10
8.7348885825
 20
11.3130822122
 30
0.0
 10
8.7348614776
 20
11.3130216447
 30
0.0
  0
SPLINE
  5
3DC
100
AcDbEntity
  8
0
100
AcDbSpline
 62
7
  6
CONTINUOUS
 70
0
 71
3
 72
25
 73
21
 74
0
 42
0.0000001
 43
0.0000001
 44
0.0000000001
 40
0.0
 40
0.0
 40
0.0
 40
0.0
 40
0.1747800944
 40
0.3508128505
 40
0.4364026437
 40
0.5188846335
 40
0.5972198411
 40
0.6704457769
 40
0.737691114
 40
0.7981921519
 40
0.8513077395
 40
0.8965423762
 40
0.9161048753
 40
0.9336070235
 40
0.949058223
 40
0.9625069098
 40
0.9740562648
 40
0.983896126
 40
0.9923639791
 40
1.0
 40
1.0
 40
1.0
 40
1.0
 10
8.9302901311
 20
11.2299196898
 30
0.0
 10
8.9286941925
 20
11.2306340255
 30
0.0
 10
8.9254611367
 20
11.2320020233
 30
0.0
 10
8.921378857
 20
11.2335527599
 30
0.0
 10
8.9181257984
 20
11.2346794755
 30
0.0
 10
8.9157798914
 20
11.2354372963
 30
0.0
 10
8.913535817
 20
11.236106068
 30
0.0
 10
8.9114224258
 20
11.2366773171
 30
0.0
 10
8.9094664569
 20
11.2371440281
 30
0.0
 10
8.907692116
 20
11.2375008727
 30
0.0
 10
8.9061210712
 20
11.2377438654
 30
0.0
 10
8.9049455422
 20
11.2378553711
 30
0.0
 10
8.9041222282
 20
11.2378782199
 30
0.0
 10
8.9035967199
 20
11.2378647433
 30
0.0
 10
8.903134068
 20
11.2378216913
 30
0.0
 10
8.9027352898
 20
11.2377491658
 30
0.0
 10
8.9024009229
 20
11.2376472395
 30
0.0
 10
8.9021311487
 20
11.2375150093
 30
0.0
 10
8.9019266504
 20
11.2373507878
 30
0.0
 10
8.9018345376
 20
11.2372146101
 30
0.0
 10
8.9018033369
 20
11.2371448809
 30
0.0
  0
SPLINE
  5
3DD
100
AcDbEntity
  8
0
100
AcDbSpline
 62
7
  6
CONTINUOUS
 70
0
 71
3
 72
26
 73
22
 74
0
 42
0.0000001
 43
0.0000001
 44
0.0000000001
 40
0.0
 40
0.0
 40
0.0
 40
0.0
 40
0.0764848245
 40
0.1572748216
 40
0.326030334
 40
0.4110808038
 40
0.4946395457
 40
0.575310904
 40
0.6517764359
 40
0.7228177114
 40
0.7873327937
 40
0.844356571
 40
0.8930820497
 40
0.9141377046
 40
0.9329109479
 40
0.949373627
 40
0.9635289024
 40
0.9754300473
 40
0.9852214575
 40
0.9932095442
 40
1.0
 40
1.0
 40
1.0
 40
1.0
 10
9.0913193935
 20
11.1578436325
 30
0.0
 10
9.0904906695
 20
11.1582145661
 30
0.0
 10
9.0887763424
 20
11.1589546067
 30
0.0
 10
9.0851889315
 20
11.160407681
 30
0.0
 10
9.0814616231
 20
11.1617839177
 30
0.0
 10
9.0776662959
 20
11.1630628714
 30
0.0
 10
9.0748435974
 20
11.1639520247
 30
0.0
 10
9.0721007792
 20
11.1647534896
 30
0.0
 10
9.0694839022
 20
11.1654538245
 30
0.0
 10
9.067036266
 20
11.1660416108
 30
0.0
 10
9.0647976993
 20
11.1665077204
 30
0.0
 10
9.0628043231
 20
11.1668449965
 30
0.0
 10
9.0613086066
 20
11.1670236185
 30
0.0
 10
9.0602592445
 20
11.1670905476
 30
0.0
 10
9.0595908588
 20
11.1671034331
 30
0.0
 10
9.0590045404
 20
11.1670817761
 30
0.0
 10
9.0585023004
 20
11.1670257621
 30
0.0
 10
9.0580853659
 20
11.1669356334
 30
0.0
 10
9.0577539124
 20
11.1668109095
 30
0.0
 10
9.0575069995
 20
11.1666493351
 30
0.0
 10
9.0573980205
 20
11.1665051413
 30
0.0
 10
9.0573650794
 20
11.1664315697
 30
0.0
  0
SPLINE
  5
3DE
100
AcDbEntity
  8
0
100
AcDbSpline
 62
7
  6
CONTINUOUS
 70
0
 71
3
 72
27
 73
23
 74
0
 42
0.0000001
 43
0.0000001
 44
0.0000000001
 40
0.0
 40
0.0
 40
0.0
 40
0.0
 40
0.0641648068
 40
0.1358212984
 40
0.213377783
 40
0.2951099399
 40
0.3792143756
 40
0.463864281
 40
0.5472537203
 40
0.627640428
 40
0.7033757321
 40
0.7729340824
 40
0.8349347268
 40
0.8881697595
 40
0.9111808438
 40
0.9316456221
 40
0.9494850139
 40
0.9646472578
 40
0.9771257432
 40
0.9823790341
 40
0.9869998619
 40
1.0
 40
1.0
 40
1.0
 40
1.0
 10
9.229598356
 20
11.095950519
 30
0.0
 10
9.2288110089
 20
11.0963029324
 30
0.0
 10
9.2271303878
 20
11.0970177292
 30
0.0
 10
9.2244609856
 20
11.0980687413
 30
0.0
 10
9.2215468192
 20
11.0991405577
 30
0.0
 10
9.2184536892
 20
11.1002085659
 30
0.0
 10
9.2152506175
 20
11.10124855
 30
0.0
 10
9.2120080777
 20
11.102237342
 30
0.0
 10
9.2087961631
 20
11.1031533508
 30
0.0
 10
9.2056831237
 20
11.1039770092
 30
0.0
 10
9.2027341013
 20
11.1046910976
 30
0.0
 10
9.2000101086
 20
11.105281173
 30
0.0
 10
9.1975672738
 20
11.1057353937
 30
0.0
 10
9.1957277879
 20
11.1060063004
 30
0.0
 10
9.1944344502
 20
11.1061411407
 30
0.0
 10
9.1936119207
 20
11.1061985242
 30
0.0
 10
9.1928931432
 20
11.1062173859
 30
0.0
 10
9.1922813851
 20
11.1061974386
 30
0.0
 10
9.1918418094
 20
11.106147384
 30
0.0
 10
9.191546741
 20
11.1060827545
 30
0.0
 10
9.1912571632
 20
11.1059942591
 30
0.0
 10
9.1910178047
 20
11.1058623306
 30
0.0
 10
9.1909463776
 20
11.1057028215
 30
0.0
  0
SPLINE
  5
3DF
100
AcDbEntity
  8
0
100
AcDbSpline
 62
7
  6
CONTINUOUS
 70
0
 71
3
 72
18
 73
14
 74
0
 42
0.0000001
 43
0.0000001
 44
0.0000000001
 40
0.0
 40
0.0
 40
0.0
 40
0.0
 40
0.0406989372
 40
0.0886914146
 40
0.1432302686
 40
0.2034752447
 40
0.3372505799
 40
0.4818305543
 40
0.6285995659
 40
0.7690583272
 40
0.8952320009
 40
0.9506963216
 40
1.0
 40
1.0
 40
1.0
 40
1.0
 10
9.3357035357
 20
11.0484582626
 30
0.0
 10
9.3352255715
 20
11.0486721975
 30
0.0
 10
9.3341736048
 20
11.0491151962
 30
0.0
 10
9.3324558277
 20
11.0497830219
 30
0.0
 10
9.3304879942
 20
11.0505004111
 30
0.0
 10
9.3274649261
 20
11.0515443276
 30
0.0
 10
9.3233160658
 20
11.0528755199
 30
0.0
 10
9.3180707231
 20
11.0544281314
 30
0.0
 10
9.3127105599
 20
11.0558916415
 30
0.0
 10
9.3075492331
 20
11.0571791888
 30
0.0
 10
9.3035034377
 20
11.0580806827
 30
0.0
 10
9.3005868846
 20
11.058649942
 30
0.0
 10
9.2992585012
 20
11.058880107
 30
0.0
 10
9.2986319177
 20
11.0589792092
 30
0.0
  0
SPLINE
  5
3E0
100
AcDbEntity
  8
0
100
AcDbSpline
 62
7
  6
CONTINUOUS
 70
0
 71
3
 72
18
 73
14
 74
0
 42
0.0000001
 43
0.0000001
 44
0.0000000001
 40
0.0
 40
0.0
 40
0.0
 40
0.0
 40
0.2135092452
 40
0.4031460112
 40
0.5677060911
 40
0.7062270683
 40
0.7655020208
 40
0.8180546098
 40
0.8638767839
 40
0.903024223
 40
0.9356710167
 40
0.9621766916
 40
1.0
 40
1.0
 40
1.0
 40
1.0
 10
9.2986319177
 20
11.0589792092
 30
0.0
 10
9.2982605639
 20
11.0590379436
 30
0.0
 10
9.297558371
 20
11.0591426567
 30
0.0
 10
9.2965663882
 20
11.0592674006
 30
0.0
 10
9.2957025703
 20
11.0593500766
 30
0.0
 10
9.2950651909
 20
11.0593857061
 30
0.0
 10
9.2946242805
 20
11.0593898586
 30
0.0
 10
9.2943467265
 20
11.0593820427
 30
0.0
 10
9.2941050757
 20
11.0593634689
 30
0.0
 10
9.293900048
 20
11.0593345048
 30
0.0
 10
9.2937306048
 20
11.0592943405
 30
0.0
 10
9.2935722984
 20
11.0592353097
 30
0.0
 10
9.2934724398
 20
11.0591610721
 30
0.0
 10
9.2934452321
 20
11.0591002795
 30
0.0
  0
LINE
  5
3E1
100
AcDbEntity
  8
0
100
AcDbLine
 62
7
  6
CONTINUOUS
 10
9.4024040402
 20
11.0186033822
 11
9.4013486858
 21
11.0190275951
  0
SPLINE
  5
3E2
100
AcDbEntity
  8
0
100
AcDbSpline
 62
7
  6
CONTINUOUS
 70
0
 71
3
 72
19
 73
15
 74
0
 42
0.0000001
 43
0.0000001
 44
0.0000000001
 40
0.0
 40
0.0
 40
0.0
 40
0.0
 40
0.0361027447
 40
0.0816440405
 40
0.135668225
 40
0.19704286
 40
0.3366628574
 40
0.4893255107
 40
0.6432142728
 40
0.7866614054
 40
0.8510179674
 40
0.908768578
 40
0.9587675218
 40
1.0
 40
1.0
 40
1.0
 40
1.0
 10
9.4013486858
 20
11.0190275951
 30
0.0
 10
9.4008736341
 20
11.0192049103
 30
0.0
 10
9.3997910659
 20
11.0195836202
 30
0.0
 10
9.3979797431
 20
11.0201753174
 30
0.0
 10
9.3958208631
 20
11.0208454233
 30
0.0
 10
9.3923883626
 20
11.021868774
 30
0.0
 10
9.3876085722
 20
11.0232209873
 30
0.0
 10
9.3815552366
 20
11.0248422061
 30
0.0
 10
9.375428626
 20
11.0263954454
 30
0.0
 10
9.3704869751
 20
11.0275739635
 30
0.0
 10
9.3668473235
 20
11.0283889265
 30
0.0
 10
9.3644828593
 20
11.0288915952
 30
0.0
 10
9.3624303528
 20
11.029298843
 30
0.0
 10
9.3611690173
 20
11.0295252757
 30
0.0
 10
9.3605974584
 20
11.0296185035
 30
0.0
  0
SPLINE
  5
3E3
100
AcDbEntity
  8
0
100
AcDbSpline
 62
7
  6
CONTINUOUS
 70
0
 71
3
 72
16
 73
12
 74
0
 42
0.0000001
 43
0.0000001
 44
0.0000000001
 40
0.0
 40
0.0
 40
0.0
 40
0.0
 40
0.4162533722
 40
0.5835001688
 40
0.7226837455
 40
0.8334285262
 40
0.8780847855
 40
0.9156384901
 40
0.946201557
 40
0.9700162855
 40
1.0
 40
1.0
 40
1.0
 40
1.0
 10
9.3605974584
 20
11.0296185035
 30
0.0
 10
9.3602200449
 20
11.029680064
 30
0.0
 10
9.3596900232
 20
11.029761112
 30
0.0
 10
9.3590308076
 20
11.0298404055
 30
0.0
 10
9.3586490665
 20
11.0298752059
 30
0.0
 10
9.3583786817
 20
11.0298887782
 30
0.0
 10
9.3582012545
 20
11.0298876037
 30
0.0
 10
9.3580980172
 20
11.0298818416
 30
0.0
 10
9.3580134339
 20
11.0298708525
 30
0.0
 10
9.3579400432
 20
11.0298532349
 30
0.0
 10
9.35788917
 20
11.0298281596
 30
0.0
 10
9.3578779211
 20
11.029803016
 30
0.0
  0
LINE
  5
3E4
100
AcDbEntity
  8
0
100
AcDbLine
 62
7
  6
CONTINUOUS
 10
8.2512975156
 20
11.4691733489
 11
8.2510089459
 21
11.4692481546
  0
SPLINE
  5
3E5
100
AcDbEntity
  8
0
100
AcDbSpline
 62
7
  6
CONTINUOUS
 70
0
 71
3
 72
17
 73
13
 74
0
 42
0.0000001
 43
0.0000001
 44
0.0000000001
 40
0.0
 40
0.0
 40
0.0
 40
0.0
 40
0.219893006
 40
0.4126554959
 40
0.5774542024
 40
0.7139270838
 40
0.8221279112
 40
0.9028698085
 40
0.9337378847
 40
0.9591377557
 40
0.9804623757
 40
1.0
 40
1.0
 40
1.0
 40
1.0
 10
8.3112050314
 20
11.4423589832
 30
0.0
 10
8.3109866335
 20
11.4424567372
 30
0.0
 10
8.3105748778
 20
11.4426359818
 30
0.0
 10
8.3099919447
 20
11.4428708651
 30
0.0
 10
8.3094861885
 20
11.4430534176
 30
0.0
 10
8.3090595867
 20
11.4431834282
 30
0.0
 10
8.3087138105
 20
11.4432604893
 30
0.0
 10
8.3084741748
 20
11.4432844367
 30
0.0
 10
8.3083252249
 20
11.4432700727
 30
0.0
 10
8.3082434732
 20
11.4432463045
 30
0.0
 10
8.3081812815
 20
11.4432073002
 30
0.0
 10
8.3081545885
 20
11.4431700112
 30
0.0
 10
8.3081458991
 20
11.4431506082
 30
0.0
  0
SPLINE
  5
3E6
100
AcDbEntity
  8
0
100
AcDbSpline
 62
7
  6
CONTINUOUS
 70
0
 71
3
 72
19
 73
15
 74
0
 42
0.0000001
 43
0.0000001
 44
0.0000000001
 40
0.0
 40
0.0
 40
0.0
 40
0.0
 40
0.2130691409
 40
0.4034716374
 40
0.5689289351
 40
0.7077792406
 40
0.7668545685
 40
0.8189324807
 40
0.8640221628
 40
0.9022592711
 40
0.9339635632
 40
0.9597875868
 40
0.9810321413
 40
1.0
 40
1.0
 40
1.0
 40
1.0
 10
8.427192991
 20
11.3904432338
 30
0.0
 10
8.4266112459
 20
11.3907036207
 30
0.0
 10
8.425503949
 20
11.3911841532
 30
0.0
 10
8.4239234483
 20
11.3918161569
 30
0.0
 10
8.4225295324
 20
11.3923141298
 30
0.0
 10
8.4214881975
 20
11.3926287711
 30
0.0
 10
8.4207605974
 20
11.3928025464
 30
0.0
 10
8.4203010736
 20
11.3928890991
 30
0.0
 10
8.4198987759
 20
11.3929390596
 30
0.0
 10
8.4195543923
 20
11.3929524774
 30
0.0
 10
8.4192678846
 20
11.3929294471
 30
0.0
 10
8.4190382865
 20
11.392869139
 30
0.0
 10
8.4188644075
 20
11.3927680065
 30
0.0
 10
8.4187899921
 20
11.3926681588
 30
0.0
 10
8.4187668208
 20
11.3926163667
 30
0.0
  0
SPLINE
  5
3E7
100
AcDbEntity
  8
0
100
AcDbSpline
 62
7
  6
CONTINUOUS
 70
0
 71
3
 72
22
 73
18
 74
0
 42
0.0000001
 43
0.0000001
 44
0.0000000001
 40
0.0
 40
0.0
 40
0.0
 40
0.0
 40
0.2020634923
 40
0.3885416946
 40
0.5549639565
 40
0.6294404351
 40
0.6975433432
 40
0.758945041
 40
0.8133829463
 40
0.8606965758
 40
0.9008388415
 40
0.9339632966
 40
0.9605468424
 40
0.9717323444
 40
0.9817967385
 40
0.9910765571
 40
1.0
 40
1.0
 40
1.0
 40
1.0
 10
8.5838536529
 20
11.3203225448
 30
0.0
 10
8.582830062
 20
11.3207807
 30
0.0
 10
8.5808498002
 20
11.3216352461
 30
0.0
 10
8.5779843574
 20
11.3227661797
 30
0.0
 10
8.5757459869
 20
11.3235535141
 30
0.0
 10
8.5741073013
 20
11.3240599236
 30
0.0
 10
8.5730160437
 20
11.3243619789
 30
0.0
 10
8.5720228194
 20
11.3245990979
 30
0.0
 10
8.5711332034
 20
11.3247700167
 30
0.0
 10
8.5703521036
 20
11.3248742139
 30
0.0
 10
8.569682889
 20
11.324911443
 30
0.0
 10
8.5691283658
 20
11.3248821256
 30
0.0
 10
8.568740534
 20
11.3247974667
 30
0.0
 10
8.5684974155
 20
11.3246884265
 30
0.0
 10
8.5683558238
 20
11.3245935564
 30
0.0
 10
8.5682451255
 20
11.3244806727
 30
0.0
 10
8.5681925321
 20
11.3243930912
 30
0.0
 10
8.5681722937
 20
11.3243478903
 30
0.0
  0
SPLINE
  5
3E8
100
AcDbEntity
  8
0
100
AcDbSpline
 62
7
  6
CONTINUOUS
 70
0
 71
3
 72
24
 73
20
 74
0
 42
0.0000001
 43
0.0000001
 44
0.0000000001
 40
0.0
 40
0.0
 40
0.0
 40
0.0
 40
0.1862166496
 40
0.3667705069
 40
0.4525965624
 40
0.534285945
 40
0.6110403248
 40
0.6821311187
 40
0.7469148672
 40
0.8048426333
 40
0.8554749963
 40
0.8985124631
 40
0.933848639
 40
0.9486879733
 40
0.9617261473
 40
0.9730933482
 40
0.9830077221
 40
0.9918122057
 40
1.0
 40
1.0
 40
1.0
 40
1.0
 10
8.7603763484
 20
11.2413116885
 30
0.0
 10
8.7589471043
 20
11.2419514125
 30
0.0
 10
8.7561102913
 20
11.2431632876
 30
0.0
 10
8.7525599291
 20
11.2445367359
 30
0.0
 10
8.7497999983
 20
11.2455116891
 30
0.0
 10
8.7478489178
 20
11.2461544268
 30
0.0
 10
8.7460016457
 20
11.2467146227
 30
0.0
 10
8.7442768339
 20
11.247186653
 30
0.0
 10
8.7426915811
 20
11.2475660336
 30
0.0
 10
8.7412612966
 20
11.2478493239
 30
0.0
 10
8.7399992475
 20
11.2480344143
 30
0.0
 10
8.7389170134
 20
11.2481199873
 30
0.0
 10
8.7381310446
 20
11.248109017
 30
0.0
 10
8.7376033266
 20
11.248040333
 30
0.0
 10
8.7372810221
 20
11.2479665178
 30
0.0
 10
8.7370089827
 20
11.2478673479
 30
0.0
 10
8.7367874464
 20
11.2477420605
 30
0.0
 10
8.7366174083
 20
11.247589583
 30
0.0
 10
8.7365392679
 20
11.247467256
 30
0.0
 10
8.7365111473
 20
11.2474044099
 30
0.0
  0
SPLINE
  5
3E9
100
AcDbEntity
  8
0
100
AcDbSpline
 62
7
  6
CONTINUOUS
 70
0
 71
3
 72
25
 73
21
 74
0
 42
0.0000001
 43
0.0000001
 44
0.0000000001
 40
0.0
 40
0.0
 40
0.0
 40
0.0
 40
0.1645034677
 40
0.3363196702
 40
0.421619223
 40
0.5047533603
 40
0.5844703956
 40
0.6595967981
 40
0.7290582951
 40
0.7918935727
 40
0.8472737585
 40
0.8945245332
 40
0.9149474534
 40
0.9331804159
 40
0.9492120212
 40
0.9630657514
 40
0.9748158334
 40
0.9846299604
 40
0.9928308107
 40
1.0
 40
1.0
 40
1.0
 40
1.0
 10
8.9333119531
 20
11.1639063998
 30
0.0
 10
8.9316343491
 20
11.1646572886
 30
0.0
 10
8.928167924
 20
11.1661111773
 30
0.0
 10
8.9237555579
 20
11.167764301
 30
0.0
 10
8.9201582733
 20
11.1689944464
 30
0.0
 10
8.9175170439
 20
11.1698383647
 30
0.0
 10
8.9149671523
 20
11.1705927042
 30
0.0
 10
8.912547357
 20
11.1712459433
 30
0.0
 10
8.9102938683
 20
11.1717883718
 30
0.0
 10
8.9082397782
 20
11.1722123612
 30
0.0
 10
8.9064149369
 20
11.1725120192
 30
0.0
 10
8.905047199
 20
11.1726626288
 30
0.0
 10
8.904088259
 20
11.1727101397
 30
0.0
 10
8.9034769445
 20
11.1727108645
 30
0.0
 10
8.9029398618
 20
11.1726786951
 30
0.0
 10
8.9024785569
 20
11.1726138443
 30
0.0
 10
8.9020939472
 20
11.1725163693
 30
0.0
 10
8.9017861321
 20
11.1723857128
 30
0.0
 10
8.9015550978
 20
11.1722195526
 30
0.0
 10
8.9014524707
 20
11.1720764291
 30
0.0
 10
8.9014197375
 20
11.1720033218
 30
0.0
  0
SPLINE
  5
3EA
100
AcDbEntity
  8
0
100
AcDbSpline
 62
7
  6
CONTINUOUS
 70
0
 71
3
 72
27
 73
23
 74
0
 42
0.0000001
 43
0.0000001
 44
0.0000000001
 40
0.0
 40
0.0
 40
0.0
 40
0.0
 40
0.0640042041
 40
0.1355356684
 40
0.2130044388
 40
0.2946822873
 40
0.378762998
 40
0.4634148795
 40
0.5468263746
 40
0.6272494019
 40
0.7030296798
 40
0.7726370732
 40
0.8346873287
 40
0.8879706671
 40
0.9110050863
 40
0.9314930987
 40
0.9493553102
 40
0.9645404915
 40
0.9770425016
 40
0.9823084279
 40
0.9869416159
 40
1.0
 40
1.0
 40
1.0
 40
1.0
 10
9.0796878488
 20
11.0983891311
 30
0.0
 10
9.0789014763
 20
11.0987411083
 30
0.0
 10
9.0772223705
 20
11.0994555445
 30
0.0
 10
9.0745546803
 20
11.100507104
 30
0.0
 10
9.0716408498
 20
11.1015808135
 30
0.0
 10
9.0685467327
 20
11.1026518317
 30
0.0
 10
9.0653414939
 20
11.1036956468
 30
0.0
 10
9.0620957711
 20
11.1046887478
 30
0.0
 10
9.0588798688
 20
11.1056091787
 30
0.0
 10
9.0557622721
 20
11.106437021
 30
0.0
 10
9.0528083605
 20
11.1071547348
 30
0.0
 10
9.050079378
 20
11.1077476293
 30
0.0
 10
9.0476316596
 20
11.1082036814
 30
0.0
 10
9.0457882264
 20
11.1084752641
 30
0.0
 10
9.0444919363
 20
11.1086100352
 30
0.0
 10
9.0436673991
 20
11.108667128
 30
0.0
 10
9.042946762
 20
11.1086854477
 30
0.0
 10
9.0423333146
 20
11.1086647565
 30
0.0
 10
9.0418924583
 20
11.1086138534
 30
0.0
 10
9.0415964972
 20
11.1085484857
 30
0.0
 10
9.0413056427
 20
11.1084589244
 30
0.0
 10
9.041065564
 20
11.1083257362
 30
0.0
 10
9.0409937617
 20
11.1081652932
 30
0.0
  0
SPLINE
  5
3EB
100
AcDbEntity
  8
0
100
AcDbSpline
 62
7
  6
CONTINUOUS
 70
0
 71
3
 72
20
 73
16
 74
0
 42
0.0000001
 43
0.0000001
 44
0.0000000001
 40
0.0
 40
0.0
 40
0.0
 40
0.0
 40
0.0355553195
 40
0.0800077338
 40
0.1325263334
 40
0.1921150602
 40
0.2576404698
 40
0.3278700971
 40
0.4771863051
 40
0.6293113733
 40
0.7735973782
 40
0.839650254
 40
0.9000898508
 40
0.9538577111
 40
1.0
 40
1.0
 40
1.0
 40
1.0
 10
9.1800595865
 20
11.0534631406
 30
0.0
 10
9.1796160231
 20
11.0536616778
 30
0.0
 10
9.178604521
 20
11.0540783498
 30
0.0
 10
9.1769088847
 20
11.0547157523
 30
0.0
 10
9.1748894868
 20
11.0554240413
 30
0.0
 10
9.1725851753
 20
11.0561889776
 30
0.0
 10
9.170039781
 20
11.0569952116
 30
0.0
 10
9.1663114962
 20
11.0581274294
 30
0.0
 10
9.1614270016
 20
11.0595245536
 30
0.0
 10
9.1555380133
 20
11.0610861799
 30
0.0
 10
9.1507240396
 20
11.062258348
 30
0.0
 10
9.1471119602
 20
11.0630651495
 30
0.0
 10
9.1446997278
 20
11.063567108
 30
0.0
 10
9.1425463698
 20
11.0639756333
 30
0.0
 10
9.1411991157
 20
11.0641998184
 30
0.0
 10
9.1405752865
 20
11.0642924623
 30
0.0
  0
SPLINE
  5
3EC
100
AcDbEntity
  8
0
100
AcDbSpline
 62
7
  6
CONTINUOUS
 70
0
 71
3
 72
17
 73
13
 74
0
 42
0.0000001
 43
0.0000001
 44
0.0000000001
 40
0.0
 40
0.0
 40
0.0
 40
0.0
 40
0.2159985549
 40
0.4069812964
 40
0.572021799
 40
0.7104094069
 40
0.8216497283
 40
0.8670762608
 40
0.9057676975
 40
0.9378818583
 40
0.9637692101
 40
1.0
 40
1.0
 40
1.0
 40
1.0
 10
9.1405752865
 20
11.0642924623
 30
0.0
 10
9.1402944413
 20
11.0643341701
 30
0.0
 10
9.139764622
 20
11.0644084879
 30
0.0
 10
9.1390178864
 20
11.0644970963
 30
0.0
 10
9.138370541
 20
11.0645559303
 30
0.0
 10
9.1378260952
 20
11.0645848084
 30
0.0
 10
9.1374379051
 20
11.0645846538
 30
0.0
 10
9.1371815711
 20
11.0645662122
 30
0.0
 10
9.1370302027
 20
11.0645459884
 30
0.0
 10
9.1369054135
 20
11.0645178634
 30
0.0
 10
9.1367902099
 20
11.064476779
 30
0.0
 10
9.1367165558
 20
11.0644248004
 30
0.0
 10
9.1366971103
 20
11.0643813266
 30
0.0
  0
SPLINE
  5
3ED
100
AcDbEntity
  8
0
100
AcDbSpline
 62
7
  6
CONTINUOUS
 70
0
 71
3
 72
49
 73
45
 74
0
 42
0.0000001
 43
0.0000001
 44
0.0000000001
 40
0.0
 40
0.0
 40
0.0
 40
0.0
 40
0.0017698082
 40
0.0047139294
 40
0.0088269344
 40
0.0141001015
 40
0.0205187486
 40
0.0280668448
 40
0.0464738238
 40
0.0691319152
 40
0.0958107838
 40
0.1262434131
 40
0.1601272722
 40
0.1971305436
 40
0.2368969177
 40
0.3231902838
 40
0.4158046897
 40
0.511381348
 40
0.6065029175
 40
0.6528302142
 40
0.6977784936
 40
0.7409412498
 40
0.7819231148
 40
0.8203435649
 40
0.855840299
 40
0.8880716165
 40
0.9167210657
 40
0.9296122467
 40
0.9415027019
 40
0.9523621746
 40
0.9621632389
 40
0.9708789875
 40
0.9784870987
 40
0.984968109
 40
0.9903033937
 40
0.9925371286
 40
0.9944798316
 40
0.9961302447
 40
0.997487202
 40
0.9985498323
 40
0.9993185273
 40
0.9997957318
 40
0.9999284466
 40
1.0
 40
1.0
 40
1.0
 40
1.0
 10
9.22109387
 20
11.0350963585
 30
0.0
 10
9.2210687291
 20
11.0351076115
 30
0.0
 10
9.2209994954
 20
11.0351322328
 30
0.0
 10
9.2208690679
 20
11.0351751922
 30
0.0
 10
9.2206856201
 20
11.0352316529
 30
0.0
 10
9.2204498965
 20
11.0353018989
 30
0.0
 10
9.2201623437
 20
11.0353854555
 30
0.0
 10
9.2196778618
 20
11.0355238022
 30
0.0
 10
9.2189492105
 20
11.0357275347
 30
0.0
 10
9.2179326033
 20
11.0360070529
 30
0.0
 10
9.2167344699
 20
11.0363323061
 30
0.0
 10
9.215366786
 20
11.0366998455
 30
0.0
 10
9.2138430453
 20
11.0371058028
 30
0.0
 10
9.2121780965
 20
11.0375459972
 30
0.0
 10
9.2097234409
 20
11.0381904053
 30
0.0
 10
9.2064294915
 20
11.0390463469
 30
0.0
 10
9.2022916186
 20
11.0401081986
 30
0.0
 10
9.1980173884
 20
11.0411913744
 30
0.0
 10
9.1944387292
 20
11.0420866857
 30
0.0
 10
9.1916227849
 20
11.0427839828
 30
0.0
 10
9.1895909703
 20
11.0432835672
 30
0.0
 10
9.1876391287
 20
11.0437599636
 30
0.0
 10
9.1857851796
 20
11.0442089554
 30
0.0
 10
9.1840463917
 20
11.0446265601
 30
0.0
 10
9.1824392353
 20
11.045009049
 30
0.0
 10
9.1809792231
 20
11.0453529723
 30
0.0
 10
9.1798609664
 20
11.04561327
 30
0.0
 10
9.179050571
 20
11.0457997554
 30
0.0
 10
9.1785097678
 20
11.0459231448
 30
0.0
 10
9.1780156122
 20
11.0460347777
 30
0.0
 10
9.177569398
 20
11.0461343939
 30
0.0
 10
9.1771722991
 20
11.0462217601
 30
0.0
 10
9.1768253716
 20
11.04629668
 30
0.0
 10
9.1765295473
 20
11.0463589815
 30
0.0
 10
9.1763152609
 20
11.0464025468
 30
0.0
 10
9.1761699409
 20
11.0464307868
 30
0.0
 10
9.1760808006
 20
11.0464474432
 30
0.0
 10
9.1760049251
 20
11.046460869
 30
0.0
 10
9.1759424378
 20
11.046471058
 30
0.0
 10
9.1758932198
 20
11.0464780569
 30
0.0
 10
9.1758576851
 20
11.0464818759
 30
0.0
 10
9.1758358677
 20
11.0464828232
 30
0.0
 10
9.1758256261
 20
11.0464816398
 30
0.0
 10
9.1758223393
 20
11.046480152
 30
0.0
 10
9.1758218797
 20
11.0464791377
 30
0.0
  0
LINE
  5
3EE
100
AcDbEntity
  8
0
100
AcDbLine
 62
7
  6
CONTINUOUS
 10
8.3914561206
 20
11.3454486776
 11
8.3909634751
 21
11.3455782759
  0
SPLINE
  5
3EF
100
AcDbEntity
  8
0
100
AcDbSpline
 62
7
  6
CONTINUOUS
 70
0
 71
3
 72
19
 73
15
 74
0
 42
0.0000001
 43
0.0000001
 44
0.0000000001
 40
0.0
 40
0.0
 40
0.0
 40
0.0
 40
0.2160891924
 40
0.4076815364
 40
0.5730486793
 40
0.7110595002
 40
0.7695905655
 40
0.8210836773
 40
0.865604357
 40
0.9033194755
 40
0.934571038
 40
0.9600554723
 40
0.9810948552
 40
1.0
 40
1.0
 40
1.0
 40
1.0
 10
8.4759063572
 20
11.3076490877
 30
0.0
 10
8.4754626743
 20
11.3078476784
 30
0.0
 10
8.4746215538
 20
11.3082134173
 30
0.0
 10
8.4734253377
 20
11.3086944714
 30
0.0
 10
8.4723776763
 20
11.3090722832
 30
0.0
 10
8.4715986309
 20
11.3093107936
 30
0.0
 10
8.4710562901
 20
11.3094425976
 30
0.0
 10
8.470714718
 20
11.3095082609
 30
0.0
 10
8.470416057
 20
11.3095464031
 30
0.0
 10
8.4701605681
 20
11.3095570874
 30
0.0
 10
8.4699480324
 20
11.3095402416
 30
0.0
 10
8.4697775581
 20
11.3094953272
 30
0.0
 10
8.4696482513
 20
11.3094194573
 30
0.0
 10
8.4695929995
 20
11.3093446759
 30
0.0
 10
8.4695756328
 20
11.3093058557
 30
0.0
  0
SPLINE
  5
3F0
100
AcDbEntity
  8
0
100
AcDbSpline
 62
7
  6
CONTINUOUS
 70
0
 71
3
 72
22
 73
18
 74
0
 42
0.0000001
 43
0.0000001
 44
0.0000000001
 40
0.0
 40
0.0
 40
0.0
 40
0.0
 40
0.199683962
 40
0.3853670472
 40
0.552084255
 40
0.6269666228
 40
0.6955729659
 40
0.7575240147
 40
0.8125108399
 40
0.8603236927
 40
0.9008789808
 40
0.9342804523
 40
0.9609684632
 40
0.9721245193
 40
0.982104623
 40
0.9912492316
 40
1.0
 40
1.0
 40
1.0
 40
1.0
 10
8.6316901279
 20
11.2379208916
 30
0.0
 10
8.6305864182
 20
11.2384149077
 30
0.0
 10
8.6284431757
 20
11.2393392648
 30
0.0
 10
8.6253328297
 20
11.2405667601
 30
0.0
 10
8.622891581
 20
11.2414270804
 30
0.0
 10
8.6210974818
 20
11.2419845705
 30
0.0
 10
8.6198990607
 20
11.2423193004
 30
0.0
 10
8.6188067854
 20
11.2425839034
 30
0.0
 10
8.6178275097
 20
11.2427767776
 30
0.0
 10
8.6169672351
 20
11.2428970219
 30
0.0
 10
8.6162302633
 20
11.2429443994
 30
0.0
 10
8.6156201762
 20
11.2429190169
 30
0.0
 10
8.6151936168
 20
11.2428327214
 30
0.0
 10
8.6149265014
 20
11.2427180916
 30
0.0
 10
8.6147716614
 20
11.2426178278
 30
0.0
 10
8.6146510015
 20
11.2424978157
 30
0.0
 10
8.6145940933
 20
11.2424040597
 30
0.0
 10
8.6145724498
 20
11.2423556892
 30
0.0
  0
SPLINE
  5
3F1
100
AcDbEntity
  8
0
100
AcDbSpline
 62
7
  6
CONTINUOUS
 70
0
 71
3
 72
25
 73
21
 74
0
 42
0.0000001
 43
0.0000001
 44
0.0000000001
 40
0.0
 40
0.0
 40
0.0
 40
0.0
 40
0.171573432
 40
0.3463155715
 40
0.4318289028
 40
0.5145262223
 40
0.5932985036
 40
0.6671147301
 40
0.7350396253
 40
0.7962475821
 40
0.8500385532
 40
0.8958654746
 40
0.9156793603
 40
0.9333925523
 40
0.9490132076
 40
0.9625811497
 40
0.9741950555
 40
0.9840420069
 40
0.9924583298
 40
1.0
 40
1.0
 40
1.0
 40
1.0
 10
8.8114641515
 20
11.1574547538
 30
0.0
 10
8.8098366889
 20
11.1581831996
 30
0.0
 10
8.8065208279
 20
11.1595851651
 30
0.0
 10
8.8023251409
 20
11.1611805869
 30
0.0
 10
8.7989585041
 20
11.1623510183
 30
0.0
 10
8.7965172403
 20
11.1631443372
 30
0.0
 10
8.7941753759
 20
11.1638483344
 30
0.0
 10
8.7919647165
 20
11.1644532443
 30
0.0
 10
8.789914802
 20
11.1649508775
 30
0.0
 10
8.7880524594
 20
11.1653348701
 30
0.0
 10
8.786401748
 20
11.1656003621
 30
0.0
 10
8.7851658255
 20
11.1657268364
 30
0.0
 10
8.7842998609
 20
11.1657586755
 30
0.0
 10
8.7837472876
 20
11.1657500258
 30
0.0
 10
8.7832610361
 20
11.1657103804
 30
0.0
 10
8.7828422423
 20
11.1656397301
 30
0.0
 10
8.7824915577
 20
11.1655381886
 30
0.0
 10
8.7822090875
 20
11.165404973
 30
0.0
 10
8.7819954956
 20
11.1652380475
 30
0.0
 10
8.781899682
 20
11.1650983052
 30
0.0
 10
8.7818676597
 20
11.1650267698
 30
0.0
  0
SPLINE
  5
3F2
100
AcDbEntity
  8
0
100
AcDbSpline
 62
7
  6
CONTINUOUS
 70
0
 71
3
 72
28
 73
24
 74
0
 42
0.0000001
 43
0.0000001
 44
0.0000000001
 40
0.0
 40
0.0
 40
0.0
 40
0.0
 40
0.059465699
 40
0.1275604082
 40
0.202660701
 40
0.2829646903
 40
0.4514888677
 40
0.617581935
 40
0.6950358916
 40
0.7664677571
 40
0.8303411286
 40
0.8590135641
 40
0.885303358
 40
0.9090765343
 40
0.9302142247
 40
0.9486203648
 40
0.9642258206
 40
0.9770034899
 40
0.9870017197
 40
0.9910205804
 40
0.9944514421
 40
0.997392075
 40
1.0
 40
1.0
 40
1.0
 40
1.0
 10
8.9605944177
 20
11.0907046399
 30
0.0
 10
8.9598403019
 20
11.0910421791
 30
0.0
 10
8.9582076124
 20
11.0917327094
 30
0.0
 10
8.9555844861
 20
11.0927569035
 30
0.0
 10
8.9526669304
 20
11.0938209009
 30
0.0
 10
8.9484092719
 20
11.095280355
 30
0.0
 10
8.9429068895
 20
11.0970039898
 30
0.0
 10
8.9373882833
 20
11.0985334395
 30
0.0
 10
8.9331374839
 20
11.0995752245
 30
0.0
 10
8.9302507514
 20
11.100212935
 30
0.0
 10
8.9280130185
 20
11.100643218
 30
0.0
 10
8.9263834862
 20
11.1009097697
 30
0.0
 10
8.9253002711
 20
11.1010633008
 30
0.0
 10
8.9243174617
 20
11.1011771361
 30
0.0
 10
8.9234406311
 20
11.101250755
 30
0.0
 10
8.9226748852
 20
11.101283988
 30
0.0
 10
8.9220242935
 20
11.1012771231
 30
0.0
 10
8.9214926378
 20
11.1012304524
 30
0.0
 10
8.9211260672
 20
11.1011551954
 30
0.0
 10
8.9208991281
 20
11.1010682946
 30
0.0
 10
8.9207725658
 20
11.1009974327
 30
0.0
 10
8.9206770099
 20
11.1009156116
 30
0.0
 10
8.9206333607
 20
11.1008503889
 30
0.0
 10
8.9206185581
 20
11.1008173162
 30
0.0
  0
LINE
  5
3F3
100
AcDbEntity
  8
0
100
AcDbLine
 62
7
  6
CONTINUOUS
 10
9.0337596709
 20
11.0579561636
 11
9.0319982932
 21
11.0585716357
  0
SPLINE
  5
3F4
100
AcDbEntity
  8
0
100
AcDbSpline
 62
7
  6
CONTINUOUS
 70
0
 71
3
 72
18
 73
14
 74
0
 42
0.0000001
 43
0.0000001
 44
0.0000000001
 40
0.0
 40
0.0
 40
0.0
 40
0.0
 40
0.0377440893
 40
0.0850053457
 40
0.2037725517
 40
0.346219087
 40
0.5006820444
 40
0.654898342
 40
0.7967826052
 40
0.8595318098
 40
0.9150734898
 40
0.9622379932
 40
1.0
 40
1.0
 40
1.0
 40
1.0
 10
9.0319982932
 20
11.0585716357
 30
0.0
 10
9.0314881688
 20
11.0587338552
 30
0.0
 10
9.0303355844
 20
11.0590875084
 30
0.0
 10
9.0275637285
 20
11.0599053029
 30
0.0
 10
9.0233525932
 20
11.0610915466
 30
0.0
 10
9.0176618182
 20
11.0626309234
 30
0.0
 10
9.0114699399
 20
11.0642421854
 30
0.0
 10
9.0052705708
 20
11.0657917661
 30
0.0
 10
9.0003203518
 20
11.0669739989
 30
0.0
 10
8.9967229017
 20
11.0677947816
 30
0.0
 10
8.994431159
 20
11.0682990387
 30
0.0
 10
8.9924814824
 20
11.0687083604
 30
0.0
 10
8.9912995742
 20
11.0689406732
 30
0.0
 10
8.9907728846
 20
11.0690376899
 30
0.0
  0
LINE
  5
3F5
100
AcDbEntity
  8
0
100
AcDbLine
 62
7
  6
CONTINUOUS
 10
8.9907728846
 20
11.0690376899
 11
8.988681529
 21
11.0692929099
  0
SPLINE
  5
3F6
100
AcDbEntity
  8
0
100
AcDbSpline
 62
9
  6
CONTINUOUS
 70
0
 71
3
 72
46
 73
42
 74
0
 42
0.0000001
 43
0.0000001
 44
0.0000000001
 40
0.0
 40
0.0
 40
0.0
 40
0.0
 40
0.0001004726
 40
0.0001989856
 40
0.0003160994
 40
0.0004646637
 40
0.0006509866
 40
0.0008781317
 40
0.0014602611
 40
0.0022170995
 40
0.0031501264
 40
0.0042593411
 40
0.0055440793
 40
0.0070033381
 40
0.0086359239
 40
0.0104405288
 40
0.0124157716
 40
0.0168724062
 40
0.0219940712
 40
0.0277687004
 40
0.0341840775
 40
0.0412279046
 40
0.0488878398
 40
0.0660065774
 40
0.0854413701
 40
0.1070934576
 40
0.1308643981
 40
0.1566561691
 40
0.1843712448
 40
0.2139126632
 40
0.2451840904
 40
0.2780898853
 40
0.3125351671
 40
0.3856680556
 40
0.4638424003
 40
0.5463347761
 40
0.632442848
 40
0.7214897407
 40
0.8128294608
 40
0.9058536483
 40
1.0
 40
1.0
 40
1.0
 40
1.0
 10
10.1045519256
 20
11.7059767952
 30
0.0
 10
10.1045406819
 20
11.7059852982
 30
0.0
 10
10.1045146421
 20
11.7059984398
 30
0.0
 10
10.1044686513
 20
11.70599562
 30
0.0
 10
10.1044225343
 20
11.7059715632
 30
0.0
 10
10.1043748043
 20
11.7059293287
 30
0.0
 10
10.1043242076
 20
11.705868576
 30
0.0
 10
10.1042459245
 20
11.705752712
 30
0.0
 10
10.1041428625
 20
11.7055581104
 30
0.0
 10
10.1040135547
 20
11.7052666691
 30
0.0
 10
10.1038707651
 20
11.7049006916
 30
0.0
 10
10.1037144068
 20
11.7044608252
 30
0.0
 10
10.1035445415
 20
11.7039475412
 30
0.0
 10
10.1033611133
 20
11.7033615003
 30
0.0
 10
10.1031640689
 20
11.7027033526
 30
0.0
 10
10.1029533241
 20
11.7019737786
 30
0.0
 10
10.1026412008
 20
11.7008610964
 30
0.0
 10
10.1022181633
 20
11.6992962138
 30
0.0
 10
10.1016723698
 20
11.6972123974
 30
0.0
 10
10.1010693248
 20
11.6948595222
 30
0.0
 10
10.1004082473
 20
11.6922431359
 30
0.0
 10
10.0996883609
 20
11.6893687856
 30
0.0
 10
10.098608388
 20
11.6850365029
 30
0.0
 10
10.09711044
 20
11.6790166937
 30
0.0
 10
10.0951249063
 20
11.6710951784
 30
0.0
 10
10.0928842177
 20
11.6622754403
 30
0.0
 10
10.0903817961
 20
11.6526020254
 30
0.0
 10
10.087611076
 20
11.6421194801
 30
0.0
 10
10.0845654284
 20
11.6308723684
 30
0.0
 10
10.0812382075
 20
11.6189052565
 30
0.0
 10
10.0776227505
 20
11.6062627194
 30
0.0
 10
10.0737123803
 20
11.5929893136
 30
0.0
 10
10.0679810629
 20
11.5741301189
 30
0.0
 10
10.0600559717
 20
11.5493004021
 30
0.0
 10
10.0494423409
 20
11.5182589049
 30
0.0
 10
10.0374907178
 20
11.4857596451
 30
0.0
 10
10.0241476671
 20
11.4521582754
 30
0.0
 10
10.0093595936
 20
11.4178101971
 30
0.0
 10
9.9930724957
 20
11.3830702668
 30
0.0
 10
9.9752326781
 20
11.3482941278
 30
0.0
 10
9.9623206674
 20
11.3254158778
 30
0.0
 10
9.9555738791
 20
11.3140596206
 30
0.0
  0
SPLINE
  5
3F7
100
AcDbEntity
  8
0
100
AcDbSpline
 62
7
  6
CONTINUOUS
 70
0
 71
3
 72
29
 73
25
 74
0
 42
0.0000001
 43
0.0000001
 44
0.0000000001
 40
0.0
 40
0.0
 40
0.0
 40
0.0
 40
0.0411382316
 40
0.0629111648
 40
0.0855317037
 40
0.1090226359
 40
0.1333954017
 40
0.1586520018
 40
0.184786611
 40
0.211786925
 40
0.2396352745
 40
0.2683095454
 40
0.2977839359
 40
0.3280295829
 40
0.3590150794
 40
0.4230651914
 40
0.4896520416
 40
0.5584687281
 40
0.6291957758
 40
0.7015062535
 40
0.7750699017
 40
0.8495566766
 40
0.9246400064
 40
1.0
 40
1.0
 40
1.0
 40
1.0
 10
9.6861880891
 20
10.9481473984
 30
0.0
 10
9.6932958292
 20
10.947733477
 30
0.0
 10
9.7042294424
 20
10.9479811408
 30
0.0
 10
9.7189339209
 20
10.9497189431
 30
0.0
 10
9.7305078264
 20
10.9517801317
 30
0.0
 10
9.7423914524
 20
10.9545562711
 30
0.0
 10
9.7545650756
 20
10.958029918
 30
0.0
 10
9.7670063622
 20
10.9621835612
 30
0.0
 10
9.7796935781
 20
10.9669998332
 30
0.0
 10
9.7926046959
 20
10.9724613994
 30
0.0
 10
9.8057176636
 20
10.9785509551
 30
0.0
 10
9.8190103583
 20
10.9852512045
 30
0.0
 10
9.8324605751
 20
10.9925448552
 30
0.0
 10
9.846046206
 20
11.000414601
 30
0.0
 10
9.8645147163
 20
11.0117782185
 30
0.0
 10
9.8877732335
 20
11.027338957
 30
0.0
 10
9.9155672077
 20
11.0478283477
 30
0.0
 10
9.9433691577
 20
11.0701997072
 30
0.0
 10
9.9710006702
 20
11.0943149288
 30
0.0
 10
9.998283746
 20
11.1200363139
 30
0.0
 10
10.0250400474
 20
11.1472256913
 30
0.0
 10
10.0510914074
 20
11.1757450181
 30
0.0
 10
10.0762590453
 20
11.2054553618
 30
0.0
 10
10.0923232163
 20
11.2259561307
 30
0.0
 10
10.1001636698
 20
11.2363789406
 30
0.0
  0
SPLINE
  5
3F8
100
AcDbEntity
  8
0
100
AcDbSpline
 62
9
  6
CONTINUOUS
 70
0
 71
3
 72
30
 73
26
 74
0
 42
0.0000001
 43
0.0000001
 44
0.0000000001
 40
0.0
 40
0.0
 40
0.0
 40
0.0
 40
0.0171679528
 40
0.0353033768
 40
0.0544748956
 40
0.0747294983
 40
0.0960968108
 40
0.1185926361
 40
0.1422196073
 40
0.1669669277
 40
0.1928161011
 40
0.2197429645
 40
0.2477188316
 40
0.276711383
 40
0.3066853639
 40
0.3376031361
 40
0.4021036167
 40
0.4698496992
 40
0.5404412549
 40
0.6134664638
 40
0.6885061033
 40
0.7651270662
 40
0.8428810993
 40
0.9213202006
 40
1.0
 40
1.0
 40
1.0
 40
1.0
 10
9.7882147076
 20
10.9419731554
 30
0.0
 10
9.7908383735
 20
10.9418074501
 30
0.0
 10
9.7962519323
 20
10.941724096
 30
0.0
 10
9.8045826851
 20
10.9422779867
 30
0.0
 10
9.8133197454
 20
10.9434924929
 30
0.0
 10
9.8224464517
 20
10.9453535992
 30
0.0
 10
9.8319472428
 20
10.9478476057
 30
0.0
 10
9.841805584
 20
10.9509610897
 30
0.0
 10
9.8520039602
 20
10.9546799819
 30
0.0
 10
9.8625239846
 20
10.9589889011
 30
0.0
 10
9.8733463465
 20
10.9638724731
 30
0.0
 10
9.8844515556
 20
10.9693152301
 30
0.0
 10
9.8958200426
 20
10.9753017009
 30
0.0
 10
9.9074321546
 20
10.9818163986
 30
0.0
 10
9.9192682941
 20
10.9888437764
 30
0.0
 10
9.935552198
 20
10.9990206082
 30
0.0
 10
9.9563081351
 20
11.0129422798
 30
0.0
 10
9.9814423244
 20
11.031201386
 30
0.0
 10
10.0069707415
 20
11.0511063139
 30
0.0
 10
10.0327181622
 20
11.0725186583
 30
0.0
 10
10.0585084591
 20
11.0952990823
 30
0.0
 10
10.0841626717
 20
11.1193052125
 30
0.0
 10
10.1094988082
 20
11.1443924469
 30
0.0
 10
10.1343328446
 20
11.1704141062
 30
0.0
 10
10.1504376305
 20
11.1882937929
 30
0.0
 10
10.1583661828
 20
11.1973654084
 30
0.0
  0
SPLINE
  5
3F9
100
AcDbEntity
  8
0
100
AcDbSpline
 62
7
  6
CONTINUOUS
 70
0
 71
3
 72
18
 73
14
 74
0
 42
0.0000001
 43
0.0000001
 44
0.0000000001
 40
0.0
 40
0.0
 40
0.0
 40
0.0
 40
0.0208671787
 40
0.0434398631
 40
0.0699169411
 40
0.1016930445
 40
0.139553017
 40
0.1839308976
 40
0.2930430281
 40
0.4297375359
 40
0.5937432947
 40
0.7842894147
 40
1.0
 40
1.0
 40
1.0
 40
1.0
 10
8.9206185581
 20
11.1008173162
 30
0.0
 10
8.9206024304
 20
11.1007812828
 30
0.0
 10
8.9205829757
 20
11.1006990854
 30
0.0
 10
8.9206010714
 20
11.1005658326
 30
0.0
 10
8.92066209
 20
11.1004242303
 30
0.0
 10
8.9207643036
 20
11.100272995
 30
0.0
 10
8.9209075443
 20
11.1001111528
 30
0.0
 10
8.9211722552
 20
11.0998636513
 30
0.0
 10
8.9216126946
 20
11.0995337318
 30
0.0
 10
8.9222690277
 20
11.0991203205
 30
0.0
 10
8.923082518
 20
11.0986700493
 30
0.0
 10
8.9240472458
 20
11.098186661
 30
0.0
 10
8.9247450533
 20
11.0978642056
 30
0.0
 10
8.9251175392
 20
11.0976974824
 30
0.0
  0
SPLINE
  5
3FA
100
AcDbEntity
  8
0
100
AcDbSpline
 62
9
  6
CONTINUOUS
 70
0
 71
3
 72
37
 73
33
 74
0
 42
0.0000001
 43
0.0000001
 44
0.0000000001
 40
0.0
 40
0.0
 40
0.0
 40
0.0
 40
0.002054642
 40
0.0045056781
 40
0.0073732257
 40
0.0106730519
 40
0.0144183933
 40
0.0186209326
 40
0.023291353
 40
0.0284396678
 40
0.0340746573
 40
0.0402017162
 40
0.053949228
 40
0.0697157699
 40
0.0875329238
 40
0.1074236938
 40
0.1293801738
 40
0.1533863828
 40
0.1794259713
 40
0.2074745721
 40
0.2374766092
 40
0.2693685706
 40
0.3030867904
 40
0.3385602952
 40
0.3756892584
 40
0.4544847274
 40
0.5385756604
 40
0.6269064922
 40
0.7183679291
 40
0.8117960745
 40
0.9060329149
 40
1.0
 40
1.0
 40
1.0
 40
1.0
 10
8.4074576912
 20
12.3004136954
 30
0.0
 10
8.4079529359
 20
12.300460417
 30
0.0
 10
8.409045535
 20
12.3004932777
 30
0.0
 10
8.4108293936
 20
12.3004008305
 30
0.0
 10
8.4129038827
 20
12.3001670737
 30
0.0
 10
8.4152744256
 20
12.2997886252
 30
0.0
 10
8.4179466819
 20
12.2992621075
 30
0.0
 10
8.4209258762
 20
12.2985842877
 30
0.0
 10
8.424217198
 20
12.2977520058
 30
0.0
 10
8.4278255711
 20
12.2967621961
 30
0.0
 10
8.4317550326
 20
12.2956121732
 30
0.0
 10
8.4376565876
 20
12.2937907843
 30
0.0
 10
8.4458511404
 20
12.2910847253
 30
0.0
 10
8.4566605335
 20
12.2872790629
 30
0.0
 10
8.4688025118
 20
12.2827848551
 30
0.0
 10
8.4822818051
 20
12.2775904291
 30
0.0
 10
8.4970943813
 20
12.2716917092
 30
0.0
 10
8.5132275345
 20
12.2650876576
 30
0.0
 10
8.5306651498
 20
12.257778767
 30
0.0
 10
8.5493825569
 20
12.2497695094
 30
0.0
 10
8.5693464497
 20
12.2410728235
 30
0.0
 10
8.5905148114
 20
12.2317050737
 30
0.0
 10
8.6128423253
 20
12.2216841277
 30
0.0
 10
8.6362758512
 20
12.211031716
 30
0.0
 10
8.6695807652
 20
12.1957234169
 30
0.0
 10
8.7134667652
 20
12.1752525898
 30
0.0
 10
8.7684364083
 20
12.1492213987
 30
0.0
 10
8.8260590118
 20
12.1216290882
 30
0.0
 10
8.8856299655
 20
12.0928723214
 30
0.0
 10
8.9464440413
 20
12.0634019011
 30
0.0
 10
9.007802872
 20
12.0336645505
 30
0.0
 10
9.0488214238
 20
12.0138227432
 30
0.0
 10
9.0693091017
 20
12.0039322118
 30
0.0
  0
SPLINE
  5
3FB
100
AcDbEntity
  8
0
100
AcDbSpline
 62
9
  6
CONTINUOUS
 70
0
 71
3
 72
28
 73
24
 74
0
 42
0.0000001
 43
0.0000001
 44
0.0000000001
 40
0.0
 40
0.0
 40
0.0
 40
0.0
 40
0.0010798224
 40
0.0043444035
 40
0.0098379975
 40
0.017605193
 40
0.0276847561
 40
0.0400912683
 40
0.0719204574
 40
0.0913539309
 40
0.1131038958
 40
0.1634030656
 40
0.1918701227
 40
0.2224573422
 40
0.2896555771
 40
0.3642663313
 40
0.4453191759
 40
0.5317445764
 40
0.6223148743
 40
0.7157493631
 40
0.8107124032
 40
0.9058760545
 40
1.0
 40
1.0
 40
1.0
 40
1.0
 10
8.4828163627
 20
12.3018427932
 30
0.0
 10
8.4830431469
 20
12.3017750476
 30
0.0
 10
8.4839536836
 20
12.3014962533
 30
0.0
 10
8.4860124001
 20
12.3008545745
 30
0.0
 10
8.4894625946
 20
12.2997515011
 30
0.0
 10
8.4943250343
 20
12.2981608171
 30
0.0
 10
8.5006133332
 20
12.2960557849
 30
0.0
 10
8.5118769944
 20
12.29219964
 30
0.0
 10
8.5250305829
 20
12.2875350654
 30
0.0
 10
8.5400633266
 20
12.2820454489
 30
0.0
 10
8.5588541349
 20
12.275045634
 30
0.0
 10
8.5794249521
 20
12.2671534042
 30
0.0
 10
8.6017284829
 20
12.2583738748
 30
0.0
 10
8.6274194422
 20
12.2480881789
 30
0.0
 10
8.6623775749
 20
12.2337391488
 30
0.0
 10
8.7073647021
 20
12.2147002082
 30
0.0
 10
8.7560256103
 20
12.1935354703
 30
0.0
 10
8.8076768382
 20
12.1704817966
 30
0.0
 10
8.8615868749
 20
12.145836169
 30
0.0
 10
8.9169705046
 20
12.11991884
 30
0.0
 10
8.9730425062
 20
12.093102399
 30
0.0
 10
9.0290253978
 20
12.0657543488
 30
0.0
 10
9.066135826
 20
12.0471989049
 30
0.0
 10
9.0845391709
 20
12.0378738139
 30
0.0
  0
SPLINE
  5
3FC
100
AcDbEntity
  8
0
100
AcDbSpline
 62
9
  6
CONTINUOUS
 70
0
 71
3
 72
29
 73
25
 74
0
 42
0.0000001
 43
0.0000001
 44
0.0000000001
 40
0.0
 40
0.0
 40
0.0
 40
0.0
 40
0.0158392753
 40
0.0316717455
 40
0.047479881
 40
0.0632592515
 40
0.079008032
 40
0.0947270143
 40
0.1104197251
 40
0.1260853879
 40
0.1573469868
 40
0.1885511135
 40
0.2197169848
 40
0.2508549129
 40
0.2819774572
 40
0.3130940322
 40
0.3753134143
 40
0.4375569809
 40
0.4998372402
 40
0.5621657757
 40
0.6245480276
 40
0.7494716096
 40
0.8746256868
 40
1.0
 40
1.0
 40
1.0
 40
1.0
 10
14.0351891879
 20
6.5164423966
 30
0.0
 10
14.0351897373
 20
6.5169227411
 30
0.0
 10
14.0351309418
 20
6.5178843302
 30
0.0
 10
14.0348685347
 20
6.5193033675
 30
0.0
 10
14.0344475093
 20
6.520681356
 30
0.0
 10
14.0338905705
 20
6.5220068585
 30
0.0
 10
14.0332138362
 20
6.5232719778
 30
0.0
 10
14.0324344724
 20
6.5244729012
 30
0.0
 10
14.031572127
 20
6.5256120861
 30
0.0
 10
14.0303318878
 20
6.5270515089
 30
0.0
 10
14.0286384284
 20
6.5287149942
 30
0.0
 10
14.0264429634
 20
6.5305200759
 30
0.0
 10
14.0241286049
 20
6.5321619989
 30
0.0
 10
14.0217285234
 20
6.5336699744
 30
0.0
 10
14.0192591585
 20
6.5350580688
 30
0.0
 10
14.0158943038
 20
6.5367696304
 30
0.0
 10
14.0115819518
 20
6.5386921534
 30
0.0
 10
14.0062885866
 20
6.540710862
 30
0.0
 10
14.0009122818
 20
6.5425054847
 30
0.0
 10
13.9954715332
 20
6.5441076515
 30
0.0
 10
13.9881482818
 20
6.5460298221
 30
0.0
 10
13.9788953749
 20
6.5480887791
 30
0.0
 10
13.967692684
 20
6.5501344131
 30
0.0
 10
13.9601799295
 20
6.5512738602
 30
0.0
 10
13.9564140686
 20
6.5517977356
 30
0.0
  0
SPLINE
  5
3FD
100
AcDbEntity
  8
0
100
AcDbSpline
 62
9
  6
CONTINUOUS
 70
0
 71
3
 72
25
 73
21
 74
0
 42
0.0000001
 43
0.0000001
 44
0.0000000001
 40
0.0
 40
0.0
 40
0.0
 40
0.0
 40
0.0324502084
 40
0.0648511349
 40
0.081014241
 40
0.097144996
 40
0.1292908974
 40
0.1612669768
 40
0.1930667474
 40
0.2561236434
 40
0.3186072068
 40
0.349692256
 40
0.3806889871
 40
0.4424801178
 40
0.5041229679
 40
0.5657196185
 40
0.627349419
 40
0.7508845715
 40
0.8750610196
 40
1.0
 40
1.0
 40
1.0
 40
1.0
 10
14.0565104708
 20
6.5164423966
 30
0.0
 10
14.0565120722
 20
6.5177395584
 30
0.0
 10
14.0563883132
 20
6.5203332863
 30
0.0
 10
14.0559494224
 20
6.5235460083
 30
0.0
 10
14.0554336242
 20
6.5260809155
 30
0.0
 10
14.0548094428
 20
6.5285807994
 30
0.0
 10
14.0538337503
 20
6.5316410561
 30
0.0
 10
14.0523775813
 20
6.5351923565
 30
0.0
 10
14.0501036515
 20
6.5397283532
 30
0.0
 10
14.0466957883
 20
6.5450385168
 30
0.0
 10
14.0426877192
 20
6.5498659278
 30
0.0
 10
14.0392162684
 20
6.553437929
 30
0.0
 10
14.0355989894
 20
6.5568218304
 30
0.0
 10
14.0308148114
 20
6.5607354667
 30
0.0
 10
14.0247428939
 20
6.5649693479
 30
0.0
 10
14.0184130073
 20
6.5687921293
 30
0.0
 10
14.009688168
 20
6.5734030037
 30
0.0
 10
13.9983386602
 20
6.578357384
 30
0.0
 10
13.9842565841
 20
6.5832467804
 30
0.0
 10
13.974660294
 20
6.5859292612
 30
0.0
 10
13.9698182541
 20
6.5871530747
 30
0.0
  0
SPLINE
  5
3FE
100
AcDbEntity
  8
0
100
AcDbSpline
 62
9
  6
CONTINUOUS
 70
0
 71
3
 72
13
 73
9
 74
0
 42
0.0000001
 43
0.0000001
 44
0.0000000001
 40
0.0
 40
0.0
 40
0.0
 40
0.0
 40
0.1061317547
 40
0.2199346651
 40
0.3403592593
 40
0.4662823001
 40
0.7297033671
 40
1.0
 40
1.0
 40
1.0
 40
1.0
 10
13.9564140686
 20
6.5517977356
 30
0.0
 10
13.957066112
 20
6.5529693512
 30
0.0
 10
13.9583587618
 20
6.5554301232
 30
0.0
 10
13.9602057804
 20
6.5593142287
 30
0.0
 10
13.9620144457
 20
6.5634903046
 30
0.0
 10
13.9643846792
 20
6.5694795095
 30
0.0
 10
13.9671048213
 20
6.5773616502
 30
0.0
 10
13.9689642327
 20
6.5838467198
 30
0.0
 10
13.9698181628
 20
6.5871530747
 30
0.0
  0
SPLINE
  5
3FF
100
AcDbEntity
  8
0
100
AcDbSpline
 62
9
  6
CONTINUOUS
 70
0
 71
3
 72
29
 73
25
 74
0
 42
0.0000001
 43
0.0000001
 44
0.0000000001
 40
0.0
 40
0.0
 40
0.0
 40
0.0
 40
0.1253743122
 40
0.2505283879
 40
0.375451971
 40
0.4378342226
 40
0.500162755
 40
0.5624430168
 40
0.6246865802
 40
0.6869059636
 40
0.7180225367
 40
0.7491450807
 40
0.7802830091
 40
0.8114488804
 40
0.8426530031
 40
0.873914607
 40
0.8895802698
 40
0.9052729766
 40
0.9209919569
 40
0.9367407426
 40
0.9525201107
 40
0.9683282461
 40
0.984160723
 40
1.0
 40
1.0
 40
1.0
 40
1.0
 10
13.6896707768
 20
6.5517977356
 30
0.0
 10
13.6859049155
 20
6.5512738624
 30
0.0
 10
13.6783921616
 20
6.5501344117
 30
0.0
 10
13.6671894701
 20
6.5480887804
 30
0.0
 10
13.6579365639
 20
6.5460298204
 30
0.0
 10
13.6506133112
 20
6.5441076546
 30
0.0
 10
13.6451725647
 20
6.5425054806
 30
0.0
 10
13.6397962573
 20
6.5407108659
 30
0.0
 10
13.6345028948
 20
6.5386921501
 30
0.0
 10
13.6301905404
 20
6.5367696325
 30
0.0
 10
13.626825687
 20
6.5350580683
 30
0.0
 10
13.6243563227
 20
6.5336699731
 30
0.0
 10
13.62195624
 20
6.5321619994
 30
0.0
 10
13.619641881
 20
6.5305200771
 30
0.0
 10
13.6174464191
 20
6.5287149916
 30
0.0
 10
13.6157529581
 20
6.5270515083
 30
0.0
 10
13.6145127143
 20
6.5256120894
 30
0.0
 10
13.6136503705
 20
6.5244729033
 30
0.0
 10
13.612871013
 20
6.5232719758
 30
0.0
 10
13.6121942784
 20
6.5220068569
 30
0.0
 10
13.6116373333
 20
6.520681357
 30
0.0
 10
13.6112163069
 20
6.5193033684
 30
0.0
 10
13.6109539009
 20
6.5178843307
 30
0.0
 10
13.6108951063
 20
6.5169227412
 30
0.0
 10
13.6108956574
 20
6.5164423966
 30
0.0
  0
SPLINE
  5
400
100
AcDbEntity
  8
0
100
AcDbSpline
 62
9
  6
CONTINUOUS
 70
0
 71
3
 72
25
 73
21
 74
0
 42
0.0000001
 43
0.0000001
 44
0.0000000001
 40
0.0
 40
0.0
 40
0.0
 40
0.0
 40
0.1249389814
 40
0.2491154295
 40
0.372650579
 40
0.4342803807
 40
0.4958770336
 40
0.5575198864
 40
0.6193110169
 40
0.6503077448
 40
0.6813927942
 40
0.7438763639
 40
0.8069332536
 40
0.8387330303
 40
0.870709102
 40
0.9028550043
 40
0.9189857655
 40
0.9351488722
 40
0.9675497884
 40
1.0
 40
1.0
 40
1.0
 40
1.0
 10
13.6762665912
 20
6.5871530747
 30
0.0
 10
13.6714245513
 20
6.5859292613
 30
0.0
 10
13.6618282639
 20
6.5832467709
 30
0.0
 10
13.6477461879
 20
6.5783573766
 30
0.0
 10
13.6363966749
 20
6.5734030087
 30
0.0
 10
13.6276718359
 20
6.5687921336
 30
0.0
 10
13.6213419523
 20
6.5649693465
 30
0.0
 10
13.6152700401
 20
6.560735458
 30
0.0
 10
13.610485857
 20
6.5568218286
 30
0.0
 10
13.606868576
 20
6.5534379293
 30
0.0
 10
13.6033971303
 20
6.5498659232
 30
0.0
 10
13.5993890533
 20
6.5450385187
 30
0.0
 10
13.5959811994
 20
6.5397283485
 30
0.0
 10
13.593707265
 20
6.5351923553
 30
0.0
 10
13.5922510827
 20
6.5316410598
 30
0.0
 10
13.5912754086
 20
6.5285807969
 30
0.0
 10
13.5906512316
 20
6.526080912
 30
0.0
 10
13.5901354234
 20
6.5235460072
 30
0.0
 10
13.5896965168
 20
6.5203332872
 30
0.0
 10
13.5895727672
 20
6.5177395585
 30
0.0
 10
13.5895743745
 20
6.5164423966
 30
0.0
  0
SPLINE
  5
401
100
AcDbEntity
  8
0
100
AcDbSpline
 62
9
  6
CONTINUOUS
 70
0
 71
3
 72
13
 73
9
 74
0
 42
0.0000001
 43
0.0000001
 44
0.0000000001
 40
0.0
 40
0.0
 40
0.0
 40
0.0
 40
0.1061313405
 40
0.2199339144
 40
0.3403582736
 40
0.4662812027
 40
0.7297024891
 40
1.0
 40
1.0
 40
1.0
 40
1.0
 10
13.6896707768
 20
6.5517977756
 30
0.0
 10
13.6890187303
 20
6.5529693837
 30
0.0
 10
13.6877260737
 20
6.5554301421
 30
0.0
 10
13.6858790444
 20
6.5593142296
 30
0.0
 10
13.6840703665
 20
6.5634902916
 30
0.0
 10
13.6817001116
 20
6.5694794877
 30
0.0
 10
13.6789799389
 20
6.5773616328
 30
0.0
 10
13.677120503
 20
6.5838467111
 30
0.0
 10
13.6762665596
 20
6.5871530747
 30
0.0
  0
SPLINE
  5
402
100
AcDbEntity
  8
0
100
AcDbSpline
 62
7
  6
CONTINUOUS
 70
0
 71
3
 72
23
 73
19
 74
0
 42
0.0000001
 43
0.0000001
 44
0.0000000001
 40
0.0
 40
0.0
 40
0.0
 40
0.0
 40
0.0625191411
 40
0.1250423192
 40
0.1875543312
 40
0.2500597183
 40
0.3125558553
 40
0.3750430831
 40
0.4375224366
 40
0.4999977791
 40
0.5624743147
 40
0.6249564208
 40
0.687445101
 40
0.7499407381
 40
0.8124458371
 40
0.8749577779
 40
0.9374809473
 40
1.0
 40
1.0
 40
1.0
 40
1.0
 10
13.1976524871
 20
7.7102625851
 30
0.0
 10
13.1993658317
 20
7.7096740544
 30
0.0
 10
13.2028380148
 20
7.7086231959
 30
0.0
 10
13.2081618737
 20
7.7074952096
 30
0.0
 10
13.2135737606
 20
7.7068981881
 30
0.0
 10
13.2190212872
 20
7.7069302646
 30
0.0
 10
13.224419375
 20
7.7076870663
 30
0.0
 10
13.2296496877
 20
7.7092316366
 30
0.0
 10
13.2345706077
 20
7.7115876249
 30
0.0
 10
13.2390328132
 20
7.7147290285
 30
0.0
 10
13.2429014521
 20
7.7185779546
 30
0.0
 10
13.2460762561
 20
7.7230151262
 30
0.0
 10
13.2485056523
 20
7.7278978591
 30
0.0
 10
13.2501883175
 20
7.7330825438
 30
0.0
 10
13.2511658489
 20
7.7384417161
 30
0.0
 10
13.2515176626
 20
7.7438750453
 30
0.0
 10
13.2513312883
 20
7.7493138907
 30
0.0
 10
13.2508993344
 20
7.7529158004
 30
0.0
 10
13.2506172644
 20
7.7547053102
 30
0.0
  0
SPLINE
  5
403
100
AcDbEntity
  8
0
100
AcDbSpline
 62
7
  6
CONTINUOUS
 70
0
 71
3
 72
23
 73
19
 74
0
 42
0.0000001
 43
0.0000001
 44
0.0000000001
 40
0.0
 40
0.0
 40
0.0
 40
0.0
 40
0.0654642437
 40
0.1318959745
 40
0.1989086609
 40
0.2661765523
 40
0.3333966041
 40
0.4003091834
 40
0.4666840104
 40
0.532308611
 40
0.5969713604
 40
0.660451431
 40
0.7225041116
 40
0.7828395276
 40
0.8411257708
 40
0.8970029715
 40
0.9500980836
 40
1.0
 40
1.0
 40
1.0
 40
1.0
 10
13.285688765
 20
7.7841864568
 30
0.0
 10
13.2868981416
 20
7.7852012443
 30
0.0
 10
13.2893818128
 20
7.7871898041
 30
0.0
 10
13.2932066892
 20
7.7900849727
 30
0.0
 10
13.2971047693
 20
7.7929545654
 30
0.0
 10
13.3010249424
 20
7.7958260795
 30
0.0
 10
13.3049249971
 20
7.7987209515
 30
0.0
 10
13.3087720092
 20
7.8016507026
 30
0.0
 10
13.312539005
 20
7.8046210643
 30
0.0
 10
13.3162044807
 20
7.8076311395
 30
0.0
 10
13.3197528227
 20
7.810672248
 30
0.0
 10
13.3231720591
 20
7.8137300087
 30
0.0
 10
13.3264555453
 20
7.8167816451
 30
0.0
 10
13.329600877
 20
7.819797023
 30
0.0
 10
13.3326099496
 20
7.8227388599
 30
0.0
 10
13.3354931977
 20
7.8255596942
 30
0.0
 10
13.3382667171
 20
7.8282031608
 30
0.0
 10
13.340119448
 20
7.8298592229
 30
0.0
 10
13.3410413285
 20
7.8306327725
 30
0.0
  0
SPLINE
  5
404
100
AcDbEntity
  8
0
100
AcDbSpline
 62
7
  6
CONTINUOUS
 70
0
 71
3
 72
22
 73
18
 74
0
 42
0.0000001
 43
0.0000001
 44
0.0000000001
 40
0.0
 40
0.0
 40
0.0
 40
0.0
 40
0.074324201
 40
0.1483610746
 40
0.2217341063
 40
0.2941354129
 40
0.4349637215
 40
0.5029754699
 40
0.5691292371
 40
0.6332245529
 40
0.6950416851
 40
0.7543225284
 40
0.8107450437
 40
0.8639327742
 40
0.9134841112
 40
0.958984525
 40
1.0
 40
1.0
 40
1.0
 40
1.0
 10
13.3719732853
 20
7.8565877661
 30
0.0
 10
13.373215911
 20
7.8576304528
 30
0.0
 10
13.3757423101
 20
7.8596571477
 30
0.0
 10
13.3795993598
 20
7.8625803016
 30
0.0
 10
13.383464317
 20
7.8654224825
 30
0.0
 10
13.3885171075
 20
7.8691095627
 30
0.0
 10
13.3934459084
 20
7.8727691393
 30
0.0
 10
13.3981683911
 20
7.8764737578
 30
0.0
 10
13.401516006
 20
7.8792160241
 30
0.0
 10
13.4046964448
 20
7.881947305
 30
0.0
 10
13.4076987214
 20
7.8846539777
 30
0.0
 10
13.4105164928
 20
7.8873135738
 30
0.0
 10
13.4131471998
 20
7.8898957885
 30
0.0
 10
13.4155922258
 20
7.8923633138
 30
0.0
 10
13.4178619898
 20
7.8946689596
 30
0.0
 10
13.4199730694
 20
7.8967575416
 30
0.0
 10
13.4213666978
 20
7.8980337602
 30
0.0
 10
13.4220524351
 20
7.8986091622
 30
0.0
  0
LINE
  5
405
100
AcDbEntity
  8
0
100
AcDbLine
 62
7
  6
CONTINUOUS
 10
8.3909634751
 20
11.3455782759
 11
8.3933258987
 21
11.3435603611
  0
SPLINE
  5
406
100
AcDbEntity
  8
0
100
AcDbSpline
 62
7
  6
CONTINUOUS
 70
0
 71
3
 72
18
 73
14
 74
0
 42
0.0000001
 43
0.0000001
 44
0.0000000001
 40
0.0
 40
0.0
 40
0.0
 40
0.0
 40
0.0423057794
 40
0.0925961115
 40
0.2133152123
 40
0.3535693778
 40
0.5036748389
 40
0.6533957227
 40
0.7924210851
 40
0.8548037958
 40
0.9108774662
 40
0.9595871202
 40
1.0
 40
1.0
 40
1.0
 40
1.0
 10
8.3933258987
 20
11.3435603611
 30
0.0
 10
8.3937876255
 20
11.3432147168
 30
0.0
 10
8.3948050263
 20
11.3424672866
 30
0.0
 10
8.3971667194
 20
11.3407701839
 30
0.0
 10
8.400641085
 20
11.3383334719
 30
0.0
 10
8.4052564948
 20
11.3351542769
 30
0.0
 10
8.4102199422
 20
11.3317835402
 30
0.0
 10
8.4151904238
 20
11.3284532114
 30
0.0
 10
8.4191868805
 20
11.3258178784
 30
0.0
 10
8.4221337034
 20
11.3239103133
 30
0.0
 10
8.4240557674
 20
11.3226856586
 30
0.0
 10
8.4257354482
 20
11.3216381706
 30
0.0
 10
8.4267751833
 20
11.321009313
 30
0.0
 10
8.4272500527
 20
11.3207299244
 30
0.0
  0
LINE
  5
407
100
AcDbEntity
  8
0
100
AcDbLine
 62
7
  6
CONTINUOUS
 10
8.4272500527
 20
11.3207299244
 11
8.429211023
 21
11.3196632664
  0
SPLINE
  5
408
100
AcDbEntity
  8
0
100
AcDbSpline
 62
7
  6
CONTINUOUS
 70
0
 71
3
 72
25
 73
21
 74
0
 42
0.0000001
 43
0.0000001
 44
0.0000000001
 40
0.0
 40
0.0
 40
0.0
 40
0.0
 40
0.0860532329
 40
0.1701647195
 40
0.3311783914
 40
0.4075391772
 40
0.4808758091
 40
0.5510375023
 40
0.6178659773
 40
0.6811813544
 40
0.7407733005
 40
0.7963742619
 40
0.8476257486
 40
0.8940928794
 40
0.9153871789
 40
0.9353068638
 40
0.9537888396
 40
0.9707723795
 40
0.9861941327
 40
1.0
 40
1.0
 40
1.0
 40
1.0
 10
13.4489669453
 20
7.9211931178
 30
0.0
 10
13.4501647715
 20
7.9221982133
 30
0.0
 10
13.452578235
 20
7.9241324582
 30
0.0
 10
13.45738419
 20
7.927754795
 30
0.0
 10
13.4621343387
 20
7.931155484
 30
0.0
 10
13.4667019067
 20
7.9344740769
 30
0.0
 10
13.4699050129
 20
7.9368618622
 30
0.0
 10
13.4729255524
 20
7.939203816
 30
0.0
 10
13.4757472433
 20
7.9415034965
 30
0.0
 10
13.4783583817
 20
7.9437555158
 30
0.0
 10
13.4807497282
 20
7.9459477575
 30
0.0
 10
13.4829161346
 20
7.948058792
 30
0.0
 10
13.4848560318
 20
7.9500588054
 30
0.0
 10
13.4863249627
 20
7.9516460533
 30
0.0
 10
13.4873975439
 20
7.9528241603
 30
0.0
 10
13.4881272317
 20
7.9536267677
 30
0.0
 10
13.4888090331
 20
7.9543670307
 30
0.0
 10
13.4894456178
 20
7.9550377724
 30
0.0
 10
13.4900403742
 20
7.9556306923
 30
0.0
 10
13.4904338521
 20
7.955987984
 30
0.0
 10
13.4906260242
 20
7.9561492355
 30
0.0
  0
SPLINE
  5
409
100
AcDbEntity
  8
0
100
AcDbSpline
 62
7
  6
CONTINUOUS
 70
0
 71
3
 72
28
 73
24
 74
0
 42
0.0000001
 43
0.0000001
 44
0.0000000001
 40
0.0
 40
0.0
 40
0.0
 40
0.0
 40
0.2053904828
 40
0.3008320773
 40
0.3910423291
 40
0.4758021304
 40
0.5550023278
 40
0.6285614658
 40
0.6963778726
 40
0.7583181578
 40
0.8142091479
 40
0.8637981629
 40
0.9066998478
 40
0.9254916921
 40
0.9424191371
 40
0.9574069837
 40
0.9703717515
 40
0.9812186293
 40
0.9898457255
 40
0.993291038
 40
0.9961374561
 40
0.9983738523
 40
1.0
 40
1.0
 40
1.0
 40
1.0
 10
13.5118319502
 20
7.9739431201
 30
0.0
 10
13.5139398678
 20
7.9757118731
 30
0.0
 10
13.5171513411
 20
7.9781543805
 30
0.0
 10
13.5214203893
 20
7.9811903282
 30
0.0
 10
13.5243906507
 20
7.9832646925
 30
0.0
 10
13.5271764553
 20
7.9852229489
 30
0.0
 10
13.5297559797
 20
7.9870865606
 30
0.0
 10
13.5321127456
 20
7.9888699538
 30
0.0
 10
13.534233856
 20
7.99057975
 30
0.0
 10
13.5361106205
 20
7.9922129456
 30
0.0
 10
13.5377364422
 20
7.9937593898
 30
0.0
 10
13.5391082314
 20
7.9951992954
 30
0.0
 10
13.5400791209
 20
7.9963318135
 30
0.0
 10
13.5407293282
 20
7.9971606375
 30
0.0
 10
13.5411344249
 20
7.9977060796
 30
0.0
 10
13.5414807138
 20
7.9981976963
 30
0.0
 10
13.5417702459
 20
7.9986294515
 30
0.0
 10
13.5420066022
 20
7.9989941553
 30
0.0
 10
13.5421718077
 20
7.9992530012
 30
0.0
 10
13.5422817678
 20
7.9994198956
 30
0.0
 10
13.5423468815
 20
7.9995138481
 30
0.0
 10
13.542401499
 20
7.9995851845
 30
0.0
 10
13.5424366758
 20
7.9996235342
 30
0.0
 10
13.5424533649
 20
7.999637538
 30
0.0
  0
SPLINE
  5
40A
100
AcDbEntity
  8
0
100
AcDbSpline
 62
7
  6
CONTINUOUS
 70
0
 71
3
 72
22
 73
18
 74
0
 42
0.0000001
 43
0.0000001
 44
0.0000000001
 40
0.0
 40
0.0
 40
0.0
 40
0.0
 40
0.220482981
 40
0.414391489
 40
0.5807640711
 40
0.6534866205
 40
0.7192737272
 40
0.7781374284
 40
0.8300988603
 40
0.875167951
 40
0.9133762408
 40
0.944748868
 40
0.9579071804
 40
0.9693930566
 40
0.9792398213
 40
0.9875236333
 40
1.0
 40
1.0
 40
1.0
 40
1.0
 10
13.5566182603
 20
8.0115232965
 30
0.0
 10
13.5580138324
 20
8.0126943205
 30
0.0
 10
13.5607374746
 20
8.01477618
 30
0.0
 10
13.5647100745
 20
8.0174691256
 30
0.0
 10
13.5677130005
 20
8.019414187
 30
0.0
 10
13.5698107692
 20
8.0208091292
 30
0.0
 10
13.5711523503
 20
8.0217366071
 30
0.0
 10
13.5723299969
 20
8.0225988704
 30
0.0
 10
13.5733387404
 20
8.0234005605
 30
0.0
 10
13.5741772736
 20
8.0241402527
 30
0.0
 10
13.5748429634
 20
8.0248153864
 30
0.0
 10
13.5752784025
 20
8.0253444977
 30
0.0
 10
13.5755341081
 20
8.025730897
 30
0.0
 10
13.575671703
 20
8.0259806631
 30
0.0
 10
13.5757673791
 20
8.0262072366
 30
0.0
 10
13.5758331119
 20
8.0264499855
 30
0.0
 10
13.5758344735
 20
8.0266333145
 30
0.0
 10
13.5757939275
 20
8.0267280948
 30
0.0
  0
SPLINE
  5
40B
100
AcDbEntity
  8
0
100
AcDbSpline
 62
7
  6
CONTINUOUS
 70
0
 71
3
 72
22
 73
18
 74
0
 42
0.0000001
 43
0.0000001
 44
0.0000000001
 40
0.0
 40
0.0
 40
0.0
 40
0.0
 40
0.2341374572
 40
0.436792171
 40
0.6081100093
 40
0.7480278922
 40
0.8062166399
 40
0.8566310131
 40
0.8993278429
 40
0.9343397663
 40
0.9489761025
 40
0.9617098867
 40
0.9725529752
 40
0.981520653
 40
0.9886410865
 40
0.9939739665
 40
1.0
 40
1.0
 40
1.0
 40
1.0
 10
13.5805117873
 20
8.0315723461
 30
0.0
 10
13.5812323668
 20
8.0321769841
 30
0.0
 10
13.5826251755
 20
8.0332483409
 30
0.0
 10
13.5846655717
 20
8.034594697
 30
0.0
 10
13.58644931
 20
8.0356357828
 30
0.0
 10
13.5877584798
 20
8.0363352866
 30
0.0
 10
13.5886450576
 20
8.0367944668
 30
0.0
 10
13.5891855441
 20
8.0370725968
 30
0.0
 10
13.5896416976
 20
8.0373111016
 30
0.0
 10
13.5899678931
 20
8.0374878906
 30
0.0
 10
13.5901852754
 20
8.0376126919
 30
0.0
 10
13.5903166276
 20
8.0376920837
 30
0.0
 10
13.5904264127
 20
8.0377634751
 30
0.0
 10
13.5905141641
 20
8.0378259817
 30
0.0
 10
13.5905815444
 20
8.0378818615
 30
0.0
 10
13.5906314553
 20
8.0379316568
 30
0.0
 10
13.590660637
 20
8.0379805778
 30
0.0
 10
13.5906514539
 20
8.0380029781
 30
0.0
  0
LINE
  5
40C
100
AcDbEntity
  8
0
100
AcDbLine
 62
7
  6
CONTINUOUS
 10
13.2506172644
 20
7.7547053102
 11
13.2527177397
 21
7.7564491352
  0
SPLINE
  5
40D
100
AcDbEntity
  8
0
100
AcDbSpline
 62
7
  6
CONTINUOUS
 70
0
 71
3
 72
11
 73
7
 74
0
 42
0.0000001
 43
0.0000001
 44
0.0000000001
 40
0.0
 40
0.0
 40
0.0
 40
0.0
 40
0.2500008659
 40
0.5000015021
 40
0.7500015646
 40
1.0
 40
1.0
 40
1.0
 40
1.0
 10
13.2527177397
 20
7.7564491352
 30
0.0
 10
13.2554787659
 20
7.7587385066
 30
0.0
 10
13.2610123617
 20
7.7633033681
 30
0.0
 10
13.2693699472
 20
7.7700809201
 30
0.0
 10
13.2778136366
 20
7.7767510727
 30
0.0
 10
13.2835241802
 20
7.7810935742
 30
0.0
 10
13.2864071128
 20
7.7832273354
 30
0.0
  0
SPLINE
  5
40E
100
AcDbEntity
  8
0
100
AcDbSpline
 62
7
  6
CONTINUOUS
 70
0
 71
3
 72
27
 73
23
 74
0
 42
0.0000001
 43
0.0000001
 44
0.0000000001
 40
0.0
 40
0.0
 40
0.0
 40
0.0
 40
0.1249944494
 40
0.2499879361
 40
0.3124863055
 40
0.3749848028
 40
0.4374832219
 40
0.4999814704
 40
0.5624794285
 40
0.6249767842
 40
0.6874727877
 40
0.7499652722
 40
0.7812168139
 40
0.8124681618
 40
0.8437195301
 40
0.8749702853
 40
0.9062178407
 40
0.9374549753
 40
0.9530929333
 40
0.9687289825
 40
0.9843675623
 40
1.0
 40
1.0
 40
1.0
 40
1.0
 10
13.2864071128
 20
7.7832273354
 30
0.0
 10
13.2885565629
 20
7.7848182201
 30
0.0
 10
13.2928864557
 20
7.7879584096
 30
0.0
 10
13.2983954268
 20
7.7917477251
 30
0.0
 10
13.302874754
 20
7.7946705411
 30
0.0
 10
13.306274875
 20
7.7967993573
 30
0.0
 10
13.309720535
 20
7.7988538188
 30
0.0
 10
13.3132175392
 20
7.8008198936
 30
0.0
 10
13.3167727066
 20
7.8026791272
 30
0.0
 10
13.3203942534
 20
7.8044063997
 30
0.0
 10
13.324091685
 20
7.8059654516
 30
0.0
 10
13.3272464679
 20
7.8070796456
 30
0.0
 10
13.3298189003
 20
7.8078133257
 30
0.0
 10
13.3317739381
 20
7.8082663028
 30
0.0
 10
13.3337537825
 20
7.8085973576
 30
0.0
 10
13.3357548979
 20
7.808770181
 30
0.0
 10
13.3377643165
 20
7.8087306079
 30
0.0
 10
13.3394224553
 20
7.8084499777
 30
0.0
 10
13.3406910062
 20
7.8080172359
 30
0.0
 10
13.3415938442
 20
7.8075710035
 30
0.0
 10
13.342418871
 20
7.8069923154
 30
0.0
 10
13.3428959527
 20
7.8065174243
 30
0.0
 10
13.343110928
 20
7.8062612268
 30
0.0
  0
SPLINE
  5
40F
100
AcDbEntity
  8
0
100
AcDbSpline
 62
7
  6
CONTINUOUS
 70
0
 71
3
 72
11
 73
7
 74
0
 42
0.0000001
 43
0.0000001
 44
0.0000000001
 40
0.0
 40
0.0
 40
0.0
 40
0.0
 40
0.2514125638
 40
0.5015903963
 40
0.7509824862
 40
1.0
 40
1.0
 40
1.0
 40
1.0
 10
13.4292878231
 20
7.9046803736
 30
0.0
 10
13.4260549443
 20
7.9101007491
 30
0.0
 10
13.4193770662
 20
7.9207806922
 30
0.0
 10
13.4087284356
 20
7.9363433282
 30
0.0
 10
13.3974987766
 20
7.951416849
 30
0.0
 10
13.3896360951
 20
7.9611538934
 30
0.0
 10
13.3856179433
 20
7.9659425402
 30
0.0
  0
SPLINE
  5
410
100
AcDbEntity
  8
0
100
AcDbSpline
 62
7
  6
CONTINUOUS
 70
0
 71
3
 72
21
 73
17
 74
0
 42
0.0000001
 43
0.0000001
 44
0.0000000001
 40
0.0
 40
0.0
 40
0.0
 40
0.0
 40
0.009212982
 40
0.0187932675
 40
0.0291470632
 40
0.0405969421
 40
0.0676169432
 40
0.1010421574
 40
0.1413654925
 40
0.1887498071
 40
0.243166902
 40
0.3044689005
 40
0.4466556385
 40
0.6125607024
 40
0.7984757042
 40
1.0
 40
1.0
 40
1.0
 40
1.0
 10
8.7818676597
 20
11.1650267698
 30
0.0
 10
8.7818467692
 20
11.1649801019
 30
0.0
 10
8.7818151251
 20
11.1648795821
 30
0.0
 10
8.7818021866
 20
11.1647171772
 30
0.0
 10
8.7818227751
 20
11.1645432557
 30
0.0
 10
8.7818984739
 20
11.1642820837
 30
0.0
 10
8.7820865097
 20
11.1639261885
 30
0.0
 10
8.7824253548
 20
11.1634797593
 30
0.0
 10
8.7828892625
 20
11.1629917192
 30
0.0
 10
8.7834767838
 20
11.1624646058
 30
0.0
 10
8.7841857483
 20
11.1619011142
 30
0.0
 10
8.7853472804
 20
11.1610640431
 30
0.0
 10
8.7870792576
 20
11.1599641777
 30
0.0
 10
8.7894686476
 20
11.1586180727
 30
0.0
 10
8.7922057592
 20
11.1572239105
 30
0.0
 10
8.7941552339
 20
11.1563156893
 30
0.0
 10
8.7951760624
 20
11.1558587705
 30
0.0
  0
LINE
  5
411
100
AcDbEntity
  8
0
100
AcDbLine
 62
7
  6
CONTINUOUS
 10
9.3578779211
 20
11.029803016
 11
9.3585349265
 21
11.0293525558
  0
SPLINE
  5
412
100
AcDbEntity
  8
0
100
AcDbSpline
 62
7
  6
CONTINUOUS
 70
0
 71
3
 72
17
 73
13
 74
0
 42
0.0000001
 43
0.0000001
 44
0.0000000001
 40
0.0
 40
0.0
 40
0.0
 40
0.0
 40
0.0207376936
 40
0.0430303041
 40
0.0691092845
 40
0.1003990741
 40
0.1814119947
 40
0.2893965104
 40
0.4253259348
 40
0.5893603966
 40
0.7811834444
 40
1.0
 40
1.0
 40
1.0
 40
1.0
 10
9.2934452321
 20
11.0591002795
 30
0.0
 10
9.2934360671
 20
11.0590798015
 30
0.0
 10
9.2934249099
 20
11.0590332812
 30
0.0
 10
9.2934350552
 20
11.0589579206
 30
0.0
 10
9.2934696864
 20
11.0588781855
 30
0.0
 10
9.2935546763
 20
11.0587542173
 30
0.0
 10
9.2937278054
 20
11.0585878193
 30
0.0
 10
9.2940104656
 20
11.0583784833
 30
0.0
 10
9.2943857936
 20
11.0581454385
 30
0.0
 10
9.2948525287
 20
11.0578897574
 30
0.0
 10
9.2954092753
 20
11.0576127495
 30
0.0
 10
9.2958127759
 20
11.0574267409
 30
0.0
 10
9.2960288489
 20
11.0573300275
 30
0.0
  0
SPLINE
  5
413
100
AcDbEntity
  8
0
100
AcDbSpline
 62
7
  6
CONTINUOUS
 70
0
 71
3
 72
11
 73
7
 74
0
 42
0.0000001
 43
0.0000001
 44
0.0000000001
 40
0.0
 40
0.0
 40
0.0
 40
0.0
 40
0.2514125638
 40
0.5015903963
 40
0.7509824862
 40
1.0
 40
1.0
 40
1.0
 40
1.0
 10
13.018930065
 20
7.5603493301
 30
0.0
 10
13.0141534206
 20
7.5644743326
 30
0.0
 10
13.0047953312
 20
7.5729053113
 30
0.0
 10
12.991318242
 20
7.5860945887
 30
0.0
 10
12.9784237317
 20
7.5997711334
 30
0.0
 10
12.9701999552
 20
7.609205183
 30
0.0
 10
12.9661818033
 20
7.6139938299
 30
0.0
  0
SPLINE
  5
414
100
AcDbEntity
  8
0
100
AcDbSpline
 62
7
  6
CONTINUOUS
 70
0
 71
3
 72
13
 73
9
 74
0
 42
0.0000001
 43
0.0000001
 44
0.0000000001
 40
0.0
 40
0.0
 40
0.0
 40
0.0
 40
0.2498106825
 40
0.3747362011
 40
0.4996857844
 40
0.6246689445
 40
0.7497006555
 40
1.0
 40
1.0
 40
1.0
 40
1.0
 10
11.0099826543
 20
10.2803919002
 30
0.0
 10
11.0024832427
 20
10.289329351
 30
0.0
 10
10.9913349572
 20
10.3028219232
 30
0.0
 10
10.9766858788
 20
10.3209886611
 30
0.0
 10
10.965808115
 20
10.3347065977
 30
0.0
 10
10.9550404404
 20
10.348517496
 30
0.0
 10
10.9408475671
 20
10.3670797526
 30
0.0
 10
10.9304315423
 20
10.3811817563
 30
0.0
 10
10.9236198189
 20
10.3906818974
 30
0.0
  0
SPLINE
  5
415
100
AcDbEntity
  8
0
100
AcDbSpline
 62
7
  6
CONTINUOUS
 70
0
 71
3
 72
13
 73
9
 74
0
 42
0.0000001
 43
0.0000001
 44
0.0000000001
 40
0.0
 40
0.0
 40
0.0
 40
0.0
 40
0.2498106825
 40
0.3747362011
 40
0.4996857844
 40
0.6246689445
 40
0.7497006555
 40
1.0
 40
1.0
 40
1.0
 40
1.0
 10
11.0994188684
 20
10.3554377945
 30
0.0
 10
11.0919194568
 20
10.3643752453
 30
0.0
 10
11.0805677466
 20
10.3776971238
 30
0.0
 10
11.0652207879
 20
10.3952782707
 30
0.0
 10
11.0536001615
 20
10.4083728716
 30
0.0
 10
11.0418688689
 20
10.4213751982
 30
0.0
 10
11.0260531812
 20
10.438575752
 30
0.0
 10
11.0139741423
 20
10.4512823212
 30
0.0
 10
11.0058011731
 20
10.4596402414
 30
0.0
  0
SPLINE
  5
416
100
AcDbEntity
  8
0
100
AcDbSpline
 62
7
  6
CONTINUOUS
 70
0
 71
3
 72
16
 73
12
 74
0
 42
0.0000001
 43
0.0000001
 44
0.0000000001
 40
0.0
 40
0.0
 40
0.0
 40
0.0
 40
0.2483747812
 40
0.3727350551
 40
0.4349887709
 40
0.497303498
 40
0.5596891751
 40
0.6221590076
 40
0.747425684
 40
0.8732929316
 40
1.0
 40
1.0
 40
1.0
 40
1.0
 10
11.1860452795
 20
10.428125984
 30
0.0
 10
11.1785441684
 20
10.4370654601
 30
0.0
 10
11.1669857618
 20
10.4502326604
 30
0.0
 10
11.1529725303
 20
10.4651115607
 30
0.0
 10
11.1448028129
 20
10.4734812425
 30
0.0
 10
11.1385917591
 20
10.4796927397
 30
0.0
 10
11.1322988359
 20
10.4858358724
 30
0.0
 10
11.1237867989
 20
10.4939386272
 30
0.0
 10
11.1129048348
 20
10.5038761529
 30
0.0
 10
11.0994189956
 20
10.5154258093
 30
0.0
 10
11.0901312133
 20
10.5228179227
 30
0.0
 10
11.085400649
 20
10.5264321323
 30
0.0
  0
SPLINE
  5
417
100
AcDbEntity
  8
0
100
AcDbSpline
 62
7
  6
CONTINUOUS
 70
0
 71
3
 72
16
 73
12
 74
0
 42
0.0000001
 43
0.0000001
 44
0.0000000001
 40
0.0
 40
0.0
 40
0.0
 40
0.0
 40
0.2459417946
 40
0.3693483186
 40
0.4312366164
 40
0.4932780916
 40
0.555497411
 40
0.6179272792
 40
0.743602743
 40
0.8707681696
 40
1.0
 40
1.0
 40
1.0
 40
1.0
 10
11.2644188313
 20
10.4938892025
 30
0.0
 10
11.2569147427
 20
10.5028322272
 30
0.0
 10
11.2451601584
 20
10.5158675632
 30
0.0
 10
11.2306234485
 20
10.5302844397
 30
0.0
 10
11.2220562982
 20
10.5383131483
 30
0.0
 10
11.2154945976
 20
10.5442317028
 30
0.0
 10
11.2088019604
 20
10.5500411911
 30
0.0
 10
11.1996761468
 20
10.5576519531
 30
0.0
 10
11.1878739823
 20
10.5668627732
 30
0.0
 10
11.1730383508
 20
10.5773077235
 30
0.0
 10
11.1627115148
 20
10.5837631741
 30
0.0
 10
11.1574167187
 20
10.5868607898
 30
0.0
  0
SPLINE
  5
418
100
AcDbEntity
  8
0
100
AcDbSpline
 62
7
  6
CONTINUOUS
 70
0
 71
3
 72
19
 73
15
 74
0
 42
0.0000001
 43
0.0000001
 44
0.0000000001
 40
0.0
 40
0.0
 40
0.0
 40
0.0
 40
0.0201236975
 40
0.0421835622
 40
0.0684162945
 40
0.1001726707
 40
0.1381974526
 40
0.1828721088
 40
0.2343911117
 40
0.2928390648
 40
0.4303971741
 40
0.5949692963
 40
0.7854274409
 40
1.0
 40
1.0
 40
1.0
 40
1.0
 10
9.1909463776
 20
11.1057028215
 30
0.0
 10
9.1909269595
 20
11.1056594575
 30
0.0
 10
9.1909044197
 20
11.1055593283
 30
0.0
 10
9.1909306282
 20
11.1053970975
 30
0.0
 10
9.1910103019
 20
11.1052240491
 30
0.0
 10
9.1911414721
 20
11.105038139
 30
0.0
 10
9.191324176
 20
11.1048383521
 30
0.0
 10
9.1915584578
 20
11.1046245036
 30
0.0
 10
9.1918442028
 20
11.1043968788
 30
0.0
 10
9.192319837
 20
11.1040569483
 30
0.0
 10
9.1930431233
 20
11.1036064695
 30
0.0
 10
9.1940621437
 20
11.10304524
 30
0.0
 10
9.1952653595
 20
11.1024438202
 30
0.0
 10
9.1961336282
 20
11.1020427309
 30
0.0
 10
9.1965960386
 20
11.1018357578
 30
0.0
  0
SPLINE
  5
419
100
AcDbEntity
  8
0
100
AcDbSpline
 62
7
  6
CONTINUOUS
 70
0
 71
3
 72
16
 73
12
 74
0
 42
0.0000001
 43
0.0000001
 44
0.0000000001
 40
0.0
 40
0.0
 40
0.0
 40
0.0
 40
0.2459417946
 40
0.3693483186
 40
0.4312366164
 40
0.4932780916
 40
0.555497411
 40
0.6179272792
 40
0.743602743
 40
0.8707681696
 40
1.0
 40
1.0
 40
1.0
 40
1.0
 10
10.8449826914
 20
10.1419404922
 30
0.0
 10
10.8374786027
 20
10.1508835168
 30
0.0
 10
10.8266824649
 20
10.1647230849
 30
0.0
 10
10.8150088863
 20
10.1815424139
 30
0.0
 10
10.8085898218
 20
10.1913735805
 30
0.0
 10
10.8039006108
 20
10.1988633403
 30
0.0
 10
10.799341546
 20
10.2064631084
 30
0.0
 10
10.7934310895
 20
10.2167718754
 30
0.0
 10
10.7864096268
 20
10.2299941805
 30
0.0
 10
10.7786995391
 20
10.2464181721
 30
0.0
 10
10.7741353975
 20
10.2577090974
 30
0.0
 10
10.7720042733
 20
10.263461349
 30
0.0
  0
SPLINE
  5
41A
100
AcDbEntity
  8
0
100
AcDbSpline
 62
7
  6
CONTINUOUS
 70
0
 71
3
 72
16
 73
12
 74
0
 42
0.0000001
 43
0.0000001
 44
0.0000000001
 40
0.0
 40
0.0
 40
0.0
 40
0.0
 40
0.2483747812
 40
0.3727350551
 40
0.4349887709
 40
0.497303498
 40
0.5596891751
 40
0.6221590076
 40
0.747425684
 40
0.8732929316
 40
1.0
 40
1.0
 40
1.0
 40
1.0
 10
10.9233562433
 20
10.2077037107
 30
0.0
 10
10.9158551322
 20
10.2166431868
 30
0.0
 10
10.9048950675
 20
10.2303124555
 30
0.0
 10
10.8926755832
 20
10.2466964884
 30
0.0
 10
10.8858517123
 20
10.2561954695
 30
0.0
 10
10.8808131198
 20
10.2633907786
 30
0.0
 10
10.8758560698
 20
10.2706548419
 30
0.0
 10
10.8693545137
 20
10.2804445905
 30
0.0
 10
10.8614575946
 20
10.2928868664
 30
0.0
 10
10.8524251949
 20
10.3081734022
 30
0.0
 10
10.8467581908
 20
10.3186037093
 30
0.0
 10
10.844020343
 20
10.3238900065
 30
0.0
  0
SPLINE
  5
41B
100
AcDbEntity
  8
0
100
AcDbSpline
 62
9
  6
CONTINUOUS
 70
0
 71
3
 72
30
 73
26
 74
0
 42
0.0000001
 43
0.0000001
 44
0.0000000001
 40
0.0
 40
0.0
 40
0.0
 40
0.0
 40
0.0432192783
 40
0.089588355
 40
0.1389836645
 40
0.1912915777
 40
0.2463954536
 40
0.3041776831
 40
0.3340365776
 40
0.3645215878
 40
0.3956184755
 40
0.4273116593
 40
0.4595839275
 40
0.492417927
 40
0.5257947217
 40
0.5596938204
 40
0.5940947213
 40
0.628977449
 40
0.7001097731
 40
0.7729333734
 40
0.8099303669
 40
0.8472921641
 40
0.8850004241
 40
0.9230363699
 40
1.0
 40
1.0
 40
1.0
 40
1.0
 10
9.0693091017
 20
12.0039322118
 30
0.0
 10
9.0674402549
 20
11.9997490668
 30
0.0
 10
9.0635658267
 20
11.9910781497
 30
0.0
 10
9.0575490981
 20
11.9776291761
 30
0.0
 10
9.0511378054
 20
11.9633012226
 30
0.0
 10
9.0443560643
 20
11.9481245937
 30
0.0
 10
9.0372132981
 20
11.9321354756
 30
0.0
 10
9.0310316462
 20
11.9183234619
 30
0.0
 10
9.025902274
 20
11.9068997838
 30
0.0
 10
9.0219240994
 20
11.8980601732
 30
0.0
 10
9.0178565127
 20
11.8890475726
 30
0.0
 10
9.0137047178
 20
11.8798651138
 30
0.0
 10
9.0094805989
 20
11.8705132576
 30
0.0
 10
9.0051957674
 20
11.860992991
 30
0.0
 10
9.0008576087
 20
11.8513076229
 30
0.0
 10
8.996468895
 20
11.84146291
 30
0.0
 10
8.9920344386
 20
11.8314638246
 30
0.0
 10
8.9860205219
 20
11.8178474374
 30
0.0
 10
8.9783809066
 20
11.8004963534
 30
0.0
 10
8.9706373695
 20
11.7829461277
 30
0.0
 10
8.9643130599
 20
11.7686826961
 30
0.0
 10
8.9594770031
 20
11.7578314526
 30
0.0
 10
8.954567389
 20
11.7468924432
 30
0.0
 10
8.9478887823
 20
11.7321458964
 30
0.0
 10
8.9428056446
 20
11.7210651109
 30
0.0
 10
8.9393837698
 20
11.7136585467
 30
0.0
  0
SPLINE
  5
41C
100
AcDbEntity
  8
0
100
AcDbSpline
 62
9
  6
CONTINUOUS
 70
0
 71
3
 72
15
 73
11
 74
0
 42
0.0000001
 43
0.0000001
 44
0.0000000001
 40
0.0
 40
0.0
 40
0.0
 40
0.0
 40
0.1327634162
 40
0.2651397126
 40
0.3960737829
 40
0.5243719656
 40
0.6495978918
 40
0.7712918871
 40
0.8883749886
 40
1.0
 40
1.0
 40
1.0
 40
1.0
 10
9.0693091017
 20
12.0039322118
 30
0.0
 10
9.0963088369
 20
11.9909174153
 30
0.0
 10
9.1502373422
 20
11.9649418765
 30
0.0
 10
9.2308040006
 20
11.9261525699
 30
0.0
 10
9.3104528908
 20
11.8877808609
 30
0.0
 10
9.3885968592
 20
11.8500047975
 30
0.0
 10
9.4647805582
 20
11.8129671031
 30
0.0
 10
9.538574328
 20
11.7768049049
 30
0.0
 10
9.6094294482
 20
11.7416257822
 30
0.0
 10
9.6555053994
 20
11.7183212347
 30
0.0
 10
9.6779334601
 20
11.7068298337
 30
0.0
  0
SPLINE
  5
41D
100
AcDbEntity
  8
0
100
AcDbSpline
 62
9
  6
CONTINUOUS
 70
0
 71
3
 72
14
 73
10
 74
0
 42
0.0000001
 43
0.0000001
 44
0.0000000001
 40
0.0
 40
0.0
 40
0.0
 40
0.0
 40
0.1143532878
 40
0.2326490063
 40
0.3544146354
 40
0.4791972769
 40
0.60656255
 40
0.7360856909
 40
1.0
 40
1.0
 40
1.0
 40
1.0
 10
9.6779334601
 20
11.7068298337
 30
0.0
 10
9.6769920849
 20
11.6963198717
 30
0.0
 10
9.6748123492
 20
11.6749603648
 30
0.0
 10
9.6706723642
 20
11.6425161025
 30
0.0
 10
9.6655301352
 20
11.6092406191
 30
0.0
 10
9.6593140339
 20
11.5752974573
 30
0.0
 10
9.6519525636
 20
11.5408501521
 30
0.0
 10
9.6404471891
 20
11.4941855871
 30
0.0
 10
9.6299917832
 20
11.4593767362
 30
0.0
 10
9.6221150491
 20
11.4363328531
 30
0.0
  0
LINE
  5
41E
100
AcDbEntity
  8
0
100
AcDbLine
 62
9
  6
CONTINUOUS
 10
9.6779334601
 20
11.7068298337
 11
9.7159445288
 21
11.6873069238
  0
SPLINE
  5
41F
100
AcDbEntity
  8
0
100
AcDbSpline
 62
9
  6
CONTINUOUS
 70
0
 71
3
 72
38
 73
34
 74
0
 42
0.0000001
 43
0.0000001
 44
0.0000000001
 40
0.0
 40
0.0
 40
0.0
 40
0.0
 40
0.1041741673
 40
0.2046422976
 40
0.3010321729
 40
0.3929618652
 40
0.4800407803
 40
0.5618705784
 40
0.6380459856
 40
0.7081555138
 40
0.7717826235
 40
0.8010345135
 40
0.8285081839
 40
0.8541505629
 40
0.8779083268
 40
0.8997279159
 40
0.9195555524
 40
0.9373372603
 40
0.9530188922
 40
0.9665461684
 40
0.9724849644
 40
0.9778647983
 40
0.9826788935
 40
0.9869204999
 40
0.9905829184
 40
0.9936595508
 40
0.9961440086
 40
0.9971623258
 40
0.9980304785
 40
0.9987479728
 40
0.9993146172
 40
0.9997309662
 40
1.0
 40
1.0
 40
1.0
 40
1.0
 10
9.6779334601
 20
11.7068298337
 30
0.0
 10
9.6787704823
 20
11.716174748
 30
0.0
 10
9.6802276933
 20
11.7345494151
 30
0.0
 10
9.6818421287
 20
11.7616149622
 30
0.0
 10
9.6829100622
 20
11.7876037902
 30
0.0
 10
9.6834933154
 20
11.8124015812
 30
0.0
 10
9.6836537295
 20
11.8358941833
 30
0.0
 10
9.6834531457
 20
11.8579673787
 30
0.0
 10
9.6829534333
 20
11.87850696
 30
0.0
 10
9.6822164421
 20
11.8973987133
 30
0.0
 10
9.6814357773
 20
11.9120578463
 30
0.0
 10
9.6807430714
 20
11.9228751876
 30
0.0
 10
9.6802175368
 20
11.9302749841
 30
0.0
 10
9.6796790822
 20
11.9371776204
 30
0.0
 10
9.6791354941
 20
11.9435689212
 30
0.0
 10
9.6785945787
 20
11.949434709
 30
0.0
 10
9.6780641452
 20
11.9547608079
 30
0.0
 10
9.6775520386
 20
11.9595330503
 30
0.0
 10
9.6770660813
 20
11.9637372611
 30
0.0
 10
9.6766742889
 20
11.966878517
 30
0.0
 10
9.6763789654
 20
11.9690966725
 30
0.0
 10
9.6761786463
 20
11.9705357822
 30
0.0
 10
9.6759907226
 20
11.9718222606
 30
0.0
 10
9.6758161875
 20
11.9729543411
 30
0.0
 10
9.675656101
 20
11.9739302813
 30
0.0
 10
9.6755114639
 20
11.9747483155
 30
0.0
 10
9.6753985693
 20
11.9753300903
 30
0.0
 10
9.6753154864
 20
11.9757148916
 30
0.0
 10
9.6752619305
 20
11.9759432556
 30
0.0
 10
9.6752130375
 20
11.9761308001
 30
0.0
 10
9.6751691876
 20
11.9762777442
 30
0.0
 10
9.6751303635
 20
11.9763833752
 30
0.0
 10
9.6751031889
 20
11.9764395835
 30
0.0
 10
9.6750885139
 20
11.9764588642
 30
0.0
  0
LINE
  5
420
100
AcDbEntity
  8
0
100
AcDbLine
 62
9
  6
CONTINUOUS
 10
9.0693091022
 20
12.0039322115
 11
9.0845369821
 21
12.0378684161
  0
SPLINE
  5
421
100
AcDbEntity
  8
0
100
AcDbSpline
 62
9
  6
CONTINUOUS
 70
0
 71
3
 72
55
 73
51
 74
0
 42
0.0000001
 43
0.0000001
 44
0.0000000001
 40
0.0
 40
0.0
 40
0.0
 40
0.0
 40
0.1171973782
 40
0.1731677903
 40
0.2273654839
 40
0.2797780699
 40
0.3303950884
 40
0.379206229
 40
0.4262019388
 40
0.4713729398
 40
0.5147094849
 40
0.5562005379
 40
0.5958252629
 40
0.6335581866
 40
0.6517083395
 40
0.6693781824
 40
0.7032796988
 40
0.7352700555
 40
0.7505498218
 40
0.7653537882
 40
0.7935379115
 40
0.8198258622
 40
0.8442163292
 40
0.8667032478
 40
0.8872768234
 40
0.8968398362
 40
0.9059051951
 40
0.9144608508
 40
0.9225040786
 40
0.9300486011
 40
0.9371231159
 40
0.9437551269
 40
0.9499679439
 40
0.9557766015
 40
0.9611595675
 40
0.9660629189
 40
0.9704207358
 40
0.9741847839
 40
0.9773539945
 40
0.9787402145
 40
0.9800240965
 40
0.981248006
 40
0.9824728524
 40
0.98377206
 40
0.9852201581
 40
0.9868834767
 40
0.9888166247
 40
0.9910623025
 40
0.9936554839
 40
1.0
 40
1.0
 40
1.0
 40
1.0
 10
9.0845369821
 20
12.0378684161
 30
0.0
 10
9.0871889403
 20
12.0437505604
 30
0.0
 10
9.09110306
 20
12.0524438333
 30
0.0
 10
9.0962122408
 20
12.0638713525
 30
0.0
 10
9.0998432781
 20
12.0720527091
 30
0.0
 10
9.1033391499
 20
12.0799715704
 30
0.0
 10
9.1067168496
 20
12.0876184287
 30
0.0
 10
9.1099920154
 20
12.0949845481
 30
0.0
 10
9.1131777271
 20
12.1020622244
 30
0.0
 10
9.1162635172
 20
12.1088542801
 30
0.0
 10
9.1192400704
 20
12.115363065
 30
0.0
 10
9.1220999478
 20
12.1215894243
 30
0.0
 10
9.124820931
 20
12.1275400821
 30
0.0
 10
9.1269752498
 20
12.1323368064
 30
0.0
 10
9.1286000121
 20
12.1360460714
 30
0.0
 10
9.1301115415
 20
12.1395745202
 30
0.0
 10
9.1318778433
 20
12.1438225336
 30
0.0
 10
9.1335739314
 20
12.147957077
 30
0.0
 10
9.1348861056
 20
12.1511126492
 30
0.0
 10
9.1361381292
 20
12.1540662167
 30
0.0
 10
9.137670176
 20
12.1575591797
 30
0.0
 10
9.1394700364
 20
12.1615104619
 30
0.0
 10
9.1411813908
 20
12.1651570565
 30
0.0
 10
9.1427875517
 20
12.1685053038
 30
0.0
 10
9.1440563556
 20
12.1711099052
 30
0.0
 10
9.1450050753
 20
12.1730484752
 30
0.0
 10
9.145648634
 20
12.1743997449
 30
0.0
 10
9.1462246812
 20
12.1756901684
 30
0.0
 10
9.1467171184
 20
12.1769254605
 30
0.0
 10
9.1471056891
 20
12.1781121176
 30
0.0
 10
9.1473909936
 20
12.1792477959
 30
0.0
 10
9.1475823221
 20
12.1803285635
 30
0.0
 10
9.147687828
 20
12.1813511087
 30
0.0
 10
9.1477137122
 20
12.1823097036
 30
0.0
 10
9.147689236
 20
12.1831957153
 30
0.0
 10
9.147646019
 20
12.184000733
 30
0.0
 10
9.1476151314
 20
12.184717383
 30
0.0
 10
9.1476238301
 20
12.185339236
 30
0.0
 10
9.1476842886
 20
12.1857960275
 30
0.0
 10
9.1477823732
 20
12.1861031744
 30
0.0
 10
9.1478782936
 20
12.1862960752
 30
0.0
 10
9.1480042184
 20
12.1864603899
 30
0.0
 10
9.1481643888
 20
12.1865933278
 30
0.0
 10
9.14836122
 20
12.1866924359
 30
0.0
 10
9.1485966753
 20
12.1867569127
 30
0.0
 10
9.148873689
 20
12.1867868371
 30
0.0
 10
9.1491958858
 20
12.186782076
 30
0.0
 10
9.1495669892
 20
12.1867422996
 30
0.0
 10
9.1501734376
 20
12.1866339572
 30
0.0
 10
9.1506497888
 20
12.1865072857
 30
0.0
 10
9.150984932
 20
12.1864088553
 30
0.0
  0
SPLINE
  5
422
100
AcDbEntity
  8
0
100
AcDbSpline
 62
7
  6
CONTINUOUS
 70
0
 71
3
 72
15
 73
11
 74
0
 42
0.0000001
 43
0.0000001
 44
0.0000000001
 40
0.0
 40
0.0
 40
0.0
 40
0.0
 40
0.1555066489
 40
0.3041931053
 40
0.4451436183
 40
0.5774137402
 40
0.7000342376
 40
0.8120144038
 40
0.9123448703
 40
1.0
 40
1.0
 40
1.0
 40
1.0
 10
9.7159445288
 20
11.6873069238
 30
0.0
 10
9.71687092
 20
11.6988467416
 30
0.0
 10
9.7183917774
 20
11.7214446658
 30
0.0
 10
9.7198126745
 20
11.7545564612
 30
0.0
 10
9.7204526529
 20
11.7859619995
 30
0.0
 10
9.7204377784
 20
11.815433006
 30
0.0
 10
9.7198941312
 20
11.8427414754
 30
0.0
 10
9.7189477871
 20
11.8676592762
 30
0.0
 10
9.7177248016
 20
11.8899581417
 30
0.0
 10
9.7167390318
 20
11.9039189052
 30
0.0
 10
9.7162275989
 20
11.9104244601
 30
0.0
  0
SPLINE
  5
423
100
AcDbEntity
  8
0
100
AcDbSpline
 62
9
  6
CONTINUOUS
 70
0
 71
3
 72
56
 73
52
 74
0
 42
0.0000001
 43
0.0000001
 44
0.0000000001
 40
0.0
 40
0.0
 40
0.0
 40
0.0
 40
0.0256930447
 40
0.0387425737
 40
0.0519220767
 40
0.0652272544
 40
0.0786542101
 40
0.0922008631
 40
0.1058655369
 40
0.1335422513
 40
0.1616701831
 40
0.1902322737
 40
0.2046705827
 40
0.2192111341
 40
0.2485957752
 40
0.2634386328
 40
0.2783811272
 40
0.2934217792
 40
0.3085564133
 40
0.3237803276
 40
0.3390888074
 40
0.3544772441
 40
0.3699430143
 40
0.3854873462
 40
0.4011118633
 40
0.4168183199
 40
0.4247029323
 40
0.4326088541
 40
0.448483534
 40
0.4644377292
 40
0.4804658374
 40
0.4965619864
 40
0.5127202523
 40
0.5289367927
 40
0.5452110841
 40
0.5615428632
 40
0.5779318707
 40
0.5943778921
 40
0.6108796805
 40
0.6274341389
 40
0.644037931
 40
0.6606876764
 40
0.6773799894
 40
0.6941121588
 40
0.7276895987
 40
0.7614075075
 40
0.7952521264
 40
0.8292064851
 40
0.8632533808
 40
0.9315541228
 40
1.0
 40
1.0
 40
1.0
 40
1.0
 10
9.6221150491
 20
11.4363328531
 30
0.0
 10
9.616154409
 20
11.4384111139
 30
0.0
 10
9.6071941386
 20
11.4416247465
 30
0.0
 10
9.5952206823
 20
11.446026119
 30
0.0
 10
9.5861162121
 20
11.4494107303
 30
0.0
 10
9.5769317881
 20
11.4528462599
 30
0.0
 10
9.5676646742
 20
11.4563182034
 30
0.0
 10
9.5583171183
 20
11.4598271837
 30
0.0
 10
9.5456952239
 20
11.4645755486
 30
0.0
 10
9.5297274913
 20
11.4706045505
 30
0.0
 10
9.5103490748
 20
11.4779621732
 30
0.0
 10
9.4940167186
 20
11.484179187
 30
0.0
 10
9.4808039487
 20
11.4892077432
 30
0.0
 10
9.4674013896
 20
11.4943057747
 30
0.0
 10
9.4539112878
 20
11.4994532888
 30
0.0
 10
9.4403462258
 20
11.5046811082
 30
0.0
 10
9.430081703
 20
11.5086728746
 30
0.0
 10
9.419764451
 20
11.5127266296
 30
0.0
 10
9.4093898417
 20
11.5168233907
 30
0.0
 10
9.3989547403
 20
11.5209461229
 30
0.0
 10
9.3884561031
 20
11.5250777366
 30
0.0
 10
9.3778896224
 20
11.529199136
 30
0.0
 10
9.3672533601
 20
11.5333008262
 30
0.0
 10
9.356558544
 20
11.5374118166
 30
0.0
 10
9.3458134199
 20
11.5415567505
 30
0.0
 10
9.3368364465
 20
11.5450562661
 30
0.0
 10
9.3296386263
 20
11.5478981964
 30
0.0
 10
9.3224126023
 20
11.5507811117
 30
0.0
 10
9.3133641933
 20
11.554446341
 30
0.0
 10
9.302487603
 20
11.5589131063
 30
0.0
 10
9.291573354
 20
11.5634312392
 30
0.0
 10
9.2806167261
 20
11.567978052
 30
0.0
 10
9.2696114166
 20
11.5725283431
 30
0.0
 10
9.2585548005
 20
11.5770689987
 30
0.0
 10
9.247454403
 20
11.5816152292
 30
0.0
 10
9.2363150808
 20
11.5861782252
 30
0.0
 10
9.2251419293
 20
11.5907699379
 30
0.0
 10
9.2139409158
 20
11.5954036814
 30
0.0
 10
9.2027157092
 20
11.6000851425
 30
0.0
 10
9.1914636351
 20
11.6048028056
 30
0.0
 10
9.18018357
 20
11.6095476942
 30
0.0
 10
9.1688742411
 20
11.6143103593
 30
0.0
 10
9.157533841
 20
11.6190805114
 30
0.0
 10
9.142354393
 20
11.6254503642
 30
0.0
 10
9.1233131137
 20
11.6334277592
 30
0.0
 10
9.1003997026
 20
11.6430433403
 30
0.0
 10
9.0774197795
 20
11.6527396654
 30
0.0
 10
9.0543951208
 20
11.662537684
 30
0.0
 10
9.0236365111
 20
11.6757806064
 30
0.0
 10
8.9852196382
 20
11.6926644969
 30
0.0
 10
8.9546358849
 20
11.7065755038
 30
0.0
 10
8.9393837651
 20
11.7136585489
 30
0.0
  0
SPLINE
  5
424
100
AcDbEntity
  8
0
100
AcDbSpline
 62
9
  6
CONTINUOUS
 70
0
 71
3
 72
14
 73
10
 74
0
 42
0.0000001
 43
0.0000001
 44
0.0000000001
 40
0.0
 40
0.0
 40
0.0
 40
0.0
 40
0.1247303801
 40
0.2506232104
 40
0.5035014933
 40
0.6293532502
 40
0.7542127403
 40
0.8777894225
 40
1.0
 40
1.0
 40
1.0
 40
1.0
 10
9.4409834365
 20
11.0509040113
 30
0.0
 10
9.4484628465
 20
11.0669669865
 30
0.0
 10
9.4639546898
 20
11.0990272783
 30
0.0
 10
9.4962066607
 20
11.1628705466
 30
0.0
 10
9.5292388269
 20
11.2264946273
 30
0.0
 10
9.5610116807
 20
11.290594535
 30
0.0
 10
9.5835356848
 20
11.3387665467
 30
0.0
 10
9.6042261847
 20
11.3871972091
 30
0.0
 10
9.6164889794
 20
11.4199087563
 30
0.0
 10
9.6221150491
 20
11.4363328531
 30
0.0
  0
LINE
  5
425
100
AcDbEntity
  8
0
100
AcDbLine
 62
9
  6
CONTINUOUS
 10
9.6221150493
 20
11.4363328537
 11
9.6630750934
 21
11.4214344048
  0
SPLINE
  5
426
100
AcDbEntity
  8
0
100
AcDbSpline
 62
9
  6
CONTINUOUS
 70
0
 71
3
 72
15
 73
11
 74
0
 42
0.0000001
 43
0.0000001
 44
0.0000000001
 40
0.0
 40
0.0
 40
0.0
 40
0.0
 40
0.1253354213
 40
0.2513420865
 40
0.3776285907
 40
0.5037743882
 40
0.6293734625
 40
0.7540786973
 40
0.8776489189
 40
1.0
 40
1.0
 40
1.0
 40
1.0
 10
9.4757549821
 20
11.0353404058
 30
0.0
 10
9.4835878073
 20
11.051485047
 30
0.0
 10
9.4997680153
 20
11.0836318638
 30
0.0
 10
9.5249367773
 20
11.1314827578
 30
0.0
 10
9.5504994587
 20
11.1792550164
 30
0.0
 10
9.5758652783
 20
11.2270667092
 30
0.0
 10
9.6004435819
 20
11.2750367149
 30
0.0
 10
9.6236431039
 20
11.323285866
 30
0.0
 10
9.6448698549
 20
11.3719338541
 30
0.0
 10
9.6573677667
 20
11.4048730861
 30
0.0
 10
9.6630750934
 20
11.4214344048
 30
0.0
  0
SPLINE
  5
427
100
AcDbEntity
  8
0
100
AcDbSpline
 62
9
  6
CONTINUOUS
 70
0
 71
3
 72
110
 73
106
 74
0
 42
0.0000001
 43
0.0000001
 44
0.0000000001
 40
0.0
 40
0.0
 40
0.0
 40
0.0
 40
0.0122238005
 40
0.0244607576
 40
0.0367340101
 40
0.042879753
 40
0.0490261601
 40
0.0551686934
 40
0.0582371972
 40
0.0613033117
 40
0.067428681
 40
0.0735462677
 40
0.0796573305
 40
0.0857628084
 40
0.097959488
 40
0.1040515255
 40
0.1101397123
 40
0.1162242748
 40
0.1223054195
 40
0.1283829956
 40
0.1344566649
 40
0.1465908277
 40
0.15870487
 40
0.1707955911
 40
0.1828598238
 40
0.1948953792
 40
0.2188742148
 40
0.2308143682
 40
0.2427195663
 40
0.266417898
 40
0.2899544448
 40
0.3133147108
 40
0.3364853986
 40
0.3822055857
 40
0.4047286539
 40
0.4270090872
 40
0.4490329165
 40
0.4707863073
 40
0.4922560983
 40
0.5134293264
 40
0.534293484
 40
0.5548363796
 40
0.5949088636
 40
0.6335472258
 40
0.6522986467
 40
0.6706563537
 40
0.7061476578
 40
0.723260929
 40
0.7399395957
 40
0.7561735224
 40
0.7719524013
 40
0.8021058616
 40
0.8164618768
 40
0.8303260711
 40
0.8436903518
 40
0.8565468104
 40
0.8807052109
 40
0.8919920606
 40
0.9027409446
 40
0.9129453334
 40
0.9225989655
 40
0.9316965234
 40
0.9402334574
 40
0.9482052711
 40
0.9556075291
 40
0.9624355467
 40
0.9686830027
 40
0.9715868508
 40
0.9743431919
 40
0.9794155126
 40
0.9817330842
 40
0.9839060673
 40
0.9859339255
 40
0.987812554
 40
0.9895373929
 40
0.9903408839
 40
0.9911045602
 40
0.9918281891
 40
0.9925119249
 40
0.9937648388
 40
0.994336501
 40
0.9948733442
 40
0.9953773259
 40
0.9958516314
 40
0.9963014125
 40
0.9967345731
 40
0.9969484376
 40
0.9971623427
 40
0.9975864286
 40
0.9979911743
 40
0.9981796217
 40
0.9983548806
 40
0.9985139778
 40
0.9986540483
 40
0.9987725842
 40
0.9988680287
 40
0.9989414731
 40
0.9989723928
 40
0.999002101
 40
0.9990691507
 40
0.9991638789
 40
0.9992980355
 40
0.9994786796
 40
0.9997111281
 40
1.0
 40
1.0
 40
1.0
 40
1.0
 10
8.9393837703
 20
11.7136585478
 30
0.0
 10
8.9356209664
 20
11.7148193859
 30
0.0
 10
8.9281988577
 20
11.7174979289
 30
0.0
 10
8.9173671916
 20
11.722275959
 30
0.0
 10
8.9085108595
 20
11.7266489455
 30
0.0
 10
8.9014627828
 20
11.730247188
 30
0.0
 10
8.896180789
 20
11.7329614946
 30
0.0
 10
8.8917722528
 20
11.7352066466
 30
0.0
 10
8.8882347479
 20
11.7369753049
 30
0.0
 10
8.8846904056
 20
11.738717728
 30
0.0
 10
8.8802428863
 20
11.7408490514
 30
0.0
 10
8.8748818899
 20
11.7433429913
 30
0.0
 10
8.8695027731
 20
11.7457820615
 30
0.0
 10
8.8623146427
 20
11.7489730522
 30
0.0
 10
8.8551031063
 20
11.7520955406
 30
0.0
 10
8.8478851173
 20
11.7551886312
 30
0.0
 10
8.8424753414
 20
11.7575025098
 30
0.0
 10
8.8370713075
 20
11.7598208875
 30
0.0
 10
8.8316776066
 20
11.7621546265
 30
0.0
 10
8.8262941707
 20
11.7645031768
 30
0.0
 10
8.8191312875
 20
11.7676492706
 30
0.0
 10
8.8102002799
 20
11.7716053011
 30
0.0
 10
8.7995085053
 20
11.776372176
 30
0.0
 10
8.7888408876
 20
11.7811378987
 30
0.0
 10
8.7781904391
 20
11.7858800543
 30
0.0
 10
8.7640326315
 20
11.7921600831
 30
0.0
 10
8.7499053851
 20
11.7984104073
 30
0.0
 10
8.7358215958
 20
11.8046551566
 30
0.0
 10
8.7218279063
 20
11.8108801557
 30
0.0
 10
8.7044334524
 20
11.8186514182
 30
0.0
 10
8.6836827814
 20
11.8279569021
 30
0.0
 10
8.6630936173
 20
11.8372071144
 30
0.0
 10
8.6359901045
 20
11.8493954522
 30
0.0
 10
8.6091324909
 20
11.8614730335
 30
0.0
 10
8.5825227943
 20
11.873402612
 30
0.0
 10
8.5628712876
 20
11.8821928093
 30
0.0
 10
8.5434440683
 20
11.8908771857
 30
0.0
 10
8.524257528
 20
11.8994600743
 30
0.0
 10
8.5053231054
 20
11.9079355175
 30
0.0
 10
8.4866521195
 20
11.9162983386
 30
0.0
 10
8.4682537519
 20
11.924539355
 30
0.0
 10
8.4442946639
 20
11.9352593133
 30
0.0
 10
8.4150974315
 20
11.9482917248
 30
0.0
 10
8.3864321317
 20
11.9610999719
 30
0.0
 10
8.3641622881
 20
11.9710741271
 30
0.0
 10
8.3428228633
 20
11.9806454439
 30
0.0
 10
8.3219674687
 20
11.9900064314
 30
0.0
 10
8.3016007534
 20
11.999135272
 30
0.0
 10
8.2868906406
 20
12.0057170126
 30
0.0
 10
8.272570317
 20
12.0121173996
 30
0.0
 10
8.2542878222
 20
12.0202908318
 30
0.0
 10
8.2365616537
 20
12.0282264195
 30
0.0
 10
8.2194012782
 20
12.0359163007
 30
0.0
 10
8.2071759386
 20
12.0413932116
 30
0.0
 10
8.1953883354
 20
12.0466656646
 30
0.0
 10
8.1805701922
 20
12.0532845995
 30
0.0
 10
8.1663626438
 20
12.0596296017
 30
0.0
 10
8.1527795409
 20
12.0657078605
 30
0.0
 10
8.1433026713
 20
12.069957053
 30
0.0
 10
8.1343076773
 20
12.0739949942
 30
0.0
 10
8.125798006
 20
12.0778151181
 30
0.0
 10
8.1177773289
 20
12.081412916
 30
0.0
 10
8.1102492732
 20
12.0847851654
 30
0.0
 10
8.103217334
 20
12.0879290364
 30
0.0
 10
8.0966864522
 20
12.0908448261
 30
0.0
 10
8.0906615862
 20
12.093531432
 30
0.0
 10
8.0859619669
 20
12.0956317789
 30
0.0
 10
8.0824632241
 20
12.0972044609
 30
0.0
 10
8.0793127318
 20
12.098628517
 30
0.0
 10
8.0763356875
 20
12.0999777855
 30
0.0
 10
8.0735228108
 20
12.1012339323
 30
0.0
 10
8.0715995759
 20
12.1020769421
 30
0.0
 10
8.0697989457
 20
12.1028472078
 30
0.0
 10
8.0681309429
 20
12.1035603929
 30
0.0
 10
8.0668309164
 20
12.1041310037
 30
0.0
 10
8.0658674458
 20
12.1045742202
 30
0.0
 10
8.0652019407
 20
12.104893192
 30
0.0
 10
8.064577452
 20
12.1052082276
 30
0.0
 10
8.0638228523
 20
12.1056146466
 30
0.0
 10
8.0631229079
 20
12.1060184859
 30
0.0
 10
8.0624611109
 20
12.1063936087
 30
0.0
 10
8.0620035919
 20
12.1066397546
 30
0.0
 10
8.0615644196
 20
12.1068532065
 30
0.0
 10
8.061138194
 20
12.1070275198
 30
0.0
 10
8.0607195088
 20
12.1071560689
 30
0.0
 10
8.0603707441
 20
12.1072192901
 30
0.0
 10
8.0600938845
 20
12.1072393096
 30
0.0
 10
8.0598192332
 20
12.1072381299
 30
0.0
 10
8.0594843035
 20
12.1072048197
 30
0.0
 10
8.0591615349
 20
12.1071475068
 30
0.0
 10
8.0589189838
 20
12.1070980039
 30
0.0
 10
8.0587541156
 20
12.1070636291
 30
0.0
 10
8.0586041619
 20
12.107034014
 30
0.0
 10
8.0584714088
 20
12.1070119848
 30
0.0
 10
8.0583577309
 20
12.1070003504
 30
0.0
 10
8.0582650595
 20
12.1070015324
 30
0.0
 10
8.0582009846
 20
12.1070172527
 30
0.0
 10
8.0581652253
 20
12.1070424508
 30
0.0
 10
8.0581400134
 20
12.1070759631
 30
0.0
 10
8.0581315463
 20
12.1071403605
 30
0.0
 10
8.0581563652
 20
12.1072332102
 30
0.0
 10
8.058211997
 20
12.1073532334
 30
0.0
 10
8.0583028837
 20
12.1075045189
 30
0.0
 10
8.0584311789
 20
12.1076908294
 30
0.0
 10
8.0585320818
 20
12.1078251251
 30
0.0
 10
8.0585888951
 20
12.1078988271
 30
0.0
  0
SPLINE
  5
428
100
AcDbEntity
  8
0
100
AcDbSpline
 62
7
  6
CONTINUOUS
 70
0
 71
3
 72
22
 73
18
 74
0
 42
0.0000001
 43
0.0000001
 44
0.0000000001
 40
0.0
 40
0.0
 40
0.0
 40
0.0
 40
0.0124762445
 40
0.0207599666
 40
0.0306071898
 40
0.0420933817
 40
0.0552513117
 40
0.0866231273
 40
0.1248308173
 40
0.1698993386
 40
0.2218604766
 40
0.2807237087
 40
0.3465106231
 40
0.4192333553
 40
0.5856086217
 40
0.7795182989
 40
1.0
 40
1.0
 40
1.0
 40
1.0
 10
12.8732960023
 20
7.4372623437
 30
0.0
 10
12.8733822946
 20
7.4372059457
 30
0.0
 10
12.8735630764
 20
7.4371754317
 30
0.0
 10
12.8738135507
 20
7.4371980522
 30
0.0
 10
12.8740533011
 20
7.4372529267
 30
0.0
 10
12.8743231727
 20
7.4373450521
 30
0.0
 10
12.8747480941
 20
7.4375297816
 30
0.0
 10
12.8753447727
 20
7.4378667082
 30
0.0
 10
12.8761252348
 20
7.4384050377
 30
0.0
 10
12.8769992844
 20
7.4391023847
 30
0.0
 10
12.8779639658
 20
7.4399565706
 30
0.0
 10
12.8790176032
 20
7.4409666086
 30
0.0
 10
12.8801639698
 20
7.4421267323
 30
0.0
 10
12.8819019923
 20
7.4439504354
 30
0.0
 10
12.8843389849
 20
7.4465700045
 30
0.0
 10
12.8876808717
 20
7.4500146413
 30
0.0
 10
12.8902040633
 20
7.4523353895
 30
0.0
 10
12.8915996278
 20
7.4535064072
 30
0.0
  0
SPLINE
  5
429
100
AcDbEntity
  8
0
100
AcDbSpline
 62
7
  6
CONTINUOUS
 70
0
 71
3
 72
22
 73
18
 74
0
 42
0.0000001
 43
0.0000001
 44
0.0000000001
 40
0.0
 40
0.0
 40
0.0
 40
0.0
 40
0.0060261106
 40
0.0113589573
 40
0.0184793624
 40
0.0274470366
 40
0.0382901583
 40
0.0510239933
 40
0.0656603585
 40
0.1006723729
 40
0.1433694649
 40
0.1937840186
 40
0.2519725987
 40
0.3918901611
 40
0.5632081752
 40
0.7658624693
 40
1.0
 40
1.0
 40
1.0
 40
1.0
 10
12.8596124296
 20
7.4245884032
 30
0.0
 10
12.8596328953
 20
7.4245754696
 30
0.0
 10
12.8596861409
 20
7.4245957117
 30
0.0
 10
12.8597438462
 20
7.4246362189
 30
0.0
 10
12.8598105767
 20
7.4246928724
 30
0.0
 10
12.8598873712
 20
7.4247684368
 30
0.0
 10
12.8599767431
 20
7.4248641565
 30
0.0
 10
12.8600777394
 20
7.4249797261
 30
0.0
 10
12.860238392
 20
7.425172136
 30
0.0
 10
12.8604691358
 20
7.4254626807
 30
0.0
 10
12.860783234
 20
7.425870486
 30
0.0
 10
12.8611509934
 20
7.4263544656
 30
0.0
 10
12.8617571432
 20
7.4271478424
 30
0.0
 10
12.8626733644
 20
7.4283156464
 30
0.0
 10
12.8640083698
 20
7.4298915058
 30
0.0
 10
12.8656885831
 20
7.4316671105
 30
0.0
 10
12.8669855211
 20
7.4328527193
 30
0.0
 10
12.8677061008
 20
7.4334573575
 30
0.0
  0
SPLINE
  5
42A
100
AcDbEntity
  8
0
100
AcDbSpline
 62
9
  6
CONTINUOUS
 70
0
 71
3
 72
23
 73
19
 74
0
 42
0.0000001
 43
0.0000001
 44
0.0000000001
 40
0.0
 40
0.0
 40
0.0
 40
0.0
 40
0.0413680067
 40
0.0873899058
 40
0.1375666885
 40
0.1913963573
 40
0.2483981141
 40
0.3081791356
 40
0.3703647715
 40
0.4345784446
 40
0.5004864708
 40
0.567927369
 40
0.6367874905
 40
0.7069610216
 40
0.7783653719
 40
0.8509863597
 40
0.9248471257
 40
1.0
 40
1.0
 40
1.0
 40
1.0
 10
9.6018794388
 20
10.9788876007
 30
0.0
 10
9.6050802566
 20
10.9842221321
 30
0.0
 10
9.6119817824
 20
10.9954076124
 30
0.0
 10
9.6231628299
 20
11.0128147865
 30
0.0
 10
9.635640272
 20
11.0316135129
 30
0.0
 10
9.6492916425
 20
11.0516122858
 30
0.0
 10
9.6640021962
 20
11.0726344127
 30
0.0
 10
9.6795799234
 20
11.0945823207
 30
0.0
 10
9.6958446397
 20
11.1173724133
 30
0.0
 10
9.7126209319
 20
11.1409294166
 30
0.0
 10
9.729751397
 20
11.1652042816
 30
0.0
 10
9.7470903614
 20
11.1901864358
 30
0.0
 10
9.7645107623
 20
11.2158910417
 30
0.0
 10
9.7818902566
 20
11.2423400424
 30
0.0
 10
9.7991115273
 20
11.2695648714
 30
0.0
 10
9.8160102312
 20
11.2976418966
 30
0.0
 10
9.83242702
 20
11.3266540215
 30
0.0
 10
9.8428508315
 20
11.3464971665
 30
0.0
 10
9.847930684
 20
11.3565930742
 30
0.0
  0
SPLINE
  5
42B
100
AcDbEntity
  8
0
100
AcDbSpline
 62
7
  6
CONTINUOUS
 70
0
 71
3
 72
19
 73
15
 74
0
 42
0.0000001
 43
0.0000001
 44
0.0000000001
 40
0.0
 40
0.0
 40
0.0
 40
0.0
 40
0.019304454
 40
0.0410881363
 40
0.0676088225
 40
0.1001106941
 40
0.1392079954
 40
0.1851827565
 40
0.2381126268
 40
0.2979694277
 40
0.437881672
 40
0.6032464402
 40
0.7916452464
 40
1.0
 40
1.0
 40
1.0
 40
1.0
 10
9.0573650794
 20
11.1664315697
 30
0.0
 10
9.0573333653
 20
11.1663607383
 30
0.0
 10
9.0572996309
 20
11.1661931588
 30
0.0
 10
9.0573540919
 20
11.165922031
 30
0.0
 10
9.0575000669
 20
11.1656292195
 30
0.0
 10
9.0577351303
 20
11.1653108422
 30
0.0
 10
9.0580592551
 20
11.1649657791
 30
0.0
 10
9.0584722729
 20
11.1645946435
 30
0.0
 10
9.0589731843
 20
11.1641985873
 30
0.0
 10
9.0598004176
 20
11.1636083651
 30
0.0
 10
9.0610458201
 20
11.1628290969
 30
0.0
 10
9.0627817177
 20
11.1618658913
 30
0.0
 10
9.0648007491
 20
11.1608497427
 30
0.0
 10
9.0662481453
 20
11.1601789563
 30
0.0
 10
9.0670126773
 20
11.1598367548
 30
0.0
  0
SPLINE
  5
42C
100
AcDbEntity
  8
0
100
AcDbSpline
 62
9
  6
CONTINUOUS
 70
0
 71
3
 72
19
 73
15
 74
0
 42
0.0000001
 43
0.0000001
 44
0.0000000001
 40
0.0
 40
0.0
 40
0.0
 40
0.0
 40
0.0575408776
 40
0.116402816
 40
0.1764053341
 40
0.2373618051
 40
0.2990917483
 40
0.3614540643
 40
0.4875375336
 40
0.614662432
 40
0.7424501564
 40
0.8707999854
 40
0.9352641434
 40
1.0
 40
1.0
 40
1.0
 40
1.0
 10
9.5115871576
 20
11.0193020666
 30
0.0
 10
9.5149929595
 20
11.0268737017
 30
0.0
 10
9.5220423369
 20
11.0421193666
 30
0.0
 10
9.5331262689
 20
11.0650332331
 30
0.0
 10
9.5447665415
 20
11.0882221122
 30
0.0
 10
9.5568795642
 20
11.1116342164
 30
0.0
 10
9.5693853016
 20
11.1352247249
 30
0.0
 10
9.5864994041
 20
11.1670068881
 30
0.0
 10
9.6082759429
 20
11.2069941489
 30
0.0
 10
9.6342486526
 20
11.255445748
 30
0.0
 10
9.6594414782
 20
11.3046786806
 30
0.0
 10
9.6792080178
 20
11.3465165083
 30
0.0
 10
9.6938892165
 20
11.3806582696
 30
0.0
 10
9.7007847056
 20
11.3979813027
 30
0.0
 10
9.7041048946
 20
11.4067117769
 30
0.0
  0
LINE
  5
42D
100
AcDbEntity
  8
0
100
AcDbLine
 62
7
  6
CONTINUOUS
 10
10.0019267969
 20
10.8238755887
 11
10.14652551
 21
10.9452069092
  0
SPLINE
  5
42E
100
AcDbEntity
  8
0
100
AcDbSpline
 62
9
  6
CONTINUOUS
 70
0
 71
3
 72
46
 73
42
 74
0
 42
0.0000001
 43
0.0000001
 44
0.0000000001
 40
0.0
 40
0.0
 40
0.0
 40
0.0
 40
0.0001584725
 40
0.0002927176
 40
0.0004696456
 40
0.0006907325
 40
0.0009566101
 40
0.0012675435
 40
0.0016236158
 40
0.0024710256
 40
0.0034981529
 40
0.0047038348
 40
0.0060867084
 40
0.0093780791
 40
0.0133599438
 40
0.0180195257
 40
0.0233438726
 40
0.0293199552
 40
0.0359347152
 40
0.0431750903
 40
0.0510280297
 40
0.0594805037
 40
0.0685195102
 40
0.0883052595
 40
0.1102819957
 40
0.134347114
 40
0.160398785
 40
0.1883360386
 40
0.2180588483
 40
0.2494682206
 40
0.2824662917
 40
0.3169564324
 40
0.3528433631
 40
0.3900332812
 40
0.4679531224
 40
0.5500021722
 40
0.6354994249
 40
0.7238053193
 40
0.814330541
 40
0.9065468099
 40
1.0
 40
1.0
 40
1.0
 40
1.0
 10
9.7750853598
 20
11.9224089896
 30
0.0
 10
9.7750578546
 20
11.9224058795
 30
0.0
 10
9.7750221647
 20
11.9223551019
 30
0.0
 10
9.7749948624
 20
11.9222812726
 30
0.0
 10
9.7749709026
 20
11.9221900767
 30
0.0
 10
9.7749500296
 20
11.922076395
 30
0.0
 10
9.7749309607
 20
11.9219381484
 30
0.0
 10
9.7749141717
 20
11.9217760971
 30
0.0
 10
9.7748933877
 20
11.92151235
 30
0.0
 10
9.7748741846
 20
11.9211231441
 30
0.0
 10
9.7748599787
 20
11.9205852803
 30
0.0
 10
9.7748533737
 20
11.9199537416
 30
0.0
 10
9.7748543175
 20
11.9189266767
 30
0.0
 10
9.774875074
 20
11.9174148028
 30
0.0
 10
9.774922114
 20
11.9153310134
 30
0.0
 10
9.7749899107
 20
11.912892534
 30
0.0
 10
9.7750751748
 20
11.9101060928
 30
0.0
 10
9.7751746895
 20
11.9069784182
 30
0.0
 10
9.7752851389
 20
11.9035162489
 30
0.0
 10
9.7754031979
 20
11.899726324
 30
0.0
 10
9.7755255216
 20
11.8956153846
 30
0.0
 10
9.7756487528
 20
11.8911901714
 30
0.0
 10
9.7758148843
 20
11.8846810498
 30
0.0
 10
9.7760044301
 20
11.8758094912
 30
0.0
 10
9.7761750957
 20
11.8643125178
 30
0.0
 10
9.776268557
 20
11.851720116
 30
0.0
 10
9.7762578901
 20
11.8380862067
 30
0.0
 10
9.7761161664
 20
11.8234647058
 30
0.0
 10
9.77581643
 20
11.8079095271
 30
0.0
 10
9.7753317151
 20
11.7914745814
 30
0.0
 10
9.7746350469
 20
11.7742137725
 30
0.0
 10
9.7736994433
 20
11.7561810159
 30
0.0
 10
9.7724979239
 20
11.7374301616
 30
0.0
 10
9.770473695
 20
11.7111326714
 30
0.0
 10
9.7671234874
 20
11.6768531195
 30
0.0
 10
9.7616729961
 20
11.6343181715
 30
0.0
 10
9.7545159967
 20
11.5901957407
 30
0.0
 10
9.7454363431
 20
11.5449150283
 30
0.0
 10
9.734217041
 20
11.498903826
 30
0.0
 10
9.7206412307
 20
11.4525919018
 30
0.0
 10
9.7099292745
 20
11.4219608447
 30
0.0
 10
9.7041048946
 20
11.4067117769
 30
0.0
  0
SPLINE
  5
42F
100
AcDbEntity
  8
0
100
AcDbSpline
 62
7
  6
CONTINUOUS
 70
0
 71
3
 72
12
 73
8
 74
0
 42
0.0000001
 43
0.0000001
 44
0.0000000001
 40
0.0
 40
0.0
 40
0.0
 40
0.0
 40
0.2609272042
 40
0.3895553231
 40
0.5165230663
 40
0.7639634079
 40
1.0
 40
1.0
 40
1.0
 40
1.0
 10
9.6630764868
 20
11.4214384482
 30
0.0
 10
9.6707771056
 20
11.4437841951
 30
0.0
 10
9.680894164
 20
11.4776383962
 30
0.0
 10
9.6918482229
 20
11.5231311701
 30
0.0
 10
9.7010347326
 20
11.567769894
 30
0.0
 10
9.7096892753
 20
11.6224166763
 30
0.0
 10
9.7142336337
 20
11.665994741
 30
0.0
 10
9.7159445288
 20
11.6873069238
 30
0.0
  0
SPLINE
  5
430
100
AcDbEntity
  8
0
100
AcDbSpline
 62
9
  6
CONTINUOUS
 70
0
 71
3
 72
40
 73
36
 74
0
 42
0.0000001
 43
0.0000001
 44
0.0000000001
 40
0.0
 40
0.0
 40
0.0
 40
0.0
 40
0.2245314563
 40
0.3271039919
 40
0.4230168855
 40
0.512121538
 40
0.5942688881
 40
0.6693094303
 40
0.7370932314
 40
0.7974699467
 40
0.8248335681
 40
0.8502888589
 40
0.873816917
 40
0.8953988171
 40
0.9150156118
 40
0.932648331
 40
0.9482779833
 40
0.9618855558
 40
0.9734520146
 40
0.9784638731
 40
0.9829583061
 40
0.9869329287
 40
0.9903853547
 40
0.9933131965
 40
0.9957140656
 40
0.9967161387
 40
0.9975855722
 40
0.9983220674
 40
0.9989253252
 40
0.9993950465
 40
0.9997309322
 40
0.9998485933
 40
0.9999326832
 40
0.9999831646
 40
1.0
 40
1.0
 40
1.0
 40
1.0
 10
9.7162275989
 20
11.9104244601
 30
0.0
 10
9.7159506982
 20
11.9139467054
 30
0.0
 10
9.7155251328
 20
11.9190763174
 30
0.0
 10
9.7149298354
 20
11.9257060375
 30
0.0
 10
9.7145057097
 20
11.930211505
 30
0.0
 10
9.7140940442
 20
11.9343952838
 30
0.0
 10
9.7136985805
 20
11.9382505995
 30
0.0
 10
9.7133230638
 20
11.9417706762
 30
0.0
 10
9.7129712368
 20
11.9449487376
 30
0.0
 10
9.7126924742
 20
11.9473800646
 30
0.0
 10
9.7124843313
 20
11.9491490512
 30
0.0
 10
9.7123416772
 20
11.9503419093
 30
0.0
 10
9.7122077514
 20
11.9514441827
 30
0.0
 10
9.7120830218
 20
11.9524550243
 30
0.0
 10
9.7119679565
 20
11.9533735872
 30
0.0
 10
9.7118630235
 20
11.9541990243
 30
0.0
 10
9.7117686909
 20
11.9549304887
 30
0.0
 10
9.7116854265
 20
11.9555671332
 30
0.0
 10
9.7116229948
 20
11.9560380024
 30
0.0
 10
9.7115789573
 20
11.9563666553
 30
0.0
 10
9.7115506004
 20
11.9565768803
 30
0.0
 10
9.7115253615
 20
11.956762765
 30
0.0
 10
9.7115032993
 20
11.9569242039
 30
0.0
 10
9.7114844717
 20
11.9570610905
 30
0.0
 10
9.7114708145
 20
11.9571597684
 30
0.0
 10
9.7114615509
 20
11.9572263542
 30
0.0
 10
9.7114558824
 20
11.957267001
 30
0.0
 10
9.711451055
 20
11.957301421
 30
0.0
 10
9.71144712
 20
11.9573296368
 30
0.0
 10
9.7114439671
 20
11.9573515395
 30
0.0
 10
9.7114420624
 20
11.9573660283
 30
0.0
 10
9.711440705
 20
11.9573742655
 30
0.0
 10
9.7114404294
 20
11.9573784242
 30
0.0
 10
9.7114395967
 20
11.9573803782
 30
0.0
 10
9.7114399633
 20
11.9573818463
 30
0.0
 10
9.7114397141
 20
11.9573819363
 30
0.0
  0
SPLINE
  5
431
100
AcDbEntity
  8
0
100
AcDbSpline
 62
9
  6
CONTINUOUS
 70
0
 71
3
 72
44
 73
40
 74
0
 42
0.0000001
 43
0.0000001
 44
0.0000000001
 40
0.0
 40
0.0
 40
0.0
 40
0.0
 40
0.000143029
 40
0.0002937148
 40
0.0004649029
 40
0.0006653985
 40
0.001173173
 40
0.0018404648
 40
0.0026755839
 40
0.0036818253
 40
0.0048603153
 40
0.0062111153
 40
0.0077337083
 40
0.0094272388
 40
0.0133226502
 40
0.0178875132
 40
0.0231107675
 40
0.0289807838
 40
0.035485616
 40
0.0426131348
 40
0.0503511024
 40
0.0676091479
 40
0.0871610624
 40
0.1089081172
 40
0.132751853
 40
0.1585942605
 40
0.1863379076
 40
0.2158860432
 40
0.247142691
 40
0.2800127392
 40
0.3144020331
 40
0.3873660703
 40
0.4653052053
 40
0.5475114513
 40
0.6333037003
 40
0.7220332734
 40
0.8130907351
 40
0.9059142759
 40
1.0
 40
1.0
 40
1.0
 40
1.0
 10
9.972780154
 20
11.8001353799
 30
0.0
 10
9.9727585013
 20
11.8001396655
 30
0.0
 10
9.9727122084
 20
11.8001411555
 30
0.0
 10
9.9726426473
 20
11.8001197637
 30
0.0
 10
9.9725737963
 20
11.8000765451
 30
0.0
 10
9.9724742445
 20
11.7999834692
 30
0.0
 10
9.9723519223
 20
11.7998078414
 30
0.0
 10
9.9722108216
 20
11.7995312946
 30
0.0
 10
9.9720649758
 20
11.799172222
 30
0.0
 10
9.9719142635
 20
11.7987310985
 30
0.0
 10
9.9717585819
 20
11.7982080402
 30
0.0
 10
9.9715978183
 20
11.7976036939
 30
0.0
 10
9.9714318007
 20
11.7969186933
 30
0.0
 10
9.971191855
 20
11.7958477222
 30
0.0
 10
9.9708816246
 20
11.7943116082
 30
0.0
 10
9.9704996716
 20
11.7922346863
 30
0.0
 10
9.9700913239
 20
11.7898529692
 30
0.0
 10
9.9696548193
 20
11.7871724495
 30
0.0
 10
9.9691884548
 20
11.7841991078
 30
0.0
 10
9.968690414
 20
11.7809389737
 30
0.0
 10
9.9679545815
 20
11.7760364548
 30
0.0
 10
9.9669495445
 20
11.7692355013
 30
0.0
 10
9.9656264185
 20
11.7602961408
 30
0.0
 10
9.9641317446
 20
11.7503547802
 30
0.0
 10
9.9624506784
 20
11.7394598211
 30
0.0
 10
9.9605683975
 20
11.7276596705
 30
0.0
 10
9.9584699787
 20
11.7150027554
 30
0.0
 10
9.9561404713
 20
11.7015375064
 30
0.0
 10
9.9535648977
 20
11.6873123643
 30
0.0
 10
9.9507282569
 20
11.6723757447
 30
0.0
 10
9.9464937379
 20
11.6511540115
 30
0.0
 10
9.940470841
 20
11.623198063
 30
0.0
 10
9.9320974066
 20
11.5882082496
 30
0.0
 10
9.9223219888
 20
11.5515298519
 30
0.0
 10
9.9110244696
 20
11.5135491379
 30
0.0
 10
9.8980844914
 20
11.4746520526
 30
0.0
 10
9.8833811088
 20
11.4352238187
 30
0.0
 10
9.8667936409
 20
11.3956508556
 30
0.0
 10
9.8544604999
 20
11.369561596
 30
0.0
 10
9.8479306839
 20
11.3565930742
 30
0.0
  0
SPLINE
  5
432
100
AcDbEntity
  8
0
100
AcDbSpline
 62
7
  6
CONTINUOUS
 70
0
 71
3
 72
16
 73
12
 74
0
 42
0.0000001
 43
0.0000001
 44
0.0000000001
 40
0.0
 40
0.0
 40
0.0
 40
0.0
 40
0.1286475415
 40
0.2563416803
 40
0.3198143601
 40
0.3830289422
 40
0.5086672403
 40
0.6332253457
 40
0.7566649717
 40
0.8789391375
 40
1.0
 40
1.0
 40
1.0
 40
1.0
 10
9.9555738791
 20
11.3140596206
 30
0.0
 10
9.9510506226
 20
11.3161074652
 30
0.0
 10
9.9420146916
 20
11.3201375559
 30
0.0
 10
9.9306803841
 20
11.3250265904
 30
0.0
 10
9.9216266253
 20
11.3288244988
 30
0.0
 10
9.9126198247
 20
11.3325286031
 30
0.0
 10
9.9013863462
 20
11.3370161631
 30
0.0
 10
9.8879300411
 20
11.3422020318
 30
0.0
 10
9.8745410263
 20
11.3471991276
 30
0.0
 10
9.8612253988
 20
11.3520044817
 30
0.0
 10
9.852353897
 20
11.355087525
 30
0.0
 10
9.8479306839
 20
11.3565930742
 30
0.0
  0
SPLINE
  5
433
100
AcDbEntity
  8
0
100
AcDbSpline
 62
7
  6
CONTINUOUS
 70
0
 71
3
 72
12
 73
8
 74
0
 42
0.0000001
 43
0.0000001
 44
0.0000000001
 40
0.0
 40
0.0
 40
0.0
 40
0.0
 40
0.2547744324
 40
0.5068091249
 40
0.6315907813
 40
0.7554301324
 40
1.0
 40
1.0
 40
1.0
 40
1.0
 10
10.1001636732
 20
11.2363789423
 30
0.0
 10
10.0883463747
 20
11.243792339
 30
0.0
 10
10.0646045071
 20
11.2581702865
 30
0.0
 10
10.0344311135
 20
11.2750814479
 30
0.0
 10
10.0101966054
 20
11.2878971914
 30
0.0
 10
9.986081434
 20
11.3000557016
 30
0.0
 10
9.9677732688
 20
11.3085365081
 30
0.0
 10
9.9555738791
 20
11.3140596206
 30
0.0
  0
SPLINE
  5
434
100
AcDbEntity
  8
0
100
AcDbSpline
 62
7
  6
CONTINUOUS
 70
0
 71
3
 72
22
 73
18
 74
0
 42
0.0000001
 43
0.0000001
 44
0.0000000001
 40
0.0
 40
0.0
 40
0.0
 40
0.0
 40
0.0090079816
 40
0.018411044
 40
0.0286308659
 40
0.0399969625
 40
0.0669924945
 40
0.1005612135
 40
0.1411561052
 40
0.1889068439
 40
0.2437461799
 40
0.3054905347
 40
0.3738517666
 40
0.448474936
 40
0.6147253055
 40
0.800166667
 40
1.0
 40
1.0
 40
1.0
 40
1.0
 10
8.9018033369
 20
11.2371448809
 30
0.0
 10
8.9017814782
 20
11.2370960296
 30
0.0
 10
8.9017487469
 20
11.2369903803
 30
0.0
 10
8.9017371825
 20
11.2368193808
 30
0.0
 10
8.9017619422
 20
11.2366358821
 30
0.0
 10
8.9018475666
 20
11.2363591641
 30
0.0
 10
8.9020555388
 20
11.2359815974
 30
0.0
 10
8.9024265189
 20
11.2355071982
 30
0.0
 10
8.9029324022
 20
11.2349872543
 30
0.0
 10
8.9035713432
 20
11.2344247588
 30
0.0
 10
8.904340598
 20
11.2338227961
 30
0.0
 10
8.9052360438
 20
11.23318546
 30
0.0
 10
8.9062524384
 20
11.2325168791
 30
0.0
 10
8.9078179908
 20
11.2315549228
 30
0.0
 10
8.9100287255
 20
11.2303166773
 30
0.0
 10
8.9129505061
 20
11.2288319128
 30
0.0
 10
8.915025995
 20
11.2278653892
 30
0.0
 10
8.916109657
 20
11.2273803465
 30
0.0
  0
SPLINE
  5
435
100
AcDbEntity
  8
0
100
AcDbSpline
 62
9
  6
CONTINUOUS
 70
0
 71
3
 72
13
 73
9
 74
0
 42
0.0000001
 43
0.0000001
 44
0.0000000001
 40
0.0
 40
0.0
 40
0.0
 40
0.0
 40
0.2508702975
 40
0.3761213818
 40
0.5012293829
 40
0.626185049
 40
0.7509764267
 40
1.0
 40
1.0
 40
1.0
 40
1.0
 10
10.1583656751
 20
11.197365771
 30
0.0
 10
10.1535985503
 20
11.2007737155
 30
0.0
 10
10.1464059976
 20
11.2058200617
 30
0.0
 10
10.1367388941
 20
11.212425163
 30
0.0
 10
10.1294628563
 20
11.2173158126
 30
0.0
 10
10.1221641822
 20
11.2221531485
 30
0.0
 10
10.1124185655
 20
11.228537549
 30
0.0
 10
10.1050750817
 20
11.2332622242
 30
0.0
 10
10.1001636761
 20
11.236378946
 30
0.0
  0
SPLINE
  5
436
100
AcDbEntity
  8
0
100
AcDbSpline
 62
7
  6
CONTINUOUS
 70
0
 71
3
 72
24
 73
20
 74
0
 42
0.0000001
 43
0.0000001
 44
0.0000000001
 40
0.0
 40
0.0
 40
0.0
 40
0.0
 40
0.0083258914
 40
0.0172467327
 40
0.0272381518
 40
0.0386326892
 40
0.051647004
 40
0.0664170906
 40
0.1014814317
 40
0.1441058986
 40
0.1942186987
 40
0.2515644007
 40
0.3157572793
 40
0.3863006151
 40
0.4626102549
 40
0.5440242878
 40
0.629807982
 40
0.8112295317
 40
1.0
 40
1.0
 40
1.0
 40
1.0
 10
8.7348614776
 20
11.3130216447
 30
0.0
 10
8.7348343192
 20
11.3129609578
 30
0.0
 10
8.7347959049
 20
11.3128265804
 30
0.0
 10
8.7347924057
 20
11.3126071477
 30
0.0
 10
8.7348399532
 20
11.3123684022
 30
0.0
 10
8.7349370369
 20
11.3121104613
 30
0.0
 10
8.7350830309
 20
11.3118330488
 30
0.0
 10
8.7353588871
 20
11.3114130744
 30
0.0
 10
8.7358347741
 20
11.3108457457
 30
0.0
 10
8.7365625433
 20
11.3101291083
 30
0.0
 10
8.7374726543
 20
11.3093481338
 30
0.0
 10
8.7385578709
 20
11.3085100377
 30
0.0
 10
8.7398094755
 20
11.3076227122
 30
0.0
 10
8.7412165642
 20
11.3066946671
 30
0.0
 10
8.7427665444
 20
11.305734946
 30
0.0
 10
8.7444451481
 20
11.3047529973
 30
0.0
 10
8.7468794151
 20
11.3034018568
 30
0.0
 10
8.7501178869
 20
11.3017351688
 30
0.0
 10
8.7527948753
 20
11.3004793931
 30
0.0
 10
8.7541707691
 20
11.2998635485
 30
0.0
  0
SPLINE
  5
437
100
AcDbEntity
  8
0
100
AcDbSpline
 62
9
  6
CONTINUOUS
 70
0
 71
3
 72
23
 73
19
 74
0
 42
0.0000001
 43
0.0000001
 44
0.0000000001
 40
0.0
 40
0.0
 40
0.0
 40
0.0
 40
0.1116259529
 40
0.1688638389
 40
0.2270203409
 40
0.3460201489
 40
0.4068362623
 40
0.4685301204
 40
0.5311147871
 40
0.5946070596
 40
0.6590478759
 40
0.7245010616
 40
0.7576293224
 40
0.7910387571
 40
0.8247617366
 40
0.8588504566
 40
0.9283461209
 40
1.0
 40
1.0
 40
1.0
 40
1.0
 10
9.9311829567
 20
10.8905093502
 30
0.0
 10
9.9343853945
 20
10.8799180873
 30
0.0
 10
9.9393119635
 20
10.8639205857
 30
0.0
 10
9.9461185828
 20
10.8424713636
 30
0.0
 10
9.9532815984
 20
10.820368855
 30
0.0
 10
9.9607867119
 20
10.7980046955
 30
0.0
 10
9.968678387
 20
10.7754031235
 30
0.0
 10
9.9748872995
 20
10.7581379512
 30
0.0
 10
9.9813697868
 20
10.7406902894
 30
0.0
 10
9.9881507918
 20
10.7230642881
 30
0.0
 10
9.9952680329
 20
10.7052646135
 30
0.0
 10
10.0014928689
 20
10.6903514069
 30
0.0
 10
10.0066836657
 20
10.6783415449
 30
0.0
 10
10.0107053822
 20
10.6692532314
 30
0.0
 10
10.0148566357
 20
10.6601185866
 30
0.0
 10
10.0206353096
 20
10.6477954458
 30
0.0
 10
10.0283348903
 20
10.6322218476
 30
0.0
 10
10.0349564601
 20
10.6198924209
 30
0.0
 10
10.038435259
 20
10.6137000604
 30
0.0
  0
SPLINE
  5
438
100
AcDbEntity
  8
0
100
AcDbSpline
 62
9
  6
CONTINUOUS
 70
0
 71
3
 72
11
 73
7
 74
0
 42
0.0000001
 43
0.0000001
 44
0.0000000001
 40
0.0
 40
0.0
 40
0.0
 40
0.0
 40
0.2502194911
 40
0.5006376526
 40
0.750725341
 40
1.0
 40
1.0
 40
1.0
 40
1.0
 10
10.038435259
 20
10.6137000604
 30
0.0
 10
9.9798332067
 20
10.614041058
 30
0.0
 10
9.8625794076
 20
10.6143332495
 30
0.0
 10
9.6867557122
 20
10.6128881146
 30
0.0
 10
9.5111913603
 20
10.6088394558
 30
0.0
 10
9.394330491
 20
10.6039127824
 30
0.0
 10
9.3360335111
 20
10.6007676502
 30
0.0
  0
SPLINE
  5
439
100
AcDbEntity
  8
0
100
AcDbSpline
 62
9
  6
CONTINUOUS
 70
0
 71
3
 72
32
 73
28
 74
0
 42
0.0000001
 43
0.0000001
 44
0.0000000001
 40
0.0
 40
0.0
 40
0.0
 40
0.0
 40
0.0881126259
 40
0.1363323105
 40
0.1872163036
 40
0.2406792894
 40
0.2966397415
 40
0.3550424443
 40
0.4158543747
 40
0.4790483102
 40
0.5115338683
 40
0.5446166254
 40
0.5783033233
 40
0.6126022565
 40
0.6475332358
 40
0.6831255597
 40
0.7194105442
 40
0.7564281735
 40
0.7942428939
 40
0.8134718948
 40
0.8329277121
 40
0.8526200448
 40
0.872565597
 40
0.892803529
 40
0.9133787121
 40
0.9557264676
 40
1.0
 40
1.0
 40
1.0
 40
1.0
 10
9.1276747232
 20
11.0343268871
 30
0.0
 10
9.1322525493
 20
11.0208976675
 30
0.0
 10
9.1394627229
 20
11.0001622553
 30
0.0
 10
9.1496538666
 20
10.9717910067
 30
0.0
 10
9.1581502987
 20
10.9487401539
 30
0.0
 10
9.1673044875
 20
10.9246044784
 30
0.0
 10
9.177146254
 20
10.8994361358
 30
0.0
 10
9.1877284105
 20
10.8732885744
 30
0.0
 10
9.1991181647
 20
10.8462140535
 30
0.0
 10
9.209241162
 20
10.8231370383
 30
0.0
 10
9.2178047291
 20
10.8042544325
 30
0.0
 10
9.2245381687
 20
10.7897596212
 30
0.0
 10
9.231539004
 20
10.7750679014
 30
0.0
 10
9.2388228625
 20
10.760182315
 30
0.0
 10
9.246414123
 20
10.7451066651
 30
0.0
 10
9.2543429324
 20
10.7298443707
 30
0.0
 10
9.2626391368
 20
10.714396062
 30
0.0
 10
9.2713363886
 20
10.6987590197
 30
0.0
 10
9.2789176878
 20
10.6856461135
 30
0.0
 10
9.2852274018
 20
10.6750665908
 30
0.0
 10
9.2901185669
 20
10.6670391974
 30
0.0
 10
9.2951489924
 20
10.6589620776
 30
0.0
 10
9.3003290953
 20
10.6508303568
 30
0.0
 10
9.305684862
 20
10.6426427116
 30
0.0
 10
9.3131680877
 20
10.6315376648
 30
0.0
 10
9.3231437255
 20
10.6174474067
 30
0.0
 10
9.3316040523
 20
10.6063535684
 30
0.0
 10
9.3360335111
 20
10.6007676502
 30
0.0
  0
SPLINE
  5
43A
100
AcDbEntity
  8
0
100
AcDbSpline
 62
9
  6
CONTINUOUS
 70
0
 71
3
 72
15
 73
11
 74
0
 42
0.0000001
 43
0.0000001
 44
0.0000000001
 40
0.0
 40
0.0
 40
0.0
 40
0.0
 40
0.1279174388
 40
0.2551057919
 40
0.3814520061
 40
0.5068857642
 40
0.6313866981
 40
0.7549920362
 40
0.8778044845
 40
1.0
 40
1.0
 40
1.0
 40
1.0
 10
9.3360335111
 20
10.6007676502
 30
0.0
 10
9.2831923183
 20
10.5979168587
 30
0.0
 10
9.1778667881
 20
10.5911073389
 30
0.0
 10
9.0206805928
 20
10.5769642016
 30
0.0
 10
8.864986506
 20
10.5583701143
 30
0.0
 10
8.711088795
 20
10.5347767729
 30
0.0
 10
8.5592910925
 20
10.5056346145
 30
0.0
 10
8.4098957665
 20
10.4703916553
 30
0.0
 10
8.2632134215
 20
10.4284969562
 30
0.0
 10
8.1672491571
 20
10.3956973881
 30
0.0
 10
8.119889064
 20
10.3780220049
 30
0.0
  0
SPLINE
  5
43B
100
AcDbEntity
  8
0
100
AcDbSpline
 62
9
  6
CONTINUOUS
 70
0
 71
3
 72
34
 73
30
 74
0
 42
0.0000001
 43
0.0000001
 44
0.0000000001
 40
0.0
 40
0.0
 40
0.0
 40
0.0
 40
0.0040943041
 40
0.0162314747
 40
0.0637605266
 40
0.080330432
 40
0.098732371
 40
0.1409729003
 40
0.190377217
 40
0.2468940311
 40
0.2778110711
 40
0.3105050736
 40
0.381256701
 40
0.4193437654
 40
0.4593013136
 40
0.5011977528
 40
0.5451044747
 40
0.5911109392
 40
0.6393710379
 40
0.6900905564
 40
0.7436065059
 40
0.7715385512
 40
0.8003517391
 40
0.8301346367
 40
0.8609775239
 40
0.8930210534
 40
0.9266054301
 40
0.9621290122
 40
1.0
 40
1.0
 40
1.0
 40
1.0
 10
7.7548643527
 20
10.7949447332
 30
0.0
 10
7.7552999174
 20
10.7943219244
 30
0.0
 10
7.7570248516
 20
10.791851589
 30
0.0
 10
7.7637768743
 20
10.7821309695
 30
0.0
 10
7.7718034224
 20
10.770476084
 30
0.0
 10
7.7804580096
 20
10.7578418801
 30
0.0
 10
7.788564226
 20
10.7460219511
 30
0.0
 10
7.8001674251
 20
10.7292097803
 30
0.0
 10
7.8159542277
 20
10.7066890625
 30
0.0
 10
7.8307527389
 20
10.6860438543
 30
0.0
 10
7.8439109672
 20
10.6680410472
 30
0.0
 10
7.8587797094
 20
10.6480164246
 30
0.0
 10
7.874720085
 20
10.6271306086
 30
0.0
 10
7.8918024252
 20
10.6054258203
 30
0.0
 10
7.9057774009
 20
10.5880933622
 30
0.0
 10
7.9206681942
 20
10.5701140656
 30
0.0
 10
7.9365423493
 20
10.5514943327
 30
0.0
 10
7.9534777949
 20
10.5322306841
 30
0.0
 10
7.9715967773
 20
10.5123286118
 30
0.0
 10
7.9910508311
 20
10.4917632488
 30
0.0
 10
8.0083096823
 20
10.4743232419
 30
0.0
 10
8.0229725376
 20
10.4600429338
 30
0.0
 10
8.0346312213
 20
10.448994255
 30
0.0
 10
8.0468477993
 20
10.4377512342
 30
0.0
 10
8.0596828589
 20
10.4262977048
 30
0.0
 10
8.0732336482
 20
10.4145893961
 30
0.0
 10
8.0876939105
 20
10.4026098795
 30
0.0
 10
8.1032877622
 20
10.3903115501
 30
0.0
 10
8.114203216
 20
10.3821559069
 30
0.0
 10
8.119889064
 20
10.3780220049
 30
0.0
  0
SPLINE
  5
43C
100
AcDbEntity
  8
0
100
AcDbSpline
 62
9
  6
CONTINUOUS
 70
0
 71
3
 72
14
 73
10
 74
0
 42
0.0000001
 43
0.0000001
 44
0.0000000001
 40
0.0
 40
0.0
 40
0.0
 40
0.0
 40
0.1246486634
 40
0.2491997829
 40
0.3737664441
 40
0.4984755146
 40
0.6234445899
 40
0.7487016632
 40
1.0
 40
1.0
 40
1.0
 40
1.0
 10
8.119889064
 20
10.3780220049
 30
0.0
 10
8.092106103
 20
10.367653054
 30
0.0
 10
8.0369011554
 20
10.3459997236
 30
0.0
 10
7.9552669362
 20
10.3107011686
 30
0.0
 10
7.8749179769
 20
10.2725289316
 30
0.0
 10
7.7959229447
 20
10.2314111757
 30
0.0
 10
7.7183733529
 20
10.1872914784
 30
0.0
 10
7.6168518746
 20
10.1245695665
 30
0.0
 10
7.5431468086
 20
10.073485644
 30
0.0
 10
7.4951594475
 20
10.0378269659
 30
0.0
  0
SPLINE
  5
43D
100
AcDbEntity
  8
0
100
AcDbSpline
 62
9
  6
CONTINUOUS
 70
0
 71
3
 72
35
 73
31
 74
0
 42
0.0000001
 43
0.0000001
 44
0.0000000001
 40
0.0
 40
0.0
 40
0.0
 40
0.0
 40
0.0043883867
 40
0.017260893
 40
0.0381786036
 40
0.0667026973
 40
0.0836849618
 40
0.1024338531
 40
0.1451305948
 40
0.1946099731
 40
0.2507624877
 40
0.2813179671
 40
0.3135333288
 40
0.3830007046
 40
0.4202971914
 40
0.459391033
 40
0.5003763852
 40
0.5433498722
 40
0.5884318104
 40
0.635830803
 40
0.6858227344
 40
0.7388549682
 40
0.76667531
 40
0.7954937814
 40
0.825425087
 40
0.8565850135
 40
0.889154381
 40
0.9235729479
 40
0.9603499689
 40
1.0
 40
1.0
 40
1.0
 40
1.0
 10
7.0648759346
 20
10.3691453208
 30
0.0
 10
7.0654552991
 20
10.3685971974
 30
0.0
 10
7.0677329563
 20
10.3664400288
 30
0.0
 10
7.072762223
 20
10.3616596306
 30
0.0
 10
7.0809579136
 20
10.3538435462
 30
0.0
 10
7.0896775948
 20
10.3454946675
 30
0.0
 10
7.0981012858
 20
10.3374066344
 30
0.0
 10
7.1083888397
 20
10.3275407561
 30
0.0
 10
7.1229782097
 20
10.3136276429
 30
0.0
 10
7.1426138906
 20
10.2951566844
 30
0.0
 10
7.1608094873
 20
10.2783767295
 30
0.0
 10
7.1768263248
 20
10.2638642541
 30
0.0
 10
7.194751007
 20
10.2478543032
 30
0.0
 10
7.2137989041
 20
10.2312636047
 30
0.0
 10
7.2340317054
 20
10.2141357488
 30
0.0
 10
7.2504655485
 20
10.200533714
 30
0.0
 10
7.2678685892
 20
10.1864869966
 30
0.0
 10
7.2863126452
 20
10.1720004138
 30
0.0
 10
7.3058858279
 20
10.157067949
 30
0.0
 10
7.326720501
 20
10.1416909959
 30
0.0
 10
7.3489952501
 20
10.1258383281
 30
0.0
 10
7.3686429502
 20
10.1124386081
 30
0.0
 10
7.3852874579
 20
10.1014723853
 30
0.0
 10
7.398526157
 20
10.0929698204
 30
0.0
 10
7.4123832634
 20
10.084309204
 30
0.0
 10
7.4269321014
 20
10.0754716975
 30
0.0
 10
7.4422979041
 20
10.0664108704
 30
0.0
 10
7.4586986898
 20
10.0570996745
 30
0.0
 10
7.4763996764
 20
10.0474787968
 30
0.0
 10
7.4887314366
 20
10.0410841078
 30
0.0
 10
7.4951594475
 20
10.0378269659
 30
0.0
  0
SPLINE
  5
43E
100
AcDbEntity
  8
0
100
AcDbSpline
 62
9
  6
CONTINUOUS
 70
0
 71
3
 72
11
 73
7
 74
0
 42
0.0000001
 43
0.0000001
 44
0.0000000001
 40
0.0
 40
0.0
 40
0.0
 40
0.0
 40
0.2492216667
 40
0.4991530113
 40
0.7495256313
 40
1.0
 40
1.0
 40
1.0
 40
1.0
 10
7.4951594475
 20
10.0378269659
 30
0.0
 10
7.4513179754
 20
10.0052490349
 30
0.0
 10
7.3654714657
 20
9.9373175455
 30
0.0
 10
7.2427460377
 20
9.82799683
 30
0.0
 10
7.1261726571
 20
9.7117547999
 30
0.0
 10
7.0527574389
 20
9.6300665949
 30
0.0
 10
7.0171697869
 20
9.5882696753
 30
0.0
  0
SPLINE
  5
43F
100
AcDbEntity
  8
0
100
AcDbSpline
 62
9
  6
CONTINUOUS
 70
0
 71
3
 72
33
 73
29
 74
0
 42
0.0000001
 43
0.0000001
 44
0.0000000001
 40
0.0
 40
0.0
 40
0.0
 40
0.0
 40
0.0040509996
 40
0.0159180716
 40
0.0351723286
 40
0.0613848874
 40
0.0769747076
 40
0.0941925148
 40
0.1334951303
 40
0.1792852834
 40
0.2316577139
 40
0.290788356
 40
0.3570658846
 40
0.3930429536
 40
0.431080462
 40
0.5139866863
 40
0.5592154653
 40
0.6073408468
 40
0.6587658215
 40
0.7141205821
 40
0.7434987374
 40
0.7741864185
 40
0.8063385712
 40
0.8401105364
 40
0.8757434799
 40
0.9138214904
 40
0.9550159829
 40
1.0
 40
1.0
 40
1.0
 40
1.0
 10
6.5852795986
 20
9.8074967371
 30
0.0
 10
6.5858303902
 20
9.8071409432
 30
0.0
 10
6.5879948424
 20
9.8057431305
 30
0.0
 10
6.5927785761
 20
9.8026563931
 30
0.0
 10
6.6005782963
 20
9.7976275813
 30
0.0
 10
6.6088866584
 20
9.7922756557
 30
0.0
 10
6.6169197707
 20
9.7871051241
 30
0.0
 10
6.6267451791
 20
9.7808043731
 30
0.0
 10
6.6407239129
 20
9.7719246993
 30
0.0
 10
6.6596049561
 20
9.7601510712
 30
0.0
 10
6.6813554674
 20
9.746915967
 30
0.0
 10
6.7061271184
 20
9.7322701253
 30
0.0
 10
6.7288223771
 20
9.7193323918
 30
0.0
 10
6.7486940348
 20
9.7083415228
 30
0.0
 10
6.7710410359
 20
9.6962673193
 30
0.0
 10
6.7949141303
 20
9.6838701838
 30
0.0
 10
6.8204504447
 20
9.6711459707
 30
0.0
 10
6.8415538842
 20
9.6609548962
 30
0.0
 10
6.8642730987
 20
9.6503452948
 30
0.0
 10
6.8843746093
 20
9.6413069385
 30
0.0
 10
6.901496739
 20
9.6338320073
 30
0.0
 10
6.915223098
 20
9.6279666456
 30
0.0
 10
6.9296523308
 20
9.6219374791
 30
0.0
 10
6.9448709452
 20
9.6157226704
 30
0.0
 10
6.9610305427
 20
9.6092763611
 30
0.0
 10
6.9783728259
 20
9.6025543392
 30
0.0
 10
6.9972023813
 20
9.5954843182
 30
0.0
 10
7.0103137166
 20
9.5907216109
 30
0.0
 10
7.0171697869
 20
9.5882696753
 30
0.0
  0
SPLINE
  5
440
100
AcDbEntity
  8
0
100
AcDbSpline
 62
9
  6
CONTINUOUS
 70
0
 71
3
 72
32
 73
28
 74
0
 42
0.0000001
 43
0.0000001
 44
0.0000000001
 40
0.0
 40
0.0
 40
0.0
 40
0.0
 40
0.01500606
 40
0.0332177331
 40
0.0580832591
 40
0.0729065305
 40
0.0893110596
 40
0.1268994168
 40
0.1709473837
 40
0.2216629795
 40
0.279341067
 40
0.3445071454
 40
0.380101059
 40
0.4178998873
 40
0.4580901052
 40
0.5008592627
 40
0.546427568
 40
0.5951431883
 40
0.6474474634
 40
0.7040230529
 40
0.7657116523
 40
0.7988518712
 40
0.8337441996
 40
0.8706461112
 40
0.9101796642
 40
0.9530591577
 40
1.0
 40
1.0
 40
1.0
 40
1.0
 10
6.5031978598
 20
9.6761384962
 30
0.0
 10
6.5052399246
 20
9.6749709869
 30
0.0
 10
6.5097609792
 20
9.6723877821
 30
0.0
 10
6.5176683422
 20
9.6678744254
 30
0.0
 10
6.5255523709
 20
9.6633779905
 30
0.0
 10
6.5331917705
 20
9.6590244189
 30
0.0
 10
6.5425722347
 20
9.6536980306
 30
0.0
 10
6.5559665705
 20
9.6461628692
 30
0.0
 10
6.5741260846
 20
9.636129571
 30
0.0
 10
6.5951558119
 20
9.6247813975
 30
0.0
 10
6.6192445959
 20
9.6121345533
 30
0.0
 10
6.64139465
 20
9.60089891
 30
0.0
 10
6.6608740242
 20
9.5912914265
 30
0.0
 10
6.676908895
 20
9.5835523297
 30
0.0
 10
6.6940309352
 20
9.5754798903
 30
0.0
 10
6.7123349913
 20
9.5670606823
 30
0.0
 10
6.7319390107
 20
9.5582719355
 30
0.0
 10
6.7530037115
 20
9.5490905542
 30
0.0
 10
6.7757558116
 20
9.5394655901
 30
0.0
 10
6.8005027344
 20
9.5293411792
 30
0.0
 10
6.8225780362
 20
9.5206245939
 30
0.0
 10
6.8415626622
 20
9.5133395695
 30
0.0
 10
6.8569582216
 20
9.5075476912
 30
0.0
 10
6.8733319947
 20
9.5015108319
 30
0.0
 10
6.8909314031
 20
9.4951804528
 30
0.0
 10
6.9100697365
 20
9.4884812956
 30
0.0
 10
6.9233988652
 20
9.4839450853
 30
0.0
 10
6.9303740985
 20
9.4816023283
 30
0.0
  0
SPLINE
  5
441
100
AcDbEntity
  8
0
100
AcDbSpline
 62
9
  6
CONTINUOUS
 70
0
 71
3
 72
32
 73
28
 74
0
 42
0.0000001
 43
0.0000001
 44
0.0000000001
 40
0.0
 40
0.0
 40
0.0
 40
0.0
 40
0.0272185905
 40
0.0537869088
 40
0.0798251138
 40
0.105444816
 40
0.1557305913
 40
0.2048911444
 40
0.2530266843
 40
0.3001702967
 40
0.3463261282
 40
0.3914606616
 40
0.4784660445
 40
0.5607142154
 40
0.6376797036
 40
0.7087520357
 40
0.773317948
 40
0.8308411457
 40
0.8808011582
 40
0.9027781996
 40
0.9226636762
 40
0.9559165972
 40
0.9801485384
 40
0.9887606987
 40
0.9949723585
 40
0.9987349863
 40
1.0
 40
1.0
 40
1.0
 40
1.0
 10
10.038435259
 20
10.6137000604
 30
0.0
 10
10.0412989957
 20
10.6086025279
 30
0.0
 10
10.0468077288
 20
10.5984440947
 30
0.0
 10
10.0545744142
 20
10.5831546777
 30
0.0
 10
10.0618415829
 20
10.5680021051
 30
0.0
 10
10.0709509215
 20
10.5480871814
 30
0.0
 10
10.0816480182
 20
10.5234399639
 30
0.0
 10
10.0936381426
 20
10.494090601
 30
0.0
 10
10.1048945548
 20
10.4651759232
 30
0.0
 10
10.115529585
 20
10.4367154803
 30
0.0
 10
10.125645994
 20
10.4087514641
 30
0.0
 10
10.1383583201
 20
10.372622367
 30
0.0
 10
10.1531919967
 20
10.3290223342
 30
0.0
 10
10.1697012108
 20
10.2787736826
 30
0.0
 10
10.1848381442
 20
10.2316781947
 30
0.0
 10
10.1986236716
 20
10.1881386933
 30
0.0
 10
10.2110776321
 20
10.1485584949
 30
0.0
 10
10.2221485441
 20
10.1132975065
 30
0.0
 10
10.2305032783
 20
10.0867726101
 30
0.0
 10
10.2364678105
 20
10.0679714977
 30
0.0
 10
10.241377544
 20
10.0526009319
 30
0.0
 10
10.2464987061
 20
10.0367894697
 30
0.0
 10
10.2509472272
 20
10.0233058768
 30
0.0
 10
10.2536103117
 20
10.0153501274
 30
0.0
 10
10.2548876391
 20
10.0115673812
 30
0.0
 10
10.2556652484
 20
10.0092817011
 30
0.0
 10
10.256015721
 20
10.0082601541
 30
0.0
 10
10.2561041012
 20
10.0080031885
 30
0.0
  0
SPLINE
  5
442
100
AcDbEntity
  8
0
100
AcDbSpline
 62
9
  6
CONTINUOUS
 70
0
 71
3
 72
35
 73
31
 74
0
 42
0.0000001
 43
0.0000001
 44
0.0000000001
 40
0.0
 40
0.0
 40
0.0
 40
0.0
 40
0.0282218077
 40
0.0554884533
 40
0.0819867905
 40
0.1078935576
 40
0.1333550004
 40
0.1584253634
 40
0.207514167
 40
0.2553706232
 40
0.3021017945
 40
0.3477710383
 40
0.3923831617
 40
0.4783427557
 40
0.5196008652
 40
0.55964592
 40
0.6358658656
 40
0.7064425463
 40
0.7707895656
 40
0.8283514539
 40
0.8785751014
 40
0.9007555933
 40
0.920885085
 40
0.9547109093
 40
0.9682756884
 40
0.9795212352
 40
0.9883820704
 40
0.9947926119
 40
0.9986871795
 40
1.0
 40
1.0
 40
1.0
 40
1.0
 10
9.3360335111
 20
10.6007676502
 30
0.0
 10
9.3399709467
 20
10.5958022144
 30
0.0
 10
9.3475603683
 20
10.5859177118
 30
0.0
 10
9.3583470893
 20
10.5709963921
 30
0.0
 10
9.3684650018
 20
10.5562405035
 30
0.0
 10
9.3780624023
 20
10.5416243643
 30
0.0
 10
9.3872761786
 20
10.5271423973
 30
0.0
 10
9.3990344646
 20
10.508111881
 30
0.0
 10
9.4130188615
 20
10.4845487426
 30
0.0
 10
9.4289736427
 20
10.4565064206
 30
0.0
 10
9.4441363342
 20
10.4289014407
 30
0.0
 10
9.458640696
 20
10.401768733
 30
0.0
 10
9.4769689332
 20
10.3666940478
 30
0.0
 10
9.4944657843
 20
10.3323041848
 30
0.0
 10
9.5112279184
 20
10.2986937838
 30
0.0
 10
9.5268834458
 20
10.2669756953
 30
0.0
 10
9.5452911013
 20
10.2292747008
 30
0.0
 10
9.5659454301
 20
10.1865985037
 30
0.0
 10
9.5847551675
 20
10.1476840796
 30
0.0
 10
9.6016037294
 20
10.1128977908
 30
0.0
 10
9.6143911879
 20
10.0866650426
 30
0.0
 10
9.6235602523
 20
10.068019425
 30
0.0
 10
9.6311499664
 20
10.0527004415
 30
0.0
 10
9.6379564705
 20
10.0391525506
 30
0.0
 10
9.6439383677
 20
10.0274232937
 30
0.0
 10
9.6473981688
 20
10.0207005816
 30
0.0
 10
9.6501415196
 20
10.0154159173
 30
0.0
 10
9.6521377237
 20
10.0116032287
 30
0.0
 10
9.6533547591
 20
10.0092957364
 30
0.0
 10
9.6539037539
 20
10.0082633267
 30
0.0
 10
9.6540424227
 20
10.0080031885
 30
0.0
  0
LINE
  5
443
100
AcDbEntity
  8
0
100
AcDbLine
 62
7
  6
CONTINUOUS
 10
8.1498066116
 20
11.5703745412
 11
8.1505802476
 21
11.570184652
  0
SPLINE
  5
444
100
AcDbEntity
  8
0
100
AcDbSpline
 62
7
  6
CONTINUOUS
 70
0
 71
3
 72
17
 73
13
 74
0
 42
0.0000001
 43
0.0000001
 44
0.0000000001
 40
0.0
 40
0.0
 40
0.0
 40
0.0
 40
0.2188165858
 40
0.4106396235
 40
0.5746740535
 40
0.7106034771
 40
0.8185879904
 40
0.8996009327
 40
0.9308907248
 40
0.9569696978
 40
0.979262308
 40
1.0
 40
1.0
 40
1.0
 40
1.0
 10
8.2123126892
 20
11.5423970695
 30
0.0
 10
8.2125287622
 20
11.5423003561
 30
0.0
 10
8.2129362926
 20
11.5421233505
 30
0.0
 10
8.2135137795
 20
11.5418926799
 30
0.0
 10
8.2140153965
 20
11.5417149305
 30
0.0
 10
8.2144392371
 20
11.5415902706
 30
0.0
 10
8.2147836618
 20
11.541518926
 30
0.0
 10
8.2150230953
 20
11.5415006625
 30
0.0
 10
8.215172168
 20
11.5415198652
 30
0.0
 10
8.2152547039
 20
11.5415471569
 30
0.0
 10
8.2153176651
 20
11.5415897953
 30
0.0
 10
8.2153449262
 20
11.5416291075
 30
0.0
 10
8.2153540927
 20
11.5416495848
 30
0.0
  0
SPLINE
  5
445
100
AcDbEntity
  8
0
100
AcDbSpline
 62
9
  6
CONTINUOUS
 70
0
 71
3
 72
37
 73
33
 74
0
 42
0.0000001
 43
0.0000001
 44
0.0000000001
 40
0.0
 40
0.0
 40
0.0
 40
0.0
 40
0.0321094236
 40
0.0624605693
 40
0.0913910974
 40
0.1192300527
 40
0.1462572686
 40
0.1725839219
 40
0.1982785718
 40
0.2234083358
 40
0.2721921649
 40
0.3192397815
 40
0.3647756777
 40
0.408914012
 40
0.4517258718
 40
0.4932281168
 40
0.5334229463
 40
0.5723109434
 40
0.6461005424
 40
0.6809137677
 40
0.7142742196
 40
0.7764268471
 40
0.832098285
 40
0.8808031443
 40
0.9023782766
 40
0.9220118212
 40
0.9551674153
 40
0.9796455772
 40
0.988429977
 40
0.9948041255
 40
0.9986876171
 40
1.0
 40
1.0
 40
1.0
 40
1.0
 10
8.119889064
 20
10.3780220049
 30
0.0
 10
8.1255952954
 20
10.3738732833
 30
0.0
 10
8.1365885532
 20
10.3656549159
 30
0.0
 10
8.1523523912
 20
10.3532132059
 30
0.0
 10
8.1670931016
 20
10.3409990572
 30
0.0
 10
8.1810313748
 20
10.3289680715
 30
0.0
 10
8.1943571504
 20
10.3171067011
 30
0.0
 10
8.2071638627
 20
10.3053735618
 30
0.0
 10
8.2195084931
 20
10.2937555972
 30
0.0
 10
8.2352614376
 20
10.2785620137
 30
0.0
 10
8.2540903752
 20
10.259802168
 30
0.0
 10
8.2756771539
 20
10.2374666573
 30
0.0
 10
8.2962241817
 20
10.2155511345
 30
0.0
 10
8.3158536307
 20
10.1940549243
 30
0.0
 10
8.3346577708
 20
10.1730077871
 30
0.0
 10
8.3526852123
 20
10.1524304951
 30
0.0
 10
8.3699741927
 20
10.1323538652
 30
0.0
 10
8.3917094991
 20
10.106745433
 30
0.0
 10
8.4124720775
 20
10.0818632498
 30
0.0
 10
8.432302699
 20
10.0577867839
 30
0.0
 10
8.4504349436
 20
10.0356241092
 30
0.0
 10
8.4713810099
 20
10.0098424478
 30
0.0
 10
8.4943690616
 20
9.9813762178
 30
0.0
 10
8.5117416894
 20
9.9598349547
 30
0.0
 10
8.524164234
 20
9.9444738757
 30
0.0
 10
8.5344605672
 20
9.9317871646
 30
0.0
 10
8.5452129
 20
9.9186491324
 30
0.0
 10
8.5545160609
 20
9.9074056751
 30
0.0
 10
8.560095774
 20
9.9007190167
 30
0.0
 10
8.5627843629
 20
9.8975133581
 30
0.0
 10
8.5644221231
 20
9.8955690831
 30
0.0
 10
8.5651596814
 20
9.894697698
 30
0.0
 10
8.5653461316
 20
9.8944777344
 30
0.0
  0
SPLINE
  5
446
100
AcDbEntity
  8
0
100
AcDbSpline
 62
7
  6
CONTINUOUS
 70
0
 71
3
 72
19
 73
15
 74
0
 42
0.0000001
 43
0.0000001
 44
0.0000000001
 40
0.0
 40
0.0
 40
0.0
 40
0.0
 40
0.2145725717
 40
0.4050306831
 40
0.5696027992
 40
0.7071609267
 40
0.7656088797
 40
0.8171278791
 40
0.8618025388
 40
0.8998273149
 40
0.9315836902
 40
0.957816434
 40
0.9798763024
 40
1.0
 40
1.0
 40
1.0
 40
1.0
 10
8.3117454995
 20
11.4978913392
 30
0.0
 10
8.3122079099
 20
11.4976843661
 30
0.0
 10
8.3130854678
 20
11.4973040304
 30
0.0
 10
8.3143355672
 20
11.4968073561
 30
0.0
 10
8.315432984
 20
11.4964212767
 30
0.0
 10
8.3162507897
 20
11.4961819689
 30
0.0
 10
8.3168211668
 20
11.4960537089
 30
0.0
 10
8.3171812858
 20
11.4959922475
 30
0.0
 10
8.3174968465
 20
11.4959599887
 30
0.0
 10
8.3177675595
 20
11.495956828
 30
0.0
 10
8.3179935921
 20
11.4959828555
 30
0.0
 10
8.3181757263
 20
11.4960387198
 30
0.0
 10
8.3183141748
 20
11.4961272508
 30
0.0
 10
8.3183738334
 20
11.4962107658
 30
0.0
 10
8.3183932372
 20
11.4962541361
 30
0.0
  0
SPLINE
  5
447
100
AcDbEntity
  8
0
100
AcDbSpline
 62
7
  6
CONTINUOUS
 70
0
 71
3
 72
19
 73
15
 74
0
 42
0.0000001
 43
0.0000001
 44
0.0000000001
 40
0.0
 40
0.0
 40
0.0
 40
0.0
 40
0.2083547494
 40
0.3967535267
 40
0.5621183054
 40
0.7020305431
 40
0.7618873391
 40
0.8148172159
 40
0.8607919914
 40
0.8998892943
 40
0.9323911699
 40
0.9589118515
 40
0.9806955424
 40
1.0
 40
1.0
 40
1.0
 40
1.0
 10
8.4413288608
 20
11.4398903421
 30
0.0
 10
8.4420933928
 20
11.4395481407
 30
0.0
 10
8.4435578953
 20
11.4389155727
 30
0.0
 10
8.4456607808
 20
11.4380867678
 30
0.0
 10
8.4475355611
 20
11.4374338483
 30
0.0
 10
8.4489464009
 20
11.4370241929
 30
0.0
 10
8.449937673
 20
11.4368004593
 30
0.0
 10
8.4505667471
 20
11.4366907386
 30
0.0
 10
8.4511186819
 20
11.4366299651
 30
0.0
 10
8.4515919525
 20
11.4366181173
 30
0.0
 10
8.4519859894
 20
11.4366549117
 30
0.0
 10
8.4523016099
 20
11.436741115
 30
0.0
 10
8.4525400933
 20
11.436881122
 30
0.0
 10
8.4526425974
 20
11.4370179205
 30
0.0
 10
8.4526742944
 20
11.4370887597
 30
0.0
  0
SPLINE
  5
448
100
AcDbEntity
  8
0
100
AcDbSpline
 62
9
  6
CONTINUOUS
 70
0
 71
3
 72
36
 73
32
 74
0
 42
0.0000001
 43
0.0000001
 44
0.0000000001
 40
0.0
 40
0.0
 40
0.0
 40
0.0
 40
0.0393828542
 40
0.0759339454
 40
0.1101614636
 40
0.1425688408
 40
0.1735910892
 40
0.2034060494
 40
0.2321270444
 40
0.2598665427
 40
0.3127797034
 40
0.3626985983
 40
0.4100607358
 40
0.4551342423
 40
0.4981216434
 40
0.5391379982
 40
0.5782756822
 40
0.6156258211
 40
0.6852223445
 40
0.7481394586
 40
0.8044497994
 40
0.8540922779
 40
0.8969541891
 40
0.915785789
 40
0.9328507551
 40
0.9615372231
 40
0.9825977678
 40
0.9901246376
 40
0.9955724354
 40
0.9988834746
 40
1.0
 40
1.0
 40
1.0
 40
1.0
 10
7.4951594475
 20
10.0378269659
 30
0.0
 10
7.5015893546
 20
10.0345688633
 30
0.0
 10
7.5139327988
 20
10.0281794725
 30
0.0
 10
7.5316725907
 20
10.018594069
 30
0.0
 10
7.548138018
 20
10.009341694
 30
0.0
 10
7.5635935533
 20
10.0003622581
 30
0.0
 10
7.5782557858
 20
9.9916274043
 30
0.0
 10
7.592249275
 20
9.9830901319
 30
0.0
 10
7.6056465984
 20
9.9747309362
 30
0.0
 10
7.6225310091
 20
9.9639757765
 30
0.0
 10
7.6425265725
 20
9.9508848407
 30
0.0
 10
7.6652961903
 20
9.9354804633
 30
0.0
 10
7.6866937157
 20
9.9206127183
 30
0.0
 10
7.7068915148
 20
9.9062446489
 30
0.0
 10
7.7260143498
 20
9.8923711318
 30
0.0
 10
7.7441440793
 20
9.8789803475
 30
0.0
 10
7.7613458933
 20
9.8660710906
 30
0.0
 10
7.7826267522
 20
9.8498832808
 30
0.0
 10
7.8072285884
 20
9.8308732474
 30
0.0
 10
7.8344107669
 20
9.8095291595
 30
0.0
 10
7.8586409649
 20
9.7903399949
 30
0.0
 10
7.879953669
 20
9.7733795792
 30
0.0
 10
7.8958999082
 20
9.7606919918
 30
0.0
 10
7.9071994965
 20
9.7517411729
 30
0.0
 10
7.9164827708
 20
9.7444234591
 30
0.0
 10
7.9261260049
 20
9.7369034955
 30
0.0
 10
7.9344370777
 20
9.7305145856
 30
0.0
 10
7.9393964724
 20
9.7267448509
 30
0.0
 10
7.941775423
 20
9.7249488412
 30
0.0
 10
7.9432210398
 20
9.7238638396
 30
0.0
 10
7.9438707029
 20
9.7233794315
 30
0.0
 10
7.9440346474
 20
9.7232574296
 30
0.0
  0
SPLINE
  5
449
100
AcDbEntity
  8
0
100
AcDbSpline
 62
7
  6
CONTINUOUS
 70
0
 71
3
 72
22
 73
18
 74
0
 42
0.0000001
 43
0.0000001
 44
0.0000000001
 40
0.0
 40
0.0
 40
0.0
 40
0.0
 40
0.1998333102
 40
0.3852746503
 40
0.5515250133
 40
0.6261481752
 40
0.6945094114
 40
0.756253778
 40
0.8110931165
 40
0.8588438527
 40
0.899438759
 40
0.933007486
 40
0.9600030266
 40
0.9713691234
 40
0.9815889478
 40
0.9909920146
 40
1.0
 40
1.0
 40
1.0
 40
1.0
 10
8.5922318811
 20
11.3723467505
 30
0.0
 10
8.5933155429
 20
11.3718617078
 30
0.0
 10
8.5954190305
 20
11.3709577381
 30
0.0
 10
8.5984728043
 20
11.3697678682
 30
0.0
 10
8.6008690365
 20
11.3689440537
 30
0.0
 10
8.6026294025
 20
11.3684173419
 30
0.0
 10
8.6038051308
 20
11.3681047374
 30
0.0
 10
8.6048769823
 20
11.367861519
 30
0.0
 10
8.6058383855
 20
11.367688846
 30
0.0
 10
8.606683541
 20
11.3675870659
 30
0.0
 10
8.6074083204
 20
11.36755617
 30
0.0
 10
8.6080092621
 20
11.367595541
 30
0.0
 10
8.6084293935
 20
11.3676919708
 30
0.0
 10
8.6086928068
 20
11.3678124612
 30
0.0
 10
8.6088461513
 20
11.3679162412
 30
0.0
 10
8.6089659754
 20
11.3680387841
 30
0.0
 10
8.6090229614
 20
11.3681335771
 30
0.0
 10
8.6090448317
 20
11.3681824233
 30
0.0
  0
SPLINE
  5
44A
100
AcDbEntity
  8
0
100
AcDbSpline
 62
7
  6
CONTINUOUS
 70
0
 71
3
 72
24
 73
20
 74
0
 42
0.0000001
 43
0.0000001
 44
0.0000000001
 40
0.0
 40
0.0
 40
0.0
 40
0.0
 40
0.1887704331
 40
0.3701919652
 40
0.4559756458
 40
0.5373896658
 40
0.6136993139
 40
0.6842426511
 40
0.7484355261
 40
0.8057812417
 40
0.8558940528
 40
0.8985185289
 40
0.9335828857
 40
0.94835298
 40
0.9613672996
 40
0.9727618423
 40
0.9827532645
 40
0.9916741072
 40
1.0
 40
1.0
 40
1.0
 40
1.0
 10
8.7541707691
 20
11.2998635485
 30
0.0
 10
8.7555466626
 20
11.299247704
 30
0.0
 10
8.7582665824
 20
11.2980878451
 30
0.0
 10
8.7616670081
 20
11.2967829889
 30
0.0
 10
8.7642963503
 20
11.295867678
 30
0.0
 10
8.7661469401
 20
11.2952699736
 30
0.0
 10
8.7678952653
 20
11.2947533863
 30
0.0
 10
8.769524774
 20
11.2943222625
 30
0.0
 10
8.7710203326
 20
11.2939799686
 30
0.0
 10
8.7723683308
 20
11.2937289674
 30
0.0
 10
8.773557075
 20
11.2935705027
 30
0.0
 10
8.7745763633
 20
11.293505164
 30
0.0
 10
8.7753164983
 20
11.2935282063
 30
0.0
 10
8.7758134803
 20
11.2936022613
 30
0.0
 10
8.7761176293
 20
11.2936781918
 30
0.0
 10
8.7763746732
 20
11.2937776267
 30
0.0
 10
8.7765844008
 20
11.2939012169
 30
0.0
 10
8.7767457183
 20
11.2940500107
 30
0.0
 10
8.7768203431
 20
11.2941681805
 30
0.0
 10
8.7768475096
 20
11.2942288638
 30
0.0
  0
SPLINE
  5
44B
100
AcDbEntity
  8
0
100
AcDbSpline
 62
9
  6
CONTINUOUS
 70
0
 71
3
 72
34
 73
30
 74
0
 42
0.0000001
 43
0.0000001
 44
0.0000000001
 40
0.0
 40
0.0
 40
0.0
 40
0.0
 40
0.0448777487
 40
0.085989231
 40
0.1240036914
 40
0.159589113
 40
0.1933268282
 40
0.2254560547
 40
0.2855032303
 40
0.34086692
 40
0.3923189059
 40
0.4404825871
 40
0.4857555289
 40
0.568753003
 40
0.6068302074
 40
0.6428410681
 40
0.7091672572
 40
0.7683195805
 40
0.8206929726
 40
0.866470237
 40
0.9057561407
 40
0.9229676769
 40
0.9385547855
 40
0.9647758807
 40
0.984050558
 40
0.9909455956
 40
0.9959389779
 40
0.9989755282
 40
1.0
 40
1.0
 40
1.0
 40
1.0
 10
7.0171697869
 20
9.5882696753
 30
0.0
 10
7.0240270261
 20
9.5858173215
 30
0.0
 10
7.0371472189
 20
9.581065583
 30
0.0
 10
7.0560091967
 20
9.5740541059
 30
0.0
 10
7.0734055507
 20
9.5674294054
 30
0.0
 10
7.0896402747
 20
9.5611180119
 30
0.0
 10
7.1049537502
 20
9.5550733243
 30
0.0
 10
7.1239219473
 20
9.5474766377
 30
0.0
 10
7.1460848194
 20
9.5384184579
 30
0.0
 10
7.1710669599
 20
9.527972784
 30
0.0
 10
7.1942003683
 20
9.5181064173
 30
0.0
 10
7.2157747564
 20
9.5087597564
 30
0.0
 10
7.2419898358
 20
9.4972486283
 30
0.0
 10
7.2666427284
 20
9.4862516132
 30
0.0
 10
7.2898731437
 20
9.4757564764
 30
0.0
 10
7.3106156859
 20
9.4663256186
 30
0.0
 10
7.3344461045
 20
9.455423497
 30
0.0
 10
7.3606711188
 20
9.443373275
 30
0.0
 10
7.3838731902
 20
9.4327307408
 30
0.0
 10
7.4041613606
 20
9.4234680618
 30
0.0
 10
7.4192814793
 20
9.4166245155
 30
0.0
 10
7.4299569477
 20
9.4118424842
 30
0.0
 10
7.4387097473
 20
9.4079544676
 30
0.0
 10
7.4477908888
 20
9.4039810684
 30
0.0
 10
7.455604569
 20
9.4006303116
 30
0.0
 10
7.460263617
 20
9.398663907
 30
0.0
 10
7.4624982204
 20
9.397729856
 30
0.0
 10
7.4638555454
 20
9.3971672283
 30
0.0
 10
7.4644651558
 20
9.3969169026
 30
0.0
 10
7.4646190045
 20
9.3968539054
 30
0.0
  0
SPLINE
  5
44C
100
AcDbEntity
  8
0
100
AcDbSpline
 62
7
  6
CONTINUOUS
 70
0
 71
3
 72
23
 73
19
 74
0
 42
0.0000001
 43
0.0000001
 44
0.0000000001
 40
0.0
 40
0.0
 40
0.0
 40
0.0
 40
0.1749610208
 40
0.3511731428
 40
0.4368507033
 40
0.5194211808
 40
0.5978486056
 40
0.671173838
 40
0.7385283117
 40
0.7991473848
 40
0.8523847903
 40
0.8760752456
 40
0.8977439218
 40
0.9173594944
 40
0.9349061556
 40
0.9503905448
 40
0.9638581406
 40
1.0
 40
1.0
 40
1.0
 40
1.0
 10
8.916109657
 20
11.2273803465
 30
0.0
 10
8.9177061226
 20
11.2266657748
 30
0.0
 10
8.9209422695
 20
11.2253018243
 30
0.0
 10
8.9250317342
 20
11.2237657988
 30
0.0
 10
8.9282915734
 20
11.2226552906
 30
0.0
 10
8.9306427692
 20
11.2219108557
 30
0.0
 10
8.932892173
 20
11.221256066
 30
0.0
 10
8.9350107613
 20
11.2206986374
 30
0.0
 10
8.9369716736
 20
11.2202447627
 30
0.0
 10
8.9387504317
 20
11.2198993242
 30
0.0
 10
8.9401112113
 20
11.2196969486
 30
0.0
 10
8.9410919911
 20
11.2195968767
 30
0.0
 10
8.9417401835
 20
11.2195538055
 30
0.0
 10
8.9423286718
 20
11.2195398354
 30
0.0
 10
8.9428540868
 20
11.2195543773
 30
0.0
 10
8.9433203387
 20
11.2195990763
 30
0.0
 10
8.9439468333
 20
11.2197106376
 30
0.0
 10
8.9444990406
 20
11.2199374563
 30
0.0
 10
8.9446466106
 20
11.2202672575
 30
0.0
  0
SPLINE
  5
44D
100
AcDbEntity
  8
0
100
AcDbSpline
 62
7
  6
CONTINUOUS
 70
0
 71
3
 72
17
 73
13
 74
0
 42
0.0000001
 43
0.0000001
 44
0.0000000001
 40
0.0
 40
0.0
 40
0.0
 40
0.0
 40
0.0211426789
 40
0.0436934211
 40
0.0698578324
 40
0.1010817109
 40
0.1816828819
 40
0.2890793688
 40
0.4244421503
 40
0.5881836558
 40
0.7801739912
 40
1.0
 40
1.0
 40
1.0
 40
1.0
 10
9.1366971103
 20
11.0643813266
 30
0.0
 10
9.1366911583
 20
11.0643680199
 30
0.0
 10
9.1366837796
 20
11.0643379946
 30
0.0
 10
9.1366897024
 20
11.0642893863
 30
0.0
 10
9.1367111939
 20
11.064238106
 30
0.0
 10
9.1367643854
 20
11.0641587529
 30
0.0
 10
9.1368735976
 20
11.0640525363
 30
0.0
 10
9.1370524942
 20
11.0639192592
 30
0.0
 10
9.137290656
 20
11.0637709531
 30
0.0
 10
9.1375876345
 20
11.0636081429
 30
0.0
 10
9.1379429851
 20
11.0634313213
 30
0.0
 10
9.1382008814
 20
11.0633124633
 30
0.0
 10
9.1383392186
 20
11.0632505442
 30
0.0
  0
SPLINE
  5
44E
100
AcDbEntity
  8
0
100
AcDbSpline
 62
7
  6
CONTINUOUS
 70
0
 71
3
 72
26
 73
22
 74
0
 42
0.0000001
 43
0.0000001
 44
0.0000000001
 40
0.0
 40
0.0
 40
0.0
 40
0.0
 40
0.0765141949
 40
0.1573349108
 40
0.326151551
 40
0.411231666
 40
0.4948219723
 40
0.5755308247
 40
0.6520437328
 40
0.7231439614
 40
0.7877266397
 40
0.8448188678
 40
0.8935991984
 40
0.9146709984
 40
0.9334479464
 40
0.9498990695
 40
0.9640200404
 40
0.9758600264
 40
0.9855527667
 40
0.9933974293
 40
1.0
 40
1.0
 40
1.0
 40
1.0
 10
9.0670126773
 20
11.1598367548
 30
0.0
 10
9.0678415826
 20
11.1594657402
 30
0.0
 10
9.0695569769
 20
11.1587270743
 30
0.0
 10
9.0731486141
 20
11.1572822491
 30
0.0
 10
9.0768825902
 20
11.1559215312
 30
0.0
 10
9.0806854005
 20
11.1546624709
 30
0.0
 10
9.0835138194
 20
11.1537893411
 30
0.0
 10
9.0862621887
 20
11.1530038076
 30
0.0
 10
9.0888842531
 20
11.1523181832
 30
0.0
 10
9.0913365291
 20
11.1517428683
 30
0.0
 10
9.0935789841
 20
11.1512861821
 30
0.0
 10
9.0955752547
 20
11.1509547017
 30
0.0
 10
9.0970725049
 20
11.1507777299
 30
0.0
 10
9.0981224997
 20
11.1507098163
 30
0.0
 10
9.098790819
 20
11.1506952757
 30
0.0
 10
9.0993766079
 20
11.1507142805
 30
0.0
 10
9.0998778232
 20
11.1507668063
 30
0.0
 10
9.1002932251
 20
11.1508524677
 30
0.0
 10
9.1006226428
 20
11.1509719202
 30
0.0
 10
9.100867402
 20
11.1511271957
 30
0.0
 10
9.1009753252
 20
11.1512674171
 30
0.0
 10
9.1010073363
 20
11.1513389471
 30
0.0
  0
SPLINE
  5
44F
100
AcDbEntity
  8
0
100
AcDbSpline
 62
9
  6
CONTINUOUS
 70
0
 71
3
 72
31
 73
27
 74
0
 42
0.0000001
 43
0.0000001
 44
0.0000000001
 40
0.0
 40
0.0
 40
0.0
 40
0.0
 40
0.0446281233
 40
0.0854758832
 40
0.1232193806
 40
0.1585338581
 40
0.1920071973
 40
0.2238809276
 40
0.2834489169
 40
0.3383836967
 40
0.3894624613
 40
0.4373124594
 40
0.482332189
 40
0.5650020875
 40
0.6389856879
 40
0.7054092747
 40
0.7648311913
 40
0.8176129786
 40
0.8638975041
 40
0.9037474712
 40
0.937123189
 40
0.9638881667
 40
0.9836195519
 40
0.9906929314
 40
0.9958221495
 40
1.0
 40
1.0
 40
1.0
 40
1.0
 10
6.9303740985
 20
9.4816023283
 30
0.0
 10
6.9373555786
 20
9.4792574732
 30
0.0
 10
6.9507122021
 20
9.474721695
 30
0.0
 10
6.9699201656
 20
9.4680477469
 30
0.0
 10
6.9876346244
 20
9.4617596927
 30
0.0
 10
7.0041674476
 20
9.4557818095
 30
0.0
 10
7.0197641502
 20
9.4500642009
 30
0.0
 10
7.0390882395
 20
9.4428863521
 30
0.0
 10
7.0616809951
 20
9.4343377154
 30
0.0
 10
7.0871695779
 20
9.4244888471
 30
0.0
 10
7.1107967905
 20
9.4151894527
 30
0.0
 10
7.1328571711
 20
9.4063777397
 30
0.0
 10
7.1597109715
 20
9.3955129505
 30
0.0
 10
7.1904961206
 20
9.3828669499
 30
0.0
 10
7.2244663929
 20
9.3686809543
 30
0.0
 10
7.2548539663
 20
9.3558722748
 30
0.0
 10
7.2819950737
 20
9.3443697684
 30
0.0
 10
7.3060760729
 20
9.3341638146
 30
0.0
 10
7.3271913738
 20
9.3252373139
 30
0.0
 10
7.3453739121
 20
9.3175980403
 30
0.0
 10
7.3606087748
 20
9.3112591334
 30
0.0
 10
7.3728078719
 20
9.3062672202
 30
0.0
 10
7.3810082782
 20
9.3029648524
 30
0.0
 10
7.3859052306
 20
9.3010176251
 30
0.0
 10
7.3884195338
 20
9.3000249152
 30
0.0
 10
7.3898498519
 20
9.2994653002
 30
0.0
 10
7.3904923702
 20
9.2992152775
 30
0.0
  0
SPLINE
  5
450
100
AcDbEntity
  8
0
100
AcDbSpline
 62
7
  6
CONTINUOUS
 70
0
 71
3
 72
28
 73
24
 74
0
 42
0.0000001
 43
0.0000001
 44
0.0000000001
 40
0.0
 40
0.0
 40
0.0
 40
0.0
 40
0.064185819
 40
0.1358672036
 40
0.2134505762
 40
0.2952081613
 40
0.4640032499
 40
0.6278414247
 40
0.7036271057
 40
0.7732425171
 40
0.8352956896
 40
0.8630972688
 40
0.8885649052
 40
0.9115755529
 40
0.932026616
 40
0.9498329548
 40
0.9649402714
 40
0.9773337943
 40
0.9870773387
 40
0.9910229168
 40
0.9944180765
 40
0.997360127
 40
1.0
 40
1.0
 40
1.0
 40
1.0
 10
9.1965960386
 20
11.1018357578
 30
0.0
 10
9.1973834702
 20
11.1014833066
 30
0.0
 10
9.1990652366
 20
11.1007705289
 30
0.0
 10
9.2017381464
 20
11.0997274336
 30
0.0
 10
9.2046572273
 20
11.0986679447
 30
0.0
 10
9.2088337477
 20
11.09724994
 30
0.0
 10
9.2141577292
 20
11.0956093627
 30
0.0
 10
9.2194578584
 20
11.0941748221
 30
0.0
 10
9.2235013195
 20
11.09321105
 30
0.0
 10
9.2262280616
 20
11.0926268632
 30
0.0
 10
9.2283358342
 20
11.0922353504
 30
0.0
 10
9.2298672109
 20
11.0919949987
 30
0.0
 10
9.2308833532
 20
11.0918578127
 30
0.0
 10
9.2318045132
 20
11.0917576522
 30
0.0
 10
9.2326258085
 20
11.0916949577
 30
0.0
 10
9.2333428699
 20
11.0916700417
 30
0.0
 10
9.2339522385
 20
11.0916827099
 30
0.0
 10
9.2344507698
 20
11.0917328707
 30
0.0
 10
9.234794815
 20
11.0918095187
 30
0.0
 10
9.2350081203
 20
11.0918960864
 30
0.0
 10
9.2351278307
 20
11.091966476
 30
0.0
 10
9.2352186462
 20
11.0920473863
 30
0.0
 10
9.2352604227
 20
11.0921111776
 30
0.0
 10
9.2352749259
 20
11.0921435603
 30
0.0
  0
SPLINE
  5
451
100
AcDbEntity
  8
0
100
AcDbSpline
 62
7
  6
CONTINUOUS
 70
0
 71
3
 72
18
 73
14
 74
0
 42
0.0000001
 43
0.0000001
 44
0.0000000001
 40
0.0
 40
0.0
 40
0.0
 40
0.0
 40
0.0405186701
 40
0.0882278526
 40
0.1424025952
 40
0.2022269421
 40
0.3351022099
 40
0.4789140477
 40
0.6253128123
 40
0.7660385486
 40
0.8932837734
 40
0.9496117749
 40
1.0
 40
1.0
 40
1.0
 40
1.0
 10
9.2960288489
 20
11.0573300275
 30
0.0
 10
9.2965003219
 20
11.057118998
 30
0.0
 10
9.2975377228
 20
11.0566835982
 30
0.0
 10
9.2992317159
 20
11.056030449
 30
0.0
 10
9.3011714167
 20
11.0553318683
 30
0.0
 10
9.3041511156
 20
11.0543183122
 30
0.0
 10
9.3082432464
 20
11.0530287399
 30
0.0
 10
9.3134227009
 20
11.0515226184
 30
0.0
 10
9.3187277414
 20
11.050093722
 30
0.0
 10
9.3238549495
 20
11.0488208149
 30
0.0
 10
9.3278888472
 20
11.0479129076
 30
0.0
 10
9.3308128914
 20
11.0473241338
 30
0.0
 10
9.3321513457
 20
11.0470797775
 30
0.0
 10
9.332784657
 20
11.0469722963
 30
0.0
  0
SPLINE
  5
452
100
AcDbEntity
  8
0
100
AcDbSpline
 62
7
  6
CONTINUOUS
 70
0
 71
3
 72
18
 73
14
 74
0
 42
0.0000001
 43
0.0000001
 44
0.0000000001
 40
0.0
 40
0.0
 40
0.0
 40
0.0
 40
0.2146757918
 40
0.4054129049
 40
0.5708789215
 40
0.643793192
 40
0.7099971156
 40
0.8219533934
 40
0.867639371
 40
0.9064836512
 40
0.938633011
 40
0.9644105071
 40
1.0
 40
1.0
 40
1.0
 40
1.0
 10
9.332784657
 20
11.0469722963
 30
0.0
 10
9.3331805634
 20
11.0469051058
 30
0.0
 10
9.3339292547
 20
11.0467840952
 30
0.0
 10
9.3349868216
 20
11.046635492
 30
0.0
 10
9.3357845504
 20
11.0465450055
 30
0.0
 10
9.3363523307
 20
11.0464970443
 30
0.0
 10
9.3368211054
 20
11.0464683183
 30
0.0
 10
9.3372400769
 20
11.0464581119
 30
0.0
 10
9.3376075293
 20
11.0464749266
 30
0.0
 10
9.3378244336
 20
11.0464979636
 30
0.0
 10
9.3380032735
 20
11.046533106
 30
0.0
 10
9.338167321
 20
11.0465863165
 30
0.0
 10
9.338273407
 20
11.0466573123
 30
0.0
 10
9.3383006068
 20
11.0467180751
 30
0.0
  0
LINE
  5
453
100
AcDbEntity
  8
0
100
AcDbLine
 62
7
  6
CONTINUOUS
 10
9.3585349265
 20
11.0293525558
 11
9.3595790928
 21
11.0289355863
  0
SPLINE
  5
454
100
AcDbEntity
  8
0
100
AcDbSpline
 62
7
  6
CONTINUOUS
 70
0
 71
3
 72
20
 73
16
 74
0
 42
0.0000001
 43
0.0000001
 44
0.0000000001
 40
0.0
 40
0.0
 40
0.0
 40
0.0
 40
0.0359191393
 40
0.081230603
 40
0.1349872454
 40
0.196067707
 40
0.263218357
 40
0.335086847
 40
0.487275129
 40
0.6409970709
 40
0.7847103863
 40
0.849378573
 40
0.9075601029
 40
0.9581067237
 40
1.0
 40
1.0
 40
1.0
 40
1.0
 10
9.3595790928
 20
11.0289355863
 30
0.0
 10
9.360050986
 20
11.0287614822
 30
0.0
 10
9.3611268062
 20
11.028391311
 30
0.0
 10
9.3629272879
 20
11.0278154887
 30
0.0
 10
9.3650735438
 20
11.0271649278
 30
0.0
 10
9.3675205116
 20
11.0264528763
 30
0.0
 10
9.3702177809
 20
11.0256936463
 30
0.0
 10
9.3741511018
 20
11.0246174527
 30
0.0
 10
9.3792669043
 20
11.0232699823
 30
0.0
 10
9.3853723025
 20
11.0217312581
 30
0.0
 10
9.3903026518
 20
11.0205460791
 30
0.0
 10
9.3939413446
 20
11.0197132069
 30
0.0
 10
9.3963129401
 20
11.0191921237
 30
0.0
 10
9.3983780134
 20
11.0187627564
 30
0.0
 10
9.3996494153
 20
11.0185189107
 30
0.0
 10
9.4002270207
 20
11.0184163268
 30
0.0
  0
SPLINE
  5
455
100
AcDbEntity
  8
0
100
AcDbSpline
 62
7
  6
CONTINUOUS
 70
0
 71
3
 72
18
 73
14
 74
0
 42
0.0000001
 43
0.0000001
 44
0.0000000001
 40
0.0
 40
0.0
 40
0.0
 40
0.0
 40
0.2223800365
 40
0.4178233792
 40
0.58556342
 40
0.7249941996
 40
0.835696099
 40
0.8802025466
 40
0.9175077527
 40
0.9477065528
 40
0.9710139878
 40
0.9879562481
 40
1.0
 40
1.0
 40
1.0
 40
1.0
 10
9.4002270207
 20
11.0184163268
 30
0.0
 10
9.400437139
 20
11.0183790094
 30
0.0
 10
9.4008322984
 20
11.0183109593
 30
0.0
 10
9.4013873926
 20
11.0182234189
 30
0.0
 10
9.4018651983
 20
11.0181571536
 30
0.0
 10
9.40226375
 20
11.0181124657
 30
0.0
 10
9.4025458799
 20
11.018091565
 30
0.0
 10
9.4027306298
 20
11.0180875972
 30
0.0
 10
9.4028381382
 20
11.018090363
 30
0.0
 10
9.4029250079
 20
11.0180983544
 30
0.0
 10
9.4029914775
 20
11.0181118948
 30
0.0
 10
9.4030385394
 20
11.0181301101
 30
0.0
 10
9.4030599321
 20
11.0181504298
 30
0.0
 10
9.4030646518
 20
11.0181609799
 30
0.0
  0
LINE
  5
456
100
AcDbEntity
  8
0
100
AcDbLine
 62
7
  6
CONTINUOUS
 10
8.2894333258
 20
11.4432174448
 11
8.2897237894
 21
11.4431468706
  0
SPLINE
  5
457
100
AcDbEntity
  8
0
100
AcDbSpline
 62
7
  6
CONTINUOUS
 70
0
 71
3
 72
16
 73
12
 74
0
 42
0.0000001
 43
0.0000001
 44
0.0000000001
 40
0.0
 40
0.0
 40
0.0
 40
0.0
 40
0.4102110006
 40
0.5741123724
 40
0.7099719606
 40
0.8179464404
 40
0.8990389853
 40
0.9304074607
 40
0.9566039036
 40
0.9790630867
 40
1.0
 40
1.0
 40
1.0
 40
1.0
 10
8.344189915
 20
11.4187086133
 30
0.0
 10
8.3445998294
 20
11.4185251373
 30
0.0
 10
8.3451788161
 20
11.418278903
 30
0.0
 10
8.3459118445
 20
11.418019815
 30
0.0
 10
8.3463407668
 20
11.4178944824
 30
0.0
 10
8.3466895104
 20
11.4178232087
 30
0.0
 10
8.346932069
 20
11.4178056527
 30
0.0
 10
8.3470831299
 20
11.4178259269
 30
0.0
 10
8.3471668615
 20
11.4178541932
 30
0.0
 10
8.3472307762
 20
11.4178979718
 30
0.0
 10
8.3472585085
 20
11.4179381229
 30
0.0
 10
8.3472678776
 20
11.4179590426
 30
0.0
  0
SPLINE
  5
458
100
AcDbEntity
  8
0
100
AcDbSpline
 62
7
  6
CONTINUOUS
 70
0
 71
3
 72
19
 73
15
 74
0
 42
0.0000001
 43
0.0000001
 44
0.0000000001
 40
0.0
 40
0.0
 40
0.0
 40
0.0
 40
0.2121433401
 40
0.4017187327
 40
0.5664973101
 40
0.7048772741
 40
0.7638263013
 40
0.8158684957
 40
0.8610331182
 40
0.8994840129
 40
0.9315698418
 40
0.9579868342
 40
0.9800526814
 40
1.0
 40
1.0
 40
1.0
 40
1.0
 10
8.4502050781
 20
11.371256648
 30
0.0
 10
8.4507871149
 20
11.3709961307
 30
0.0
 10
8.4518955153
 20
11.3705165442
 30
0.0
 10
8.4534793675
 20
11.3698901688
 30
0.0
 10
8.4548780334
 20
11.3694016469
 30
0.0
 10
8.4559243341
 20
11.3690981872
 30
0.0
 10
8.4566562351
 20
11.3689351788
 30
0.0
 10
8.4571192885
 20
11.3688567492
 30
0.0
 10
8.4575253451
 20
11.3688153753
 30
0.0
 10
8.4578737114
 20
11.3688108815
 30
0.0
 10
8.4581643858
 20
11.3688432179
 30
0.0
 10
8.458398181
 20
11.3689132086
 30
0.0
 10
8.4585755488
 20
11.3690242208
 30
0.0
 10
8.4586519399
 20
11.3691297491
 30
0.0
 10
8.4586764306
 20
11.3691844788
 30
0.0
  0
SPLINE
  5
459
100
AcDbEntity
  8
0
100
AcDbSpline
 62
7
  6
CONTINUOUS
 70
0
 71
3
 72
23
 73
19
 74
0
 42
0.0000001
 43
0.0000001
 44
0.0000000001
 40
0.0
 40
0.0
 40
0.0
 40
0.0
 40
0.036141851
 40
0.0496094433
 40
0.0650938285
 40
0.0826404847
 40
0.1022560486
 40
0.1239247162
 40
0.1476151596
 40
0.2008525498
 40
0.2614716139
 40
0.3288260727
 40
0.4021513105
 40
0.4805787389
 40
0.5631492142
 40
0.6488267942
 40
0.8250389393
 40
1.0
 40
1.0
 40
1.0
 40
1.0
 10
8.567916
 20
11.3888903801
 30
0.0
 10
8.5677683505
 20
11.3885606146
 30
0.0
 10
8.5679670693
 20
11.3879976845
 30
0.0
 10
8.5683012343
 20
11.3874561358
 30
0.0
 10
8.5685785116
 20
11.3870786362
 30
0.0
 10
8.5689176934
 20
11.3866771043
 30
0.0
 10
8.5693201577
 20
11.3862475278
 30
0.0
 10
8.5697840994
 20
11.3857928124
 30
0.0
 10
8.570512118
 20
11.3851280329
 30
0.0
 10
8.5715695854
 20
11.3842480109
 30
0.0
 10
8.5730121999
 20
11.3831515758
 30
0.0
 10
8.5746570339
 20
11.3819915328
 30
0.0
 10
8.5764841389
 20
11.3807828847
 30
0.0
 10
8.5784710022
 20
11.379541538
 30
0.0
 10
8.5805925343
 20
11.3782839976
 30
0.0
 10
8.5835924073
 20
11.3765926833
 30
0.0
 10
8.587462313
 20
11.3745661263
 30
0.0
 10
8.5906354151
 20
11.3730613224
 30
0.0
 10
8.5922318811
 20
11.3723467505
 30
0.0
  0
SPLINE
  5
45A
100
AcDbEntity
  8
0
100
AcDbSpline
 62
7
  6
CONTINUOUS
 70
0
 71
3
 72
21
 73
17
 74
0
 42
0.0000001
 43
0.0000001
 44
0.0000000001
 40
0.0
 40
0.0
 40
0.0
 40
0.0
 40
0.2015541694
 40
0.3875580626
 40
0.5535788904
 40
0.6958714343
 40
0.7572105445
 40
0.8116479716
 40
0.8590320856
 40
0.8993299167
 40
0.9327016161
 40
0.9596369147
 40
0.9710336616
 40
0.9813283527
 40
0.990846854
 40
1.0
 40
1.0
 40
1.0
 40
1.0
 10
8.5933958513
 20
11.3071650276
 30
0.0
 10
8.5944200918
 20
11.3067065816
 30
0.0
 10
8.596402742
 20
11.3058540746
 30
0.0
 10
8.5992749218
 20
11.3047341372
 30
0.0
 10
8.6018786491
 20
11.3038401441
 30
0.0
 10
8.6038586769
 20
11.3032730412
 30
0.0
 10
8.6052609068
 20
11.3029579298
 30
0.0
 10
8.6061559392
 20
11.3028001899
 30
0.0
 10
8.6069424859
 20
11.3027091028
 30
0.0
 10
8.6076170855
 20
11.3026845954
 30
0.0
 10
8.60817687
 20
11.3027261027
 30
0.0
 10
8.6085683504
 20
11.3028206538
 30
0.0
 10
8.6088139899
 20
11.3029367618
 30
0.0
 10
8.608957527
 20
11.3030364073
 30
0.0
 10
8.6090700368
 20
11.3031535837
 30
0.0
 10
8.6091238357
 20
11.3032438159
 30
0.0
 10
8.609144656
 20
11.3032903291
 30
0.0
  0
SPLINE
  5
45B
100
AcDbEntity
  8
0
100
AcDbSpline
 62
7
  6
CONTINUOUS
 70
0
 71
3
 72
24
 73
20
 74
0
 42
0.0000001
 43
0.0000001
 44
0.0000000001
 40
0.0
 40
0.0
 40
0.0
 40
0.0
 40
0.1860496571
 40
0.3664372472
 40
0.4521865186
 40
0.5338097746
 40
0.6105156723
 40
0.6815829556
 40
0.746373115
 40
0.8043420795
 40
0.8550521432
 40
0.8981973926
 40
0.9336606279
 40
0.9485658241
 40
0.9616641962
 40
0.9730815509
 40
0.9830295752
 40
0.9918401075
 40
1.0
 40
1.0
 40
1.0
 40
1.0
 10
8.7547408944
 20
11.2349476281
 30
0.0
 10
8.7561709477
 20
11.2343075419
 30
0.0
 10
8.7590114426
 20
11.2330995937
 30
0.0
 10
8.762570394
 20
11.2317421763
 30
0.0
 10
8.7653385596
 20
11.2307856189
 30
0.0
 10
8.7672961497
 20
11.2301583339
 30
0.0
 10
8.7691501435
 20
11.2296147971
 30
0.0
 10
8.7708817023
 20
11.2291598879
 30
0.0
 10
8.7724735628
 20
11.2287973602
 30
0.0
 10
8.773910154
 20
11.2285299394
 30
0.0
 10
8.7751780164
 20
11.2283590783
 30
0.0
 10
8.7762653669
 20
11.2282855643
 30
0.0
 10
8.7770548053
 20
11.2283049197
 30
0.0
 10
8.7775847674
 20
11.2283786231
 30
0.0
 10
8.7779084218
 20
11.2284552533
 30
0.0
 10
8.7781814279
 20
11.2285564473
 30
0.0
 10
8.7784035936
 20
11.2286828369
 30
0.0
 10
8.778573894
 20
11.2288356173
 30
0.0
 10
8.7786521749
 20
11.2289578837
 30
0.0
 10
8.7786802492
 20
11.2290206036
 30
0.0
  0
SPLINE
  5
45C
100
AcDbEntity
  8
0
100
AcDbSpline
 62
7
  6
CONTINUOUS
 70
0
 71
3
 72
25
 73
21
 74
0
 42
0.0000001
 43
0.0000001
 44
0.0000000001
 40
0.0
 40
0.0
 40
0.0
 40
0.0
 40
0.1645516996
 40
0.3364152794
 40
0.4217378557
 40
0.5048986967
 40
0.5846516827
 40
0.6598291272
 40
0.729359426
 40
0.7922790328
 40
0.8477501854
 40
0.8950816295
 40
0.9155333743
 40
0.9337807784
 40
0.9498090588
 40
0.9636318228
 40
0.9753175742
 40
0.9850205488
 40
0.9930540615
 40
1.0
 40
1.0
 40
1.0
 40
1.0
 10
8.9128072696
 20
11.1641977474
 30
0.0
 10
8.9144854665
 20
11.1634465931
 30
0.0
 10
8.917956617
 20
11.1619999803
 30
0.0
 10
8.9223797909
 20
11.1603708646
 30
0.0
 10
8.9259871265
 20
11.1591662977
 30
0.0
 10
8.9286361039
 20
11.1583431829
 30
0.0
 10
8.931193638
 20
11.1576099491
 30
0.0
 10
8.933620707
 20
11.1569767526
 30
0.0
 10
8.9358808591
 20
11.1564520385
 30
0.0
 10
8.9379407348
 20
11.156042383
 30
0.0
 10
8.9397701808
 20
11.1557528569
 30
0.0
 10
8.9411406779
 20
11.1556070095
 30
0.0
 10
8.9421010884
 20
11.1555604824
 30
0.0
 10
8.9427128605
 20
11.1555592522
 30
0.0
 10
8.9432498288
 20
11.1555896181
 30
0.0
 10
8.9437104039
 20
11.1556515455
 30
0.0
 10
8.9440936504
 20
11.1557447884
 30
0.0
 10
8.9443994882
 20
11.1558700645
 30
0.0
 10
8.9446283014
 20
11.1560295764
 30
0.0
 10
8.9447297347
 20
11.1561683782
 30
0.0
 10
8.9447614377
 20
11.1562392189
 30
0.0
  0
SPLINE
  5
45D
100
AcDbEntity
  8
0
100
AcDbSpline
 62
7
  6
CONTINUOUS
 70
0
 71
3
 72
19
 73
15
 74
0
 42
0.0000001
 43
0.0000001
 44
0.0000000001
 40
0.0
 40
0.0
 40
0.0
 40
0.0
 40
0.0202909764
 40
0.0424852417
 40
0.0688139683
 40
0.1006270494
 40
0.1386740862
 40
0.1833513459
 40
0.2348515527
 40
0.2932631355
 40
0.4307279882
 40
0.5951816728
 40
0.7855138939
 40
1.0
 40
1.0
 40
1.0
 40
1.0
 10
9.0409937617
 20
11.1081652932
 30
0.0
 10
9.0409743162
 20
11.1081218422
 30
0.0
 10
9.0409515629
 20
11.1080217461
 30
0.0
 10
9.0409768523
 20
11.1078594925
 30
0.0
 10
9.0410553934
 20
11.1076864953
 30
0.0
 10
9.0411850551
 20
11.1075007861
 30
0.0
 10
9.041365892
 20
11.1073013536
 30
0.0
 10
9.0415979793
 20
11.1070880637
 30
0.0
 10
9.0418811681
 20
11.1068611502
 30
0.0
 10
9.0423527062
 20
11.1065224705
 30
0.0
 10
9.0430701885
 20
11.1060739845
 30
0.0
 10
9.0440814753
 20
11.1055156618
 30
0.0
 10
9.0452760398
 20
11.1049177688
 30
0.0
 10
9.0461382869
 20
11.1045193144
 30
0.0
 10
9.0465975743
 20
11.1043137392
 30
0.0
  0
SPLINE
  5
45E
100
AcDbEntity
  8
0
100
AcDbSpline
 62
7
  6
CONTINUOUS
 70
0
 71
3
 72
28
 73
24
 74
0
 42
0.0000001
 43
0.0000001
 44
0.0000000001
 40
0.0
 40
0.0
 40
0.0
 40
0.0
 40
0.064040557
 40
0.1356149076
 40
0.2131299274
 40
0.2948526376
 40
0.4636643774
 40
0.6276069172
 40
0.7034657224
 40
0.7731595317
 40
0.8352891681
 40
0.86312622
 40
0.8886237064
 40
0.9116611278
 40
0.9321309316
 40
0.9499501977
 40
0.9650597816
 40
0.9774465095
 40
0.9871685277
 40
0.9910977117
 40
0.9944723652
 40
0.9973889026
 40
1.0
 40
1.0
 40
1.0
 40
1.0
 10
9.0465975743
 20
11.1043137392
 30
0.0
 10
9.0473840623
 20
11.1039617103
 30
0.0
 10
9.04906476
 20
11.103250082
 30
0.0
 10
9.0517373179
 20
11.1022095132
 30
0.0
 10
9.0546579711
 20
11.1011529244
 30
0.0
 10
9.0588395621
 20
11.0997388352
 30
0.0
 10
9.0641724484
 20
11.0981030462
 30
0.0
 10
9.0694822122
 20
11.096671815
 30
0.0
 10
9.0735338976
 20
11.0957086082
 30
0.0
 10
9.0762666612
 20
11.0951237165
 30
0.0
 10
9.0783790829
 20
11.0947307593
 30
0.0
 10
9.0799137909
 20
11.0944886793
 30
0.0
 10
9.0809320938
 20
11.0943500839
 30
0.0
 10
9.0818550862
 20
11.0942482856
 30
0.0
 10
9.0826779127
 20
11.0941838629
 30
0.0
 10
9.0833961223
 20
11.094157034
 30
0.0
 10
9.0840062808
 20
11.0941677756
 30
0.0
 10
9.0845051852
 20
11.0942158701
 30
0.0
 10
9.0848493765
 20
11.0942907081
 30
0.0
 10
9.0850626671
 20
11.0943758445
 30
0.0
 10
9.0851822039
 20
11.0944451562
 30
0.0
 10
9.0852727652
 20
11.094525045
 30
0.0
 10
9.0853143235
 20
11.0945882242
 30
0.0
 10
9.0853286789
 20
11.0946202903
 30
0.0
  0
SPLINE
  5
45F
100
AcDbEntity
  8
0
100
AcDbSpline
 62
7
  6
CONTINUOUS
 70
0
 71
3
 72
20
 73
16
 74
0
 42
0.0000001
 43
0.0000001
 44
0.0000000001
 40
0.0
 40
0.0
 40
0.0
 40
0.0
 40
0.0353553055
 40
0.0794769881
 40
0.1315597337
 40
0.1906352344
 40
0.2556024042
 40
0.3252665527
 40
0.4736041424
 40
0.6252536097
 40
0.7698762918
 40
0.8364657188
 40
0.8977044093
 40
0.9525354246
 40
1.0
 40
1.0
 40
1.0
 40
1.0
 10
9.1383392186
 20
11.0632505442
 30
0.0
 10
9.1387765419
 20
11.0630548
 30
0.0
 10
9.1397738636
 20
11.0626468033
 30
0.0
 10
9.1414460122
 20
11.0620278685
 30
0.0
 10
9.1434365317
 20
11.0613446274
 30
0.0
 10
9.1457075315
 20
11.0606098129
 30
0.0
 10
9.1482163429
 20
11.0598368965
 30
0.0
 10
9.1518941998
 20
11.0587509257
 30
0.0
 10
9.1567200926
 20
11.0574059801
 30
0.0
 10
9.1625506898
 20
11.0558856826
 30
0.0
 10
9.1673291893
 20
11.054723605
 30
0.0
 10
9.1709296275
 20
11.0539051652
 30
0.0
 10
9.173349667
 20
11.0533843268
 30
0.0
 10
9.1755226672
 20
11.0529484996
 30
0.0
 10
9.1768867483
 20
11.0527005172
 30
0.0
 10
9.1775211553
 20
11.0525943108
 30
0.0
  0
SPLINE
  5
460
100
AcDbEntity
  8
0
100
AcDbSpline
 62
7
  6
CONTINUOUS
 70
0
 71
3
 72
16
 73
12
 74
0
 42
0.0000001
 43
0.0000001
 44
0.0000000001
 40
0.0
 40
0.0
 40
0.0
 40
0.0
 40
0.4102208392
 40
0.5764251779
 40
0.7155082905
 40
0.8268517425
 40
0.8720611433
 40
0.9103239071
 40
0.9417654199
 40
0.9666920813
 40
1.0
 40
1.0
 40
1.0
 40
1.0
 10
9.1775211553
 20
11.0525943108
 30
0.0
 10
9.1780954959
 20
11.0524981601
 30
0.0
 10
9.178904329
 20
11.0523724362
 30
0.0
 10
9.1799132229
 20
11.0522538717
 30
0.0
 10
9.1805027178
 20
11.0522044493
 30
0.0
 10
9.180922388
 20
11.0521892374
 30
0.0
 10
9.181199059
 20
11.0521971666
 30
0.0
 10
9.1813614306
 20
11.0522109166
 30
0.0
 10
9.1814949179
 20
11.0522335231
 30
0.0
 10
9.1816149638
 20
11.0522683654
 30
0.0
 10
9.1816945604
 20
11.052316382
 30
0.0
 10
9.1817138596
 20
11.0523595467
 30
0.0
  0
SPLINE
  5
461
100
AcDbEntity
  8
0
100
AcDbSpline
 62
7
  6
CONTINUOUS
 70
0
 71
3
 72
49
 73
45
 74
0
 42
0.0000001
 43
0.0000001
 44
0.0000000001
 40
0.0
 40
0.0
 40
0.0
 40
0.0
 40
0.0017704956
 40
0.0047176746
 40
0.0088364972
 40
0.014118102
 40
0.0205475619
 40
0.0281086792
 40
0.0465459864
 40
0.0692375501
 40
0.0959490425
 40
0.1264099453
 40
0.1603159795
 40
0.1973337477
 40
0.2371068869
 40
0.3233976288
 40
0.4160027321
 40
0.5115817065
 40
0.6067242401
 40
0.6530672216
 40
0.6980311371
 40
0.7412069873
 40
0.7821969218
 40
0.8206170356
 40
0.8561038766
 40
0.8883155482
 40
0.9169355378
 40
0.9298092179
 40
0.9416804026
 40
0.9525198549
 40
0.9623002309
 40
0.9709949952
 40
0.9785827653
 40
0.985044263
 40
0.9903612673
 40
0.9925865392
 40
0.9945212513
 40
0.99616415
 40
0.9975140605
 40
0.9985701048
 40
0.9993326139
 40
0.9998036758
 40
0.9999329059
 40
1.0
 40
1.0
 40
1.0
 40
1.0
 10
9.1758453208
 20
11.046462962
 30
0.0
 10
9.1758704689
 20
11.0464517058
 30
0.0
 10
9.1759399538
 20
11.0464275773
 30
0.0
 10
9.1760709029
 20
11.0463858279
 30
0.0
 10
9.1762552224
 20
11.0463313672
 30
0.0
 10
9.176492121
 20
11.0462638565
 30
0.0
 10
9.1767811492
 20
11.046183767
 30
0.0
 10
9.1772681144
 20
11.0460513853
 30
0.0
 10
9.1780004095
 20
11.0458567655
 30
0.0
 10
9.1790218297
 20
11.0455898232
 30
0.0
 10
9.1802251643
 20
11.0452789695
 30
0.0
 10
9.1815981542
 20
11.0449271278
 30
0.0
 10
9.1831270497
 20
11.0445375876
 30
0.0
 10
9.184796795
 20
11.0441139211
 30
0.0
 10
9.187257153
 20
11.0434915222
 30
0.0
 10
9.1905567693
 20
11.0426594721
 30
0.0
 10
9.1946989367
 20
11.0416169293
 30
0.0
 10
9.1989749045
 20
11.0405416226
 30
0.0
 10
9.2025528002
 20
11.0396423564
 30
0.0
 10
9.2053669169
 20
11.0389356032
 30
0.0
 10
9.207396785
 20
11.0384262102
 30
0.0
 10
9.2093459881
 20
11.0379376249
 30
0.0
 10
9.2111965944
 20
11.0374745235
 30
0.0
 10
9.2129313638
 20
11.0370414273
 30
0.0
 10
9.2145339014
 20
11.03664265
 30
0.0
 10
9.2159888279
 20
11.0362822476
 30
0.0
 10
9.2171025804
 20
11.0360081013
 30
0.0
 10
9.2179092956
 20
11.0358109392
 30
0.0
 10
9.2184473946
 20
11.0356801735
 30
0.0
 10
9.218938907
 20
11.0355615582
 30
0.0
 10
9.2193825787
 20
11.035455417
 30
0.0
 10
9.2197772741
 20
11.0353620462
 30
0.0
 10
9.2201219741
 20
11.0352816948
 30
0.0
 10
9.2204157844
 20
11.0352145829
 30
0.0
 10
9.2206285378
 20
11.0351673798
 30
0.0
 10
9.2207727644
 20
11.0351365596
 30
0.0
 10
9.2208611924
 20
11.0351182685
 30
0.0
 10
9.2209364332
 20
11.0351033927
 30
0.0
 10
9.2209983542
 20
11.0350919438
 30
0.0
 10
9.221047106
 20
11.035083879
 30
0.0
 10
9.2210821996
 20
11.0350791993
 30
0.0
 10
9.2211037889
 20
11.0350776223
 30
0.0
 10
9.2211137774
 20
11.0350783768
 30
0.0
 10
9.2211170611
 20
11.0350796401
 30
0.0
 10
9.2211174926
 20
11.0350805909
 30
0.0
  0
SPLINE
  5
462
100
AcDbEntity
  8
0
100
AcDbSpline
 62
7
  6
CONTINUOUS
 70
0
 71
3
 72
26
 73
22
 74
0
 42
0.0000001
 43
0.0000001
 44
0.0000000001
 40
0.0
 40
0.0
 40
0.0
 40
0.0
 40
0.0066025693
 40
0.0144472304
 40
0.0241399727
 40
0.0359799609
 40
0.050100931
 40
0.0665520492
 40
0.0853289919
 40
0.1064007878
 40
0.1551811077
 40
0.2122733148
 40
0.2768559699
 40
0.3479561923
 40
0.4244690888
 40
0.5051779499
 40
0.5887682594
 40
0.6738483831
 40
0.8426650523
 40
0.9234857925
 40
1.0
 40
1.0
 40
1.0
 40
1.0
 10
8.412344406
 20
11.4595817352
 30
0.0
 10
8.4123123858
 20
11.4595102092
 30
0.0
 10
8.4122797089
 20
11.459336308
 30
0.0
 10
8.4123269639
 20
11.459050328
 30
0.0
 10
8.412457334
 20
11.4587250764
 30
0.0
 10
8.4126701866
 20
11.4583582108
 30
0.0
 10
8.4129649192
 20
11.4579494219
 30
0.0
 10
8.4133409932
 20
11.4574998911
 30
0.0
 10
8.4137970659
 20
11.4570111584
 30
0.0
 10
8.414547212
 20
11.4562733362
 30
0.0
 10
8.4156766492
 20
11.4552746132
 30
0.0
 10
8.4172537589
 20
11.4540066629
 30
0.0
 10
8.4190882507
 20
11.452638524
 30
0.0
 10
8.4211509945
 20
11.451192934
 30
0.0
 10
8.4234091169
 20
11.4496942061
 30
0.0
 10
8.4258258929
 20
11.4481678411
 30
0.0
 10
8.4283613251
 20
11.4466401324
 30
0.0
 10
8.4318337085
 20
11.4446428449
 30
0.0
 10
8.4353360494
 20
11.442764616
 30
0.0
 10
8.4388062911
 20
11.4410485721
 30
0.0
 10
8.4404999554
 20
11.4402613569
 30
0.0
 10
8.4413288608
 20
11.4398903421
 30
0.0
  0
SPLINE
  5
463
100
AcDbEntity
  8
0
100
AcDbSpline
 62
7
  6
CONTINUOUS
 70
0
 71
3
 72
28
 73
24
 74
0
 42
0.0000001
 43
0.0000001
 44
0.0000000001
 40
0.0
 40
0.0
 40
0.0
 40
0.0
 40
0.0026398722
 40
0.0055819219
 40
0.0089770816
 40
0.0129226608
 40
0.0226662066
 40
0.0350597278
 40
0.0501670404
 40
0.0679733799
 40
0.0884244472
 40
0.1114350951
 40
0.1369027244
 40
0.1647042962
 40
0.2267574577
 40
0.2963728475
 40
0.3721585043
 40
0.5359966681
 40
0.7047917735
 40
0.7865493806
 40
0.8641327645
 40
0.9358141686
 40
1.0
 40
1.0
 40
1.0
 40
1.0
 10
8.2787496987
 20
11.5202804469
 30
0.0
 10
8.2787352102
 20
11.5202480577
 30
0.0
 10
8.278715467
 20
11.5201744044
 30
0.0
 10
8.2787156262
 20
11.5200527742
 30
0.0
 10
8.278742881
 20
11.5199166035
 30
0.0
 10
8.2788204227
 20
11.5196998539
 30
0.0
 10
8.2789924602
 20
11.5193922093
 30
0.0
 10
8.2792871684
 20
11.5189869976
 30
0.0
 10
8.2796836769
 20
11.5185241028
 30
0.0
 10
8.280179959
 20
11.5180059312
 30
0.0
 10
8.2807738554
 20
11.5174351915
 30
0.0
 10
8.2814622221
 20
11.5168149342
 30
0.0
 10
8.282241478
 20
11.5161485071
 30
0.0
 10
8.2834409176
 20
11.5151665564
 30
0.0
 10
8.2851370801
 20
11.5138554432
 30
0.0
 10
8.2873892871
 20
11.5122110722
 30
0.0
 10
8.2908017686
 20
11.5098375941
 30
0.0
 10
8.2954025222
 20
11.506840539
 30
0.0
 10
8.3001728248
 20
11.5039629547
 30
0.0
 10
8.3040127084
 20
11.5017928488
 30
0.0
 10
8.3067475223
 20
11.5003216768
 30
0.0
 10
8.309306113
 20
11.4990231732
 30
0.0
 10
8.3109580678
 20
11.4982437905
 30
0.0
 10
8.3117454995
 20
11.4978913392
 30
0.0
  0
SPLINE
  5
464
100
AcDbEntity
  8
0
100
AcDbSpline
 62
7
  6
CONTINUOUS
 70
0
 71
3
 72
20
 73
16
 74
0
 42
0.0000001
 43
0.0000001
 44
0.0000000001
 40
0.0
 40
0.0
 40
0.0
 40
0.0
 40
0.0094121389
 40
0.0191237352
 40
0.0408733783
 40
0.0676101249
 40
0.1005217099
 40
0.1401715143
 40
0.1867818075
 40
0.2403903314
 40
0.3009043956
 40
0.4418629263
 40
0.6074931606
 40
0.7947652128
 40
1.0
 40
1.0
 40
1.0
 40
1.0
 10
8.9014197375
 20
11.1720033218
 30
0.0
 10
8.9014014845
 20
11.171962555
 30
0.0
 10
8.9013734611
 20
11.1718753261
 30
0.0
 10
8.9013553942
 20
11.1716808426
 30
0.0
 10
8.9014141987
 20
11.17140514
 30
0.0
 10
8.9015918748
 20
11.171059505
 30
0.0
 10
8.9018750441
 20
11.1706809231
 30
0.0
 10
8.9022642644
 20
11.1702694762
 30
0.0
 10
8.9027587744
 20
11.1698258889
 30
0.0
 10
8.9033571696
 20
11.1693522671
 30
0.0
 10
8.9043417151
 20
11.1686473562
 30
0.0
 10
8.9058174122
 20
11.1677187738
 30
0.0
 10
8.9078644185
 20
11.1665760598
 30
0.0
 10
8.910228604
 20
11.1653804046
 30
0.0
 10
8.9119182885
 20
11.1645956518
 30
0.0
 10
8.9128072696
 20
11.1641977474
 30
0.0
  0
SPLINE
  5
465
100
AcDbEntity
  8
0
100
AcDbSpline
 62
9
  6
CONTINUOUS
 70
0
 71
3
 72
11
 73
7
 74
0
 42
0.0000001
 43
0.0000001
 44
0.0000000001
 40
0.0
 40
0.0
 40
0.0
 40
0.0
 40
0.2521224973
 40
0.5031414453
 40
0.7525903437
 40
1.0
 40
1.0
 40
1.0
 40
1.0
 10
6.9303740985
 20
9.4816023283
 30
0.0
 10
6.8973103139
 20
9.4390732471
 30
0.0
 10
6.8335223262
 20
9.3524688944
 30
0.0
 10
6.7449386588
 20
9.2181843485
 30
0.0
 10
6.6639252535
 20
9.0803682441
 30
0.0
 10
6.6149481173
 20
8.986114816
 30
0.0
 10
6.5918339662
 20
8.9385732894
 30
0.0
  0
SPLINE
  5
466
100
AcDbEntity
  8
0
100
AcDbSpline
 62
7
  6
CONTINUOUS
 70
0
 71
3
 72
16
 73
12
 74
0
 42
0.0000001
 43
0.0000001
 44
0.0000000001
 40
0.0
 40
0.0
 40
0.0
 40
0.0
 40
0.0415297778
 40
0.06910614
 40
0.1023676216
 40
0.1874172818
 40
0.2983519752
 40
0.4354514448
 40
0.5984711641
 40
0.786901301
 40
1.0
 40
1.0
 40
1.0
 40
1.0
 10
8.176237413
 20
11.566852938
 30
0.0
 10
8.1762173328
 20
11.5668080714
 30
0.0
 10
8.1762185303
 20
11.5667198123
 30
0.0
 10
8.1762544522
 20
11.5666048327
 30
0.0
 10
8.1763276142
 20
11.5664475345
 30
0.0
 10
8.1764784292
 20
11.5662209224
 30
0.0
 10
8.1767278434
 20
11.5659152328
 30
0.0
 10
8.1770594255
 20
11.5655588376
 30
0.0
 10
8.1774715933
 20
11.5651530937
 30
0.0
 10
8.1779628369
 20
11.5646999923
 30
0.0
 10
8.1783200967
 20
11.5643865076
 30
0.0
 10
8.1785112344
 20
11.5642219344
 30
0.0
  0
SPLINE
  5
467
100
AcDbEntity
  8
0
100
AcDbSpline
 62
7
  6
CONTINUOUS
 70
0
 71
3
 72
19
 73
15
 74
0
 42
0.0000001
 43
0.0000001
 44
0.0000000001
 40
0.0
 40
0.0
 40
0.0
 40
0.0
 40
0.0431733023
 40
0.0938201771
 40
0.1511086016
 40
0.2141030724
 40
0.3530552155
 40
0.5017347673
 40
0.6504588058
 40
0.789271633
 40
0.8519295459
 40
0.9085817908
 40
0.9582295379
 40
1.0
 40
1.0
 40
1.0
 40
1.0
 10
8.1785112344
 20
11.5642219344
 30
0.0
 10
8.1789508145
 20
11.5638434474
 30
0.0
 10
8.1799232451
 20
11.5630409087
 30
0.0
 10
8.1815224379
 20
11.5617898496
 30
0.0
 10
8.1833591917
 20
11.5604109781
 30
0.0
 10
8.1861780082
 20
11.558364835
 30
0.0
 10
8.1900473485
 20
11.5556766375
 30
0.0
 10
8.1949340306
 20
11.5524365905
 30
0.0
 10
8.1998864022
 20
11.5493013438
 30
0.0
 10
8.2039192646
 20
11.5468763377
 30
0.0
 10
8.2069320646
 20
11.5451582553
 30
0.0
 10
8.208924444
 20
11.5440698748
 30
0.0
 10
8.2106920665
 20
11.5431565656
 30
0.0
 10
8.2118004379
 20
11.5426263512
 30
0.0
 10
8.2123126892
 20
11.5423970695
 30
0.0
  0
SPLINE
  5
468
100
AcDbEntity
  8
0
100
AcDbSpline
 62
7
  6
CONTINUOUS
 70
0
 71
3
 72
18
 73
14
 74
0
 42
0.0000001
 43
0.0000001
 44
0.0000000001
 40
0.0
 40
0.0
 40
0.0
 40
0.0
 40
0.0099522163
 40
0.0169524193
 40
0.0255937991
 40
0.0481543893
 40
0.0780400746
 40
0.1601629949
 40
0.2719708728
 40
0.4128721701
 40
0.5819488707
 40
0.7780998798
 40
1.0
 40
1.0
 40
1.0
 40
1.0
 10
8.1117948247
 20
11.5961282179
 30
0.0
 10
8.1117883311
 20
11.5961137178
 30
0.0
 10
8.111790956
 20
11.5960841443
 30
0.0
 10
8.1118053738
 20
11.5960463789
 30
0.0
 10
8.1118341535
 20
11.5959922272
 30
0.0
 10
8.111891486
 20
11.5959131103
 30
0.0
 10
8.1120319051
 20
11.5957503309
 30
0.0
 10
8.1122880859
 20
11.5955006034
 30
0.0
 10
8.1126878577
 20
11.5951457781
 30
0.0
 10
8.1132052848
 20
11.5947147198
 30
0.0
 10
8.1138364035
 20
11.5942101791
 30
0.0
 10
8.1145771699
 20
11.5936358633
 30
0.0
 10
8.1151091661
 20
11.5932328909
 30
0.0
 10
8.1153924468
 20
11.5930201961
 30
0.0
  0
SPLINE
  5
469
100
AcDbEntity
  8
0
100
AcDbSpline
 62
7
  6
CONTINUOUS
 70
0
 71
3
 72
18
 73
14
 74
0
 42
0.0000001
 43
0.0000001
 44
0.0000000001
 40
0.0
 40
0.0
 40
0.0
 40
0.0
 40
0.0497400698
 40
0.1064302158
 40
0.2366816208
 40
0.3820729245
 40
0.533095162
 40
0.6798489106
 40
0.812495563
 40
0.8706070114
 40
0.9218255607
 40
0.9652193153
 40
1.0
 40
1.0
 40
1.0
 40
1.0
 10
8.1153924468
 20
11.5930201961
 30
0.0
 10
8.1159241105
 20
11.5926210086
 30
0.0
 10
8.11706838
 20
11.5917757132
 30
0.0
 10
8.1196326387
 20
11.5899228812
 30
0.0
 10
8.1232658699
 20
11.5873668694
 30
0.0
 10
8.1279673794
 20
11.58413879
 30
0.0
 10
8.1328842127
 20
11.580835114
 30
0.0
 10
8.1376922292
 20
11.5776755004
 30
0.0
 10
8.1414918155
 20
11.5752430718
 30
0.0
 10
8.1442388145
 20
11.5735356551
 30
0.0
 10
8.1459844563
 20
11.5724772783
 30
0.0
 10
8.1474766408
 20
11.5716027646
 30
0.0
 10
8.1483893281
 20
11.5710936228
 30
0.0
 10
8.1487998976
 20
11.5708755486
 30
0.0
  0
LINE
  5
46A
100
AcDbEntity
  8
0
100
AcDbLine
 62
7
  6
CONTINUOUS
 10
8.1487998976
 20
11.5708755486
 11
8.1498066116
 21
11.5703745412
  0
SPLINE
  5
46B
100
AcDbEntity
  8
0
100
AcDbSpline
 62
7
  6
CONTINUOUS
 70
0
 71
3
 72
23
 73
19
 74
0
 42
0.0000001
 43
0.0000001
 44
0.0000000001
 40
0.0
 40
0.0
 40
0.0
 40
0.0
 40
0.036084877
 40
0.0495129682
 40
0.0649495119
 40
0.0824355564
 40
0.1019813888
 40
0.1235720761
 40
0.1471742991
 40
0.2002189416
 40
0.2606302655
 40
0.327777887
 40
0.4009172366
 40
0.47920288
 40
0.5616993229
 40
0.6473942919
 40
0.8240103059
 40
1.0
 40
1.0
 40
1.0
 40
1.0
 10
8.6145724498
 20
11.2423556892
 30
0.0
 10
8.6144270129
 20
11.2420306564
 30
0.0
 10
8.6146206643
 20
11.2414762374
 30
0.0
 10
8.6149477308
 20
11.2409414272
 30
0.0
 10
8.6152191068
 20
11.2405689583
 30
0.0
 10
8.6155511291
 20
11.2401725509
 30
0.0
 10
8.615945234
 20
11.2397483789
 30
0.0
 10
8.6163996506
 20
11.2392992531
 30
0.0
 10
8.6171128643
 20
11.238642391
 30
0.0
 10
8.6181493254
 20
11.2377724334
 30
0.0
 10
8.6195640684
 20
11.2366878897
 30
0.0
 10
8.6211782717
 20
11.2355397734
 30
0.0
 10
8.6229729303
 20
11.2343428833
 30
0.0
 10
8.6249265968
 20
11.2331129415
 30
0.0
 10
8.6270153162
 20
11.2318662912
 30
0.0
 10
8.6299751966
 20
11.2301875349
 30
0.0
 10
8.6338044397
 20
11.2281738278
 30
0.0
 10
8.6369486674
 20
11.2266807231
 30
0.0
 10
8.6385338013
 20
11.2259712235
 30
0.0
  0
LINE
  5
46C
100
AcDbEntity
  8
0
100
AcDbLine
 62
7
  6
CONTINUOUS
 10
8.429211023
 20
11.3196632664
 11
8.4297086155
 21
11.3195447216
  0
SPLINE
  5
46D
100
AcDbEntity
  8
0
100
AcDbSpline
 62
7
  6
CONTINUOUS
 70
0
 71
3
 72
19
 73
15
 74
0
 42
0.0000001
 43
0.0000001
 44
0.0000000001
 40
0.0
 40
0.0
 40
0.0
 40
0.0
 40
0.2144605628
 40
0.4046142081
 40
0.5688096979
 40
0.7060144083
 40
0.7643227981
 40
0.8157488528
 40
0.8603930253
 40
0.8984635914
 40
0.9303697768
 40
0.9568798423
 40
0.9793544207
 40
1.0
 40
1.0
 40
1.0
 40
1.0
 10
8.5027949354
 20
11.2867273999
 30
0.0
 10
8.5032389043
 20
11.2865286812
 30
0.0
 10
8.5040811897
 20
11.2861640279
 30
0.0
 10
8.5052811249
 20
11.2856893803
 30
0.0
 10
8.5063342231
 20
11.2853223879
 30
0.0
 10
8.5071190802
 20
11.2850968482
 30
0.0
 10
8.5076665549
 20
11.284977742
 30
0.0
 10
8.5080124092
 20
11.2849217667
 30
0.0
 10
8.5083156907
 20
11.2848939604
 30
0.0
 10
8.5085761601
 20
11.2848942487
 30
0.0
 10
8.5087939746
 20
11.2849226936
 30
0.0
 10
8.508969855
 20
11.2849799356
 30
0.0
 10
8.5091036907
 20
11.2850686759
 30
0.0
 10
8.5091616048
 20
11.2851509429
 30
0.0
 10
8.5091807349
 20
11.2851936827
 30
0.0
  0
SPLINE
  5
46E
100
AcDbEntity
  8
0
100
AcDbSpline
 62
7
  6
CONTINUOUS
 70
0
 71
3
 72
22
 73
18
 74
0
 42
0.0000001
 43
0.0000001
 44
0.0000000001
 40
0.0
 40
0.0
 40
0.0
 40
0.0
 40
0.1990082255
 40
0.3840560553
 40
0.5502325722
 40
0.6249066943
 40
0.6933644898
 40
0.7552371792
 40
0.8102341541
 40
0.8581546669
 40
0.8989302247
 40
0.9326745249
 40
0.9598283275
 40
0.9712603424
 40
0.9815345514
 40
0.9909743348
 40
1.0
 40
1.0
 40
1.0
 40
1.0
 10
8.6385338013
 20
11.2259712235
 30
0.0
 10
8.6396385873
 20
11.2254767257
 30
0.0
 10
8.6417858944
 20
11.2245558377
 30
0.0
 10
8.6449074966
 20
11.2233474479
 30
0.0
 10
8.6473611984
 20
11.2225135918
 30
0.0
 10
8.6491661391
 20
11.2219822793
 30
0.0
 10
8.6503729558
 20
11.2216677944
 30
0.0
 10
8.6514738445
 20
11.2214242639
 30
0.0
 10
8.6524617786
 20
11.2212526161
 30
0.0
 10
8.6533306589
 20
11.2211532182
 30
0.0
 10
8.6540759981
 20
11.2211257668
 30
0.0
 10
8.6546940787
 20
11.2211696439
 30
0.0
 10
8.6551260882
 20
11.2212707411
 30
0.0
 10
8.6553969293
 20
11.2213955449
 30
0.0
 10
8.6555545775
 20
11.2215024866
 30
0.0
 10
8.6556776796
 20
11.2216284325
 30
0.0
 10
8.6557362019
 20
11.2217257529
 30
0.0
 10
8.6557586297
 20
11.2217758581
 30
0.0
  0
SPLINE
  5
46F
100
AcDbEntity
  8
0
100
AcDbSpline
 62
7
  6
CONTINUOUS
 70
0
 71
3
 72
25
 73
21
 74
0
 42
0.0000001
 43
0.0000001
 44
0.0000000001
 40
0.0
 40
0.0
 40
0.0
 40
0.0
 40
0.1715739775
 40
0.346311141
 40
0.431822578
 40
0.5145261196
 40
0.5933217105
 40
0.6671867905
 40
0.73519177
 40
0.7965101651
 40
0.8504335864
 40
0.8963941218
 40
0.9162632449
 40
0.9340190471
 40
0.9496578499
 40
0.9632137117
 40
0.9747704689
 40
0.9845001645
 40
0.9927260196
 40
1.0
 40
1.0
 40
1.0
 40
1.0
 10
8.7951760624
 20
11.1558587705
 30
0.0
 10
8.7968045779
 20
11.1551298535
 30
0.0
 10
8.8001272167
 20
11.1537372803
 30
0.0
 10
8.8043386011
 20
11.1521749052
 30
0.0
 10
8.8077199731
 20
11.1510404365
 30
0.0
 10
8.8101726904
 20
11.1502766379
 30
0.0
 10
8.8125260149
 20
11.1496031643
 30
0.0
 10
8.8147477652
 20
11.1490280052
 30
0.0
 10
8.8168080522
 20
11.1485576619
 30
0.0
 10
8.8186796945
 20
11.1481970125
 30
0.0
 10
8.8203382348
 20
11.1479497249
 30
0.0
 10
8.8215792499
 20
11.1478338606
 30
0.0
 10
8.8224483182
 20
11.1478069489
 30
0.0
 10
8.8230023953
 20
11.1478173529
 30
0.0
 10
8.8234894182
 20
11.1478571516
 30
0.0
 10
8.8239081596
 20
11.1479261786
 30
0.0
 10
8.8242579519
 20
11.1480243824
 30
0.0
 10
8.8245386707
 20
11.1481525629
 30
0.0
 10
8.82475015
 20
11.1483126078
 30
0.0
 10
8.8248446194
 20
11.1484477917
 30
0.0
 10
8.8248755158
 20
11.1485168365
 30
0.0
  0
SPLINE
  5
470
100
AcDbEntity
  8
0
100
AcDbSpline
 62
7
  6
CONTINUOUS
 70
0
 71
3
 72
29
 73
25
 74
0
 42
0.0000001
 43
0.0000001
 44
0.0000000001
 40
0.0
 40
0.0
 40
0.0
 40
0.0
 40
0.0595471054
 40
0.1277401381
 40
0.2029488566
 40
0.2833617678
 40
0.4520987974
 40
0.5365278532
 40
0.6184525346
 40
0.6960625414
 40
0.7676586248
 40
0.8316786219
 40
0.8604051158
 40
0.8867309676
 40
0.910512782
 40
0.9316279173
 40
0.9499704243
 40
0.9654645591
 40
0.978069991
 40
0.9878191865
 40
0.9916758768
 40
0.9949158176
 40
0.9976352459
 40
1.0
 40
1.0
 40
1.0
 40
1.0
 10
8.9251175392
 20
11.0976974824
 30
0.0
 10
8.9258717837
 20
11.0973598856
 30
0.0
 10
8.9275070527
 20
11.096674193
 30
0.0
 10
8.9301379483
 20
11.0956681816
 30
0.0
 10
8.9330663664
 20
11.0946322902
 30
0.0
 10
8.9373408756
 20
11.0932210599
 30
0.0
 10
8.9417761089
 20
11.0918913745
 30
0.0
 10
8.9462610686
 20
11.090662493
 30
0.0
 10
8.9495406637
 20
11.0898214405
 30
0.0
 10
8.9526610863
 20
11.0890785082
 30
0.0
 10
8.9555526394
 20
11.088449429
 30
0.0
 10
8.9577921107
 20
11.0880164532
 30
0.0
 10
8.9594215136
 20
11.0877413043
 30
0.0
 10
8.9605034637
 20
11.0875788561
 30
0.0
 10
8.9614839783
 20
11.0874536914
 30
0.0
 10
8.9623573841
 20
11.0873665219
 30
0.0
 10
8.9631185859
 20
11.0873179429
 30
0.0
 10
8.9637634553
 20
11.0873078953
 30
0.0
 10
8.9642882192
 20
11.0873365956
 30
0.0
 10
8.9646489708
 20
11.0873950273
 30
0.0
 10
8.9648715255
 20
11.0874683259
 30
0.0
 10
8.9649940738
 20
11.0875292774
 30
0.0
 10
8.9650858561
 20
11.0876011653
 30
0.0
 10
8.9651271676
 20
11.087660256
 30
0.0
 10
8.9651405672
 20
11.087690212
 30
0.0
  0
SPLINE
  5
471
100
AcDbEntity
  8
0
100
AcDbSpline
 62
7
  6
CONTINUOUS
 70
0
 71
3
 72
24
 73
20
 74
0
 42
0.0000001
 43
0.0000001
 44
0.0000000001
 40
0.0
 40
0.0
 40
0.0
 40
0.0
 40
0.0084820507
 40
0.0175157305
 40
0.0275629375
 40
0.0389555056
 40
0.0519127256
 40
0.0665761385
 40
0.1013052003
 40
0.1434681981
 40
0.1930382757
 40
0.249805585
 40
0.3134299325
 40
0.3834649247
 40
0.4593799097
 40
0.5405680682
 40
0.6263526409
 40
0.8086954706
 40
1.0
 40
1.0
 40
1.0
 40
1.0
 10
8.7365111473
 20
11.2474044099
 30
0.0
 10
8.7364849835
 20
11.2473459368
 30
0.0
 10
8.7364474311
 20
11.2472171868
 30
0.0
 10
8.7364413791
 20
11.2470073173
 30
0.0
 10
8.7364830756
 20
11.2467796163
 30
0.0
 10
8.7365712065
 20
11.2465343211
 30
0.0
 10
8.7367050977
 20
11.2462711835
 30
0.0
 10
8.736959163
 20
11.2458740301
 30
0.0
 10
8.7373999045
 20
11.2453384824
 30
0.0
 10
8.73807651
 20
11.2446632324
 30
0.0
 10
8.7389247514
 20
11.243928366
 30
0.0
 10
8.7399384837
 20
11.2431402378
 30
0.0
 10
8.7411102539
 20
11.2423057821
 30
0.0
 10
8.7424306535
 20
11.2414325195
 30
0.0
 10
8.7438887698
 20
11.2405284458
 30
0.0
 10
8.7454721688
 20
11.2396019058
 30
0.0
 10
8.7477792662
 20
11.2383219632
 30
0.0
 10
8.7508662107
 20
11.2367354663
 30
0.0
 10
8.7534221597
 20
11.2355378885
 30
0.0
 10
8.7547408944
 20
11.2349476281
 30
0.0
  0
LINE
  5
472
100
AcDbEntity
  8
0
100
AcDbLine
 62
7
  6
CONTINUOUS
 10
8.988868522
 20
11.0691627961
 11
8.9905775919
 21
11.0685866814
  0
SPLINE
  5
473
100
AcDbEntity
  8
0
100
AcDbSpline
 62
7
  6
CONTINUOUS
 70
0
 71
3
 72
18
 73
14
 74
0
 42
0.0000001
 43
0.0000001
 44
0.0000000001
 40
0.0
 40
0.0
 40
0.0
 40
0.0
 40
0.0372308324
 40
0.0839629245
 40
0.1391674969
 40
0.2016554555
 40
0.3431378578
 40
0.4969934225
 40
0.6511811359
 40
0.7937012621
 40
0.9132508878
 40
0.961258077
 40
1.0
 40
1.0
 40
1.0
 40
1.0
 10
8.9905775919
 20
11.0685866814
 30
0.0
 10
8.99108176
 20
11.0684345164
 30
0.0
 10
8.9922226721
 20
11.0681043683
 30
0.0
 10
8.9941195841
 20
11.0675781884
 30
0.0
 10
8.9963652851
 20
11.0669730412
 30
0.0
 10
8.9999098514
 20
11.0660371434
 30
0.0
 10
9.0048107007
 20
11.0647721138
 30
0.0
 10
9.010973944
 20
11.0632082644
 30
0.0
 10
9.0171565464
 20
11.061661127
 30
0.0
 10
9.0228737051
 20
11.0602531915
 30
0.0
 10
9.0271381615
 20
11.0592273375
 30
0.0
 10
9.0299812846
 20
11.0585700539
 30
0.0
 10
9.0311792371
 20
11.0583041612
 30
0.0
 10
9.0317152353
 20
11.0581900769
 30
0.0
  0
LINE
  5
474
100
AcDbEntity
  8
0
100
AcDbLine
 62
7
  6
CONTINUOUS
 10
9.0317152353
 20
11.0581900769
 11
9.0339488781
 21
11.0578310033
  0
SPLINE
  5
475
100
AcDbEntity
  8
0
100
AcDbSpline
 62
7
  6
CONTINUOUS
 70
0
 71
3
 72
25
 73
21
 74
0
 42
0.0000001
 43
0.0000001
 44
0.0000000001
 40
0.0
 40
0.0
 40
0.0
 40
0.0
 40
0.0073372687
 40
0.0156091148
 40
0.0253665857
 40
0.0369359153
 40
0.0504912578
 40
0.0661202689
 40
0.0838582416
 40
0.1037036743
 40
0.1496055817
 40
0.2034635293
 40
0.2647172853
 40
0.3326641488
 40
0.4064819592
 40
0.4852442094
 40
0.5679306689
 40
0.6534434362
 40
0.8282490287
 40
1.0
 40
1.0
 40
1.0
 40
1.0
 10
8.5681722937
 20
11.3243478903
 30
0.0
 10
8.5681411809
 20
11.3242784025
 30
0.0
 10
8.568102759
 20
11.3241172623
 30
0.0
 10
8.5681232065
 20
11.3238519856
 30
0.0
 10
8.568213532
 20
11.3235566399
 30
0.0
 10
8.5683721812
 20
11.3232301922
 30
0.0
 10
8.5685984239
 20
11.3228721792
 30
0.0
 10
8.568891905
 20
11.3224831621
 30
0.0
 10
8.5692519124
 20
11.3220641246
 30
0.0
 10
8.5698489814
 20
11.3214360737
 30
0.0
 10
8.5707597799
 20
11.3205913763
 30
0.0
 10
8.5720464514
 20
11.3195247488
 30
0.0
 10
8.5735597537
 20
11.3183758785
 30
0.0
 10
8.5752806854
 20
11.3171602976
 30
0.0
 10
8.5771874875
 20
11.3158947176
 30
0.0
 10
8.5792553522
 20
11.314596745
 30
0.0
 10
8.5814568223
 20
11.3132846741
 30
0.0
 10
8.5845530304
 20
11.31152884
 30
0.0
 10
8.5885208939
 20
11.3094388667
 30
0.0
 10
8.5917691899
 20
11.3078931147
 30
0.0
 10
8.5933958513
 20
11.3071650276
 30
0.0
  0
SPLINE
  5
476
100
AcDbEntity
  8
0
100
AcDbSpline
 62
7
  6
CONTINUOUS
 70
0
 71
3
 72
18
 73
14
 74
0
 42
0.0000001
 43
0.0000001
 44
0.0000000001
 40
0.0
 40
0.0
 40
0.0
 40
0.0
 40
0.0200279068
 40
0.0433402971
 40
0.0714791758
 40
0.1052912527
 40
0.1452189334
 40
0.1914947221
 40
0.3033824785
 40
0.4409953001
 40
0.6036886374
 40
0.7904547786
 40
1.0
 40
1.0
 40
1.0
 40
1.0
 10
8.4695756328
 20
11.3093058557
 30
0.0
 10
8.4695587292
 20
11.3092680708
 30
0.0
 10
8.4695389764
 20
11.3091784322
 30
0.0
 10
8.4695530875
 20
11.3090299055
 30
0.0
 10
8.4696057686
 20
11.3088608565
 30
0.0
 10
8.4696964688
 20
11.3086703074
 30
0.0
 10
8.4698249595
 20
11.3084577901
 30
0.0
 10
8.4700621673
 20
11.3081237653
 30
0.0
 10
8.4704582133
 20
11.3076568717
 30
0.0
 10
8.4710513247
 20
11.3070449098
 30
0.0
 10
8.471785326
 20
11.3063555148
 30
0.0
 10
8.4726544248
 20
11.3055940324
 30
0.0
 10
8.473284893
 20
11.3050709798
 30
0.0
 10
8.4736210565
 20
11.3047979253
 30
0.0
  0
SPLINE
  5
477
100
AcDbEntity
  8
0
100
AcDbSpline
 62
7
  6
CONTINUOUS
 70
0
 71
3
 72
17
 73
13
 74
0
 42
0.0000001
 43
0.0000001
 44
0.0000000001
 40
0.0
 40
0.0
 40
0.0
 40
0.0
 40
0.0491495456
 40
0.1030842597
 40
0.2231015121
 40
0.355236148
 40
0.4941070843
 40
0.6339344466
 40
0.7687327679
 40
0.8925814311
 40
0.9486679642
 40
1.0
 40
1.0
 40
1.0
 40
1.0
 10
8.4736210565
 20
11.3047979253
 30
0.0
 10
8.4740583203
 20
11.3044427504
 30
0.0
 10
8.4749854515
 20
11.3037101352
 30
0.0
 10
8.4770244288
 20
11.3021667286
 30
0.0
 10
8.4798781454
 20
11.3001249575
 30
0.0
 10
8.4835931696
 20
11.2976171795
 30
0.0
 10
8.4875600156
 20
11.2950791231
 30
0.0
 10
8.4916132171
 20
11.2926218955
 30
0.0
 10
8.4955794623
 20
11.2903562987
 30
0.0
 10
8.4987649215
 20
11.2886615905
 30
0.0
 10
8.5011415894
 20
11.287487439
 30
0.0
 10
8.5022579224
 20
11.2869677648
 30
0.0
 10
8.5027949354
 20
11.2867273999
 30
0.0
  0
SPLINE
  5
478
100
AcDbEntity
  8
0
100
AcDbSpline
 62
7
  6
CONTINUOUS
 70
0
 71
3
 72
29
 73
25
 74
0
 42
0.0000001
 43
0.0000001
 44
0.0000000001
 40
0.0
 40
0.0
 40
0.0
 40
0.0
 40
0.002867554
 40
0.0059910742
 40
0.0095063073
 40
0.0135077761
 40
0.0231828618
 40
0.0352968326
 40
0.0499440577
 40
0.0671348801
 40
0.0868375198
 40
0.1089874745
 40
0.1602781888
 40
0.2201605294
 40
0.2875839977
 40
0.3613391867
 40
0.4400821233
 40
0.522352595
 40
0.6065967731
 40
0.6911889107
 40
0.7744653913
 40
0.8547592095
 40
0.9304476804
 40
1.0
 40
1.0
 40
1.0
 40
1.0
 10
8.4187668208
 20
11.3926163667
 30
0.0
 10
8.4187517892
 20
11.3925827683
 30
0.0
 10
8.4187299682
 20
11.3925080089
 30
0.0
 10
8.4187241662
 20
11.392385274
 30
0.0
 10
8.4187433281
 20
11.3922494126
 30
0.0
 10
8.4188057025
 20
11.3920371396
 30
0.0
 10
8.4189528928
 20
11.3917383945
 30
0.0
 10
8.4192124118
 20
11.3913486221
 30
0.0
 10
8.4195653564
 20
11.390907747
 30
0.0
 10
8.4200102076
 20
11.3904177007
 30
0.0
 10
8.4205452783
 20
11.3898806644
 30
0.0
 10
8.4214194518
 20
11.3890647622
 30
0.0
 10
8.4227223183
 20
11.38795397
 30
0.0
 10
8.4245246417
 20
11.3865366942
 30
0.0
 10
8.4266019933
 20
11.385004712
 30
0.0
 10
8.4289159095
 20
11.3833873286
 30
0.0
 10
8.4314235902
 20
11.3817158424
 30
0.0
 10
8.4340779963
 20
11.3800229336
 30
0.0
 10
8.4368285544
 20
11.3783422814
 30
0.0
 10
8.4396218511
 20
11.3767079291
 30
0.0
 10
8.4424025126
 20
11.3751535834
 30
0.0
 10
8.4451143853
 20
11.3737117102
 30
0.0
 10
8.4477018017
 20
11.3724126676
 30
0.0
 10
8.4493902136
 20
11.3716213781
 30
0.0
 10
8.4502050781
 20
11.371256648
 30
0.0
  0
SPLINE
  5
479
100
AcDbEntity
  8
0
100
AcDbSpline
 62
7
  6
CONTINUOUS
 70
0
 71
3
 72
17
 73
13
 74
0
 42
0.0000001
 43
0.0000001
 44
0.0000000001
 40
0.0
 40
0.0
 40
0.0
 40
0.0
 40
0.0372276858
 40
0.0634517019
 40
0.0958387506
 40
0.1347560929
 40
0.1803806331
 40
0.291909488
 40
0.4303717131
 40
0.5951630792
 40
0.7854105556
 40
1.0
 40
1.0
 40
1.0
 40
1.0
 10
8.3081458991
 20
11.4431506082
 30
0.0
 10
8.3081214237
 20
11.4430959558
 30
0.0
 10
8.3081325155
 20
11.4429841049
 30
0.0
 10
8.3081893735
 20
11.4428426641
 30
0.0
 10
8.3082658582
 20
11.442704588
 30
0.0
 10
8.3083716692
 20
11.442549152
 30
0.0
 10
8.3085654189
 20
11.4422999765
 30
0.0
 10
8.3088845229
 20
11.4419468078
 30
0.0
 10
8.3093585529
 20
11.4414770388
 30
0.0
 10
8.3099437436
 20
11.4409404255
 30
0.0
 10
8.3106362903
 20
11.4403403525
 30
0.0
 10
8.3111376099
 20
11.4399246565
 30
0.0
 10
8.3114051202
 20
11.4397065149
 30
0.0
  0
SPLINE
  5
47A
100
AcDbEntity
  8
0
100
AcDbSpline
 62
7
  6
CONTINUOUS
 70
0
 71
3
 72
18
 73
14
 74
0
 42
0.0000001
 43
0.0000001
 44
0.0000000001
 40
0.0
 40
0.0
 40
0.0
 40
0.0
 40
0.0478943368
 40
0.1022510453
 40
0.2270430104
 40
0.3670737651
 40
0.5141656238
 40
0.6596037791
 40
0.7945250249
 40
0.8553614638
 40
0.9104541525
 40
0.9589239279
 40
1.0
 40
1.0
 40
1.0
 40
1.0
 10
8.3114051202
 20
11.4397065149
 30
0.0
 10
8.3118875835
 20
11.4393130898
 30
0.0
 10
8.312929857
 20
11.4384881547
 30
0.0
 10
8.3152805545
 20
11.4367037186
 30
0.0
 10
8.3186463703
 20
11.4342771132
 30
0.0
 10
8.3230599113
 20
11.431245453
 30
0.0
 10
8.3277578437
 20
11.4281557317
 30
0.0
 10
8.3324605828
 20
11.4251962952
 30
0.0
 10
8.3362668431
 20
11.4229190024
 30
0.0
 10
8.3391026177
 20
11.4213094339
 30
0.0
 10
8.3409799907
 20
11.4202884388
 30
0.0
 10
8.3426517817
 20
11.4194280583
 30
0.0
 10
8.3437025903
 20
11.4189267379
 30
0.0
 10
8.344189915
 20
11.4187086133
 30
0.0
  0
SPLINE
  5
47B
100
AcDbEntity
  8
0
100
AcDbSpline
 62
7
  6
CONTINUOUS
 70
0
 71
3
 72
23
 73
19
 74
0
 42
0.0000001
 43
0.0000001
 44
0.0000000001
 40
0.0
 40
0.0
 40
0.0
 40
0.0
 40
0.0499019336
 40
0.1029971836
 40
0.1588745457
 40
0.2171608776
 40
0.2774962482
 40
0.3395488882
 40
0.4030289092
 40
0.4676916613
 40
0.5333163256
 40
0.5996912459
 40
0.6666038814
 40
0.7338238702
 40
0.8010916236
 40
0.8681041402
 40
0.9345357598
 40
1.0
 40
1.0
 40
1.0
 40
1.0
 10
13.1071765596
 20
7.6343969311
 30
0.0
 10
13.1080984404
 20
7.635170481
 30
0.0
 10
13.1100510698
 20
7.6367074946
 30
0.0
 10
13.1131359967
 20
7.6389798525
 30
0.0
 10
13.1164146595
 20
7.6413294633
 30
0.0
 10
13.1198343205
 20
7.643781989
 30
0.0
 10
13.1233500737
 20
7.646355915
 30
0.0
 10
13.1269255188
 20
7.6490596034
 30
0.0
 10
13.1305305638
 20
7.6518959229
 30
0.0
 10
13.134141635
 20
7.6548622741
 30
0.0
 10
13.1377424894
 20
7.6579493681
 30
0.0
 10
13.1413218538
 20
7.6611433479
 30
0.0
 10
13.1448751274
 20
7.6644231663
 30
0.0
 10
13.1484032575
 20
7.6677612758
 30
0.0
 10
13.1519118668
 20
7.6711232581
 30
0.0
 10
13.1554147533
 20
7.6744638087
 30
0.0
 10
13.1589301144
 20
7.6777278326
 30
0.0
 10
13.1613197466
 20
7.6798284594
 30
0.0
 10
13.1625291232
 20
7.6808432468
 30
0.0
  0
SPLINE
  5
47C
100
AcDbEntity
  8
0
100
AcDbSpline
 62
7
  6
CONTINUOUS
 70
0
 71
3
 72
22
 73
18
 74
0
 42
0.0000001
 43
0.0000001
 44
0.0000000001
 40
0.0
 40
0.0
 40
0.0
 40
0.0
 40
0.0410155125
 40
0.0865160492
 40
0.1360676156
 40
0.1892556319
 40
0.2456781359
 40
0.3049590969
 40
0.3667762231
 40
0.4308715599
 40
0.4970253638
 40
0.5650371468
 40
0.7058652926
 40
0.7782664328
 40
0.8516392356
 40
0.9256758471
 40
1.0
 40
1.0
 40
1.0
 40
1.0
 10
13.026165453
 20
7.5664205415
 30
0.0
 10
13.026851191
 20
7.566995944
 30
0.0
 10
13.0283500242
 20
7.5681467897
 30
0.0
 10
13.0307734677
 20
7.5698631243
 30
0.0
 10
13.0334382401
 20
7.5716980383
 30
0.0
 10
13.0362928545
 20
7.573677454
 30
0.0
 10
13.039292668
 20
7.5758197969
 30
0.0
 10
13.0424011675
 20
7.5781329195
 30
0.0
 10
13.0455880498
 20
7.5806195932
 30
0.0
 10
13.0488301196
 20
7.5832774265
 30
0.0
 10
13.052112038
 20
7.5860979903
 30
0.0
 10
13.0565804075
 20
7.5901054448
 30
0.0
 10
13.0610402776
 20
7.5943238633
 30
0.0
 10
13.0655487311
 20
7.5986596387
 30
0.0
 10
13.0690188692
 20
7.601972325
 30
0.0
 10
13.0725673739
 20
7.60526317
 30
0.0
 10
13.0750019779
 20
7.6073992515
 30
0.0
 10
13.0762446028
 20
7.6084419376
 30
0.0
  0
SPLINE
  5
47D
100
AcDbEntity
  8
0
100
AcDbSpline
 62
7
  6
CONTINUOUS
 70
0
 71
3
 72
25
 73
21
 74
0
 42
0.0000001
 43
0.0000001
 44
0.0000000001
 40
0.0
 40
0.0
 40
0.0
 40
0.0
 40
0.0138058748
 40
0.0292276541
 40
0.0462112385
 40
0.0646932434
 40
0.0846129977
 40
0.1059074586
 40
0.1523749126
 40
0.2036263199
 40
0.259227452
 40
0.3188193997
 40
0.3821348184
 40
0.4489633504
 40
0.5191250904
 40
0.5924617974
 40
0.6688223227
 40
0.8298356434
 40
0.9139468187
 40
1.0
 40
1.0
 40
1.0
 40
1.0
 10
12.9575918639
 20
7.5088804682
 30
0.0
 10
12.9577840361
 20
7.5090417198
 30
0.0
 10
12.9582042266
 20
7.5093671777
 30
0.0
 10
12.9588914179
 20
7.5098499403
 30
0.0
 10
12.9596625141
 20
7.5103603797
 30
0.0
 10
12.9605099252
 20
7.5109032812
 30
0.0
 10
12.961427053
 20
7.5114825132
 30
0.0
 10
12.9627735227
 20
7.512334228
 30
0.0
 10
12.9645917338
 20
7.5135052335
 30
0.0
 10
12.966898233
 20
7.5150683576
 30
0.0
 10
12.9693533954
 20
7.5168352682
 30
0.0
 10
12.9719275762
 20
7.5188096238
 30
0.0
 10
12.974598808
 20
7.5209900287
 30
0.0
 10
12.9773535394
 20
7.5233695132
 30
0.0
 10
12.9801844138
 20
7.5259375048
 30
0.0
 10
12.983092144
 20
7.5286773027
 30
0.0
 10
12.9871534643
 20
7.5325992033
 30
0.0
 10
12.9913273281
 20
7.5366866552
 30
0.0
 10
12.99572917
 20
7.5407905751
 30
0.0
 10
12.9980531173
 20
7.542831491
 30
0.0
 10
12.9992509428
 20
7.5438365859
 30
0.0
  0
SPLINE
  5
47E
100
AcDbEntity
  8
0
100
AcDbSpline
 62
7
  6
CONTINUOUS
 70
0
 71
3
 72
28
 73
24
 74
0
 42
0.0000001
 43
0.0000001
 44
0.0000000001
 40
0.0
 40
0.0
 40
0.0
 40
0.0
 40
0.0016261484
 40
0.0038625461
 40
0.0067089654
 40
0.0101542774
 40
0.0187813638
 40
0.0296282356
 40
0.0425930369
 40
0.0575809768
 40
0.0745085325
 40
0.0933004537
 40
0.1362020511
 40
0.1857911095
 40
0.2416820108
 40
0.3036222449
 40
0.371438654
 40
0.4449978666
 40
0.5241981934
 40
0.6089579814
 40
0.6991683462
 40
0.7946098163
 40
1.0
 40
1.0
 40
1.0
 40
1.0
 10
12.9057645232
 20
7.4653921657
 30
0.0
 10
12.9057812123
 20
7.4654061695
 30
0.0
 10
12.9058250878
 20
7.4654341525
 30
0.0
 10
12.9059048247
 20
7.4654755529
 30
0.0
 10
12.9060086567
 20
7.4655233627
 30
0.0
 10
12.90619211
 20
7.4656026712
 30
0.0
 10
12.9064757107
 20
7.4657204189
 30
0.0
 10
12.9068759167
 20
7.4658898547
 30
0.0
 10
12.9073513911
 20
7.4661000145
 30
0.0
 10
12.9078956746
 20
7.4663556752
 30
0.0
 10
12.9085031747
 20
7.4666599106
 30
0.0
 10
12.9094323169
 20
7.4671563138
 30
0.0
 10
12.9107162244
 20
7.4679157916
 30
0.0
 10
12.9123724636
 20
7.4690166998
 30
0.0
 10
12.9141777297
 20
7.4703492891
 30
0.0
 10
12.9161120108
 20
7.471913936
 30
0.0
 10
12.918164158
 20
7.4737059199
 30
0.0
 10
12.9203297057
 20
7.4757172022
 30
0.0
 10
12.9226129372
 20
7.477933926
 30
0.0
 10
12.9250251984
 20
7.4803373593
 30
0.0
 10
12.9275838237
 20
7.482902291
 30
0.0
 10
12.9313149636
 20
7.4865792873
 30
0.0
 10
12.9342780234
 20
7.4893178332
 30
0.0
 10
12.936385938
 20
7.4910865835
 30
0.0
  0
SPLINE
  5
47F
100
AcDbEntity
  8
0
100
AcDbSpline
 62
7
  6
CONTINUOUS
 70
0
 71
3
 72
27
 73
23
 74
0
 42
0.0000001
 43
0.0000001
 44
0.0000000001
 40
0.0
 40
0.0
 40
0.0
 40
0.0
 40
0.0156324245
 40
0.0312709817
 40
0.0469070133
 40
0.0625449817
 40
0.0937821166
 40
0.1250296876
 40
0.1562804474
 40
0.1875318198
 40
0.2187831712
 40
0.250034716
 40
0.3125272031
 40
0.375023208
 40
0.4375205645
 40
0.5000185233
 40
0.5625167725
 40
0.6250151922
 40
0.6875136901
 40
0.7500120603
 40
0.8750055487
 40
1.0
 40
1.0
 40
1.0
 40
1.0
 10
13.1308184645
 20
7.6281266991
 30
0.0
 10
13.1306034895
 20
7.6283828964
 30
0.0
 10
13.1302186575
 20
7.6289351932
 30
0.0
 10
13.1297920261
 20
7.6298481733
 30
0.0
 10
13.129509349
 20
7.6308147818
 30
0.0
 10
13.1293034623
 20
7.6321392052
 30
0.0
 10
13.1293150279
 20
7.6338208847
 30
0.0
 10
13.1296249878
 20
7.635806648
 30
0.0
 10
13.1301426757
 20
7.6377473521
 30
0.0
 10
13.1308124974
 20
7.6396396313
 30
0.0
 10
13.1315980814
 20
7.6414863094
 30
0.0
 10
13.1327673138
 20
7.6438922587
 30
0.0
 10
13.1344124029
 20
7.6468056359
 30
0.0
 10
13.1365898217
 20
7.6501761687
 30
0.0
 10
13.1389197281
 20
7.6534427585
 30
0.0
 10
13.1413680641
 20
7.6566210624
 30
0.0
 10
13.1439115183
 20
7.6597235341
 30
0.0
 10
13.1465331006
 20
7.6627600933
 30
0.0
 10
13.1492200002
 20
7.6657388938
 30
0.0
 10
13.1528762391
 20
7.6696426284
 30
0.0
 10
13.1575646093
 20
7.6744098983
 30
0.0
 10
13.1614089704
 20
7.6781287222
 30
0.0
 10
13.1633489341
 20
7.6799692632
 30
0.0
  0
SPLINE
  5
480
100
AcDbEntity
  8
0
100
AcDbSpline
 62
7
  6
CONTINUOUS
 70
0
 71
3
 72
11
 73
7
 74
0
 42
0.0000001
 43
0.0000001
 44
0.0000000001
 40
0.0
 40
0.0
 40
0.0
 40
0.0
 40
0.2499984352
 40
0.4999984977
 40
0.7499991341
 40
1.0
 40
1.0
 40
1.0
 40
1.0
 10
13.1633489341
 20
7.6799692632
 30
0.0
 10
13.1659508947
 20
7.6824378737
 30
0.0
 10
13.1712190492
 20
7.6873075938
 30
0.0
 10
13.1792540984
 20
7.6944647446
 30
0.0
 10
13.1873799635
 20
7.7015184499
 30
0.0
 10
13.1928363732
 20
7.706175298
 30
0.0
 10
13.195570411
 20
7.7084968328
 30
0.0
  0
LINE
  5
481
100
AcDbEntity
  8
0
100
AcDbLine
 62
7
  6
CONTINUOUS
 10
13.195570411
 20
7.7084968328
 11
13.1976524871
 21
7.7102625851
  0
LINE
  5
482
100
AcDbEntity
  8
0
100
AcDbLine
 62
7
  6
CONTINUOUS
 10
8.2510089459
 20
11.4692481546
 11
8.2538299706
 21
11.4669817465
  0
SPLINE
  5
483
100
AcDbEntity
  8
0
100
AcDbSpline
 62
7
  6
CONTINUOUS
 70
0
 71
3
 72
17
 73
13
 74
0
 42
0.0000001
 43
0.0000001
 44
0.0000000001
 40
0.0
 40
0.0
 40
0.0
 40
0.0
 40
0.0451244097
 40
0.0979945112
 40
0.2229591856
 40
0.365980542
 40
0.5171562271
 40
0.6661290406
 40
0.8025666302
 40
0.9166958486
 40
0.9626615832
 40
1.0
 40
1.0
 40
1.0
 40
1.0
 10
8.2538299706
 20
11.4669817465
 30
0.0
 10
8.2543270687
 20
11.466619671
 30
0.0
 10
8.2554113983
 20
11.4658399675
 30
0.0
 10
8.2578916399
 20
11.4640844743
 30
0.0
 10
8.2614819636
 20
11.461588117
 30
0.0
 10
8.2661934567
 20
11.4583576533
 30
0.0
 10
8.2711928939
 20
11.4549686839
 30
0.0
 10
8.276135107
 20
11.4516553303
 30
0.0
 10
8.2806767832
 20
11.4486514362
 30
0.0
 10
8.2840665687
 20
11.4464508013
 30
0.0
 10
8.2863417297
 20
11.4450141728
 30
0.0
 10
8.2873088612
 20
11.4444194041
 30
0.0
 10
8.2877452525
 20
11.4441576545
 30
0.0
  0
LINE
  5
484
100
AcDbEntity
  8
0
100
AcDbLine
 62
7
  6
CONTINUOUS
 10
8.2877452525
 20
11.4441576545
 11
8.2894333258
 21
11.4432174448
  0
SPLINE
  5
485
100
AcDbEntity
  8
0
100
AcDbSpline
 62
7
  6
CONTINUOUS
 70
0
 71
3
 72
26
 73
22
 74
0
 42
0.0000001
 43
0.0000001
 44
0.0000000001
 40
0.0
 40
0.0
 40
0.0
 40
0.0
 40
0.0014855086
 40
0.0058746117
 40
0.0130668109
 40
0.0229617864
 40
0.0354594101
 40
0.0504597593
 40
0.0875699344
 40
0.133497737
 40
0.1874529442
 40
0.2486505156
 40
0.3163115001
 40
0.3896641441
 40
0.4679452544
 40
0.5504018867
 40
0.6362934537
 40
0.7248943757
 40
0.8154974418
 40
0.907418103
 40
1.0
 40
1.0
 40
1.0
 40
1.0
 10
10.283763165
 20
11.5703758398
 30
0.0
 10
10.2836955484
 20
11.5701991056
 30
0.0
 10
10.283425477
 20
11.5695012163
 30
0.0
 10
10.2828201224
 20
11.5679507185
 30
0.0
 10
10.2818137383
 20
11.5654068479
 30
0.0
 10
10.2804119372
 20
11.5619086759
 30
0.0
 10
10.2786192419
 20
11.5574956886
 30
0.0
 10
10.275484391
 20
11.5498861629
 30
0.0
 10
10.2706334334
 20
11.538378202
 30
0.0
 10
10.2636797755
 20
11.5223726067
 30
0.0
 10
10.2552803515
 20
11.5036511658
 30
0.0
 10
10.2454741889
 20
11.4825285173
 30
0.0
 10
10.2343001448
 20
11.4593192889
 30
0.0
 10
10.2217971346
 20
11.434338025
 30
0.0
 10
10.2080040547
 20
11.407899186
 30
0.0
 10
10.1929598004
 20
11.380317123
 30
0.0
 10
10.1767032355
 20
11.351906038
 30
0.0
 10
10.1592732079
 20
11.3229799994
 30
0.0
 10
10.140708369
 20
11.2938526993
 30
0.0
 10
10.1210476668
 20
11.2648381668
 30
0.0
 10
10.1072531444
 20
11.245803427
 30
0.0
 10
10.1001636719
 20
11.2363789433
 30
0.0
  0
ENDSEC
  0
SECTION
  2
OBJECTS
  0
DICTIONARY
  5
C
100
AcDbDictionary
280
0
281
1
  3
ACAD_GROUP
350
D
  3
ACAD_MLINESTYLE
350
17
  3
ACAD_LAYOUT
350
1A
  3
ACAD_PLOTSETTINGS
350
19
  3
ACAD_PLOTSTYLENAME
350
E
  0
DICTIONARY
  5
D
102
{ACAD_REACTORS
330
C
102
}
100
AcDbDictionary
280
0
281
1
  0
ACDBDICTIONARYWDFLT
  5
E
102
{ACAD_REACTORS
330
C
102
}
100
AcDbDictionary
281
1
  3
Normal
350
F
100
AcDbDictionaryWithDefault
340
F
  0
DICTIONARY
  5
17
102
{ACAD_REACTORS
330
C
102
}
100
AcDbDictionary
280
0
281
1
  3
Standard
350
18
  0
DICTIONARY
  5
19
102
{ACAD_REACTORS
330
C
102
}
100
AcDbDictionary
281
1
  0
DICTIONARY
  5
1A
102
{ACAD_REACTORS
330
C
102
}
100
AcDbDictionary
281
1
  3
Model
350
486
  3
Layout1
350
487
  0
ACDBPLACEHOLDER
  5
F
102
{ACAD_REACTORS
330
E
102
}
  0
MLINESTYLE
  5
18
102
{ACAD_REACTORS
330
17
102
}
100
AcDbMlineStyle
  2
STANDARD
 70
0
  3

 62
256
 51
90.0
 52
90.0
 71
2
 49
0.5
 62
256
  6
BYLAYER
 49
-0.5
 62
256
  6
BYLAYER
  0
LAYOUT
  5
486
102
{ACAD_REACTORS
330
1A
102
}
100
AcDbPlotSettings
  1

  2
none_device
  4
ANSI_C_(22.00_x_17.00_Inches)
  6

 40
0.0
 41
0.0
 42
0.0
 43
0.0
 44
558.8
 45
431.8
 46
0.0
 47
0.0
 48
0.0
 49
0.0
140
0.0
141
0.0
142
1.0
143
1.0
 70
1024
 72
0
 73
0
 74
0
  7

 75
0
147
1.0
148
0.0
149
0.0
100
AcDbLayout
  1
Model
 70
0
 71
0
 10
0.0
 20
0.0
 11
22.0
 21
17.0
 12
0.0
 22
0.0
 32
0.0
 14
0.0
 24
0.0
 34
0.0
 15
0.0
 25
0.0
 35
0.0
146
0.0
 13
0.0
 23
0.0
 33
0.0
 16
1.0
 26
0.0
 36
0.0
 17
0.0
 27
1.0
 37
0.0
 76
0
330
205
345
0
346
0
  0
LAYOUT
  5
487
102
{ACAD_REACTORS
330
1A
102
}
100
AcDbPlotSettings
  1

  2
none_device
  4
ANSI_C_(22.00_x_17.00_Inches)
  6

 40
0.0
 41
0.0
 42
0.0
 43
0.0
 44
558.8
 45
431.8
 46
0.0
 47
0.0
 48
0.0
 49
0.0
140
0.0
141
0.0
142
1.0
143
1.0
 70
0
 72
0
 73
0
 74
0
  7

 75
0
147
1.0
148
0.0
149
0.0
100
AcDbLayout
  1
Layout1
 70
0
 71
1
 10
0.0
 20
0.0
 11
22.0
 21
17.0
 12
0.0
 22
0.0
 32
0.0
 14
0.0
 24
0.0
 34
0.0
 15
0.0
 25
0.0
 35
0.0
146
0.0
 13
0.0
 23
0.0
 33
0.0
 16
1.0
 26
0.0
 36
0.0
 17
0.0
 27
1.0
 37
0.0
 76
0
330
206
345
0
346
0
  0
ENDSEC
  0
EOF
