999
DXF file: 3-2414tr_FRONT.dxf
999
Pro/ENGINEER 2018400 by Parametric Technology Corporation
  0
SECTION
  2
HEADER
  9
$ACADVER
  1
AC1027
  9
$DWGCODEPAGE
  3
ANSI_1252
  9
$EXTMAX
 10
11.0
 20
8.5
 30
0.0
  9
$EXTMIN
 10
0.0
 20
0.0
 30
0.0
  9
$LIMMIN
 10
0.0
 20
0.0
  9
$LIMMAX
 10
11.0
 20
8.5
  9
$VIEWCTR
 10
5.5
 20
4.25
  9
$VIEWSIZE
 40
8.5
  9
$CLAYER
  8
0
  9
$LTSCALE
 40
0.605
  9
$CELTYPE
  6
BYLAYER
  9
$DIMSCALE
 40
1.0
  9
$DIMASZ
 40
0.1
  9
$DIMEXO
 40
0.0625
  9
$DIMDLI
 40
0.418
  9
$DIMEXE
 40
0.125
  9
$DIMCEN
 40
0.099
  9
$DIMLFAC
 40
1.0
  9
$DIMBLK
  1
_FILLED
  9
$DIMALT
 70
1
  9
$DIMALTD
 70
2
  9
$DIMALTTD
 70
2
  9
$DIMALTF
 40
25.4
  9
$DIMTXT
 40
0.08
  9
$DIMTOL
 70
1
  9
$DIMLIM
 70
0
  9
$DIMTFAC
 40
1.0
  9
$DIMTP
 40
0.001
  9
$DIMTM
 40
0.001
  9
$DIMGAP
 40
0.09
  9
$DIMDSEP
 70
46
  9
$AUNITS
 70
0
  9
$PDMODE
 70
3
  9
$PDSIZE
 40
0.3125
  9
$HANDSEED
  5
4BD
  9
$TILEMODE
 70
1
  9
$MEASUREMENT
 70
0
  9
$INSUNITS
 70
1
  0
ENDSEC
  0
SECTION
  2
CLASSES
  0
CLASS
  1
ACDBDICTIONARYWDFLT
  2
AcDbDictionaryWithDefault
  3
AutoCAD 2000
 90
0
 91
1
280
0
281
0
  0
CLASS
  1
ACDBPLACEHOLDER
  2
AcDbPlaceHolder
  3
AutoCAD 2000
 90
0
 91
1
280
0
281
0
  0
CLASS
  1
LAYOUT
  2
AcDbLayout
  3
AutoCAD 2000
 90
0
 91
0
280
0
281
0
  0
ENDSEC
  0
SECTION
  2
TABLES
  0
TABLE
  2
VPORT
  5
8
100
AcDbSymbolTable
 70
2
  0
VPORT
  5
1F4
100
AcDbSymbolTableRecord
100
AcDbViewportTableRecord
  2
*ACTIVE
 70
0
 10
0.0
 20
0.0
 11
1.0
 21
1.0
 12
5.5
 22
4.25
 13
0.0
 23
0.0
 14
1.0
 24
1.0
 15
0.0
 25
0.0
 16
0.0
 26
0.0
 36
1.0
 17
0.0
 27
0.0
 37
0.0
 40
8.5
 41
1.2941176471
 42
50.0
 43
0.0
 44
0.0
 50
0.0
 51
0.0
 71
0
 72
100
 73
1
 74
1
 75
0
 76
0
 77
0
 78
0
  0
ENDTAB
  0
TABLE
  2
LTYPE
  5
5
100
AcDbSymbolTable
 70
6
  0
LTYPE
  5
14
100
AcDbSymbolTableRecord
100
AcDbLinetypeTableRecord
  2
BYBLOCK
 70
0
  3

 72
65
 73
0
 40
0.0
  0
LTYPE
  5
15
100
AcDbSymbolTableRecord
100
AcDbLinetypeTableRecord
  2
BYLAYER
 70
0
  3

 72
65
 73
0
 40
0.0
  0
LTYPE
  5
16
100
AcDbSymbolTableRecord
100
AcDbLinetypeTableRecord
  2
CONTINUOUS
 70
64
  3
Solid line
 72
65
 73
0
 40
0.0
  0
LTYPE
  5
1F5
100
AcDbSymbolTableRecord
100
AcDbLinetypeTableRecord
  2
CENTER
 70
64
  3
____ _ ____ _ ____ _ ____ _ ____ _ ____ _ ____
 72
65
 73
4
 40
0.6
 49
0.375
 74
0
 49
-0.075
 74
0
 49
0.075
 74
0
 49
-0.075
 74
0
  0
LTYPE
  5
1F6
100
AcDbSymbolTableRecord
100
AcDbLinetypeTableRecord
  2
HIDDEN
 70
64
  3
- - - - - - - - - - - - - - - - - - - -
 72
65
 73
2
 40
0.2
 49
0.1
 74
0
 49
-0.1
 74
0
  0
LTYPE
  5
1F7
100
AcDbSymbolTableRecord
100
AcDbLinetypeTableRecord
  2
PHANTOM
 70
64
  3
_____ _ _ _____ _ _ _____ _ _ _____
 72
65
 73
6
 40
0.8
 49
0.45
 74
0
 49
-0.05
 74
0
 49
0.1
 74
0
 49
-0.05
 74
0
 49
0.1
 74
0
 49
-0.05
 74
0
  0
LTYPE
  5
1F8
100
AcDbSymbolTableRecord
100
AcDbLinetypeTableRecord
  2
DOT
 70
64
  3
. . . . . . . . . . . . . . . . . . . .
 72
65
 73
2
 40
0.2
 49
0.1
 74
0
 49
-0.1
 74
0
  0
LTYPE
  5
1F9
100
AcDbSymbolTableRecord
100
AcDbLinetypeTableRecord
  2
DASHED
 70
64
  3
- - - - - - - - - - - - - - - - - - - -
 72
65
 73
2
 40
0.2
 49
0.1
 74
0
 49
-0.1
 74
0
  0
ENDTAB
  0
TABLE
  2
LAYER
  5
2
100
AcDbSymbolTable
 70
36
  0
LAYER
  5
10
100
AcDbSymbolTableRecord
100
AcDbLayerTableRecord
  2
0
 70
0
 62
7
  6
CONTINUOUS
370
-3
390
F
  0
LAYER
  5
1FA
100
AcDbSymbolTableRecord
100
AcDbLayerTableRecord
  2
DEFAULT_1
 70
0
 62
7
  6
CENTER
370
-3
390
F
  0
LAYER
  5
1FB
100
AcDbSymbolTableRecord
100
AcDbLayerTableRecord
  2
DEFAULT_2
 70
0
 62
8
  6
HIDDEN
370
-3
390
F
  0
LAYER
  5
1FC
100
AcDbSymbolTableRecord
100
AcDbLayerTableRecord
  2
DEFAULT_3
 70
0
 62
7
  6
PHANTOM
370
-3
390
F
  0
LAYER
  5
1FD
100
AcDbSymbolTableRecord
100
AcDbLayerTableRecord
  2
ALL_ASSEMBLY_MEMBERS
 70
0
 62
7
  6
CONTINUOUS
370
-3
390
F
  0
LAYER
  5
1FE
100
AcDbSymbolTableRecord
100
AcDbLayerTableRecord
  2
ALL_FEATURES
 70
0
 62
7
  6
CONTINUOUS
370
-3
390
F
  0
LAYER
  5
1FF
100
AcDbSymbolTableRecord
100
AcDbLayerTableRecord
  2
AXES_FEATURES
 70
0
 62
7
  6
CONTINUOUS
370
-3
390
F
  0
LAYER
  5
200
100
AcDbSymbolTableRecord
100
AcDbLayerTableRecord
  2
CHAMFER_FEATURES
 70
0
 62
7
  6
CONTINUOUS
370
-3
390
F
  0
LAYER
  5
201
100
AcDbSymbolTableRecord
100
AcDbLayerTableRecord
  2
COORDINATE_SYSTEMS
 70
0
 62
7
  6
CONTINUOUS
370
-3
390
F
  0
LAYER
  5
202
100
AcDbSymbolTableRecord
100
AcDbLayerTableRecord
  2
CUT_FEATURES
 70
0
 62
7
  6
CONTINUOUS
370
-3
390
F
  0
LAYER
  5
203
100
AcDbSymbolTableRecord
100
AcDbLayerTableRecord
  2
DATUM_CURVES
 70
0
 62
7
  6
CONTINUOUS
370
-3
390
F
  0
LAYER
  5
204
100
AcDbSymbolTableRecord
100
AcDbLayerTableRecord
  2
DATUM_PLANES
 70
0
 62
7
  6
CONTINUOUS
370
-3
390
F
  0
LAYER
  5
205
100
AcDbSymbolTableRecord
100
AcDbLayerTableRecord
  2
DATUM_POINTS
 70
0
 62
7
  6
CONTINUOUS
370
-3
390
F
  0
LAYER
  5
206
100
AcDbSymbolTableRecord
100
AcDbLayerTableRecord
  2
DEFAULT_COORDINATE_SYSTEM
 70
0
 62
7
  6
CONTINUOUS
370
-3
390
F
  0
LAYER
  5
207
100
AcDbSymbolTableRecord
100
AcDbLayerTableRecord
  2
DEFAULT_DATUM_AXES
 70
0
 62
7
  6
CONTINUOUS
370
-3
390
F
  0
LAYER
  5
208
100
AcDbSymbolTableRecord
100
AcDbLayerTableRecord
  2
DEFAULT_DATUM_CURVES
 70
0
 62
7
  6
CONTINUOUS
370
-3
390
F
  0
LAYER
  5
209
100
AcDbSymbolTableRecord
100
AcDbLayerTableRecord
  2
DEFAULT_DATUM_PLANES
 70
0
 62
7
  6
CONTINUOUS
370
-3
390
F
  0
LAYER
  5
20A
100
AcDbSymbolTableRecord
100
AcDbLayerTableRecord
  2
DEFAULT_SURFACES
 70
0
 62
7
  6
CONTINUOUS
370
-3
390
F
  0
LAYER
  5
20B
100
AcDbSymbolTableRecord
100
AcDbLayerTableRecord
  2
DIMENSIONS
 70
0
 62
7
  6
CONTINUOUS
370
-3
390
F
  0
LAYER
  5
20C
100
AcDbSymbolTableRecord
100
AcDbLayerTableRecord
  2
HOLE_FEATURES
 70
0
 62
7
  6
CONTINUOUS
370
-3
390
F
  0
LAYER
  5
20D
100
AcDbSymbolTableRecord
100
AcDbLayerTableRecord
  2
IMPORT_FEATURE
 70
0
 62
7
  6
CONTINUOUS
370
-3
390
F
  0
LAYER
  5
20E
100
AcDbSymbolTableRecord
100
AcDbLayerTableRecord
  2
NOTES
 70
0
 62
7
  6
CONTINUOUS
370
-3
390
F
  0
LAYER
  5
20F
100
AcDbSymbolTableRecord
100
AcDbLayerTableRecord
  2
PART_REFERENCE_DIMENSIONS
 70
0
 62
7
  6
CONTINUOUS
370
-3
390
F
  0
LAYER
  5
210
100
AcDbSymbolTableRecord
100
AcDbLayerTableRecord
  2
PLATED_SURFACE_AREA
 70
0
 62
7
  6
CONTINUOUS
370
-3
390
F
  0
LAYER
  5
211
100
AcDbSymbolTableRecord
100
AcDbLayerTableRecord
  2
POINTS
 70
0
 62
7
  6
CONTINUOUS
370
-3
390
F
  0
LAYER
  5
212
100
AcDbSymbolTableRecord
100
AcDbLayerTableRecord
  2
PROTRUSION
 70
0
 62
7
  6
CONTINUOUS
370
-3
390
F
  0
LAYER
  5
213
100
AcDbSymbolTableRecord
100
AcDbLayerTableRecord
  2
PROTRUSION_FEATURES
 70
0
 62
7
  6
CONTINUOUS
370
-3
390
F
  0
LAYER
  5
214
100
AcDbSymbolTableRecord
100
AcDbLayerTableRecord
  2
QUILTS
 70
0
 62
7
  6
CONTINUOUS
370
-3
390
F
  0
LAYER
  5
215
100
AcDbSymbolTableRecord
100
AcDbLayerTableRecord
  2
REFERENCE_DIMENSIONS
 70
0
 62
7
  6
CONTINUOUS
370
-3
390
F
  0
LAYER
  5
216
100
AcDbSymbolTableRecord
100
AcDbLayerTableRecord
  2
ROUND_FEATURES
 70
0
 62
7
  6
CONTINUOUS
370
-3
390
F
  0
LAYER
  5
217
100
AcDbSymbolTableRecord
100
AcDbLayerTableRecord
  2
SHELL_FEATURES
 70
0
 62
7
  6
CONTINUOUS
370
-3
390
F
  0
LAYER
  5
218
100
AcDbSymbolTableRecord
100
AcDbLayerTableRecord
  2
SIZE_REF
 70
0
 62
7
  6
CONTINUOUS
370
-3
390
F
  0
LAYER
  5
219
100
AcDbSymbolTableRecord
100
AcDbLayerTableRecord
  2
SURFACE_FEATURES
 70
0
 62
7
  6
CONTINUOUS
370
-3
390
F
  0
LAYER
  5
21A
100
AcDbSymbolTableRecord
100
AcDbLayerTableRecord
  2
XSEC_DATUMS
 70
0
 62
7
  6
CONTINUOUS
370
-3
390
F
  0
ENDTAB
  0
TABLE
  2
STYLE
  5
3
100
AcDbSymbolTable
 70
1
  0
STYLE
  5
11
100
AcDbSymbolTableRecord
100
AcDbTextStyleTableRecord
  2
STANDARD
 70
0
 40
0.0
 41
0.8
 50
0.0
 71
0
 42
0.2
  3
txt
  4

  0
STYLE
  5
21B
100
AcDbSymbolTableRecord
100
AcDbTextStyleTableRecord
  2
TEXTSTYLE_1
 70
0
 40
0.0
 41
0.8
 50
0.0
 71
0
 42
0.2
  3
gdt
  4

  0
ENDTAB
  0
TABLE
  2
VIEW
  5
6
100
AcDbSymbolTable
 70
0
  0
ENDTAB
  0
TABLE
  2
UCS
  5
7
100
AcDbSymbolTable
 70
0
  0
ENDTAB
  0
TABLE
  2
APPID
  5
9
100
AcDbSymbolTable
 70
1
  0
APPID
  5
21C
100
AcDbSymbolTableRecord
100
AcDbRegAppTableRecord
  2
ACAD
 70
0
  0
ENDTAB
  0
TABLE
  2
BLOCK_RECORD
  5
1
100
AcDbSymbolTable
 70
0
  0
BLOCK_RECORD
  5
21D
100
AcDbSymbolTableRecord
100
AcDbBlockTableRecord
  2
*Model_Space
  0
BLOCK_RECORD
  5
21E
100
AcDbSymbolTableRecord
100
AcDbBlockTableRecord
  2
*Paper_Space
  0
BLOCK_RECORD
  5
21F
100
AcDbSymbolTableRecord
100
AcDbBlockTableRecord
  2
_FILLED
  0
ENDTAB
  0
TABLE
  2
DIMSTYLE
  5
A
100
AcDbSymbolTable
 70
1
100
AcDbDimStyleTable
 71
0
  0
DIMSTYLE
105
220
100
AcDbSymbolTableRecord
100
AcDbDimStyleTableRecord
  2
STANDARD
 70
0
  3

  4

 40
1.0
 41
0.1
 42
0.0625
 43
0.38
 44
0.125
 45
0.0
 46
0.0
 47
0.001
 48
0.001
140
0.08
141
0.09
142
0.0
143
25.4
144
1.0
145
0.0
146
1.0
147
0.09
 71
1.0
 72
0.0
 73
1
 74
1
 75
0
 76
0
 77
0
 78
4
 79
1
170
1
171
2
172
0
173
0
174
0
175
0
176
0
177
0
178
0
270
2
179
3
271
3
272
3
273
2
274
2
275
0
280
0
281
0
282
0
283
1
284
4
285
0
286
0
287
3
288
0
340
11
278
46
341
21F
342
21F
343
21F
344
21F
  0
ENDTAB
  0
ENDSEC
  0
SECTION
  2
BLOCKS
  0
BLOCK
  5
20
100
AcDbEntity
  8
0
100
AcDbBlockBegin
  2
*Model_Space
 70
0
 10
0.0
 20
0.0
 30
0.0
  3
*Model_Space
  1

  0
ENDBLK
  5
21
100
AcDbEntity
  8
0
100
AcDbBlockEnd
  0
BLOCK
  5
1C
100
AcDbEntity
  8
0
100
AcDbBlockBegin
  2
*Paper_Space
 70
0
 10
0.0
 20
0.0
 30
0.0
  3
*Paper_Space
  1

  0
ENDBLK
  5
1D
100
AcDbEntity
  8
0
100
AcDbBlockEnd
  0
BLOCK
  5
221
100
AcDbEntity
  8
0
100
AcDbBlockBegin
  2
_FILLED
 70
64
 10
0.0
 20
0.0
  3
_FILLED
  1

  0
SOLID
  5
222
100
AcDbEntity
  8
0
  6
BYBLOCK
 62
0
100
AcDbTrace
 10
0.0
 20
0.0
 11
-1.0
 21
0.2
 12
-1.0
 22
-0.2
 13
-1.0
 23
-0.2
  0
ENDBLK
  5
223
100
AcDbEntity
  8
0
  6
BYBLOCK
 62
0
100
AcDbBlockEnd
  0
ENDSEC
  0
SECTION
  2
ENTITIES
  0
MTEXT
  5
224
100
AcDbEntity
  8
0
100
AcDbMText
 62
2
  6
CONTINUOUS
  7
STANDARD
 71
3
 72
1
 10
5.1079968944
 20
2.8045923913
 30
0.0
 11
1.0
 21
0.0
 31
0.0
 73
2
 44
0.9
  1
SCALE  .500
 40
0.08
 41
0.704
  0
LINE
  5
225
100
AcDbEntity
  8
0
100
AcDbLine
 62
7
  6
CONTINUOUS
 10
0.0
 20
0.0
 11
0.0
 21
8.5
  0
LINE
  5
226
100
AcDbEntity
  8
0
100
AcDbLine
 62
7
  6
CONTINUOUS
 10
0.0
 20
0.0
 11
11.0
 21
0.0
  0
LINE
  5
227
100
AcDbEntity
  8
0
100
AcDbLine
 62
7
  6
CONTINUOUS
 10
0.0
 20
8.5
 11
11.0
 21
8.5
  0
LINE
  5
228
100
AcDbEntity
  8
0
100
AcDbLine
 62
7
  6
CONTINUOUS
 10
11.0
 20
0.0
 11
11.0
 21
8.5
  0
LINE
  5
229
100
AcDbEntity
  8
0
100
AcDbLine
 62
7
  6
CONTINUOUS
 10
4.4180792306
 20
4.7220120207
 11
4.4194301446
 21
4.7065710029
  0
LINE
  5
22A
100
AcDbEntity
  8
0
100
AcDbLine
 62
7
  6
CONTINUOUS
 10
4.4163145002
 20
4.8730975921
 11
4.4165599439
 21
4.8756810687
  0
LINE
  5
22B
100
AcDbEntity
  8
0
100
AcDbLine
 62
7
  6
CONTINUOUS
 10
4.4165599439
 20
4.8756810687
 11
4.4167853677
 21
4.8777425525
  0
LINE
  5
22C
100
AcDbEntity
  8
0
100
AcDbLine
 62
7
  6
CONTINUOUS
 10
4.436067732
 20
4.9660055817
 11
4.4366613237
 21
4.9685318884
  0
LINE
  5
22D
100
AcDbEntity
  8
0
100
AcDbLine
 62
7
  6
CONTINUOUS
 10
4.4366613237
 20
4.9685318884
 11
4.437164279
 21
4.9705437435
  0
LINE
  5
22E
100
AcDbEntity
  8
0
100
AcDbLine
 62
7
  6
CONTINUOUS
 10
4.6978055504
 20
5.3318124012
 11
4.6854267
 21
5.3224842684
  0
LINE
  5
22F
100
AcDbEntity
  8
0
100
AcDbLine
 62
7
  6
CONTINUOUS
 10
5.2013908286
 20
3.9245923913
 11
5.0146029601
 21
3.9245923913
  0
LINE
  5
230
100
AcDbEntity
  8
0
100
AcDbLine
 62
7
  6
CONTINUOUS
 10
5.2177999291
 20
3.9294778254
 11
4.9981938596
 21
3.9294778254
  0
LINE
  5
231
100
AcDbEntity
  8
0
100
AcDbLine
 62
7
  6
CONTINUOUS
 10
4.947987316
 20
3.9574130938
 11
5.2680064728
 21
3.9574130938
  0
LINE
  5
232
100
AcDbEntity
  8
0
100
AcDbLine
 62
7
  6
CONTINUOUS
 10
5.2965906444
 20
3.9669062979
 11
4.9194031444
 21
3.9669062979
  0
LINE
  5
233
100
AcDbEntity
  8
0
100
AcDbLine
 62
7
  6
CONTINUOUS
 10
5.3204968944
 20
3.9962808823
 11
4.8954968944
 21
3.9962808823
  0
LINE
  5
234
100
AcDbEntity
  8
0
100
AcDbLine
 62
7
  6
CONTINUOUS
 10
5.3204968944
 20
4.0095923913
 11
4.8954968944
 21
4.0095923913
  0
LINE
  5
235
100
AcDbEntity
  8
0
100
AcDbLine
 62
7
  6
CONTINUOUS
 10
5.3004968944
 20
4.0295923913
 11
4.9154968944
 21
4.0295923913
  0
LINE
  5
236
100
AcDbEntity
  8
0
100
AcDbLine
 62
7
  6
CONTINUOUS
 10
4.5719674043
 20
4.3264850439
 11
4.5702117409
 21
4.3283961274
  0
LINE
  5
237
100
AcDbEntity
  8
0
100
AcDbLine
 62
7
  6
CONTINUOUS
 10
4.5702117409
 20
4.3283961274
 11
4.5688305978
 21
4.3299430518
  0
LINE
  5
238
100
AcDbEntity
  8
0
100
AcDbLine
 62
7
  6
CONTINUOUS
 10
4.494144747
 20
4.7131076836
 11
4.492793833
 21
4.7285487014
  0
LINE
  5
239
100
AcDbEntity
  8
0
100
AcDbLine
 62
7
  6
CONTINUOUS
 10
4.5206956286
 20
4.9114488703
 11
4.5189079301
 21
4.9016372605
  0
LINE
  5
23A
100
AcDbEntity
  8
0
100
AcDbLine
 62
7
  6
CONTINUOUS
 10
4.5165773024
 20
4.8888458364
 11
4.5130416339
 21
4.8694406633
  0
LINE
  5
23B
100
AcDbEntity
  8
0
100
AcDbLine
 62
7
  6
CONTINUOUS
 10
4.5115585072
 20
4.8613006662
 11
4.5101680758
 21
4.8536694184
  0
LINE
  5
23C
100
AcDbEntity
  8
0
100
AcDbLine
 62
7
  6
CONTINUOUS
 10
4.5130025393
 20
4.8531529725
 11
4.5235300921
 21
4.9109324243
  0
LINE
  5
23D
100
AcDbEntity
  8
0
100
AcDbLine
 62
7
  6
CONTINUOUS
 10
4.5446861027
 20
4.9898443934
 11
4.5415841015
 21
4.9803659436
  0
LINE
  5
23E
100
AcDbEntity
  8
0
100
AcDbLine
 62
7
  6
CONTINUOUS
 10
4.537540013
 20
4.9680088593
 11
4.5314049433
 21
4.94926259
  0
LINE
  5
23F
100
AcDbEntity
  8
0
100
AcDbLine
 62
7
  6
CONTINUOUS
 10
4.528831429
 20
4.9413989807
 11
4.5264187612
 21
4.9340268524
  0
LINE
  5
240
100
AcDbEntity
  8
0
100
AcDbLine
 62
7
  6
CONTINUOUS
 10
4.5291569803
 20
4.9331307186
 11
4.5474243219
 21
4.9889482596
  0
LINE
  5
241
100
AcDbEntity
  8
0
100
AcDbLine
 62
7
  6
CONTINUOUS
 10
4.477843496
 20
5.0644094464
 11
4.4775842385
 21
5.0640424165
  0
LINE
  5
242
100
AcDbEntity
  8
0
100
AcDbLine
 62
7
  6
CONTINUOUS
 10
4.5141521124
 20
5.0335883187
 11
4.5160792466
 21
5.0352009235
  0
LINE
  5
243
100
AcDbEntity
  8
0
100
AcDbLine
 62
7
  6
CONTINUOUS
 10
4.7305628268
 20
5.2625866051
 11
4.7429416772
 21
5.271914738
  0
LINE
  5
244
100
AcDbEntity
  8
0
100
AcDbLine
 62
7
  6
CONTINUOUS
 10
4.4808718677
 20
5.1010938749
 11
4.478602978
 21
5.1003025889
  0
LINE
  5
245
100
AcDbEntity
  8
0
100
AcDbLine
 62
7
  6
CONTINUOUS
 10
5.6386106666
 20
4.3179015214
 11
5.6410003101
 21
4.3181538845
  0
LINE
  5
246
100
AcDbEntity
  8
0
100
AcDbLine
 62
7
  6
CONTINUOUS
 10
4.5285310696
 20
4.4347583986
 11
4.5295203826
 21
4.4337961419
  0
LINE
  5
247
100
AcDbEntity
  8
0
100
AcDbLine
 62
7
  6
CONTINUOUS
 10
4.6133114581
 20
4.4297173534
 11
4.6194067014
 21
4.4218235861
  0
LINE
  5
248
100
AcDbEntity
  8
0
100
AcDbLine
 62
7
  6
CONTINUOUS
 10
4.6273530877
 20
4.4115324588
 11
4.6394081176
 21
4.3959203499
  0
LINE
  5
249
100
AcDbEntity
  8
0
100
AcDbLine
 62
7
  6
CONTINUOUS
 10
4.6444649089
 20
4.3893714507
 11
4.649205651
 21
4.3832318573
  0
LINE
  5
24A
100
AcDbEntity
  8
0
100
AcDbLine
 62
7
  6
CONTINUOUS
 10
4.6514860714
 20
4.3849927044
 11
4.6155918786
 21
4.4314782005
  0
LINE
  5
24B
100
AcDbEntity
  8
0
100
AcDbLine
 62
7
  6
CONTINUOUS
 10
4.5295203826
 20
4.4337961419
 11
4.5301800082
 21
4.4328125293
  0
LINE
  5
24C
100
AcDbEntity
  8
0
100
AcDbLine
 62
7
  6
CONTINUOUS
 10
4.5334081247
 20
4.4315317621
 11
4.5328867809
 21
4.4324250002
  0
LINE
  5
24D
100
AcDbEntity
  8
0
100
AcDbLine
 62
7
  6
CONTINUOUS
 10
4.5665361929
 20
4.4792656066
 11
4.5852301134
 21
4.4472366098
  0
LINE
  5
24E
100
AcDbEntity
  8
0
100
AcDbLine
 62
7
  6
CONTINUOUS
 10
4.5928931416
 20
4.4459781753
 11
4.5687251106
 21
4.4873861716
  0
LINE
  5
24F
100
AcDbEntity
  8
0
100
AcDbLine
 62
7
  6
CONTINUOUS
 10
4.5771105779
 20
4.4892865921
 11
4.6027309282
 21
4.4453902826
  0
LINE
  5
250
100
AcDbEntity
  8
0
100
AcDbLine
 62
7
  6
CONTINUOUS
 10
4.6081238682
 20
4.4418659838
 11
4.5769921667
 21
4.4952050985
  0
LINE
  5
251
100
AcDbEntity
  8
0
100
AcDbLine
 62
7
  6
CONTINUOUS
 10
4.5494800227
 20
4.4895830425
 11
4.5501456039
 21
4.4859512488
  0
LINE
  5
252
100
AcDbEntity
  8
0
100
AcDbLine
 62
7
  6
CONTINUOUS
 10
4.529290992
 20
4.436827149
 11
4.5285310696
 21
4.4347583986
  0
LINE
  5
253
100
AcDbEntity
  8
0
100
AcDbLine
 62
7
  6
CONTINUOUS
 10
4.9704968944
 20
4.3737527228
 11
5.2454968944
 21
4.3737527228
  0
LINE
  5
254
100
AcDbEntity
  8
0
100
AcDbLine
 62
7
  6
CONTINUOUS
 10
5.2470067588
 20
4.3742563052
 11
4.96898703
 21
4.3742563052
  0
LINE
  5
255
100
AcDbEntity
  8
0
100
AcDbLine
 62
7
  6
CONTINUOUS
 10
5.2659144225
 20
4.4123830766
 11
4.9500793662
 21
4.4123830766
  0
LINE
  5
256
100
AcDbEntity
  8
0
100
AcDbLine
 62
7
  6
CONTINUOUS
 10
4.6027309282
 20
4.4453902826
 11
4.5928931416
 21
4.4459781753
  0
LINE
  5
257
100
AcDbEntity
  8
0
100
AcDbLine
 62
7
  6
CONTINUOUS
 10
4.96898703
 20
4.3742563052
 11
4.9704968944
 21
4.3737527228
  0
LINE
  5
258
100
AcDbEntity
  8
0
100
AcDbLine
 62
7
  6
CONTINUOUS
 10
4.5567309096
 20
4.4553231989
 11
4.5548270056
 21
4.4560938008
  0
LINE
  5
259
100
AcDbEntity
  8
0
100
AcDbLine
 62
7
  6
CONTINUOUS
 10
4.8954968944
 20
4.0095923913
 11
4.8954968944
 21
3.9962808823
  0
LINE
  5
25A
100
AcDbEntity
  8
0
100
AcDbLine
 62
7
  6
CONTINUOUS
 10
4.5687251106
 20
4.4873861716
 11
4.5771105779
 21
4.4892865921
  0
LINE
  5
25B
100
AcDbEntity
  8
0
100
AcDbLine
 62
7
  6
CONTINUOUS
 10
5.2571712983
 20
4.4923884529
 11
4.9588224905
 21
4.4923884529
  0
LINE
  5
25C
100
AcDbEntity
  8
0
100
AcDbLine
 62
7
  6
CONTINUOUS
 10
5.2372931028
 20
4.5145923913
 11
4.978700686
 21
4.5145923913
  0
LINE
  5
25D
100
AcDbEntity
  8
0
100
AcDbLine
 62
7
  6
CONTINUOUS
 10
4.9929968944
 20
4.5805923913
 11
5.2229968944
 21
4.5805923913
  0
LINE
  5
25E
100
AcDbEntity
  8
0
100
AcDbLine
 62
7
  6
CONTINUOUS
 10
4.9878375544
 20
5.4658292155
 11
4.987939293
 21
5.4628612206
  0
LINE
  5
25F
100
AcDbEntity
  8
0
100
AcDbLine
 62
7
  6
CONTINUOUS
 10
4.9929968944
 20
4.5805923913
 11
4.9929968944
 21
4.5145923913
  0
LINE
  5
260
100
AcDbEntity
  8
ALL_FEATURES
100
AcDbLine
 62
7
  6
CONTINUOUS
 10
5.0429968944
 20
5.2552149285
 11
5.0429968944
 21
5.3703756594
  0
LINE
  5
261
100
AcDbEntity
  8
0
100
AcDbLine
 62
7
  6
CONTINUOUS
 10
5.5467887274
 20
5.3095809944
 11
5.4985796567
 21
5.2521276611
  0
LINE
  5
262
100
AcDbEntity
  8
0
100
AcDbLine
 62
7
  6
CONTINUOUS
 10
5.5104533455
 20
5.2421644532
 11
5.5586624163
 21
5.2996177864
  0
LINE
  5
263
100
AcDbEntity
  8
0
100
AcDbLine
 62
7
  6
CONTINUOUS
 10
4.6155918786
 20
4.4314782005
 11
4.6133114581
 21
4.4297173534
  0
LINE
  5
264
100
AcDbEntity
  8
0
100
AcDbLine
 62
7
  6
CONTINUOUS
 10
4.6157281914
 20
4.4038628872
 11
4.5425208447
 21
4.3473351777
  0
LINE
  5
265
100
AcDbEntity
  8
0
100
AcDbLine
 62
7
  6
CONTINUOUS
 10
4.5514693689
 20
4.3456580176
 11
4.6230979628
 21
4.4009666789
  0
LINE
  5
266
100
AcDbEntity
  8
0
100
AcDbLine
 62
7
  6
CONTINUOUS
 10
4.6273442814
 20
4.3942586406
 11
4.5693397397
 21
4.3494699134
  0
LINE
  5
267
100
AcDbEntity
  8
0
100
AcDbLine
 62
7
  6
CONTINUOUS
 10
4.5703352666
 20
4.3469718837
 11
4.6262932756
 21
4.3901803624
  0
LINE
  5
268
100
AcDbEntity
  8
0
100
AcDbLine
 62
7
  6
CONTINUOUS
 10
5.6937730501
 20
4.9484672781
 11
5.6956381492
 21
4.9489494888
  0
LINE
  5
269
100
AcDbEntity
  8
0
100
AcDbLine
 62
7
  6
CONTINUOUS
 10
4.4194301446
 20
4.7065710029
 11
4.494144747
 21
4.7131076836
  0
LINE
  5
26A
100
AcDbEntity
  8
0
100
AcDbLine
 62
7
  6
CONTINUOUS
 10
4.492793833
 20
4.7285487014
 11
4.4180792306
 21
4.7220120207
  0
LINE
  5
26B
100
AcDbEntity
  8
0
100
AcDbLine
 62
7
  6
CONTINUOUS
 10
5.7141544036
 20
4.6598409116
 11
5.7880149851
 21
4.6468172983
  0
LINE
  5
26C
100
AcDbEntity
  8
0
100
AcDbLine
 62
7
  6
CONTINUOUS
 10
5.7907065319
 20
4.6620818185
 11
5.7168459504
 21
4.6751054318
  0
LINE
  5
26D
100
AcDbEntity
  8
0
100
AcDbLine
 62
7
  6
CONTINUOUS
 10
4.5101680758
 20
4.8536694184
 11
4.5130025393
 21
4.8531529725
  0
LINE
  5
26E
100
AcDbEntity
  8
0
100
AcDbLine
 62
7
  6
CONTINUOUS
 10
4.4304470758
 20
4.8880188783
 11
4.5000004497
 21
4.875346089
  0
LINE
  5
26F
100
AcDbEntity
  8
0
100
AcDbLine
 62
7
  6
CONTINUOUS
 10
4.5037344612
 20
4.8772939402
 11
4.4316373362
 21
4.890430207
  0
LINE
  5
270
100
AcDbEntity
  8
0
100
AcDbLine
 62
7
  6
CONTINUOUS
 10
4.4168469335
 20
4.9011598245
 11
4.5058781634
 21
4.8849381237
  0
LINE
  5
271
100
AcDbEntity
  8
0
100
AcDbLine
 62
7
  6
CONTINUOUS
 10
4.503099126
 20
4.8923528728
 11
4.4121055749
 21
4.9089321131
  0
LINE
  5
272
100
AcDbEntity
  8
0
100
AcDbLine
 62
7
  6
CONTINUOUS
 10
4.4134603304
 20
4.8739179938
 11
4.4163145002
 21
4.8730975921
  0
LINE
  5
273
100
AcDbEntity
  8
0
100
AcDbLine
 62
7
  6
CONTINUOUS
 10
4.5264187612
 20
4.9340268524
 11
4.5291569803
 21
4.9331307186
  0
LINE
  5
274
100
AcDbEntity
  8
0
100
AcDbLine
 62
7
  6
CONTINUOUS
 10
4.4520935905
 20
4.978872054
 11
4.5192852756
 21
4.9568823095
  0
LINE
  5
275
100
AcDbEntity
  8
0
100
AcDbLine
 62
7
  6
CONTINUOUS
 10
4.5232489847
 20
4.9583056957
 11
4.4535999216
 21
4.9810996633
  0
LINE
  5
276
100
AcDbEntity
  8
0
100
AcDbLine
 62
7
  6
CONTINUOUS
 10
4.4404015471
 20
4.9937362614
 11
4.5264097165
 21
4.9655884681
  0
LINE
  5
277
100
AcDbEntity
  8
0
100
AcDbLine
 62
7
  6
CONTINUOUS
 10
4.5246620813
 20
4.9733116333
 11
4.4367582214
 21
5.002079827
  0
LINE
  5
278
100
AcDbEntity
  8
0
100
AcDbLine
 62
7
  6
CONTINUOUS
 10
4.4333512151
 20
4.9672055304
 11
4.436067732
 21
4.9660055817
  0
LINE
  5
279
100
AcDbEntity
  8
0
100
AcDbLine
 62
7
  6
CONTINUOUS
 10
4.4775842385
 20
5.0640424165
 11
4.4723815025
 21
5.0675389521
  0
LINE
  5
27A
100
AcDbEntity
  8
0
100
AcDbLine
 62
7
  6
CONTINUOUS
 10
4.4633590615
 20
5.0700905763
 11
4.5057517097
 21
5.0413359943
  0
LINE
  5
27B
100
AcDbEntity
  8
0
100
AcDbLine
 62
7
  6
CONTINUOUS
 10
4.5092686314
 20
5.0426732075
 11
4.4800502706
 21
5.0625235671
  0
LINE
  5
27C
100
AcDbEntity
  8
0
100
AcDbLine
 62
7
  6
CONTINUOUS
 10
4.6854267
 20
5.3224842684
 11
4.7305628268
 21
5.2625866051
  0
LINE
  5
27D
100
AcDbEntity
  8
0
100
AcDbLine
 62
7
  6
CONTINUOUS
 10
4.7429416772
 20
5.271914738
 11
4.6978055504
 21
5.3318124012
  0
LINE
  5
27E
100
AcDbEntity
  8
0
100
AcDbLine
 62
7
  6
CONTINUOUS
 10
4.9984643516
 20
5.3675975301
 11
4.9988490797
 21
5.3647422045
  0
LINE
  5
27F
100
AcDbEntity
  8
0
100
AcDbLine
 62
7
  6
CONTINUOUS
 10
5.0064974855
 20
5.4540312734
 11
5.0159381212
 21
5.3839659767
  0
LINE
  5
280
100
AcDbEntity
  8
0
100
AcDbLine
 62
7
  6
CONTINUOUS
 10
5.0189445108
 20
5.3810166399
 11
5.0091586061
 21
5.4536444101
  0
LINE
  5
281
100
AcDbEntity
  8
0
100
AcDbLine
 62
7
  6
CONTINUOUS
 10
5.0147925929
 20
5.4710265531
 11
5.0268770017
 21
5.3813400405
  0
LINE
  5
282
100
AcDbEntity
  8
0
100
AcDbLine
 62
7
  6
CONTINUOUS
 10
5.0330700774
 20
5.3862743457
 11
5.0207193183
 21
5.4779376224
  0
LINE
  5
283
100
AcDbEntity
  8
ALL_FEATURES
100
AcDbLine
 62
7
  6
CONTINUOUS
 10
5.1729968944
 20
5.255214722
 11
5.1729968944
 21
5.3703756594
  0
LINE
  5
284
100
AcDbEntity
  8
0
100
AcDbLine
 62
7
  6
CONTINUOUS
 10
5.2229968944
 20
4.5805923913
 11
5.2229968944
 21
4.5145923913
  0
LINE
  5
285
100
AcDbEntity
  8
0
100
AcDbLine
 62
7
  6
CONTINUOUS
 10
4.649205651
 20
4.3832318573
 11
4.6514860714
 21
4.3849927044
  0
LINE
  5
286
100
AcDbEntity
  8
0
100
AcDbLine
 62
7
  6
CONTINUOUS
 10
4.5694479146
 20
4.3249129383
 11
4.5719674043
 21
4.3264850439
  0
LINE
  5
287
100
AcDbEntity
  8
0
100
AcDbLine
 62
7
  6
CONTINUOUS
 10
5.6917203167
 20
4.948077011
 11
5.6937730501
 21
4.9484672781
  0
LINE
  5
288
100
AcDbEntity
  8
0
100
AcDbLine
 62
7
  6
CONTINUOUS
 10
5.7793512855
 20
4.919147993
 11
5.7856117755
 21
4.9194649554
  0
LINE
  5
289
100
AcDbEntity
  8
0
100
AcDbLine
 62
7
  6
CONTINUOUS
 10
5.7943647181
 20
4.9228266814
 11
5.7431949886
 21
4.9204557545
  0
LINE
  5
28A
100
AcDbEntity
  8
0
100
AcDbLine
 62
7
  6
CONTINUOUS
 10
5.7411799883
 20
4.9172782373
 11
5.7764668369
 21
4.9188868919
  0
LINE
  5
28B
100
AcDbEntity
  8
0
100
AcDbLine
 62
7
  6
CONTINUOUS
 10
4.5235300921
 20
4.9109324243
 11
4.5206956286
 21
4.9114488703
  0
LINE
  5
28C
100
AcDbEntity
  8
0
100
AcDbLine
 62
7
  6
CONTINUOUS
 10
4.5474243219
 20
4.9889482596
 11
4.5446861027
 21
4.9898443934
  0
LINE
  5
28D
100
AcDbEntity
  8
0
100
AcDbLine
 62
7
  6
CONTINUOUS
 10
5.6502711941
 20
4.3532236403
 11
5.6545381668
 21
4.3486315662
  0
LINE
  5
28E
100
AcDbEntity
  8
0
100
AcDbLine
 62
7
  6
CONTINUOUS
 10
5.6627396814
 20
4.344087299
 11
5.6280321779
 21
4.3817615835
  0
LINE
  5
28F
100
AcDbEntity
  8
0
100
AcDbLine
 62
7
  6
CONTINUOUS
 10
5.6243028413
 20
4.3812626947
 11
5.6482170912
 21
4.3552654236
  0
LINE
  5
290
100
AcDbEntity
  8
0
100
AcDbLine
 62
7
  6
CONTINUOUS
 10
5.3204968944
 20
4.0095923913
 11
5.3204968944
 21
3.9962808823
  0
LINE
  5
291
100
AcDbEntity
  8
0
100
AcDbLine
 62
7
  6
CONTINUOUS
 10
5.7178377495
 20
4.4311331487
 11
5.6979622176
 21
4.4519430072
  0
LINE
  5
292
100
AcDbEntity
  8
0
100
AcDbLine
 62
7
  6
CONTINUOUS
 10
5.7057724063
 20
4.4392926771
 11
5.7115409447
 21
4.4330308263
  0
LINE
  5
293
100
AcDbEntity
  8
0
100
AcDbLine
 62
7
  6
CONTINUOUS
 10
5.6823512933
 20
4.3858501601
 11
5.6791819942
 21
4.3922413241
  0
LINE
  5
294
100
AcDbEntity
  8
0
100
AcDbLine
 62
7
  6
CONTINUOUS
 10
5.7161774682
 20
4.9950208738
 11
5.7158631684
 21
4.9934297267
  0
LINE
  5
295
100
AcDbEntity
  8
0
100
AcDbLine
 62
7
  6
CONTINUOUS
 10
5.7147030156
 20
4.9778846158
 11
5.7152232476
 21
4.9800147429
  0
LINE
  5
296
100
AcDbEntity
  8
0
100
AcDbLine
 62
7
  6
CONTINUOUS
 10
5.7989143558
 20
4.8875108903
 11
5.8002570677
 21
4.8895036793
  0
LINE
  5
297
100
AcDbEntity
  8
0
100
AcDbLine
 62
7
  6
CONTINUOUS
 10
5.2470067588
 20
4.3742563052
 11
5.2454968944
 21
4.3737527228
  0
LINE
  5
298
100
AcDbEntity
  8
0
100
AcDbLine
 62
7
  6
CONTINUOUS
 10
5.779363562
 20
4.9186987996
 11
5.7793512855
 21
4.919147993
  0
LINE
  5
299
100
AcDbEntity
  8
0
100
AcDbLine
 62
7
  6
CONTINUOUS
 10
5.7057552886
 20
4.4361759333
 11
5.7057724063
 21
4.4392926771
  0
LINE
  5
29A
100
AcDbEntity
  8
0
100
AcDbLine
 62
7
  6
CONTINUOUS
 10
5.7168459504
 20
4.6751054318
 11
5.7141544036
 21
4.6598409116
  0
LINE
  5
29B
100
AcDbEntity
  8
0
100
AcDbLine
 62
7
  6
CONTINUOUS
 10
5.7880149851
 20
4.6468172983
 11
5.7907065319
 21
4.6620818185
  0
LINE
  5
29C
100
AcDbEntity
  8
0
100
AcDbLine
 62
7
  6
CONTINUOUS
 10
5.7318274484
 20
4.921627213
 11
5.7312503891
 21
4.9191815285
  0
LINE
  5
29D
100
AcDbEntity
  8
0
100
AcDbLine
 62
7
  6
CONTINUOUS
 10
5.6286658577
 20
4.4900372839
 11
5.6176662944
 21
4.4722581499
  0
LINE
  5
29E
100
AcDbEntity
  8
0
100
AcDbLine
 62
7
  6
CONTINUOUS
 10
5.6236145165
 20
4.4763964506
 11
5.6289782617
 21
4.4850661352
  0
LINE
  5
29F
100
AcDbEntity
  8
0
100
AcDbLine
 62
7
  6
CONTINUOUS
 10
5.7000226726
 20
4.4311224097
 11
5.6776348702
 21
4.3949359058
  0
LINE
  5
2A0
100
AcDbEntity
  8
0
100
AcDbLine
 62
7
  6
CONTINUOUS
 10
5.6791819942
 20
4.3922413241
 11
5.7043294047
 21
4.4328883178
  0
LINE
  5
2A1
100
AcDbEntity
  8
0
100
AcDbLine
 62
7
  6
CONTINUOUS
 10
5.7115409447
 20
4.4330308263
 11
5.6823512933
 21
4.3858501601
  0
LINE
  5
2A2
100
AcDbEntity
  8
0
100
AcDbLine
 62
7
  6
CONTINUOUS
 10
5.6837507637
 20
4.3760366805
 11
5.7178377495
 21
4.4311331487
  0
LINE
  5
2A3
100
AcDbEntity
  8
0
100
AcDbLine
 62
7
  6
CONTINUOUS
 10
5.6979622176
 20
4.4519430072
 11
5.6962547249
 21
4.4503064122
  0
LINE
  5
2A4
100
AcDbEntity
  8
0
100
AcDbLine
 62
7
  6
CONTINUOUS
 10
5.6499349832
 20
4.3529255
 11
5.6502711941
 21
4.3532236403
  0
LINE
  5
2A5
100
AcDbEntity
  8
0
100
AcDbLine
 62
7
  6
CONTINUOUS
 10
5.6216226532
 20
4.3912226235
 11
5.6193782235
 21
4.3900926209
  0
LINE
  5
2A6
100
AcDbEntity
  8
0
100
AcDbLine
 62
7
  6
CONTINUOUS
 10
4.987939293
 20
5.4628612206
 11
4.9904721714
 21
5.4634261279
  0
LINE
  5
2A7
100
AcDbEntity
  8
0
100
AcDbLine
 62
7
  6
CONTINUOUS
 10
4.9904721714
 20
5.4634261279
 11
4.9925024189
 21
5.4638487707
  0
LINE
  5
2A8
100
AcDbEntity
  8
0
100
AcDbLine
 62
7
  6
CONTINUOUS
 10
4.9988490797
 20
5.3647422045
 11
5.0429552019
 21
5.3706850871
  0
LINE
  5
2A9
100
AcDbEntity
  8
0
100
AcDbLine
 62
7
  6
CONTINUOUS
 10
5.0338996731
 20
5.3723721043
 11
5.0143516752
 21
5.3697381966
  0
LINE
  5
2AA
100
AcDbEntity
  8
0
100
AcDbLine
 62
7
  6
CONTINUOUS
 10
5.0061517665
 20
5.3686333365
 11
4.9984643516
 21
5.3675975301
  0
LINE
  5
2AB
100
AcDbEntity
  8
ALL_FEATURES
100
AcDbLine
 62
7
  6
CONTINUOUS
 10
5.0429968944
 20
5.3703756594
 11
5.1729968944
 21
5.3703756594
  0
LINE
  5
2AC
100
AcDbEntity
  8
ALL_FEATURES
100
AcDbLine
 62
7
  6
CONTINUOUS
 10
5.0634514398
 20
5.3988165507
 11
5.1525423489
 21
5.3988165507
  0
LINE
  5
2AD
100
AcDbEntity
  8
0
100
AcDbLine
 62
7
  6
CONTINUOUS
 10
5.4985796567
 20
5.2521276611
 11
5.5104533455
 21
5.2421644532
  0
LINE
  5
2AE
100
AcDbEntity
  8
0
100
AcDbLine
 62
7
  6
CONTINUOUS
 10
5.5586624163
 20
5.2996177864
 11
5.5467887274
 21
5.3095809944
  0
ARC
  5
2AF
100
AcDbEntity
  8
0
100
AcDbCircle
 62
7
  6
CONTINUOUS
 10
2.3710909918
 20
3.7804436068
 40
2.935
100
AcDbArc
 50
4.8696335336
 51
11.662690808
  0
ARC
  5
2B0
100
AcDbEntity
  8
0
100
AcDbCircle
 62
7
  6
CONTINUOUS
 10
4.7766710025
 20
3.5904311859
 40
0.405
100
AcDbArc
 50
56.8406091925
 51
64.9756594932
  0
ARC
  5
2B1
100
AcDbEntity
  8
0
100
AcDbCircle
 62
7
  6
CONTINUOUS
 10
4.7749491823
 20
4.4720020223
 40
0.185
100
AcDbArc
 50
341.2000680217
 51
6.3266673696
  0
ARC
  5
2B2
100
AcDbEntity
  8
0
100
AcDbCircle
 62
7
  6
CONTINUOUS
 10
4.8929968944
 20
3.839616432
 40
0.13
100
AcDbArc
 50
64.9756594932
 51
78.2802396942
  0
ARC
  5
2B3
100
AcDbEntity
  8
0
100
AcDbCircle
 62
7
  6
CONTINUOUS
 10
4.5223557379
 20
4.4819022996
 40
0.0844582841
100
AcDbArc
 50
112.2482040417
 51
126.2695891811
  0
ARC
  5
2B4
100
AcDbEntity
  8
0
100
AcDbCircle
 62
7
  6
CONTINUOUS
 10
4.9784788555
 20
4.4027151395
 40
0.03
100
AcDbArc
 50
161.2000680217
 51
251.555
  0
ARC
  5
2B5
100
AcDbEntity
  8
0
100
AcDbCircle
 62
7
  6
CONTINUOUS
 10
4.9254968944
 20
3.9962808823
 40
0.03
100
AcDbArc
 50
180.0
 51
258.2802396942
  0
ARC
  5
2B6
100
AcDbEntity
  8
0
100
AcDbCircle
 62
7
  6
CONTINUOUS
 10
5.0146029601
 20
3.9545923913
 40
0.03
100
AcDbArc
 50
236.8406091925
 51
270.0
  0
ARC
  5
2B7
100
AcDbEntity
  8
0
100
AcDbCircle
 62
7
  6
CONTINUOUS
 10
4.978700686
 20
4.4945923913
 40
0.02
100
AcDbArc
 50
90.0
 51
186.3266673696
  0
ARC
  5
2B8
100
AcDbEntity
  8
0
100
AcDbCircle
 62
7
  6
CONTINUOUS
 10
4.9154968944
 20
4.0095923913
 40
0.02
100
AcDbArc
 50
90.0
 51
180.0
  0
ARC
  5
2B9
100
AcDbEntity
  8
0
100
AcDbCircle
 62
7
  6
CONTINUOUS
 10
5.0583345619
 20
5.4274149145
 40
0.0844582841
100
AcDbArc
 50
0.0431807038
 51
14.0645658887
  0
ARC
  5
2BA
100
AcDbEntity
  8
0
100
AcDbCircle
 62
7
  6
CONTINUOUS
 10
5.070664208
 20
5.4239852599
 40
0.071719848
100
AcDbArc
 50
342.6297250309
 51
346.1877439889
  0
ARC
  5
2BB
100
AcDbEntity
  8
ALL_FEATURES
100
AcDbCircle
 62
7
  6
CONTINUOUS
 10
5.0729968944
 20
5.3703756594
 40
0.03
100
AcDbArc
 50
108.553004535
 51
180.0
  0
ARC
  5
2BC
100
AcDbEntity
  8
0
100
AcDbCircle
 62
7
  6
CONTINUOUS
 10
4.4599593942
 20
5.0751606022
 40
0.0237347405
100
AcDbArc
 50
327.8303649348
 51
334.2636995778
  0
ARC
  5
2BD
100
AcDbEntity
  8
0
100
AcDbCircle
 62
7
  6
CONTINUOUS
 10
7.844902797
 20
3.7804436068
 40
2.935
100
AcDbArc
 50
168.337309192
 51
175.1303664664
  0
ARC
  5
2BE
100
AcDbEntity
  8
0
100
AcDbCircle
 62
7
  6
CONTINUOUS
 10
5.4393227862
 20
3.5904311859
 40
0.405
100
AcDbArc
 50
115.0243405068
 51
123.1593908075
  0
ARC
  5
2BF
100
AcDbEntity
  8
0
100
AcDbCircle
 62
7
  6
CONTINUOUS
 10
5.4410446064
 20
4.4720020223
 40
0.185
100
AcDbArc
 50
173.6733326304
 51
198.7999319783
  0
ARC
  5
2C0
100
AcDbEntity
  8
0
100
AcDbCircle
 62
7
  6
CONTINUOUS
 10
5.3229968944
 20
3.839616432
 40
0.13
100
AcDbArc
 50
101.7197603058
 51
115.0243405068
  0
ARC
  5
2C1
100
AcDbEntity
  8
0
100
AcDbCircle
 62
7
  6
CONTINUOUS
 10
5.2375149332
 20
4.4027151395
 40
0.03
100
AcDbArc
 50
288.445
 51
18.7999319783
  0
ARC
  5
2C2
100
AcDbEntity
  8
0
100
AcDbCircle
 62
7
  6
CONTINUOUS
 10
5.2904968944
 20
3.9962808823
 40
0.03
100
AcDbArc
 50
281.7197603058
 51
360.0
  0
ARC
  5
2C3
100
AcDbEntity
  8
0
100
AcDbCircle
 62
7
  6
CONTINUOUS
 10
5.2013908286
 20
3.9545923913
 40
0.03
100
AcDbArc
 50
270.0
 51
303.1593908075
  0
ARC
  5
2C4
100
AcDbEntity
  8
0
100
AcDbCircle
 62
7
  6
CONTINUOUS
 10
5.6648920541
 20
4.3383748582
 40
0.0237349009
100
AcDbArc
 50
134.6319753409
 51
141.065266467
  0
ARC
  5
2C5
100
AcDbEntity
  8
0
100
AcDbCircle
 62
7
  6
CONTINUOUS
 10
5.2372931028
 20
4.4945923913
 40
0.02
100
AcDbArc
 50
353.6733326304
 51
90.0
  0
ARC
  5
2C6
100
AcDbEntity
  8
0
100
AcDbCircle
 62
7
  6
CONTINUOUS
 10
5.3004968944
 20
4.0095923913
 40
0.02
100
AcDbArc
 50
0.0
 51
90.0
  0
CIRCLE
  5
2C7
100
AcDbEntity
  8
ALL_FEATURES
100
AcDbCircle
 62
7
  6
CONTINUOUS
 10
5.1079968944
 20
4.7745923913
 40
1.875
  0
CIRCLE
  5
2C8
100
AcDbEntity
  8
ALL_FEATURES
100
AcDbCircle
 62
7
  6
CONTINUOUS
 10
5.1079968944
 20
4.7745923913
 40
1.8389850315
  0
CIRCLE
  5
2C9
100
AcDbEntity
  8
ALL_FEATURES
100
AcDbCircle
 62
7
  6
CONTINUOUS
 10
5.1079968944
 20
4.7745923913
 40
1.6550988929
  0
CIRCLE
  5
2CA
100
AcDbEntity
  8
ALL_FEATURES
100
AcDbCircle
 62
7
  6
CONTINUOUS
 10
5.1079968944
 20
4.7745923913
 40
1.6165
  0
CIRCLE
  5
2CB
100
AcDbEntity
  8
ALL_FEATURES
100
AcDbCircle
 62
7
  6
CONTINUOUS
 10
5.1079968944
 20
4.7745923913
 40
0.8784915687
  0
CIRCLE
  5
2CC
100
AcDbEntity
  8
ALL_FEATURES
100
AcDbCircle
 62
7
  6
CONTINUOUS
 10
5.1079968944
 20
4.7745923913
 40
0.8684949955
  0
CIRCLE
  5
2CD
100
AcDbEntity
  8
ALL_FEATURES
100
AcDbCircle
 62
7
  6
CONTINUOUS
 10
5.1079968944
 20
4.7745923913
 40
0.8673683844
  0
CIRCLE
  5
2CE
100
AcDbEntity
  8
ALL_FEATURES
100
AcDbCircle
 62
7
  6
CONTINUOUS
 10
5.1079968944
 20
4.7745923913
 40
0.8573718112
  0
ARC
  5
2CF
100
AcDbEntity
  8
0
100
AcDbCircle
 62
7
  6
CONTINUOUS
 10
5.1079968944
 20
4.7745923913
 40
0.5
100
AcDbArc
 50
97.4697039932
 51
252.2958949577
  0
ARC
  5
2D0
100
AcDbEntity
  8
0
100
AcDbCircle
 62
7
  6
CONTINUOUS
 10
5.1079968944
 20
4.7745923913
 40
0.5
100
AcDbArc
 50
287.7041050423
 51
82.5302960068
  0
ARC
  5
2D1
100
AcDbEntity
  8
ALL_ASSEMBLY_MEMBERS
100
AcDbCircle
 62
7
  6
CONTINUOUS
 10
5.1079968944
 20
4.7745923913
 40
0.49725
100
AcDbArc
 50
287.7439969216
 51
82.4881504374
  0
ARC
  5
2D2
100
AcDbEntity
  8
ALL_ASSEMBLY_MEMBERS
100
AcDbCircle
 62
7
  6
CONTINUOUS
 10
5.1079968944
 20
4.7745923913
 40
0.49725
100
AcDbArc
 50
97.5118495626
 51
252.2560030784
  0
ARC
  5
2D3
100
AcDbEntity
  8
0
100
AcDbCircle
 62
7
  6
CONTINUOUS
 10
5.1079968944
 20
4.7745923913
 40
0.485
100
AcDbArc
 50
287.9257128542
 51
252.0794549585
  0
ARC
  5
2D4
100
AcDbEntity
  8
0
100
AcDbCircle
 62
7
  6
CONTINUOUS
 10
5.1079968944
 20
4.7745923913
 40
0.4662348783
100
AcDbArc
 50
288.2230354398
 51
251.7817301078
  0
ARC
  5
2D5
100
AcDbEntity
  8
0
100
AcDbCircle
 62
7
  6
CONTINUOUS
 10
5.1079968944
 20
4.7745923913
 40
0.4608519916
100
AcDbArc
 50
288.3158862457
 51
251.6841152368
  0
ARC
  5
2D6
100
AcDbEntity
  8
0
100
AcDbCircle
 62
7
  6
CONTINUOUS
 10
5.1079968944
 20
4.7745923913
 40
0.4502588753
100
AcDbArc
 50
288.4819724921
 51
251.5180287722
  0
ARC
  5
2D7
100
AcDbEntity
  8
0
100
AcDbCircle
 62
7
  6
CONTINUOUS
 10
5.1079968944
 20
4.7745923913
 40
0.4498731338
100
AcDbArc
 50
288.4854164482
 51
251.5146380726
  0
ARC
  5
2D8
100
AcDbEntity
  8
0
100
AcDbCircle
 62
7
  6
CONTINUOUS
 10
5.1079968944
 20
4.7745923913
 40
0.4239154355
100
AcDbArc
 50
288.9286678732
 51
251.0691210947
  0
ARC
  5
2D9
100
AcDbEntity
  8
ALL_FEATURES
100
AcDbCircle
 62
7
  6
CONTINUOUS
 10
5.1079968944
 20
4.7745923913
 40
0.2255
100
AcDbArc
 50
300.6485451413
 51
239.3514548587
  0
CIRCLE
  5
2DA
100
AcDbEntity
  8
0
100
AcDbCircle
 62
7
  6
CONTINUOUS
 10
5.1079968944
 20
4.7745923913
 40
0.149875669
  0
CIRCLE
  5
2DB
100
AcDbEntity
  8
0
100
AcDbCircle
 62
7
  6
CONTINUOUS
 10
5.1079968944
 20
4.7745923913
 40
0.1465524835
  0
CIRCLE
  5
2DC
100
AcDbEntity
  8
0
100
AcDbCircle
 62
7
  6
CONTINUOUS
 10
5.1079968944
 20
4.7745923913
 40
0.14
  0
CIRCLE
  5
2DD
100
AcDbEntity
  8
0
100
AcDbCircle
 62
7
  6
CONTINUOUS
 10
5.1079968944
 20
4.7745923913
 40
0.1129032259
  0
ARC
  5
2DE
100
AcDbEntity
  8
ALL_FEATURES
100
AcDbCircle
 62
7
  6
CONTINUOUS
 10
5.1079968944
 20
5.2660923913
 40
0.14
100
AcDbArc
 50
71.446995465
 51
108.553004535
  0
ARC
  5
2DF
100
AcDbEntity
  8
0
100
AcDbCircle
 62
7
  6
CONTINUOUS
 10
5.147340418
 20
5.4281175512
 40
0.0844582841
100
AcDbArc
 50
352.2482073852
 51
6.2695925694
  0
ARC
  5
2E0
100
AcDbEntity
  8
0
100
AcDbCircle
 62
7
  6
CONTINUOUS
 10
5.1424929236
 20
5.4240154168
 40
0.0702844611
100
AcDbArc
 50
194.1167890136
 51
198.012783737
  0
ARC
  5
2E1
100
AcDbEntity
  8
ALL_FEATURES
100
AcDbCircle
 62
7
  6
CONTINUOUS
 10
5.1429968944
 20
5.3703756594
 40
0.03
100
AcDbArc
 50
0.0
 51
71.446995465
  0
ARC
  5
2E2
100
AcDbEntity
  8
0
100
AcDbCircle
 62
7
  6
CONTINUOUS
 10
5.74040838
 20
5.0059576765
 40
0.0368525718
100
AcDbArc
 50
275.5479809504
 51
288.9791355693
  0
ARC
  5
2E3
100
AcDbEntity
  8
0
100
AcDbCircle
 62
7
  6
CONTINUOUS
 10
5.6938869011
 20
4.9794752996
 40
0.0287657009
100
AcDbArc
 50
75.6092714762
 51
109.2452499263
  0
ARC
  5
2E4
100
AcDbEntity
  8
0
100
AcDbCircle
 62
7
  6
CONTINUOUS
 10
5.8001242202
 20
4.9208036084
 40
0.0237349009
100
AcDbArc
 50
184.6319753409
 51
191.0652664669
  0
SPLINE
  5
2E5
100
AcDbEntity
  8
0
100
AcDbSpline
 62
7
  6
CONTINUOUS
 70
0
 71
3
 72
10
 73
6
 74
0
 42
0.0000001
 43
0.0000001
 44
0.0000000001
 40
0.0
 40
0.0
 40
0.0
 40
0.0
 40
0.3401276515
 40
0.6755502047
 40
1.0
 40
1.0
 40
1.0
 40
1.0
 10
4.6273442814
 20
4.3942586406
 30
0.0
 10
4.6278921036
 20
4.3946812007
 30
0.0
 10
4.6290527129
 20
4.3954323361
 30
0.0
 10
4.6309386912
 20
4.3962199081
 30
0.0
 10
4.632256949
 20
4.3965151
 30
0.0
 10
4.6329117431
 20
4.3965975659
 30
0.0
  0
SPLINE
  5
2E6
100
AcDbEntity
  8
0
100
AcDbSpline
 62
7
  6
CONTINUOUS
 70
0
 71
3
 72
10
 73
6
 74
0
 42
0.0000001
 43
0.0000001
 44
0.0000000001
 40
0.0
 40
0.0
 40
0.0
 40
0.0
 40
0.3080228528
 40
0.6421817536
 40
1.0
 40
1.0
 40
1.0
 40
1.0
 10
4.5633887058
 20
4.342952663
 30
0.0
 10
4.5637930102
 20
4.3437715039
 30
0.0
 10
4.5648281629
 20
4.3453924742
 30
0.0
 10
4.5669307798
 20
4.3474979826
 30
0.0
 10
4.5684959467
 20
4.3488269439
 30
0.0
 10
4.5693397397
 20
4.3494699134
 30
0.0
  0
SPLINE
  5
2E7
100
AcDbEntity
  8
0
100
AcDbSpline
 62
7
  6
CONTINUOUS
 70
0
 71
3
 72
10
 73
6
 74
0
 42
0.0000001
 43
0.0000001
 44
0.0000000001
 40
0.0
 40
0.0
 40
0.0
 40
0.0
 40
0.3618850386
 40
0.6947573528
 40
1.0
 40
1.0
 40
1.0
 40
1.0
 10
4.5629233655
 20
4.3360219448
 30
0.0
 10
4.5627369072
 20
4.3368525792
 30
0.0
 10
4.5625039829
 20
4.3384813067
 30
0.0
 10
4.5626456799
 20
4.3408463716
 30
0.0
 10
4.5630870851
 20
4.3423010245
 30
0.0
 10
4.5633887058
 20
4.342952663
 30
0.0
  0
SPLINE
  5
2E8
100
AcDbEntity
  8
0
100
AcDbSpline
 62
7
  6
CONTINUOUS
 70
0
 71
3
 72
10
 73
6
 74
0
 42
0.0000001
 43
0.0000001
 44
0.0000000001
 40
0.0
 40
0.0
 40
0.0
 40
0.0
 40
0.3229550722
 40
0.6562787215
 40
1.0
 40
1.0
 40
1.0
 40
1.0
 10
4.5575626047
 20
4.3413169749
 30
0.0
 10
4.5581875411
 20
4.3407985899
 30
0.0
 10
4.559425361
 20
4.3397058158
 30
0.0
 10
4.5612107955
 20
4.3379341676
 30
0.0
 10
4.5623572281
 20
4.3366748349
 30
0.0
 10
4.5629233655
 20
4.3360219448
 30
0.0
  0
SPLINE
  5
2E9
100
AcDbEntity
  8
0
100
AcDbSpline
 62
7
  6
CONTINUOUS
 70
0
 71
3
 72
10
 73
6
 74
0
 42
0.0000001
 43
0.0000001
 44
0.0000000001
 40
0.0
 40
0.0
 40
0.0
 40
0.0
 40
0.3425397131
 40
0.6758822973
 40
1.0
 40
1.0
 40
1.0
 40
1.0
 10
4.5514693689
 20
4.3456580176
 30
0.0
 10
4.5521966829
 20
4.3452088242
 30
0.0
 10
4.5536135984
 20
4.3442926353
 30
0.0
 10
4.5556500061
 20
4.342848642
 30
0.0
 10
4.5569401244
 20
4.3418334928
 30
0.0
 10
4.5575626047
 20
4.3413169749
 30
0.0
  0
SPLINE
  5
2EA
100
AcDbEntity
  8
0
100
AcDbSpline
 62
7
  6
CONTINUOUS
 70
0
 71
3
 72
10
 73
6
 74
0
 42
0.0000001
 43
0.0000001
 44
0.0000000001
 40
0.0
 40
0.0
 40
0.0
 40
0.0
 40
0.3110988532
 40
0.6442786863
 40
1.0
 40
1.0
 40
1.0
 40
1.0
 10
4.6263683615
 20
4.4049652792
 30
0.0
 10
4.6261579527
 20
4.404466888
 30
0.0
 10
4.6256104902
 20
4.4034791488
 30
0.0
 10
4.6244921618
 20
4.4021374318
 30
0.0
 10
4.6235886313
 20
4.4013433594
 30
0.0
 10
4.6230979628
 20
4.4009666789
 30
0.0
  0
SPLINE
  5
2EB
100
AcDbEntity
  8
0
100
AcDbSpline
 62
7
  6
CONTINUOUS
 70
0
 71
3
 72
10
 73
6
 74
0
 42
0.0000001
 43
0.0000001
 44
0.0000000001
 40
0.0
 40
0.0
 40
0.0
 40
0.0
 40
0.352776051
 40
0.6869725442
 40
1.0
 40
1.0
 40
1.0
 40
1.0
 10
4.6273530877
 20
4.4115324588
 30
0.0
 10
4.6273459654
 20
4.4107478501
 30
0.0
 10
4.6272675309
 20
4.4092214183
 30
0.0
 10
4.6270280616
 20
4.407004914
 30
0.0
 10
4.6266200867
 20
4.4056144126
 30
0.0
 10
4.6263683615
 20
4.4049652792
 30
0.0
  0
SPLINE
  5
2EC
100
AcDbEntity
  8
0
100
AcDbSpline
 62
7
  6
CONTINUOUS
 70
0
 71
3
 72
10
 73
6
 74
0
 42
0.0000001
 43
0.0000001
 44
0.0000000001
 40
0.0
 40
0.0
 40
0.0
 40
0.0
 40
0.3202913034
 40
0.6547969908
 40
1.0
 40
1.0
 40
1.0
 40
1.0
 10
4.6329117431
 20
4.3965975659
 30
0.0
 10
4.6336081922
 20
4.3966916786
 30
0.0
 10
4.6350502164
 20
4.3967628865
 30
0.0
 10
4.6372409253
 20
4.396540959
 30
0.0
 10
4.6386900985
 20
4.3961615221
 30
0.0
 10
4.6394081176
 20
4.3959203499
 30
0.0
  0
SPLINE
  5
2ED
100
AcDbEntity
  8
0
100
AcDbSpline
 62
7
  6
CONTINUOUS
 70
0
 71
3
 72
10
 73
6
 74
0
 42
0.0000001
 43
0.0000001
 44
0.0000000001
 40
0.0
 40
0.0
 40
0.0
 40
0.0
 40
0.3004656021
 40
0.6331711682
 40
1.0
 40
1.0
 40
1.0
 40
1.0
 10
4.6363047307
 20
4.3939204169
 30
0.0
 10
4.6352156586
 20
4.3939698847
 30
0.0
 10
4.6328967579
 20
4.3937124245
 30
0.0
 10
4.6294829588
 20
4.3923974947
 30
0.0
 10
4.6273445796
 20
4.3909966214
 30
0.0
 10
4.6262932756
 20
4.3901803624
 30
0.0
  0
SPLINE
  5
2EE
100
AcDbEntity
  8
0
100
AcDbSpline
 62
7
  6
CONTINUOUS
 70
0
 71
3
 72
10
 73
6
 74
0
 42
0.0000001
 43
0.0000001
 44
0.0000000001
 40
0.0
 40
0.0
 40
0.0
 40
0.0
 40
0.3665527997
 40
0.7007153663
 40
1.0
 40
1.0
 40
1.0
 40
1.0
 10
4.6444649089
 20
4.3893714507
 30
0.0
 10
4.6437468577
 20
4.3903045984
 30
0.0
 10
4.6421699423
 20
4.3919599378
 30
0.0
 10
4.6393044633
 20
4.3935118396
 30
0.0
 10
4.6372660839
 20
4.3939166791
 30
0.0
 10
4.6363047307
 20
4.3939204169
 30
0.0
  0
SPLINE
  5
2EF
100
AcDbEntity
  8
0
100
AcDbSpline
 62
7
  6
CONTINUOUS
 70
0
 71
3
 72
10
 73
6
 74
0
 42
0.0000001
 43
0.0000001
 44
0.0000000001
 40
0.0
 40
0.0
 40
0.0
 40
0.0
 40
0.2966175635
 40
0.6285586925
 40
1.0
 40
1.0
 40
1.0
 40
1.0
 10
4.621906955
 20
4.412597524
 30
0.0
 10
4.6221382732
 20
4.413543758
 30
0.0
 10
4.622237933
 20
4.4156503226
 30
0.0
 10
4.6213975962
 20
4.4188730223
 30
0.0
 10
4.6201521636
 20
4.4208580558
 30
0.0
 10
4.6194067014
 20
4.4218235861
 30
0.0
  0
SPLINE
  5
2F0
100
AcDbEntity
  8
0
100
AcDbSpline
 62
7
  6
CONTINUOUS
 70
0
 71
3
 72
10
 73
6
 74
0
 42
0.0000001
 43
0.0000001
 44
0.0000000001
 40
0.0
 40
0.0
 40
0.0
 40
0.0
 40
0.3673859455
 40
0.7001862308
 40
1.0
 40
1.0
 40
1.0
 40
1.0
 10
4.6157281914
 20
4.4038628872
 30
0.0
 10
4.6167898382
 20
4.4046726833
 30
0.0
 10
4.618695254
 20
4.4063853221
 30
0.0
 10
4.620858675
 20
4.4093440884
 30
0.0
 10
4.6216883673
 20
4.411530021
 30
0.0
 10
4.621906955
 20
4.412597524
 30
0.0
  0
SPLINE
  5
2F1
100
AcDbEntity
  8
0
100
AcDbSpline
 62
7
  6
CONTINUOUS
 70
0
 71
3
 72
10
 73
6
 74
0
 42
0.0000001
 43
0.0000001
 44
0.0000000001
 40
0.0
 40
0.0
 40
0.0
 40
0.0
 40
0.3499683755
 40
0.6830493507
 40
1.0
 40
1.0
 40
1.0
 40
1.0
 10
4.5564876611
 20
4.3382494767
 30
0.0
 10
4.5549869592
 20
4.3394914686
 30
0.0
 10
4.5519728182
 20
4.3418161787
 30
0.0
 10
4.5472999449
 20
4.3448505222
 30
0.0
 10
4.5441110907
 20
4.346571285
 30
0.0
 10
4.5425208447
 20
4.3473351777
 30
0.0
  0
SPLINE
  5
2F2
100
AcDbEntity
  8
0
100
AcDbSpline
 62
7
  6
CONTINUOUS
 70
0
 71
3
 72
10
 73
6
 74
0
 42
0.0000001
 43
0.0000001
 44
0.0000000001
 40
0.0
 40
0.0
 40
0.0
 40
0.0
 40
0.3483224518
 40
0.6815807865
 40
1.0
 40
1.0
 40
1.0
 40
1.0
 10
4.5694479146
 20
4.3249129383
 30
0.0
 10
4.5680898851
 20
4.3265956517
 30
0.0
 10
4.5653395265
 20
4.3298148213
 30
0.0
 10
4.5610222894
 20
4.3342813189
 30
0.0
 10
4.5580087857
 20
4.3369871035
 30
0.0
 10
4.5564876611
 20
4.3382494767
 30
0.0
  0
SPLINE
  5
2F3
100
AcDbEntity
  8
0
100
AcDbSpline
 62
7
  6
CONTINUOUS
 70
0
 71
3
 72
10
 73
6
 74
0
 42
0.0000001
 43
0.0000001
 44
0.0000000001
 40
0.0
 40
0.0
 40
0.0
 40
0.0
 40
0.2993642418
 40
0.6322147716
 40
1.0
 40
1.0
 40
1.0
 40
1.0
 10
4.5655077627
 20
4.3391141757
 30
0.0
 10
4.5654225263
 20
4.3381241826
 30
0.0
 10
4.5655984905
 20
4.3359936465
 30
0.0
 10
4.5667974137
 20
4.33286535
 30
0.0
 10
4.5680795378
 20
4.3309054258
 30
0.0
 10
4.5688305978
 20
4.3299430518
 30
0.0
  0
SPLINE
  5
2F4
100
AcDbEntity
  8
0
100
AcDbSpline
 62
7
  6
CONTINUOUS
 70
0
 71
3
 72
10
 73
6
 74
0
 42
0.0000001
 43
0.0000001
 44
0.0000000001
 40
0.0
 40
0.0
 40
0.0
 40
0.0
 40
0.3703321593
 40
0.70229944
 40
1.0
 40
1.0
 40
1.0
 40
1.0
 10
4.5703352666
 20
4.3469718837
 30
0.0
 10
4.5694073126
 20
4.3462599656
 30
0.0
 10
4.5677618519
 20
4.3447362851
 30
0.0
 10
4.5660739293
 20
4.342020394
 30
0.0
 10
4.5655690575
 20
4.340052374
 30
0.0
 10
4.5655077627
 20
4.3391141757
 30
0.0
  0
SPLINE
  5
2F5
100
AcDbEntity
  8
0
100
AcDbSpline
 62
7
  6
CONTINUOUS
 70
0
 71
3
 72
10
 73
6
 74
0
 42
0.0000001
 43
0.0000001
 44
0.0000000001
 40
0.0
 40
0.0
 40
0.0
 40
0.0
 40
0.3478775441
 40
0.681013139
 40
1.0
 40
1.0
 40
1.0
 40
1.0
 10
4.539216152
 20
4.4267100561
 30
0.0
 10
4.5389526723
 20
4.4271600381
 30
0.0
 10
4.5383962559
 20
4.4280183546
 30
0.0
 10
4.5374504652
 20
4.4291844368
 30
0.0
 10
4.5367575531
 20
4.4298771818
 30
0.0
 10
4.5363999742
 20
4.4301946017
 30
0.0
  0
SPLINE
  5
2F6
100
AcDbEntity
  8
0
100
AcDbSpline
 62
7
  6
CONTINUOUS
 70
0
 71
3
 72
10
 73
6
 74
0
 42
0.0000001
 43
0.0000001
 44
0.0000000001
 40
0.0
 40
0.0
 40
0.0
 40
0.0
 40
0.3247447169
 40
0.6629233672
 40
1.0
 40
1.0
 40
1.0
 40
1.0
 10
4.5408568895
 20
4.4146659859
 30
0.0
 10
4.5412381354
 20
4.4159606054
 30
0.0
 10
4.5416317242
 20
4.4187302427
 30
0.0
 10
4.5410719444
 20
4.4228980166
 30
0.0
 10
4.5399367675
 20
4.4255087822
 30
0.0
 10
4.539216152
 20
4.4267100561
 30
0.0
  0
SPLINE
  5
2F7
100
AcDbEntity
  8
0
100
AcDbSpline
 62
7
  6
CONTINUOUS
 70
0
 71
3
 72
10
 73
6
 74
0
 42
0.0000001
 43
0.0000001
 44
0.0000000001
 40
0.0
 40
0.0
 40
0.0
 40
0.0
 40
0.3480409213
 40
0.6853221056
 40
1.0
 40
1.0
 40
1.0
 40
1.0
 10
4.5331752283
 20
4.4049647476
 30
0.0
 10
4.5344503166
 20
4.4056967405
 30
0.0
 10
4.5368109949
 20
4.4074375983
 30
0.0
 10
4.5394423909
 20
4.4108019122
 30
0.0
 10
4.5405320277
 20
4.4133769707
 30
0.0
 10
4.5408568895
 20
4.4146659859
 30
0.0
  0
SPLINE
  5
2F8
100
AcDbEntity
  8
0
100
AcDbSpline
 62
7
  6
CONTINUOUS
 70
0
 71
3
 72
10
 73
6
 74
0
 42
0.0000001
 43
0.0000001
 44
0.0000000001
 40
0.0
 40
0.0
 40
0.0
 40
0.0
 40
0.3376552264
 40
0.6749469518
 40
1.0
 40
1.0
 40
1.0
 40
1.0
 10
4.5195519806
 20
4.4026589273
 30
0.0
 10
4.5211091966
 20
4.4023547379
 30
0.0
 10
4.524308006
 20
4.4021081524
 30
0.0
 10
4.5289824478
 20
4.4029101606
 30
0.0
 10
4.5318674519
 20
4.4041755929
 30
0.0
 10
4.5331752283
 20
4.4049647476
 30
0.0
  0
SPLINE
  5
2F9
100
AcDbEntity
  8
0
100
AcDbSpline
 62
7
  6
CONTINUOUS
 70
0
 71
3
 72
10
 73
6
 74
0
 42
0.0000001
 43
0.0000001
 44
0.0000000001
 40
0.0
 40
0.0
 40
0.0
 40
0.0
 40
0.365155711
 40
0.6974063922
 40
1.0
 40
1.0
 40
1.0
 40
1.0
 10
4.5059582793
 20
4.4101216278
 30
0.0
 10
4.507331821
 20
4.4087903852
 30
0.0
 10
4.5101480511
 20
4.4064251431
 30
0.0
 10
4.5147804743
 20
4.4039132589
 30
0.0
 10
4.5179898774
 20
4.4029278624
 30
0.0
 10
4.5195519806
 20
4.4026589273
 30
0.0
  0
SPLINE
  5
2FA
100
AcDbEntity
  8
0
100
AcDbSpline
 62
7
  6
CONTINUOUS
 70
0
 71
3
 72
10
 73
6
 74
0
 42
0.0000001
 43
0.0000001
 44
0.0000000001
 40
0.0
 40
0.0
 40
0.0
 40
0.0
 40
0.3094681252
 40
0.6423351094
 40
1.0
 40
1.0
 40
1.0
 40
1.0
 10
4.5170994436
 20
4.4073193685
 30
0.0
 10
4.51590524
 20
4.4073166488
 30
0.0
 10
4.5134231111
 20
4.4075438248
 30
0.0
 10
4.5096677224
 20
4.4084874734
 30
0.0
 10
4.5071988477
 20
4.4095167121
 30
0.0
 10
4.5059582793
 20
4.4101216278
 30
0.0
  0
SPLINE
  5
2FB
100
AcDbEntity
  8
0
100
AcDbSpline
 62
7
  6
CONTINUOUS
 70
0
 71
3
 72
10
 73
6
 74
0
 42
0.0000001
 43
0.0000001
 44
0.0000000001
 40
0.0
 40
0.0
 40
0.0
 40
0.0
 40
0.3395183885
 40
0.6750187568
 40
1.0
 40
1.0
 40
1.0
 40
1.0
 10
4.527345851
 20
4.4101161442
 30
0.0
 10
4.526298437
 20
4.409499937
 30
0.0
 10
4.524105912
 20
4.4084490227
 30
0.0
 10
4.5206338238
 20
4.4075088637
 30
0.0
 10
4.5182625684
 20
4.407306237
 30
0.0
 10
4.5170994436
 20
4.4073193685
 30
0.0
  0
SPLINE
  5
2FC
100
AcDbEntity
  8
0
100
AcDbSpline
 62
7
  6
CONTINUOUS
 70
0
 71
3
 72
10
 73
6
 74
0
 42
0.0000001
 43
0.0000001
 44
0.0000000001
 40
0.0
 40
0.0
 40
0.0
 40
0.0
 40
0.2967698024
 40
0.6290221002
 40
1.0
 40
1.0
 40
1.0
 40
1.0
 10
4.5354051147
 20
4.4196100848
 30
0.0
 10
4.5350929855
 20
4.4183882187
 30
0.0
 10
4.5339664292
 20
4.4159089686
 30
0.0
 10
4.5311795889
 20
4.4126413896
 30
0.0
 10
4.5287096174
 20
4.410906917
 30
0.0
 10
4.527345851
 20
4.4101161442
 30
0.0
  0
SPLINE
  5
2FD
100
AcDbEntity
  8
0
100
AcDbSpline
 62
7
  6
CONTINUOUS
 70
0
 71
3
 72
10
 73
6
 74
0
 42
0.0000001
 43
0.0000001
 44
0.0000000001
 40
0.0
 40
0.0
 40
0.0
 40
0.0
 40
0.3712503189
 40
0.7026461128
 40
1.0
 40
1.0
 40
1.0
 40
1.0
 10
4.5334081247
 20
4.4315317621
 30
0.0
 10
4.5341788964
 20
4.4302052235
 30
0.0
 10
4.5354222907
 20
4.4275419489
 30
0.0
 10
4.5360772105
 20
4.423412576
 30
0.0
 10
4.5357632566
 20
4.4207855642
 30
0.0
 10
4.5354051147
 20
4.4196100848
 30
0.0
  0
SPLINE
  5
2FE
100
AcDbEntity
  8
0
100
AcDbSpline
 62
7
  6
CONTINUOUS
 70
0
 71
3
 72
10
 73
6
 74
0
 42
0.0000001
 43
0.0000001
 44
0.0000000001
 40
0.0
 40
0.0
 40
0.0
 40
0.0
 40
0.3497392785
 40
0.6830325689
 40
1.0
 40
1.0
 40
1.0
 40
1.0
 10
4.5363999742
 20
4.4301946017
 30
0.0
 10
4.5360375906
 20
4.430520748
 30
0.0
 10
4.5352972056
 20
4.4311227181
 30
0.0
 10
4.534122725
 20
4.4318793401
 30
0.0
 10
4.5332992091
 20
4.4322664511
 30
0.0
 10
4.5328867809
 20
4.4324250002
 30
0.0
  0
SPLINE
  5
2FF
100
AcDbEntity
  8
0
100
AcDbSpline
 62
7
  6
CONTINUOUS
 70
0
 71
3
 72
10
 73
6
 74
0
 42
0.0000001
 43
0.0000001
 44
0.0000000001
 40
0.0
 40
0.0
 40
0.0
 40
0.0
 40
0.3081562651
 40
0.6409758324
 40
1.0
 40
1.0
 40
1.0
 40
1.0
 10
4.5097624035
 20
4.4459581528
 30
0.0
 10
4.5117079478
 20
4.4471165952
 30
0.0
 10
4.515980804
 20
4.4491536632
 30
0.0
 10
4.5230262872
 20
4.4513260315
 30
0.0
 10
4.5280785727
 20
4.4520558803
 30
0.0
 10
4.5307070794
 20
4.4522805598
 30
0.0
  0
SPLINE
  5
300
100
AcDbEntity
  8
0
100
AcDbSpline
 62
7
  6
CONTINUOUS
 70
0
 71
3
 72
10
 73
6
 74
0
 42
0.0000001
 43
0.0000001
 44
0.0000000001
 40
0.0
 40
0.0
 40
0.0
 40
0.0
 40
0.3113071336
 40
0.6441300327
 40
1.0
 40
1.0
 40
1.0
 40
1.0
 10
4.4997992354
 20
4.4372348214
 30
0.0
 10
4.5006210629
 20
4.4383464006
 30
0.0
 10
4.5025074928
 20
4.4405114392
 30
0.0
 10
4.505843966
 20
4.4434598235
 30
0.0
 10
4.5084007475
 20
4.4451561722
 30
0.0
 10
4.5097624035
 20
4.4459581528
 30
0.0
  0
SPLINE
  5
301
100
AcDbEntity
  8
0
100
AcDbSpline
 62
7
  6
CONTINUOUS
 70
0
 71
3
 72
10
 73
6
 74
0
 42
0.0000001
 43
0.0000001
 44
0.0000000001
 40
0.0
 40
0.0
 40
0.0
 40
0.0
 40
0.3069680431
 40
0.6395810717
 40
1.0
 40
1.0
 40
1.0
 40
1.0
 10
4.4954147105
 20
4.4267207798
 30
0.0
 10
4.4955377141
 20
4.4278923638
 30
0.0
 10
4.4960635198
 20
4.4303080048
 30
0.0
 10
4.4975274598
 20
4.4338752276
 30
0.0
 10
4.4989744664
 20
4.4361244829
 30
0.0
 10
4.4997992354
 20
4.4372348214
 30
0.0
  0
SPLINE
  5
302
100
AcDbEntity
  8
0
100
AcDbSpline
 62
7
  6
CONTINUOUS
 70
0
 71
3
 72
10
 73
6
 74
0
 42
0.0000001
 43
0.0000001
 44
0.0000000001
 40
0.0
 40
0.0
 40
0.0
 40
0.0
 40
0.3096871951
 40
0.6440618978
 40
1.0
 40
1.0
 40
1.0
 40
1.0
 10
4.4973444501
 20
4.4421973001
 30
0.0
 10
4.4966378703
 20
4.4407263888
 30
0.0
 10
4.4955388841
 20
4.4374836037
 30
0.0
 10
4.4948476917
 20
4.4322274434
 30
0.0
 10
4.4951242796
 20
4.4285736835
 30
0.0
 10
4.4954147105
 20
4.4267207798
 30
0.0
  0
SPLINE
  5
303
100
AcDbEntity
  8
0
100
AcDbSpline
 62
7
  6
CONTINUOUS
 70
0
 71
3
 72
10
 73
6
 74
0
 42
0.0000001
 43
0.0000001
 44
0.0000000001
 40
0.0
 40
0.0
 40
0.0
 40
0.0
 40
0.3310431026
 40
0.6673664357
 40
1.0
 40
1.0
 40
1.0
 40
1.0
 10
4.5074952972
 20
4.4533597742
 30
0.0
 10
4.506030991
 20
4.4525183566
 30
0.0
 10
4.5032483913
 20
4.4505066388
 30
0.0
 10
4.4997930436
 20
4.4467080496
 30
0.0
 10
4.498049361
 20
4.4437409155
 30
0.0
 10
4.4973444501
 20
4.4421973001
 30
0.0
  0
SPLINE
  5
304
100
AcDbEntity
  8
0
100
AcDbSpline
 62
7
  6
CONTINUOUS
 70
0
 71
3
 72
10
 73
6
 74
0
 42
0.0000001
 43
0.0000001
 44
0.0000000001
 40
0.0
 40
0.0
 40
0.0
 40
0.0
 40
0.3682808157
 40
0.7001883982
 40
1.0
 40
1.0
 40
1.0
 40
1.0
 10
4.529735891
 20
4.4580140592
 30
0.0
 10
4.5269138984
 20
4.4581830399
 30
0.0
 10
4.5215033834
 20
4.4581323689
 30
0.0
 10
4.5139539916
 20
4.4565077438
 30
0.0
 10
4.5094661167
 20
4.4545482875
 30
0.0
 10
4.5074952972
 20
4.4533597742
 30
0.0
  0
SPLINE
  5
305
100
AcDbEntity
  8
0
100
AcDbSpline
 62
7
  6
CONTINUOUS
 70
0
 71
3
 72
10
 73
6
 74
0
 42
0.0000001
 43
0.0000001
 44
0.0000000001
 40
0.0
 40
0.0
 40
0.0
 40
0.0
 40
0.3590528098
 40
0.6924007378
 40
1.0
 40
1.0
 40
1.0
 40
1.0
 10
4.5590613163
 20
4.4500114337
 30
0.0
 10
4.5557145567
 20
4.451477611
 30
0.0
 10
4.5491384905
 20
4.4540352
 30
0.0
 10
4.5393391502
 20
4.456849203
 30
0.0
 10
4.5328587151
 20
4.4577989596
 30
0.0
 10
4.529735891
 20
4.4580140592
 30
0.0
  0
SPLINE
  5
306
100
AcDbEntity
  8
0
100
AcDbSpline
 62
7
  6
CONTINUOUS
 70
0
 71
3
 72
10
 73
6
 74
0
 42
0.0000001
 43
0.0000001
 44
0.0000000001
 40
0.0
 40
0.0
 40
0.0
 40
0.0
 40
0.3117444877
 40
0.6451644382
 40
1.0
 40
1.0
 40
1.0
 40
1.0
 10
4.5307070794
 20
4.4522805598
 30
0.0
 10
4.5336625791
 20
4.4525046503
 30
0.0
 10
4.5398116712
 20
4.4526061889
 30
0.0
 10
4.5492918906
 20
4.4517453657
 30
0.0
 10
4.555754029
 20
4.450677449
 30
0.0
 10
4.5590613163
 20
4.4500114337
 30
0.0
  0
SPLINE
  5
307
100
AcDbEntity
  8
0
100
AcDbSpline
 62
7
  6
CONTINUOUS
 70
0
 71
3
 72
10
 73
6
 74
0
 42
0.0000001
 43
0.0000001
 44
0.0000000001
 40
0.0
 40
0.0
 40
0.0
 40
0.0
 40
0.3396674149
 40
0.673120793
 40
1.0
 40
1.0
 40
1.0
 40
1.0
 10
4.5633319216
 20
4.4919367736
 30
0.0
 10
4.5648891545
 20
4.4922606171
 30
0.0
 10
4.567969032
 20
4.4929318706
 30
0.0
 10
4.5725268108
 20
4.4940075981
 30
0.0
 10
4.5755170716
 20
4.4947963983
 30
0.0
 10
4.5769921667
 20
4.4952050985
 30
0.0
  0
SPLINE
  5
308
100
AcDbEntity
  8
0
100
AcDbSpline
 62
7
  6
CONTINUOUS
 70
0
 71
3
 72
10
 73
6
 74
0
 42
0.0000001
 43
0.0000001
 44
0.0000000001
 40
0.0
 40
0.0
 40
0.0
 40
0.0
 40
0.3398795135
 40
0.6732656806
 40
1.0
 40
1.0
 40
1.0
 40
1.0
 10
4.5494800227
 20
4.4895830425
 30
0.0
 10
4.551057602
 20
4.4897976664
 30
0.0
 10
4.5541781939
 20
4.4902559542
 30
0.0
 10
4.558798152
 20
4.4910322687
 30
0.0
 10
4.5618336221
 20
4.4916243054
 30
0.0
 10
4.5633319216
 20
4.4919367736
 30
0.0
  0
SPLINE
  5
309
100
AcDbEntity
  8
0
100
AcDbSpline
 62
7
  6
CONTINUOUS
 70
0
 71
3
 72
10
 73
6
 74
0
 42
0.0000001
 43
0.0000001
 44
0.0000000001
 40
0.0
 40
0.0
 40
0.0
 40
0.0
 40
0.3027709757
 40
0.6367186211
 40
1.0
 40
1.0
 40
1.0
 40
1.0
 10
4.5599250486
 20
4.4859488828
 30
0.0
 10
4.5589907906
 20
4.4863057642
 30
0.0
 10
4.5569062794
 20
4.486774623
 30
0.0
 10
4.5535864645
 20
4.4866254259
 30
0.0
 10
4.5513118143
 20
4.4862339108
 30
0.0
 10
4.5501456039
 20
4.4859512488
 30
0.0
  0
SPLINE
  5
30A
100
AcDbEntity
  8
0
100
AcDbSpline
 62
7
  6
CONTINUOUS
 70
0
 71
3
 72
10
 73
6
 74
0
 42
0.0000001
 43
0.0000001
 44
0.0000000001
 40
0.0
 40
0.0
 40
0.0
 40
0.0
 40
0.3646338816
 40
0.6982644565
 40
1.0
 40
1.0
 40
1.0
 40
1.0
 10
4.5665361929
 20
4.4792656066
 30
0.0
 10
4.5659617119
 20
4.4802738412
 30
0.0
 10
4.5647199732
 20
4.4821254794
 30
0.0
 10
4.5625580601
 20
4.4844912693
 30
0.0
 10
4.5608089452
 20
4.4855736469
 30
0.0
 10
4.5599250486
 20
4.4859488828
 30
0.0
  0
SPLINE
  5
30B
100
AcDbEntity
  8
0
100
AcDbSpline
 62
7
  6
CONTINUOUS
 70
0
 71
3
 72
10
 73
6
 74
0
 42
0.0000001
 43
0.0000001
 44
0.0000000001
 40
0.0
 40
0.0
 40
0.0
 40
0.0
 40
0.3548209859
 40
0.688548406
 40
1.0
 40
1.0
 40
1.0
 40
1.0
 10
4.5567309096
 20
4.4553231989
 30
0.0
 10
4.5599840268
 20
4.4539977972
 30
0.0
 10
4.566381448
 20
4.4516321104
 30
0.0
 10
4.5758691782
 20
4.4487653554
 30
0.0
 10
4.5821695396
 20
4.4476110715
 30
0.0
 10
4.5852301134
 20
4.4472366098
 30
0.0
  0
SPLINE
  5
30C
100
AcDbEntity
  8
0
100
AcDbSpline
 62
7
  6
CONTINUOUS
 70
0
 71
3
 72
10
 73
6
 74
0
 42
0.0000001
 43
0.0000001
 44
0.0000000001
 40
0.0
 40
0.0
 40
0.0
 40
0.0
 40
0.3094419085
 40
0.6435144019
 40
1.0
 40
1.0
 40
1.0
 40
1.0
 10
4.5242059215
 20
4.4647382354
 30
0.0
 10
4.5274784642
 20
4.4643903259
 30
0.0
 10
4.5342464969
 20
4.4632112
 30
0.0
 10
4.5444055276
 20
4.4600184992
 30
0.0
 10
4.5513074383
 20
4.457503281
 30
0.0
 10
4.5548270056
 20
4.4560938008
 30
0.0
  0
SPLINE
  5
30D
100
AcDbEntity
  8
0
100
AcDbSpline
 62
7
  6
CONTINUOUS
 70
0
 71
3
 72
10
 73
6
 74
0
 42
0.0000001
 43
0.0000001
 44
0.0000000001
 40
0.0
 40
0.0
 40
0.0
 40
0.0
 40
0.2998419593
 40
0.631932307
 40
1.0
 40
1.0
 40
1.0
 40
1.0
 10
4.5045953936
 20
4.4608197227
 30
0.0
 10
4.5063301822
 20
4.4618692773
 30
0.0
 10
4.5102914084
 20
4.4635870679
 30
0.0
 10
4.5169560815
 20
4.4649639752
 30
0.0
 10
4.5217246048
 20
4.4649327102
 30
0.0
 10
4.5242059215
 20
4.4647382354
 30
0.0
  0
SPLINE
  5
30E
100
AcDbEntity
  8
0
100
AcDbSpline
 62
7
  6
CONTINUOUS
 70
0
 71
3
 72
10
 73
6
 74
0
 42
0.0000001
 43
0.0000001
 44
0.0000000001
 40
0.0
 40
0.0
 40
0.0
 40
0.0
 40
0.3316885076
 40
0.670600018
 40
1.0
 40
1.0
 40
1.0
 40
1.0
 10
4.4915371145
 20
4.4424872208
 30
0.0
 10
4.4919950432
 20
4.4450072903
 30
0.0
 10
4.4936765307
 20
4.4499974755
 30
0.0
 10
4.4982222637
 20
4.4563693222
 30
0.0
 10
4.5023751844
 20
4.4595783914
 30
0.0
 10
4.5045953936
 20
4.4608197227
 30
0.0
  0
SPLINE
  5
30F
100
AcDbEntity
  8
0
100
AcDbSpline
 62
7
  6
CONTINUOUS
 70
0
 71
3
 72
10
 73
6
 74
0
 42
0.0000001
 43
0.0000001
 44
0.0000000001
 40
0.0
 40
0.0
 40
0.0
 40
0.0
 40
0.3604035351
 40
0.6955652432
 40
1.0
 40
1.0
 40
1.0
 40
1.0
 10
4.4961239758
 20
4.4183243884
 30
0.0
 10
4.4946014719
 20
4.4209286207
 30
0.0
 10
4.4921224941
 20
4.4262677098
 30
0.0
 10
4.4906261668
 20
4.4345835026
 30
0.0
 10
4.4909793958
 20
4.4400008426
 30
0.0
 10
4.4915371145
 20
4.4424872208
 30
0.0
  0
SPLINE
  5
310
100
AcDbEntity
  8
0
100
AcDbSpline
 62
7
  6
CONTINUOUS
 70
0
 71
3
 72
10
 73
6
 74
0
 42
0.0000001
 43
0.0000001
 44
0.0000000001
 40
0.0
 40
0.0
 40
0.0
 40
0.0
 40
0.2983324331
 40
0.6309630849
 40
1.0
 40
1.0
 40
1.0
 40
1.0
 10
4.5143377111
 20
4.4017380851
 30
0.0
 10
4.5120108113
 20
4.4026271681
 30
0.0
 10
4.5073618945
 20
4.4052344817
 30
0.0
 10
4.5010798253
 20
4.4108291479
 30
0.0
 10
4.4976911806
 20
4.4156713812
 30
0.0
 10
4.4961239758
 20
4.4183243884
 30
0.0
  0
SPLINE
  5
311
100
AcDbEntity
  8
0
100
AcDbSpline
 62
7
  6
CONTINUOUS
 70
0
 71
3
 72
11
 73
7
 74
0
 42
0.0000001
 43
0.0000001
 44
0.0000000001
 40
0.0
 40
0.0
 40
0.0
 40
0.0
 40
0.2276417409
 40
0.4728123836
 40
0.7333620318
 40
1.0
 40
1.0
 40
1.0
 40
1.0
 10
4.5346806723
 20
4.4026785244
 30
0.0
 10
4.5333248082
 20
4.4018256054
 30
0.0
 10
4.5302446745
 20
4.4004550138
 30
0.0
 10
4.5251177734
 20
4.3995510346
 30
0.0
 10
4.5196416207
 20
4.3998912461
 30
0.0
 10
4.5160621152
 20
4.4009987286
 30
0.0
 10
4.5143377111
 20
4.4017380851
 30
0.0
  0
SPLINE
  5
312
100
AcDbEntity
  8
0
100
AcDbSpline
 62
7
  6
CONTINUOUS
 70
0
 71
3
 72
10
 73
6
 74
0
 42
0.0000001
 43
0.0000001
 44
0.0000000001
 40
0.0
 40
0.0
 40
0.0
 40
0.0
 40
0.313112059
 40
0.6500796804
 40
1.0
 40
1.0
 40
1.0
 40
1.0
 10
4.5435465498
 20
4.4139046438
 30
0.0
 10
4.543184528
 20
4.4124182582
 30
0.0
 10
4.5419412316
 20
4.4094412212
 30
0.0
 10
4.5389025828
 20
4.4055448077
 30
0.0
 10
4.5361633469
 20
4.4035298049
 30
0.0
 10
4.5346806723
 20
4.4026785244
 30
0.0
  0
SPLINE
  5
313
100
AcDbEntity
  8
0
100
AcDbSpline
 62
7
  6
CONTINUOUS
 70
0
 71
3
 72
10
 73
6
 74
0
 42
0.0000001
 43
0.0000001
 44
0.0000000001
 40
0.0
 40
0.0
 40
0.0
 40
0.0
 40
0.3435499969
 40
0.6813991353
 40
1.0
 40
1.0
 40
1.0
 40
1.0
 10
4.5415237309
 20
4.4278858128
 30
0.0
 10
4.542373645
 20
4.4264613861
 30
0.0
 10
4.5437217218
 20
4.4234099696
 30
0.0
 10
4.544398999
 20
4.4185726729
 30
0.0
 10
4.543976753
 20
4.4153815214
 30
0.0
 10
4.5435465498
 20
4.4139046438
 30
0.0
  0
SPLINE
  5
314
100
AcDbEntity
  8
0
100
AcDbSpline
 62
7
  6
CONTINUOUS
 70
0
 71
3
 72
10
 73
6
 74
0
 42
0.0000001
 43
0.0000001
 44
0.0000000001
 40
0.0
 40
0.0
 40
0.0
 40
0.0
 40
0.3209641277
 40
0.6552274669
 40
1.0
 40
1.0
 40
1.0
 40
1.0
 10
4.5363482692
 20
4.4336754752
 30
0.0
 10
4.5370267377
 20
4.4331866343
 30
0.0
 10
4.5383360047
 20
4.4320803698
 30
0.0
 10
4.5400824725
 20
4.4301367393
 30
0.0
 10
4.5410710881
 20
4.4286616929
 30
0.0
 10
4.5415237309
 20
4.4278858128
 30
0.0
  0
SPLINE
  5
315
100
AcDbEntity
  8
0
100
AcDbSpline
 62
7
  6
CONTINUOUS
 70
0
 71
3
 72
10
 73
6
 74
0
 42
0.0000001
 43
0.0000001
 44
0.0000000001
 40
0.0
 40
0.0
 40
0.0
 40
0.0
 40
0.3431393427
 40
0.6775449157
 40
1.0
 40
1.0
 40
1.0
 40
1.0
 10
4.529290992
 20
4.436827149
 30
0.0
 10
4.5301597695
 20
4.4366349406
 30
0.0
 10
4.5318540482
 20
4.436145806
 30
0.0
 10
4.5342262556
 20
4.4350799127
 30
0.0
 10
4.535675528
 20
4.434172029
 30
0.0
 10
4.5363482692
 20
4.4336754752
 30
0.0
  0
SPLINE
  5
316
100
AcDbEntity
  8
0
100
AcDbSpline
 62
7
  6
CONTINUOUS
 70
0
 71
3
 72
10
 73
6
 74
0
 42
0.0000001
 43
0.0000001
 44
0.0000000001
 40
0.0
 40
0.0
 40
0.0
 40
0.0
 40
0.3571085648
 40
0.6946755618
 40
1.0
 40
1.0
 40
1.0
 40
1.0
 10
4.5307143442
 20
4.4234328635
 30
0.0
 10
4.5311326646
 20
4.4245094369
 30
0.0
 10
4.5316984311
 20
4.4267231117
 30
0.0
 10
4.5314800377
 20
4.429998798
 30
0.0
 10
4.530706754
 20
4.4319772412
 30
0.0
 10
4.5301800082
 20
4.4328125293
 30
0.0
  0
SPLINE
  5
317
100
AcDbEntity
  8
0
100
AcDbSpline
 62
7
  6
CONTINUOUS
 70
0
 71
3
 72
10
 73
6
 74
0
 42
0.0000001
 43
0.0000001
 44
0.0000000001
 40
0.0
 40
0.0
 40
0.0
 40
0.0
 40
0.3663835179
 40
0.6985000607
 40
1.0
 40
1.0
 40
1.0
 40
1.0
 10
4.5231862624
 20
4.4150445997
 30
0.0
 10
4.524396303
 20
4.4157520387
 30
0.0
 10
4.5266059518
 20
4.4172969372
 30
0.0
 10
4.5291654267
 20
4.4201827054
 30
0.0
 10
4.5303253936
 20
4.4223469782
 30
0.0
 10
4.5307143442
 20
4.4234328635
 30
0.0
  0
SPLINE
  5
318
100
AcDbEntity
  8
0
100
AcDbSpline
 62
7
  6
CONTINUOUS
 70
0
 71
3
 72
10
 73
6
 74
0
 42
0.0000001
 43
0.0000001
 44
0.0000000001
 40
0.0
 40
0.0
 40
0.0
 40
0.0
 40
0.3092705153
 40
0.6448679129
 40
1.0
 40
1.0
 40
1.0
 40
1.0
 10
4.5097069242
 20
4.4124560803
 30
0.0
 10
4.51112046
 20
4.4121639054
 30
0.0
 10
4.5141647894
 20
4.4119897655
 30
0.0
 10
4.518796497
 20
4.4128435928
 30
0.0
 10
4.521755636
 20
4.4142076529
 30
0.0
 10
4.5231862624
 20
4.4150445997
 30
0.0
  0
SPLINE
  5
319
100
AcDbEntity
  8
0
100
AcDbSpline
 62
7
  6
CONTINUOUS
 70
0
 71
3
 72
10
 73
6
 74
0
 42
0.0000001
 43
0.0000001
 44
0.0000000001
 40
0.0
 40
0.0
 40
0.0
 40
0.0
 40
0.3117613228
 40
0.6495030533
 40
1.0
 40
1.0
 40
1.0
 40
1.0
 10
4.4995695773
 20
4.4193089796
 30
0.0
 10
4.5001986304
 20
4.4181599994
 30
0.0
 10
4.5019359033
 20
4.4159877366
 30
0.0
 10
4.5054495527
 20
4.4135789021
 30
0.0
 10
4.5082569365
 20
4.4127135132
 30
0.0
 10
4.5097069242
 20
4.4124560803
 30
0.0
  0
SPLINE
  5
31A
100
AcDbEntity
  8
0
100
AcDbSpline
 62
7
  6
CONTINUOUS
 70
0
 71
3
 72
10
 73
6
 74
0
 42
0.0000001
 43
0.0000001
 44
0.0000000001
 40
0.0
 40
0.0
 40
0.0
 40
0.0
 40
0.3614894431
 40
0.6991281511
 40
1.0
 40
1.0
 40
1.0
 40
1.0
 10
4.4994471726
 20
4.4317060419
 30
0.0
 10
4.4987663196
 20
4.4303094426
 30
0.0
 10
4.4977792901
 20
4.4274078627
 30
0.0
 10
4.4978720703
 20
4.4230311195
 30
0.0
 10
4.4988664291
 20
4.4203942897
 30
0.0
 10
4.4995695773
 20
4.4193089796
 30
0.0
  0
SPLINE
  5
31B
100
AcDbEntity
  8
0
100
AcDbSpline
 62
7
  6
CONTINUOUS
 70
0
 71
3
 72
10
 73
6
 74
0
 42
0.0000001
 43
0.0000001
 44
0.0000000001
 40
0.0
 40
0.0
 40
0.0
 40
0.0
 40
0.3667166384
 40
0.6994579944
 40
1.0
 40
1.0
 40
1.0
 40
1.0
 10
4.5112147195
 20
4.4434698452
 30
0.0
 10
4.5094305764
 20
4.4424364965
 30
0.0
 10
4.5061559603
 20
4.4402219202
 30
0.0
 10
4.5021149293
 20
4.4362646265
 30
0.0
 10
4.5001611765
 20
4.433237514
 30
0.0
 10
4.4994471726
 20
4.4317060419
 30
0.0
  0
SPLINE
  5
31C
100
AcDbEntity
  8
0
100
AcDbSpline
 62
7
  6
CONTINUOUS
 70
0
 71
3
 72
10
 73
6
 74
0
 42
0.0000001
 43
0.0000001
 44
0.0000000001
 40
0.0
 40
0.0
 40
0.0
 40
0.0
 40
0.3455131939
 40
0.6791454474
 40
1.0
 40
1.0
 40
1.0
 40
1.0
 10
4.5249434656
 20
4.4488045748
 30
0.0
 10
4.5232829863
 20
4.4484294362
 30
0.0
 10
4.5200497711
 20
4.4475416101
 30
0.0
 10
4.515453734
 20
4.4457447951
 30
0.0
 10
4.5125779228
 20
4.4442702945
 30
0.0
 10
4.5112147195
 20
4.4434698452
 30
0.0
  0
SPLINE
  5
31D
100
AcDbEntity
  8
0
100
AcDbSpline
 62
7
  6
CONTINUOUS
 70
0
 71
3
 72
10
 73
6
 74
0
 42
0.0000001
 43
0.0000001
 44
0.0000000001
 40
0.0
 40
0.0
 40
0.0
 40
0.0
 40
0.3495234225
 40
0.6827418356
 40
1.0
 40
1.0
 40
1.0
 40
1.0
 10
4.5402284243
 20
4.4498448419
 30
0.0
 10
4.5384424282
 20
4.4499754549
 30
0.0
 10
4.5349396066
 20
4.4500829332
 30
0.0
 10
4.5298214164
 20
4.4497212754
 30
0.0
 10
4.5265283702
 20
4.4491653874
 30
0.0
 10
4.5249434656
 20
4.4488045748
 30
0.0
  0
SPLINE
  5
31E
100
AcDbEntity
  8
0
100
AcDbSpline
 62
7
  6
CONTINUOUS
 70
0
 71
3
 72
10
 73
6
 74
0
 42
0.0000001
 43
0.0000001
 44
0.0000000001
 40
0.0
 40
0.0
 40
0.0
 40
0.0
 40
0.3422679909
 40
0.6759289336
 40
1.0
 40
1.0
 40
1.0
 40
1.0
 10
4.5618370626
 20
4.4470082609
 30
0.0
 10
4.5593846721
 20
4.4474226279
 30
0.0
 10
4.5545320788
 20
4.448184463
 30
0.0
 10
4.5473332254
 20
4.449181876
 30
0.0
 10
4.5425755798
 20
4.4496537731
 30
0.0
 10
4.5402284243
 20
4.4498448419
 30
0.0
  0
LINE
  5
31F
100
AcDbEntity
  8
0
100
AcDbLine
 62
7
  6
CONTINUOUS
 10
4.579672552
 20
4.444191036
 11
4.5618370626
 21
4.4470082609
  0
SPLINE
  5
320
100
AcDbEntity
  8
0
100
AcDbSpline
 62
7
  6
CONTINUOUS
 70
0
 71
3
 72
10
 73
6
 74
0
 42
0.0000001
 43
0.0000001
 44
0.0000000001
 40
0.0
 40
0.0
 40
0.0
 40
0.0
 40
0.3269010246
 40
0.6604613417
 40
1.0
 40
1.0
 40
1.0
 40
1.0
 10
4.597142846
 20
4.4422143034
 30
0.0
 10
4.5952330239
 20
4.4423688017
 30
0.0
 10
4.5913777238
 20
4.4427242329
 30
0.0
 10
4.5855563128
 20
4.4434096127
 30
0.0
 10
4.5816439624
 20
4.4439186867
 30
0.0
 10
4.579672552
 20
4.444191036
 30
0.0
  0
SPLINE
  5
321
100
AcDbEntity
  8
0
100
AcDbSpline
 62
7
  6
CONTINUOUS
 70
0
 71
3
 72
10
 73
6
 74
0
 42
0.0000001
 43
0.0000001
 44
0.0000000001
 40
0.0
 40
0.0
 40
0.0
 40
0.0
 40
0.3220573857
 40
0.656001036
 40
1.0
 40
1.0
 40
1.0
 40
1.0
 10
4.6081238682
 20
4.4418659838
 30
0.0
 10
4.606945029
 20
4.4418101955
 30
0.0
 10
4.6045392914
 20
4.4417660776
 30
0.0
 10
4.6008783651
 20
4.4419518512
 30
0.0
 10
4.5983993492
 20
4.4421132272
 30
0.0
 10
4.597142846
 20
4.4422143034
 30
0.0
  0
SPLINE
  5
322
100
AcDbEntity
  8
0
100
AcDbSpline
 62
7
  6
CONTINUOUS
 70
0
 71
3
 72
10
 73
6
 74
0
 42
0.0000001
 43
0.0000001
 44
0.0000000001
 40
0.0
 40
0.0
 40
0.0
 40
0.0
 40
0.3581194074
 40
0.6909541933
 40
1.0
 40
1.0
 40
1.0
 40
1.0
 10
4.516210332
 20
4.4969686771
 30
0.0
 10
4.5191768005
 20
4.4981869168
 30
0.0
 10
4.5247998467
 20
4.5008023531
 30
0.0
 10
4.5324462258
 20
4.5054979353
 30
0.0
 10
4.5369636106
 20
4.5090835588
 30
0.0
 10
4.5389987304
 20
4.5109589166
 30
0.0
  0
SPLINE
  5
323
100
AcDbEntity
  8
0
100
AcDbSpline
 62
7
  6
CONTINUOUS
 70
0
 71
3
 72
10
 73
6
 74
0
 42
0.0000001
 43
0.0000001
 44
0.0000000001
 40
0.0
 40
0.0
 40
0.0
 40
0.0
 40
0.3084585186
 40
0.6414348976
 40
1.0
 40
1.0
 40
1.0
 40
1.0
 10
4.4894007773
 20
4.4906685176
 30
0.0
 10
4.4922439313
 20
4.4907640073
 30
0.0
 10
4.4981462751
 20
4.4914100358
 30
0.0
 10
4.507133894
 20
4.4935598806
 30
0.0
 10
4.513150387
 20
4.4957148463
 30
0.0
 10
4.516210332
 20
4.4969686771
 30
0.0
  0
SPLINE
  5
324
100
AcDbEntity
  8
0
100
AcDbSpline
 62
7
  6
CONTINUOUS
 70
0
 71
3
 72
10
 73
6
 74
0
 42
0.0000001
 43
0.0000001
 44
0.0000000001
 40
0.0
 40
0.0
 40
0.0
 40
0.0
 40
0.3042809546
 40
0.6365121756
 40
1.0
 40
1.0
 40
1.0
 40
1.0
 10
4.4669342478
 20
4.4950771183
 30
0.0
 10
4.4690291173
 20
4.4940270672
 30
0.0
 10
4.4736440869
 20
4.492286217
 30
0.0
 10
4.4812213906
 20
4.4907457692
 30
0.0
 10
4.4866028044
 20
4.490583438
 30
0.0
 10
4.4894007773
 20
4.4906685176
 30
0.0
  0
SPLINE
  5
325
100
AcDbEntity
  8
0
100
AcDbSpline
 62
7
  6
CONTINUOUS
 70
0
 71
3
 72
10
 73
6
 74
0
 42
0.0000001
 43
0.0000001
 44
0.0000000001
 40
0.0
 40
0.0
 40
0.0
 40
0.0
 40
0.3569731285
 40
0.6900027227
 40
1.0
 40
1.0
 40
1.0
 40
1.0
 10
4.4854793015
 20
4.4954045751
 30
0.0
 10
4.4832983538
 20
4.4949999658
 30
0.0
 10
4.4790407732
 20
4.4944178961
 30
0.0
 10
4.4728146705
 20
4.4942823661
 30
0.0
 10
4.4688270672
 20
4.4947197336
 30
0.0
 10
4.4669342478
 20
4.4950771183
 30
0.0
  0
SPLINE
  5
326
100
AcDbEntity
  8
0
100
AcDbSpline
 62
7
  6
CONTINUOUS
 70
0
 71
3
 72
10
 73
6
 74
0
 42
0.0000001
 43
0.0000001
 44
0.0000000001
 40
0.0
 40
0.0
 40
0.0
 40
0.0
 40
0.3502876571
 40
0.6839980885
 40
1.0
 40
1.0
 40
1.0
 40
1.0
 10
4.5096449581
 20
4.5030618653
 30
0.0
 10
4.5069052347
 20
4.5019301475
 30
0.0
 10
4.5014983929
 20
4.4998580067
 30
0.0
 10
4.4934604178
 20
4.497193795
 30
0.0
 10
4.4881045816
 20
4.4959133553
 30
0.0
 10
4.4854793015
 20
4.4954045751
 30
0.0
  0
SPLINE
  5
327
100
AcDbEntity
  8
0
100
AcDbSpline
 62
7
  6
CONTINUOUS
 70
0
 71
3
 72
10
 73
6
 74
0
 42
0.0000001
 43
0.0000001
 44
0.0000000001
 40
0.0
 40
0.0
 40
0.0
 40
0.0
 40
0.3176106353
 40
0.6511909168
 40
1.0
 40
1.0
 40
1.0
 40
1.0
 10
4.5362000146
 20
4.5162085414
 30
0.0
 10
4.5335319668
 20
4.5145521952
 30
0.0
 10
4.527938906
 20
4.5113490372
 30
0.0
 10
4.51903434
 20
4.5070404124
 30
0.0
 10
4.512840203
 20
4.5043599337
 30
0.0
 10
4.5096449581
 20
4.5030618653
 30
0.0
  0
SPLINE
  5
328
100
AcDbEntity
  8
0
100
AcDbSpline
 62
7
  6
CONTINUOUS
 70
0
 71
3
 72
10
 73
6
 74
0
 42
0.0000001
 43
0.0000001
 44
0.0000000001
 40
0.0
 40
0.0
 40
0.0
 40
0.0
 40
0.3094867674
 40
0.6429624544
 40
1.0
 40
1.0
 40
1.0
 40
1.0
 10
4.5523140778
 20
4.529868326
 30
0.0
 10
4.5509554285
 20
4.5281523689
 30
0.0
 10
4.5478565561
 20
4.5247982255
 30
0.0
 10
4.542381288
 20
4.5203009323
 30
0.0
 10
4.5383436441
 20
4.5175428643
 30
0.0
 10
4.5362000146
 20
4.5162085414
 30
0.0
  0
SPLINE
  5
329
100
AcDbEntity
  8
0
100
AcDbSpline
 62
7
  6
CONTINUOUS
 70
0
 71
3
 72
10
 73
6
 74
0
 42
0.0000001
 43
0.0000001
 44
0.0000000001
 40
0.0
 40
0.0
 40
0.0
 40
0.0
 40
0.362791863
 40
0.6952626166
 40
1.0
 40
1.0
 40
1.0
 40
1.0
 10
4.5389987304
 20
4.5109589166
 30
0.0
 10
4.5410742399
 20
4.5128681273
 30
0.0
 10
4.5448479848
 20
4.5167689333
 30
0.0
 10
4.5493153296
 20
4.5231651787
 30
0.0
 10
4.5514958758
 20
4.5276453163
 30
0.0
 10
4.5523140778
 20
4.529868326
 30
0.0
  0
SPLINE
  5
32A
100
AcDbEntity
  8
0
100
AcDbSpline
 62
7
  6
CONTINUOUS
 70
0
 71
3
 72
10
 73
6
 74
0
 42
0.0000001
 43
0.0000001
 44
0.0000000001
 40
0.0
 40
0.0
 40
0.0
 40
0.0
 40
0.3448743725
 40
0.6786451541
 40
1.0
 40
1.0
 40
1.0
 40
1.0
 10
4.5066195257
 20
4.5500378179
 30
0.0
 10
4.5089708139
 20
4.5510067573
 30
0.0
 10
4.5136278075
 20
4.5528399596
 30
0.0
 10
4.5205546404
 20
4.5553743039
 30
0.0
 10
4.5251791562
 20
4.556781768
 30
0.0
 10
4.5274630913
 20
4.5574134324
 30
0.0
  0
SPLINE
  5
32B
100
AcDbEntity
  8
0
100
AcDbSpline
 62
7
  6
CONTINUOUS
 70
0
 71
3
 72
10
 73
6
 74
0
 42
0.0000001
 43
0.0000001
 44
0.0000000001
 40
0.0
 40
0.0
 40
0.0
 40
0.0
 40
0.3232026495
 40
0.6569667616
 40
1.0
 40
1.0
 40
1.0
 40
1.0
 10
4.4711738767
 20
4.53425066
 30
0.0
 10
4.4749123462
 20
4.536123331
 30
0.0
 10
4.4825749782
 20
4.5398057758
 30
0.0
 10
4.4944367081
 20
4.5449731343
 30
0.0
 10
4.5025105107
 20
4.5483614343
 30
0.0
 10
4.5066195257
 20
4.5500378179
 30
0.0
  0
SPLINE
  5
32C
100
AcDbEntity
  8
0
100
AcDbSpline
 62
7
  6
CONTINUOUS
 70
0
 71
3
 72
10
 73
6
 74
0
 42
0.0000001
 43
0.0000001
 44
0.0000000001
 40
0.0
 40
0.0
 40
0.0
 40
0.0
 40
0.308770601
 40
0.643016931
 40
1.0
 40
1.0
 40
1.0
 40
1.0
 10
4.4552356254
 20
4.5236551454
 30
0.0
 10
4.4566234856
 20
4.5250636408
 30
0.0
 10
4.4597627381
 20
4.5277676062
 30
0.0
 10
4.4652625435
 20
4.5310723837
 30
0.0
 10
4.4691359619
 20
4.5332146615
 30
0.0
 10
4.4711738767
 20
4.53425066
 30
0.0
  0
SPLINE
  5
32D
100
AcDbEntity
  8
0
100
AcDbSpline
 62
7
  6
CONTINUOUS
 70
0
 71
3
 72
10
 73
6
 74
0
 42
0.0000001
 43
0.0000001
 44
0.0000000001
 40
0.0
 40
0.0
 40
0.0
 40
0.0
 40
0.3497495635
 40
0.683803093
 40
1.0
 40
1.0
 40
1.0
 40
1.0
 10
4.4686522432
 20
4.5400465683
 30
0.0
 10
4.4667074942
 20
4.538495145
 30
0.0
 10
4.46308994
 20
4.5352137145
 30
0.0
 10
4.4585912515
 20
4.5296735197
 30
0.0
 10
4.4562157943
 20
4.5256794314
 30
0.0
 10
4.4552356254
 20
4.5236551454
 30
0.0
  0
SPLINE
  5
32E
100
AcDbEntity
  8
0
100
AcDbSpline
 62
7
  6
CONTINUOUS
 70
0
 71
3
 72
10
 73
6
 74
0
 42
0.0000001
 43
0.0000001
 44
0.0000000001
 40
0.0
 40
0.0
 40
0.0
 40
0.0
 40
0.355063554
 40
0.6886101623
 40
1.0
 40
1.0
 40
1.0
 40
1.0
 10
4.4930649739
 20
4.5535094088
 30
0.0
 10
4.4899993302
 20
4.552264235
 30
0.0
 10
4.4841366314
 20
4.5496418349
 30
0.0
 10
4.4759047493
 20
4.5452489849
 30
0.0
 10
4.4709385928
 20
4.541833595
 30
0.0
 10
4.4686522432
 20
4.5400465683
 30
0.0
  0
SPLINE
  5
32F
100
AcDbEntity
  8
0
100
AcDbSpline
 62
7
  6
CONTINUOUS
 70
0
 71
3
 72
10
 73
6
 74
0
 42
0.0000001
 43
0.0000001
 44
0.0000000001
 40
0.0
 40
0.0
 40
0.0
 40
0.0
 40
0.3113856949
 40
0.6451649245
 40
1.0
 40
1.0
 40
1.0
 40
1.0
 10
4.5205382133
 20
4.5614460161
 30
0.0
 10
4.5175852083
 20
4.5610771153
 30
0.0
 10
4.5115064179
 20
4.5599415932
 30
0.0
 10
4.5023637016
 20
4.5571197126
 30
0.0
 10
4.4961989198
 20
4.5548050509
 30
0.0
 10
4.4930649739
 20
4.5535094088
 30
0.0
  0
SPLINE
  5
330
100
AcDbEntity
  8
0
100
AcDbSpline
 62
7
  6
CONTINUOUS
 70
0
 71
3
 72
10
 73
6
 74
0
 42
0.0000001
 43
0.0000001
 44
0.0000000001
 40
0.0
 40
0.0
 40
0.0
 40
0.0
 40
0.3035483983
 40
0.636169383
 40
1.0
 40
1.0
 40
1.0
 40
1.0
 10
4.5403355849
 20
4.5591300356
 30
0.0
 10
4.5384632294
 20
4.559931385
 30
0.0
 10
4.534345755
 20
4.5611732554
 30
0.0
 10
4.5276523598
 20
4.5619505351
 30
0.0
 10
4.522964131
 20
4.5617177775
 30
0.0
 10
4.5205382133
 20
4.5614460161
 30
0.0
  0
SPLINE
  5
331
100
AcDbEntity
  8
0
100
AcDbSpline
 62
7
  6
CONTINUOUS
 70
0
 71
3
 72
10
 73
6
 74
0
 42
0.0000001
 43
0.0000001
 44
0.0000000001
 40
0.0
 40
0.0
 40
0.0
 40
0.0
 40
0.3538978994
 40
0.6877750943
 40
1.0
 40
1.0
 40
1.0
 40
1.0
 10
4.5274630913
 20
4.5574134324
 30
0.0
 10
4.5289470065
 20
4.5578171713
 30
0.0
 10
4.5318619023
 20
4.5584873051
 30
0.0
 10
4.5361613337
 20
4.5591687078
 30
0.0
 10
4.5389811444
 20
4.559209494
 30
0.0
 10
4.5403355849
 20
4.5591300356
 30
0.0
  0
SPLINE
  5
332
100
AcDbEntity
  8
0
100
AcDbSpline
 62
7
  6
CONTINUOUS
 70
0
 71
3
 72
10
 73
6
 74
0
 42
0.0000001
 43
0.0000001
 44
0.0000000001
 40
0.0
 40
0.0
 40
0.0
 40
0.0
 40
0.3711633091
 40
0.7029735155
 40
1.0
 40
1.0
 40
1.0
 40
1.0
 10
4.5103890118
 20
4.5111893128
 30
0.0
 10
4.5153373604
 20
4.5132833071
 30
0.0
 10
4.5246118063
 20
4.5174583926
 30
0.0
 10
4.5379594519
 20
4.5231346572
 30
0.0
 10
4.5455749916
 20
4.5282464177
 30
0.0
 10
4.5489168403
 20
4.5309522255
 30
0.0
  0
SPLINE
  5
333
100
AcDbEntity
  8
0
100
AcDbSpline
 62
7
  6
CONTINUOUS
 70
0
 71
3
 72
10
 73
6
 74
0
 42
0.0000001
 43
0.0000001
 44
0.0000000001
 40
0.0
 40
0.0
 40
0.0
 40
0.0
 40
0.3013771358
 40
0.6343660181
 40
1.0
 40
1.0
 40
1.0
 40
1.0
 10
4.4689940938
 20
4.4982352716
 30
0.0
 10
4.4733425216
 20
4.4986710325
 30
0.0
 10
4.4824501074
 20
4.5003861434
 30
0.0
 10
4.4959590344
 20
4.5057366334
 30
0.0
 10
4.5054578178
 20
4.5092414049
 30
0.0
 10
4.5103890118
 20
4.5111893128
 30
0.0
  0
SPLINE
  5
334
100
AcDbEntity
  8
0
100
AcDbSpline
 62
7
  6
CONTINUOUS
 70
0
 71
3
 72
11
 73
7
 74
0
 42
0.0000001
 43
0.0000001
 44
0.0000000001
 40
0.0
 40
0.0
 40
0.0
 40
0.0
 40
0.2603620601
 40
0.4979661879
 40
0.7359787797
 40
1.0
 40
1.0
 40
1.0
 40
1.0
 10
4.455230037
 20
4.5072886818
 30
0.0
 10
4.4558061186
 20
4.5058752254
 30
0.0
 10
4.4572180167
 20
4.5032708121
 30
0.0
 10
4.4604149521
 20
4.5002499511
 30
0.0
 10
4.4644782638
 20
4.4985193535
 30
0.0
 10
4.4674463189
 20
4.4982271104
 30
0.0
 10
4.4689940938
 20
4.4982352716
 30
0.0
  0
SPLINE
  5
335
100
AcDbEntity
  8
0
100
AcDbSpline
 62
7
  6
CONTINUOUS
 70
0
 71
3
 72
10
 73
6
 74
0
 42
0.0000001
 43
0.0000001
 44
0.0000000001
 40
0.0
 40
0.0
 40
0.0
 40
0.0
 40
0.3134711337
 40
0.6501051226
 40
1.0
 40
1.0
 40
1.0
 40
1.0
 10
4.4549234475
 20
4.5178397794
 30
0.0
 10
4.4545058756
 20
4.516792409
 30
0.0
 10
4.453964539
 20
4.5144833189
 30
0.0
 10
4.4540483836
 20
4.5108506638
 30
0.0
 10
4.4547491483
 20
4.5084517428
 30
0.0
 10
4.455230037
 20
4.5072886818
 30
0.0
  0
SPLINE
  5
336
100
AcDbEntity
  8
0
100
AcDbSpline
 62
7
  6
CONTINUOUS
 70
0
 71
3
 72
10
 73
6
 74
0
 42
0.0000001
 43
0.0000001
 44
0.0000000001
 40
0.0
 40
0.0
 40
0.0
 40
0.0
 40
0.3645111158
 40
0.6967651541
 40
1.0
 40
1.0
 40
1.0
 40
1.0
 10
4.4623832261
 20
4.5266919392
 30
0.0
 10
4.4611906992
 20
4.5259060241
 30
0.0
 10
4.4590158718
 20
4.5242208541
 30
0.0
 10
4.4564930011
 20
4.521187578
 30
0.0
 10
4.4553274186
 20
4.5189571139
 30
0.0
 10
4.4549234475
 20
4.5178397794
 30
0.0
  0
SPLINE
  5
337
100
AcDbEntity
  8
0
100
AcDbSpline
 62
7
  6
CONTINUOUS
 70
0
 71
3
 72
10
 73
6
 74
0
 42
0.0000001
 43
0.0000001
 44
0.0000000001
 40
0.0
 40
0.0
 40
0.0
 40
0.0
 40
0.345114707
 40
0.6790832306
 40
1.0
 40
1.0
 40
1.0
 40
1.0
 10
4.4772379864
 20
4.5344563205
 30
0.0
 10
4.4754851533
 20
4.5336499039
 30
0.0
 10
4.4720615086
 20
4.5320088466
 30
0.0
 10
4.4670609334
 20
4.5295047276
 30
0.0
 10
4.4639023411
 20
4.5276465491
 30
0.0
 10
4.4623832261
 20
4.5266919392
 30
0.0
  0
SPLINE
  5
338
100
AcDbEntity
  8
0
100
AcDbSpline
 62
7
  6
CONTINUOUS
 70
0
 71
3
 72
10
 73
6
 74
0
 42
0.0000001
 43
0.0000001
 44
0.0000000001
 40
0.0
 40
0.0
 40
0.0
 40
0.0
 40
0.3389994263
 40
0.6724561142
 40
1.0
 40
1.0
 40
1.0
 40
1.0
 10
4.5039631548
 20
4.545996875
 30
0.0
 10
4.5009179104
 20
4.5447524234
 30
0.0
 10
4.4948928295
 20
4.5422456034
 30
0.0
 10
4.4859744048
 20
4.5384195563
 30
0.0
 10
4.480125292
 20
4.5357854509
 30
0.0
 10
4.4772379864
 20
4.5344563205
 30
0.0
  0
SPLINE
  5
339
100
AcDbEntity
  8
0
100
AcDbSpline
 62
7
  6
CONTINUOUS
 70
0
 71
3
 72
10
 73
6
 74
0
 42
0.0000001
 43
0.0000001
 44
0.0000000001
 40
0.0
 40
0.0
 40
0.0
 40
0.0
 40
0.3037941723
 40
0.6376709702
 40
1.0
 40
1.0
 40
1.0
 40
1.0
 10
4.5386455672
 20
4.5560434585
 30
0.0
 10
4.5349836495
 20
4.5557976444
 30
0.0
 10
4.5273177497
 20
4.554594963
 30
0.0
 10
4.5159057451
 20
4.5505562773
 30
0.0
 10
4.5080201401
 20
4.5476405974
 30
0.0
 10
4.5039631548
 20
4.545996875
 30
0.0
  0
SPLINE
  5
33A
100
AcDbEntity
  8
0
100
AcDbSpline
 62
7
  6
CONTINUOUS
 70
0
 71
3
 72
11
 73
7
 74
0
 42
0.0000001
 43
0.0000001
 44
0.0000000001
 40
0.0
 40
0.0
 40
0.0
 40
0.0
 40
0.2609769122
 40
0.4985371782
 40
0.7363518687
 40
1.0
 40
1.0
 40
1.0
 40
1.0
 10
4.5523132738
 20
4.5470304081
 30
0.0
 10
4.5517390973
 20
4.548438347
 30
0.0
 10
4.5503364959
 20
4.5510304634
 30
0.0
 10
4.547161678
 20
4.5540383758
 30
0.0
 10
4.5431281907
 20
4.555760957
 30
0.0
 10
4.5401816245
 20
4.556051748
 30
0.0
 10
4.5386455672
 20
4.5560434585
 30
0.0
  0
SPLINE
  5
33B
100
AcDbEntity
  8
0
100
AcDbSpline
 62
7
  6
CONTINUOUS
 70
0
 71
3
 72
11
 73
7
 74
0
 42
0.0000001
 43
0.0000001
 44
0.0000000001
 40
0.0
 40
0.0
 40
0.0
 40
0.0
 40
0.2645268413
 40
0.5026524242
 40
0.7390318194
 40
1.0
 40
1.0
 40
1.0
 40
1.0
 10
4.5489168403
 20
4.5309522255
 30
0.0
 10
4.5500254227
 20
4.5320316053
 30
0.0
 10
4.5519337672
 20
4.534321113
 30
0.0
 10
4.5535890898
 20
4.5384033271
 30
0.0
 10
4.5537183938
 20
4.5427856892
 30
0.0
 10
4.552893317
 20
4.5456184642
 30
0.0
 10
4.5523132738
 20
4.5470304081
 30
0.0
  0
SPLINE
  5
33C
100
AcDbEntity
  8
0
100
AcDbSpline
 62
7
  6
CONTINUOUS
 70
0
 71
3
 72
10
 73
6
 74
0
 42
0.0000001
 43
0.0000001
 44
0.0000000001
 40
0.0
 40
0.0
 40
0.0
 40
0.0
 40
0.3122573169
 40
0.6454215998
 40
1.0
 40
1.0
 40
1.0
 40
1.0
 10
4.4593668503
 20
4.5372082102
 30
0.0
 10
4.4604722699
 20
4.5387621564
 30
0.0
 10
4.4629721985
 20
4.5418251192
 30
0.0
 10
4.467360083
 20
4.5460874925
 30
0.0
 10
4.4706454275
 20
4.5487152606
 30
0.0
 10
4.4723917041
 20
4.5499958099
 30
0.0
  0
SPLINE
  5
33D
100
AcDbEntity
  8
0
100
AcDbSpline
 62
7
  6
CONTINUOUS
 70
0
 71
3
 72
10
 73
6
 74
0
 42
0.0000001
 43
0.0000001
 44
0.0000000001
 40
0.0
 40
0.0
 40
0.0
 40
0.0
 40
0.3080626572
 40
0.6411499829
 40
1.0
 40
1.0
 40
1.0
 40
1.0
 10
4.4517383342
 20
4.5209337715
 30
0.0
 10
4.4521212854
 20
4.5227509836
 30
0.0
 10
4.4532547179
 20
4.5264673964
 30
0.0
 10
4.4558639636
 20
4.5319200357
 30
0.0
 10
4.4581119532
 20
4.5354460919
 30
0.0
 10
4.4593668503
 20
4.5372082102
 30
0.0
  0
SPLINE
  5
33E
100
AcDbEntity
  8
0
100
AcDbSpline
 62
7
  6
CONTINUOUS
 70
0
 71
3
 72
10
 73
6
 74
0
 42
0.0000001
 43
0.0000001
 44
0.0000000001
 40
0.0
 40
0.0
 40
0.0
 40
0.0
 40
0.3028894693
 40
0.6351227175
 40
1.0
 40
1.0
 40
1.0
 40
1.0
 10
4.4527687706
 20
4.5062811445
 30
0.0
 10
4.4521789523
 20
4.5076639647
 30
0.0
 10
4.4513128166
 20
4.510725797
 30
0.0
 10
4.4509220687
 20
4.5157043924
 30
0.0
 10
4.4513740785
 20
4.5191597571
 30
0.0
 10
4.4517383342
 20
4.5209337715
 30
0.0
  0
SPLINE
  5
33F
100
AcDbEntity
  8
0
100
AcDbSpline
 62
7
  6
CONTINUOUS
 70
0
 71
3
 72
10
 73
6
 74
0
 42
0.0000001
 43
0.0000001
 44
0.0000000001
 40
0.0
 40
0.0
 40
0.0
 40
0.0
 40
0.3650022838
 40
0.6971597887
 40
1.0
 40
1.0
 40
1.0
 40
1.0
 10
4.4623260655
 20
4.4951736983
 30
0.0
 10
4.4608215276
 20
4.4961753412
 30
0.0
 10
4.4580745791
 20
4.4983064151
 30
0.0
 10
4.4548502143
 20
4.5021050837
 30
0.0
 10
4.45331824
 20
4.5048857924
 30
0.0
 10
4.4527687706
 20
4.5062811445
 30
0.0
  0
SPLINE
  5
340
100
AcDbEntity
  8
0
100
AcDbSpline
 62
7
  6
CONTINUOUS
 70
0
 71
3
 72
10
 73
6
 74
0
 42
0.0000001
 43
0.0000001
 44
0.0000000001
 40
0.0
 40
0.0
 40
0.0
 40
0.0
 40
0.3588304335
 40
0.691846555
 40
1.0
 40
1.0
 40
1.0
 40
1.0
 10
4.4790994831
 20
4.4889744367
 30
0.0
 10
4.4769785717
 20
4.4893409888
 30
0.0
 10
4.4729206687
 20
4.4902611321
 30
0.0
 10
4.4672664485
 20
4.4923123277
 30
0.0
 10
4.463867521
 20
4.494153686
 30
0.0
 10
4.4623260655
 20
4.4951736983
 30
0.0
  0
SPLINE
  5
341
100
AcDbEntity
  8
0
100
AcDbSpline
 62
7
  6
CONTINUOUS
 70
0
 71
3
 72
10
 73
6
 74
0
 42
0.0000001
 43
0.0000001
 44
0.0000000001
 40
0.0
 40
0.0
 40
0.0
 40
0.0
 40
0.3541760923
 40
0.6872249651
 40
1.0
 40
1.0
 40
1.0
 40
1.0
 10
4.49738421
 20
4.4889427659
 30
0.0
 10
4.4952395655
 20
4.4886350372
 30
0.0
 10
4.4910493393
 20
4.4882129569
 30
0.0
 10
4.4849220734
 20
4.4882128599
 30
0.0
 10
4.4809841913
 20
4.4886446377
 30
0.0
 10
4.4790994831
 20
4.4889744367
 30
0.0
  0
SPLINE
  5
342
100
AcDbEntity
  8
0
100
AcDbSpline
 62
7
  6
CONTINUOUS
 70
0
 71
3
 72
10
 73
6
 74
0
 42
0.0000001
 43
0.0000001
 44
0.0000000001
 40
0.0
 40
0.0
 40
0.0
 40
0.0
 40
0.3493878231
 40
0.6823985049
 40
1.0
 40
1.0
 40
1.0
 40
1.0
 10
4.5172458578
 20
4.4944390388
 30
0.0
 10
4.5150178165
 20
4.4935324836
 30
0.0
 10
4.5106012822
 20
4.4919132344
 30
0.0
 10
4.5039555015
 20
4.4900893595
 30
0.0
 10
4.4995489646
 20
4.4892509014
 30
0.0
 10
4.49738421
 20
4.4889427659
 30
0.0
  0
SPLINE
  5
343
100
AcDbEntity
  8
0
100
AcDbSpline
 62
7
  6
CONTINUOUS
 70
0
 71
3
 72
10
 73
6
 74
0
 42
0.0000001
 43
0.0000001
 44
0.0000000001
 40
0.0
 40
0.0
 40
0.0
 40
0.0
 40
0.3162619793
 40
0.6491876661
 40
1.0
 40
1.0
 40
1.0
 40
1.0
 10
4.535328718
 20
4.5044756244
 30
0.0
 10
4.5335709191
 20
4.503177596
 30
0.0
 10
4.5298355087
 20
4.5006829911
 30
0.0
 10
4.5237959737
 20
4.4973130776
 30
0.0
 10
4.5194871068
 20
4.4953619491
 30
0.0
 10
4.5172458578
 20
4.4944390388
 30
0.0
  0
SPLINE
  5
344
100
AcDbEntity
  8
0
100
AcDbSpline
 62
7
  6
CONTINUOUS
 70
0
 71
3
 72
10
 73
6
 74
0
 42
0.0000001
 43
0.0000001
 44
0.0000000001
 40
0.0
 40
0.0
 40
0.0
 40
0.0
 40
0.313055474
 40
0.6460529481
 40
1.0
 40
1.0
 40
1.0
 40
1.0
 10
4.5482888209
 20
4.5172812437
 30
0.0
 10
4.5471766152
 20
4.515730762
 30
0.0
 10
4.5446782079
 20
4.512673853
 30
0.0
 10
4.5403351805
 20
4.5083832243
 30
0.0
 10
4.5370657343
 20
4.5057551052
 30
0.0
 10
4.535328718
 20
4.5044756244
 30
0.0
  0
SPLINE
  5
345
100
AcDbEntity
  8
0
100
AcDbSpline
 62
7
  6
CONTINUOUS
 70
0
 71
3
 72
10
 73
6
 74
0
 42
0.0000001
 43
0.0000001
 44
0.0000000001
 40
0.0
 40
0.0
 40
0.0
 40
0.0
 40
0.3076925685
 40
0.6407119373
 40
1.0
 40
1.0
 40
1.0
 40
1.0
 10
4.5559242569
 20
4.5335074654
 30
0.0
 10
4.5555502602
 20
4.5316942749
 30
0.0
 10
4.5544272541
 20
4.5279844857
 30
0.0
 10
4.5518220152
 20
4.5225416234
 30
0.0
 10
4.54955574
 20
4.5190329056
 30
0.0
 10
4.5482888209
 20
4.5172812437
 30
0.0
  0
SPLINE
  5
346
100
AcDbEntity
  8
0
100
AcDbSpline
 62
7
  6
CONTINUOUS
 70
0
 71
3
 72
10
 73
6
 74
0
 42
0.0000001
 43
0.0000001
 44
0.0000000001
 40
0.0
 40
0.0
 40
0.0
 40
0.0
 40
0.3025380331
 40
0.6350171161
 40
1.0
 40
1.0
 40
1.0
 40
1.0
 10
4.5549796444
 20
4.5481219063
 30
0.0
 10
4.5555618446
 20
4.5467429848
 30
0.0
 10
4.5564095986
 20
4.5436852901
 30
0.0
 10
4.5567421127
 20
4.5387193253
 30
0.0
 10
4.5562876599
 20
4.535276253
 30
0.0
 10
4.5559242569
 20
4.5335074654
 30
0.0
  0
SPLINE
  5
347
100
AcDbEntity
  8
0
100
AcDbSpline
 62
7
  6
CONTINUOUS
 70
0
 71
3
 72
10
 73
6
 74
0
 42
0.0000001
 43
0.0000001
 44
0.0000000001
 40
0.0
 40
0.0
 40
0.0
 40
0.0
 40
0.3648275815
 40
0.6968946893
 40
1.0
 40
1.0
 40
1.0
 40
1.0
 10
4.5454397964
 20
4.5592910728
 30
0.0
 10
4.546943178
 20
4.5582817541
 30
0.0
 10
4.5496875513
 20
4.5561359947
 30
0.0
 10
4.5529004891
 20
4.5523128503
 30
0.0
 10
4.5544297196
 20
4.5495222126
 30
0.0
 10
4.5549796444
 20
4.5481219063
 30
0.0
  0
SPLINE
  5
348
100
AcDbEntity
  8
0
100
AcDbSpline
 62
7
  6
CONTINUOUS
 70
0
 71
3
 72
10
 73
6
 74
0
 42
0.0000001
 43
0.0000001
 44
0.0000000001
 40
0.0
 40
0.0
 40
0.0
 40
0.0
 40
0.3587914174
 40
0.6919147459
 40
1.0
 40
1.0
 40
1.0
 40
1.0
 10
4.5285318214
 20
4.5655775219
 30
0.0
 10
4.5306683203
 20
4.5651943819
 30
0.0
 10
4.5347553969
 20
4.5642450494
 30
0.0
 10
4.5404598963
 20
4.562182585
 30
0.0
 10
4.5438865586
 20
4.5603212637
 30
0.0
 10
4.5454397964
 20
4.5592910728
 30
0.0
  0
SPLINE
  5
349
100
AcDbEntity
  8
0
100
AcDbSpline
 62
7
  6
CONTINUOUS
 70
0
 71
3
 72
10
 73
6
 74
0
 42
0.0000001
 43
0.0000001
 44
0.0000000001
 40
0.0
 40
0.0
 40
0.0
 40
0.0
 40
0.3547893365
 40
0.6879592221
 40
1.0
 40
1.0
 40
1.0
 40
1.0
 10
4.5104032997
 20
4.565565475
 30
0.0
 10
4.5125326685
 20
4.5658783406
 30
0.0
 10
4.5166904805
 20
4.5663102461
 30
0.0
 10
4.5227669106
 20
4.5663490316
 30
0.0
 10
4.526668994
 20
4.5659136416
 30
0.0
 10
4.5285318214
 20
4.5655775219
 30
0.0
  0
SPLINE
  5
34A
100
AcDbEntity
  8
0
100
AcDbSpline
 62
7
  6
CONTINUOUS
 70
0
 71
3
 72
10
 73
6
 74
0
 42
0.0000001
 43
0.0000001
 44
0.0000000001
 40
0.0
 40
0.0
 40
0.0
 40
0.0
 40
0.3371267411
 40
0.6709055152
 40
1.0
 40
1.0
 40
1.0
 40
1.0
 10
4.4903782145
 20
4.5600727698
 30
0.0
 10
4.492542639
 20
4.560958431
 30
0.0
 10
4.4969216303
 20
4.5625524511
 30
0.0
 10
4.5036191111
 20
4.5643856334
 30
0.0
 10
4.5081440137
 20
4.5652379844
 30
0.0
 10
4.5104032997
 20
4.565565475
 30
0.0
  0
SPLINE
  5
34B
100
AcDbEntity
  8
0
100
AcDbSpline
 62
7
  6
CONTINUOUS
 70
0
 71
3
 72
10
 73
6
 74
0
 42
0.0000001
 43
0.0000001
 44
0.0000000001
 40
0.0
 40
0.0
 40
0.0
 40
0.0
 40
0.3401276515
 40
0.6755502047
 40
1.0
 40
1.0
 40
1.0
 40
1.0
 10
4.5037344612
 20
4.8772939402
 30
0.0
 10
4.5044150491
 20
4.8771695769
 30
0.0
 10
4.5057498508
 20
4.8768096838
 30
0.0
 10
4.5075970966
 20
4.8759351173
 30
0.0
 10
4.5086985536
 20
4.8751529828
 30
0.0
 10
4.5091979805
 20
4.8747215565
 30
0.0
  0
SPLINE
  5
34C
100
AcDbEntity
  8
0
100
AcDbSpline
 62
7
  6
CONTINUOUS
 70
0
 71
3
 72
10
 73
6
 74
0
 42
0.0000001
 43
0.0000001
 44
0.0000000001
 40
0.0
 40
0.0
 40
0.0
 40
0.0
 40
0.3080228528
 40
0.6421817536
 40
1.0
 40
1.0
 40
1.0
 40
1.0
 10
4.4228120564
 20
4.8904917955
 30
0.0
 10
4.4236911062
 20
4.8907392502
 30
0.0
 10
4.4255883743
 20
4.8910546227
 30
0.0
 10
4.4285599972
 20
4.8909009339
 30
0.0
 10
4.430594909
 20
4.890627037
 30
0.0
 10
4.4316373362
 20
4.890430207
 30
0.0
  0
SPLINE
  5
34D
100
AcDbEntity
  8
0
100
AcDbSpline
 62
7
  6
CONTINUOUS
 70
0
 71
3
 72
10
 73
6
 74
0
 42
0.0000001
 43
0.0000001
 44
0.0000000001
 40
0.0
 40
0.0
 40
0.0
 40
0.0
 40
0.3618850386
 40
0.6947573528
 40
1.0
 40
1.0
 40
1.0
 40
1.0
 10
4.4173501556
 20
4.886200055
 30
0.0
 10
4.4178426723
 20
4.8868944234
 30
0.0
 10
4.4188971959
 20
4.8881573513
 30
0.0
 10
4.4207495955
 20
4.8896345872
 30
0.0
 10
4.4221259709
 20
4.890279912
 30
0.0
 10
4.4228120564
 20
4.8904917955
 30
0.0
  0
SPLINE
  5
34E
100
AcDbEntity
  8
0
100
AcDbSpline
 62
7
  6
CONTINUOUS
 70
0
 71
3
 72
10
 73
6
 74
0
 42
0.0000001
 43
0.0000001
 44
0.0000000001
 40
0.0
 40
0.0
 40
0.0
 40
0.0
 40
0.3229550722
 40
0.6562787215
 40
1.0
 40
1.0
 40
1.0
 40
1.0
 10
4.4176980806
 20
4.8937269434
 30
0.0
 10
4.4177310096
 20
4.8929156579
 30
0.0
 10
4.4177471834
 20
4.8912645697
 30
0.0
 10
4.417625281
 20
4.8887522694
 30
0.0
 10
4.4174565276
 20
4.8870576458
 30
0.0
 10
4.4173501556
 20
4.886200055
 30
0.0
  0
SPLINE
  5
34F
100
AcDbEntity
  8
0
100
AcDbSpline
 62
7
  6
CONTINUOUS
 70
0
 71
3
 72
10
 73
6
 74
0
 42
0.0000001
 43
0.0000001
 44
0.0000000001
 40
0.0
 40
0.0
 40
0.0
 40
0.0
 40
0.3425397131
 40
0.6758822973
 40
1.0
 40
1.0
 40
1.0
 40
1.0
 10
4.4168469335
 20
4.9011598245
 30
0.0
 10
4.4169997859
 20
4.9003187559
 30
0.0
 10
4.4172670263
 20
4.8986527324
 30
0.0
 10
4.4175565528
 20
4.8961731665
 30
0.0
 10
4.4176654077
 20
4.8945351543
 30
0.0
 10
4.4176980806
 20
4.8937269434
 30
0.0
  0
SPLINE
  5
350
100
AcDbEntity
  8
0
100
AcDbSpline
 62
7
  6
CONTINUOUS
 70
0
 71
3
 72
10
 73
6
 74
0
 42
0.0000001
 43
0.0000001
 44
0.0000000001
 40
0.0
 40
0.0
 40
0.0
 40
0.0
 40
0.3110988533
 40
0.6442786863
 40
1.0
 40
1.0
 40
1.0
 40
1.0
 10
4.5110380264
 20
4.8851833297
 30
0.0
 10
4.5105268586
 20
4.8850062051
 30
0.0
 10
4.5094265014
 20
4.8847521224
 30
0.0
 10
4.5076811036
 20
4.8846854185
 30
0.0
 10
4.5064864129
 20
4.8848255343
 30
0.0
 10
4.5058781634
 20
4.8849381237
 30
0.0
  0
SPLINE
  5
351
100
AcDbEntity
  8
0
100
AcDbSpline
 62
7
  6
CONTINUOUS
 70
0
 71
3
 72
10
 73
6
 74
0
 42
0.0000001
 43
0.0000001
 44
0.0000000001
 40
0.0
 40
0.0
 40
0.0
 40
0.0
 40
0.352776051
 40
0.6869725442
 40
1.0
 40
1.0
 40
1.0
 40
1.0
 10
4.5165773024
 20
4.8888458364
 30
0.0
 10
4.5159894588
 20
4.8883261236
 30
0.0
 10
4.5148026159
 20
4.8873630295
 30
0.0
 10
4.512995196
 20
4.886057859
 30
0.0
 10
4.5116888635
 20
4.8854306164
 30
0.0
 10
4.5110380264
 20
4.8851833297
 30
0.0
  0
SPLINE
  5
352
100
AcDbEntity
  8
0
100
AcDbSpline
 62
7
  6
CONTINUOUS
 70
0
 71
3
 72
10
 73
6
 74
0
 42
0.0000001
 43
0.0000001
 44
0.0000000001
 40
0.0
 40
0.0
 40
0.0
 40
0.0
 40
0.3202913034
 40
0.6547969908
 40
1.0
 40
1.0
 40
1.0
 40
1.0
 10
4.5091979805
 20
4.8747215565
 30
0.0
 10
4.5097339352
 20
4.8742669676
 30
0.0
 10
4.5107517556
 20
4.8732429821
 30
0.0
 10
4.5120527016
 20
4.8714664696
 30
0.0
 10
4.5127404113
 20
4.8701356313
 30
0.0
 10
4.5130416339
 20
4.8694406633
 30
0.0
  0
SPLINE
  5
353
100
AcDbEntity
  8
0
100
AcDbSpline
 62
7
  6
CONTINUOUS
 70
0
 71
3
 72
10
 73
6
 74
0
 42
0.0000001
 43
0.0000001
 44
0.0000000001
 40
0.0
 40
0.0
 40
0.0
 40
0.0
 40
0.3004656021
 40
0.6331711682
 40
1.0
 40
1.0
 40
1.0
 40
1.0
 10
4.5094788229
 20
4.8704087129
 30
0.0
 10
4.5087868531
 20
4.8712511517
 30
0.0
 10
4.5070438755
 20
4.8728021562
 30
0.0
 10
4.5037824148
 20
4.8744592436
 30
0.0
 10
4.5013105081
 20
4.8751110018
 30
0.0
 10
4.5000004497
 20
4.875346089
 30
0.0
  0
SPLINE
  5
354
100
AcDbEntity
  8
0
100
AcDbSpline
 62
7
  6
CONTINUOUS
 70
0
 71
3
 72
10
 73
6
 74
0
 42
0.0000001
 43
0.0000001
 44
0.0000000001
 40
0.0
 40
0.0
 40
0.0
 40
0.0
 40
0.3665527997
 40
0.7007153663
 40
1.0
 40
1.0
 40
1.0
 40
1.0
 10
4.5115585072
 20
4.8613006662
 30
0.0
 10
4.511771501
 20
4.8624586799
 30
0.0
 10
4.5119464956
 20
4.8647381947
 30
0.0
 10
4.5111824037
 20
4.8679060856
 30
0.0
 10
4.510119316
 20
4.8696917872
 30
0.0
 10
4.5094788229
 20
4.8704087129
 30
0.0
  0
SPLINE
  5
355
100
AcDbEntity
  8
0
100
AcDbSpline
 62
7
  6
CONTINUOUS
 70
0
 71
3
 72
10
 73
6
 74
0
 42
0.0000001
 43
0.0000001
 44
0.0000000001
 40
0.0
 40
0.0
 40
0.0
 40
0.0
 40
0.2966175635
 40
0.6285586925
 40
1.0
 40
1.0
 40
1.0
 40
1.0
 10
4.513724626
 20
4.8936057694
 30
0.0
 10
4.514582597
 20
4.8940670207
 30
0.0
 10
4.516214765
 20
4.8954025258
 30
0.0
 10
4.5180474025
 20
4.8981834247
 30
0.0
 10
4.5186892128
 20
4.9004372083
 30
0.0
 10
4.5189079301
 20
4.9016372605
 30
0.0
  0
SPLINE
  5
356
100
AcDbEntity
  8
0
100
AcDbSpline
 62
7
  6
CONTINUOUS
 70
0
 71
3
 72
10
 73
6
 74
0
 42
0.0000001
 43
0.0000001
 44
0.0000000001
 40
0.0
 40
0.0
 40
0.0
 40
0.0
 40
0.3673859455
 40
0.7001862308
 40
1.0
 40
1.0
 40
1.0
 40
1.0
 10
4.503099126
 20
4.8923528728
 30
0.0
 10
4.5044113022
 20
4.8921057748
 30
0.0
 10
4.5069590129
 20
4.891835754
 30
0.0
 10
4.510605416
 20
4.89220782
 30
0.0
 10
4.512785053
 20
4.8930539128
 30
0.0
 10
4.513724626
 20
4.8936057694
 30
0.0
  0
SPLINE
  5
357
100
AcDbEntity
  8
0
100
AcDbSpline
 62
7
  6
CONTINUOUS
 70
0
 71
3
 72
10
 73
6
 74
0
 42
0.0000001
 43
0.0000001
 44
0.0000000001
 40
0.0
 40
0.0
 40
0.0
 40
0.0
 40
0.3499683755
 40
0.6830493507
 40
1.0
 40
1.0
 40
1.0
 40
1.0
 10
4.4146992076
 20
4.8924732252
 30
0.0
 10
4.4146180219
 20
4.8944195189
 30
0.0
 10
4.4143287641
 20
4.8982149968
 30
0.0
 10
4.4134569583
 20
4.9037179905
 30
0.0
 10
4.4126019743
 20
4.9072391861
 30
0.0
 10
4.4121055749
 20
4.9089321131
 30
0.0
  0
SPLINE
  5
358
100
AcDbEntity
  8
0
100
AcDbSpline
 62
7
  6
CONTINUOUS
 70
0
 71
3
 72
10
 73
6
 74
0
 42
0.0000001
 43
0.0000001
 44
0.0000000001
 40
0.0
 40
0.0
 40
0.0
 40
0.0
 40
0.3483224518
 40
0.6815807865
 40
1.0
 40
1.0
 40
1.0
 40
1.0
 10
4.4134603304
 20
4.8739179938
 30
0.0
 10
4.413802131
 20
4.8760531614
 30
0.0
 10
4.4143540911
 20
4.8802511211
 30
0.0
 10
4.4147845503
 20
4.8864481238
 30
0.0
 10
4.4147789126
 20
4.8904981168
 30
0.0
 10
4.4146992076
 20
4.8924732252
 30
0.0
  0
SPLINE
  5
359
100
AcDbEntity
  8
0
100
AcDbSpline
 62
7
  6
CONTINUOUS
 70
0
 71
3
 72
10
 73
6
 74
0
 42
0.0000001
 43
0.0000001
 44
0.0000000001
 40
0.0
 40
0.0
 40
0.0
 40
0.0
 40
0.2993642418
 40
0.6322147716
 40
1.0
 40
1.0
 40
1.0
 40
1.0
 10
4.4213774302
 20
4.8863485799
 30
0.0
 10
4.4205846877
 20
4.8857494882
 30
0.0
 10
4.4191191338
 20
4.8841931144
 30
0.0
 10
4.4175965927
 20
4.8812089019
 30
0.0
 10
4.4169979936
 20
4.8789446528
 30
0.0
 10
4.4167853677
 20
4.8777425525
 30
0.0
  0
SPLINE
  5
35A
100
AcDbEntity
  8
0
100
AcDbSpline
 62
7
  6
CONTINUOUS
 70
0
 71
3
 72
10
 73
6
 74
0
 42
0.0000001
 43
0.0000001
 44
0.0000000001
 40
0.0
 40
0.0
 40
0.0
 40
0.0
 40
0.3703321593
 40
0.70229944
 40
1.0
 40
1.0
 40
1.0
 40
1.0
 10
4.4304470758
 20
4.8880188783
 30
0.0
 10
4.4292970951
 20
4.8882321163
 30
0.0
 10
4.4270637518
 20
4.8884353907
 30
0.0
 10
4.4239160107
 20
4.8878724758
 30
0.0
 10
4.4221156616
 20
4.8869308062
 30
0.0
 10
4.4213774302
 20
4.8863485799
 30
0.0
  0
SPLINE
  5
35B
100
AcDbEntity
  8
0
100
AcDbSpline
 62
7
  6
CONTINUOUS
 70
0
 71
3
 72
10
 73
6
 74
0
 42
0.0000001
 43
0.0000001
 44
0.0000000001
 40
0.0
 40
0.0
 40
0.0
 40
0.0
 40
0.3401282813
 40
0.6755508214
 40
1.0
 40
1.0
 40
1.0
 40
1.0
 10
4.5232489847
 20
4.9583056957
 30
0.0
 10
4.5239064156
 20
4.9580901678
 30
0.0
 10
4.5251800676
 20
4.9575525504
 30
0.0
 10
4.5268916167
 20
4.9564355085
 30
0.0
 10
4.5278768052
 20
4.9555112022
 30
0.0
 10
4.5283130969
 20
4.9550160218
 30
0.0
  0
SPLINE
  5
35C
100
AcDbEntity
  8
0
100
AcDbSpline
 62
7
  6
CONTINUOUS
 70
0
 71
3
 72
10
 73
6
 74
0
 42
0.0000001
 43
0.0000001
 44
0.0000000001
 40
0.0
 40
0.0
 40
0.0
 40
0.0
 40
0.3080227921
 40
0.6421816932
 40
1.0
 40
1.0
 40
1.0
 40
1.0
 10
4.4448645504
 20
4.982357721
 30
0.0
 10
4.4457690407
 20
4.9824836578
 30
0.0
 10
4.4476915524
 20
4.9825387764
 30
0.0
 10
4.4506148686
 20
4.9819834441
 30
0.0
 10
4.452593825
 20
4.9814360672
 30
0.0
 10
4.4535999216
 20
4.9810996633
 30
0.0
  0
SPLINE
  5
35D
100
AcDbEntity
  8
0
100
AcDbSpline
 62
7
  6
CONTINUOUS
 70
0
 71
3
 72
10
 73
6
 74
0
 42
0.0000001
 43
0.0000001
 44
0.0000000001
 40
0.0
 40
0.0
 40
0.0
 40
0.0
 40
0.3618850249
 40
0.6947573254
 40
1.0
 40
1.0
 40
1.0
 40
1.0
 10
4.4388710054
 20
4.9788464807
 30
0.0
 10
4.4394531525
 20
4.9794676287
 30
0.0
 10
4.4406692306
 20
4.9805758529
 30
0.0
 10
4.4427048804
 20
4.9817881811
 30
0.0
 10
4.444156066
 20
4.9822408543
 30
0.0
 10
4.4448645504
 20
4.982357721
 30
0.0
  0
SPLINE
  5
35E
100
AcDbEntity
  8
0
100
AcDbSpline
 62
7
  6
CONTINUOUS
 70
0
 71
3
 72
10
 73
6
 74
0
 42
0.0000001
 43
0.0000001
 44
0.0000000001
 40
0.0
 40
0.0
 40
0.0
 40
0.0
 40
0.3229550955
 40
0.6562787376
 40
1.0
 40
1.0
 40
1.0
 40
1.0
 10
4.4402366468
 20
4.9862566206
 30
0.0
 10
4.4401592303
 20
4.9854483657
 30
0.0
 10
4.4399513043
 20
4.9838103417
 30
0.0
 10
4.4394897658
 20
4.9813377922
 30
0.0
 10
4.4390927164
 20
4.9796817183
 30
0.0
 10
4.4388710054
 20
4.9788464807
 30
0.0
  0
SPLINE
  5
35F
100
AcDbEntity
  8
0
100
AcDbSpline
 62
7
  6
CONTINUOUS
 70
0
 71
3
 72
10
 73
6
 74
0
 42
0.0000001
 43
0.0000001
 44
0.0000000001
 40
0.0
 40
0.0
 40
0.0
 40
0.0
 40
0.3425397382
 40
0.6758823228
 40
1.0
 40
1.0
 40
1.0
 40
1.0
 10
4.4404015471
 20
4.9937362614
 30
0.0
 10
4.4404389061
 20
4.9928822326
 30
0.0
 10
4.4404777009
 20
4.991195357
 30
0.0
 10
4.4404282284
 20
4.9886994342
 30
0.0
 10
4.4403139002
 20
4.9870617943
 30
0.0
 10
4.4402366468
 20
4.9862566206
 30
0.0
  0
SPLINE
  5
360
100
AcDbEntity
  8
0
100
AcDbSpline
 62
7
  6
CONTINUOUS
 70
0
 71
3
 72
10
 73
6
 74
0
 42
0.0000001
 43
0.0000001
 44
0.0000000001
 40
0.0
 40
0.0
 40
0.0
 40
0.0
 40
0.3110987893
 40
0.6442786459
 40
1.0
 40
1.0
 40
1.0
 40
1.0
 10
4.5315551516
 20
4.965131529
 30
0.0
 10
4.5310246832
 20
4.9650253753
 30
0.0
 10
4.529900032
 20
4.9649228918
 30
0.0
 10
4.5281617177
 20
4.9650935504
 30
0.0
 10
4.5269970733
 20
4.9653944173
 30
0.0
 10
4.5264097165
 20
4.9655884681
 30
0.0
  0
SPLINE
  5
361
100
AcDbEntity
  8
0
100
AcDbSpline
 62
7
  6
CONTINUOUS
 70
0
 71
3
 72
10
 73
6
 74
0
 42
0.0000001
 43
0.0000001
 44
0.0000000001
 40
0.0
 40
0.0
 40
0.0
 40
0.0
 40
0.3527761042
 40
0.6869725954
 40
1.0
 40
1.0
 40
1.0
 40
1.0
 10
4.537540013
 20
4.9680088593
 30
0.0
 10
4.5368871092
 20
4.967573682
 30
0.0
 10
4.5355806025
 20
4.9667804669
 30
0.0
 10
4.5336128546
 20
4.9657325107
 30
0.0
 10
4.5322335159
 20
4.9652882523
 30
0.0
 10
4.5315551516
 20
4.965131529
 30
0.0
  0
SPLINE
  5
362
100
AcDbEntity
  8
0
100
AcDbSpline
 62
7
  6
CONTINUOUS
 70
0
 71
3
 72
10
 73
6
 74
0
 42
0.0000001
 43
0.0000001
 44
0.0000000001
 40
0.0
 40
0.0
 40
0.0
 40
0.0
 40
0.3202930564
 40
0.6547988694
 40
1.0
 40
1.0
 40
1.0
 40
1.0
 10
4.5283130969
 20
4.9550160218
 30
0.0
 10
4.5287824403
 20
4.9544929344
 30
0.0
 10
4.5296519648
 20
4.9533403537
 30
0.0
 10
4.5306999258
 20
4.9514038022
 30
0.0
 10
4.5312007688
 20
4.9499919882
 30
0.0
 10
4.5314049433
 20
4.94926259
 30
0.0
  0
SPLINE
  5
363
100
AcDbEntity
  8
0
100
AcDbSpline
 62
7
  6
CONTINUOUS
 70
0
 71
3
 72
10
 73
6
 74
0
 42
0.0000001
 43
0.0000001
 44
0.0000000001
 40
0.0
 40
0.0
 40
0.0
 40
0.0
 40
0.3004655462
 40
0.6331711321
 40
1.0
 40
1.0
 40
1.0
 40
1.0
 10
4.5280063611
 20
4.9507049447
 30
0.0
 10
4.5274350532
 20
4.951633455
 30
0.0
 10
4.525918558
 20
4.9534065387
 30
0.0
 10
4.5229119994
 20
4.9554906842
 30
0.0
 10
4.5205513403
 20
4.956471702
 30
0.0
 10
4.5192852756
 20
4.9568823095
 30
0.0
  0
SPLINE
  5
364
100
AcDbEntity
  8
0
100
AcDbSpline
 62
7
  6
CONTINUOUS
 70
0
 71
3
 72
10
 73
6
 74
0
 42
0.0000001
 43
0.0000001
 44
0.0000000001
 40
0.0
 40
0.0
 40
0.0
 40
0.0
 40
0.3665527797
 40
0.7007153512
 40
1.0
 40
1.0
 40
1.0
 40
1.0
 10
4.528831429
 20
4.9413989807
 30
0.0
 10
4.5291995253
 20
4.9425174032
 30
0.0
 10
4.5296820916
 20
4.944752117
 30
0.0
 10
4.5293547474
 20
4.9479943734
 30
0.0
 10
4.5285436929
 20
4.9499077687
 30
0.0
 10
4.5280063611
 20
4.9507049447
 30
0.0
  0
SPLINE
  5
365
100
AcDbEntity
  8
0
100
AcDbSpline
 62
7
  6
CONTINUOUS
 70
0
 71
3
 72
10
 73
6
 74
0
 42
0.0000001
 43
0.0000001
 44
0.0000000001
 40
0.0
 40
0.0
 40
0.0
 40
0.0
 40
0.2966176524
 40
0.6285588964
 40
1.0
 40
1.0
 40
1.0
 40
1.0
 10
4.5353593273
 20
4.9731117331
 30
0.0
 10
4.5362719321
 20
4.9734523485
 30
0.0
 10
4.5380701606
 20
4.9745541279
 30
0.0
 10
4.5402630562
 20
4.9770607499
 30
0.0
 10
4.5412046334
 20
4.9792066494
 30
0.0
 10
4.5415841015
 20
4.9803659436
 30
0.0
  0
SPLINE
  5
366
100
AcDbEntity
  8
0
100
AcDbSpline
 62
7
  6
CONTINUOUS
 70
0
 71
3
 72
10
 73
6
 74
0
 42
0.0000001
 43
0.0000001
 44
0.0000000001
 40
0.0
 40
0.0
 40
0.0
 40
0.0
 40
0.3673859626
 40
0.7001862462
 40
1.0
 40
1.0
 40
1.0
 40
1.0
 10
4.5246620813
 20
4.9733116333
 30
0.0
 10
4.5259286154
 20
4.9728888379
 30
0.0
 10
4.5284161568
 20
4.9722757464
 30
0.0
 10
4.5320793285
 20
4.9721497844
 30
0.0
 10
4.5343535848
 20
4.9726924176
 30
0.0
 10
4.5353593273
 20
4.9731117331
 30
0.0
  0
SPLINE
  5
367
100
AcDbEntity
  8
0
100
AcDbSpline
 62
7
  6
CONTINUOUS
 70
0
 71
3
 72
10
 73
6
 74
0
 42
0.0000001
 43
0.0000001
 44
0.0000000001
 40
0.0
 40
0.0
 40
0.0
 40
0.0
 40
0.3499683795
 40
0.6830493516
 40
1.0
 40
1.0
 40
1.0
 40
1.0
 10
4.4370954366
 20
4.9854212526
 30
0.0
 10
4.4372789925
 20
4.987360571
 30
0.0
 10
4.4375072189
 20
4.9911602065
 30
0.0
 10
4.4373898837
 20
4.9967305931
 30
0.0
 10
4.4370204084
 20
5.0003352149
 30
0.0
 10
4.4367582214
 20
5.002079827
 30
0.0
  0
SPLINE
  5
368
100
AcDbEntity
  8
0
100
AcDbSpline
 62
7
  6
CONTINUOUS
 70
0
 71
3
 72
10
 73
6
 74
0
 42
0.0000001
 43
0.0000001
 44
0.0000000001
 40
0.0
 40
0.0
 40
0.0
 40
0.0
 40
0.3483224412
 40
0.6815807731
 40
1.0
 40
1.0
 40
1.0
 40
1.0
 10
4.4333512151
 20
4.9672055304
 30
0.0
 10
4.4339794668
 20
4.9692746056
 30
0.0
 10
4.4350957287
 20
4.9733589047
 30
0.0
 10
4.4363627579
 20
4.9794402539
 30
0.0
 10
4.4369065052
 20
4.9834535852
 30
0.0
 10
4.4370954366
 20
4.9854212526
 30
0.0
  0
SPLINE
  5
369
100
AcDbEntity
  8
0
100
AcDbSpline
 62
7
  6
CONTINUOUS
 70
0
 71
3
 72
10
 73
6
 74
0
 42
0.0000001
 43
0.0000001
 44
0.0000000001
 40
0.0
 40
0.0
 40
0.0
 40
0.0
 40
0.2993642622
 40
0.6322147927
 40
1.0
 40
1.0
 40
1.0
 40
1.0
 10
4.4428812083
 20
4.9784473857
 30
0.0
 10
4.4420145323
 20
4.9779613556
 30
0.0
 10
4.440351419
 20
4.9766181482
 30
0.0
 10
4.4384381759
 20
4.973868027
 30
0.0
 10
4.4375379904
 20
4.9717058948
 30
0.0
 10
4.437164279
 20
4.9705437435
 30
0.0
  0
SPLINE
  5
36A
100
AcDbEntity
  8
0
100
AcDbSpline
 62
7
  6
CONTINUOUS
 70
0
 71
3
 72
10
 73
6
 74
0
 42
0.0000001
 43
0.0000001
 44
0.0000000001
 40
0.0
 40
0.0
 40
0.0
 40
0.0
 40
0.3703322094
 40
0.7022995042
 40
1.0
 40
1.0
 40
1.0
 40
1.0
 10
4.4520935905
 20
4.978872054
 30
0.0
 10
4.4509831608
 20
4.9792393028
 30
0.0
 10
4.4487980293
 20
4.9797436256
 30
0.0
 10
4.4456030258
 20
4.9796128709
 30
0.0
 10
4.4436915887
 20
4.9789240994
 30
0.0
 10
4.4428812083
 20
4.9784473857
 30
0.0
  0
LINE
  5
36B
100
AcDbEntity
  8
0
100
AcDbLine
 62
7
  6
CONTINUOUS
 10
4.4755257967
 20
5.0717584166
 11
4.4723815025
 21
5.0675389521
  0
LINE
  5
36C
100
AcDbEntity
  8
0
100
AcDbLine
 62
7
  6
CONTINUOUS
 10
4.4780415979
 20
5.0763730653
 11
4.4755257967
 21
5.0717584166
  0
SPLINE
  5
36D
100
AcDbEntity
  8
0
100
AcDbSpline
 62
7
  6
CONTINUOUS
 70
0
 71
3
 72
10
 73
6
 74
0
 42
0.0000001
 43
0.0000001
 44
0.0000000001
 40
0.0
 40
0.0
 40
0.0
 40
0.0
 40
0.3459552642
 40
0.6791303646
 40
1.0
 40
1.0
 40
1.0
 40
1.0
 10
4.4807445394
 20
5.0840098703
 30
0.0
 10
4.480524402
 20
5.0831003438
 30
0.0
 10
4.4800355814
 20
5.0813277368
 30
0.0
 10
4.4791296912
 20
5.0787768083
 30
0.0
 10
4.4784205301
 20
5.0771539095
 30
0.0
 10
4.4780415979
 20
5.0763730653
 30
0.0
  0
SPLINE
  5
36E
100
AcDbEntity
  8
0
100
AcDbSpline
 62
7
  6
CONTINUOUS
 70
0
 71
3
 72
10
 73
6
 74
0
 42
0.0000001
 43
0.0000001
 44
0.0000000001
 40
0.0
 40
0.0
 40
0.0
 40
0.0
 40
0.3461702524
 40
0.679462796
 40
1.0
 40
1.0
 40
1.0
 40
1.0
 10
4.4818462938
 20
5.0927479565
 30
0.0
 10
4.4818170471
 20
5.0917304947
 30
0.0
 10
4.4817001203
 20
5.0897345016
 30
0.0
 10
4.4813399689
 20
5.0868141359
 30
0.0
 10
4.4809647809
 20
5.0849262871
 30
0.0
 10
4.4807445394
 20
5.0840098703
 30
0.0
  0
SPLINE
  5
36F
100
AcDbEntity
  8
0
100
AcDbSpline
 62
7
  6
CONTINUOUS
 70
0
 71
3
 72
10
 73
6
 74
0
 42
0.0000001
 43
0.0000001
 44
0.0000000001
 40
0.0
 40
0.0
 40
0.0
 40
0.0
 40
0.3611439257
 40
0.6937979073
 40
1.0
 40
1.0
 40
1.0
 40
1.0
 10
4.4842084651
 20
5.0820091976
 30
0.0
 10
4.4842547385
 20
5.0833472894
 30
0.0
 10
4.4841657765
 20
5.0859327019
 30
0.0
 10
4.4833546454
 20
5.0895698087
 30
0.0
 10
4.4824118605
 20
5.0917636706
 30
0.0
 10
4.4818462938
 20
5.0927479565
 30
0.0
  0
SPLINE
  5
370
100
AcDbEntity
  8
0
100
AcDbSpline
 62
7
  6
CONTINUOUS
 70
0
 71
3
 72
10
 73
6
 74
0
 42
0.0000001
 43
0.0000001
 44
0.0000000001
 40
0.0
 40
0.0
 40
0.0
 40
0.0
 40
0.3565781541
 40
0.6894298975
 40
1.0
 40
1.0
 40
1.0
 40
1.0
 10
4.4810073989
 20
5.0697727988
 30
0.0
 10
4.4816626924
 20
5.071136634
 30
0.0
 10
4.4827870945
 20
5.0738480699
 30
0.0
 10
4.4838559268
 20
5.0779672905
 30
0.0
 10
4.4841691529
 20
5.0806919187
 30
0.0
 10
4.4842084651
 20
5.0820091976
 30
0.0
  0
SPLINE
  5
371
100
AcDbEntity
  8
0
100
AcDbSpline
 62
7
  6
CONTINUOUS
 70
0
 71
3
 72
10
 73
6
 74
0
 42
0.0000001
 43
0.0000001
 44
0.0000000001
 40
0.0
 40
0.0
 40
0.0
 40
0.0
 40
0.3432155544
 40
0.6764736726
 40
1.0
 40
1.0
 40
1.0
 40
1.0
 10
4.477843496
 20
5.0644094464
 30
0.0
 10
4.4782552757
 20
5.0649917251
 30
0.0
 10
4.4790374068
 20
5.0661607342
 30
0.0
 10
4.4800920337
 20
5.0679522778
 30
0.0
 10
4.4807179107
 20
5.0691660645
 30
0.0
 10
4.4810073989
 20
5.0697727988
 30
0.0
  0
SPLINE
  5
372
100
AcDbEntity
  8
0
100
AcDbSpline
 62
7
  6
CONTINUOUS
 70
0
 71
3
 72
10
 73
6
 74
0
 42
0.0000001
 43
0.0000001
 44
0.0000000001
 40
0.0
 40
0.0
 40
0.0
 40
0.0
 40
0.3353219903
 40
0.6717295693
 40
1.0
 40
1.0
 40
1.0
 40
1.0
 10
4.5329420009
 20
5.0200037912
 30
0.0
 10
4.534254434
 20
5.0193616745
 30
0.0
 10
4.5370250148
 20
5.0183418199
 30
0.0
 10
4.5413683044
 20
5.0177244217
 30
0.0
 10
4.5442835027
 20
5.0179241184
 30
0.0
 10
4.5456914539
 20
5.0181763599
 30
0.0
  0
SPLINE
  5
373
100
AcDbEntity
  8
0
100
AcDbSpline
 62
7
  6
CONTINUOUS
 70
0
 71
3
 72
10
 73
6
 74
0
 42
0.0000001
 43
0.0000001
 44
0.0000000001
 40
0.0
 40
0.0
 40
0.0
 40
0.0
 40
0.3076026962
 40
0.6410819496
 40
1.0
 40
1.0
 40
1.0
 40
1.0
 10
4.5281140262
 20
5.0239121059
 30
0.0
 10
4.5284575868
 20
5.0233668239
 30
0.0
 10
4.5293197132
 20
5.0223164151
 30
0.0
 10
4.5309906873
 20
5.0210338845
 30
0.0
 10
4.5322618319
 20
5.0203245429
 30
0.0
 10
4.5329420009
 20
5.0200037912
 30
0.0
  0
SPLINE
  5
374
100
AcDbEntity
  8
0
100
AcDbSpline
 62
7
  6
CONTINUOUS
 70
0
 71
3
 72
10
 73
6
 74
0
 42
0.0000001
 43
0.0000001
 44
0.0000000001
 40
0.0
 40
0.0
 40
0.0
 40
0.0
 40
0.3054881529
 40
0.6438583614
 40
1.0
 40
1.0
 40
1.0
 40
1.0
 10
4.5277373048
 20
5.0284234208
 30
0.0
 10
4.5275126058
 20
5.0279988272
 30
0.0
 10
4.5272293726
 20
5.0269977707
 30
0.0
 10
4.5273497304
 20
5.0253988168
 30
0.0
 10
4.5278142546
 20
5.0243851592
 30
0.0
 10
4.5281140262
 20
5.0239121059
 30
0.0
  0
SPLINE
  5
375
100
AcDbEntity
  8
0
100
AcDbSpline
 62
7
  6
CONTINUOUS
 70
0
 71
3
 72
10
 73
6
 74
0
 42
0.0000001
 43
0.0000001
 44
0.0000000001
 40
0.0
 40
0.0
 40
0.0
 40
0.0
 40
0.352736688
 40
0.690727273
 40
1.0
 40
1.0
 40
1.0
 40
1.0
 10
4.5309138938
 20
5.0307257001
 30
0.0
 10
4.530443098
 20
5.0306432476
 30
0.0
 10
4.5295333699
 20
5.0303577526
 30
0.0
 10
4.5284243352
 20
5.0295401447
 30
0.0
 10
4.5279085411
 20
5.0288059068
 30
0.0
 10
4.5277373048
 20
5.0284234208
 30
0.0
  0
SPLINE
  5
376
100
AcDbEntity
  8
0
100
AcDbSpline
 62
7
  6
CONTINUOUS
 70
0
 71
3
 72
10
 73
6
 74
0
 42
0.0000001
 43
0.0000001
 44
0.0000000001
 40
0.0
 40
0.0
 40
0.0
 40
0.0
 40
0.3594762581
 40
0.6926504499
 40
1.0
 40
1.0
 40
1.0
 40
1.0
 10
4.5358790911
 20
5.0298245556
 30
0.0
 10
4.5353279699
 20
5.0300946527
 30
0.0
 10
4.5342229883
 20
5.0305338807
 30
0.0
 10
4.5325368675
 20
5.0308679543
 30
0.0
 10
4.5314302451
 20
5.0308192105
 30
0.0
 10
4.5309138938
 20
5.0307257001
 30
0.0
  0
SPLINE
  5
377
100
AcDbEntity
  8
0
100
AcDbSpline
 62
7
  6
CONTINUOUS
 70
0
 71
3
 72
10
 73
6
 74
0
 42
0.0000001
 43
0.0000001
 44
0.0000000001
 40
0.0
 40
0.0
 40
0.0
 40
0.0
 40
0.3442669438
 40
0.6782415282
 40
1.0
 40
1.0
 40
1.0
 40
1.0
 10
4.5402468281
 20
5.0269773047
 30
0.0
 10
4.5397678296
 20
5.0273369426
 30
0.0
 10
4.5388095903
 20
5.0280256726
 30
0.0
 10
4.5373745262
 20
5.029011208
 30
0.0
 10
4.5363776479
 20
5.0295699203
 30
0.0
 10
4.5358790911
 20
5.0298245556
 30
0.0
  0
SPLINE
  5
378
100
AcDbEntity
  8
0
100
AcDbSpline
 62
7
  6
CONTINUOUS
 70
0
 71
3
 72
10
 73
6
 74
0
 42
0.0000001
 43
0.0000001
 44
0.0000000001
 40
0.0
 40
0.0
 40
0.0
 40
0.0
 40
0.3218710611
 40
0.6558206668
 40
1.0
 40
1.0
 40
1.0
 40
1.0
 10
4.5445480367
 20
5.0241621774
 30
0.0
 10
4.5440572081
 20
5.0244150044
 30
0.0
 10
4.5430758571
 20
5.0249687326
 30
0.0
 10
4.5416638525
 20
5.0259444242
 30
0.0
 10
4.540719273
 20
5.0266232576
 30
0.0
 10
4.5402468281
 20
5.0269773047
 30
0.0
  0
SPLINE
  5
379
100
AcDbEntity
  8
0
100
AcDbSpline
 62
7
  6
CONTINUOUS
 70
0
 71
3
 72
10
 73
6
 74
0
 42
0.0000001
 43
0.0000001
 44
0.0000000001
 40
0.0
 40
0.0
 40
0.0
 40
0.0
 40
0.3116287647
 40
0.6446259354
 40
1.0
 40
1.0
 40
1.0
 40
1.0
 10
4.5513108725
 20
5.0225375059
 30
0.0
 10
4.5505826223
 20
5.0225238932
 30
0.0
 10
4.5490714053
 20
5.0226387578
 30
0.0
 10
4.5467910729
 20
5.0231893338
 30
0.0
 10
4.5452960165
 20
5.0238009806
 30
0.0
 10
4.5445480367
 20
5.0241621774
 30
0.0
  0
SPLINE
  5
37A
100
AcDbEntity
  8
0
100
AcDbSpline
 62
7
  6
CONTINUOUS
 70
0
 71
3
 72
10
 73
6
 74
0
 42
0.0000001
 43
0.0000001
 44
0.0000000001
 40
0.0
 40
0.0
 40
0.0
 40
0.0
 40
0.3531938294
 40
0.6862376205
 40
1.0
 40
1.0
 40
1.0
 40
1.0
 10
4.5586887491
 20
5.0242254488
 30
0.0
 10
4.5578662178
 20
5.0238694422
 30
0.0
 10
4.5562284609
 20
5.0232626663
 30
0.0
 10
4.5537484991
 20
5.0226942941
 30
0.0
 10
4.5521070315
 20
5.0225462858
 30
0.0
 10
4.5513108725
 20
5.0225375059
 30
0.0
  0
SPLINE
  5
37B
100
AcDbEntity
  8
0
100
AcDbSpline
 62
7
  6
CONTINUOUS
 70
0
 71
3
 72
10
 73
6
 74
0
 42
0.0000001
 43
0.0000001
 44
0.0000000001
 40
0.0
 40
0.0
 40
0.0
 40
0.0
 40
0.3065616686
 40
0.6391455776
 40
1.0
 40
1.0
 40
1.0
 40
1.0
 10
4.5456914539
 20
5.0181763599
 30
0.0
 10
4.5471515995
 20
5.0184114464
 30
0.0
 10
4.5501473852
 20
5.0192223363
 30
0.0
 10
4.5545508234
 20
5.0212429217
 30
0.0
 10
4.5573203634
 20
5.0231492683
 30
0.0
 10
4.5586887491
 20
5.0242254488
 30
0.0
  0
SPLINE
  5
37C
100
AcDbEntity
  8
0
100
AcDbSpline
 62
7
  6
CONTINUOUS
 70
0
 71
3
 72
10
 73
6
 74
0
 42
0.0000001
 43
0.0000001
 44
0.0000000001
 40
0.0
 40
0.0
 40
0.0
 40
0.0
 40
0.3538936224
 40
0.6876156744
 40
1.0
 40
1.0
 40
1.0
 40
1.0
 10
4.5470719153
 20
5.0638794079
 30
0.0
 10
4.5490402081
 20
5.0629377127
 30
0.0
 10
4.5527985858
 20
5.0609691892
 30
0.0
 10
4.5580636419
 20
5.0577443831
 30
0.0
 10
4.5611893513
 20
5.0552532178
 30
0.0
 10
4.5626149201
 20
5.0539580875
 30
0.0
  0
SPLINE
  5
37D
100
AcDbEntity
  8
0
100
AcDbSpline
 62
7
  6
CONTINUOUS
 70
0
 71
3
 72
10
 73
6
 74
0
 42
0.0000001
 43
0.0000001
 44
0.0000000001
 40
0.0
 40
0.0
 40
0.0
 40
0.0
 40
0.3135343495
 40
0.6471500946
 40
1.0
 40
1.0
 40
1.0
 40
1.0
 10
4.5316010044
 20
5.0692165014
 30
0.0
 10
4.5332918943
 20
5.0689272898
 30
0.0
 10
4.536749046
 20
5.068114549
 30
0.0
 10
4.5418997253
 20
5.0662478152
 30
0.0
 10
4.5453363141
 20
5.0647248207
 30
0.0
 10
4.5470719153
 20
5.0638794079
 30
0.0
  0
SPLINE
  5
37E
100
AcDbEntity
  8
0
100
AcDbSpline
 62
7
  6
CONTINUOUS
 70
0
 71
3
 72
10
 73
6
 74
0
 42
0.0000001
 43
0.0000001
 44
0.0000000001
 40
0.0
 40
0.0
 40
0.0
 40
0.0
 40
0.3031536403
 40
0.6361511768
 40
1.0
 40
1.0
 40
1.0
 40
1.0
 10
4.5205801731
 20
5.0681390235
 30
0.0
 10
4.5216031292
 20
5.0686293313
 30
0.0
 10
4.5238965282
 20
5.0693683395
 30
0.0
 10
4.5276483457
 20
5.0696802749
 30
0.0
 10
4.5302577198
 20
5.0694385238
 30
0.0
 10
4.5316010044
 20
5.0692165014
 30
0.0
  0
SPLINE
  5
37F
100
AcDbEntity
  8
0
100
AcDbSpline
 62
7
  6
CONTINUOUS
 70
0
 71
3
 72
10
 73
6
 74
0
 42
0.0000001
 43
0.0000001
 44
0.0000000001
 40
0.0
 40
0.0
 40
0.0
 40
0.0
 40
0.3408382409
 40
0.6772727679
 40
1.0
 40
1.0
 40
1.0
 40
1.0
 10
4.5351273765
 20
5.0746509369
 30
0.0
 10
4.5332965653
 20
5.0744657988
 30
0.0
 10
4.5296813861
 20
5.0737253667
 30
0.0
 10
4.5247237264
 20
5.0714887019
 30
0.0
 10
4.5218432032
 20
5.0693392754
 30
0.0
 10
4.5205801731
 20
5.0681390235
 30
0.0
  0
SPLINE
  5
380
100
AcDbEntity
  8
0
100
AcDbSpline
 62
7
  6
CONTINUOUS
 70
0
 71
3
 72
10
 73
6
 74
0
 42
0.0000001
 43
0.0000001
 44
0.0000000001
 40
0.0
 40
0.0
 40
0.0
 40
0.0
 40
0.3480289181
 40
0.6831397349
 40
1.0
 40
1.0
 40
1.0
 40
1.0
 10
4.5520872973
 20
5.0715481848
 30
0.0
 10
4.550264789
 20
5.0724285742
 30
0.0
 10
4.546534022
 20
5.0738695747
 30
0.0
 10
4.5407778869
 20
5.074896352
 30
0.0
 10
4.536957745
 20
5.0748641566
 30
0.0
 10
4.5351273765
 20
5.0746509369
 30
0.0
  0
SPLINE
  5
381
100
AcDbEntity
  8
0
100
AcDbSpline
 62
7
  6
CONTINUOUS
 70
0
 71
3
 72
10
 73
6
 74
0
 42
0.0000001
 43
0.0000001
 44
0.0000000001
 40
0.0
 40
0.0
 40
0.0
 40
0.0
 40
0.3144264939
 40
0.6492948976
 40
1.0
 40
1.0
 40
1.0
 40
1.0
 10
4.5657188532
 20
5.0594885641
 30
0.0
 10
4.5647272523
 20
5.0611461739
 30
0.0
 10
4.5622886048
 20
5.064343181
 30
0.0
 10
4.5576823543
 20
5.0684603535
 30
0.0
 10
4.5540269065
 20
5.0706103781
 30
0.0
 10
4.5520872973
 20
5.0715481848
 30
0.0
  0
SPLINE
  5
382
100
AcDbEntity
  8
0
100
AcDbSpline
 62
7
  6
CONTINUOUS
 70
0
 71
3
 72
10
 73
6
 74
0
 42
0.0000001
 43
0.0000001
 44
0.0000000001
 40
0.0
 40
0.0
 40
0.0
 40
0.0
 40
0.3170545322
 40
0.6534908679
 40
1.0
 40
1.0
 40
1.0
 40
1.0
 10
4.5692290477
 20
5.0433367152
 30
0.0
 10
4.5695125107
 20
5.0450941511
 30
0.0
 10
4.5696067744
 20
5.0488060729
 30
0.0
 10
4.5684297498
 20
5.0543459387
 30
0.0
 10
4.5667424582
 20
5.0578340833
 30
0.0
 10
4.5657188532
 20
5.0594885641
 30
0.0
  0
SPLINE
  5
383
100
AcDbEntity
  8
0
100
AcDbSpline
 62
7
  6
CONTINUOUS
 70
0
 71
3
 72
10
 73
6
 74
0
 42
0.0000001
 43
0.0000001
 44
0.0000000001
 40
0.0
 40
0.0
 40
0.0
 40
0.0
 40
0.3647481984
 40
0.697535773
 40
1.0
 40
1.0
 40
1.0
 40
1.0
 10
4.5626149201
 20
5.0539580875
 30
0.0
 10
4.5637462237
 20
5.0529093366
 30
0.0
 10
4.5657711748
 20
5.0507412838
 30
0.0
 10
4.568052174
 20
5.0471486971
 30
0.0
 10
4.5689656139
 20
5.0445885138
 30
0.0
 10
4.5692290477
 20
5.0433367152
 30
0.0
  0
SPLINE
  5
384
100
AcDbEntity
  8
0
100
AcDbSpline
 62
7
  6
CONTINUOUS
 70
0
 71
3
 72
10
 73
6
 74
0
 42
0.0000001
 43
0.0000001
 44
0.0000000001
 40
0.0
 40
0.0
 40
0.0
 40
0.0
 40
0.341212929
 40
0.6764494402
 40
1.0
 40
1.0
 40
1.0
 40
1.0
 10
4.5145024928
 20
5.0584400627
 30
0.0
 10
4.5138610273
 20
5.0571155797
 30
0.0
 10
4.5127963158
 20
5.0543813382
 30
0.0
 10
4.5119487429
 20
5.0501325711
 30
0.0
 10
4.5118733781
 20
5.0472747797
 30
0.0
 10
4.5119666833
 20
5.0458824368
 30
0.0
  0
SPLINE
  5
385
100
AcDbEntity
  8
0
100
AcDbSpline
 62
7
  6
CONTINUOUS
 70
0
 71
3
 72
10
 73
6
 74
0
 42
0.0000001
 43
0.0000001
 44
0.0000000001
 40
0.0
 40
0.0
 40
0.0
 40
0.0
 40
0.293957292
 40
0.6299613277
 40
1.0
 40
1.0
 40
1.0
 40
1.0
 10
4.5252898254
 20
5.0668494308
 30
0.0
 10
4.5238944208
 20
5.066762493
 30
0.0
 10
4.5209400558
 20
5.065866953
 30
0.0
 10
4.5170767371
 20
5.0629334354
 30
0.0
 10
4.5152556687
 20
5.060030725
 30
0.0
 10
4.5145024928
 20
5.0584400627
 30
0.0
  0
SPLINE
  5
386
100
AcDbEntity
  8
0
100
AcDbSpline
 62
7
  6
CONTINUOUS
 70
0
 71
3
 72
10
 73
6
 74
0
 42
0.0000001
 43
0.0000001
 44
0.0000000001
 40
0.0
 40
0.0
 40
0.0
 40
0.0
 40
0.3662606924
 40
0.7003221169
 40
1.0
 40
1.0
 40
1.0
 40
1.0
 10
4.5448235659
 20
5.0616015439
 30
0.0
 10
4.5425827586
 20
5.0626963465
 30
0.0
 10
4.5381878587
 20
5.0645530959
 30
0.0
 10
4.5316939191
 20
5.0667034201
 30
0.0
 10
4.5273254284
 20
5.0669918167
 30
0.0
 10
4.5252898254
 20
5.0668494308
 30
0.0
  0
SPLINE
  5
387
100
AcDbEntity
  8
0
100
AcDbSpline
 62
7
  6
CONTINUOUS
 70
0
 71
3
 72
10
 73
6
 74
0
 42
0.0000001
 43
0.0000001
 44
0.0000000001
 40
0.0
 40
0.0
 40
0.0
 40
0.0
 40
0.3021998835
 40
0.6361793944
 40
1.0
 40
1.0
 40
1.0
 40
1.0
 10
4.5643773658
 20
5.0477302079
 30
0.0
 10
4.5628591169
 20
5.0496312012
 30
0.0
 10
4.5591956812
 20
5.0532825091
 30
0.0
 10
4.552418077
 20
5.0576765178
 30
0.0
 10
4.5474677424
 20
5.0603417525
 30
0.0
 10
4.5448235659
 20
5.0616015439
 30
0.0
  0
SPLINE
  5
388
100
AcDbEntity
  8
0
100
AcDbSpline
 62
7
  6
CONTINUOUS
 70
0
 71
3
 72
11
 73
7
 74
0
 42
0.0000001
 43
0.0000001
 44
0.0000000001
 40
0.0
 40
0.0
 40
0.0
 40
0.0
 40
0.23655351
 40
0.4885675363
 40
0.7473345402
 40
1.0
 40
1.0
 40
1.0
 40
1.0
 10
4.5659960202
 20
5.0334127512
 30
0.0
 10
4.5665763955
 20
5.0344634014
 30
0.0
 10
4.5674165332
 20
5.0368465707
 30
0.0
 10
4.5675544372
 20
5.0406889074
 30
0.0
 10
4.5665723121
 20
5.0444924555
 30
0.0
 10
4.5651972033
 20
5.0467445572
 30
0.0
 10
4.5643773658
 20
5.0477302079
 30
0.0
  0
SPLINE
  5
389
100
AcDbEntity
  8
0
100
AcDbSpline
 62
7
  6
CONTINUOUS
 70
0
 71
3
 72
10
 73
6
 74
0
 42
0.0000001
 43
0.0000001
 44
0.0000000001
 40
0.0
 40
0.0
 40
0.0
 40
0.0
 40
0.2978209462
 40
0.6300805951
 40
1.0
 40
1.0
 40
1.0
 40
1.0
 10
4.5592119902
 20
5.0270081373
 30
0.0
 10
4.5601254035
 20
5.0272722442
 30
0.0
 10
4.5619608113
 20
5.0281902259
 30
0.0
 10
4.564312077
 20
5.0304067055
 30
0.0
 10
4.5654825006
 20
5.0323492251
 30
0.0
 10
4.5659960202
 20
5.0334127512
 30
0.0
  0
SPLINE
  5
38A
100
AcDbEntity
  8
0
100
AcDbSpline
 62
7
  6
CONTINUOUS
 70
0
 71
3
 72
10
 73
6
 74
0
 42
0.0000001
 43
0.0000001
 44
0.0000000001
 40
0.0
 40
0.0
 40
0.0
 40
0.0
 40
0.3682157204
 40
0.7009050088
 40
1.0
 40
1.0
 40
1.0
 40
1.0
 10
4.5494140613
 20
5.0282934886
 30
0.0
 10
4.5505278227
 20
5.027750432
 30
0.0
 10
4.5527451952
 20
5.026893276
 30
0.0
 10
4.5561076966
 20
5.0264049958
 30
0.0
 10
4.5582528163
 20
5.0267031306
 30
0.0
 10
4.5592119902
 20
5.0270081373
 30
0.0
  0
SPLINE
  5
38B
100
AcDbEntity
  8
0
100
AcDbSpline
 62
7
  6
CONTINUOUS
 70
0
 71
3
 72
10
 73
6
 74
0
 42
0.0000001
 43
0.0000001
 44
0.0000000001
 40
0.0
 40
0.0
 40
0.0
 40
0.0
 40
0.3422921206
 40
0.6759566852
 40
1.0
 40
1.0
 40
1.0
 40
1.0
 10
4.5441172392
 20
5.0314252608
 30
0.0
 10
4.5447008849
 20
5.031034213
 30
0.0
 10
4.5458671925
 20
5.0302825308
 30
0.0
 10
4.547622991
 20
5.0292184346
 30
0.0
 10
4.5488177164
 20
5.028587953
 30
0.0
 10
4.5494140613
 20
5.0282934886
 30
0.0
  0
LINE
  5
38C
100
AcDbEntity
  8
0
100
AcDbLine
 62
7
  6
CONTINUOUS
 10
4.539118645
 20
5.0344950757
 11
4.5441172392
 21
5.0314252608
  0
SPLINE
  5
38D
100
AcDbEntity
  8
0
100
AcDbSpline
 62
7
  6
CONTINUOUS
 70
0
 71
3
 72
10
 73
6
 74
0
 42
0.0000001
 43
0.0000001
 44
0.0000000001
 40
0.0
 40
0.0
 40
0.0
 40
0.0
 40
0.3019658858
 40
0.6345318132
 40
1.0
 40
1.0
 40
1.0
 40
1.0
 10
4.5313151808
 20
5.0354511535
 30
0.0
 10
4.5320881692
 20
5.0356855839
 30
0.0
 10
4.5337962299
 20
5.0359192685
 30
0.0
 10
4.5364759196
 20
5.0355877189
 30
0.0
 10
4.5382378865
 20
5.0349193535
 30
0.0
 10
4.539118645
 20
5.0344950757
 30
0.0
  0
SPLINE
  5
38E
100
AcDbEntity
  8
0
100
AcDbSpline
 62
7
  6
CONTINUOUS
 70
0
 71
3
 72
10
 73
6
 74
0
 42
0.0000001
 43
0.0000001
 44
0.0000000001
 40
0.0
 40
0.0
 40
0.0
 40
0.0
 40
0.3530469839
 40
0.6905214732
 40
1.0
 40
1.0
 40
1.0
 40
1.0
 10
4.5258563053
 20
5.0306442125
 30
0.0
 10
4.5262330036
 20
5.0314401768
 30
0.0
 10
4.5271619332
 20
5.0329216105
 30
0.0
 10
4.5290719599
 20
5.0345764881
 30
0.0
 10
4.5305679711
 20
5.0352573661
 30
0.0
 10
4.5313151808
 20
5.0354511535
 30
0.0
  0
SPLINE
  5
38F
100
AcDbEntity
  8
0
100
AcDbSpline
 62
7
  6
CONTINUOUS
 70
0
 71
3
 72
10
 73
6
 74
0
 42
0.0000001
 43
0.0000001
 44
0.0000000001
 40
0.0
 40
0.0
 40
0.0
 40
0.0
 40
0.32851636
 40
0.6672043768
 40
1.0
 40
1.0
 40
1.0
 40
1.0
 10
4.5255621665
 20
5.0232389453
 30
0.0
 10
4.5252407295
 20
5.0240089071
 30
0.0
 10
4.5248164074
 20
5.0256783332
 30
0.0
 10
4.5249173842
 20
5.0282492747
 30
0.0
 10
4.5254746643
 20
5.0298900455
 30
0.0
 10
4.5258563053
 20
5.0306442125
 30
0.0
  0
SPLINE
  5
390
100
AcDbEntity
  8
0
100
AcDbSpline
 62
7
  6
CONTINUOUS
 70
0
 71
3
 72
10
 73
6
 74
0
 42
0.0000001
 43
0.0000001
 44
0.0000000001
 40
0.0
 40
0.0
 40
0.0
 40
0.0
 40
0.3663418532
 40
0.6989617536
 40
1.0
 40
1.0
 40
1.0
 40
1.0
 10
4.5312901
 20
5.017602002
 30
0.0
 10
4.5303858992
 20
5.0180353441
 30
0.0
 10
4.5287243844
 20
5.0190177157
 30
0.0
 10
4.5267423962
 20
5.0209440434
 30
0.0
 10
4.5258545203
 20
5.0224686139
 30
0.0
 10
4.5255621665
 20
5.0232389453
 30
0.0
  0
SPLINE
  5
391
100
AcDbEntity
  8
0
100
AcDbSpline
 62
7
  6
CONTINUOUS
 70
0
 71
3
 72
10
 73
6
 74
0
 42
0.0000001
 43
0.0000001
 44
0.0000000001
 40
0.0
 40
0.0
 40
0.0
 40
0.0
 40
0.3491987554
 40
0.6835942318
 40
1.0
 40
1.0
 40
1.0
 40
1.0
 10
4.5421914205
 20
5.015373716
 30
0.0
 10
4.5408853402
 20
5.0153336159
 30
0.0
 10
4.5383165131
 20
5.0154341416
 30
0.0
 10
4.5346387455
 20
5.0162017615
 30
0.0
 10
4.5323514343
 20
5.0170772257
 30
0.0
 10
4.5312901
 20
5.017602002
 30
0.0
  0
SPLINE
  5
392
100
AcDbEntity
  8
0
100
AcDbSpline
 62
7
  6
CONTINUOUS
 70
0
 71
3
 72
10
 73
6
 74
0
 42
0.0000001
 43
0.0000001
 44
0.0000000001
 40
0.0
 40
0.0
 40
0.0
 40
0.0
 40
0.3372070643
 40
0.671992864
 40
1.0
 40
1.0
 40
1.0
 40
1.0
 10
4.5537884834
 20
5.0182947553
 30
0.0
 10
4.5525751735
 20
5.0176948145
 30
0.0
 10
4.5500704789
 20
5.0166647029
 30
0.0
 10
4.5461649031
 20
5.0156853623
 30
0.0
 10
4.5435075062
 20
5.0154106672
 30
0.0
 10
4.5421914205
 20
5.015373716
 30
0.0
  0
SPLINE
  5
393
100
AcDbEntity
  8
0
100
AcDbSpline
 62
7
  6
CONTINUOUS
 70
0
 71
3
 72
10
 73
6
 74
0
 42
0.0000001
 43
0.0000001
 44
0.0000000001
 40
0.0
 40
0.0
 40
0.0
 40
0.0
 40
0.3154432581
 40
0.6484560893
 40
1.0
 40
1.0
 40
1.0
 40
1.0
 10
4.5630517668
 20
5.0247390868
 30
0.0
 10
4.562200435
 20
5.0239063869
 30
0.0
 10
4.5603447679
 20
5.0223006272
 30
0.0
 10
4.557244902
 20
5.0201350764
 30
0.0
 10
4.5549774412
 20
5.0188844227
 30
0.0
 10
4.5537884834
 20
5.0182947553
 30
0.0
  0
SPLINE
  5
394
100
AcDbEntity
  8
0
100
AcDbSpline
 62
7
  6
CONTINUOUS
 70
0
 71
3
 72
10
 73
6
 74
0
 42
0.0000001
 43
0.0000001
 44
0.0000000001
 40
0.0
 40
0.0
 40
0.0
 40
0.0
 40
0.314300277
 40
0.6472436929
 40
1.0
 40
1.0
 40
1.0
 40
1.0
 10
4.5692696589
 20
5.0332267062
 30
0.0
 10
4.5687923501
 20
5.0322274898
 30
0.0
 10
4.5676672994
 20
5.0302360923
 30
0.0
 10
4.5655902885
 20
5.0273811612
 30
0.0
 10
4.563941076
 20
5.0256073149
 30
0.0
 10
4.5630517668
 20
5.0247390868
 30
0.0
  0
SPLINE
  5
395
100
AcDbEntity
  8
0
100
AcDbSpline
 62
7
  6
CONTINUOUS
 70
0
 71
3
 72
10
 73
6
 74
0
 42
0.0000001
 43
0.0000001
 44
0.0000000001
 40
0.0
 40
0.0
 40
0.0
 40
0.0
 40
0.3424431298
 40
0.6773379834
 40
1.0
 40
1.0
 40
1.0
 40
1.0
 10
4.5724938801
 20
5.0485692946
 30
0.0
 10
4.5725409
 20
5.0467649219
 30
0.0
 10
4.5723715368
 20
5.0431811124
 30
0.0
 10
4.5712705304
 20
5.0380054849
 30
0.0
 10
4.5700175053
 20
5.0347541804
 30
0.0
 10
4.5692696589
 20
5.0332267062
 30
0.0
  0
SPLINE
  5
396
100
AcDbEntity
  8
0
100
AcDbSpline
 62
7
  6
CONTINUOUS
 70
0
 71
3
 72
10
 73
6
 74
0
 42
0.0000001
 43
0.0000001
 44
0.0000000001
 40
0.0
 40
0.0
 40
0.0
 40
0.0
 40
0.3067861672
 40
0.6393775869
 40
1.0
 40
1.0
 40
1.0
 40
1.0
 10
4.5686682207
 20
5.0633922962
 30
0.0
 10
4.5694524187
 20
5.0620212086
 30
0.0
 10
4.5707975997
 20
5.0589946807
 30
0.0
 10
4.5721158049
 20
5.0539964644
 30
0.0
 10
4.5724403394
 20
5.0504252107
 30
0.0
 10
4.5724938801
 20
5.0485692946
 30
0.0
  0
SPLINE
  5
397
100
AcDbEntity
  8
0
100
AcDbSpline
 62
7
  6
CONTINUOUS
 70
0
 71
3
 72
10
 73
6
 74
0
 42
0.0000001
 43
0.0000001
 44
0.0000000001
 40
0.0
 40
0.0
 40
0.0
 40
0.0
 40
0.3162683998
 40
0.6495366309
 40
1.0
 40
1.0
 40
1.0
 40
1.0
 10
4.5625015334
 20
5.0717004207
 30
0.0
 10
4.5632826019
 20
5.0709342763
 30
0.0
 10
4.5647971923
 20
5.0692671565
 30
0.0
 10
4.5668473526
 20
5.0664749083
 30
0.0
 10
4.5680789193
 20
5.0644518301
 30
0.0
 10
4.5686682207
 20
5.0633922962
 30
0.0
  0
SPLINE
  5
398
100
AcDbEntity
  8
0
100
AcDbSpline
 62
7
  6
CONTINUOUS
 70
0
 71
3
 72
10
 73
6
 74
0
 42
0.0000001
 43
0.0000001
 44
0.0000000001
 40
0.0
 40
0.0
 40
0.0
 40
0.0
 40
0.3368270711
 40
0.6709935554
 40
1.0
 40
1.0
 40
1.0
 40
1.0
 10
4.5546524618
 20
5.0772006188
 30
0.0
 10
4.5556252529
 20
5.0767307011
 30
0.0
 10
4.5575156901
 20
5.0756916534
 30
0.0
 10
4.5601457954
 20
5.0738458987
 30
0.0
 10
4.5617486901
 20
5.0724398817
 30
0.0
 10
4.5625015334
 20
5.0717004207
 30
0.0
  0
SPLINE
  5
399
100
AcDbEntity
  8
0
100
AcDbSpline
 62
7
  6
CONTINUOUS
 70
0
 71
3
 72
10
 73
6
 74
0
 42
0.0000001
 43
0.0000001
 44
0.0000000001
 40
0.0
 40
0.0
 40
0.0
 40
0.0
 40
0.334463299
 40
0.672780833
 40
1.0
 40
1.0
 40
1.0
 40
1.0
 10
4.5306816951
 20
5.0783561704
 30
0.0
 10
4.5332494533
 20
5.0793246086
 30
0.0
 10
4.5387071189
 20
5.0805861678
 30
0.0
 10
4.5469995203
 20
5.0801738225
 30
0.0
 10
4.5522543313
 20
5.0784078964
 30
0.0
 10
4.5546524618
 20
5.0772006188
 30
0.0
  0
SPLINE
  5
39A
100
AcDbEntity
  8
0
100
AcDbSpline
 62
7
  6
CONTINUOUS
 70
0
 71
3
 72
10
 73
6
 74
0
 42
0.0000001
 43
0.0000001
 44
0.0000000001
 40
0.0
 40
0.0
 40
0.0
 40
0.0
 40
0.3404891052
 40
0.6783276209
 40
1.0
 40
1.0
 40
1.0
 40
1.0
 10
4.5125733956
 20
5.0617505533
 30
0.0
 10
4.5137890461
 20
5.0643347321
 30
0.0
 10
4.5168637971
 20
5.0692129561
 30
0.0
 10
4.5231340855
 20
5.0749230684
 30
0.0
 10
4.5281284612
 20
5.0774842464
 30
0.0
 10
4.5306816951
 20
5.0783561704
 30
0.0
  0
SPLINE
  5
39B
100
AcDbEntity
  8
0
100
AcDbSpline
 62
7
  6
CONTINUOUS
 70
0
 71
3
 72
10
 73
6
 74
0
 42
0.0000001
 43
0.0000001
 44
0.0000000001
 40
0.0
 40
0.0
 40
0.0
 40
0.0
 40
0.3375592513
 40
0.6715190677
 40
1.0
 40
1.0
 40
1.0
 40
1.0
 10
4.5098416742
 20
5.0530578774
 30
0.0
 10
4.5100078178
 20
5.0540727907
 30
0.0
 10
4.5104319362
 20
5.0560780245
 30
0.0
 10
4.5113486699
 20
5.0589879199
 30
0.0
 10
4.5121373858
 20
5.0608497625
 30
0.0
 10
4.5125733956
 20
5.0617505533
 30
0.0
  0
SPLINE
  5
39C
100
AcDbEntity
  8
0
100
AcDbSpline
 62
7
  6
CONTINUOUS
 70
0
 71
3
 72
10
 73
6
 74
0
 42
0.0000001
 43
0.0000001
 44
0.0000000001
 40
0.0
 40
0.0
 40
0.0
 40
0.0
 40
0.3461988217
 40
0.6795865235
 40
1.0
 40
1.0
 40
1.0
 40
1.0
 10
4.5092686314
 20
5.0426732075
 30
0.0
 10
4.5092289983
 20
5.0438744066
 30
0.0
 10
4.5092152985
 20
5.0462349387
 30
0.0
 10
4.5093884713
 20
5.0497043107
 30
0.0
 10
4.5096648349
 20
5.0519596872
 30
0.0
 10
4.5098416742
 20
5.0530578774
 30
0.0
  0
LINE
  5
39D
100
AcDbEntity
  8
0
100
AcDbLine
 62
7
  6
CONTINUOUS
 10
4.4828861097
 20
5.0677171774
 11
4.4813397029
 21
5.0648542662
  0
SPLINE
  5
39E
100
AcDbEntity
  8
0
100
AcDbSpline
 62
7
  6
CONTINUOUS
 70
0
 71
3
 72
10
 73
6
 74
0
 42
0.0000001
 43
0.0000001
 44
0.0000000001
 40
0.0
 40
0.0
 40
0.0
 40
0.0
 40
0.3050903177
 40
0.6376014393
 40
1.0
 40
1.0
 40
1.0
 40
1.0
 10
4.4865831791
 20
5.0846535232
 30
0.0
 10
4.4867001073
 20
5.0828772545
 30
0.0
 10
4.4865443809
 20
5.0791349815
 30
0.0
 10
4.4853238844
 20
5.0734034875
 30
0.0
 10
4.483799363
 20
5.069624279
 30
0.0
 10
4.4828861097
 20
5.0677171774
 30
0.0
  0
SPLINE
  5
39F
100
AcDbEntity
  8
0
100
AcDbSpline
 62
7
  6
CONTINUOUS
 70
0
 71
3
 72
10
 73
6
 74
0
 42
0.0000001
 43
0.0000001
 44
0.0000000001
 40
0.0
 40
0.0
 40
0.0
 40
0.0
 40
0.3628670788
 40
0.6955116307
 40
1.0
 40
1.0
 40
1.0
 40
1.0
 10
4.4808718677
 20
5.1010938749
 30
0.0
 10
4.4820085051
 20
5.0992973244
 30
0.0
 10
4.4839759659
 20
5.0957073873
 30
0.0
 10
4.4859078258
 20
5.0901493602
 30
0.0
 10
4.4864987862
 20
5.0864354244
 30
0.0
 10
4.4865831791
 20
5.0846535232
 30
0.0
  0
SPLINE
  5
3A0
100
AcDbEntity
  8
0
100
AcDbSpline
 62
7
  6
CONTINUOUS
 70
0
 71
3
 72
10
 73
6
 74
0
 42
0.0000001
 43
0.0000001
 44
0.0000000001
 40
0.0
 40
0.0
 40
0.0
 40
0.0
 40
0.3500057455
 40
0.683106945
 40
1.0
 40
1.0
 40
1.0
 40
1.0
 10
4.4778151489
 20
5.0922315941
 30
0.0
 10
4.4780431844
 20
5.0931532612
 30
0.0
 10
4.4784103681
 20
5.0949731467
 30
0.0
 10
4.4786725375
 20
5.0976774615
 30
0.0
 10
4.4786602143
 20
5.099444863
 30
0.0
 10
4.478602978
 20
5.1003025889
 30
0.0
  0
SPLINE
  5
3A1
100
AcDbEntity
  8
0
100
AcDbSpline
 62
7
  6
CONTINUOUS
 70
0
 71
3
 72
10
 73
6
 74
0
 42
0.0000001
 43
0.0000001
 44
0.0000000001
 40
0.0
 40
0.0
 40
0.0
 40
0.0
 40
0.3465592271
 40
0.6799461123
 40
1.0
 40
1.0
 40
1.0
 40
1.0
 10
4.4743806972
 20
5.08306285
 30
0.0
 10
4.4748749957
 20
5.0840820895
 30
0.0
 10
4.4757876668
 20
5.0861100903
 30
0.0
 10
4.4769520939
 20
5.0891666791
 30
0.0
 10
4.477558792
 20
5.0912173514
 30
0.0
 10
4.4778151489
 20
5.0922315941
 30
0.0
  0
SPLINE
  5
3A2
100
AcDbEntity
  8
0
100
AcDbSpline
 62
7
  6
CONTINUOUS
 70
0
 71
3
 72
10
 73
6
 74
0
 42
0.0000001
 43
0.0000001
 44
0.0000000001
 40
0.0
 40
0.0
 40
0.0
 40
0.0
 40
0.3173056733
 40
0.6507655126
 40
1.0
 40
1.0
 40
1.0
 40
1.0
 10
4.4694983752
 20
5.0753298403
 30
0.0
 10
4.4701303764
 20
5.0760653831
 30
0.0
 10
4.4713461243
 20
5.077645218
 30
0.0
 10
4.4729534447
 20
5.0802488032
 30
0.0
 10
4.4739204373
 20
5.0820998356
 30
0.0
 10
4.4743806972
 20
5.08306285
 30
0.0
  0
SPLINE
  5
3A3
100
AcDbEntity
  8
0
100
AcDbSpline
 62
7
  6
CONTINUOUS
 70
0
 71
3
 72
10
 73
6
 74
0
 42
0.0000001
 43
0.0000001
 44
0.0000000001
 40
0.0
 40
0.0
 40
0.0
 40
0.0
 40
0.3159364369
 40
0.6490850102
 40
1.0
 40
1.0
 40
1.0
 40
1.0
 10
4.4633590615
 20
5.0700905763
 30
0.0
 10
4.464095356
 20
5.0705219801
 30
0.0
 10
4.4655518224
 20
5.0715069868
 30
0.0
 10
4.4676068028
 20
5.0732673565
 30
0.0
 10
4.4688789199
 20
5.0746124194
 30
0.0
 10
4.4694983752
 20
5.0753298403
 30
0.0
  0
SPLINE
  5
3A4
100
AcDbEntity
  8
0
100
AcDbSpline
 62
7
  6
CONTINUOUS
 70
0
 71
3
 72
10
 73
6
 74
0
 42
0.0000001
 43
0.0000001
 44
0.0000000001
 40
0.0
 40
0.0
 40
0.0
 40
0.0
 40
0.3117724013
 40
0.6447302008
 40
1.0
 40
1.0
 40
1.0
 40
1.0
 10
4.5141521124
 20
5.0335883187
 30
0.0
 10
4.5134670922
 20
5.034566946
 30
0.0
 10
4.5118863244
 20
5.0364786204
 30
0.0
 10
4.5090624059
 20
5.0390829094
 30
0.0
 10
4.5069029384
 20
5.0406096455
 30
0.0
 10
4.5057517097
 20
5.0413359943
 30
0.0
  0
SPLINE
  5
3A5
100
AcDbEntity
  8
0
100
AcDbSpline
 62
7
  6
CONTINUOUS
 70
0
 71
3
 72
10
 73
6
 74
0
 42
0.0000001
 43
0.0000001
 44
0.0000000001
 40
0.0
 40
0.0
 40
0.0
 40
0.0
 40
0.3516502819
 40
0.6871537019
 40
1.0
 40
1.0
 40
1.0
 40
1.0
 10
4.5119666833
 20
5.0458824368
 30
0.0
 10
4.5120482267
 20
5.044521727
 30
0.0
 10
4.5124512316
 20
5.0418650012
 30
0.0
 10
4.5138764436
 20
5.0382298327
 30
0.0
 10
4.5152836498
 20
5.0361162044
 30
0.0
 10
4.5160792466
 20
5.0352009235
 30
0.0
  0
SPLINE
  5
3A6
100
AcDbEntity
  8
0
100
AcDbSpline
 62
7
  6
CONTINUOUS
 70
0
 71
3
 72
10
 73
6
 74
0
 42
0.0000001
 43
0.0000001
 44
0.0000000001
 40
0.0
 40
0.0
 40
0.0
 40
0.0
 40
0.3401276515
 40
0.6755502047
 40
1.0
 40
1.0
 40
1.0
 40
1.0
 10
5.0189445108
 20
5.3810166399
 30
0.0
 10
5.0190365475
 20
5.3803309319
 30
0.0
 10
5.0191067452
 20
5.378950247
 30
0.0
 10
5.0188458134
 20
5.376923156
 30
0.0
 10
5.0184423282
 20
5.3756339152
 30
0.0
 10
5.0181863488
 20
5.375025614
 30
0.0
  0
SPLINE
  5
3A7
100
AcDbEntity
  8
0
100
AcDbSpline
 62
7
  6
CONTINUOUS
 70
0
 71
3
 72
10
 73
6
 74
0
 42
0.0000001
 43
0.0000001
 44
0.0000000001
 40
0.0
 40
0.0
 40
0.0
 40
0.0
 40
0.3080228528
 40
0.6421817536
 40
1.0
 40
1.0
 40
1.0
 40
1.0
 10
5.0064900187
 20
5.4620567819
 30
0.0
 10
5.0069970035
 20
5.4612972236
 30
0.0
 10
5.0078832286
 20
5.4595902698
 30
0.0
 10
5.0086553439
 20
5.456716596
 30
0.0
 10
5.0090236747
 20
5.4546966411
 30
0.0
 10
5.0091586061
 20
5.4536444101
 30
0.0
  0
SPLINE
  5
3A8
100
AcDbEntity
  8
0
100
AcDbSpline
 62
7
  6
CONTINUOUS
 70
0
 71
3
 72
10
 73
6
 74
0
 42
0.0000001
 43
0.0000001
 44
0.0000000001
 40
0.0
 40
0.0
 40
0.0
 40
0.0
 40
0.3618850386
 40
0.6947573528
 40
1.0
 40
1.0
 40
1.0
 40
1.0
 10
5.0007205108
 20
5.4659251375
 30
0.0
 10
5.0015330904
 20
5.4656712979
 30
0.0
 10
5.003060072
 20
5.4650586525
 30
0.0
 10
5.0050374297
 20
5.4637534068
 30
0.0
 10
5.0060764935
 20
5.4626438124
 30
0.0
 10
5.0064900187
 20
5.4620567819
 30
0.0
  0
SPLINE
  5
3A9
100
AcDbEntity
  8
0
100
AcDbSpline
 62
7
  6
CONTINUOUS
 70
0
 71
3
 72
10
 73
6
 74
0
 42
0.0000001
 43
0.0000001
 44
0.0000000001
 40
0.0
 40
0.0
 40
0.0
 40
0.0
 40
0.3229550722
 40
0.6562787215
 40
1.0
 40
1.0
 40
1.0
 40
1.0
 10
5.0079865218
 20
5.4679201775
 30
0.0
 10
5.007225119
 20
5.4676381592
 30
0.0
 10
5.0056598389
 20
5.4671125627
 30
0.0
 10
5.0032328293
 20
5.4664521552
 30
0.0
 10
5.0015689989
 20
5.4660889818
 30
0.0
 10
5.0007205108
 20
5.4659251375
 30
0.0
  0
SPLINE
  5
3AA
100
AcDbEntity
  8
0
100
AcDbSpline
 62
7
  6
CONTINUOUS
 70
0
 71
3
 72
10
 73
6
 74
0
 42
0.0000001
 43
0.0000001
 44
0.0000000001
 40
0.0
 40
0.0
 40
0.0
 40
0.0
 40
0.3425397131
 40
0.6758822973
 40
1.0
 40
1.0
 40
1.0
 40
1.0
 10
5.0147925929
 20
5.4710265531
 30
0.0
 10
5.0140399231
 20
5.4706212774
 30
0.0
 10
5.0125380224
 20
5.4698522871
 30
0.0
 10
5.0102692837
 20
5.4688107029
 30
0.0
 10
5.0087450795
 20
5.4682010022
 30
0.0
 10
5.0079865218
 20
5.4679201775
 30
0.0
  0
SPLINE
  5
3AB
100
AcDbEntity
  8
0
100
AcDbSpline
 62
7
  6
CONTINUOUS
 70
0
 71
3
 72
10
 73
6
 74
0
 42
0.0000001
 43
0.0000001
 44
0.0000000001
 40
0.0
 40
0.0
 40
0.0
 40
0.0
 40
0.3110988532
 40
0.6442786863
 40
1.0
 40
1.0
 40
1.0
 40
1.0
 10
5.0287046918
 20
5.3765084921
 30
0.0
 10
5.0283782767
 20
5.376939907
 30
0.0
 10
5.0277966008
 20
5.377907893
 30
0.0
 10
5.027193804
 20
5.3795472523
 30
0.0
 10
5.0269578823
 20
5.3807267689
 30
0.0
 10
5.0268770017
 20
5.3813400405
 30
0.0
  0
SPLINE
  5
3AC
100
AcDbEntity
  8
0
100
AcDbSpline
 62
7
  6
CONTINUOUS
 70
0
 71
3
 72
10
 73
6
 74
0
 42
0.0000001
 43
0.0000001
 44
0.0000000001
 40
0.0
 40
0.0
 40
0.0
 40
0.0
 40
0.352776051
 40
0.6869725442
 40
1.0
 40
1.0
 40
1.0
 40
1.0
 10
5.0338996731
 20
5.3723721043
 30
0.0
 10
5.0332237432
 20
5.3727705768
 30
0.0
 10
5.0319410317
 20
5.3736017189
 30
0.0
 10
5.0301412173
 20
5.3749173575
 30
0.0
 10
5.0291409952
 20
5.3759659249
 30
0.0
 10
5.0287046918
 20
5.3765084921
 30
0.0
  0
SPLINE
  5
3AD
100
AcDbEntity
  8
0
100
AcDbSpline
 62
7
  6
CONTINUOUS
 70
0
 71
3
 72
10
 73
6
 74
0
 42
0.0000001
 43
0.0000001
 44
0.0000000001
 40
0.0
 40
0.0
 40
0.0
 40
0.0
 40
0.3202913034
 40
0.6547969908
 40
1.0
 40
1.0
 40
1.0
 40
1.0
 10
5.0181863488
 20
5.375025614
 30
0.0
 10
5.0179196282
 20
5.374375415
 30
0.0
 10
5.0172602839
 20
5.3730909814
 30
0.0
 10
5.0159727346
 20
5.3713047357
 30
0.0
 10
5.014919546
 20
5.3702394333
 30
0.0
 10
5.0143516752
 20
5.3697381966
 30
0.0
  0
SPLINE
  5
3AE
100
AcDbEntity
  8
0
100
AcDbSpline
 62
7
  6
CONTINUOUS
 70
0
 71
3
 72
10
 73
6
 74
0
 42
0.0000001
 43
0.0000001
 44
0.0000000001
 40
0.0
 40
0.0
 40
0.0
 40
0.0
 40
0.3004656021
 40
0.6331711682
 40
1.0
 40
1.0
 40
1.0
 40
1.0
 10
5.0141713758
 20
5.373425775
 30
0.0
 10
5.0147587523
 20
5.3743442052
 30
0.0
 10
5.0156952356
 20
5.3764811623
 30
0.0
 10
5.0162633725
 20
5.3800950639
 30
0.0
 10
5.0161193703
 20
5.3826473912
 30
0.0
 10
5.0159381212
 20
5.3839659767
 30
0.0
  0
SPLINE
  5
3AF
100
AcDbEntity
  8
0
100
AcDbSpline
 62
7
  6
CONTINUOUS
 70
0
 71
3
 72
10
 73
6
 74
0
 42
0.0000001
 43
0.0000001
 44
0.0000000001
 40
0.0
 40
0.0
 40
0.0
 40
0.0
 40
0.3665527997
 40
0.7007153663
 40
1.0
 40
1.0
 40
1.0
 40
1.0
 10
5.0061517665
 20
5.3686333365
 30
0.0
 10
5.0073189217
 20
5.3687886133
 30
0.0
 10
5.0095409454
 20
5.3693265923
 30
0.0
 10
5.0123176713
 20
5.371032219
 30
0.0
 10
5.0136874622
 20
5.3725950877
 30
0.0
 10
5.0141713758
 20
5.373425775
 30
0.0
  0
SPLINE
  5
3B0
100
AcDbEntity
  8
0
100
AcDbSpline
 62
7
  6
CONTINUOUS
 70
0
 71
3
 72
10
 73
6
 74
0
 42
0.0000001
 43
0.0000001
 44
0.0000000001
 40
0.0
 40
0.0
 40
0.0
 40
0.0
 40
0.4644777543
 40
0.9842691934
 40
1.0
 40
1.0
 40
1.0
 40
1.0
 10
5.0375451129
 20
5.376556061
 30
0.0
 10
5.0382489166
 20
5.3758826165
 30
0.0
 10
5.0400234251
 20
5.3747430263
 30
0.0
 10
5.0420740531
 20
5.3741787574
 30
0.0
 10
5.0431918706
 20
5.3740438431
 30
0.0
 10
5.0432247221
 20
5.3740400227
 30
0.0
  0
SPLINE
  5
3B1
100
AcDbEntity
  8
0
100
AcDbSpline
 62
7
  6
CONTINUOUS
 70
0
 71
3
 72
10
 73
6
 74
0
 42
0.0000001
 43
0.0000001
 44
0.0000000001
 40
0.0
 40
0.0
 40
0.0
 40
0.0
 40
0.3673859455
 40
0.7001862308
 40
1.0
 40
1.0
 40
1.0
 40
1.0
 10
5.0330700774
 20
5.3862743457
 30
0.0
 10
5.033240558
 20
5.3849500344
 30
0.0
 10
5.0337710388
 20
5.3824435766
 30
0.0
 10
5.0352516951
 20
5.3790906159
 30
0.0
 10
5.0367299221
 20
5.377279115
 30
0.0
 10
5.0375451129
 20
5.376556061
 30
0.0
  0
SPLINE
  5
3B2
100
AcDbEntity
  8
0
100
AcDbSpline
 62
7
  6
CONTINUOUS
 70
0
 71
3
 72
10
 73
6
 74
0
 42
0.0000001
 43
0.0000001
 44
0.0000000001
 40
0.0
 40
0.0
 40
0.0
 40
0.0
 40
0.3499683755
 40
0.6830493507
 40
1.0
 40
1.0
 40
1.0
 40
1.0
 10
5.0058674622
 20
5.4703848551
 30
0.0
 10
5.0076934097
 20
5.4710635051
 30
0.0
 10
5.0112137382
 20
5.4725114727
 30
0.0
 10
5.0161779934
 20
5.4750411279
 30
0.0
 10
5.0192626448
 20
5.4769423752
 30
0.0
 10
5.0207193183
 20
5.4779376224
 30
0.0
  0
SPLINE
  5
3B3
100
AcDbEntity
  8
0
100
AcDbSpline
 62
7
  6
CONTINUOUS
 70
0
 71
3
 72
10
 73
6
 74
0
 42
0.0000001
 43
0.0000001
 44
0.0000000001
 40
0.0
 40
0.0
 40
0.0
 40
0.0
 40
0.3483224518
 40
0.6815807865
 40
1.0
 40
1.0
 40
1.0
 40
1.0
 10
4.9878375544
 20
5.4658292155
 30
0.0
 10
4.9899738416
 20
5.4661639468
 30
0.0
 10
4.9941369036
 20
5.4669362424
 30
0.0
 10
5.0001636226
 20
5.4684418306
 30
0.0
 10
5.0040136527
 20
5.469698709
 30
0.0
 10
5.0058674622
 20
5.4703848551
 30
0.0
  0
SPLINE
  5
3B4
100
AcDbEntity
  8
0
100
AcDbSpline
 62
7
  6
CONTINUOUS
 70
0
 71
3
 72
10
 73
6
 74
0
 42
0.0000001
 43
0.0000001
 44
0.0000000001
 40
0.0
 40
0.0
 40
0.0
 40
0.0
 40
0.2993642418
 40
0.6322147716
 40
1.0
 40
1.0
 40
1.0
 40
1.0
 10
5.0021062627
 20
5.4621408685
 30
0.0
 10
5.0012915217
 20
5.4627096818
 30
0.0
 10
4.9993584412
 20
5.4636225605
 30
0.0
 10
4.9960497954
 20
5.4641484107
 30
0.0
 10
4.9937113892
 20
5.4640180208
 30
0.0
 10
4.9925024189
 20
5.4638487707
 30
0.0
  0
SPLINE
  5
3B5
100
AcDbEntity
  8
0
100
AcDbSpline
 62
7
  6
CONTINUOUS
 70
0
 71
3
 72
10
 73
6
 74
0
 42
0.0000001
 43
0.0000001
 44
0.0000000001
 40
0.0
 40
0.0
 40
0.0
 40
0.0
 40
0.3703321593
 40
0.70229944
 40
1.0
 40
1.0
 40
1.0
 40
1.0
 10
5.0064974855
 20
5.4540312734
 30
0.0
 10
5.0063449233
 20
5.4551908642
 30
0.0
 10
5.0058481077
 20
5.4573777152
 30
0.0
 10
5.0043400383
 20
5.4601974446
 30
0.0
 10
5.0028881188
 20
5.4616186864
 30
0.0
 10
5.0021062627
 20
5.4621408685
 30
0.0
  0
SPLINE
  5
3B6
100
AcDbEntity
  8
0
100
AcDbSpline
 62
7
  6
CONTINUOUS
 70
0
 71
3
 72
10
 73
6
 74
0
 42
0.0000001
 43
0.0000001
 44
0.0000000001
 40
0.0
 40
0.0
 40
0.0
 40
0.0
 40
0.3867201007
 40
0.7461362662
 40
1.0
 40
1.0
 40
1.0
 40
1.0
 10
5.0746060549
 20
5.4274106504
 30
0.0
 10
5.0746128534
 20
5.4242037832
 30
0.0
 10
5.0749092501
 20
5.4180093256
 30
0.0
 10
5.0762590639
 20
5.4098102646
 30
0.0
 10
5.0776167575
 20
5.4048959857
 30
0.0
 10
5.0782844795
 20
5.4028986376
 30
0.0
  0
SPLINE
  5
3B7
100
AcDbEntity
  8
0
100
AcDbSpline
 62
7
  6
CONTINUOUS
 70
0
 71
3
 72
10
 73
6
 74
0
 42
0.0000001
 43
0.0000001
 44
0.0000000001
 40
0.0
 40
0.0
 40
0.0
 40
0.0
 40
0.3084585375
 40
0.6414349092
 40
1.0
 40
1.0
 40
1.0
 40
1.0
 10
5.0789050588
 20
5.4546129086
 30
0.0
 10
5.077918976
 20
5.4519445224
 30
0.0
 10
5.0762864666
 20
5.4462357633
 30
0.0
 10
5.0748802504
 20
5.4371022159
 30
0.0
 10
5.0746016323
 20
5.4307175123
 30
0.0
 10
5.0746060549
 20
5.4274106504
 30
0.0
  0
SPLINE
  5
3B8
100
AcDbEntity
  8
0
100
AcDbSpline
 62
7
  6
CONTINUOUS
 70
0
 71
3
 72
10
 73
6
 74
0
 42
0.0000001
 43
0.0000001
 44
0.0000000001
 40
0.0
 40
0.0
 40
0.0
 40
0.0
 40
0.3042809546
 40
0.6365121756
 40
1.0
 40
1.0
 40
1.0
 40
1.0
 10
5.0914773024
 20
5.4737471554
 30
0.0
 10
5.0897134285
 20
5.4722044842
 30
0.0
 10
5.0863575857
 20
5.4685896782
 30
0.0
 10
5.0820677516
 20
5.462156496
 30
0.0
 10
5.0798837045
 20
5.4572355302
 30
0.0
 10
5.0789050588
 20
5.4546129086
 30
0.0
  0
SPLINE
  5
3B9
100
AcDbEntity
  8
0
100
AcDbSpline
 62
7
  6
CONTINUOUS
 70
0
 71
3
 72
10
 73
6
 74
0
 42
0.0000001
 43
0.0000001
 44
0.0000000001
 40
0.0
 40
0.0
 40
0.0
 40
0.0
 40
0.3569731297
 40
0.6900027369
 40
1.0
 40
1.0
 40
1.0
 40
1.0
 10
5.084771893
 20
5.4564536954
 30
0.0
 10
5.0852215194
 20
5.4586258092
 30
0.0
 10
5.0862916515
 20
5.4627876135
 30
0.0
 10
5.0885191508
 20
5.4686031936
 30
0.0
 10
5.0904310844
 20
5.4721297758
 30
0.0
 10
5.0914773024
 20
5.4737471554
 30
0.0
  0
SPLINE
  5
3BA
100
AcDbEntity
  8
0
100
AcDbSpline
 62
7
  6
CONTINUOUS
 70
0
 71
3
 72
10
 73
6
 74
0
 42
0.0000001
 43
0.0000001
 44
0.0000000001
 40
0.0
 40
0.0
 40
0.0
 40
0.0
 40
0.3502876793
 40
0.6839981025
 40
1.0
 40
1.0
 40
1.0
 40
1.0
 10
5.0827285559
 20
5.4311863694
 30
0.0
 10
5.0827161712
 20
5.434150609
 30
0.0
 10
5.082841071
 20
5.439939573
 30
0.0
 10
5.0834121762
 20
5.448388295
 30
0.0
 10
5.0842507882
 20
5.4538308341
 30
0.0
 10
5.084771893
 20
5.4564536954
 30
0.0
  0
SPLINE
  5
3BB
100
AcDbEntity
  8
0
100
AcDbSpline
 62
7
  6
CONTINUOUS
 70
0
 71
3
 72
10
 73
6
 74
0
 42
0.0000001
 43
0.0000001
 44
0.0000000001
 40
0.0
 40
0.0
 40
0.0
 40
0.0
 40
0.255327228
 40
0.6193542274
 40
1.0
 40
1.0
 40
1.0
 40
1.0
 10
5.0844723536
 20
5.4040822325
 30
0.0
 10
5.0841278382
 20
5.4063702473
 30
0.0
 10
5.0834352705
 20
5.4119429668
 30
0.0
 10
5.0828635906
 20
5.4209897481
 30
0.0
 10
5.0827228031
 20
5.4277375236
 30
0.0
 10
5.0827285559
 20
5.4311863694
 30
0.0
  0
LINE
  5
3BC
100
AcDbEntity
  8
0
100
AcDbLine
 62
7
  6
CONTINUOUS
 10
5.0899720633
 20
5.4274259553
 11
5.0905340233
 21
5.4049761453
  0
SPLINE
  5
3BD
100
AcDbEntity
  8
0
100
AcDbSpline
 62
7
  6
CONTINUOUS
 70
0
 71
3
 72
10
 73
6
 74
0
 42
0.0000001
 43
0.0000001
 44
0.0000000001
 40
0.0
 40
0.0
 40
0.0
 40
0.0
 40
0.3013770916
 40
0.6343659672
 40
1.0
 40
1.0
 40
1.0
 40
1.0
 10
5.093622775
 20
5.4706465384
 30
0.0
 10
5.0923828515
 20
5.4664559182
 30
0.0
 10
5.0905288077
 20
5.4573755966
 30
0.0
 10
5.0903771751
 20
5.4428464579
 30
0.0
 10
5.0900322242
 20
5.4327275975
 30
0.0
 10
5.0899720633
 20
5.4274259553
 30
0.0
  0
SPLINE
  5
3BE
100
AcDbEntity
  8
0
100
AcDbSpline
 62
7
  6
CONTINUOUS
 70
0
 71
3
 72
11
 73
7
 74
0
 42
0.0000001
 43
0.0000001
 44
0.0000000001
 40
0.0
 40
0.0
 40
0.0
 40
0.0
 40
0.2603620267
 40
0.4979661547
 40
0.7359787623
 40
1.0
 40
1.0
 40
1.0
 40
1.0
 10
5.107206504
 20
5.4799683332
 30
0.0
 10
5.1056801594
 20
5.4799691516
 30
0.0
 10
5.1027353087
 20
5.4796462286
 30
0.0
 10
5.0987302901
 20
5.4778280363
 30
0.0
 10
5.0955924221
 20
5.4747201016
 30
0.0
 10
5.094200158
 20
5.4720826105
 30
0.0
 10
5.093622775
 20
5.4706465384
 30
0.0
  0
SPLINE
  5
3BF
100
AcDbEntity
  8
0
100
AcDbSpline
 62
7
  6
CONTINUOUS
 70
0
 71
3
 72
10
 73
6
 74
0
 42
0.0000001
 43
0.0000001
 44
0.0000000001
 40
0.0
 40
0.0
 40
0.0
 40
0.0
 40
0.3134711336
 40
0.6501051222
 40
1.0
 40
1.0
 40
1.0
 40
1.0
 10
5.117090972
 20
5.4762646932
 30
0.0
 10
5.1162790869
 20
5.4770471213
 30
0.0
 10
5.1143458279
 20
5.4784209669
 30
0.0
 10
5.1109508931
 20
5.4797162007
 30
0.0
 10
5.1084650478
 20
5.4799740116
 30
0.0
 10
5.107206504
 20
5.4799683332
 30
0.0
  0
SPLINE
  5
3C0
100
AcDbEntity
  8
0
100
AcDbSpline
 62
7
  6
CONTINUOUS
 70
0
 71
3
 72
10
 73
6
 74
0
 42
0.0000001
 43
0.0000001
 44
0.0000000001
 40
0.0
 40
0.0
 40
0.0
 40
0.0
 40
0.3645111158
 40
0.696765154
 40
1.0
 40
1.0
 40
1.0
 40
1.0
 10
5.1224674184
 20
5.4660127248
 30
0.0
 10
5.1221904709
 20
5.4674138255
 30
0.0
 10
5.1214521926
 20
5.470064225
 30
0.0
 10
5.1195973204
 20
5.4735463349
 30
0.0
 10
5.1179727726
 20
5.4754684163
 30
0.0
 10
5.117090972
 20
5.4762646932
 30
0.0
  0
SPLINE
  5
3C1
100
AcDbEntity
  8
0
100
AcDbSpline
 62
7
  6
CONTINUOUS
 70
0
 71
3
 72
10
 73
6
 74
0
 42
0.0000001
 43
0.0000001
 44
0.0000000001
 40
0.0
 40
0.0
 40
0.0
 40
0.0
 40
0.3451147368
 40
0.6790832434
 40
1.0
 40
1.0
 40
1.0
 40
1.0
 10
5.1240420388
 20
5.4493253019
 30
0.0
 10
5.1239578639
 20
5.4512529033
 30
0.0
 10
5.1237323839
 20
5.4550428336
 30
0.0
 10
5.1233037982
 20
5.4606189145
 30
0.0
 10
5.1227771262
 20
5.4642455036
 30
0.0
 10
5.1224674184
 20
5.4660127248
 30
0.0
  0
SPLINE
  5
3C2
100
AcDbEntity
  8
0
100
AcDbSpline
 62
7
  6
CONTINUOUS
 70
0
 71
3
 72
10
 73
6
 74
0
 42
0.0000001
 43
0.0000001
 44
0.0000000001
 40
0.0
 40
0.0
 40
0.0
 40
0.0
 40
0.3389993818
 40
0.672456079
 40
1.0
 40
1.0
 40
1.0
 40
1.0
 10
5.124626667
 20
5.4202207102
 30
0.0
 10
5.1246253723
 20
5.4235104168
 30
0.0
 10
5.1245814767
 20
5.4300360443
 30
0.0
 10
5.1244096566
 20
5.4397390035
 30
0.0
 10
5.1241814177
 20
5.4461498181
 30
0.0
 10
5.1240420388
 20
5.4493253019
 30
0.0
  0
LINE
  5
3C3
100
AcDbEntity
  8
0
100
AcDbLine
 62
7
  6
CONTINUOUS
 10
5.124207545
 20
5.4051350139
 11
5.124626667
 21
5.4202207102
  0
LINE
  5
3C4
100
AcDbEntity
  8
0
100
AcDbLine
 62
7
  6
CONTINUOUS
 10
5.1273640222
 20
5.4162341813
 11
5.1271522358
 21
5.4047623633
  0
SPLINE
  5
3C5
100
AcDbEntity
  8
0
100
AcDbSpline
 62
7
  6
CONTINUOUS
 70
0
 71
3
 72
10
 73
6
 74
0
 42
0.0000001
 43
0.0000001
 44
0.0000000001
 40
0.0
 40
0.0
 40
0.0
 40
0.0
 40
0.3232025262
 40
0.6569666857
 40
1.0
 40
1.0
 40
1.0
 40
1.0
 10
5.1261433911
 20
5.455017405
 30
0.0
 10
5.12646433
 20
5.450848468
 30
0.0
 10
5.1269777961
 20
5.4423624403
 30
0.0
 10
5.1272791059
 20
5.4294275478
 30
0.0
 10
5.1273648512
 20
5.4206720044
 30
0.0
 10
5.1273640222
 20
5.4162341813
 30
0.0
  0
SPLINE
  5
3C6
100
AcDbEntity
  8
0
100
AcDbSpline
 62
7
  6
CONTINUOUS
 70
0
 71
3
 72
10
 73
6
 74
0
 42
0.0000001
 43
0.0000001
 44
0.0000000001
 40
0.0
 40
0.0
 40
0.0
 40
0.0
 40
0.3087708028
 40
0.6430171364
 40
1.0
 40
1.0
 40
1.0
 40
1.0
 10
5.1223570767
 20
5.4737779124
 30
0.0
 10
5.1231366083
 20
5.4719606753
 30
0.0
 10
5.1244536443
 20
5.468032348
 30
0.0
 10
5.1254348423
 20
5.461691476
 30
0.0
 10
5.125954396
 20
5.4572957079
 30
0.0
 10
5.1261433911
 20
5.455017405
 30
0.0
  0
SPLINE
  5
3C7
100
AcDbEntity
  8
0
100
AcDbSpline
 62
7
  6
CONTINUOUS
 70
0
 71
3
 72
10
 73
6
 74
0
 42
0.0000001
 43
0.0000001
 44
0.0000000001
 40
0.0
 40
0.0
 40
0.0
 40
0.0
 40
0.3497494797
 40
0.6838030177
 40
1.0
 40
1.0
 40
1.0
 40
1.0
 10
5.1324624333
 20
5.4551616294
 30
0.0
 10
5.1317610313
 20
5.4575484667
 30
0.0
 10
5.1300901137
 20
5.4621378574
 30
0.0
 10
5.1266609479
 20
5.4683966721
 30
0.0
 10
5.123860809
 20
5.4721054129
 30
0.0
 10
5.1223570767
 20
5.4737779124
 30
0.0
  0
SPLINE
  5
3C8
100
AcDbEntity
  8
0
100
AcDbSpline
 62
7
  6
CONTINUOUS
 70
0
 71
3
 72
10
 73
6
 74
0
 42
0.0000001
 43
0.0000001
 44
0.0000000001
 40
0.0
 40
0.0
 40
0.0
 40
0.0
 40
0.355063567
 40
0.6886101925
 40
1.0
 40
1.0
 40
1.0
 40
1.0
 10
5.1357007145
 20
5.4274715022
 30
0.0
 10
5.1357064607
 20
5.4307803688
 30
0.0
 10
5.1354941888
 20
5.4371993382
 30
0.0
 10
5.1345381409
 20
5.4464808789
 30
0.0
 10
5.133252867
 20
5.4523694844
 30
0.0
 10
5.1324624333
 20
5.4551616294
 30
0.0
  0
SPLINE
  5
3C9
100
AcDbEntity
  8
0
100
AcDbSpline
 62
7
  6
CONTINUOUS
 70
0
 71
3
 72
10
 73
6
 74
0
 42
0.0000001
 43
0.0000001
 44
0.0000000001
 40
0.0
 40
0.0
 40
0.0
 40
0.0
 40
0.1736368724
 40
0.5741845857
 40
1.0
 40
1.0
 40
1.0
 40
1.0
 10
5.1337624065
 20
5.4036896001
 30
0.0
 10
5.1340374278
 20
5.4050458807
 30
0.0
 10
5.134826907
 20
5.4095556352
 30
0.0
 10
5.1355290754
 20
5.4174979827
 30
0.0
 10
5.1357158811
 20
5.4240803277
 30
0.0
 10
5.1357007145
 20
5.4274715022
 30
0.0
  0
SPLINE
  5
3CA
100
AcDbEntity
  8
0
100
AcDbSpline
 62
7
  6
CONTINUOUS
 70
0
 71
3
 72
10
 73
6
 74
0
 42
0.0000001
 43
0.0000001
 44
0.0000000001
 40
0.0
 40
0.0
 40
0.0
 40
0.0
 40
0.3122572134
 40
0.6454215152
 40
1.0
 40
1.0
 40
1.0
 40
1.0
 10
5.1333437356
 20
5.4648310715
 30
0.0
 10
5.1343646756
 20
5.4632203632
 30
0.0
 10
5.136255704
 20
5.4597482751
 30
0.0
 10
5.1385436855
 20
5.45407496
 30
0.0
 10
5.1397349665
 20
5.4500401724
 30
0.0
 10
5.14026059
 20
5.4479394556
 30
0.0
  0
SPLINE
  5
3CB
100
AcDbEntity
  8
0
100
AcDbSpline
 62
7
  6
CONTINUOUS
 70
0
 71
3
 72
10
 73
6
 74
0
 42
0.0000001
 43
0.0000001
 44
0.0000000001
 40
0.0
 40
0.0
 40
0.0
 40
0.0
 40
0.3080627246
 40
0.6411500463
 40
1.0
 40
1.0
 40
1.0
 40
1.0
 10
5.121159226
 20
5.4780442964
 30
0.0
 10
5.1226969434
 20
5.4770029811
 30
0.0
 10
5.125709389
 20
5.4745490935
 30
0.0
 10
5.129771559
 20
5.4700726879
 30
0.0
 10
5.132186552
 20
5.4666588438
 30
0.0
 10
5.1333437356
 20
5.4648310715
 30
0.0
  0
SPLINE
  5
3CC
100
AcDbEntity
  8
0
100
AcDbSpline
 62
7
  6
CONTINUOUS
 70
0
 71
3
 72
10
 73
6
 74
0
 42
0.0000001
 43
0.0000001
 44
0.0000000001
 40
0.0
 40
0.0
 40
0.0
 40
0.0
 40
0.302889394
 40
0.6351226698
 40
1.0
 40
1.0
 40
1.0
 40
1.0
 10
5.107203855
 20
5.4826278363
 30
0.0
 10
5.1087070265
 20
5.4826513142
 30
0.0
 10
5.1118691168
 20
5.4822960809
 30
0.0
 10
5.1166261572
 20
5.4807763252
 30
0.0
 10
5.1196544378
 20
5.4790519778
 30
0.0
 10
5.121159226
 20
5.4780442964
 30
0.0
  0
SPLINE
  5
3CD
100
AcDbEntity
  8
0
100
AcDbSpline
 62
7
  6
CONTINUOUS
 70
0
 71
3
 72
10
 73
6
 74
0
 42
0.0000001
 43
0.0000001
 44
0.0000000001
 40
0.0
 40
0.0
 40
0.0
 40
0.0
 40
0.3650022744
 40
0.6971597846
 40
1.0
 40
1.0
 40
1.0
 40
1.0
 10
5.0933082523
 20
5.477977085
 30
0.0
 10
5.0948042092
 20
5.478991499
 30
0.0
 10
5.0978153699
 20
5.4807293462
 30
0.0
 10
5.102550878
 20
5.4822789831
 30
0.0
 10
5.1057043292
 20
5.4826464512
 30
0.0
 10
5.107203855
 20
5.4826278363
 30
0.0
  0
SPLINE
  5
3CE
100
AcDbEntity
  8
0
100
AcDbSpline
 62
7
  6
CONTINUOUS
 70
0
 71
3
 72
10
 73
6
 74
0
 42
0.0000001
 43
0.0000001
 44
0.0000000001
 40
0.0
 40
0.0
 40
0.0
 40
0.0
 40
0.3588304491
 40
0.6918465681
 40
1.0
 40
1.0
 40
1.0
 40
1.0
 10
5.0812296964
 20
5.4647904659
 30
0.0
 10
5.0823706034
 20
5.4666155572
 30
0.0
 10
5.0847560778
 20
5.4700247735
 30
0.0
 10
5.0887920074
 20
5.4744844697
 30
0.0
 10
5.0917813363
 20
5.4769354334
 30
0.0
 10
5.0933082523
 20
5.477977085
 30
0.0
  0
SPLINE
  5
3CF
100
AcDbEntity
  8
0
100
AcDbSpline
 62
7
  6
CONTINUOUS
 70
0
 71
3
 72
10
 73
6
 74
0
 42
0.0000001
 43
0.0000001
 44
0.0000000001
 40
0.0
 40
0.0
 40
0.0
 40
0.0
 40
0.3541761114
 40
0.6872249798
 40
1.0
 40
1.0
 40
1.0
 40
1.0
 10
5.0742901749
 20
5.4478737466
 30
0.0
 10
5.0748157757
 20
5.4499756369
 30
0.0
 10
5.0760085755
 20
5.4540146199
 30
0.0
 10
5.0783241145
 20
5.4596875098
 30
0.0
 10
5.0802120832
 20
5.4631701706
 30
0.0
 10
5.0812296964
 20
5.4647904659
 30
0.0
  0
SPLINE
  5
3D0
100
AcDbEntity
  8
0
100
AcDbSpline
 62
7
  6
CONTINUOUS
 70
0
 71
3
 72
10
 73
6
 74
0
 42
0.0000001
 43
0.0000001
 44
0.0000000001
 40
0.0
 40
0.0
 40
0.0
 40
0.0
 40
0.3493875368
 40
0.6823982451
 40
1.0
 40
1.0
 40
1.0
 40
1.0
 10
5.0718726796
 20
5.4274079279
 30
0.0
 10
5.0718753826
 20
5.4298133369
 30
0.0
 10
5.0720453265
 20
5.4345142775
 30
0.0
 10
5.0728683003
 20
5.4413564722
 30
0.0
 10
5.0737573506
 20
5.4457530828
 30
0.0
 10
5.0742901749
 20
5.4478737466
 30
0.0
  0
SPLINE
  5
3D1
100
AcDbEntity
  8
0
100
AcDbSpline
 62
7
  6
CONTINUOUS
 70
0
 71
3
 72
10
 73
6
 74
0
 42
0.0000001
 43
0.0000001
 44
0.0000000001
 40
0.0
 40
0.0
 40
0.0
 40
0.0
 40
0.3162621288
 40
0.6491877793
 40
1.0
 40
1.0
 40
1.0
 40
1.0
 10
5.0743310118
 20
5.4068730932
 30
0.0
 10
5.0737935603
 20
5.4089910838
 30
0.0
 10
5.0728956569
 20
5.4133922335
 30
0.0
 10
5.0720581392
 20
5.4202574251
 30
0.0
 10
5.0718801272
 20
5.4249841085
 30
0.0
 10
5.0718726796
 20
5.4274079279
 30
0.0
  0
SPLINE
  5
3D2
100
AcDbEntity
  8
0
100
AcDbSpline
 62
7
  6
CONTINUOUS
 70
0
 71
3
 72
10
 73
6
 74
0
 42
0.0000001
 43
0.0000001
 44
0.0000000001
 40
0.0
 40
0.0
 40
0.0
 40
0.0
 40
0.337126741
 40
0.6709055151
 40
1.0
 40
1.0
 40
1.0
 40
1.0
 10
5.1427927184
 20
5.427478566
 30
0.0
 10
5.1427947131
 20
5.4251399498
 30
0.0
 10
5.1426155993
 20
5.4204833006
 30
0.0
 10
5.1417817027
 20
5.4135897222
 30
0.0
 10
5.1408607809
 20
5.4090782757
 30
0.0
 10
5.14031015
 20
5.4068627783
 30
0.0
  0
SPLINE
  5
3D3
100
AcDbEntity
  8
0
100
AcDbSpline
 62
7
  6
CONTINUOUS
 70
0
 71
3
 72
10
 73
6
 74
0
 42
0.0000001
 43
0.0000001
 44
0.0000000001
 40
0.0
 40
0.0
 40
0.0
 40
0.0
 40
0.3581194074
 40
0.6909541933
 40
1.0
 40
1.0
 40
1.0
 40
1.0
 10
5.1634609864
 20
5.425906445
 30
0.0
 10
5.1630327787
 20
5.4227282881
 30
0.0
 10
5.1624862898
 20
5.4165508692
 30
0.0
 10
5.1627295937
 20
5.4075811195
 30
0.0
 10
5.1635761424
 20
5.4018761377
 30
0.0
 10
5.1641826899
 20
5.3991759933
 30
0.0
  0
SPLINE
  5
3D4
100
AcDbEntity
  8
0
100
AcDbSpline
 62
7
  6
CONTINUOUS
 70
0
 71
3
 72
10
 73
6
 74
0
 42
0.0000001
 43
0.0000001
 44
0.0000000001
 40
0.0
 40
0.0
 40
0.0
 40
0.0
 40
0.3084585186
 40
0.6414348976
 40
1.0
 40
1.0
 40
1.0
 40
1.0
 10
5.1714096655
 20
5.4522742802
 30
0.0
 10
5.1700707851
 20
5.4497642917
 30
0.0
 10
5.1676790903
 20
5.4443296979
 30
0.0
 10
5.165047101
 20
5.4354712692
 30
0.0
 10
5.1639051095
 20
5.4291833505
 30
0.0
 10
5.1634609864
 20
5.425906445
 30
0.0
  0
SPLINE
  5
3D5
100
AcDbEntity
  8
0
100
AcDbSpline
 62
7
  6
CONTINUOUS
 70
0
 71
3
 72
10
 73
6
 74
0
 42
0.0000001
 43
0.0000001
 44
0.0000000001
 40
0.0
 40
0.0
 40
0.0
 40
0.0
 40
0.3042809546
 40
0.6365121756
 40
1.0
 40
1.0
 40
1.0
 40
1.0
 10
5.1864608904
 20
5.4695265651
 30
0.0
 10
5.1845040848
 20
5.4682373805
 30
0.0
 10
5.1806889795
 20
5.4651111247
 30
0.0
 10
5.1755662608
 20
5.4593192111
 30
0.0
 10
5.1727349709
 20
5.4547399356
 30
0.0
 10
5.1714096655
 20
5.4522742802
 30
0.0
  0
SPLINE
  5
3D6
100
AcDbEntity
  8
0
100
AcDbSpline
 62
7
  6
CONTINUOUS
 70
0
 71
3
 72
10
 73
6
 74
0
 42
0.0000001
 43
0.0000001
 44
0.0000000001
 40
0.0
 40
0.0
 40
0.0
 40
0.0
 40
0.3569731285
 40
0.6900027227
 40
1.0
 40
1.0
 40
1.0
 40
1.0
 10
5.1774719495
 20
5.4533023491
 30
0.0
 10
5.1782120215
 20
5.4553934099
 30
0.0
 10
5.1798367246
 20
5.4593716177
 30
0.0
 10
5.1828324035
 20
5.4648313458
 30
0.0
 10
5.1852049765
 20
5.4680660278
 30
0.0
 10
5.1864608904
 20
5.4695265651
 30
0.0
  0
SPLINE
  5
3D7
100
AcDbEntity
  8
0
100
AcDbSpline
 62
7
  6
CONTINUOUS
 70
0
 71
3
 72
10
 73
6
 74
0
 42
0.0000001
 43
0.0000001
 44
0.0000000001
 40
0.0
 40
0.0
 40
0.0
 40
0.0
 40
0.3502876571
 40
0.6839980885
 40
1.0
 40
1.0
 40
1.0
 40
1.0
 10
5.172020529
 20
5.4285456315
 30
0.0
 10
5.1724102945
 20
5.4314841605
 30
0.0
 10
5.1733191888
 20
5.4372026932
 30
0.0
 10
5.1750309013
 20
5.4454958898
 30
0.0
 10
5.176599926
 20
5.4507743997
 30
0.0
 10
5.1774719495
 20
5.4533023491
 30
0.0
  0
SPLINE
  5
3D8
100
AcDbEntity
  8
0
100
AcDbSpline
 62
7
  6
CONTINUOUS
 70
0
 71
3
 72
10
 73
6
 74
0
 42
0.0000001
 43
0.0000001
 44
0.0000000001
 40
0.0
 40
0.0
 40
0.0
 40
0.0
 40
0.3176106353
 40
0.6511909168
 40
1.0
 40
1.0
 40
1.0
 40
1.0
 10
5.1701283563
 20
5.39897494
 30
0.0
 10
5.1700279423
 20
5.4021137102
 30
0.0
 10
5.1700504566
 20
5.408559022
 30
0.0
 10
5.170771361
 20
5.4184249147
 30
0.0
 10
5.1715470669
 20
5.4251294341
 30
0.0
 10
5.172020529
 20
5.4285456315
 30
0.0
  0
SPLINE
  5
3D9
100
AcDbEntity
  8
0
100
AcDbSpline
 62
7
  6
CONTINUOUS
 70
0
 71
3
 72
10
 73
6
 74
0
 42
0.0000001
 43
0.0000001
 44
0.0000000001
 40
0.0
 40
0.0
 40
0.0
 40
0.0
 40
0.3094867674
 40
0.6429624544
 40
1.0
 40
1.0
 40
1.0
 40
1.0
 10
5.1739010452
 20
5.3781898596
 30
0.0
 10
5.1730943074
 20
5.3802244629
 30
0.0
 10
5.1717389703
 20
5.3845852369
 30
0.0
 10
5.1705818341
 20
5.3915756047
 30
0.0
 10
5.1702120991
 20
5.3964513408
 30
0.0
 10
5.1701283563
 20
5.39897494
 30
0.0
  0
SPLINE
  5
3DA
100
AcDbEntity
  8
0
100
AcDbSpline
 62
7
  6
CONTINUOUS
 70
0
 71
3
 72
10
 73
6
 74
0
 42
0.0000001
 43
0.0000001
 44
0.0000000001
 40
0.0
 40
0.0
 40
0.0
 40
0.0
 40
0.362791863
 40
0.6952626166
 40
1.0
 40
1.0
 40
1.0
 40
1.0
 10
5.1641826899
 20
5.3991759933
 30
0.0
 10
5.1647983602
 20
5.3964239441
 30
0.0
 10
5.1662896849
 20
5.3912053821
 30
0.0
 10
5.1695953234
 20
5.3841384253
 30
0.0
 10
5.1723849633
 20
5.3800099482
 30
0.0
 10
5.1739010452
 20
5.3781898596
 30
0.0
  0
SPLINE
  5
3DB
100
AcDbEntity
  8
0
100
AcDbSpline
 62
7
  6
CONTINUOUS
 70
0
 71
3
 72
10
 73
6
 74
0
 42
0.0000001
 43
0.0000001
 44
0.0000000001
 40
0.0
 40
0.0
 40
0.0
 40
0.0
 40
0.3711633091
 40
0.7029735155
 40
1.0
 40
1.0
 40
1.0
 40
1.0
 10
5.1786870782
 20
5.4238375384
 30
0.0
 10
5.1780263562
 20
5.4185051456
 30
0.0
 10
5.1770048633
 20
5.4083856972
 30
0.0
 10
5.1752468299
 20
5.3939881646
 30
0.0
 10
5.1758659745
 20
5.3848370335
 30
0.0
 10
5.1765383484
 20
5.3805900038
 30
0.0
  0
SPLINE
  5
3DC
100
AcDbEntity
  8
0
100
AcDbSpline
 62
7
  6
CONTINUOUS
 70
0
 71
3
 72
10
 73
6
 74
0
 42
0.0000001
 43
0.0000001
 44
0.0000000001
 40
0.0
 40
0.0
 40
0.0
 40
0.0
 40
0.3013771358
 40
0.6343660181
 40
1.0
 40
1.0
 40
1.0
 40
1.0
 10
5.1881660085
 20
5.4661636096
 30
0.0
 10
5.1863691746
 20
5.4621798801
 30
0.0
 10
5.1833007113
 20
5.4534349241
 30
0.0
 10
5.1811799081
 20
5.4390606051
 30
0.0
 10
5.1794657375
 20
5.4290820316
 30
0.0
 10
5.1786870782
 20
5.4238375384
 30
0.0
  0
SPLINE
  5
3DD
100
AcDbEntity
  8
0
100
AcDbSpline
 62
7
  6
CONTINUOUS
 70
0
 71
3
 72
11
 73
7
 74
0
 42
0.0000001
 43
0.0000001
 44
0.0000000001
 40
0.0
 40
0.0
 40
0.0
 40
0.0
 40
0.2603620601
 40
0.4979661879
 40
0.7359787797
 40
1.0
 40
1.0
 40
1.0
 40
1.0
 10
5.2028885201
 20
5.4735569273
 30
0.0
 10
5.2013763902
 20
5.4737647542
 30
0.0
 10
5.198414953
 20
5.4738442212
 30
0.0
 10
5.194200343
 20
5.4725860244
 30
0.0
 10
5.1906699456
 20
5.4699323921
 30
0.0
 10
5.1889328281
 20
5.4675081025
 30
0.0
 10
5.1881660085
 20
5.4661636096
 30
0.0
  0
SPLINE
  5
3DE
100
AcDbEntity
  8
0
100
AcDbSpline
 62
7
  6
CONTINUOUS
 70
0
 71
3
 72
10
 73
6
 74
0
 42
0.0000001
 43
0.0000001
 44
0.0000000001
 40
0.0
 40
0.0
 40
0.0
 40
0.0
 40
0.3134711337
 40
0.6501051226
 40
1.0
 40
1.0
 40
1.0
 40
1.0
 10
5.2121793334
 20
5.4685468928
 30
0.0
 10
5.21148107
 20
5.4694322059
 30
0.0
 10
5.2097520077
 20
5.4710555622
 30
0.0
 10
5.2065641137
 20
5.4727992781
 30
0.0
 10
5.2041362048
 20
5.4733918586
 30
0.0
 10
5.2028885201
 20
5.4735569273
 30
0.0
  0
SPLINE
  5
3DF
100
AcDbEntity
  8
0
100
AcDbSpline
 62
7
  6
CONTINUOUS
 70
0
 71
3
 72
10
 73
6
 74
0
 42
0.0000001
 43
0.0000001
 44
0.0000000001
 40
0.0
 40
0.0
 40
0.0
 40
0.0
 40
0.3645111158
 40
0.6967651541
 40
1.0
 40
1.0
 40
1.0
 40
1.0
 10
5.2161156394
 20
5.4576604551
 30
0.0
 10
5.2160312804
 20
5.4590861712
 30
0.0
 10
5.2156592941
 20
5.4618122121
 30
0.0
 10
5.2142938352
 20
5.4655137202
 30
0.0
 10
5.212944988
 20
5.4676383763
 30
0.0
 10
5.2121793334
 20
5.4685468928
 30
0.0
  0
SPLINE
  5
3E0
100
AcDbEntity
  8
0
100
AcDbSpline
 62
7
  6
CONTINUOUS
 70
0
 71
3
 72
10
 73
6
 74
0
 42
0.0000001
 43
0.0000001
 44
0.0000000001
 40
0.0
 40
0.0
 40
0.0
 40
0.0
 40
0.345114707
 40
0.6790832306
 40
1.0
 40
1.0
 40
1.0
 40
1.0
 10
5.2154124107
 20
5.4409136646
 30
0.0
 10
5.21559045
 20
5.442834871
 30
0.0
 10
5.215881075
 20
5.4466203629
 30
0.0
 10
5.2162127319
 20
5.4522030476
 30
0.0
 10
5.2161827983
 20
5.455867558
 30
0.0
 10
5.2161156394
 20
5.4576604551
 30
0.0
  0
SPLINE
  5
3E1
100
AcDbEntity
  8
0
100
AcDbSpline
 62
7
  6
CONTINUOUS
 70
0
 71
3
 72
10
 73
6
 74
0
 42
0.0000001
 43
0.0000001
 44
0.0000000001
 40
0.0
 40
0.0
 40
0.0
 40
0.0
 40
0.3389994263
 40
0.6724561142
 40
1.0
 40
1.0
 40
1.0
 40
1.0
 10
5.2120442398
 20
5.4119987127
 30
0.0
 10
5.2124891354
 20
5.4152581975
 30
0.0
 10
5.2133307059
 20
5.4217294806
 30
0.0
 10
5.2144764644
 20
5.4313660865
 30
0.0
 10
5.2151198185
 20
5.4377486194
 30
0.0
 10
5.2154124107
 20
5.4409136646
 30
0.0
  0
SPLINE
  5
3E2
100
AcDbEntity
  8
0
100
AcDbSpline
 62
7
  6
CONTINUOUS
 70
0
 71
3
 72
10
 73
6
 74
0
 42
0.0000001
 43
0.0000001
 44
0.0000000001
 40
0.0
 40
0.0
 40
0.0
 40
0.0
 40
0.3037941723
 40
0.6376709702
 40
1.0
 40
1.0
 40
1.0
 40
1.0
 10
5.2034036302
 20
5.3769395707
 30
0.0
 10
5.2050217078
 20
5.3802337916
 30
0.0
 10
5.207813105
 20
5.3874739962
 30
0.0
 10
5.2100215029
 20
5.3993764249
 30
0.0
 10
5.2114392526
 20
5.4076633991
 30
0.0
 10
5.2120442398
 20
5.4119987127
 30
0.0
  0
SPLINE
  5
3E3
100
AcDbEntity
  8
0
100
AcDbSpline
 62
7
  6
CONTINUOUS
 70
0
 71
3
 72
11
 73
7
 74
0
 42
0.0000001
 43
0.0000001
 44
0.0000000001
 40
0.0
 40
0.0
 40
0.0
 40
0.0
 40
0.2609769122
 40
0.4985371782
 40
0.7363518687
 40
1.0
 40
1.0
 40
1.0
 40
1.0
 10
5.1887642463
 20
5.3696095148
 30
0.0
 10
5.1902706454
 20
5.3694027968
 30
0.0
 10
5.1932167848
 20
5.369321427
 30
0.0
 10
5.1974091222
 20
5.3705669438
 30
0.0
 10
5.200917665
 20
5.3731987556
 30
0.0
 10
5.2026427804
 20
5.3756051613
 30
0.0
 10
5.2034036302
 20
5.3769395707
 30
0.0
  0
SPLINE
  5
3E4
100
AcDbEntity
  8
0
100
AcDbSpline
 62
7
  6
CONTINUOUS
 70
0
 71
3
 72
11
 73
7
 74
0
 42
0.0000001
 43
0.0000001
 44
0.0000000001
 40
0.0
 40
0.0
 40
0.0
 40
0.0
 40
0.2645268413
 40
0.5026524242
 40
0.7390318194
 40
1.0
 40
1.0
 40
1.0
 40
1.0
 10
5.1765383484
 20
5.3805900038
 30
0.0
 10
5.1769188276
 20
5.3790902534
 30
0.0
 10
5.1779474272
 20
5.3762928247
 30
0.0
 10
5.180655067
 20
5.3728181662
 30
0.0
 10
5.1843856519
 20
5.3705150046
 30
0.0
 10
5.1872514453
 20
5.3698131546
 30
0.0
 10
5.1887642463
 20
5.3696095148
 30
0.0
  0
SPLINE
  5
3E5
100
AcDbEntity
  8
0
100
AcDbSpline
 62
7
  6
CONTINUOUS
 70
0
 71
3
 72
10
 73
6
 74
0
 42
0.0000001
 43
0.0000001
 44
0.0000000001
 40
0.0
 40
0.0
 40
0.0
 40
0.0
 40
0.3122573169
 40
0.6454215998
 40
1.0
 40
1.0
 40
1.0
 40
1.0
 10
5.2267311851
 20
5.4550145777
 30
0.0
 10
5.2275242322
 20
5.4532802831
 30
0.0
 10
5.2289268715
 20
5.4495838001
 30
0.0
 10
5.2304242528
 20
5.4436525939
 30
0.0
 10
5.2310572945
 20
5.4394935181
 30
0.0
 10
5.2312931444
 20
5.4373409236
 30
0.0
  0
SPLINE
  5
3E6
100
AcDbEntity
  8
0
100
AcDbSpline
 62
7
  6
CONTINUOUS
 70
0
 71
3
 72
10
 73
6
 74
0
 42
0.0000001
 43
0.0000001
 44
0.0000000001
 40
0.0
 40
0.0
 40
0.0
 40
0.0
 40
0.3080626572
 40
0.6411499829
 40
1.0
 40
1.0
 40
1.0
 40
1.0
 10
5.2164513658
 20
5.4697582857
 30
0.0
 10
5.2178336421
 20
5.4685180342
 30
0.0
 10
5.2204854337
 20
5.4656782465
 30
0.0
 10
5.223902935
 20
5.4606922538
 30
0.0
 10
5.2258325944
 20
5.4569824096
 30
0.0
 10
5.2267311851
 20
5.4550145777
 30
0.0
  0
SPLINE
  5
3E7
100
AcDbEntity
  8
0
100
AcDbSpline
 62
7
  6
CONTINUOUS
 70
0
 71
3
 72
10
 73
6
 74
0
 42
0.0000001
 43
0.0000001
 44
0.0000000001
 40
0.0
 40
0.0
 40
0.0
 40
0.0
 40
0.3028894693
 40
0.6351227175
 40
1.0
 40
1.0
 40
1.0
 40
1.0
 10
5.2032466005
 20
5.4761922152
 30
0.0
 10
5.204739067
 20
5.4760116026
 30
0.0
 10
5.2078237594
 20
5.4752307821
 30
0.0
 10
5.2123307235
 20
5.473079882
 30
0.0
 10
5.2150971522
 20
5.4709607476
 30
0.0
 10
5.2164513658
 20
5.4697582857
 30
0.0
  0
SPLINE
  5
3E8
100
AcDbEntity
  8
0
100
AcDbSpline
 62
7
  6
CONTINUOUS
 70
0
 71
3
 72
10
 73
6
 74
0
 42
0.0000001
 43
0.0000001
 44
0.0000000001
 40
0.0
 40
0.0
 40
0.0
 40
0.0
 40
0.3650022838
 40
0.6971597887
 40
1.0
 40
1.0
 40
1.0
 40
1.0
 10
5.1888486224
 20
5.4734690781
 30
0.0
 10
5.1904683396
 20
5.4742712247
 30
0.0
 10
5.1936873779
 20
5.4755846149
 30
0.0
 10
5.1985893038
 20
5.4764776624
 30
0.0
 10
5.2017634554
 20
5.4764140368
 30
0.0
 10
5.2032466005
 20
5.4761922152
 30
0.0
  0
SPLINE
  5
3E9
100
AcDbEntity
  8
0
100
AcDbSpline
 62
7
  6
CONTINUOUS
 70
0
 71
3
 72
10
 73
6
 74
0
 42
0.0000001
 43
0.0000001
 44
0.0000000001
 40
0.0
 40
0.0
 40
0.0
 40
0.0
 40
0.3588304335
 40
0.691846555
 40
1.0
 40
1.0
 40
1.0
 40
1.0
 10
5.1750931955
 20
5.4620425032
 30
0.0
 10
5.1764710947
 20
5.4636959903
 30
0.0
 10
5.1792969136
 20
5.4667501656
 30
0.0
 10
5.1839004113
 20
5.4706212662
 30
0.0
 10
5.187194538
 20
5.4726441447
 30
0.0
 10
5.1888486224
 20
5.4734690781
 30
0.0
  0
SPLINE
  5
3EA
100
AcDbEntity
  8
0
100
AcDbSpline
 62
7
  6
CONTINUOUS
 70
0
 71
3
 72
10
 73
6
 74
0
 42
0.0000001
 43
0.0000001
 44
0.0000000001
 40
0.0
 40
0.0
 40
0.0
 40
0.0
 40
0.3541760923
 40
0.6872249651
 40
1.0
 40
1.0
 40
1.0
 40
1.0
 10
5.1659234044
 20
5.4462233006
 30
0.0
 10
5.1667292257
 20
5.4482344815
 30
0.0
 10
5.1684588066
 20
5.452074364
 30
0.0
 10
5.1715223555
 20
5.4573807804
 30
0.0
 10
5.1738652271
 20
5.4605751974
 30
0.0
 10
5.1750931955
 20
5.4620425032
 30
0.0
  0
SPLINE
  5
3EB
100
AcDbEntity
  8
0
100
AcDbSpline
 62
7
  6
CONTINUOUS
 70
0
 71
3
 72
10
 73
6
 74
0
 42
0.0000001
 43
0.0000001
 44
0.0000000001
 40
0.0
 40
0.0
 40
0.0
 40
0.0
 40
0.3493878231
 40
0.6823985049
 40
1.0
 40
1.0
 40
1.0
 40
1.0
 10
5.1607524925
 20
5.4262744726
 30
0.0
 10
5.1610814133
 20
5.4286572904
 30
0.0
 10
5.1618873695
 20
5.433291746
 30
0.0
 10
5.1636307378
 20
5.4399590984
 30
0.0
 10
5.1651078803
 20
5.4441945004
 30
0.0
 10
5.1659234044
 20
5.4462233006
 30
0.0
  0
SPLINE
  5
3EC
100
AcDbEntity
  8
0
100
AcDbSpline
 62
7
  6
CONTINUOUS
 70
0
 71
3
 72
10
 73
6
 74
0
 42
0.0000001
 43
0.0000001
 44
0.0000000001
 40
0.0
 40
0.0
 40
0.0
 40
0.0
 40
0.3162619793
 40
0.6491876661
 40
1.0
 40
1.0
 40
1.0
 40
1.0
 10
5.1604030004
 20
5.4055959635
 30
0.0
 10
5.1601577743
 20
5.4077672761
 30
0.0
 10
5.1598650883
 20
5.4122495389
 30
0.0
 10
5.1599664251
 20
5.4191648864
 30
0.0
 10
5.1604311317
 20
5.4238720388
 30
0.0
 10
5.1607524925
 20
5.4262744726
 30
0.0
  0
SPLINE
  5
3ED
100
AcDbEntity
  8
0
100
AcDbSpline
 62
7
  6
CONTINUOUS
 70
0
 71
3
 72
10
 73
6
 74
0
 42
0.0000001
 43
0.0000001
 44
0.0000000001
 40
0.0
 40
0.0
 40
0.0
 40
0.0
 40
0.0622453736
 40
0.516823451
 40
1.0
 40
1.0
 40
1.0
 40
1.0
 10
5.1632263016
 20
5.3925225099
 30
0.0
 10
5.1631372816
 20
5.392786028
 30
0.0
 10
5.1624150996
 20
5.3949796912
 30
0.0
 10
5.16128385
 20
5.3993064398
 30
0.0
 10
5.1606425552
 20
5.4034519228
 30
0.0
 10
5.1604030004
 20
5.4055959635
 30
0.0
  0
LINE
  5
3EE
100
AcDbEntity
  8
0
100
AcDbLine
 62
7
  6
CONTINUOUS
 10
5.1752475428
 20
5.373243783
 11
5.1724418465
 21
5.3760696774
  0
SPLINE
  5
3EF
100
AcDbEntity
  8
0
100
AcDbSpline
 62
7
  6
CONTINUOUS
 70
0
 71
3
 72
10
 73
6
 74
0
 42
0.0000001
 43
0.0000001
 44
0.0000000001
 40
0.0
 40
0.0
 40
0.0
 40
0.0
 40
0.3025380331
 40
0.6350171161
 40
1.0
 40
1.0
 40
1.0
 40
1.0
 10
5.1883763261
 20
5.3667546211
 30
0.0
 10
5.186891045
 20
5.3669398816
 30
0.0
 10
5.1838191267
 20
5.3677345525
 30
0.0
 10
5.179352218
 20
5.3699295692
 30
0.0
 10
5.1765976563
 20
5.372044673
 30
0.0
 10
5.1752475428
 20
5.373243783
 30
0.0
  0
SPLINE
  5
3F0
100
AcDbEntity
  8
0
100
AcDbSpline
 62
7
  6
CONTINUOUS
 70
0
 71
3
 72
10
 73
6
 74
0
 42
0.0000001
 43
0.0000001
 44
0.0000000001
 40
0.0
 40
0.0
 40
0.0
 40
0.0
 40
0.3648275815
 40
0.6968946893
 40
1.0
 40
1.0
 40
1.0
 40
1.0
 10
5.2028190321
 20
5.3694317885
 30
0.0
 10
5.2011932456
 20
5.3686344811
 30
0.0
 10
5.1979627768
 20
5.3673306639
 30
0.0
 10
5.1930453678
 20
5.3664597503
 30
0.0
 10
5.1898639894
 20
5.3665307167
 30
0.0
 10
5.1883763261
 20
5.3667546211
 30
0.0
  0
SPLINE
  5
3F1
100
AcDbEntity
  8
0
100
AcDbSpline
 62
7
  6
CONTINUOUS
 70
0
 71
3
 72
10
 73
6
 74
0
 42
0.0000001
 43
0.0000001
 44
0.0000000001
 40
0.0
 40
0.0
 40
0.0
 40
0.0
 40
0.3587914174
 40
0.6919147459
 40
1.0
 40
1.0
 40
1.0
 40
1.0
 10
5.2167172442
 20
5.3809312999
 30
0.0
 10
5.2153171858
 20
5.3792726075
 30
0.0
 10
5.2124515014
 20
5.3762077616
 30
0.0
 10
5.2078131052
 20
5.3722987524
 30
0.0
 10
5.2044878225
 20
5.3702618364
 30
0.0
 10
5.2028190321
 20
5.3694317885
 30
0.0
  0
SPLINE
  5
3F2
100
AcDbEntity
  8
0
100
AcDbSpline
 62
7
  6
CONTINUOUS
 70
0
 71
3
 72
10
 73
6
 74
0
 42
0.0000001
 43
0.0000001
 44
0.0000000001
 40
0.0
 40
0.0
 40
0.0
 40
0.0
 40
0.3547893365
 40
0.6879592221
 40
1.0
 40
1.0
 40
1.0
 40
1.0
 10
5.2257710721
 20
5.3966370836
 30
0.0
 10
5.2249773373
 20
5.3946365633
 30
0.0
 10
5.2232724724
 20
5.3908198397
 30
0.0
 10
5.2202678466
 20
5.3855381042
 30
0.0
 10
5.2179397461
 20
5.3823764958
 30
0.0
 10
5.2167172442
 20
5.3809312999
 30
0.0
  0
SPLINE
  5
3F3
100
AcDbEntity
  8
0
100
AcDbSpline
 62
7
  6
CONTINUOUS
 70
0
 71
3
 72
10
 73
6
 74
0
 42
0.0000001
 43
0.0000001
 44
0.0000000001
 40
0.0
 40
0.0
 40
0.0
 40
0.0
 40
0.3371267411
 40
0.6709055152
 40
1.0
 40
1.0
 40
1.0
 40
1.0
 10
5.2310267925
 20
5.4167256687
 30
0.0
 10
5.2307115853
 20
5.4144083914
 30
0.0
 10
5.2299025516
 20
5.4098190638
 30
0.0
 10
5.2281413936
 20
5.403102284
 30
0.0
 10
5.2266170999
 20
5.3987574279
 30
0.0
 10
5.2257710721
 20
5.3966370836
 30
0.0
  0
SPLINE
  5
3F4
100
AcDbEntity
  8
0
100
AcDbSpline
 62
7
  6
CONTINUOUS
 70
0
 71
3
 72
10
 73
6
 74
0
 42
0.0000001
 43
0.0000001
 44
0.0000000001
 40
0.0
 40
0.0
 40
0.0
 40
0.0
 40
0.3448743725
 40
0.6786451541
 40
1.0
 40
1.0
 40
1.0
 40
1.0
 10
5.2142156136
 20
5.4076777566
 30
0.0
 10
5.2138790956
 20
5.4051570116
 30
0.0
 10
5.2131381986
 20
5.4002073356
 30
0.0
 10
5.2118695887
 20
5.3929413502
 30
0.0
 10
5.2107762305
 20
5.38823267
 30
0.0
 10
5.2101813003
 20
5.385938892
 30
0.0
  0
SPLINE
  5
3F5
100
AcDbEntity
  8
0
100
AcDbSpline
 62
7
  6
CONTINUOUS
 70
0
 71
3
 72
10
 73
6
 74
0
 42
0.0000001
 43
0.0000001
 44
0.0000000001
 40
0.0
 40
0.0
 40
0.0
 40
0.0
 40
0.3232026495
 40
0.6569667616
 40
1.0
 40
1.0
 40
1.0
 40
1.0
 10
5.2182663583
 20
5.4462681679
 30
0.0
 10
5.2180189042
 20
5.4420942229
 30
0.0
 10
5.217376679
 20
5.4336169665
 30
0.0
 10
5.2159208778
 20
5.4207607279
 30
0.0
 10
5.2148183303
 20
5.4120744597
 30
0.0
 10
5.2142156136
 20
5.4076777566
 30
0.0
  0
SPLINE
  5
3F6
100
AcDbEntity
  8
0
100
AcDbSpline
 62
7
  6
CONTINUOUS
 70
0
 71
3
 72
10
 73
6
 74
0
 42
0.0000001
 43
0.0000001
 44
0.0000000001
 40
0.0
 40
0.0
 40
0.0
 40
0.0
 40
0.308770601
 40
0.643016931
 40
1.0
 40
1.0
 40
1.0
 40
1.0
 10
5.2170594992
 20
5.4653688558
 30
0.0
 10
5.2175853618
 20
5.4634626859
 30
0.0
 10
5.2183574383
 20
5.4593920308
 30
0.0
 10
5.2184695569
 20
5.4529766708
 30
0.0
 10
5.2183881147
 20
5.4485510532
 30
0.0
 10
5.2182663583
 20
5.4462681679
 30
0.0
  0
SPLINE
  5
3F7
100
AcDbEntity
  8
0
100
AcDbSpline
 62
7
  6
CONTINUOUS
 70
0
 71
3
 72
10
 73
6
 74
0
 42
0.0000001
 43
0.0000001
 44
0.0000000001
 40
0.0
 40
0.0
 40
0.0
 40
0.0
 40
0.3497495635
 40
0.683803093
 40
1.0
 40
1.0
 40
1.0
 40
1.0
 10
5.2245465789
 20
5.4455540125
 30
0.0
 10
5.2241753814
 20
5.4480139261
 30
0.0
 10
5.2231423563
 20
5.4527875353
 30
0.0
 10
5.2205937512
 20
5.4594536112
 30
0.0
 10
5.2183224978
 20
5.4635078616
 30
0.0
 10
5.2170594992
 20
5.4653688558
 30
0.0
  0
SPLINE
  5
3F8
100
AcDbEntity
  8
0
100
AcDbSpline
 62
7
  6
CONTINUOUS
 70
0
 71
3
 72
10
 73
6
 74
0
 42
0.0000001
 43
0.0000001
 44
0.0000000001
 40
0.0
 40
0.0
 40
0.0
 40
0.0
 40
0.355063554
 40
0.6886101623
 40
1.0
 40
1.0
 40
1.0
 40
1.0
 10
5.2239993754
 20
5.4176805473
 30
0.0
 10
5.2244538452
 20
5.4209580595
 30
0.0
 10
5.2251141294
 20
5.4273465057
 30
0.0
 10
5.2254257507
 20
5.4366719497
 30
0.0
 10
5.2249510146
 20
5.4426804623
 30
0.0
 10
5.2245465789
 20
5.4455540125
 30
0.0
  0
SPLINE
  5
3F9
100
AcDbEntity
  8
0
100
AcDbSpline
 62
7
  6
CONTINUOUS
 70
0
 71
3
 72
10
 73
6
 74
0
 42
0.0000001
 43
0.0000001
 44
0.0000000001
 40
0.0
 40
0.0
 40
0.0
 40
0.0
 40
0.3113856949
 40
0.6451649245
 40
1.0
 40
1.0
 40
1.0
 40
1.0
 10
5.2171360593
 20
5.3899197204
 30
0.0
 10
5.2182930843
 20
5.3926615482
 30
0.0
 10
5.2203490885
 20
5.3984936961
 30
0.0
 10
5.2224766264
 20
5.407822461
 30
0.0
 10
5.2235544615
 20
5.4143186495
 30
0.0
 10
5.2239993754
 20
5.4176805473
 30
0.0
  0
SPLINE
  5
3FA
100
AcDbEntity
  8
0
100
AcDbSpline
 62
7
  6
CONTINUOUS
 70
0
 71
3
 72
10
 73
6
 74
0
 42
0.0000001
 43
0.0000001
 44
0.0000000001
 40
0.0
 40
0.0
 40
0.0
 40
0.0
 40
0.3035483983
 40
0.636169383
 40
1.0
 40
1.0
 40
1.0
 40
1.0
 10
5.2052316755
 20
5.3739326839
 30
0.0
 10
5.2068618422
 20
5.3751535166
 30
0.0
 10
5.2099960707
 20
5.3780984189
 30
0.0
 10
5.2140159122
 20
5.3835064293
 30
0.0
 10
5.2161584527
 20
5.3876829333
 30
0.0
 10
5.2171360593
 20
5.3899197204
 30
0.0
  0
SPLINE
  5
3FB
100
AcDbEntity
  8
0
100
AcDbSpline
 62
7
  6
CONTINUOUS
 70
0
 71
3
 72
10
 73
6
 74
0
 42
0.0000001
 43
0.0000001
 44
0.0000000001
 40
0.0
 40
0.0
 40
0.0
 40
0.0
 40
0.3538978994
 40
0.6877750943
 40
1.0
 40
1.0
 40
1.0
 40
1.0
 10
5.2101813003
 20
5.385938892
 30
0.0
 10
5.2097889909
 20
5.3844519143
 30
0.0
 10
5.2089118959
 20
5.3815924735
 30
0.0
 10
5.2073522922
 20
5.3775283554
 30
0.0
 10
5.2059777087
 20
5.3750659346
 30
0.0
 10
5.2052316755
 20
5.3739326839
 30
0.0
  0
SPLINE
  5
3FC
100
AcDbEntity
  8
0
100
AcDbSpline
 62
7
  6
CONTINUOUS
 70
0
 71
3
 72
10
 73
6
 74
0
 42
0.0000001
 43
0.0000001
 44
0.0000000001
 40
0.0
 40
0.0
 40
0.0
 40
0.0
 40
0.3290479393
 40
0.6656332227
 40
1.0
 40
1.0
 40
1.0
 40
1.0
 10
5.7069934215
 20
4.9575210679
 30
0.0
 10
5.7061054064
 20
4.9562077386
 30
0.0
 10
5.7040042624
 20
4.9537445895
 30
0.0
 10
5.7001328288
 20
4.9508178993
 30
0.0
 10
5.6971660216
 20
4.9494602944
 30
0.0
 10
5.6956381492
 20
4.9489494888
 30
0.0
  0
SPLINE
  5
3FD
100
AcDbEntity
  8
0
100
AcDbSpline
 62
7
  6
CONTINUOUS
 70
0
 71
3
 72
10
 73
6
 74
0
 42
0.0000001
 43
0.0000001
 44
0.0000000001
 40
0.0
 40
0.0
 40
0.0
 40
0.0
 40
0.3579128651
 40
0.692064001
 40
1.0
 40
1.0
 40
1.0
 40
1.0
 10
5.7147030156
 20
4.9778846158
 30
0.0
 10
5.7140935306
 20
4.9753483862
 30
0.0
 10
5.7127324013
 20
4.9704907568
 30
0.0
 10
5.7104159832
 20
4.9635657645
 30
0.0
 10
5.7082071965
 20
4.9594087174
 30
0.0
 10
5.7069934215
 20
4.9575210679
 30
0.0
  0
SPLINE
  5
3FE
100
AcDbEntity
  8
0
100
AcDbSpline
 62
7
  6
CONTINUOUS
 70
0
 71
3
 72
13
 73
9
 74
0
 42
0.0000001
 43
0.0000001
 44
0.0000000001
 40
0.0
 40
0.0
 40
0.0
 40
0.0
 40
0.1253592518
 40
0.2674301425
 40
0.4258902576
 40
0.6000195467
 40
0.7913753742
 40
1.0
 40
1.0
 40
1.0
 40
1.0
 10
5.7369080299
 20
5.0172644436
 30
0.0
 10
5.7351485003
 20
5.0166510346
 30
0.0
 10
5.7316186327
 20
5.0146419141
 30
0.0
 10
5.7272585917
 20
5.0099694469
 30
0.0
 10
5.7234903627
 20
5.0039730633
 30
0.0
 10
5.7202744258
 20
4.996857179
 30
0.0
 10
5.7176324717
 20
4.9887347007
 30
0.0
 10
5.716000653
 20
4.9830167951
 30
0.0
 10
5.7152232476
 20
4.9800147429
 30
0.0
  0
SPLINE
  5
3FF
100
AcDbEntity
  8
0
100
AcDbSpline
 62
7
  6
CONTINUOUS
 70
0
 71
3
 72
10
 73
6
 74
0
 42
0.0000001
 43
0.0000001
 44
0.0000000001
 40
0.0
 40
0.0
 40
0.0
 40
0.0
 40
0.3193660392
 40
0.6536570965
 40
1.0
 40
1.0
 40
1.0
 40
1.0
 10
5.7475780294
 20
5.018528106
 30
0.0
 10
5.7464332193
 20
5.0186579145
 30
0.0
 10
5.7440653406
 20
5.018729372
 30
0.0
 10
5.7404697181
 20
5.0183147112
 30
0.0
 10
5.7380901369
 20
5.017669157
 30
0.0
 10
5.7369080299
 20
5.0172644436
 30
0.0
  0
SPLINE
  5
400
100
AcDbEntity
  8
0
100
AcDbSpline
 62
7
  6
CONTINUOUS
 70
0
 71
3
 72
10
 73
6
 74
0
 42
0.0000001
 43
0.0000001
 44
0.0000000001
 40
0.0
 40
0.0
 40
0.0
 40
0.0
 40
0.353568985
 40
0.6874062119
 40
1.0
 40
1.0
 40
1.0
 40
1.0
 10
5.7577435092
 20
5.0147917501
 30
0.0
 10
5.7566637507
 20
5.0154925458
 30
0.0
 10
5.7544699843
 20
5.0167212189
 30
0.0
 10
5.751033472
 20
5.0179646478
 30
0.0
 10
5.7487106268
 20
5.0184166983
 30
0.0
 10
5.7475780294
 20
5.018528106
 30
0.0
  0
SPLINE
  5
401
100
AcDbEntity
  8
0
100
AcDbSpline
 62
7
  6
CONTINUOUS
 70
0
 71
3
 72
10
 73
6
 74
0
 42
0.0000001
 43
0.0000001
 44
0.0000000001
 40
0.0
 40
0.0
 40
0.0
 40
0.0
 40
0.319525891
 40
0.653021326
 40
1.0
 40
1.0
 40
1.0
 40
1.0
 10
5.7504005878
 20
5.0157490021
 30
0.0
 10
5.7511908113
 20
5.015746793
 30
0.0
 10
5.7528066951
 20
5.0156676728
 30
0.0
 10
5.7552579937
 20
5.0153240096
 30
0.0
 10
5.7569083303
 20
5.0149888474
 30
0.0
 10
5.7577435092
 20
5.0147917501
 30
0.0
  0
SPLINE
  5
402
100
AcDbEntity
  8
0
100
AcDbSpline
 62
7
  6
CONTINUOUS
 70
0
 71
3
 72
10
 73
6
 74
0
 42
0.0000001
 43
0.0000001
 44
0.0000000001
 40
0.0
 40
0.0
 40
0.0
 40
0.0
 40
0.3447538087
 40
0.6785461415
 40
1.0
 40
1.0
 40
1.0
 40
1.0
 10
5.7441943571
 20
5.0146830032
 30
0.0
 10
5.7448818941
 20
5.0149179815
 30
0.0
 10
5.7462594748
 20
5.0153140487
 30
0.0
 10
5.7483411194
 20
5.0156671605
 30
0.0
 10
5.7497231114
 20
5.015749779
 30
0.0
 10
5.7504005878
 20
5.0157490021
 30
0.0
  0
SPLINE
  5
403
100
AcDbEntity
  8
0
100
AcDbSpline
 62
7
  6
CONTINUOUS
 70
0
 71
3
 72
10
 73
6
 74
0
 42
0.0000001
 43
0.0000001
 44
0.0000000001
 40
0.0
 40
0.0
 40
0.0
 40
0.0
 40
0.349728565
 40
0.6828192642
 40
1.0
 40
1.0
 40
1.0
 40
1.0
 10
5.7380560067
 20
5.0113680079
 30
0.0
 10
5.7387080658
 20
5.0118591495
 30
0.0
 10
5.7400257413
 20
5.0127616271
 30
0.0
 10
5.7420845868
 20
5.0138698022
 30
0.0
 10
5.7434931764
 20
5.0144453478
 30
0.0
 10
5.7441943571
 20
5.0146830032
 30
0.0
  0
SPLINE
  5
404
100
AcDbEntity
  8
0
100
AcDbSpline
 62
7
  6
CONTINUOUS
 70
0
 71
3
 72
10
 73
6
 74
0
 42
0.0000001
 43
0.0000001
 44
0.0000000001
 40
0.0
 40
0.0
 40
0.0
 40
0.0
 40
0.3494217783
 40
0.6826310459
 40
1.0
 40
1.0
 40
1.0
 40
1.0
 10
5.7326354577
 20
5.005750695
 30
0.0
 10
5.7331739029
 20
5.0064869222
 30
0.0
 10
5.7342855623
 20
5.0078830704
 30
0.0
 10
5.7360958583
 20
5.0097688517
 30
0.0
 10
5.7373943592
 20
5.0108694651
 30
0.0
 10
5.7380560067
 20
5.0113680079
 30
0.0
  0
SPLINE
  5
405
100
AcDbEntity
  8
0
100
AcDbSpline
 62
7
  6
CONTINUOUS
 70
0
 71
3
 72
10
 73
6
 74
0
 42
0.0000001
 43
0.0000001
 44
0.0000000001
 40
0.0
 40
0.0
 40
0.0
 40
0.0
 40
0.3626342203
 40
0.6962291674
 40
1.0
 40
1.0
 40
1.0
 40
1.0
 10
5.7233569668
 20
4.9804935555
 30
0.0
 10
5.7241327057
 20
4.9836660291
 30
0.0
 10
5.7258228913
 20
4.9897020973
 30
0.0
 10
5.728460294
 20
4.9983336609
 30
0.0
 10
5.7311486068
 20
5.003454195
 30
0.0
 10
5.7326354577
 20
5.005750695
 30
0.0
  0
LINE
  5
406
100
AcDbEntity
  8
0
100
AcDbLine
 62
7
  6
CONTINUOUS
 10
5.7216528082
 20
4.9733576831
 11
5.7233569668
 21
4.9804935555
  0
SPLINE
  5
407
100
AcDbEntity
  8
0
100
AcDbSpline
 62
7
  6
CONTINUOUS
 70
0
 71
3
 72
10
 73
6
 74
0
 42
0.0000001
 43
0.0000001
 44
0.0000000001
 40
0.0
 40
0.0
 40
0.0
 40
0.0
 40
0.3084204474
 40
0.6421582143
 40
1.0
 40
1.0
 40
1.0
 40
1.0
 10
5.7144835116
 20
4.9565892593
 30
0.0
 10
5.7155846394
 20
4.9581184817
 30
0.0
 10
5.7176082864
 20
4.9615056417
 30
0.0
 10
5.7198813246
 20
4.967191835
 30
0.0
 10
5.721111299
 20
4.9712394346
 30
0.0
 10
5.7216528082
 20
4.9733576831
 30
0.0
  0
SPLINE
  5
408
100
AcDbEntity
  8
0
100
AcDbSpline
 62
7
  6
CONTINUOUS
 70
0
 71
3
 72
10
 73
6
 74
0
 42
0.0000001
 43
0.0000001
 44
0.0000000001
 40
0.0
 40
0.0
 40
0.0
 40
0.0
 40
0.3441884548
 40
0.6800217922
 40
1.0
 40
1.0
 40
1.0
 40
1.0
 10
5.7032111072
 20
4.9484963027
 30
0.0
 10
5.7047398955
 20
4.9490152489
 30
0.0
 10
5.707677056
 20
4.950322774
 30
0.0
 10
5.7115016052
 20
4.9530899406
 30
0.0
 10
5.7136002825
 20
4.9553757444
 30
0.0
 10
5.7144835116
 20
4.9565892593
 30
0.0
  0
SPLINE
  5
409
100
AcDbEntity
  8
0
100
AcDbSpline
 62
7
  6
CONTINUOUS
 70
0
 71
3
 72
10
 73
6
 74
0
 42
0.0000001
 43
0.0000001
 44
0.0000000001
 40
0.0
 40
0.0
 40
0.0
 40
0.0
 40
0.3191687438
 40
0.6525705006
 40
1.0
 40
1.0
 40
1.0
 40
1.0
 10
5.6974955498
 20
4.9474236402
 30
0.0
 10
5.6981160022
 20
4.9474421945
 30
0.0
 10
5.6993831047
 20
4.9475512603
 30
0.0
 10
5.7012982017
 20
4.9479061913
 30
0.0
 10
5.7025714319
 20
4.9482786438
 30
0.0
 10
5.7032111072
 20
4.9484963027
 30
0.0
  0
SPLINE
  5
40A
100
AcDbEntity
  8
0
100
AcDbSpline
 62
7
  6
CONTINUOUS
 70
0
 71
3
 72
10
 73
6
 74
0
 42
0.0000001
 43
0.0000001
 44
0.0000000001
 40
0.0
 40
0.0
 40
0.0
 40
0.0
 40
0.3185184523
 40
0.6516353499
 40
1.0
 40
1.0
 40
1.0
 40
1.0
 10
5.6917203167
 20
4.948077011
 30
0.0
 10
5.6923168486
 20
4.9479110878
 30
0.0
 10
5.693557362
 20
4.9476413247
 30
0.0
 10
5.6954915256
 20
4.9474190514
 30
0.0
 10
5.6968186796
 20
4.9474026225
 30
0.0
 10
5.6974955498
 20
4.9474236402
 30
0.0
  0
SPLINE
  5
40B
100
AcDbEntity
  8
0
100
AcDbSpline
 62
7
  6
CONTINUOUS
 70
0
 71
3
 72
10
 73
6
 74
0
 42
0.0000001
 43
0.0000001
 44
0.0000000001
 40
0.0
 40
0.0
 40
0.0
 40
0.0
 40
0.2950374601
 40
0.627575738
 40
1.0
 40
1.0
 40
1.0
 40
1.0
 10
5.7474596728
 20
5.0124430888
 30
0.0
 10
5.7460269953
 20
5.0119681441
 30
0.0
 10
5.7431525045
 20
5.0103958811
 30
0.0
 10
5.7395260694
 20
5.0067155779
 30
0.0
 10
5.7376148485
 20
5.0036245556
 30
0.0
 10
5.7367505266
 20
5.0019266436
 30
0.0
  0
SPLINE
  5
40C
100
AcDbEntity
  8
0
100
AcDbSpline
 62
7
  6
CONTINUOUS
 70
0
 71
3
 72
10
 73
6
 74
0
 42
0.0000001
 43
0.0000001
 44
0.0000000001
 40
0.0
 40
0.0
 40
0.0
 40
0.0
 40
0.3358966499
 40
0.6746359022
 40
1.0
 40
1.0
 40
1.0
 40
1.0
 10
5.7602580969
 20
5.0112604424
 30
0.0
 10
5.7589740782
 20
5.0119970062
 30
0.0
 10
5.7561708987
 20
5.0131241421
 30
0.0
 10
5.751723465
 20
5.0135253621
 30
0.0
 10
5.7488060773
 20
5.0129362024
 30
0.0
 10
5.7474596728
 20
5.0124430888
 30
0.0
  0
SPLINE
  5
40D
100
AcDbEntity
  8
0
100
AcDbSpline
 62
7
  6
CONTINUOUS
 70
0
 71
3
 72
10
 73
6
 74
0
 42
0.0000001
 43
0.0000001
 44
0.0000000001
 40
0.0
 40
0.0
 40
0.0
 40
0.0
 40
0.3448520334
 40
0.6819993144
 40
1.0
 40
1.0
 40
1.0
 40
1.0
 10
5.7690010728
 20
5.000607855
 30
0.0
 10
5.7684876365
 20
5.0021428005
 30
0.0
 10
5.7671229345
 20
5.0050807292
 30
0.0
 10
5.7640984898
 20
5.0087306028
 30
0.0
 10
5.761577505
 20
5.0105627564
 30
0.0
 10
5.7602580969
 20
5.0112604424
 30
0.0
  0
SPLINE
  5
40E
100
AcDbEntity
  8
0
100
AcDbSpline
 62
7
  6
CONTINUOUS
 70
0
 71
3
 72
10
 73
6
 74
0
 42
0.0000001
 43
0.0000001
 44
0.0000000001
 40
0.0
 40
0.0
 40
0.0
 40
0.0
 40
0.3321049412
 40
0.6716990075
 40
1.0
 40
1.0
 40
1.0
 40
1.0
 10
5.7670500331
 20
4.9846358773
 30
0.0
 10
5.7680773307
 20
4.9861642381
 30
0.0
 10
5.7696848994
 20
4.9896036426
 30
0.0
 10
5.7703616561
 20
4.995195588
 30
0.0
 10
5.7696322072
 20
4.9989003261
 30
0.0
 10
5.7690010728
 20
5.000607855
 30
0.0
  0
SPLINE
  5
40F
100
AcDbEntity
  8
0
100
AcDbSpline
 62
7
  6
CONTINUOUS
 70
0
 71
3
 72
10
 73
6
 74
0
 42
0.0000001
 43
0.0000001
 44
0.0000000001
 40
0.0
 40
0.0
 40
0.0
 40
0.0
 40
0.3706113331
 40
0.7027630208
 40
1.0
 40
1.0
 40
1.0
 40
1.0
 10
5.7514405815
 20
4.973436959
 30
0.0
 10
5.7537252266
 20
4.9742178946
 30
0.0
 10
5.7579643204
 20
4.9760338709
 30
0.0
 10
5.7633104847
 20
4.9798430436
 30
0.0
 10
5.7660254168
 20
4.9829927509
 30
0.0
 10
5.7670500331
 20
4.9846358773
 30
0.0
  0
SPLINE
  5
410
100
AcDbEntity
  8
0
100
AcDbSpline
 62
7
  6
CONTINUOUS
 70
0
 71
3
 72
10
 73
6
 74
0
 42
0.0000001
 43
0.0000001
 44
0.0000000001
 40
0.0
 40
0.0
 40
0.0
 40
0.0
 40
0.3117063531
 40
0.6446096927
 40
1.0
 40
1.0
 40
1.0
 40
1.0
 10
5.7387482236
 20
4.9715331364
 30
0.0
 10
5.7400867503
 20
4.9714527601
 30
0.0
 10
5.7428700521
 20
4.9715025761
 30
0.0
 10
5.7471359754
 20
4.9721353298
 30
0.0
 10
5.7499930426
 20
4.9729449702
 30
0.0
 10
5.7514405815
 20
4.973436959
 30
0.0
  0
SPLINE
  5
411
100
AcDbEntity
  8
0
100
AcDbSpline
 62
7
  6
CONTINUOUS
 70
0
 71
3
 72
10
 73
6
 74
0
 42
0.0000001
 43
0.0000001
 44
0.0000000001
 40
0.0
 40
0.0
 40
0.0
 40
0.0
 40
0.3072140873
 40
0.6399288266
 40
1.0
 40
1.0
 40
1.0
 40
1.0
 10
5.7284421243
 20
4.9747008265
 30
0.0
 10
5.72937019
 20
4.9740816057
 30
0.0
 10
5.7314482782
 20
4.9730032175
 30
0.0
 10
5.7349332267
 20
4.9719227548
 30
0.0
 10
5.737442777
 20
4.971608761
 30
0.0
 10
5.7387482236
 20
4.9715331364
 30
0.0
  0
SPLINE
  5
412
100
AcDbEntity
  8
0
100
AcDbSpline
 62
7
  6
CONTINUOUS
 70
0
 71
3
 72
10
 73
6
 74
0
 42
0.0000001
 43
0.0000001
 44
0.0000000001
 40
0.0
 40
0.0
 40
0.0
 40
0.0
 40
0.3116549093
 40
0.6458372317
 40
1.0
 40
1.0
 40
1.0
 40
1.0
 10
5.7367505266
 20
5.0019266436
 30
0.0
 10
5.7354715338
 20
4.9992535804
 30
0.0
 10
5.7331431687
 20
4.9935497946
 30
0.0
 10
5.7306631767
 20
4.9843604189
 30
0.0
 10
5.729139132
 20
4.977995368
 30
0.0
 10
5.7284421243
 20
4.9747008265
 30
0.0
  0
SPLINE
  5
413
100
AcDbEntity
  8
0
100
AcDbSpline
 62
7
  6
CONTINUOUS
 70
0
 71
3
 72
10
 73
6
 74
0
 42
0.0000001
 43
0.0000001
 44
0.0000000001
 40
0.0
 40
0.0
 40
0.0
 40
0.0
 40
0.329434021
 40
0.6650347006
 40
1.0
 40
1.0
 40
1.0
 40
1.0
 10
5.6856178257
 20
5.0040036348
 30
0.0
 10
5.6841887912
 20
5.0035235789
 30
0.0
 10
5.6813874954
 20
5.0022846626
 30
0.0
 10
5.6775806291
 20
4.9997049333
 30
0.0
 10
5.6753761522
 20
4.9975424766
 30
0.0
 10
5.6743803008
 20
4.9963772175
 30
0.0
  0
SPLINE
  5
414
100
AcDbEntity
  8
0
100
AcDbSpline
 62
7
  6
CONTINUOUS
 70
0
 71
3
 72
10
 73
6
 74
0
 42
0.0000001
 43
0.0000001
 44
0.0000000001
 40
0.0
 40
0.0
 40
0.0
 40
0.0
 40
0.3109258265
 40
0.6438237756
 40
1.0
 40
1.0
 40
1.0
 40
1.0
 10
5.6969594524
 20
5.0055431124
 30
0.0
 10
5.6957705658
 20
5.0056537983
 30
0.0
 10
5.6932867834
 20
5.0056729026
 30
0.0
 10
5.6894697782
 20
5.0051588901
 30
0.0
 10
5.6869127806
 20
5.0044440537
 30
0.0
 10
5.6856178257
 20
5.0040036348
 30
0.0
  0
SPLINE
  5
415
100
AcDbEntity
  8
0
100
AcDbSpline
 62
7
  6
CONTINUOUS
 70
0
 71
3
 72
10
 73
6
 74
0
 42
0.0000001
 43
0.0000001
 44
0.0000000001
 40
0.0
 40
0.0
 40
0.0
 40
0.0
 40
0.3576394721
 40
0.6904588456
 40
1.0
 40
1.0
 40
1.0
 40
1.0
 10
5.7077592496
 20
5.0018217674
 30
0.0
 10
5.7065831105
 20
5.0025289739
 30
0.0
 10
5.7042262253
 20
5.0037623044
 30
0.0
 10
5.7005831555
 20
5.0050096642
 30
0.0
 10
5.6981431815
 20
5.005444658
 30
0.0
 10
5.6969594524
 20
5.0055431124
 30
0.0
  0
SPLINE
  5
416
100
AcDbEntity
  8
0
100
AcDbSpline
 62
7
  6
CONTINUOUS
 70
0
 71
3
 72
10
 73
6
 74
0
 42
0.0000001
 43
0.0000001
 44
0.0000000001
 40
0.0
 40
0.0
 40
0.0
 40
0.0
 40
0.3420197102
 40
0.6760680913
 40
1.0
 40
1.0
 40
1.0
 40
1.0
 10
5.6985479808
 20
5.0027196019
 30
0.0
 10
5.699605132
 20
5.0027942224
 30
0.0
 10
5.7017050217
 20
5.002831126
 30
0.0
 10
5.7047946348
 20
5.0025247498
 30
0.0
 10
5.7067931091
 20
5.0020938993
 30
0.0
 10
5.7077592496
 20
5.0018217674
 30
0.0
  0
SPLINE
  5
417
100
AcDbEntity
  8
0
100
AcDbSpline
 62
7
  6
CONTINUOUS
 70
0
 71
3
 72
10
 73
6
 74
0
 42
0.0000001
 43
0.0000001
 44
0.0000000001
 40
0.0
 40
0.0
 40
0.0
 40
0.0
 40
0.3490410035
 40
0.6822893015
 40
1.0
 40
1.0
 40
1.0
 40
1.0
 10
5.6887287988
 20
5.0006177359
 30
0.0
 10
5.6898364908
 20
5.0009982601
 30
0.0
 10
5.6920298717
 20
5.0016638302
 30
0.0
 10
5.6953123444
 20
5.0023781472
 30
0.0
 10
5.6974845527
 20
5.0026441811
 30
0.0
 10
5.6985479808
 20
5.0027196019
 30
0.0
  0
SPLINE
  5
418
100
AcDbEntity
  8
0
100
AcDbSpline
 62
7
  6
CONTINUOUS
 70
0
 71
3
 72
10
 73
6
 74
0
 42
0.0000001
 43
0.0000001
 44
0.0000000001
 40
0.0
 40
0.0
 40
0.0
 40
0.0
 40
0.3115980285
 40
0.644798956
 40
1.0
 40
1.0
 40
1.0
 40
1.0
 10
5.676160428
 20
4.9939425011
 30
0.0
 10
5.6773081291
 20
4.9948850535
 30
0.0
 10
5.6798326262
 20
4.9966588223
 30
0.0
 10
5.6840672904
 20
4.9988677283
 30
0.0
 10
5.6871263415
 20
5.0000716372
 30
0.0
 10
5.6887287988
 20
5.0006177359
 30
0.0
  0
SPLINE
  5
419
100
AcDbEntity
  8
0
100
AcDbSpline
 62
7
  6
CONTINUOUS
 70
0
 71
3
 72
10
 73
6
 74
0
 42
0.0000001
 43
0.0000001
 44
0.0000000001
 40
0.0
 40
0.0
 40
0.0
 40
0.0
 40
0.3561901542
 40
0.6893680726
 40
1.0
 40
1.0
 40
1.0
 40
1.0
 10
5.6681905972
 20
4.9835153721
 30
0.0
 10
5.6688694162
 20
4.9849305279
 30
0.0
 10
5.6703475738
 20
4.9875982444
 30
0.0
 10
5.6730505852
 20
4.9910963963
 30
0.0
 10
5.675097222
 20
4.9930804216
 30
0.0
 10
5.676160428
 20
4.9939425011
 30
0.0
  0
SPLINE
  5
41A
100
AcDbEntity
  8
0
100
AcDbSpline
 62
7
  6
CONTINUOUS
 70
0
 71
3
 72
10
 73
6
 74
0
 42
0.0000001
 43
0.0000001
 44
0.0000000001
 40
0.0
 40
0.0
 40
0.0
 40
0.0
 40
0.3141446828
 40
0.6483918505
 40
1.0
 40
1.0
 40
1.0
 40
1.0
 10
5.6743803008
 20
4.9963772175
 30
0.0
 10
5.6733844786
 20
4.9952430131
 30
0.0
 10
5.6715613343
 20
4.9926927223
 30
0.0
 10
5.6694477445
 20
4.9883543967
 30
0.0
 10
5.66853766
 20
4.9851686642
 30
0.0
 10
5.6681905972
 20
4.9835153721
 30
0.0
  0
SPLINE
  5
41B
100
AcDbEntity
  8
0
100
AcDbSpline
 62
7
  6
CONTINUOUS
 70
0
 71
3
 72
15
 73
11
 74
0
 42
0.0000001
 43
0.0000001
 44
0.0000000001
 40
0.0
 40
0.0
 40
0.0
 40
0.0
 40
0.0876679849
 40
0.1860869358
 40
0.2947342795
 40
0.4137283348
 40
0.5432456531
 40
0.6835948347
 40
0.8356826314
 40
1.0
 40
1.0
 40
1.0
 40
1.0
 10
5.6948486888
 20
4.9512559981
 30
0.0
 10
5.6961823196
 20
4.9517411982
 30
0.0
 10
5.6988486886
 20
4.9532699857
 30
0.0
 10
5.7021439857
 20
4.9567778775
 30
0.0
 10
5.7050514008
 20
4.961201308
 30
0.0
 10
5.7076297875
 20
4.9663866706
 30
0.0
 10
5.7099872953
 20
4.9722283773
 30
0.0
 10
5.7121139193
 20
4.9787241596
 30
0.0
 10
5.7140449189
 20
4.9858629962
 30
0.0
 10
5.7152646726
 20
4.9908379975
 30
0.0
 10
5.7158631684
 20
4.9934297267
 30
0.0
  0
SPLINE
  5
41C
100
AcDbEntity
  8
0
100
AcDbSpline
 62
7
  6
CONTINUOUS
 70
0
 71
3
 72
10
 73
6
 74
0
 42
0.0000001
 43
0.0000001
 44
0.0000000001
 40
0.0
 40
0.0
 40
0.0
 40
0.0
 40
0.3336011414
 40
0.6726596811
 40
1.0
 40
1.0
 40
1.0
 40
1.0
 10
5.6802244206
 20
4.9527479996
 30
0.0
 10
5.6816638046
 20
4.9518732963
 30
0.0
 10
5.6848450688
 20
4.9505253404
 30
0.0
 10
5.6899396608
 20
4.9500131182
 30
0.0
 10
5.6932969965
 20
4.9506870528
 30
0.0
 10
5.6948486888
 20
4.9512559981
 30
0.0
  0
SPLINE
  5
41D
100
AcDbEntity
  8
0
100
AcDbSpline
 62
7
  6
CONTINUOUS
 70
0
 71
3
 72
10
 73
6
 74
0
 42
0.0000001
 43
0.0000001
 44
0.0000000001
 40
0.0
 40
0.0
 40
0.0
 40
0.0
 40
0.3707709901
 40
0.702248636
 40
1.0
 40
1.0
 40
1.0
 40
1.0
 10
5.6701780146
 20
4.9658462097
 30
0.0
 10
5.6708563519
 20
4.9638784081
 30
0.0
 10
5.6724546261
 20
4.9602320135
 30
0.0
 10
5.6759401369
 20
4.9557661866
 30
0.0
 10
5.6787616778
 20
4.953556926
 30
0.0
 10
5.6802244206
 20
4.9527479996
 30
0.0
  0
SPLINE
  5
41E
100
AcDbEntity
  8
0
100
AcDbSpline
 62
7
  6
CONTINUOUS
 70
0
 71
3
 72
11
 73
7
 74
0
 42
0.0000001
 43
0.0000001
 44
0.0000000001
 40
0.0
 40
0.0
 40
0.0
 40
0.0
 40
0.2328929292
 40
0.4813333189
 40
0.740464624
 40
1.0
 40
1.0
 40
1.0
 40
1.0
 10
5.6724409111
 20
4.9835904455
 30
0.0
 10
5.6715561292
 20
4.9824480697
 30
0.0
 10
5.6700667281
 20
4.9798107002
 30
0.0
 10
5.6688841852
 20
4.9753243188
 30
0.0
 10
5.6688367938
 20
4.9705157153
 30
0.0
 10
5.6696133755
 20
4.9673542088
 30
0.0
 10
5.6701780146
 20
4.9658462097
 30
0.0
  0
SPLINE
  5
41F
100
AcDbEntity
  8
0
100
AcDbSpline
 62
7
  6
CONTINUOUS
 70
0
 71
3
 72
10
 73
6
 74
0
 42
0.0000001
 43
0.0000001
 44
0.0000000001
 40
0.0
 40
0.0
 40
0.0
 40
0.0
 40
0.3702667642
 40
0.7032926874
 40
1.0
 40
1.0
 40
1.0
 40
1.0
 10
5.6918012984
 20
4.9962035946
 30
0.0
 10
5.6890596163
 20
4.9952825537
 30
0.0
 10
5.6839612966
 20
4.9931778609
 30
0.0
 10
5.6772747277
 20
4.9890482987
 30
0.0
 10
5.673792963
 20
4.9854728672
 30
0.0
 10
5.6724409111
 20
4.9835904455
 30
0.0
  0
SPLINE
  5
420
100
AcDbEntity
  8
0
100
AcDbSpline
 62
7
  6
CONTINUOUS
 70
0
 71
3
 72
10
 73
6
 74
0
 42
0.0000001
 43
0.0000001
 44
0.0000000001
 40
0.0
 40
0.0
 40
0.0
 40
0.0
 40
0.3104775882
 40
0.6436621365
 40
1.0
 40
1.0
 40
1.0
 40
1.0
 10
5.70649906
 20
4.9986441794
 30
0.0
 10
5.7049506818
 20
4.9987164343
 30
0.0
 10
5.7017247186
 20
4.9986088017
 30
0.0
 10
5.6967950698
 20
4.9977488574
 30
0.0
 10
5.6934831634
 20
4.9967834623
 30
0.0
 10
5.6918012984
 20
4.9962035946
 30
0.0
  0
SPLINE
  5
421
100
AcDbEntity
  8
0
100
AcDbSpline
 62
7
  6
CONTINUOUS
 70
0
 71
3
 72
10
 73
6
 74
0
 42
0.0000001
 43
0.0000001
 44
0.0000000001
 40
0.0
 40
0.0
 40
0.0
 40
0.0
 40
0.2979311157
 40
0.630899394
 40
1.0
 40
1.0
 40
1.0
 40
1.0
 10
5.7161774682
 20
4.9950208738
 30
0.0
 10
5.7154543776
 20
4.9957806259
 30
0.0
 10
5.7136264883
 20
4.9971229241
 30
0.0
 10
5.710265997
 20
4.9982830242
 30
0.0
 10
5.707797394
 20
4.998591645
 30
0.0
 10
5.70649906
 20
4.9986441794
 30
0.0
  0
SPLINE
  5
422
100
AcDbEntity
  8
0
100
AcDbSpline
 62
7
  6
CONTINUOUS
 70
0
 71
3
 72
10
 73
6
 74
0
 42
0.0000001
 43
0.0000001
 44
0.0000000001
 40
0.0
 40
0.0
 40
0.0
 40
0.0
 40
0.3492473035
 40
0.6823552133
 40
1.0
 40
1.0
 40
1.0
 40
1.0
 10
5.7605601401
 20
4.9753090352
 30
0.0
 10
5.7596794538
 20
4.9746975007
 30
0.0
 10
5.7579099682
 20
4.9735701214
 30
0.0
 10
5.7551751333
 20
4.9721665792
 30
0.0
 10
5.7533170745
 20
4.9714221366
 30
0.0
 10
5.7523937555
 20
4.9711083983
 30
0.0
  0
SPLINE
  5
423
100
AcDbEntity
  8
0
100
AcDbSpline
 62
7
  6
CONTINUOUS
 70
0
 71
3
 72
10
 73
6
 74
0
 42
0.0000001
 43
0.0000001
 44
0.0000000001
 40
0.0
 40
0.0
 40
0.0
 40
0.0
 40
0.3462631508
 40
0.6794596448
 40
1.0
 40
1.0
 40
1.0
 40
1.0
 10
5.7681467442
 20
4.9818879546
 30
0.0
 10
5.7673478122
 20
4.9810457847
 30
0.0
 10
5.7657299918
 20
4.9794395231
 30
0.0
 10
5.763195185
 20
4.9772419316
 30
0.0
 10
5.7614427215
 20
4.9759220764
 30
0.0
 10
5.7605601401
 20
4.9753090352
 30
0.0
  0
SPLINE
  5
424
100
AcDbEntity
  8
0
100
AcDbSpline
 62
7
  6
CONTINUOUS
 70
0
 71
3
 72
10
 73
6
 74
0
 42
0.0000001
 43
0.0000001
 44
0.0000000001
 40
0.0
 40
0.0
 40
0.0
 40
0.0
 40
0.3209696241
 40
0.655373728
 40
1.0
 40
1.0
 40
1.0
 40
1.0
 10
5.7626775908
 20
4.9734570627
 30
0.0
 10
5.763456765
 20
4.9742090804
 30
0.0
 10
5.7649248781
 20
4.9758756591
 30
0.0
 10
5.7667744743
 20
4.9787103006
 30
0.0
 10
5.7677326324
 20
4.9808015013
 30
0.0
 10
5.7681467442
 20
4.9818879546
 30
0.0
  0
SPLINE
  5
425
100
AcDbEntity
  8
0
100
AcDbSpline
 62
7
  6
CONTINUOUS
 70
0
 71
3
 72
10
 73
6
 74
0
 42
0.0000001
 43
0.0000001
 44
0.0000000001
 40
0.0
 40
0.0
 40
0.0
 40
0.0
 40
0.3227939746
 40
0.6574145728
 40
1.0
 40
1.0
 40
1.0
 40
1.0
 10
5.7543090222
 20
4.9682502352
 30
0.0
 10
5.7553210586
 20
4.9685925738
 30
0.0
 10
5.7573280926
 20
4.9694585702
 30
0.0
 10
5.7601516805
 20
4.9712065429
 30
0.0
 10
5.7618659495
 20
4.9726652866
 30
0.0
 10
5.7626775908
 20
4.9734570627
 30
0.0
  0
SPLINE
  5
426
100
AcDbEntity
  8
0
100
AcDbSpline
 62
7
  6
CONTINUOUS
 70
0
 71
3
 72
10
 73
6
 74
0
 42
0.0000001
 43
0.0000001
 44
0.0000000001
 40
0.0
 40
0.0
 40
0.0
 40
0.0
 40
0.312020267
 40
0.6450970824
 40
1.0
 40
1.0
 40
1.0
 40
1.0
 10
5.7445787176
 20
4.9667937728
 30
0.0
 10
5.7456055059
 20
4.9667199139
 30
0.0
 10
5.747743459
 20
4.9667422747
 30
0.0
 10
5.7510133108
 20
4.9672437617
 30
0.0
 10
5.7532018063
 20
4.9678692708
 30
0.0
 10
5.7543090222
 20
4.9682502352
 30
0.0
  0
SPLINE
  5
427
100
AcDbEntity
  8
0
100
AcDbSpline
 62
7
  6
CONTINUOUS
 70
0
 71
3
 72
10
 73
6
 74
0
 42
0.0000001
 43
0.0000001
 44
0.0000000001
 40
0.0
 40
0.0
 40
0.0
 40
0.0
 40
0.3343174573
 40
0.6699417664
 40
1.0
 40
1.0
 40
1.0
 40
1.0
 10
5.736425975
 20
4.9696252431
 30
0.0
 10
5.7372267074
 20
4.9690737792
 30
0.0
 10
5.7389337329
 20
4.9681089737
 30
0.0
 10
5.7416951813
 20
4.967151874
 30
0.0
 10
5.7436206827
 20
4.966853114
 30
0.0
 10
5.7445787176
 20
4.9667937728
 30
0.0
  0
SPLINE
  5
428
100
AcDbEntity
  8
0
100
AcDbSpline
 62
7
  6
CONTINUOUS
 70
0
 71
3
 72
10
 73
6
 74
0
 42
0.0000001
 43
0.0000001
 44
0.0000000001
 40
0.0
 40
0.0
 40
0.0
 40
0.0
 40
0.3494564341
 40
0.6825806084
 40
1.0
 40
1.0
 40
1.0
 40
1.0
 10
5.7439712636
 20
4.9692777052
 30
0.0
 10
5.7430925085
 20
4.969193024
 30
0.0
 10
5.74136748
 20
4.9691008396
 30
0.0
 10
5.7388400924
 20
4.9692181763
 30
0.0
 10
5.7372108874
 20
4.9694611034
 30
0.0
 10
5.736425975
 20
4.9696252431
 30
0.0
  0
SPLINE
  5
429
100
AcDbEntity
  8
0
100
AcDbSpline
 62
7
  6
CONTINUOUS
 70
0
 71
3
 72
10
 73
6
 74
0
 42
0.0000001
 43
0.0000001
 44
0.0000000001
 40
0.0
 40
0.0
 40
0.0
 40
0.0
 40
0.3632780985
 40
0.6956030028
 40
1.0
 40
1.0
 40
1.0
 40
1.0
 10
5.6723727777
 20
4.9979368563
 30
0.0
 10
5.6735327059
 20
4.999337954
 30
0.0
 10
5.6759463479
 20
5.0018781386
 30
0.0
 10
5.6800430673
 20
5.0048023795
 30
0.0
 10
5.6829573989
 20
5.0061577355
 30
0.0
 10
5.6844052471
 20
5.0066338202
 30
0.0
  0
SPLINE
  5
42A
100
AcDbEntity
  8
0
100
AcDbSpline
 62
7
  6
CONTINUOUS
 70
0
 71
3
 72
10
 73
6
 74
0
 42
0.0000001
 43
0.0000001
 44
0.0000000001
 40
0.0
 40
0.0
 40
0.0
 40
0.0
 40
0.3161436236
 40
0.6506493857
 40
1.0
 40
1.0
 40
1.0
 40
1.0
 10
5.6656433577
 20
4.9837609439
 30
0.0
 10
5.6659309824
 20
4.9854058355
 30
0.0
 10
5.6668579173
 20
4.9887374645
 30
0.0
 10
5.6691126057
 20
4.9935397895
 30
0.0
 10
5.671203378
 20
4.9965094678
 30
0.0
 10
5.6723727777
 20
4.9979368563
 30
0.0
  0
SPLINE
  5
42B
100
AcDbEntity
  8
0
100
AcDbSpline
 62
7
  6
CONTINUOUS
 70
0
 71
3
 72
10
 73
6
 74
0
 42
0.0000001
 43
0.0000001
 44
0.0000000001
 40
0.0
 40
0.0
 40
0.0
 40
0.0
 40
0.318663856
 40
0.6518345558
 40
1.0
 40
1.0
 40
1.0
 40
1.0
 10
5.6650851769
 20
4.9745661228
 30
0.0
 10
5.6650138214
 20
4.9755443114
 30
0.0
 10
5.6649644424
 20
4.9775531552
 30
0.0
 10
5.6651520429
 20
4.9806284906
 30
0.0
 10
5.665452091
 20
4.9827065635
 30
0.0
 10
5.6656433577
 20
4.9837609439
 30
0.0
  0
SPLINE
  5
42C
100
AcDbEntity
  8
0
100
AcDbSpline
 62
7
  6
CONTINUOUS
 70
0
 71
3
 72
10
 73
6
 74
0
 42
0.0000001
 43
0.0000001
 44
0.0000000001
 40
0.0
 40
0.0
 40
0.0
 40
0.0
 40
0.3186753964
 40
0.6518338318
 40
1.0
 40
1.0
 40
1.0
 40
1.0
 10
5.6667897901
 20
4.9659358265
 30
0.0
 10
5.666485729
 20
4.9668218516
 30
0.0
 10
5.6659523856
 20
4.9686654763
 30
0.0
 10
5.6653819104
 20
4.9715523595
 30
0.0
 10
5.6651606395
 20
4.9735454742
 30
0.0
 10
5.6650851769
 20
4.9745661228
 30
0.0
  0
SPLINE
  5
42D
100
AcDbEntity
  8
0
100
AcDbSpline
 62
7
  6
CONTINUOUS
 70
0
 71
3
 72
10
 73
6
 74
0
 42
0.0000001
 43
0.0000001
 44
0.0000000001
 40
0.0
 40
0.0
 40
0.0
 40
0.0
 40
0.3188256403
 40
0.6561596419
 40
1.0
 40
1.0
 40
1.0
 40
1.0
 10
5.6828401857
 20
4.9468140009
 30
0.0
 10
5.6804118162
 20
4.9480274917
 30
0.0
 10
5.6757628277
 20
4.9512686839
 30
0.0
 10
5.6702036577
 20
4.9578374501
 30
0.0
 10
5.6677140462
 20
4.9631578655
 30
0.0
 10
5.6667897901
 20
4.9659358265
 30
0.0
  0
SPLINE
  5
42E
100
AcDbEntity
  8
0
100
AcDbSpline
 62
7
  6
CONTINUOUS
 70
0
 71
3
 72
10
 73
6
 74
0
 42
0.0000001
 43
0.0000001
 44
0.0000000001
 40
0.0
 40
0.0
 40
0.0
 40
0.0
 40
0.3212476663
 40
0.6594039653
 40
1.0
 40
1.0
 40
1.0
 40
1.0
 10
5.7065115899
 20
4.9447848567
 30
0.0
 10
5.7040577939
 20
4.9438886494
 30
0.0
 10
5.6987139981
 20
4.9428186431
 30
0.0
 10
5.6905091945
 20
4.9434963484
 30
0.0
 10
5.685278277
 20
4.9454999202
 30
0.0
 10
5.6828401857
 20
4.9468140009
 30
0.0
  0
SPLINE
  5
42F
100
AcDbEntity
  8
0
100
AcDbSpline
 62
7
  6
CONTINUOUS
 70
0
 71
3
 72
10
 73
6
 74
0
 42
0.0000001
 43
0.0000001
 44
0.0000000001
 40
0.0
 40
0.0
 40
0.0
 40
0.0
 40
0.3361710163
 40
0.6722720122
 40
1.0
 40
1.0
 40
1.0
 40
1.0
 10
5.7200298398
 20
4.9545652622
 30
0.0
 10
5.7188859157
 20
4.953054669
 30
0.0
 10
5.7162976492
 20
4.9502466199
 30
0.0
 10
5.7116986249
 20
4.9469284235
 30
0.0
 10
5.7082638964
 20
4.9453694848
 30
0.0
 10
5.7065115899
 20
4.9447848567
 30
0.0
  0
SPLINE
  5
430
100
AcDbEntity
  8
0
100
AcDbSpline
 62
7
  6
CONTINUOUS
 70
0
 71
3
 72
10
 73
6
 74
0
 42
0.0000001
 43
0.0000001
 44
0.0000000001
 40
0.0
 40
0.0
 40
0.0
 40
0.0
 40
0.3607217527
 40
0.6936180814
 40
1.0
 40
1.0
 40
1.0
 40
1.0
 10
5.7276441915
 20
4.9722414004
 30
0.0
 10
5.7271590543
 20
4.9699612594
 30
0.0
 10
5.7259825786
 20
4.9656211078
 30
0.0
 10
5.7234465846
 20
4.9596543592
 30
0.0
 10
5.7212379386
 20
4.9561339953
 30
0.0
 10
5.7200298398
 20
4.9545652622
 30
0.0
  0
SPLINE
  5
431
100
AcDbEntity
  8
0
100
AcDbSpline
 62
7
  6
CONTINUOUS
 70
0
 71
3
 72
10
 73
6
 74
0
 42
0.0000001
 43
0.0000001
 44
0.0000000001
 40
0.0
 40
0.0
 40
0.0
 40
0.0
 40
0.3032116955
 40
0.6357343928
 40
1.0
 40
1.0
 40
1.0
 40
1.0
 10
5.7409610859
 20
4.963447317
 30
0.0
 10
5.7393872702
 20
4.9638800494
 30
0.0
 10
5.7361936986
 20
4.9651920493
 30
0.0
 10
5.7316723039
 20
4.9681657261
 30
0.0
 10
5.7289588679
 20
4.9707865152
 30
0.0
 10
5.7276441915
 20
4.9722414004
 30
0.0
  0
SPLINE
  5
432
100
AcDbEntity
  8
0
100
AcDbSpline
 62
7
  6
CONTINUOUS
 70
0
 71
3
 72
10
 73
6
 74
0
 42
0.0000001
 43
0.0000001
 44
0.0000000001
 40
0.0
 40
0.0
 40
0.0
 40
0.0
 40
0.3506784861
 40
0.685992134
 40
1.0
 40
1.0
 40
1.0
 40
1.0
 10
5.7560718331
 20
4.9640124757
 30
0.0
 10
5.7543758691
 20
4.9634302864
 30
0.0
 10
5.7509446341
 20
4.9625775133
 30
0.0
 10
5.745800556
 20
4.9624138703
 30
0.0
 10
5.7424986933
 20
4.9629850159
 30
0.0
 10
5.7409610859
 20
4.963447317
 30
0.0
  0
SPLINE
  5
433
100
AcDbEntity
  8
0
100
AcDbSpline
 62
7
  6
CONTINUOUS
 70
0
 71
3
 72
10
 73
6
 74
0
 42
0.0000001
 43
0.0000001
 44
0.0000000001
 40
0.0
 40
0.0
 40
0.0
 40
0.0
 40
0.3340542208
 40
0.6727238402
 40
1.0
 40
1.0
 40
1.0
 40
1.0
 10
5.7713773323
 20
4.9781525801
 30
0.0
 10
5.7704511791
 20
4.9759546494
 30
0.0
 10
5.7679505408
 20
4.971764197
 30
0.0
 10
5.762630933
 20
4.9668643498
 30
0.0
 10
5.7582967427
 20
4.9647265687
 30
0.0
 10
5.7560718331
 20
4.9640124757
 30
0.0
  0
SPLINE
  5
434
100
AcDbEntity
  8
0
100
AcDbSpline
 62
7
  6
CONTINUOUS
 70
0
 71
3
 72
10
 73
6
 74
0
 42
0.0000001
 43
0.0000001
 44
0.0000000001
 40
0.0
 40
0.0
 40
0.0
 40
0.0
 40
0.3496429764
 40
0.6864375586
 40
1.0
 40
1.0
 40
1.0
 40
1.0
 10
5.7719938532
 20
5.0003048045
 30
0.0
 10
5.7728601194
 20
4.9978110831
 30
0.0
 10
5.7740375959
 20
4.9926998084
 30
0.0
 10
5.7737774421
 20
4.9850777459
 30
0.0
 10
5.7723735927
 20
4.980300237
 30
0.0
 10
5.7713773323
 20
4.9781525801
 30
0.0
  0
SPLINE
  5
435
100
AcDbEntity
  8
0
100
AcDbSpline
 62
7
  6
CONTINUOUS
 70
0
 71
3
 72
10
 73
6
 74
0
 42
0.0000001
 43
0.0000001
 44
0.0000000001
 40
0.0
 40
0.0
 40
0.0
 40
0.0
 40
0.3097155307
 40
0.6458043771
 40
1.0
 40
1.0
 40
1.0
 40
1.0
 10
5.7575886321
 20
5.0179206204
 30
0.0
 10
5.7597293461
 20
5.0168312521
 30
0.0
 10
5.7638514244
 20
5.0138594978
 30
0.0
 10
5.7688554726
 20
5.0078311899
 30
0.0
 10
5.7711132674
 20
5.0029067451
 30
0.0
 10
5.7719938532
 20
5.0003048045
 30
0.0
  0
SPLINE
  5
436
100
AcDbEntity
  8
0
100
AcDbSpline
 62
7
  6
CONTINUOUS
 70
0
 71
3
 72
10
 73
6
 74
0
 42
0.0000001
 43
0.0000001
 44
0.0000000001
 40
0.0
 40
0.0
 40
0.0
 40
0.0
 40
0.3331805481
 40
0.6718194402
 40
1.0
 40
1.0
 40
1.0
 40
1.0
 10
5.7362583515
 20
5.019618801
 30
0.0
 10
5.7385552878
 20
5.02044948
 30
0.0
 10
5.7434521911
 20
5.0214779057
 30
0.0
 10
5.7508536006
 20
5.0208798442
 30
0.0
 10
5.7554918719
 20
5.0191003764
 30
0.0
 10
5.7575886321
 20
5.0179206204
 30
0.0
  0
SPLINE
  5
437
100
AcDbEntity
  8
0
100
AcDbSpline
 62
7
  6
CONTINUOUS
 70
0
 71
3
 72
10
 73
6
 74
0
 42
0.0000001
 43
0.0000001
 44
0.0000000001
 40
0.0
 40
0.0
 40
0.0
 40
0.0
 40
0.3343446398
 40
0.6698018265
 40
1.0
 40
1.0
 40
1.0
 40
1.0
 10
5.7251139328
 20
5.0122291866
 30
0.0
 10
5.7261147304
 20
5.0133534918
 30
0.0
 10
5.7283167801
 20
5.0154395259
 30
0.0
 10
5.7320874263
 20
5.0179365458
 30
0.0
 10
5.734849265
 20
5.0191452132
 30
0.0
 10
5.7362583515
 20
5.019618801
 30
0.0
  0
SPLINE
  5
438
100
AcDbEntity
  8
0
100
AcDbSpline
 62
7
  6
CONTINUOUS
 70
0
 71
3
 72
10
 73
6
 74
0
 42
0.0000001
 43
0.0000001
 44
0.0000000001
 40
0.0
 40
0.0
 40
0.0
 40
0.0
 40
0.3564844338
 40
0.6897779881
 40
1.0
 40
1.0
 40
1.0
 40
1.0
 10
5.7171555362
 20
4.9983227788
 30
0.0
 10
5.7178273749
 20
5.0001144242
 30
0.0
 10
5.7192902179
 20
5.0035229523
 30
0.0
 10
5.721909056
 20
5.0082218677
 30
0.0
 10
5.724005728
 20
5.010986365
 30
0.0
 10
5.7251139328
 20
5.0122291866
 30
0.0
  0
SPLINE
  5
439
100
AcDbEntity
  8
0
100
AcDbSpline
 62
7
  6
CONTINUOUS
 70
0
 71
3
 72
10
 73
6
 74
0
 42
0.0000001
 43
0.0000001
 44
0.0000000001
 40
0.0
 40
0.0
 40
0.0
 40
0.0
 40
0.3052661919
 40
0.6379409706
 40
1.0
 40
1.0
 40
1.0
 40
1.0
 10
5.701036154
 20
5.0073385188
 30
0.0
 10
5.7028779993
 20
5.006888849
 30
0.0
 10
5.7066335453
 20
5.0055461743
 30
0.0
 10
5.7120756586
 20
5.0025034964
 30
0.0
 10
5.7154770339
 20
4.9998191572
 30
0.0
 10
5.7171555362
 20
4.9983227788
 30
0.0
  0
LINE
  5
43A
100
AcDbEntity
  8
0
100
AcDbLine
 62
7
  6
CONTINUOUS
 10
5.7856217477
 20
4.9142027788
 11
5.7856117755
 21
4.9194649554
  0
LINE
  5
43B
100
AcDbEntity
  8
0
100
AcDbLine
 62
7
  6
CONTINUOUS
 10
5.7863716947
 20
4.9090006814
 11
5.7856217477
 21
4.9142027788
  0
SPLINE
  5
43C
100
AcDbEntity
  8
0
100
AcDbSpline
 62
7
  6
CONTINUOUS
 70
0
 71
3
 72
10
 73
6
 74
0
 42
0.0000001
 43
0.0000001
 44
0.0000000001
 40
0.0
 40
0.0
 40
0.0
 40
0.0
 40
0.3459552643
 40
0.6791303648
 40
1.0
 40
1.0
 40
1.0
 40
1.0
 10
5.7887822056
 20
4.9012665931
 30
0.0
 10
5.7884136248
 20
4.9021267368
 30
0.0
 10
5.7877431579
 20
4.9038389153
 30
0.0
 10
5.7869403945
 20
4.9064241511
 30
0.0
 10
5.7865360395
 20
4.9081484501
 30
0.0
 10
5.7863716947
 20
4.9090006814
 30
0.0
  0
SPLINE
  5
43D
100
AcDbEntity
  8
0
100
AcDbSpline
 62
7
  6
CONTINUOUS
 70
0
 71
3
 72
10
 73
6
 74
0
 42
0.0000001
 43
0.0000001
 44
0.0000000001
 40
0.0
 40
0.0
 40
0.0
 40
0.0
 40
0.3461702524
 40
0.679462796
 40
1.0
 40
1.0
 40
1.0
 40
1.0
 10
5.7931345285
 20
4.8936098773
 30
0.0
 10
5.7925484405
 20
4.894442094
 30
0.0
 10
5.7914463742
 20
4.8961103596
 30
0.0
 10
5.78998532
 20
4.8986644867
 30
0.0
 10
5.7891548305
 20
4.90040087
 30
0.0
 10
5.7887822056
 20
4.9012665931
 30
0.0
  0
SPLINE
  5
43E
100
AcDbEntity
  8
0
100
AcDbSpline
 62
7
  6
CONTINUOUS
 70
0
 71
3
 72
10
 73
6
 74
0
 42
0.0000001
 43
0.0000001
 44
0.0000000001
 40
0.0
 40
0.0
 40
0.0
 40
0.0
 40
0.3611439257
 40
0.6937979074
 40
1.0
 40
1.0
 40
1.0
 40
1.0
 10
5.7848100946
 20
4.9007935111
 30
0.0
 10
5.785574621
 20
4.8996943614
 30
0.0
 10
5.7871946348
 20
4.8976774758
 30
0.0
 10
5.790022913
 20
4.8952510954
 30
0.0
 10
5.7920920386
 20
4.8940592091
 30
0.0
 10
5.7931345285
 20
4.8936098773
 30
0.0
  0
SPLINE
  5
43F
100
AcDbEntity
  8
0
100
AcDbSpline
 62
7
  6
CONTINUOUS
 70
0
 71
3
 72
10
 73
6
 74
0
 42
0.0000001
 43
0.0000001
 44
0.0000000001
 40
0.0
 40
0.0
 40
0.0
 40
0.0
 40
0.3565781542
 40
0.6894298975
 40
1.0
 40
1.0
 40
1.0
 40
1.0
 10
5.780043072
 20
4.9125089614
 30
0.0
 10
5.7803353686
 20
4.9110243676
 30
0.0
 10
5.7810593176
 20
4.9081797125
 30
0.0
 10
5.7826710896
 20
4.9042411123
 30
0.0
 10
5.784052462
 20
4.9018718256
 30
0.0
 10
5.7848100946
 20
4.9007935111
 30
0.0
  0
SPLINE
  5
440
100
AcDbEntity
  8
0
100
AcDbSpline
 62
7
  6
CONTINUOUS
 70
0
 71
3
 72
10
 73
6
 74
0
 42
0.0000001
 43
0.0000001
 44
0.0000000001
 40
0.0
 40
0.0
 40
0.0
 40
0.0
 40
0.3432155569
 40
0.6764736751
 40
1.0
 40
1.0
 40
1.0
 40
1.0
 10
5.779363562
 20
4.9186987996
 30
0.0
 10
5.7793826555
 20
4.9179858855
 30
0.0
 10
5.7794566816
 20
4.9165813103
 30
0.0
 10
5.779685443
 20
4.9145150251
 30
0.0
 10
5.7799114078
 20
4.9131681992
 30
0.0
 10
5.780043072
 20
4.9125089614
 30
0.0
  0
SPLINE
  5
441
100
AcDbEntity
  8
0
100
AcDbSpline
 62
7
  6
CONTINUOUS
 70
0
 71
3
 72
10
 73
6
 74
0
 42
0.0000001
 43
0.0000001
 44
0.0000000001
 40
0.0
 40
0.0
 40
0.0
 40
0.0
 40
0.3353212505
 40
0.6717288376
 40
1.0
 40
1.0
 40
1.0
 40
1.0
 10
5.7086443544
 20
4.9212485341
 30
0.0
 10
5.7072088158
 20
4.9209764797
 30
0.0
 10
5.704379435
 20
4.9201333873
 30
0.0
 10
5.7005318496
 20
4.918025918
 30
0.0
 10
5.6983172324
 20
4.9161196791
 30
0.0
 10
5.6973409663
 20
4.915074277
 30
0.0
  0
SPLINE
  5
442
100
AcDbEntity
  8
0
100
AcDbSpline
 62
7
  6
CONTINUOUS
 70
0
 71
3
 72
10
 73
6
 74
0
 42
0.0000001
 43
0.0000001
 44
0.0000000001
 40
0.0
 40
0.0
 40
0.0
 40
0.0
 40
0.3076028004
 40
0.641082036
 40
1.0
 40
1.0
 40
1.0
 40
1.0
 10
5.7148514402
 20
4.9210112657
 30
0.0
 10
5.7142496972
 20
4.9212420715
 30
0.0
 10
5.7129301377
 20
4.9215666948
 30
0.0
 10
5.7108238713
 20
4.9215926481
 30
0.0
 10
5.7093811201
 20
4.9213991554
 30
0.0
 10
5.7086443544
 20
4.9212485341
 30
0.0
  0
SPLINE
  5
443
100
AcDbEntity
  8
0
100
AcDbSpline
 62
7
  6
CONTINUOUS
 70
0
 71
3
 72
10
 73
6
 74
0
 42
0.0000001
 43
0.0000001
 44
0.0000000001
 40
0.0
 40
0.0
 40
0.0
 40
0.0
 40
0.3054881104
 40
0.6438583277
 40
1.0
 40
1.0
 40
1.0
 40
1.0
 10
5.7178555752
 20
4.9176246639
 30
0.0
 10
5.7177811441
 20
4.9180992475
 30
0.0
 10
5.717408254
 20
4.9190704784
 30
0.0
 10
5.7163540334
 20
4.9202786844
 30
0.0
 10
5.7153748531
 20
4.9208120626
 30
0.0
 10
5.7148514402
 20
4.9210112657
 30
0.0
  0
SPLINE
  5
444
100
AcDbEntity
  8
0
100
AcDbSpline
 62
7
  6
CONTINUOUS
 70
0
 71
3
 72
10
 73
6
 74
0
 42
0.0000001
 43
0.0000001
 44
0.0000000001
 40
0.0
 40
0.0
 40
0.0
 40
0.0
 40
0.3527365776
 40
0.6907271703
 40
1.0
 40
1.0
 40
1.0
 40
1.0
 10
5.7166912087
 20
4.9138782735
 30
0.0
 10
5.7170187877
 20
4.9142263232
 30
0.0
 10
5.7175761934
 20
4.9149998924
 30
0.0
 10
5.7179744276
 20
4.9163189248
 30
0.0
 10
5.7179475899
 20
4.9172158234
 30
0.0
 10
5.7178555752
 20
4.9176246639
 30
0.0
  0
SPLINE
  5
445
100
AcDbEntity
  8
0
100
AcDbSpline
 62
7
  6
CONTINUOUS
 70
0
 71
3
 72
10
 73
6
 74
0
 42
0.0000001
 43
0.0000001
 44
0.0000000001
 40
0.0
 40
0.0
 40
0.0
 40
0.0
 40
0.359476393
 40
0.6926506242
 40
1.0
 40
1.0
 40
1.0
 40
1.0
 10
5.7121756695
 20
4.9116254581
 30
0.0
 10
5.7127787617
 20
4.9117393336
 30
0.0
 10
5.7139266556
 20
4.9120495707
 30
0.0
 10
5.7154768865
 20
4.9127921318
 30
0.0
 10
5.7163337762
 20
4.9134940797
 30
0.0
 10
5.7166912087
 20
4.9138782735
 30
0.0
  0
SPLINE
  5
446
100
AcDbEntity
  8
0
100
AcDbSpline
 62
7
  6
CONTINUOUS
 70
0
 71
3
 72
10
 73
6
 74
0
 42
0.0000001
 43
0.0000001
 44
0.0000000001
 40
0.0
 40
0.0
 40
0.0
 40
0.0
 40
0.3442669006
 40
0.6782414796
 40
1.0
 40
1.0
 40
1.0
 40
1.0
 10
5.7069727256
 20
4.9112888161
 30
0.0
 10
5.7075717061
 20
4.9112877915
 30
0.0
 10
5.7087515629
 20
4.9113103459
 30
0.0
 10
5.7104910203
 20
4.9113808832
 30
0.0
 10
5.7116239296
 20
4.91153069
 30
0.0
 10
5.7121756695
 20
4.9116254581
 30
0.0
  0
SPLINE
  5
447
100
AcDbEntity
  8
0
100
AcDbSpline
 62
7
  6
CONTINUOUS
 70
0
 71
3
 72
10
 73
6
 74
0
 42
0.0000001
 43
0.0000001
 44
0.0000000001
 40
0.0
 40
0.0
 40
0.0
 40
0.0
 40
0.3218710644
 40
0.655820656
 40
1.0
 40
1.0
 40
1.0
 40
1.0
 10
5.7018422929
 20
4.9109663122
 30
0.0
 10
5.7023867618
 20
4.911057898
 30
0.0
 10
5.7035042529
 20
4.9112023927
 30
0.0
 10
5.7052193503
 20
4.9112669946
 30
0.0
 10
5.7063823415
 20
4.9112892899
 30
0.0
 10
5.7069727256
 20
4.9112888161
 30
0.0
  0
SPLINE
  5
448
100
AcDbEntity
  8
0
100
AcDbSpline
 62
7
  6
CONTINUOUS
 70
0
 71
3
 72
10
 73
6
 74
0
 42
0.0000001
 43
0.0000001
 44
0.0000000001
 40
0.0
 40
0.0
 40
0.0
 40
0.0
 40
0.3116288237
 40
0.6446259768
 40
1.0
 40
1.0
 40
1.0
 40
1.0
 10
5.6954539391
 20
4.9082159557
 30
0.0
 10
5.6960289053
 20
4.9086631112
 30
0.0
 10
5.697307768
 20
4.9094764265
 30
0.0
 10
5.6994634829
 20
4.9104015997
 30
0.0
 10
5.701027001
 20
4.9108074533
 30
0.0
 10
5.7018422929
 20
4.9109663122
 30
0.0
  0
SPLINE
  5
449
100
AcDbEntity
  8
0
100
AcDbSpline
 62
7
  6
CONTINUOUS
 70
0
 71
3
 72
10
 73
6
 74
0
 42
0.0000001
 43
0.0000001
 44
0.0000000001
 40
0.0
 40
0.0
 40
0.0
 40
0.0
 40
0.3531938294
 40
0.6862376205
 40
1.0
 40
1.0
 40
1.0
 40
1.0
 10
5.6905575196
 20
4.9024447089
 30
0.0
 10
5.6910028683
 20
4.9032225025
 30
0.0
 10
5.6919507579
 20
4.9046894484
 30
0.0
 10
5.6935960189
 20
4.9066301631
 30
0.0
 10
5.6948217024
 20
4.9077319898
 30
0.0
 10
5.6954539391
 20
4.9082159557
 30
0.0
  0
SPLINE
  5
44A
100
AcDbEntity
  8
0
100
AcDbSpline
 62
7
  6
CONTINUOUS
 70
0
 71
3
 72
10
 73
6
 74
0
 42
0.0000001
 43
0.0000001
 44
0.0000000001
 40
0.0
 40
0.0
 40
0.0
 40
0.0
 40
0.306561641
 40
0.6391455504
 40
1.0
 40
1.0
 40
1.0
 40
1.0
 10
5.6973409663
 20
4.915074277
 30
0.0
 10
5.6963126332
 20
4.9140113464
 30
0.0
 10
5.6943996227
 20
4.9115674429
 30
0.0
 10
5.6920841475
 20
4.9073116695
 30
0.0
 10
5.6910085248
 20
4.9041261483
 30
0.0
 10
5.6905575196
 20
4.9024447089
 30
0.0
  0
SPLINE
  5
44B
100
AcDbEntity
  8
0
100
AcDbSpline
 62
7
  6
CONTINUOUS
 70
0
 71
3
 72
10
 73
6
 74
0
 42
0.0000001
 43
0.0000001
 44
0.0000000001
 40
0.0
 40
0.0
 40
0.0
 40
0.0
 40
0.3538935337
 40
0.6876155297
 40
1.0
 40
1.0
 40
1.0
 40
1.0
 10
5.7236138305
 20
4.8776522016
 30
0.0
 10
5.7214736712
 20
4.8772271343
 30
0.0
 10
5.7172850472
 20
4.8765519222
 30
0.0
 10
5.7111374312
 20
4.8759800772
 30
0.0
 10
5.7071423072
 20
4.876102348
 30
0.0
 10
5.7052249899
 20
4.8762853964
 30
0.0
  0
SPLINE
  5
44C
100
AcDbEntity
  8
0
100
AcDbSpline
 62
7
  6
CONTINUOUS
 70
0
 71
3
 72
10
 73
6
 74
0
 42
0.0000001
 43
0.0000001
 44
0.0000000001
 40
0.0
 40
0.0
 40
0.0
 40
0.0
 40
0.3135345178
 40
0.6471502038
 40
1.0
 40
1.0
 40
1.0
 40
1.0
 10
5.7391987752
 20
4.882646515
 30
0.0
 10
5.7376716026
 20
4.8818651707
 30
0.0
 10
5.7344165416
 20
4.8804449507
 30
0.0
 10
5.7291740619
 20
4.8788541648
 30
0.0
 10
5.7255099923
 20
4.8780149726
 30
0.0
 10
5.7236138305
 20
4.8776522016
 30
0.0
  0
SPLINE
  5
44D
100
AcDbEntity
  8
0
100
AcDbSpline
 62
7
  6
CONTINUOUS
 70
0
 71
3
 72
10
 73
6
 74
0
 42
0.0000001
 43
0.0000001
 44
0.0000000001
 40
0.0
 40
0.0
 40
0.0
 40
0.0
 40
0.3031536041
 40
0.6361511311
 40
1.0
 40
1.0
 40
1.0
 40
1.0
 10
5.7473778617
 20
4.8901112447
 30
0.0
 10
5.7468524828
 20
4.8891058506
 30
0.0
 10
5.7454588241
 20
4.8871402651
 30
0.0
 10
5.7426415514
 20
4.8846429842
 30
0.0
 10
5.7404073654
 20
4.8832734258
 30
0.0
 10
5.7391987752
 20
4.882646515
 30
0.0
  0
SPLINE
  5
44E
100
AcDbEntity
  8
0
100
AcDbSpline
 62
7
  6
CONTINUOUS
 70
0
 71
3
 72
10
 73
6
 74
0
 42
0.0000001
 43
0.0000001
 44
0.0000000001
 40
0.0
 40
0.0
 40
0.0
 40
0.0
 40
0.3408392775
 40
0.6772737412
 40
1.0
 40
1.0
 40
1.0
 40
1.0
 10
5.7396306371
 20
4.8761826271
 30
0.0
 10
5.7409856904
 20
4.8774276144
 30
0.0
 10
5.7434368667
 20
4.8801861498
 30
0.0
 10
5.7460666712
 20
4.8849469431
 30
0.0
 10
5.7470855427
 20
4.8883935784
 30
0.0
 10
5.7473778617
 20
4.8901112447
 30
0.0
  0
SPLINE
  5
44F
100
AcDbEntity
  8
0
100
AcDbSpline
 62
7
  6
CONTINUOUS
 70
0
 71
3
 72
10
 73
6
 74
0
 42
0.0000001
 43
0.0000001
 44
0.0000000001
 40
0.0
 40
0.0
 40
0.0
 40
0.0
 40
0.3480289943
 40
0.6831398125
 40
1.0
 40
1.0
 40
1.0
 40
1.0
 10
5.7241918864
 20
4.8685072682
 30
0.0
 10
5.7261785904
 20
4.8688940935
 30
0.0
 10
5.7300290976
 20
4.8699751642
 30
0.0
 10
5.7352532072
 20
4.8726012004
 30
0.0
 10
5.7382927637
 20
4.8749154228
 30
0.0
 10
5.7396306371
 20
4.8761826271
 30
0.0
  0
SPLINE
  5
450
100
AcDbEntity
  8
0
100
AcDbSpline
 62
7
  6
CONTINUOUS
 70
0
 71
3
 72
10
 73
6
 74
0
 42
0.0000001
 43
0.0000001
 44
0.0000000001
 40
0.0
 40
0.0
 40
0.0
 40
0.0
 40
0.3144260778
 40
0.6492944364
 40
1.0
 40
1.0
 40
1.0
 40
1.0
 10
5.7060526417
 20
4.8699976603
 30
0.0
 10
5.7078396115
 20
4.8692644016
 30
0.0
 10
5.7117074216
 20
4.8681653717
 30
0.0
 10
5.7178620865
 20
4.8676280444
 30
0.0
 10
5.7220770216
 20
4.8680962691
 30
0.0
 10
5.7241918864
 20
4.8685072682
 30
0.0
  0
SPLINE
  5
451
100
AcDbEntity
  8
0
100
AcDbSpline
 62
7
  6
CONTINUOUS
 70
0
 71
3
 72
10
 73
6
 74
0
 42
0.0000001
 43
0.0000001
 44
0.0000000001
 40
0.0
 40
0.0
 40
0.0
 40
0.0
 40
0.3170533633
 40
0.6534895689
 40
1.0
 40
1.0
 40
1.0
 40
1.0
 10
5.6935662712
 20
4.8808279142
 30
0.0
 10
5.6943920788
 20
4.8792509068
 30
0.0
 10
5.6965402094
 20
4.8762222539
 30
0.0
 10
5.700801305
 20
4.8724914926
 30
0.0
 10
5.7042419098
 20
4.8707092461
 30
0.0
 10
5.7060526417
 20
4.8699976603
 30
0.0
  0
SPLINE
  5
452
100
AcDbEntity
  8
0
100
AcDbSpline
 62
7
  6
CONTINUOUS
 70
0
 71
3
 72
10
 73
6
 74
0
 42
0.0000001
 43
0.0000001
 44
0.0000000001
 40
0.0
 40
0.0
 40
0.0
 40
0.0
 40
0.3647482392
 40
0.697535805
 40
1.0
 40
1.0
 40
1.0
 40
1.0
 10
5.7052249899
 20
4.8762853964
 30
0.0
 10
5.7036908884
 20
4.8764474423
 30
0.0
 10
5.7007707166
 20
4.8769703926
 30
0.0
 10
5.6967921627
 20
4.8784806057
 30
0.0
 10
5.6945270909
 20
4.8799833895
 30
0.0
 10
5.6935662712
 20
4.8808279142
 30
0.0
  0
SPLINE
  5
453
100
AcDbEntity
  8
0
100
AcDbSpline
 62
7
  6
CONTINUOUS
 70
0
 71
3
 72
10
 73
6
 74
0
 42
0.0000001
 43
0.0000001
 44
0.0000000001
 40
0.0
 40
0.0
 40
0.0
 40
0.0
 40
0.3412129288
 40
0.6764494401
 40
1.0
 40
1.0
 40
1.0
 40
1.0
 10
5.7464342281
 20
4.9015181546
 30
0.0
 10
5.746154433
 20
4.902962955
 30
0.0
 10
5.7453690273
 20
4.9057901134
 30
0.0
 10
5.7435024852
 20
4.9096998989
 30
0.0
 10
5.741850883
 20
4.9120333216
 30
0.0
 10
5.740942095
 20
4.913092297
 30
0.0
  0
SPLINE
  5
454
100
AcDbEntity
  8
0
100
AcDbSpline
 62
7
  6
CONTINUOUS
 70
0
 71
3
 72
10
 73
6
 74
0
 42
0.0000001
 43
0.0000001
 44
0.0000000001
 40
0.0
 40
0.0
 40
0.0
 40
0.0
 40
0.293957292
 40
0.6299613276
 40
1.0
 40
1.0
 40
1.0
 40
1.0
 10
5.7428342486
 20
4.8883225431
 30
0.0
 10
5.7438994899
 20
4.8892280668
 30
0.0
 10
5.745728624
 20
4.8917149389
 30
0.0
 10
5.7470647288
 20
4.8963781546
 30
0.0
 10
5.7467840287
 20
4.899793301
 30
0.0
 10
5.7464342281
 20
4.9015181546
 30
0.0
  0
SPLINE
  5
455
100
AcDbEntity
  8
0
100
AcDbSpline
 62
7
  6
CONTINUOUS
 70
0
 71
3
 72
10
 73
6
 74
0
 42
0.0000001
 43
0.0000001
 44
0.0000000001
 40
0.0
 40
0.0
 40
0.0
 40
0.0
 40
0.3662606923
 40
0.7003221169
 40
1.0
 40
1.0
 40
1.0
 40
1.0
 10
5.7240495697
 20
4.8808229981
 30
0.0
 10
5.726499654
 20
4.8812887198
 30
0.0
 10
5.7311309932
 20
4.8824347395
 30
0.0
 10
5.7376189291
 20
4.8846031105
 30
0.0
 10
5.7412896068
 20
4.8869891132
 30
0.0
 10
5.7428342486
 20
4.8883225431
 30
0.0
  0
SPLINE
  5
456
100
AcDbEntity
  8
0
100
AcDbSpline
 62
7
  6
CONTINUOUS
 70
0
 71
3
 72
10
 73
6
 74
0
 42
0.0000001
 43
0.0000001
 44
0.0000000001
 40
0.0
 40
0.0
 40
0.0
 40
0.0
 40
0.3021998835
 40
0.6361793944
 40
1.0
 40
1.0
 40
1.0
 40
1.0
 10
5.7000829879
 20
4.8802163596
 30
0.0
 10
5.7024374542
 20
4.8796037068
 30
0.0
 10
5.7075581219
 20
4.8788746165
 30
0.0
 10
5.7156172621
 20
4.8794163644
 30
0.0
 10
5.7211776657
 20
4.8802477488
 30
0.0
 10
5.7240495697
 20
4.8808229981
 30
0.0
  0
SPLINE
  5
457
100
AcDbEntity
  8
0
100
AcDbSpline
 62
7
  6
CONTINUOUS
 70
0
 71
3
 72
11
 73
7
 74
0
 42
0.0000001
 43
0.0000001
 44
0.0000000001
 40
0.0
 40
0.0
 40
0.0
 40
0.0
 40
0.23655351
 40
0.4885675363
 40
0.7473345402
 40
1.0
 40
1.0
 40
1.0
 40
1.0
 10
5.6902100949
 20
4.8907109102
 30
0.0
 10
5.6903747675
 20
4.8895219676
 30
0.0
 10
5.6911296843
 20
4.8871104479
 30
0.0
 10
5.6933209983
 20
4.8839512214
 30
0.0
 10
5.6963859
 20
4.8814940022
 30
0.0
 10
5.698836082
 20
4.8805144643
 30
0.0
 10
5.7000829879
 20
4.8802163596
 30
0.0
  0
SPLINE
  5
458
100
AcDbEntity
  8
0
100
AcDbSpline
 62
7
  6
CONTINUOUS
 70
0
 71
3
 72
10
 73
6
 74
0
 42
0.0000001
 43
0.0000001
 44
0.0000000001
 40
0.0
 40
0.0
 40
0.0
 40
0.0
 40
0.2978209746
 40
0.6300806233
 40
1.0
 40
1.0
 40
1.0
 40
1.0
 10
5.6918055088
 20
4.8999031252
 30
0.0
 10
5.6912323379
 20
4.8991444739
 30
0.0
 10
5.6903126139
 20
4.8973099384
 30
0.0
 10
5.689757694
 20
4.8941266544
 30
0.0
 10
5.6899841768
 20
4.8918701129
 30
0.0
 10
5.6902100949
 20
4.8907109102
 30
0.0
  0
SPLINE
  5
459
100
AcDbEntity
  8
0
100
AcDbSpline
 62
7
  6
CONTINUOUS
 70
0
 71
3
 72
10
 73
6
 74
0
 42
0.0000001
 43
0.0000001
 44
0.0000000001
 40
0.0
 40
0.0
 40
0.0
 40
0.0
 40
0.3682157542
 40
0.7009050336
 40
1.0
 40
1.0
 40
1.0
 40
1.0
 10
5.70042084
 20
4.9047433387
 30
0.0
 10
5.6992037184
 20
4.904510978
 30
0.0
 10
5.6969147589
 20
4.9038690074
 30
0.0
 10
5.6939298517
 20
4.9022456861
 30
0.0
 10
5.6923908198
 20
4.9007219384
 30
0.0
 10
5.6918055088
 20
4.8999031252
 30
0.0
  0
SPLINE
  5
45A
100
AcDbEntity
  8
0
100
AcDbSpline
 62
7
  6
CONTINUOUS
 70
0
 71
3
 72
10
 73
6
 74
0
 42
0.0000001
 43
0.0000001
 44
0.0000000001
 40
0.0
 40
0.0
 40
0.0
 40
0.0
 40
0.3422921273
 40
0.6759567279
 40
1.0
 40
1.0
 40
1.0
 40
1.0
 10
5.7065381589
 20
4.9054087152
 30
0.0
 10
5.7058365697
 20
4.9053722024
 30
0.0
 10
5.7044523979
 20
4.9052754143
 30
0.0
 10
5.7024090615
 20
4.9050756521
 30
0.0
 10
5.7010747398
 20
4.9048647941
 30
0.0
 10
5.70042084
 20
4.9047433387
 30
0.0
  0
LINE
  5
45B
100
AcDbEntity
  8
0
100
AcDbLine
 62
7
  6
CONTINUOUS
 10
5.7123795677
 20
4.9059450561
 11
5.7065381589
 21
4.9054087152
  0
SPLINE
  5
45C
100
AcDbEntity
  8
0
100
AcDbSpline
 62
7
  6
CONTINUOUS
 70
0
 71
3
 72
10
 73
6
 74
0
 42
0.0000001
 43
0.0000001
 44
0.0000000001
 40
0.0
 40
0.0
 40
0.0
 40
0.0
 40
0.3019659612
 40
0.6345318789
 40
1.0
 40
1.0
 40
1.0
 40
1.0
 10
5.719200649
 20
4.9098541445
 30
0.0
 10
5.7187221397
 20
4.9092033776
 30
0.0
 10
5.7174944579
 20
4.907993057
 30
0.0
 10
5.7151501791
 20
4.906653275
 30
0.0
 10
5.7133389654
 20
4.9061329456
 30
0.0
 10
5.7123795677
 20
4.9059450561
 30
0.0
  0
SPLINE
  5
45D
100
AcDbEntity
  8
0
100
AcDbSpline
 62
7
  6
CONTINUOUS
 70
0
 71
3
 72
10
 73
6
 74
0
 42
0.0000001
 43
0.0000001
 44
0.0000000001
 40
0.0
 40
0.0
 40
0.0
 40
0.0
 40
0.3530467205
 40
0.6905212516
 40
1.0
 40
1.0
 40
1.0
 40
1.0
 10
5.7206920766
 20
4.9169732417
 30
0.0
 10
5.7208672671
 20
4.9161102432
 30
0.0
 10
5.7210109048
 20
4.9143675681
 30
0.0
 10
5.7204728648
 20
4.9118982925
 30
0.0
 10
5.7196828634
 20
4.9104569255
 30
0.0
 10
5.719200649
 20
4.9098541445
 30
0.0
  0
SPLINE
  5
45E
100
AcDbEntity
  8
0
100
AcDbSpline
 62
7
  6
CONTINUOUS
 70
0
 71
3
 72
10
 73
6
 74
0
 42
0.0000001
 43
0.0000001
 44
0.0000000001
 40
0.0
 40
0.0
 40
0.0
 40
0.0
 40
0.3285151542
 40
0.6672031546
 40
1.0
 40
1.0
 40
1.0
 40
1.0
 10
5.7164915035
 20
4.9230789595
 30
0.0
 10
5.7172101239
 20
4.9226549972
 30
0.0
 10
5.7185499461
 20
4.9215724519
 30
0.0
 10
5.7200092052
 20
4.9194533689
 30
0.0
 10
5.7205458801
 20
4.9178057384
 30
0.0
 10
5.7206920766
 20
4.9169732417
 30
0.0
  0
SPLINE
  5
45F
100
AcDbEntity
  8
0
100
AcDbSpline
 62
7
  6
CONTINUOUS
 70
0
 71
3
 72
10
 73
6
 74
0
 42
0.0000001
 43
0.0000001
 44
0.0000000001
 40
0.0
 40
0.0
 40
0.0
 40
0.0
 40
0.3663418203
 40
0.6989617204
 40
1.0
 40
1.0
 40
1.0
 40
1.0
 10
5.7085282741
 20
4.9241612464
 30
0.0
 10
5.7095118727
 20
4.9243559207
 30
0.0
 10
5.7114307578
 20
4.9245646448
 30
0.0
 10
5.7141717237
 20
4.924209508
 30
0.0
 10
5.7157959472
 20
4.9235206413
 30
0.0
 10
5.7164915035
 20
4.9230789595
 30
0.0
  0
SPLINE
  5
460
100
AcDbEntity
  8
0
100
AcDbSpline
 62
7
  6
CONTINUOUS
 70
0
 71
3
 72
10
 73
6
 74
0
 42
0.0000001
 43
0.0000001
 44
0.0000000001
 40
0.0
 40
0.0
 40
0.0
 40
0.0
 40
0.3491975442
 40
0.6835931415
 40
1.0
 40
1.0
 40
1.0
 40
1.0
 10
5.6984645792
 20
4.919415084
 30
0.0
 10
5.6994863513
 20
4.9202295921
 30
0.0
 10
5.7016034656
 20
4.9216879412
 30
0.0
 10
5.7050081479
 20
4.9232764467
 30
0.0
 10
5.7073640793
 20
4.9239456537
 30
0.0
 10
5.7085282741
 20
4.9241612464
 30
0.0
  0
SPLINE
  5
461
100
AcDbEntity
  8
0
100
AcDbSpline
 62
7
  6
CONTINUOUS
 70
0
 71
3
 72
10
 73
6
 74
0
 42
0.0000001
 43
0.0000001
 44
0.0000000001
 40
0.0
 40
0.0
 40
0.0
 40
0.0
 40
0.3372084431
 40
0.6719942005
 40
1.0
 40
1.0
 40
1.0
 40
1.0
 10
5.6909284735
 20
4.9101289827
 30
0.0
 10
5.6915406005
 20
4.9113361977
 30
0.0
 10
5.692929066
 20
4.9136614566
 30
0.0
 10
5.6954696501
 20
4.9167852504
 30
0.0
 10
5.6974329087
 20
4.918597104
 30
0.0
 10
5.6984645792
 20
4.919415084
 30
0.0
  0
SPLINE
  5
462
100
AcDbEntity
  8
0
100
AcDbSpline
 62
7
  6
CONTINUOUS
 70
0
 71
3
 72
10
 73
6
 74
0
 42
0.0000001
 43
0.0000001
 44
0.0000000001
 40
0.0
 40
0.0
 40
0.0
 40
0.0
 40
0.3154433328
 40
0.6484561469
 40
1.0
 40
1.0
 40
1.0
 40
1.0
 10
5.6873716809
 20
4.8994197837
 30
0.0
 10
5.6875545296
 20
4.9005965252
 30
0.0
 10
5.6880784658
 20
4.9029939094
 30
0.0
 10
5.6892633061
 20
4.9065848591
 30
0.0
 10
5.6903296956
 20
4.9089445878
 30
0.0
 10
5.6909284735
 20
4.9101289827
 30
0.0
  0
SPLINE
  5
463
100
AcDbEntity
  8
0
100
AcDbSpline
 62
7
  6
CONTINUOUS
 70
0
 71
3
 72
10
 73
6
 74
0
 42
0.0000001
 43
0.0000001
 44
0.0000000001
 40
0.0
 40
0.0
 40
0.0
 40
0.0
 40
0.3143002696
 40
0.6472436837
 40
1.0
 40
1.0
 40
1.0
 40
1.0
 10
5.6874773947
 20
4.8888988196
 30
0.0
 10
5.6872610064
 20
4.8899848367
 30
0.0
 10
5.6869689128
 20
4.8922533349
 30
0.0
 10
5.6869217717
 20
4.8957835451
 30
0.0
 10
5.6871797059
 20
4.8981918437
 30
0.0
 10
5.6873716809
 20
4.8994197837
 30
0.0
  0
SPLINE
  5
464
100
AcDbEntity
  8
0
100
AcDbSpline
 62
7
  6
CONTINUOUS
 70
0
 71
3
 72
10
 73
6
 74
0
 42
0.0000001
 43
0.0000001
 44
0.0000000001
 40
0.0
 40
0.0
 40
0.0
 40
0.0
 40
0.3424441058
 40
0.6773388976
 40
1.0
 40
1.0
 40
1.0
 40
1.0
 10
5.6940866289
 20
4.8746823283
 30
0.0
 10
5.6929680751
 20
4.8760989537
 30
0.0
 10
5.6909568177
 20
4.8790700227
 30
0.0
 10
5.6887379721
 20
4.8838737771
 30
0.0
 10
5.6877936083
 20
4.8872277589
 30
0.0
 10
5.6874773947
 20
4.8888988196
 30
0.0
  0
SPLINE
  5
465
100
AcDbEntity
  8
0
100
AcDbSpline
 62
7
  6
CONTINUOUS
 70
0
 71
3
 72
10
 73
6
 74
0
 42
0.0000001
 43
0.0000001
 44
0.0000000001
 40
0.0
 40
0.0
 40
0.0
 40
0.0
 40
0.306786155
 40
0.6393775677
 40
1.0
 40
1.0
 40
1.0
 40
1.0
 10
5.7060295524
 20
4.8651050726
 30
0.0
 10
5.7045802885
 20
4.8657331522
 30
0.0
 10
5.701690152
 20
4.8673507131
 30
0.0
 10
5.6976404827
 20
4.8705631942
 30
0.0
 10
5.6952412784
 20
4.873228341
 30
0.0
 10
5.6940866289
 20
4.8746823283
 30
0.0
  0
SPLINE
  5
466
100
AcDbEntity
  8
0
100
AcDbSpline
 62
7
  6
CONTINUOUS
 70
0
 71
3
 72
10
 73
6
 74
0
 42
0.0000001
 43
0.0000001
 44
0.0000000001
 40
0.0
 40
0.0
 40
0.0
 40
0.0
 40
0.3162684125
 40
0.6495366412
 40
1.0
 40
1.0
 40
1.0
 40
1.0
 10
5.7159442502
 20
4.8621467661
 30
0.0
 10
5.7148598822
 20
4.8622923333
 30
0.0
 10
5.7126484478
 20
4.8627199112
 30
0.0
 10
5.7093341719
 20
4.8637275643
 30
0.0
 10
5.7071361232
 20
4.8646097072
 30
0.0
 10
5.7060295524
 20
4.8651050726
 30
0.0
  0
SPLINE
  5
467
100
AcDbEntity
  8
0
100
AcDbSpline
 62
7
  6
CONTINUOUS
 70
0
 71
3
 72
10
 73
6
 74
0
 42
0.0000001
 43
0.0000001
 44
0.0000000001
 40
0.0
 40
0.0
 40
0.0
 40
0.0
 40
0.3368270711
 40
0.6709935554
 40
1.0
 40
1.0
 40
1.0
 40
1.0
 10
5.7255239882
 20
4.8624446298
 30
0.0
 10
5.7244635578
 20
4.8622381534
 30
0.0
 10
5.7223274197
 20
4.8619376757
 30
0.0
 10
5.7191157639
 20
4.8618400452
 30
0.0
 10
5.7169900339
 20
4.8620056564
 30
0.0
 10
5.7159442502
 20
4.8621467661
 30
0.0
  0
SPLINE
  5
468
100
AcDbEntity
  8
0
100
AcDbSpline
 62
7
  6
CONTINUOUS
 70
0
 71
3
 72
10
 73
6
 74
0
 42
0.0000001
 43
0.0000001
 44
0.0000000001
 40
0.0
 40
0.0
 40
0.0
 40
0.0
 40
0.3344627932
 40
0.6727803424
 40
1.0
 40
1.0
 40
1.0
 40
1.0
 10
5.7454099669
 20
4.8758789475
 30
0.0
 10
5.743934068
 20
4.8735653018
 30
0.0
 10
5.7403197691
 20
4.8692857628
 30
0.0
 10
5.7334329062
 20
4.8646484047
 30
0.0
 10
5.7281674256
 20
4.8629145358
 30
0.0
 10
5.7255239882
 20
4.8624446298
 30
0.0
  0
SPLINE
  5
469
100
AcDbEntity
  8
0
100
AcDbSpline
 62
7
  6
CONTINUOUS
 70
0
 71
3
 72
10
 73
6
 74
0
 42
0.0000001
 43
0.0000001
 44
0.0000000001
 40
0.0
 40
0.0
 40
0.0
 40
0.0
 40
0.3404890057
 40
0.6783275206
 40
1.0
 40
1.0
 40
1.0
 40
1.0
 10
5.7499620203
 20
4.9000230136
 30
0.0
 10
5.7505366723
 20
4.8972255939
 30
0.0
 10
5.7509969535
 20
4.8914776119
 30
0.0
 10
5.7493968616
 20
4.8831492503
 30
0.0
 10
5.7469320557
 20
4.8781066157
 30
0.0
 10
5.7454099669
 20
4.8758789475
 30
0.0
  0
SPLINE
  5
46A
100
AcDbEntity
  8
0
100
AcDbSpline
 62
7
  6
CONTINUOUS
 70
0
 71
3
 72
10
 73
6
 74
0
 42
0.0000001
 43
0.0000001
 44
0.0000000001
 40
0.0
 40
0.0
 40
0.0
 40
0.0
 40
0.3375592515
 40
0.6715190683
 40
1.0
 40
1.0
 40
1.0
 40
1.0
 10
5.7469420388
 20
4.9086197937
 30
0.0
 10
5.7474169847
 20
4.90770761
 30
0.0
 10
5.7482786137
 20
4.9058479234
 30
0.0
 10
5.7492877322
 20
4.9029687617
 30
0.0
 10
5.7497715248
 20
4.9010054799
 30
0.0
 10
5.7499620203
 20
4.9000230136
 30
0.0
  0
SPLINE
  5
46B
100
AcDbEntity
  8
0
100
AcDbSpline
 62
7
  6
CONTINUOUS
 70
0
 71
3
 72
10
 73
6
 74
0
 42
0.0000001
 43
0.0000001
 44
0.0000000001
 40
0.0
 40
0.0
 40
0.0
 40
0.0
 40
0.3461988062
 40
0.6795865008
 40
1.0
 40
1.0
 40
1.0
 40
1.0
 10
5.7411799883
 20
4.9172782373
 30
0.0
 10
5.7419312966
 20
4.916340161
 30
0.0
 10
5.7433563337
 20
4.9144582537
 30
0.0
 10
5.7452959842
 20
4.9115765353
 30
0.0
 10
5.7464257701
 20
4.9096050663
 30
0.0
 10
5.7469420388
 20
4.9086197937
 30
0.0
  0
LINE
  5
46C
100
AcDbEntity
  8
0
100
AcDbLine
 62
7
  6
CONTINUOUS
 10
5.7773073467
 20
4.9130295068
 11
5.7768305649
 21
4.9162482377
  0
SPLINE
  5
46D
100
AcDbEntity
  8
0
100
AcDbSpline
 62
7
  6
CONTINUOUS
 70
0
 71
3
 72
10
 73
6
 74
0
 42
0.0000001
 43
0.0000001
 44
0.0000000001
 40
0.0
 40
0.0
 40
0.0
 40
0.0
 40
0.3050902947
 40
0.6376014243
 40
1.0
 40
1.0
 40
1.0
 40
1.0
 10
5.7844926908
 20
4.8972536069
 30
0.0
 10
5.7833349986
 20
4.8986058463
 30
0.0
 10
5.7812178986
 20
4.9016956276
 30
0.0
 10
5.7787617439
 20
4.9070160549
 30
0.0
 10
5.7777185323
 20
4.9109553816
 30
0.0
 10
5.7773073467
 20
4.9130295068
 30
0.0
  0
SPLINE
  5
46E
100
AcDbEntity
  8
0
100
AcDbSpline
 62
7
  6
CONTINUOUS
 70
0
 71
3
 72
10
 73
6
 74
0
 42
0.0000001
 43
0.0000001
 44
0.0000000001
 40
0.0
 40
0.0
 40
0.0
 40
0.0
 40
0.3628670131
 40
0.6955116007
 40
1.0
 40
1.0
 40
1.0
 40
1.0
 10
5.7989143558
 20
4.8875108903
 30
0.0
 10
5.7969280178
 20
4.8882685229
 30
0.0
 10
5.7932021066
 20
4.8899644491
 30
0.0
 10
5.7883257191
 20
4.8932575722
 30
0.0
 10
5.7856277076
 20
4.8958773663
 30
0.0
 10
5.7844926908
 20
4.8972536069
 30
0.0
  0
SPLINE
  5
46F
100
AcDbEntity
  8
0
100
AcDbSpline
 62
7
  6
CONTINUOUS
 70
0
 71
3
 72
10
 73
6
 74
0
 42
0.0000001
 43
0.0000001
 44
0.0000000001
 40
0.0
 40
0.0
 40
0.0
 40
0.0
 40
0.3500057263
 40
0.6831069128
 40
1.0
 40
1.0
 40
1.0
 40
1.0
 10
5.796053001
 20
4.8964381767
 30
0.0
 10
5.7964225299
 20
4.895563582
 30
0.0
 10
5.7972187144
 20
4.8938864156
 30
0.0
 10
5.7986288002
 20
4.8915639843
 30
0.0
 10
5.7996974212
 20
4.8901561847
 30
0.0
 10
5.8002570677
 20
4.8895036793
 30
0.0
  0
SPLINE
  5
470
100
AcDbEntity
  8
0
100
AcDbSpline
 62
7
  6
CONTINUOUS
 70
0
 71
3
 72
10
 73
6
 74
0
 42
0.0000001
 43
0.0000001
 44
0.0000000001
 40
0.0
 40
0.0
 40
0.0
 40
0.0
 40
0.3465592271
 40
0.6799461123
 40
1.0
 40
1.0
 40
1.0
 40
1.0
 10
5.7933105194
 20
4.9058371193
 30
0.0
 10
5.7935252984
 20
4.9047248917
 30
0.0
 10
5.7940093746
 20
4.9025543098
 30
0.0
 10
5.7949080374
 20
4.8994093088
 30
0.0
 10
5.7956506919
 20
4.8974038654
 30
0.0
 10
5.796053001
 20
4.8964381767
 30
0.0
  0
SPLINE
  5
471
100
AcDbEntity
  8
0
100
AcDbSpline
 62
7
  6
CONTINUOUS
 70
0
 71
3
 72
10
 73
6
 74
0
 42
0.0000001
 43
0.0000001
 44
0.0000000001
 40
0.0
 40
0.0
 40
0.0
 40
0.0
 40
0.3173056733
 40
0.6507655126
 40
1.0
 40
1.0
 40
1.0
 40
1.0
 10
5.7925874395
 20
4.9149537888
 30
0.0
 10
5.7925220107
 20
4.9139862312
 30
0.0
 10
5.7924949368
 20
4.9119929454
 30
0.0
 10
5.7927675986
 20
4.9089453577
 30
0.0
 10
5.7931021665
 20
4.9068839359
 30
0.0
 10
5.7933105194
 20
4.9058371193
 30
0.0
  0
SPLINE
  5
472
100
AcDbEntity
  8
0
100
AcDbSpline
 62
7
  6
CONTINUOUS
 70
0
 71
3
 72
10
 73
6
 74
0
 42
0.0000001
 43
0.0000001
 44
0.0000000001
 40
0.0
 40
0.0
 40
0.0
 40
0.0
 40
0.3159365044
 40
0.6490850723
 40
1.0
 40
1.0
 40
1.0
 40
1.0
 10
5.7943647181
 20
4.9228266814
 30
0.0
 10
5.7940335876
 20
4.9220401747
 30
0.0
 10
5.7934574386
 20
4.9203789735
 30
0.0
 10
5.7928665274
 20
4.9177383902
 30
0.0
 10
5.7926536786
 20
4.9158993209
 30
0.0
 10
5.7925874395
 20
4.9149537888
 30
0.0
  0
SPLINE
  5
473
100
AcDbEntity
  8
0
100
AcDbSpline
 62
7
  6
CONTINUOUS
 70
0
 71
3
 72
10
 73
6
 74
0
 42
0.0000001
 43
0.0000001
 44
0.0000000001
 40
0.0
 40
0.0
 40
0.0
 40
0.0
 40
0.3117723208
 40
0.6447301216
 40
1.0
 40
1.0
 40
1.0
 40
1.0
 10
5.7318274484
 20
4.921627213
 30
0.0
 10
5.7329621962
 20
4.9212539683
 30
0.0
 10
5.7353731204
 20
4.9206702118
 30
0.0
 10
5.7391943627
 20
4.9202765741
 30
0.0
 10
5.7418380661
 20
4.9203477139
 30
0.0
 10
5.7431949886
 20
4.9204557545
 30
0.0
  0
SPLINE
  5
474
100
AcDbEntity
  8
0
100
AcDbSpline
 62
7
  6
CONTINUOUS
 70
0
 71
3
 72
10
 73
6
 74
0
 42
0.0000001
 43
0.0000001
 44
0.0000000001
 40
0.0
 40
0.0
 40
0.0
 40
0.0
 40
0.3516502816
 40
0.6871537017
 40
1.0
 40
1.0
 40
1.0
 40
1.0
 10
5.740942095
 20
4.913092297
 30
0.0
 10
5.7400616745
 20
4.9141329892
 30
0.0
 10
5.738147482
 20
4.9160188503
 30
0.0
 10
5.7348286613
 20
4.9180758161
 30
0.0
 10
5.7324357303
 20
4.9189252485
 30
0.0
 10
5.7312503891
 20
4.9191815285
 30
0.0
  0
SPLINE
  5
475
100
AcDbEntity
  8
0
100
AcDbSpline
 62
7
  6
CONTINUOUS
 70
0
 71
3
 72
10
 73
6
 74
0
 42
0.0000001
 43
0.0000001
 44
0.0000000001
 40
0.0
 40
0.0
 40
0.0
 40
0.0
 40
0.3539680545
 40
0.6878036899
 40
1.0
 40
1.0
 40
1.0
 40
1.0
 10
5.6444034964
 20
4.4622454809
 30
0.0
 10
5.6428721171
 20
4.4651208235
 30
0.0
 10
5.639721456
 20
4.4706147264
 30
0.0
 10
5.6347050549
 20
4.4783425721
 30
0.0
 10
5.6309248458
 20
4.4829527227
 30
0.0
 10
5.6289782617
 20
4.4850661352
 30
0.0
  0
SPLINE
  5
476
100
AcDbEntity
  8
0
100
AcDbSpline
 62
7
  6
CONTINUOUS
 70
0
 71
3
 72
10
 73
6
 74
0
 42
0.0000001
 43
0.0000001
 44
0.0000000001
 40
0.0
 40
0.0
 40
0.0
 40
0.0
 40
0.346393836
 40
0.6799089431
 40
1.0
 40
1.0
 40
1.0
 40
1.0
 10
5.6608944228
 20
4.4254467874
 30
0.0
 10
5.6592228531
 20
4.4297952305
 30
0.0
 10
5.6557984184
 20
4.4382757151
 30
0.0
 10
5.6503672295
 20
4.4505829469
 30
0.0
 10
5.6464269133
 20
4.4584457371
 30
0.0
 10
5.6444034964
 20
4.4622454809
 30
0.0
  0
SPLINE
  5
477
100
AcDbEntity
  8
0
100
AcDbSpline
 62
7
  6
CONTINUOUS
 70
0
 71
3
 72
10
 73
6
 74
0
 42
0.0000001
 43
0.0000001
 44
0.0000000001
 40
0.0
 40
0.0
 40
0.0
 40
0.0
 40
0.319910691
 40
0.6533106803
 40
1.0
 40
1.0
 40
1.0
 40
1.0
 10
5.6421499735
 20
4.4558075767
 30
0.0
 10
5.6443814909
 20
4.4527226455
 30
0.0
 10
5.6487722545
 20
4.4463004328
 30
0.0
 10
5.6549849919
 20
4.4361450646
 30
0.0
 10
5.6589443991
 20
4.4290830425
 30
0.0
 10
5.6608944228
 20
4.4254467874
 30
0.0
  0
SPLINE
  5
478
100
AcDbEntity
  8
0
100
AcDbSpline
 62
7
  6
CONTINUOUS
 70
0
 71
3
 72
10
 73
6
 74
0
 42
0.0000001
 43
0.0000001
 44
0.0000000001
 40
0.0
 40
0.0
 40
0.0
 40
0.0
 40
0.3140686342
 40
0.6474175606
 40
1.0
 40
1.0
 40
1.0
 40
1.0
 10
5.6236145165
 20
4.4763964506
 30
0.0
 10
5.6258293583
 20
4.474514606
 30
0.0
 10
5.6302033102
 20
4.4704043121
 30
0.0
 10
5.6363503943
 20
4.4634756327
 30
0.0
 10
5.640236562
 20
4.4584503775
 30
0.0
 10
5.6421499735
 20
4.4558075767
 30
0.0
  0
SPLINE
  5
479
100
AcDbEntity
  8
0
100
AcDbSpline
 62
7
  6
CONTINUOUS
 70
0
 71
3
 72
10
 73
6
 74
0
 42
0.0000001
 43
0.0000001
 44
0.0000000001
 40
0.0
 40
0.0
 40
0.0
 40
0.0
 40
0.3460410644
 40
0.6792527625
 40
1.0
 40
1.0
 40
1.0
 40
1.0
 10
5.7057552886
 20
4.4361759333
 30
0.0
 10
5.7056426089
 20
4.4357769798
 30
0.0
 10
5.7053890125
 20
4.4350023897
 30
0.0
 10
5.7049115087
 20
4.4339019309
 30
0.0
 10
5.7045324007
 20
4.4332145804
 30
0.0
 10
5.7043294047
 20
4.4328883178
 30
0.0
  0
SPLINE
  5
47A
100
AcDbEntity
  8
0
100
AcDbSpline
 62
7
  6
CONTINUOUS
 70
0
 71
3
 72
10
 73
6
 74
0
 42
0.0000001
 43
0.0000001
 44
0.0000000001
 40
0.0
 40
0.0
 40
0.0
 40
0.0
 40
0.3590625221
 40
0.6924690363
 40
1.0
 40
1.0
 40
1.0
 40
1.0
 10
5.6490522664
 20
4.4369270735
 30
0.0
 10
5.6458447385
 20
4.4416079227
 30
0.0
 10
5.639330731
 20
4.4504147636
 30
0.0
 10
5.6289707425
 20
4.4623775582
 30
0.0
 10
5.6214665166
 20
4.469228627
 30
0.0
 10
5.6176662944
 20
4.4722581499
 30
0.0
  0
SPLINE
  5
47B
100
AcDbEntity
  8
0
100
AcDbSpline
 62
7
  6
CONTINUOUS
 70
0
 71
3
 72
10
 73
6
 74
0
 42
0.0000001
 43
0.0000001
 44
0.0000000001
 40
0.0
 40
0.0
 40
0.0
 40
0.0
 40
0.3498130174
 40
0.6834830462
 40
1.0
 40
1.0
 40
1.0
 40
1.0
 10
5.6837507637
 20
4.3760366805
 30
0.0
 10
5.6801196887
 20
4.3833638837
 30
0.0
 10
5.6727728848
 20
4.3975553281
 30
0.0
 10
5.6613816306
 20
4.4179773656
 30
0.0
 10
5.6532095649
 20
4.4308061971
 30
0.0
 10
5.6490522664
 20
4.4369270735
 30
0.0
  0
SPLINE
  5
47C
100
AcDbEntity
  8
0
100
AcDbSpline
 62
7
  6
CONTINUOUS
 70
0
 71
3
 72
10
 73
6
 74
0
 42
0.0000001
 43
0.0000001
 44
0.0000000001
 40
0.0
 40
0.0
 40
0.0
 40
0.0
 40
0.3038322578
 40
0.6381093593
 40
1.0
 40
1.0
 40
1.0
 40
1.0
 10
5.7025806127
 20
4.440311798
 30
0.0
 10
5.702288392
 20
4.4414850791
 30
0.0
 10
5.701351952
 20
4.4438837262
 30
0.0
 10
5.6990100244
 20
4.4471235337
 30
0.0
 10
5.6972353723
 20
4.4492516958
 30
0.0
 10
5.6962547249
 20
4.4503064122
 30
0.0
  0
SPLINE
  5
47D
100
AcDbEntity
  8
0
100
AcDbSpline
 62
7
  6
CONTINUOUS
 70
0
 71
3
 72
10
 73
6
 74
0
 42
0.0000001
 43
0.0000001
 44
0.0000000001
 40
0.0
 40
0.0
 40
0.0
 40
0.0
 40
0.3678329184
 40
0.7014277117
 40
1.0
 40
1.0
 40
1.0
 40
1.0
 10
5.7000226726
 20
4.4311224097
 30
0.0
 10
5.7006617009
 20
4.4321300917
 30
0.0
 10
5.7017268338
 20
4.4341507894
 30
0.0
 10
5.702749806
 20
4.4372607243
 30
0.0
 10
5.7027503924
 20
4.4393582484
 30
0.0
 10
5.7025806127
 20
4.440311798
 30
0.0
  0
LINE
  5
47E
100
AcDbEntity
  8
0
100
AcDbLine
 62
7
  6
CONTINUOUS
 10
5.6665237506
 20
4.4206073345
 11
5.6776348702
 21
4.3949359058
  0
SPLINE
  5
47F
100
AcDbEntity
  8
0
100
AcDbSpline
 62
7
  6
CONTINUOUS
 70
0
 71
3
 72
11
 73
7
 74
0
 42
0.0000001
 43
0.0000001
 44
0.0000000001
 40
0.0
 40
0.0
 40
0.0
 40
0.0
 40
0.2197260463
 40
0.4598914014
 40
0.7195682998
 40
1.0
 40
1.0
 40
1.0
 40
1.0
 10
5.6286658577
 20
4.4900372839
 30
0.0
 10
5.632493477
 20
4.4856635453
 30
0.0
 10
5.6397884994
 20
4.4758617535
 30
0.0
 10
5.6489517187
 20
4.459134872
 30
0.0
 10
5.6573637291
 20
4.4402839074
 30
0.0
 10
5.6634272511
 20
4.427347953
 30
0.0
 10
5.6665237506
 20
4.4206073345
 30
0.0
  0
LINE
  5
480
100
AcDbEntity
  8
0
100
AcDbLine
 62
7
  6
CONTINUOUS
 10
5.6505135157
 20
4.3452414652
 11
5.6545381668
 21
4.3486315662
  0
LINE
  5
481
100
AcDbEntity
  8
0
100
AcDbLine
 62
7
  6
CONTINUOUS
 10
5.6470105344
 20
4.3413231287
 11
5.6505135157
 21
4.3452414652
  0
SPLINE
  5
482
100
AcDbEntity
  8
0
100
AcDbSpline
 62
7
  6
CONTINUOUS
 70
0
 71
3
 72
10
 73
6
 74
0
 42
0.0000001
 43
0.0000001
 44
0.0000000001
 40
0.0
 40
0.0
 40
0.0
 40
0.0
 40
0.3459552643
 40
0.6791303648
 40
1.0
 40
1.0
 40
1.0
 40
1.0
 10
5.6426353257
 20
4.3345051941
 30
0.0
 10
5.6430573148
 20
4.3353404331
 30
0.0
 10
5.6439379518
 20
4.3369546077
 30
0.0
 10
5.6454023509
 20
4.3392313176
 30
0.0
 10
5.6464633263
 20
4.3406494295
 30
0.0
 10
5.6470105344
 20
4.3413231287
 30
0.0
  0
SPLINE
  5
483
100
AcDbEntity
  8
0
100
AcDbSpline
 62
7
  6
CONTINUOUS
 70
0
 71
3
 72
10
 73
6
 74
0
 42
0.0000001
 43
0.0000001
 44
0.0000000001
 40
0.0
 40
0.0
 40
0.0
 40
0.0
 40
0.3461702524
 40
0.679462796
 40
1.0
 40
1.0
 40
1.0
 40
1.0
 10
5.6395675603
 20
4.3262494792
 30
0.0
 10
5.6398283452
 20
4.3272333873
 30
0.0
 10
5.6403979163
 20
4.3291499595
 30
0.0
 10
5.6414153436
 20
4.3319109533
 30
0.0
 10
5.642211662
 20
4.3336632707
 30
0.0
 10
5.6426353257
 20
4.3345051941
 30
0.0
  0
SPLINE
  5
484
100
AcDbEntity
  8
0
100
AcDbSpline
 62
7
  6
CONTINUOUS
 70
0
 71
3
 72
10
 73
6
 74
0
 42
0.0000001
 43
0.0000001
 44
0.0000000001
 40
0.0
 40
0.0
 40
0.0
 40
0.0
 40
0.3611439257
 40
0.6937979074
 40
1.0
 40
1.0
 40
1.0
 40
1.0
 10
5.6397197001
 20
4.3372439164
 30
0.0
 10
5.6393691307
 20
4.3359517353
 30
0.0
 10
5.6388654314
 20
4.3334143037
 30
0.0
 10
5.6388246984
 20
4.3296880697
 30
0.0
 10
5.6392416689
 20
4.3273368978
 30
0.0
 10
5.6395675603
 20
4.3262494792
 30
0.0
  0
SPLINE
  5
485
100
AcDbEntity
  8
0
100
AcDbSpline
 62
7
  6
CONTINUOUS
 70
0
 71
3
 72
10
 73
6
 74
0
 42
0.0000001
 43
0.0000001
 44
0.0000000001
 40
0.0
 40
0.0
 40
0.0
 40
0.0
 40
0.3565781542
 40
0.6894298975
 40
1.0
 40
1.0
 40
1.0
 40
1.0
 10
5.6456300726
 20
4.3484262138
 30
0.0
 10
5.6446806924
 20
4.3472480232
 30
0.0
 10
5.6429669057
 20
4.344864937
 30
0.0
 10
5.6409857899
 20
4.3410985646
 30
0.0
 10
5.6400587401
 20
4.3385174238
 30
0.0
 10
5.6397197001
 20
4.3372439164
 30
0.0
  0
SPLINE
  5
486
100
AcDbEntity
  8
0
100
AcDbSpline
 62
7
  6
CONTINUOUS
 70
0
 71
3
 72
10
 73
6
 74
0
 42
0.0000001
 43
0.0000001
 44
0.0000000001
 40
0.0
 40
0.0
 40
0.0
 40
0.0
 40
0.3432155569
 40
0.6764736751
 40
1.0
 40
1.0
 40
1.0
 40
1.0
 10
5.6499349832
 20
4.3529255
 30
0.0
 10
5.6494011324
 20
4.3524526212
 30
0.0
 10
5.6483727484
 20
4.3514930704
 30
0.0
 10
5.6469369271
 20
4.3499896465
 30
0.0
 10
5.646050446
 20
4.3489508243
 30
0.0
 10
5.6456300726
 20
4.3484262138
 30
0.0
  0
SPLINE
  5
487
100
AcDbEntity
  8
0
100
AcDbSpline
 62
7
  6
CONTINUOUS
 70
0
 71
3
 72
10
 73
6
 74
0
 42
0.0000001
 43
0.0000001
 44
0.0000000001
 40
0.0
 40
0.0
 40
0.0
 40
0.0
 40
0.3353212505
 40
0.6717288376
 40
1.0
 40
1.0
 40
1.0
 40
1.0
 10
5.6064307627
 20
4.4087384937
 30
0.0
 10
5.6052996106
 20
4.4096633069
 30
0.0
 10
5.6028350734
 20
4.411288809
 30
0.0
 10
5.598747478
 20
4.4128815753
 30
0.0
 10
5.5958636858
 20
4.4133527638
 30
0.0
 10
5.5944353295
 20
4.4134286555
 30
0.0
  0
SPLINE
  5
488
100
AcDbEntity
  8
0
100
AcDbSpline
 62
7
  6
CONTINUOUS
 70
0
 71
3
 72
10
 73
6
 74
0
 42
0.0000001
 43
0.0000001
 44
0.0000000001
 40
0.0
 40
0.0
 40
0.0
 40
0.0
 40
0.3076028004
 40
0.641082036
 40
1.0
 40
1.0
 40
1.0
 40
1.0
 10
5.6102388424
 20
4.403831077
 30
0.0
 10
5.6100288569
 20
4.4044403979
 30
0.0
 10
5.6094293364
 20
4.405659903
 30
0.0
 10
5.6080953358
 20
4.4072900792
 30
0.0
 10
5.6070197292
 20
4.4082709159
 30
0.0
 10
5.6064307627
 20
4.4087384937
 30
0.0
  0
SPLINE
  5
489
100
AcDbEntity
  8
0
100
AcDbSpline
 62
7
  6
CONTINUOUS
 70
0
 71
3
 72
10
 73
6
 74
0
 42
0.0000001
 43
0.0000001
 44
0.0000000001
 40
0.0
 40
0.0
 40
0.0
 40
0.0
 40
0.3054881104
 40
0.6438583277
 40
1.0
 40
1.0
 40
1.0
 40
1.0
 10
5.6095755757
 20
4.3993529104
 30
0.0
 10
5.6098912844
 20
4.3997149844
 30
0.0
 10
5.6103956013
 20
4.4006249299
 30
0.0
 10
5.6106435008
 20
4.4022091297
 30
0.0
 10
5.6104226873
 20
4.4033020742
 30
0.0
 10
5.6102388424
 20
4.403831077
 30
0.0
  0
SPLINE
  5
48A
100
AcDbEntity
  8
0
100
AcDbSpline
 62
7
  6
CONTINUOUS
 70
0
 71
3
 72
10
 73
6
 74
0
 42
0.0000001
 43
0.0000001
 44
0.0000000001
 40
0.0
 40
0.0
 40
0.0
 40
0.0
 40
0.3527365776
 40
0.6907271703
 40
1.0
 40
1.0
 40
1.0
 40
1.0
 10
5.6059572338
 20
4.3978367335
 30
0.0
 10
5.606434419
 20
4.3978095155
 30
0.0
 10
5.6073853009
 20
4.3978797587
 30
0.0
 10
5.6086517184
 20
4.3984225513
 30
0.0
 10
5.6093215316
 20
4.3990196255
 30
0.0
 10
5.6095755757
 20
4.3993529104
 30
0.0
  0
SPLINE
  5
48B
100
AcDbEntity
  8
0
100
AcDbSpline
 62
7
  6
CONTINUOUS
 70
0
 71
3
 72
10
 73
6
 74
0
 42
0.0000001
 43
0.0000001
 44
0.0000000001
 40
0.0
 40
0.0
 40
0.0
 40
0.0
 40
0.359476393
 40
0.6926506242
 40
1.0
 40
1.0
 40
1.0
 40
1.0
 10
5.6013289444
 20
4.3998477554
 30
0.0
 10
5.6018038383
 20
4.3994589578
 30
0.0
 10
5.6027793457
 20
4.3987790366
 30
0.0
 10
5.6043446497
 20
4.3980687999
 30
0.0
 10
5.605433171
 20
4.3978635877
 30
0.0
 10
5.6059572338
 20
4.3978367335
 30
0.0
  0
SPLINE
  5
48C
100
AcDbEntity
  8
0
100
AcDbSpline
 62
7
  6
CONTINUOUS
 70
0
 71
3
 72
10
 73
6
 74
0
 42
0.0000001
 43
0.0000001
 44
0.0000000001
 40
0.0
 40
0.0
 40
0.0
 40
0.0
 40
0.3442669006
 40
0.6782414796
 40
1.0
 40
1.0
 40
1.0
 40
1.0
 10
5.5977266738
 20
4.4036170523
 30
0.0
 10
5.5981109062
 20
4.4031575481
 30
0.0
 10
5.5988865812
 20
4.402268223
 30
0.0
 10
5.6000587175
 20
4.4009810619
 30
0.0
 10
5.6009016962
 20
4.400209497
 30
0.0
 10
5.6013289444
 20
4.3998477554
 30
0.0
  0
SPLINE
  5
48D
100
AcDbEntity
  8
0
100
AcDbSpline
 62
7
  6
CONTINUOUS
 70
0
 71
3
 72
10
 73
6
 74
0
 42
0.0000001
 43
0.0000001
 44
0.0000000001
 40
0.0
 40
0.0
 40
0.0
 40
0.0
 40
0.3218710644
 40
0.655820656
 40
1.0
 40
1.0
 40
1.0
 40
1.0
 10
5.5941818429
 20
4.4073398903
 30
0.0
 10
5.5946019796
 20
4.4069816732
 30
0.0
 10
5.5954309784
 20
4.4062185047
 30
0.0
 10
5.5965829096
 20
4.4049461892
 30
0.0
 10
5.5973475451
 20
4.4040696174
 30
0.0
 10
5.5977266738
 20
4.4036170523
 30
0.0
  0
SPLINE
  5
48E
100
AcDbEntity
  8
0
100
AcDbSpline
 62
7
  6
CONTINUOUS
 70
0
 71
3
 72
10
 73
6
 74
0
 42
0.0000001
 43
0.0000001
 44
0.0000000001
 40
0.0
 40
0.0
 40
0.0
 40
0.0
 40
0.3116288237
 40
0.6446259768
 40
1.0
 40
1.0
 40
1.0
 40
1.0
 10
5.587968593
 20
4.4104657582
 30
0.0
 10
5.5886807151
 20
4.4103127346
 30
0.0
 10
5.5901257878
 20
4.4098558579
 30
0.0
 10
5.5922201784
 20
4.4087991743
 30
0.0
 10
5.5935360904
 20
4.4078623276
 30
0.0
 10
5.5941818429
 20
4.4073398903
 30
0.0
  0
SPLINE
  5
48F
100
AcDbEntity
  8
0
100
AcDbSpline
 62
7
  6
CONTINUOUS
 70
0
 71
3
 72
10
 73
6
 74
0
 42
0.0000001
 43
0.0000001
 44
0.0000000001
 40
0.0
 40
0.0
 40
0.0
 40
0.0
 40
0.3531938294
 40
0.6862376205
 40
1.0
 40
1.0
 40
1.0
 40
1.0
 10
5.5804002036
 20
4.4105069472
 30
0.0
 10
5.5812822927
 20
4.4106657464
 30
0.0
 10
5.5830153301
 20
4.4108825555
 30
0.0
 10
5.5855595573
 20
4.4108696798
 30
0.0
 10
5.5871914597
 20
4.4106389923
 30
0.0
 10
5.587968593
 20
4.4104657582
 30
0.0
  0
SPLINE
  5
490
100
AcDbEntity
  8
0
100
AcDbSpline
 62
7
  6
CONTINUOUS
 70
0
 71
3
 72
10
 73
6
 74
0
 42
0.0000001
 43
0.0000001
 44
0.0000000001
 40
0.0
 40
0.0
 40
0.0
 40
0.0
 40
0.306561641
 40
0.6391455504
 40
1.0
 40
1.0
 40
1.0
 40
1.0
 10
5.5944353295
 20
4.4134286555
 30
0.0
 10
5.5929600777
 20
4.4135331656
 30
0.0
 10
5.5898582796
 20
4.4134277058
 30
0.0
 10
5.5851098093
 20
4.4124659043
 30
0.0
 10
5.5819781615
 20
4.4112422656
 30
0.0
 10
5.5804002036
 20
4.4105069472
 30
0.0
  0
SPLINE
  5
491
100
AcDbEntity
  8
0
100
AcDbSpline
 62
7
  6
CONTINUOUS
 70
0
 71
3
 72
10
 73
6
 74
0
 42
0.0000001
 43
0.0000001
 44
0.0000000001
 40
0.0
 40
0.0
 40
0.0
 40
0.0
 40
0.3538935337
 40
0.6876155297
 40
1.0
 40
1.0
 40
1.0
 40
1.0
 10
5.5826562283
 20
4.3692480274
 30
0.0
 10
5.5809549399
 20
4.3706142565
 30
0.0
 10
5.5777453018
 20
4.3733889108
 30
0.0
 10
5.5733556317
 20
4.3777306829
 30
0.0
 10
5.5708812805
 20
4.3808697196
 30
0.0
 10
5.5697890758
 20
4.3824561311
 30
0.0
  0
SPLINE
  5
492
100
AcDbEntity
  8
0
100
AcDbSpline
 62
7
  6
CONTINUOUS
 70
0
 71
3
 72
10
 73
6
 74
0
 42
0.0000001
 43
0.0000001
 44
0.0000000001
 40
0.0
 40
0.0
 40
0.0
 40
0.0
 40
0.3135345178
 40
0.6471502038
 40
1.0
 40
1.0
 40
1.0
 40
1.0
 10
5.5964999036
 20
4.3605195499
 30
0.0
 10
5.5949197115
 20
4.3611871935
 30
0.0
 10
5.591739447
 20
4.3627678151
 30
0.0
 10
5.5871510333
 20
4.3657612501
 30
0.0
 10
5.5841529562
 20
4.3680286679
 30
0.0
 10
5.5826562283
 20
4.3692480274
 30
0.0
  0
SPLINE
  5
493
100
AcDbEntity
  8
0
100
AcDbSpline
 62
7
  6
CONTINUOUS
 70
0
 71
3
 72
10
 73
6
 74
0
 42
0.0000001
 43
0.0000001
 44
0.0000000001
 40
0.0
 40
0.0
 40
0.0
 40
0.0
 40
0.3031536041
 40
0.6361511311
 40
1.0
 40
1.0
 40
1.0
 40
1.0
 10
5.6074756337
 20
4.3590522419
 30
0.0
 10
5.6063677501
 20
4.3588084506
 30
0.0
 10
5.6039661978
 20
4.3586126011
 30
0.0
 10
5.6002422617
 20
4.359165536
 30
0.0
 10
5.597757012
 20
4.3599966866
 30
0.0
 10
5.5964999036
 20
4.3605195499
 30
0.0
  0
SPLINE
  5
494
100
AcDbEntity
  8
0
100
AcDbSpline
 62
7
  6
CONTINUOUS
 70
0
 71
3
 72
10
 73
6
 74
0
 42
0.0000001
 43
0.0000001
 44
0.0000000001
 40
0.0
 40
0.0
 40
0.0
 40
0.0
 40
0.3408392775
 40
0.6772737412
 40
1.0
 40
1.0
 40
1.0
 40
1.0
 10
5.5918258737
 20
4.3560338174
 30
0.0
 10
5.5936506007
 20
4.3557960488
 30
0.0
 10
5.5973393472
 20
4.3556914912
 30
0.0
 10
5.6026767322
 20
4.3567371231
 30
0.0
 10
5.605971926
 20
4.3581720766
 30
0.0
 10
5.6074756337
 20
4.3590522419
 30
0.0
  0
SPLINE
  5
495
100
AcDbEntity
  8
0
100
AcDbSpline
 62
7
  6
CONTINUOUS
 70
0
 71
3
 72
10
 73
6
 74
0
 42
0.0000001
 43
0.0000001
 44
0.0000000001
 40
0.0
 40
0.0
 40
0.0
 40
0.0
 40
0.3480289943
 40
0.6831398125
 40
1.0
 40
1.0
 40
1.0
 40
1.0
 10
5.5760223699
 20
4.362926961
 30
0.0
 10
5.5775957241
 20
4.361653704
 30
0.0
 10
5.5808989306
 20
4.3593989432
 30
0.0
 10
5.586268584
 20
4.3570850266
 30
0.0
 10
5.5899951704
 20
4.3562441447
 30
0.0
 10
5.5918258737
 20
4.3560338174
 30
0.0
  0
SPLINE
  5
496
100
AcDbEntity
  8
0
100
AcDbSpline
 62
7
  6
CONTINUOUS
 70
0
 71
3
 72
10
 73
6
 74
0
 42
0.0000001
 43
0.0000001
 44
0.0000000001
 40
0.0
 40
0.0
 40
0.0
 40
0.0
 40
0.3144260778
 40
0.6492944364
 40
1.0
 40
1.0
 40
1.0
 40
1.0
 10
5.5655043949
 20
4.3777804342
 30
0.0
 10
5.5660913281
 20
4.3759402063
 30
0.0
 10
5.5677356027
 20
4.3722708491
 30
0.0
 10
5.5712801285
 20
4.3672107149
 30
0.0
 10
5.5743481174
 20
4.3642828563
 30
0.0
 10
5.5760223699
 20
4.362926961
 30
0.0
  0
SPLINE
  5
497
100
AcDbEntity
  8
0
100
AcDbSpline
 62
7
  6
CONTINUOUS
 70
0
 71
3
 72
10
 73
6
 74
0
 42
0.0000001
 43
0.0000001
 44
0.0000000001
 40
0.0
 40
0.0
 40
0.0
 40
0.0
 40
0.3170533633
 40
0.6534895689
 40
1.0
 40
1.0
 40
1.0
 40
1.0
 10
5.5657747664
 20
4.394307102
 30
0.0
 10
5.5650975275
 20
4.3926608158
 30
0.0
 10
5.5641582366
 20
4.3890684717
 30
0.0
 10
5.564039287
 20
4.3834061959
 30
0.0
 10
5.5648855852
 20
4.3796249339
 30
0.0
 10
5.5655043949
 20
4.3777804342
 30
0.0
  0
SPLINE
  5
498
100
AcDbEntity
  8
0
100
AcDbSpline
 62
7
  6
CONTINUOUS
 70
0
 71
3
 72
10
 73
6
 74
0
 42
0.0000001
 43
0.0000001
 44
0.0000000001
 40
0.0
 40
0.0
 40
0.0
 40
0.0
 40
0.3647482392
 40
0.697535805
 40
1.0
 40
1.0
 40
1.0
 40
1.0
 10
5.5697890758
 20
4.3824561311
 30
0.0
 10
5.5689271087
 20
4.3837354822
 30
0.0
 10
5.5674506617
 20
4.3863086095
 30
0.0
 10
5.5660501869
 20
4.3903271049
 30
0.0
 10
5.5657454259
 20
4.3930282213
 30
0.0
 10
5.5657747664
 20
4.394307102
 30
0.0
  0
SPLINE
  5
499
100
AcDbEntity
  8
0
100
AcDbSpline
 62
7
  6
CONTINUOUS
 70
0
 71
3
 72
10
 73
6
 74
0
 42
0.0000001
 43
0.0000001
 44
0.0000000001
 40
0.0
 40
0.0
 40
0.0
 40
0.0
 40
0.3412129288
 40
0.6764494401
 40
1.0
 40
1.0
 40
1.0
 40
1.0
 10
5.6156072777
 20
4.3671073275
 30
0.0
 10
5.6165342102
 20
4.3682503628
 30
0.0
 10
5.6181950902
 20
4.3706692808
 30
0.0
 10
5.6199903695
 20
4.3746122967
 30
0.0
 10
5.6207162455
 20
4.3773773926
 30
0.0
 10
5.6209433101
 20
4.3787542609
 30
0.0
  0
SPLINE
  5
49A
100
AcDbEntity
  8
0
100
AcDbSpline
 62
7
  6
CONTINUOUS
 70
0
 71
3
 72
10
 73
6
 74
0
 42
0.0000001
 43
0.0000001
 44
0.0000000001
 40
0.0
 40
0.0
 40
0.0
 40
0.0
 40
0.293957292
 40
0.6299613276
 40
1.0
 40
1.0
 40
1.0
 40
1.0
 10
5.6031848306
 20
4.3613830963
 30
0.0
 10
5.6045632259
 20
4.3611491335
 30
0.0
 10
5.6076440252
 20
4.361346466
 30
0.0
 10
5.6120750873
 20
4.3633204076
 30
0.0
 10
5.6145108107
 20
4.3657306502
 30
0.0
 10
5.6156072777
 20
4.3671073275
 30
0.0
  0
SPLINE
  5
49B
100
AcDbEntity
  8
0
100
AcDbSpline
 62
7
  6
CONTINUOUS
 70
0
 71
3
 72
10
 73
6
 74
0
 42
0.0000001
 43
0.0000001
 44
0.0000000001
 40
0.0
 40
0.0
 40
0.0
 40
0.0
 40
0.3662606923
 40
0.7003221169
 40
1.0
 40
1.0
 40
1.0
 40
1.0
 10
5.585365287
 20
4.3709523805
 30
0.0
 10
5.5872969343
 20
4.3693748672
 30
0.0
 10
5.5911518038
 20
4.3665637028
 30
0.0
 10
5.5969832372
 20
4.3629874575
 30
0.0
 10
5.6011704874
 20
4.3617092483
 30
0.0
 10
5.6031848306
 20
4.3613830963
 30
0.0
  0
SPLINE
  5
49C
100
AcDbEntity
  8
0
100
AcDbSpline
 62
7
  6
CONTINUOUS
 70
0
 71
3
 72
10
 73
6
 74
0
 42
0.0000001
 43
0.0000001
 44
0.0000000001
 40
0.0
 40
0.0
 40
0.0
 40
0.0
 40
0.3021998835
 40
0.6361793944
 40
1.0
 40
1.0
 40
1.0
 40
1.0
 10
5.5694951531
 20
4.3889219076
 30
0.0
 10
5.5705392556
 20
4.3867244762
 30
0.0
 10
5.5732722418
 20
4.3823331669
 30
0.0
 10
5.5788675602
 20
4.3765077362
 30
0.0
 10
5.5830785962
 20
4.3727826235
 30
0.0
 10
5.585365287
 20
4.3709523805
 30
0.0
  0
SPLINE
  5
49D
100
AcDbEntity
  8
0
100
AcDbSpline
 62
7
  6
CONTINUOUS
 70
0
 71
3
 72
11
 73
7
 74
0
 42
0.0000001
 43
0.0000001
 44
0.0000000001
 40
0.0
 40
0.0
 40
0.0
 40
0.0
 40
0.23655351
 40
0.4885675363
 40
0.7473345402
 40
1.0
 40
1.0
 40
1.0
 40
1.0
 10
5.571188272
 20
4.4032307495
 30
0.0
 10
5.5703833387
 20
4.4023403654
 30
0.0
 10
5.5690212586
 20
4.4002119706
 30
0.0
 10
5.5680097001
 20
4.396502615
 30
0.0
 10
5.5680974418
 20
4.3925752941
 30
0.0
 10
5.5689220189
 20
4.390068711
 30
0.0
 10
5.5694951531
 20
4.3889219076
 30
0.0
  0
SPLINE
  5
49E
100
AcDbEntity
  8
0
100
AcDbSpline
 62
7
  6
CONTINUOUS
 70
0
 71
3
 72
10
 73
6
 74
0
 42
0.0000001
 43
0.0000001
 44
0.0000000001
 40
0.0
 40
0.0
 40
0.0
 40
0.0
 40
0.2978209746
 40
0.6300806233
 40
1.0
 40
1.0
 40
1.0
 40
1.0
 10
5.5792554295
 20
4.4079172335
 30
0.0
 10
5.5783058418
 20
4.4078686562
 30
0.0
 10
5.5763093188
 20
4.407393989
 30
0.0
 10
5.5735140862
 20
4.4057729068
 30
0.0
 10
5.5719310555
 20
4.4041489339
 30
0.0
 10
5.571188272
 20
4.4032307495
 30
0.0
  0
SPLINE
  5
49F
100
AcDbEntity
  8
0
100
AcDbSpline
 62
7
  6
CONTINUOUS
 70
0
 71
3
 72
10
 73
6
 74
0
 42
0.0000001
 43
0.0000001
 44
0.0000000001
 40
0.0
 40
0.0
 40
0.0
 40
0.0
 40
0.3682157542
 40
0.7009050336
 40
1.0
 40
1.0
 40
1.0
 40
1.0
 10
5.5885010763
 20
4.4044287362
 30
0.0
 10
5.587540727
 20
4.4052117469
 30
0.0
 10
5.5855776342
 20
4.4065525408
 30
0.0
 10
5.5824154366
 20
4.4077956615
 30
0.0
 10
5.5802589075
 20
4.4079951822
 30
0.0
 10
5.5792554295
 20
4.4079172335
 30
0.0
  0
SPLINE
  5
4A0
100
AcDbEntity
  8
0
100
AcDbSpline
 62
7
  6
CONTINUOUS
 70
0
 71
3
 72
10
 73
6
 74
0
 42
0.0000001
 43
0.0000001
 44
0.0000000001
 40
0.0
 40
0.0
 40
0.0
 40
0.0
 40
0.3422921273
 40
0.6759567279
 40
1.0
 40
1.0
 40
1.0
 40
1.0
 10
5.5929429211
 20
4.4001702938
 30
0.0
 10
5.5924639778
 20
4.4006842723
 30
0.0
 10
5.5915001054
 20
4.4016823952
 30
0.0
 10
5.5900336473
 20
4.4031192771
 30
0.0
 10
5.5890144352
 20
4.4040058899
 30
0.0
 10
5.5885010763
 20
4.4044287362
 30
0.0
  0
LINE
  5
4A1
100
AcDbEntity
  8
0
100
AcDbLine
 62
7
  6
CONTINUOUS
 10
5.5971085672
 20
4.3960402683
 11
5.5929429211
 21
4.4001702938
  0
SPLINE
  5
4A2
100
AcDbEntity
  8
0
100
AcDbSpline
 62
7
  6
CONTINUOUS
 70
0
 71
3
 72
10
 73
6
 74
0
 42
0.0000001
 43
0.0000001
 44
0.0000000001
 40
0.0
 40
0.0
 40
0.0
 40
0.0
 40
0.3019659612
 40
0.6345318789
 40
1.0
 40
1.0
 40
1.0
 40
1.0
 10
5.6044876092
 20
4.3933277305
 30
0.0
 10
5.603681513
 20
4.393275985
 30
0.0
 10
5.601965215
 20
4.3934384647
 30
0.0
 10
5.5994320091
 20
4.3943730912
 30
0.0
 10
5.5978691879
 20
4.3954261
 30
0.0
 10
5.5971085672
 20
4.3960402683
 30
0.0
  0
SPLINE
  5
4A3
100
AcDbEntity
  8
0
100
AcDbSpline
 62
7
  6
CONTINUOUS
 70
0
 71
3
 72
10
 73
6
 74
0
 42
0.0000001
 43
0.0000001
 44
0.0000000001
 40
0.0
 40
0.0
 40
0.0
 40
0.0
 40
0.3530467205
 40
0.6905212516
 40
1.0
 40
1.0
 40
1.0
 40
1.0
 10
5.6108998252
 20
4.3967612981
 30
0.0
 10
5.6103513404
 20
4.3960723697
 30
0.0
 10
5.6091087023
 20
4.3948421669
 30
0.0
 10
5.606871282
 20
4.3936671097
 30
0.0
 10
5.6052593277
 20
4.393345793
 30
0.0
 10
5.6044876092
 20
4.3933277305
 30
0.0
  0
SPLINE
  5
4A4
100
AcDbEntity
  8
0
100
AcDbSpline
 62
7
  6
CONTINUOUS
 70
0
 71
3
 72
10
 73
6
 74
0
 42
0.0000001
 43
0.0000001
 44
0.0000000001
 40
0.0
 40
0.0
 40
0.0
 40
0.0
 40
0.3285151542
 40
0.6672031546
 40
1.0
 40
1.0
 40
1.0
 40
1.0
 10
5.6128770001
 20
4.4039038036
 30
0.0
 10
5.6130141464
 20
4.4030807907
 30
0.0
 10
5.6130460897
 20
4.4013585806
 30
0.0
 10
5.6123607717
 20
4.3988786031
 30
0.0
 10
5.6114435815
 20
4.3974084097
 30
0.0
 10
5.6108998252
 20
4.3967612981
 30
0.0
  0
SPLINE
  5
4A5
100
AcDbEntity
  8
0
100
AcDbSpline
 62
7
  6
CONTINUOUS
 70
0
 71
3
 72
10
 73
6
 74
0
 42
0.0000001
 43
0.0000001
 44
0.0000000001
 40
0.0
 40
0.0
 40
0.0
 40
0.0
 40
0.3663418203
 40
0.6989617204
 40
1.0
 40
1.0
 40
1.0
 40
1.0
 10
5.6085874148
 20
4.4106996718
 30
0.0
 10
5.609368789
 20
4.4100713258
 30
0.0
 10
5.6107621164
 20
4.4087355398
 30
0.0
 10
5.6122519248
 20
4.4064075605
 30
0.0
 10
5.6127682531
 20
4.4047205382
 30
0.0
 10
5.6128770001
 20
4.4039038036
 30
0.0
  0
SPLINE
  5
4A6
100
AcDbEntity
  8
0
100
AcDbSpline
 62
7
  6
CONTINUOUS
 70
0
 71
3
 72
10
 73
6
 74
0
 42
0.0000001
 43
0.0000001
 44
0.0000000001
 40
0.0
 40
0.0
 40
0.0
 40
0.0
 40
0.3491975442
 40
0.6835931415
 40
1.0
 40
1.0
 40
1.0
 40
1.0
 10
5.5984828251
 20
4.4153581349
 30
0.0
 10
5.5997635569
 20
4.4150989678
 30
0.0
 10
5.602241572
 20
4.4144145729
 30
0.0
 10
5.6056469254
 20
4.4128275067
 30
0.0
 10
5.6076739312
 20
4.4114529164
 30
0.0
 10
5.6085874148
 20
4.4106996718
 30
0.0
  0
SPLINE
  5
4A7
100
AcDbEntity
  8
0
100
AcDbSpline
 62
7
  6
CONTINUOUS
 70
0
 71
3
 72
10
 73
6
 74
0
 42
0.0000001
 43
0.0000001
 44
0.0000000001
 40
0.0
 40
0.0
 40
0.0
 40
0.0
 40
0.3372084431
 40
0.6719942005
 40
1.0
 40
1.0
 40
1.0
 40
1.0
 10
5.5865251434
 20
4.415162136
 30
0.0
 10
5.5878433914
 20
4.4154692023
 30
0.0
 10
5.5905171314
 20
4.4159002237
 30
0.0
 10
5.5945431524
 20
4.4159619593
 30
0.0
 10
5.597193071
 20
4.415622653
 30
0.0
 10
5.5984828251
 20
4.4153581349
 30
0.0
  0
SPLINE
  5
4A8
100
AcDbEntity
  8
0
100
AcDbSpline
 62
7
  6
CONTINUOUS
 70
0
 71
3
 72
10
 73
6
 74
0
 42
0.0000001
 43
0.0000001
 44
0.0000000001
 40
0.0
 40
0.0
 40
0.0
 40
0.0
 40
0.3154433328
 40
0.6484561469
 40
1.0
 40
1.0
 40
1.0
 40
1.0
 10
5.5760351588
 20
4.4110030568
 30
0.0
 10
5.577054128
 20
4.4116193814
 30
0.0
 10
5.5792274105
 20
4.4127590319
 30
0.0
 10
5.5827398382
 20
4.4141596095
 30
0.0
 10
5.5852329573
 20
4.4148595121
 30
0.0
 10
5.5865251434
 20
4.415162136
 30
0.0
  0
SPLINE
  5
4A9
100
AcDbEntity
  8
0
100
AcDbSpline
 62
7
  6
CONTINUOUS
 70
0
 71
3
 72
10
 73
6
 74
0
 42
0.0000001
 43
0.0000001
 44
0.0000000001
 40
0.0
 40
0.0
 40
0.0
 40
0.0
 40
0.3143002696
 40
0.6472436837
 40
1.0
 40
1.0
 40
1.0
 40
1.0
 10
5.5680435842
 20
4.40415933
 30
0.0
 10
5.5687364299
 20
4.4050231713
 30
0.0
 10
5.5702864462
 20
4.4067050906
 30
0.0
 10
5.5729604424
 20
4.4090103781
 30
0.0
 10
5.5749711031
 20
4.4103608136
 30
0.0
 10
5.5760351588
 20
4.4110030568
 30
0.0
  0
SPLINE
  5
4AA
100
AcDbEntity
  8
0
100
AcDbSpline
 62
7
  6
CONTINUOUS
 70
0
 71
3
 72
10
 73
6
 74
0
 42
0.0000001
 43
0.0000001
 44
0.0000000001
 40
0.0
 40
0.0
 40
0.0
 40
0.0
 40
0.3424441058
 40
0.6773388976
 40
1.0
 40
1.0
 40
1.0
 40
1.0
 10
5.5614014539
 20
4.3899581784
 30
0.0
 10
5.5617676594
 20
4.3917256296
 30
0.0
 10
5.562750819
 20
4.3951761085
 30
0.0
 10
5.5650044619
 20
4.3999636366
 30
0.0
 10
5.5669667356
 20
4.4028429592
 30
0.0
 10
5.5680435842
 20
4.40415933
 30
0.0
  0
SPLINE
  5
4AB
100
AcDbEntity
  8
0
100
AcDbSpline
 62
7
  6
CONTINUOUS
 70
0
 71
3
 72
10
 73
6
 74
0
 42
0.0000001
 43
0.0000001
 44
0.0000000001
 40
0.0
 40
0.0
 40
0.0
 40
0.0
 40
0.306786155
 40
0.6393775677
 40
1.0
 40
1.0
 40
1.0
 40
1.0
 10
5.5617416137
 20
4.3746532269
 30
0.0
 10
5.5612911817
 20
4.3761671493
 30
0.0
 10
5.5606725613
 20
4.3794208704
 30
0.0
 10
5.5605303874
 20
4.38458804
 30
0.0
 10
5.5610298294
 20
4.3881390605
 30
0.0
 10
5.5614014539
 20
4.3899581784
 30
0.0
  0
SPLINE
  5
4AC
100
AcDbEntity
  8
0
100
AcDbSpline
 62
7
  6
CONTINUOUS
 70
0
 71
3
 72
10
 73
6
 74
0
 42
0.0000001
 43
0.0000001
 44
0.0000000001
 40
0.0
 40
0.0
 40
0.0
 40
0.0
 40
0.3162684125
 40
0.6495366412
 40
1.0
 40
1.0
 40
1.0
 40
1.0
 10
5.5658484643
 20
4.3651565649
 30
0.0
 10
5.565262957
 20
4.3660808078
 30
0.0
 10
5.564169018
 20
4.3680497066
 30
0.0
 10
5.5628105496
 20
4.3712362963
 30
0.0
 10
5.5620734318
 20
4.3734871297
 30
0.0
 10
5.5617416137
 20
4.3746532269
 30
0.0
  0
SPLINE
  5
4AD
100
AcDbEntity
  8
0
100
AcDbSpline
 62
7
  6
CONTINUOUS
 70
0
 71
3
 72
10
 73
6
 74
0
 42
0.0000001
 43
0.0000001
 44
0.0000000001
 40
0.0
 40
0.0
 40
0.0
 40
0.0
 40
0.3368270711
 40
0.6709935554
 40
1.0
 40
1.0
 40
1.0
 40
1.0
 10
5.5722343781
 20
4.358009523
 30
0.0
 10
5.5713945764
 20
4.3586891393
 30
0.0
 10
5.5697913141
 20
4.3601323727
 30
0.0
 10
5.5676521122
 20
4.3625298881
 30
0.0
 10
5.5664125848
 20
4.3642647446
 30
0.0
 10
5.5658484643
 20
4.3651565649
 30
0.0
  0
SPLINE
  5
4AE
100
AcDbEntity
  8
0
100
AcDbSpline
 62
7
  6
CONTINUOUS
 70
0
 71
3
 72
10
 73
6
 74
0
 42
0.0000001
 43
0.0000001
 44
0.0000000001
 40
0.0
 40
0.0
 40
0.0
 40
0.0
 40
0.3344627932
 40
0.6727803424
 40
1.0
 40
1.0
 40
1.0
 40
1.0
 10
5.5953081232
 20
4.3514113925
 30
0.0
 10
5.5925870782
 20
4.3510548138
 30
0.0
 10
5.5869855346
 20
4.3510726927
 30
0.0
 10
5.5790063221
 20
4.3533674995
 30
0.0
 10
5.5742935157
 20
4.3562865823
 30
0.0
 10
5.5722343781
 20
4.358009523
 30
0.0
  0
SPLINE
  5
4AF
100
AcDbEntity
  8
0
100
AcDbSpline
 62
7
  6
CONTINUOUS
 70
0
 71
3
 72
10
 73
6
 74
0
 42
0.0000001
 43
0.0000001
 44
0.0000000001
 40
0.0
 40
0.0
 40
0.0
 40
0.0
 40
0.3404890057
 40
0.6783275206
 40
1.0
 40
1.0
 40
1.0
 40
1.0
 10
5.6167295543
 20
4.3634438238
 30
0.0
 10
5.6149559857
 20
4.3612054681
 30
0.0
 10
5.6108486391
 20
4.3571581407
 30
0.0
 10
5.6034402248
 20
4.3530305145
 30
0.0
 10
5.5979929958
 20
4.3516773223
 30
0.0
 10
5.5953081232
 20
4.3514113925
 30
0.0
  0
SPLINE
  5
4B0
100
AcDbEntity
  8
0
100
AcDbSpline
 62
7
  6
CONTINUOUS
 70
0
 71
3
 72
10
 73
6
 74
0
 42
0.0000001
 43
0.0000001
 44
0.0000000001
 40
0.0
 40
0.0
 40
0.0
 40
0.0
 40
0.3375592515
 40
0.6715190683
 40
1.0
 40
1.0
 40
1.0
 40
1.0
 10
5.6213738633
 20
4.3712831676
 30
0.0
 10
5.6209803794
 20
4.3703329975
 30
0.0
 10
5.6201096213
 20
4.3684775679
 30
0.0
 10
5.6185527043
 20
4.3658538489
 30
0.0
 10
5.6173597191
 20
4.364221269
 30
0.0
 10
5.6167295543
 20
4.3634438238
 30
0.0
  0
SPLINE
  5
4B1
100
AcDbEntity
  8
0
100
AcDbSpline
 62
7
  6
CONTINUOUS
 70
0
 71
3
 72
10
 73
6
 74
0
 42
0.0000001
 43
0.0000001
 44
0.0000000001
 40
0.0
 40
0.0
 40
0.0
 40
0.0
 40
0.3461988062
 40
0.6795865008
 40
1.0
 40
1.0
 40
1.0
 40
1.0
 10
5.6243028413
 20
4.3812626947
 30
0.0
 10
5.6240671648
 20
4.3800841752
 30
0.0
 10
5.6235415363
 20
4.3777828668
 30
0.0
 10
5.6225807953
 20
4.3744446754
 30
0.0
 10
5.6217967748
 20
4.3723119734
 30
0.0
 10
5.6213738633
 20
4.3712831676
 30
0.0
  0
LINE
  5
4B2
100
AcDbEntity
  8
0
100
AcDbLine
 62
7
  6
CONTINUOUS
 10
5.6442703432
 20
4.3508565012
 11
5.6464295647
 21
4.3532906975
  0
SPLINE
  5
4B3
100
AcDbEntity
  8
0
100
AcDbSpline
 62
7
  6
CONTINUOUS
 70
0
 71
3
 72
10
 73
6
 74
0
 42
0.0000001
 43
0.0000001
 44
0.0000000001
 40
0.0
 40
0.0
 40
0.0
 40
0.0
 40
0.3050902947
 40
0.6376014243
 40
1.0
 40
1.0
 40
1.0
 40
1.0
 10
5.6368039529
 20
4.3352116553
 30
0.0
 10
5.6370956782
 20
4.3369677017
 30
0.0
 10
5.6381017423
 20
4.3405755675
 30
0.0
 10
5.6405986403
 20
4.3458769958
 30
0.0
 10
5.6429457761
 20
4.3492082928
 30
0.0
 10
5.6442703432
 20
4.3508565012
 30
0.0
  0
SPLINE
  5
4B4
100
AcDbEntity
  8
0
100
AcDbSpline
 62
7
  6
CONTINUOUS
 70
0
 71
3
 72
10
 73
6
 74
0
 42
0.0000001
 43
0.0000001
 44
0.0000000001
 40
0.0
 40
0.0
 40
0.0
 40
0.0
 40
0.3628670131
 40
0.6955116007
 40
1.0
 40
1.0
 40
1.0
 40
1.0
 10
5.6386106666
 20
4.3179015214
 30
0.0
 10
5.6379142533
 20
4.3199101414
 30
0.0
 10
5.6368184386
 20
4.3238544753
 30
0.0
 10
5.6362066358
 20
4.3297067837
 30
0.0
 10
5.6364792661
 20
4.3334575515
 30
0.0
 10
5.6368039529
 20
4.3352116553
 30
0.0
  0
SPLINE
  5
4B5
100
AcDbEntity
  8
0
100
AcDbSpline
 62
7
  6
CONTINUOUS
 70
0
 71
3
 72
10
 73
6
 74
0
 42
0.0000001
 43
0.0000001
 44
0.0000000001
 40
0.0
 40
0.0
 40
0.0
 40
0.0
 40
0.3500057263
 40
0.6831069128
 40
1.0
 40
1.0
 40
1.0
 40
1.0
 10
5.6436101213
 20
4.3258317954
 30
0.0
 10
5.6431776715
 20
4.3249865412
 30
0.0
 10
5.642404665
 20
4.3232985668
 30
0.0
 10
5.6415319651
 20
4.3207255483
 30
0.0
 10
5.6411404244
 20
4.319002021
 30
0.0
 10
5.6410003101
 20
4.3181538845
 30
0.0
  0
SPLINE
  5
4B6
100
AcDbEntity
  8
0
100
AcDbSpline
 62
7
  6
CONTINUOUS
 70
0
 71
3
 72
10
 73
6
 74
0
 42
0.0000001
 43
0.0000001
 44
0.0000000001
 40
0.0
 40
0.0
 40
0.0
 40
0.0
 40
0.3465592271
 40
0.6799461123
 40
1.0
 40
1.0
 40
1.0
 40
1.0
 10
5.6490472959
 20
4.3339741821
 30
0.0
 10
5.6483333374
 20
4.3330947257
 30
0.0
 10
5.6469817334
 20
4.3313286786
 30
0.0
 10
5.6451501721
 20
4.3286186954
 30
0.0
 10
5.6440912824
 20
4.3267607148
 30
0.0
 10
5.6436101213
 20
4.3258317954
 30
0.0
  0
SPLINE
  5
4B7
100
AcDbEntity
  8
0
100
AcDbSpline
 62
7
  6
CONTINUOUS
 70
0
 71
3
 72
10
 73
6
 74
0
 42
0.0000001
 43
0.0000001
 44
0.0000000001
 40
0.0
 40
0.0
 40
0.0
 40
0.0
 40
0.3173056733
 40
0.6507655126
 40
1.0
 40
1.0
 40
1.0
 40
1.0
 10
5.6555662831
 20
4.3403881756
 30
0.0
 10
5.6547830341
 20
4.3398163629
 30
0.0
 10
5.6532386858
 20
4.3385558433
 30
0.0
 10
5.6510793618
 20
4.3363880207
 30
0.0
 10
5.6497152773
 20
4.3348066703
 30
0.0
 10
5.6490472959
 20
4.3339741821
 30
0.0
  0
SPLINE
  5
4B8
100
AcDbEntity
  8
0
100
AcDbSpline
 62
7
  6
CONTINUOUS
 70
0
 71
3
 72
10
 73
6
 74
0
 42
0.0000001
 43
0.0000001
 44
0.0000000001
 40
0.0
 40
0.0
 40
0.0
 40
0.0
 40
0.3159365044
 40
0.6490850723
 40
1.0
 40
1.0
 40
1.0
 40
1.0
 10
5.6627396814
 20
4.344087299
 30
0.0
 10
5.6619243357
 20
4.343835403
 30
0.0
 10
5.6602814403
 20
4.3432089591
 30
0.0
 10
5.6578788057
 20
4.3419642891
 30
0.0
 10
5.6563331804
 20
4.3409452098
 30
0.0
 10
5.6555662831
 20
4.3403881756
 30
0.0
  0
SPLINE
  5
4B9
100
AcDbEntity
  8
0
100
AcDbSpline
 62
7
  6
CONTINUOUS
 70
0
 71
3
 72
10
 73
6
 74
0
 42
0.0000001
 43
0.0000001
 44
0.0000000001
 40
0.0
 40
0.0
 40
0.0
 40
0.0
 40
0.3117723208
 40
0.6447301216
 40
1.0
 40
1.0
 40
1.0
 40
1.0
 10
5.6216226532
 20
4.3912226235
 30
0.0
 10
5.622066133
 20
4.3901134393
 30
0.0
 10
5.6231686618
 20
4.3878913327
 30
0.0
 10
5.625323365
 20
4.3847110658
 30
0.0
 10
5.6270772009
 20
4.3827315993
 30
0.0
 10
5.6280321779
 20
4.3817615835
 30
0.0
  0
SPLINE
  5
4BA
100
AcDbEntity
  8
0
100
AcDbSpline
 62
7
  6
CONTINUOUS
 70
0
 71
3
 72
10
 73
6
 74
0
 42
0.0000001
 43
0.0000001
 44
0.0000000001
 40
0.0
 40
0.0
 40
0.0
 40
0.0
 40
0.3516502816
 40
0.6871537017
 40
1.0
 40
1.0
 40
1.0
 40
1.0
 10
5.6209433101
 20
4.3787542609
 30
0.0
 10
5.6211746031
 20
4.3800976462
 30
0.0
 10
5.6213888373
 20
4.3827762108
 30
0.0
 10
5.6208312678
 20
4.3866407671
 30
0.0
 10
5.6199438243
 20
4.3890198633
 30
0.0
 10
5.6193782235
 20
4.3900926209
 30
0.0
  0
ENDSEC
  0
SECTION
  2
OBJECTS
  0
DICTIONARY
  5
C
100
AcDbDictionary
280
0
281
1
  3
ACAD_GROUP
350
D
  3
ACAD_MLINESTYLE
350
17
  3
ACAD_LAYOUT
350
1A
  3
ACAD_PLOTSETTINGS
350
19
  3
ACAD_PLOTSTYLENAME
350
E
  0
DICTIONARY
  5
D
102
{ACAD_REACTORS
330
C
102
}
100
AcDbDictionary
280
0
281
1
  0
ACDBDICTIONARYWDFLT
  5
E
102
{ACAD_REACTORS
330
C
102
}
100
AcDbDictionary
281
1
  3
Normal
350
F
100
AcDbDictionaryWithDefault
340
F
  0
DICTIONARY
  5
17
102
{ACAD_REACTORS
330
C
102
}
100
AcDbDictionary
280
0
281
1
  3
Standard
350
18
  0
DICTIONARY
  5
19
102
{ACAD_REACTORS
330
C
102
}
100
AcDbDictionary
281
1
  0
DICTIONARY
  5
1A
102
{ACAD_REACTORS
330
C
102
}
100
AcDbDictionary
281
1
  3
Model
350
4BB
  3
Layout1
350
4BC
  0
ACDBPLACEHOLDER
  5
F
102
{ACAD_REACTORS
330
E
102
}
  0
MLINESTYLE
  5
18
102
{ACAD_REACTORS
330
17
102
}
100
AcDbMlineStyle
  2
STANDARD
 70
0
  3

 62
256
 51
90.0
 52
90.0
 71
2
 49
0.5
 62
256
  6
BYLAYER
 49
-0.5
 62
256
  6
BYLAYER
  0
LAYOUT
  5
4BB
102
{ACAD_REACTORS
330
1A
102
}
100
AcDbPlotSettings
  1

  2
none_device
  4
ANSI_A_(11.00_x_8.50_Inches)
  6

 40
0.0
 41
0.0
 42
0.0
 43
0.0
 44
279.4
 45
215.9
 46
0.0
 47
0.0
 48
0.0
 49
0.0
140
0.0
141
0.0
142
1.0
143
1.0
 70
1024
 72
0
 73
0
 74
0
  7

 75
0
147
1.0
148
0.0
149
0.0
100
AcDbLayout
  1
Model
 70
0
 71
0
 10
0.0
 20
0.0
 11
11.0
 21
8.5
 12
0.0
 22
0.0
 32
0.0
 14
0.0
 24
0.0
 34
0.0
 15
0.0
 25
0.0
 35
0.0
146
0.0
 13
0.0
 23
0.0
 33
0.0
 16
1.0
 26
0.0
 36
0.0
 17
0.0
 27
1.0
 37
0.0
 76
0
330
21D
345
0
346
0
  0
LAYOUT
  5
4BC
102
{ACAD_REACTORS
330
1A
102
}
100
AcDbPlotSettings
  1

  2
none_device
  4
ANSI_A_(11.00_x_8.50_Inches)
  6

 40
0.0
 41
0.0
 42
0.0
 43
0.0
 44
279.4
 45
215.9
 46
0.0
 47
0.0
 48
0.0
 49
0.0
140
0.0
141
0.0
142
1.0
143
1.0
 70
0
 72
0
 73
0
 74
0
  7

 75
0
147
1.0
148
0.0
149
0.0
100
AcDbLayout
  1
Layout1
 70
0
 71
1
 10
0.0
 20
0.0
 11
11.0
 21
8.5
 12
0.0
 22
0.0
 32
0.0
 14
0.0
 24
0.0
 34
0.0
 15
0.0
 25
0.0
 35
0.0
146
0.0
 13
0.0
 23
0.0
 33
0.0
 16
1.0
 26
0.0
 36
0.0
 17
0.0
 27
1.0
 37
0.0
 76
0
330
21E
345
0
346
0
  0
ENDSEC
  0
EOF
