999
DXF file: 3-2415_FRONT.dxf
999
Pro/ENGINEER 2018400 by Parametric Technology Corporation
  0
SECTION
  2
HEADER
  9
$ACADVER
  1
AC1027
  9
$DWGCODEPAGE
  3
ANSI_1252
  9
$EXTMAX
 10
11.0
 20
8.5
 30
0.0
  9
$EXTMIN
 10
0.0
 20
0.0
 30
0.0
  9
$LIMMIN
 10
0.0
 20
0.0
  9
$LIMMAX
 10
11.0
 20
8.5
  9
$VIEWCTR
 10
5.5
 20
4.25
  9
$VIEWSIZE
 40
8.5
  9
$CLAYER
  8
0
  9
$LTSCALE
 40
0.605
  9
$CELTYPE
  6
BYLAYER
  9
$DIMSCALE
 40
1.0
  9
$DIMASZ
 40
0.1
  9
$DIMEXO
 40
0.0625
  9
$DIMDLI
 40
0.418
  9
$DIMEXE
 40
0.125
  9
$DIMCEN
 40
0.099
  9
$DIMLFAC
 40
1.0
  9
$DIMBLK
  1
_FILLED
  9
$DIMALT
 70
1
  9
$DIMALTD
 70
2
  9
$DIMALTTD
 70
2
  9
$DIMALTF
 40
25.4
  9
$DIMTXT
 40
0.08
  9
$DIMTOL
 70
1
  9
$DIMLIM
 70
0
  9
$DIMTFAC
 40
1.0
  9
$DIMTP
 40
0.001
  9
$DIMTM
 40
0.001
  9
$DIMGAP
 40
0.09
  9
$DIMDSEP
 70
46
  9
$AUNITS
 70
0
  9
$PDMODE
 70
3
  9
$PDSIZE
 40
0.3125
  9
$HANDSEED
  5
2DF
  9
$TILEMODE
 70
1
  9
$MEASUREMENT
 70
0
  9
$INSUNITS
 70
1
  0
ENDSEC
  0
SECTION
  2
CLASSES
  0
CLASS
  1
ACDBDICTIONARYWDFLT
  2
AcDbDictionaryWithDefault
  3
AutoCAD 2000
 90
0
 91
1
280
0
281
0
  0
CLASS
  1
ACDBPLACEHOLDER
  2
AcDbPlaceHolder
  3
AutoCAD 2000
 90
0
 91
1
280
0
281
0
  0
CLASS
  1
LAYOUT
  2
AcDbLayout
  3
AutoCAD 2000
 90
0
 91
0
280
0
281
0
  0
ENDSEC
  0
SECTION
  2
TABLES
  0
TABLE
  2
VPORT
  5
8
100
AcDbSymbolTable
 70
2
  0
VPORT
  5
1F4
100
AcDbSymbolTableRecord
100
AcDbViewportTableRecord
  2
*ACTIVE
 70
0
 10
0.0
 20
0.0
 11
1.0
 21
1.0
 12
5.5
 22
4.25
 13
0.0
 23
0.0
 14
1.0
 24
1.0
 15
0.0
 25
0.0
 16
0.0
 26
0.0
 36
1.0
 17
0.0
 27
0.0
 37
0.0
 40
8.5
 41
1.2941176471
 42
50.0
 43
0.0
 44
0.0
 50
0.0
 51
0.0
 71
0
 72
100
 73
1
 74
1
 75
0
 76
0
 77
0
 78
0
  0
ENDTAB
  0
TABLE
  2
LTYPE
  5
5
100
AcDbSymbolTable
 70
6
  0
LTYPE
  5
14
100
AcDbSymbolTableRecord
100
AcDbLinetypeTableRecord
  2
BYBLOCK
 70
0
  3

 72
65
 73
0
 40
0.0
  0
LTYPE
  5
15
100
AcDbSymbolTableRecord
100
AcDbLinetypeTableRecord
  2
BYLAYER
 70
0
  3

 72
65
 73
0
 40
0.0
  0
LTYPE
  5
16
100
AcDbSymbolTableRecord
100
AcDbLinetypeTableRecord
  2
CONTINUOUS
 70
64
  3
Solid line
 72
65
 73
0
 40
0.0
  0
LTYPE
  5
1F5
100
AcDbSymbolTableRecord
100
AcDbLinetypeTableRecord
  2
CENTER
 70
64
  3
____ _ ____ _ ____ _ ____ _ ____ _ ____ _ ____
 72
65
 73
4
 40
0.6
 49
0.375
 74
0
 49
-0.075
 74
0
 49
0.075
 74
0
 49
-0.075
 74
0
  0
LTYPE
  5
1F6
100
AcDbSymbolTableRecord
100
AcDbLinetypeTableRecord
  2
HIDDEN
 70
64
  3
- - - - - - - - - - - - - - - - - - - -
 72
65
 73
2
 40
0.2
 49
0.1
 74
0
 49
-0.1
 74
0
  0
LTYPE
  5
1F7
100
AcDbSymbolTableRecord
100
AcDbLinetypeTableRecord
  2
PHANTOM
 70
64
  3
_____ _ _ _____ _ _ _____ _ _ _____
 72
65
 73
6
 40
0.8
 49
0.45
 74
0
 49
-0.05
 74
0
 49
0.1
 74
0
 49
-0.05
 74
0
 49
0.1
 74
0
 49
-0.05
 74
0
  0
LTYPE
  5
1F8
100
AcDbSymbolTableRecord
100
AcDbLinetypeTableRecord
  2
DOT
 70
64
  3
. . . . . . . . . . . . . . . . . . . .
 72
65
 73
2
 40
0.2
 49
0.1
 74
0
 49
-0.1
 74
0
  0
LTYPE
  5
1F9
100
AcDbSymbolTableRecord
100
AcDbLinetypeTableRecord
  2
DASHED
 70
64
  3
- - - - - - - - - - - - - - - - - - - -
 72
65
 73
2
 40
0.2
 49
0.1
 74
0
 49
-0.1
 74
0
  0
ENDTAB
  0
TABLE
  2
LAYER
  5
2
100
AcDbSymbolTable
 70
36
  0
LAYER
  5
10
100
AcDbSymbolTableRecord
100
AcDbLayerTableRecord
  2
0
 70
0
 62
7
  6
CONTINUOUS
370
-3
390
F
  0
LAYER
  5
1FA
100
AcDbSymbolTableRecord
100
AcDbLayerTableRecord
  2
DEFAULT_1
 70
0
 62
7
  6
CENTER
370
-3
390
F
  0
LAYER
  5
1FB
100
AcDbSymbolTableRecord
100
AcDbLayerTableRecord
  2
DEFAULT_2
 70
0
 62
8
  6
HIDDEN
370
-3
390
F
  0
LAYER
  5
1FC
100
AcDbSymbolTableRecord
100
AcDbLayerTableRecord
  2
DEFAULT_3
 70
0
 62
7
  6
PHANTOM
370
-3
390
F
  0
LAYER
  5
1FD
100
AcDbSymbolTableRecord
100
AcDbLayerTableRecord
  2
3-985_ASSY_PLANES
 70
0
 62
7
  6
CONTINUOUS
370
-3
390
F
  0
LAYER
  5
1FE
100
AcDbSymbolTableRecord
100
AcDbLayerTableRecord
  2
ALL_ASSEMBLY_MEMBERS
 70
0
 62
7
  6
CONTINUOUS
370
-3
390
F
  0
LAYER
  5
1FF
100
AcDbSymbolTableRecord
100
AcDbLayerTableRecord
  2
ALL_FEATURES
 70
0
 62
7
  6
CONTINUOUS
370
-3
390
F
  0
LAYER
  5
200
100
AcDbSymbolTableRecord
100
AcDbLayerTableRecord
  2
AXES_FEATURES
 70
0
 62
7
  6
CONTINUOUS
370
-3
390
F
  0
LAYER
  5
201
100
AcDbSymbolTableRecord
100
AcDbLayerTableRecord
  2
CHAMFER_FEATURES
 70
0
 62
7
  6
CONTINUOUS
370
-3
390
F
  0
LAYER
  5
202
100
AcDbSymbolTableRecord
100
AcDbLayerTableRecord
  2
COORDINATE_SYSTEMS
 70
0
 62
7
  6
CONTINUOUS
370
-3
390
F
  0
LAYER
  5
203
100
AcDbSymbolTableRecord
100
AcDbLayerTableRecord
  2
CUT_FEATURES
 70
0
 62
7
  6
CONTINUOUS
370
-3
390
F
  0
LAYER
  5
204
100
AcDbSymbolTableRecord
100
AcDbLayerTableRecord
  2
CYAN
 70
0
 62
7
  6
CONTINUOUS
370
-3
390
F
  0
LAYER
  5
205
100
AcDbSymbolTableRecord
100
AcDbLayerTableRecord
  2
DATUM_CURVES
 70
0
 62
7
  6
CONTINUOUS
370
-3
390
F
  0
LAYER
  5
206
100
AcDbSymbolTableRecord
100
AcDbLayerTableRecord
  2
DATUM_PLANES
 70
0
 62
7
  6
CONTINUOUS
370
-3
390
F
  0
LAYER
  5
207
100
AcDbSymbolTableRecord
100
AcDbLayerTableRecord
  2
DATUM_POINTS
 70
0
 62
7
  6
CONTINUOUS
370
-3
390
F
  0
LAYER
  5
208
100
AcDbSymbolTableRecord
100
AcDbLayerTableRecord
  2
DEFAULT_COORDINATE_SYSTEM
 70
0
 62
7
  6
CONTINUOUS
370
-3
390
F
  0
LAYER
  5
209
100
AcDbSymbolTableRecord
100
AcDbLayerTableRecord
  2
DEFAULT_DATUM_AXES
 70
0
 62
7
  6
CONTINUOUS
370
-3
390
F
  0
LAYER
  5
20A
100
AcDbSymbolTableRecord
100
AcDbLayerTableRecord
  2
DEFAULT_DATUM_CURVES
 70
0
 62
7
  6
CONTINUOUS
370
-3
390
F
  0
LAYER
  5
20B
100
AcDbSymbolTableRecord
100
AcDbLayerTableRecord
  2
DEFAULT_DATUM_PLANES
 70
0
 62
7
  6
CONTINUOUS
370
-3
390
F
  0
LAYER
  5
20C
100
AcDbSymbolTableRecord
100
AcDbLayerTableRecord
  2
DEFAULT_SURFACES
 70
0
 62
7
  6
CONTINUOUS
370
-3
390
F
  0
LAYER
  5
20D
100
AcDbSymbolTableRecord
100
AcDbLayerTableRecord
  2
DIMENSIONS
 70
0
 62
7
  6
CONTINUOUS
370
-3
390
F
  0
LAYER
  5
20E
100
AcDbSymbolTableRecord
100
AcDbLayerTableRecord
  2
HOLE_FEATURES
 70
0
 62
7
  6
CONTINUOUS
370
-3
390
F
  0
LAYER
  5
20F
100
AcDbSymbolTableRecord
100
AcDbLayerTableRecord
  2
PART_REFERENCE_DIMENSIONS
 70
0
 62
7
  6
CONTINUOUS
370
-3
390
F
  0
LAYER
  5
210
100
AcDbSymbolTableRecord
100
AcDbLayerTableRecord
  2
PLATED_SURFACE_AREA
 70
0
 62
7
  6
CONTINUOUS
370
-3
390
F
  0
LAYER
  5
211
100
AcDbSymbolTableRecord
100
AcDbLayerTableRecord
  2
POINTS
 70
0
 62
7
  6
CONTINUOUS
370
-3
390
F
  0
LAYER
  5
212
100
AcDbSymbolTableRecord
100
AcDbLayerTableRecord
  2
PROTRUSION_FEATURES
 70
0
 62
7
  6
CONTINUOUS
370
-3
390
F
  0
LAYER
  5
213
100
AcDbSymbolTableRecord
100
AcDbLayerTableRecord
  2
QUILTS
 70
0
 62
7
  6
CONTINUOUS
370
-3
390
F
  0
LAYER
  5
214
100
AcDbSymbolTableRecord
100
AcDbLayerTableRecord
  2
REFERENCE_DIMENSIONS
 70
0
 62
7
  6
CONTINUOUS
370
-3
390
F
  0
LAYER
  5
215
100
AcDbSymbolTableRecord
100
AcDbLayerTableRecord
  2
ROUND_FEATURES
 70
0
 62
7
  6
CONTINUOUS
370
-3
390
F
  0
LAYER
  5
216
100
AcDbSymbolTableRecord
100
AcDbLayerTableRecord
  2
SURFACE_FEATURES
 70
0
 62
7
  6
CONTINUOUS
370
-3
390
F
  0
LAYER
  5
217
100
AcDbSymbolTableRecord
100
AcDbLayerTableRecord
  2
SURFACE_FINISH_SYMBOLS
 70
0
 62
7
  6
CONTINUOUS
370
-3
390
F
  0
LAYER
  5
218
100
AcDbSymbolTableRecord
100
AcDbLayerTableRecord
  2
WETTED_SURFACES
 70
0
 62
7
  6
CONTINUOUS
370
-3
390
F
  0
LAYER
  5
219
100
AcDbSymbolTableRecord
100
AcDbLayerTableRecord
  2
WETTED_SURFACE_AREA
 70
0
 62
7
  6
CONTINUOUS
370
-3
390
F
  0
LAYER
  5
21A
100
AcDbSymbolTableRecord
100
AcDbLayerTableRecord
  2
WHITE
 70
0
 62
7
  6
CONTINUOUS
370
-3
390
F
  0
ENDTAB
  0
TABLE
  2
STYLE
  5
3
100
AcDbSymbolTable
 70
1
  0
STYLE
  5
11
100
AcDbSymbolTableRecord
100
AcDbTextStyleTableRecord
  2
STANDARD
 70
0
 40
0.0
 41
0.8
 50
0.0
 71
0
 42
0.2
  3
txt
  4

  0
STYLE
  5
21B
100
AcDbSymbolTableRecord
100
AcDbTextStyleTableRecord
  2
TEXTSTYLE_1
 70
0
 40
0.0
 41
0.8
 50
0.0
 71
0
 42
0.2
  3
gdt
  4

  0
ENDTAB
  0
TABLE
  2
VIEW
  5
6
100
AcDbSymbolTable
 70
0
  0
ENDTAB
  0
TABLE
  2
UCS
  5
7
100
AcDbSymbolTable
 70
0
  0
ENDTAB
  0
TABLE
  2
APPID
  5
9
100
AcDbSymbolTable
 70
1
  0
APPID
  5
21C
100
AcDbSymbolTableRecord
100
AcDbRegAppTableRecord
  2
ACAD
 70
0
  0
ENDTAB
  0
TABLE
  2
BLOCK_RECORD
  5
1
100
AcDbSymbolTable
 70
0
  0
BLOCK_RECORD
  5
21D
100
AcDbSymbolTableRecord
100
AcDbBlockTableRecord
  2
*Model_Space
  0
BLOCK_RECORD
  5
21E
100
AcDbSymbolTableRecord
100
AcDbBlockTableRecord
  2
*Paper_Space
  0
BLOCK_RECORD
  5
21F
100
AcDbSymbolTableRecord
100
AcDbBlockTableRecord
  2
_FILLED
  0
ENDTAB
  0
TABLE
  2
DIMSTYLE
  5
A
100
AcDbSymbolTable
 70
1
100
AcDbDimStyleTable
 71
0
  0
DIMSTYLE
105
220
100
AcDbSymbolTableRecord
100
AcDbDimStyleTableRecord
  2
STANDARD
 70
0
  3

  4

 40
1.0
 41
0.1
 42
0.0625
 43
0.38
 44
0.125
 45
0.0
 46
0.0
 47
0.001
 48
0.001
140
0.08
141
0.09
142
0.0
143
25.4
144
1.0
145
0.0
146
1.0
147
0.09
 71
1.0
 72
0.0
 73
1
 74
1
 75
0
 76
0
 77
0
 78
4
 79
1
170
1
171
2
172
0
173
0
174
0
175
0
176
0
177
0
178
0
270
2
179
3
271
3
272
3
273
2
274
2
275
0
280
0
281
0
282
0
283
1
284
4
285
0
286
0
287
3
288
0
340
11
278
46
341
21F
342
21F
343
21F
344
21F
  0
ENDTAB
  0
ENDSEC
  0
SECTION
  2
BLOCKS
  0
BLOCK
  5
20
100
AcDbEntity
  8
0
100
AcDbBlockBegin
  2
*Model_Space
 70
0
 10
0.0
 20
0.0
 30
0.0
  3
*Model_Space
  1

  0
ENDBLK
  5
21
100
AcDbEntity
  8
0
100
AcDbBlockEnd
  0
BLOCK
  5
1C
100
AcDbEntity
  8
0
100
AcDbBlockBegin
  2
*Paper_Space
 70
0
 10
0.0
 20
0.0
 30
0.0
  3
*Paper_Space
  1

  0
ENDBLK
  5
1D
100
AcDbEntity
  8
0
100
AcDbBlockEnd
  0
BLOCK
  5
221
100
AcDbEntity
  8
0
100
AcDbBlockBegin
  2
_FILLED
 70
64
 10
0.0
 20
0.0
  3
_FILLED
  1

  0
SOLID
  5
222
100
AcDbEntity
  8
0
  6
BYBLOCK
 62
0
100
AcDbTrace
 10
0.0
 20
0.0
 11
-1.0
 21
0.2
 12
-1.0
 22
-0.2
 13
-1.0
 23
-0.2
  0
ENDBLK
  5
223
100
AcDbEntity
  8
0
  6
BYBLOCK
 62
0
100
AcDbBlockEnd
  0
ENDSEC
  0
SECTION
  2
ENTITIES
  0
MTEXT
  5
224
100
AcDbEntity
  8
0
100
AcDbMText
 62
2
  6
CONTINUOUS
  7
STANDARD
 71
3
 72
1
 10
3.2115519663
 20
1.6444607447
 30
0.0
 11
1.0
 21
0.0
 31
0.0
 73
2
 44
0.9
  1
SCALE  .500
 40
0.08
 41
0.704
  0
LINE
  5
225
100
AcDbEntity
  8
0
100
AcDbLine
 62
7
  6
CONTINUOUS
 10
0.0
 20
0.0
 11
0.0
 21
8.5
  0
LINE
  5
226
100
AcDbEntity
  8
0
100
AcDbLine
 62
7
  6
CONTINUOUS
 10
0.0
 20
0.0
 11
11.0
 21
0.0
  0
LINE
  5
227
100
AcDbEntity
  8
0
100
AcDbLine
 62
7
  6
CONTINUOUS
 10
0.0
 20
8.5
 11
11.0
 21
8.5
  0
LINE
  5
228
100
AcDbEntity
  8
0
100
AcDbLine
 62
7
  6
CONTINUOUS
 10
11.0
 20
0.0
 11
11.0
 21
8.5
  0
LINE
  5
229
100
AcDbEntity
  8
ALL_ASSEMBLY_MEMBERS
100
AcDbLine
 62
7
  6
CONTINUOUS
 10
1.6784761236
 20
6.2039191175
 11
1.6784761236
 21
6.4534234381
  0
LINE
  5
22A
100
AcDbEntity
  8
ALL_ASSEMBLY_MEMBERS
100
AcDbLine
 62
7
  6
CONTINUOUS
 10
1.6897197783
 20
6.1805054567
 11
1.6897197783
 21
6.4768370989
  0
LINE
  5
22B
100
AcDbEntity
  8
ALL_ASSEMBLY_MEMBERS
100
AcDbLine
 62
7
  6
CONTINUOUS
 10
1.738499027
 20
6.1053126761
 11
1.738499027
 21
6.5520298795
  0
LINE
  5
22C
100
AcDbEntity
  8
ALL_ASSEMBLY_MEMBERS
100
AcDbLine
 62
7
  6
CONTINUOUS
 10
1.7675246878
 20
6.0828962778
 11
1.7675246878
 21
6.5744462778
  0
LINE
  5
22D
100
AcDbEntity
  8
ALL_ASSEMBLY_MEMBERS
100
AcDbLine
 62
7
  6
CONTINUOUS
 10
1.7784761236
 20
6.0828962778
 11
1.7784761236
 21
6.5744462778
  0
LINE
  5
22E
100
AcDbEntity
  8
ALL_ASSEMBLY_MEMBERS
100
AcDbLine
 62
7
  6
CONTINUOUS
 10
1.7984761236
 20
6.1028962778
 11
1.7984761236
 21
6.5544462778
  0
LINE
  5
22F
100
AcDbEntity
  8
ALL_ASSEMBLY_MEMBERS
100
AcDbLine
 62
7
  6
CONTINUOUS
 10
2.8859761236
 20
6.1891712778
 11
2.8859761236
 21
6.4681712778
  0
LINE
  5
230
100
AcDbEntity
  8
ALL_ASSEMBLY_MEMBERS
100
AcDbLine
 62
7
  6
CONTINUOUS
 10
2.9261638178
 20
6.1653192902
 11
2.9261638178
 21
6.4920232653
  0
LINE
  5
231
100
AcDbEntity
  8
ALL_ASSEMBLY_MEMBERS
100
AcDbLine
 62
7
  6
CONTINUOUS
 10
3.059975011
 20
6.1774814192
 11
3.059975011
 21
6.4798611364
  0
LINE
  5
232
100
AcDbEntity
  8
ALL_ASSEMBLY_MEMBERS
100
AcDbLine
 62
7
  6
CONTINUOUS
 10
3.0834761236
 20
6.19717259
 11
3.0834761236
 21
6.4601699655
  0
LINE
  5
233
100
AcDbEntity
  8
ALL_ASSEMBLY_MEMBERS
100
AcDbLine
 62
7
  6
CONTINUOUS
 10
3.1344761236
 20
6.4439962778
 11
3.1344761236
 21
6.2133462778
  0
LINE
  5
234
100
AcDbEntity
  8
ALL_ASSEMBLY_MEMBERS
100
AcDbLine
 62
7
  6
CONTINUOUS
 10
5.2866263151
 20
3.6285098616
 11
5.2959761236
 21
3.6286712778
  0
LINE
  5
235
100
AcDbEntity
  8
ALL_ASSEMBLY_MEMBERS
100
AcDbLine
 62
7
  6
CONTINUOUS
 10
5.2959761236
 20
3.6286712778
 11
5.3053879093
 21
3.6285077106
  0
LINE
  5
236
100
AcDbEntity
  8
ALL_ASSEMBLY_MEMBERS
100
AcDbLine
 62
7
  6
CONTINUOUS
 10
4.8202261236
 20
2.4939563282
 11
4.8202982629
 21
2.4946799435
  0
LINE
  5
237
100
AcDbEntity
  8
ALL_ASSEMBLY_MEMBERS
100
AcDbLine
 62
7
  6
CONTINUOUS
 10
4.745374762
 20
2.4953605975
 11
4.7452261236
 21
2.4939563282
  0
LINE
  5
238
100
AcDbEntity
  8
ALL_ASSEMBLY_MEMBERS
100
AcDbLine
 62
7
  6
CONTINUOUS
 10
5.2959761236
 20
3.6286712778
 11
5.2959761236
 21
2.5532271926
  0
LINE
  5
239
100
AcDbEntity
  8
ALL_ASSEMBLY_MEMBERS
100
AcDbLine
 62
7
  6
CONTINUOUS
 10
5.2959761236
 20
2.5341493126
 11
5.2959761236
 21
2.4539940566
  0
LINE
  5
23A
100
AcDbEntity
  8
ALL_ASSEMBLY_MEMBERS
100
AcDbLine
 62
7
  6
CONTINUOUS
 10
4.9980985693
 20
3.3641806312
 11
4.9980203281
 21
3.3635204952
  0
LINE
  5
23B
100
AcDbEntity
  8
ALL_ASSEMBLY_MEMBERS
100
AcDbLine
 62
7
  6
CONTINUOUS
 10
4.9981206386
 20
3.3641779907
 11
4.9980242607
 21
3.3635200335
  0
LINE
  5
23C
100
AcDbEntity
  8
ALL_ASSEMBLY_MEMBERS
100
AcDbLine
 62
7
  6
CONTINUOUS
 10
5.0010875192
 20
3.3672435742
 11
5.0010751047
 21
3.3671930475
  0
LINE
  5
23D
100
AcDbEntity
  8
ALL_ASSEMBLY_MEMBERS
100
AcDbLine
 62
7
  6
CONTINUOUS
 10
5.0010751047
 20
3.3671930475
 11
5.001009291
 21
3.3669297463
  0
LINE
  5
23E
100
AcDbEntity
  8
ALL_ASSEMBLY_MEMBERS
100
AcDbLine
 62
7
  6
CONTINUOUS
 10
5.001009291
 20
3.3669297463
 11
5.0008825249
 21
3.3664324571
  0
LWPOLYLINE
  5
23F
100
AcDbEntity
  8
ALL_ASSEMBLY_MEMBERS
100
AcDbPolyline
 62
7
  6
CONTINUOUS
 90
10
 70
0
 10
4.8113118207
 20
2.7687765425
 10
4.8040472212
 20
2.7422271188
 10
4.7958594376
 20
2.7115222623
 10
4.787845148
 20
2.6805702277
 10
4.780031389
 20
2.6494251254
 10
4.7724371217
 20
2.6181121177
 10
4.7650740955
 20
2.5866259834
 10
4.7579606946
 20
2.5549876507
 10
4.7511211026
 20
2.5232456544
 10
4.7453663526
 20
2.4953607015
  0
LWPOLYLINE
  5
240
100
AcDbEntity
  8
ALL_ASSEMBLY_MEMBERS
100
AcDbPolyline
 62
7
  6
CONTINUOUS
 90
3
 70
0
 10
5.6494623591
 20
3.1857109328
 10
5.6377204151
 20
3.2207052262
 10
5.6330801419
 20
3.2345678584
  0
LWPOLYLINE
  5
241
100
AcDbEntity
  8
ALL_ASSEMBLY_MEMBERS
100
AcDbPolyline
 62
7
  6
CONTINUOUS
 90
13
 70
0
 10
5.6330774066
 20
3.234576037
 10
5.627794703
 20
3.250407006
 10
5.6223566966
 20
3.2667885387
 10
5.6173288144
 20
3.2820361432
 10
5.6126928565
 20
3.296210836
 10
5.6084669497
 20
3.3092607291
 10
5.6047010076
 20
3.3210302027
 10
5.6013768723
 20
3.3315697481
 10
5.5984880751
 20
3.3408907869
 10
5.5960907326
 20
3.348792068
 10
5.5941855698
 20
3.3552330398
 10
5.5927219116
 20
3.3603373866
 10
5.5917461813
 20
3.3638725161
  0
LWPOLYLINE
  5
242
100
AcDbEntity
  8
ALL_ASSEMBLY_MEMBERS
100
AcDbPolyline
 62
7
  6
CONTINUOUS
 90
5
 70
0
 10
5.6937366916
 20
3.0532081023
 10
5.6862125181
 20
3.0760060445
 10
5.678089614
 20
3.1004273586
 10
5.6703186097
 20
3.1236490397
 10
5.6494623591
 20
3.1857109328
  0
LWPOLYLINE
  5
243
100
AcDbEntity
  8
ALL_ASSEMBLY_MEMBERS
100
AcDbPolyline
 62
7
  6
CONTINUOUS
 90
9
 70
0
 10
5.7577584727
 20
2.8488478054
 10
5.7491998684
 20
2.8776217434
 10
5.7407187691
 20
2.9055991075
 10
5.7323443492
 20
2.9327533241
 10
5.7240982085
 20
2.9590806235
 10
5.7159944838
 20
2.9845982193
 10
5.7080530087
 20
3.0093027105
 10
5.7002992526
 20
3.0331718462
 10
5.6937371892
 20
3.0532065883
  0
LINE
  5
244
100
AcDbEntity
  8
ALL_ASSEMBLY_MEMBERS
100
AcDbLine
 62
7
  6
CONTINUOUS
 10
5.7662431091
 20
2.8197269472
 11
5.7577584727
 21
2.8488478054
  0
LINE
  5
245
100
AcDbEntity
  8
ALL_ASSEMBLY_MEMBERS
100
AcDbLine
 62
7
  6
CONTINUOUS
 10
5.7701171673
 20
2.8062167963
 11
5.7662431091
 21
2.8197269472
  0
LINE
  5
246
100
AcDbEntity
  8
ALL_ASSEMBLY_MEMBERS
100
AcDbLine
 62
7
  6
CONTINUOUS
 10
5.7739723578
 20
2.7926308836
 11
5.7701171673
 21
2.8062167963
  0
LINE
  5
247
100
AcDbEntity
  8
ALL_ASSEMBLY_MEMBERS
100
AcDbLine
 62
7
  6
CONTINUOUS
 10
5.7778070555
 20
2.778969651
 11
5.7739723578
 21
2.7926308836
  0
LINE
  5
248
100
AcDbEntity
  8
ALL_ASSEMBLY_MEMBERS
100
AcDbLine
 62
7
  6
CONTINUOUS
 10
5.7806405132
 20
2.7687762294
 11
5.7778070555
 21
2.778969651
  0
LINE
  5
249
100
AcDbEntity
  8
ALL_ASSEMBLY_MEMBERS
100
AcDbLine
 62
7
  6
CONTINUOUS
 10
5.5917373712
 20
3.3639052222
 11
5.5917461813
 21
3.3638725161
  0
LINE
  5
24A
100
AcDbEntity
  8
ALL_ASSEMBLY_MEMBERS
100
AcDbLine
 62
7
  6
CONTINUOUS
 10
5.5917373712
 20
3.3639052222
 11
5.5914017623
 21
3.3651614825
  0
LINE
  5
24B
100
AcDbEntity
  8
ALL_ASSEMBLY_MEMBERS
100
AcDbLine
 62
7
  6
CONTINUOUS
 10
5.5914017623
 20
3.3651614825
 11
5.5911639676
 21
3.3660679325
  0
LINE
  5
24C
100
AcDbEntity
  8
ALL_ASSEMBLY_MEMBERS
100
AcDbLine
 62
7
  6
CONTINUOUS
 10
5.5911639676
 20
3.3660679325
 11
5.5909960176
 21
3.3667204006
  0
LINE
  5
24D
100
AcDbEntity
  8
ALL_ASSEMBLY_MEMBERS
100
AcDbLine
 62
7
  6
CONTINUOUS
 10
5.5909960176
 20
3.3667204006
 11
5.590906795
 21
3.3670737541
  0
LWPOLYLINE
  5
24E
100
AcDbEntity
  8
ALL_ASSEMBLY_MEMBERS
100
AcDbPolyline
 62
7
  6
CONTINUOUS
 90
3
 70
0
 10
5.590906795
 20
3.3670737541
 10
5.5908671231
 20
3.3672337709
 10
5.5908666412
 20
3.3672357397
  0
LINE
  5
24F
100
AcDbEntity
  8
ALL_ASSEMBLY_MEMBERS
100
AcDbLine
 62
7
  6
CONTINUOUS
 10
5.8467261236
 20
2.4939563282
 11
5.8465774913
 21
2.4953605976
  0
LINE
  5
250
100
AcDbEntity
  8
ALL_ASSEMBLY_MEMBERS
100
AcDbLine
 62
7
  6
CONTINUOUS
 10
5.7716537982
 20
2.4946799412
 11
5.7717261236
 21
2.4939563282
  0
LINE
  5
251
100
AcDbEntity
  8
ALL_ASSEMBLY_MEMBERS
100
AcDbLine
 62
7
  6
CONTINUOUS
 10
5.0008825249
 20
3.3664324571
 11
5.0006892798
 21
3.3656885231
  0
LINE
  5
252
100
AcDbEntity
  8
ALL_ASSEMBLY_MEMBERS
100
AcDbLine
 62
7
  6
CONTINUOUS
 10
5.0006892798
 20
3.3656885231
 11
5.0003713773
 21
3.364488232
  0
LINE
  5
253
100
AcDbEntity
  8
ALL_ASSEMBLY_MEMBERS
100
AcDbLine
 62
7
  6
CONTINUOUS
 10
5.0002060659
 20
3.3638725161
 11
5.0003713773
 21
3.364488232
  0
LWPOLYLINE
  5
254
100
AcDbEntity
  8
ALL_ASSEMBLY_MEMBERS
100
AcDbPolyline
 62
7
  6
CONTINUOUS
 90
13
 70
0
 10
5.0002060659
 20
3.3638725161
 10
4.9992303356
 20
3.3603373866
 10
4.9977666774
 20
3.3552330398
 10
4.9958615146
 20
3.348792068
 10
4.9934641721
 20
3.3408907869
 10
4.9905753749
 20
3.3315697481
 10
4.9872512396
 20
3.3210302027
 10
4.9834852975
 20
3.3092607291
 10
4.9792593907
 20
3.296210836
 10
4.9746234328
 20
3.2820361432
 10
4.9695955506
 20
3.2667885387
 10
4.9641575442
 20
3.250407006
 10
4.9588748406
 20
3.234576037
  0
LINE
  5
255
100
AcDbEntity
  8
ALL_ASSEMBLY_MEMBERS
100
AcDbLine
 62
7
  6
CONTINUOUS
 10
4.8141451916
 20
2.778969651
 11
4.811311734
 21
2.7687762294
  0
LINE
  5
256
100
AcDbEntity
  8
ALL_ASSEMBLY_MEMBERS
100
AcDbLine
 62
7
  6
CONTINUOUS
 10
4.8179798894
 20
2.7926308836
 11
4.8141451916
 21
2.778969651
  0
LINE
  5
257
100
AcDbEntity
  8
ALL_ASSEMBLY_MEMBERS
100
AcDbLine
 62
7
  6
CONTINUOUS
 10
4.8218350798
 20
2.8062167963
 11
4.8179798894
 21
2.7926308836
  0
LINE
  5
258
100
AcDbEntity
  8
ALL_ASSEMBLY_MEMBERS
100
AcDbLine
 62
7
  6
CONTINUOUS
 10
4.8265723545
 20
2.8227185787
 11
4.8218350798
 21
2.8062167963
  0
LWPOLYLINE
  5
259
100
AcDbEntity
  8
ALL_ASSEMBLY_MEMBERS
100
AcDbPolyline
 62
7
  6
CONTINUOUS
 90
10
 70
0
 10
4.898215058
 20
3.0532065883
 10
4.8916529945
 20
3.0331718462
 10
4.8838992385
 20
3.0093027105
 10
4.8759577634
 20
2.9845982193
 10
4.8678540387
 20
2.9590806235
 10
4.859607898
 20
2.9327533241
 10
4.8512334781
 20
2.9055991075
 10
4.8427523788
 20
2.8776217434
 10
4.8341937745
 20
2.8488478054
 10
4.8265721925
 20
2.8227180179
  0
LWPOLYLINE
  5
25A
100
AcDbEntity
  8
ALL_ASSEMBLY_MEMBERS
100
AcDbPolyline
 62
7
  6
CONTINUOUS
 90
4
 70
0
 10
4.9216336374
 20
3.1236490397
 10
4.9138626332
 20
3.1004273586
 10
4.9057397291
 20
3.0760060445
 10
4.8982155556
 20
3.0532081023
  0
LINE
  5
25B
100
AcDbEntity
  8
ALL_ASSEMBLY_MEMBERS
100
AcDbLine
 62
7
  6
CONTINUOUS
 10
4.9588721053
 20
3.2345678584
 11
4.9485712455
 21
3.203823271
  0
LINE
  5
25C
100
AcDbEntity
  8
ALL_ASSEMBLY_MEMBERS
100
AcDbLine
 62
7
  6
CONTINUOUS
 10
4.9485712455
 20
3.203823271
 11
4.9216336374
 21
3.1236490397
  0
LWPOLYLINE
  5
25D
100
AcDbEntity
  8
ALL_ASSEMBLY_MEMBERS
100
AcDbPolyline
 62
7
  6
CONTINUOUS
 90
10
 70
0
 10
5.8465858946
 20
2.4953607015
 10
5.8408311446
 20
2.5232456544
 10
5.8339915526
 20
2.5549876507
 10
5.8268781517
 20
2.5866259834
 10
5.8195151255
 20
2.6181121177
 10
5.8119208582
 20
2.6494251254
 10
5.8041070992
 20
2.6805702277
 10
5.7960928096
 20
2.7115222623
 10
5.787905026
 20
2.7422271188
 10
5.7806404265
 20
2.7687765425
  0
LINE
  5
25E
100
AcDbEntity
  8
ALL_ASSEMBLY_MEMBERS
100
AcDbLine
 62
7
  6
CONTINUOUS
 10
5.5939279865
 20
3.3635200335
 11
5.5938316086
 21
3.3641779907
  0
LINE
  5
25F
100
AcDbEntity
  8
ALL_ASSEMBLY_MEMBERS
100
AcDbLine
 62
7
  6
CONTINUOUS
 10
5.5939319191
 20
3.3635204952
 11
5.5938536779
 21
3.3641806312
  0
LINE
  5
260
100
AcDbEntity
  8
ALL_ASSEMBLY_MEMBERS
100
AcDbLine
 62
7
  6
CONTINUOUS
 10
1.7784761236
 20
6.0828962778
 11
1.7675246878
 21
6.0828962778
  0
LINE
  5
261
100
AcDbEntity
  8
ALL_ASSEMBLY_MEMBERS
100
AcDbLine
 62
7
  6
CONTINUOUS
 10
8.8159761236
 20
6.0828962778
 11
8.8269275594
 21
6.0828962778
  0
LINE
  5
262
100
AcDbEntity
  8
ALL_ASSEMBLY_MEMBERS
100
AcDbLine
 62
7
  6
CONTINUOUS
 10
3.1344761236
 20
6.2133462778
 11
3.0834761236
 21
6.2133462778
  0
LINE
  5
263
100
AcDbEntity
  8
ALL_ASSEMBLY_MEMBERS
100
AcDbLine
 62
7
  6
CONTINUOUS
 10
7.4599761236
 20
6.2133462778
 11
7.5109761236
 21
6.2133462778
  0
LINE
  5
264
100
AcDbEntity
  8
ALL_ASSEMBLY_MEMBERS
100
AcDbLine
 62
7
  6
CONTINUOUS
 10
3.1344761236
 20
6.4439962778
 11
3.0834761236
 21
6.4439962778
  0
LINE
  5
265
100
AcDbEntity
  8
ALL_ASSEMBLY_MEMBERS
100
AcDbLine
 62
7
  6
CONTINUOUS
 10
7.4599761236
 20
6.4439962778
 11
7.5109761236
 21
6.4439962778
  0
LINE
  5
266
100
AcDbEntity
  8
ALL_ASSEMBLY_MEMBERS
100
AcDbLine
 62
7
  6
CONTINUOUS
 10
1.7784761236
 20
6.5744462778
 11
1.7675246878
 21
6.5744462778
  0
LINE
  5
267
100
AcDbEntity
  8
ALL_ASSEMBLY_MEMBERS
100
AcDbLine
 62
7
  6
CONTINUOUS
 10
8.8159761236
 20
6.5744462778
 11
8.8269275594
 21
6.5744462778
  0
LINE
  5
268
100
AcDbEntity
  8
ALL_ASSEMBLY_MEMBERS
100
AcDbLine
 62
7
  6
CONTINUOUS
 10
7.4599761236
 20
6.2133462778
 11
7.4599761236
 21
6.4439962778
  0
LINE
  5
269
100
AcDbEntity
  8
ALL_ASSEMBLY_MEMBERS
100
AcDbLine
 62
7
  6
CONTINUOUS
 10
7.5109761236
 20
6.4601699655
 11
7.5109761236
 21
6.19717259
  0
LINE
  5
26A
100
AcDbEntity
  8
ALL_ASSEMBLY_MEMBERS
100
AcDbLine
 62
7
  6
CONTINUOUS
 10
7.5344772362
 20
6.4798611364
 11
7.5344772362
 21
6.1774814192
  0
LINE
  5
26B
100
AcDbEntity
  8
ALL_ASSEMBLY_MEMBERS
100
AcDbLine
 62
7
  6
CONTINUOUS
 10
7.6682884294
 20
6.4920232653
 11
7.6682884294
 21
6.1653192902
  0
LINE
  5
26C
100
AcDbEntity
  8
ALL_ASSEMBLY_MEMBERS
100
AcDbLine
 62
7
  6
CONTINUOUS
 10
7.7084761236
 20
6.4681712778
 11
7.7084761236
 21
6.1891712778
  0
LINE
  5
26D
100
AcDbEntity
  8
ALL_ASSEMBLY_MEMBERS
100
AcDbLine
 62
7
  6
CONTINUOUS
 10
8.7959761236
 20
6.5544462778
 11
8.7959761236
 21
6.1028962778
  0
LINE
  5
26E
100
AcDbEntity
  8
ALL_ASSEMBLY_MEMBERS
100
AcDbLine
 62
7
  6
CONTINUOUS
 10
8.8159761236
 20
6.5744462778
 11
8.8159761236
 21
6.0828962778
  0
LINE
  5
26F
100
AcDbEntity
  8
ALL_ASSEMBLY_MEMBERS
100
AcDbLine
 62
7
  6
CONTINUOUS
 10
8.8269275594
 20
6.5744462778
 11
8.8269275594
 21
6.0828962778
  0
LINE
  5
270
100
AcDbEntity
  8
ALL_ASSEMBLY_MEMBERS
100
AcDbLine
 62
7
  6
CONTINUOUS
 10
8.8559532202
 20
6.5520298795
 11
8.8559532202
 21
6.1053126761
  0
LINE
  5
271
100
AcDbEntity
  8
ALL_ASSEMBLY_MEMBERS
100
AcDbLine
 62
7
  6
CONTINUOUS
 10
8.9047324689
 20
6.4768370989
 11
8.9047324689
 21
6.1805054567
  0
LINE
  5
272
100
AcDbEntity
  8
ALL_ASSEMBLY_MEMBERS
100
AcDbLine
 62
7
  6
CONTINUOUS
 10
8.9159761236
 20
6.4534234381
 11
8.9159761236
 21
6.2039191175
  0
ARC
  5
273
100
AcDbEntity
  8
ALL_ASSEMBLY_MEMBERS
100
AcDbCircle
 62
7
  6
CONTINUOUS
 10
0.7920287154
 20
-14.4271723244
 40
21.0
100
AcDbArc
 50
84.2774261872
 51
87.2529863377
  0
ARC
  5
274
100
AcDbEntity
  8
ALL_ASSEMBLY_MEMBERS
100
AcDbCircle
 62
7
  6
CONTINUOUS
 10
3.0153358247
 20
5.9264189906
 40
0.255
100
AcDbArc
 50
79.9181044226
 51
110.4686087921
  0
ARC
  5
275
100
AcDbEntity
  8
ALL_ASSEMBLY_MEMBERS
100
AcDbCircle
 62
7
  6
CONTINUOUS
 10
1.6006271382
 20
6.0692905679
 40
0.1425
100
AcDbArc
 50
14.6424776248
 51
51.3022866218
  0
ARC
  5
276
100
AcDbEntity
  8
ALL_ASSEMBLY_MEMBERS
100
AcDbCircle
 62
7
  6
CONTINUOUS
 10
2.9156729933
 20
6.1934252078
 40
0.03
100
AcDbArc
 50
188.1518829448
 51
290.4686090761
  0
ARC
  5
277
100
AcDbEntity
  8
ALL_ASSEMBLY_MEMBERS
100
AcDbCircle
 62
7
  6
CONTINUOUS
 10
1.7675246878
 20
6.1128962778
 40
0.03
100
AcDbArc
 50
194.6424776246
 51
270.0
  0
ARC
  5
278
100
AcDbEntity
  8
ALL_ASSEMBLY_MEMBERS
100
AcDbCircle
 62
7
  6
CONTINUOUS
 10
1.7084761236
 20
6.2039191175
 40
0.03
100
AcDbArc
 50
180.0
 51
231.3022866217
  0
ARC
  5
279
100
AcDbEntity
  8
ALL_ASSEMBLY_MEMBERS
100
AcDbCircle
 62
7
  6
CONTINUOUS
 10
1.7784761236
 20
6.1028962778
 40
0.02
100
AcDbArc
 50
270.0
 51
360.0
  0
ARC
  5
27A
100
AcDbEntity
  8
ALL_ASSEMBLY_MEMBERS
100
AcDbCircle
 62
7
  6
CONTINUOUS
 10
3.0634761236
 20
6.19717259
 40
0.02
100
AcDbArc
 50
259.9181044225
 51
360.0
  0
ARC
  5
27B
100
AcDbEntity
  8
ALL_ASSEMBLY_MEMBERS
100
AcDbCircle
 62
7
  6
CONTINUOUS
 10
5.2669795499
 20
3.3183433342
 40
0.27160209
100
AcDbArc
 50
170.3139260595
 51
170.9574406897
  0
ARC
  5
27C
100
AcDbEntity
  8
ALL_ASSEMBLY_MEMBERS
100
AcDbCircle
 62
7
  6
CONTINUOUS
 10
5.2598537026
 20
3.3194588554
 40
0.26438948
100
AcDbArc
 50
170.9534752762
 51
171.9409291608
  0
ARC
  5
27D
100
AcDbEntity
  8
ALL_ASSEMBLY_MEMBERS
100
AcDbCircle
 62
7
  6
CONTINUOUS
 10
5.2959761236
 20
3.3286712778
 40
0.6926642831
100
AcDbArc
 50
312.7569499621
 51
227.2430500379
  0
ARC
  5
27E
100
AcDbEntity
  8
ALL_ASSEMBLY_MEMBERS
100
AcDbCircle
 62
7
  6
CONTINUOUS
 10
5.2959761236
 20
3.3286712778
 40
0.6901608831
100
AcDbArc
 50
312.85399301
 51
227.146006694
  0
ARC
  5
27F
100
AcDbEntity
  8
ALL_ASSEMBLY_MEMBERS
100
AcDbCircle
 62
7
  6
CONTINUOUS
 10
5.2959761236
 20
3.3286712778
 40
0.6754366908
100
AcDbArc
 50
313.4814918825
 51
226.5185081175
  0
ARC
  5
280
100
AcDbEntity
  8
ALL_ASSEMBLY_MEMBERS
100
AcDbCircle
 62
7
  6
CONTINUOUS
 10
5.2959761236
 20
3.3286712778
 40
0.6476220443
100
AcDbArc
 50
314.747496464
 51
225.252503536
  0
ARC
  5
281
100
AcDbEntity
  8
ALL_ASSEMBLY_MEMBERS
100
AcDbCircle
 62
7
  6
CONTINUOUS
 10
5.2959761236
 20
3.3286712778
 40
0.6449573905
100
AcDbArc
 50
314.8760240121
 51
225.1238860268
  0
ARC
  5
282
100
AcDbEntity
  8
ALL_ASSEMBLY_MEMBERS
100
AcDbCircle
 62
7
  6
CONTINUOUS
 10
5.2959761236
 20
3.3286712778
 40
0.593
100
AcDbArc
 50
317.5719036897
 51
222.4280963103
  0
ARC
  5
283
100
AcDbEntity
  8
ALL_ASSEMBLY_MEMBERS
100
AcDbCircle
 62
7
  6
CONTINUOUS
 10
5.2959761236
 20
3.3286712778
 40
0.568648488
100
AcDbArc
 50
319.0067108604
 51
220.9932891396
  0
ARC
  5
284
100
AcDbEntity
  8
ALL_ASSEMBLY_MEMBERS
100
AcDbCircle
 62
7
  6
CONTINUOUS
 10
5.2959761236
 20
3.3286712778
 40
0.5541335472
100
AcDbArc
 50
319.9331639882
 51
220.0668360118
  0
ARC
  5
285
100
AcDbEntity
  8
ALL_ASSEMBLY_MEMBERS
100
AcDbCircle
 62
7
  6
CONTINUOUS
 10
5.2959761236
 20
3.3286712778
 40
0.3645065747
100
AcDbArc
 50
341.1802130951
 51
198.8203221651
  0
ARC
  5
286
100
AcDbEntity
  8
ALL_ASSEMBLY_MEMBERS
100
AcDbCircle
 62
7
  6
CONTINUOUS
 10
5.2959761236
 20
3.3286712778
 40
0.35
100
AcDbArc
 50
344.40396193
 51
195.5972070687
  0
ARC
  5
287
100
AcDbEntity
  8
ALL_ASSEMBLY_MEMBERS
100
AcDbCircle
 62
7
  6
CONTINUOUS
 10
5.2959761236
 20
3.3286712778
 40
0.3149999998
100
AcDbArc
 50
355.582368645
 51
184.4180253672
  0
ARC
  5
288
100
AcDbEntity
  8
ALL_ASSEMBLY_MEMBERS
100
AcDbCircle
 62
7
  6
CONTINUOUS
 10
5.2948202738
 20
3.3284032054
 40
0.3011660687
100
AcDbArc
 50
6.8226408528
 51
7.4799680787
  0
ARC
  5
289
100
AcDbEntity
  8
ALL_ASSEMBLY_MEMBERS
100
AcDbCircle
 62
7
  6
CONTINUOUS
 10
5.2971317446
 20
3.3284032337
 40
0.3011658382
100
AcDbArc
 50
172.5211931495
 51
173.1773593204
  0
ARC
  5
28A
100
AcDbEntity
  8
ALL_ASSEMBLY_MEMBERS
100
AcDbCircle
 62
7
  6
CONTINUOUS
 10
5.2954814011
 20
3.3284787237
 40
0.3005006446
100
AcDbArc
 50
4.6781807646
 51
6.6965712217
  0
ARC
  5
28B
100
AcDbEntity
  8
ALL_ASSEMBLY_MEMBERS
100
AcDbCircle
 62
7
  6
CONTINUOUS
 10
5.2964708461
 20
3.3284787237
 40
0.3005006446
100
AcDbArc
 50
173.3034287783
 51
175.3218192354
  0
ARC
  5
28C
100
AcDbEntity
  8
ALL_ASSEMBLY_MEMBERS
100
AcDbCircle
 62
7
  6
CONTINUOUS
 10
5.2959807212
 20
3.3316422993
 40
0.2970289785
100
AcDbArc
 50
88.1831902901
 51
91.8048647099
  0
ARC
  5
28D
100
AcDbEntity
  8
ALL_ASSEMBLY_MEMBERS
100
AcDbCircle
 62
7
  6
CONTINUOUS
 10
5.2959772569
 20
3.3510763049
 40
0.2775949729
100
AcDbArc
 50
88.057099866
 51
90.0002339138
  0
ARC
  5
28E
100
AcDbEntity
  8
ALL_ASSEMBLY_MEMBERS
100
AcDbCircle
 62
7
  6
CONTINUOUS
 10
5.2959728924
 20
3.3511996433
 40
0.2774716345
100
AcDbArc
 50
89.9993327772
 51
91.9305225476
  0
ARC
  5
28F
100
AcDbEntity
  8
ALL_ASSEMBLY_MEMBERS
100
AcDbCircle
 62
7
  6
CONTINUOUS
 10
1.6006271382
 20
6.5880519876
 40
0.1425
100
AcDbArc
 50
308.6977133782
 51
345.3575223752
  0
ARC
  5
290
100
AcDbEntity
  8
ALL_ASSEMBLY_MEMBERS
100
AcDbCircle
 62
7
  6
CONTINUOUS
 10
1.7675246878
 20
6.5444462778
 40
0.03
100
AcDbArc
 50
90.0
 51
165.3575223754
  0
ARC
  5
291
100
AcDbEntity
  8
ALL_ASSEMBLY_MEMBERS
100
AcDbCircle
 62
7
  6
CONTINUOUS
 10
1.7084761236
 20
6.4534234381
 40
0.03
100
AcDbArc
 50
128.6977133783
 51
180.0
  0
ARC
  5
292
100
AcDbEntity
  8
ALL_ASSEMBLY_MEMBERS
100
AcDbCircle
 62
7
  6
CONTINUOUS
 10
1.7784761236
 20
6.5544462778
 40
0.02
100
AcDbArc
 50
0.0
 51
90.0
  0
ARC
  5
293
100
AcDbEntity
  8
ALL_ASSEMBLY_MEMBERS
100
AcDbCircle
 62
7
  6
CONTINUOUS
 10
0.7920287154
 20
27.0845148799
 40
21.0
100
AcDbArc
 50
272.7470136623
 51
275.7225738128
  0
ARC
  5
294
100
AcDbEntity
  8
ALL_ASSEMBLY_MEMBERS
100
AcDbCircle
 62
7
  6
CONTINUOUS
 10
2.9156729933
 20
6.4639173477
 40
0.03
100
AcDbArc
 50
69.5313909201
 51
171.848117056
  0
ARC
  5
295
100
AcDbEntity
  8
ALL_ASSEMBLY_MEMBERS
100
AcDbCircle
 62
7
  6
CONTINUOUS
 10
3.0634761236
 20
6.4601699655
 40
0.02
100
AcDbArc
 50
0.0
 51
100.0818955775
  0
ARC
  5
296
100
AcDbEntity
  8
ALL_ASSEMBLY_MEMBERS
100
AcDbCircle
 62
7
  6
CONTINUOUS
 10
3.0153358247
 20
6.730923565
 40
0.255
100
AcDbArc
 50
249.5313912079
 51
280.0818955774
  0
ARC
  5
297
100
AcDbEntity
  8
ALL_ASSEMBLY_MEMBERS
100
AcDbCircle
 62
7
  6
CONTINUOUS
 10
3.3284761236
 20
6.3286712778
 40
0.5567175759
100
AcDbArc
 50
195.4887326018
 51
164.5112673982
  0
ARC
  5
298
100
AcDbEntity
  8
ALL_ASSEMBLY_MEMBERS
100
AcDbCircle
 62
7
  6
CONTINUOUS
 10
3.3284761236
 20
6.3286712778
 40
0.5516114179
100
AcDbArc
 50
195.5798277829
 51
164.4201746875
  0
ARC
  5
299
100
AcDbEntity
  8
ALL_ASSEMBLY_MEMBERS
100
AcDbCircle
 62
7
  6
CONTINUOUS
 10
3.3284761236
 20
6.3286712778
 40
0.4673615154
100
AcDbArc
 50
197.413001092
 51
162.5870065002
  0
ARC
  5
29A
100
AcDbEntity
  8
ALL_ASSEMBLY_MEMBERS
100
AcDbCircle
 62
7
  6
CONTINUOUS
 10
3.3284761236
 20
6.3286712778
 40
0.464
100
AcDbArc
 50
198.7715724769
 51
161.2284275218
  0
ARC
  5
29B
100
AcDbEntity
  8
ALL_ASSEMBLY_MEMBERS
100
AcDbCircle
 62
7
  6
CONTINUOUS
 10
3.3284761236
 20
6.3286712778
 40
0.457982941
100
AcDbArc
 50
200.5260547119
 51
159.4739452877
  0
ARC
  5
29C
100
AcDbEntity
  8
ALL_ASSEMBLY_MEMBERS
100
AcDbCircle
 62
7
  6
CONTINUOUS
 10
3.3284761236
 20
6.3286712778
 40
0.4080474864
100
AcDbArc
 50
202.40186406
 51
157.59813594
  0
ARC
  5
29D
100
AcDbEntity
  8
ALL_ASSEMBLY_MEMBERS
100
AcDbCircle
 62
7
  6
CONTINUOUS
 10
3.3284761236
 20
6.3286712778
 40
0.3777318852
100
AcDbArc
 50
203.3197894037
 51
156.6802105963
  0
ARC
  5
29E
100
AcDbEntity
  8
ALL_ASSEMBLY_MEMBERS
100
AcDbCircle
 62
7
  6
CONTINUOUS
 10
3.3284761236
 20
6.3286712778
 40
0.2590523894
100
AcDbArc
 50
206.4413202179
 51
153.5586797821
  0
ARC
  5
29F
100
AcDbEntity
  8
ALL_ASSEMBLY_MEMBERS
100
AcDbCircle
 62
7
  6
CONTINUOUS
 10
3.3284761236
 20
6.3286712778
 40
0.2378890431
100
AcDbArc
 50
209.0079076809
 51
150.9969051906
  0
ARC
  5
2A0
100
AcDbEntity
  8
ALL_ASSEMBLY_MEMBERS
100
AcDbCircle
 62
7
  6
CONTINUOUS
 10
3.3284761236
 20
6.3286712778
 40
0.2255
100
AcDbArc
 50
210.7294768424
 51
149.2705231576
  0
CIRCLE
  5
2A1
100
AcDbEntity
  8
ALL_ASSEMBLY_MEMBERS
100
AcDbCircle
 62
7
  6
CONTINUOUS
 10
3.3284761236
 20
6.3286712778
 40
0.1494309477
  0
CIRCLE
  5
2A2
100
AcDbEntity
  8
ALL_ASSEMBLY_MEMBERS
100
AcDbCircle
 62
7
  6
CONTINUOUS
 10
3.3284761236
 20
6.3286712778
 40
0.1461176229
  0
CIRCLE
  5
2A3
100
AcDbEntity
  8
ALL_ASSEMBLY_MEMBERS
100
AcDbCircle
 62
7
  6
CONTINUOUS
 10
3.3284761236
 20
6.3286712778
 40
0.14
  0
CIRCLE
  5
2A4
100
AcDbEntity
  8
ALL_ASSEMBLY_MEMBERS
100
AcDbCircle
 62
7
  6
CONTINUOUS
 10
3.3284761236
 20
6.3286712778
 40
0.1129032259
  0
ARC
  5
2A5
100
AcDbEntity
  8
ALL_ASSEMBLY_MEMBERS
100
AcDbCircle
 62
7
  6
CONTINUOUS
 10
9.8024235318
 20
-14.4271723244
 40
21.0
100
AcDbArc
 50
92.7470136623
 51
95.7225738128
  0
ARC
  5
2A6
100
AcDbEntity
  8
ALL_ASSEMBLY_MEMBERS
100
AcDbCircle
 62
7
  6
CONTINUOUS
 10
5.3248894309
 20
3.3183294362
 40
0.2716865077
100
AcDbArc
 50
9.0701479964
 51
9.6861433003
  0
ARC
  5
2A7
100
AcDbEntity
  8
ALL_ASSEMBLY_MEMBERS
100
AcDbCircle
 62
7
  6
CONTINUOUS
 10
5.3319409241
 20
3.3194357329
 40
0.264548786
100
AcDbArc
 50
8.0605516347
 51
9.0742974463
  0
ARC
  5
2A8
100
AcDbEntity
  8
ALL_ASSEMBLY_MEMBERS
100
AcDbCircle
 62
7
  6
CONTINUOUS
 10
7.5791164225
 20
5.9264189906
 40
0.255
100
AcDbArc
 50
69.5313912079
 51
100.0818955774
  0
ARC
  5
2A9
100
AcDbEntity
  8
ALL_ASSEMBLY_MEMBERS
100
AcDbCircle
 62
7
  6
CONTINUOUS
 10
8.993825109
 20
6.0692905679
 40
0.1425
100
AcDbArc
 50
128.6977133782
 51
165.3575223752
  0
ARC
  5
2AA
100
AcDbEntity
  8
ALL_ASSEMBLY_MEMBERS
100
AcDbCircle
 62
7
  6
CONTINUOUS
 10
7.6787792539
 20
6.1934252078
 40
0.03
100
AcDbArc
 50
249.5313909201
 51
351.848117056
  0
ARC
  5
2AB
100
AcDbEntity
  8
ALL_ASSEMBLY_MEMBERS
100
AcDbCircle
 62
7
  6
CONTINUOUS
 10
8.8269275594
 20
6.1128962778
 40
0.03
100
AcDbArc
 50
270.0
 51
345.3575223754
  0
ARC
  5
2AC
100
AcDbEntity
  8
ALL_ASSEMBLY_MEMBERS
100
AcDbCircle
 62
7
  6
CONTINUOUS
 10
8.8859761236
 20
6.2039191175
 40
0.03
100
AcDbArc
 50
308.6977133783
 51
360.0
  0
ARC
  5
2AD
100
AcDbEntity
  8
ALL_ASSEMBLY_MEMBERS
100
AcDbCircle
 62
7
  6
CONTINUOUS
 10
7.5309761236
 20
6.19717259
 40
0.02
100
AcDbArc
 50
180.0
 51
280.0818955775
  0
ARC
  5
2AE
100
AcDbEntity
  8
ALL_ASSEMBLY_MEMBERS
100
AcDbCircle
 62
7
  6
CONTINUOUS
 10
8.8159761236
 20
6.1028962778
 40
0.02
100
AcDbArc
 50
180.0
 51
270.0
  0
ARC
  5
2AF
100
AcDbEntity
  8
ALL_ASSEMBLY_MEMBERS
100
AcDbCircle
 62
7
  6
CONTINUOUS
 10
7.2659761236
 20
6.3286712778
 40
0.5567175759
100
AcDbArc
 50
15.4887326018
 51
344.5112673982
  0
ARC
  5
2B0
100
AcDbEntity
  8
ALL_ASSEMBLY_MEMBERS
100
AcDbCircle
 62
7
  6
CONTINUOUS
 10
7.2659761236
 20
6.3286712778
 40
0.5516114179
100
AcDbArc
 50
15.5798277829
 51
344.4201746875
  0
ARC
  5
2B1
100
AcDbEntity
  8
ALL_ASSEMBLY_MEMBERS
100
AcDbCircle
 62
7
  6
CONTINUOUS
 10
7.2659761236
 20
6.3286712778
 40
0.4673615154
100
AcDbArc
 50
17.413001092
 51
342.5870065002
  0
ARC
  5
2B2
100
AcDbEntity
  8
ALL_ASSEMBLY_MEMBERS
100
AcDbCircle
 62
7
  6
CONTINUOUS
 10
7.2659761236
 20
6.3286712778
 40
0.464
100
AcDbArc
 50
18.7715724769
 51
341.2284275218
  0
ARC
  5
2B3
100
AcDbEntity
  8
ALL_ASSEMBLY_MEMBERS
100
AcDbCircle
 62
7
  6
CONTINUOUS
 10
7.2659761236
 20
6.3286712778
 40
0.457982941
100
AcDbArc
 50
20.5260547119
 51
339.4739452877
  0
ARC
  5
2B4
100
AcDbEntity
  8
ALL_ASSEMBLY_MEMBERS
100
AcDbCircle
 62
7
  6
CONTINUOUS
 10
7.2659761236
 20
6.3286712778
 40
0.4080474864
100
AcDbArc
 50
22.40186406
 51
337.59813594
  0
ARC
  5
2B5
100
AcDbEntity
  8
ALL_ASSEMBLY_MEMBERS
100
AcDbCircle
 62
7
  6
CONTINUOUS
 10
7.2659761236
 20
6.3286712778
 40
0.3777318852
100
AcDbArc
 50
23.3197894037
 51
336.6802105963
  0
ARC
  5
2B6
100
AcDbEntity
  8
ALL_ASSEMBLY_MEMBERS
100
AcDbCircle
 62
7
  6
CONTINUOUS
 10
7.2659761236
 20
6.3286712778
 40
0.2590523894
100
AcDbArc
 50
26.4413202179
 51
333.5586797821
  0
ARC
  5
2B7
100
AcDbEntity
  8
ALL_ASSEMBLY_MEMBERS
100
AcDbCircle
 62
7
  6
CONTINUOUS
 10
7.2659761236
 20
6.3286712778
 40
0.2378890431
100
AcDbArc
 50
29.0079076809
 51
330.9969051906
  0
ARC
  5
2B8
100
AcDbEntity
  8
ALL_ASSEMBLY_MEMBERS
100
AcDbCircle
 62
7
  6
CONTINUOUS
 10
7.2659761236
 20
6.3286712778
 40
0.2255
100
AcDbArc
 50
30.7294768424
 51
329.2705231576
  0
CIRCLE
  5
2B9
100
AcDbEntity
  8
ALL_ASSEMBLY_MEMBERS
100
AcDbCircle
 62
7
  6
CONTINUOUS
 10
7.2659761236
 20
6.3286712778
 40
0.1494309477
  0
CIRCLE
  5
2BA
100
AcDbEntity
  8
ALL_ASSEMBLY_MEMBERS
100
AcDbCircle
 62
7
  6
CONTINUOUS
 10
7.2659761236
 20
6.3286712778
 40
0.1461176229
  0
CIRCLE
  5
2BB
100
AcDbEntity
  8
ALL_ASSEMBLY_MEMBERS
100
AcDbCircle
 62
7
  6
CONTINUOUS
 10
7.2659761236
 20
6.3286712778
 40
0.14
  0
CIRCLE
  5
2BC
100
AcDbEntity
  8
ALL_ASSEMBLY_MEMBERS
100
AcDbCircle
 62
7
  6
CONTINUOUS
 10
7.2659761236
 20
6.3286712778
 40
0.1129032259
  0
ARC
  5
2BD
100
AcDbEntity
  8
ALL_ASSEMBLY_MEMBERS
100
AcDbCircle
 62
7
  6
CONTINUOUS
 10
7.6787792539
 20
6.4639173477
 40
0.03
100
AcDbArc
 50
8.1518829448
 51
110.4686090761
  0
ARC
  5
2BE
100
AcDbEntity
  8
ALL_ASSEMBLY_MEMBERS
100
AcDbCircle
 62
7
  6
CONTINUOUS
 10
7.5309761236
 20
6.4601699655
 40
0.02
100
AcDbArc
 50
79.9181044225
 51
180.0
  0
ARC
  5
2BF
100
AcDbEntity
  8
ALL_ASSEMBLY_MEMBERS
100
AcDbCircle
 62
7
  6
CONTINUOUS
 10
7.5791164225
 20
6.730923565
 40
0.255
100
AcDbArc
 50
259.9181044226
 51
290.4686087921
  0
ARC
  5
2C0
100
AcDbEntity
  8
ALL_ASSEMBLY_MEMBERS
100
AcDbCircle
 62
7
  6
CONTINUOUS
 10
8.993825109
 20
6.5880519876
 40
0.1425
100
AcDbArc
 50
194.6424776248
 51
231.3022866218
  0
ARC
  5
2C1
100
AcDbEntity
  8
ALL_ASSEMBLY_MEMBERS
100
AcDbCircle
 62
7
  6
CONTINUOUS
 10
8.8269275594
 20
6.5444462778
 40
0.03
100
AcDbArc
 50
14.6424776246
 51
90.0
  0
ARC
  5
2C2
100
AcDbEntity
  8
ALL_ASSEMBLY_MEMBERS
100
AcDbCircle
 62
7
  6
CONTINUOUS
 10
8.8859761236
 20
6.4534234381
 40
0.03
100
AcDbArc
 50
0.0
 51
51.3022866217
  0
ARC
  5
2C3
100
AcDbEntity
  8
ALL_ASSEMBLY_MEMBERS
100
AcDbCircle
 62
7
  6
CONTINUOUS
 10
8.8159761236
 20
6.5544462778
 40
0.02
100
AcDbArc
 50
90.0
 51
180.0
  0
ARC
  5
2C4
100
AcDbEntity
  8
ALL_ASSEMBLY_MEMBERS
100
AcDbCircle
 62
7
  6
CONTINUOUS
 10
9.8024235318
 20
27.0845148799
 40
21.0
100
AcDbArc
 50
264.2774261872
 51
267.2529863377
  0
SPLINE
  5
2C5
100
AcDbEntity
  8
ALL_ASSEMBLY_MEMBERS
100
AcDbSpline
 62
7
  6
CONTINUOUS
 70
0
 71
3
 72
24
 73
20
 74
0
 42
0.0000001
 43
0.0000001
 44
0.0000000001
 40
0.0
 40
0.0
 40
0.0
 40
0.0
 40
0.0625034867
 40
0.1250029487
 40
0.1874950607
 40
0.2499886996
 40
0.3124907759
 40
0.3749953743
 40
0.4374942631
 40
0.4687489068
 40
0.5000037834
 40
0.5625036076
 40
0.6250083999
 40
0.6875095991
 40
0.7500023535
 40
0.8124951706
 40
0.874995461
 40
0.9374989565
 40
1.0
 40
1.0
 40
1.0
 40
1.0
 10
5.5934235505
 20
3.3676088694
 30
0.0
 10
5.5922772896
 20
3.3763392229
 30
0.0
 10
5.5892176875
 20
3.3937084103
 30
0.0
 10
5.5823718708
 20
3.4192527578
 30
0.0
 10
5.5733071593
 20
3.4440982802
 30
0.0
 10
5.5620659897
 20
3.4680375752
 30
0.0
 10
5.5487651143
 20
3.4908980966
 30
0.0
 10
5.5335188493
 20
3.5125094262
 30
0.0
 10
5.5192830197
 20
3.5293404632
 30
0.0
 10
5.507038878
 20
3.5420053006
 30
0.0
 10
5.4942422539
 20
3.5541118088
 30
0.0
 10
5.4772600537
 20
3.5681671317
 30
0.0
 10
5.455487866
 20
3.5831828333
 30
0.0
 10
5.4324873419
 20
3.5962397586
 30
0.0
 10
5.4084279383
 20
3.6072217095
 30
0.0
 10
5.3834867239
 20
3.616018021
 30
0.0
 10
5.3578687609
 20
3.6225920361
 30
0.0
 10
5.3317754568
 20
3.6269034428
 30
0.0
 10
5.314189162
 20
3.6282429279
 30
0.0
 10
5.3053886469
 20
3.6285219591
 30
0.0
  0
SPLINE
  5
2C6
100
AcDbEntity
  8
ALL_ASSEMBLY_MEMBERS
100
AcDbSpline
 62
7
  6
CONTINUOUS
 70
0
 71
3
 72
35
 73
31
 74
0
 42
0.0000001
 43
0.0000001
 44
0.0000000001
 40
0.0
 40
0.0
 40
0.0
 40
0.0
 40
0.0024559575
 40
0.0050717253
 40
0.0079337053
 40
0.0110510307
 40
0.01441493
 40
0.0180197327
 40
0.0218515146
 40
0.0258910247
 40
0.0345433432
 40
0.0439040696
 40
0.0538916578
 40
0.064415126
 40
0.0754002686
 40
0.0868121057
 40
0.1107868715
 40
0.1360998155
 40
0.1625723444
 40
0.2184647045
 40
0.2777592018
 40
0.3399134312
 40
0.4046253158
 40
0.471668752
 40
0.5409095034
 40
0.6122451853
 40
0.685617902
 40
0.7610037397
 40
0.8384700857
 40
1.0
 40
1.0
 40
1.0
 40
1.0
 10
4.8202985371
 20
2.4946799403
 30
0.0
 10
4.8203765056
 20
2.4950656894
 30
0.0
 10
4.8206699831
 20
2.4958384992
 30
0.0
 10
4.8214164414
 20
2.4968786552
 30
0.0
 10
4.8224072833
 20
2.4978420699
 30
0.0
 10
4.8235961687
 20
2.4987557046
 30
0.0
 10
4.8249576818
 20
2.4996294175
 30
0.0
 10
4.8264747768
 20
2.5004644306
 30
0.0
 10
4.8281306524
 20
2.5012658312
 30
0.0
 10
4.8305597207
 20
2.5023210134
 30
0.0
 10
4.8338712884
 20
2.5035609185
 30
0.0
 10
4.8381474151
 20
2.5049239869
 30
0.0
 10
4.842759826
 20
2.5062072257
 30
0.0
 10
4.8476581811
 20
2.5074251666
 30
0.0
 10
4.8528037255
 20
2.5085893954
 30
0.0
 10
4.8600806365
 20
2.5100952537
 30
0.0
 10
4.86965077
 20
2.5118406933
 30
0.0
 10
4.8816409532
 20
2.5137469872
 30
0.0
 10
4.8987283575
 20
2.5161484216
 30
0.0
 10
4.9212728266
 20
2.5188224625
 30
0.0
 10
4.9495576635
 20
2.5215805339
 30
0.0
 10
4.9792899324
 20
2.5240168129
 30
0.0
 10
5.0102897746
 20
2.5261528979
 30
0.0
 10
5.0424443772
 20
2.5280197138
 30
0.0
 10
5.0756755239
 20
2.529628624
 30
0.0
 10
5.1099325574
 20
2.5309937669
 30
0.0
 10
5.1451834322
 20
2.5321204237
 30
0.0
 10
5.1814236801
 20
2.5330146397
 30
0.0
 10
5.2317938219
 20
2.5338942382
 30
0.0
 10
5.2700920953
 20
2.5341493126
 30
0.0
 10
5.2959761236
 20
2.5341493126
 30
0.0
  0
SPLINE
  5
2C7
100
AcDbEntity
  8
ALL_ASSEMBLY_MEMBERS
100
AcDbSpline
 62
7
  6
CONTINUOUS
 70
0
 71
3
 72
37
 73
33
 74
0
 42
0.0000001
 43
0.0000001
 44
0.0000000001
 40
0.0
 40
0.0
 40
0.0
 40
0.0
 40
0.1708191994
 40
0.3295352616
 40
0.4047999199
 40
0.4773938463
 40
0.5472756563
 40
0.6143551375
 40
0.6785043717
 40
0.7394887787
 40
0.768706265
 40
0.7969871599
 40
0.8242514212
 40
0.8504212302
 40
0.8754073871
 40
0.8990685971
 40
0.9103532203
 40
0.9212333081
 40
0.9316740488
 40
0.9416428924
 40
0.9511053776
 40
0.9600123671
 40
0.9683184998
 40
0.9759916006
 40
0.9795831244
 40
0.9829928577
 40
0.9862079702
 40
0.9892268044
 40
0.9920639039
 40
0.9947563363
 40
0.9973697181
 40
1.0
 40
1.0
 40
1.0
 40
1.0
 10
5.2959761236
 20
2.4346854638
 30
0.0
 10
5.3279044369
 20
2.4346854638
 30
0.0
 10
5.3895006199
 20
2.4352374058
 30
0.0
 10
5.4651376718
 20
2.4373782596
 30
0.0
 10
5.5223877979
 20
2.4398535758
 30
0.0
 10
5.5630282403
 20
2.442042311
 30
0.0
 10
5.6021141206
 20
2.4446010178
 30
0.0
 10
5.6395900061
 20
2.4475452491
 30
0.0
 10
5.6753628313
 20
2.4508868123
 30
0.0
 10
5.7040380424
 20
2.4540786076
 30
0.0
 10
5.7260054921
 20
2.4568883829
 30
0.0
 10
5.741694565
 20
2.4590967263
 30
0.0
 10
5.7567866581
 20
2.4614484425
 30
0.0
 10
5.7712293491
 20
2.463955138
 30
0.0
 10
5.7849575194
 20
2.4666250178
 30
0.0
 10
5.7958971904
 20
2.4690436203
 30
0.0
 10
5.8042128378
 20
2.471098883
 30
0.0
 10
5.8101002157
 20
2.4726755193
 30
0.0
 10
5.815713968
 20
2.4743178296
 30
0.0
 10
5.8210288037
 20
2.4760315328
 30
0.0
 10
5.8260156114
 20
2.4778203461
 30
0.0
 10
5.8306372568
 20
2.4796962565
 30
0.0
 10
5.8348518986
 20
2.4816702863
 30
0.0
 10
5.8380564006
 20
2.483442984
 30
0.0
 10
5.8403631558
 20
2.4849288189
 30
0.0
 10
5.8419077318
 20
2.4860539506
 30
0.0
 10
5.8432835716
 20
2.4872217446
 30
0.0
 10
5.8444678814
 20
2.4884396198
 30
0.0
 10
5.8454371107
 20
2.489716057
 30
0.0
 10
5.8461655442
 20
2.4910607792
 30
0.0
 10
5.8466236904
 20
2.4924812943
 30
0.0
 10
5.8467261236
 20
2.4934646946
 30
0.0
 10
5.8467261236
 20
2.4939563282
 30
0.0
  0
SPLINE
  5
2C8
100
AcDbEntity
  8
ALL_ASSEMBLY_MEMBERS
100
AcDbSpline
 62
7
  6
CONTINUOUS
 70
0
 71
3
 72
37
 73
33
 74
0
 42
0.0000001
 43
0.0000001
 44
0.0000000001
 40
0.0
 40
0.0
 40
0.0
 40
0.0
 40
0.0026302819
 40
0.0052436637
 40
0.0079360961
 40
0.0107731956
 40
0.0137920298
 40
0.0170071423
 40
0.0204168756
 40
0.0240083994
 40
0.0316815002
 40
0.0399876329
 40
0.0488946224
 40
0.0583571076
 40
0.0683259512
 40
0.0787666919
 40
0.0896467797
 40
0.1009314029
 40
0.1245926129
 40
0.1495787698
 40
0.1757485788
 40
0.2030128401
 40
0.231293735
 40
0.2605112213
 40
0.3214956283
 40
0.3856448625
 40
0.4527243437
 40
0.5226061537
 40
0.5952000801
 40
0.6704647384
 40
0.8291808006
 40
1.0
 40
1.0
 40
1.0
 40
1.0
 10
4.7452261236
 20
2.4939563282
 30
0.0
 10
4.7452261236
 20
2.4934646946
 30
0.0
 10
4.7453285568
 20
2.4924812943
 30
0.0
 10
4.745786703
 20
2.4910607792
 30
0.0
 10
4.7465151365
 20
2.489716057
 30
0.0
 10
4.7474843658
 20
2.4884396198
 30
0.0
 10
4.7486686756
 20
2.4872217446
 30
0.0
 10
4.7500445154
 20
2.4860539506
 30
0.0
 10
4.7515890914
 20
2.4849288189
 30
0.0
 10
4.7538958466
 20
2.483442984
 30
0.0
 10
4.7571003486
 20
2.4816702863
 30
0.0
 10
4.7613149904
 20
2.4796962565
 30
0.0
 10
4.7659366358
 20
2.4778203461
 30
0.0
 10
4.7709234435
 20
2.4760315328
 30
0.0
 10
4.7762382792
 20
2.4743178296
 30
0.0
 10
4.7818520315
 20
2.4726755193
 30
0.0
 10
4.7877394094
 20
2.471098883
 30
0.0
 10
4.7960550568
 20
2.4690436203
 30
0.0
 10
4.8069947278
 20
2.4666250178
 30
0.0
 10
4.8207228981
 20
2.463955138
 30
0.0
 10
4.8351655891
 20
2.4614484425
 30
0.0
 10
4.8502576822
 20
2.4590967263
 30
0.0
 10
4.8659467551
 20
2.4568883829
 30
0.0
 10
4.8879142048
 20
2.4540786076
 30
0.0
 10
4.9165894159
 20
2.4508868123
 30
0.0
 10
4.9523622411
 20
2.4475452491
 30
0.0
 10
4.9898381266
 20
2.4446010178
 30
0.0
 10
5.0289240069
 20
2.442042311
 30
0.0
 10
5.0695644493
 20
2.4398535758
 30
0.0
 10
5.1268145754
 20
2.4373782596
 30
0.0
 10
5.2024516273
 20
2.4352374058
 30
0.0
 10
5.2640478103
 20
2.4346854638
 30
0.0
 10
5.2959761236
 20
2.4346854638
 30
0.0
  0
SPLINE
  5
2C9
100
AcDbEntity
  8
ALL_ASSEMBLY_MEMBERS
100
AcDbSpline
 62
7
  6
CONTINUOUS
 70
0
 71
3
 72
24
 73
20
 74
0
 42
0.0000001
 43
0.0000001
 44
0.0000000001
 40
0.0
 40
0.0
 40
0.0
 40
0.0
 40
0.0625010364
 40
0.1250045308
 40
0.1875048333
 40
0.2499976612
 40
0.3124904043
 40
0.3749915919
 40
0.437496385
 40
0.4999962173
 40
0.5312510985
 40
0.562505743
 40
0.625004625
 40
0.6875092214
 40
0.7500113006
 40
0.8125049417
 40
0.8749970523
 40
0.9374965138
 40
1.0
 40
1.0
 40
1.0
 40
1.0
 10
5.2866256087
 20
3.6285239187
 30
0.0
 10
5.277823619
 20
3.6282466762
 30
0.0
 10
5.2602342152
 20
3.6269104866
 30
0.0
 10
5.2341359026
 20
3.6226031914
 30
0.0
 10
5.2085126812
 20
3.6160324753
 30
0.0
 10
5.1835660487
 20
3.6072386846
 30
0.0
 10
5.1595011742
 20
3.5962584349
 30
0.0
 10
5.1364952673
 20
3.5832023434
 30
0.0
 10
5.1147178565
 20
3.5681866936
 30
0.0
 10
5.097731505
 20
3.5541307996
 30
0.0
 10
5.0849317214
 20
3.5420234971
 30
0.0
 10
5.0726845478
 20
3.5293576418
 30
0.0
 10
5.0584452108
 20
3.5125249079
 30
0.0
 10
5.0431952452
 20
3.4909109631
 30
0.0
 10
5.0298912319
 20
3.4680473253
 30
0.0
 10
5.0186475382
 20
3.4441044961
 30
0.0
 10
5.0095809836
 20
3.4192550988
 30
0.0
 10
5.0027340386
 20
3.3937066328
 30
0.0
 10
4.9996741705
 20
3.3763345989
 30
0.0
 10
4.9985279019
 20
3.3676028159
 30
0.0
  0
SPLINE
  5
2CA
100
AcDbEntity
  8
ALL_ASSEMBLY_MEMBERS
100
AcDbSpline
 62
7
  6
CONTINUOUS
 70
0
 71
3
 72
35
 73
31
 74
0
 42
0.0000001
 43
0.0000001
 44
0.0000000001
 40
0.0
 40
0.0
 40
0.0
 40
0.0
 40
0.1615299144
 40
0.2389962603
 40
0.3143820981
 40
0.3877548148
 40
0.4590904967
 40
0.5283312481
 40
0.5953746844
 40
0.660086569
 40
0.7222407983
 40
0.7815352957
 40
0.8374276558
 40
0.8639001847
 40
0.8892131286
 40
0.9131878945
 40
0.9245997316
 40
0.9355848741
 40
0.9461083423
 40
0.9560959305
 40
0.9654566569
 40
0.9741089754
 40
0.9781484855
 40
0.9819802673
 40
0.98558507
 40
0.9889489693
 40
0.9920662948
 40
0.9949282747
 40
0.9975440425
 40
1.0
 40
1.0
 40
1.0
 40
1.0
 10
5.2959761236
 20
2.5341493126
 30
0.0
 10
5.3218601519
 20
2.5341493126
 30
0.0
 10
5.3601584253
 20
2.5338942382
 30
0.0
 10
5.4105285671
 20
2.5330146397
 30
0.0
 10
5.446768815
 20
2.5321204237
 30
0.0
 10
5.4820196898
 20
2.5309937669
 30
0.0
 10
5.5162767234
 20
2.529628624
 30
0.0
 10
5.5495078701
 20
2.5280197138
 30
0.0
 10
5.5816624727
 20
2.5261528979
 30
0.0
 10
5.6126623149
 20
2.5240168128
 30
0.0
 10
5.6423945838
 20
2.5215805339
 30
0.0
 10
5.6706794207
 20
2.5188224625
 30
0.0
 10
5.6932238899
 20
2.5161484216
 30
0.0
 10
5.7103112941
 20
2.5137469872
 30
0.0
 10
5.7223014774
 20
2.5118406932
 30
0.0
 10
5.7318716108
 20
2.5100952537
 30
0.0
 10
5.7391485219
 20
2.5085893954
 30
0.0
 10
5.7442940662
 20
2.5074251665
 30
0.0
 10
5.7491924213
 20
2.5062072257
 30
0.0
 10
5.7538048322
 20
2.5049239869
 30
0.0
 10
5.7580809589
 20
2.5035609185
 30
0.0
 10
5.7613925266
 20
2.5023210133
 30
0.0
 10
5.7638215948
 20
2.5012658312
 30
0.0
 10
5.7654774704
 20
2.5004644306
 30
0.0
 10
5.7669945654
 20
2.4996294175
 30
0.0
 10
5.7683560785
 20
2.4987557045
 30
0.0
 10
5.7695449639
 20
2.4978420699
 30
0.0
 10
5.7705358059
 20
2.4968786552
 30
0.0
 10
5.7712822641
 20
2.4958384991
 30
0.0
 10
5.7715757416
 20
2.4950656893
 30
0.0
 10
5.7716537102
 20
2.4946799402
 30
0.0
  0
SPLINE
  5
2CB
100
AcDbEntity
  8
ALL_ASSEMBLY_MEMBERS
100
AcDbSpline
 62
7
  6
CONTINUOUS
 70
0
 71
3
 72
23
 73
19
 74
0
 42
0.0000001
 43
0.0000001
 44
0.0000000001
 40
0.0
 40
0.0
 40
0.0
 40
0.0
 40
0.060971372
 40
0.1212781215
 40
0.1812490485
 40
0.2411887862
 40
0.3013660832
 40
0.3619709406
 40
0.4231344061
 40
0.484937995
 40
0.5474278918
 40
0.6106082669
 40
0.6744380301
 40
0.7388320091
 40
0.8036802461
 40
0.8688783668
 40
0.9343268378
 40
1.0
 40
1.0
 40
1.0
 40
1.0
 10
5.3053879093
 20
3.6285077106
 30
0.0
 10
5.3138904343
 20
3.6282116394
 30
0.0
 10
5.3307863478
 20
3.6268186422
 30
0.0
 10
5.3557127853
 20
3.6223293034
 30
0.0
 10
5.3799613582
 20
3.6155260056
 30
0.0
 10
5.4034446162
 20
3.606480509
 30
0.0
 10
5.4260712083
 20
3.5952694323
 30
0.0
 10
5.4477591473
 20
3.582010556
 30
0.0
 10
5.468422719
 20
3.5668230758
 30
0.0
 10
5.4879700468
 20
3.5498224111
 30
0.0
 10
5.5063000802
 20
3.5311217661
 30
0.0
 10
5.5233267756
 20
3.5108590914
 30
0.0
 10
5.5389797372
 20
3.489190664
 30
0.0
 10
5.5531632132
 20
3.4662589159
 30
0.0
 10
5.5657436249
 20
3.4421938097
 30
0.0
 10
5.5765858453
 20
3.4171343277
 30
0.0
 10
5.5855056237
 20
3.39120509
 30
0.0
 10
5.5899255224
 20
3.3734144593
 30
0.0
 10
5.5916493282
 20
3.3644143079
 30
0.0
  0
SPLINE
  5
2CC
100
AcDbEntity
  8
ALL_ASSEMBLY_MEMBERS
100
AcDbSpline
 62
7
  6
CONTINUOUS
 70
0
 71
3
 72
32
 73
28
 74
0
 42
0.0000001
 43
0.0000001
 44
0.0000000001
 40
0.0
 40
0.0
 40
0.0
 40
0.0
 40
0.1644101807
 40
0.2422779653
 40
0.3175369924
 40
0.4608164292
 40
0.5288999673
 40
0.5945630413
 40
0.6577321855
 40
0.7182518101
 40
0.7474609023
 40
0.7759121519
 40
0.8302894359
 40
0.8561016753
 40
0.8808860595
 40
0.8928594272
 40
0.9045330129
 40
0.9158822964
 40
0.9268835677
 40
0.9375163234
 40
0.9477595739
 40
0.9575840086
 40
0.9669679175
 40
0.9759041421
 40
0.9843859158
 40
0.9923864065
 40
1.0
 40
1.0
 40
1.0
 40
1.0
 10
5.2959761236
 20
2.9284180521
 30
0.0
 10
5.3228849257
 20
2.9284180521
 30
0.0
 10
5.3625496501
 20
2.9274584911
 30
0.0
 10
5.4144188445
 20
2.9241329811
 30
0.0
 10
5.4627374981
 20
2.9197548278
 30
0.0
 10
5.509284389
 20
2.9137073439
 30
0.0
 10
5.5539672155
 20
2.9059844365
 30
0.0
 10
5.5855592429
 20
2.8995842072
 30
0.0
 10
5.6157387792
 20
2.8925177903
 30
0.0
 10
5.6399103456
 20
2.8860190076
 30
0.0
 10
5.6584467541
 20
2.8804896634
 30
0.0
 10
5.6759131269
 20
2.8749042567
 30
0.0
 10
5.6926750433
 20
2.8689450771
 30
0.0
 10
5.708613461
 20
2.8625246849
 30
0.0
 10
5.7179877102
 20
2.8583959365
 30
0.0
 10
5.7251453061
 20
2.8549887272
 30
0.0
 10
5.7302634127
 20
2.8524160898
 30
0.0
 10
5.7351755898
 20
2.8497915601
 30
0.0
 10
5.7398624171
 20
2.8471110711
 30
0.0
 10
5.7443035885
 20
2.8443710555
 30
0.0
 10
5.7484764419
 20
2.8415692536
 30
0.0
 10
5.7523489607
 20
2.838695349
 30
0.0
 10
5.7558869516
 20
2.8357405355
 30
0.0
 10
5.759052075
 20
2.8326979038
 30
0.0
 10
5.7618044262
 20
2.8295683192
 30
0.0
 10
5.7640163761
 20
2.82628636
 30
0.0
 10
5.7650340687
 20
2.8239157373
 30
0.0
 10
5.7653798927
 20
2.8227185787
 30
0.0
  0
SPLINE
  5
2CD
100
AcDbEntity
  8
ALL_ASSEMBLY_MEMBERS
100
AcDbSpline
 62
7
  6
CONTINUOUS
 70
0
 71
3
 72
27
 73
23
 74
0
 42
0.0000001
 43
0.0000001
 44
0.0000000001
 40
0.0
 40
0.0
 40
0.0
 40
0.0
 40
0.0219896961
 40
0.0333195717
 40
0.0448801191
 40
0.0687122417
 40
0.0934558022
 40
0.1190367003
 40
0.1453594232
 40
0.172351672
 40
0.1999513699
 40
0.2568050606
 40
0.2859950372
 40
0.3156387328
 40
0.3762027905
 40
0.4384083511
 40
0.5675656883
 40
0.7033470993
 40
0.7739989633
 40
0.8467930578
 40
0.9220254371
 40
1.0
 40
1.0
 40
1.0
 40
1.0
 10
4.8982155556
 20
3.0532081023
 30
0.0
 10
4.8992302723
 20
3.0562951519
 30
0.0
 10
4.9013849571
 20
3.0607697461
 30
0.0
 10
4.9048573186
 20
3.0664180283
 30
0.0
 10
4.9088198519
 20
3.0720783945
 30
0.0
 10
4.9144839243
 20
3.0789428076
 30
0.0
 10
4.9220891123
 20
3.0868435241
 30
0.0
 10
4.9304353496
 20
3.0945092387
 30
0.0
 10
4.9394004135
 20
3.1019688775
 30
0.0
 10
4.9489090738
 20
3.1092240197
 30
0.0
 10
4.962363824
 20
3.1187261063
 30
0.0
 10
4.9765684375
 20
3.1277097119
 30
0.0
 10
4.9914010869
 20
3.1362130492
 30
0.0
 10
5.0069434692
 20
3.1445687141
 30
0.0
 10
5.0271992711
 20
3.1544425589
 30
0.0
 10
5.0614576324
 20
3.1690473636
 30
0.0
 10
5.1072946373
 20
3.1846677551
 30
0.0
 10
5.1556273884
 20
3.1961210498
 30
0.0
 10
5.1963615564
 20
3.2027853192
 30
0.0
 10
5.2284773275
 20
3.2064844694
 30
0.0
 10
5.2618093793
 20
3.2087471011
 30
0.0
 10
5.2844533795
 20
3.2092423439
 30
0.0
 10
5.2959761236
 20
3.2092423439
 30
0.0
  0
SPLINE
  5
2CE
100
AcDbEntity
  8
ALL_ASSEMBLY_MEMBERS
100
AcDbSpline
 62
7
  6
CONTINUOUS
 70
0
 71
3
 72
37
 73
33
 74
0
 42
0.0000001
 43
0.0000001
 44
0.0000000001
 40
0.0
 40
0.0
 40
0.0
 40
0.0
 40
0.1700174183
 40
0.3280704284
 40
0.403049984
 40
0.4753930151
 40
0.5450605077
 40
0.6119656764
 40
0.6759875941
 40
0.7369011315
 40
0.7661091177
 40
0.7944046674
 40
0.8217090482
 40
0.8479455733
 40
0.8730325315
 40
0.8968390305
 40
0.9082158444
 40
0.9192070546
 40
0.9297780011
 40
0.9398957987
 40
0.9495292191
 40
0.9586355692
 40
0.9671666197
 40
0.9750845136
 40
0.9788067206
 40
0.9823644893
 40
0.9857412495
 40
0.9889251939
 40
0.9919157233
 40
0.9947284151
 40
0.9974011862
 40
1.0
 40
1.0
 40
1.0
 40
1.0
 10
5.2959761236
 20
2.5532271926
 30
0.0
 10
5.2642776018
 20
2.5532271926
 30
0.0
 10
5.2031094858
 20
2.5526831019
 30
0.0
 10
5.1279884601
 20
2.5505726449
 30
0.0
 10
5.0711048727
 20
2.5481322662
 30
0.0
 10
5.0307053841
 20
2.5459747279
 30
0.0
 10
4.9918353271
 20
2.5434531267
 30
0.0
 10
4.9545474134
 20
2.5405522856
 30
0.0
 10
4.918930434
 20
2.537261431
 30
0.0
 10
4.890361648
 20
2.5341205832
 30
0.0
 10
4.8684567761
 20
2.5313576417
 30
0.0
 10
4.8527941172
 20
2.5291874812
 30
0.0
 10
4.8377114891
 20
2.5268780216
 30
0.0
 10
4.8232590777
 20
2.5244173242
 30
0.0
 10
4.8094976405
 20
2.5217983372
 30
0.0
 10
4.7985113472
 20
2.5194305165
 30
0.0
 10
4.7901399784
 20
2.5174206239
 30
0.0
 10
4.7841946777
 20
2.5158801849
 30
0.0
 10
4.7785092719
 20
2.5142773426
 30
0.0
 10
4.7731078421
 20
2.512606149
 30
0.0
 10
4.7680167711
 20
2.5108629913
 30
0.0
 10
4.7632689249
 20
2.5090395895
 30
0.0
 10
4.7589041855
 20
2.5071239869
 30
0.0
 10
4.7555538388
 20
2.5054082084
 30
0.0
 10
4.7531118723
 20
2.5039695085
 30
0.0
 10
4.751445901
 20
2.5028852807
 30
0.0
 10
4.749926232
 20
2.5017651541
 30
0.0
 10
4.7485746368
 20
2.5006024346
 30
0.0
 10
4.747413466
 20
2.4993899117
 30
0.0
 10
4.7464658002
 20
2.4981189594
 30
0.0
 10
4.7457570649
 20
2.4967811024
 30
0.0
 10
4.7454622922
 20
2.4958356336
 30
0.0
 10
4.7453663517
 20
2.495360697
 30
0.0
  0
SPLINE
  5
2CF
100
AcDbEntity
  8
ALL_ASSEMBLY_MEMBERS
100
AcDbSpline
 62
7
  6
CONTINUOUS
 70
0
 71
3
 72
39
 73
35
 74
0
 42
0.0000001
 43
0.0000001
 44
0.0000000001
 40
0.0
 40
0.0
 40
0.0
 40
0.0
 40
0.1618340393
 40
0.2394456524
 40
0.3149738048
 40
0.3884856511
 40
0.4599565069
 40
0.529327842
 40
0.5964960725
 40
0.6613237923
 40
0.7235806029
 40
0.7536589885
 40
0.7829540998
 40
0.8113888296
 40
0.8388873058
 40
0.865358245
 40
0.890645321
 40
0.9027900921
 40
0.9145628099
 40
0.9259303359
 40
0.9368606831
 40
0.9473116218
 40
0.9571972178
 40
0.9664266606
 40
0.9749202315
 40
0.9788686586
 40
0.9825952492
 40
0.9860827746
 40
0.9893215252
 40
0.9923056924
 40
0.9950277978
 40
0.9975384578
 40
0.9987618386
 40
1.0
 40
1.0
 40
1.0
 40
1.0
 10
5.2959761236
 20
2.4539940566
 30
0.0
 10
5.270006999
 20
2.4539940566
 30
0.0
 10
5.2315829135
 20
2.4542493456
 30
0.0
 10
5.1810471745
 20
2.4551298436
 30
0.0
 10
5.144687609
 20
2.4560249614
 30
0.0
 10
5.1093204115
 20
2.4571529737
 30
0.0
 10
5.0749503259
 20
2.4585202061
 30
0.0
 10
5.0416098809
 20
2.460132195
 30
0.0
 10
5.0093506024
 20
2.4620032533
 30
0.0
 10
4.9782523489
 20
2.4641456006
 30
0.0
 10
4.95311611
 20
2.4662058491
 30
0.0
 10
4.9336837082
 20
2.4680311184
 30
0.0
 10
4.9196675356
 20
2.4694775819
 30
0.0
 10
4.9060788938
 20
2.4710269605
 30
0.0
 10
4.892960103
 20
2.4726885199
 30
0.0
 10
4.8803667315
 20
2.4744689841
 30
0.0
 10
4.8702407546
 20
2.4760917718
 30
0.0
 10
4.8624679461
 20
2.4774807619
 30
0.0
 10
4.8569083093
 20
2.4785542013
 30
0.0
 10
4.8515575014
 20
2.4796778229
 30
0.0
 10
4.8464357216
 20
2.4808557331
 30
0.0
 10
4.8415717987
 20
2.4820890372
 30
0.0
 10
4.8370090515
 20
2.4833928356
 30
0.0
 10
4.8328002893
 20
2.4847806943
 30
0.0
 10
4.8295584765
 20
2.4860466905
 30
0.0
 10
4.8271981337
 20
2.487125609
 30
0.0
 10
4.8256053505
 20
2.4879469029
 30
0.0
 10
4.8241624828
 20
2.4888048759
 30
0.0
 10
4.822887524
 20
2.4897038709
 30
0.0
 10
4.8217995394
 20
2.4906454889
 30
0.0
 10
4.8209386582
 20
2.4916532751
 30
0.0
 10
4.8204546514
 20
2.4925851439
 30
0.0
 10
4.8202588029
 20
2.493361812
 30
0.0
 10
4.8202261236
 20
2.4937576434
 30
0.0
 10
4.8202261236
 20
2.4939563282
 30
0.0
  0
SPLINE
  5
2D0
100
AcDbEntity
  8
ALL_ASSEMBLY_MEMBERS
100
AcDbSpline
 62
7
  6
CONTINUOUS
 70
0
 71
3
 72
39
 73
35
 74
0
 42
0.0000001
 43
0.0000001
 44
0.0000000001
 40
0.0
 40
0.0
 40
0.0
 40
0.0
 40
0.0012381614
 40
0.0024615422
 40
0.0049722022
 40
0.0076943076
 40
0.0106784748
 40
0.0139172254
 40
0.0174047508
 40
0.0211313414
 40
0.0250797685
 40
0.0335733394
 40
0.0428027822
 40
0.0526883782
 40
0.0631393169
 40
0.0740696641
 40
0.0854371901
 40
0.0972099079
 40
0.109354679
 40
0.134641755
 40
0.1611126942
 40
0.1886111704
 40
0.2170459002
 40
0.2463410115
 40
0.2764193971
 40
0.3386762077
 40
0.4035039275
 40
0.470672158
 40
0.5400434931
 40
0.6115143489
 40
0.6850261952
 40
0.7605543476
 40
0.8381659607
 40
1.0
 40
1.0
 40
1.0
 40
1.0
 10
5.7717261236
 20
2.4939563282
 30
0.0
 10
5.7717261236
 20
2.4937576434
 30
0.0
 10
5.7716934443
 20
2.493361812
 30
0.0
 10
5.7714975958
 20
2.4925851439
 30
0.0
 10
5.771013589
 20
2.4916532751
 30
0.0
 10
5.7701527078
 20
2.4906454889
 30
0.0
 10
5.7690647232
 20
2.4897038709
 30
0.0
 10
5.7677897644
 20
2.4888048759
 30
0.0
 10
5.7663468967
 20
2.4879469029
 30
0.0
 10
5.7647541135
 20
2.487125609
 30
0.0
 10
5.7623937706
 20
2.4860466905
 30
0.0
 10
5.7591519579
 20
2.4847806943
 30
0.0
 10
5.7549431957
 20
2.4833928356
 30
0.0
 10
5.7503804485
 20
2.4820890372
 30
0.0
 10
5.7455165256
 20
2.4808557331
 30
0.0
 10
5.7403947458
 20
2.4796778229
 30
0.0
 10
5.7350439378
 20
2.4785542013
 30
0.0
 10
5.7294843011
 20
2.4774807619
 30
0.0
 10
5.7217114926
 20
2.4760917718
 30
0.0
 10
5.7115855157
 20
2.4744689841
 30
0.0
 10
5.6989921442
 20
2.4726885199
 30
0.0
 10
5.6858733534
 20
2.4710269605
 30
0.0
 10
5.6722847116
 20
2.4694775819
 30
0.0
 10
5.658268539
 20
2.4680311184
 30
0.0
 10
5.6388361371
 20
2.4662058491
 30
0.0
 10
5.6136998983
 20
2.4641456006
 30
0.0
 10
5.5826016448
 20
2.4620032533
 30
0.0
 10
5.5503423663
 20
2.460132195
 30
0.0
 10
5.5170019213
 20
2.4585202061
 30
0.0
 10
5.4826318357
 20
2.4571529737
 30
0.0
 10
5.4472646382
 20
2.4560249614
 30
0.0
 10
5.4109050727
 20
2.4551298436
 30
0.0
 10
5.3603693337
 20
2.4542493456
 30
0.0
 10
5.3219452482
 20
2.4539940566
 30
0.0
 10
5.2959761236
 20
2.4539940566
 30
0.0
  0
SPLINE
  5
2D1
100
AcDbEntity
  8
ALL_ASSEMBLY_MEMBERS
100
AcDbSpline
 62
7
  6
CONTINUOUS
 70
0
 71
3
 72
31
 73
27
 74
0
 42
0.0000001
 43
0.0000001
 44
0.0000000001
 40
0.0
 40
0.0
 40
0.0
 40
0.0
 40
0.0143011853
 40
0.0286208765
 40
0.0429759989
 40
0.0573769627
 40
0.0718275642
 40
0.0863277922
 40
0.1154761297
 40
0.1448086678
 40
0.1743005734
 40
0.203935555
 40
0.2336985723
 40
0.2935754859
 40
0.3236785724
 40
0.3538742032
 40
0.4145555282
 40
0.4756841531
 40
0.5373528961
 40
0.5996950692
 40
0.6628685865
 40
0.7270671521
 40
0.7925371896
 40
0.8596168176
 40
0.9286557238
 40
1.0
 40
1.0
 40
1.0
 40
1.0
 10
4.9588748406
 20
3.234576037
 30
0.0
 10
4.9594908692
 20
3.2364176846
 30
0.0
 10
4.9608306112
 20
3.240068093
 30
0.0
 10
4.9630950068
 20
3.2454484408
 30
0.0
 10
4.9655982523
 20
3.2507368971
 30
0.0
 10
4.9683158988
 20
3.2559380312
 30
0.0
 10
4.9712256927
 20
3.2610565879
 30
0.0
 10
4.9753406617
 20
3.2677889282
 30
0.0
 10
4.9808848781
 20
3.2760097417
 30
0.0
 10
4.9880606069
 20
3.2855654301
 30
0.0
 10
4.9956996954
 20
3.2948400243
 30
0.0
 10
5.0037570109
 20
3.3038318413
 30
0.0
 10
5.0150271079
 20
3.3154681917
 30
0.0
 10
5.0269904369
 20
3.3265048828
 30
0.0
 10
5.0395432207
 20
3.3369354293
 30
0.0
 10
5.0525251436
 20
3.3470068091
 30
0.0
 10
5.0694624959
 20
3.3588326956
 30
0.0
 10
5.0908085308
 20
3.3717155143
 30
0.0
 10
5.1131621468
 20
3.3832594013
 30
0.0
 10
5.1364828602
 20
3.3934147989
 30
0.0
 10
5.1607438816
 20
3.4021323192
 30
0.0
 10
5.1859330222
 20
3.4093565044
 30
0.0
 10
5.2120573346
 20
3.4150375
 30
0.0
 10
5.2391413339
 20
3.4191334065
 30
0.0
 10
5.2672205331
 20
3.4216075321
 30
0.0
 10
5.2862883406
 20
3.4221420501
 30
0.0
 10
5.2959761236
 20
3.4221420501
 30
0.0
  0
SPLINE
  5
2D2
100
AcDbEntity
  8
ALL_ASSEMBLY_MEMBERS
100
AcDbSpline
 62
7
  6
CONTINUOUS
 70
0
 71
3
 72
23
 73
19
 74
0
 42
0.0000001
 43
0.0000001
 44
0.0000000001
 40
0.0
 40
0.0
 40
0.0
 40
0.0
 40
0.0614806586
 40
0.122570461
 40
0.1834738008
 40
0.2443788642
 40
0.3054552752
 40
0.3668227374
 40
0.4285572251
 40
0.4907011705
 40
0.5532760582
 40
0.6162797367
 40
0.6796753441
 40
0.7433950921
 40
0.8073548685
 40
0.8714799145
 40
0.9357027443
 40
1.0
 40
1.0
 40
1.0
 40
1.0
 10
5.3053886997
 20
3.6285116914
 30
0.0
 10
5.3140202083
 20
3.6282187868
 30
0.0
 10
5.3312120121
 20
3.6268285952
 30
0.0
 10
5.3566300329
 20
3.6223533334
 30
0.0
 10
5.3814466206
 20
3.6155596149
 30
0.0
 10
5.4055295311
 20
3.6065106132
 30
0.0
 10
5.4287426762
 20
3.5952713245
 30
0.0
 10
5.4509671101
 20
3.581961291
 30
0.0
 10
5.4720843943
 20
3.5667016705
 30
0.0
 10
5.4919726552
 20
3.5496115101
 30
0.0
 10
5.5105009335
 20
3.5308056526
 30
0.0
 10
5.5275590917
 20
3.5104290813
 30
0.0
 10
5.5430620129
 20
3.4886495961
 30
0.0
 10
5.5569090958
 20
3.4656247152
 30
0.0
 10
5.5689743413
 20
3.4415028398
 30
0.0
 10
5.5791329351
 20
3.4164402144
 30
0.0
 10
5.5872634216
 20
3.3905990479
 30
0.0
 10
5.5911832717
 20
3.3729443553
 30
0.0
 10
5.592702827
 20
3.3640409593
 30
0.0
  0
SPLINE
  5
2D3
100
AcDbEntity
  8
ALL_ASSEMBLY_MEMBERS
100
AcDbSpline
 62
7
  6
CONTINUOUS
 70
0
 71
3
 72
24
 73
20
 74
0
 42
0.0000001
 43
0.0000001
 44
0.0000000001
 40
0.0
 40
0.0
 40
0.0
 40
0.0
 40
0.0328642588
 40
0.0656375702
 40
0.130926976
 40
0.1958380954
 40
0.2602750153
 40
0.3241506766
 40
0.3873745511
 40
0.4499097566
 40
0.5117657655
 40
0.5730058594
 40
0.6337348935
 40
0.6941029853
 40
0.7543124651
 40
0.8146406959
 40
0.8754423882
 40
0.937097256
 40
1.0
 40
1.0
 40
1.0
 40
1.0
 10
5.0002148648
 20
3.3639051806
 30
0.0
 10
5.0013746815
 20
3.3682095565
 30
0.0
 10
5.003941043
 20
3.3767406725
 30
0.0
 10
5.0099030203
 20
3.3934753659
 30
0.0
 10
5.0186996041
 20
3.4137865214
 30
0.0
 10
5.031000747
 20
3.4371721442
 30
0.0
 10
5.0448343971
 20
3.459459988
 30
0.0
 10
5.0600561117
 20
3.4805405092
 30
0.0
 10
5.0765302173
 20
3.5003233097
 30
0.0
 10
5.0941854121
 20
3.5186838271
 30
0.0
 10
5.1129621221
 20
3.5354974634
 30
0.0
 10
5.1327906531
 20
3.5506591042
 30
0.0
 10
5.1536016394
 20
3.5640754097
 30
0.0
 10
5.1753353022
 20
3.5756487761
 30
0.0
 10
5.1979409515
 20
3.5852775486
 30
0.0
 10
5.2213717667
 20
3.5928722627
 30
0.0
 10
5.2455838738
 20
3.5983686283
 30
0.0
 10
5.2705376823
 20
3.6017034911
 30
0.0
 10
5.2874436378
 20
3.6024360317
 30
0.0
 10
5.2959761236
 20
3.6024360317
 30
0.0
  0
SPLINE
  5
2D4
100
AcDbEntity
  8
ALL_ASSEMBLY_MEMBERS
100
AcDbSpline
 62
7
  6
CONTINUOUS
 70
0
 71
3
 72
32
 73
28
 74
0
 42
0.0000001
 43
0.0000001
 44
0.0000000001
 40
0.0
 40
0.0
 40
0.0
 40
0.0
 40
0.16601135
 40
0.3205072584
 40
0.3939165357
 40
0.4648579675
 40
0.5333203592
 40
0.5992476621
 40
0.6625560976
 40
0.7230768041
 40
0.7522301277
 40
0.7805839365
 40
0.8346298846
 40
0.8602011259
 40
0.8725870495
 40
0.8846865794
 40
0.9079652822
 40
0.9298646115
 40
0.9402379932
 40
0.9501946692
 40
0.9597019604
 40
0.9687360821
 40
0.977288608
 40
0.9853434399
 40
0.9928706807
 40
0.9964698427
 40
1.0
 40
1.0
 40
1.0
 40
1.0
 10
5.2959761236
 20
2.8627389316
 30
0.0
 10
5.3237880889
 20
2.8627389316
 30
0.0
 10
5.3774903661
 20
2.8616902663
 30
0.0
 10
5.4433774688
 20
2.8575856782
 30
0.0
 10
5.4932184153
 20
2.8528066411
 30
0.0
 10
5.5286255507
 20
2.8486019382
 30
0.0
 10
5.5626832476
 20
2.8437430811
 30
0.0
 10
5.595348391
 20
2.8382478111
 30
0.0
 10
5.626550133
 20
2.8321398262
 30
0.0
 10
5.6515502427
 20
2.8264752782
 30
0.0
 10
5.6707196215
 20
2.8216216003
 30
0.0
 10
5.6887497627
 20
2.8167025653
 30
0.0
 10
5.706055881
 20
2.8114136896
 30
0.0
 10
5.7206070912
 20
2.8063247699
 30
0.0
 10
5.7284557692
 20
2.8033700587
 30
0.0
 10
5.7358946617
 20
2.8004205878
 30
0.0
 10
5.744715448
 20
2.7966359843
 30
0.0
 10
5.7530839799
 20
2.7925507363
 30
0.0
 10
5.7592769956
 20
2.7891275077
 30
0.0
 10
5.7635550052
 20
2.786538887
 30
0.0
 10
5.767517484
 20
2.7838716257
 30
0.0
 10
5.7711285499
 20
2.781116137
 30
0.0
 10
5.7743493427
 20
2.778266848
 30
0.0
 10
5.777130367
 20
2.7753222563
 30
0.0
 10
5.7789962675
 20
2.7726829016
 30
0.0
 10
5.7800853118
 20
2.7704770461
 30
0.0
 10
5.7804826505
 20
2.7693465174
 30
0.0
 10
5.7806404265
 20
2.7687765425
 30
0.0
  0
SPLINE
  5
2D5
100
AcDbEntity
  8
ALL_ASSEMBLY_MEMBERS
100
AcDbSpline
 62
7
  6
CONTINUOUS
 70
0
 71
3
 72
31
 73
27
 74
0
 42
0.0000001
 43
0.0000001
 44
0.0000000001
 40
0.0
 40
0.0
 40
0.0
 40
0.0
 40
0.0713442762
 40
0.1403831824
 40
0.2074628104
 40
0.2729328479
 40
0.3371314135
 40
0.4003049308
 40
0.4626471039
 40
0.5243158469
 40
0.5854444718
 40
0.6461257968
 40
0.6763214276
 40
0.7064245141
 40
0.7663014277
 40
0.796064445
 40
0.8256994266
 40
0.8551913322
 40
0.8845238703
 40
0.9136722078
 40
0.9281724358
 40
0.9426230373
 40
0.9570240011
 40
0.9713791235
 40
0.9856988147
 40
1.0
 40
1.0
 40
1.0
 40
1.0
 10
5.2959761236
 20
3.4221420501
 30
0.0
 10
5.3056639066
 20
3.4221420501
 30
0.0
 10
5.3247317141
 20
3.4216075321
 30
0.0
 10
5.3528109133
 20
3.4191334065
 30
0.0
 10
5.3798949126
 20
3.4150375
 30
0.0
 10
5.406019225
 20
3.4093565044
 30
0.0
 10
5.4312083656
 20
3.4021323192
 30
0.0
 10
5.455469387
 20
3.3934147989
 30
0.0
 10
5.4787901004
 20
3.3832594013
 30
0.0
 10
5.5011437164
 20
3.3717155143
 30
0.0
 10
5.5224897513
 20
3.3588326956
 30
0.0
 10
5.5394271036
 20
3.3470068091
 30
0.0
 10
5.5524090265
 20
3.3369354293
 30
0.0
 10
5.5649618102
 20
3.3265048828
 30
0.0
 10
5.5769251392
 20
3.3154681917
 30
0.0
 10
5.5881952363
 20
3.3038318413
 30
0.0
 10
5.5962525518
 20
3.2948400243
 30
0.0
 10
5.6038916403
 20
3.2855654301
 30
0.0
 10
5.6110673691
 20
3.2760097417
 30
0.0
 10
5.6166115855
 20
3.2677889282
 30
0.0
 10
5.6207265545
 20
3.2610565879
 30
0.0
 10
5.6236363484
 20
3.2559380312
 30
0.0
 10
5.6263539949
 20
3.2507368971
 30
0.0
 10
5.6288572404
 20
3.2454484408
 30
0.0
 10
5.631121636
 20
3.240068093
 30
0.0
 10
5.632461378
 20
3.2364176846
 30
0.0
 10
5.6330774066
 20
3.234576037
 30
0.0
  0
SPLINE
  5
2D6
100
AcDbEntity
  8
ALL_ASSEMBLY_MEMBERS
100
AcDbSpline
 62
7
  6
CONTINUOUS
 70
0
 71
3
 72
37
 73
33
 74
0
 42
0.0000001
 43
0.0000001
 44
0.0000000001
 40
0.0
 40
0.0
 40
0.0
 40
0.0
 40
0.0025988138
 40
0.0052715849
 40
0.0080842767
 40
0.0110748061
 40
0.0142587505
 40
0.0176355107
 40
0.0211932794
 40
0.0249154864
 40
0.0328333803
 40
0.0413644308
 40
0.0504707809
 40
0.0601042014
 40
0.0702219989
 40
0.0807929454
 40
0.0917841556
 40
0.1031609695
 40
0.1269674685
 40
0.1520544267
 40
0.1782909518
 40
0.2055953326
 40
0.2338908824
 40
0.2630988685
 40
0.3240124059
 40
0.3880343236
 40
0.4549394923
 40
0.5246069849
 40
0.596950016
 40
0.6719295716
 40
0.8299825817
 40
1.0
 40
1.0
 40
1.0
 40
1.0
 10
5.8465858955
 20
2.495360697
 30
0.0
 10
5.846489955
 20
2.4958356336
 30
0.0
 10
5.8461951823
 20
2.4967811024
 30
0.0
 10
5.845486447
 20
2.4981189594
 30
0.0
 10
5.8445387812
 20
2.4993899117
 30
0.0
 10
5.8433776103
 20
2.5006024346
 30
0.0
 10
5.8420260152
 20
2.5017651541
 30
0.0
 10
5.8405063462
 20
2.5028852807
 30
0.0
 10
5.8388403749
 20
2.5039695085
 30
0.0
 10
5.8363984083
 20
2.5054082084
 30
0.0
 10
5.8330480617
 20
2.5071239869
 30
0.0
 10
5.8286833222
 20
2.5090395895
 30
0.0
 10
5.8239354761
 20
2.5108629913
 30
0.0
 10
5.8188444051
 20
2.512606149
 30
0.0
 10
5.8134429753
 20
2.5142773426
 30
0.0
 10
5.8077575695
 20
2.5158801849
 30
0.0
 10
5.8018122688
 20
2.5174206239
 30
0.0
 10
5.7934409
 20
2.5194305165
 30
0.0
 10
5.7824546067
 20
2.5217983372
 30
0.0
 10
5.7686931695
 20
2.5244173242
 30
0.0
 10
5.754240758
 20
2.5268780216
 30
0.0
 10
5.73915813
 20
2.5291874812
 30
0.0
 10
5.723495471
 20
2.5313576417
 30
0.0
 10
5.7015905992
 20
2.5341205832
 30
0.0
 10
5.6730218132
 20
2.537261431
 30
0.0
 10
5.6374048338
 20
2.5405522856
 30
0.0
 10
5.6001169201
 20
2.5434531267
 30
0.0
 10
5.5612468631
 20
2.5459747279
 30
0.0
 10
5.5208473745
 20
2.5481322662
 30
0.0
 10
5.4639637871
 20
2.5505726449
 30
0.0
 10
5.3888427614
 20
2.5526831019
 30
0.0
 10
5.3276746454
 20
2.5532271926
 30
0.0
 10
5.2959761236
 20
2.5532271926
 30
0.0
  0
SPLINE
  5
2D7
100
AcDbEntity
  8
ALL_ASSEMBLY_MEMBERS
100
AcDbSpline
 62
7
  6
CONTINUOUS
 70
0
 71
3
 72
27
 73
23
 74
0
 42
0.0000001
 43
0.0000001
 44
0.0000000001
 40
0.0
 40
0.0
 40
0.0
 40
0.0
 40
0.0779745629
 40
0.1532069422
 40
0.2260010367
 40
0.2966529007
 40
0.4324343117
 40
0.5615916489
 40
0.6237972095
 40
0.6843612672
 40
0.7140049628
 40
0.7431949394
 40
0.8000486301
 40
0.827648328
 40
0.8546405768
 40
0.8809632997
 40
0.9065441978
 40
0.9312877583
 40
0.9551198809
 40
0.9666804283
 40
0.9780103039
 40
1.0
 40
1.0
 40
1.0
 40
1.0
 10
5.2959761236
 20
3.2092423439
 30
0.0
 10
5.3074988677
 20
3.2092423439
 30
0.0
 10
5.3301428679
 20
3.2087471011
 30
0.0
 10
5.3634749197
 20
3.2064844694
 30
0.0
 10
5.3955906908
 20
3.2027853192
 30
0.0
 10
5.4363248588
 20
3.1961210498
 30
0.0
 10
5.4846576099
 20
3.1846677551
 30
0.0
 10
5.5304946148
 20
3.1690473636
 30
0.0
 10
5.5647529761
 20
3.1544425589
 30
0.0
 10
5.585008778
 20
3.1445687141
 30
0.0
 10
5.6005511603
 20
3.1362130492
 30
0.0
 10
5.6153838096
 20
3.1277097119
 30
0.0
 10
5.6295884232
 20
3.1187261063
 30
0.0
 10
5.6430431734
 20
3.1092240197
 30
0.0
 10
5.6525518337
 20
3.1019688775
 30
0.0
 10
5.6615168976
 20
3.0945092387
 30
0.0
 10
5.6698631349
 20
3.0868435241
 30
0.0
 10
5.6774683229
 20
3.0789428076
 30
0.0
 10
5.6831323953
 20
3.0720783945
 30
0.0
 10
5.6870949286
 20
3.0664180283
 30
0.0
 10
5.6905672901
 20
3.0607697461
 30
0.0
 10
5.6927219749
 20
3.0562951519
 30
0.0
 10
5.6937366916
 20
3.0532081023
 30
0.0
  0
SPLINE
  5
2D8
100
AcDbEntity
  8
ALL_ASSEMBLY_MEMBERS
100
AcDbSpline
 62
7
  6
CONTINUOUS
 70
0
 71
3
 72
32
 73
28
 74
0
 42
0.0000001
 43
0.0000001
 44
0.0000000001
 40
0.0
 40
0.0
 40
0.0
 40
0.0
 40
0.0035301573
 40
0.0071293193
 40
0.0146565601
 40
0.022711392
 40
0.0312639179
 40
0.0402980396
 40
0.0498053308
 40
0.0597620068
 40
0.0701353885
 40
0.0920347178
 40
0.1153134206
 40
0.1274129505
 40
0.1397988741
 40
0.1653701154
 40
0.2194160635
 40
0.2477698723
 40
0.2769231959
 40
0.3374439024
 40
0.4007523379
 40
0.4666796408
 40
0.5351420325
 40
0.6060834643
 40
0.6794927416
 40
0.83398865
 40
1.0
 40
1.0
 40
1.0
 40
1.0
 10
4.8113118207
 20
2.7687765425
 30
0.0
 10
4.8114695967
 20
2.7693465174
 30
0.0
 10
4.8118669354
 20
2.7704770461
 30
0.0
 10
4.8129559797
 20
2.7726829016
 30
0.0
 10
4.8148218802
 20
2.7753222563
 30
0.0
 10
4.8176029045
 20
2.778266848
 30
0.0
 10
4.8208236973
 20
2.781116137
 30
0.0
 10
4.8244347632
 20
2.7838716257
 30
0.0
 10
4.8283972419
 20
2.786538887
 30
0.0
 10
4.8326752516
 20
2.7891275077
 30
0.0
 10
4.8388682673
 20
2.7925507363
 30
0.0
 10
4.8472367992
 20
2.7966359843
 30
0.0
 10
4.8560575855
 20
2.8004205878
 30
0.0
 10
4.863496478
 20
2.8033700587
 30
0.0
 10
4.871345156
 20
2.8063247699
 30
0.0
 10
4.8858963662
 20
2.8114136896
 30
0.0
 10
4.9032024844
 20
2.8167025653
 30
0.0
 10
4.9212326257
 20
2.8216216003
 30
0.0
 10
4.9404020045
 20
2.8264752782
 30
0.0
 10
4.9654021142
 20
2.8321398262
 30
0.0
 10
4.9966038562
 20
2.8382478111
 30
0.0
 10
5.0292689996
 20
2.8437430811
 30
0.0
 10
5.0633266965
 20
2.8486019382
 30
0.0
 10
5.0987338319
 20
2.8528066411
 30
0.0
 10
5.1485747784
 20
2.8575856782
 30
0.0
 10
5.2144618811
 20
2.8616902663
 30
0.0
 10
5.2681641583
 20
2.8627389316
 30
0.0
 10
5.2959761236
 20
2.8627389316
 30
0.0
  0
SPLINE
  5
2D9
100
AcDbEntity
  8
ALL_ASSEMBLY_MEMBERS
100
AcDbSpline
 62
7
  6
CONTINUOUS
 70
0
 71
3
 72
24
 73
20
 74
0
 42
0.0000001
 43
0.0000001
 44
0.0000000001
 40
0.0
 40
0.0
 40
0.0
 40
0.0
 40
0.0629027444
 40
0.1245576127
 40
0.1853593055
 40
0.2456875367
 40
0.3058970168
 40
0.3662651088
 40
0.4269941429
 40
0.4882342367
 40
0.5500902454
 40
0.6126254506
 40
0.6758493247
 40
0.7397249856
 40
0.8041619052
 40
0.8690730244
 40
0.9343624301
 40
0.9671357413
 40
1.0
 40
1.0
 40
1.0
 40
1.0
 10
5.2959761236
 20
3.6024360317
 30
0.0
 10
5.3045086086
 20
3.6024360317
 30
0.0
 10
5.3214145624
 20
3.6017034913
 30
0.0
 10
5.3463683685
 20
3.5983686291
 30
0.0
 10
5.3705804733
 20
3.5928722646
 30
0.0
 10
5.3940112864
 20
3.585277552
 30
0.0
 10
5.4166169338
 20
3.5756487814
 30
0.0
 10
5.4383505949
 20
3.5640754172
 30
0.0
 10
5.4591615797
 20
3.5506591142
 30
0.0
 10
5.4789901095
 20
3.5354974762
 30
0.0
 10
5.4977668186
 20
3.518683843
 30
0.0
 10
5.5154220127
 20
3.5003233289
 30
0.0
 10
5.5318961179
 20
3.4805405318
 30
0.0
 10
5.5471178325
 20
3.4594600141
 30
0.0
 10
5.560951483
 20
3.437172174
 30
0.0
 10
5.5732526269
 20
3.413786555
 30
0.0
 10
5.5820492121
 20
3.3934754028
 30
0.0
 10
5.5880111911
 20
3.376740712
 30
0.0
 10
5.5905775538
 20
3.3682095975
 30
0.0
 10
5.5917373712
 20
3.3639052222
 30
0.0
  0
SPLINE
  5
2DA
100
AcDbEntity
  8
ALL_ASSEMBLY_MEMBERS
100
AcDbSpline
 62
7
  6
CONTINUOUS
 70
0
 71
3
 72
23
 73
19
 74
0
 42
0.0000001
 43
0.0000001
 44
0.0000000001
 40
0.0
 40
0.0
 40
0.0
 40
0.0
 40
0.0642973631
 40
0.1285202903
 40
0.1926454023
 40
0.2566051891
 40
0.3203248645
 40
0.3837202902
 40
0.4467236828
 40
0.5092981986
 40
0.5714417227
 40
0.6331757661
 40
0.6945428153
 40
0.7556189226
 40
0.8165239243
 40
0.8774275527
 40
0.9385180798
 40
1.0
 40
1.0
 40
1.0
 40
1.0
 10
4.9992493127
 20
3.3640403298
 30
0.0
 10
5.0007690755
 20
3.3729450668
 30
0.0
 10
5.004689607
 20
3.3906023986
 30
0.0
 10
5.0128217514
 20
3.4164473101
 30
0.0
 10
5.022982566
 20
3.4415134054
 30
0.0
 10
5.0350505563
 20
3.4656383972
 30
0.0
 10
5.0489008447
 20
3.4886659768
 30
0.0
 10
5.0644073833
 20
3.510447679
 30
0.0
 10
5.0814695492
 20
3.5308259032
 30
0.0
 10
5.1000021895
 20
3.5496327699
 30
0.0
 10
5.1198950672
 20
3.566723283
 30
0.0
 10
5.1410171742
 20
3.5819825496
 30
0.0
 10
5.1632465857
 20
3.595291469
 30
0.0
 10
5.1864648242
 20
3.6065288101
 30
0.0
 10
5.2105528588
 20
3.615575043
 30
0.0
 10
5.2353745352
 20
3.6223652
 30
0.0
 10
5.2607975591
 20
3.6268360681
 30
0.0
 10
5.2779925057
 20
3.6282227658
 30
0.0
 10
5.286625539
 20
3.6285137881
 30
0.0
  0
SPLINE
  5
2DB
100
AcDbEntity
  8
ALL_ASSEMBLY_MEMBERS
100
AcDbSpline
 62
7
  6
CONTINUOUS
 70
0
 71
3
 72
32
 73
28
 74
0
 42
0.0000001
 43
0.0000001
 44
0.0000000001
 40
0.0
 40
0.0
 40
0.0
 40
0.0
 40
0.0076135935
 40
0.0156140842
 40
0.0240958579
 40
0.0330320825
 40
0.0424159914
 40
0.0522404261
 40
0.0624836766
 40
0.0731164323
 40
0.0841177036
 40
0.0954669871
 40
0.1071405728
 40
0.1191139405
 40
0.1438983247
 40
0.1697105641
 40
0.2240878481
 40
0.2525390977
 40
0.2817481899
 40
0.3422678145
 40
0.4054369587
 40
0.4711000327
 40
0.5391835708
 40
0.6824630076
 40
0.7577220347
 40
0.8355898193
 40
1.0
 40
1.0
 40
1.0
 40
1.0
 10
4.8265723545
 20
2.8227185787
 30
0.0
 10
4.8269181785
 20
2.8239157373
 30
0.0
 10
4.8279358711
 20
2.82628636
 30
0.0
 10
4.830147821
 20
2.8295683192
 30
0.0
 10
4.8329001722
 20
2.8326979038
 30
0.0
 10
4.8360652955
 20
2.8357405355
 30
0.0
 10
4.8396032865
 20
2.838695349
 30
0.0
 10
4.8434758053
 20
2.8415692536
 30
0.0
 10
4.8476486587
 20
2.8443710555
 30
0.0
 10
4.85208983
 20
2.8471110711
 30
0.0
 10
4.8567766574
 20
2.8497915601
 30
0.0
 10
4.8616888345
 20
2.8524160898
 30
0.0
 10
4.8668069411
 20
2.8549887272
 30
0.0
 10
4.873964537
 20
2.8583959365
 30
0.0
 10
4.8833387861
 20
2.8625246849
 30
0.0
 10
4.8992772038
 20
2.8689450771
 30
0.0
 10
4.9160391203
 20
2.8749042567
 30
0.0
 10
4.9335054931
 20
2.8804896634
 30
0.0
 10
4.9520419016
 20
2.8860190076
 30
0.0
 10
4.9762134679
 20
2.8925177903
 30
0.0
 10
5.0063930043
 20
2.8995842072
 30
0.0
 10
5.0379850317
 20
2.9059844365
 30
0.0
 10
5.0826678582
 20
2.9137073439
 30
0.0
 10
5.1292147491
 20
2.9197548278
 30
0.0
 10
5.1775334027
 20
2.9241329811
 30
0.0
 10
5.2294025971
 20
2.9274584911
 30
0.0
 10
5.2690673215
 20
2.9284180521
 30
0.0
 10
5.2959761236
 20
2.9284180521
 30
0.0
  0
SPLINE
  5
2DC
100
AcDbEntity
  8
ALL_ASSEMBLY_MEMBERS
100
AcDbSpline
 62
7
  6
CONTINUOUS
 70
0
 71
3
 72
23
 73
19
 74
0
 42
0.0000001
 43
0.0000001
 44
0.0000000001
 40
0.0
 40
0.0
 40
0.0
 40
0.0
 40
0.065673309
 40
0.1311219039
 40
0.1963200796
 40
0.2611682655
 40
0.3255620561
 40
0.3893914605
 40
0.4525713241
 40
0.5150605833
 40
0.5768634702
 40
0.6380262237
 40
0.6986304498
 40
0.7588073136
 40
0.8187470116
 40
0.8787184802
 40
0.939026494
 40
1.0
 40
1.0
 40
1.0
 40
1.0
 10
5.000303323
 20
3.364416417
 30
0.0
 10
5.0020274552
 20
3.3734178598
 30
0.0
 10
5.0064482688
 20
3.3912110092
 30
0.0
 10
5.0153699712
 20
3.417143782
 30
0.0
 10
5.0262145769
 20
3.4422065088
 30
0.0
 10
5.038797805
 20
3.466274499
 30
0.0
 10
5.052984477
 20
3.4892087094
 30
0.0
 10
5.0686409617
 20
3.5108791299
 30
0.0
 10
5.0856715115
 20
3.5311432423
 30
0.0
 10
5.1040057025
 20
3.5498447028
 30
0.0
 10
5.1235574195
 20
3.56684554
 30
0.0
 10
5.1442255749
 20
3.5820325074
 30
0.0
 10
5.165918262
 20
3.5952901299
 30
0.0
 10
5.1885497449
 20
3.6064991475
 30
0.0
 10
5.212037986
 20
3.6155417733
 30
0.0
 10
5.2362915932
 20
3.622341408
 30
0.0
 10
5.2612230879
 20
3.626826253
 30
0.0
 10
5.2781222097
 20
3.6282156964
 30
0.0
 10
5.2866263151
 20
3.6285098616
 30
0.0
  0
ENDSEC
  0
SECTION
  2
OBJECTS
  0
DICTIONARY
  5
C
100
AcDbDictionary
280
0
281
1
  3
ACAD_GROUP
350
D
  3
ACAD_MLINESTYLE
350
17
  3
ACAD_LAYOUT
350
1A
  3
ACAD_PLOTSETTINGS
350
19
  3
ACAD_PLOTSTYLENAME
350
E
  0
DICTIONARY
  5
D
102
{ACAD_REACTORS
330
C
102
}
100
AcDbDictionary
280
0
281
1
  0
ACDBDICTIONARYWDFLT
  5
E
102
{ACAD_REACTORS
330
C
102
}
100
AcDbDictionary
281
1
  3
Normal
350
F
100
AcDbDictionaryWithDefault
340
F
  0
DICTIONARY
  5
17
102
{ACAD_REACTORS
330
C
102
}
100
AcDbDictionary
280
0
281
1
  3
Standard
350
18
  0
DICTIONARY
  5
19
102
{ACAD_REACTORS
330
C
102
}
100
AcDbDictionary
281
1
  0
DICTIONARY
  5
1A
102
{ACAD_REACTORS
330
C
102
}
100
AcDbDictionary
281
1
  3
Model
350
2DD
  3
Layout1
350
2DE
  0
ACDBPLACEHOLDER
  5
F
102
{ACAD_REACTORS
330
E
102
}
  0
MLINESTYLE
  5
18
102
{ACAD_REACTORS
330
17
102
}
100
AcDbMlineStyle
  2
STANDARD
 70
0
  3

 62
256
 51
90.0
 52
90.0
 71
2
 49
0.5
 62
256
  6
BYLAYER
 49
-0.5
 62
256
  6
BYLAYER
  0
LAYOUT
  5
2DD
102
{ACAD_REACTORS
330
1A
102
}
100
AcDbPlotSettings
  1

  2
none_device
  4
ANSI_A_(11.00_x_8.50_Inches)
  6

 40
0.0
 41
0.0
 42
0.0
 43
0.0
 44
279.4
 45
215.9
 46
0.0
 47
0.0
 48
0.0
 49
0.0
140
0.0
141
0.0
142
1.0
143
1.0
 70
1024
 72
0
 73
0
 74
0
  7

 75
0
147
1.0
148
0.0
149
0.0
100
AcDbLayout
  1
Model
 70
0
 71
0
 10
0.0
 20
0.0
 11
11.0
 21
8.5
 12
0.0
 22
0.0
 32
0.0
 14
0.0
 24
0.0
 34
0.0
 15
0.0
 25
0.0
 35
0.0
146
0.0
 13
0.0
 23
0.0
 33
0.0
 16
1.0
 26
0.0
 36
0.0
 17
0.0
 27
1.0
 37
0.0
 76
0
330
21D
345
0
346
0
  0
LAYOUT
  5
2DE
102
{ACAD_REACTORS
330
1A
102
}
100
AcDbPlotSettings
  1

  2
none_device
  4
ANSI_A_(11.00_x_8.50_Inches)
  6

 40
0.0
 41
0.0
 42
0.0
 43
0.0
 44
279.4
 45
215.9
 46
0.0
 47
0.0
 48
0.0
 49
0.0
140
0.0
141
0.0
142
1.0
143
1.0
 70
0
 72
0
 73
0
 74
0
  7

 75
0
147
1.0
148
0.0
149
0.0
100
AcDbLayout
  1
Layout1
 70
0
 71
1
 10
0.0
 20
0.0
 11
11.0
 21
8.5
 12
0.0
 22
0.0
 32
0.0
 14
0.0
 24
0.0
 34
0.0
 15
0.0
 25
0.0
 35
0.0
146
0.0
 13
0.0
 23
0.0
 33
0.0
 16
1.0
 26
0.0
 36
0.0
 17
0.0
 27
1.0
 37
0.0
 76
0
330
21E
345
0
346
0
  0
ENDSEC
  0
EOF
