999
DXF file: 3-2415_RIGHT.dxf
999
Pro/ENGINEER 2018400 by Parametric Technology Corporation
  0
SECTION
  2
HEADER
  9
$ACADVER
  1
AC1027
  9
$DWGCODEPAGE
  3
ANSI_1252
  9
$EXTMAX
 10
11.0
 20
8.5
 30
0.0
  9
$EXTMIN
 10
0.0
 20
0.0
 30
0.0
  9
$LIMMIN
 10
0.0
 20
0.0
  9
$LIMMAX
 10
11.0
 20
8.5
  9
$VIEWCTR
 10
5.5
 20
4.25
  9
$VIEWSIZE
 40
8.5
  9
$CLAYER
  8
0
  9
$LTSCALE
 40
0.605
  9
$CELTYPE
  6
BYLAYER
  9
$DIMSCALE
 40
1.0
  9
$DIMASZ
 40
0.1
  9
$DIMEXO
 40
0.0625
  9
$DIMDLI
 40
0.418
  9
$DIMEXE
 40
0.125
  9
$DIMCEN
 40
0.099
  9
$DIMLFAC
 40
1.0
  9
$DIMBLK
  1
_FILLED
  9
$DIMALT
 70
1
  9
$DIMALTD
 70
2
  9
$DIMALTTD
 70
2
  9
$DIMALTF
 40
25.4
  9
$DIMTXT
 40
0.08
  9
$DIMTOL
 70
1
  9
$DIMLIM
 70
0
  9
$DIMTFAC
 40
1.0
  9
$DIMTP
 40
0.001
  9
$DIMTM
 40
0.001
  9
$DIMGAP
 40
0.09
  9
$DIMDSEP
 70
46
  9
$AUNITS
 70
0
  9
$PDMODE
 70
3
  9
$PDSIZE
 40
0.3125
  9
$HANDSEED
  5
2C7
  9
$TILEMODE
 70
1
  9
$MEASUREMENT
 70
0
  9
$INSUNITS
 70
1
  0
ENDSEC
  0
SECTION
  2
CLASSES
  0
CLASS
  1
ACDBDICTIONARYWDFLT
  2
AcDbDictionaryWithDefault
  3
AutoCAD 2000
 90
0
 91
1
280
0
281
0
  0
CLASS
  1
ACDBPLACEHOLDER
  2
AcDbPlaceHolder
  3
AutoCAD 2000
 90
0
 91
1
280
0
281
0
  0
CLASS
  1
LAYOUT
  2
AcDbLayout
  3
AutoCAD 2000
 90
0
 91
0
280
0
281
0
  0
ENDSEC
  0
SECTION
  2
TABLES
  0
TABLE
  2
VPORT
  5
8
100
AcDbSymbolTable
 70
2
  0
VPORT
  5
1F4
100
AcDbSymbolTableRecord
100
AcDbViewportTableRecord
  2
*ACTIVE
 70
0
 10
0.0
 20
0.0
 11
1.0
 21
1.0
 12
5.5
 22
4.25
 13
0.0
 23
0.0
 14
1.0
 24
1.0
 15
0.0
 25
0.0
 16
0.0
 26
0.0
 36
1.0
 17
0.0
 27
0.0
 37
0.0
 40
8.5
 41
1.2941176471
 42
50.0
 43
0.0
 44
0.0
 50
0.0
 51
0.0
 71
0
 72
100
 73
1
 74
1
 75
0
 76
0
 77
0
 78
0
  0
ENDTAB
  0
TABLE
  2
LTYPE
  5
5
100
AcDbSymbolTable
 70
6
  0
LTYPE
  5
14
100
AcDbSymbolTableRecord
100
AcDbLinetypeTableRecord
  2
BYBLOCK
 70
0
  3

 72
65
 73
0
 40
0.0
  0
LTYPE
  5
15
100
AcDbSymbolTableRecord
100
AcDbLinetypeTableRecord
  2
BYLAYER
 70
0
  3

 72
65
 73
0
 40
0.0
  0
LTYPE
  5
16
100
AcDbSymbolTableRecord
100
AcDbLinetypeTableRecord
  2
CONTINUOUS
 70
64
  3
Solid line
 72
65
 73
0
 40
0.0
  0
LTYPE
  5
1F5
100
AcDbSymbolTableRecord
100
AcDbLinetypeTableRecord
  2
CENTER
 70
64
  3
____ _ ____ _ ____ _ ____ _ ____ _ ____ _ ____
 72
65
 73
4
 40
0.6
 49
0.375
 74
0
 49
-0.075
 74
0
 49
0.075
 74
0
 49
-0.075
 74
0
  0
LTYPE
  5
1F6
100
AcDbSymbolTableRecord
100
AcDbLinetypeTableRecord
  2
HIDDEN
 70
64
  3
- - - - - - - - - - - - - - - - - - - -
 72
65
 73
2
 40
0.2
 49
0.1
 74
0
 49
-0.1
 74
0
  0
LTYPE
  5
1F7
100
AcDbSymbolTableRecord
100
AcDbLinetypeTableRecord
  2
PHANTOM
 70
64
  3
_____ _ _ _____ _ _ _____ _ _ _____
 72
65
 73
6
 40
0.8
 49
0.45
 74
0
 49
-0.05
 74
0
 49
0.1
 74
0
 49
-0.05
 74
0
 49
0.1
 74
0
 49
-0.05
 74
0
  0
LTYPE
  5
1F8
100
AcDbSymbolTableRecord
100
AcDbLinetypeTableRecord
  2
DOT
 70
64
  3
. . . . . . . . . . . . . . . . . . . .
 72
65
 73
2
 40
0.2
 49
0.1
 74
0
 49
-0.1
 74
0
  0
LTYPE
  5
1F9
100
AcDbSymbolTableRecord
100
AcDbLinetypeTableRecord
  2
DASHED
 70
64
  3
- - - - - - - - - - - - - - - - - - - -
 72
65
 73
2
 40
0.2
 49
0.1
 74
0
 49
-0.1
 74
0
  0
ENDTAB
  0
TABLE
  2
LAYER
  5
2
100
AcDbSymbolTable
 70
36
  0
LAYER
  5
10
100
AcDbSymbolTableRecord
100
AcDbLayerTableRecord
  2
0
 70
0
 62
7
  6
CONTINUOUS
370
-3
390
F
  0
LAYER
  5
1FA
100
AcDbSymbolTableRecord
100
AcDbLayerTableRecord
  2
DEFAULT_1
 70
0
 62
7
  6
CENTER
370
-3
390
F
  0
LAYER
  5
1FB
100
AcDbSymbolTableRecord
100
AcDbLayerTableRecord
  2
DEFAULT_2
 70
0
 62
8
  6
HIDDEN
370
-3
390
F
  0
LAYER
  5
1FC
100
AcDbSymbolTableRecord
100
AcDbLayerTableRecord
  2
DEFAULT_3
 70
0
 62
7
  6
PHANTOM
370
-3
390
F
  0
LAYER
  5
1FD
100
AcDbSymbolTableRecord
100
AcDbLayerTableRecord
  2
3-985_ASSY_PLANES
 70
0
 62
7
  6
CONTINUOUS
370
-3
390
F
  0
LAYER
  5
1FE
100
AcDbSymbolTableRecord
100
AcDbLayerTableRecord
  2
ALL_ASSEMBLY_MEMBERS
 70
0
 62
7
  6
CONTINUOUS
370
-3
390
F
  0
LAYER
  5
1FF
100
AcDbSymbolTableRecord
100
AcDbLayerTableRecord
  2
ALL_FEATURES
 70
0
 62
7
  6
CONTINUOUS
370
-3
390
F
  0
LAYER
  5
200
100
AcDbSymbolTableRecord
100
AcDbLayerTableRecord
  2
AXES_FEATURES
 70
0
 62
7
  6
CONTINUOUS
370
-3
390
F
  0
LAYER
  5
201
100
AcDbSymbolTableRecord
100
AcDbLayerTableRecord
  2
CHAMFER_FEATURES
 70
0
 62
7
  6
CONTINUOUS
370
-3
390
F
  0
LAYER
  5
202
100
AcDbSymbolTableRecord
100
AcDbLayerTableRecord
  2
COORDINATE_SYSTEMS
 70
0
 62
7
  6
CONTINUOUS
370
-3
390
F
  0
LAYER
  5
203
100
AcDbSymbolTableRecord
100
AcDbLayerTableRecord
  2
CUT_FEATURES
 70
0
 62
7
  6
CONTINUOUS
370
-3
390
F
  0
LAYER
  5
204
100
AcDbSymbolTableRecord
100
AcDbLayerTableRecord
  2
CYAN
 70
0
 62
7
  6
CONTINUOUS
370
-3
390
F
  0
LAYER
  5
205
100
AcDbSymbolTableRecord
100
AcDbLayerTableRecord
  2
DATUM_CURVES
 70
0
 62
7
  6
CONTINUOUS
370
-3
390
F
  0
LAYER
  5
206
100
AcDbSymbolTableRecord
100
AcDbLayerTableRecord
  2
DATUM_PLANES
 70
0
 62
7
  6
CONTINUOUS
370
-3
390
F
  0
LAYER
  5
207
100
AcDbSymbolTableRecord
100
AcDbLayerTableRecord
  2
DATUM_POINTS
 70
0
 62
7
  6
CONTINUOUS
370
-3
390
F
  0
LAYER
  5
208
100
AcDbSymbolTableRecord
100
AcDbLayerTableRecord
  2
DEFAULT_COORDINATE_SYSTEM
 70
0
 62
7
  6
CONTINUOUS
370
-3
390
F
  0
LAYER
  5
209
100
AcDbSymbolTableRecord
100
AcDbLayerTableRecord
  2
DEFAULT_DATUM_AXES
 70
0
 62
7
  6
CONTINUOUS
370
-3
390
F
  0
LAYER
  5
20A
100
AcDbSymbolTableRecord
100
AcDbLayerTableRecord
  2
DEFAULT_DATUM_CURVES
 70
0
 62
7
  6
CONTINUOUS
370
-3
390
F
  0
LAYER
  5
20B
100
AcDbSymbolTableRecord
100
AcDbLayerTableRecord
  2
DEFAULT_DATUM_PLANES
 70
0
 62
7
  6
CONTINUOUS
370
-3
390
F
  0
LAYER
  5
20C
100
AcDbSymbolTableRecord
100
AcDbLayerTableRecord
  2
DEFAULT_SURFACES
 70
0
 62
7
  6
CONTINUOUS
370
-3
390
F
  0
LAYER
  5
20D
100
AcDbSymbolTableRecord
100
AcDbLayerTableRecord
  2
DIMENSIONS
 70
0
 62
7
  6
CONTINUOUS
370
-3
390
F
  0
LAYER
  5
20E
100
AcDbSymbolTableRecord
100
AcDbLayerTableRecord
  2
HOLE_FEATURES
 70
0
 62
7
  6
CONTINUOUS
370
-3
390
F
  0
LAYER
  5
20F
100
AcDbSymbolTableRecord
100
AcDbLayerTableRecord
  2
PART_REFERENCE_DIMENSIONS
 70
0
 62
7
  6
CONTINUOUS
370
-3
390
F
  0
LAYER
  5
210
100
AcDbSymbolTableRecord
100
AcDbLayerTableRecord
  2
PLATED_SURFACE_AREA
 70
0
 62
7
  6
CONTINUOUS
370
-3
390
F
  0
LAYER
  5
211
100
AcDbSymbolTableRecord
100
AcDbLayerTableRecord
  2
POINTS
 70
0
 62
7
  6
CONTINUOUS
370
-3
390
F
  0
LAYER
  5
212
100
AcDbSymbolTableRecord
100
AcDbLayerTableRecord
  2
PROTRUSION_FEATURES
 70
0
 62
7
  6
CONTINUOUS
370
-3
390
F
  0
LAYER
  5
213
100
AcDbSymbolTableRecord
100
AcDbLayerTableRecord
  2
QUILTS
 70
0
 62
7
  6
CONTINUOUS
370
-3
390
F
  0
LAYER
  5
214
100
AcDbSymbolTableRecord
100
AcDbLayerTableRecord
  2
REFERENCE_DIMENSIONS
 70
0
 62
7
  6
CONTINUOUS
370
-3
390
F
  0
LAYER
  5
215
100
AcDbSymbolTableRecord
100
AcDbLayerTableRecord
  2
ROUND_FEATURES
 70
0
 62
7
  6
CONTINUOUS
370
-3
390
F
  0
LAYER
  5
216
100
AcDbSymbolTableRecord
100
AcDbLayerTableRecord
  2
SURFACE_FEATURES
 70
0
 62
7
  6
CONTINUOUS
370
-3
390
F
  0
LAYER
  5
217
100
AcDbSymbolTableRecord
100
AcDbLayerTableRecord
  2
SURFACE_FINISH_SYMBOLS
 70
0
 62
7
  6
CONTINUOUS
370
-3
390
F
  0
LAYER
  5
218
100
AcDbSymbolTableRecord
100
AcDbLayerTableRecord
  2
WETTED_SURFACES
 70
0
 62
7
  6
CONTINUOUS
370
-3
390
F
  0
LAYER
  5
219
100
AcDbSymbolTableRecord
100
AcDbLayerTableRecord
  2
WETTED_SURFACE_AREA
 70
0
 62
7
  6
CONTINUOUS
370
-3
390
F
  0
LAYER
  5
21A
100
AcDbSymbolTableRecord
100
AcDbLayerTableRecord
  2
WHITE
 70
0
 62
7
  6
CONTINUOUS
370
-3
390
F
  0
ENDTAB
  0
TABLE
  2
STYLE
  5
3
100
AcDbSymbolTable
 70
1
  0
STYLE
  5
11
100
AcDbSymbolTableRecord
100
AcDbTextStyleTableRecord
  2
STANDARD
 70
0
 40
0.0
 41
0.8
 50
0.0
 71
0
 42
0.2
  3
txt
  4

  0
STYLE
  5
21B
100
AcDbSymbolTableRecord
100
AcDbTextStyleTableRecord
  2
TEXTSTYLE_1
 70
0
 40
0.0
 41
0.8
 50
0.0
 71
0
 42
0.2
  3
gdt
  4

  0
ENDTAB
  0
TABLE
  2
VIEW
  5
6
100
AcDbSymbolTable
 70
0
  0
ENDTAB
  0
TABLE
  2
UCS
  5
7
100
AcDbSymbolTable
 70
0
  0
ENDTAB
  0
TABLE
  2
APPID
  5
9
100
AcDbSymbolTable
 70
1
  0
APPID
  5
21C
100
AcDbSymbolTableRecord
100
AcDbRegAppTableRecord
  2
ACAD
 70
0
  0
ENDTAB
  0
TABLE
  2
BLOCK_RECORD
  5
1
100
AcDbSymbolTable
 70
0
  0
BLOCK_RECORD
  5
21D
100
AcDbSymbolTableRecord
100
AcDbBlockTableRecord
  2
*Model_Space
  0
BLOCK_RECORD
  5
21E
100
AcDbSymbolTableRecord
100
AcDbBlockTableRecord
  2
*Paper_Space
  0
BLOCK_RECORD
  5
21F
100
AcDbSymbolTableRecord
100
AcDbBlockTableRecord
  2
_FILLED
  0
ENDTAB
  0
TABLE
  2
DIMSTYLE
  5
A
100
AcDbSymbolTable
 70
1
100
AcDbDimStyleTable
 71
0
  0
DIMSTYLE
105
220
100
AcDbSymbolTableRecord
100
AcDbDimStyleTableRecord
  2
STANDARD
 70
0
  3

  4

 40
1.0
 41
0.1
 42
0.0625
 43
0.38
 44
0.125
 45
0.0
 46
0.0
 47
0.001
 48
0.001
140
0.08
141
0.09
142
0.0
143
25.4
144
1.0
145
0.0
146
1.0
147
0.09
 71
1.0
 72
0.0
 73
1
 74
1
 75
0
 76
0
 77
0
 78
4
 79
1
170
1
171
2
172
0
173
0
174
0
175
0
176
0
177
0
178
0
270
2
179
3
271
3
272
3
273
2
274
2
275
0
280
0
281
0
282
0
283
1
284
4
285
0
286
0
287
3
288
0
340
11
278
46
341
21F
342
21F
343
21F
344
21F
  0
ENDTAB
  0
ENDSEC
  0
SECTION
  2
BLOCKS
  0
BLOCK
  5
20
100
AcDbEntity
  8
0
100
AcDbBlockBegin
  2
*Model_Space
 70
0
 10
0.0
 20
0.0
 30
0.0
  3
*Model_Space
  1

  0
ENDBLK
  5
21
100
AcDbEntity
  8
0
100
AcDbBlockEnd
  0
BLOCK
  5
1C
100
AcDbEntity
  8
0
100
AcDbBlockBegin
  2
*Paper_Space
 70
0
 10
0.0
 20
0.0
 30
0.0
  3
*Paper_Space
  1

  0
ENDBLK
  5
1D
100
AcDbEntity
  8
0
100
AcDbBlockEnd
  0
BLOCK
  5
221
100
AcDbEntity
  8
0
100
AcDbBlockBegin
  2
_FILLED
 70
64
 10
0.0
 20
0.0
  3
_FILLED
  1

  0
SOLID
  5
222
100
AcDbEntity
  8
0
  6
BYBLOCK
 62
0
100
AcDbTrace
 10
0.0
 20
0.0
 11
-1.0
 21
0.2
 12
-1.0
 22
-0.2
 13
-1.0
 23
-0.2
  0
ENDBLK
  5
223
100
AcDbEntity
  8
0
  6
BYBLOCK
 62
0
100
AcDbBlockEnd
  0
ENDSEC
  0
SECTION
  2
ENTITIES
  0
MTEXT
  5
224
100
AcDbEntity
  8
0
100
AcDbMText
 62
2
  6
CONTINUOUS
  7
STANDARD
 71
3
 72
1
 10
4.1697872768
 20
1.6444607447
 30
0.0
 11
1.0
 21
0.0
 31
0.0
 73
2
 44
0.9
  1
SCALE  .500
 40
0.08
 41
0.704
  0
LINE
  5
225
100
AcDbEntity
  8
0
100
AcDbLine
 62
7
  6
CONTINUOUS
 10
0.0
 20
0.0
 11
0.0
 21
8.5
  0
LINE
  5
226
100
AcDbEntity
  8
0
100
AcDbLine
 62
7
  6
CONTINUOUS
 10
0.0
 20
0.0
 11
11.0
 21
0.0
  0
LINE
  5
227
100
AcDbEntity
  8
0
100
AcDbLine
 62
7
  6
CONTINUOUS
 10
0.0
 20
8.5
 11
11.0
 21
8.5
  0
LINE
  5
228
100
AcDbEntity
  8
0
100
AcDbLine
 62
7
  6
CONTINUOUS
 10
11.0
 20
0.0
 11
11.0
 21
8.5
  0
LINE
  5
229
100
AcDbEntity
  8
ALL_ASSEMBLY_MEMBERS
100
AcDbLine
 62
7
  6
CONTINUOUS
 10
3.8165076889
 20
2.4346854638
 11
3.341062783
 21
2.5532271926
  0
LINE
  5
22A
100
AcDbEntity
  8
ALL_ASSEMBLY_MEMBERS
100
AcDbLine
 62
7
  6
CONTINUOUS
 10
6.7558894642
 20
2.9786712778
 11
6.7483894642
 21
2.9786712778
  0
LINE
  5
22B
100
AcDbEntity
  8
ALL_ASSEMBLY_MEMBERS
100
AcDbLine
 62
7
  6
CONTINUOUS
 10
6.2371394642
 20
2.9786712778
 11
6.2258894642
 21
2.9786712778
  0
LINE
  5
22C
100
AcDbEntity
  8
ALL_ASSEMBLY_MEMBERS
100
AcDbLine
 62
7
  6
CONTINUOUS
 10
6.1908894642
 20
3.0286712778
 11
5.1098894642
 21
3.0286712778
  0
LINE
  5
22D
100
AcDbEntity
  8
ALL_ASSEMBLY_MEMBERS
100
AcDbLine
 62
7
  6
CONTINUOUS
 10
6.1908894642
 20
3.3286712778
 11
5.6438894642
 21
3.3286712778
  0
LINE
  5
22E
100
AcDbEntity
  8
ALL_ASSEMBLY_MEMBERS
100
AcDbLine
 62
7
  6
CONTINUOUS
 10
6.1908894642
 20
3.6286712778
 11
5.2058894642
 21
3.6286712778
  0
LINE
  5
22F
100
AcDbEntity
  8
ALL_ASSEMBLY_MEMBERS
100
AcDbLine
 62
7
  6
CONTINUOUS
 10
6.7558894642
 20
3.6786712778
 11
6.7483894642
 21
3.6786712778
  0
LINE
  5
230
100
AcDbEntity
  8
ALL_ASSEMBLY_MEMBERS
100
AcDbLine
 62
7
  6
CONTINUOUS
 10
6.2371394642
 20
3.6786712778
 11
6.2258894642
 21
3.6786712778
  0
LINE
  5
231
100
AcDbEntity
  8
ALL_ASSEMBLY_MEMBERS
100
AcDbLine
 62
7
  6
CONTINUOUS
 10
3.5755080522
 20
2.9284180521
 11
3.341062783
 21
2.5532271926
  0
LINE
  5
232
100
AcDbEntity
  8
ALL_ASSEMBLY_MEMBERS
100
AcDbLine
 62
7
  6
CONTINUOUS
 10
7.1013894642
 20
6.7866542187
 11
7.0397243134
 21
6.7367187642
  0
LINE
  5
233
100
AcDbEntity
  8
ALL_ASSEMBLY_MEMBERS
100
AcDbLine
 62
7
  6
CONTINUOUS
 10
7.0983988383
 20
2.6837138875
 11
7.0270690495
 21
2.7356712778
  0
LINE
  5
234
100
AcDbEntity
  8
ALL_ASSEMBLY_MEMBERS
100
AcDbLine
 62
7
  6
CONTINUOUS
 10
3.978114438
 20
2.6742773223
 11
3.8165076889
 21
2.4346854638
  0
LINE
  5
235
100
AcDbEntity
  8
ALL_ASSEMBLY_MEMBERS
100
AcDbLine
 62
7
  6
CONTINUOUS
 10
5.6167139681
 20
6.4415745036
 11
5.6167139668
 21
6.4352627728
  0
LINE
  5
236
100
AcDbEntity
  8
ALL_ASSEMBLY_MEMBERS
100
AcDbLine
 62
7
  6
CONTINUOUS
 10
5.616713967
 20
6.2220793552
 11
5.6167139681
 21
6.215768052
  0
LINE
  5
237
100
AcDbEntity
  8
ALL_ASSEMBLY_MEMBERS
100
AcDbLine
 62
7
  6
CONTINUOUS
 10
6.1433894642
 20
6.1664212778
 11
6.1433894642
 21
6.4909212778
  0
LINE
  5
238
100
AcDbEntity
  8
ALL_ASSEMBLY_MEMBERS
100
AcDbLine
 62
7
  6
CONTINUOUS
 10
6.1833894642
 20
6.1336712778
 11
6.1833894642
 21
6.5236712778
  0
LINE
  5
239
100
AcDbEntity
  8
ALL_ASSEMBLY_MEMBERS
100
AcDbLine
 62
7
  6
CONTINUOUS
 10
6.1908894642
 20
3.0136712778
 11
6.1908894642
 21
3.6436712778
  0
LINE
  5
23A
100
AcDbEntity
  8
ALL_ASSEMBLY_MEMBERS
100
AcDbLine
 62
7
  6
CONTINUOUS
 10
6.2133894642
 20
6.1036712778
 11
6.2133894642
 21
6.5536712778
  0
LINE
  5
23B
100
AcDbEntity
  8
ALL_ASSEMBLY_MEMBERS
100
AcDbLine
 62
7
  6
CONTINUOUS
 10
6.2158090653
 20
6.1036712778
 11
6.2158090653
 21
6.5536712778
  0
LINE
  5
23C
100
AcDbEntity
  8
ALL_ASSEMBLY_MEMBERS
100
AcDbLine
 62
7
  6
CONTINUOUS
 10
6.2258894642
 20
2.9786712778
 11
6.2258894642
 21
3.6786712778
  0
LINE
  5
23D
100
AcDbEntity
  8
ALL_ASSEMBLY_MEMBERS
100
AcDbLine
 62
7
  6
CONTINUOUS
 10
6.2371394642
 20
2.9786712778
 11
6.2371394642
 21
3.6786712778
  0
LINE
  5
23E
100
AcDbEntity
  8
ALL_ASSEMBLY_MEMBERS
100
AcDbLine
 62
7
  6
CONTINUOUS
 10
6.2408696023
 20
6.1171797797
 11
6.2408696023
 21
6.5401627758
  0
LINE
  5
23F
100
AcDbEntity
  8
ALL_ASSEMBLY_MEMBERS
100
AcDbLine
 62
7
  6
CONTINUOUS
 10
6.2628727247
 20
6.1305320786
 11
6.2628727247
 21
6.5268104769
  0
LINE
  5
240
100
AcDbEntity
  8
ALL_ASSEMBLY_MEMBERS
100
AcDbLine
 62
7
  6
CONTINUOUS
 10
6.2696928435
 20
3.0008152481
 11
6.2696928435
 21
3.6565273074
  0
LINE
  5
241
100
AcDbEntity
  8
ALL_ASSEMBLY_MEMBERS
100
AcDbLine
 62
7
  6
CONTINUOUS
 10
6.2892033245
 20
3.0163507423
 11
6.2892033245
 21
3.6409918132
  0
LINE
  5
242
100
AcDbEntity
  8
ALL_ASSEMBLY_MEMBERS
100
AcDbLine
 62
7
  6
CONTINUOUS
 10
6.6963256039
 20
3.6409918132
 11
6.6963256039
 21
3.0163507423
  0
LINE
  5
243
100
AcDbEntity
  8
ALL_ASSEMBLY_MEMBERS
100
AcDbLine
 62
7
  6
CONTINUOUS
 10
6.7158360849
 20
3.6565273074
 11
6.7158360849
 21
3.0008152481
  0
LINE
  5
244
100
AcDbEntity
  8
ALL_ASSEMBLY_MEMBERS
100
AcDbLine
 62
7
  6
CONTINUOUS
 10
6.7483894642
 20
2.9786712778
 11
6.7483894642
 21
3.6786712778
  0
LINE
  5
245
100
AcDbEntity
  8
ALL_ASSEMBLY_MEMBERS
100
AcDbLine
 62
7
  6
CONTINUOUS
 10
6.7558894642
 20
2.9786712778
 11
6.7558894642
 21
3.6786712778
  0
LINE
  5
246
100
AcDbEntity
  8
ALL_ASSEMBLY_MEMBERS
100
AcDbLine
 62
7
  6
CONTINUOUS
 10
6.7908894642
 20
2.997864921
 11
6.7908894642
 21
3.6594776346
  0
LINE
  5
247
100
AcDbEntity
  8
ALL_ASSEMBLY_MEMBERS
100
AcDbLine
 62
7
  6
CONTINUOUS
 10
6.8039530969
 20
2.9641647018
 11
6.8039530969
 21
3.6931778538
  0
LINE
  5
248
100
AcDbEntity
  8
ALL_ASSEMBLY_MEMBERS
100
AcDbLine
 62
7
  6
CONTINUOUS
 10
6.8489740546
 20
6.5442765403
 11
6.8489740546
 21
6.1130660152
  0
LINE
  5
249
100
AcDbEntity
  8
ALL_ASSEMBLY_MEMBERS
100
AcDbLine
 62
7
  6
CONTINUOUS
 10
6.87323693
 20
6.5665603248
 11
6.87323693
 21
6.0907822307
  0
LINE
  5
24A
100
AcDbEntity
  8
ALL_ASSEMBLY_MEMBERS
100
AcDbLine
 62
7
  6
CONTINUOUS
 10
6.2158090653
 20
6.1036712778
 11
6.2133894642
 21
6.1036712778
  0
LINE
  5
24B
100
AcDbEntity
  8
ALL_ASSEMBLY_MEMBERS
100
AcDbLine
 62
7
  6
CONTINUOUS
 10
6.1833894642
 20
6.1664212778
 11
6.1433894642
 21
6.1664212778
  0
LINE
  5
24C
100
AcDbEntity
  8
ALL_ASSEMBLY_MEMBERS
100
AcDbLine
 62
7
  6
CONTINUOUS
 10
6.0470757734
 20
6.1994212778
 11
6.1433894642
 21
6.1994212778
  0
LINE
  5
24D
100
AcDbEntity
  8
ALL_ASSEMBLY_MEMBERS
100
AcDbLine
 62
7
  6
CONTINUOUS
 10
6.9183894642
 20
6.0761712778
 11
6.9183894642
 21
6.5811712778
  0
LINE
  5
24E
100
AcDbEntity
  8
ALL_ASSEMBLY_MEMBERS
100
AcDbLine
 62
7
  6
CONTINUOUS
 10
7.0128894642
 20
3.8973197657
 11
7.0128894642
 21
2.7600227898
  0
LINE
  5
24F
100
AcDbEntity
  8
ALL_ASSEMBLY_MEMBERS
100
AcDbLine
 62
7
  6
CONTINUOUS
 10
7.0267505271
 20
6.7095186556
 11
7.0267505271
 21
5.9478239
  0
LINE
  5
250
100
AcDbEntity
  8
ALL_ASSEMBLY_MEMBERS
100
AcDbLine
 62
7
  6
CONTINUOUS
 10
7.0270690495
 20
3.9216712778
 11
7.0270690495
 21
2.7356712778
  0
LINE
  5
251
100
AcDbEntity
  8
ALL_ASSEMBLY_MEMBERS
100
AcDbLine
 62
7
  6
CONTINUOUS
 10
7.0397243134
 20
5.9206237913
 11
7.0397243134
 21
6.7367187642
  0
LINE
  5
252
100
AcDbEntity
  8
ALL_ASSEMBLY_MEMBERS
100
AcDbLine
 62
7
  6
CONTINUOUS
 10
7.0983988383
 20
2.6837138875
 11
7.0983988383
 21
3.9736286681
  0
LINE
  5
253
100
AcDbEntity
  8
ALL_ASSEMBLY_MEMBERS
100
AcDbLine
 62
7
  6
CONTINUOUS
 10
7.1013894642
 20
5.8706883368
 11
7.1013894642
 21
6.7866542187
  0
LINE
  5
254
100
AcDbEntity
  8
ALL_ASSEMBLY_MEMBERS
100
AcDbLine
 62
7
  6
CONTINUOUS
 10
7.1071837705
 20
2.6810622318
 11
7.1071837705
 21
3.9762803238
  0
LINE
  5
255
100
AcDbEntity
  8
ALL_ASSEMBLY_MEMBERS
100
AcDbLine
 62
7
  6
CONTINUOUS
 10
7.0983988383
 20
3.9736286681
 11
7.0270690495
 21
3.9216712778
  0
LINE
  5
256
100
AcDbEntity
  8
ALL_ASSEMBLY_MEMBERS
100
AcDbLine
 62
7
  6
CONTINUOUS
 10
6.0470758123
 20
6.4579212778
 11
6.1433894642
 21
6.4579212778
  0
LINE
  5
257
100
AcDbEntity
  8
ALL_ASSEMBLY_MEMBERS
100
AcDbLine
 62
7
  6
CONTINUOUS
 10
7.1208282974
 20
3.9733404559
 11
7.1208282974
 21
2.6840020997
  0
LINE
  5
258
100
AcDbEntity
  8
ALL_ASSEMBLY_MEMBERS
100
AcDbLine
 62
7
  6
CONTINUOUS
 10
7.1264819753
 20
6.7914273656
 11
7.1264819753
 21
5.86591519
  0
LINE
  5
259
100
AcDbEntity
  8
ALL_ASSEMBLY_MEMBERS
100
AcDbLine
 62
7
  6
CONTINUOUS
 10
7.1354673152
 20
3.973717243
 11
7.1354673152
 21
2.6836253126
  0
LINE
  5
25A
100
AcDbEntity
  8
ALL_ASSEMBLY_MEMBERS
100
AcDbLine
 62
7
  6
CONTINUOUS
 10
7.1462857917
 20
6.7960327928
 11
7.1462857917
 21
5.8613097627
  0
LINE
  5
25B
100
AcDbEntity
  8
ALL_ASSEMBLY_MEMBERS
100
AcDbLine
 62
7
  6
CONTINUOUS
 10
7.1984222081
 20
4.0041079685
 11
7.1984222081
 21
2.653234587
  0
LINE
  5
25C
100
AcDbEntity
  8
ALL_ASSEMBLY_MEMBERS
100
AcDbLine
 62
7
  6
CONTINUOUS
 10
7.2255965208
 20
2.6385103949
 11
7.2255965208
 21
4.0188321607
  0
LINE
  5
25D
100
AcDbEntity
  8
ALL_ASSEMBLY_MEMBERS
100
AcDbLine
 62
7
  6
CONTINUOUS
 10
7.227115073
 20
5.7770598602
 11
7.227115073
 21
6.8802826954
  0
LINE
  5
25E
100
AcDbEntity
  8
ALL_ASSEMBLY_MEMBERS
100
AcDbLine
 62
7
  6
CONTINUOUS
 10
7.2533894642
 20
2.6545069946
 11
7.2533894642
 21
4.0028355609
  0
LINE
  5
25F
100
AcDbEntity
  8
ALL_ASSEMBLY_MEMBERS
100
AcDbLine
 62
7
  6
CONTINUOUS
 10
7.2533894642
 20
5.7869537019
 11
7.2533894642
 21
6.8703888536
  0
LINE
  5
260
100
AcDbEntity
  8
ALL_ASSEMBLY_MEMBERS
100
AcDbLine
 62
7
  6
CONTINUOUS
 10
6.1833894642
 20
6.4909212778
 11
6.1433894642
 21
6.4909212778
  0
LINE
  5
261
100
AcDbEntity
  8
ALL_ASSEMBLY_MEMBERS
100
AcDbLine
 62
7
  6
CONTINUOUS
 10
6.2158090653
 20
6.5536712778
 11
6.2133894642
 21
6.5536712778
  0
LINE
  5
262
100
AcDbEntity
  8
ALL_ASSEMBLY_MEMBERS
100
AcDbLine
 62
7
  6
CONTINUOUS
 10
7.1013894642
 20
5.8706883368
 11
7.0397243134
 21
5.9206237913
  0
ARC
  5
263
100
AcDbEntity
  8
ALL_ASSEMBLY_MEMBERS
100
AcDbCircle
 62
7
  6
CONTINUOUS
 10
5.2059651186
 20
0.8775784928
 40
2.751092786
100
AcDbArc
 50
90.0015756204
 51
97.9190543927
  0
ARC
  5
264
100
AcDbEntity
  8
ALL_ASSEMBLY_MEMBERS
100
AcDbCircle
 62
7
  6
CONTINUOUS
 10
5.11013591
 20
0.38780789
 40
2.6408633993
100
AcDbArc
 50
90.0053468523
 51
101.9008315835
  0
ARC
  5
265
100
AcDbEntity
  8
ALL_ASSEMBLY_MEMBERS
100
AcDbCircle
 62
7
  6
CONTINUOUS
 10
5.1098894642
 20
0.3901712778
 40
2.6385
100
AcDbArc
 50
101.9061784358
 51
108.9079827008
  0
ARC
  5
266
100
AcDbEntity
  8
ALL_ASSEMBLY_MEMBERS
100
AcDbCircle
 62
7
  6
CONTINUOUS
 10
4.9671650028
 20
1.8177992786
 40
1.5441210656
100
AcDbArc
 50
139.5888094204
 51
142.1403893844
  0
ARC
  5
267
100
AcDbEntity
  8
ALL_ASSEMBLY_MEMBERS
100
AcDbCircle
 62
7
  6
CONTINUOUS
 10
4.6373116241
 20
2.2645302241
 40
1.2522693786
100
AcDbArc
 50
131.0269231405
 51
147.9845059448
  0
ARC
  5
268
100
AcDbEntity
  8
ALL_ASSEMBLY_MEMBERS
100
AcDbCircle
 62
7
  6
CONTINUOUS
 10
4.635568661
 20
2.2660181801
 40
1.25
100
AcDbArc
 50
112.3469579043
 51
131.0114221702
  0
ARC
  5
269
100
AcDbEntity
  8
ALL_ASSEMBLY_MEMBERS
100
AcDbCircle
 62
7
  6
CONTINUOUS
 10
4.4325740358
 20
2.3677332207
 40
0.548181368
100
AcDbArc
 50
139.5895461527
 51
145.9993733145
  0
ARC
  5
26A
100
AcDbEntity
  8
ALL_ASSEMBLY_MEMBERS
100
AcDbCircle
 62
7
  6
CONTINUOUS
 10
5.9480036625
 20
6.3286712778
 40
0.35
100
AcDbArc
 50
195.3203927879
 51
198.819063369
  0
ARC
  5
26B
100
AcDbEntity
  8
ALL_ASSEMBLY_MEMBERS
100
AcDbCircle
 62
7
  6
CONTINUOUS
 10
5.9480036625
 20
6.3286712778
 40
0.35
100
AcDbArc
 50
161.180936631
 51
164.6799240032
  0
CIRCLE
  5
26C
100
AcDbEntity
  8
ALL_ASSEMBLY_MEMBERS
100
AcDbCircle
 62
7
  6
CONTINUOUS
 10
5.8381396376
 20
6.3286712778
 40
0.245775
  0
CIRCLE
  5
26D
100
AcDbEntity
  8
ALL_ASSEMBLY_MEMBERS
100
AcDbCircle
 62
7
  6
CONTINUOUS
 10
5.8381396376
 20
6.3286712778
 40
0.2233585994
  0
CIRCLE
  5
26E
100
AcDbEntity
  8
ALL_ASSEMBLY_MEMBERS
100
AcDbCircle
 62
7
  6
CONTINUOUS
 10
5.8381396376
 20
6.3286712778
 40
0.1481658195
  0
CIRCLE
  5
26F
100
AcDbEntity
  8
ALL_ASSEMBLY_MEMBERS
100
AcDbCircle
 62
7
  6
CONTINUOUS
 10
5.8381396376
 20
6.3286712778
 40
0.1247521569
  0
ARC
  5
270
100
AcDbEntity
  8
ALL_ASSEMBLY_MEMBERS
100
AcDbCircle
 62
7
  6
CONTINUOUS
 10
5.6545756475
 20
6.2286712778
 40
0.04
100
AcDbArc
 50
198.819063369
 51
234.0152538154
  0
ARC
  5
271
100
AcDbEntity
  8
ALL_ASSEMBLY_MEMBERS
100
AcDbCircle
 62
7
  6
CONTINUOUS
 10
5.6545756475
 20
6.4286712778
 40
0.04
100
AcDbArc
 50
125.9824579454
 51
161.180936631
  0
ARC
  5
272
100
AcDbEntity
  8
ALL_ASSEMBLY_MEMBERS
100
AcDbCircle
 62
7
  6
CONTINUOUS
 10
6.490089548
 20
3.9126405652
 40
2.2295
100
AcDbArc
 50
80.7367477834
 51
95.849386431
  0
ARC
  5
273
100
AcDbEntity
  8
ALL_ASSEMBLY_MEMBERS
100
AcDbCircle
 62
7
  6
CONTINUOUS
 10
6.2780434364
 20
0.8270560863
 40
2.045
100
AcDbArc
 50
63.2522759502
 51
65.2109756159
  0
ARC
  5
274
100
AcDbEntity
  8
ALL_ASSEMBLY_MEMBERS
100
AcDbCircle
 62
7
  6
CONTINUOUS
 10
7.9120441145
 20
3.9751712778
 40
1.5
100
AcDbArc
 50
222.3768825512
 51
233.1704541732
  0
ARC
  5
275
100
AcDbEntity
  8
ALL_ASSEMBLY_MEMBERS
100
AcDbCircle
 62
7
  6
CONTINUOUS
 10
7.9120441145
 20
2.6821712778
 40
1.5
100
AcDbArc
 50
126.8295458268
 51
137.6231174488
  0
ARC
  5
276
100
AcDbEntity
  8
ALL_ASSEMBLY_MEMBERS
100
AcDbCircle
 62
7
  6
CONTINUOUS
 10
6.4927644642
 20
1.6716712778
 40
1.36
100
AcDbArc
 50
81.3917734115
 51
98.6082265885
  0
ARC
  5
277
100
AcDbEntity
  8
ALL_ASSEMBLY_MEMBERS
100
AcDbCircle
 62
7
  6
CONTINUOUS
 10
6.9643894642
 20
4.4684663159
 40
0.52
100
AcDbArc
 50
296.7477240498
 51
300.1536927054
  0
ARC
  5
278
100
AcDbEntity
  8
ALL_ASSEMBLY_MEMBERS
100
AcDbCircle
 62
7
  6
CONTINUOUS
 10
6.9643894642
 20
2.1888762396
 40
0.52
100
AcDbArc
 50
59.8463072946
 51
63.2522759502
  0
ARC
  5
279
100
AcDbEntity
  8
ALL_ASSEMBLY_MEMBERS
100
AcDbCircle
 62
7
  6
CONTINUOUS
 10
6.8408894642
 20
2.997864921
 40
0.05
100
AcDbArc
 50
180.0
 51
222.3768825512
  0
ARC
  5
27A
100
AcDbEntity
  8
ALL_ASSEMBLY_MEMBERS
100
AcDbCircle
 62
7
  6
CONTINUOUS
 10
6.8408894642
 20
3.6594776346
 40
0.05
100
AcDbArc
 50
137.6231174488
 51
180.0
  0
ARC
  5
27B
100
AcDbEntity
  8
ALL_ASSEMBLY_MEMBERS
100
AcDbCircle
 62
7
  6
CONTINUOUS
 10
7.1053894642
 20
2.722523424
 40
0.0415
100
AcDbArc
 50
272.4780297489
 51
291.8402547393
  0
ARC
  5
27C
100
AcDbEntity
  8
ALL_ASSEMBLY_MEMBERS
100
AcDbCircle
 62
7
  6
CONTINUOUS
 10
7.1053894642
 20
3.9348191315
 40
0.0415
100
AcDbArc
 50
68.1597452607
 51
87.5219702511
  0
ARC
  5
27D
100
AcDbEntity
  8
ALL_ASSEMBLY_MEMBERS
100
AcDbCircle
 62
7
  6
CONTINUOUS
 10
6.2371394642
 20
3.6436712778
 40
0.035
100
AcDbArc
 50
21.5501295438
 51
90.0
  0
ARC
  5
27E
100
AcDbEntity
  8
ALL_ASSEMBLY_MEMBERS
100
AcDbCircle
 62
7
  6
CONTINUOUS
 10
6.2371394642
 20
3.0136712778
 40
0.035
100
AcDbArc
 50
270.0
 51
338.4498704562
  0
ARC
  5
27F
100
AcDbEntity
  8
ALL_ASSEMBLY_MEMBERS
100
AcDbCircle
 62
7
  6
CONTINUOUS
 10
6.2258894642
 20
3.6436712778
 40
0.035
100
AcDbArc
 50
90.0
 51
180.0
  0
ARC
  5
280
100
AcDbEntity
  8
ALL_ASSEMBLY_MEMBERS
100
AcDbCircle
 62
7
  6
CONTINUOUS
 10
6.2258894642
 20
3.0136712778
 40
0.035
100
AcDbArc
 50
180.0
 51
270.0
  0
ARC
  5
281
100
AcDbEntity
  8
ALL_ASSEMBLY_MEMBERS
100
AcDbCircle
 62
7
  6
CONTINUOUS
 10
6.7483894642
 20
3.6436712778
 40
0.035
100
AcDbArc
 50
90.0
 51
158.4498704562
  0
ARC
  5
282
100
AcDbEntity
  8
ALL_ASSEMBLY_MEMBERS
100
AcDbCircle
 62
7
  6
CONTINUOUS
 10
6.7483894642
 20
3.0136712778
 40
0.035
100
AcDbArc
 50
201.5501295438
 51
270.0
  0
ARC
  5
283
100
AcDbEntity
  8
ALL_ASSEMBLY_MEMBERS
100
AcDbCircle
 62
7
  6
CONTINUOUS
 10
6.7558894642
 20
3.6436712778
 40
0.035
100
AcDbArc
 50
0.0
 51
90.0
  0
ARC
  5
284
100
AcDbEntity
  8
ALL_ASSEMBLY_MEMBERS
100
AcDbCircle
 62
7
  6
CONTINUOUS
 10
6.7558894642
 20
3.0136712778
 40
0.035
100
AcDbArc
 50
270.0
 51
360.0
  0
ARC
  5
285
100
AcDbEntity
  8
ALL_ASSEMBLY_MEMBERS
100
AcDbCircle
 62
7
  6
CONTINUOUS
 10
7.0408894642
 20
3.8973197657
 40
0.028
100
AcDbArc
 50
119.5765684061
 51
180.0
  0
ARC
  5
286
100
AcDbEntity
  8
ALL_ASSEMBLY_MEMBERS
100
AcDbCircle
 62
7
  6
CONTINUOUS
 10
7.0408894642
 20
2.7600227898
 40
0.028
100
AcDbArc
 50
180.0
 51
240.4234315939
  0
ARC
  5
287
100
AcDbEntity
  8
ALL_ASSEMBLY_MEMBERS
100
AcDbCircle
 62
7
  6
CONTINUOUS
 10
6.6925836712
 20
3.6657101857
 40
0.025
100
AcDbArc
 50
278.6082265886
 51
338.4498704564
  0
ARC
  5
288
100
AcDbEntity
  8
ALL_ASSEMBLY_MEMBERS
100
AcDbCircle
 62
7
  6
CONTINUOUS
 10
6.6925836712
 20
2.9916323698
 40
0.025
100
AcDbArc
 50
21.5501295436
 51
81.3917734114
  0
ARC
  5
289
100
AcDbEntity
  8
ALL_ASSEMBLY_MEMBERS
100
AcDbCircle
 62
7
  6
CONTINUOUS
 10
6.2929452572
 20
2.9916323698
 40
0.025
100
AcDbArc
 50
98.6082265886
 51
158.4498704565
  0
ARC
  5
28A
100
AcDbEntity
  8
ALL_ASSEMBLY_MEMBERS
100
AcDbCircle
 62
7
  6
CONTINUOUS
 10
6.2929452572
 20
3.6657101857
 40
0.025
100
AcDbArc
 50
201.5501295435
 51
261.3917734114
  0
ARC
  5
28B
100
AcDbEntity
  8
ALL_ASSEMBLY_MEMBERS
100
AcDbCircle
 62
7
  6
CONTINUOUS
 10
7.2348894642
 20
4.0028355609
 40
0.0185
100
AcDbArc
 50
0.0
 51
120.1536927054
  0
ARC
  5
28C
100
AcDbEntity
  8
ALL_ASSEMBLY_MEMBERS
100
AcDbCircle
 62
7
  6
CONTINUOUS
 10
7.2348894642
 20
2.6545069946
 40
0.0185
100
AcDbArc
 50
239.8463072946
 51
360.0
  0
ARC
  5
28D
100
AcDbEntity
  8
ALL_ASSEMBLY_MEMBERS
100
AcDbCircle
 62
7
  6
CONTINUOUS
 10
7.1277106688
 20
2.666829943
 40
0.0185
100
AcDbArc
 50
65.2109756156
 51
111.8402547395
  0
ARC
  5
28E
100
AcDbEntity
  8
ALL_ASSEMBLY_MEMBERS
100
AcDbCircle
 62
7
  6
CONTINUOUS
 10
7.1277106688
 20
3.9905126125
 40
0.0185
100
AcDbArc
 50
248.1597452605
 51
294.7890243844
  0
ARC
  5
28F
100
AcDbEntity
  8
ALL_ASSEMBLY_MEMBERS
100
AcDbCircle
 62
7
  6
CONTINUOUS
 10
7.106582786
 20
3.962393322
 40
0.0139
100
AcDbArc
 50
87.521970251
 51
126.0700000006
  0
ARC
  5
290
100
AcDbEntity
  8
ALL_ASSEMBLY_MEMBERS
100
AcDbCircle
 62
7
  6
CONTINUOUS
 10
7.106582786
 20
2.6949492335
 40
0.0139
100
AcDbArc
 50
233.9299999994
 51
272.478029749
  0
ARC
  5
291
100
AcDbEntity
  8
ALL_ASSEMBLY_MEMBERS
100
AcDbCircle
 62
7
  6
CONTINUOUS
 10
6.490089548
 20
8.7447019903
 40
2.2295
100
AcDbArc
 50
264.150613569
 51
279.2632522166
  0
ARC
  5
292
100
AcDbEntity
  8
ALL_ASSEMBLY_MEMBERS
100
AcDbCircle
 62
7
  6
CONTINUOUS
 10
6.2780434364
 20
5.8302864693
 40
2.045
100
AcDbArc
 50
294.7890243841
 51
296.7477240498
  0
ARC
  5
293
100
AcDbEntity
  8
ALL_ASSEMBLY_MEMBERS
100
AcDbCircle
 62
7
  6
CONTINUOUS
 10
6.4927644642
 20
4.9856712778
 40
1.36
100
AcDbArc
 50
261.3917734115
 51
278.6082265885
  0
ARC
  5
294
100
AcDbEntity
  8
ALL_ASSEMBLY_MEMBERS
100
AcDbCircle
 62
7
  6
CONTINUOUS
 10
6.2387267813
 20
4.9096997362
 40
1.315
100
AcDbArc
 50
41.2685692708
 51
46.3573080802
  0
ARC
  5
295
100
AcDbEntity
  8
ALL_ASSEMBLY_MEMBERS
100
AcDbCircle
 62
7
  6
CONTINUOUS
 10
6.2387267813
 20
7.7476428194
 40
1.315
100
AcDbArc
 50
313.6426919198
 51
318.7314307292
  0
ARC
  5
296
100
AcDbEntity
  8
ALL_ASSEMBLY_MEMBERS
100
AcDbCircle
 62
7
  6
CONTINUOUS
 10
7.3184594581
 20
6.3131712778
 40
0.465
100
AcDbArc
 50
210.6423451974
 51
231.168495232
  0
ARC
  5
297
100
AcDbEntity
  8
ALL_ASSEMBLY_MEMBERS
100
AcDbCircle
 62
7
  6
CONTINUOUS
 10
7.3184594581
 20
6.3441712778
 40
0.465
100
AcDbArc
 50
128.831504768
 51
149.3576548026
  0
ARC
  5
298
100
AcDbEntity
  8
ALL_ASSEMBLY_MEMBERS
100
AcDbCircle
 62
7
  6
CONTINUOUS
 10
7.0617505271
 20
6.7095186556
 40
0.035
100
AcDbArc
 50
129.0
 51
180.0
  0
ARC
  5
299
100
AcDbEntity
  8
ALL_ASSEMBLY_MEMBERS
100
AcDbCircle
 62
7
  6
CONTINUOUS
 10
7.0617505271
 20
5.9478239
 40
0.035
100
AcDbArc
 50
180.0
 51
231.0
  0
ARC
  5
29A
100
AcDbEntity
  8
ALL_ASSEMBLY_MEMBERS
100
AcDbCircle
 62
7
  6
CONTINUOUS
 10
6.2133894642
 20
6.1336712778
 40
0.03
100
AcDbArc
 50
180.0
 51
270.0
  0
ARC
  5
29B
100
AcDbEntity
  8
ALL_ASSEMBLY_MEMBERS
100
AcDbCircle
 62
7
  6
CONTINUOUS
 10
6.2133894642
 20
6.5236712778
 40
0.03
100
AcDbArc
 50
90.0
 51
180.0
  0
ARC
  5
29C
100
AcDbEntity
  8
ALL_ASSEMBLY_MEMBERS
100
AcDbCircle
 62
7
  6
CONTINUOUS
 10
6.2158090657
 20
6.1336712778
 40
0.03
100
AcDbArc
 50
269.9999991124
 51
326.6524271069
  0
ARC
  5
29D
100
AcDbEntity
  8
ALL_ASSEMBLY_MEMBERS
100
AcDbCircle
 62
7
  6
CONTINUOUS
 10
6.2158090657
 20
6.5236712778
 40
0.03
100
AcDbArc
 50
33.3475728867
 51
90.0000008682
  0
ARC
  5
29E
100
AcDbEntity
  8
ALL_ASSEMBLY_MEMBERS
100
AcDbCircle
 62
7
  6
CONTINUOUS
 10
6.8441449291
 20
6.5738853152
 40
0.03
100
AcDbArc
 50
279.2632522166
 51
345.8674273336
  0
ARC
  5
29F
100
AcDbEntity
  8
ALL_ASSEMBLY_MEMBERS
100
AcDbCircle
 62
7
  6
CONTINUOUS
 10
6.8441449291
 20
6.0834572404
 40
0.03
100
AcDbArc
 50
14.1325726664
 51
80.7367477834
  0
ARC
  5
2A0
100
AcDbEntity
  8
ALL_ASSEMBLY_MEMBERS
100
AcDbCircle
 62
7
  6
CONTINUOUS
 10
6.2659301388
 20
6.1006882816
 40
0.03
100
AcDbArc
 50
95.849386431
 51
146.6524271146
  0
ARC
  5
2A1
100
AcDbEntity
  8
ALL_ASSEMBLY_MEMBERS
100
AcDbCircle
 62
7
  6
CONTINUOUS
 10
6.2659301388
 20
6.5566542739
 40
0.03
100
AcDbArc
 50
213.3475728944
 51
264.1506135687
  0
ARC
  5
2A2
100
AcDbEntity
  8
ALL_ASSEMBLY_MEMBERS
100
AcDbCircle
 62
7
  6
CONTINUOUS
 10
6.9003894642
 20
6.5597236672
 40
0.028
100
AcDbArc
 50
49.9947991151
 51
165.8674273336
  0
ARC
  5
2A3
100
AcDbEntity
  8
ALL_ASSEMBLY_MEMBERS
100
AcDbCircle
 62
7
  6
CONTINUOUS
 10
6.9003894642
 20
6.0976188884
 40
0.028
100
AcDbArc
 50
194.1325726664
 51
310.0052008849
  0
ARC
  5
2A4
100
AcDbEntity
  8
ALL_ASSEMBLY_MEMBERS
100
AcDbCircle
 62
7
  6
CONTINUOUS
 10
7.1183811147
 20
5.8916712778
 40
0.027
100
AcDbArc
 50
231.0
 51
287.4595175183
  0
ARC
  5
2A5
100
AcDbEntity
  8
ALL_ASSEMBLY_MEMBERS
100
AcDbCircle
 62
7
  6
CONTINUOUS
 10
7.1183811147
 20
6.7656712778
 40
0.027
100
AcDbArc
 50
72.5404824817
 51
129.0
  0
ARC
  5
2A6
100
AcDbEntity
  8
ALL_ASSEMBLY_MEMBERS
100
AcDbCircle
 62
7
  6
CONTINUOUS
 10
7.1324826128
 20
5.8468366064
 40
0.02
100
AcDbArc
 50
46.35730808
 51
107.4595175185
  0
ARC
  5
2A7
100
AcDbEntity
  8
ALL_ASSEMBLY_MEMBERS
100
AcDbCircle
 62
7
  6
CONTINUOUS
 10
7.1324826128
 20
6.8105059491
 40
0.02
100
AcDbArc
 50
252.5404824815
 51
313.64269192
  0
ARC
  5
2A8
100
AcDbEntity
  8
ALL_ASSEMBLY_MEMBERS
100
AcDbCircle
 62
7
  6
CONTINUOUS
 10
7.2383894642
 20
6.8703888536
 40
0.015
100
AcDbArc
 50
0.0
 51
138.7314307293
  0
ARC
  5
2A9
100
AcDbEntity
  8
ALL_ASSEMBLY_MEMBERS
100
AcDbCircle
 62
7
  6
CONTINUOUS
 10
7.2383894642
 20
5.7869537019
 40
0.015
100
AcDbArc
 50
221.2685692707
 51
360.0
  0
SPLINE
  5
2AA
100
AcDbEntity
  8
ALL_ASSEMBLY_MEMBERS
100
AcDbSpline
 62
7
  6
CONTINUOUS
 70
0
 71
3
 72
11
 73
7
 74
0
 42
0.0000001
 43
0.0000001
 44
0.0000000001
 40
0.0
 40
0.0
 40
0.0
 40
0.0
 40
0.2499894575
 40
0.5
 40
0.7500105425
 40
1.0
 40
1.0
 40
1.0
 40
1.0
 10
4.2548855765
 20
2.8862983984
 30
0.0
 10
4.2317690677
 20
2.87838025
 30
0.0
 10
4.1865621159
 20
2.8593541536
 30
0.0
 10
4.1231982913
 20
2.8220781656
 30
0.0
 10
4.0652906889
 20
2.7767881762
 30
0.0
 10
4.0310181743
 20
2.7417017747
 30
0.0
 10
4.0151777551
 20
2.7230966362
 30
0.0
  0
SPLINE
  5
2AB
100
AcDbEntity
  8
ALL_ASSEMBLY_MEMBERS
100
AcDbSpline
 62
7
  6
CONTINUOUS
 70
0
 71
3
 72
11
 73
7
 74
0
 42
0.0000001
 43
0.0000001
 44
0.0000000001
 40
0.0
 40
0.0
 40
0.0
 40
0.0
 40
0.2499994785
 40
0.5
 40
0.7500005215
 40
1.0
 40
1.0
 40
1.0
 40
1.0
 10
4.8269362148
 20
3.6024360317
 30
0.0
 10
4.7697954182
 20
3.5944861195
 30
0.0
 10
4.6559845625
 20
3.5749655199
 30
0.0
 10
4.4874710797
 20
3.5350184278
 30
0.0
 10
4.321794313
 20
3.4845825972
 30
0.0
 10
4.2136589088
 20
3.444077054
 30
0.0
 10
4.1603004292
 20
3.4221420501
 30
0.0
  0
LINE
  5
2AC
100
AcDbEntity
  8
ALL_ASSEMBLY_MEMBERS
100
AcDbLine
 62
7
  6
CONTINUOUS
 10
5.5803894131
 20
3.6286712778
 11
5.5939328012
 21
3.5528553253
  0
SPLINE
  5
2AD
100
AcDbEntity
  8
ALL_ASSEMBLY_MEMBERS
100
AcDbSpline
 62
7
  6
CONTINUOUS
 70
0
 71
3
 72
18
 73
14
 74
0
 42
0.0000001
 43
0.0000001
 44
0.0000000001
 40
0.0
 40
0.0
 40
0.0
 40
0.0
 40
0.0976453912
 40
0.205166344
 40
0.3214258215
 40
0.4453360599
 40
0.5758634442
 40
0.7120262717
 40
0.7819962683
 40
0.8531855803
 40
0.8892493154
 40
0.9256822957
 40
1.0
 40
1.0
 40
1.0
 40
1.0
 10
5.5939328012
 20
3.5528553253
 30
0.0
 10
5.5952443465
 20
3.5454890217
 30
0.0
 10
5.5980154494
 20
3.5300141315
 30
0.0
 10
5.6024439926
 20
3.5057859712
 30
0.0
 10
5.6073766571
 20
3.4796043353
 30
0.0
 10
5.6128650122
 20
3.451734185
 30
0.0
 10
5.6189789796
 20
3.42243453
 30
0.0
 10
5.6246563911
 20
3.3972680308
 30
0.0
 10
5.6297278326
 20
3.3766313113
 30
0.0
 10
5.6331914908
 20
3.3634997248
 30
0.0
 10
5.6361645431
 20
3.3528983499
 30
0.0
 10
5.6393522306
 20
3.3421095633
 30
0.0
 10
5.6419846869
 20
3.3340379206
 30
0.0
 10
5.6438894642
 20
3.3286712778
 30
0.0
  0
SPLINE
  5
2AE
100
AcDbEntity
  8
ALL_ASSEMBLY_MEMBERS
100
AcDbSpline
 62
7
  6
CONTINUOUS
 70
0
 71
3
 72
10
 73
6
 74
0
 42
0.0000001
 43
0.0000001
 44
0.0000000001
 40
0.0
 40
0.0
 40
0.0
 40
0.0
 40
0.246845858
 40
0.4961792253
 40
1.0
 40
1.0
 40
1.0
 40
1.0
 10
5.6438894642
 20
3.3286712778
 30
0.0
 10
5.6157641411
 20
3.3286712778
 30
0.0
 10
5.5592300281
 20
3.3289470386
 30
0.0
 10
5.4452974143
 20
3.3301242855
 30
0.0
 10
5.3594896497
 20
3.3311856888
 30
0.0
 10
5.3020858823
 20
3.3315197137
 30
0.0
  0
SPLINE
  5
2AF
100
AcDbEntity
  8
ALL_ASSEMBLY_MEMBERS
100
AcDbSpline
 62
7
  6
CONTINUOUS
 70
0
 71
3
 72
18
 73
14
 74
0
 42
0.0000001
 43
0.0000001
 44
0.0000000001
 40
0.0
 40
0.0
 40
0.0
 40
0.0
 40
0.0743149731
 40
0.1107468411
 40
0.1468096021
 40
0.2179973367
 40
0.2879661796
 40
0.4241277668
 40
0.5546551049
 40
0.678566313
 40
0.7948276424
 40
0.9023512446
 40
1.0
 40
1.0
 40
1.0
 40
1.0
 10
5.6438894642
 20
3.3286712778
 30
0.0
 10
5.6457942157
 20
3.3233047078
 30
0.0
 10
5.6484267569
 20
3.315233201
 30
0.0
 10
5.6516148098
 20
3.3044446358
 30
0.0
 10
5.6545883948
 20
3.2938434375
 30
0.0
 10
5.6580530036
 20
3.2807120725
 30
0.0
 10
5.6631265274
 20
3.2600756736
 30
0.0
 10
5.6688074733
 20
3.2349095607
 30
0.0
 10
5.6749269642
 20
3.2056103805
 30
0.0
 10
5.6804218235
 20
3.1777406281
 30
0.0
 10
5.6853616861
 20
3.1515592966
 30
0.0
 10
5.6897978402
 20
3.1273313369
 30
0.0
 10
5.6925743742
 20
3.1118565825
 30
0.0
 10
5.6938886477
 20
3.1044903271
 30
0.0
  0
LINE
  5
2B0
100
AcDbEntity
  8
ALL_ASSEMBLY_MEMBERS
100
AcDbLine
 62
7
  6
CONTINUOUS
 10
5.6938886477
 20
3.1044903271
 11
5.7074669135
 21
3.0286712778
  0
SPLINE
  5
2B1
100
AcDbEntity
  8
ALL_ASSEMBLY_MEMBERS
100
AcDbSpline
 62
7
  6
CONTINUOUS
 70
0
 71
3
 72
24
 73
20
 74
0
 42
0.0000001
 43
0.0000001
 44
0.0000000001
 40
0.0
 40
0.0
 40
0.0
 40
0.0
 40
0.0191877407
 40
0.0750984256
 40
0.1160229363
 40
0.1650332689
 40
0.2216576275
 40
0.2854385891
 40
0.3559029673
 40
0.4324972917
 40
0.5146729703
 40
0.6019704437
 40
0.6939901598
 40
0.7416892009
 40
0.79052293
 40
0.8405391707
 40
0.8918563036
 40
0.9447435778
 40
1.0
 40
1.0
 40
1.0
 40
1.0
 10
5.2058894642
 20
3.6286712778
 30
0.0
 10
5.2063921982
 20
3.6267331562
 30
0.0
 10
5.2083510928
 20
3.619145335
 30
0.0
 10
5.2113333405
 20
3.6074112195
 30
0.0
 10
5.2150518562
 20
3.5926533609
 30
0.0
 10
5.2188101006
 20
3.5778287074
 30
0.0
 10
5.2232097507
 20
3.5607061702
 30
0.0
 10
5.2282638377
 20
3.5414405252
 30
0.0
 10
5.2339838083
 20
3.5201955106
 30
0.0
 10
5.240416075
 20
3.4971552822
 30
0.0
 10
5.2476078383
 20
3.472504728
 30
0.0
 10
5.255669269
 20
3.4464342824
 30
0.0
 10
5.2631180244
 20
3.4239439
 30
0.0
 10
5.2696806596
 20
3.4053942195
 30
0.0
 10
5.2750233514
 20
3.3910644262
 30
0.0
 10
5.2807888755
 20
3.3764921263
 30
0.0
 10
5.2870808991
 20
3.3616780664
 30
0.0
 10
5.2940392437
 20
3.3465590348
 30
0.0
 10
5.2992617206
 20
3.3365468017
 30
0.0
 10
5.3020858823
 20
3.3315197137
 30
0.0
  0
SPLINE
  5
2B2
100
AcDbEntity
  8
ALL_ASSEMBLY_MEMBERS
100
AcDbSpline
 62
7
  6
CONTINUOUS
 70
0
 71
3
 72
26
 73
22
 74
0
 42
0.0000001
 43
0.0000001
 44
0.0000000001
 40
0.0
 40
0.0
 40
0.0
 40
0.0
 40
0.0537825201
 40
0.1054387192
 40
0.1557248887
 40
0.204885827
 40
0.2530217442
 40
0.3001657261
 40
0.3914559284
 40
0.4784619933
 40
0.5607108088
 40
0.6376769002
 40
0.7087497894
 40
0.7733162077
 40
0.8308398562
 40
0.8808002603
 40
0.9226630848
 40
0.9559162664
 40
0.9801483975
 40
0.9949723215
 40
1.0
 40
1.0
 40
1.0
 40
1.0
 10
5.3020858823
 20
3.3315197137
 30
0.0
 10
5.3049151577
 20
3.3264835235
 30
0.0
 10
5.3101685097
 20
3.3164434319
 30
0.0
 10
5.3172308042
 20
3.3012787531
 30
0.0
 10
5.3236921196
 20
3.2863896737
 30
0.0
 10
5.3296873666
 20
3.2717149848
 30
0.0
 10
5.3353154993
 20
3.2572576344
 30
0.0
 10
5.342330046
 20
3.2384864414
 30
0.0
 10
5.3504509304
 20
3.2156740426
 30
0.0
 10
5.3594641858
 20
3.1891808713
 30
0.0
 10
5.3677188732
 20
3.1640565195
 30
0.0
 10
5.3752873249
 20
3.1405087833
 30
0.0
 10
5.3821800772
 20
3.1187390257
 30
0.0
 10
5.3884071084
 20
3.0989489443
 30
0.0
 10
5.3939424015
 20
3.0813183954
 30
0.0
 10
5.398761916
 20
3.066018963
 30
0.0
 10
5.402830078
 20
3.053215896
 30
0.0
 10
5.4061173273
 20
3.0430643222
 30
0.0
 10
5.4085514096
 20
3.0356892226
 30
0.0
 10
5.4100567234
 20
3.0312000435
 30
0.0
 10
5.4107451498
 20
3.0291820807
 30
0.0
 10
5.4109203035
 20
3.0286712778
 30
0.0
  0
SPLINE
  5
2B3
100
AcDbEntity
  8
ALL_ASSEMBLY_MEMBERS
100
AcDbSpline
 62
7
  6
CONTINUOUS
 70
0
 71
3
 72
10
 73
6
 74
0
 42
0.0000001
 43
0.0000001
 44
0.0000000001
 40
0.0
 40
0.0
 40
0.0
 40
0.0
 40
0.5006340585
 40
0.7507235469
 40
1.0
 40
1.0
 40
1.0
 40
1.0
 10
5.3020858823
 20
3.3315197137
 30
0.0
 10
5.2434614083
 20
3.3318608418
 30
0.0
 10
5.1555401133
 20
3.3317890523
 30
0.0
 10
5.0384639612
 20
3.3290894583
 30
0.0
 10
4.9800334984
 20
3.3266260747
 30
0.0
 10
4.9508850084
 20
3.3250535086
 30
0.0
  0
SPLINE
  5
2B4
100
AcDbEntity
  8
ALL_ASSEMBLY_MEMBERS
100
AcDbSpline
 62
7
  6
CONTINUOUS
 70
0
 71
3
 72
26
 73
22
 74
0
 42
0.0000001
 43
0.0000001
 44
0.0000000001
 40
0.0
 40
0.0
 40
0.0
 40
0.0
 40
0.0554833479
 40
0.1078864269
 40
0.1584176751
 40
0.2075070018
 40
0.2553639681
 40
0.3020956374
 40
0.3923769748
 40
0.4783374848
 40
0.5596413442
 40
0.635862102
 40
0.7064395349
 40
0.7707872399
 40
0.8283497416
 40
0.8785739243
 40
0.9208843105
 40
0.9547104953
 40
0.9795210438
 40
0.9947925608
 40
1.0
 40
1.0
 40
1.0
 40
1.0
 10
4.9508850084
 20
3.3250535086
 30
0.0
 10
4.9547554157
 20
3.3201726011
 30
0.0
 10
4.9619878481
 20
3.3104457967
 30
0.0
 10
4.9718659692
 20
3.2956506005
 30
0.0
 10
4.9809263652
 20
3.2811838576
 30
0.0
 10
4.9893777154
 20
3.2669441019
 30
0.0
 10
4.9973550398
 20
3.2529228639
 30
0.0
 10
5.0073479458
 20
3.2347303867
 30
0.0
 10
5.0190279011
 20
3.212586633
 30
0.0
 10
5.0321400549
 20
3.1868146305
 30
0.0
 10
5.0442778108
 20
3.1623201213
 30
0.0
 10
5.0555137586
 20
3.1393070196
 30
0.0
 10
5.0658409661
 20
3.1179689323
 30
0.0
 10
5.0752458768
 20
3.098511745
 30
0.0
 10
5.083669984
 20
3.0811185087
 30
0.0
 10
5.0910545257
 20
3.0659709219
 30
0.0
 10
5.097325655
 20
3.0532453457
 30
0.0
 10
5.1024130667
 20
3.0431176407
 30
0.0
 10
5.1061942375
 20
3.0357313239
 30
0.0
 10
5.1085401971
 20
3.0312200366
 30
0.0
 10
5.1096150696
 20
3.0291875394
 30
0.0
 10
5.1098894642
 20
3.0286712778
 30
0.0
  0
SPLINE
  5
2B5
100
AcDbEntity
  8
ALL_ASSEMBLY_MEMBERS
100
AcDbSpline
 62
7
  6
CONTINUOUS
 70
0
 71
3
 72
27
 73
23
 74
0
 42
0.0000001
 43
0.0000001
 44
0.0000000001
 40
0.0
 40
0.0
 40
0.0
 40
0.0
 40
0.0182093145
 40
0.0405680917
 40
0.0714048574
 40
0.1104349592
 40
0.157310033
 40
0.2116734286
 40
0.2731939969
 40
0.341540402
 40
0.4163450541
 40
0.4972765093
 40
0.5841568378
 40
0.6769279511
 40
0.7255937624
 40
0.7759079227
 40
0.8280360676
 40
0.882260771
 40
0.9102884317
 40
0.9391165286
 40
0.9689484723
 40
1.0
 40
1.0
 40
1.0
 40
1.0
 10
4.8269362148
 20
3.6024360317
 30
0.0
 10
4.8274992089
 20
3.6006706786
 30
0.0
 10
4.8287552214
 20
3.5967382438
 30
0.0
 10
4.8309708571
 20
3.5898182382
 30
0.0
 10
4.833836909
 20
3.5808818452
 30
0.0
 10
4.8374748723
 20
3.569573096
 30
0.0
 10
4.8419178571
 20
3.5560085778
 30
0.0
 10
4.847193931
 20
3.5403090808
 30
0.0
 10
4.8533479565
 20
3.5226005388
 30
0.0
 10
4.8604242882
 20
3.5030117363
 30
0.0
 10
4.8685118855
 20
3.4816907095
 30
0.0
 10
4.8777053885
 20
3.4587758959
 30
0.0
 10
4.8881833051
 20
3.4344141056
 30
0.0
 10
4.8979876973
 20
3.4133456394
 30
0.0
 10
4.9067140106
 20
3.3958919507
 30
0.0
 10
4.9139011739
 20
3.3822967465
 30
0.0
 10
4.9217167719
 20
3.3683993841
 30
0.0
 10
4.9287931743
 20
3.3566950953
 30
0.0
 10
4.9348969733
 20
3.3471806305
 30
0.0
 10
4.9398337467
 20
3.3398689766
 30
0.0
 10
4.9451533979
 20
3.3324486167
 30
0.0
 10
4.9489217567
 20
3.3275293333
 30
0.0
 10
4.9508850084
 20
3.3250535086
 30
0.0
  0
SPLINE
  5
2B6
100
AcDbEntity
  8
ALL_ASSEMBLY_MEMBERS
100
AcDbSpline
 62
7
  6
CONTINUOUS
 70
0
 71
3
 72
28
 73
24
 74
0
 42
0.0000001
 43
0.0000001
 44
0.0000000001
 40
0.0
 40
0.0
 40
0.0
 40
0.0
 40
0.0321096116
 40
0.062460935
 40
0.0913916324
 40
0.1192307507
 40
0.1725835623
 40
0.223407327
 40
0.2721914417
 40
0.3192393338
 40
0.4089121696
 40
0.4932257745
 40
0.5723085611
 40
0.6460985921
 40
0.714272577
 40
0.7764255684
 40
0.8320973323
 40
0.8808024767
 40
0.922011378
 40
0.9551671662
 40
0.9796454715
 40
0.9948040972
 40
1.0
 40
1.0
 40
1.0
 40
1.0
 10
4.3428127849
 20
3.213680686
 30
0.0
 10
4.3456659005
 20
3.2116063252
 30
0.0
 10
4.3511625299
 20
3.2074971401
 30
0.0
 10
4.3590444471
 20
3.2012762912
 30
0.0
 10
4.3664148084
 20
3.195169196
 30
0.0
 10
4.3755733168
 20
3.187263993
 30
0.0
 10
4.3863370221
 20
3.1775406851
 30
0.0
 10
4.398499437
 20
3.1659431682
 30
0.0
 10
4.4099133492
 20
3.1545707042
 30
0.0
 10
4.4240768689
 20
3.1399165793
 30
0.0
 10
4.4405566445
 20
3.1220784264
 30
0.0
 10
4.4589718269
 20
3.1012481212
 30
0.0
 10
4.4758941117
 20
3.0814329399
 30
0.0
 10
4.4914524779
 20
3.0627874164
 30
0.0
 10
4.505674252
 20
3.0454501995
 30
0.0
 10
4.5185587605
 20
3.0295909141
 30
0.0
 10
4.5300526711
 20
3.0153576979
 30
0.0
 10
4.5400934975
 20
3.0029085173
 30
0.0
 10
4.5485977222
 20
2.9923978063
 30
0.0
 10
4.5554744843
 20
2.9839940643
 30
0.0
 10
4.5605730793
 20
2.9778333346
 30
0.0
 10
4.5637306662
 20
2.9740533917
 30
0.0
 10
4.5651725964
 20
2.9723442926
 30
0.0
 10
4.5655413187
 20
2.9719085507
 30
0.0
  0
SPLINE
  5
2B7
100
AcDbEntity
  8
ALL_ASSEMBLY_MEMBERS
100
AcDbSpline
 62
7
  6
CONTINUOUS
 70
0
 71
3
 72
15
 73
11
 74
0
 42
0.0000001
 43
0.0000001
 44
0.0000000001
 40
0.0
 40
0.0
 40
0.0
 40
0.0
 40
0.1279174388
 40
0.2551057919
 40
0.3814520061
 40
0.5068857642
 40
0.6313866981
 40
0.7549920362
 40
0.8778044845
 40
1.0
 40
1.0
 40
1.0
 40
1.0
 10
4.9508850084
 20
3.3250535086
 30
0.0
 10
4.924464412
 20
3.3236281129
 30
0.0
 10
4.8718016469
 20
3.320223353
 30
0.0
 10
4.7932085493
 20
3.3131517843
 30
0.0
 10
4.7153615058
 20
3.3038547407
 30
0.0
 10
4.6384126504
 20
3.29205807
 30
0.0
 10
4.5625137991
 20
3.2774869908
 30
0.0
 10
4.4878161361
 20
3.2598655112
 30
0.0
 10
4.4144749636
 20
3.2389181616
 30
0.0
 10
4.3664928314
 20
3.2225183776
 30
0.0
 10
4.3428127849
 20
3.213680686
 30
0.0
  0
SPLINE
  5
2B8
100
AcDbEntity
  8
ALL_ASSEMBLY_MEMBERS
100
AcDbSpline
 62
7
  6
CONTINUOUS
 70
0
 71
3
 72
27
 73
23
 74
0
 42
0.0000001
 43
0.0000001
 44
0.0000000001
 40
0.0
 40
0.0
 40
0.0
 40
0.0
 40
0.0759315521
 40
0.1101593088
 40
0.1425669119
 40
0.2034037054
 40
0.2598639826
 40
0.3127775122
 40
0.3626967551
 40
0.4551316497
 40
0.5391352313
 40
0.6156231887
 40
0.6852201973
 40
0.7481377499
 40
0.8044484832
 40
0.8540913077
 40
0.8969535177
 40
0.9328503069
 40
0.9615369748
 40
0.9825976664
 40
0.9955724077
 40
1.0
 40
1.0
 40
1.0
 40
1.0
 10
4.0304479766
 20
3.0435831665
 30
0.0
 10
4.0366464788
 20
3.0404423192
 30
0.0
 10
4.0455629347
 20
3.0357324979
 30
0.0
 10
4.0569372141
 20
3.0293404847
 30
0.0
 10
4.0670242711
 20
3.0234801864
 30
0.0
 10
4.0787586844
 20
3.0164071735
 30
0.0
 10
4.0919348156
 20
3.0080974453
 30
0.0
 10
4.104131467
 20
3.0001120087
 30
0.0
 10
4.1189330326
 20
2.9900988801
 30
0.0
 10
4.1358759411
 20
2.9781772698
 30
0.0
 10
4.1545519425
 20
2.9645020053
 30
0.0
 10
4.1713476957
 20
2.951801559
 30
0.0
 10
4.1864824926
 20
2.9401062547
 30
0.0
 10
4.2000736408
 20
2.9294342648
 30
0.0
 10
4.2121887593
 20
2.9198397135
 30
0.0
 10
4.2228450054
 20
2.9113593654
 30
0.0
 10
4.2320405257
 20
2.9040436606
 30
0.0
 10
4.2397508677
 20
2.897941518
 30
0.0
 10
4.2459310948
 20
2.8931212151
 30
0.0
 10
4.2504823458
 20
2.8896235181
 30
0.0
 10
4.2532860842
 20
2.8874953343
 30
0.0
 10
4.2545607889
 20
2.8865406632
 30
0.0
 10
4.2548855765
 20
2.8862983984
 30
0.0
  0
SPLINE
  5
2B9
100
AcDbEntity
  8
ALL_ASSEMBLY_MEMBERS
100
AcDbSpline
 62
7
  6
CONTINUOUS
 70
0
 71
3
 72
26
 73
22
 74
0
 42
0.0000001
 43
0.0000001
 44
0.0000000001
 40
0.0
 40
0.0
 40
0.0
 40
0.0
 40
0.0162316392
 40
0.0637611933
 40
0.0987334065
 40
0.1409743822
 40
0.190379221
 40
0.2468966325
 40
0.3105078997
 40
0.3812602748
 40
0.4593043709
 40
0.5451062705
 40
0.639370316
 40
0.6900903705
 40
0.7436068856
 40
0.8003514073
 40
0.8609760547
 40
0.8930199228
 40
0.9266046544
 40
0.962128612
 40
1.0
 40
1.0
 40
1.0
 40
1.0
 10
4.1603004292
 20
3.4221420501
 30
0.0
 10
4.1611627904
 20
3.4209068051
 30
0.0
 10
4.1645426592
 20
3.4160491847
 30
0.0
 10
4.1697377277
 20
3.4085004293
 30
0.0
 10
4.1762764543
 20
3.3989461342
 30
0.0
 10
4.1829520775
 20
3.3892746517
 30
0.0
 10
4.1908453751
 20
3.3780142106
 30
0.0
 10
4.2000122533
 20
3.3652252241
 30
0.0
 10
4.2105170026
 20
3.3509588883
 30
0.0
 10
4.2224780033
 20
3.3352867783
 30
0.0
 10
4.2360401163
 20
3.3182503992
 30
0.0
 10
4.2514529914
 20
3.2999075744
 30
0.0
 10
4.2657320383
 20
3.2839355576
 30
0.0
 10
4.278393778
 20
3.2705514005
 30
0.0
 10
4.2889040096
 20
3.2599303037
 30
0.0
 10
4.3003401164
 20
3.2489385136
 30
0.0
 10
4.3106181196
 20
3.2396256694
 30
0.0
 10
4.3194850682
 20
3.2319643979
 30
0.0
 10
4.3267152107
 20
3.2259746185
 30
0.0
 10
4.3345121332
 20
3.2198254601
 30
0.0
 10
4.3399698608
 20
3.215747637
 30
0.0
 10
4.3428127849
 20
3.213680686
 30
0.0
  0
SPLINE
  5
2BA
100
AcDbEntity
  8
ALL_ASSEMBLY_MEMBERS
100
AcDbSpline
 62
7
  6
CONTINUOUS
 70
0
 71
3
 72
16
 73
12
 74
0
 42
0.0000001
 43
0.0000001
 44
0.0000000001
 40
0.0
 40
0.0
 40
0.0
 40
0.0
 40
0.1044776535
 40
0.196055755
 40
0.2787826262
 40
0.3551656495
 40
0.4927975811
 40
0.6148655103
 40
0.7249440855
 40
0.8250789174
 40
1.0
 40
1.0
 40
1.0
 40
1.0
 10
3.7914531463
 20
2.8188045212
 30
0.0
 10
3.7968155224
 20
2.8168867752
 30
0.0
 10
3.8068557843
 20
2.8132248093
 30
0.0
 10
3.8210608365
 20
2.8078256116
 30
0.0
 10
3.8337828765
 20
2.8028375563
 30
0.0
 10
3.8487956514
 20
2.7968162894
 30
0.0
 10
3.8657240162
 20
2.7898120518
 30
0.0
 10
3.8842588362
 20
2.78189063
 30
0.0
 10
3.9008518045
 20
2.7746286169
 30
0.0
 10
3.9200296401
 20
2.7660883903
 30
0.0
 10
3.9336791333
 20
2.7598845025
 30
0.0
 10
3.9423508966
 20
2.7559205715
 30
0.0
  0
LINE
  5
2BB
100
AcDbEntity
  8
ALL_ASSEMBLY_MEMBERS
100
AcDbLine
 62
7
  6
CONTINUOUS
 10
3.9423508966
 20
2.7559205715
 11
3.9453297376
 21
2.7545580353
  0
SPLINE
  5
2BC
100
AcDbEntity
  8
ALL_ASSEMBLY_MEMBERS
100
AcDbSpline
 62
7
  6
CONTINUOUS
 70
0
 71
3
 72
15
 73
11
 74
0
 42
0.0000001
 43
0.0000001
 44
0.0000000001
 40
0.0
 40
0.0
 40
0.0
 40
0.0
 40
0.2277427383
 40
0.4256004663
 40
0.5946684387
 40
0.7354315101
 40
0.847844463
 40
0.9308723095
 40
0.9823417326
 40
1.0
 40
1.0
 40
1.0
 40
1.0
 10
3.9453297376
 20
2.7545580353
 30
0.0
 10
3.9506179622
 20
2.7521376649
 30
0.0
 10
3.9604943856
 20
2.7476012376
 30
0.0
 10
3.9742958971
 20
2.7412664953
 30
0.0
 10
3.9860899806
 20
2.7358828645
 30
0.0
 10
3.9959167297
 20
2.7314440734
 30
0.0
 10
4.0037645586
 20
2.7279619718
 30
0.0
 10
4.0095519064
 20
2.7254591877
 30
0.0
 10
4.0131297632
 20
2.7239436344
 30
0.0
 10
4.0147607189
 20
2.7232681721
 30
0.0
 10
4.0151777551
 20
2.7230966362
 30
0.0
  0
SPLINE
  5
2BD
100
AcDbEntity
  8
ALL_ASSEMBLY_MEMBERS
100
AcDbSpline
 62
7
  6
CONTINUOUS
 70
0
 71
3
 72
11
 73
7
 74
0
 42
0.0000001
 43
0.0000001
 44
0.0000000001
 40
0.0
 40
0.0
 40
0.0
 40
0.0
 40
0.2491927297
 40
0.498456838
 40
0.7486717882
 40
1.0
 40
1.0
 40
1.0
 40
1.0
 10
4.3428127849
 20
3.213680686
 30
0.0
 10
4.3150447818
 20
3.2033173175
 30
0.0
 10
4.260169041
 20
3.1807360819
 30
0.0
 10
4.1803590095
 20
3.1410671945
 30
0.0
 10
4.1035140173
 20
3.0954240122
 30
0.0
 10
4.0544416572
 20
3.0614125055
 30
0.0
 10
4.0304479766
 20
3.0435831665
 30
0.0
  0
SPLINE
  5
2BE
100
AcDbEntity
  8
ALL_ASSEMBLY_MEMBERS
100
AcDbSpline
 62
7
  6
CONTINUOUS
 70
0
 71
3
 72
25
 73
21
 74
0
 42
0.0000001
 43
0.0000001
 44
0.0000000001
 40
0.0
 40
0.0
 40
0.0
 40
0.0
 40
0.0854755115
 40
0.1585333107
 40
0.2238803423
 40
0.2834484328
 40
0.3894616575
 40
0.4823313189
 40
0.5650013579
 40
0.6389850841
 40
0.7054087838
 40
0.7648308014
 40
0.8176126784
 40
0.8638972826
 40
0.9037473174
 40
0.937123092
 40
0.9638881152
 40
0.9836195339
 40
0.9958221424
 40
1.0
 40
1.0
 40
1.0
 40
1.0
 10
3.7480553021
 20
2.7654708477
 30
0.0
 10
3.7547410478
 20
2.7632253203
 30
0.0
 10
3.7671147096
 20
2.7589806027
 30
0.0
 10
3.7845036711
 20
2.7527448802
 30
0.0
 10
3.7998290563
 20
2.7470900736
 30
0.0
 10
3.8176507803
 20
2.7403474457
 30
0.0
 10
3.8375181265
 20
2.7325960101
 30
0.0
 10
3.8590717172
 20
2.7239265346
 30
0.0
 10
3.8781162949
 20
2.7161031231
 30
0.0
 10
3.8951014535
 20
2.7090101688
 30
0.0
 10
3.910295235
 20
2.7026058189
 30
0.0
 10
3.9238657902
 20
2.6968545689
 30
0.0
 10
3.9359062884
 20
2.6917515884
 30
0.0
 10
3.9464639424
 20
2.6872883474
 30
0.0
 10
3.955555201
 20
2.6834686831
 30
0.0
 10
3.9631726625
 20
2.6802993084
 30
0.0
 10
3.9692721306
 20
2.6778031414
 30
0.0
 10
3.9737651105
 20
2.6759943555
 30
0.0
 10
3.9765344928
 20
2.6748947782
 30
0.0
 10
3.9777932087
 20
2.6744024104
 30
0.0
 10
3.978114438
 20
2.6742773223
 30
0.0
  0
SPLINE
  5
2BF
100
AcDbEntity
  8
ALL_ASSEMBLY_MEMBERS
100
AcDbSpline
 62
7
  6
CONTINUOUS
 70
0
 71
3
 72
25
 73
21
 74
0
 42
0.0000001
 43
0.0000001
 44
0.0000000001
 40
0.0
 40
0.0
 40
0.0
 40
0.0
 40
0.0172610969
 40
0.0667034741
 40
0.1024350594
 40
0.1451323158
 40
0.1946122905
 40
0.250765482
 40
0.3135366843
 40
0.3830048975
 40
0.4593949847
 40
0.5433529947
 40
0.6358321531
 40
0.685824687
 40
0.7388575601
 40
0.7954961002
 40
0.8565868364
 40
0.8891565965
 40
0.9235755782
 40
1.0
 40
1.0
 40
1.0
 40
1.0
 10
3.8153062202
 20
3.2092423439
 30
0.0
 10
3.8164450163
 20
3.2081637232
 30
0.0
 10
3.8208407805
 20
3.2039902787
 30
0.0
 10
3.8275666059
 20
3.1975552972
 30
0.0
 10
3.8359456104
 20
3.1895048086
 30
0.0
 10
3.8443574409
 20
3.1814835934
 30
0.0
 10
3.8541752068
 20
3.1722480242
 30
0.0
 10
3.865424907
 20
3.1618732871
 30
0.0
 10
3.8781498412
 20
3.1504204424
 30
0.0
 10
3.8924463324
 20
3.1379679943
 30
0.0
 10
3.9084573946
 20
3.124557565
 30
0.0
 10
3.9264327742
 20
3.1102455154
 30
0.0
 10
3.9428906495
 20
3.097890159
 30
0.0
 10
3.9573659574
 20
3.0875889558
 30
0.0
 10
3.9693531588
 20
3.0794132558
 30
0.0
 10
3.9823609599
 20
3.0709501255
 30
0.0
 10
3.9939914264
 20
3.0637870145
 30
0.0
 10
4.0040172524
 20
3.0578751622
 30
0.0
 10
4.0153504596
 20
3.0514404928
 30
0.0
 10
4.0242531378
 20
3.0467221575
 30
0.0
 10
4.0304479766
 20
3.0435831665
 30
0.0
  0
SPLINE
  5
2C0
100
AcDbEntity
  8
ALL_ASSEMBLY_MEMBERS
100
AcDbSpline
 62
7
  6
CONTINUOUS
 70
0
 71
3
 72
10
 73
6
 74
0
 42
0.0000001
 43
0.0000001
 44
0.0000000001
 40
0.0
 40
0.0
 40
0.0
 40
0.0
 40
0.4990466424
 40
0.749472436
 40
1.0
 40
1.0
 40
1.0
 40
1.0
 10
4.0304479766
 20
3.0435831665
 30
0.0
 10
3.9865627596
 20
3.0109727293
 30
0.0
 10
3.9235582041
 20
2.9579320944
 30
0.0
 10
3.8459575716
 20
2.8805496701
 30
0.0
 10
3.8092469723
 20
2.839702981
 30
0.0
 10
3.7914531463
 20
2.8188045212
 30
0.0
  0
SPLINE
  5
2C1
100
AcDbEntity
  8
ALL_ASSEMBLY_MEMBERS
100
AcDbSpline
 62
7
  6
CONTINUOUS
 70
0
 71
3
 72
14
 73
10
 74
0
 42
0.0000001
 43
0.0000001
 44
0.0000000001
 40
0.0
 40
0.0
 40
0.0
 40
0.0
 40
0.0690143118
 40
0.1520039535
 40
0.2644651847
 40
0.405331305
 40
0.574490939
 40
0.7723689245
 40
1.0
 40
1.0
 40
1.0
 40
1.0
 10
3.5755080522
 20
2.9284180521
 30
0.0
 10
3.5769759956
 20
2.9274698379
 30
0.0
 10
3.5802102212
 20
2.9253830755
 30
0.0
 10
3.5858395287
 20
2.9217558437
 30
0.0
 10
3.5929980789
 20
2.917142873
 30
0.0
 10
3.6020181904
 20
2.9113906061
 30
0.0
 10
3.6129270719
 20
2.9045782237
 30
0.0
 10
3.6257997953
 20
2.8967647468
 30
0.0
 10
3.635096368
 20
2.891316781
 30
0.0
 10
3.6400958658
 20
2.8884481931
 30
0.0
  0
SPLINE
  5
2C2
100
AcDbEntity
  8
ALL_ASSEMBLY_MEMBERS
100
AcDbSpline
 62
7
  6
CONTINUOUS
 70
0
 71
3
 72
17
 73
13
 74
0
 42
0.0000001
 43
0.0000001
 44
0.0000000001
 40
0.0
 40
0.0
 40
0.0
 40
0.0
 40
0.1730893724
 40
0.2725704953
 40
0.3822236399
 40
0.5041114101
 40
0.64191735
 40
0.7186028164
 40
0.7593293456
 40
0.8018565655
 40
0.8941963299
 40
1.0
 40
1.0
 40
1.0
 40
1.0
 10
3.6400958658
 20
2.8884481931
 30
0.0
 10
3.6484446794
 20
2.8836578509
 30
0.0
 10
3.6617045276
 20
2.8763075746
 30
0.0
 10
3.6805515526
 20
2.8664779136
 30
0.0
 10
3.6970317287
 20
2.8582737183
 30
0.0
 10
3.7156075978
 20
2.8495062243
 30
0.0
 10
3.732710547
 20
2.8419244292
 30
0.0
 10
3.7457926309
 20
2.8364197896
 30
0.0
 10
3.754024757
 20
2.8330522636
 30
0.0
 10
3.763086859
 20
2.8294149762
 30
0.0
 10
3.7755673621
 20
2.8245799118
 30
0.0
 10
3.7859130404
 20
2.8207858286
 30
0.0
 10
3.7914531463
 20
2.8188045212
 30
0.0
  0
SPLINE
  5
2C3
100
AcDbEntity
  8
ALL_ASSEMBLY_MEMBERS
100
AcDbSpline
 62
7
  6
CONTINUOUS
 70
0
 71
3
 72
24
 73
20
 74
0
 42
0.0000001
 43
0.0000001
 44
0.0000000001
 40
0.0
 40
0.0
 40
0.0
 40
0.0
 40
0.0150061295
 40
0.0580835271
 40
0.0893114635
 40
0.1268999946
 40
0.1709481653
 40
0.2216639959
 40
0.2793423502
 40
0.3445087301
 40
0.4179011516
 40
0.500859991
 40
0.5951430933
 40
0.6474476104
 40
0.7040234617
 40
0.7657123466
 40
0.8337448407
 40
0.9101800787
 40
1.0
 40
1.0
 40
1.0
 40
1.0
 10
3.5344671828
 20
2.8627389316
 30
0.0
 10
3.5354882551
 20
2.8621552464
 30
0.0
 10
3.5394408811
 20
2.8598967206
 30
0.0
 10
3.5455209286
 20
2.8564280217
 30
0.0
 10
3.5531416225
 20
2.8520880376
 30
0.0
 10
3.5608515963
 20
2.8477512203
 30
0.0
 10
3.5699312776
 20
2.8427344373
 30
0.0
 10
3.5804461565
 20
2.8370603823
 30
0.0
 10
3.5924905879
 20
2.8307370065
 30
0.0
 10
3.6062075439
 20
2.8237786865
 30
0.0
 10
3.6218120599
 20
2.8161655744
 30
0.0
 10
3.6396230872
 20
2.8078774468
 30
0.0
 10
3.6560807927
 20
2.8006061996
 30
0.0
 10
3.6707461728
 20
2.7944025404
 30
0.0
 10
3.6831196039
 20
2.7893402103
 30
0.0
 10
3.6967010124
 20
2.7839777962
 30
0.0
 10
3.7118068153
 20
2.7782415106
 30
0.0
 10
3.7290608234
 20
2.7719556936
 30
0.0
 10
3.7413818811
 20
2.7677122356
 30
0.0
 10
3.7480553021
 20
2.7654708477
 30
0.0
  0
SPLINE
  5
2C4
100
AcDbEntity
  8
ALL_ASSEMBLY_MEMBERS
100
AcDbSpline
 62
7
  6
CONTINUOUS
 70
0
 71
3
 72
11
 73
7
 74
0
 42
0.0000001
 43
0.0000001
 44
0.0000000001
 40
0.0
 40
0.0
 40
0.0
 40
0.0
 40
0.2521224973
 40
0.5031414453
 40
0.7525903437
 40
1.0
 40
1.0
 40
1.0
 40
1.0
 10
3.7480553021
 20
2.7654708477
 30
0.0
 10
3.7315234098
 20
2.7442063071
 30
0.0
 10
3.699629416
 20
2.7009041307
 30
0.0
 10
3.6553375823
 20
2.6337618578
 30
0.0
 10
3.6148308796
 20
2.5648538056
 30
0.0
 10
3.5903423115
 20
2.5177270915
 30
0.0
 10
3.5787852359
 20
2.4939563282
 30
0.0
  0
ENDSEC
  0
SECTION
  2
OBJECTS
  0
DICTIONARY
  5
C
100
AcDbDictionary
280
0
281
1
  3
ACAD_GROUP
350
D
  3
ACAD_MLINESTYLE
350
17
  3
ACAD_LAYOUT
350
1A
  3
ACAD_PLOTSETTINGS
350
19
  3
ACAD_PLOTSTYLENAME
350
E
  0
DICTIONARY
  5
D
102
{ACAD_REACTORS
330
C
102
}
100
AcDbDictionary
280
0
281
1
  0
ACDBDICTIONARYWDFLT
  5
E
102
{ACAD_REACTORS
330
C
102
}
100
AcDbDictionary
281
1
  3
Normal
350
F
100
AcDbDictionaryWithDefault
340
F
  0
DICTIONARY
  5
17
102
{ACAD_REACTORS
330
C
102
}
100
AcDbDictionary
280
0
281
1
  3
Standard
350
18
  0
DICTIONARY
  5
19
102
{ACAD_REACTORS
330
C
102
}
100
AcDbDictionary
281
1
  0
DICTIONARY
  5
1A
102
{ACAD_REACTORS
330
C
102
}
100
AcDbDictionary
281
1
  3
Model
350
2C5
  3
Layout1
350
2C6
  0
ACDBPLACEHOLDER
  5
F
102
{ACAD_REACTORS
330
E
102
}
  0
MLINESTYLE
  5
18
102
{ACAD_REACTORS
330
17
102
}
100
AcDbMlineStyle
  2
STANDARD
 70
0
  3

 62
256
 51
90.0
 52
90.0
 71
2
 49
0.5
 62
256
  6
BYLAYER
 49
-0.5
 62
256
  6
BYLAYER
  0
LAYOUT
  5
2C5
102
{ACAD_REACTORS
330
1A
102
}
100
AcDbPlotSettings
  1

  2
none_device
  4
ANSI_A_(11.00_x_8.50_Inches)
  6

 40
0.0
 41
0.0
 42
0.0
 43
0.0
 44
279.4
 45
215.9
 46
0.0
 47
0.0
 48
0.0
 49
0.0
140
0.0
141
0.0
142
1.0
143
1.0
 70
1024
 72
0
 73
0
 74
0
  7

 75
0
147
1.0
148
0.0
149
0.0
100
AcDbLayout
  1
Model
 70
0
 71
0
 10
0.0
 20
0.0
 11
11.0
 21
8.5
 12
0.0
 22
0.0
 32
0.0
 14
0.0
 24
0.0
 34
0.0
 15
0.0
 25
0.0
 35
0.0
146
0.0
 13
0.0
 23
0.0
 33
0.0
 16
1.0
 26
0.0
 36
0.0
 17
0.0
 27
1.0
 37
0.0
 76
0
330
21D
345
0
346
0
  0
LAYOUT
  5
2C6
102
{ACAD_REACTORS
330
1A
102
}
100
AcDbPlotSettings
  1

  2
none_device
  4
ANSI_A_(11.00_x_8.50_Inches)
  6

 40
0.0
 41
0.0
 42
0.0
 43
0.0
 44
279.4
 45
215.9
 46
0.0
 47
0.0
 48
0.0
 49
0.0
140
0.0
141
0.0
142
1.0
143
1.0
 70
0
 72
0
 73
0
 74
0
  7

 75
0
147
1.0
148
0.0
149
0.0
100
AcDbLayout
  1
Layout1
 70
0
 71
1
 10
0.0
 20
0.0
 11
11.0
 21
8.5
 12
0.0
 22
0.0
 32
0.0
 14
0.0
 24
0.0
 34
0.0
 15
0.0
 25
0.0
 35
0.0
146
0.0
 13
0.0
 23
0.0
 33
0.0
 16
1.0
 26
0.0
 36
0.0
 17
0.0
 27
1.0
 37
0.0
 76
0
330
21E
345
0
346
0
  0
ENDSEC
  0
EOF
