999
DXF file: E:\BT Custom\CADOUTPUT\_RIGHT.dxf
999
Pro/ENGINEER 2018400 by Parametric Technology Corporation
  0
SECTION
  2
HEADER
  9
$ACADVER
  1
AC1018
  9
$DWGCODEPAGE
  3
ANSI_1252
  9
$EXTMAX
 10
22.0
 20
17.0
 30
0.0
  9
$EXTMIN
 10
0.0
 20
0.0
 30
0.0
  9
$LIMMIN
 10
0.0
 20
0.0
  9
$LIMMAX
 10
22.0
 20
17.0
  9
$VIEWCTR
 10
11.0
 20
8.5
  9
$VIEWSIZE
 40
17.0
  9
$CLAYER
  8
0
  9
$LTSCALE
 40
1.21
  9
$CELTYPE
  6
BYLAYER
  9
$DIMSCALE
 40
1.0
  9
$DIMASZ
 40
0.1
  9
$DIMEXO
 40
0.0625
  9
$DIMDLI
 40
0.836
  9
$DIMEXE
 40
0.125
  9
$DIMCEN
 40
0.198
  9
$DIMLFAC
 40
1.0
  9
$DIMBLK
  1
_FILLED
  9
$DIMALT
 70
1
  9
$DIMALTD
 70
2
  9
$DIMALTTD
 70
2
  9
$DIMALTF
 40
25.4
  9
$DIMTXT
 40
0.08
  9
$DIMTOL
 70
1
  9
$DIMLIM
 70
0
  9
$DIMTFAC
 40
1.0
  9
$DIMTP
 40
0.001
  9
$DIMTM
 40
0.001
  9
$DIMGAP
 40
0.09
  9
$DIMDSEP
 70
46
  9
$AUNITS
 70
0
  9
$PDMODE
 70
3
  9
$PDSIZE
 40
0.06
  9
$HANDSEED
  5
2E4
  9
$TILEMODE
 70
1
  9
$MEASUREMENT
 70
0
  9
$INSUNITS
 70
1
  0
ENDSEC
  0
SECTION
  2
CLASSES
  0
CLASS
  1
ACDBDICTIONARYWDFLT
  2
AcDbDictionaryWithDefault
  3
AutoCAD 2000
 90
0
 91
1
280
0
281
0
  0
CLASS
  1
ACDBPLACEHOLDER
  2
AcDbPlaceHolder
  3
AutoCAD 2000
 90
0
 91
1
280
0
281
0
  0
CLASS
  1
LAYOUT
  2
AcDbLayout
  3
AutoCAD 2000
 90
0
 91
0
280
0
281
0
  0
ENDSEC
  0
SECTION
  2
TABLES
  0
TABLE
  2
VPORT
  5
8
100
AcDbSymbolTable
 70
2
  0
VPORT
  5
1F4
100
AcDbSymbolTableRecord
100
AcDbViewportTableRecord
  2
*ACTIVE
 70
0
 10
0.0
 20
0.0
 11
1.0
 21
1.0
 12
11.0
 22
8.5
 13
0.0
 23
0.0
 14
1.0
 24
1.0
 15
0.0
 25
0.0
 16
0.0
 26
0.0
 36
1.0
 17
0.0
 27
0.0
 37
0.0
 40
17.0
 41
1.2941176471
 42
50.0
 43
0.0
 44
0.0
 50
0.0
 51
0.0
 71
0
 72
100
 73
1
 74
1
 75
0
 76
0
 77
0
 78
0
  0
ENDTAB
  0
TABLE
  2
LTYPE
  5
5
100
AcDbSymbolTable
 70
6
  0
LTYPE
  5
14
100
AcDbSymbolTableRecord
100
AcDbLinetypeTableRecord
  2
BYBLOCK
 70
0
  3

 72
65
 73
0
 40
0.0
  0
LTYPE
  5
15
100
AcDbSymbolTableRecord
100
AcDbLinetypeTableRecord
  2
BYLAYER
 70
0
  3

 72
65
 73
0
 40
0.0
  0
LTYPE
  5
16
100
AcDbSymbolTableRecord
100
AcDbLinetypeTableRecord
  2
CONTINUOUS
 70
64
  3
Solid line
 72
65
 73
0
 40
0.0
  0
LTYPE
  5
1F5
100
AcDbSymbolTableRecord
100
AcDbLinetypeTableRecord
  2
CENTER
 70
64
  3
____ _ ____ _ ____ _ ____ _ ____ _ ____ _ ____
 72
65
 73
4
 40
0.6
 49
0.375
 74
0
 49
-0.075
 74
0
 49
0.075
 74
0
 49
-0.075
 74
0
  0
LTYPE
  5
1F6
100
AcDbSymbolTableRecord
100
AcDbLinetypeTableRecord
  2
HIDDEN
 70
64
  3
- - - - - - - - - - - - - - - - - - - -
 72
65
 73
2
 40
0.2
 49
0.1
 74
0
 49
-0.1
 74
0
  0
LTYPE
  5
1F7
100
AcDbSymbolTableRecord
100
AcDbLinetypeTableRecord
  2
PHANTOM
 70
64
  3
_____ _ _ _____ _ _ _____ _ _ _____
 72
65
 73
6
 40
0.8
 49
0.45
 74
0
 49
-0.05
 74
0
 49
0.1
 74
0
 49
-0.05
 74
0
 49
0.1
 74
0
 49
-0.05
 74
0
  0
LTYPE
  5
1F8
100
AcDbSymbolTableRecord
100
AcDbLinetypeTableRecord
  2
DOT
 70
64
  3
. . . . . . . . . . . . . . . . . . . .
 72
65
 73
2
 40
0.2
 49
0.1
 74
0
 49
-0.1
 74
0
  0
LTYPE
  5
1F9
100
AcDbSymbolTableRecord
100
AcDbLinetypeTableRecord
  2
DASHED
 70
64
  3
- - - - - - - - - - - - - - - - - - - -
 72
65
 73
2
 40
0.2
 49
0.1
 74
0
 49
-0.1
 74
0
  0
ENDTAB
  0
TABLE
  2
LAYER
  5
2
100
AcDbSymbolTable
 70
36
  0
LAYER
  5
10
100
AcDbSymbolTableRecord
100
AcDbLayerTableRecord
  2
0
 70
0
 62
7
  6
CONTINUOUS
370
-3
390
F
  0
LAYER
  5
1FA
100
AcDbSymbolTableRecord
100
AcDbLayerTableRecord
  2
DEFAULT_1
 70
0
 62
7
  6
CENTER
370
-3
390
F
  0
LAYER
  5
1FB
100
AcDbSymbolTableRecord
100
AcDbLayerTableRecord
  2
DEFAULT_2
 70
0
 62
8
  6
HIDDEN
370
-3
390
F
  0
LAYER
  5
1FC
100
AcDbSymbolTableRecord
100
AcDbLayerTableRecord
  2
DEFAULT_3
 70
0
 62
7
  6
PHANTOM
370
-3
390
F
  0
LAYER
  5
1FD
100
AcDbSymbolTableRecord
100
AcDbLayerTableRecord
  2
ALL_FEATURES
 70
0
 62
7
  6
CONTINUOUS
370
-3
390
F
  0
LAYER
  5
1FE
100
AcDbSymbolTableRecord
100
AcDbLayerTableRecord
  2
AXES_FEATURES
 70
0
 62
7
  6
CONTINUOUS
370
-3
390
F
  0
LAYER
  5
1FF
100
AcDbSymbolTableRecord
100
AcDbLayerTableRecord
  2
DIMENSIONS
 70
0
 62
7
  6
CONTINUOUS
370
-3
390
F
  0
ENDTAB
  0
TABLE
  2
STYLE
  5
3
100
AcDbSymbolTable
 70
1
  0
STYLE
  5
11
100
AcDbSymbolTableRecord
100
AcDbTextStyleTableRecord
  2
STANDARD
 70
0
 40
0.0
 41
0.8
 50
0.0
 71
0
 42
0.2
  3
txt
  4

  0
STYLE
  5
200
100
AcDbSymbolTableRecord
100
AcDbTextStyleTableRecord
  2
TEXTSTYLE_1
 70
0
 40
0.0
 41
0.8
 50
0.0
 71
0
 42
0.2
  3
gdt
  4

  0
ENDTAB
  0
TABLE
  2
VIEW
  5
6
100
AcDbSymbolTable
 70
0
  0
ENDTAB
  0
TABLE
  2
UCS
  5
7
100
AcDbSymbolTable
 70
0
  0
ENDTAB
  0
TABLE
  2
APPID
  5
9
100
AcDbSymbolTable
 70
1
  0
APPID
  5
201
100
AcDbSymbolTableRecord
100
AcDbRegAppTableRecord
  2
ACAD
 70
0
  0
ENDTAB
  0
TABLE
  2
BLOCK_RECORD
  5
1
100
AcDbSymbolTable
 70
0
  0
BLOCK_RECORD
  5
202
100
AcDbSymbolTableRecord
100
AcDbBlockTableRecord
  2
*Model_Space
  0
BLOCK_RECORD
  5
203
100
AcDbSymbolTableRecord
100
AcDbBlockTableRecord
  2
*Paper_Space
  0
BLOCK_RECORD
  5
204
100
AcDbSymbolTableRecord
100
AcDbBlockTableRecord
  2
_FILLED
  0
ENDTAB
  0
TABLE
  2
DIMSTYLE
  5
A
100
AcDbSymbolTable
 70
1
100
AcDbDimStyleTable
 71
0
  0
DIMSTYLE
105
205
100
AcDbSymbolTableRecord
100
AcDbDimStyleTableRecord
  2
STANDARD
 70
0
  3

  4

 40
1.0
 41
0.1
 42
0.0625
 43
0.38
 44
0.125
 45
0.0
 46
0.0
 47
0.001
 48
0.001
140
0.08
141
0.09
142
0.0
143
25.4
144
1.0
145
0.0
146
1.0
147
0.09
 71
1.0
 72
0.0
 73
1
 74
1
 75
0
 76
0
 77
0
 78
4
 79
1
170
1
171
2
172
0
173
0
174
0
175
0
176
0
177
0
178
0
270
2
179
3
271
3
272
3
273
2
274
2
275
0
280
0
281
0
282
0
283
1
284
4
285
0
286
0
287
3
288
0
340
11
278
46
341
204
342
204
343
204
344
204
  0
ENDTAB
  0
ENDSEC
  0
SECTION
  2
BLOCKS
  0
BLOCK
  5
20
100
AcDbEntity
  8
0
100
AcDbBlockBegin
  2
*Model_Space
 70
0
 10
0.0
 20
0.0
 30
0.0
  3
*Model_Space
  1

  0
ENDBLK
  5
21
100
AcDbEntity
  8
0
100
AcDbBlockEnd
  0
BLOCK
  5
1C
100
AcDbEntity
  8
0
100
AcDbBlockBegin
  2
*Paper_Space
 70
0
 10
0.0
 20
0.0
 30
0.0
  3
*Paper_Space
  1

  0
ENDBLK
  5
1D
100
AcDbEntity
  8
0
100
AcDbBlockEnd
  0
BLOCK
  5
206
100
AcDbEntity
  8
0
100
AcDbBlockBegin
  2
_FILLED
 70
64
 10
0.0
 20
0.0
  3
_FILLED
  1

  0
SOLID
  5
207
100
AcDbEntity
  8
0
  6
BYBLOCK
 62
0
100
AcDbTrace
 10
0.0
 20
0.0
 11
-1.0
 21
0.2
 12
-1.0
 22
-0.2
 13
-1.0
 23
-0.2
  0
ENDBLK
  5
208
100
AcDbEntity
  8
0
  6
BYBLOCK
 62
0
100
AcDbBlockEnd
  0
ENDSEC
  0
SECTION
  2
ENTITIES
  0
LINE
  5
209
100
AcDbEntity
  8
0
100
AcDbLine
 62
7
  6
CONTINUOUS
 10
6.1163879621
 20
9.1026017394
 11
6.5852785005
 21
9.8529834583
  0
LINE
  5
20A
100
AcDbEntity
  8
0
100
AcDbLine
 62
7
  6
CONTINUOUS
 10
12.3825036328
 20
5.7626397959
 11
15.2635647365
 21
5.7626397959
  0
LINE
  5
20B
100
AcDbEntity
  8
0
100
AcDbLine
 62
9
  6
CONTINUOUS
 10
14.9262641597
 20
5.8151885782
 11
12.7198184893
 21
5.8151885782
  0
LINE
  5
20C
100
AcDbEntity
  8
0
100
AcDbLine
 62
9
  6
CONTINUOUS
 10
15.296281141
 20
5.8256739234
 11
14.9146665924
 21
5.8256739234
  0
LINE
  5
20D
100
AcDbEntity
  8
0
100
AcDbLine
 62
9
  6
CONTINUOUS
 10
12.7314160566
 20
5.8256739234
 11
12.349801508
 21
5.8256739234
  0
LINE
  5
20E
100
AcDbEntity
  8
0
100
AcDbLine
 62
9
  6
CONTINUOUS
 10
12.8883299867
 20
5.9768471409
 11
14.7577643545
 21
5.9768471409
  0
LINE
  5
20F
100
AcDbEntity
  8
0
100
AcDbLine
 62
9
  6
CONTINUOUS
 10
12.4246740197
 20
5.9957935849
 11
12.8993719818
 21
5.9957935849
  0
LINE
  5
210
100
AcDbEntity
  8
0
100
AcDbLine
 62
9
  6
CONTINUOUS
 10
14.7467106671
 20
5.9957935849
 11
15.2214086293
 21
5.9957935849
  0
LINE
  5
211
100
AcDbEntity
  8
0
100
AcDbLine
 62
9
  6
CONTINUOUS
 10
12.8975291489
 20
6.0164547736
 11
14.7485535001
 21
6.0164547736
  0
LINE
  5
212
100
AcDbEntity
  8
0
100
AcDbLine
 62
9
  6
CONTINUOUS
 10
12.4205636123
 20
6.0237795609
 11
12.8975291489
 21
6.0237795609
  0
LINE
  5
213
100
AcDbEntity
  8
0
100
AcDbLine
 62
9
  6
CONTINUOUS
 10
14.7485535001
 20
6.0237795609
 11
15.2255190367
 21
6.0237795609
  0
LINE
  5
214
100
AcDbEntity
  8
0
100
AcDbLine
 62
9
  6
CONTINUOUS
 10
15.2333607897
 20
6.0438804409
 11
14.7497625174
 21
6.0438804409
  0
LINE
  5
215
100
AcDbEntity
  8
0
100
AcDbLine
 62
9
  6
CONTINUOUS
 10
12.8963201316
 20
6.0438804409
 11
12.4127218593
 21
6.0438804409
  0
LINE
  5
216
100
AcDbEntity
  8
0
100
AcDbLine
 62
7
  6
CONTINUOUS
 10
7.0672777739
 20
8.8655182817
 11
7.3904912721
 21
9.3447019987
  0
LINE
  5
217
100
AcDbEntity
  8
0
100
AcDbLine
 62
9
  6
CONTINUOUS
 10
12.9070754426
 20
6.0666397959
 11
14.7390072064
 21
6.0666397959
  0
LINE
  5
218
100
AcDbEntity
  8
0
100
AcDbLine
 62
9
  6
CONTINUOUS
 10
12.417636453
 20
6.0685783955
 11
12.9086452896
 21
6.0685783955
  0
LINE
  5
219
100
AcDbEntity
  8
0
100
AcDbLine
 62
9
  6
CONTINUOUS
 10
14.7374373594
 20
6.0685783955
 11
15.2284305322
 21
6.0685783955
  0
LINE
  5
21A
100
AcDbEntity
  8
0
100
AcDbLine
 62
9
  6
CONTINUOUS
 10
14.6391362974
 20
6.1899700975
 11
13.0069463516
 21
6.1899700975
  0
LINE
  5
21B
100
AcDbEntity
  8
0
100
AcDbLine
 62
7
  6
CONTINUOUS
 10
15.1295242313
 20
6.2043835774
 11
14.6224274402
 21
6.2043835774
  0
LINE
  5
21C
100
AcDbEntity
  8
0
100
AcDbLine
 62
7
  6
CONTINUOUS
 10
13.0236552088
 20
6.2043835774
 11
12.5165584177
 21
6.2043835774
  0
LINE
  5
21D
100
AcDbEntity
  8
0
100
AcDbLine
 62
7
  6
CONTINUOUS
 10
15.1061209104
 20
6.2091360927
 11
14.6141825269
 21
6.2091360927
  0
LINE
  5
21E
100
AcDbEntity
  8
0
100
AcDbLine
 62
7
  6
CONTINUOUS
 10
13.0319001221
 20
6.2091360927
 11
12.5399617386
 21
6.2091360927
  0
LINE
  5
21F
100
AcDbEntity
  8
0
100
AcDbLine
 62
7
  6
CONTINUOUS
 10
14.5847360801
 20
6.2159176701
 11
13.0613465689
 21
6.2159176701
  0
LINE
  5
220
100
AcDbEntity
  8
0
100
AcDbLine
 62
7
  6
CONTINUOUS
 10
13.3180413245
 20
6.4326397959
 11
14.3280413245
 21
6.4326397959
  0
LINE
  5
221
100
AcDbEntity
  8
0
100
AcDbLine
 62
9
  6
CONTINUOUS
 10
13.3472632304
 20
6.5229448642
 11
14.2988194186
 21
6.5229448642
  0
LINE
  5
222
100
AcDbEntity
  8
0
100
AcDbLine
 62
9
  6
CONTINUOUS
 10
13.3918307993
 20
6.5714706151
 11
14.2542518496
 21
6.5714706151
  0
LINE
  5
223
100
AcDbEntity
  8
0
100
AcDbLine
 62
9
  6
CONTINUOUS
 10
13.0003476658
 20
6.6449765359
 11
13.4017945043
 21
6.6449765359
  0
LINE
  5
224
100
AcDbEntity
  8
0
100
AcDbLine
 62
9
  6
CONTINUOUS
 10
14.2442881447
 20
6.6449765359
 11
14.6457349831
 21
6.6449765359
  0
LINE
  5
225
100
AcDbEntity
  8
0
100
AcDbLine
 62
9
  6
CONTINUOUS
 10
12.9989260413
 20
6.6927550966
 11
13.4082708735
 21
6.6927550966
  0
LINE
  5
226
100
AcDbEntity
  8
0
100
AcDbLine
 62
9
  6
CONTINUOUS
 10
14.2378117755
 20
6.6927550966
 11
14.6471566077
 21
6.6927550966
  0
LINE
  5
227
100
AcDbEntity
  8
0
100
AcDbLine
 62
9
  6
CONTINUOUS
 10
13.0213890391
 20
6.8274911968
 11
13.42555674
 21
6.8274911968
  0
LINE
  5
228
100
AcDbEntity
  8
0
100
AcDbLine
 62
9
  6
CONTINUOUS
 10
14.220525909
 20
6.8274911968
 11
14.6246936099
 21
6.8274911968
  0
LINE
  5
229
100
AcDbEntity
  8
0
100
AcDbLine
 62
9
  6
CONTINUOUS
 10
14.6032413901
 20
6.8564704746
 11
14.2181781915
 21
6.8564704746
  0
LINE
  5
22A
100
AcDbEntity
  8
0
100
AcDbLine
 62
9
  6
CONTINUOUS
 10
13.4279044575
 20
6.8564704746
 11
13.0428412589
 21
6.8564704746
  0
LINE
  5
22B
100
AcDbEntity
  8
0
100
AcDbLine
 62
9
  6
CONTINUOUS
 10
13.0428409784
 20
7.441313951
 11
13.4473797346
 21
7.441313951
  0
LINE
  5
22C
100
AcDbEntity
  8
0
100
AcDbLine
 62
9
  6
CONTINUOUS
 10
14.1987029144
 20
7.441313951
 11
14.6032416706
 21
7.441313951
  0
LINE
  5
22D
100
AcDbEntity
  8
0
100
AcDbLine
 62
9
  6
CONTINUOUS
 10
14.6246938095
 20
7.4702934869
 11
14.2001834763
 21
7.4702934869
  0
LINE
  5
22E
100
AcDbEntity
  8
0
100
AcDbLine
 62
9
  6
CONTINUOUS
 10
13.4458991727
 20
7.4702934869
 11
13.0213888395
 21
7.4702934869
  0
LINE
  5
22F
100
AcDbEntity
  8
0
100
AcDbLine
 62
9
  6
CONTINUOUS
 10
13.0243028582
 20
7.6167975282
 11
13.4375831094
 21
7.6167975282
  0
LINE
  5
230
100
AcDbEntity
  8
0
100
AcDbLine
 62
9
  6
CONTINUOUS
 10
14.2084995396
 20
7.6167975282
 11
14.6217797907
 21
7.6167975282
  0
LINE
  5
231
100
AcDbEntity
  8
0
100
AcDbLine
 62
9
  6
CONTINUOUS
 10
14.5995395226
 20
7.6412187956
 11
14.2105822276
 21
7.6412187956
  0
LINE
  5
232
100
AcDbEntity
  8
0
100
AcDbLine
 62
9
  6
CONTINUOUS
 10
13.4355004214
 20
7.6412187956
 11
13.0465431264
 21
7.6412187956
  0
LINE
  5
233
100
AcDbEntity
  8
0
100
AcDbLine
 62
9
  6
CONTINUOUS
 10
14.2193197228
 20
7.7436732748
 11
13.4267629262
 21
7.7436732748
  0
LINE
  5
234
100
AcDbEntity
  8
0
100
AcDbLine
 62
9
  6
CONTINUOUS
 10
14.2460243206
 20
7.7876795197
 11
13.4000583283
 21
7.7876795197
  0
LINE
  5
235
100
AcDbEntity
  8
0
100
AcDbLine
 62
9
  6
CONTINUOUS
 10
13.3730413245
 20
7.8378005928
 11
14.2730413245
 21
7.8378005928
  0
LINE
  5
236
100
AcDbEntity
  8
0
100
AcDbLine
 62
9
  6
CONTINUOUS
 10
14.2730413245
 20
7.8426397959
 11
13.3730413245
 21
7.8426397959
  0
LINE
  5
237
100
AcDbEntity
  8
0
100
AcDbLine
 62
7
  6
CONTINUOUS
 10
14.2130413245
 20
7.9026397959
 11
13.4330413245
 21
7.9026397959
  0
LINE
  5
238
100
AcDbEntity
  8
0
100
AcDbLine
 62
7
  6
CONTINUOUS
 10
14.1475413245
 20
7.9826397959
 11
13.4985413245
 21
7.9826397959
  0
LINE
  5
239
100
AcDbEntity
  8
0
100
AcDbLine
 62
7
  6
CONTINUOUS
 10
6.1163879621
 20
9.1026017394
 11
7.0672777739
 21
8.8655182817
  0
LINE
  5
23A
100
AcDbEntity
  8
0
100
AcDbLine
 62
9
  6
CONTINUOUS
 10
13.5972348729
 20
9.035990788
 11
13.6138268093
 21
9.035990788
  0
LINE
  5
23B
100
AcDbEntity
  8
0
100
AcDbLine
 62
9
  6
CONTINUOUS
 10
14.0322558397
 20
9.035990788
 11
14.0488477761
 21
9.035990788
  0
LINE
  5
23C
100
AcDbEntity
  8
0
100
AcDbLine
 62
9
  6
CONTINUOUS
 10
13.0465632225
 20
9.7449408075
 11
14.5995194264
 21
9.7449408075
  0
LINE
  5
23D
100
AcDbEntity
  8
0
100
AcDbLine
 62
9
  6
CONTINUOUS
 10
14.6220342116
 20
9.7694310704
 11
13.0240484374
 21
9.7694310704
  0
LINE
  5
23E
100
AcDbEntity
  8
0
100
AcDbLine
 62
7
  6
CONTINUOUS
 10
11.7530413245
 20
11.2784899097
 11
11.7530413245
 21
10.0284899097
  0
LINE
  5
23F
100
AcDbEntity
  8
0
100
AcDbLine
 62
9
  6
CONTINUOUS
 10
11.8280413245
 20
11.3534899097
 11
11.8280413245
 21
9.9534899097
  0
LINE
  5
240
100
AcDbEntity
  8
0
100
AcDbLine
 62
9
  6
CONTINUOUS
 10
11.8407101441
 20
9.9534899097
 11
11.8407101441
 21
11.3534899097
  0
LINE
  5
241
100
AcDbEntity
  8
0
100
AcDbLine
 62
9
  6
CONTINUOUS
 10
13.0074697755
 20
9.9188003883
 11
14.6385247486
 21
9.9188003883
  0
LINE
  5
242
100
AcDbEntity
  8
0
100
AcDbLine
 62
7
  6
CONTINUOUS
 10
11.8280413245
 20
9.9534899097
 11
11.8407101441
 21
9.9534899097
  0
LINE
  5
243
100
AcDbEntity
  8
0
100
AcDbLine
 62
7
  6
CONTINUOUS
 10
12.8728725049
 20
9.9534899097
 11
12.8780413245
 21
9.9534899097
  0
LINE
  5
244
100
AcDbEntity
  8
0
100
AcDbLine
 62
9
  6
CONTINUOUS
 10
14.6291381434
 20
9.9651528422
 11
13.0169445056
 21
9.9651528422
  0
LINE
  5
245
100
AcDbEntity
  8
0
100
AcDbLine
 62
7
  6
CONTINUOUS
 10
9.6540413245
 20
10.0534899097
 11
11.7530413245
 21
10.0534899097
  0
LINE
  5
246
100
AcDbEntity
  8
0
100
AcDbLine
 62
9
  6
CONTINUOUS
 10
11.9096259336
 20
11.3080806845
 11
11.9096259336
 21
9.9988991349
  0
LINE
  5
247
100
AcDbEntity
  8
0
100
AcDbLine
 62
9
  6
CONTINUOUS
 10
11.9480562815
 20
11.2783756197
 11
11.9480562815
 21
10.0286041996
  0
LINE
  5
248
100
AcDbEntity
  8
0
100
AcDbLine
 62
7
  6
CONTINUOUS
 10
14.6391362974
 20
6.1899700975
 11
14.7390072064
 21
6.0666397959
  0
LINE
  5
249
100
AcDbEntity
  8
0
100
AcDbLine
 62
9
  6
CONTINUOUS
 10
10.7220413245
 20
10.6534899097
 11
11.7530413245
 21
10.6534899097
  0
LINE
  5
24A
100
AcDbEntity
  8
0
100
AcDbLine
 62
7
  6
CONTINUOUS
 10
15.1295242313
 20
6.2043835774
 11
15.228446196
 21
6.0685783955
  0
LINE
  5
24B
100
AcDbEntity
  8
0
100
AcDbLine
 62
9
  6
CONTINUOUS
 10
12.7655263675
 20
10.0286041996
 11
12.7655263675
 21
11.2783756197
  0
LINE
  5
24C
100
AcDbEntity
  8
0
100
AcDbLine
 62
9
  6
CONTINUOUS
 10
12.8039567154
 20
9.9988991349
 11
12.8039567154
 21
11.3080806845
  0
LINE
  5
24D
100
AcDbEntity
  8
0
100
AcDbLine
 62
9
  6
CONTINUOUS
 10
12.8728725049
 20
11.3534899097
 11
12.8728725049
 21
9.9534899097
  0
LINE
  5
24E
100
AcDbEntity
  8
0
100
AcDbLine
 62
9
  6
CONTINUOUS
 10
12.8780413245
 20
9.9534899097
 11
12.8780413245
 21
11.353481541
  0
LINE
  5
24F
100
AcDbEntity
  8
0
100
AcDbLine
 62
7
  6
CONTINUOUS
 10
12.9530413245
 20
10.0284899097
 11
12.9530413245
 21
11.2784899097
  0
LINE
  5
250
100
AcDbEntity
  8
0
100
AcDbLine
 62
7
  6
CONTINUOUS
 10
9.8460413245
 20
11.2534899097
 11
11.7530413245
 21
11.2534899097
  0
LINE
  5
251
100
AcDbEntity
  8
0
100
AcDbLine
 62
7
  6
CONTINUOUS
 10
13.0428409784
 20
7.441313951
 11
13.042841258
 21
6.8564705944
  0
LINE
  5
252
100
AcDbEntity
  8
0
100
AcDbLine
 62
7
  6
CONTINUOUS
 10
13.2780413245
 20
12.1071438122
 11
13.2780413245
 21
12.0171438122
  0
LINE
  5
253
100
AcDbEntity
  8
0
100
AcDbLine
 62
7
  6
CONTINUOUS
 10
13.3730413245
 20
7.8426397959
 11
13.3730413245
 21
7.8378005928
  0
LINE
  5
254
100
AcDbEntity
  8
0
100
AcDbLine
 62
7
  6
CONTINUOUS
 10
11.8280413245
 20
11.3534899097
 11
11.8407101441
 21
11.3534899097
  0
LINE
  5
255
100
AcDbEntity
  8
0
100
AcDbLine
 62
7
  6
CONTINUOUS
 10
12.8728725049
 20
11.3534899097
 11
12.8780413245
 21
11.3534899097
  0
LINE
  5
256
100
AcDbEntity
  8
0
100
AcDbLine
 62
7
  6
CONTINUOUS
 10
13.4280413245
 20
11.6371438122
 11
14.2180413245
 21
11.6371438122
  0
LINE
  5
257
100
AcDbEntity
  8
0
100
AcDbLine
 62
7
  6
CONTINUOUS
 10
13.4280413245
 20
11.6921438122
 11
13.4280413245
 21
11.6371438122
  0
LINE
  5
258
100
AcDbEntity
  8
0
100
AcDbLine
 62
7
  6
CONTINUOUS
 10
13.4985413245
 20
7.9826397959
 11
13.4985413245
 21
7.9026397959
  0
LINE
  5
259
100
AcDbEntity
  8
0
100
AcDbLine
 62
7
  6
CONTINUOUS
 10
13.5645413245
 20
8.1766317508
 11
13.5645413245
 21
7.9826397959
  0
LINE
  5
25A
100
AcDbEntity
  8
0
100
AcDbLine
 62
9
  6
CONTINUOUS
 10
14.2180413245
 20
11.6921438122
 11
13.4280413245
 21
11.6921438122
  0
LINE
  5
25B
100
AcDbEntity
  8
0
100
AcDbLine
 62
7
  6
CONTINUOUS
 10
14.1480413245
 20
11.7621438122
 11
13.4980413245
 21
11.7621438122
  0
LINE
  5
25C
100
AcDbEntity
  8
0
100
AcDbLine
 62
7
  6
CONTINUOUS
 10
13.2980413245
 20
11.9971438122
 11
14.3480352694
 21
11.9971438122
  0
LINE
  5
25D
100
AcDbEntity
  8
0
100
AcDbLine
 62
9
  6
CONTINUOUS
 10
13.2780413245
 20
12.0171438122
 11
14.3680413245
 21
12.0171438122
  0
LINE
  5
25E
100
AcDbEntity
  8
0
100
AcDbLine
 62
7
  6
CONTINUOUS
 10
14.0815413245
 20
8.1766317508
 11
14.0815413245
 21
7.9826397959
  0
LINE
  5
25F
100
AcDbEntity
  8
0
100
AcDbLine
 62
7
  6
CONTINUOUS
 10
12.5165584177
 20
6.2043835774
 11
12.417636453
 21
6.0685783955
  0
LINE
  5
260
100
AcDbEntity
  8
0
100
AcDbLine
 62
9
  6
CONTINUOUS
 10
14.3680413245
 20
12.1071438122
 11
13.2780413245
 21
12.1071438122
  0
LINE
  5
261
100
AcDbEntity
  8
0
100
AcDbLine
 62
7
  6
CONTINUOUS
 10
14.3480413245
 20
12.1271438122
 11
13.2980413245
 21
12.1271438122
  0
LINE
  5
262
100
AcDbEntity
  8
0
100
AcDbLine
 62
7
  6
CONTINUOUS
 10
14.1475413245
 20
7.9826397959
 11
14.1475413245
 21
7.9026397959
  0
LINE
  5
263
100
AcDbEntity
  8
0
100
AcDbLine
 62
7
  6
CONTINUOUS
 10
14.2180413245
 20
11.6921438122
 11
14.2180413245
 21
11.6371438122
  0
LINE
  5
264
100
AcDbEntity
  8
0
100
AcDbLine
 62
7
  6
CONTINUOUS
 10
14.2730413245
 20
7.8426397959
 11
14.2730413245
 21
7.8378005928
  0
LINE
  5
265
100
AcDbEntity
  8
0
100
AcDbLine
 62
7
  6
CONTINUOUS
 10
14.3680413245
 20
12.1071438122
 11
14.3680413245
 21
12.0171438122
  0
LINE
  5
266
100
AcDbEntity
  8
0
100
AcDbLine
 62
7
  6
CONTINUOUS
 10
13.0069463516
 20
6.1899700975
 11
12.9070754426
 21
6.0666397959
  0
LINE
  5
267
100
AcDbEntity
  8
0
100
AcDbLine
 62
7
  6
CONTINUOUS
 10
14.6032416706
 20
7.441313951
 11
14.603241391
 21
6.8564705944
  0
ARC
  5
268
100
AcDbEntity
  8
0
100
AcDbCircle
 62
7
  6
CONTINUOUS
 10
9.847940816
 20
5.7464665525
 40
5.5072181817
100
AcDbArc
 50
97.9301342989
 51
112.3374467034
  0
ARC
  5
269
100
AcDbEntity
  8
0
100
AcDbCircle
 62
7
  6
CONTINUOUS
 10
9.8461926333
 20
5.7513043398
 40
5.5021855719
100
AcDbArc
 50
90.0015756204
 51
97.9190543927
  0
ARC
  5
26A
100
AcDbEntity
  8
0
100
AcDbCircle
 62
7
  6
CONTINUOUS
 10
9.6545342162
 20
4.771763134
 40
5.2817267986
100
AcDbArc
 50
90.0053468523
 51
101.9008315835
  0
ARC
  5
26B
100
AcDbEntity
  8
0
100
AcDbCircle
 62
7
  6
CONTINUOUS
 10
9.6540413245
 20
4.7764899097
 40
5.2769999999
100
AcDbArc
 50
101.9061784358
 51
108.9079827009
  0
ARC
  5
26C
100
AcDbEntity
  8
0
100
AcDbCircle
 62
7
  6
CONTINUOUS
 10
6.3870305761
 20
8.6931434179
 40
6.7420807484
100
AcDbArc
 50
351.023825638
 51
8.9750797049
  0
ARC
  5
26D
100
AcDbEntity
  8
0
100
AcDbCircle
 62
7
  6
CONTINUOUS
 10
8.9909798994
 20
7.2892396283
 40
4.459
100
AcDbArc
 50
350.7367477834
 51
5.8493864313
  0
ARC
  5
26E
100
AcDbEntity
  8
0
100
AcDbCircle
 62
9
  6
CONTINUOUS
 10
9.3728903069
 20
7.6282486994
 40
3.0937817216
100
AcDbArc
 50
139.5910942144
 51
142.1381046686
  0
ARC
  5
26F
100
AcDbEntity
  8
0
100
AcDbCircle
 62
9
  6
CONTINUOUS
 10
9.3677320462
 20
7.6305259575
 40
3.0883119467
100
AcDbArc
 50
142.1127239704
 51
154.0060436067
  0
ARC
  5
270
100
AcDbEntity
  8
0
100
AcDbCircle
 62
7
  6
CONTINUOUS
 10
8.7088885442
 20
8.525205326
 40
2.5045387572
100
AcDbArc
 50
131.0269360032
 51
147.9844930822
  0
ARC
  5
271
100
AcDbEntity
  8
0
100
AcDbCircle
 62
7
  6
CONTINUOUS
 10
8.7053987408
 20
8.5281852978
 40
2.4999999999
100
AcDbArc
 50
112.3469509889
 51
131.0114290855
  0
ARC
  5
272
100
AcDbEntity
  8
0
100
AcDbCircle
 62
7
  6
CONTINUOUS
 10
8.2994104676
 20
8.7316137955
 40
1.096362736
100
AcDbArc
 50
139.5895461531
 51
145.9993733149
  0
ARC
  5
273
100
AcDbEntity
  8
0
100
AcDbCircle
 62
7
  6
CONTINUOUS
 10
13.1074982301
 20
4.7380607822
 40
2.45
100
AcDbArc
 50
36.9138412317
 51
51.1081952499
  0
ARC
  5
274
100
AcDbEntity
  8
0
100
AcDbCircle
 62
7
  6
CONTINUOUS
 10
13.7920413245
 20
5.6324998081
 40
0.93
100
AcDbArc
 50
120.6423451974
 51
141.168495232
  0
ARC
  5
275
100
AcDbEntity
  8
0
100
AcDbCircle
 62
7
  6
CONTINUOUS
 10
11.9655515412
 20
6.0963249219
 40
0.47
100
AcDbArc
 50
324.8405965889
 51
347.6492068003
  0
ARC
  5
276
100
AcDbEntity
  8
0
100
AcDbCircle
 62
7
  6
CONTINUOUS
 10
12.4904913045
 20
6.0626397959
 40
0.08
100
AcDbArc
 50
193.561676092
 51
209.0618146147
  0
ARC
  5
277
100
AcDbEntity
  8
0
100
AcDbCircle
 62
7
  6
CONTINUOUS
 10
13.0430413245
 20
6.7546408122
 40
0.076
100
AcDbArc
 50
106.5527810609
 51
234.5167977112
  0
ARC
  5
278
100
AcDbEntity
  8
0
100
AcDbCircle
 62
7
  6
CONTINUOUS
 10
13.0613465689
 20
6.1459176701
 40
0.07
100
AcDbArc
 50
90.0
 51
141.0
  0
ARC
  5
279
100
AcDbEntity
  8
0
100
AcDbCircle
 62
7
  6
CONTINUOUS
 10
13.3326132497
 20
6.581128866
 40
0.06
100
AcDbArc
 50
284.1325726664
 51
350.7367477834
  0
ARC
  5
27A
100
AcDbEntity
  8
0
100
AcDbCircle
 62
7
  6
CONTINUOUS
 10
12.5399617386
 20
6.1491360927
 40
0.06
100
AcDbArc
 50
90.0
 51
112.9579434024
  0
ARC
  5
27B
100
AcDbEntity
  8
0
100
AcDbCircle
 62
7
  6
CONTINUOUS
 10
13.3609365457
 20
6.4686397959
 40
0.056
100
AcDbArc
 50
104.1325726664
 51
220.0052008848
  0
ARC
  5
27C
100
AcDbEntity
  8
0
100
AcDbCircle
 62
7
  6
CONTINUOUS
 10
12.9490413245
 20
6.0326564948
 40
0.054
100
AcDbArc
 50
141.0
 51
197.4595175183
  0
ARC
  5
27D
100
AcDbEntity
  8
0
100
AcDbCircle
 62
7
  6
CONTINUOUS
 10
12.8593719818
 20
6.0044534987
 40
0.04
100
AcDbArc
 50
316.3573080803
 51
17.4595175184
  0
ARC
  5
27E
100
AcDbEntity
  8
0
100
AcDbCircle
 62
7
  6
CONTINUOUS
 10
12.3855997662
 20
6.0043494434
 40
0.04
100
AcDbArc
 50
347.6492068002
 51
29.0618146148
  0
ARC
  5
27F
100
AcDbEntity
  8
0
100
AcDbCircle
 62
7
  6
CONTINUOUS
 10
12.3825036328
 20
5.8026397959
 40
0.04
100
AcDbArc
 50
144.8405965889
 51
270.0
  0
ARC
  5
280
100
AcDbEntity
  8
0
100
AcDbCircle
 62
7
  6
CONTINUOUS
 10
12.7396061728
 20
5.7926397959
 40
0.03
100
AcDbArc
 50
131.2685692711
 51
270.0
  0
ARC
  5
281
100
AcDbEntity
  8
0
100
AcDbCircle
 62
7
  6
CONTINUOUS
 10
12.9815121138
 20
6.6683265247
 40
0.03
100
AcDbArc
 50
308.8918047501
 51
54.5167977112
  0
ARC
  5
282
100
AcDbEntity
  8
0
100
AcDbCircle
 62
7
  6
CONTINUOUS
 10
12.4418854012
 20
6.050915199
 40
0.03
100
AcDbArc
 50
143.9299999994
 51
193.5616760922
  0
ARC
  5
283
100
AcDbEntity
  8
0
100
AcDbCircle
 62
7
  6
CONTINUOUS
 10
12.3567913245
 20
7.3394899097
 40
2.72
100
AcDbArc
 50
81.3574125267
 51
98.6425874733
  0
ARC
  5
284
100
AcDbEntity
  8
0
100
AcDbCircle
 62
7
  6
CONTINUOUS
 10
10.9850982413
 20
7.7919651617
 40
2.63
100
AcDbArc
 50
311.2685692708
 51
316.3573080802
  0
ARC
  5
285
100
AcDbEntity
  8
0
100
AcDbCircle
 62
7
  6
CONTINUOUS
 10
13.6230413245
 20
8.9602674292
 40
0.08
100
AcDbArc
 50
108.8190633691
 51
145.161776761
  0
ARC
  5
286
100
AcDbEntity
  8
0
100
AcDbCircle
 62
7
  6
CONTINUOUS
 10
13.0430413245
 20
7.5431438122
 40
0.076
100
AcDbArc
 50
104.2739707055
 51
253.4470619298
  0
ARC
  5
287
100
AcDbEntity
  8
0
100
AcDbCircle
 62
7
  6
CONTINUOUS
 10
13.4330413245
 20
7.8426397959
 40
0.06
100
AcDbArc
 50
90.0
 51
180.0
  0
ARC
  5
288
100
AcDbEntity
  8
0
100
AcDbCircle
 62
7
  6
CONTINUOUS
 10
13.4330413245
 20
7.8378005928
 40
0.06
100
AcDbArc
 50
180.0
 51
236.6524271112
  0
ARC
  5
289
100
AcDbEntity
  8
0
100
AcDbCircle
 62
7
  6
CONTINUOUS
 10
13.3670753322
 20
7.7375584467
 40
0.06
100
AcDbArc
 50
5.8493864314
 51
56.6524271097
  0
ARC
  5
28A
100
AcDbEntity
  8
0
100
AcDbCircle
 62
7
  6
CONTINUOUS
 10
13.0128420843
 20
6.8562479276
 40
0.03
100
AcDbArc
 50
286.552781061
 51
0.4250373636
  0
ARC
  5
28B
100
AcDbEntity
  8
0
100
AcDbCircle
 62
7
  6
CONTINUOUS
 10
13.0128418059
 20
7.4415367796
 40
0.03
100
AcDbArc
 50
359.5747883958
 51
73.4470619299
  0
ARC
  5
28C
100
AcDbEntity
  8
0
100
AcDbCircle
 62
7
  6
CONTINUOUS
 10
13.0169060953
 20
7.6458713635
 40
0.03
100
AcDbArc
 50
284.2739707055
 51
351.0235824324
  0
ARC
  5
28D
100
AcDbEntity
  8
0
100
AcDbCircle
 62
7
  6
CONTINUOUS
 10
12.3567913245
 20
13.9674899097
 40
2.72
100
AcDbArc
 50
261.3574125269
 51
278.6425874732
  0
ARC
  5
28E
100
AcDbEntity
  8
0
100
AcDbCircle
 62
7
  6
CONTINUOUS
 10
13.7512726639
 20
12.3353350087
 40
0.66
100
AcDbArc
 50
299.7184980024
 51
329.1754473178
  0
ARC
  5
28F
100
AcDbEntity
  8
0
100
AcDbCircle
 62
7
  6
CONTINUOUS
 10
13.0430413245
 20
9.8471438122
 40
0.08
100
AcDbArc
 50
116.400587412
 51
256.2662090435
  0
ARC
  5
290
100
AcDbEntity
  8
0
100
AcDbCircle
 62
7
  6
CONTINUOUS
 10
11.8280413245
 20
10.0284899097
 40
0.075
100
AcDbArc
 50
180.0
 51
270.0
  0
ARC
  5
291
100
AcDbEntity
  8
0
100
AcDbCircle
 62
7
  6
CONTINUOUS
 10
11.8280413245
 20
11.2784899097
 40
0.075
100
AcDbArc
 50
90.0
 51
180.0
  0
ARC
  5
292
100
AcDbEntity
  8
0
100
AcDbCircle
 62
7
  6
CONTINUOUS
 10
11.8407101441
 20
10.0284899097
 40
0.075
100
AcDbArc
 50
270.0
 51
336.7624834078
  0
ARC
  5
293
100
AcDbEntity
  8
0
100
AcDbCircle
 62
7
  6
CONTINUOUS
 10
11.8407101441
 20
11.2784899097
 40
0.075
100
AcDbArc
 50
23.2375165928
 51
90.0
  0
ARC
  5
294
100
AcDbEntity
  8
0
100
AcDbCircle
 62
7
  6
CONTINUOUS
 10
12.8728725049
 20
10.0284899097
 40
0.075
100
AcDbArc
 50
203.2375165924
 51
270.0
  0
ARC
  5
295
100
AcDbEntity
  8
0
100
AcDbCircle
 62
7
  6
CONTINUOUS
 10
12.8728725049
 20
11.2784899097
 40
0.075
100
AcDbArc
 50
90.0
 51
156.7624834074
  0
ARC
  5
296
100
AcDbEntity
  8
0
100
AcDbCircle
 62
7
  6
CONTINUOUS
 10
12.8780413245
 20
11.2784899097
 40
0.075
100
AcDbArc
 50
0.0
 51
90.0
  0
ARC
  5
297
100
AcDbEntity
  8
0
100
AcDbCircle
 62
7
  6
CONTINUOUS
 10
12.8780413245
 20
10.0284899097
 40
0.075
100
AcDbArc
 50
270.0
 51
360.0
  0
ARC
  5
298
100
AcDbEntity
  8
0
100
AcDbCircle
 62
7
  6
CONTINUOUS
 10
13.4980413245
 20
11.6921438122
 40
0.07
100
AcDbArc
 50
90.0
 51
180.0
  0
ARC
  5
299
100
AcDbEntity
  8
0
100
AcDbCircle
 62
7
  6
CONTINUOUS
 10
11.9555697933
 20
11.3278078677
 40
0.05
100
AcDbArc
 50
203.2375165922
 51
261.3574125273
  0
ARC
  5
29A
100
AcDbEntity
  8
0
100
AcDbCircle
 62
7
  6
CONTINUOUS
 10
11.9555697933
 20
9.9791719517
 40
0.05
100
AcDbArc
 50
98.6425874739
 51
156.7624834074
  0
ARC
  5
29B
100
AcDbEntity
  8
0
100
AcDbCircle
 62
7
  6
CONTINUOUS
 10
12.7580128557
 20
11.3278078677
 40
0.05
100
AcDbArc
 50
278.6425874728
 51
336.762483407
  0
ARC
  5
29C
100
AcDbEntity
  8
0
100
AcDbCircle
 62
7
  6
CONTINUOUS
 10
12.7580128557
 20
9.9791719517
 40
0.05
100
AcDbArc
 50
23.2375165922
 51
81.3574125272
  0
ARC
  5
29D
100
AcDbEntity
  8
0
100
AcDbCircle
 62
7
  6
CONTINUOUS
 10
12.9941304446
 20
9.9456716044
 40
0.03
100
AcDbArc
 50
296.4005874121
 51
40.4944653703
  0
ARC
  5
29E
100
AcDbEntity
  8
0
100
AcDbCircle
 62
7
  6
CONTINUOUS
 10
13.0169261047
 20
9.7402887922
 40
0.03
100
AcDbArc
 50
8.9753227927
 51
76.2662090435
  0
ARC
  5
29F
100
AcDbEntity
  8
0
100
AcDbCircle
 62
7
  6
CONTINUOUS
 10
13.2980413245
 20
12.0171438122
 40
0.02
100
AcDbArc
 50
180.0
 51
270.0
  0
ARC
  5
2A0
100
AcDbEntity
  8
0
100
AcDbCircle
 62
7
  6
CONTINUOUS
 10
13.2980413245
 20
12.1071438122
 40
0.02
100
AcDbArc
 50
90.0
 51
180.0
  0
ARC
  5
2A1
100
AcDbEntity
  8
0
100
AcDbCircle
 62
7
  6
CONTINUOUS
 10
14.5385844189
 20
4.7380607822
 40
2.45
100
AcDbArc
 50
128.8918047501
 51
143.0861587683
  0
ARC
  5
2A2
100
AcDbEntity
  8
0
100
AcDbCircle
 62
7
  6
CONTINUOUS
 10
13.8540413245
 20
5.6324998081
 40
0.93
100
AcDbArc
 50
38.831504768
 51
59.3576548026
  0
ARC
  5
2A3
100
AcDbEntity
  8
0
100
AcDbCircle
 62
7
  6
CONTINUOUS
 10
15.6805311078
 20
6.0963249219
 40
0.47
100
AcDbArc
 50
192.3507931997
 51
215.1594034111
  0
ARC
  5
2A4
100
AcDbEntity
  8
0
100
AcDbCircle
 62
7
  6
CONTINUOUS
 10
15.1555913445
 20
6.0626397959
 40
0.08
100
AcDbArc
 50
330.9381853853
 51
346.438323908
  0
ARC
  5
2A5
100
AcDbEntity
  8
0
100
AcDbCircle
 62
7
  6
CONTINUOUS
 10
14.6030413245
 20
6.7546408122
 40
0.076
100
AcDbArc
 50
305.4832022888
 51
73.4472189391
  0
ARC
  5
2A6
100
AcDbEntity
  8
0
100
AcDbCircle
 62
7
  6
CONTINUOUS
 10
14.5847360801
 20
6.1459176701
 40
0.07
100
AcDbArc
 50
39.0
 51
90.0
  0
ARC
  5
2A7
100
AcDbEntity
  8
0
100
AcDbCircle
 62
7
  6
CONTINUOUS
 10
14.3134693993
 20
6.581128866
 40
0.06
100
AcDbArc
 50
189.2632522166
 51
255.8674273336
  0
ARC
  5
2A8
100
AcDbEntity
  8
0
100
AcDbCircle
 62
7
  6
CONTINUOUS
 10
15.1061209104
 20
6.1491360927
 40
0.06
100
AcDbArc
 50
67.0420565976
 51
90.0
  0
ARC
  5
2A9
100
AcDbEntity
  8
0
100
AcDbCircle
 62
7
  6
CONTINUOUS
 10
14.2851461033
 20
6.4686397959
 40
0.056
100
AcDbArc
 50
319.9947991152
 51
75.8674273336
  0
ARC
  5
2AA
100
AcDbEntity
  8
0
100
AcDbCircle
 62
7
  6
CONTINUOUS
 10
14.6970413245
 20
6.0326564948
 40
0.054
100
AcDbArc
 50
342.5404824817
 51
39.0
  0
ARC
  5
2AB
100
AcDbEntity
  8
0
100
AcDbCircle
 62
7
  6
CONTINUOUS
 10
14.7867106671
 20
6.0044534987
 40
0.04
100
AcDbArc
 50
162.5404824816
 51
223.6426919197
  0
ARC
  5
2AC
100
AcDbEntity
  8
0
100
AcDbCircle
 62
7
  6
CONTINUOUS
 10
15.2604828828
 20
6.0043494434
 40
0.04
100
AcDbArc
 50
150.9381853852
 51
192.3507931998
  0
ARC
  5
2AD
100
AcDbEntity
  8
0
100
AcDbCircle
 62
7
  6
CONTINUOUS
 10
15.2635790161
 20
5.8026397959
 40
0.04
100
AcDbArc
 50
270.0
 51
35.1594034111
  0
ARC
  5
2AE
100
AcDbEntity
  8
0
100
AcDbCircle
 62
7
  6
CONTINUOUS
 10
14.9064764762
 20
5.7926397959
 40
0.03
100
AcDbArc
 50
270.0
 51
48.7314307289
  0
ARC
  5
2AF
100
AcDbEntity
  8
0
100
AcDbCircle
 62
7
  6
CONTINUOUS
 10
14.6645705352
 20
6.6683265247
 40
0.03
100
AcDbArc
 50
125.4832022888
 51
231.1081952499
  0
ARC
  5
2B0
100
AcDbEntity
  8
0
100
AcDbCircle
 62
7
  6
CONTINUOUS
 10
15.2041972477
 20
6.050915199
 40
0.03
100
AcDbArc
 50
346.4383239078
 51
36.0700000006
  0
ARC
  5
2B1
100
AcDbEntity
  8
0
100
AcDbCircle
 62
7
  6
CONTINUOUS
 10
16.6609844077
 20
7.7919651617
 40
2.63
100
AcDbArc
 50
223.6426919198
 51
228.7314307292
  0
ARC
  5
2B2
100
AcDbEntity
  8
0
100
AcDbCircle
 62
7
  6
CONTINUOUS
 10
13.8230413245
 20
8.3734113992
 40
0.7
100
AcDbArc
 50
105.8462963309
 51
108.819063369
  0
ARC
  5
2B3
100
AcDbEntity
  8
0
100
AcDbCircle
 62
7
  6
CONTINUOUS
 10
13.8230413245
 20
8.3734113992
 40
0.7
100
AcDbArc
 50
71.180936631
 51
74.1537036691
  0
CIRCLE
  5
2B4
100
AcDbEntity
  8
0
100
AcDbCircle
 62
7
  6
CONTINUOUS
 10
13.8230413245
 20
8.5931394491
 40
0.49155
  0
CIRCLE
  5
2B5
100
AcDbEntity
  8
0
100
AcDbCircle
 62
7
  6
CONTINUOUS
 10
13.8230413245
 20
8.5931394491
 40
0.49155
  0
CIRCLE
  5
2B6
100
AcDbEntity
  8
0
100
AcDbCircle
 62
9
  6
CONTINUOUS
 10
13.8230413245
 20
8.5931394491
 40
0.4467172034
  0
CIRCLE
  5
2B7
100
AcDbEntity
  8
0
100
AcDbCircle
 62
9
  6
CONTINUOUS
 10
13.8230413245
 20
8.5931394491
 40
0.2963316422
  0
CIRCLE
  5
2B8
100
AcDbEntity
  8
0
100
AcDbCircle
 62
9
  6
CONTINUOUS
 10
13.8230413245
 20
8.5931394491
 40
0.2495043206
  0
ARC
  5
2B9
100
AcDbEntity
  8
0
100
AcDbCircle
 62
7
  6
CONTINUOUS
 10
14.0230413245
 20
8.9602674292
 40
0.08
100
AcDbArc
 50
34.838223239
 51
71.1809366309
  0
ARC
  5
2BA
100
AcDbEntity
  8
0
100
AcDbCircle
 62
7
  6
CONTINUOUS
 10
14.6030413245
 20
7.5431438122
 40
0.076
100
AcDbArc
 50
286.5529380702
 51
75.7260292945
  0
ARC
  5
2BB
100
AcDbEntity
  8
0
100
AcDbCircle
 62
7
  6
CONTINUOUS
 10
14.2130413245
 20
7.8426397959
 40
0.06
100
AcDbArc
 50
0.0
 51
90.0
  0
ARC
  5
2BC
100
AcDbEntity
  8
0
100
AcDbCircle
 62
7
  6
CONTINUOUS
 10
14.2790073168
 20
7.7375584467
 40
0.06
100
AcDbArc
 50
123.3475728894
 51
174.1506135686
  0
ARC
  5
2BD
100
AcDbEntity
  8
0
100
AcDbCircle
 62
7
  6
CONTINUOUS
 10
14.2130413245
 20
7.8378005928
 40
0.06
100
AcDbArc
 50
303.3475728908
 51
360.0
  0
ARC
  5
2BE
100
AcDbEntity
  8
0
100
AcDbCircle
 62
7
  6
CONTINUOUS
 10
14.6332405646
 20
6.8562479276
 40
0.03
100
AcDbArc
 50
179.5749626364
 51
253.447218939
  0
ARC
  5
2BF
100
AcDbEntity
  8
0
100
AcDbCircle
 62
7
  6
CONTINUOUS
 10
14.6332408431
 20
7.4415367796
 40
0.03
100
AcDbArc
 50
106.5529380701
 51
180.4252116042
  0
ARC
  5
2C0
100
AcDbEntity
  8
0
100
AcDbCircle
 62
7
  6
CONTINUOUS
 10
14.6291765537
 20
7.6458713635
 40
0.03
100
AcDbArc
 50
188.9764175676
 51
255.7260292945
  0
ARC
  5
2C1
100
AcDbEntity
  8
0
100
AcDbCircle
 62
7
  6
CONTINUOUS
 10
21.2590520729
 20
8.6931434179
 40
6.7420807484
100
AcDbArc
 50
171.0249202951
 51
188.976174362
  0
ARC
  5
2C2
100
AcDbEntity
  8
0
100
AcDbCircle
 62
7
  6
CONTINUOUS
 10
18.6551027496
 20
7.2892396283
 40
4.459
100
AcDbArc
 50
174.150613569
 51
189.2632522166
  0
ARC
  5
2C3
100
AcDbEntity
  8
0
100
AcDbCircle
 62
7
  6
CONTINUOUS
 10
13.8230413245
 20
10.6534899097
 40
1.06
100
AcDbArc
 50
319.5055346288
 51
68.1213814689
  0
ARC
  5
2C4
100
AcDbEntity
  8
0
100
AcDbCircle
 62
7
  6
CONTINUOUS
 10
13.8230413245
 20
10.6534899097
 40
1.06
100
AcDbArc
 50
214.8395846707
 51
220.4944653712
  0
ARC
  5
2C5
100
AcDbEntity
  8
0
100
AcDbCircle
 62
7
  6
CONTINUOUS
 10
13.8230413245
 20
10.6534899097
 40
1.06
100
AcDbArc
 50
111.8786185311
 51
145.1604153293
  0
ARC
  5
2C6
100
AcDbEntity
  8
0
100
AcDbCircle
 62
7
  6
CONTINUOUS
 10
13.8230413245
 20
11.2686822737
 40
0.9884615385
100
AcDbArc
 50
60.2827711041
 51
119.7172288959
  0
ARC
  5
2C7
100
AcDbEntity
  8
0
100
AcDbCircle
 62
7
  6
CONTINUOUS
 10
13.8948099851
 20
12.3353350087
 40
0.66
100
AcDbArc
 50
210.8245526822
 51
240.2815019976
  0
ARC
  5
2C8
100
AcDbEntity
  8
0
100
AcDbCircle
 62
7
  6
CONTINUOUS
 10
14.6030413245
 20
9.8471438122
 40
0.08
100
AcDbArc
 50
283.7337909565
 51
63.599412588
  0
ARC
  5
2C9
100
AcDbEntity
  8
0
100
AcDbCircle
 62
7
  6
CONTINUOUS
 10
14.1480413245
 20
11.6921438122
 40
0.07
100
AcDbArc
 50
0.0
 51
90.0
  0
ARC
  5
2CA
100
AcDbEntity
  8
0
100
AcDbCircle
 62
7
  6
CONTINUOUS
 10
14.6291565443
 20
9.7402887922
 40
0.03
100
AcDbArc
 50
103.7337909565
 51
171.0246772073
  0
ARC
  5
2CB
100
AcDbEntity
  8
0
100
AcDbCircle
 62
7
  6
CONTINUOUS
 10
14.6519522043
 20
9.9456716044
 40
0.03
100
AcDbArc
 50
139.5055346297
 51
243.5994125879
  0
ARC
  5
2CC
100
AcDbEntity
  8
0
100
AcDbCircle
 62
7
  6
CONTINUOUS
 10
14.3480413245
 20
12.0171438122
 40
0.02
100
AcDbArc
 50
270.0
 51
360.0
  0
ARC
  5
2CD
100
AcDbEntity
  8
0
100
AcDbCircle
 62
7
  6
CONTINUOUS
 10
14.3480413245
 20
12.1071438122
 40
0.02
100
AcDbArc
 50
0.0
 51
90.0
  0
SPLINE
  5
2CE
100
AcDbEntity
  8
0
100
AcDbSpline
 62
7
  6
CONTINUOUS
 70
0
 71
3
 72
11
 73
7
 74
0
 42
0.0000001
 43
0.0000001
 44
0.0000000001
 40
0.0
 40
0.0
 40
0.0
 40
0.0
 40
0.2499894575
 40
0.5
 40
0.7500105425
 40
1.0
 40
1.0
 40
1.0
 40
1.0
 10
7.4646179063
 20
9.4423406266
 30
0.0
 10
7.4962987446
 20
9.4795509035
 30
0.0
 10
7.564843774
 20
9.5497237065
 30
0.0
 10
7.6806589787
 20
9.6403036853
 30
0.0
 10
7.8073866279
 20
9.7148556613
 30
0.0
 10
7.8978005315
 20
9.752907854
 30
0.0
 10
7.9440335492
 20
9.7687441508
 30
0.0
  0
SPLINE
  5
2CF
100
AcDbEntity
  8
0
100
AcDbSpline
 62
9
  6
CONTINUOUS
 70
0
 71
3
 72
20
 73
16
 74
0
 42
0.0000001
 43
0.0000001
 44
0.0000000001
 40
0.0
 40
0.0
 40
0.0
 40
0.0
 40
0.0898207027
 40
0.166256604
 40
0.2959763649
 40
0.4048558029
 40
0.4991397199
 40
0.5820992757
 40
0.6554923309
 40
0.7783352167
 40
0.8730989103
 40
0.9106877658
 40
0.9419159717
 40
0.984993741
 40
1.0
 40
1.0
 40
1.0
 40
1.0
 10
6.930373021
 20
9.5270890425
 30
0.0
 10
6.9170261775
 20
9.5315718188
 30
0.0
 10
6.8923840483
 20
9.5400589114
 30
0.0
 10
6.848790389
 20
9.5559397136
 30
0.0
 10
6.8027228971
 20
9.573743859
 30
0.0
 10
6.7545356806
 20
9.5937747541
 30
0.0
 10
6.7135086773
 20
9.6119023182
 30
0.0
 10
6.6778866203
 20
9.628478836
 30
0.0
 10
6.6385512182
 20
9.6476675365
 30
0.0
 10
6.5980053945
 20
9.668579595
 30
0.0
 10
6.5628939596
 20
9.6877516635
 30
0.0
 10
6.5405457002
 20
9.7003235213
 30
0.0
 10
6.5253042334
 20
9.7090033642
 30
0.0
 10
6.5131441587
 20
9.7159407952
 30
0.0
 10
6.505238908
 20
9.7204578496
 30
0.0
 10
6.5031967616
 20
9.7216252174
 30
0.0
  0
SPLINE
  5
2D0
100
AcDbEntity
  8
0
100
AcDbSpline
 62
9
  6
CONTINUOUS
 70
0
 71
3
 72
17
 73
13
 74
0
 42
0.0000001
 43
0.0000001
 44
0.0000000001
 40
0.0
 40
0.0
 40
0.0
 40
0.0
 40
0.0163807547
 40
0.0628779237
 40
0.1361050381
 40
0.2351734439
 40
0.3610215694
 40
0.4350067418
 40
0.5176783967
 40
0.610549873
 40
0.7165651687
 40
1.0
 40
1.0
 40
1.0
 40
1.0
 10
7.3904912721
 20
9.3447019987
 30
0.0
 10
7.387973935
 20
9.3456870297
 30
0.0
 10
7.3783238255
 20
9.3495003071
 30
0.0
 10
7.3575255646
 20
9.3579811049
 30
0.0
 10
7.3242321499
 20
9.3719513096
 30
0.0
 10
7.2789356001
 20
9.3911570219
 30
0.0
 10
7.2335147483
 20
9.4103904251
 30
0.0
 10
7.1904948357
 20
9.4283532714
 30
0.0
 10
7.1524059158
 20
9.4440004247
 30
0.0
 10
7.1092985044
 20
9.4613398152
 30
0.0
 10
7.0351482036
 20
9.4902667708
 30
0.0
 10
6.9747117109
 20
9.5121970992
 30
0.0
 10
6.930373021
 20
9.5270890425
 30
0.0
  0
SPLINE
  5
2D1
100
AcDbEntity
  8
0
100
AcDbSpline
 62
9
  6
CONTINUOUS
 70
0
 71
3
 72
21
 73
17
 74
0
 42
0.0000001
 43
0.0000001
 44
0.0000000001
 40
0.0
 40
0.0
 40
0.0
 40
0.0
 40
0.0861784611
 40
0.1598895684
 40
0.2258140462
 40
0.2858802477
 40
0.392658759
 40
0.486012423
 40
0.5689197768
 40
0.6429344753
 40
0.7683405585
 40
0.8665030627
 40
0.9058062136
 40
0.9386142775
 40
0.9840817117
 40
1.0
 40
1.0
 40
1.0
 40
1.0
 10
7.0171686887
 20
9.6337563964
 30
0.0
 10
7.0040343007
 20
9.6384536462
 30
0.0
 10
6.9797475892
 20
9.647401664
 30
0.0
 10
6.9457325772
 20
9.6607842935
 30
0.0
 10
6.9158532378
 20
9.6731201353
 30
0.0
 10
6.8812616917
 20
9.6880549171
 30
0.0
 10
6.8429635976
 20
9.7055924167
 30
0.0
 10
6.8018262141
 20
9.7257664526
 30
0.0
 10
6.7658715406
 20
9.744437825
 30
0.0
 10
6.7257711555
 20
9.7663589362
 30
0.0
 10
6.6841057022
 20
9.7905443555
 30
0.0
 10
6.6478781262
 20
9.8128659048
 30
0.0
 10
6.624613687
 20
9.8276435973
 30
0.0
 10
6.6086071849
 20
9.8379389384
 30
0.0
 10
6.5957911624
 20
9.8461974718
 30
0.0
 10
6.5874430244
 20
9.8515857555
 30
0.0
 10
6.5852785005
 20
9.8529834583
 30
0.0
  0
SPLINE
  5
2D2
100
AcDbEntity
  8
0
100
AcDbSpline
 62
9
  6
CONTINUOUS
 70
0
 71
3
 72
24
 73
20
 74
0
 42
0.0000001
 43
0.0000001
 44
0.0000000001
 40
0.0
 40
0.0
 40
0.0
 40
0.0
 40
0.0040610288
 40
0.015949461
 40
0.0352241857
 40
0.0614453454
 40
0.0942440298
 40
0.1335300301
 40
0.2316808854
 40
0.2908333542
 40
0.3571597064
 40
0.431247902
 40
0.5142455802
 40
0.6076821537
 40
0.7144974384
 40
0.7745447617
 40
0.8404116613
 40
0.9140113024
 40
1.0
 40
1.0
 40
1.0
 40
1.0
 10
7.4646179063
 20
9.4423406266
 30
0.0
 10
7.4640083423
 20
9.4425910705
 30
0.0
 10
7.4616163323
 20
9.4435795494
 30
0.0
 10
7.4563484987
 20
9.4457984373
 30
0.0
 10
7.4477896294
 20
9.4494673938
 30
0.0
 10
7.4361500342
 20
9.4545612529
 30
0.0
 10
7.421584846
 20
9.4610685108
 30
0.0
 10
7.3964177555
 20
9.472459849
 30
0.0
 10
7.367420629
 20
9.4857596643
 30
0.0
 10
7.3344448391
 20
9.5009098484
 30
0.0
 10
7.3049958858
 20
9.5143833596
 30
0.0
 10
7.2719785863
 20
9.5293580052
 30
0.0
 10
7.234851003
 20
9.545919567
 30
0.0
 10
7.192723544
 20
9.564305998
 30
0.0
 10
7.1538128937
 20
9.5807473467
 30
0.0
 10
7.1188527499
 20
9.5950341248
 30
0.0
 10
7.0887667567
 20
9.6069957993
 30
0.0
 10
7.0546254769
 20
9.620147581
 30
0.0
 10
7.0303075745
 20
9.6290575381
 30
0.0
 10
7.0171686887
 20
9.6337563964
 30
0.0
  0
SPLINE
  5
2D3
100
AcDbEntity
  8
0
100
AcDbSpline
 62
9
  6
CONTINUOUS
 70
0
 71
3
 72
9
 73
5
 74
0
 42
0.0000001
 43
0.0000001
 44
0.0000000001
 40
0.0
 40
0.0
 40
0.0
 40
0.0
 40
0.500859545
 40
1.0
 40
1.0
 40
1.0
 40
1.0
 10
7.0171686887
 20
9.6337563964
 30
0.0
 10
7.0883028381
 20
9.7173019004
 30
0.0
 10
7.2393548571
 20
9.8766401305
 30
0.0
 10
7.4073879154
 20
10.0180928127
 30
0.0
 10
7.4951583494
 20
10.0833136871
 30
0.0
  0
SPLINE
  5
2D4
100
AcDbEntity
  8
0
100
AcDbSpline
 62
9
  6
CONTINUOUS
 70
0
 71
3
 72
12
 73
8
 74
0
 42
0.0000001
 43
0.0000001
 44
0.0000000001
 40
0.0
 40
0.0
 40
0.0
 40
0.0
 40
0.1222089444
 40
0.2450348894
 40
0.4931136803
 40
0.7448864373
 40
1.0
 40
1.0
 40
1.0
 40
1.0
 10
8.1198879659
 20
10.4235087261
 30
0.0
 10
8.167248059
 20
10.4411841093
 30
0.0
 10
8.2632134505
 20
10.4739839561
 30
0.0
 10
8.4594098593
 20
10.5300208831
 30
0.0
 10
8.7117530049
 20
10.5833303146
 30
0.0
 10
9.0214783711
 20
10.6248291656
 30
0.0
 10
9.2306595742
 20
10.6405694884
 30
0.0
 10
9.3360324129
 20
10.6462543714
 30
0.0
  0
SPLINE
  5
2D5
100
AcDbEntity
  8
0
100
AcDbSpline
 62
9
  6
CONTINUOUS
 70
0
 71
3
 72
23
 73
19
 74
0
 42
0.0000001
 43
0.0000001
 44
0.0000000001
 40
0.0
 40
0.0
 40
0.0
 40
0.0
 40
0.0764249733
 40
0.1434120113
 40
0.2045031883
 40
0.2611421373
 40
0.364163258
 40
0.4566430838
 40
0.5406016997
 40
0.6169923383
 40
0.6864610529
 40
0.7492327082
 40
0.8053863049
 40
0.8548666368
 40
0.8975642013
 40
0.9332960445
 40
0.9827387785
 40
1.0
 40
1.0
 40
1.0
 40
1.0
 10
7.4951583494
 20
10.0833136871
 30
0.0
 10
7.4827686718
 20
10.0895916692
 30
0.0
 10
7.4597303921
 20
10.1017976049
 30
0.0
 10
7.4275698875
 20
10.1204385143
 30
0.0
 10
7.3989848699
 20
10.1380484508
 30
0.0
 10
7.3653522907
 20
10.1599269337
 30
0.0
 10
7.3277497878
 20
10.1861392409
 30
0.0
 10
7.2871285171
 20
10.2166387072
 30
0.0
 10
7.2511770524
 20
10.2452624093
 30
0.0
 10
7.2191550918
 20
10.27208336
 30
0.0
 10
7.1905620715
 20
10.2969882349
 30
0.0
 10
7.1651122117
 20
10.3198939292
 30
0.0
 10
7.1426128094
 20
10.3406434022
 30
0.0
 10
7.1229772779
 20
10.3591145409
 30
0.0
 10
7.1061536169
 20
10.3751569714
 30
0.0
 10
7.0893956079
 20
10.3912579485
 30
0.0
 10
7.0759439572
 20
10.4041279115
 30
0.0
 10
7.0671524287
 20
10.4124748004
 30
0.0
 10
7.0648748365
 20
10.414632042
 30
0.0
  0
SPLINE
  5
2D6
100
AcDbEntity
  8
0
100
AcDbSpline
 62
9
  6
CONTINUOUS
 70
0
 71
3
 72
26
 73
22
 74
0
 42
0.0000001
 43
0.0000001
 44
0.0000000001
 40
0.0
 40
0.0
 40
0.0
 40
0.0
 40
0.0051959447
 40
0.0203546926
 40
0.0448331951
 40
0.0779892506
 40
0.1191984841
 40
0.1679040212
 40
0.2235762338
 40
0.2857297262
 40
0.3539042607
 40
0.4276948865
 40
0.5067783105
 40
0.591092595
 40
0.6807661537
 40
0.727814425
 40
0.7765989329
 40
0.8274231073
 40
0.880776349
 40
0.9375438195
 40
1.0
 40
1.0
 40
1.0
 40
1.0
 10
8.5653450335
 20
9.9399644555
 30
0.0
 10
8.5646075888
 20
9.9408359393
 30
0.0
 10
8.5617237286
 20
9.9442541374
 30
0.0
 10
8.5554085547
 20
9.9518140234
 30
0.0
 10
8.5452113647
 20
9.9641354827
 30
0.0
 10
8.5314578405
 20
9.9809429666
 30
0.0
 10
8.5144493912
 20
10.0019643888
 30
0.0
 10
8.4943677382
 20
10.02686275
 30
0.0
 10
8.4713799172
 20
10.0553291823
 30
0.0
 10
8.4456109001
 20
10.087047753
 30
0.0
 10
8.4171673519
 20
10.1217221871
 30
0.0
 10
8.3860506192
 20
10.1590132337
 30
0.0
 10
8.3522060514
 20
10.1986435977
 30
0.0
 10
8.3153756785
 20
10.2403042025
 30
0.0
 10
8.2824161545
 20
10.2759805269
 30
0.0
 10
8.2540890563
 20
10.3052887364
 30
0.0
 10
8.2312614243
 20
10.3280337965
 30
0.0
 10
8.2069358253
 20
10.3512283018
 30
0.0
 10
8.1806943284
 20
10.3749382809
 30
0.0
 10
8.151775707
 20
10.3994766697
 30
0.0
 10
8.130987027
 20
10.4154391418
 30
0.0
 10
8.1198879659
 20
10.4235087261
 30
0.0
  0
SPLINE
  5
2D7
100
AcDbEntity
  8
0
100
AcDbSpline
 62
9
  6
CONTINUOUS
 70
0
 71
3
 72
9
 73
5
 74
0
 42
0.0000001
 43
0.0000001
 44
0.0000000001
 40
0.0
 40
0.0
 40
0.0
 40
0.0
 40
0.4993545285
 40
1.0
 40
1.0
 40
1.0
 40
1.0
 10
9.3360324129
 20
10.6462543714
 30
0.0
 10
9.4528111818
 20
10.6525546063
 30
0.0
 10
9.6869735977
 20
10.659675296
 30
0.0
 10
9.9211852127
 20
10.6598690378
 30
0.0
 10
10.0384341608
 20
10.6591867816
 30
0.0
  0
SPLINE
  5
2D8
100
AcDbEntity
  8
0
100
AcDbSpline
 62
9
  6
CONTINUOUS
 70
0
 71
3
 72
26
 73
22
 74
0
 42
0.0000001
 43
0.0000001
 44
0.0000000001
 40
0.0
 40
0.0
 40
0.0
 40
0.0
 40
0.0052074392
 40
0.0204789562
 40
0.0452895047
 40
0.0791156895
 40
0.1214260757
 40
0.1716502584
 40
0.2292127601
 40
0.2935604651
 40
0.364137898
 40
0.4403586558
 40
0.5216625152
 40
0.6076230252
 40
0.6979043626
 40
0.7446360319
 40
0.7924929982
 40
0.8415823249
 40
0.8921135731
 40
0.9445166521
 40
1.0
 40
1.0
 40
1.0
 40
1.0
 10
9.6540413245
 20
10.0534899097
 30
0.0
 10
9.6534925353
 20
10.0545224329
 30
0.0
 10
9.6513427902
 20
10.0585874273
 30
0.0
 10
9.6466508711
 20
10.0676100018
 30
0.0
 10
9.6390885294
 20
10.0823826356
 30
0.0
 10
9.6289137061
 20
10.1026380455
 30
0.0
 10
9.6163714476
 20
10.1280891979
 30
0.0
 10
9.6016023642
 20
10.1583843714
 30
0.0
 10
9.5847541497
 20
10.1931708441
 30
0.0
 10
9.5659443283
 20
10.2320852187
 30
0.0
 10
9.5452899134
 20
10.2747613933
 30
0.0
 10
9.5228180177
 20
10.3207875966
 30
0.0
 10
9.498542506
 20
10.3697766151
 30
0.0
 10
9.4723181982
 20
10.4213206202
 30
0.0
 10
9.4489582878
 20
10.4656081274
 30
0.0
 10
9.4289724757
 20
10.5019930819
 30
0.0
 10
9.413017827
 20
10.5300355579
 30
0.0
 10
9.3961151265
 20
10.5585150692
 30
0.0
 10
9.3779943345
 20
10.587448555
 30
0.0
 10
9.3582380923
 20
10.6170389475
 30
0.0
 10
9.3437732276
 20
10.6364925562
 30
0.0
 10
9.3360324129
 20
10.6462543714
 30
0.0
  0
SPLINE
  5
2D9
100
AcDbEntity
  8
0
100
AcDbSpline
 62
9
  6
CONTINUOUS
 70
0
 71
3
 72
24
 73
20
 74
0
 42
0.0000001
 43
0.0000001
 44
0.0000000001
 40
0.0
 40
0.0
 40
0.0
 40
0.0
 40
0.0044276835
 40
0.017402692
 40
0.0384638172
 40
0.0671510758
 40
0.1030486041
 40
0.1459116966
 40
0.1955555433
 40
0.2518674361
 40
0.3147862843
 40
0.3843847259
 40
0.4608742583
 40
0.5448795696
 40
0.7401323246
 40
0.7965937643
 40
0.8574318105
 40
0.9240668844
 40
1.0
 40
1.0
 40
1.0
 40
1.0
 10
7.9440335492
 20
9.7687441508
 30
0.0
 10
7.943383974
 20
9.7692286805
 30
0.0
 10
7.9408345646
 20
9.7711380227
 30
0.0
 10
7.9352270876
 20
9.7753943902
 30
0.0
 10
7.9261245856
 20
9.7823897843
 30
0.0
 10
7.9137641316
 20
9.7920303901
 30
0.0
 10
7.8983434476
 20
9.8042346753
 30
0.0
 10
7.879952407
 20
9.8188660847
 30
0.0
 10
7.8586399141
 20
9.8358267819
 30
0.0
 10
7.8344096804
 20
9.8550158798
 30
0.0
 10
7.8072273691
 20
9.876359881
 30
0.0
 10
7.7769578405
 20
9.8997503962
 30
0.0
 10
7.7433660532
 20
9.9251516914
 30
0.0
 10
7.6908322727
 20
9.9636176911
 30
0.0
 10
7.6401697536
 20
9.9984471895
 30
0.0
 10
7.5917792808
 20
10.0289609111
 30
0.0
 10
7.5629470577
 20
10.0463440675
 30
0.0
 10
7.5306356302
 20
10.064844466
 30
0.0
 10
7.5075553538
 20
10.0770319924
 30
0.0
 10
7.4951583494
 20
10.0833136871
 30
0.0
  0
SPLINE
  5
2DA
100
AcDbEntity
  8
0
100
AcDbSpline
 62
9
  6
CONTINUOUS
 70
0
 71
3
 72
11
 73
7
 74
0
 42
0.0000001
 43
0.0000001
 44
0.0000000001
 40
0.0
 40
0.0
 40
0.0
 40
0.0
 40
0.2513282118
 40
0.501543162
 40
0.7508072703
 40
1.0
 40
1.0
 40
1.0
 40
1.0
 10
7.4951583494
 20
10.0833136871
 30
0.0
 10
7.5431457104
 20
10.1189723652
 30
0.0
 10
7.6412904307
 20
10.1869953785
 30
0.0
 10
7.7949804151
 20
10.2782817432
 30
0.0
 10
7.954600478
 20
10.357619518
 30
0.0
 10
8.0643519598
 20
10.4027819892
 30
0.0
 10
8.1198879659
 20
10.4235087261
 30
0.0
  0
SPLINE
  5
2DB
100
AcDbEntity
  8
0
100
AcDbSpline
 62
9
  6
CONTINUOUS
 70
0
 71
3
 72
25
 73
21
 74
0
 42
0.0000001
 43
0.0000001
 44
0.0000000001
 40
0.0
 40
0.0
 40
0.0
 40
0.0
 40
0.0733896619
 40
0.1069745995
 40
0.1390186642
 40
0.1996436835
 40
0.2563885532
 40
0.3099053965
 40
0.3606257621
 40
0.4548903859
 40
0.5406928118
 40
0.6187373866
 40
0.6894901957
 40
0.7531018531
 40
0.8096196112
 40
0.8590247531
 40
0.9012659879
 40
0.9362384155
 40
0.9837682613
 40
1.0
 40
1.0
 40
1.0
 40
1.0
 10
8.1198879659
 20
10.4235087261
 30
0.0
 10
8.1088696238
 20
10.4315196236
 30
0.0
 10
8.0931045794
 20
10.4436118636
 30
0.0
 10
8.0732327437
 20
10.4600762034
 30
0.0
 10
8.0554985226
 20
10.4753986645
 30
0.0
 10
8.0349426642
 20
10.4940243902
 30
0.0
 10
8.0120704068
 20
10.5160079593
 30
0.0
 10
7.9910499542
 20
10.5372501556
 30
0.0
 10
7.9657264715
 20
10.5640184691
 30
0.0
 10
7.9371683792
 20
10.595962503
 30
0.0
 10
7.9063426286
 20
10.6326481525
 30
0.0
 10
7.8792184028
 20
10.6667209108
 30
0.0
 10
7.8552964013
 20
10.6980651308
 30
0.0
 10
7.8342869027
 20
10.7265978023
 30
0.0
 10
7.8159531464
 20
10.7521757753
 30
0.0
 10
7.8001665512
 20
10.7746966574
 30
0.0
 10
7.7868153048
 20
10.7940396226
 30
0.0
 10
7.7737378515
 20
10.8131482128
 30
0.0
 10
7.7633477144
 20
10.8282457234
 30
0.0
 10
7.7565879769
 20
10.8379609643
 30
0.0
 10
7.7548632545
 20
10.8404314544
 30
0.0
  0
SPLINE
  5
2DC
100
AcDbEntity
  8
0
100
AcDbSpline
 62
9
  6
CONTINUOUS
 70
0
 71
3
 72
21
 73
17
 74
0
 42
0.0000001
 43
0.0000001
 44
0.0000000001
 40
0.0
 40
0.0
 40
0.0
 40
0.0
 40
0.0194900033
 40
0.0764385707
 40
0.1182079504
 40
0.1682500164
 40
0.29107725
 40
0.3628075132
 40
0.4405725001
 40
0.5236913356
 40
0.6115276514
 40
0.7034626797
 40
0.7989282153
 40
0.8975935626
 40
0.9481908388
 40
1.0
 40
1.0
 40
1.0
 40
1.0
 10
10.8491962231
 20
10.0534899097
 30
0.0
 10
10.8484555893
 20
10.0574082867
 30
0.0
 10
10.8455788946
 20
10.0727811492
 30
0.0
 10
10.8412730295
 20
10.0965809096
 30
0.0
 10
10.8359572039
 20
10.1265500899
 30
0.0
 10
10.8283237315
 20
10.1697976713
 30
0.0
 10
10.8195829384
 20
10.2190747579
 30
0.0
 10
10.8096542799
 20
10.2739015915
 30
0.0
 10
10.8009747773
 20
10.320697604
 30
0.0
 10
10.7914023915
 20
10.3706789771
 30
0.0
 10
10.7808238468
 20
10.4234179061
 30
0.0
 10
10.7691218469
 20
10.4785052671
 30
0.0
 10
10.7560160869
 20
10.5355529463
 30
0.0
 10
10.7435561589
 20
10.5840608623
 30
0.0
 10
10.7321224222
 20
10.6235844064
 30
0.0
 10
10.7255870038
 20
10.6435000834
 30
0.0
 10
10.7220413245
 20
10.6534899097
 30
0.0
  0
SPLINE
  5
2DD
100
AcDbEntity
  8
0
100
AcDbSpline
 62
9
  6
CONTINUOUS
 70
0
 71
3
 72
10
 73
6
 74
0
 42
0.0000001
 43
0.0000001
 44
0.0000000001
 40
0.0
 40
0.0
 40
0.0
 40
0.0
 40
0.5038207747
 40
0.753154142
 40
1.0
 40
1.0
 40
1.0
 40
1.0
 10
10.0384341608
 20
10.6591867816
 30
0.0
 10
10.1532416955
 20
10.6585187317
 30
0.0
 10
10.3248572248
 20
10.6563959252
 30
0.0
 10
10.5527224523
 20
10.6540414313
 30
0.0
 10
10.6657906782
 20
10.6534899097
 30
0.0
 10
10.7220413245
 20
10.6534899097
 30
0.0
  0
SPLINE
  5
2DE
100
AcDbEntity
  8
0
100
AcDbSpline
 62
9
  6
CONTINUOUS
 70
0
 71
3
 72
24
 73
20
 74
0
 42
0.0000001
 43
0.0000001
 44
0.0000000001
 40
0.0
 40
0.0
 40
0.0
 40
0.0
 40
0.0050276896
 40
0.0198516463
 40
0.0440838308
 40
0.0773370857
 40
0.1192000025
 40
0.1691605168
 40
0.2912508485
 40
0.3623238944
 40
0.4392901555
 40
0.5215391524
 40
0.6085454091
 40
0.6998358128
 40
0.7951137212
 40
0.8442747679
 40
0.8945610483
 40
0.9462173613
 40
1.0
 40
1.0
 40
1.0
 40
1.0
 10
10.2561030031
 20
10.0534899097
 30
0.0
 10
10.2557526957
 20
10.0545115154
 30
0.0
 10
10.254375843
 20
10.0585474412
 30
0.0
 10
10.2513652162
 20
10.0675257996
 30
0.0
 10
10.2464970445
 20
10.0822759966
 30
0.0
 10
10.2399225877
 20
10.1025791573
 30
0.0
 10
10.2317860446
 20
10.1281852225
 30
0.0
 10
10.2179813438
 20
10.1720132247
 30
0.0
 10
10.2023541196
 20
10.2218456566
 30
0.0
 10
10.1848366698
 20
10.2771647995
 30
0.0
 10
10.1697002393
 20
10.3242604362
 30
0.0
 10
10.1531908013
 20
10.3745090552
 30
0.0
 10
10.1351639967
 20
10.4274955679
 30
0.0
 10
10.1154557872
 20
10.4828610779
 30
0.0
 10
10.0974675954
 20
10.5302026246
 30
0.0
 10
10.0816465573
 20
10.5689266542
 30
0.0
 10
10.0687240263
 20
10.5987048735
 30
0.0
 10
10.054599409
 20
10.629034214
 30
0.0
 10
10.0440927115
 20
10.6491144011
 30
0.0
 10
10.0384341608
 20
10.6591867816
 30
0.0
  0
SPLINE
  5
2DF
100
AcDbEntity
  8
0
100
AcDbSpline
 62
9
  6
CONTINUOUS
 70
0
 71
3
 72
22
 73
18
 74
0
 42
0.0000001
 43
0.0000001
 44
0.0000000001
 40
0.0
 40
0.0
 40
0.0
 40
0.0
 40
0.0608769847
 40
0.1177298758
 40
0.1719555187
 40
0.2240845666
 40
0.2743995986
 40
0.3230662529
 40
0.4158389734
 40
0.502720807
 40
0.5836536643
 40
0.7268027548
 40
0.842687244
 40
0.8895631299
 40
0.9285939078
 40
0.9817903701
 40
1.0
 40
1.0
 40
1.0
 40
1.0
 10
9.3360324129
 20
10.6462543714
 30
0.0
 10
9.3283345778
 20
10.6559619857
 30
0.0
 10
9.3140668462
 20
10.6752350626
 30
0.0
 10
9.2948822501
 20
10.7045161461
 30
0.0
 10
9.2776965013
 20
10.7329462037
 30
0.0
 10
9.2620646026
 20
10.7607408269
 30
0.0
 10
9.2476904497
 20
10.7879312589
 30
0.0
 10
9.2302377869
 20
10.8228386389
 30
0.0
 10
9.2106288991
 20
10.8649755014
 30
0.0
 10
9.1896735461
 20
10.9136993596
 30
0.0
 10
9.1661050738
 20
10.9724374185
 30
0.0
 10
9.142115473
 20
11.0373465854
 30
0.0
 10
9.1219944195
 20
11.0962659937
 30
0.0
 10
9.1092120828
 20
11.1352935222
 30
0.0
 10
9.1005433685
 20
11.1622430286
 30
0.0
 10
9.0936822082
 20
11.1836455434
 30
0.0
 10
9.0892611641
 20
11.1974888223
 30
0.0
 10
9.0881348257
 20
11.2010194175
 30
0.0
  0
SPLINE
  5
2E0
100
AcDbEntity
  8
0
100
AcDbSpline
 62
9
  6
CONTINUOUS
 70
0
 71
3
 72
21
 73
17
 74
0
 42
0.0000001
 43
0.0000001
 44
0.0000000001
 40
0.0
 40
0.0
 40
0.0
 40
0.0
 40
0.0518113873
 40
0.1024104684
 40
0.2010784783
 40
0.2965457331
 40
0.3884817517
 40
0.476318468
 40
0.5594372258
 40
0.6372017387
 40
0.7089312054
 40
0.8317561509
 40
0.8817968827
 40
0.9235649041
 40
0.9805110653
 40
1.0
 40
1.0
 40
1.0
 40
1.0
 10
10.7220413245
 20
10.6534899097
 30
0.0
 10
10.7184956607
 20
10.6634796921
 30
0.0
 10
10.7119605508
 20
10.6833953046
 30
0.0
 10
10.7005285548
 20
10.7229187585
 30
0.0
 10
10.6880727177
 20
10.7714266158
 30
0.0
 10
10.6749745894
 20
10.8284743496
 30
0.0
 10
10.6632824749
 20
10.8835617456
 30
0.0
 10
10.6527156185
 20
10.9363007015
 30
0.0
 10
10.6431562726
 20
10.9862820903
 30
0.0
 10
10.6344907017
 20
11.0330781152
 30
0.0
 10
10.624580316
 20
11.0879048361
 30
0.0
 10
10.6158583034
 20
11.1371819297
 30
0.0
 10
10.6082434565
 20
11.180429648
 30
0.0
 10
10.6029415386
 20
11.2103987693
 30
0.0
 10
10.5986476121
 20
11.2341985135
 30
0.0
 10
10.5957795717
 20
11.2495715164
 30
0.0
 10
10.5950412224
 20
11.2534899097
 30
0.0
  0
SPLINE
  5
2E1
100
AcDbEntity
  8
0
100
AcDbSpline
 62
9
  6
CONTINUOUS
 70
0
 71
3
 72
22
 73
18
 74
0
 42
0.0000001
 43
0.0000001
 44
0.0000000001
 40
0.0
 40
0.0
 40
0.0
 40
0.0
 40
0.0552566306
 40
0.1081441043
 40
0.1594614308
 40
0.2094778601
 40
0.3060075918
 40
0.398027655
 40
0.4853254577
 40
0.5675014462
 40
0.6440960594
 40
0.7145607035
 40
0.8349661086
 40
0.8839766261
 40
0.9249012912
 40
0.9808121869
 40
1.0
 40
1.0
 40
1.0
 40
1.0
 10
10.0384341608
 20
10.6591867816
 30
0.0
 10
10.0327858373
 20
10.6692409574
 30
0.0
 10
10.0223408912
 20
10.6892654293
 30
0.0
 10
10.008424169
 20
10.7195034682
 30
0.0
 10
9.9958402372
 20
10.7491316734
 30
0.0
 10
9.9806461859
 20
10.7875326929
 30
0.0
 10
9.9637015091
 20
10.8343607693
 30
0.0
 10
9.9456012576
 20
10.8890157168
 30
0.0
 10
9.929478019
 20
10.9411568669
 30
0.0
 10
9.9150944721
 20
10.9904578803
 30
0.0
 10
9.9022303216
 20
11.0365384662
 30
0.0
 10
9.8877163291
 20
11.0904393151
 30
0.0
 10
9.8751525663
 20
11.1389015586
 30
0.0
 10
9.8643662559
 20
11.1814541067
 30
0.0
 10
9.8569290253
 20
11.2109697823
 30
0.0
 10
9.8509645817
 20
11.2344380242
 30
0.0
 10
9.8470467965
 20
11.2496136673
 30
0.0
 10
9.8460413245
 20
11.2534899097
 30
0.0
  0
ENDSEC
  0
SECTION
  2
OBJECTS
  0
DICTIONARY
  5
C
100
AcDbDictionary
280
0
281
1
  3
ACAD_GROUP
350
D
  3
ACAD_MLINESTYLE
350
17
  3
ACAD_LAYOUT
350
1A
  3
ACAD_PLOTSETTINGS
350
19
  3
ACAD_PLOTSTYLENAME
350
E
  0
DICTIONARY
  5
D
102
{ACAD_REACTORS
330
C
102
}
100
AcDbDictionary
280
0
281
1
  0
ACDBDICTIONARYWDFLT
  5
E
102
{ACAD_REACTORS
330
C
102
}
100
AcDbDictionary
281
1
  3
Normal
350
F
100
AcDbDictionaryWithDefault
340
F
  0
DICTIONARY
  5
17
102
{ACAD_REACTORS
330
C
102
}
100
AcDbDictionary
280
0
281
1
  3
Standard
350
18
  0
DICTIONARY
  5
19
102
{ACAD_REACTORS
330
C
102
}
100
AcDbDictionary
281
1
  0
DICTIONARY
  5
1A
102
{ACAD_REACTORS
330
C
102
}
100
AcDbDictionary
281
1
  3
Model
350
2E2
  3
Layout1
350
2E3
  0
ACDBPLACEHOLDER
  5
F
102
{ACAD_REACTORS
330
E
102
}
  0
MLINESTYLE
  5
18
102
{ACAD_REACTORS
330
17
102
}
100
AcDbMlineStyle
  2
STANDARD
 70
0
  3

 62
256
 51
90.0
 52
90.0
 71
2
 49
0.5
 62
256
  6
BYLAYER
 49
-0.5
 62
256
  6
BYLAYER
  0
LAYOUT
  5
2E2
102
{ACAD_REACTORS
330
1A
102
}
100
AcDbPlotSettings
  1

  2
none_device
  4
ANSI_C_(22.00_x_17.00_Inches)
  6

 40
0.0
 41
0.0
 42
0.0
 43
0.0
 44
558.8
 45
431.8
 46
0.0
 47
0.0
 48
0.0
 49
0.0
140
0.0
141
0.0
142
1.0
143
1.0
 70
1024
 72
0
 73
0
 74
0
  7

 75
0
147
1.0
148
0.0
149
0.0
100
AcDbLayout
  1
Model
 70
0
 71
0
 10
0.0
 20
0.0
 11
22.0
 21
17.0
 12
0.0
 22
0.0
 32
0.0
 14
0.0
 24
0.0
 34
0.0
 15
0.0
 25
0.0
 35
0.0
146
0.0
 13
0.0
 23
0.0
 33
0.0
 16
1.0
 26
0.0
 36
0.0
 17
0.0
 27
1.0
 37
0.0
 76
0
330
202
345
0
346
0
  0
LAYOUT
  5
2E3
102
{ACAD_REACTORS
330
1A
102
}
100
AcDbPlotSettings
  1

  2
none_device
  4
ANSI_C_(22.00_x_17.00_Inches)
  6

 40
0.0
 41
0.0
 42
0.0
 43
0.0
 44
558.8
 45
431.8
 46
0.0
 47
0.0
 48
0.0
 49
0.0
140
0.0
141
0.0
142
1.0
143
1.0
 70
0
 72
0
 73
0
 74
0
  7

 75
0
147
1.0
148
0.0
149
0.0
100
AcDbLayout
  1
Layout1
 70
0
 71
1
 10
0.0
 20
0.0
 11
22.0
 21
17.0
 12
0.0
 22
0.0
 32
0.0
 14
0.0
 24
0.0
 34
0.0
 15
0.0
 25
0.0
 35
0.0
146
0.0
 13
0.0
 23
0.0
 33
0.0
 16
1.0
 26
0.0
 36
0.0
 17
0.0
 27
1.0
 37
0.0
 76
0
330
203
345
0
346
0
  0
ENDSEC
  0
EOF
