999
DXF file: E:\BT Custom\CADOUTPUT\_TOP.dxf
999
Pro/ENGINEER 2018400 by Parametric Technology Corporation
  0
SECTION
  2
HEADER
  9
$ACADVER
  1
AC1018
  9
$DWGCODEPAGE
  3
ANSI_1252
  9
$EXTMAX
 10
22.0
 20
17.0
 30
0.0
  9
$EXTMIN
 10
0.0
 20
0.0
 30
0.0
  9
$LIMMIN
 10
0.0
 20
0.0
  9
$LIMMAX
 10
22.0
 20
17.0
  9
$VIEWCTR
 10
11.0
 20
8.5
  9
$VIEWSIZE
 40
17.0
  9
$CLAYER
  8
0
  9
$LTSCALE
 40
1.21
  9
$CELTYPE
  6
BYLAYER
  9
$DIMSCALE
 40
1.0
  9
$DIMASZ
 40
0.1
  9
$DIMEXO
 40
0.0625
  9
$DIMDLI
 40
0.836
  9
$DIMEXE
 40
0.125
  9
$DIMCEN
 40
0.198
  9
$DIMLFAC
 40
1.0
  9
$DIMBLK
  1
_FILLED
  9
$DIMALT
 70
1
  9
$DIMALTD
 70
2
  9
$DIMALTTD
 70
2
  9
$DIMALTF
 40
25.4
  9
$DIMTXT
 40
0.08
  9
$DIMTOL
 70
1
  9
$DIMLIM
 70
0
  9
$DIMTFAC
 40
1.0
  9
$DIMTP
 40
0.001
  9
$DIMTM
 40
0.001
  9
$DIMGAP
 40
0.09
  9
$DIMDSEP
 70
46
  9
$AUNITS
 70
0
  9
$PDMODE
 70
3
  9
$PDSIZE
 40
0.06
  9
$HANDSEED
  5
269
  9
$TILEMODE
 70
1
  9
$MEASUREMENT
 70
0
  9
$INSUNITS
 70
1
  0
ENDSEC
  0
SECTION
  2
CLASSES
  0
CLASS
  1
ACDBDICTIONARYWDFLT
  2
AcDbDictionaryWithDefault
  3
AutoCAD 2000
 90
0
 91
1
280
0
281
0
  0
CLASS
  1
ACDBPLACEHOLDER
  2
AcDbPlaceHolder
  3
AutoCAD 2000
 90
0
 91
1
280
0
281
0
  0
CLASS
  1
LAYOUT
  2
AcDbLayout
  3
AutoCAD 2000
 90
0
 91
0
280
0
281
0
  0
ENDSEC
  0
SECTION
  2
TABLES
  0
TABLE
  2
VPORT
  5
8
100
AcDbSymbolTable
 70
2
  0
VPORT
  5
1F4
100
AcDbSymbolTableRecord
100
AcDbViewportTableRecord
  2
*ACTIVE
 70
0
 10
0.0
 20
0.0
 11
1.0
 21
1.0
 12
11.0
 22
8.5
 13
0.0
 23
0.0
 14
1.0
 24
1.0
 15
0.0
 25
0.0
 16
0.0
 26
0.0
 36
1.0
 17
0.0
 27
0.0
 37
0.0
 40
17.0
 41
1.2941176471
 42
50.0
 43
0.0
 44
0.0
 50
0.0
 51
0.0
 71
0
 72
100
 73
1
 74
1
 75
0
 76
0
 77
0
 78
0
  0
ENDTAB
  0
TABLE
  2
LTYPE
  5
5
100
AcDbSymbolTable
 70
6
  0
LTYPE
  5
14
100
AcDbSymbolTableRecord
100
AcDbLinetypeTableRecord
  2
BYBLOCK
 70
0
  3

 72
65
 73
0
 40
0.0
  0
LTYPE
  5
15
100
AcDbSymbolTableRecord
100
AcDbLinetypeTableRecord
  2
BYLAYER
 70
0
  3

 72
65
 73
0
 40
0.0
  0
LTYPE
  5
16
100
AcDbSymbolTableRecord
100
AcDbLinetypeTableRecord
  2
CONTINUOUS
 70
64
  3
Solid line
 72
65
 73
0
 40
0.0
  0
LTYPE
  5
1F5
100
AcDbSymbolTableRecord
100
AcDbLinetypeTableRecord
  2
CENTER
 70
64
  3
____ _ ____ _ ____ _ ____ _ ____ _ ____ _ ____
 72
65
 73
4
 40
0.6
 49
0.375
 74
0
 49
-0.075
 74
0
 49
0.075
 74
0
 49
-0.075
 74
0
  0
LTYPE
  5
1F6
100
AcDbSymbolTableRecord
100
AcDbLinetypeTableRecord
  2
HIDDEN
 70
64
  3
- - - - - - - - - - - - - - - - - - - -
 72
65
 73
2
 40
0.2
 49
0.1
 74
0
 49
-0.1
 74
0
  0
LTYPE
  5
1F7
100
AcDbSymbolTableRecord
100
AcDbLinetypeTableRecord
  2
PHANTOM
 70
64
  3
_____ _ _ _____ _ _ _____ _ _ _____
 72
65
 73
6
 40
0.8
 49
0.45
 74
0
 49
-0.05
 74
0
 49
0.1
 74
0
 49
-0.05
 74
0
 49
0.1
 74
0
 49
-0.05
 74
0
  0
LTYPE
  5
1F8
100
AcDbSymbolTableRecord
100
AcDbLinetypeTableRecord
  2
DOT
 70
64
  3
. . . . . . . . . . . . . . . . . . . .
 72
65
 73
2
 40
0.2
 49
0.1
 74
0
 49
-0.1
 74
0
  0
LTYPE
  5
1F9
100
AcDbSymbolTableRecord
100
AcDbLinetypeTableRecord
  2
DASHED
 70
64
  3
- - - - - - - - - - - - - - - - - - - -
 72
65
 73
2
 40
0.2
 49
0.1
 74
0
 49
-0.1
 74
0
  0
ENDTAB
  0
TABLE
  2
LAYER
  5
2
100
AcDbSymbolTable
 70
36
  0
LAYER
  5
10
100
AcDbSymbolTableRecord
100
AcDbLayerTableRecord
  2
0
 70
0
 62
7
  6
CONTINUOUS
370
-3
390
F
  0
LAYER
  5
1FA
100
AcDbSymbolTableRecord
100
AcDbLayerTableRecord
  2
DEFAULT_1
 70
0
 62
7
  6
CENTER
370
-3
390
F
  0
LAYER
  5
1FB
100
AcDbSymbolTableRecord
100
AcDbLayerTableRecord
  2
DEFAULT_2
 70
0
 62
8
  6
HIDDEN
370
-3
390
F
  0
LAYER
  5
1FC
100
AcDbSymbolTableRecord
100
AcDbLayerTableRecord
  2
DEFAULT_3
 70
0
 62
7
  6
PHANTOM
370
-3
390
F
  0
LAYER
  5
1FD
100
AcDbSymbolTableRecord
100
AcDbLayerTableRecord
  2
ALL_FEATURES
 70
0
 62
7
  6
CONTINUOUS
370
-3
390
F
  0
LAYER
  5
1FE
100
AcDbSymbolTableRecord
100
AcDbLayerTableRecord
  2
AXES_FEATURES
 70
0
 62
7
  6
CONTINUOUS
370
-3
390
F
  0
LAYER
  5
1FF
100
AcDbSymbolTableRecord
100
AcDbLayerTableRecord
  2
DIMENSIONS
 70
0
 62
7
  6
CONTINUOUS
370
-3
390
F
  0
ENDTAB
  0
TABLE
  2
STYLE
  5
3
100
AcDbSymbolTable
 70
1
  0
STYLE
  5
11
100
AcDbSymbolTableRecord
100
AcDbTextStyleTableRecord
  2
STANDARD
 70
0
 40
0.0
 41
0.8
 50
0.0
 71
0
 42
0.2
  3
txt
  4

  0
STYLE
  5
200
100
AcDbSymbolTableRecord
100
AcDbTextStyleTableRecord
  2
TEXTSTYLE_1
 70
0
 40
0.0
 41
0.8
 50
0.0
 71
0
 42
0.2
  3
gdt
  4

  0
ENDTAB
  0
TABLE
  2
VIEW
  5
6
100
AcDbSymbolTable
 70
0
  0
ENDTAB
  0
TABLE
  2
UCS
  5
7
100
AcDbSymbolTable
 70
0
  0
ENDTAB
  0
TABLE
  2
APPID
  5
9
100
AcDbSymbolTable
 70
1
  0
APPID
  5
201
100
AcDbSymbolTableRecord
100
AcDbRegAppTableRecord
  2
ACAD
 70
0
  0
ENDTAB
  0
TABLE
  2
BLOCK_RECORD
  5
1
100
AcDbSymbolTable
 70
0
  0
BLOCK_RECORD
  5
202
100
AcDbSymbolTableRecord
100
AcDbBlockTableRecord
  2
*Model_Space
  0
BLOCK_RECORD
  5
203
100
AcDbSymbolTableRecord
100
AcDbBlockTableRecord
  2
*Paper_Space
  0
BLOCK_RECORD
  5
204
100
AcDbSymbolTableRecord
100
AcDbBlockTableRecord
  2
_FILLED
  0
ENDTAB
  0
TABLE
  2
DIMSTYLE
  5
A
100
AcDbSymbolTable
 70
1
100
AcDbDimStyleTable
 71
0
  0
DIMSTYLE
105
205
100
AcDbSymbolTableRecord
100
AcDbDimStyleTableRecord
  2
STANDARD
 70
0
  3

  4

 40
1.0
 41
0.1
 42
0.0625
 43
0.38
 44
0.125
 45
0.0
 46
0.0
 47
0.001
 48
0.001
140
0.08
141
0.09
142
0.0
143
25.4
144
1.0
145
0.0
146
1.0
147
0.09
 71
1.0
 72
0.0
 73
1
 74
1
 75
0
 76
0
 77
0
 78
4
 79
1
170
1
171
2
172
0
173
0
174
0
175
0
176
0
177
0
178
0
270
2
179
3
271
3
272
3
273
2
274
2
275
0
280
0
281
0
282
0
283
1
284
4
285
0
286
0
287
3
288
0
340
11
278
46
341
204
342
204
343
204
344
204
  0
ENDTAB
  0
ENDSEC
  0
SECTION
  2
BLOCKS
  0
BLOCK
  5
20
100
AcDbEntity
  8
0
100
AcDbBlockBegin
  2
*Model_Space
 70
0
 10
0.0
 20
0.0
 30
0.0
  3
*Model_Space
  1

  0
ENDBLK
  5
21
100
AcDbEntity
  8
0
100
AcDbBlockEnd
  0
BLOCK
  5
1C
100
AcDbEntity
  8
0
100
AcDbBlockBegin
  2
*Paper_Space
 70
0
 10
0.0
 20
0.0
 30
0.0
  3
*Paper_Space
  1

  0
ENDBLK
  5
1D
100
AcDbEntity
  8
0
100
AcDbBlockEnd
  0
BLOCK
  5
206
100
AcDbEntity
  8
0
100
AcDbBlockBegin
  2
_FILLED
 70
64
 10
0.0
 20
0.0
  3
_FILLED
  1

  0
SOLID
  5
207
100
AcDbEntity
  8
0
  6
BYBLOCK
 62
0
100
AcDbTrace
 10
0.0
 20
0.0
 11
-1.0
 21
0.2
 12
-1.0
 22
-0.2
 13
-1.0
 23
-0.2
  0
ENDBLK
  5
208
100
AcDbEntity
  8
0
  6
BYBLOCK
 62
0
100
AcDbBlockEnd
  0
ENDSEC
  0
SECTION
  2
ENTITIES
  0
LINE
  5
209
100
AcDbEntity
  8
0
100
AcDbLine
 62
9
  6
CONTINUOUS
 10
9.1028565959
 20
7.6873685811
 11
9.1028565959
 21
7.2772951397
  0
LINE
  5
20A
100
AcDbEntity
  8
0
100
AcDbLine
 62
9
  6
CONTINUOUS
 10
9.1520226659
 20
7.311594503
 11
9.1520226659
 21
7.6530692178
  0
LINE
  5
20B
100
AcDbEntity
  8
0
100
AcDbLine
 62
7
  6
CONTINUOUS
 10
9.1767045952
 20
7.3023318604
 11
9.1767045952
 21
7.6623318604
  0
LINE
  5
20C
100
AcDbEntity
  8
0
100
AcDbLine
 62
9
  6
CONTINUOUS
 10
9.2036785374
 20
7.290688296
 11
9.2036785374
 21
7.6739754248
  0
LINE
  5
20D
100
AcDbEntity
  8
0
100
AcDbLine
 62
7
  6
CONTINUOUS
 10
9.3558183383
 20
7.1033025085
 11
9.3558183383
 21
7.3383364941
  0
LINE
  5
20E
100
AcDbEntity
  8
0
100
AcDbLine
 62
7
  6
CONTINUOUS
 10
9.3558183383
 20
7.6263272267
 11
9.3558183383
 21
7.8613612121
  0
LINE
  5
20F
100
AcDbEntity
  8
0
100
AcDbLine
 62
9
  6
CONTINUOUS
 10
9.4550031674
 20
7.6704747175
 11
9.4550031674
 21
7.4843028525
  0
LINE
  5
210
100
AcDbEntity
  8
0
100
AcDbLine
 62
9
  6
CONTINUOUS
 10
9.4550031674
 20
7.4803192607
 11
9.4550031674
 21
7.2941890033
  0
LINE
  5
211
100
AcDbEntity
  8
0
100
AcDbLine
 62
9
  6
CONTINUOUS
 10
9.4756285925
 20
7.6783318604
 11
9.4756285925
 21
7.6244557405
  0
LINE
  5
212
100
AcDbEntity
  8
0
100
AcDbLine
 62
9
  6
CONTINUOUS
 10
9.4756285925
 20
7.3395565588
 11
9.4756285925
 21
7.2863318604
  0
LINE
  5
213
100
AcDbEntity
  8
0
100
AcDbLine
 62
7
  6
CONTINUOUS
 10
9.4898183383
 20
7.2863318604
 11
9.4898183383
 21
7.2879096395
  0
LINE
  5
214
100
AcDbEntity
  8
0
100
AcDbLine
 62
7
  6
CONTINUOUS
 10
9.4898183383
 20
7.6767540814
 11
9.4898183383
 21
7.6783318604
  0
LINE
  5
215
100
AcDbEntity
  8
0
100
AcDbLine
 62
7
  6
CONTINUOUS
 10
9.7048183383
 20
7.5198318604
 11
9.7048183383
 21
7.4448318604
  0
LINE
  5
216
100
AcDbEntity
  8
0
100
AcDbLine
 62
7
  6
CONTINUOUS
 10
9.7248183383
 20
7.4654666236
 11
9.7248183383
 21
7.4991970972
  0
LINE
  5
217
100
AcDbEntity
  8
0
100
AcDbLine
 62
7
  6
CONTINUOUS
 10
9.3558196397
 20
7.8613630635
 11
10.0123172097
 21
8.2403921122
  0
LINE
  5
218
100
AcDbEntity
  8
0
100
AcDbLine
 62
7
  6
CONTINUOUS
 10
10.0123168909
 20
6.7242717926
 11
9.3558196399
 21
7.1033006572
  0
LINE
  5
219
100
AcDbEntity
  8
0
100
AcDbLine
 62
7
  6
CONTINUOUS
 10
9.9448183383
 20
7.4523318604
 11
9.9061978397
 21
7.3686153322
  0
LINE
  5
21A
100
AcDbEntity
  8
0
100
AcDbLine
 62
7
  6
CONTINUOUS
 10
9.930522081
 20
7.3735979748
 11
9.9765321599
 21
7.4733326806
  0
LINE
  5
21B
100
AcDbEntity
  8
0
100
AcDbLine
 62
7
  6
CONTINUOUS
 10
9.1028565959
 20
7.2772951397
 11
9.1520226659
 21
7.311594503
  0
LINE
  5
21C
100
AcDbEntity
  8
0
100
AcDbLine
 62
7
  6
CONTINUOUS
 10
9.1028565959
 20
7.6873685811
 11
9.1520226659
 21
7.6530692178
  0
LINE
  5
21D
100
AcDbEntity
  8
0
100
AcDbLine
 62
7
  6
CONTINUOUS
 10
9.9448183383
 20
7.5123318604
 11
9.9061978397
 21
7.5960483886
  0
LINE
  5
21E
100
AcDbEntity
  8
0
100
AcDbLine
 62
7
  6
CONTINUOUS
 10
9.9765321599
 20
7.4913310402
 11
9.930522081
 21
7.591065746
  0
LINE
  5
21F
100
AcDbEntity
  8
0
100
AcDbLine
 62
7
  6
CONTINUOUS
 10
10.5348183383
 20
7.6793318604
 11
10.5348183383
 21
7.6767540814
  0
LINE
  5
220
100
AcDbEntity
  8
0
100
AcDbLine
 62
7
  6
CONTINUOUS
 10
10.5348183383
 20
7.2879096395
 11
10.5348183383
 21
7.2853318604
  0
LINE
  5
221
100
AcDbEntity
  8
0
100
AcDbLine
 62
7
  6
CONTINUOUS
 10
10.5948183383
 20
7.2853318604
 11
10.5948183383
 21
7.6793318604
  0
LINE
  5
222
100
AcDbEntity
  8
0
100
AcDbLine
 62
7
  6
CONTINUOUS
 10
10.6688183383
 20
7.8613612123
 11
10.6688183383
 21
7.7105968604
  0
LINE
  5
223
100
AcDbEntity
  8
0
100
AcDbLine
 62
7
  6
CONTINUOUS
 10
10.6688183383
 20
7.2540668604
 11
10.6688183383
 21
7.1033027684
  0
LINE
  5
224
100
AcDbEntity
  8
0
100
AcDbLine
 62
7
  6
CONTINUOUS
 10
10.7948183383
 20
7.7638318604
 11
10.5948183383
 21
7.6793318604
  0
LINE
  5
225
100
AcDbEntity
  8
0
100
AcDbLine
 62
7
  6
CONTINUOUS
 10
10.7948183383
 20
7.2008318604
 11
10.5948183383
 21
7.2853318604
  0
LINE
  5
226
100
AcDbEntity
  8
0
100
AcDbLine
 62
7
  6
CONTINUOUS
 10
10.7948183383
 20
7.7638318604
 11
10.7948183383
 21
7.2008318604
  0
LINE
  5
227
100
AcDbEntity
  8
0
100
AcDbLine
 62
7
  6
CONTINUOUS
 10
13.2688183383
 20
7.2008318604
 11
13.1888183383
 21
7.2008318604
  0
LINE
  5
228
100
AcDbEntity
  8
0
100
AcDbLine
 62
7
  6
CONTINUOUS
 10
10.8998183383
 20
7.2008318604
 11
10.7948183383
 21
7.2008318604
  0
LINE
  5
229
100
AcDbEntity
  8
0
100
AcDbLine
 62
7
  6
CONTINUOUS
 10
10.5948183383
 20
7.2853318604
 11
10.5348183383
 21
7.2853318604
  0
LINE
  5
22A
100
AcDbEntity
  8
0
100
AcDbLine
 62
7
  6
CONTINUOUS
 10
9.4756285925
 20
7.2863318604
 11
9.4898183383
 21
7.2863318604
  0
LINE
  5
22B
100
AcDbEntity
  8
0
100
AcDbLine
 62
7
  6
CONTINUOUS
 10
10.8998183383
 20
7.2008318604
 11
10.8998183383
 21
7.7638318604
  0
LINE
  5
22C
100
AcDbEntity
  8
0
100
AcDbLine
 62
7
  6
CONTINUOUS
 10
9.7048183383
 20
7.4448318604
 11
9.9448183383
 21
7.4523318604
  0
LINE
  5
22D
100
AcDbEntity
  8
0
100
AcDbLine
 62
7
  6
CONTINUOUS
 10
9.7248183383
 20
7.4991970972
 11
9.9765321599
 21
7.4913310402
  0
LINE
  5
22E
100
AcDbEntity
  8
0
100
AcDbLine
 62
7
  6
CONTINUOUS
 10
9.9448183383
 20
7.5123318604
 11
9.7048183383
 21
7.5198318604
  0
LINE
  5
22F
100
AcDbEntity
  8
0
100
AcDbLine
 62
7
  6
CONTINUOUS
 10
10.668817161
 20
7.103300729
 11
10.0123197856
 21
6.7242717926
  0
LINE
  5
230
100
AcDbEntity
  8
0
100
AcDbLine
 62
7
  6
CONTINUOUS
 10
9.9765321599
 20
7.4733326806
 11
9.7248183383
 21
7.4654666236
  0
LINE
  5
231
100
AcDbEntity
  8
0
100
AcDbLine
 62
7
  6
CONTINUOUS
 10
9.4756285925
 20
7.6783318604
 11
9.4898183383
 21
7.6783318604
  0
LINE
  5
232
100
AcDbEntity
  8
0
100
AcDbLine
 62
7
  6
CONTINUOUS
 10
10.5948183383
 20
7.6793318604
 11
10.5348183383
 21
7.6793318604
  0
LINE
  5
233
100
AcDbEntity
  8
0
100
AcDbLine
 62
7
  6
CONTINUOUS
 10
10.0123194669
 20
8.2403921122
 11
10.6688170366
 21
7.8613630636
  0
LINE
  5
234
100
AcDbEntity
  8
0
100
AcDbLine
 62
7
  6
CONTINUOUS
 10
13.2688183383
 20
7.7638318604
 11
13.1888183383
 21
7.7638318604
  0
LINE
  5
235
100
AcDbEntity
  8
0
100
AcDbLine
 62
7
  6
CONTINUOUS
 10
10.8998183383
 20
7.7638318604
 11
10.7948183383
 21
7.7638318604
  0
LINE
  5
236
100
AcDbEntity
  8
0
100
AcDbLine
 62
7
  6
CONTINUOUS
 10
13.2688183383
 20
7.2008318604
 11
13.2888183383
 21
7.2208318604
  0
LINE
  5
237
100
AcDbEntity
  8
0
100
AcDbLine
 62
7
  6
CONTINUOUS
 10
13.2688183383
 20
7.7638318604
 11
13.2888183383
 21
7.7438318604
  0
LINE
  5
238
100
AcDbEntity
  8
0
100
AcDbLine
 62
7
  6
CONTINUOUS
 10
13.1888183383
 20
7.7638318604
 11
13.1888183383
 21
7.2008318604
  0
LINE
  5
239
100
AcDbEntity
  8
0
100
AcDbLine
 62
7
  6
CONTINUOUS
 10
13.2688183383
 20
7.2008318604
 11
13.2688183383
 21
7.7638318604
  0
LINE
  5
23A
100
AcDbEntity
  8
0
100
AcDbLine
 62
7
  6
CONTINUOUS
 10
13.2888183383
 20
7.2208318604
 11
13.2888183383
 21
7.7438318604
  0
ARC
  5
23B
100
AcDbEntity
  8
0
100
AcDbCircle
 62
7
  6
CONTINUOUS
 10
10.3980896591
 20
6.4670768444
 40
1.02
100
AcDbArc
 50
95.5287050837
 51
117.2838838627
  0
ARC
  5
23C
100
AcDbEntity
  8
0
100
AcDbCircle
 62
7
  6
CONTINUOUS
 10
10.3980896591
 20
6.4670768444
 40
1.0
100
AcDbArc
 50
95.5287050837
 51
118.1124318918
  0
ARC
  5
23D
100
AcDbEntity
  8
0
100
AcDbCircle
 62
7
  6
CONTINUOUS
 10
9.3312506164
 20
7.1553318604
 40
0.186
100
AcDbArc
 50
48.2918697478
 51
133.3041758004
  0
ARC
  5
23E
100
AcDbEntity
  8
0
100
AcDbCircle
 62
7
  6
CONTINUOUS
 10
9.4756285925
 20
7.3173318604
 40
0.031
100
AcDbArc
 50
228.291869748
 51
270.0
  0
ARC
  5
23F
100
AcDbEntity
  8
0
100
AcDbCircle
 62
7
  6
CONTINUOUS
 10
9.1927045952
 20
7.3023318604
 40
0.016
100
AcDbArc
 50
180.0
 51
313.3041758004
  0
ARC
  5
240
100
AcDbEntity
  8
0
100
AcDbCircle
 62
7
  6
CONTINUOUS
 10
9.1611771144
 20
7.2984721529
 40
0.016
100
AcDbArc
 50
13.9592487753
 51
124.9005000001
  0
ARC
  5
241
100
AcDbEntity
  8
0
100
AcDbCircle
 62
7
  6
CONTINUOUS
 10
9.9198183383
 20
7.3623318604
 40
0.015
100
AcDbArc
 50
155.2349591453
 51
298.1124318918
  0
ARC
  5
242
100
AcDbEntity
  8
0
100
AcDbCircle
 62
7
  6
CONTINUOUS
 10
8.9598183383
 20
7.4823318604
 40
0.25
100
AcDbArc
 50
55.0995
 51
304.9005
  0
ARC
  5
243
100
AcDbEntity
  8
0
100
AcDbCircle
 62
7
  6
CONTINUOUS
 10
9.3312506164
 20
7.8093318604
 40
0.186
100
AcDbArc
 50
226.6958241996
 51
311.7081302522
  0
ARC
  5
244
100
AcDbEntity
  8
0
100
AcDbCircle
 62
7
  6
CONTINUOUS
 10
9.4756285925
 20
7.6473318604
 40
0.031
100
AcDbArc
 50
90.0
 51
131.708130252
  0
ARC
  5
245
100
AcDbEntity
  8
0
100
AcDbCircle
 62
7
  6
CONTINUOUS
 10
9.1927045952
 20
7.6623318604
 40
0.016
100
AcDbArc
 50
46.6958241996
 51
180.0
  0
ARC
  5
246
100
AcDbEntity
  8
0
100
AcDbCircle
 62
7
  6
CONTINUOUS
 10
9.1611771144
 20
7.6661915679
 40
0.016
100
AcDbArc
 50
235.0994999999
 51
346.0407512247
  0
ARC
  5
247
100
AcDbEntity
  8
0
100
AcDbCircle
 62
7
  6
CONTINUOUS
 10
10.0123183383
 20
7.4823318604
 40
1.18
100
AcDbArc
 50
191.09441242
 51
346.4733632446
  0
ARC
  5
248
100
AcDbEntity
  8
0
100
AcDbCircle
 62
7
  6
CONTINUOUS
 10
10.0123183383
 20
7.4823318604
 40
1.18
100
AcDbArc
 50
13.5290214591
 51
168.8999827872
  0
ARC
  5
249
100
AcDbEntity
  8
0
100
AcDbCircle
 62
7
  6
CONTINUOUS
 10
10.0123183383
 20
7.4823318604
 40
1.0000026738
100
AcDbArc
 50
16.2898874161
 51
166.3900523802
  0
ARC
  5
24A
100
AcDbEntity
  8
0
100
AcDbCircle
 62
7
  6
CONTINUOUS
 10
10.0123183383
 20
7.4823318604
 40
1.0000026738
100
AcDbArc
 50
193.6099476198
 51
343.7101125839
  0
ARC
  5
24B
100
AcDbEntity
  8
0
100
AcDbCircle
 62
9
  6
CONTINUOUS
 10
10.0123183383
 20
7.4823318604
 40
0.8130026738
100
AcDbArc
 50
192.7199459406
 51
340.2869111033
  0
ARC
  5
24C
100
AcDbEntity
  8
0
100
AcDbCircle
 62
9
  6
CONTINUOUS
 10
10.0123183383
 20
7.4823318604
 40
0.8130026738
100
AcDbArc
 50
19.7134772827
 51
167.2746795029
  0
ARC
  5
24D
100
AcDbEntity
  8
0
100
AcDbCircle
 62
7
  6
CONTINUOUS
 10
10.0123183383
 20
7.4823318604
 40
0.741
100
AcDbArc
 50
19.3987417861
 51
27.6295013938
  0
ARC
  5
24E
100
AcDbEntity
  8
0
100
AcDbCircle
 62
7
  6
CONTINUOUS
 10
10.0123183383
 20
7.4823318604
 40
0.741
100
AcDbArc
 50
332.3704986062
 51
340.6012582139
  0
ARC
  5
24F
100
AcDbEntity
  8
0
100
AcDbCircle
 62
7
  6
CONTINUOUS
 10
10.0123183383
 20
7.4823318604
 40
0.741
100
AcDbArc
 50
212.3704986062
 51
267.6295013938
  0
ARC
  5
250
100
AcDbEntity
  8
0
100
AcDbCircle
 62
7
  6
CONTINUOUS
 10
10.0123183383
 20
7.4823318604
 40
0.741
100
AcDbArc
 50
32.3704986062
 51
87.6295013938
  0
ARC
  5
251
100
AcDbEntity
  8
0
100
AcDbCircle
 62
7
  6
CONTINUOUS
 10
10.0123183383
 20
7.4823318604
 40
0.741
100
AcDbArc
 50
191.4311015375
 51
207.6295013938
  0
ARC
  5
252
100
AcDbEntity
  8
0
100
AcDbCircle
 62
7
  6
CONTINUOUS
 10
10.0123183383
 20
7.4823318604
 40
0.741
100
AcDbArc
 50
152.3704986062
 51
168.5688984625
  0
ARC
  5
253
100
AcDbEntity
  8
0
100
AcDbCircle
 62
7
  6
CONTINUOUS
 10
10.0123183383
 20
7.4823318604
 40
0.741
100
AcDbArc
 50
92.3704986062
 51
147.6295013938
  0
ARC
  5
254
100
AcDbEntity
  8
0
100
AcDbCircle
 62
7
  6
CONTINUOUS
 10
10.0123183383
 20
7.4823318604
 40
0.741
100
AcDbArc
 50
272.3704986062
 51
327.6295013938
  0
ARC
  5
255
100
AcDbEntity
  8
0
100
AcDbCircle
 62
7
  6
CONTINUOUS
 10
10.0123183383
 20
7.4823318604
 40
0.6515
100
AcDbArc
 50
18.914052129
 51
166.8311348854
  0
ARC
  5
256
100
AcDbEntity
  8
0
100
AcDbCircle
 62
7
  6
CONTINUOUS
 10
10.0123183383
 20
7.4823318604
 40
0.6515
100
AcDbArc
 50
193.1688651146
 51
341.085947871
  0
ARC
  5
257
100
AcDbEntity
  8
0
100
AcDbCircle
 62
9
  6
CONTINUOUS
 10
10.0123183383
 20
7.4823318604
 40
0.6146339942
100
AcDbArc
 50
18.7653349812
 51
164.5052650708
  0
ARC
  5
258
100
AcDbEntity
  8
0
100
AcDbCircle
 62
9
  6
CONTINUOUS
 10
10.0123183383
 20
7.4823318604
 40
0.6146339942
100
AcDbArc
 50
195.4947349292
 51
341.2346650188
  0
CIRCLE
  5
259
100
AcDbEntity
  8
0
100
AcDbCircle
 62
7
  6
CONTINUOUS
 10
10.0123183383
 20
7.4823318604
 40
0.5575
  0
CIRCLE
  5
25A
100
AcDbEntity
  8
0
100
AcDbCircle
 62
7
  6
CONTINUOUS
 10
10.0123183383
 20
7.4823318604
 40
0.5291923153
  0
CIRCLE
  5
25B
100
AcDbEntity
  8
0
100
AcDbCircle
 62
7
  6
CONTINUOUS
 10
10.0123183383
 20
7.4823318604
 40
0.5275
  0
CIRCLE
  5
25C
100
AcDbEntity
  8
0
100
AcDbCircle
 62
7
  6
CONTINUOUS
 10
10.0123183383
 20
7.4823318604
 40
0.5052804212
  0
CIRCLE
  5
25D
100
AcDbEntity
  8
0
100
AcDbCircle
 62
7
  6
CONTINUOUS
 10
10.0123183383
 20
7.4823318604
 40
0.4545099561
  0
CIRCLE
  5
25E
100
AcDbEntity
  8
0
100
AcDbCircle
 62
7
  6
CONTINUOUS
 10
10.0123183383
 20
7.4823318604
 40
0.4170458354
  0
CIRCLE
  5
25F
100
AcDbEntity
  8
0
100
AcDbCircle
 62
9
  6
CONTINUOUS
 10
10.0123183383
 20
7.4823318604
 40
0.3951446566
  0
ARC
  5
260
100
AcDbEntity
  8
0
100
AcDbCircle
 62
7
  6
CONTINUOUS
 10
9.9198183383
 20
7.6023318604
 40
0.015
100
AcDbArc
 50
61.8875681082
 51
204.7650408547
  0
ARC
  5
261
100
AcDbEntity
  8
0
100
AcDbCircle
 62
7
  6
CONTINUOUS
 10
10.2998183383
 20
7.4823318604
 40
0.02
100
AcDbArc
 50
275.5287050836
 51
84.4712949164
  0
ARC
  5
262
100
AcDbEntity
  8
0
100
AcDbCircle
 62
7
  6
CONTINUOUS
 10
10.3980896591
 20
8.4975868764
 40
1.02
100
AcDbArc
 50
242.7161161373
 51
264.4712949163
  0
ARC
  5
263
100
AcDbEntity
  8
0
100
AcDbCircle
 62
7
  6
CONTINUOUS
 10
10.3980896591
 20
8.4975868764
 40
1.0
100
AcDbArc
 50
241.8875681082
 51
264.4712949163
  0
ARC
  5
264
100
AcDbEntity
  8
0
100
AcDbCircle
 62
7
  6
CONTINUOUS
 10
13.0112975049
 20
7.4823318604
 40
0.3735208333
100
AcDbArc
 50
317.9864211384
 51
42.0135788616
  0
SPLINE
  5
265
100
AcDbEntity
  8
0
100
AcDbSpline
 62
7
  6
CONTINUOUS
 70
0
 71
3
 72
69
 73
65
 74
0
 42
0.0000001
 43
0.0000001
 44
0.0000000001
 40
0.0
 40
0.0
 40
0.0
 40
0.0
 40
0.0312272847
 40
0.0624545802
 40
0.0936821515
 40
0.1249098734
 40
0.1405335742
 40
0.156157396
 40
0.1717811871
 40
0.1874049786
 40
0.2030287725
 40
0.2108419075
 40
0.218655041
 40
0.2264681929
 40
0.2303749245
 40
0.234281637
 40
0.2381883488
 40
0.2420951007
 40
0.2460018544
 40
0.2479552309
 40
0.2499086013
 40
0.2518619838
 40
0.2528386726
 40
0.253815345
 40
0.2547920302
 40
0.2557688618
 40
0.2567456149
 40
0.2577219058
 40
0.2586984578
 40
0.2596754719
 40
0.2606524522
 40
0.2616291824
 40
0.2635824062
 40
0.2655357433
 40
0.2674891832
 40
0.2694426333
 40
0.2713960362
 40
0.2733494104
 40
0.2772561669
 40
0.2811629549
 40
0.2889765096
 40
0.2967900576
 40
0.3046036132
 40
0.3124171677
 40
0.3202307204
 40
0.3280442728
 40
0.3436713623
 40
0.3592984526
 40
0.3749255423
 40
0.3905526317
 40
0.4061797212
 40
0.4374337646
 40
0.4686878079
 40
0.4999418511
 40
0.5311958941
 40
0.5624499372
 40
0.5937039807
 40
0.6249580238
 40
0.6874650203
 40
0.7499720193
 40
0.812479016
 40
0.874986009
 40
0.9374930059
 40
1.0
 40
1.0
 40
1.0
 40
1.0
 10
13.1888183383
 20
7.7638318604
 30
0.0
 10
13.1731629446
 20
7.7827751056
 30
0.0
 10
13.1390774809
 20
7.818458846
 30
0.0
 10
13.0809286352
 20
7.864170607
 30
0.0
 10
13.0168417595
 20
7.9011203095
 30
0.0
 10
12.9595718275
 20
7.9240061297
 30
0.0
 10
12.9121932197
 20
7.9372727696
 30
0.0
 10
12.8760221612
 20
7.9446684461
 30
0.0
 10
12.8394169245
 20
7.9494631621
 30
0.0
 10
12.802563351
 20
7.951633102
 30
0.0
 10
12.7717974326
 20
7.9512453291
 30
0.0
 10
12.7472538802
 20
7.9496188497
 30
0.0
 10
12.7288992781
 20
7.947742165
 30
0.0
 10
12.713669
 20
7.9456336171
 30
0.0
 10
12.7015363998
 20
7.9436215401
 30
0.0
 10
12.6924651843
 20
7.9419496014
 30
0.0
 10
12.6834254001
 20
7.9401153993
 30
0.0
 10
12.6744193147
 20
7.938122273
 30
0.0
 10
12.6669445851
 20
7.9363292985
 30
0.0
 10
12.6609855481
 20
7.9348122047
 30
0.0
 10
12.6565273885
 20
7.9336315039
 30
0.0
 10
12.6528213124
 20
7.9326140749
 30
0.0
 10
12.6498606829
 20
7.9317850051
 30
0.0
 10
12.6476417829
 20
7.9311576863
 30
0.0
 10
12.6454258566
 20
7.9305193107
 30
0.0
 10
12.6432193542
 20
7.9298489455
 30
0.0
 10
12.6410162516
 20
7.9291684655
 30
0.0
 10
12.638794409
 20
7.9285511001
 30
0.0
 10
12.6365526073
 20
7.9280107751
 30
0.0
 10
12.6343028808
 20
7.9275033185
 30
0.0
 10
12.6320541428
 20
7.9269906503
 30
0.0
 10
12.6290627238
 20
7.9262799246
 30
0.0
 10
12.6253274567
 20
7.9253762007
 30
0.0
 10
12.6208397807
 20
7.9243138707
 30
0.0
 10
12.6163497286
 20
7.9232609244
 30
0.0
 10
12.6118587353
 20
7.9222117627
 30
0.0
 10
12.6073680585
 20
7.9211614777
 30
0.0
 10
12.6013801094
 20
7.9197630773
 30
0.0
 10
12.5938930272
 20
7.9180242656
 30
0.0
 10
12.5819086936
 20
7.9152637067
 30
0.0
 10
12.5669212754
 20
7.9118434084
 30
0.0
 10
12.5489242527
 20
7.9077925616
 30
0.0
 10
12.5309152283
 20
7.903795413
 30
0.0
 10
12.5128945293
 20
7.8998512185
 30
0.0
 10
12.4948622816
 20
7.895960167
 30
0.0
 10
12.4708041039
 20
7.8908430648
 30
0.0
 10
12.4407031886
 20
7.884579969
 30
0.0
 10
12.4045383822
 20
7.8772776278
 30
0.0
 10
12.3683311025
 20
7.8701888667
 30
0.0
 10
12.3320825999
 20
7.8633139486
 30
0.0
 10
12.283698163
 20
7.8544328916
 30
0.0
 10
12.2231205191
 20
7.8438673408
 30
0.0
 10
12.150282979
 20
7.8320478722
 30
0.0
 10
12.0773109307
 20
7.8210891
 30
0.0
 10
12.0042146039
 20
7.8109925366
 30
0.0
 10
11.9310041862
 20
7.8017597288
 30
0.0
 10
11.8576897655
 20
7.7933918614
 30
0.0
 10
11.7598136826
 20
7.7833896173
 30
0.0
 10
11.6372568856
 20
7.7730546589
 30
0.0
 10
11.4899390107
 20
7.7641284432
 30
0.0
 10
11.3424510841
 20
7.7586828734
 30
0.0
 10
11.1948755797
 20
7.7567219122
 30
0.0
 10
11.047295741
 20
7.7582449669
 30
0.0
 10
10.9489584435
 20
7.7615826596
 30
0.0
 10
10.8998183383
 20
7.7638318604
 30
0.0
  0
SPLINE
  5
266
100
AcDbEntity
  8
0
100
AcDbSpline
 62
7
  6
CONTINUOUS
 70
0
 71
3
 72
69
 73
65
 74
0
 42
0.0000001
 43
0.0000001
 44
0.0000000001
 40
0.0
 40
0.0
 40
0.0
 40
0.0
 40
0.0312272847
 40
0.0624545802
 40
0.0936821515
 40
0.1249098734
 40
0.1405335742
 40
0.156157396
 40
0.1717811871
 40
0.1874049786
 40
0.2030287725
 40
0.2108419075
 40
0.218655041
 40
0.2264681929
 40
0.2303749245
 40
0.234281637
 40
0.2381883488
 40
0.2420951007
 40
0.2460018544
 40
0.2479552309
 40
0.2499086013
 40
0.2518619838
 40
0.2528386726
 40
0.253815345
 40
0.2547920302
 40
0.2557688618
 40
0.2567456149
 40
0.2577219058
 40
0.2586984578
 40
0.2596754719
 40
0.2606524522
 40
0.2616291824
 40
0.2635824062
 40
0.2655357433
 40
0.2674891832
 40
0.2694426333
 40
0.2713960362
 40
0.2733494104
 40
0.2772561669
 40
0.2811629549
 40
0.2889765096
 40
0.2967900576
 40
0.3046036132
 40
0.3124171677
 40
0.3202307204
 40
0.3280442728
 40
0.3436713623
 40
0.3592984526
 40
0.3749255423
 40
0.3905526317
 40
0.4061797212
 40
0.4374337646
 40
0.4686878079
 40
0.4999418511
 40
0.5311958941
 40
0.5624499372
 40
0.5937039807
 40
0.6249580238
 40
0.6874650203
 40
0.7499720193
 40
0.812479016
 40
0.874986009
 40
0.9374930059
 40
1.0
 40
1.0
 40
1.0
 40
1.0
 10
13.1888183383
 20
7.2008318604
 30
0.0
 10
13.1731629446
 20
7.1818886152
 30
0.0
 10
13.1390774809
 20
7.1462048748
 30
0.0
 10
13.0809286352
 20
7.1004931138
 30
0.0
 10
13.0168417595
 20
7.0635434113
 30
0.0
 10
12.9595718275
 20
7.0406575912
 30
0.0
 10
12.9121932197
 20
7.0273909512
 30
0.0
 10
12.8760221612
 20
7.0199952748
 30
0.0
 10
12.8394169245
 20
7.0152005587
 30
0.0
 10
12.802563351
 20
7.0130306188
 30
0.0
 10
12.7717974326
 20
7.0134183917
 30
0.0
 10
12.7472538802
 20
7.0150448711
 30
0.0
 10
12.7288992781
 20
7.0169215558
 30
0.0
 10
12.713669
 20
7.0190301037
 30
0.0
 10
12.7015363998
 20
7.0210421807
 30
0.0
 10
12.6924651843
 20
7.0227141194
 30
0.0
 10
12.6834254001
 20
7.0245483215
 30
0.0
 10
12.6744193147
 20
7.0265414478
 30
0.0
 10
12.6669445851
 20
7.0283344223
 30
0.0
 10
12.6609855481
 20
7.0298515161
 30
0.0
 10
12.6565273885
 20
7.0310322169
 30
0.0
 10
12.6528213124
 20
7.0320496459
 30
0.0
 10
12.6498606829
 20
7.0328787157
 30
0.0
 10
12.6476417829
 20
7.0335060346
 30
0.0
 10
12.6454258566
 20
7.0341444101
 30
0.0
 10
12.6432193542
 20
7.0348147753
 30
0.0
 10
12.6410162516
 20
7.0354952553
 30
0.0
 10
12.638794409
 20
7.0361126207
 30
0.0
 10
12.6365526073
 20
7.0366529457
 30
0.0
 10
12.6343028808
 20
7.0371604023
 30
0.0
 10
12.6320541428
 20
7.0376730705
 30
0.0
 10
12.6290627238
 20
7.0383837962
 30
0.0
 10
12.6253274567
 20
7.0392875201
 30
0.0
 10
12.6208397807
 20
7.0403498501
 30
0.0
 10
12.6163497286
 20
7.0414027964
 30
0.0
 10
12.6118587353
 20
7.0424519581
 30
0.0
 10
12.6073680585
 20
7.0435022432
 30
0.0
 10
12.6013801094
 20
7.0449006435
 30
0.0
 10
12.5938930272
 20
7.0466394552
 30
0.0
 10
12.5819086936
 20
7.0494000141
 30
0.0
 10
12.5669212754
 20
7.0528203124
 30
0.0
 10
12.5489242527
 20
7.0568711593
 30
0.0
 10
12.5309152283
 20
7.0608683078
 30
0.0
 10
12.5128945293
 20
7.0648125023
 30
0.0
 10
12.4948622816
 20
7.0687035538
 30
0.0
 10
12.4708041039
 20
7.073820656
 30
0.0
 10
12.4407031886
 20
7.0800837518
 30
0.0
 10
12.4045383822
 20
7.087386093
 30
0.0
 10
12.3683311025
 20
7.0944748541
 30
0.0
 10
12.3320825999
 20
7.1013497722
 30
0.0
 10
12.283698163
 20
7.1102308292
 30
0.0
 10
12.2231205191
 20
7.12079638
 30
0.0
 10
12.150282979
 20
7.1326158486
 30
0.0
 10
12.0773109307
 20
7.1435746208
 30
0.0
 10
12.0042146039
 20
7.1536711842
 30
0.0
 10
11.9310041862
 20
7.162903992
 30
0.0
 10
11.8576897655
 20
7.1712718594
 30
0.0
 10
11.7598136826
 20
7.1812741035
 30
0.0
 10
11.6372568856
 20
7.1916090619
 30
0.0
 10
11.4899390107
 20
7.2005352776
 30
0.0
 10
11.3424510841
 20
7.2059808474
 30
0.0
 10
11.1948755797
 20
7.2079418086
 30
0.0
 10
11.047295741
 20
7.2064187539
 30
0.0
 10
10.9489584435
 20
7.2030810612
 30
0.0
 10
10.8998183383
 20
7.2008318604
 30
0.0
  0
ENDSEC
  0
SECTION
  2
OBJECTS
  0
DICTIONARY
  5
C
100
AcDbDictionary
280
0
281
1
  3
ACAD_GROUP
350
D
  3
ACAD_MLINESTYLE
350
17
  3
ACAD_LAYOUT
350
1A
  3
ACAD_PLOTSETTINGS
350
19
  3
ACAD_PLOTSTYLENAME
350
E
  0
DICTIONARY
  5
D
102
{ACAD_REACTORS
330
C
102
}
100
AcDbDictionary
280
0
281
1
  0
ACDBDICTIONARYWDFLT
  5
E
102
{ACAD_REACTORS
330
C
102
}
100
AcDbDictionary
281
1
  3
Normal
350
F
100
AcDbDictionaryWithDefault
340
F
  0
DICTIONARY
  5
17
102
{ACAD_REACTORS
330
C
102
}
100
AcDbDictionary
280
0
281
1
  3
Standard
350
18
  0
DICTIONARY
  5
19
102
{ACAD_REACTORS
330
C
102
}
100
AcDbDictionary
281
1
  0
DICTIONARY
  5
1A
102
{ACAD_REACTORS
330
C
102
}
100
AcDbDictionary
281
1
  3
Model
350
267
  3
Layout1
350
268
  0
ACDBPLACEHOLDER
  5
F
102
{ACAD_REACTORS
330
E
102
}
  0
MLINESTYLE
  5
18
102
{ACAD_REACTORS
330
17
102
}
100
AcDbMlineStyle
  2
STANDARD
 70
0
  3

 62
256
 51
90.0
 52
90.0
 71
2
 49
0.5
 62
256
  6
BYLAYER
 49
-0.5
 62
256
  6
BYLAYER
  0
LAYOUT
  5
267
102
{ACAD_REACTORS
330
1A
102
}
100
AcDbPlotSettings
  1

  2
none_device
  4
ANSI_C_(22.00_x_17.00_Inches)
  6

 40
0.0
 41
0.0
 42
0.0
 43
0.0
 44
558.8
 45
431.8
 46
0.0
 47
0.0
 48
0.0
 49
0.0
140
0.0
141
0.0
142
1.0
143
1.0
 70
1024
 72
0
 73
0
 74
0
  7

 75
0
147
1.0
148
0.0
149
0.0
100
AcDbLayout
  1
Model
 70
0
 71
0
 10
0.0
 20
0.0
 11
22.0
 21
17.0
 12
0.0
 22
0.0
 32
0.0
 14
0.0
 24
0.0
 34
0.0
 15
0.0
 25
0.0
 35
0.0
146
0.0
 13
0.0
 23
0.0
 33
0.0
 16
1.0
 26
0.0
 36
0.0
 17
0.0
 27
1.0
 37
0.0
 76
0
330
202
345
0
346
0
  0
LAYOUT
  5
268
102
{ACAD_REACTORS
330
1A
102
}
100
AcDbPlotSettings
  1

  2
none_device
  4
ANSI_C_(22.00_x_17.00_Inches)
  6

 40
0.0
 41
0.0
 42
0.0
 43
0.0
 44
558.8
 45
431.8
 46
0.0
 47
0.0
 48
0.0
 49
0.0
140
0.0
141
0.0
142
1.0
143
1.0
 70
0
 72
0
 73
0
 74
0
  7

 75
0
147
1.0
148
0.0
149
0.0
100
AcDbLayout
  1
Layout1
 70
0
 71
1
 10
0.0
 20
0.0
 11
22.0
 21
17.0
 12
0.0
 22
0.0
 32
0.0
 14
0.0
 24
0.0
 34
0.0
 15
0.0
 25
0.0
 35
0.0
146
0.0
 13
0.0
 23
0.0
 33
0.0
 16
1.0
 26
0.0
 36
0.0
 17
0.0
 27
1.0
 37
0.0
 76
0
330
203
345
0
346
0
  0
ENDSEC
  0
EOF
