999
DXF file: E:\BT Custom\CADOUTPUT\_FRONT.dxf
999
Pro/ENGINEER 2018400 by Parametric Technology Corporation
  0
SECTION
  2
HEADER
  9
$ACADVER
  1
AC1018
  9
$DWGCODEPAGE
  3
ANSI_1252
  9
$EXTMAX
 10
22.0
 20
17.0
 30
0.0
  9
$EXTMIN
 10
0.0
 20
0.0
 30
0.0
  9
$LIMMIN
 10
0.0
 20
0.0
  9
$LIMMAX
 10
22.0
 20
17.0
  9
$VIEWCTR
 10
11.0
 20
8.5
  9
$VIEWSIZE
 40
17.0
  9
$CLAYER
  8
0
  9
$LTSCALE
 40
1.21
  9
$CELTYPE
  6
BYLAYER
  9
$DIMSCALE
 40
1.0
  9
$DIMASZ
 40
0.1
  9
$DIMEXO
 40
0.0625
  9
$DIMDLI
 40
0.836
  9
$DIMEXE
 40
0.125
  9
$DIMCEN
 40
0.198
  9
$DIMLFAC
 40
1.0
  9
$DIMBLK
  1
_FILLED
  9
$DIMALT
 70
1
  9
$DIMALTD
 70
2
  9
$DIMALTTD
 70
2
  9
$DIMALTF
 40
25.4
  9
$DIMTXT
 40
0.08
  9
$DIMTOL
 70
1
  9
$DIMLIM
 70
0
  9
$DIMTFAC
 40
1.0
  9
$DIMTP
 40
0.001
  9
$DIMTM
 40
0.001
  9
$DIMGAP
 40
0.09
  9
$DIMDSEP
 70
46
  9
$AUNITS
 70
0
  9
$PDMODE
 70
3
  9
$PDSIZE
 40
0.06
  9
$HANDSEED
  5
2E7
  9
$TILEMODE
 70
1
  9
$MEASUREMENT
 70
0
  9
$INSUNITS
 70
1
  0
ENDSEC
  0
SECTION
  2
CLASSES
  0
CLASS
  1
ACDBDICTIONARYWDFLT
  2
AcDbDictionaryWithDefault
  3
AutoCAD 2000
 90
0
 91
1
280
0
281
0
  0
CLASS
  1
ACDBPLACEHOLDER
  2
AcDbPlaceHolder
  3
AutoCAD 2000
 90
0
 91
1
280
0
281
0
  0
CLASS
  1
LAYOUT
  2
AcDbLayout
  3
AutoCAD 2000
 90
0
 91
0
280
0
281
0
  0
ENDSEC
  0
SECTION
  2
TABLES
  0
TABLE
  2
VPORT
  5
8
100
AcDbSymbolTable
 70
2
  0
VPORT
  5
1F4
100
AcDbSymbolTableRecord
100
AcDbViewportTableRecord
  2
*ACTIVE
 70
0
 10
0.0
 20
0.0
 11
1.0
 21
1.0
 12
11.0
 22
8.5
 13
0.0
 23
0.0
 14
1.0
 24
1.0
 15
0.0
 25
0.0
 16
0.0
 26
0.0
 36
1.0
 17
0.0
 27
0.0
 37
0.0
 40
17.0
 41
1.2941176471
 42
50.0
 43
0.0
 44
0.0
 50
0.0
 51
0.0
 71
0
 72
100
 73
1
 74
1
 75
0
 76
0
 77
0
 78
0
  0
ENDTAB
  0
TABLE
  2
LTYPE
  5
5
100
AcDbSymbolTable
 70
6
  0
LTYPE
  5
14
100
AcDbSymbolTableRecord
100
AcDbLinetypeTableRecord
  2
BYBLOCK
 70
0
  3

 72
65
 73
0
 40
0.0
  0
LTYPE
  5
15
100
AcDbSymbolTableRecord
100
AcDbLinetypeTableRecord
  2
BYLAYER
 70
0
  3

 72
65
 73
0
 40
0.0
  0
LTYPE
  5
16
100
AcDbSymbolTableRecord
100
AcDbLinetypeTableRecord
  2
CONTINUOUS
 70
64
  3
Solid line
 72
65
 73
0
 40
0.0
  0
LTYPE
  5
1F5
100
AcDbSymbolTableRecord
100
AcDbLinetypeTableRecord
  2
CENTER
 70
64
  3
____ _ ____ _ ____ _ ____ _ ____ _ ____ _ ____
 72
65
 73
4
 40
0.6
 49
0.375
 74
0
 49
-0.075
 74
0
 49
0.075
 74
0
 49
-0.075
 74
0
  0
LTYPE
  5
1F6
100
AcDbSymbolTableRecord
100
AcDbLinetypeTableRecord
  2
HIDDEN
 70
64
  3
- - - - - - - - - - - - - - - - - - - -
 72
65
 73
2
 40
0.2
 49
0.1
 74
0
 49
-0.1
 74
0
  0
LTYPE
  5
1F7
100
AcDbSymbolTableRecord
100
AcDbLinetypeTableRecord
  2
PHANTOM
 70
64
  3
_____ _ _ _____ _ _ _____ _ _ _____
 72
65
 73
6
 40
0.8
 49
0.45
 74
0
 49
-0.05
 74
0
 49
0.1
 74
0
 49
-0.05
 74
0
 49
0.1
 74
0
 49
-0.05
 74
0
  0
LTYPE
  5
1F8
100
AcDbSymbolTableRecord
100
AcDbLinetypeTableRecord
  2
DOT
 70
64
  3
. . . . . . . . . . . . . . . . . . . .
 72
65
 73
2
 40
0.2
 49
0.1
 74
0
 49
-0.1
 74
0
  0
LTYPE
  5
1F9
100
AcDbSymbolTableRecord
100
AcDbLinetypeTableRecord
  2
DASHED
 70
64
  3
- - - - - - - - - - - - - - - - - - - -
 72
65
 73
2
 40
0.2
 49
0.1
 74
0
 49
-0.1
 74
0
  0
ENDTAB
  0
TABLE
  2
LAYER
  5
2
100
AcDbSymbolTable
 70
36
  0
LAYER
  5
10
100
AcDbSymbolTableRecord
100
AcDbLayerTableRecord
  2
0
 70
0
 62
7
  6
CONTINUOUS
370
-3
390
F
  0
LAYER
  5
1FA
100
AcDbSymbolTableRecord
100
AcDbLayerTableRecord
  2
DEFAULT_1
 70
0
 62
7
  6
CENTER
370
-3
390
F
  0
LAYER
  5
1FB
100
AcDbSymbolTableRecord
100
AcDbLayerTableRecord
  2
DEFAULT_2
 70
0
 62
8
  6
HIDDEN
370
-3
390
F
  0
LAYER
  5
1FC
100
AcDbSymbolTableRecord
100
AcDbLayerTableRecord
  2
DEFAULT_3
 70
0
 62
7
  6
PHANTOM
370
-3
390
F
  0
LAYER
  5
1FD
100
AcDbSymbolTableRecord
100
AcDbLayerTableRecord
  2
ALL_FEATURES
 70
0
 62
7
  6
CONTINUOUS
370
-3
390
F
  0
LAYER
  5
1FE
100
AcDbSymbolTableRecord
100
AcDbLayerTableRecord
  2
AXES_FEATURES
 70
0
 62
7
  6
CONTINUOUS
370
-3
390
F
  0
LAYER
  5
1FF
100
AcDbSymbolTableRecord
100
AcDbLayerTableRecord
  2
DIMENSIONS
 70
0
 62
7
  6
CONTINUOUS
370
-3
390
F
  0
LAYER
  5
200
100
AcDbSymbolTableRecord
100
AcDbLayerTableRecord
  2
___SHELL
 70
0
 62
7
  6
CONTINUOUS
370
-3
390
F
  0
ENDTAB
  0
TABLE
  2
STYLE
  5
3
100
AcDbSymbolTable
 70
1
  0
STYLE
  5
11
100
AcDbSymbolTableRecord
100
AcDbTextStyleTableRecord
  2
STANDARD
 70
0
 40
0.0
 41
0.8
 50
0.0
 71
0
 42
0.2
  3
txt
  4

  0
STYLE
  5
201
100
AcDbSymbolTableRecord
100
AcDbTextStyleTableRecord
  2
TEXTSTYLE_1
 70
0
 40
0.0
 41
0.8
 50
0.0
 71
0
 42
0.2
  3
gdt
  4

  0
ENDTAB
  0
TABLE
  2
VIEW
  5
6
100
AcDbSymbolTable
 70
0
  0
ENDTAB
  0
TABLE
  2
UCS
  5
7
100
AcDbSymbolTable
 70
0
  0
ENDTAB
  0
TABLE
  2
APPID
  5
9
100
AcDbSymbolTable
 70
1
  0
APPID
  5
202
100
AcDbSymbolTableRecord
100
AcDbRegAppTableRecord
  2
ACAD
 70
0
  0
ENDTAB
  0
TABLE
  2
BLOCK_RECORD
  5
1
100
AcDbSymbolTable
 70
0
  0
BLOCK_RECORD
  5
203
100
AcDbSymbolTableRecord
100
AcDbBlockTableRecord
  2
*Model_Space
  0
BLOCK_RECORD
  5
204
100
AcDbSymbolTableRecord
100
AcDbBlockTableRecord
  2
*Paper_Space
  0
BLOCK_RECORD
  5
205
100
AcDbSymbolTableRecord
100
AcDbBlockTableRecord
  2
_FILLED
  0
ENDTAB
  0
TABLE
  2
DIMSTYLE
  5
A
100
AcDbSymbolTable
 70
1
100
AcDbDimStyleTable
 71
0
  0
DIMSTYLE
105
206
100
AcDbSymbolTableRecord
100
AcDbDimStyleTableRecord
  2
STANDARD
 70
0
  3

  4

 40
1.0
 41
0.1
 42
0.0625
 43
0.38
 44
0.125
 45
0.0
 46
0.0
 47
0.001
 48
0.001
140
0.08
141
0.09
142
0.0
143
25.4
144
1.0
145
0.0
146
1.0
147
0.09
 71
1.0
 72
0.0
 73
1
 74
1
 75
0
 76
0
 77
0
 78
4
 79
1
170
1
171
2
172
0
173
0
174
0
175
0
176
0
177
0
178
0
270
2
179
3
271
3
272
3
273
2
274
2
275
0
280
0
281
0
282
0
283
1
284
4
285
0
286
0
287
3
288
0
340
11
278
46
341
205
342
205
343
205
344
205
  0
ENDTAB
  0
ENDSEC
  0
SECTION
  2
BLOCKS
  0
BLOCK
  5
20
100
AcDbEntity
  8
0
100
AcDbBlockBegin
  2
*Model_Space
 70
0
 10
0.0
 20
0.0
 30
0.0
  3
*Model_Space
  1

  0
ENDBLK
  5
21
100
AcDbEntity
  8
0
100
AcDbBlockEnd
  0
BLOCK
  5
1C
100
AcDbEntity
  8
0
100
AcDbBlockBegin
  2
*Paper_Space
 70
0
 10
0.0
 20
0.0
 30
0.0
  3
*Paper_Space
  1

  0
ENDBLK
  5
1D
100
AcDbEntity
  8
0
100
AcDbBlockEnd
  0
BLOCK
  5
207
100
AcDbEntity
  8
0
100
AcDbBlockBegin
  2
_FILLED
 70
64
 10
0.0
 20
0.0
  3
_FILLED
  1

  0
SOLID
  5
208
100
AcDbEntity
  8
0
  6
BYBLOCK
 62
0
100
AcDbTrace
 10
0.0
 20
0.0
 11
-1.0
 21
0.2
 12
-1.0
 22
-0.2
 13
-1.0
 23
-0.2
  0
ENDBLK
  5
209
100
AcDbEntity
  8
0
  6
BYBLOCK
 62
0
100
AcDbBlockEnd
  0
ENDSEC
  0
SECTION
  2
ENTITIES
  0
LINE
  5
20A
100
AcDbEntity
  8
0
100
AcDbLine
 62
7
  6
CONTINUOUS
 10
9.3974119215
 20
10.625173178
 11
9.3751923427
 21
10.6029535993
  0
LINE
  5
20B
100
AcDbEntity
  8
0
100
AcDbLine
 62
9
  6
CONTINUOUS
 10
8.9932306004
 20
10.4207062229
 11
8.9932306004
 21
10.0106327814
  0
LINE
  5
20C
100
AcDbEntity
  8
0
100
AcDbLine
 62
9
  6
CONTINUOUS
 10
9.0423966704
 20
10.3864068595
 11
9.0423966704
 21
10.0449321448
  0
LINE
  5
20D
100
AcDbEntity
  8
0
100
AcDbLine
 62
7
  6
CONTINUOUS
 10
9.0670785996
 20
10.3956695021
 11
9.0670785996
 21
10.0356695021
  0
LINE
  5
20E
100
AcDbEntity
  8
0
100
AcDbLine
 62
9
  6
CONTINUOUS
 10
9.0940525419
 20
10.4073130665
 11
9.0940525419
 21
10.0240259378
  0
LINE
  5
20F
100
AcDbEntity
  8
0
100
AcDbLine
 62
7
  6
CONTINUOUS
 10
9.3735000275
 20
10.5006695021
 11
9.3451923427
 21
10.4206695021
  0
LINE
  5
210
100
AcDbEntity
  8
0
100
AcDbLine
 62
7
  6
CONTINUOUS
 10
9.4011923427
 20
10.5166695021
 11
9.3735000275
 21
10.5006695021
  0
LINE
  5
211
100
AcDbEntity
  8
0
100
AcDbLine
 62
7
  6
CONTINUOUS
 10
9.1616923427
 20
8.2556695021
 11
9.1616923427
 21
8.1936695021
  0
LINE
  5
212
100
AcDbEntity
  8
0
100
AcDbLine
 62
7
  6
CONTINUOUS
 10
9.2461923427
 20
8.2556695021
 11
9.2461923427
 21
8.6068771043
  0
LINE
  5
213
100
AcDbEntity
  8
0
100
AcDbLine
 62
7
  6
CONTINUOUS
 10
8.9932306004
 20
10.0106327814
 11
9.0423966704
 21
10.0449321448
  0
LINE
  5
214
100
AcDbEntity
  8
0
100
AcDbLine
 62
7
  6
CONTINUOUS
 10
9.4481823866
 20
10.6416695021
 11
9.3974119215
 21
10.625173178
  0
LINE
  5
215
100
AcDbEntity
  8
0
100
AcDbLine
 62
9
  6
CONTINUOUS
 10
9.3453771718
 20
10.027526645
 11
9.3453771718
 21
10.4038123593
  0
LINE
  5
216
100
AcDbEntity
  8
0
100
AcDbLine
 62
9
  6
CONTINUOUS
 10
9.366002597
 20
10.3543657029
 11
9.366002597
 21
10.0769600144
  0
LINE
  5
217
100
AcDbEntity
  8
0
100
AcDbLine
 62
7
  6
CONTINUOUS
 10
9.3751923427
 20
10.6029535993
 11
9.3751923427
 21
10.5316695021
  0
LINE
  5
218
100
AcDbEntity
  8
0
100
AcDbLine
 62
7
  6
CONTINUOUS
 10
9.3801923427
 20
10.1506695021
 11
9.3801923427
 21
10.2806695021
  0
LINE
  5
219
100
AcDbEntity
  8
0
100
AcDbLine
 62
7
  6
CONTINUOUS
 10
8.7226936218
 20
7.8186695021
 11
11.0826910636
 21
7.8186695021
  0
LINE
  5
21A
100
AcDbEntity
  8
0
100
AcDbLine
 62
7
  6
CONTINUOUS
 10
9.5591923427
 20
9.8806695021
 11
9.5591923427
 21
9.5216695021
  0
LINE
  5
21B
100
AcDbEntity
  8
0
100
AcDbLine
 62
7
  6
CONTINUOUS
 10
9.5946923427
 20
10.6847538496
 11
9.5946923427
 21
10.6857735198
  0
LINE
  5
21C
100
AcDbEntity
  8
0
100
AcDbLine
 62
9
  6
CONTINUOUS
 10
9.6006613602
 20
10.6866618877
 11
9.6006613588
 21
10.6856422083
  0
LINE
  5
21D
100
AcDbEntity
  8
0
100
AcDbLine
 62
9
  6
CONTINUOUS
 10
9.633980108
 20
10.6920444733
 11
9.633980108
 21
10.6910283262
  0
LINE
  5
21E
100
AcDbEntity
  8
0
100
AcDbLine
 62
7
  6
CONTINUOUS
 10
10.4301923427
 20
10.5316695021
 11
10.4041923427
 21
10.5166695021
  0
LINE
  5
21F
100
AcDbEntity
  8
0
100
AcDbLine
 62
7
  6
CONTINUOUS
 10
10.9026923427
 20
8.0056695021
 11
8.9026923427
 21
8.0056695021
  0
LINE
  5
220
100
AcDbEntity
  8
0
100
AcDbLine
 62
7
  6
CONTINUOUS
 10
9.7026923427
 20
9.5056695021
 11
9.7026923427
 21
9.5216695021
  0
LINE
  5
221
100
AcDbEntity
  8
0
100
AcDbLine
 62
7
  6
CONTINUOUS
 10
9.7051422312
 20
10.7038471548
 11
9.7051422312
 21
10.7028388115
  0
LINE
  5
222
100
AcDbEntity
  8
0
100
AcDbLine
 62
7
  6
CONTINUOUS
 10
9.7789923427
 20
10.7117277315
 11
9.7789923427
 21
10.7107245324
  0
LINE
  5
223
100
AcDbEntity
  8
0
100
AcDbLine
 62
7
  6
CONTINUOUS
 10
9.3621923427
 20
9.1712859409
 11
9.2880583485
 21
9.0653683137
  0
LINE
  5
224
100
AcDbEntity
  8
0
100
AcDbLine
 62
7
  6
CONTINUOUS
 10
10.6851923427
 20
10.4971695021
 11
10.4851923427
 21
10.4126695021
  0
LINE
  5
225
100
AcDbEntity
  8
0
100
AcDbLine
 62
7
  6
CONTINUOUS
 10
9.3451923427
 20
10.0106695021
 11
9.3751923427
 21
9.9316695021
  0
LINE
  5
226
100
AcDbEntity
  8
0
100
AcDbLine
 62
7
  6
CONTINUOUS
 10
9.8639923427
 20
10.7151861981
 11
9.8639923427
 21
10.7161865099
  0
LINE
  5
227
100
AcDbEntity
  8
0
100
AcDbLine
 62
7
  6
CONTINUOUS
 10
9.9026923427
 20
8.2556695021
 11
9.9026930664
 21
8.5056142608
  0
LINE
  5
228
100
AcDbEntity
  8
0
100
AcDbLine
 62
7
  6
CONTINUOUS
 10
9.9126923427
 20
10.7143058184
 11
9.9126923427
 21
10.7154369642
  0
LINE
  5
229
100
AcDbEntity
  8
0
100
AcDbLine
 62
7
  6
CONTINUOUS
 10
9.9341923427
 20
10.7160144916
 11
9.9341923427
 21
10.7150140688
  0
LINE
  5
22A
100
AcDbEntity
  8
0
100
AcDbLine
 62
7
  6
CONTINUOUS
 10
9.9701923427
 20
10.7138632325
 11
9.9701923427
 21
10.7148643986
  0
LINE
  5
22B
100
AcDbEntity
  8
0
100
AcDbLine
 62
9
  6
CONTINUOUS
 10
10.0001923427
 20
10.7113468309
 11
10.0001923427
 21
10.7123496263
  0
LINE
  5
22C
100
AcDbEntity
  8
0
100
AcDbLine
 62
9
  6
CONTINUOUS
 10
10.0241923427
 20
10.7096453056
 11
10.0241923427
 21
10.7106492056
  0
LINE
  5
22D
100
AcDbEntity
  8
0
100
AcDbLine
 62
7
  6
CONTINUOUS
 10
10.7156938791
 20
8.1936695021
 11
9.0896908064
 21
8.1936695021
  0
LINE
  5
22E
100
AcDbEntity
  8
0
100
AcDbLine
 62
7
  6
CONTINUOUS
 10
9.1616928686
 20
8.2556695021
 11
10.6436918169
 21
8.2556695021
  0
LINE
  5
22F
100
AcDbEntity
  8
0
100
AcDbLine
 62
9
  6
CONTINUOUS
 10
10.0498575327
 20
10.7079262837
 11
10.0498575327
 21
10.7089313023
  0
LINE
  5
230
100
AcDbEntity
  8
0
100
AcDbLine
 62
7
  6
CONTINUOUS
 10
10.0631372794
 20
10.7071249843
 11
10.0631372794
 21
10.7081305251
  0
LINE
  5
231
100
AcDbEntity
  8
0
100
AcDbLine
 62
7
  6
CONTINUOUS
 10
10.0926923427
 20
10.7026362352
 11
10.0926923427
 21
10.7037759649
  0
LINE
  5
232
100
AcDbEntity
  8
0
100
AcDbLine
 62
7
  6
CONTINUOUS
 10
10.1026923427
 20
10.7030628191
 11
10.1026923427
 21
10.7020539609
  0
LINE
  5
233
100
AcDbEntity
  8
0
100
AcDbLine
 62
7
  6
CONTINUOUS
 10
10.1026923427
 20
9.5216695021
 11
10.1026923427
 21
9.5056695021
  0
LINE
  5
234
100
AcDbEntity
  8
0
100
AcDbLine
 62
7
  6
CONTINUOUS
 10
10.1026923427
 20
10.7036449867
 11
10.1026923427
 21
10.7037177628
  0
LINE
  5
235
100
AcDbEntity
  8
0
100
AcDbLine
 62
7
  6
CONTINUOUS
 10
10.1389742231
 20
10.6975749402
 11
10.1389742231
 21
10.6965624648
  0
LINE
  5
236
100
AcDbEntity
  8
0
100
AcDbLine
 62
7
  6
CONTINUOUS
 10
10.1389742231
 20
10.6984521268
 11
10.1389742231
 21
10.6985621673
  0
LINE
  5
237
100
AcDbEntity
  8
0
100
AcDbLine
 62
9
  6
CONTINUOUS
 10
10.1449742231
 20
10.696409885
 11
10.1449742231
 21
10.6953966383
  0
LINE
  5
238
100
AcDbEntity
  8
0
100
AcDbLine
 62
9
  6
CONTINUOUS
 10
10.1728371309
 20
10.6917380915
 11
10.1728371309
 21
10.6907217402
  0
LINE
  5
239
100
AcDbEntity
  8
0
100
AcDbLine
 62
9
  6
CONTINUOUS
 10
10.2183723487
 20
10.6839353586
 11
10.2183723487
 21
10.6829137793
  0
LINE
  5
23A
100
AcDbEntity
  8
0
100
AcDbLine
 62
7
  6
CONTINUOUS
 10
10.2233532627
 20
10.6821285977
 11
10.2233532627
 21
10.6831507057
  0
LINE
  5
23B
100
AcDbEntity
  8
0
100
AcDbLine
 62
7
  6
CONTINUOUS
 10
10.4601923427
 20
10.0106695021
 11
10.4301923427
 21
9.9316695021
  0
LINE
  5
23C
100
AcDbEntity
  8
0
100
AcDbLine
 62
7
  6
CONTINUOUS
 10
9.2615289031
 20
8.6221695021
 11
9.2461923427
 21
8.6068771204
  0
LINE
  5
23D
100
AcDbEntity
  8
0
100
AcDbLine
 62
7
  6
CONTINUOUS
 10
10.4301923427
 20
9.9316695021
 11
10.2731923427
 21
9.8806695021
  0
LINE
  5
23E
100
AcDbEntity
  8
0
100
AcDbLine
 62
7
  6
CONTINUOUS
 10
10.5438557824
 20
8.6221695021
 11
10.5591923427
 21
8.6068771204
  0
LINE
  5
23F
100
AcDbEntity
  8
0
100
AcDbLine
 62
7
  6
CONTINUOUS
 10
10.2461923427
 20
9.8806695021
 11
10.2461923427
 21
9.5216695021
  0
LINE
  5
240
100
AcDbEntity
  8
0
100
AcDbLine
 62
9
  6
CONTINUOUS
 10
10.5438557824
 20
8.6221695021
 11
9.2615289031
 21
8.6221695021
  0
LINE
  5
241
100
AcDbEntity
  8
0
100
AcDbLine
 62
7
  6
CONTINUOUS
 10
10.4251923427
 20
10.1506695021
 11
10.4251923427
 21
10.2806695021
  0
LINE
  5
242
100
AcDbEntity
  8
0
100
AcDbLine
 62
7
  6
CONTINUOUS
 10
10.4301923427
 20
10.6029535993
 11
10.4301923427
 21
10.5316695021
  0
LINE
  5
243
100
AcDbEntity
  8
0
100
AcDbLine
 62
7
  6
CONTINUOUS
 10
10.4851923427
 20
10.0186695021
 11
10.4851923427
 21
10.4126695021
  0
LINE
  5
244
100
AcDbEntity
  8
0
100
AcDbLine
 62
7
  6
CONTINUOUS
 10
10.5591923427
 20
8.2556695021
 11
10.5591923427
 21
8.6068771043
  0
LINE
  5
245
100
AcDbEntity
  8
0
100
AcDbLine
 62
9
  6
CONTINUOUS
 10
10.5211923427
 20
8.8371695021
 11
9.2841923427
 21
8.8371695021
  0
LINE
  5
246
100
AcDbEntity
  8
0
100
AcDbLine
 62
7
  6
CONTINUOUS
 10
10.4431923427
 20
9.1712859409
 11
10.5173263369
 21
9.0653683137
  0
LINE
  5
247
100
AcDbEntity
  8
0
100
AcDbLine
 62
7
  6
CONTINUOUS
 10
10.6436923427
 20
8.2556695021
 11
10.6436923427
 21
8.1936695021
  0
LINE
  5
248
100
AcDbEntity
  8
0
100
AcDbLine
 62
7
  6
CONTINUOUS
 10
10.6851923427
 20
9.9341695021
 11
10.6851923427
 21
10.4971695021
  0
LINE
  5
249
100
AcDbEntity
  8
0
100
AcDbLine
 62
9
  6
CONTINUOUS
 10
10.5173263369
 20
9.0653683137
 11
9.2880583485
 21
9.0653683137
  0
LINE
  5
24A
100
AcDbEntity
  8
0
100
AcDbLine
 62
7
  6
CONTINUOUS
 10
8.9932306004
 20
10.4207062229
 11
9.0423966704
 21
10.3864068595
  0
LINE
  5
24B
100
AcDbEntity
  8
0
100
AcDbLine
 62
7
  6
CONTINUOUS
 10
10.7901923427
 20
9.9341695021
 11
10.7901923427
 21
10.4971695021
  0
LINE
  5
24C
100
AcDbEntity
  8
0
100
AcDbLine
 62
9
  6
CONTINUOUS
 10
10.4431923427
 20
9.1712859409
 11
9.3621923427
 21
9.1712859409
  0
LINE
  5
24D
100
AcDbEntity
  8
0
100
AcDbLine
 62
7
  6
CONTINUOUS
 10
10.431884658
 20
10.5006695021
 11
10.4601923427
 21
10.4206695021
  0
LINE
  5
24E
100
AcDbEntity
  8
0
100
AcDbLine
 62
7
  6
CONTINUOUS
 10
9.3751923427
 20
9.9316695021
 11
9.5321923427
 21
9.8806695021
  0
LINE
  5
24F
100
AcDbEntity
  8
0
100
AcDbLine
 62
9
  6
CONTINUOUS
 10
9.4729526152
 20
9.4772687448
 11
10.3324320703
 21
9.4772687448
  0
LINE
  5
250
100
AcDbEntity
  8
0
100
AcDbLine
 62
7
  6
CONTINUOUS
 10
10.3015404917
 20
9.5056695021
 11
9.5038434542
 21
9.5056695021
  0
LINE
  5
251
100
AcDbEntity
  8
0
100
AcDbLine
 62
7
  6
CONTINUOUS
 10
9.5592059003
 20
9.5216695021
 11
10.2461787852
 21
9.5216695021
  0
LINE
  5
252
100
AcDbEntity
  8
0
100
AcDbLine
 62
7
  6
CONTINUOUS
 10
9.3751923427
 20
10.5316695021
 11
9.4011923427
 21
10.5166695021
  0
LINE
  5
253
100
AcDbEntity
  8
0
100
AcDbLine
 62
7
  6
CONTINUOUS
 10
10.6851923427
 20
9.9341695021
 11
10.4851923427
 21
10.0186695021
  0
LINE
  5
254
100
AcDbEntity
  8
0
100
AcDbLine
 62
7
  6
CONTINUOUS
 10
9.5322065995
 20
9.8806695021
 11
10.273178086
 21
9.8806695021
  0
LINE
  5
255
100
AcDbEntity
  8
0
100
AcDbLine
 62
7
  6
CONTINUOUS
 10
10.4301923427
 20
9.9316695021
 11
9.3751923427
 21
9.9316695021
  0
LINE
  5
256
100
AcDbEntity
  8
0
100
AcDbLine
 62
7
  6
CONTINUOUS
 10
13.1591923427
 20
9.9341695021
 11
13.0791923427
 21
9.9341695021
  0
LINE
  5
257
100
AcDbEntity
  8
0
100
AcDbLine
 62
7
  6
CONTINUOUS
 10
10.7901923427
 20
9.9341695021
 11
10.6851923427
 21
9.9341695021
  0
LINE
  5
258
100
AcDbEntity
  8
0
100
AcDbLine
 62
7
  6
CONTINUOUS
 10
9.3451923427
 20
10.0106695021
 11
10.4601923427
 21
10.0106695021
  0
LINE
  5
259
100
AcDbEntity
  8
0
100
AcDbLine
 62
7
  6
CONTINUOUS
 10
10.4851923427
 20
10.0186695021
 11
10.4573274217
 21
10.0186695021
  0
LINE
  5
25A
100
AcDbEntity
  8
0
100
AcDbLine
 62
7
  6
CONTINUOUS
 10
10.4079727639
 20
10.625173178
 11
10.4301923427
 21
10.6029535993
  0
LINE
  5
25B
100
AcDbEntity
  8
0
100
AcDbLine
 62
7
  6
CONTINUOUS
 10
10.4041923427
 20
10.5166695021
 11
10.431884658
 21
10.5006695021
  0
LINE
  5
25C
100
AcDbEntity
  8
0
100
AcDbLine
 62
7
  6
CONTINUOUS
 10
13.1591923427
 20
9.9341695021
 11
13.1791923427
 21
9.9541695021
  0
LINE
  5
25D
100
AcDbEntity
  8
0
100
AcDbLine
 62
7
  6
CONTINUOUS
 10
10.4851923427
 20
10.4126695021
 11
10.4573279349
 21
10.4126695021
  0
LINE
  5
25E
100
AcDbEntity
  8
0
100
AcDbLine
 62
7
  6
CONTINUOUS
 10
10.4601923427
 20
10.4206695021
 11
9.3451923427
 21
10.4206695021
  0
LINE
  5
25F
100
AcDbEntity
  8
0
100
AcDbLine
 62
7
  6
CONTINUOUS
 10
13.1591923427
 20
10.4971695021
 11
13.0791923427
 21
10.4971695021
  0
LINE
  5
260
100
AcDbEntity
  8
0
100
AcDbLine
 62
7
  6
CONTINUOUS
 10
10.7901923427
 20
10.4971695021
 11
10.6851923427
 21
10.4971695021
  0
LINE
  5
261
100
AcDbEntity
  8
0
100
AcDbLine
 62
7
  6
CONTINUOUS
 10
10.431884658
 20
10.5006695021
 11
9.3735000275
 21
10.5006695021
  0
LINE
  5
262
100
AcDbEntity
  8
0
100
AcDbLine
 62
7
  6
CONTINUOUS
 10
10.4041923427
 20
10.5166695021
 11
9.4011923427
 21
10.5166695021
  0
LINE
  5
263
100
AcDbEntity
  8
0
100
AcDbLine
 62
7
  6
CONTINUOUS
 10
10.4301923427
 20
10.5316695021
 11
9.3751923427
 21
10.5316695021
  0
LINE
  5
264
100
AcDbEntity
  8
0
100
AcDbLine
 62
7
  6
CONTINUOUS
 10
10.1026923427
 20
10.7027093346
 11
10.1389742231
 21
10.6975503444
  0
LINE
  5
265
100
AcDbEntity
  8
0
100
AcDbLine
 62
7
  6
CONTINUOUS
 10
10.2233532627
 20
10.6831507763
 11
10.2233210409
 21
10.6831597359
  0
LINE
  5
266
100
AcDbEntity
  8
0
100
AcDbLine
 62
7
  6
CONTINUOUS
 10
10.3572022989
 20
10.6416695021
 11
10.4079727639
 21
10.625173178
  0
LINE
  5
267
100
AcDbEntity
  8
0
100
AcDbLine
 62
7
  6
CONTINUOUS
 10
10.4301923427
 20
10.6029535993
 11
9.3751923427
 21
10.6029535993
  0
LINE
  5
268
100
AcDbEntity
  8
0
100
AcDbLine
 62
7
  6
CONTINUOUS
 10
10.4079727639
 20
10.625173178
 11
9.3974119215
 21
10.625173178
  0
LINE
  5
269
100
AcDbEntity
  8
0
100
AcDbLine
 62
7
  6
CONTINUOUS
 10
10.3572014361
 20
10.6416695021
 11
9.4481832494
 21
10.6416695021
  0
LINE
  5
26A
100
AcDbEntity
  8
0
100
AcDbLine
 62
9
  6
CONTINUOUS
 10
10.2978369993
 20
10.6654787954
 11
9.5075476862
 21
10.6654787954
  0
LINE
  5
26B
100
AcDbEntity
  8
0
100
AcDbLine
 62
7
  6
CONTINUOUS
 10
9.9341923427
 20
10.7153493203
 11
9.9701923427
 21
10.7141987332
  0
LINE
  5
26C
100
AcDbEntity
  8
0
100
AcDbLine
 62
7
  6
CONTINUOUS
 10
9.5946923427
 20
10.6857736552
 11
9.5946946085
 21
10.6857741049
  0
LINE
  5
26D
100
AcDbEntity
  8
0
100
AcDbLine
 62
7
  6
CONTINUOUS
 10
9.8639923427
 20
10.7161865099
 11
9.7789923427
 21
10.7117277315
  0
LINE
  5
26E
100
AcDbEntity
  8
0
100
AcDbLine
 62
7
  6
CONTINUOUS
 10
13.0791923427
 20
9.9341695021
 11
13.0791923427
 21
10.4971695021
  0
LINE
  5
26F
100
AcDbEntity
  8
0
100
AcDbLine
 62
7
  6
CONTINUOUS
 10
13.1591923427
 20
9.9341695021
 11
13.1591923427
 21
10.4971695021
  0
LINE
  5
270
100
AcDbEntity
  8
0
100
AcDbLine
 62
7
  6
CONTINUOUS
 10
13.1791923427
 20
9.9541702951
 11
13.1791923427
 21
10.4771687092
  0
LINE
  5
271
100
AcDbEntity
  8
0
100
AcDbLine
 62
7
  6
CONTINUOUS
 10
13.1591923427
 20
10.4971695021
 11
13.1791923427
 21
10.4771695021
  0
ARC
  5
272
100
AcDbEntity
  8
0
100
AcDbCircle
 62
7
  6
CONTINUOUS
 10
8.6523471595
 20
10.1654928841
 40
0.7383409337
100
AcDbArc
 50
18.823588012
 51
19.8745559979
  0
ARC
  5
273
100
AcDbEntity
  8
0
100
AcDbCircle
 62
7
  6
CONTINUOUS
 10
8.6549814563
 20
10.2649255836
 40
0.7355505574
100
AcDbArc
 50
340.1285287997
 51
341.2045572041
  0
ARC
  5
274
100
AcDbEntity
  8
0
100
AcDbCircle
 62
7
  6
CONTINUOUS
 10
8.8501534407
 20
9.5296728307
 40
0.625
100
AcDbArc
 50
325.0110095298
 51
355.1903004544
  0
ARC
  5
275
100
AcDbEntity
  8
0
100
AcDbCircle
 62
7
  6
CONTINUOUS
 10
8.8501923427
 20
10.2156695021
 40
0.25
100
AcDbArc
 50
55.0995
 51
304.9005
  0
ARC
  5
276
100
AcDbEntity
  8
0
100
AcDbCircle
 62
7
  6
CONTINUOUS
 10
9.4551674638
 20
8.9484050989
 40
0.2039751211
100
AcDbArc
 50
145.0110095298
 51
213.0478355063
  0
ARC
  5
277
100
AcDbEntity
  8
0
100
AcDbCircle
 62
7
  6
CONTINUOUS
 10
8.9098284538
 20
7.8186695021
 40
0.1871361111
100
AcDbArc
 50
92.1854050714
 51
180.0
  0
ARC
  5
278
100
AcDbEntity
  8
0
100
AcDbCircle
 62
7
  6
CONTINUOUS
 10
9.0896896689
 20
8.0066695021
 40
0.187
100
AcDbArc
 50
90.0
 51
180.3063960032
  0
ARC
  5
279
100
AcDbEntity
  8
0
100
AcDbCircle
 62
7
  6
CONTINUOUS
 10
9.2216246208
 20
9.8886695021
 40
0.186
100
AcDbArc
 50
48.2918697479
 51
133.3041758004
  0
ARC
  5
27A
100
AcDbEntity
  8
0
100
AcDbCircle
 62
7
  6
CONTINUOUS
 10
9.1404178091
 20
8.7436304776
 40
0.1715245336
100
AcDbArc
 50
314.9173576842
 51
33.0478355063
  0
ARC
  5
27B
100
AcDbEntity
  8
0
100
AcDbCircle
 62
7
  6
CONTINUOUS
 10
9.366002597
 20
10.0506695021
 40
0.031
100
AcDbArc
 50
228.2918697481
 51
238.6653803784
  0
ARC
  5
27C
100
AcDbEntity
  8
0
100
AcDbCircle
 62
7
  6
CONTINUOUS
 10
9.5038434542
 20
9.4746695021
 40
0.031
100
AcDbArc
 50
90.0
 51
175.1903004544
  0
ARC
  5
27D
100
AcDbEntity
  8
0
100
AcDbCircle
 62
7
  6
CONTINUOUS
 10
9.0515511189
 20
10.0318097946
 40
0.016
100
AcDbArc
 50
13.9592487755
 51
124.9005000001
  0
ARC
  5
27E
100
AcDbEntity
  8
0
100
AcDbCircle
 62
7
  6
CONTINUOUS
 10
9.0830785996
 20
10.0356695021
 40
0.016
100
AcDbArc
 50
180.0
 51
313.3041758004
  0
ARC
  5
27F
100
AcDbEntity
  8
0
100
AcDbCircle
 62
7
  6
CONTINUOUS
 10
9.2216246208
 20
10.5426695021
 40
0.186
100
AcDbArc
 50
226.6958241996
 51
311.7081302521
  0
ARC
  5
280
100
AcDbEntity
  8
0
100
AcDbCircle
 62
7
  6
CONTINUOUS
 10
9.366002597
 20
10.3806695021
 40
0.031
100
AcDbArc
 50
121.3304298584
 51
131.7081302519
  0
ARC
  5
281
100
AcDbEntity
  8
0
100
AcDbCircle
 62
7
  6
CONTINUOUS
 10
9.5151923427
 20
10.6364691552
 40
0.03
100
AcDbArc
 50
104.7630312683
 51
170.0176441513
  0
ARC
  5
282
100
AcDbEntity
  8
0
100
AcDbCircle
 62
7
  6
CONTINUOUS
 10
9.0515511189
 20
10.3995292096
 40
0.016
100
AcDbArc
 50
235.0995
 51
346.0407512245
  0
ARC
  5
283
100
AcDbEntity
  8
0
100
AcDbCircle
 62
7
  6
CONTINUOUS
 10
9.0830785996
 20
10.3956695021
 40
0.016
100
AcDbArc
 50
46.6958241996
 51
180.0
  0
ARC
  5
284
100
AcDbEntity
  8
0
100
AcDbCircle
 62
7
  6
CONTINUOUS
 10
9.9026923427
 20
9.1659994867
 40
1.5506700155
100
AcDbArc
 50
78.2452598002
 51
81.2354682492
  0
ARC
  5
285
100
AcDbEntity
  8
0
100
AcDbCircle
 62
7
  6
CONTINUOUS
 10
9.9026923427
 20
9.1659994867
 40
1.5506700155
100
AcDbArc
 50
95.9223880643
 51
101.2405408684
  0
ARC
  5
286
100
AcDbEntity
  8
0
100
AcDbCircle
 62
7
  6
CONTINUOUS
 10
9.9026923427
 20
9.1659994867
 40
1.5506700155
100
AcDbArc
 50
88.836024953
 51
90.1108472106
  0
ARC
  5
287
100
AcDbEntity
  8
0
100
AcDbCircle
 62
7
  6
CONTINUOUS
 10
9.9026923427
 20
9.1659994867
 40
1.5506700155
100
AcDbArc
 50
84.2280819996
 51
87.505151011
  0
ARC
  5
288
100
AcDbEntity
  8
0
100
AcDbCircle
 62
7
  6
CONTINUOUS
 10
9.9026923427
 20
9.1659994867
 40
1.5506700155
100
AcDbArc
 50
82.589547494
 51
83.7418701747
  0
ARC
  5
289
100
AcDbEntity
  8
0
100
AcDbCircle
 62
7
  6
CONTINUOUS
 10
9.9026923427
 20
9.1659994867
 40
1.5506700155
100
AcDbArc
 50
103.0445666344
 51
104.7630312681
  0
ARC
  5
28A
100
AcDbEntity
  8
0
100
AcDbCircle
 62
7
  6
CONTINUOUS
 10
9.9026923427
 20
9.1659994867
 40
1.5496700155
100
AcDbArc
 50
101.4639028364
 51
102.1588703004
  0
ARC
  5
28B
100
AcDbEntity
  8
0
100
AcDbCircle
 62
7
  6
CONTINUOUS
 10
9.9029524464
 20
9.167023165
 40
1.5496138507
100
AcDbArc
 50
75.2366234479
 51
76.6144379558
  0
ARC
  5
28C
100
AcDbEntity
  8
0
100
AcDbCircle
 62
7
  6
CONTINUOUS
 10
9.9026923427
 20
9.1659994867
 40
1.549469747
100
AcDbArc
 50
79.9593632588
 51
81.0040654587
  0
ARC
  5
28D
100
AcDbEntity
  8
0
100
AcDbCircle
 62
7
  6
CONTINUOUS
 10
9.9026923427
 20
9.1659994867
 40
1.5494208609
100
AcDbArc
 50
85.5024540677
 51
86.3921798126
  0
ARC
  5
28E
100
AcDbEntity
  8
0
100
AcDbCircle
 62
7
  6
CONTINUOUS
 10
9.9026923427
 20
9.1659994867
 40
1.5483386247
100
AcDbArc
 50
84.0880697177
 51
89.6299506004
  0
ARC
  5
28F
100
AcDbEntity
  8
0
100
AcDbCircle
 62
7
  6
CONTINUOUS
 10
9.9026923427
 20
9.1659994867
 40
1.5483386247
100
AcDbArc
 50
79.7882367111
 51
82.9513441199
  0
ARC
  5
290
100
AcDbEntity
  8
0
100
AcDbCircle
 62
7
  6
CONTINUOUS
 10
9.8637789876
 20
9.4012550472
 40
1.3122163767
100
AcDbArc
 50
96.2161682447
 51
96.9435981595
  0
ARC
  5
291
100
AcDbEntity
  8
0
100
AcDbCircle
 62
7
  6
CONTINUOUS
 10
9.93376228
 20
9.5750180865
 40
1.140474328
100
AcDbArc
 50
83.0535887124
 51
83.3421181253
  0
ARC
  5
292
100
AcDbEntity
  8
0
100
AcDbCircle
 62
7
  6
CONTINUOUS
 10
10.0679522295
 20
9.6941554388
 40
1.0011445959
100
AcDbArc
 50
81.1991716821
 51
81.3586927638
  0
ARC
  5
293
100
AcDbEntity
  8
0
100
AcDbCircle
 62
7
  6
CONTINUOUS
 10
10.031450478
 20
10.292522243
 40
0.4158118402
100
AcDbArc
 50
85.6295574417
 51
86.2409395061
  0
ARC
  5
294
100
AcDbEntity
  8
0
100
AcDbCircle
 62
7
  6
CONTINUOUS
 10
10.0315047641
 20
10.2940711628
 40
0.4152658901
100
AcDbArc
 50
85.7445526517
 51
87.4669752034
  0
ARC
  5
295
100
AcDbEntity
  8
0
100
AcDbCircle
 62
7
  6
CONTINUOUS
 10
10.0314925409
 20
10.2931605897
 40
0.4151721092
100
AcDbArc
 50
86.2409563204
 51
86.8529666057
  0
ARC
  5
296
100
AcDbEntity
  8
0
100
AcDbCircle
 62
7
  6
CONTINUOUS
 10
10.0315219932
 20
10.2936940458
 40
0.4146378407
100
AcDbArc
 50
86.8529834584
 51
87.465519041
  0
ARC
  5
297
100
AcDbEntity
  8
0
100
AcDbCircle
 62
7
  6
CONTINUOUS
 10
10.3502172217
 20
8.9484050989
 40
0.2039751211
100
AcDbArc
 50
326.9521644937
 51
34.9889904703
  0
ARC
  5
298
100
AcDbEntity
  8
0
100
AcDbCircle
 62
7
  6
CONTINUOUS
 10
10.7156950166
 20
8.0066695021
 40
0.187
100
AcDbArc
 50
359.6936039968
 51
90.0
  0
ARC
  5
299
100
AcDbEntity
  8
0
100
AcDbCircle
 62
7
  6
CONTINUOUS
 10
10.6649668764
 20
8.7436304776
 40
0.1715245336
100
AcDbArc
 50
146.9521644937
 51
225.0826423158
  0
ARC
  5
29A
100
AcDbEntity
  8
0
100
AcDbCircle
 62
7
  6
CONTINUOUS
 10
10.3015412312
 20
9.4746695021
 40
0.031
100
AcDbArc
 50
4.8096995456
 51
90.0
  0
ARC
  5
29B
100
AcDbEntity
  8
0
100
AcDbCircle
 62
7
  6
CONTINUOUS
 10
9.756844053
 20
12.8156020238
 40
2.1038204906
100
AcDbArc
 50
273.1918918501
 51
273.5818421456
  0
ARC
  5
29C
100
AcDbEntity
  8
0
100
AcDbCircle
 62
7
  6
CONTINUOUS
 10
9.9071691594
 20
11.8066856976
 40
1.0912627107
100
AcDbArc
 50
270.2899910721
 51
270.7436356559
  0
ARC
  5
29D
100
AcDbEntity
  8
0
100
AcDbCircle
 62
7
  6
CONTINUOUS
 10
10.0722443321
 20
10.6580142632
 40
0.0491326272
100
AcDbArc
 50
100.5101157719
 51
101.8312358493
  0
ARC
  5
29E
100
AcDbEntity
  8
0
100
AcDbCircle
 62
7
  6
CONTINUOUS
 10
10.0720878333
 20
10.6588768099
 40
0.0482559914
100
AcDbArc
 50
98.033692931
 51
100.3078316252
  0
ARC
  5
29F
100
AcDbEntity
  8
0
100
AcDbCircle
 62
7
  6
CONTINUOUS
 10
10.0719040187
 20
10.6603394442
 40
0.0467820276
100
AcDbArc
 50
90.2592487478
 51
98.0611275944
  0
ARC
  5
2A0
100
AcDbEntity
  8
0
100
AcDbCircle
 62
7
  6
CONTINUOUS
 10
10.2901923427
 20
10.6364691552
 40
0.03
100
AcDbArc
 50
9.9823558487
 51
75.2369687319
  0
ARC
  5
2A1
100
AcDbEntity
  8
0
100
AcDbCircle
 62
7
  6
CONTINUOUS
 10
13.0198604879
 20
-8.9334746513
 40
19.9142769897
100
AcDbArc
 50
99.620951011
 51
99.7525098826
  0
ARC
  5
2A2
100
AcDbEntity
  8
0
100
AcDbCircle
 62
7
  6
CONTINUOUS
 10
10.9552312448
 20
9.5296728307
 40
0.625
100
AcDbArc
 50
184.8096995456
 51
214.9889904701
  0
ARC
  5
2A3
100
AcDbEntity
  8
0
100
AcDbCircle
 62
7
  6
CONTINUOUS
 10
12.9016715094
 20
10.2156695021
 40
0.3735208333
100
AcDbArc
 50
317.9864211384
 51
42.0135788615
  0
ARC
  5
2A4
100
AcDbEntity
  8
0
100
AcDbCircle
 62
7
  6
CONTINUOUS
 10
10.8955562316
 20
7.8186695021
 40
0.1871361111
100
AcDbArc
 50
0.0
 51
87.8145949286
  0
LINE
  5
2A5
100
AcDbEntity
  8
0
100
AcDbLine
 62
7
  6
CONTINUOUS
 10
10.2616872899
 20
10.6745407851
 11
10.2588468669
 21
10.6750510571
  0
LINE
  5
2A6
100
AcDbEntity
  8
0
100
AcDbLine
 62
7
  6
CONTINUOUS
 10
10.2588468669
 20
10.6750510571
 11
10.2504473253
 21
10.6765714322
  0
LINE
  5
2A7
100
AcDbEntity
  8
0
100
AcDbLine
 62
7
  6
CONTINUOUS
 10
10.2504473253
 20
10.6765714322
 11
10.2371680731
 21
10.6789768802
  0
LINE
  5
2A8
100
AcDbEntity
  8
0
100
AcDbLine
 62
7
  6
CONTINUOUS
 10
10.2371680731
 20
10.6789768802
 11
10.2196609742
 21
10.6821454441
  0
LINE
  5
2A9
100
AcDbEntity
  8
0
100
AcDbLine
 62
7
  6
CONTINUOUS
 10
10.2196609742
 20
10.6821454441
 11
10.2183654816
 21
10.6823797328
  0
LINE
  5
2AA
100
AcDbEntity
  8
0
100
AcDbLine
 62
7
  6
CONTINUOUS
 10
10.2183654816
 20
10.6823797328
 11
10.1771923427
 21
10.6898112358
  0
SPLINE
  5
2AB
100
AcDbEntity
  8
0
100
AcDbSpline
 62
7
  6
CONTINUOUS
 70
0
 71
3
 72
69
 73
65
 74
0
 42
0.0000001
 43
0.0000001
 44
0.0000000001
 40
0.0
 40
0.0
 40
0.0
 40
0.0
 40
0.0625069941
 40
0.125013991
 40
0.187520984
 40
0.2500279807
 40
0.3125349797
 40
0.3750419762
 40
0.4062960193
 40
0.4375500628
 40
0.4688041059
 40
0.5000581489
 40
0.5313121921
 40
0.5625662354
 40
0.5938202788
 40
0.6094473683
 40
0.6250744577
 40
0.6407015474
 40
0.6563286377
 40
0.6719557272
 40
0.6797692796
 40
0.6875828323
 40
0.6953963868
 40
0.7032099424
 40
0.7110234904
 40
0.7188370451
 40
0.7227438331
 40
0.7266505896
 40
0.7286039638
 40
0.7305573667
 40
0.7325108168
 40
0.7344642567
 40
0.7364175938
 40
0.7383708176
 40
0.7393475478
 40
0.7403245281
 40
0.7413015422
 40
0.7422780942
 40
0.7432543851
 40
0.7442311382
 40
0.7452079698
 40
0.746184655
 40
0.7471613274
 40
0.7481380162
 40
0.7500913987
 40
0.7520447691
 40
0.7539981456
 40
0.7579048993
 40
0.7618116512
 40
0.765718363
 40
0.7696250755
 40
0.7735318071
 40
0.781344959
 40
0.7891580925
 40
0.7969712275
 40
0.8125950214
 40
0.8282188129
 40
0.843842604
 40
0.8594664258
 40
0.8750901266
 40
0.9063178485
 40
0.9375454198
 40
0.9687727153
 40
1.0
 40
1.0
 40
1.0
 40
1.0
 10
10.7901923427
 20
9.9341695021
 30
0.0
 10
10.8393324479
 20
9.9364187029
 30
0.0
 10
10.9376697455
 20
9.9397563956
 30
0.0
 10
11.0852495842
 20
9.9412794503
 30
0.0
 10
11.2328250885
 20
9.9393184892
 30
0.0
 10
11.3803130152
 20
9.9338729194
 30
0.0
 10
11.5276308901
 20
9.9249467037
 30
0.0
 10
11.650187687
 20
9.9146117452
 30
0.0
 10
11.74806377
 20
9.9046095011
 30
0.0
 10
11.8213781906
 20
9.8962416337
 30
0.0
 10
11.8945886083
 20
9.8870088259
 30
0.0
 10
11.9676849352
 20
9.8769122625
 30
0.0
 10
12.0406569835
 20
9.8659534903
 30
0.0
 10
12.1134945235
 20
9.8541340217
 30
0.0
 10
12.1740721674
 20
9.843568471
 30
0.0
 10
12.2224566044
 20
9.8346874139
 30
0.0
 10
12.258705107
 20
9.8278124958
 30
0.0
 10
12.2949123866
 20
9.8207237348
 30
0.0
 10
12.331077193
 20
9.8134213936
 30
0.0
 10
12.3611781083
 20
9.8071582977
 30
0.0
 10
12.385236286
 20
9.8020411955
 30
0.0
 10
12.4032685337
 20
9.798150144
 30
0.0
 10
12.4212892328
 20
9.7942059495
 30
0.0
 10
12.4392982572
 20
9.790208801
 30
0.0
 10
12.4572952799
 20
9.7861579541
 30
0.0
 10
12.472282698
 20
9.7827376559
 30
0.0
 10
12.4842670317
 20
9.7799770969
 30
0.0
 10
12.4917541139
 20
9.7782382852
 30
0.0
 10
12.497742063
 20
9.7768398849
 30
0.0
 10
12.5022327397
 20
9.7757895998
 30
0.0
 10
12.506723733
 20
9.7747404381
 30
0.0
 10
12.5112137852
 20
9.7736874919
 30
0.0
 10
12.5157014612
 20
9.7726251619
 30
0.0
 10
12.5194367283
 20
9.7717214379
 30
0.0
 10
12.5224281472
 20
9.7710107123
 30
0.0
 10
12.5246768853
 20
9.770498044
 30
0.0
 10
12.5269266118
 20
9.7699905875
 30
0.0
 10
12.5291684135
 20
9.7694502624
 30
0.0
 10
12.5313902561
 20
9.768832897
 30
0.0
 10
12.5335933587
 20
9.7681524171
 30
0.0
 10
12.535799861
 20
9.7674820519
 30
0.0
 10
12.5380157874
 20
9.7668436763
 30
0.0
 10
12.5402346873
 20
9.7662163575
 30
0.0
 10
12.5431953168
 20
9.7653872876
 30
0.0
 10
12.5469013929
 20
9.7643698586
 30
0.0
 10
12.5513595526
 20
9.7631891578
 30
0.0
 10
12.5573185895
 20
9.761672064
 30
0.0
 10
12.5647933191
 20
9.7598790895
 30
0.0
 10
12.5737994046
 20
9.7578859633
 30
0.0
 10
12.5828391887
 20
9.7560517612
 30
0.0
 10
12.5919104042
 20
9.7543798224
 30
0.0
 10
12.6040430044
 20
9.7523677454
 30
0.0
 10
12.6192732826
 20
9.7502591975
 30
0.0
 10
12.6376278847
 20
9.7483825128
 30
0.0
 10
12.662171437
 20
9.7467560334
 30
0.0
 10
12.6929373555
 20
9.7463682606
 30
0.0
 10
12.7297909289
 20
9.7485382005
 30
0.0
 10
12.7663961656
 20
9.7533329165
 30
0.0
 10
12.8025672241
 20
9.760728593
 30
0.0
 10
12.849945832
 20
9.7739952329
 30
0.0
 10
12.907215764
 20
9.796881053
 30
0.0
 10
12.9713026396
 20
9.8338307555
 30
0.0
 10
13.0294514853
 20
9.8795425166
 30
0.0
 10
13.0635369491
 20
9.915226257
 30
0.0
 10
13.0791923427
 20
9.9341695021
 30
0.0
  0
SPLINE
  5
2AC
100
AcDbEntity
  8
0
100
AcDbSpline
 62
7
  6
CONTINUOUS
 70
0
 71
3
 72
69
 73
65
 74
0
 42
0.0000001
 43
0.0000001
 44
0.0000000001
 40
0.0
 40
0.0
 40
0.0
 40
0.0
 40
0.0625069941
 40
0.125013991
 40
0.187520984
 40
0.2500279807
 40
0.3125349797
 40
0.3750419762
 40
0.4062960193
 40
0.4375500628
 40
0.4688041059
 40
0.5000581489
 40
0.5313121921
 40
0.5625662354
 40
0.5938202788
 40
0.6094473683
 40
0.6250744577
 40
0.6407015474
 40
0.6563286377
 40
0.6719557272
 40
0.6797692796
 40
0.6875828323
 40
0.6953963868
 40
0.7032099424
 40
0.7110234904
 40
0.7188370451
 40
0.7227438331
 40
0.7266505896
 40
0.7286039638
 40
0.7305573667
 40
0.7325108168
 40
0.7344642567
 40
0.7364175938
 40
0.7383708176
 40
0.7393475478
 40
0.7403245281
 40
0.7413015422
 40
0.7422780942
 40
0.7432543851
 40
0.7442311382
 40
0.7452079698
 40
0.746184655
 40
0.7471613274
 40
0.7481380162
 40
0.7500913987
 40
0.7520447691
 40
0.7539981456
 40
0.7579048993
 40
0.7618116512
 40
0.765718363
 40
0.7696250755
 40
0.7735318071
 40
0.781344959
 40
0.7891580925
 40
0.7969712275
 40
0.8125950214
 40
0.8282188129
 40
0.843842604
 40
0.8594664258
 40
0.8750901266
 40
0.9063178485
 40
0.9375454198
 40
0.9687727153
 40
1.0
 40
1.0
 40
1.0
 40
1.0
 10
10.7901923427
 20
10.4971695021
 30
0.0
 10
10.8393324479
 20
10.4949203013
 30
0.0
 10
10.9376697455
 20
10.4915826087
 30
0.0
 10
11.0852495842
 20
10.490059554
 30
0.0
 10
11.2328250885
 20
10.4920205151
 30
0.0
 10
11.3803130152
 20
10.4974660849
 30
0.0
 10
11.5276308901
 20
10.5063923006
 30
0.0
 10
11.650187687
 20
10.5167272591
 30
0.0
 10
11.74806377
 20
10.5267295032
 30
0.0
 10
11.8213781906
 20
10.5350973706
 30
0.0
 10
11.8945886083
 20
10.5443301784
 30
0.0
 10
11.9676849352
 20
10.5544267418
 30
0.0
 10
12.0406569835
 20
10.565385514
 30
0.0
 10
12.1134945235
 20
10.5772049826
 30
0.0
 10
12.1740721674
 20
10.5877705333
 30
0.0
 10
12.2224566044
 20
10.5966515904
 30
0.0
 10
12.258705107
 20
10.6035265085
 30
0.0
 10
12.2949123866
 20
10.6106152695
 30
0.0
 10
12.331077193
 20
10.6179176107
 30
0.0
 10
12.3611781083
 20
10.6241807066
 30
0.0
 10
12.385236286
 20
10.6292978087
 30
0.0
 10
12.4032685337
 20
10.6331888603
 30
0.0
 10
12.4212892328
 20
10.6371330548
 30
0.0
 10
12.4392982572
 20
10.6411302033
 30
0.0
 10
12.4572952799
 20
10.6451810502
 30
0.0
 10
12.472282698
 20
10.6486013484
 30
0.0
 10
12.4842670317
 20
10.6513619074
 30
0.0
 10
12.4917541139
 20
10.6531007191
 30
0.0
 10
12.497742063
 20
10.6544991194
 30
0.0
 10
12.5022327397
 20
10.6555494045
 30
0.0
 10
12.506723733
 20
10.6565985662
 30
0.0
 10
12.5112137852
 20
10.6576515124
 30
0.0
 10
12.5157014612
 20
10.6587138424
 30
0.0
 10
12.5194367283
 20
10.6596175663
 30
0.0
 10
12.5224281472
 20
10.660328292
 30
0.0
 10
12.5246768853
 20
10.6608409603
 30
0.0
 10
12.5269266118
 20
10.6613484168
 30
0.0
 10
12.5291684135
 20
10.6618887419
 30
0.0
 10
12.5313902561
 20
10.6625061072
 30
0.0
 10
12.5335933587
 20
10.6631865872
 30
0.0
 10
12.535799861
 20
10.6638569524
 30
0.0
 10
12.5380157874
 20
10.664495328
 30
0.0
 10
12.5402346873
 20
10.6651226468
 30
0.0
 10
12.5431953168
 20
10.6659517166
 30
0.0
 10
12.5469013929
 20
10.6669691457
 30
0.0
 10
12.5513595526
 20
10.6681498465
 30
0.0
 10
12.5573185895
 20
10.6696669403
 30
0.0
 10
12.5647933191
 20
10.6714599148
 30
0.0
 10
12.5737994046
 20
10.673453041
 30
0.0
 10
12.5828391887
 20
10.6752872431
 30
0.0
 10
12.5919104042
 20
10.6769591818
 30
0.0
 10
12.6040430044
 20
10.6789712588
 30
0.0
 10
12.6192732826
 20
10.6810798068
 30
0.0
 10
12.6376278847
 20
10.6829564915
 30
0.0
 10
12.662171437
 20
10.6845829708
 30
0.0
 10
12.6929373555
 20
10.6849707437
 30
0.0
 10
12.7297909289
 20
10.6828008038
 30
0.0
 10
12.7663961656
 20
10.6780060878
 30
0.0
 10
12.8025672241
 20
10.6706104113
 30
0.0
 10
12.849945832
 20
10.6573437714
 30
0.0
 10
12.907215764
 20
10.6344579512
 30
0.0
 10
12.9713026396
 20
10.5975082487
 30
0.0
 10
13.0294514853
 20
10.5517964877
 30
0.0
 10
13.0635369491
 20
10.5161127473
 30
0.0
 10
13.0791923427
 20
10.4971695021
 30
0.0
  0
SPLINE
  5
2AD
100
AcDbEntity
  8
0
100
AcDbSpline
 62
7
  6
CONTINUOUS
 70
0
 71
3
 72
10
 73
6
 74
0
 42
0.0000001
 43
0.0000001
 44
0.0000000001
 40
0.0
 40
0.0
 40
0.0
 40
0.0
 40
0.2842434726
 40
0.6033691744
 40
1.0
 40
1.0
 40
1.0
 40
1.0
 10
10.4601923427
 20
10.0106695021
 30
0.0
 10
10.4554644687
 20
10.0235270131
 30
0.0
 10
10.446145196
 20
10.0510922202
 30
0.0
 10
10.4336327217
 20
10.0976702448
 30
0.0
 10
10.4275521894
 20
10.1316999656
 30
0.0
 10
10.4251923427
 20
10.1506695021
 30
0.0
  0
SPLINE
  5
2AE
100
AcDbEntity
  8
0
100
AcDbSpline
 62
7
  6
CONTINUOUS
 70
0
 71
3
 72
10
 73
6
 74
0
 42
0.0000001
 43
0.0000001
 44
0.0000000001
 40
0.0
 40
0.0
 40
0.0
 40
0.0
 40
0.3128247542
 40
0.5911704395
 40
1.0
 40
1.0
 40
1.0
 40
1.0
 10
9.3801923427
 20
10.1506695021
 30
0.0
 10
9.3785667735
 20
10.1376024267
 30
0.0
 10
9.3745919737
 20
10.1130115824
 30
0.0
 10
9.3652204391
 20
10.0719559186
 30
0.0
 10
9.3568547307
 20
10.0442290351
 30
0.0
 10
9.351308699
 20
10.0279382557
 30
0.0
  0
LINE
  5
2AF
100
AcDbEntity
  8
0
100
AcDbLine
 62
7
  6
CONTINUOUS
 10
9.3467354893
 20
10.0149036239
 11
9.3451923427
 21
10.0106695021
  0
SPLINE
  5
2B0
100
AcDbEntity
  8
0
100
AcDbSpline
 62
7
  6
CONTINUOUS
 70
0
 71
3
 72
35
 73
31
 74
0
 42
0.0000001
 43
0.0000001
 44
0.0000000001
 40
0.0
 40
0.0
 40
0.0
 40
0.0
 40
0.2059027268
 40
0.3966354917
 40
0.4849288326
 40
0.5678722064
 40
0.6449816258
 40
0.7157638059
 40
0.7797208374
 40
0.8363812731
 40
0.8618295756
 40
0.8852782927
 40
0.9066752507
 40
0.9259745441
 40
0.9431303471
 40
0.9580966689
 40
0.9708273929
 40
0.976341368
 40
0.9812839798
 40
0.9856530991
 40
0.989446595
 40
0.9926623356
 40
0.9952981876
 40
0.9973520165
 40
0.9981600049
 40
0.9988216864
 40
0.999336794
 40
0.9997050604
 40
0.9999262182
 40
1.0
 40
1.0
 40
1.0
 40
1.0
 10
10.4251923427
 20
10.2806695021
 30
0.0
 10
10.4264176851
 20
10.2905193692
 30
0.0
 10
10.4293021816
 20
10.3094318143
 30
0.0
 10
10.4339801382
 20
10.3323442774
 30
0.0
 10
10.4380407828
 20
10.3493154734
 30
0.0
 10
10.4410558459
 20
10.3609021824
 30
0.0
 10
10.4440509698
 20
10.3716197549
 30
0.0
 10
10.4469578592
 20
10.3814101332
 30
0.0
 10
10.4497083753
 20
10.3902175559
 30
0.0
 10
10.4518912045
 20
10.3969121256
 30
0.0
 10
10.4535087099
 20
10.4017367437
 30
0.0
 10
10.4546009483
 20
10.4049445081
 30
0.0
 10
10.4556100729
 20
10.4078674069
 30
0.0
 10
10.4565307857
 20
10.4104998759
 30
0.0
 10
10.4573577296
 20
10.4128367108
 30
0.0
 10
10.4580856143
 20
10.4148726987
 30
0.0
 10
10.4586284538
 20
10.416378839
 30
0.0
 10
10.4590088317
 20
10.4174298997
 30
0.0
 10
10.4592526207
 20
10.4181017259
 30
0.0
 10
10.459468621
 20
10.4186954068
 30
0.0
 10
10.4596566027
 20
10.4192106949
 30
0.0
 10
10.4598162971
 20
10.4196473679
 30
0.0
 10
10.4599475428
 20
10.4200051323
 30
0.0
 10
10.4600388939
 20
10.4202539418
 30
0.0
 10
10.4600977598
 20
10.4204132251
 30
0.0
 10
10.4601305592
 20
10.4205032003
 30
0.0
 10
10.4601571736
 20
10.4205725281
 30
0.0
 10
10.4601738095
 20
10.4206236916
 30
0.0
 10
10.4601881269
 20
10.420651525
 30
0.0
 10
10.4601897365
 20
10.4206670818
 30
0.0
 10
10.4601923427
 20
10.4206695021
 30
0.0
  0
LINE
  5
2B1
100
AcDbEntity
  8
0
100
AcDbLine
 62
7
  6
CONTINUOUS
 10
9.3451923427
 20
10.4206695021
 11
9.3467119095
 21
10.4165007091
  0
SPLINE
  5
2B2
100
AcDbEntity
  8
0
100
AcDbSpline
 62
7
  6
CONTINUOUS
 70
0
 71
3
 72
10
 73
6
 74
0
 42
0.0000001
 43
0.0000001
 44
0.0000000001
 40
0.0
 40
0.0
 40
0.0
 40
0.0
 40
0.4079942094
 40
0.6866084523
 40
1.0
 40
1.0
 40
1.0
 40
1.0
 10
9.3511990409
 20
10.4037225678
 30
0.0
 10
9.3567560837
 20
10.3874238632
 30
0.0
 10
9.3651504215
 20
10.3596492849
 30
0.0
 10
9.3745643963
 20
10.318486941
 30
0.0
 10
9.3785594458
 20
10.293795481
 30
0.0
 10
9.3801923427
 20
10.2806695021
 30
0.0
  0
LINE
  5
2B3
100
AcDbEntity
  8
0
100
AcDbLine
 62
7
  6
CONTINUOUS
 10
9.5526923427
 20
10.676654145
 11
9.563451292
 21
10.6785522284
  0
LINE
  5
2B4
100
AcDbEntity
  8
0
100
AcDbLine
 62
7
  6
CONTINUOUS
 10
9.563451292
 20
10.6785522284
 11
9.5763150172
 21
10.6808185049
  0
LINE
  5
2B5
100
AcDbEntity
  8
0
100
AcDbLine
 62
7
  6
CONTINUOUS
 10
9.5763150172
 20
10.6808185049
 11
9.5966826046
 21
10.6843863517
  0
LINE
  5
2B6
100
AcDbEntity
  8
0
100
AcDbLine
 62
7
  6
CONTINUOUS
 10
9.5966826046
 20
10.6843863517
 11
9.6083815061
 21
10.6864229729
  0
LINE
  5
2B7
100
AcDbEntity
  8
0
100
AcDbLine
 62
7
  6
CONTINUOUS
 10
9.6083815061
 20
10.6864229729
 11
9.6207699104
 21
10.6885714069
  0
LINE
  5
2B8
100
AcDbEntity
  8
0
100
AcDbLine
 62
7
  6
CONTINUOUS
 10
9.6207699104
 20
10.6885714069
 11
9.6341764873
 21
10.6908876841
  0
LINE
  5
2B9
100
AcDbEntity
  8
0
100
AcDbLine
 62
7
  6
CONTINUOUS
 10
9.6341764873
 20
10.6908876841
 11
9.6465278046
 21
10.6930139452
  0
LINE
  5
2BA
100
AcDbEntity
  8
0
100
AcDbLine
 62
7
  6
CONTINUOUS
 10
9.6916017341
 20
10.7007078295
 11
9.7064568018
 21
10.7032149875
  0
LINE
  5
2BB
100
AcDbEntity
  8
0
100
AcDbLine
 62
7
  6
CONTINUOUS
 10
9.7064568018
 20
10.7032149875
 11
9.7123249201
 21
10.7041990044
  0
LINE
  5
2BC
100
AcDbEntity
  8
0
100
AcDbLine
 62
7
  6
CONTINUOUS
 10
9.7123249201
 20
10.7041990044
 11
9.7173873086
 21
10.70504338
  0
LINE
  5
2BD
100
AcDbEntity
  8
0
100
AcDbLine
 62
7
  6
CONTINUOUS
 10
9.7173873086
 20
10.70504338
 11
9.7216923427
 21
10.7057561797
  0
LINE
  5
2BE
100
AcDbEntity
  8
0
100
AcDbLine
 62
7
  6
CONTINUOUS
 10
9.7426923427
 20
10.708392918
 11
9.7515012047
 21
10.7086994029
  0
LINE
  5
2BF
100
AcDbEntity
  8
0
100
AcDbLine
 62
7
  6
CONTINUOUS
 10
9.7515012047
 20
10.7086994029
 11
9.7730626338
 21
10.7096993996
  0
LINE
  5
2C0
100
AcDbEntity
  8
0
100
AcDbLine
 62
7
  6
CONTINUOUS
 10
9.7730626338
 20
10.7096993996
 11
9.783020087
 21
10.7102134846
  0
LINE
  5
2C1
100
AcDbEntity
  8
0
100
AcDbLine
 62
7
  6
CONTINUOUS
 10
9.783020087
 20
10.7102134846
 11
9.8564030109
 21
10.7140906373
  0
LINE
  5
2C2
100
AcDbEntity
  8
0
100
AcDbLine
 62
7
  6
CONTINUOUS
 10
9.8564030109
 20
10.7140906373
 11
9.8661966189
 21
10.7146171131
  0
LINE
  5
2C3
100
AcDbEntity
  8
0
100
AcDbLine
 62
7
  6
CONTINUOUS
 10
9.8661966189
 20
10.7146171131
 11
9.8739852222
 21
10.7150452873
  0
LINE
  5
2C4
100
AcDbEntity
  8
0
100
AcDbLine
 62
7
  6
CONTINUOUS
 10
9.8882786128
 20
10.7158911834
 11
9.8996923427
 21
10.7166666002
  0
SPLINE
  5
2C5
100
AcDbEntity
  8
0
100
AcDbSpline
 62
7
  6
CONTINUOUS
 70
0
 71
3
 72
19
 73
15
 74
0
 42
0.0000001
 43
0.0000001
 44
0.0000000001
 40
0.0
 40
0.0
 40
0.0
 40
0.0
 40
0.1267461183
 40
0.1896739368
 40
0.2522700756
 40
0.3764894584
 40
0.4383009303
 40
0.5000000492
 40
0.561699168
 40
0.6235106437
 40
0.7477300305
 40
0.8103261736
 40
0.8732539872
 40
1.0
 40
1.0
 40
1.0
 40
1.0
 10
9.9026908954
 20
8.5056142608
 30
0.0
 10
9.8772501072
 20
8.5202601956
 30
0.0
 10
9.8383190425
 20
8.5407742331
 30
0.0
 10
9.7846796542
 20
8.5640108172
 30
0.0
 10
9.7303363626
 20
8.5838857463
 30
0.0
 10
9.6743106163
 20
8.5982467264
 30
0.0
 10
9.6173519598
 20
8.6056205305
 30
0.0
 10
9.5744420615
 20
8.6075048754
 30
0.0
 10
9.5315321651
 20
8.6056204716
 30
0.0
 10
9.4745735149
 20
8.5982466218
 30
0.0
 10
9.4185477645
 20
8.5838856129
 30
0.0
 10
9.364204549
 20
8.5640104747
 30
0.0
 10
9.3105651237
 20
8.5407740758
 30
0.0
 10
9.2716337639
 20
8.5202606377
 30
0.0
 10
9.2461929936
 20
8.5056147209
 30
0.0
  0
LINE
  5
2C6
100
AcDbEntity
  8
0
100
AcDbLine
 62
7
  6
CONTINUOUS
 10
9.8639923427
 20
10.7161865099
 11
9.8589934229
 21
10.7157064808
  0
SPLINE
  5
2C7
100
AcDbEntity
  8
0
100
AcDbSpline
 62
7
  6
CONTINUOUS
 70
0
 71
3
 72
19
 73
15
 74
0
 42
0.0000001
 43
0.0000001
 44
0.0000000001
 40
0.0
 40
0.0
 40
0.0
 40
0.0
 40
0.1067884977
 40
0.2695590314
 40
0.46628701
 40
0.6648697966
 40
0.7536891085
 40
0.8314628731
 40
0.8944080582
 40
0.9402548075
 40
0.9704524058
 40
0.9882821802
 40
0.9971471461
 40
1.0
 40
1.0
 40
1.0
 40
1.0
 10
9.8589934229
 20
10.7157064808
 30
0.0
 10
9.8561513873
 20
10.7154746194
 30
0.0
 10
9.8489706835
 20
10.7149743344
 30
0.0
 10
9.83654385
 20
10.7142025584
 30
0.0
 10
9.8216663604
 20
10.7133462765
 30
0.0
 10
9.8087543338
 20
10.7127154315
 30
0.0
 10
9.7990131114
 20
10.7122796785
 30
0.0
 10
9.792889315
 20
10.7120229651
 30
0.0
 10
9.7879110035
 20
10.7118388628
 30
0.0
 10
9.7842010866
 20
10.7117332108
 30
0.0
 10
9.7816947848
 20
10.7116924796
 30
0.0
 10
9.7801754352
 20
10.7116899996
 30
0.0
 10
9.7793867111
 20
10.711707425
 30
0.0
 10
9.7790739519
 20
10.7117205782
 30
0.0
 10
9.7789980635
 20
10.7117272053
 30
0.0
  0
LINE
  5
2C8
100
AcDbEntity
  8
0
100
AcDbLine
 62
7
  6
CONTINUOUS
 10
9.6672136373
 20
10.6965575105
 11
9.633980108
 21
10.6910283262
  0
LINE
  5
2C9
100
AcDbEntity
  8
0
100
AcDbLine
 62
7
  6
CONTINUOUS
 10
9.633980108
 20
10.6910283262
 11
9.6006613602
 21
10.6856421398
  0
LINE
  5
2CA
100
AcDbEntity
  8
0
100
AcDbLine
 62
7
  6
CONTINUOUS
 10
9.6006613588
 20
10.6856422083
 11
9.5947384087
 21
10.684761165
  0
LINE
  5
2CB
100
AcDbEntity
  8
0
100
AcDbLine
 62
7
  6
CONTINUOUS
 10
10.2233209974
 20
10.6821375262
 11
10.2211296318
 21
10.6824905214
  0
LINE
  5
2CC
100
AcDbEntity
  8
0
100
AcDbLine
 62
7
  6
CONTINUOUS
 10
10.2233209973
 20
10.6831596472
 11
10.2211274758
 21
10.6835127281
  0
LINE
  5
2CD
100
AcDbEntity
  8
0
100
AcDbLine
 62
7
  6
CONTINUOUS
 10
9.7051422312
 20
10.7038471548
 11
9.633980108
 21
10.6920444733
  0
LINE
  5
2CE
100
AcDbEntity
  8
0
100
AcDbLine
 62
7
  6
CONTINUOUS
 10
9.633980108
 20
10.6920444733
 11
9.6006613602
 21
10.6866618862
  0
LINE
  5
2CF
100
AcDbEntity
  8
0
100
AcDbLine
 62
7
  6
CONTINUOUS
 10
9.6006613602
 20
10.6866618877
 11
9.5946946085
 21
10.6857741049
  0
LINE
  5
2D0
100
AcDbEntity
  8
0
100
AcDbLine
 62
7
  6
CONTINUOUS
 10
9.7789923427
 20
10.7107245324
 11
9.7826175255
 21
10.7107055602
  0
SPLINE
  5
2D1
100
AcDbEntity
  8
0
100
AcDbSpline
 62
7
  6
CONTINUOUS
 70
0
 71
3
 72
26
 73
22
 74
0
 42
0.0000001
 43
0.0000001
 44
0.0000000001
 40
0.0
 40
0.0
 40
0.0
 40
0.0
 40
0.1944425182
 40
0.3819266982
 40
0.4704972936
 40
0.5545239648
 40
0.6332229491
 40
0.7058443642
 40
0.7717251049
 40
0.8302160853
 40
0.880695505
 40
0.9227149156
 40
0.9404340408
 40
0.9558969245
 40
0.9690581131
 40
0.979888915
 40
0.9883779545
 40
0.9945199879
 40
0.9983290548
 40
0.9993935516
 40
1.0
 40
1.0
 40
1.0
 40
1.0
 10
10.000192348
 20
10.7123497448
 30
0.0
 10
9.9982435081
 20
10.7124726224
 30
0.0
 10
9.994416048
 20
10.7127216294
 30
0.0
 10
9.9897022727
 20
10.7130476535
 30
0.0
 10
9.9860956628
 20
10.7133102931
 30
0.0
 10
9.9835791381
 20
10.7135001035
 30
0.0
 10
9.9812228566
 20
10.7136847104
 30
0.0
 10
9.9790488358
 20
10.7138624051
 30
0.0
 10
9.9770777343
 20
10.7140313765
 30
0.0
 10
9.9753289296
 20
10.714189855
 30
0.0
 10
9.9738196793
 20
10.7143363503
 30
0.0
 10
9.9727189196
 20
10.7144527597
 30
0.0
 10
9.9719687461
 20
10.7145400231
 30
0.0
 10
9.9715069502
 20
10.7145978222
 30
0.0
 10
9.9711143327
 20
10.7146516251
 30
0.0
 10
9.9707920265
 20
10.7147011509
 30
0.0
 10
9.9705399676
 20
10.7147462896
 30
0.0
 10
9.9703597813
 20
10.7147860004
 30
0.0
 10
9.9702524877
 20
10.7148187636
 30
0.0
 10
9.9702043658
 20
10.7148435453
 30
0.0
 10
9.9701923427
 20
10.7148583083
 30
0.0
 10
9.9701923427
 20
10.7148643986
 30
0.0
  0
SPLINE
  5
2D2
100
AcDbEntity
  8
0
100
AcDbSpline
 62
7
  6
CONTINUOUS
 70
0
 71
3
 72
26
 73
22
 74
0
 42
0.0000001
 43
0.0000001
 44
0.0000000001
 40
0.0
 40
0.0
 40
0.0
 40
0.0
 40
0.0006073676
 40
0.0016745309
 40
0.0054926376
 40
0.011645945
 40
0.0201454042
 40
0.0309827229
 40
0.044144106
 40
0.0596076903
 40
0.0773296149
 40
0.1193515958
 40
0.1698141058
 40
0.2282719959
 40
0.2941134874
 40
0.3666893922
 40
0.4453355401
 40
0.5293185315
 40
0.617884527
 40
0.805486
 40
1.0
 40
1.0
 40
1.0
 40
1.0
 10
9.9701923427
 20
10.7138633941
 30
0.0
 10
9.9701923428
 20
10.7138572945
 30
0.0
 10
9.9702044174
 20
10.7138425133
 30
0.0
 10
9.9702526519
 20
10.7138177052
 30
0.0
 10
9.9703601776
 20
10.7137848716
 30
0.0
 10
9.9705406555
 20
10.7137450732
 30
0.0
 10
9.9707929875
 20
10.7136998316
 30
0.0
 10
9.9711154539
 20
10.7136502083
 30
0.0
 10
9.971508135
 20
10.7135963032
 30
0.0
 10
9.971969963
 20
10.7135384395
 30
0.0
 10
9.972720195
 20
10.7134511142
 30
0.0
 10
9.9738208422
 20
10.7133346828
 30
0.0
 10
9.9753296209
 20
10.7131881722
 30
0.0
 10
9.977077534
 20
10.7130296767
 30
0.0
 10
9.979047458
 20
10.7128606949
 30
0.0
 10
9.9812201043
 20
10.7126829954
 30
0.0
 10
9.9835749678
 20
10.7124983802
 30
0.0
 10
9.9860904846
 20
10.7123085194
 30
0.0
 10
9.9896977945
 20
10.7120456704
 30
0.0
 10
9.9944134249
 20
10.7117192787
 30
0.0
 10
9.998242782
 20
10.7114698952
 30
0.0
 10
10.0001923444
 20
10.7113468922
 30
0.0
  0
SPLINE
  5
2D3
100
AcDbEntity
  8
0
100
AcDbSpline
 62
7
  6
CONTINUOUS
 70
0
 71
3
 72
19
 73
15
 74
0
 42
0.0000001
 43
0.0000001
 44
0.0000000001
 40
0.0
 40
0.0
 40
0.0
 40
0.0
 40
0.1267459897
 40
0.1896737804
 40
0.2522698977
 40
0.3764892602
 40
0.4383007204
 40
0.4999998023
 40
0.5616989217
 40
0.6235103747
 40
0.7477298089
 40
0.8103259972
 40
0.8732538549
 40
1.0
 40
1.0
 40
1.0
 40
1.0
 10
10.5591911654
 20
8.5056149989
 30
0.0
 10
10.5337504014
 20
8.5202609198
 30
0.0
 10
10.4948190269
 20
8.5407743152
 30
0.0
 10
10.4411796052
 20
8.5640106894
 30
0.0
 10
10.3868363863
 20
8.5838857808
 30
0.0
 10
10.3308106371
 20
8.5982467527
 30
0.0
 10
10.2738519882
 20
8.6056205177
 30
0.0
 10
10.2309420986
 20
8.6075048348
 30
0.0
 10
10.1880322113
 20
8.6056204822
 30
0.0
 10
10.1310735496
 20
8.5982466298
 30
0.0
 10
10.0750477838
 20
8.5838856162
 30
0.0
 10
10.0207045092
 20
8.564010536
 30
0.0
 10
9.9670650649
 20
8.5407740211
 30
0.0
 10
9.9281338616
 20
8.5202601997
 30
0.0
 10
9.9026930664
 20
8.5056142608
 30
0.0
  0
LINE
  5
2D4
100
AcDbEntity
  8
0
100
AcDbLine
 62
7
  6
CONTINUOUS
 10
10.1449742231
 20
10.696409885
 11
10.1389742231
 21
10.6975749402
  0
LINE
  5
2D5
100
AcDbEntity
  8
0
100
AcDbLine
 62
7
  6
CONTINUOUS
 10
10.2183723487
 20
10.6839353586
 11
10.1878699993
 21
10.6890946777
  0
LINE
  5
2D6
100
AcDbEntity
  8
0
100
AcDbLine
 62
7
  6
CONTINUOUS
 10
10.1878699993
 20
10.6890946777
 11
10.1774374402
 21
10.6909252436
  0
LINE
  5
2D7
100
AcDbEntity
  8
0
100
AcDbLine
 62
7
  6
CONTINUOUS
 10
10.1774374402
 20
10.6909252436
 11
10.1728371309
 21
10.6917380915
  0
LINE
  5
2D8
100
AcDbEntity
  8
0
100
AcDbLine
 62
7
  6
CONTINUOUS
 10
10.0498575307
 20
10.7079261717
 11
10.0241923497
 21
10.7096453775
  0
LINE
  5
2D9
100
AcDbEntity
  8
0
100
AcDbLine
 62
7
  6
CONTINUOUS
 10
10.0241923427
 20
10.7106492056
 11
10.0498575302
 21
10.7089311482
  0
LINE
  5
2DA
100
AcDbEntity
  8
0
100
AcDbLine
 62
7
  6
CONTINUOUS
 10
10.0623188646
 20
10.7081922208
 11
10.0631372794
 21
10.7081305251
  0
LINE
  5
2DB
100
AcDbEntity
  8
0
100
AcDbLine
 62
7
  6
CONTINUOUS
 10
10.0659895882
 20
10.7067954662
 11
10.0631372794
 21
10.7071249843
  0
LINE
  5
2DC
100
AcDbEntity
  8
0
100
AcDbLine
 62
7
  6
CONTINUOUS
 10
10.0631372794
 20
10.7081305251
 11
10.0659895874
 21
10.707801222
  0
LINE
  5
2DD
100
AcDbEntity
  8
0
100
AcDbLine
 62
7
  6
CONTINUOUS
 10
10.1449742231
 20
10.6953966383
 11
10.1389742231
 21
10.6965624648
  0
SPLINE
  5
2DE
100
AcDbEntity
  8
0
100
AcDbSpline
 62
7
  6
CONTINUOUS
 70
0
 71
3
 72
23
 73
19
 74
0
 42
0.0000001
 43
0.0000001
 44
0.0000000001
 40
0.0
 40
0.0
 40
0.0
 40
0.0
 40
0.0016158706
 40
0.005181477
 40
0.0109034157
 40
0.0188093956
 40
0.0288999326
 40
0.0411677212
 40
0.0721916535
 40
0.111746954
 40
0.1595362861
 40
0.2152204417
 40
0.2784586529
 40
0.3488856574
 40
0.4260406763
 40
0.598594717
 40
0.791853337
 40
1.0
 40
1.0
 40
1.0
 40
1.0
 10
9.9341923427
 20
10.715014069
 30
0.0
 10
9.9341923427
 20
10.7150024733
 30
0.0
 10
9.934152329
 20
10.7149787896
 30
0.0
 10
9.9340829002
 20
10.7149603174
 30
0.0
 10
9.9339585472
 20
10.7149351043
 30
0.0
 10
9.9337913107
 20
10.7149121901
 30
0.0
 10
9.9335749134
 20
10.714887982
 30
0.0
 10
9.9331936196
 20
10.7148536218
 30
0.0
 10
9.932600269
 20
10.7148129896
 30
0.0
 10
9.931752082
 20
10.7147681979
 30
0.0
 10
9.9307265677
 20
10.714724792
 30
0.0
 10
9.9295309506
 20
10.7146831652
 30
0.0
 10
9.9281727218
 20
10.7146436919
 30
0.0
 10
9.9266603
 20
10.714606697
 30
0.0
 10
9.9243634528
 20
10.7145591832
 30
0.0
 10
9.9211850421
 20
10.7145089872
 30
0.0
 10
9.9170664778
 20
10.7144639199
 30
0.0
 10
9.9141860077
 20
10.7144438969
 30
0.0
 10
9.9126923428
 20
10.7144361588
 30
0.0
  0
SPLINE
  5
2DF
100
AcDbEntity
  8
0
100
AcDbSpline
 62
7
  6
CONTINUOUS
 70
0
 71
3
 72
20
 73
16
 74
0
 42
0.0000001
 43
0.0000001
 44
0.0000000001
 40
0.0
 40
0.0
 40
0.0
 40
0.0
 40
0.2144954039
 40
0.4076807653
 40
0.5770361262
 40
0.7202820732
 40
0.7815408348
 40
0.8355952267
 40
0.8822254117
 40
0.9212413873
 40
0.9525565143
 40
0.9761149556
 40
0.9918865891
 40
0.9968743587
 40
1.0
 40
1.0
 40
1.0
 40
1.0
 10
9.9213321412
 20
10.7155148982
 30
0.0
 10
9.922252231
 20
10.7155273212
 30
0.0
 10
9.9240009615
 20
10.715553955
 30
0.0
 10
9.9264759547
 20
10.7156021895
 30
0.0
 10
9.9286450945
 20
10.7156560753
 30
0.0
 10
9.9302481398
 20
10.7157072402
 30
0.0
 10
9.9313564632
 20
10.7157516741
 30
0.0
 10
9.9320504308
 20
10.71578416
 30
0.0
 10
9.9326488497
 20
10.7158173584
 30
0.0
 10
9.9331494165
 20
10.7158512785
 30
0.0
 10
9.9335509517
 20
10.7158852066
 30
0.0
 10
9.9338517456
 20
10.7159196392
 30
0.0
 10
9.934040349
 20
10.7159492047
 30
0.0
 10
9.9341387612
 20
10.7159763794
 30
0.0
 10
9.9341715702
 20
10.7159900099
 30
0.0
 10
9.9341820941
 20
10.7159983191
 30
0.0
  0
LINE
  5
2E0
100
AcDbEntity
  8
0
100
AcDbLine
 62
7
  6
CONTINUOUS
 10
10.1772603707
 20
10.6899396063
 11
10.1728371309
 21
10.6907217402
  0
LINE
  5
2E1
100
AcDbEntity
  8
0
100
AcDbLine
 62
7
  6
CONTINUOUS
 10
10.0926923427
 20
10.7037759649
 11
10.1014782545
 21
10.703016844
  0
LINE
  5
2E2
100
AcDbEntity
  8
0
100
AcDbLine
 62
7
  6
CONTINUOUS
 10
10.1014782545
 20
10.703016844
 11
10.1026923427
 21
10.7030628191
  0
LINE
  5
2E3
100
AcDbEntity
  8
0
100
AcDbLine
 62
7
  6
CONTINUOUS
 10
10.1026923427
 20
10.7020539609
 11
10.0979848534
 21
10.7022571454
  0
LINE
  5
2E4
100
AcDbEntity
  8
0
100
AcDbLine
 62
7
  6
CONTINUOUS
 10
10.0979848534
 20
10.7022571454
 11
10.0926923427
 21
10.7027675749
  0
ENDSEC
  0
SECTION
  2
OBJECTS
  0
DICTIONARY
  5
C
100
AcDbDictionary
280
0
281
1
  3
ACAD_GROUP
350
D
  3
ACAD_MLINESTYLE
350
17
  3
ACAD_LAYOUT
350
1A
  3
ACAD_PLOTSETTINGS
350
19
  3
ACAD_PLOTSTYLENAME
350
E
  0
DICTIONARY
  5
D
102
{ACAD_REACTORS
330
C
102
}
100
AcDbDictionary
280
0
281
1
  0
ACDBDICTIONARYWDFLT
  5
E
102
{ACAD_REACTORS
330
C
102
}
100
AcDbDictionary
281
1
  3
Normal
350
F
100
AcDbDictionaryWithDefault
340
F
  0
DICTIONARY
  5
17
102
{ACAD_REACTORS
330
C
102
}
100
AcDbDictionary
280
0
281
1
  3
Standard
350
18
  0
DICTIONARY
  5
19
102
{ACAD_REACTORS
330
C
102
}
100
AcDbDictionary
281
1
  0
DICTIONARY
  5
1A
102
{ACAD_REACTORS
330
C
102
}
100
AcDbDictionary
281
1
  3
Model
350
2E5
  3
Layout1
350
2E6
  0
ACDBPLACEHOLDER
  5
F
102
{ACAD_REACTORS
330
E
102
}
  0
MLINESTYLE
  5
18
102
{ACAD_REACTORS
330
17
102
}
100
AcDbMlineStyle
  2
STANDARD
 70
0
  3

 62
256
 51
90.0
 52
90.0
 71
2
 49
0.5
 62
256
  6
BYLAYER
 49
-0.5
 62
256
  6
BYLAYER
  0
LAYOUT
  5
2E5
102
{ACAD_REACTORS
330
1A
102
}
100
AcDbPlotSettings
  1

  2
none_device
  4
ANSI_C_(22.00_x_17.00_Inches)
  6

 40
0.0
 41
0.0
 42
0.0
 43
0.0
 44
558.8
 45
431.8
 46
0.0
 47
0.0
 48
0.0
 49
0.0
140
0.0
141
0.0
142
1.0
143
1.0
 70
1024
 72
0
 73
0
 74
0
  7

 75
0
147
1.0
148
0.0
149
0.0
100
AcDbLayout
  1
Model
 70
0
 71
0
 10
0.0
 20
0.0
 11
22.0
 21
17.0
 12
0.0
 22
0.0
 32
0.0
 14
0.0
 24
0.0
 34
0.0
 15
0.0
 25
0.0
 35
0.0
146
0.0
 13
0.0
 23
0.0
 33
0.0
 16
1.0
 26
0.0
 36
0.0
 17
0.0
 27
1.0
 37
0.0
 76
0
330
203
345
0
346
0
  0
LAYOUT
  5
2E6
102
{ACAD_REACTORS
330
1A
102
}
100
AcDbPlotSettings
  1

  2
none_device
  4
ANSI_C_(22.00_x_17.00_Inches)
  6

 40
0.0
 41
0.0
 42
0.0
 43
0.0
 44
558.8
 45
431.8
 46
0.0
 47
0.0
 48
0.0
 49
0.0
140
0.0
141
0.0
142
1.0
143
1.0
 70
0
 72
0
 73
0
 74
0
  7

 75
0
147
1.0
148
0.0
149
0.0
100
AcDbLayout
  1
Layout1
 70
0
 71
1
 10
0.0
 20
0.0
 11
22.0
 21
17.0
 12
0.0
 22
0.0
 32
0.0
 14
0.0
 24
0.0
 34
0.0
 15
0.0
 25
0.0
 35
0.0
146
0.0
 13
0.0
 23
0.0
 33
0.0
 16
1.0
 26
0.0
 36
0.0
 17
0.0
 27
1.0
 37
0.0
 76
0
330
204
345
0
346
0
  0
ENDSEC
  0
EOF
