999
DXF file: E:\BT Custom\CADOUTPUT\_RIGHT.dxf
999
Pro/ENGINEER 2018400 by Parametric Technology Corporation
  0
SECTION
  2
HEADER
  9
$ACADVER
  1
AC1018
  9
$DWGCODEPAGE
  3
ANSI_1252
  9
$EXTMAX
 10
22.0
 20
17.0
 30
0.0
  9
$EXTMIN
 10
0.0
 20
0.0
 30
0.0
  9
$LIMMIN
 10
0.0
 20
0.0
  9
$LIMMAX
 10
22.0
 20
17.0
  9
$VIEWCTR
 10
11.0
 20
8.5
  9
$VIEWSIZE
 40
17.0
  9
$CLAYER
  8
0
  9
$LTSCALE
 40
1.21
  9
$CELTYPE
  6
BYLAYER
  9
$DIMSCALE
 40
1.0
  9
$DIMASZ
 40
0.1
  9
$DIMEXO
 40
0.0625
  9
$DIMDLI
 40
0.836
  9
$DIMEXE
 40
0.125
  9
$DIMCEN
 40
0.198
  9
$DIMLFAC
 40
1.0
  9
$DIMBLK
  1
_FILLED
  9
$DIMALT
 70
1
  9
$DIMALTD
 70
2
  9
$DIMALTTD
 70
2
  9
$DIMALTF
 40
25.4
  9
$DIMTXT
 40
0.08
  9
$DIMTOL
 70
1
  9
$DIMLIM
 70
0
  9
$DIMTFAC
 40
1.0
  9
$DIMTP
 40
0.001
  9
$DIMTM
 40
0.001
  9
$DIMGAP
 40
0.09
  9
$DIMDSEP
 70
46
  9
$AUNITS
 70
0
  9
$PDMODE
 70
3
  9
$PDSIZE
 40
0.06
  9
$HANDSEED
  5
2AF
  9
$TILEMODE
 70
1
  9
$MEASUREMENT
 70
0
  9
$INSUNITS
 70
1
  0
ENDSEC
  0
SECTION
  2
CLASSES
  0
CLASS
  1
ACDBDICTIONARYWDFLT
  2
AcDbDictionaryWithDefault
  3
AutoCAD 2000
 90
0
 91
1
280
0
281
0
  0
CLASS
  1
ACDBPLACEHOLDER
  2
AcDbPlaceHolder
  3
AutoCAD 2000
 90
0
 91
1
280
0
281
0
  0
CLASS
  1
LAYOUT
  2
AcDbLayout
  3
AutoCAD 2000
 90
0
 91
0
280
0
281
0
  0
ENDSEC
  0
SECTION
  2
TABLES
  0
TABLE
  2
VPORT
  5
8
100
AcDbSymbolTable
 70
2
  0
VPORT
  5
1F4
100
AcDbSymbolTableRecord
100
AcDbViewportTableRecord
  2
*ACTIVE
 70
0
 10
0.0
 20
0.0
 11
1.0
 21
1.0
 12
11.0
 22
8.5
 13
0.0
 23
0.0
 14
1.0
 24
1.0
 15
0.0
 25
0.0
 16
0.0
 26
0.0
 36
1.0
 17
0.0
 27
0.0
 37
0.0
 40
17.0
 41
1.2941176471
 42
50.0
 43
0.0
 44
0.0
 50
0.0
 51
0.0
 71
0
 72
100
 73
1
 74
1
 75
0
 76
0
 77
0
 78
0
  0
ENDTAB
  0
TABLE
  2
LTYPE
  5
5
100
AcDbSymbolTable
 70
6
  0
LTYPE
  5
14
100
AcDbSymbolTableRecord
100
AcDbLinetypeTableRecord
  2
BYBLOCK
 70
0
  3

 72
65
 73
0
 40
0.0
  0
LTYPE
  5
15
100
AcDbSymbolTableRecord
100
AcDbLinetypeTableRecord
  2
BYLAYER
 70
0
  3

 72
65
 73
0
 40
0.0
  0
LTYPE
  5
16
100
AcDbSymbolTableRecord
100
AcDbLinetypeTableRecord
  2
CONTINUOUS
 70
64
  3
Solid line
 72
65
 73
0
 40
0.0
  0
LTYPE
  5
1F5
100
AcDbSymbolTableRecord
100
AcDbLinetypeTableRecord
  2
CENTER
 70
64
  3
____ _ ____ _ ____ _ ____ _ ____ _ ____ _ ____
 72
65
 73
4
 40
0.6
 49
0.375
 74
0
 49
-0.075
 74
0
 49
0.075
 74
0
 49
-0.075
 74
0
  0
LTYPE
  5
1F6
100
AcDbSymbolTableRecord
100
AcDbLinetypeTableRecord
  2
HIDDEN
 70
64
  3
- - - - - - - - - - - - - - - - - - - -
 72
65
 73
2
 40
0.2
 49
0.1
 74
0
 49
-0.1
 74
0
  0
LTYPE
  5
1F7
100
AcDbSymbolTableRecord
100
AcDbLinetypeTableRecord
  2
PHANTOM
 70
64
  3
_____ _ _ _____ _ _ _____ _ _ _____
 72
65
 73
6
 40
0.8
 49
0.45
 74
0
 49
-0.05
 74
0
 49
0.1
 74
0
 49
-0.05
 74
0
 49
0.1
 74
0
 49
-0.05
 74
0
  0
LTYPE
  5
1F8
100
AcDbSymbolTableRecord
100
AcDbLinetypeTableRecord
  2
DOT
 70
64
  3
. . . . . . . . . . . . . . . . . . . .
 72
65
 73
2
 40
0.2
 49
0.1
 74
0
 49
-0.1
 74
0
  0
LTYPE
  5
1F9
100
AcDbSymbolTableRecord
100
AcDbLinetypeTableRecord
  2
DASHED
 70
64
  3
- - - - - - - - - - - - - - - - - - - -
 72
65
 73
2
 40
0.2
 49
0.1
 74
0
 49
-0.1
 74
0
  0
ENDTAB
  0
TABLE
  2
LAYER
  5
2
100
AcDbSymbolTable
 70
36
  0
LAYER
  5
10
100
AcDbSymbolTableRecord
100
AcDbLayerTableRecord
  2
0
 70
0
 62
7
  6
CONTINUOUS
370
-3
390
F
  0
LAYER
  5
1FA
100
AcDbSymbolTableRecord
100
AcDbLayerTableRecord
  2
DEFAULT_1
 70
0
 62
7
  6
CENTER
370
-3
390
F
  0
LAYER
  5
1FB
100
AcDbSymbolTableRecord
100
AcDbLayerTableRecord
  2
DEFAULT_2
 70
0
 62
8
  6
HIDDEN
370
-3
390
F
  0
LAYER
  5
1FC
100
AcDbSymbolTableRecord
100
AcDbLayerTableRecord
  2
DEFAULT_3
 70
0
 62
7
  6
PHANTOM
370
-3
390
F
  0
LAYER
  5
1FD
100
AcDbSymbolTableRecord
100
AcDbLayerTableRecord
  2
ALL_FEATURES
 70
0
 62
7
  6
CONTINUOUS
370
-3
390
F
  0
LAYER
  5
1FE
100
AcDbSymbolTableRecord
100
AcDbLayerTableRecord
  2
AXES_FEATURES
 70
0
 62
7
  6
CONTINUOUS
370
-3
390
F
  0
LAYER
  5
1FF
100
AcDbSymbolTableRecord
100
AcDbLayerTableRecord
  2
DIMENSIONS
 70
0
 62
7
  6
CONTINUOUS
370
-3
390
F
  0
LAYER
  5
200
100
AcDbSymbolTableRecord
100
AcDbLayerTableRecord
  2
___SHELL
 70
0
 62
7
  6
CONTINUOUS
370
-3
390
F
  0
ENDTAB
  0
TABLE
  2
STYLE
  5
3
100
AcDbSymbolTable
 70
1
  0
STYLE
  5
11
100
AcDbSymbolTableRecord
100
AcDbTextStyleTableRecord
  2
STANDARD
 70
0
 40
0.0
 41
0.8
 50
0.0
 71
0
 42
0.2
  3
txt
  4

  0
STYLE
  5
201
100
AcDbSymbolTableRecord
100
AcDbTextStyleTableRecord
  2
TEXTSTYLE_1
 70
0
 40
0.0
 41
0.8
 50
0.0
 71
0
 42
0.2
  3
gdt
  4

  0
ENDTAB
  0
TABLE
  2
VIEW
  5
6
100
AcDbSymbolTable
 70
0
  0
ENDTAB
  0
TABLE
  2
UCS
  5
7
100
AcDbSymbolTable
 70
0
  0
ENDTAB
  0
TABLE
  2
APPID
  5
9
100
AcDbSymbolTable
 70
1
  0
APPID
  5
202
100
AcDbSymbolTableRecord
100
AcDbRegAppTableRecord
  2
ACAD
 70
0
  0
ENDTAB
  0
TABLE
  2
BLOCK_RECORD
  5
1
100
AcDbSymbolTable
 70
0
  0
BLOCK_RECORD
  5
203
100
AcDbSymbolTableRecord
100
AcDbBlockTableRecord
  2
*Model_Space
  0
BLOCK_RECORD
  5
204
100
AcDbSymbolTableRecord
100
AcDbBlockTableRecord
  2
*Paper_Space
  0
BLOCK_RECORD
  5
205
100
AcDbSymbolTableRecord
100
AcDbBlockTableRecord
  2
_FILLED
  0
ENDTAB
  0
TABLE
  2
DIMSTYLE
  5
A
100
AcDbSymbolTable
 70
1
100
AcDbDimStyleTable
 71
0
  0
DIMSTYLE
105
206
100
AcDbSymbolTableRecord
100
AcDbDimStyleTableRecord
  2
STANDARD
 70
0
  3

  4

 40
1.0
 41
0.1
 42
0.0625
 43
0.38
 44
0.125
 45
0.0
 46
0.0
 47
0.001
 48
0.001
140
0.08
141
0.09
142
0.0
143
25.4
144
1.0
145
0.0
146
1.0
147
0.09
 71
1.0
 72
0.0
 73
1
 74
1
 75
0
 76
0
 77
0
 78
4
 79
1
170
1
171
2
172
0
173
0
174
0
175
0
176
0
177
0
178
0
270
2
179
3
271
3
272
3
273
2
274
2
275
0
280
0
281
0
282
0
283
1
284
4
285
0
286
0
287
3
288
0
340
11
278
46
341
205
342
205
343
205
344
205
  0
ENDTAB
  0
ENDSEC
  0
SECTION
  2
BLOCKS
  0
BLOCK
  5
20
100
AcDbEntity
  8
0
100
AcDbBlockBegin
  2
*Model_Space
 70
0
 10
0.0
 20
0.0
 30
0.0
  3
*Model_Space
  1

  0
ENDBLK
  5
21
100
AcDbEntity
  8
0
100
AcDbBlockEnd
  0
BLOCK
  5
1C
100
AcDbEntity
  8
0
100
AcDbBlockBegin
  2
*Paper_Space
 70
0
 10
0.0
 20
0.0
 30
0.0
  3
*Paper_Space
  1

  0
ENDBLK
  5
1D
100
AcDbEntity
  8
0
100
AcDbBlockEnd
  0
BLOCK
  5
207
100
AcDbEntity
  8
0
100
AcDbBlockBegin
  2
_FILLED
 70
64
 10
0.0
 20
0.0
  3
_FILLED
  1

  0
SOLID
  5
208
100
AcDbEntity
  8
0
  6
BYBLOCK
 62
0
100
AcDbTrace
 10
0.0
 20
0.0
 11
-1.0
 21
0.2
 12
-1.0
 22
-0.2
 13
-1.0
 23
-0.2
  0
ENDBLK
  5
209
100
AcDbEntity
  8
0
  6
BYBLOCK
 62
0
100
AcDbBlockEnd
  0
ENDSEC
  0
SECTION
  2
ENTITIES
  0
LINE
  5
20A
100
AcDbEntity
  8
0
100
AcDbLine
 62
7
  6
CONTINUOUS
 10
10.255473533
 20
10.383891804
 11
10.2047030679
 21
10.36739548
  0
LINE
  5
20B
100
AcDbEntity
  8
0
100
AcDbLine
 62
7
  6
CONTINUOUS
 10
9.5299834891
 20
7.560891804
 11
11.8899834891
 21
7.560891804
  0
LINE
  5
20C
100
AcDbEntity
  8
0
100
AcDbLine
 62
7
  6
CONTINUOUS
 10
10.1824834891
 20
10.3451759012
 11
10.2047030679
 21
10.36739548
  0
LINE
  5
20D
100
AcDbEntity
  8
0
100
AcDbLine
 62
7
  6
CONTINUOUS
 10
10.2084834891
 20
10.258891804
 11
10.1807911739
 21
10.242891804
  0
LINE
  5
20E
100
AcDbEntity
  8
0
100
AcDbLine
 62
7
  6
CONTINUOUS
 10
11.7099834891
 20
7.747891804
 11
9.7099834891
 21
7.747891804
  0
LINE
  5
20F
100
AcDbEntity
  8
0
100
AcDbLine
 62
7
  6
CONTINUOUS
 10
11.5229861629
 20
7.935891804
 11
9.8969808153
 21
7.935891804
  0
LINE
  5
210
100
AcDbEntity
  8
0
100
AcDbLine
 62
7
  6
CONTINUOUS
 10
9.9519225857
 20
7.997891804
 11
11.4680443926
 21
7.997891804
  0
LINE
  5
211
100
AcDbEntity
  8
0
100
AcDbLine
 62
7
  6
CONTINUOUS
 10
9.9519225857
 20
7.997891804
 11
9.9519230035
 21
8.2478365627
  0
LINE
  5
212
100
AcDbEntity
  8
0
100
AcDbLine
 62
7
  6
CONTINUOUS
 10
9.9689834891
 20
7.935891804
 11
9.9689834891
 21
7.997891804
  0
LINE
  5
213
100
AcDbEntity
  8
0
100
AcDbLine
 62
7
  6
CONTINUOUS
 10
11.2374834891
 20
10.273891804
 11
11.2114834891
 21
10.258891804
  0
LINE
  5
214
100
AcDbEntity
  8
0
100
AcDbLine
 62
9
  6
CONTINUOUS
 10
11.3511469288
 20
8.364391804
 11
10.0688200495
 21
8.364391804
  0
LINE
  5
215
100
AcDbEntity
  8
0
100
AcDbLine
 62
7
  6
CONTINUOUS
 10
10.1524834891
 20
10.162891804
 11
10.1524834891
 21
9.752891804
  0
LINE
  5
216
100
AcDbEntity
  8
0
100
AcDbLine
 62
7
  6
CONTINUOUS
 10
10.1824834891
 20
10.3451759012
 11
10.1824834891
 21
10.273891804
  0
LINE
  5
217
100
AcDbEntity
  8
0
100
AcDbLine
 62
7
  6
CONTINUOUS
 10
10.3309530374
 20
7.997891804
 11
10.3309537173
 21
8.2478373008
  0
LINE
  5
218
100
AcDbEntity
  8
0
100
AcDbLine
 62
7
  6
CONTINUOUS
 10
10.0953494949
 20
8.8075906156
 11
10.1694834891
 21
8.9135082428
  0
LINE
  5
219
100
AcDbEntity
  8
0
100
AcDbLine
 62
7
  6
CONTINUOUS
 10
11.2374834891
 20
9.673891804
 11
11.0804834891
 21
9.622891804
  0
LINE
  5
21A
100
AcDbEntity
  8
0
100
AcDbLine
 62
9
  6
CONTINUOUS
 10
11.3284834891
 20
8.579391804
 11
10.0914834891
 21
8.579391804
  0
LINE
  5
21B
100
AcDbEntity
  8
0
100
AcDbLine
 62
7
  6
CONTINUOUS
 10
10.3664834891
 20
9.622891804
 11
10.3664834891
 21
9.263891804
  0
LINE
  5
21C
100
AcDbEntity
  8
0
100
AcDbLine
 62
7
  6
CONTINUOUS
 10
10.5099834891
 20
9.263891804
 11
10.5099834891
 21
9.247891804
  0
LINE
  5
21D
100
AcDbEntity
  8
0
100
AcDbLine
 62
9
  6
CONTINUOUS
 10
11.3246174833
 20
8.8075906156
 11
10.0953494949
 21
8.8075906156
  0
LINE
  5
21E
100
AcDbEntity
  8
0
100
AcDbLine
 62
7
  6
CONTINUOUS
 10
10.6249834891
 20
10.4565281203
 11
10.6249834891
 21
10.4483254068
  0
LINE
  5
21F
100
AcDbEntity
  8
0
100
AcDbLine
 62
7
  6
CONTINUOUS
 10
10.6249834891
 20
10.4320335377
 11
10.6249834891
 21
10.4448585371
  0
LINE
  5
220
100
AcDbEntity
  8
0
100
AcDbLine
 62
7
  6
CONTINUOUS
 10
10.6477541339
 20
10.4518676075
 11
10.6477541339
 21
10.4545719282
  0
LINE
  5
221
100
AcDbEntity
  8
0
100
AcDbLine
 62
7
  6
CONTINUOUS
 10
10.6489834891
 20
10.4339603934
 11
10.6489834891
 21
10.4386321869
  0
LINE
  5
222
100
AcDbEntity
  8
0
100
AcDbLine
 62
7
  6
CONTINUOUS
 10
10.6489834891
 20
10.4449898768
 11
10.6489834891
 21
10.4459982668
  0
LINE
  5
223
100
AcDbEntity
  8
0
100
AcDbLine
 62
7
  6
CONTINUOUS
 10
10.6489834891
 20
10.4566584702
 11
10.6489834891
 21
10.4576592661
  0
LINE
  5
224
100
AcDbEntity
  8
0
100
AcDbLine
 62
9
  6
CONTINUOUS
 10
10.6622203634
 20
10.4501485857
 11
10.6622203634
 21
10.4511536042
  0
LINE
  5
225
100
AcDbEntity
  8
0
100
AcDbLine
 62
9
  6
CONTINUOUS
 10
10.6651080046
 20
10.445285121
 11
10.6651080046
 21
10.4442762628
  0
LINE
  5
226
100
AcDbEntity
  8
0
100
AcDbLine
 62
9
  6
CONTINUOUS
 10
10.6777541339
 20
10.4582367935
 11
10.6777541339
 21
10.4572363707
  0
LINE
  5
227
100
AcDbEntity
  8
0
100
AcDbLine
 62
7
  6
CONTINUOUS
 10
10.0688200495
 20
8.364391804
 11
9.9519270051
 21
8.2478354827
  0
LINE
  5
228
100
AcDbEntity
  8
0
100
AcDbLine
 62
9
  6
CONTINUOUS
 10
11.2504834891
 20
8.9135082428
 11
10.1694834891
 21
8.9135082428
  0
LINE
  5
229
100
AcDbEntity
  8
0
100
AcDbLine
 62
7
  6
CONTINUOUS
 10
11.4680409499
 20
8.2478345088
 11
11.3511469288
 21
8.364391804
  0
LINE
  5
22A
100
AcDbEntity
  8
0
100
AcDbLine
 62
9
  6
CONTINUOUS
 10
10.7472128444
 20
10.4571242652
 11
10.7472128444
 21
10.4581247604
  0
LINE
  5
22B
100
AcDbEntity
  8
0
100
AcDbLine
 62
9
  6
CONTINUOUS
 10
10.7598589736
 20
10.4441220434
 11
10.7598589736
 21
10.4451310029
  0
LINE
  5
22C
100
AcDbEntity
  8
0
100
AcDbLine
 62
7
  6
CONTINUOUS
 10
10.7759834891
 20
10.4384247122
 11
10.7759834891
 21
10.4337522833
  0
LINE
  5
22D
100
AcDbEntity
  8
0
100
AcDbLine
 62
7
  6
CONTINUOUS
 10
10.7759834891
 20
10.4447832605
 11
10.7759834891
 21
10.445791786
  0
LINE
  5
22E
100
AcDbEntity
  8
0
100
AcDbLine
 62
7
  6
CONTINUOUS
 10
10.7759834891
 20
10.4564534111
 11
10.7759834891
 21
10.4574543395
  0
LINE
  5
22F
100
AcDbEntity
  8
0
100
AcDbLine
 62
7
  6
CONTINUOUS
 10
10.7939834891
 20
10.4449135263
 11
10.7939834891
 21
10.4320889898
  0
LINE
  5
230
100
AcDbEntity
  8
0
100
AcDbLine
 62
7
  6
CONTINUOUS
 10
10.7939834891
 20
10.4565826951
 11
10.7939834891
 21
10.454055058
  0
LINE
  5
231
100
AcDbEntity
  8
0
100
AcDbLine
 62
7
  6
CONTINUOUS
 10
10.9099834891
 20
9.263891804
 11
10.9099834891
 21
9.247891804
  0
LINE
  5
232
100
AcDbEntity
  8
0
100
AcDbLine
 62
9
  6
CONTINUOUS
 10
11.1397232167
 20
9.2194910467
 11
10.2802437616
 21
9.2194910467
  0
LINE
  5
233
100
AcDbEntity
  8
0
100
AcDbLine
 62
7
  6
CONTINUOUS
 10
11.1088323776
 20
9.247891804
 11
10.3111346006
 21
9.247891804
  0
LINE
  5
234
100
AcDbEntity
  8
0
100
AcDbLine
 62
7
  6
CONTINUOUS
 10
10.3664834891
 20
9.263891804
 11
11.0534834891
 21
9.263891804
  0
LINE
  5
235
100
AcDbEntity
  8
0
100
AcDbLine
 62
7
  6
CONTINUOUS
 10
11.0534834891
 20
9.263891804
 11
11.0534834891
 21
9.622891804
  0
LINE
  5
236
100
AcDbEntity
  8
0
100
AcDbLine
 62
7
  6
CONTINUOUS
 10
11.089012841
 20
8.2478370228
 11
11.0890133909
 21
7.997891804
  0
LINE
  5
237
100
AcDbEntity
  8
0
100
AcDbLine
 62
7
  6
CONTINUOUS
 10
11.2504834891
 20
8.9135082428
 11
11.3246174833
 21
8.8075906156
  0
LINE
  5
238
100
AcDbEntity
  8
0
100
AcDbLine
 62
7
  6
CONTINUOUS
 10
10.3394834891
 20
9.622891804
 11
10.1824834891
 21
9.673891804
  0
LINE
  5
239
100
AcDbEntity
  8
0
100
AcDbLine
 62
7
  6
CONTINUOUS
 10
11.2374834891
 20
10.273891804
 11
11.2374834891
 21
10.3451759012
  0
LINE
  5
23A
100
AcDbEntity
  8
0
100
AcDbLine
 62
7
  6
CONTINUOUS
 10
11.2674834891
 20
10.162891804
 11
11.2674834891
 21
9.752891804
  0
LINE
  5
23B
100
AcDbEntity
  8
0
100
AcDbLine
 62
7
  6
CONTINUOUS
 10
10.3394834891
 20
9.622891804
 11
10.3832148836
 21
9.622891804
  0
LINE
  5
23C
100
AcDbEntity
  8
0
100
AcDbLine
 62
7
  6
CONTINUOUS
 10
11.0366260398
 20
9.622891804
 11
11.0804834891
 21
9.622891804
  0
LINE
  5
23D
100
AcDbEntity
  8
0
100
AcDbLine
 62
7
  6
CONTINUOUS
 10
11.4509834891
 20
7.997891804
 11
11.4509834891
 21
7.935891804
  0
LINE
  5
23E
100
AcDbEntity
  8
0
100
AcDbLine
 62
7
  6
CONTINUOUS
 10
11.468043741
 20
8.2478353475
 11
11.4680440668
 21
7.997891804
  0
LINE
  5
23F
100
AcDbEntity
  8
0
100
AcDbLine
 62
7
  6
CONTINUOUS
 10
11.2374834891
 20
9.673891804
 11
11.0803582913
 21
9.673891804
  0
LINE
  5
240
100
AcDbEntity
  8
0
100
AcDbLine
 62
7
  6
CONTINUOUS
 10
10.3395837952
 20
9.673891804
 11
10.1824834891
 21
9.673891804
  0
LINE
  5
241
100
AcDbEntity
  8
0
100
AcDbLine
 62
7
  6
CONTINUOUS
 10
11.2674834891
 20
9.752891804
 11
11.1292758057
 21
9.752891804
  0
LINE
  5
242
100
AcDbEntity
  8
0
100
AcDbLine
 62
7
  6
CONTINUOUS
 10
10.2906697292
 20
9.752891804
 11
10.1524834891
 21
9.752891804
  0
LINE
  5
243
100
AcDbEntity
  8
0
100
AcDbLine
 62
7
  6
CONTINUOUS
 10
10.2084834891
 20
10.258891804
 11
10.1824834891
 21
10.273891804
  0
LINE
  5
244
100
AcDbEntity
  8
0
100
AcDbLine
 62
7
  6
CONTINUOUS
 10
11.2674834891
 20
10.162891804
 11
11.1292972491
 21
10.162891804
  0
LINE
  5
245
100
AcDbEntity
  8
0
100
AcDbLine
 62
7
  6
CONTINUOUS
 10
10.2906911726
 20
10.162891804
 11
10.1524834891
 21
10.162891804
  0
LINE
  5
246
100
AcDbEntity
  8
0
100
AcDbLine
 62
7
  6
CONTINUOUS
 10
11.2391758044
 20
10.242891804
 11
11.0795859507
 21
10.242891804
  0
LINE
  5
247
100
AcDbEntity
  8
0
100
AcDbLine
 62
7
  6
CONTINUOUS
 10
10.3404020756
 20
10.242891804
 11
10.1807911739
 21
10.242891804
  0
LINE
  5
248
100
AcDbEntity
  8
0
100
AcDbLine
 62
7
  6
CONTINUOUS
 10
11.2114834891
 20
10.258891804
 11
11.0668302337
 21
10.258891804
  0
LINE
  5
249
100
AcDbEntity
  8
0
100
AcDbLine
 62
7
  6
CONTINUOUS
 10
10.3530962936
 20
10.258891804
 11
10.2084834891
 21
10.258891804
  0
LINE
  5
24A
100
AcDbEntity
  8
0
100
AcDbLine
 62
7
  6
CONTINUOUS
 10
11.2374834891
 20
10.273891804
 11
11.0548717491
 21
10.273891804
  0
LINE
  5
24B
100
AcDbEntity
  8
0
100
AcDbLine
 62
7
  6
CONTINUOUS
 10
10.364997123
 20
10.273891804
 11
10.1824834891
 21
10.273891804
  0
LINE
  5
24C
100
AcDbEntity
  8
0
100
AcDbLine
 62
7
  6
CONTINUOUS
 10
11.2374834891
 20
10.3451759012
 11
10.9744237319
 21
10.3451759012
  0
LINE
  5
24D
100
AcDbEntity
  8
0
100
AcDbLine
 62
7
  6
CONTINUOUS
 10
10.445579481
 20
10.3451759012
 11
10.1824834891
 21
10.3451759012
  0
LINE
  5
24E
100
AcDbEntity
  8
0
100
AcDbLine
 62
7
  6
CONTINUOUS
 10
11.2152639103
 20
10.36739548
 11
10.933772405
 21
10.36739548
  0
LINE
  5
24F
100
AcDbEntity
  8
0
100
AcDbLine
 62
7
  6
CONTINUOUS
 10
10.4861962711
 20
10.36739548
 11
10.2047030679
 21
10.36739548
  0
LINE
  5
250
100
AcDbEntity
  8
0
100
AcDbLine
 62
7
  6
CONTINUOUS
 10
11.1644934452
 20
10.383891804
 11
10.9034482182
 21
10.383891804
  0
LINE
  5
251
100
AcDbEntity
  8
0
100
AcDbLine
 62
7
  6
CONTINUOUS
 10
10.5163511062
 20
10.383891804
 11
10.255473533
 21
10.383891804
  0
LINE
  5
252
100
AcDbEntity
  8
0
100
AcDbLine
 62
7
  6
CONTINUOUS
 10
11.2391758044
 20
10.242891804
 11
11.2114834891
 21
10.258891804
  0
LINE
  5
253
100
AcDbEntity
  8
0
100
AcDbLine
 62
7
  6
CONTINUOUS
 10
11.2152639103
 20
10.36739548
 11
11.2374834891
 21
10.3451759012
  0
LINE
  5
254
100
AcDbEntity
  8
0
100
AcDbLine
 62
9
  6
CONTINUOUS
 10
11.1051281457
 20
10.4077010973
 11
10.834925977
 21
10.4077010973
  0
LINE
  5
255
100
AcDbEntity
  8
0
100
AcDbLine
 62
9
  6
CONTINUOUS
 10
10.5849345388
 20
10.4077010973
 11
10.3148388326
 21
10.4077010973
  0
LINE
  5
256
100
AcDbEntity
  8
0
100
AcDbLine
 62
7
  6
CONTINUOUS
 10
11.2152639103
 20
10.36739548
 11
11.1644934452
 21
10.383891804
  0
ARC
  5
257
100
AcDbEntity
  8
0
100
AcDbCircle
 62
7
  6
CONTINUOUS
 10
10.6801500212
 20
8.9545947197
 40
1.4947490465
100
AcDbArc
 50
90.7348352525
 51
92.1150891335
  0
ARC
  5
258
100
AcDbEntity
  8
0
100
AcDbCircle
 62
7
  6
CONTINUOUS
 10
10.6801481432
 20
8.9546726012
 40
1.4946711473
100
AcDbArc
 50
90.0446451162
 51
90.6867500177
  0
ARC
  5
259
100
AcDbEntity
  8
0
100
AcDbCircle
 62
7
  6
CONTINUOUS
 10
10.2624586102
 20
8.6906274008
 40
0.2039751211
100
AcDbArc
 50
145.0110095298
 51
213.0478355064
  0
ARC
  5
25A
100
AcDbEntity
  8
0
100
AcDbCircle
 62
7
  6
CONTINUOUS
 10
9.7171196002
 20
7.560891804
 40
0.1871361111
100
AcDbArc
 50
92.1854050714
 51
180.0
  0
ARC
  5
25B
100
AcDbEntity
  8
0
100
AcDbCircle
 62
7
  6
CONTINUOUS
 10
9.8969808153
 20
7.748891804
 40
0.187
100
AcDbArc
 50
90.0
 51
180.3063960032
  0
ARC
  5
25C
100
AcDbEntity
  8
0
100
AcDbCircle
 62
7
  6
CONTINUOUS
 10
9.9477089555
 20
8.4858527795
 40
0.1715245336
100
AcDbArc
 50
314.9173576842
 51
33.0478355064
  0
ARC
  5
25D
100
AcDbEntity
  8
0
100
AcDbCircle
 62
7
  6
CONTINUOUS
 10
9.9816847083
 20
10.1959736195
 40
1.36
100
AcDbArc
 50
337.4255442891
 51
340.9862257999
  0
ARC
  5
25E
100
AcDbEntity
  8
0
100
AcDbCircle
 62
7
  6
CONTINUOUS
 10
9.9718514444
 20
9.7494457924
 40
1.36
100
AcDbArc
 50
17.6982774827
 51
21.2739720086
  0
ARC
  5
25F
100
AcDbEntity
  8
0
100
AcDbCircle
 62
7
  6
CONTINUOUS
 10
10.6319678921
 20
9.3212698207
 40
1.1302887235
100
AcDbArc
 50
87.3533025833
 51
88.0953105979
  0
ARC
  5
260
100
AcDbEntity
  8
0
100
AcDbCircle
 62
7
  6
CONTINUOUS
 10
10.6319790376
 20
9.3215900756
 40
1.1299682751
100
AcDbArc
 50
88.0953357018
 51
88.46641071
  0
ARC
  5
261
100
AcDbEntity
  8
0
100
AcDbCircle
 62
7
  6
CONTINUOUS
 10
10.6319790335
 20
9.3213206469
 40
1.1292329491
100
AcDbArc
 50
87.7228182561
 51
88.4654116291
  0
ARC
  5
262
100
AcDbEntity
  8
0
100
AcDbCircle
 62
7
  6
CONTINUOUS
 10
9.657444587
 20
9.2718951326
 40
0.625
100
AcDbArc
 50
325.0110095298
 51
355.1903004544
  0
ARC
  5
263
100
AcDbEntity
  8
0
100
AcDbCircle
 62
7
  6
CONTINUOUS
 10
10.6608258405
 20
10.5901933563
 40
0.1459799133
100
AcDbArc
 50
269.1262597785
 51
271.680951355
  0
ARC
  5
264
100
AcDbEntity
  8
0
100
AcDbCircle
 62
7
  6
CONTINUOUS
 10
10.6608586315
 20
10.5866179184
 40
0.1413966647
100
AcDbArc
 50
269.0885028617
 51
271.7221609062
  0
ARC
  5
265
100
AcDbEntity
  8
0
100
AcDbCircle
 62
7
  6
CONTINUOUS
 10
10.3111346006
 20
9.216891804
 40
0.031
100
AcDbArc
 50
90.0
 51
175.1903004543
  0
ARC
  5
266
100
AcDbEntity
  8
0
100
AcDbCircle
 62
7
  6
CONTINUOUS
 10
10.3224834891
 20
10.3786914571
 40
0.03
100
AcDbArc
 50
104.7630312681
 51
170.017644151
  0
ARC
  5
267
100
AcDbEntity
  8
0
100
AcDbCircle
 62
7
  6
CONTINUOUS
 10
10.7099834891
 20
8.9082217886
 40
1.5506700155
100
AcDbArc
 50
93.1614729735
 51
104.7630312681
  0
ARC
  5
268
100
AcDbEntity
  8
0
100
AcDbCircle
 62
7
  6
CONTINUOUS
 10
10.7099834891
 20
8.9082217886
 40
1.550637771
100
AcDbArc
 50
92.2545204889
 51
93.1423093317
  0
ARC
  5
269
100
AcDbEntity
  8
0
100
AcDbCircle
 62
7
  6
CONTINUOUS
 10
10.7099834891
 20
8.9082217886
 40
1.550637771
100
AcDbArc
 50
75.2369687319
 51
87.5605752481
  0
ARC
  5
26A
100
AcDbEntity
  8
0
100
AcDbCircle
 62
7
  6
CONTINUOUS
 10
10.7099834891
 20
8.9082217886
 40
1.5503500401
100
AcDbArc
 50
88.6239946244
 51
91.1911755502
  0
ARC
  5
26B
100
AcDbEntity
  8
0
100
AcDbCircle
 62
7
  6
CONTINUOUS
 10
10.7099834891
 20
8.9082217886
 40
1.5496377502
100
AcDbArc
 50
92.2559761406
 51
93.1443391817
  0
ARC
  5
26C
100
AcDbEntity
  8
0
100
AcDbCircle
 62
7
  6
CONTINUOUS
 10
10.7099834891
 20
8.9082217886
 40
1.5496377502
100
AcDbArc
 50
86.8926895707
 51
87.5590000722
  0
ARC
  5
26D
100
AcDbEntity
  8
0
100
AcDbCircle
 62
7
  6
CONTINUOUS
 10
10.7099834891
 20
8.9082217886
 40
1.5492001959
100
AcDbArc
 50
88.6229731319
 51
91.1920597897
  0
ARC
  5
26E
100
AcDbEntity
  8
0
100
AcDbCircle
 62
7
  6
CONTINUOUS
 10
10.7099834891
 20
8.9082217886
 40
1.5481138514
100
AcDbArc
 50
86.889627857
 51
87.5565957966
  0
ARC
  5
26F
100
AcDbEntity
  8
0
100
AcDbCircle
 62
7
  6
CONTINUOUS
 10
10.7099834891
 20
8.9082217886
 40
1.5389858664
100
AcDbArc
 50
92.2715987345
 51
93.1661244052
  0
ARC
  5
270
100
AcDbEntity
  8
0
100
AcDbCircle
 62
7
  6
CONTINUOUS
 10
10.7099834891
 20
8.9082217886
 40
1.5389858664
100
AcDbArc
 50
86.871161409
 51
87.5420946835
  0
ARC
  5
271
100
AcDbEntity
  8
0
100
AcDbCircle
 62
7
  6
CONTINUOUS
 10
10.7099834891
 20
8.9082217886
 40
1.5379782693
100
AcDbArc
 50
92.2730877396
 51
93.1682007883
  0
ARC
  5
272
100
AcDbEntity
  8
0
100
AcDbCircle
 62
7
  6
CONTINUOUS
 10
10.7099834891
 20
8.9082217886
 40
1.5379782693
100
AcDbArc
 50
86.8691095275
 51
87.5404834123
  0
ARC
  5
273
100
AcDbEntity
  8
0
100
AcDbCircle
 62
7
  6
CONTINUOUS
 10
10.7099834891
 20
8.9082217886
 40
1.5377182762
100
AcDbArc
 50
88.1413005927
 51
91.6723095547
  0
ARC
  5
274
100
AcDbEntity
  8
0
100
AcDbCircle
 62
7
  6
CONTINUOUS
 10
10.7099834891
 20
8.9082217886
 40
1.536709848
100
AcDbArc
 50
88.1400804383
 51
91.6734072789
  0
ARC
  5
275
100
AcDbEntity
  8
0
100
AcDbCircle
 62
7
  6
CONTINUOUS
 10
10.7099834891
 20
8.9082217886
 40
1.5325626806
100
AcDbArc
 50
87.7562904206
 51
92.0566497773
  0
ARC
  5
276
100
AcDbEntity
  8
0
100
AcDbCircle
 62
7
  6
CONTINUOUS
 10
11.1575083681
 20
8.6906274008
 40
0.2039751211
100
AcDbArc
 50
326.9521644937
 51
34.9889904702
  0
ARC
  5
277
100
AcDbEntity
  8
0
100
AcDbCircle
 62
7
  6
CONTINUOUS
 10
11.702847378
 20
7.560891804
 40
0.1871361111
100
AcDbArc
 50
0.0
 51
87.8145949286
  0
ARC
  5
278
100
AcDbEntity
  8
0
100
AcDbCircle
 62
7
  6
CONTINUOUS
 10
11.5229861629
 20
7.748891804
 40
0.187
100
AcDbArc
 50
359.6936039968
 51
90.0
  0
ARC
  5
279
100
AcDbEntity
  8
0
100
AcDbCircle
 62
7
  6
CONTINUOUS
 10
11.4722580228
 20
8.4858527795
 40
0.1715245336
100
AcDbArc
 50
146.9521644936
 51
225.0826423158
  0
ARC
  5
27A
100
AcDbEntity
  8
0
100
AcDbCircle
 62
7
  6
CONTINUOUS
 10
11.43828227
 20
10.1959736195
 40
1.36
100
AcDbArc
 50
199.0137742001
 51
202.5744557109
  0
ARC
  5
27B
100
AcDbEntity
  8
0
100
AcDbCircle
 62
7
  6
CONTINUOUS
 10
11.4481155339
 20
9.7494457924
 40
1.36
100
AcDbArc
 50
158.7260279914
 51
162.3017225173
  0
ARC
  5
27C
100
AcDbEntity
  8
0
100
AcDbCircle
 62
7
  6
CONTINUOUS
 10
11.7625223912
 20
9.2718951326
 40
0.625
100
AcDbArc
 50
184.8096995456
 51
214.9889904702
  0
CIRCLE
  5
27D
100
AcDbEntity
  8
0
100
AcDbCircle
 62
7
  6
CONTINUOUS
 10
10.7099834891
 20
9.957891804
 40
0.4689999964
  0
ARC
  5
27E
100
AcDbEntity
  8
0
100
AcDbCircle
 62
7
  6
CONTINUOUS
 10
10.7643067048
 20
10.0255066159
 40
0.4323396476
100
AcDbArc
 50
100.6830409946
 51
101.1489926628
  0
CIRCLE
  5
27F
100
AcDbEntity
  8
0
100
AcDbCircle
 62
7
  6
CONTINUOUS
 10
10.7099834891
 20
9.957891804
 40
0.2815
  0
CIRCLE
  5
280
100
AcDbEntity
  8
0
100
AcDbCircle
 62
7
  6
CONTINUOUS
 10
10.7099834891
 20
9.957891804
 40
0.2615
  0
CIRCLE
  5
281
100
AcDbEntity
  8
0
100
AcDbCircle
 62
7
  6
CONTINUOUS
 10
10.7099834891
 20
9.957891804
 40
0.25
  0
ARC
  5
282
100
AcDbEntity
  8
0
100
AcDbCircle
 62
7
  6
CONTINUOUS
 10
10.7645681792
 20
10.585337754
 40
0.1412942092
100
AcDbArc
 50
268.0900308258
 51
270.7257814325
  0
ARC
  5
283
100
AcDbEntity
  8
0
100
AcDbCircle
 62
7
  6
CONTINUOUS
 10
11.1088323776
 20
9.216891804
 40
0.031
100
AcDbArc
 50
4.8096995456
 51
90.0
  0
ARC
  5
284
100
AcDbEntity
  8
0
100
AcDbCircle
 62
7
  6
CONTINUOUS
 10
11.0974834891
 20
10.3786914571
 40
0.03
100
AcDbArc
 50
9.9823558487
 51
75.2369687319
  0
SPLINE
  5
285
100
AcDbEntity
  8
0
100
AcDbSpline
 62
7
  6
CONTINUOUS
 70
0
 71
3
 72
14
 73
10
 74
0
 42
0.0000001
 43
0.0000001
 44
0.0000000001
 40
0.0
 40
0.0
 40
0.0
 40
0.0
 40
0.0418062455
 40
0.1035087864
 40
0.1907439183
 40
0.3045521714
 40
0.4444793287
 40
0.6086415322
 40
1.0
 40
1.0
 40
1.0
 40
1.0
 10
10.6489834891
 20
10.4386321869
 30
0.0
 10
10.6489834891
 20
10.438677443
 30
0.0
 10
10.6490413881
 20
10.4387851105
 30
0.0
 10
10.6492106297
 20
10.438905121
 30
0.0
 10
10.6494675344
 20
10.4390296435
 30
0.0
 10
10.6498169291
 20
10.4391501388
 30
0.0
 10
10.6502542495
 20
10.4392668975
 30
0.0
 10
10.6509909347
 20
10.4394230932
 30
0.0
 10
10.651586238
 20
10.4395123534
 30
0.0
 10
10.6520065759
 20
10.4395652535
 30
0.0
  0
LINE
  5
286
100
AcDbEntity
  8
0
100
AcDbLine
 62
7
  6
CONTINUOUS
 10
10.6520065759
 20
10.4395652535
 11
10.6549834891
 21
10.4397972421
  0
SPLINE
  5
287
100
AcDbEntity
  8
0
100
AcDbSpline
 62
7
  6
CONTINUOUS
 70
0
 71
3
 72
15
 73
11
 74
0
 42
0.0000001
 43
0.0000001
 44
0.0000000001
 40
0.0
 40
0.0
 40
0.0
 40
0.0
 40
0.3709657037
 40
0.6869034427
 40
0.8090670191
 40
0.8593942849
 40
0.902089288
 40
0.937103743
 40
0.9645902302
 40
1.0
 40
1.0
 40
1.0
 40
1.0
 10
10.7699834891
 20
10.4396095154
 30
0.0
 10
10.7707537037
 20
10.4395793383
 30
0.0
 10
10.7721782661
 20
10.439480077
 30
0.0
 10
10.773846955
 20
10.439256858
 30
0.0
 10
10.774838166
 20
10.4390351842
 30
0.0
 10
10.7752667151
 20
10.438905947
 30
0.0
 10
10.7755158653
 20
10.4388138796
 30
0.0
 10
10.7757151874
 20
10.4387187347
 30
0.0
 10
10.7758829304
 20
10.4386133026
 30
0.0
 10
10.7759834891
 20
10.4384982878
 30
0.0
 10
10.7759834891
 20
10.4384247122
 30
0.0
  0
SPLINE
  5
288
100
AcDbEntity
  8
0
100
AcDbSpline
 62
7
  6
CONTINUOUS
 70
0
 71
3
 72
18
 73
14
 74
0
 42
0.0000001
 43
0.0000001
 44
0.0000000001
 40
0.0
 40
0.0
 40
0.0
 40
0.0
 40
0.2028958278
 40
0.3842498918
 40
0.5427796916
 40
0.6776406806
 40
0.7887150049
 40
0.8355462335
 40
0.8768502919
 40
0.9130734771
 40
0.9449064012
 40
0.973391234
 40
1.0
 40
1.0
 40
1.0
 40
1.0
 10
10.6499590255
 20
10.4211991821
 30
0.0
 10
10.6480726712
 20
10.4215382425
 30
0.0
 10
10.6445101693
 20
10.4222386127
 30
0.0
 10
10.6395227791
 20
10.4234346102
 30
0.0
 10
10.6352193566
 20
10.4247066663
 30
0.0
 10
10.6316367159
 20
10.4260429923
 30
0.0
 10
10.6291426849
 20
10.4272570103
 30
0.0
 10
10.6275580664
 20
10.4282761376
 30
0.0
 10
10.6266351912
 20
10.4290067698
 30
0.0
 10
10.6259093114
 20
10.4297465932
 30
0.0
 10
10.6253820037
 20
10.4304971051
 30
0.0
 10
10.6250580847
 20
10.43125947
 30
0.0
 10
10.6249834891
 20
10.4317821874
 30
0.0
 10
10.6249834891
 20
10.4320335377
 30
0.0
  0
SPLINE
  5
289
100
AcDbEntity
  8
0
100
AcDbSpline
 62
7
  6
CONTINUOUS
 70
0
 71
3
 72
18
 73
14
 74
0
 42
0.0000001
 43
0.0000001
 44
0.0000000001
 40
0.0
 40
0.0
 40
0.0
 40
0.0
 40
0.0266755227
 40
0.0552216393
 40
0.0871046002
 40
0.1233646004
 40
0.1646924692
 40
0.2115352512
 40
0.3225984214
 40
0.457415874
 40
0.6158839548
 40
0.7971678758
 40
1.0
 40
1.0
 40
1.0
 40
1.0
 10
10.7939834891
 20
10.4320889898
 30
0.0
 10
10.7939834891
 20
10.431838586
 30
0.0
 10
10.7939095018
 20
10.4313179488
 30
0.0
 10
10.7935881546
 20
10.4305583422
 30
0.0
 10
10.7930649058
 20
10.42981031
 30
0.0
 10
10.7923445146
 20
10.4290727389
 30
0.0
 10
10.79142855
 20
10.4283441566
 30
0.0
 10
10.7898559386
 20
10.4273277442
 30
0.0
 10
10.787380499
 20
10.4261161066
 30
0.0
 10
10.7838239602
 20
10.4247813886
 30
0.0
 10
10.7795514211
 20
10.4235097469
 30
0.0
 10
10.774599151
 20
10.42231284
 30
0.0
 10
10.7710613669
 20
10.4216110695
 30
0.0
 10
10.7691879755
 20
10.4212710957
 30
0.0
  0
LINE
  5
28A
100
AcDbEntity
  8
0
100
AcDbLine
 62
7
  6
CONTINUOUS
 10
10.6622333706
 20
10.4492363836
 11
10.6609799499
 21
10.4492208336
  0
LINE
  5
28B
100
AcDbEntity
  8
0
100
AcDbLine
 62
7
  6
CONTINUOUS
 10
10.6807090855
 20
10.4496870126
 11
10.6789834891
 21
10.4493432948
  0
SPLINE
  5
28C
100
AcDbEntity
  8
0
100
AcDbSpline
 62
7
  6
CONTINUOUS
 70
0
 71
3
 72
14
 73
10
 74
0
 42
0.0000001
 43
0.0000001
 44
0.0000000001
 40
0.0
 40
0.0
 40
0.0
 40
0.0
 40
0.0607846247
 40
0.1453694511
 40
0.2516720484
 40
0.3769369314
 40
0.518122602
 40
0.6717445328
 40
1.0
 40
1.0
 40
1.0
 40
1.0
 10
10.7759834891
 20
10.4549281269
 30
0.0
 10
10.7754143973
 20
10.4550632504
 30
0.0
 10
10.7740341209
 20
10.4553012622
 30
0.0
 10
10.7716321312
 20
10.455609118
 30
0.0
 10
10.7686039114
 20
10.4559063437
 30
0.0
 10
10.7650279242
 20
10.4561869607
 30
0.0
 10
10.7609935122
 20
10.4564410487
 30
0.0
 10
10.7550054504
 20
10.4567426719
 30
0.0
 10
10.7503706477
 20
10.4568987624
 30
0.0
 10
10.7472128485
 20
10.4569746704
 30
0.0
  0
SPLINE
  5
28D
100
AcDbEntity
  8
0
100
AcDbSpline
 62
7
  6
CONTINUOUS
 70
0
 71
3
 72
13
 73
9
 74
0
 42
0.0000001
 43
0.0000001
 44
0.0000000001
 40
0.0
 40
0.0
 40
0.0
 40
0.0
 40
0.1040051984
 40
0.1881011723
 40
0.297455549
 40
0.4330458495
 40
0.5952699328
 40
1.0
 40
1.0
 40
1.0
 40
1.0
 10
10.6477541339
 20
10.4545720467
 30
0.0
 10
10.6477541337
 20
10.4546363389
 30
0.0
 10
10.6478500757
 20
10.4547355069
 30
0.0
 10
10.6480047938
 20
10.4548237106
 30
0.0
 10
10.6481933396
 20
10.4549061647
 30
0.0
 10
10.6484309731
 20
10.4549873615
 30
0.0
 10
10.6488490469
 20
10.4551066375
 30
0.0
 10
10.6491914863
 20
10.4551820314
 30
0.0
 10
10.6494367603
 20
10.4552313814
 30
0.0
  0
SPLINE
  5
28E
100
AcDbEntity
  8
0
100
AcDbSpline
 62
7
  6
CONTINUOUS
 70
0
 71
3
 72
13
 73
9
 74
0
 42
0.0000001
 43
0.0000001
 44
0.0000000001
 40
0.0
 40
0.0
 40
0.0
 40
0.0
 40
0.0663460188
 40
0.1545160422
 40
0.2626299608
 40
0.3880908855
 40
0.6790134421
 40
1.0
 40
1.0
 40
1.0
 40
1.0
 10
10.6494367603
 20
10.4552313814
 30
0.0
 10
10.6500524545
 20
10.4553552614
 30
0.0
 10
10.6514990719
 20
10.455578544
 30
0.0
 10
10.6539685598
 20
10.4558657127
 30
0.0
 10
10.6570021904
 20
10.4561397827
 30
0.0
 10
10.6619543318
 20
10.4564975856
 30
0.0
 10
10.6689262809
 20
10.4568481162
 30
0.0
 10
10.6747163246
 20
10.4570234887
 30
0.0
 10
10.6777541339
 20
10.4570867005
 30
0.0
  0
SPLINE
  5
28F
100
AcDbEntity
  8
0
100
AcDbSpline
 62
7
  6
CONTINUOUS
 70
0
 71
3
 72
19
 73
15
 74
0
 42
0.0000001
 43
0.0000001
 44
0.0000000001
 40
0.0
 40
0.0
 40
0.0
 40
0.0
 40
0.2001074374
 40
0.3852451577
 40
0.5503608769
 40
0.6920909065
 40
0.7533437804
 40
0.8078819999
 40
0.8555721703
 40
0.8963609426
 40
0.9303751468
 40
0.9581185625
 40
0.9806477216
 40
1.0
 40
1.0
 40
1.0
 40
1.0
 10
10.6817998157
 20
10.4251360812
 30
0.0
 10
10.6794861773
 20
10.425253645
 30
0.0
 10
10.675035044
 20
10.4255474028
 30
0.0
 10
10.6686938907
 20
10.4261839893
 30
0.0
 10
10.6630538309
 20
10.4269899345
 30
0.0
 10
10.6588691963
 20
10.4278129594
 30
0.0
 10
10.6559819625
 20
10.4285593329
 30
0.0
 10
10.6541730551
 20
10.4291188684
 30
0.0
 10
10.652621999
 20
10.4297017133
 30
0.0
 10
10.6513362941
 20
10.4303046558
 30
0.0
 10
10.650320809
 20
10.4309261884
 30
0.0
 10
10.6495763393
 20
10.4315659868
 30
0.0
 10
10.6491015799
 20
10.4322320947
 30
0.0
 10
10.6489834891
 20
10.4327200027
 30
0.0
 10
10.6489834891
 20
10.4329440421
 30
0.0
  0
SPLINE
  5
290
100
AcDbEntity
  8
0
100
AcDbSpline
 62
7
  6
CONTINUOUS
 70
0
 71
3
 72
11
 73
7
 74
0
 42
0.0000001
 43
0.0000001
 44
0.0000000001
 40
0.0
 40
0.0
 40
0.0
 40
0.0
 40
0.1827726718
 40
0.4157316543
 40
0.6910828038
 40
1.0
 40
1.0
 40
1.0
 40
1.0
 10
10.6489834891
 20
10.4459982668
 30
0.0
 10
10.6495599002
 20
10.4458775862
 30
0.0
 10
10.6508860678
 20
10.4456773024
 30
0.0
 10
10.6531026819
 20
10.4454618093
 30
0.0
 10
10.655732068
 20
10.4453094891
 30
0.0
 10
10.657614079
 20
10.445255608
 30
0.0
 10
10.6586092997
 20
10.4452391459
 30
0.0
  0
LINE
  5
291
100
AcDbEntity
  8
0
100
AcDbLine
 62
7
  6
CONTINUOUS
 10
10.6585997851
 20
10.4442304165
 11
10.6529709061
 21
10.4444794473
  0
LINE
  5
292
100
AcDbEntity
  8
0
100
AcDbLine
 62
7
  6
CONTINUOUS
 10
10.6529709061
 20
10.4444794473
 11
10.6496148511
 21
10.4448707535
  0
LINE
  5
293
100
AcDbEntity
  8
0
100
AcDbLine
 62
7
  6
CONTINUOUS
 10
10.6496148511
 20
10.4448707535
 11
10.6489834891
 21
10.4449898768
  0
SPLINE
  5
294
100
AcDbEntity
  8
0
100
AcDbSpline
 62
7
  6
CONTINUOUS
 70
0
 71
3
 72
10
 73
6
 74
0
 42
0.0000001
 43
0.0000001
 44
0.0000000001
 40
0.0
 40
0.0
 40
0.0
 40
0.0
 40
0.5362123575
 40
0.781410029
 40
1.0
 40
1.0
 40
1.0
 40
1.0
 10
10.7598589736
 20
10.4451310029
 30
0.0
 10
10.7620282893
 20
10.4450606046
 30
0.0
 10
10.7651925358
 20
10.4450226514
 30
0.0
 10
10.7692393055
 20
10.4451249951
 30
0.0
 10
10.7711142604
 20
10.4452277181
 30
0.0
 10
10.7719965261
 20
10.4452946278
 30
0.0
  0
LINE
  5
295
100
AcDbEntity
  8
0
100
AcDbLine
 62
7
  6
CONTINUOUS
 10
10.7719965261
 20
10.4452946278
 11
10.7759834891
 21
10.445791786
  0
LINE
  5
296
100
AcDbEntity
  8
0
100
AcDbLine
 62
7
  6
CONTINUOUS
 10
10.7759834891
 20
10.4447832605
 11
10.771993848
 21
10.444285573
  0
LINE
  5
297
100
AcDbEntity
  8
0
100
AcDbLine
 62
7
  6
CONTINUOUS
 10
10.771993848
 20
10.444285573
 11
10.7663579441
 21
10.4440548808
  0
SPLINE
  5
298
100
AcDbEntity
  8
0
100
AcDbSpline
 62
7
  6
CONTINUOUS
 70
0
 71
3
 72
25
 73
21
 74
0
 42
0.0000001
 43
0.0000001
 44
0.0000000001
 40
0.0
 40
0.0
 40
0.0
 40
0.0
 40
0.0699585093
 40
0.137853561
 40
0.2035049272
 40
0.2667886509
 40
0.3277282813
 40
0.3865428608
 40
0.4153066654
 40
0.4437426468
 40
0.4999995269
 40
0.5562564457
 40
0.5846924308
 40
0.6134562483
 40
0.6722709077
 40
0.7332105498
 40
0.7964943465
 40
0.8621458752
 40
0.930041269
 40
1.0
 40
1.0
 40
1.0
 40
1.0
 10
10.3309523577
 20
8.2478373008
 30
0.0
 10
10.323673527
 20
8.2550951641
 30
0.0
 10
10.3090214739
 20
8.2690929816
 30
0.0
 10
10.2863204783
 20
8.2885795073
 30
0.0
 10
10.2631875655
 20
8.3059762232
 30
0.0
 10
10.2396101421
 20
8.3209568397
 30
0.0
 10
10.2155878608
 20
8.3331526974
 30
0.0
 10
10.1950731351
 20
8.3407714015
 30
0.0
 10
10.17856598
 20
8.3450741302
 30
0.0
 10
10.1621691172
 20
8.3481431461
 30
0.0
 10
10.1414376676
 20
8.3497346176
 30
0.0
 10
10.1207062294
 20
8.3481430867
 30
0.0
 10
10.1043093482
 20
8.3450741155
 30
0.0
 10
10.0878022093
 20
8.3407712634
 30
0.0
 10
10.0672874758
 20
8.3331525541
 30
0.0
 10
10.0432651747
 20
8.3209566786
 30
0.0
 10
10.0196877111
 20
8.305976058
 30
0.0
 10
9.9965547754
 20
8.288579223
 30
0.0
 10
9.9738538891
 20
8.2690924035
 30
0.0
 10
9.9592018573
 20
8.255094449
 30
0.0
 10
9.9519230035
 20
8.2478365627
 30
0.0
  0
SPLINE
  5
299
100
AcDbEntity
  8
0
100
AcDbSpline
 62
7
  6
CONTINUOUS
 70
0
 71
3
 72
25
 73
21
 74
0
 42
0.0000001
 43
0.0000001
 44
0.0000000001
 40
0.0
 40
0.0
 40
0.0
 40
0.0
 40
0.069959067
 40
0.137855052
 40
0.2035067151
 40
0.2667902974
 40
0.3277298044
 40
0.3865443568
 40
0.41530814
 40
0.4437440981
 40
0.5000009436
 40
0.5562577826
 40
0.5846937382
 40
0.6134575159
 40
0.6722720453
 40
0.7332115999
 40
0.7964952721
 40
0.862146581
 40
0.9300415748
 40
1.0
 40
1.0
 40
1.0
 40
1.0
 10
11.468043741
 20
8.2478353475
 30
0.0
 10
11.460764835
 20
8.2550932858
 30
0.0
 10
11.4461128672
 20
8.2690915616
 30
0.0
 10
11.4234122844
 20
8.2885790864
 30
0.0
 10
11.4002793829
 20
8.30597623
 30
0.0
 10
11.3767017808
 20
8.3209567073
 30
0.0
 10
11.3526794523
 20
8.3331525014
 30
0.0
 10
11.3321647311
 20
8.3407712797
 30
0.0
 10
11.3156575692
 20
8.3450741058
 30
0.0
 10
11.2992606787
 20
8.3481431287
 30
0.0
 10
11.278529206
 20
8.3497346563
 30
0.0
 10
11.2577977342
 20
8.3481431252
 30
0.0
 10
11.2414008454
 20
8.3450741072
 30
0.0
 10
11.2248936786
 20
8.3407713216
 30
0.0
 10
11.2043789293
 20
8.3331526036
 30
0.0
 10
11.1803566211
 20
8.320956713
 30
0.0
 10
11.1567791762
 20
8.3059760585
 30
0.0
 10
11.1336462345
 20
8.2885793074
 30
0.0
 10
11.1109452251
 20
8.2690927338
 30
0.0
 10
11.0962931577
 20
8.2550948926
 30
0.0
 10
11.0890143166
 20
8.2478370228
 30
0.0
  0
LINE
  5
29A
100
AcDbEntity
  8
0
100
AcDbLine
 62
7
  6
CONTINUOUS
 10
10.6489834891
 20
10.4576592661
 11
10.6531324502
 21
10.4577372001
  0
LINE
  5
29B
100
AcDbEntity
  8
0
100
AcDbLine
 62
7
  6
CONTINUOUS
 10
10.6531324502
 20
10.4577372001
 11
10.6597949428
 21
10.4578691094
  0
LINE
  5
29C
100
AcDbEntity
  8
0
100
AcDbLine
 62
7
  6
CONTINUOUS
 10
10.6597949428
 20
10.4578691094
 11
10.6682911252
 21
10.4580415247
  0
LINE
  5
29D
100
AcDbEntity
  8
0
100
AcDbLine
 62
7
  6
CONTINUOUS
 10
10.6682911252
 20
10.4580415247
 11
10.6777541339
 21
10.4582367988
  0
SPLINE
  5
29E
100
AcDbEntity
  8
0
100
AcDbSpline
 62
7
  6
CONTINUOUS
 70
0
 71
3
 72
19
 73
15
 74
0
 42
0.0000001
 43
0.0000001
 44
0.0000000001
 40
0.0
 40
0.0
 40
0.0
 40
0.0
 40
0.2001139809
 40
0.3852489059
 40
0.5503622926
 40
0.6920943294
 40
0.7533501226
 40
0.8078932458
 40
0.8555874911
 40
0.8963769692
 40
0.9303907723
 40
0.9581331004
 40
0.9806574968
 40
1.0
 40
1.0
 40
1.0
 40
1.0
 10
10.6817998157
 20
10.4261576605
 30
0.0
 10
10.6794862406
 20
10.4262751419
 30
0.0
 10
10.6750353262
 20
10.4265686761
 30
0.0
 10
10.6686945103
 20
10.4272048243
 30
0.0
 10
10.6630547576
 20
10.4280101507
 30
0.0
 10
10.6588702378
 20
10.4288325212
 30
0.0
 10
10.6559829297
 20
10.4295783198
 30
0.0
 10
10.6541738698
 20
10.4301374261
 30
0.0
 10
10.6526226435
 20
10.4307198457
 30
0.0
 10
10.6513368207
 20
10.4313224528
 30
0.0
 10
10.6503212472
 20
10.4319436763
 30
0.0
 10
10.649576643
 20
10.4325830988
 30
0.0
 10
10.6491016962
 20
10.4332487819
 30
0.0
 10
10.6489834891
 20
10.4337364811
 30
0.0
 10
10.6489834891
 20
10.4339603934
 30
0.0
  0
SPLINE
  5
29F
100
AcDbEntity
  8
0
100
AcDbSpline
 62
7
  6
CONTINUOUS
 70
0
 71
3
 72
19
 73
15
 74
0
 42
0.0000001
 43
0.0000001
 44
0.0000000001
 40
0.0
 40
0.0
 40
0.0
 40
0.0
 40
0.1249812605
 40
0.1874945228
 40
0.2500015033
 40
0.3749635336
 40
0.4374820493
 40
0.5000000017
 40
0.5625179534
 40
0.6250364705
 40
0.749998497
 40
0.8125054727
 40
0.875018742
 40
1.0
 40
1.0
 40
1.0
 40
1.0
 10
11.089012841
 20
8.2478370228
 30
0.0
 10
11.0594984373
 20
8.2625517228
 30
0.0
 10
11.0144159346
 20
8.2831022262
 30
0.0
 10
10.952623944
 20
8.3062749381
 30
0.0
 10
10.8897169296
 20
8.3261890174
 30
0.0
 10
10.8250929455
 20
8.3404962371
 30
0.0
 10
10.7594860251
 20
8.3478455953
 30
0.0
 10
10.7099833538
 20
8.3497263153
 30
0.0
 10
10.6604806832
 20
8.3478455694
 30
0.0
 10
10.5948737664
 20
8.3404961944
 30
0.0
 10
10.530249782
 20
8.3261889669
 30
0.0
 10
10.4673428025
 20
8.3062747788
 30
0.0
 10
10.4055507835
 20
8.2831021641
 30
0.0
 10
10.3604681235
 20
8.2625519942
 30
0.0
 10
10.3309537173
 20
8.2478373008
 30
0.0
  0
LINE
  5
2A0
100
AcDbEntity
  8
0
100
AcDbLine
 62
7
  6
CONTINUOUS
 10
10.6597949634
 20
10.456868443
 11
10.6489834892
 21
10.4566584607
  0
SPLINE
  5
2A1
100
AcDbEntity
  8
0
100
AcDbSpline
 62
7
  6
CONTINUOUS
 70
0
 71
3
 72
19
 73
15
 74
0
 42
0.0000001
 43
0.0000001
 44
0.0000000001
 40
0.0
 40
0.0
 40
0.0
 40
0.0
 40
0.0193394303
 40
0.0418401365
 40
0.0695494186
 40
0.1035293396
 40
0.1442885869
 40
0.1919577852
 40
0.2464830402
 40
0.307729842
 40
0.4494719724
 40
0.6146221141
 40
0.799812465
 40
1.0
 40
1.0
 40
1.0
 40
1.0
 10
10.7759834891
 20
10.4337522833
 30
0.0
 10
10.7759834891
 20
10.4335285418
 30
0.0
 10
10.7758655156
 20
10.4330413895
 30
0.0
 10
10.775390651
 20
10.4323769974
 30
0.0
 10
10.7746461483
 20
10.4317399264
 30
0.0
 10
10.7736307076
 20
10.4311219883
 30
0.0
 10
10.7723450136
 20
10.4305235501
 30
0.0
 10
10.7707938876
 20
10.4299461236
 30
0.0
 10
10.7689848577
 20
10.4293928433
 30
0.0
 10
10.7660972283
 20
10.428656308
 30
0.0
 10
10.7619122248
 20
10.4278475375
 30
0.0
 10
10.7562721504
 20
10.4270606279
 30
0.0
 10
10.7499312171
 20
10.4264453041
 30
0.0
 10
10.7454805631
 20
10.4261664464
 30
0.0
 10
10.7431671626
 20
10.4260565867
 30
0.0
  0
SPLINE
  5
2A2
100
AcDbEntity
  8
0
100
AcDbSpline
 62
7
  6
CONTINUOUS
 70
0
 71
3
 72
11
 73
7
 74
0
 42
0.0000001
 43
0.0000001
 44
0.0000000001
 40
0.0
 40
0.0
 40
0.0
 40
0.0
 40
0.1862314465
 40
0.4033089085
 40
0.6711390215
 40
1.0
 40
1.0
 40
1.0
 40
1.0
 10
10.7759834891
 20
10.4327357932
 30
0.0
 10
10.7759834891
 20
10.4325098926
 30
0.0
 10
10.7758632296
 20
10.4320175585
 30
0.0
 10
10.7753799642
 20
10.431347254
 30
0.0
 10
10.7746228971
 20
10.4307048221
 30
0.0
 10
10.7740009387
 20
10.4303298372
 30
0.0
 10
10.7736494713
 20
10.4301411546
 30
0.0
  0
SPLINE
  5
2A3
100
AcDbEntity
  8
0
100
AcDbSpline
 62
7
  6
CONTINUOUS
 70
0
 71
3
 72
13
 73
9
 74
0
 42
0.0000001
 43
0.0000001
 44
0.0000000001
 40
0.0
 40
0.0
 40
0.0
 40
0.0
 40
0.0713400825
 40
0.1598926384
 40
0.2652308012
 40
0.3864837894
 40
0.6713440734
 40
1.0
 40
1.0
 40
1.0
 40
1.0
 10
10.7736494713
 20
10.4301411546
 30
0.0
 10
10.7729985462
 20
10.4297917104
 30
0.0
 10
10.7714695197
 20
10.4291409986
 30
0.0
 10
10.7688477193
 20
10.4283159149
 30
0.0
 10
10.76567274
 20
10.4275510206
 30
0.0
 10
10.7604652899
 20
10.4265750923
 30
0.0
 10
10.7529075277
 20
10.4256368419
 30
0.0
 10
10.7465668632
 20
10.4251964944
 30
0.0
 10
10.7431671626
 20
10.4250349394
 30
0.0
  0
LINE
  5
2A4
100
AcDbEntity
  8
0
100
AcDbLine
 62
7
  6
CONTINUOUS
 10
10.6799196618
 20
10.4495355064
 11
10.6768490345
 21
10.4496617943
  0
SPLINE
  5
2A5
100
AcDbEntity
  8
0
100
AcDbSpline
 62
7
  6
CONTINUOUS
 70
0
 71
3
 72
18
 73
14
 74
0
 42
0.0000001
 43
0.0000001
 44
0.0000000001
 40
0.0
 40
0.0
 40
0.0
 40
0.0
 40
0.0261772554
 40
0.0491686987
 40
0.0796726576
 40
0.117858488
 40
0.1637552409
 40
0.2172563941
 40
0.278173288
 40
0.4214145576
 40
0.5916439474
 40
0.7857924006
 40
1.0
 40
1.0
 40
1.0
 40
1.0
 10
10.6477541339
 20
10.4528715075
 30
0.0
 10
10.6477541339
 20
10.4527430119
 30
0.0
 10
10.6479939484
 20
10.4525614849
 30
0.0
 10
10.6483358277
 20
10.4524158483
 30
0.0
 10
10.6487719653
 20
10.4522770035
 30
0.0
 10
10.6493169528
 20
10.4521475933
 30
0.0
 10
10.649981437
 20
10.4520210153
 30
0.0
 10
10.6507589368
 20
10.451900746
 30
0.0
 10
10.652013607
 20
10.4517394591
 30
0.0
 10
10.653843147
 20
10.4515625134
 30
0.0
 10
10.6563290529
 20
10.4513891717
 30
0.0
 10
10.6591658106
 20
10.4512486484
 30
0.0
 10
10.6611692603
 20
10.4511815907
 30
0.0
 10
10.6622203593
 20
10.4511534501
 30
0.0
  0
SPLINE
  5
2A6
100
AcDbEntity
  8
0
100
AcDbSpline
 62
7
  6
CONTINUOUS
 70
0
 71
3
 72
18
 73
14
 74
0
 42
0.0000001
 43
0.0000001
 44
0.0000000001
 40
0.0
 40
0.0
 40
0.0
 40
0.0
 40
0.2142035167
 40
0.4083483439
 40
0.5785747114
 40
0.7218137647
 40
0.7827299516
 40
0.8362307379
 40
0.8821275498
 40
0.9203139828
 40
0.9508192497
 40
0.9738129915
 40
1.0
 40
1.0
 40
1.0
 40
1.0
 10
10.6622203601
 20
10.4501484736
 30
0.0
 10
10.6611692592
 20
10.4501766325
 30
0.0
 10
10.659165806
 20
10.4502437356
 30
0.0
 10
10.6563290449
 20
10.4503843546
 30
0.0
 10
10.6538431372
 20
10.4505578107
 30
0.0
 10
10.6520135974
 20
10.4507348692
 30
0.0
 10
10.6507589297
 20
10.4508962601
 30
0.0
 10
10.6499814296
 20
10.4510166087
 30
0.0
 10
10.6493169466
 20
10.451143272
 30
0.0
 10
10.6487719543
 20
10.4512727729
 30
0.0
 10
10.6483358241
 20
10.4514117138
 30
0.0
 10
10.6479938911
 20
10.4515574699
 30
0.0
 10
10.6477541343
 20
10.4517391331
 30
0.0
 10
10.6477541339
 20
10.4518676794
 30
0.0
  0
LINE
  5
2A7
100
AcDbEntity
  8
0
100
AcDbLine
 62
7
  6
CONTINUOUS
 10
10.7472128444
 20
10.4581247604
 11
10.7566759764
 21
10.4578989378
  0
LINE
  5
2A8
100
AcDbEntity
  8
0
100
AcDbLine
 62
7
  6
CONTINUOUS
 10
10.7566759764
 20
10.4578989378
 11
10.7651723048
 21
10.457699085
  0
LINE
  5
2A9
100
AcDbEntity
  8
0
100
AcDbLine
 62
7
  6
CONTINUOUS
 10
10.7651723048
 20
10.457699085
 11
10.7759834891
 21
10.457454326
  0
LINE
  5
2AA
100
AcDbEntity
  8
0
100
AcDbLine
 62
7
  6
CONTINUOUS
 10
10.7759834891
 20
10.4564534045
 11
10.7718346939
 21
10.4565448025
  0
LINE
  5
2AB
100
AcDbEntity
  8
0
100
AcDbLine
 62
7
  6
CONTINUOUS
 10
10.7718346939
 20
10.4565448025
 11
10.7651723373
 21
10.4566983226
  0
LINE
  5
2AC
100
AcDbEntity
  8
0
100
AcDbLine
 62
7
  6
CONTINUOUS
 10
10.7651723373
 20
10.4566983226
 11
10.7472128446
 21
10.4571242722
  0
ENDSEC
  0
SECTION
  2
OBJECTS
  0
DICTIONARY
  5
C
100
AcDbDictionary
280
0
281
1
  3
ACAD_GROUP
350
D
  3
ACAD_MLINESTYLE
350
17
  3
ACAD_LAYOUT
350
1A
  3
ACAD_PLOTSETTINGS
350
19
  3
ACAD_PLOTSTYLENAME
350
E
  0
DICTIONARY
  5
D
102
{ACAD_REACTORS
330
C
102
}
100
AcDbDictionary
280
0
281
1
  0
ACDBDICTIONARYWDFLT
  5
E
102
{ACAD_REACTORS
330
C
102
}
100
AcDbDictionary
281
1
  3
Normal
350
F
100
AcDbDictionaryWithDefault
340
F
  0
DICTIONARY
  5
17
102
{ACAD_REACTORS
330
C
102
}
100
AcDbDictionary
280
0
281
1
  3
Standard
350
18
  0
DICTIONARY
  5
19
102
{ACAD_REACTORS
330
C
102
}
100
AcDbDictionary
281
1
  0
DICTIONARY
  5
1A
102
{ACAD_REACTORS
330
C
102
}
100
AcDbDictionary
281
1
  3
Model
350
2AD
  3
Layout1
350
2AE
  0
ACDBPLACEHOLDER
  5
F
102
{ACAD_REACTORS
330
E
102
}
  0
MLINESTYLE
  5
18
102
{ACAD_REACTORS
330
17
102
}
100
AcDbMlineStyle
  2
STANDARD
 70
0
  3

 62
256
 51
90.0
 52
90.0
 71
2
 49
0.5
 62
256
  6
BYLAYER
 49
-0.5
 62
256
  6
BYLAYER
  0
LAYOUT
  5
2AD
102
{ACAD_REACTORS
330
1A
102
}
100
AcDbPlotSettings
  1

  2
none_device
  4
ANSI_C_(22.00_x_17.00_Inches)
  6

 40
0.0
 41
0.0
 42
0.0
 43
0.0
 44
558.8
 45
431.8
 46
0.0
 47
0.0
 48
0.0
 49
0.0
140
0.0
141
0.0
142
1.0
143
1.0
 70
1024
 72
0
 73
0
 74
0
  7

 75
0
147
1.0
148
0.0
149
0.0
100
AcDbLayout
  1
Model
 70
0
 71
0
 10
0.0
 20
0.0
 11
22.0
 21
17.0
 12
0.0
 22
0.0
 32
0.0
 14
0.0
 24
0.0
 34
0.0
 15
0.0
 25
0.0
 35
0.0
146
0.0
 13
0.0
 23
0.0
 33
0.0
 16
1.0
 26
0.0
 36
0.0
 17
0.0
 27
1.0
 37
0.0
 76
0
330
203
345
0
346
0
  0
LAYOUT
  5
2AE
102
{ACAD_REACTORS
330
1A
102
}
100
AcDbPlotSettings
  1

  2
none_device
  4
ANSI_C_(22.00_x_17.00_Inches)
  6

 40
0.0
 41
0.0
 42
0.0
 43
0.0
 44
558.8
 45
431.8
 46
0.0
 47
0.0
 48
0.0
 49
0.0
140
0.0
141
0.0
142
1.0
143
1.0
 70
0
 72
0
 73
0
 74
0
  7

 75
0
147
1.0
148
0.0
149
0.0
100
AcDbLayout
  1
Layout1
 70
0
 71
1
 10
0.0
 20
0.0
 11
22.0
 21
17.0
 12
0.0
 22
0.0
 32
0.0
 14
0.0
 24
0.0
 34
0.0
 15
0.0
 25
0.0
 35
0.0
146
0.0
 13
0.0
 23
0.0
 33
0.0
 16
1.0
 26
0.0
 36
0.0
 17
0.0
 27
1.0
 37
0.0
 76
0
330
204
345
0
346
0
  0
ENDSEC
  0
EOF
