999
DXF file: E:\BT Custom\CADOUTPUT\_FRONT.dxf
999
Pro/ENGINEER 2018400 by Parametric Technology Corporation
  0
SECTION
  2
HEADER
  9
$ACADVER
  1
AC1018
  9
$DWGCODEPAGE
  3
ANSI_1252
  9
$EXTMAX
 10
22.0
 20
17.0
 30
0.0
  9
$EXTMIN
 10
0.0
 20
0.0
 30
0.0
  9
$LIMMIN
 10
0.0
 20
0.0
  9
$LIMMAX
 10
22.0
 20
17.0
  9
$VIEWCTR
 10
11.0
 20
8.5
  9
$VIEWSIZE
 40
17.0
  9
$CLAYER
  8
0
  9
$LTSCALE
 40
1.21
  9
$CELTYPE
  6
BYLAYER
  9
$DIMSCALE
 40
1.0
  9
$DIMASZ
 40
0.1
  9
$DIMEXO
 40
0.0625
  9
$DIMDLI
 40
0.836
  9
$DIMEXE
 40
0.125
  9
$DIMCEN
 40
0.198
  9
$DIMLFAC
 40
1.0
  9
$DIMBLK
  1
_FILLED
  9
$DIMALT
 70
1
  9
$DIMALTD
 70
2
  9
$DIMALTTD
 70
2
  9
$DIMALTF
 40
25.4
  9
$DIMTXT
 40
0.08
  9
$DIMTOL
 70
1
  9
$DIMLIM
 70
0
  9
$DIMTFAC
 40
1.0
  9
$DIMTP
 40
0.001
  9
$DIMTM
 40
0.001
  9
$DIMGAP
 40
0.09
  9
$DIMDSEP
 70
46
  9
$AUNITS
 70
0
  9
$PDMODE
 70
3
  9
$PDSIZE
 40
0.06
  9
$HANDSEED
  5
2B8
  9
$TILEMODE
 70
1
  9
$MEASUREMENT
 70
0
  9
$INSUNITS
 70
1
  0
ENDSEC
  0
SECTION
  2
CLASSES
  0
CLASS
  1
ACDBDICTIONARYWDFLT
  2
AcDbDictionaryWithDefault
  3
AutoCAD 2000
 90
0
 91
1
280
0
281
0
  0
CLASS
  1
ACDBPLACEHOLDER
  2
AcDbPlaceHolder
  3
AutoCAD 2000
 90
0
 91
1
280
0
281
0
  0
CLASS
  1
LAYOUT
  2
AcDbLayout
  3
AutoCAD 2000
 90
0
 91
0
280
0
281
0
  0
ENDSEC
  0
SECTION
  2
TABLES
  0
TABLE
  2
VPORT
  5
8
100
AcDbSymbolTable
 70
2
  0
VPORT
  5
1F4
100
AcDbSymbolTableRecord
100
AcDbViewportTableRecord
  2
*ACTIVE
 70
0
 10
0.0
 20
0.0
 11
1.0
 21
1.0
 12
11.0
 22
8.5
 13
0.0
 23
0.0
 14
1.0
 24
1.0
 15
0.0
 25
0.0
 16
0.0
 26
0.0
 36
1.0
 17
0.0
 27
0.0
 37
0.0
 40
17.0
 41
1.2941176471
 42
50.0
 43
0.0
 44
0.0
 50
0.0
 51
0.0
 71
0
 72
100
 73
1
 74
1
 75
0
 76
0
 77
0
 78
0
  0
ENDTAB
  0
TABLE
  2
LTYPE
  5
5
100
AcDbSymbolTable
 70
6
  0
LTYPE
  5
14
100
AcDbSymbolTableRecord
100
AcDbLinetypeTableRecord
  2
BYBLOCK
 70
0
  3

 72
65
 73
0
 40
0.0
  0
LTYPE
  5
15
100
AcDbSymbolTableRecord
100
AcDbLinetypeTableRecord
  2
BYLAYER
 70
0
  3

 72
65
 73
0
 40
0.0
  0
LTYPE
  5
16
100
AcDbSymbolTableRecord
100
AcDbLinetypeTableRecord
  2
CONTINUOUS
 70
64
  3
Solid line
 72
65
 73
0
 40
0.0
  0
LTYPE
  5
1F5
100
AcDbSymbolTableRecord
100
AcDbLinetypeTableRecord
  2
CENTER
 70
64
  3
____ _ ____ _ ____ _ ____ _ ____ _ ____ _ ____
 72
65
 73
4
 40
0.6
 49
0.375
 74
0
 49
-0.075
 74
0
 49
0.075
 74
0
 49
-0.075
 74
0
  0
LTYPE
  5
1F6
100
AcDbSymbolTableRecord
100
AcDbLinetypeTableRecord
  2
HIDDEN
 70
64
  3
- - - - - - - - - - - - - - - - - - - -
 72
65
 73
2
 40
0.2
 49
0.1
 74
0
 49
-0.1
 74
0
  0
LTYPE
  5
1F7
100
AcDbSymbolTableRecord
100
AcDbLinetypeTableRecord
  2
PHANTOM
 70
64
  3
_____ _ _ _____ _ _ _____ _ _ _____
 72
65
 73
6
 40
0.8
 49
0.45
 74
0
 49
-0.05
 74
0
 49
0.1
 74
0
 49
-0.05
 74
0
 49
0.1
 74
0
 49
-0.05
 74
0
  0
LTYPE
  5
1F8
100
AcDbSymbolTableRecord
100
AcDbLinetypeTableRecord
  2
DOT
 70
64
  3
. . . . . . . . . . . . . . . . . . . .
 72
65
 73
2
 40
0.2
 49
0.1
 74
0
 49
-0.1
 74
0
  0
LTYPE
  5
1F9
100
AcDbSymbolTableRecord
100
AcDbLinetypeTableRecord
  2
DASHED
 70
64
  3
- - - - - - - - - - - - - - - - - - - -
 72
65
 73
2
 40
0.2
 49
0.1
 74
0
 49
-0.1
 74
0
  0
ENDTAB
  0
TABLE
  2
LAYER
  5
2
100
AcDbSymbolTable
 70
36
  0
LAYER
  5
10
100
AcDbSymbolTableRecord
100
AcDbLayerTableRecord
  2
0
 70
0
 62
7
  6
CONTINUOUS
370
-3
390
F
  0
LAYER
  5
1FA
100
AcDbSymbolTableRecord
100
AcDbLayerTableRecord
  2
DEFAULT_1
 70
0
 62
7
  6
CENTER
370
-3
390
F
  0
LAYER
  5
1FB
100
AcDbSymbolTableRecord
100
AcDbLayerTableRecord
  2
DEFAULT_2
 70
0
 62
8
  6
HIDDEN
370
-3
390
F
  0
LAYER
  5
1FC
100
AcDbSymbolTableRecord
100
AcDbLayerTableRecord
  2
DEFAULT_3
 70
0
 62
7
  6
PHANTOM
370
-3
390
F
  0
LAYER
  5
1FD
100
AcDbSymbolTableRecord
100
AcDbLayerTableRecord
  2
ALL_FEATURES
 70
0
 62
7
  6
CONTINUOUS
370
-3
390
F
  0
LAYER
  5
1FE
100
AcDbSymbolTableRecord
100
AcDbLayerTableRecord
  2
AXES_FEATURES
 70
0
 62
7
  6
CONTINUOUS
370
-3
390
F
  0
LAYER
  5
1FF
100
AcDbSymbolTableRecord
100
AcDbLayerTableRecord
  2
DIMENSIONS
 70
0
 62
7
  6
CONTINUOUS
370
-3
390
F
  0
ENDTAB
  0
TABLE
  2
STYLE
  5
3
100
AcDbSymbolTable
 70
1
  0
STYLE
  5
11
100
AcDbSymbolTableRecord
100
AcDbTextStyleTableRecord
  2
STANDARD
 70
0
 40
0.0
 41
0.8
 50
0.0
 71
0
 42
0.2
  3
txt
  4

  0
STYLE
  5
200
100
AcDbSymbolTableRecord
100
AcDbTextStyleTableRecord
  2
TEXTSTYLE_1
 70
0
 40
0.0
 41
0.8
 50
0.0
 71
0
 42
0.2
  3
gdt
  4

  0
ENDTAB
  0
TABLE
  2
VIEW
  5
6
100
AcDbSymbolTable
 70
0
  0
ENDTAB
  0
TABLE
  2
UCS
  5
7
100
AcDbSymbolTable
 70
0
  0
ENDTAB
  0
TABLE
  2
APPID
  5
9
100
AcDbSymbolTable
 70
1
  0
APPID
  5
201
100
AcDbSymbolTableRecord
100
AcDbRegAppTableRecord
  2
ACAD
 70
0
  0
ENDTAB
  0
TABLE
  2
BLOCK_RECORD
  5
1
100
AcDbSymbolTable
 70
0
  0
BLOCK_RECORD
  5
202
100
AcDbSymbolTableRecord
100
AcDbBlockTableRecord
  2
*Model_Space
  0
BLOCK_RECORD
  5
203
100
AcDbSymbolTableRecord
100
AcDbBlockTableRecord
  2
*Paper_Space
  0
BLOCK_RECORD
  5
204
100
AcDbSymbolTableRecord
100
AcDbBlockTableRecord
  2
_FILLED
  0
ENDTAB
  0
TABLE
  2
DIMSTYLE
  5
A
100
AcDbSymbolTable
 70
1
100
AcDbDimStyleTable
 71
0
  0
DIMSTYLE
105
205
100
AcDbSymbolTableRecord
100
AcDbDimStyleTableRecord
  2
STANDARD
 70
0
  3

  4

 40
1.0
 41
0.1
 42
0.0625
 43
0.38
 44
0.125
 45
0.0
 46
0.0
 47
0.001
 48
0.001
140
0.08
141
0.09
142
0.0
143
25.4
144
1.0
145
0.0
146
1.0
147
0.09
 71
1.0
 72
0.0
 73
1
 74
1
 75
0
 76
0
 77
0
 78
4
 79
1
170
1
171
2
172
0
173
0
174
0
175
0
176
0
177
0
178
0
270
2
179
3
271
3
272
3
273
2
274
2
275
0
280
0
281
0
282
0
283
1
284
4
285
0
286
0
287
3
288
0
340
11
278
46
341
204
342
204
343
204
344
204
  0
ENDTAB
  0
ENDSEC
  0
SECTION
  2
BLOCKS
  0
BLOCK
  5
20
100
AcDbEntity
  8
0
100
AcDbBlockBegin
  2
*Model_Space
 70
0
 10
0.0
 20
0.0
 30
0.0
  3
*Model_Space
  1

  0
ENDBLK
  5
21
100
AcDbEntity
  8
0
100
AcDbBlockEnd
  0
BLOCK
  5
1C
100
AcDbEntity
  8
0
100
AcDbBlockBegin
  2
*Paper_Space
 70
0
 10
0.0
 20
0.0
 30
0.0
  3
*Paper_Space
  1

  0
ENDBLK
  5
1D
100
AcDbEntity
  8
0
100
AcDbBlockEnd
  0
BLOCK
  5
206
100
AcDbEntity
  8
0
100
AcDbBlockBegin
  2
_FILLED
 70
64
 10
0.0
 20
0.0
  3
_FILLED
  1

  0
SOLID
  5
207
100
AcDbEntity
  8
0
  6
BYBLOCK
 62
0
100
AcDbTrace
 10
0.0
 20
0.0
 11
-1.0
 21
0.2
 12
-1.0
 22
-0.2
 13
-1.0
 23
-0.2
  0
ENDBLK
  5
208
100
AcDbEntity
  8
0
  6
BYBLOCK
 62
0
100
AcDbBlockEnd
  0
ENDSEC
  0
SECTION
  2
ENTITIES
  0
LINE
  5
209
100
AcDbEntity
  8
0
100
AcDbLine
 62
7
  6
CONTINUOUS
 10
8.6961923427
 20
10.4771695021
 11
8.7161923427
 21
10.4971695021
  0
LINE
  5
20A
100
AcDbEntity
  8
0
100
AcDbLine
 62
7
  6
CONTINUOUS
 10
8.6961923427
 20
10.4771687092
 11
8.6961923427
 21
9.9541702951
  0
LINE
  5
20B
100
AcDbEntity
  8
0
100
AcDbLine
 62
7
  6
CONTINUOUS
 10
8.7161923427
 20
10.4971695021
 11
8.7161923427
 21
9.9341695021
  0
LINE
  5
20C
100
AcDbEntity
  8
0
100
AcDbLine
 62
7
  6
CONTINUOUS
 10
8.7961923427
 20
9.9341695021
 11
8.7961923427
 21
10.4971695021
  0
LINE
  5
20D
100
AcDbEntity
  8
0
100
AcDbLine
 62
7
  6
CONTINUOUS
 10
10.7926936218
 20
7.8186695021
 11
13.1526910636
 21
7.8186695021
  0
LINE
  5
20E
100
AcDbEntity
  8
0
100
AcDbLine
 62
7
  6
CONTINUOUS
 10
10.9726923427
 20
8.0056695021
 11
12.9726923427
 21
8.0056695021
  0
LINE
  5
20F
100
AcDbEntity
  8
0
100
AcDbLine
 62
7
  6
CONTINUOUS
 10
11.5181823866
 20
10.6416695021
 11
11.4674119215
 21
10.625173178
  0
LINE
  5
210
100
AcDbEntity
  8
0
100
AcDbLine
 62
7
  6
CONTINUOUS
 10
8.6961923427
 20
9.9541695021
 11
8.7161923427
 21
9.9341695021
  0
LINE
  5
211
100
AcDbEntity
  8
0
100
AcDbLine
 62
7
  6
CONTINUOUS
 10
12.7856938783
 20
8.1936695021
 11
11.1596908072
 21
8.1936695021
  0
LINE
  5
212
100
AcDbEntity
  8
0
100
AcDbLine
 62
7
  6
CONTINUOUS
 10
11.2316928686
 20
8.2556695021
 11
12.7136918169
 21
8.2556695021
  0
LINE
  5
213
100
AcDbEntity
  8
0
100
AcDbLine
 62
7
  6
CONTINUOUS
 10
11.4711923427
 20
10.5166695021
 11
11.4435000275
 21
10.5006695021
  0
LINE
  5
214
100
AcDbEntity
  8
0
100
AcDbLine
 62
7
  6
CONTINUOUS
 10
11.4674119215
 20
10.625173178
 11
11.4451923427
 21
10.6029535993
  0
LINE
  5
215
100
AcDbEntity
  8
0
100
AcDbLine
 62
9
  6
CONTINUOUS
 10
12.6138557824
 20
8.6221695021
 11
11.3315289031
 21
8.6221695021
  0
LINE
  5
216
100
AcDbEntity
  8
0
100
AcDbLine
 62
7
  6
CONTINUOUS
 10
11.3901923427
 20
10.0186695021
 11
11.1901923427
 21
9.9341695021
  0
LINE
  5
217
100
AcDbEntity
  8
0
100
AcDbLine
 62
9
  6
CONTINUOUS
 10
11.3541923427
 20
8.8371695021
 11
12.5911923427
 21
8.8371695021
  0
LINE
  5
218
100
AcDbEntity
  8
0
100
AcDbLine
 62
7
  6
CONTINUOUS
 10
12.4741923427
 20
10.5166695021
 11
12.5001923427
 21
10.5316695021
  0
LINE
  5
219
100
AcDbEntity
  8
0
100
AcDbLine
 62
9
  6
CONTINUOUS
 10
11.3580583485
 20
9.0653683137
 11
12.5873263369
 21
9.0653683137
  0
LINE
  5
21A
100
AcDbEntity
  8
0
100
AcDbLine
 62
7
  6
CONTINUOUS
 10
12.3431923427
 20
9.8806695021
 11
12.5001923427
 21
9.9316695021
  0
LINE
  5
21B
100
AcDbEntity
  8
0
100
AcDbLine
 62
9
  6
CONTINUOUS
 10
12.5131923427
 20
9.1712859409
 11
11.4321923427
 21
9.1712859409
  0
LINE
  5
21C
100
AcDbEntity
  8
0
100
AcDbLine
 62
7
  6
CONTINUOUS
 10
11.0851923427
 20
10.4971695021
 11
11.0851923427
 21
9.9341695021
  0
LINE
  5
21D
100
AcDbEntity
  8
0
100
AcDbLine
 62
7
  6
CONTINUOUS
 10
11.4435000275
 20
10.5006695021
 11
11.4151923427
 21
10.4206695021
  0
LINE
  5
21E
100
AcDbEntity
  8
0
100
AcDbLine
 62
7
  6
CONTINUOUS
 10
12.8329880151
 20
10.3864068595
 11
12.8821540851
 21
10.4207062229
  0
LINE
  5
21F
100
AcDbEntity
  8
0
100
AcDbLine
 62
7
  6
CONTINUOUS
 10
11.1901923427
 20
9.9341695021
 11
11.1901923427
 21
10.4971695021
  0
LINE
  5
220
100
AcDbEntity
  8
0
100
AcDbLine
 62
7
  6
CONTINUOUS
 10
11.2316923427
 20
8.2556695021
 11
11.2316923427
 21
8.1936695021
  0
LINE
  5
221
100
AcDbEntity
  8
0
100
AcDbLine
 62
7
  6
CONTINUOUS
 10
11.3161923427
 20
8.2556695021
 11
11.3161923427
 21
8.6068771043
  0
LINE
  5
222
100
AcDbEntity
  8
0
100
AcDbLine
 62
9
  6
CONTINUOUS
 10
12.4024320703
 20
9.4772687448
 11
11.5429526152
 21
9.4772687448
  0
LINE
  5
223
100
AcDbEntity
  8
0
100
AcDbLine
 62
7
  6
CONTINUOUS
 10
12.3715261593
 20
9.5056695021
 11
11.5738585261
 21
9.5056695021
  0
LINE
  5
224
100
AcDbEntity
  8
0
100
AcDbLine
 62
7
  6
CONTINUOUS
 10
11.6292059003
 20
9.5216695021
 11
12.3161787852
 21
9.5216695021
  0
LINE
  5
225
100
AcDbEntity
  8
0
100
AcDbLine
 62
7
  6
CONTINUOUS
 10
11.3901923427
 20
10.4126695021
 11
11.3901923427
 21
10.0186695021
  0
LINE
  5
226
100
AcDbEntity
  8
0
100
AcDbLine
 62
7
  6
CONTINUOUS
 10
11.4451923427
 20
10.6029535993
 11
11.4451923427
 21
10.5316695021
  0
LINE
  5
227
100
AcDbEntity
  8
0
100
AcDbLine
 62
7
  6
CONTINUOUS
 10
11.4501923427
 20
10.1506695021
 11
11.4501923427
 21
10.2806695021
  0
LINE
  5
228
100
AcDbEntity
  8
0
100
AcDbLine
 62
7
  6
CONTINUOUS
 10
11.4321923427
 20
9.1712859409
 11
11.3580583485
 21
9.0653683137
  0
LINE
  5
229
100
AcDbEntity
  8
0
100
AcDbLine
 62
7
  6
CONTINUOUS
 10
11.6291923427
 20
9.8806695021
 11
11.6291923427
 21
9.5216695021
  0
LINE
  5
22A
100
AcDbEntity
  8
0
100
AcDbLine
 62
7
  6
CONTINUOUS
 10
11.3315289031
 20
8.6221695021
 11
11.3161923427
 21
8.6068771204
  0
LINE
  5
22B
100
AcDbEntity
  8
0
100
AcDbLine
 62
7
  6
CONTINUOUS
 10
11.6022065995
 20
9.8806695021
 11
12.343178086
 21
9.8806695021
  0
LINE
  5
22C
100
AcDbEntity
  8
0
100
AcDbLine
 62
7
  6
CONTINUOUS
 10
12.5001923427
 20
9.9316695021
 11
11.4451923427
 21
9.9316695021
  0
LINE
  5
22D
100
AcDbEntity
  8
0
100
AcDbLine
 62
7
  6
CONTINUOUS
 10
8.7161923427
 20
9.9341695021
 11
8.7961923427
 21
9.9341695021
  0
LINE
  5
22E
100
AcDbEntity
  8
0
100
AcDbLine
 62
7
  6
CONTINUOUS
 10
11.0851923427
 20
9.9341695021
 11
11.1901923427
 21
9.9341695021
  0
LINE
  5
22F
100
AcDbEntity
  8
0
100
AcDbLine
 62
7
  6
CONTINUOUS
 10
11.4151923427
 20
10.0106695021
 11
12.5301923427
 21
10.0106695021
  0
LINE
  5
230
100
AcDbEntity
  8
0
100
AcDbLine
 62
7
  6
CONTINUOUS
 10
11.3901923427
 20
10.0186695021
 11
11.4180570014
 21
10.0186695021
  0
LINE
  5
231
100
AcDbEntity
  8
0
100
AcDbLine
 62
7
  6
CONTINUOUS
 10
12.6138557824
 20
8.6221695021
 11
12.6291923427
 21
8.6068771204
  0
LINE
  5
232
100
AcDbEntity
  8
0
100
AcDbLine
 62
7
  6
CONTINUOUS
 10
11.4151923427
 20
10.0106695021
 11
11.4451923427
 21
9.9316695021
  0
LINE
  5
233
100
AcDbEntity
  8
0
100
AcDbLine
 62
7
  6
CONTINUOUS
 10
11.7076923427
 20
10.6926401317
 11
11.7076923427
 21
10.6914920848
  0
LINE
  5
234
100
AcDbEntity
  8
0
100
AcDbLine
 62
7
  6
CONTINUOUS
 10
11.7241923427
 20
10.6961517649
 11
11.7241923427
 21
10.6951383472
  0
LINE
  5
235
100
AcDbEntity
  8
0
100
AcDbLine
 62
7
  6
CONTINUOUS
 10
11.7641923427
 20
10.7011039178
 11
11.7641923427
 21
10.7021133999
  0
LINE
  5
236
100
AcDbEntity
  8
0
100
AcDbLine
 62
7
  6
CONTINUOUS
 10
11.7726923427
 20
9.5056695021
 11
11.7726923427
 21
9.5216695021
  0
LINE
  5
237
100
AcDbEntity
  8
0
100
AcDbLine
 62
7
  6
CONTINUOUS
 10
11.7806923427
 20
10.7023876516
 11
11.7806923427
 21
10.703527563
  0
LINE
  5
238
100
AcDbEntity
  8
0
100
AcDbLine
 62
7
  6
CONTINUOUS
 10
11.7976923427
 20
10.7055551277
 11
11.7976923427
 21
10.7044167186
  0
LINE
  5
239
100
AcDbEntity
  8
0
100
AcDbLine
 62
7
  6
CONTINUOUS
 10
11.8141923427
 20
10.708074684
 11
11.8141923427
 21
10.7070691068
  0
LINE
  5
23A
100
AcDbEntity
  8
0
100
AcDbLine
 62
7
  6
CONTINUOUS
 10
11.8541923427
 20
10.7106598215
 11
11.8541923427
 21
10.7116630626
  0
LINE
  5
23B
100
AcDbEntity
  8
0
100
AcDbLine
 62
7
  6
CONTINUOUS
 10
11.8706923427
 20
10.7109747406
 11
11.8706923427
 21
10.712108321
  0
LINE
  5
23C
100
AcDbEntity
  8
0
100
AcDbLine
 62
7
  6
CONTINUOUS
 10
11.6021923427
 20
9.8806695021
 11
11.4451923427
 21
9.9316695021
  0
LINE
  5
23D
100
AcDbEntity
  8
0
100
AcDbLine
 62
7
  6
CONTINUOUS
 10
11.9289923427
 20
10.7160536183
 11
11.9289923427
 21
10.7150532207
  0
LINE
  5
23E
100
AcDbEntity
  8
0
100
AcDbLine
 62
7
  6
CONTINUOUS
 10
11.9726912141
 20
8.5056130456
 11
11.9726923427
 21
8.2556695021
  0
LINE
  5
23F
100
AcDbEntity
  8
0
100
AcDbLine
 62
7
  6
CONTINUOUS
 10
12.0139923427
 20
10.7161194209
 11
12.0139923427
 21
10.7151190658
  0
LINE
  5
240
100
AcDbEntity
  8
0
100
AcDbLine
 62
7
  6
CONTINUOUS
 10
12.1106923427
 20
10.7093116866
 11
12.1106923427
 21
10.7081760506
  0
LINE
  5
241
100
AcDbEntity
  8
0
100
AcDbLine
 62
7
  6
CONTINUOUS
 10
12.1291923427
 20
10.7084691648
 11
12.1291923427
 21
10.707463845
  0
LINE
  5
242
100
AcDbEntity
  8
0
100
AcDbLine
 62
7
  6
CONTINUOUS
 10
12.1651923427
 20
10.7033831068
 11
12.1651923427
 21
10.7043910933
  0
LINE
  5
243
100
AcDbEntity
  8
0
100
AcDbLine
 62
7
  6
CONTINUOUS
 10
12.1726923427
 20
9.5056695021
 11
12.1726923427
 21
9.5216695021
  0
LINE
  5
244
100
AcDbEntity
  8
0
100
AcDbLine
 62
7
  6
CONTINUOUS
 10
12.1836923427
 20
10.6998937497
 11
12.1836923427
 21
10.7010355131
  0
LINE
  5
245
100
AcDbEntity
  8
0
100
AcDbLine
 62
7
  6
CONTINUOUS
 10
12.5301923427
 20
10.0106695021
 11
12.5001923427
 21
9.9316695021
  0
LINE
  5
246
100
AcDbEntity
  8
0
100
AcDbLine
 62
7
  6
CONTINUOUS
 10
11.3901923427
 20
10.4126695021
 11
11.4180565024
 21
10.4126695021
  0
LINE
  5
247
100
AcDbEntity
  8
0
100
AcDbLine
 62
7
  6
CONTINUOUS
 10
12.5301923427
 20
10.4206695021
 11
11.4151923427
 21
10.4206695021
  0
LINE
  5
248
100
AcDbEntity
  8
0
100
AcDbLine
 62
7
  6
CONTINUOUS
 10
8.7161923427
 20
10.4971695021
 11
8.7961923427
 21
10.4971695021
  0
LINE
  5
249
100
AcDbEntity
  8
0
100
AcDbLine
 62
7
  6
CONTINUOUS
 10
11.0851923427
 20
10.4971695021
 11
11.1901923427
 21
10.4971695021
  0
LINE
  5
24A
100
AcDbEntity
  8
0
100
AcDbLine
 62
7
  6
CONTINUOUS
 10
11.4435000275
 20
10.5006695021
 11
12.501884658
 21
10.5006695021
  0
LINE
  5
24B
100
AcDbEntity
  8
0
100
AcDbLine
 62
7
  6
CONTINUOUS
 10
11.4711923427
 20
10.5166695021
 11
12.4741923427
 21
10.5166695021
  0
LINE
  5
24C
100
AcDbEntity
  8
0
100
AcDbLine
 62
7
  6
CONTINUOUS
 10
11.4451923427
 20
10.5316695021
 11
12.5001923427
 21
10.5316695021
  0
LINE
  5
24D
100
AcDbEntity
  8
0
100
AcDbLine
 62
7
  6
CONTINUOUS
 10
11.3901923427
 20
10.4126695021
 11
11.1901923427
 21
10.4971695021
  0
LINE
  5
24E
100
AcDbEntity
  8
0
100
AcDbLine
 62
7
  6
CONTINUOUS
 10
12.5131923427
 20
9.1712859409
 11
12.5873263369
 21
9.0653683137
  0
LINE
  5
24F
100
AcDbEntity
  8
0
100
AcDbLine
 62
7
  6
CONTINUOUS
 10
12.3161923427
 20
9.8806695021
 11
12.3161923427
 21
9.5216695021
  0
LINE
  5
250
100
AcDbEntity
  8
0
100
AcDbLine
 62
7
  6
CONTINUOUS
 10
12.5001923427
 20
10.6029535993
 11
11.4451923427
 21
10.6029535993
  0
LINE
  5
251
100
AcDbEntity
  8
0
100
AcDbLine
 62
7
  6
CONTINUOUS
 10
11.4674119215
 20
10.625173178
 11
12.4779727639
 21
10.625173178
  0
LINE
  5
252
100
AcDbEntity
  8
0
100
AcDbLine
 62
7
  6
CONTINUOUS
 10
12.4272014361
 20
10.6416695021
 11
11.5181832494
 21
10.6416695021
  0
LINE
  5
253
100
AcDbEntity
  8
0
100
AcDbLine
 62
9
  6
CONTINUOUS
 10
12.3678369823
 20
10.6654789151
 11
11.5775477032
 21
10.6654789151
  0
LINE
  5
254
100
AcDbEntity
  8
0
100
AcDbLine
 62
7
  6
CONTINUOUS
 10
11.4711923427
 20
10.5166695021
 11
11.4451923427
 21
10.5316695021
  0
LINE
  5
255
100
AcDbEntity
  8
0
100
AcDbLine
 62
7
  6
CONTINUOUS
 10
12.4951923427
 20
10.2806695021
 11
12.4951923427
 21
10.1506695021
  0
LINE
  5
256
100
AcDbEntity
  8
0
100
AcDbLine
 62
7
  6
CONTINUOUS
 10
12.5001923427
 20
10.6029535993
 11
12.5001923427
 21
10.5316695021
  0
LINE
  5
257
100
AcDbEntity
  8
0
100
AcDbLine
 62
9
  6
CONTINUOUS
 10
12.5093820885
 20
10.0769666631
 11
12.5093820885
 21
10.354377172
  0
LINE
  5
258
100
AcDbEntity
  8
0
100
AcDbLine
 62
9
  6
CONTINUOUS
 10
12.5300075136
 20
10.027526645
 11
12.5300075136
 21
10.4038123593
  0
LINE
  5
259
100
AcDbEntity
  8
0
100
AcDbLine
 62
7
  6
CONTINUOUS
 10
12.1291923427
 20
10.7077468591
 11
12.1651923427
 21
10.703666872
  0
LINE
  5
25A
100
AcDbEntity
  8
0
100
AcDbLine
 62
7
  6
CONTINUOUS
 10
12.6291923427
 20
8.6068771043
 11
12.6291923427
 21
8.2556695021
  0
LINE
  5
25B
100
AcDbEntity
  8
0
100
AcDbLine
 62
7
  6
CONTINUOUS
 10
12.7136923427
 20
8.2556695021
 11
12.7136923427
 21
8.1936695021
  0
LINE
  5
25C
100
AcDbEntity
  8
0
100
AcDbLine
 62
9
  6
CONTINUOUS
 10
12.7813321436
 20
10.0240259378
 11
12.7813321436
 21
10.4073130665
  0
LINE
  5
25D
100
AcDbEntity
  8
0
100
AcDbLine
 62
7
  6
CONTINUOUS
 10
12.4272022989
 20
10.6416695021
 11
12.4779727639
 21
10.625173178
  0
LINE
  5
25E
100
AcDbEntity
  8
0
100
AcDbLine
 62
7
  6
CONTINUOUS
 10
12.4741923427
 20
10.5166695021
 11
12.501884658
 21
10.5006695021
  0
LINE
  5
25F
100
AcDbEntity
  8
0
100
AcDbLine
 62
7
  6
CONTINUOUS
 10
12.8329880151
 20
10.0449321448
 11
12.8821540851
 21
10.0106327814
  0
LINE
  5
260
100
AcDbEntity
  8
0
100
AcDbLine
 62
7
  6
CONTINUOUS
 10
12.8083060859
 20
10.0356695021
 11
12.8083060859
 21
10.3956695021
  0
LINE
  5
261
100
AcDbEntity
  8
0
100
AcDbLine
 62
9
  6
CONTINUOUS
 10
12.8329880151
 20
10.3864068595
 11
12.8329880151
 21
10.0449321448
  0
LINE
  5
262
100
AcDbEntity
  8
0
100
AcDbLine
 62
9
  6
CONTINUOUS
 10
12.8821540851
 20
10.0106327814
 11
12.8821540851
 21
10.4207062229
  0
LINE
  5
263
100
AcDbEntity
  8
0
100
AcDbLine
 62
7
  6
CONTINUOUS
 10
12.501884658
 20
10.5006695021
 11
12.5301923427
 21
10.4206695021
  0
LINE
  5
264
100
AcDbEntity
  8
0
100
AcDbLine
 62
7
  6
CONTINUOUS
 10
12.4779727639
 20
10.625173178
 11
12.5001923427
 21
10.6029535993
  0
ARC
  5
265
100
AcDbEntity
  8
0
100
AcDbCircle
 62
7
  6
CONTINUOUS
 10
10.9201534407
 20
9.5296728307
 40
0.625
100
AcDbArc
 50
325.0110095299
 51
355.1903004544
  0
ARC
  5
266
100
AcDbEntity
  8
0
100
AcDbCircle
 62
7
  6
CONTINUOUS
 10
8.9737131761
 20
10.2156695021
 40
0.3735208333
100
AcDbArc
 50
137.9864211384
 51
222.0135788616
  0
ARC
  5
267
100
AcDbEntity
  8
0
100
AcDbCircle
 62
7
  6
CONTINUOUS
 10
10.9798284538
 20
7.8186695021
 40
0.1871361111
100
AcDbArc
 50
92.1854050713
 51
180.0
  0
ARC
  5
268
100
AcDbEntity
  8
0
100
AcDbCircle
 62
7
  6
CONTINUOUS
 10
11.9726923427
 20
9.1659961101
 40
1.550673392
100
AcDbArc
 50
92.9572302897
 51
94.3827253199
  0
ARC
  5
269
100
AcDbEntity
  8
0
100
AcDbCircle
 62
7
  6
CONTINUOUS
 10
11.9726923427
 20
9.1659961101
 40
1.550673392
100
AcDbArc
 50
99.221579184
 51
104.7629977426
  0
ARC
  5
26A
100
AcDbEntity
  8
0
100
AcDbCircle
 62
7
  6
CONTINUOUS
 10
11.9726923427
 20
9.1659961101
 40
1.550673392
100
AcDbArc
 50
88.982551472
 51
91.6148836456
  0
ARC
  5
26B
100
AcDbEntity
  8
0
100
AcDbCircle
 62
7
  6
CONTINUOUS
 10
11.9726923427
 20
9.1659961101
 40
1.550673392
100
AcDbArc
 50
75.2370022574
 51
82.8689275621
  0
ARC
  5
26C
100
AcDbEntity
  8
0
100
AcDbCircle
 62
7
  6
CONTINUOUS
 10
11.9726923427
 20
9.1659961101
 40
1.550673392
100
AcDbArc
 50
84.2076250178
 51
87.1537590823
  0
ARC
  5
26D
100
AcDbEntity
  8
0
100
AcDbCircle
 62
7
  6
CONTINUOUS
 10
11.9726923427
 20
9.1659961101
 40
1.550668233
100
AcDbArc
 50
96.0895835634
 51
97.5036217175
  0
ARC
  5
26E
100
AcDbEntity
  8
0
100
AcDbCircle
 62
7
  6
CONTINUOUS
 10
11.9726923427
 20
9.1659961101
 40
1.549673392
100
AcDbArc
 50
94.3855590149
 51
95.8659548868
  0
ARC
  5
26F
100
AcDbEntity
  8
0
100
AcDbCircle
 62
7
  6
CONTINUOUS
 10
11.9726923427
 20
9.1659961101
 40
1.549673392
100
AcDbArc
 50
97.7345986214
 51
99.2275818147
  0
ARC
  5
270
100
AcDbEntity
  8
0
100
AcDbCircle
 62
7
  6
CONTINUOUS
 10
11.9726923427
 20
9.1659961101
 40
1.5483420064
100
AcDbArc
 50
82.1676580455
 51
84.8865797045
  0
ARC
  5
271
100
AcDbEntity
  8
0
100
AcDbCircle
 62
7
  6
CONTINUOUS
 10
11.9726923427
 20
9.1659961101
 40
1.5483420064
100
AcDbArc
 50
97.1232192299
 51
99.8547367444
  0
ARC
  5
272
100
AcDbEntity
  8
0
100
AcDbCircle
 62
7
  6
CONTINUOUS
 10
11.9726923427
 20
9.1659961101
 40
1.5483420064
100
AcDbArc
 50
93.7772047905
 51
96.4896726718
  0
ARC
  5
273
100
AcDbEntity
  8
0
100
AcDbCircle
 62
7
  6
CONTINUOUS
 10
11.5251674638
 20
8.9484050989
 40
0.2039751211
100
AcDbArc
 50
145.0110095298
 51
213.0478355063
  0
ARC
  5
274
100
AcDbEntity
  8
0
100
AcDbCircle
 62
7
  6
CONTINUOUS
 10
11.1596896689
 20
8.0066695021
 40
0.187
100
AcDbArc
 50
90.0
 51
180.3063960032
  0
ARC
  5
275
100
AcDbEntity
  8
0
100
AcDbCircle
 62
7
  6
CONTINUOUS
 10
11.2104178091
 20
8.7436304776
 40
0.1715245336
100
AcDbArc
 50
314.9173576842
 51
33.0478355063
  0
ARC
  5
276
100
AcDbEntity
  8
0
100
AcDbCircle
 62
7
  6
CONTINUOUS
 10
11.8755977436
 20
9.9022521109
 40
0.8080376156
100
AcDbArc
 50
97.4953747161
 51
97.7110213899
  0
ARC
  5
277
100
AcDbEntity
  8
0
100
AcDbCircle
 62
7
  6
CONTINUOUS
 10
11.5738434542
 20
9.4746695021
 40
0.031
100
AcDbArc
 50
90.0
 51
175.1903004544
  0
ARC
  5
278
100
AcDbEntity
  8
0
100
AcDbCircle
 62
7
  6
CONTINUOUS
 10
11.5851923427
 20
10.6364692704
 40
0.03
100
AcDbArc
 50
104.7629977427
 51
170.0178676887
  0
ARC
  5
279
100
AcDbEntity
  8
0
100
AcDbCircle
 62
7
  6
CONTINUOUS
 10
12.4202172217
 20
8.9484050989
 40
0.2039751211
100
AcDbArc
 50
326.9521644937
 51
34.9889904702
  0
ARC
  5
27A
100
AcDbEntity
  8
0
100
AcDbCircle
 62
7
  6
CONTINUOUS
 10
12.9655562316
 20
7.8186695021
 40
0.1871361111
100
AcDbArc
 50
0.0
 51
87.8145949287
  0
ARC
  5
27B
100
AcDbEntity
  8
0
100
AcDbCircle
 62
7
  6
CONTINUOUS
 10
12.7856950166
 20
8.0066695021
 40
0.187
100
AcDbArc
 50
359.6936039968
 51
90.0
  0
ARC
  5
27C
100
AcDbEntity
  8
0
100
AcDbCircle
 62
7
  6
CONTINUOUS
 10
12.7349668764
 20
8.7436304776
 40
0.1715245336
100
AcDbArc
 50
146.9521644937
 51
225.0826423158
  0
ARC
  5
27D
100
AcDbEntity
  8
0
100
AcDbCircle
 62
7
  6
CONTINUOUS
 10
13.2239705111
 20
10.1651725092
 40
0.7393270938
100
AcDbArc
 50
160.1266268905
 51
161.1772498128
  0
ARC
  5
27E
100
AcDbEntity
  8
0
100
AcDbCircle
 62
7
  6
CONTINUOUS
 10
13.2207158068
 20
10.2650277845
 40
0.735879108
100
AcDbArc
 50
198.7940478116
 51
199.8707185755
  0
ARC
  5
27F
100
AcDbEntity
  8
0
100
AcDbCircle
 62
7
  6
CONTINUOUS
 10
13.0252312448
 20
9.5296728307
 40
0.625
100
AcDbArc
 50
184.8096995456
 51
214.9889904701
  0
ARC
  5
280
100
AcDbEntity
  8
0
100
AcDbCircle
 62
7
  6
CONTINUOUS
 10
13.0251923427
 20
10.2156695021
 40
0.25
100
AcDbArc
 50
235.0995
 51
124.9005
  0
ARC
  5
281
100
AcDbEntity
  8
0
100
AcDbCircle
 62
7
  6
CONTINUOUS
 10
12.6537600646
 20
9.8886695021
 40
0.186
100
AcDbArc
 50
46.6958241996
 51
131.7081302521
  0
ARC
  5
282
100
AcDbEntity
  8
0
100
AcDbCircle
 62
7
  6
CONTINUOUS
 10
12.6537600646
 20
10.5426695021
 40
0.186
100
AcDbArc
 50
228.2918697479
 51
313.3041758004
  0
ARC
  5
283
100
AcDbEntity
  8
0
100
AcDbCircle
 62
7
  6
CONTINUOUS
 10
12.5093820885
 20
10.0506695021
 40
0.031
100
AcDbArc
 50
301.3352886282
 51
311.708130252
  0
ARC
  5
284
100
AcDbEntity
  8
0
100
AcDbCircle
 62
7
  6
CONTINUOUS
 10
12.5093820885
 20
10.3806695021
 40
0.031
100
AcDbArc
 50
48.291869748
 51
58.6688869001
  0
ARC
  5
285
100
AcDbEntity
  8
0
100
AcDbCircle
 62
7
  6
CONTINUOUS
 10
12.3715412312
 20
9.4746695021
 40
0.031
100
AcDbArc
 50
4.8096995456
 51
90.0
  0
ARC
  5
286
100
AcDbEntity
  8
0
100
AcDbCircle
 62
7
  6
CONTINUOUS
 10
12.3601923427
 20
10.6364692704
 40
0.03
100
AcDbArc
 50
9.9821323113
 51
75.2370022573
  0
ARC
  5
287
100
AcDbEntity
  8
0
100
AcDbCircle
 62
7
  6
CONTINUOUS
 10
12.8238335666
 20
10.0318097946
 40
0.016
100
AcDbArc
 50
55.0995
 51
166.0407512245
  0
ARC
  5
288
100
AcDbEntity
  8
0
100
AcDbCircle
 62
7
  6
CONTINUOUS
 10
12.8238335666
 20
10.3995292096
 40
0.016
100
AcDbArc
 50
193.9592487755
 51
304.9005
  0
ARC
  5
289
100
AcDbEntity
  8
0
100
AcDbCircle
 62
7
  6
CONTINUOUS
 10
12.7923060859
 20
10.3956695021
 40
0.016
100
AcDbArc
 50
0.0
 51
133.3041758004
  0
ARC
  5
28A
100
AcDbEntity
  8
0
100
AcDbCircle
 62
7
  6
CONTINUOUS
 10
12.7923060859
 20
10.0356695021
 40
0.016
100
AcDbArc
 50
226.6958241996
 51
360.0
  0
ARC
  5
28B
100
AcDbEntity
  8
0
100
AcDbCircle
 62
7
  6
CONTINUOUS
 10
12.0046816498
 20
15.1571713301
 40
4.4427503261
100
AcDbArc
 50
270.12360633
 51
270.2975703075
  0
ARC
  5
28C
100
AcDbEntity
  8
0
100
AcDbCircle
 62
7
  6
CONTINUOUS
 10
12.0166986034
 20
12.6499734118
 40
1.9355240713
100
AcDbArc
 50
270.3273053365
 51
270.6086344456
  0
ARC
  5
28D
100
AcDbEntity
  8
0
100
AcDbCircle
 62
7
  6
CONTINUOUS
 10
12.3402714499
 20
11.6840005507
 40
0.9953578662
100
AcDbArc
 50
260.3999456807
 51
260.9492438971
  0
SPLINE
  5
28E
100
AcDbEntity
  8
0
100
AcDbSpline
 62
7
  6
CONTINUOUS
 70
0
 71
3
 72
69
 73
65
 74
0
 42
0.0000001
 43
0.0000001
 44
0.0000000001
 40
0.0
 40
0.0
 40
0.0
 40
0.0
 40
0.0625069941
 40
0.125013991
 40
0.187520984
 40
0.2500279807
 40
0.3125349797
 40
0.3750419762
 40
0.4062960193
 40
0.4375500628
 40
0.4688041059
 40
0.5000581489
 40
0.5313121921
 40
0.5625662354
 40
0.5938202788
 40
0.6094473683
 40
0.6250744577
 40
0.6407015474
 40
0.6563286377
 40
0.6719557272
 40
0.6797692796
 40
0.6875828323
 40
0.6953963868
 40
0.7032099424
 40
0.7110234904
 40
0.7188370451
 40
0.7227438331
 40
0.7266505896
 40
0.7286039638
 40
0.7305573667
 40
0.7325108168
 40
0.7344642567
 40
0.7364175938
 40
0.7383708176
 40
0.7393475478
 40
0.7403245281
 40
0.7413015422
 40
0.7422780942
 40
0.7432543851
 40
0.7442311382
 40
0.7452079698
 40
0.746184655
 40
0.7471613274
 40
0.7481380162
 40
0.7500913987
 40
0.7520447691
 40
0.7539981456
 40
0.7579048993
 40
0.7618116512
 40
0.765718363
 40
0.7696250755
 40
0.7735318071
 40
0.781344959
 40
0.7891580925
 40
0.7969712275
 40
0.8125950214
 40
0.8282188129
 40
0.843842604
 40
0.8594664258
 40
0.8750901266
 40
0.9063178485
 40
0.9375454198
 40
0.9687727153
 40
1.0
 40
1.0
 40
1.0
 40
1.0
 10
11.0851923427
 20
9.9341695021
 30
0.0
 10
11.0360522376
 20
9.9364187029
 30
0.0
 10
10.93771494
 20
9.9397563956
 30
0.0
 10
10.7901351013
 20
9.9412794503
 30
0.0
 10
10.642559597
 20
9.9393184892
 30
0.0
 10
10.4950716703
 20
9.9338729194
 30
0.0
 10
10.3477537954
 20
9.9249467037
 30
0.0
 10
10.2251969985
 20
9.9146117452
 30
0.0
 10
10.1273209155
 20
9.9046095011
 30
0.0
 10
10.0540064948
 20
9.8962416337
 30
0.0
 10
9.9807960771
 20
9.8870088259
 30
0.0
 10
9.9076997503
 20
9.8769122625
 30
0.0
 10
9.834727702
 20
9.8659534903
 30
0.0
 10
9.761890162
 20
9.8541340217
 30
0.0
 10
9.701312518
 20
9.843568471
 30
0.0
 10
9.6529280811
 20
9.8346874139
 30
0.0
 10
9.6166795785
 20
9.8278124958
 30
0.0
 10
9.5804722988
 20
9.8207237348
 30
0.0
 10
9.5443074925
 20
9.8134213936
 30
0.0
 10
9.5142065772
 20
9.8071582977
 30
0.0
 10
9.4901483994
 20
9.8020411955
 30
0.0
 10
9.4721161518
 20
9.798150144
 30
0.0
 10
9.4540954527
 20
9.7942059495
 30
0.0
 10
9.4360864283
 20
9.790208801
 30
0.0
 10
9.4180894056
 20
9.7861579541
 30
0.0
 10
9.4031019875
 20
9.7827376559
 30
0.0
 10
9.3911176538
 20
9.7799770969
 30
0.0
 10
9.3836305716
 20
9.7782382852
 30
0.0
 10
9.3776426225
 20
9.7768398849
 30
0.0
 10
9.3731519458
 20
9.7757895998
 30
0.0
 10
9.3686609524
 20
9.7747404381
 30
0.0
 10
9.3641709003
 20
9.7736874919
 30
0.0
 10
9.3596832243
 20
9.7726251619
 30
0.0
 10
9.3559479572
 20
9.7717214379
 30
0.0
 10
9.3529565383
 20
9.7710107123
 30
0.0
 10
9.3507078002
 20
9.770498044
 30
0.0
 10
9.3484580737
 20
9.7699905875
 30
0.0
 10
9.346216272
 20
9.7694502624
 30
0.0
 10
9.3439944294
 20
9.768832897
 30
0.0
 10
9.3417913268
 20
9.7681524171
 30
0.0
 10
9.3395848245
 20
9.7674820519
 30
0.0
 10
9.3373688981
 20
9.7668436763
 30
0.0
 10
9.3351499982
 20
9.7662163575
 30
0.0
 10
9.3321893687
 20
9.7653872876
 30
0.0
 10
9.3284832926
 20
9.7643698586
 30
0.0
 10
9.3240251329
 20
9.7631891578
 30
0.0
 10
9.3180660959
 20
9.761672064
 30
0.0
 10
9.3105913663
 20
9.7598790895
 30
0.0
 10
9.3015852809
 20
9.7578859633
 30
0.0
 10
9.2925454967
 20
9.7560517612
 30
0.0
 10
9.2834742812
 20
9.7543798224
 30
0.0
 10
9.2713416811
 20
9.7523677454
 30
0.0
 10
9.2561114029
 20
9.7502591975
 30
0.0
 10
9.2377568008
 20
9.7483825128
 30
0.0
 10
9.2132132485
 20
9.7467560334
 30
0.0
 10
9.18244733
 20
9.7463682606
 30
0.0
 10
9.1455937566
 20
9.7485382005
 30
0.0
 10
9.1089885198
 20
9.7533329165
 30
0.0
 10
9.0728174614
 20
9.760728593
 30
0.0
 10
9.0254388535
 20
9.7739952329
 30
0.0
 10
8.9681689215
 20
9.796881053
 30
0.0
 10
8.9040820458
 20
9.8338307555
 30
0.0
 10
8.8459332002
 20
9.8795425166
 30
0.0
 10
8.8118477364
 20
9.915226257
 30
0.0
 10
8.7961923427
 20
9.9341695021
 30
0.0
  0
SPLINE
  5
28F
100
AcDbEntity
  8
0
100
AcDbSpline
 62
7
  6
CONTINUOUS
 70
0
 71
3
 72
69
 73
65
 74
0
 42
0.0000001
 43
0.0000001
 44
0.0000000001
 40
0.0
 40
0.0
 40
0.0
 40
0.0
 40
0.0625069941
 40
0.125013991
 40
0.187520984
 40
0.2500279807
 40
0.3125349797
 40
0.3750419762
 40
0.4062960193
 40
0.4375500628
 40
0.4688041059
 40
0.5000581489
 40
0.5313121921
 40
0.5625662354
 40
0.5938202788
 40
0.6094473683
 40
0.6250744577
 40
0.6407015474
 40
0.6563286377
 40
0.6719557272
 40
0.6797692796
 40
0.6875828323
 40
0.6953963868
 40
0.7032099424
 40
0.7110234904
 40
0.7188370451
 40
0.7227438331
 40
0.7266505896
 40
0.7286039638
 40
0.7305573667
 40
0.7325108168
 40
0.7344642567
 40
0.7364175938
 40
0.7383708176
 40
0.7393475478
 40
0.7403245281
 40
0.7413015422
 40
0.7422780942
 40
0.7432543851
 40
0.7442311382
 40
0.7452079698
 40
0.746184655
 40
0.7471613274
 40
0.7481380162
 40
0.7500913987
 40
0.7520447691
 40
0.7539981456
 40
0.7579048993
 40
0.7618116512
 40
0.765718363
 40
0.7696250755
 40
0.7735318071
 40
0.781344959
 40
0.7891580925
 40
0.7969712275
 40
0.8125950214
 40
0.8282188129
 40
0.843842604
 40
0.8594664258
 40
0.8750901266
 40
0.9063178485
 40
0.9375454198
 40
0.9687727153
 40
1.0
 40
1.0
 40
1.0
 40
1.0
 10
11.0851923427
 20
10.4971695021
 30
0.0
 10
11.0360522376
 20
10.4949203013
 30
0.0
 10
10.93771494
 20
10.4915826087
 30
0.0
 10
10.7901351013
 20
10.490059554
 30
0.0
 10
10.642559597
 20
10.4920205151
 30
0.0
 10
10.4950716703
 20
10.4974660849
 30
0.0
 10
10.3477537954
 20
10.5063923006
 30
0.0
 10
10.2251969985
 20
10.5167272591
 30
0.0
 10
10.1273209155
 20
10.5267295032
 30
0.0
 10
10.0540064948
 20
10.5350973706
 30
0.0
 10
9.9807960771
 20
10.5443301784
 30
0.0
 10
9.9076997503
 20
10.5544267418
 30
0.0
 10
9.834727702
 20
10.565385514
 30
0.0
 10
9.761890162
 20
10.5772049826
 30
0.0
 10
9.701312518
 20
10.5877705333
 30
0.0
 10
9.6529280811
 20
10.5966515904
 30
0.0
 10
9.6166795785
 20
10.6035265085
 30
0.0
 10
9.5804722988
 20
10.6106152695
 30
0.0
 10
9.5443074925
 20
10.6179176107
 30
0.0
 10
9.5142065772
 20
10.6241807066
 30
0.0
 10
9.4901483994
 20
10.6292978087
 30
0.0
 10
9.4721161518
 20
10.6331888603
 30
0.0
 10
9.4540954527
 20
10.6371330548
 30
0.0
 10
9.4360864283
 20
10.6411302033
 30
0.0
 10
9.4180894056
 20
10.6451810502
 30
0.0
 10
9.4031019875
 20
10.6486013484
 30
0.0
 10
9.3911176538
 20
10.6513619074
 30
0.0
 10
9.3836305716
 20
10.6531007191
 30
0.0
 10
9.3776426225
 20
10.6544991194
 30
0.0
 10
9.3731519458
 20
10.6555494045
 30
0.0
 10
9.3686609524
 20
10.6565985662
 30
0.0
 10
9.3641709003
 20
10.6576515124
 30
0.0
 10
9.3596832243
 20
10.6587138424
 30
0.0
 10
9.3559479572
 20
10.6596175663
 30
0.0
 10
9.3529565383
 20
10.660328292
 30
0.0
 10
9.3507078002
 20
10.6608409603
 30
0.0
 10
9.3484580737
 20
10.6613484168
 30
0.0
 10
9.346216272
 20
10.6618887419
 30
0.0
 10
9.3439944294
 20
10.6625061072
 30
0.0
 10
9.3417913268
 20
10.6631865872
 30
0.0
 10
9.3395848245
 20
10.6638569524
 30
0.0
 10
9.3373688981
 20
10.664495328
 30
0.0
 10
9.3351499982
 20
10.6651226468
 30
0.0
 10
9.3321893687
 20
10.6659517166
 30
0.0
 10
9.3284832926
 20
10.6669691457
 30
0.0
 10
9.3240251329
 20
10.6681498465
 30
0.0
 10
9.3180660959
 20
10.6696669403
 30
0.0
 10
9.3105913663
 20
10.6714599148
 30
0.0
 10
9.3015852809
 20
10.673453041
 30
0.0
 10
9.2925454967
 20
10.6752872431
 30
0.0
 10
9.2834742812
 20
10.6769591818
 30
0.0
 10
9.2713416811
 20
10.6789712588
 30
0.0
 10
9.2561114029
 20
10.6810798068
 30
0.0
 10
9.2377568008
 20
10.6829564915
 30
0.0
 10
9.2132132485
 20
10.6845829708
 30
0.0
 10
9.18244733
 20
10.6849707437
 30
0.0
 10
9.1455937566
 20
10.6828008038
 30
0.0
 10
9.1089885198
 20
10.6780060878
 30
0.0
 10
9.0728174614
 20
10.6706104113
 30
0.0
 10
9.0254388535
 20
10.6573437714
 30
0.0
 10
8.9681689215
 20
10.6344579512
 30
0.0
 10
8.9040820458
 20
10.5975082487
 30
0.0
 10
8.8459332002
 20
10.5517964877
 30
0.0
 10
8.8118477364
 20
10.5161127473
 30
0.0
 10
8.7961923427
 20
10.4971695021
 30
0.0
  0
SPLINE
  5
290
100
AcDbEntity
  8
0
100
AcDbSpline
 62
7
  6
CONTINUOUS
 70
0
 71
3
 72
10
 73
6
 74
0
 42
0.0000001
 43
0.0000001
 44
0.0000000001
 40
0.0
 40
0.0
 40
0.0
 40
0.0
 40
0.3127982604
 40
0.5911318047
 40
1.0
 40
1.0
 40
1.0
 40
1.0
 10
12.4951923427
 20
10.1506695021
 30
0.0
 10
12.4968175949
 20
10.1376049752
 30
0.0
 10
12.500790978
 20
10.113018344
 30
0.0
 10
12.5101612782
 20
10.0719671426
 30
0.0
 10
12.5185262268
 20
10.0442422223
 30
0.0
 10
12.5240717611
 20
10.0279515619
 30
0.0
  0
LINE
  5
291
100
AcDbEntity
  8
0
100
AcDbLine
 62
7
  6
CONTINUOUS
 10
12.5286495002
 20
10.0149032375
 11
12.5301923427
 21
10.0106695021
  0
SPLINE
  5
292
100
AcDbEntity
  8
0
100
AcDbSpline
 62
7
  6
CONTINUOUS
 70
0
 71
3
 72
22
 73
18
 74
0
 42
0.0000001
 43
0.0000001
 44
0.0000000001
 40
0.0
 40
0.0
 40
0.0
 40
0.0
 40
0.0047011296
 40
0.0187140692
 40
0.0418998558
 40
0.0740182506
 40
0.1147103672
 40
0.1636038406
 40
0.2202600353
 40
0.2842137495
 40
0.3549926917
 40
0.4320983014
 40
0.5150380495
 40
0.6033295866
 40
0.6965025973
 40
0.7940898072
 40
1.0
 40
1.0
 40
1.0
 40
1.0
 10
11.4151923427
 20
10.0106695021
 30
0.0
 10
11.4151141293
 20
10.0104567998
 30
0.0
 10
11.415806225
 20
10.0123349605
 30
0.0
 10
11.4161327376
 20
10.0132420817
 30
0.0
 10
11.4174747607
 20
10.0169442713
 30
0.0
 10
11.4189355231
 20
10.0210605323
 30
0.0
 10
11.4208945728
 20
10.026696126
 30
0.0
 10
11.4231391033
 20
10.0333422253
 30
0.0
 10
11.425676207
 20
10.0411221287
 30
0.0
 10
11.4284254131
 20
10.0499255925
 30
0.0
 10
11.4313328113
 20
10.0597166622
 30
0.0
 10
11.4343278584
 20
10.0704335053
 30
0.0
 10
11.4373433133
 20
10.0820198973
 30
0.0
 10
11.4403094951
 20
10.0944169192
 30
0.0
 10
11.4431561129
 20
10.1075658355
 30
0.0
 10
11.446758743
 20
10.1263467418
 30
0.0
 10
11.4489669401
 20
10.14081915
 30
0.0
 10
11.4501923427
 20
10.1506695021
 30
0.0
  0
SPLINE
  5
293
100
AcDbEntity
  8
0
100
AcDbSpline
 62
7
  6
CONTINUOUS
 70
0
 71
3
 72
35
 73
31
 74
0
 42
0.0000001
 43
0.0000001
 44
0.0000000001
 40
0.0
 40
0.0
 40
0.0
 40
0.0
 40
0.2058979977
 40
0.303471926
 40
0.3966389076
 40
0.4849312242
 40
0.5678742905
 40
0.6449838505
 40
0.7157662945
 40
0.7797235028
 40
0.8363839339
 40
0.8618320964
 40
0.8852805544
 40
0.9066771808
 40
0.9259761069
 40
0.9431315377
 40
0.9580975137
 40
0.9708279489
 40
0.981284318
 40
0.9856533532
 40
0.9894467794
 40
0.9926624636
 40
0.9952982711
 40
0.9973520661
 40
0.9981600412
 40
0.9988217116
 40
0.9993368102
 40
0.9997050694
 40
0.9999262219
 40
1.0
 40
1.0
 40
1.0
 40
1.0
 10
11.4501923427
 20
10.2806695021
 30
0.0
 10
11.4489670123
 20
10.2905192738
 30
0.0
 10
11.4467593651
 20
10.3049905299
 30
0.0
 10
11.4431566781
 20
10.3237698909
 30
0.0
 10
11.4403102353
 20
10.3369179227
 30
0.0
 10
11.4373442674
 20
10.3493149355
 30
0.0
 10
11.4343289439
 20
10.3609016566
 30
0.0
 10
11.431333642
 20
10.3716193432
 30
0.0
 10
11.4284265954
 20
10.3814098438
 30
0.0
 10
11.4256760091
 20
10.3902173949
 30
0.0
 10
11.4234931601
 20
10.3969120579
 30
0.0
 10
11.4218756634
 20
10.4017367296
 30
0.0
 10
11.4207834442
 20
10.4049445109
 30
0.0
 10
11.4197743411
 20
10.4078674117
 30
0.0
 10
11.4188536531
 20
10.4104998739
 30
0.0
 10
11.4180267369
 20
10.4128366979
 30
0.0
 10
11.4172988831
 20
10.4148726758
 30
0.0
 10
11.4166752908
 20
10.4166029615
 30
0.0
 10
11.4162228295
 20
10.4178519109
 30
0.0
 10
11.4159159717
 20
10.4186953827
 30
0.0
 10
11.4157280191
 20
10.4192106791
 30
0.0
 10
11.4155683139
 20
10.4196473438
 30
0.0
 10
11.4154371639
 20
10.4200051479
 30
0.0
 10
11.4153456428
 20
10.42025388
 30
0.0
 10
11.415287064
 20
10.4204132896
 30
0.0
 10
11.4152536843
 20
10.4205030065
 30
0.0
 10
11.4152285868
 20
10.4205730068
 30
0.0
 10
11.4152085284
 20
10.4206226509
 30
0.0
 10
11.415200227
 20
10.4206531536
 30
0.0
 10
11.4151923888
 20
10.4206659458
 30
0.0
 10
11.4151923427
 20
10.4206695021
 30
0.0
  0
LINE
  5
294
100
AcDbEntity
  8
0
100
AcDbLine
 62
7
  6
CONTINUOUS
 10
12.5301923427
 20
10.4206695021
 11
12.5286731485
 21
10.4165012367
  0
SPLINE
  5
295
100
AcDbEntity
  8
0
100
AcDbSpline
 62
7
  6
CONTINUOUS
 70
0
 71
3
 72
10
 73
6
 74
0
 42
0.0000001
 43
0.0000001
 44
0.0000000001
 40
0.0
 40
0.0
 40
0.0
 40
0.0
 40
0.4080307317
 40
0.6866330582
 40
1.0
 40
1.0
 40
1.0
 40
1.0
 10
12.5241817247
 20
10.40371015
 30
0.0
 10
12.5186250502
 20
10.3874115576
 30
0.0
 10
12.5102310989
 20
10.3596388876
 30
0.0
 10
12.5008188544
 20
10.3184805702
 30
0.0
 10
12.4968249439
 20
10.2937931042
 30
0.0
 10
12.4951923427
 20
10.2806695021
 30
0.0
  0
LINE
  5
296
100
AcDbEntity
  8
0
100
AcDbLine
 62
7
  6
CONTINUOUS
 10
11.7641923427
 20
10.7025558124
 11
11.7671778356
 21
10.7029829719
  0
LINE
  5
297
100
AcDbEntity
  8
0
100
AcDbLine
 62
7
  6
CONTINUOUS
 10
11.8081923427
 20
10.7079143047
 11
11.8141923427
 21
10.7085153867
  0
LINE
  5
298
100
AcDbEntity
  8
0
100
AcDbLine
 62
7
  6
CONTINUOUS
 10
11.8926923517
 20
10.7146045081
 11
11.9015144761
 21
10.7144545644
  0
LINE
  5
299
100
AcDbEntity
  8
0
100
AcDbLine
 62
7
  6
CONTINUOUS
 10
11.9015144761
 20
10.7144545644
 11
11.922487513
 21
10.7143379313
  0
LINE
  5
29A
100
AcDbEntity
  8
0
100
AcDbLine
 62
7
  6
CONTINUOUS
 10
11.922487513
 20
10.7143379313
 11
11.9323682256
 21
10.7143353173
  0
LINE
  5
29B
100
AcDbEntity
  8
0
100
AcDbLine
 62
7
  6
CONTINUOUS
 10
11.9323682256
 20
10.7143353173
 11
11.9686626707
 21
10.7143620621
  0
LINE
  5
29C
100
AcDbEntity
  8
0
100
AcDbLine
 62
7
  6
CONTINUOUS
 10
11.9686626707
 20
10.7143620621
 11
11.9812116526
 21
10.7143775236
  0
LINE
  5
29D
100
AcDbEntity
  8
0
100
AcDbLine
 62
7
  6
CONTINUOUS
 10
11.9812116526
 20
10.7143775236
 11
12.0049865955
 21
10.7144131794
  0
LINE
  5
29E
100
AcDbEntity
  8
0
100
AcDbLine
 62
7
  6
CONTINUOUS
 10
12.0049865955
 20
10.7144131794
 11
12.0142661539
 21
10.7144313424
  0
LINE
  5
29F
100
AcDbEntity
  8
0
100
AcDbLine
 62
7
  6
CONTINUOUS
 10
12.0372586599
 20
10.7145585429
 11
12.0496923427
 21
10.7147565721
  0
SPLINE
  5
2A0
100
AcDbEntity
  8
0
100
AcDbSpline
 62
7
  6
CONTINUOUS
 70
0
 71
3
 72
19
 73
15
 74
0
 42
0.0000001
 43
0.0000001
 44
0.0000000001
 40
0.0
 40
0.0
 40
0.0
 40
0.0
 40
0.1267460198
 40
0.1896738164
 40
0.2522699384
 40
0.3764892899
 40
0.4383007487
 40
0.4999998535
 40
0.561698966
 40
0.6235104229
 40
0.7477297982
 40
0.8103259352
 40
0.873253761
 40
1.0
 40
1.0
 40
1.0
 40
1.0
 10
12.6291910413
 20
8.5056147208
 30
0.0
 10
12.6037502597
 20
8.5202606441
 30
0.0
 10
12.5648190047
 20
8.5407743076
 30
0.0
 10
12.5111795784
 20
8.5640107584
 30
0.0
 10
12.4568363153
 20
8.5838857831
 30
0.0
 10
12.4008105506
 20
8.5982467471
 30
0.0
 10
12.3438518834
 20
8.605620529
 30
0.0
 10
12.3009419766
 20
8.6075048727
 30
0.0
 10
12.258032072
 20
8.6056204839
 30
0.0
 10
12.2010734092
 20
8.5982465862
 30
0.0
 10
12.1450476828
 20
8.5838855059
 30
0.0
 10
12.0907043182
 20
8.5640107119
 30
0.0
 10
12.037064991
 20
8.5407738102
 30
0.0
 10
11.9981342936
 20
8.520259
 30
0.0
 10
11.9726934714
 20
8.5056130456
 30
0.0
  0
LINE
  5
2A1
100
AcDbEntity
  8
0
100
AcDbLine
 62
7
  6
CONTINUOUS
 10
12.0139923427
 20
10.7161194209
 11
12.0098986626
 21
10.7159259401
  0
SPLINE
  5
2A2
100
AcDbEntity
  8
0
100
AcDbSpline
 62
7
  6
CONTINUOUS
 70
0
 71
3
 72
18
 73
14
 74
0
 42
0.0000001
 43
0.0000001
 44
0.0000000001
 40
0.0
 40
0.0
 40
0.0
 40
0.0
 40
0.0958965358
 40
0.2497919936
 40
0.4410883741
 40
0.6401262578
 40
0.8115339244
 40
0.878741015
 40
0.9292351195
 40
0.9635205792
 40
0.9845104596
 40
0.9956514545
 40
1.0
 40
1.0
 40
1.0
 40
1.0
 10
12.0098986626
 20
10.7159259401
 30
0.0
 10
12.0073146134
 20
10.7158402929
 30
0.0
 10
12.000580978
 20
10.7157042837
 30
0.0
 10
11.9886895807
 20
10.7155727681
 30
0.0
 10
11.9740167876
 20
10.7154710914
 30
0.0
 10
11.9588715387
 20
10.7154974012
 30
0.0
 10
11.9470722058
 20
10.7155810685
 30
0.0
 10
11.9392781365
 20
10.7156800265
 30
0.0
 10
11.9351811998
 20
10.7157636918
 30
0.0
 10
11.9323309045
 20
10.715852869
 30
0.0
 10
11.9305419571
 20
10.7159341274
 30
0.0
 10
11.9295605332
 20
10.7159983111
 30
0.0
 10
11.9291443979
 20
10.7160348384
 30
0.0
 10
11.9290280108
 20
10.716048965
 30
0.0
  0
SPLINE
  5
2A3
100
AcDbEntity
  8
0
100
AcDbSpline
 62
7
  6
CONTINUOUS
 70
0
 71
3
 72
23
 73
19
 74
0
 42
0.0000001
 43
0.0000001
 44
0.0000000001
 40
0.0
 40
0.0
 40
0.0
 40
0.0
 40
0.0017474796
 40
0.0053714027
 40
0.0110614012
 40
0.0188487938
 40
0.0287379672
 40
0.0407252246
 40
0.0709641902
 40
0.1094651695
 40
0.1560120854
 40
0.2103629544
 40
0.272274046
 40
0.3414793478
 40
0.4176573013
 40
0.5896080823
 40
0.7851065757
 40
1.0
 40
1.0
 40
1.0
 40
1.0
 10
12.1651923427
 20
10.7033831068
 30
0.0
 10
12.1651923427
 20
10.703372144
 30
0.0
 10
12.1652237078
 20
10.7033471175
 30
0.0
 10
12.1652828161
 20
10.7033196138
 30
0.0
 10
12.1653855994
 20
10.7032816167
 30
0.0
 10
12.1655249775
 20
10.7032391882
 30
0.0
 10
12.1657048276
 20
10.7031899566
 30
0.0
 10
12.1660218346
 20
10.7031105562
 30
0.0
 10
12.1665159325
 20
10.702998698
 30
0.0
 10
12.1672238099
 20
10.7028505136
 30
0.0
 10
12.1680817265
 20
10.7026807468
 30
0.0
 10
12.169085203
 20
10.7024903142
 30
0.0
 10
12.170229611
 20
10.7022801801
 30
0.0
 10
12.1715097835
 20
10.7020513197
 30
0.0
 10
12.1734708416
 20
10.7017084502
 30
0.0
 10
12.1762146887
 20
10.7012425472
 30
0.0
 10
12.179819284
 20
10.7006476984
 30
0.0
 10
12.1823610666
 20
10.7002378807
 30
0.0
 10
12.1836923427
 20
10.7000253217
 30
0.0
  0
SPLINE
  5
2A4
100
AcDbEntity
  8
0
100
AcDbSpline
 62
7
  6
CONTINUOUS
 70
0
 71
3
 72
22
 73
18
 74
0
 42
0.0000001
 43
0.0000001
 44
0.0000000001
 40
0.0
 40
0.0
 40
0.0
 40
0.0
 40
0.2162051898
 40
0.4128373993
 40
0.585612378
 40
0.6618891305
 40
0.7310301107
 40
0.792766605
 40
0.8468304562
 40
0.8929554529
 40
0.9309363341
 40
0.9606641376
 40
0.9820476154
 40
0.9895910834
 40
0.9950371919
 40
0.9984228492
 40
1.0
 40
1.0
 40
1.0
 40
1.0
 10
12.1106923427
 20
10.7083070073
 30
0.0
 10
12.1120254569
 20
10.7082170542
 30
0.0
 10
12.1145712734
 20
10.7080493122
 30
0.0
 10
12.1181834101
 20
10.7078251404
 30
0.0
 10
12.1209332411
 20
10.7076676131
 30
0.0
 10
12.1228970067
 20
10.7075652734
 30
0.0
 10
12.1241757438
 20
10.7075037339
 30
0.0
 10
12.1253176092
 20
10.7074543326
 30
0.0
 10
12.126317649
 20
10.7074172529
 30
0.0
 10
12.127171127
 20
10.707392578
 30
0.0
 10
12.1278747189
 20
10.7073804467
 30
0.0
 10
12.1284248686
 20
10.7073801552
 30
0.0
 10
12.1287882907
 20
10.7073908032
 30
0.0
 10
12.1289988888
 20
10.7074062444
 30
0.0
 10
12.1291013276
 20
10.7074218345
 30
0.0
 10
12.1291600544
 20
10.707433537
 30
0.0
 10
12.1291923427
 20
10.7074539947
 30
0.0
 10
12.1291923427
 20
10.7074637414
 30
0.0
  0
LINE
  5
2A5
100
AcDbEntity
  8
0
100
AcDbLine
 62
7
  6
CONTINUOUS
 10
12.1291923427
 20
10.7084690808
 11
12.1247925648
 21
10.7084821919
  0
LINE
  5
2A6
100
AcDbEntity
  8
0
100
AcDbLine
 62
7
  6
CONTINUOUS
 10
12.1247925648
 20
10.7084821919
 11
12.1106923427
 21
10.7093117766
  0
SPLINE
  5
2A7
100
AcDbEntity
  8
0
100
AcDbSpline
 62
7
  6
CONTINUOUS
 70
0
 71
3
 72
18
 73
14
 74
0
 42
0.0000001
 43
0.0000001
 44
0.0000000001
 40
0.0
 40
0.0
 40
0.0
 40
0.0
 40
0.2174237009
 40
0.4108961635
 40
0.579032246
 40
0.7204498156
 40
0.8338870685
 40
0.8798733651
 40
0.9186081483
 40
0.9500239282
 40
0.9740627644
 40
0.9906936408
 40
1.0
 40
1.0
 40
1.0
 40
1.0
 10
12.1742759356
 20
10.7025817965
 30
0.0
 10
12.1736146922
 20
10.7026944191
 30
0.0
 10
12.1723654108
 20
10.7029094068
 30
0.0
 10
12.170606304
 20
10.7032202286
 30
0.0
 10
12.1690796621
 20
10.7034989959
 30
0.0
 10
12.1677978198
 20
10.7037435035
 30
0.0
 10
12.166888094
 20
10.7039276986
 30
0.0
 10
12.1662908619
 20
10.7040580776
 30
0.0
 10
12.165941714
 20
10.7041390003
 30
0.0
 10
12.1656602374
 20
10.704210177
 30
0.0
 10
12.1654453819
 20
10.7042702251
 30
0.0
 10
12.1653010161
 20
10.7043208113
 30
0.0
 10
12.1652255139
 20
10.7043528935
 30
0.0
 10
12.1652040704
 20
10.7043719849
 30
0.0
  0
LINE
  5
2A8
100
AcDbEntity
  8
0
100
AcDbLine
 62
7
  6
CONTINUOUS
 10
11.7241923427
 20
10.6961517649
 11
11.7197129721
 21
10.6950050471
  0
LINE
  5
2A9
100
AcDbEntity
  8
0
100
AcDbLine
 62
7
  6
CONTINUOUS
 10
11.7197129721
 20
10.6950050471
 11
11.7076923427
 21
10.6926401317
  0
LINE
  5
2AA
100
AcDbEntity
  8
0
100
AcDbLine
 62
7
  6
CONTINUOUS
 10
11.7806923427
 20
10.703527563
 11
11.7720533118
 21
10.7026157302
  0
SPLINE
  5
2AB
100
AcDbEntity
  8
0
100
AcDbSpline
 62
7
  6
CONTINUOUS
 70
0
 71
3
 72
18
 73
14
 74
0
 42
0.0000001
 43
0.0000001
 44
0.0000000001
 40
0.0
 40
0.0
 40
0.0
 40
0.0
 40
0.2237219034
 40
0.422574475
 40
0.5946285812
 40
0.7379600652
 40
0.8508473602
 40
0.8955722183
 40
0.9323675781
 40
0.9611569093
 40
0.9818888383
 40
0.9946024964
 40
1.0
 40
1.0
 40
1.0
 40
1.0
 10
11.7720533118
 20
10.7026157302
 30
0.0
 10
11.7714672678
 20
10.7025585738
 30
0.0
 10
11.7703600798
 20
10.7024530635
 30
0.0
 10
11.7688012952
 20
10.7023134303
 30
0.0
 10
11.7674523404
 20
10.7022024676
 30
0.0
 10
11.7663281848
 20
10.7021212514
 30
0.0
 10
11.7655370588
 20
10.7020759579
 30
0.0
 10
11.7650261712
 20
10.7020569093
 30
0.0
 10
11.7647348994
 20
10.702052113
 30
0.0
 10
11.7645102031
 20
10.7020530657
 30
0.0
 10
11.7643407949
 20
10.7020650789
 30
0.0
 10
11.7642500425
 20
10.702074895
 30
0.0
 10
11.7641923427
 20
10.7020991939
 30
0.0
 10
11.7641923427
 20
10.7021133999
 30
0.0
  0
LINE
  5
2AC
100
AcDbEntity
  8
0
100
AcDbLine
 62
7
  6
CONTINUOUS
 10
11.8141923427
 20
10.708074684
 11
11.8096798799
 21
10.7071933767
  0
LINE
  5
2AD
100
AcDbEntity
  8
0
100
AcDbLine
 62
7
  6
CONTINUOUS
 10
11.8096798799
 20
10.7071933767
 11
11.7976923427
 21
10.7055551277
  0
LINE
  5
2AE
100
AcDbEntity
  8
0
100
AcDbLine
 62
7
  6
CONTINUOUS
 10
11.8706923427
 20
10.7121083622
 11
11.8620409861
 21
10.7117041505
  0
SPLINE
  5
2AF
100
AcDbEntity
  8
0
100
AcDbSpline
 62
7
  6
CONTINUOUS
 70
0
 71
3
 72
18
 73
14
 74
0
 42
0.0000001
 43
0.0000001
 44
0.0000000001
 40
0.0
 40
0.0
 40
0.0
 40
0.0
 40
0.2236414184
 40
0.4223278409
 40
0.5941937738
 40
0.7373786109
 40
0.8502228185
 40
0.8949741789
 40
0.9318296881
 40
0.9607138642
 40
0.9815758327
 40
0.9944521535
 40
1.0
 40
1.0
 40
1.0
 40
1.0
 10
11.8620409861
 20
10.7117041505
 30
0.0
 10
11.8614549639
 20
10.7116814734
 30
0.0
 10
11.8603482081
 20
10.7116411214
 30
0.0
 10
11.858790779
 20
10.7115932432
 30
0.0
 10
11.8574439015
 20
10.7115616649
 30
0.0
 10
11.856322025
 20
10.711546561
 30
0.0
 10
11.8555329398
 20
10.7115476409
 30
0.0
 10
11.8550235523
 20
10.7115585088
 30
0.0
 10
11.8547331152
 20
10.7115705864
 30
0.0
 10
11.8545088581
 20
10.7115848812
 30
0.0
 10
11.8543401737
 20
10.7116060583
 30
0.0
 10
11.8542491263
 20
10.7116222359
 30
0.0
 10
11.8541923427
 20
10.7116484679
 30
0.0
 10
11.8541923427
 20
10.7116630162
 30
0.0
  0
SPLINE
  5
2B0
100
AcDbEntity
  8
0
100
AcDbSpline
 62
7
  6
CONTINUOUS
 70
0
 71
3
 72
19
 73
15
 74
0
 42
0.0000001
 43
0.0000001
 44
0.0000000001
 40
0.0
 40
0.0
 40
0.0
 40
0.0
 40
0.126746239
 40
0.1896740649
 40
0.252270202
 40
0.3764895774
 40
0.4383010342
 40
0.5000001465
 40
0.5616992514
 40
0.6235107102
 40
0.7477300616
 40
0.8103261835
 40
0.8732539801
 40
1.0
 40
1.0
 40
1.0
 40
1.0
 10
11.9726912141
 20
8.5056130456
 30
0.0
 10
11.9472503919
 20
8.520259
 30
0.0
 10
11.9083196945
 20
8.5407738102
 30
0.0
 10
11.8546803673
 20
8.5640107119
 30
0.0
 10
11.8003370027
 20
8.583885506
 30
0.0
 10
11.7443112762
 20
8.5982465861
 30
0.0
 10
11.6873526135
 20
8.6056204839
 30
0.0
 10
11.6444427089
 20
8.6075048727
 30
0.0
 10
11.6015328022
 20
8.605620529
 30
0.0
 10
11.544574135
 20
8.5982467472
 30
0.0
 10
11.4885483704
 20
8.5838857831
 30
0.0
 10
11.4342051073
 20
8.5640107585
 30
0.0
 10
11.380565681
 20
8.5407743078
 30
0.0
 10
11.341634426
 20
8.5202606442
 30
0.0
 10
11.3161936444
 20
8.5056147209
 30
0.0
  0
SPLINE
  5
2B1
100
AcDbEntity
  8
0
100
AcDbSpline
 62
7
  6
CONTINUOUS
 70
0
 71
3
 72
23
 73
19
 74
0
 42
0.0000001
 43
0.0000001
 44
0.0000000001
 40
0.0
 40
0.0
 40
0.0
 40
0.0
 40
0.2070239495
 40
0.3991839148
 40
0.5710038036
 40
0.6479615294
 40
0.7183270852
 40
0.7816440308
 40
0.8375285845
 40
0.8856270255
 40
0.9255878214
 40
0.957091877
 40
0.9696191368
 40
0.9799800852
 40
0.9881668876
 40
0.9941813162
 40
0.9980565498
 40
1.0
 40
1.0
 40
1.0
 40
1.0
 10
11.7076923427
 20
10.6916243813
 30
0.0
 10
11.7088380538
 20
10.6918384604
 30
0.0
 10
11.7110463992
 20
10.6922556385
 30
0.0
 10
11.7142025386
 20
10.6928667027
 30
0.0
 10
11.7166371104
 20
10.6933520961
 30
0.0
 10
11.7183971944
 20
10.6937133422
 30
0.0
 10
11.7195578349
 20
10.6939568191
 30
0.0
 10
11.7206011893
 20
10.6941814708
 30
0.0
 10
11.7215206467
 20
10.6943858495
 30
0.0
 10
11.722310215
 20
10.6945685435
 30
0.0
 10
11.7229641244
 20
10.6947282017
 30
0.0
 10
11.7234215602
 20
10.6948485847
 30
0.0
 10
11.7237155786
 20
10.6949338083
 30
0.0
 10
11.7238827011
 20
10.6949865273
 30
0.0
 10
11.7240125995
 20
10.6950319294
 30
0.0
 10
11.7241080699
 20
10.6950721175
 30
0.0
 10
11.724164103
 20
10.6951016039
 30
0.0
 10
11.7241923427
 20
10.6951274056
 30
0.0
 10
11.7241923427
 20
10.6951383472
 30
0.0
  0
LINE
  5
2B2
100
AcDbEntity
  8
0
100
AcDbLine
 62
7
  6
CONTINUOUS
 10
11.8541923427
 20
10.710659775
 11
11.856252537
 21
10.7105453216
  0
LINE
  5
2B3
100
AcDbEntity
  8
0
100
AcDbLine
 62
7
  6
CONTINUOUS
 10
11.856252537
 20
10.7105453216
 11
11.8706923427
 21
10.7111054042
  0
SPLINE
  5
2B4
100
AcDbEntity
  8
0
100
AcDbSpline
 62
7
  6
CONTINUOUS
 70
0
 71
3
 72
22
 73
18
 74
0
 42
0.0000001
 43
0.0000001
 44
0.0000000001
 40
0.0
 40
0.0
 40
0.0
 40
0.0
 40
0.2081179209
 40
0.4010174118
 40
0.5731235635
 40
0.6500595205
 40
0.7203130945
 40
0.7834397602
 40
0.8390705036
 40
0.8868781513
 40
0.9265380945
 40
0.9577503027
 40
0.9803631293
 40
0.9884259492
 40
0.9943290092
 40
0.9981108746
 40
1.0
 40
1.0
 40
1.0
 40
1.0
 10
11.7976923427
 20
10.7045479038
 30
0.0
 10
11.7988425043
 20
10.7046937287
 30
0.0
 10
11.801058153
 20
10.704979243
 30
0.0
 10
11.8042227718
 20
10.7054019801
 30
0.0
 10
11.8066611683
 20
10.7057417791
 30
0.0
 10
11.8084214152
 20
10.705997427
 30
0.0
 10
11.8095801137
 20
10.7061709619
 30
0.0
 10
11.8106205712
 20
10.7063325493
 30
0.0
 10
11.8115365065
 20
10.7064811712
 30
0.0
 10
11.8123221797
 20
10.7066158151
 30
0.0
 10
11.8129725559
 20
10.7067354905
 30
0.0
 10
11.8134825918
 20
10.706839148
 30
0.0
 10
11.813819038
 20
10.7069181935
 30
0.0
 10
11.8140139779
 20
10.7069743532
 30
0.0
 10
11.8141086055
 20
10.7070086741
 30
0.0
 10
11.8141642679
 20
10.7070341035
 30
0.0
 10
11.8141923427
 20
10.707058583
 30
0.0
 10
11.8141923427
 20
10.7070691068
 30
0.0
  0
SPLINE
  5
2B5
100
AcDbEntity
  8
0
100
AcDbSpline
 62
7
  6
CONTINUOUS
 70
0
 71
3
 72
22
 73
18
 74
0
 42
0.0000001
 43
0.0000001
 44
0.0000000001
 40
0.0
 40
0.0
 40
0.0
 40
0.0
 40
0.00169766
 40
0.0052168348
 40
0.0108639461
 40
0.0186826315
 40
0.0408293977
 40
0.0715730999
 40
0.1107775361
 40
0.1582816377
 40
0.213782499
 40
0.2768918776
 40
0.3472190805
 40
0.4243726912
 40
0.5974458683
 40
0.791259329
 40
1.0
 40
1.0
 40
1.0
 40
1.0
 10
11.7641923427
 20
10.7011039178
 30
0.0
 10
11.7641923427
 20
10.7010945331
 30
0.0
 10
11.7642214934
 20
10.701074106
 30
0.0
 10
11.7642773889
 20
10.7010641627
 30
0.0
 10
11.7643722288
 20
10.7010514278
 30
0.0
 10
11.7645680292
 20
10.7010424539
 30
0.0
 10
11.7649044433
 20
10.7010431475
 30
0.0
 10
11.7654129368
 20
10.701061045
 30
0.0
 10
11.7660614303
 20
10.7010959398
 30
0.0
 10
11.7668457766
 20
10.7011484848
 30
0.0
 10
11.7677614266
 20
10.7012182845
 30
0.0
 10
11.7688022762
 20
10.701304928
 30
0.0
 10
11.7699618654
 20
10.7014078858
 30
0.0
 10
11.7717262208
 20
10.7015726292
 30
0.0
 10
11.7741688706
 20
10.701815358
 30
0.0
 10
11.7773335393
 20
10.7021478261
 30
0.0
 10
11.7795455792
 20
10.7023906905
 30
0.0
 10
11.7806923427
 20
10.70251901
 30
0.0
  0
ENDSEC
  0
SECTION
  2
OBJECTS
  0
DICTIONARY
  5
C
100
AcDbDictionary
280
0
281
1
  3
ACAD_GROUP
350
D
  3
ACAD_MLINESTYLE
350
17
  3
ACAD_LAYOUT
350
1A
  3
ACAD_PLOTSETTINGS
350
19
  3
ACAD_PLOTSTYLENAME
350
E
  0
DICTIONARY
  5
D
102
{ACAD_REACTORS
330
C
102
}
100
AcDbDictionary
280
0
281
1
  0
ACDBDICTIONARYWDFLT
  5
E
102
{ACAD_REACTORS
330
C
102
}
100
AcDbDictionary
281
1
  3
Normal
350
F
100
AcDbDictionaryWithDefault
340
F
  0
DICTIONARY
  5
17
102
{ACAD_REACTORS
330
C
102
}
100
AcDbDictionary
280
0
281
1
  3
Standard
350
18
  0
DICTIONARY
  5
19
102
{ACAD_REACTORS
330
C
102
}
100
AcDbDictionary
281
1
  0
DICTIONARY
  5
1A
102
{ACAD_REACTORS
330
C
102
}
100
AcDbDictionary
281
1
  3
Model
350
2B6
  3
Layout1
350
2B7
  0
ACDBPLACEHOLDER
  5
F
102
{ACAD_REACTORS
330
E
102
}
  0
MLINESTYLE
  5
18
102
{ACAD_REACTORS
330
17
102
}
100
AcDbMlineStyle
  2
STANDARD
 70
0
  3

 62
256
 51
90.0
 52
90.0
 71
2
 49
0.5
 62
256
  6
BYLAYER
 49
-0.5
 62
256
  6
BYLAYER
  0
LAYOUT
  5
2B6
102
{ACAD_REACTORS
330
1A
102
}
100
AcDbPlotSettings
  1

  2
none_device
  4
ANSI_C_(22.00_x_17.00_Inches)
  6

 40
0.0
 41
0.0
 42
0.0
 43
0.0
 44
558.8
 45
431.8
 46
0.0
 47
0.0
 48
0.0
 49
0.0
140
0.0
141
0.0
142
1.0
143
1.0
 70
1024
 72
0
 73
0
 74
0
  7

 75
0
147
1.0
148
0.0
149
0.0
100
AcDbLayout
  1
Model
 70
0
 71
0
 10
0.0
 20
0.0
 11
22.0
 21
17.0
 12
0.0
 22
0.0
 32
0.0
 14
0.0
 24
0.0
 34
0.0
 15
0.0
 25
0.0
 35
0.0
146
0.0
 13
0.0
 23
0.0
 33
0.0
 16
1.0
 26
0.0
 36
0.0
 17
0.0
 27
1.0
 37
0.0
 76
0
330
202
345
0
346
0
  0
LAYOUT
  5
2B7
102
{ACAD_REACTORS
330
1A
102
}
100
AcDbPlotSettings
  1

  2
none_device
  4
ANSI_C_(22.00_x_17.00_Inches)
  6

 40
0.0
 41
0.0
 42
0.0
 43
0.0
 44
558.8
 45
431.8
 46
0.0
 47
0.0
 48
0.0
 49
0.0
140
0.0
141
0.0
142
1.0
143
1.0
 70
0
 72
0
 73
0
 74
0
  7

 75
0
147
1.0
148
0.0
149
0.0
100
AcDbLayout
  1
Layout1
 70
0
 71
1
 10
0.0
 20
0.0
 11
22.0
 21
17.0
 12
0.0
 22
0.0
 32
0.0
 14
0.0
 24
0.0
 34
0.0
 15
0.0
 25
0.0
 35
0.0
146
0.0
 13
0.0
 23
0.0
 33
0.0
 16
1.0
 26
0.0
 36
0.0
 17
0.0
 27
1.0
 37
0.0
 76
0
330
203
345
0
346
0
  0
ENDSEC
  0
EOF
