999
DXF file: E:\BT Custom\CADOUTPUT\_FRONT.dxf
999
Pro/ENGINEER 2018400 by Parametric Technology Corporation
  0
SECTION
  2
HEADER
  9
$ACADVER
  1
AC1018
  9
$DWGCODEPAGE
  3
ANSI_1252
  9
$EXTMAX
 10
22.0
 20
17.0
 30
0.0
  9
$EXTMIN
 10
0.0
 20
0.0
 30
0.0
  9
$LIMMIN
 10
0.0
 20
0.0
  9
$LIMMAX
 10
22.0
 20
17.0
  9
$VIEWCTR
 10
11.0
 20
8.5
  9
$VIEWSIZE
 40
17.0
  9
$CLAYER
  8
0
  9
$LTSCALE
 40
1.21
  9
$CELTYPE
  6
BYLAYER
  9
$DIMSCALE
 40
1.0
  9
$DIMASZ
 40
0.1
  9
$DIMEXO
 40
0.0625
  9
$DIMDLI
 40
0.836
  9
$DIMEXE
 40
0.125
  9
$DIMCEN
 40
0.198
  9
$DIMLFAC
 40
1.0
  9
$DIMBLK
  1
_FILLED
  9
$DIMALT
 70
1
  9
$DIMALTD
 70
2
  9
$DIMALTTD
 70
2
  9
$DIMALTF
 40
25.4
  9
$DIMTXT
 40
0.08
  9
$DIMTOL
 70
1
  9
$DIMLIM
 70
0
  9
$DIMTFAC
 40
1.0
  9
$DIMTP
 40
0.001
  9
$DIMTM
 40
0.001
  9
$DIMGAP
 40
0.09
  9
$DIMDSEP
 70
46
  9
$AUNITS
 70
0
  9
$PDMODE
 70
3
  9
$PDSIZE
 40
0.06
  9
$HANDSEED
  5
399
  9
$TILEMODE
 70
1
  9
$MEASUREMENT
 70
0
  9
$INSUNITS
 70
1
  0
ENDSEC
  0
SECTION
  2
CLASSES
  0
CLASS
  1
ACDBDICTIONARYWDFLT
  2
AcDbDictionaryWithDefault
  3
AutoCAD 2000
 90
0
 91
1
280
0
281
0
  0
CLASS
  1
ACDBPLACEHOLDER
  2
AcDbPlaceHolder
  3
AutoCAD 2000
 90
0
 91
1
280
0
281
0
  0
CLASS
  1
LAYOUT
  2
AcDbLayout
  3
AutoCAD 2000
 90
0
 91
0
280
0
281
0
  0
ENDSEC
  0
SECTION
  2
TABLES
  0
TABLE
  2
VPORT
  5
8
100
AcDbSymbolTable
 70
2
  0
VPORT
  5
1F4
100
AcDbSymbolTableRecord
100
AcDbViewportTableRecord
  2
*ACTIVE
 70
0
 10
0.0
 20
0.0
 11
1.0
 21
1.0
 12
11.0
 22
8.5
 13
0.0
 23
0.0
 14
1.0
 24
1.0
 15
0.0
 25
0.0
 16
0.0
 26
0.0
 36
1.0
 17
0.0
 27
0.0
 37
0.0
 40
17.0
 41
1.2941176471
 42
50.0
 43
0.0
 44
0.0
 50
0.0
 51
0.0
 71
0
 72
100
 73
1
 74
1
 75
0
 76
0
 77
0
 78
0
  0
ENDTAB
  0
TABLE
  2
LTYPE
  5
5
100
AcDbSymbolTable
 70
6
  0
LTYPE
  5
14
100
AcDbSymbolTableRecord
100
AcDbLinetypeTableRecord
  2
BYBLOCK
 70
0
  3

 72
65
 73
0
 40
0.0
  0
LTYPE
  5
15
100
AcDbSymbolTableRecord
100
AcDbLinetypeTableRecord
  2
BYLAYER
 70
0
  3

 72
65
 73
0
 40
0.0
  0
LTYPE
  5
16
100
AcDbSymbolTableRecord
100
AcDbLinetypeTableRecord
  2
CONTINUOUS
 70
64
  3
Solid line
 72
65
 73
0
 40
0.0
  0
LTYPE
  5
1F5
100
AcDbSymbolTableRecord
100
AcDbLinetypeTableRecord
  2
CENTER
 70
64
  3
____ _ ____ _ ____ _ ____ _ ____ _ ____ _ ____
 72
65
 73
4
 40
0.6
 49
0.375
 74
0
 49
-0.075
 74
0
 49
0.075
 74
0
 49
-0.075
 74
0
  0
LTYPE
  5
1F6
100
AcDbSymbolTableRecord
100
AcDbLinetypeTableRecord
  2
HIDDEN
 70
64
  3
- - - - - - - - - - - - - - - - - - - -
 72
65
 73
2
 40
0.2
 49
0.1
 74
0
 49
-0.1
 74
0
  0
LTYPE
  5
1F7
100
AcDbSymbolTableRecord
100
AcDbLinetypeTableRecord
  2
PHANTOM
 70
64
  3
_____ _ _ _____ _ _ _____ _ _ _____
 72
65
 73
6
 40
0.8
 49
0.45
 74
0
 49
-0.05
 74
0
 49
0.1
 74
0
 49
-0.05
 74
0
 49
0.1
 74
0
 49
-0.05
 74
0
  0
LTYPE
  5
1F8
100
AcDbSymbolTableRecord
100
AcDbLinetypeTableRecord
  2
DOT
 70
64
  3
. . . . . . . . . . . . . . . . . . . .
 72
65
 73
2
 40
0.2
 49
0.1
 74
0
 49
-0.1
 74
0
  0
LTYPE
  5
1F9
100
AcDbSymbolTableRecord
100
AcDbLinetypeTableRecord
  2
DASHED
 70
64
  3
- - - - - - - - - - - - - - - - - - - -
 72
65
 73
2
 40
0.2
 49
0.1
 74
0
 49
-0.1
 74
0
  0
ENDTAB
  0
TABLE
  2
LAYER
  5
2
100
AcDbSymbolTable
 70
36
  0
LAYER
  5
10
100
AcDbSymbolTableRecord
100
AcDbLayerTableRecord
  2
0
 70
0
 62
7
  6
CONTINUOUS
370
-3
390
F
  0
LAYER
  5
1FA
100
AcDbSymbolTableRecord
100
AcDbLayerTableRecord
  2
DEFAULT_1
 70
0
 62
7
  6
CENTER
370
-3
390
F
  0
LAYER
  5
1FB
100
AcDbSymbolTableRecord
100
AcDbLayerTableRecord
  2
DEFAULT_2
 70
0
 62
8
  6
HIDDEN
370
-3
390
F
  0
LAYER
  5
1FC
100
AcDbSymbolTableRecord
100
AcDbLayerTableRecord
  2
DEFAULT_3
 70
0
 62
7
  6
PHANTOM
370
-3
390
F
  0
LAYER
  5
1FD
100
AcDbSymbolTableRecord
100
AcDbLayerTableRecord
  2
ALL_FEATURES
 70
0
 62
7
  6
CONTINUOUS
370
-3
390
F
  0
LAYER
  5
1FE
100
AcDbSymbolTableRecord
100
AcDbLayerTableRecord
  2
AXES_FEATURES
 70
0
 62
7
  6
CONTINUOUS
370
-3
390
F
  0
LAYER
  5
1FF
100
AcDbSymbolTableRecord
100
AcDbLayerTableRecord
  2
DIMENSIONS
 70
0
 62
7
  6
CONTINUOUS
370
-3
390
F
  0
ENDTAB
  0
TABLE
  2
STYLE
  5
3
100
AcDbSymbolTable
 70
1
  0
STYLE
  5
11
100
AcDbSymbolTableRecord
100
AcDbTextStyleTableRecord
  2
STANDARD
 70
0
 40
0.0
 41
0.8
 50
0.0
 71
0
 42
0.2
  3
txt
  4

  0
STYLE
  5
200
100
AcDbSymbolTableRecord
100
AcDbTextStyleTableRecord
  2
TEXTSTYLE_1
 70
0
 40
0.0
 41
0.8
 50
0.0
 71
0
 42
0.2
  3
gdt
  4

  0
ENDTAB
  0
TABLE
  2
VIEW
  5
6
100
AcDbSymbolTable
 70
0
  0
ENDTAB
  0
TABLE
  2
UCS
  5
7
100
AcDbSymbolTable
 70
0
  0
ENDTAB
  0
TABLE
  2
APPID
  5
9
100
AcDbSymbolTable
 70
1
  0
APPID
  5
201
100
AcDbSymbolTableRecord
100
AcDbRegAppTableRecord
  2
ACAD
 70
0
  0
ENDTAB
  0
TABLE
  2
BLOCK_RECORD
  5
1
100
AcDbSymbolTable
 70
0
  0
BLOCK_RECORD
  5
202
100
AcDbSymbolTableRecord
100
AcDbBlockTableRecord
  2
*Model_Space
  0
BLOCK_RECORD
  5
203
100
AcDbSymbolTableRecord
100
AcDbBlockTableRecord
  2
*Paper_Space
  0
BLOCK_RECORD
  5
204
100
AcDbSymbolTableRecord
100
AcDbBlockTableRecord
  2
_FILLED
  0
ENDTAB
  0
TABLE
  2
DIMSTYLE
  5
A
100
AcDbSymbolTable
 70
1
100
AcDbDimStyleTable
 71
0
  0
DIMSTYLE
105
205
100
AcDbSymbolTableRecord
100
AcDbDimStyleTableRecord
  2
STANDARD
 70
0
  3

  4

 40
1.0
 41
0.1
 42
0.0625
 43
0.38
 44
0.125
 45
0.0
 46
0.0
 47
0.001
 48
0.001
140
0.08
141
0.09
142
0.0
143
25.4
144
1.0
145
0.0
146
1.0
147
0.09
 71
1.0
 72
0.0
 73
1
 74
1
 75
0
 76
0
 77
0
 78
4
 79
1
170
1
171
2
172
0
173
0
174
0
175
0
176
0
177
0
178
0
270
2
179
3
271
3
272
3
273
2
274
2
275
0
280
0
281
0
282
0
283
1
284
4
285
0
286
0
287
3
288
0
340
11
278
46
341
204
342
204
343
204
344
204
  0
ENDTAB
  0
ENDSEC
  0
SECTION
  2
BLOCKS
  0
BLOCK
  5
20
100
AcDbEntity
  8
0
100
AcDbBlockBegin
  2
*Model_Space
 70
0
 10
0.0
 20
0.0
 30
0.0
  3
*Model_Space
  1

  0
ENDBLK
  5
21
100
AcDbEntity
  8
0
100
AcDbBlockEnd
  0
BLOCK
  5
1C
100
AcDbEntity
  8
0
100
AcDbBlockBegin
  2
*Paper_Space
 70
0
 10
0.0
 20
0.0
 30
0.0
  3
*Paper_Space
  1

  0
ENDBLK
  5
1D
100
AcDbEntity
  8
0
100
AcDbBlockEnd
  0
BLOCK
  5
206
100
AcDbEntity
  8
0
100
AcDbBlockBegin
  2
_FILLED
 70
64
 10
0.0
 20
0.0
  3
_FILLED
  1

  0
SOLID
  5
207
100
AcDbEntity
  8
0
  6
BYBLOCK
 62
0
100
AcDbTrace
 10
0.0
 20
0.0
 11
-1.0
 21
0.2
 12
-1.0
 22
-0.2
 13
-1.0
 23
-0.2
  0
ENDBLK
  5
208
100
AcDbEntity
  8
0
  6
BYBLOCK
 62
0
100
AcDbBlockEnd
  0
ENDSEC
  0
SECTION
  2
ENTITIES
  0
LINE
  5
209
100
AcDbEntity
  8
0
100
AcDbLine
 62
9
  6
CONTINUOUS
 10
5.7229529982
 20
8.4179217818
 11
5.7229529982
 21
8.858416529
  0
LINE
  5
20A
100
AcDbEntity
  8
0
100
AcDbLine
 62
9
  6
CONTINUOUS
 10
5.7463834582
 20
8.9509608174
 11
5.7463834582
 21
8.3253774934
  0
LINE
  5
20B
100
AcDbEntity
  8
0
100
AcDbLine
 62
9
  6
CONTINUOUS
 10
5.7963054636
 20
8.9981691554
 11
5.7963054636
 21
8.2781691554
  0
LINE
  5
20C
100
AcDbEntity
  8
0
100
AcDbLine
 62
9
  6
CONTINUOUS
 10
5.81127444
 20
8.2781691554
 11
5.81127444
 21
8.9981691554
  0
LINE
  5
20D
100
AcDbEntity
  8
0
100
AcDbLine
 62
7
  6
CONTINUOUS
 10
5.8376923427
 20
5.9171685199
 11
5.8376923427
 21
5.8076695021
  0
LINE
  5
20E
100
AcDbEntity
  8
0
100
AcDbLine
 62
9
  6
CONTINUOUS
 10
5.8570621638
 20
8.9682560754
 11
5.8570621638
 21
8.3080822354
  0
LINE
  5
20F
100
AcDbEntity
  8
0
100
AcDbLine
 62
9
  6
CONTINUOUS
 10
5.8894737776
 20
8.3317896237
 11
5.8894737776
 21
8.9445486871
  0
LINE
  5
210
100
AcDbEntity
  8
0
100
AcDbLine
 62
7
  6
CONTINUOUS
 10
6.1926923427
 20
6.4476695021
 11
6.1926923427
 21
6.2376695021
  0
LINE
  5
211
100
AcDbEntity
  8
0
100
AcDbLine
 62
7
  6
CONTINUOUS
 10
6.2276923427
 20
6.5176695021
 11
6.2276923427
 21
6.4476695021
  0
LINE
  5
212
100
AcDbEntity
  8
0
100
AcDbLine
 62
7
  6
CONTINUOUS
 10
6.4324358671
 20
7.6981750984
 11
6.362926783
 21
7.8004167549
  0
LINE
  5
213
100
AcDbEntity
  8
0
100
AcDbLine
 62
9
  6
CONTINUOUS
 10
6.3933311999
 20
8.8558287579
 11
6.3933311999
 21
8.4205095529
  0
LINE
  5
214
100
AcDbEntity
  8
0
100
AcDbLine
 62
7
  6
CONTINUOUS
 10
6.4236923428
 20
8.8181691554
 11
6.4236923428
 21
8.4581691554
  0
LINE
  5
215
100
AcDbEntity
  8
0
100
AcDbLine
 62
7
  6
CONTINUOUS
 10
6.4876923427
 20
7.9676695021
 11
6.4876923427
 21
7.8976695021
  0
LINE
  5
216
100
AcDbEntity
  8
0
100
AcDbLine
 62
9
  6
CONTINUOUS
 10
6.5136923427
 20
8.4581691554
 11
6.5136923427
 21
8.8181691554
  0
LINE
  5
217
100
AcDbEntity
  8
0
100
AcDbLine
 62
7
  6
CONTINUOUS
 10
6.5236923427
 20
8.4592697423
 11
6.5236923427
 21
8.8170685685
  0
LINE
  5
218
100
AcDbEntity
  8
0
100
AcDbLine
 62
7
  6
CONTINUOUS
 10
6.6076923427
 20
8.0476695021
 11
6.6076923427
 21
7.9776695021
  0
LINE
  5
219
100
AcDbEntity
  8
0
100
AcDbLine
 62
7
  6
CONTINUOUS
 10
6.6576923427
 20
9.0052971355
 11
6.6576923427
 21
8.9984411055
  0
LINE
  5
21A
100
AcDbEntity
  8
0
100
AcDbLine
 62
7
  6
CONTINUOUS
 10
6.6791923427
 20
8.2776695021
 11
6.6791923427
 21
8.0576695021
  0
LINE
  5
21B
100
AcDbEntity
  8
0
100
AcDbLine
 62
7
  6
CONTINUOUS
 10
7.1961923427
 20
8.2776695021
 11
7.1961923427
 21
8.0576695021
  0
LINE
  5
21C
100
AcDbEntity
  8
0
100
AcDbLine
 62
7
  6
CONTINUOUS
 10
7.2176923427
 20
9.0052971355
 11
7.2176923427
 21
8.9984411055
  0
LINE
  5
21D
100
AcDbEntity
  8
0
100
AcDbLine
 62
7
  6
CONTINUOUS
 10
7.2676923427
 20
8.0476695021
 11
7.2676923427
 21
7.9776695021
  0
LINE
  5
21E
100
AcDbEntity
  8
0
100
AcDbLine
 62
7
  6
CONTINUOUS
 10
7.3516923427
 20
8.8170685685
 11
7.3516923427
 21
8.4592697423
  0
LINE
  5
21F
100
AcDbEntity
  8
0
100
AcDbLine
 62
9
  6
CONTINUOUS
 10
7.3616923427
 20
8.8181691554
 11
7.3616923427
 21
8.4581691554
  0
LINE
  5
220
100
AcDbEntity
  8
0
100
AcDbLine
 62
7
  6
CONTINUOUS
 10
7.3876923427
 20
7.9676695021
 11
7.3876923427
 21
7.8976695021
  0
LINE
  5
221
100
AcDbEntity
  8
0
100
AcDbLine
 62
7
  6
CONTINUOUS
 10
7.4516923427
 20
8.4581691554
 11
7.4516923427
 21
8.8181691554
  0
LINE
  5
222
100
AcDbEntity
  8
0
100
AcDbLine
 62
9
  6
CONTINUOUS
 10
7.4820534856
 20
8.4205095529
 11
7.4820534856
 21
8.8558287579
  0
LINE
  5
223
100
AcDbEntity
  8
0
100
AcDbLine
 62
7
  6
CONTINUOUS
 10
5.8377067452
 20
5.8076695021
 11
8.0376779403
 21
5.8076695021
  0
LINE
  5
224
100
AcDbEntity
  8
0
100
AcDbLine
 62
7
  6
CONTINUOUS
 10
9.4876943099
 20
5.8076695021
 11
12.3876903756
 21
5.8076695021
  0
LINE
  5
225
100
AcDbEntity
  8
0
100
AcDbLine
 62
7
  6
CONTINUOUS
 10
13.8377067452
 20
5.8076695021
 11
16.0376779403
 21
5.8076695021
  0
LINE
  5
226
100
AcDbEntity
  8
0
100
AcDbLine
 62
9
  6
CONTINUOUS
 10
16.0376923427
 20
5.9171685199
 11
13.8376923427
 21
5.9171685199
  0
LINE
  5
227
100
AcDbEntity
  8
0
100
AcDbLine
 62
9
  6
CONTINUOUS
 10
8.0376923427
 20
5.9171685199
 11
5.8376923427
 21
5.9171685199
  0
LINE
  5
228
100
AcDbEntity
  8
0
100
AcDbLine
 62
9
  6
CONTINUOUS
 10
12.3876923427
 20
5.9468608862
 11
9.4876923427
 21
5.9468608862
  0
LINE
  5
229
100
AcDbEntity
  8
0
100
AcDbLine
 62
7
  6
CONTINUOUS
 10
7.6476923427
 20
6.5176695021
 11
7.6476923427
 21
6.4476695021
  0
LINE
  5
22A
100
AcDbEntity
  8
0
100
AcDbLine
 62
7
  6
CONTINUOUS
 10
7.6826923427
 20
6.4476695021
 11
7.6826923427
 21
6.2376695021
  0
LINE
  5
22B
100
AcDbEntity
  8
0
100
AcDbLine
 62
9
  6
CONTINUOUS
 10
7.9859109079
 20
8.9445486871
 11
7.9859109079
 21
8.3317896237
  0
LINE
  5
22C
100
AcDbEntity
  8
0
100
AcDbLine
 62
9
  6
CONTINUOUS
 10
8.0183225217
 20
8.3080822354
 11
8.0183225217
 21
8.9682560754
  0
LINE
  5
22D
100
AcDbEntity
  8
0
100
AcDbLine
 62
7
  6
CONTINUOUS
 10
8.0376923427
 20
5.9171685199
 11
8.0376923427
 21
5.8076695021
  0
LINE
  5
22E
100
AcDbEntity
  8
0
100
AcDbLine
 62
9
  6
CONTINUOUS
 10
15.9569688976
 20
6.0502127192
 11
13.9184157879
 21
6.0502127192
  0
LINE
  5
22F
100
AcDbEntity
  8
0
100
AcDbLine
 62
9
  6
CONTINUOUS
 10
7.9569688976
 20
6.0502127192
 11
5.9184157879
 21
6.0502127192
  0
LINE
  5
230
100
AcDbEntity
  8
0
100
AcDbLine
 62
9
  6
CONTINUOUS
 10
9.5459004222
 20
6.0837217268
 11
12.3294842633
 21
6.0837217268
  0
LINE
  5
231
100
AcDbEntity
  8
0
100
AcDbLine
 62
9
  6
CONTINUOUS
 10
12.181588417
 20
6.2261399491
 11
9.6937962684
 21
6.2261399491
  0
LINE
  5
232
100
AcDbEntity
  8
0
100
AcDbLine
 62
9
  6
CONTINUOUS
 10
15.7732668278
 20
6.2275280474
 11
14.1021178577
 21
6.2275280474
  0
LINE
  5
233
100
AcDbEntity
  8
0
100
AcDbLine
 62
9
  6
CONTINUOUS
 10
7.7732668278
 20
6.2275280474
 11
6.1021178577
 21
6.2275280474
  0
LINE
  5
234
100
AcDbEntity
  8
0
100
AcDbLine
 62
7
  6
CONTINUOUS
 10
15.7558654174
 20
6.2376695021
 11
14.119532607
 21
6.2376695021
  0
LINE
  5
235
100
AcDbEntity
  8
0
100
AcDbLine
 62
7
  6
CONTINUOUS
 10
7.7558520785
 20
6.2376695021
 11
6.119532607
 21
6.2376695021
  0
LINE
  5
236
100
AcDbEntity
  8
0
100
AcDbLine
 62
7
  6
CONTINUOUS
 10
9.7576923427
 20
6.2689936333
 11
12.1176923427
 21
6.2689936333
  0
LINE
  5
237
100
AcDbEntity
  8
0
100
AcDbLine
 62
9
  6
CONTINUOUS
 10
12.1176923427
 20
6.3076695021
 11
9.7576923427
 21
6.3076695021
  0
LINE
  5
238
100
AcDbEntity
  8
0
100
AcDbLine
 62
7
  6
CONTINUOUS
 10
12.0676641785
 20
6.3576695021
 11
9.8077205069
 21
6.3576695021
  0
LINE
  5
239
100
AcDbEntity
  8
0
100
AcDbLine
 62
9
  6
CONTINUOUS
 10
8.0641102454
 20
8.9981691554
 11
8.0641102454
 21
8.2781691554
  0
LINE
  5
23A
100
AcDbEntity
  8
0
100
AcDbLine
 62
9
  6
CONTINUOUS
 10
8.0790792218
 20
8.2781691554
 11
8.0790792218
 21
8.9981691554
  0
LINE
  5
23B
100
AcDbEntity
  8
0
100
AcDbLine
 62
9
  6
CONTINUOUS
 10
8.1290012272
 20
8.3253774934
 11
8.1290012272
 21
8.9509608174
  0
LINE
  5
23C
100
AcDbEntity
  8
0
100
AcDbLine
 62
9
  6
CONTINUOUS
 10
8.1524316873
 20
8.858416529
 11
8.1524316873
 21
8.4179217818
  0
LINE
  5
23D
100
AcDbEntity
  8
0
100
AcDbLine
 62
7
  6
CONTINUOUS
 10
15.682680223
 20
6.4476695021
 11
14.1927044625
 21
6.4476695021
  0
LINE
  5
23E
100
AcDbEntity
  8
0
100
AcDbLine
 62
7
  6
CONTINUOUS
 10
7.682680223
 20
6.4476695021
 11
6.1927044625
 21
6.4476695021
  0
LINE
  5
23F
100
AcDbEntity
  8
0
100
AcDbLine
 62
7
  6
CONTINUOUS
 10
15.6476923427
 20
6.5176695021
 11
14.2276923427
 21
6.5176695021
  0
LINE
  5
240
100
AcDbEntity
  8
0
100
AcDbLine
 62
7
  6
CONTINUOUS
 10
7.6476923427
 20
6.5176695021
 11
6.2276923427
 21
6.5176695021
  0
LINE
  5
241
100
AcDbEntity
  8
0
100
AcDbLine
 62
9
  6
CONTINUOUS
 10
12.0076923427
 20
6.6176695021
 11
9.8676923427
 21
6.6176695021
  0
LINE
  5
242
100
AcDbEntity
  8
0
100
AcDbLine
 62
7
  6
CONTINUOUS
 10
11.9376891421
 20
6.6876695021
 11
9.9376955434
 21
6.6876695021
  0
LINE
  5
243
100
AcDbEntity
  8
0
100
AcDbLine
 62
7
  6
CONTINUOUS
 10
11.9276923427
 20
6.7976695021
 11
9.9476923427
 21
6.7976695021
  0
LINE
  5
244
100
AcDbEntity
  8
0
100
AcDbLine
 62
9
  6
CONTINUOUS
 10
6.5281102889
 20
6.8519831346
 11
7.3472743966
 21
6.8519831346
  0
LINE
  5
245
100
AcDbEntity
  8
0
100
AcDbLine
 62
9
  6
CONTINUOUS
 10
14.5281102889
 20
6.8519831346
 11
15.3472743966
 21
6.8519831346
  0
LINE
  5
246
100
AcDbEntity
  8
0
100
AcDbLine
 62
7
  6
CONTINUOUS
 10
7.4429488183
 20
7.6981750984
 11
7.5124579025
 21
7.8004167549
  0
LINE
  5
247
100
AcDbEntity
  8
0
100
AcDbLine
 62
9
  6
CONTINUOUS
 10
6.5504275153
 20
7.4165088213
 11
7.3249571701
 21
7.4165088213
  0
LINE
  5
248
100
AcDbEntity
  8
0
100
AcDbLine
 62
9
  6
CONTINUOUS
 10
14.5504275153
 20
7.4165088213
 11
15.3249571701
 21
7.4165088213
  0
LINE
  5
249
100
AcDbEntity
  8
0
100
AcDbLine
 62
7
  6
CONTINUOUS
 10
9.4876923427
 20
5.9468608862
 11
9.4876923427
 21
5.8076695021
  0
LINE
  5
24A
100
AcDbEntity
  8
0
100
AcDbLine
 62
9
  6
CONTINUOUS
 10
6.4324358671
 20
7.6981750984
 11
7.4429488183
 21
7.6981750984
  0
LINE
  5
24B
100
AcDbEntity
  8
0
100
AcDbLine
 62
9
  6
CONTINUOUS
 10
14.4324358671
 20
7.6981750984
 11
15.4429488183
 21
7.6981750984
  0
LINE
  5
24C
100
AcDbEntity
  8
0
100
AcDbLine
 62
9
  6
CONTINUOUS
 10
15.5124579025
 20
7.8004167549
 11
14.362926783
 21
7.8004167549
  0
LINE
  5
24D
100
AcDbEntity
  8
0
100
AcDbLine
 62
9
  6
CONTINUOUS
 10
7.5124579025
 20
7.8004167549
 11
6.362926783
 21
7.8004167549
  0
LINE
  5
24E
100
AcDbEntity
  8
0
100
AcDbLine
 62
7
  6
CONTINUOUS
 10
15.4654099697
 20
7.8976695021
 11
14.4099747158
 21
7.8976695021
  0
LINE
  5
24F
100
AcDbEntity
  8
0
100
AcDbLine
 62
7
  6
CONTINUOUS
 10
7.4654099697
 20
7.8976695021
 11
6.4099747158
 21
7.8976695021
  0
LINE
  5
250
100
AcDbEntity
  8
0
100
AcDbLine
 62
9
  6
CONTINUOUS
 10
15.3876923427
 20
7.9676695021
 11
14.4876923427
 21
7.9676695021
  0
LINE
  5
251
100
AcDbEntity
  8
0
100
AcDbLine
 62
9
  6
CONTINUOUS
 10
7.3876923427
 20
7.9676695021
 11
6.4876923427
 21
7.9676695021
  0
LINE
  5
252
100
AcDbEntity
  8
0
100
AcDbLine
 62
7
  6
CONTINUOUS
 10
15.3776923427
 20
7.9776695021
 11
14.4976923427
 21
7.9776695021
  0
LINE
  5
253
100
AcDbEntity
  8
0
100
AcDbLine
 62
7
  6
CONTINUOUS
 10
7.3776923427
 20
7.9776695021
 11
6.4976923427
 21
7.9776695021
  0
LINE
  5
254
100
AcDbEntity
  8
0
100
AcDbLine
 62
9
  6
CONTINUOUS
 10
15.2676923427
 20
8.0476695021
 11
14.6076923427
 21
8.0476695021
  0
LINE
  5
255
100
AcDbEntity
  8
0
100
AcDbLine
 62
9
  6
CONTINUOUS
 10
7.2676923427
 20
8.0476695021
 11
6.6076923427
 21
8.0476695021
  0
LINE
  5
256
100
AcDbEntity
  8
0
100
AcDbLine
 62
7
  6
CONTINUOUS
 10
15.2576923427
 20
8.0576695021
 11
14.6176923427
 21
8.0576695021
  0
LINE
  5
257
100
AcDbEntity
  8
0
100
AcDbLine
 62
7
  6
CONTINUOUS
 10
7.2576923427
 20
8.0576695021
 11
6.6176923427
 21
8.0576695021
  0
LINE
  5
258
100
AcDbEntity
  8
0
100
AcDbLine
 62
7
  6
CONTINUOUS
 10
12.181588417
 20
6.2261399491
 11
12.3294842633
 21
6.0837217268
  0
LINE
  5
259
100
AcDbEntity
  8
0
100
AcDbLine
 62
7
  6
CONTINUOUS
 10
9.7576923427
 20
6.3076695021
 11
9.7576923427
 21
6.2689936333
  0
LINE
  5
25A
100
AcDbEntity
  8
0
100
AcDbLine
 62
7
  6
CONTINUOUS
 10
9.8676923427
 20
6.6176695021
 11
9.8676923427
 21
6.3576695021
  0
LINE
  5
25B
100
AcDbEntity
  8
0
100
AcDbLine
 62
7
  6
CONTINUOUS
 10
9.9476923427
 20
6.7976695021
 11
9.9476923427
 21
6.6876695021
  0
LINE
  5
25C
100
AcDbEntity
  8
0
100
AcDbLine
 62
7
  6
CONTINUOUS
 10
10.0076923427
 20
10.0091296425
 11
10.0076923427
 21
9.9658360399
  0
LINE
  5
25D
100
AcDbEntity
  8
0
100
AcDbLine
 62
7
  6
CONTINUOUS
 10
9.8361923427
 20
9.2568196117
 11
9.8367306345
 21
9.2596239739
  0
LINE
  5
25E
100
AcDbEntity
  8
0
100
AcDbLine
 62
7
  6
CONTINUOUS
 10
10.3478940735
 20
11.003306653
 11
10.3479118827
 21
11.0033806845
  0
LINE
  5
25F
100
AcDbEntity
  8
0
100
AcDbLine
 62
7
  6
CONTINUOUS
 10
10.347910553
 20
11.0033753519
 11
10.3478110461
 21
11.0029747323
  0
LINE
  5
260
100
AcDbEntity
  8
0
100
AcDbLine
 62
7
  6
CONTINUOUS
 10
10.3478110461
 20
11.0029747323
 11
10.3475729788
 21
11.0020361605
  0
LINE
  5
261
100
AcDbEntity
  8
0
100
AcDbLine
 62
7
  6
CONTINUOUS
 10
10.3475729788
 20
11.0020361605
 11
10.3471839491
 21
11.00053353
  0
LINE
  5
262
100
AcDbEntity
  8
0
100
AcDbLine
 62
7
  6
CONTINUOUS
 10
10.3471839491
 20
11.00053353
 11
10.3466302616
 21
10.9984358393
  0
LWPOLYLINE
  5
263
100
AcDbEntity
  8
0
100
AcDbPolyline
 62
7
  6
CONTINUOUS
 90
4
 70
0
 10
9.9683638546
 20
9.8064604654
 10
9.9219798389
 20
9.6322012684
 10
9.8754032447
 20
9.440043164
 10
9.8364727603
 20
9.2596281578
  0
LINE
  5
264
100
AcDbEntity
  8
0
100
AcDbLine
 62
7
  6
CONTINUOUS
 10
10.3466302616
 20
10.9984358393
 11
10.3461184503
 21
10.9965264888
  0
LWPOLYLINE
  5
265
100
AcDbEntity
  8
0
100
AcDbPolyline
 62
7
  6
CONTINUOUS
 90
3
 70
0
 10
9.9988848363
 20
9.9143442225
 10
9.9900091184
 20
9.883438968
 10
9.9683635386
 20
9.8064593239
  0
LWPOLYLINE
  5
266
100
AcDbEntity
  8
0
100
AcDbPolyline
 62
7
  6
CONTINUOUS
 90
4
 70
0
 10
10.3461184503
 20
10.9965264888
 10
10.3324088454
 20
10.9498427719
 10
10.3034118392
 20
10.8587277321
 10
10.2635032789
 20
10.7380993797
  0
LWPOLYLINE
  5
267
100
AcDbEntity
  8
0
100
AcDbPolyline
 62
7
  6
CONTINUOUS
 90
4
 70
0
 10
10.1421704131
 20
10.3753207449
 10
10.0984603562
 20
10.2406205097
 10
10.0479202438
 20
10.0791673189
 10
9.9988842705
 20
9.9143422638
  0
LWPOLYLINE
  5
268
100
AcDbEntity
  8
0
100
AcDbPolyline
 62
7
  6
CONTINUOUS
 90
3
 70
0
 10
10.2634836689
 20
10.7380407662
 10
10.1886368699
 20
10.5151003541
 10
10.1421722614
 20
10.3753263677
  0
LINE
  5
269
100
AcDbEntity
  8
0
100
AcDbLine
 62
7
  6
CONTINUOUS
 10
10.0457069129
 20
10.0717276302
 11
10.0402584293
 21
10.0682794703
  0
LINE
  5
26A
100
AcDbEntity
  8
0
100
AcDbLine
 62
7
  6
CONTINUOUS
 10
15.2086923427
 20
8.2776695021
 11
14.6666923427
 21
8.2776695021
  0
LINE
  5
26B
100
AcDbEntity
  8
0
100
AcDbLine
 62
7
  6
CONTINUOUS
 10
7.2086923427
 20
8.2776695021
 11
6.6666923427
 21
8.2776695021
  0
LINE
  5
26C
100
AcDbEntity
  8
0
100
AcDbLine
 62
7
  6
CONTINUOUS
 10
16.0790792218
 20
8.2781691554
 11
16.0641102454
 21
8.2781691554
  0
LINE
  5
26D
100
AcDbEntity
  8
0
100
AcDbLine
 62
7
  6
CONTINUOUS
 10
8.0790792218
 20
8.2781691554
 11
8.0641102454
 21
8.2781691554
  0
LINE
  5
26E
100
AcDbEntity
  8
0
100
AcDbLine
 62
7
  6
CONTINUOUS
 10
5.7963054636
 20
8.2781691554
 11
5.81127444
 21
8.2781691554
  0
LINE
  5
26F
100
AcDbEntity
  8
0
100
AcDbLine
 62
7
  6
CONTINUOUS
 10
13.7963054636
 20
8.2781691554
 11
13.81127444
 21
8.2781691554
  0
LINE
  5
270
100
AcDbEntity
  8
0
100
AcDbLine
 62
7
  6
CONTINUOUS
 10
15.4516923427
 20
8.4581691554
 11
15.3616923427
 21
8.4581691554
  0
LINE
  5
271
100
AcDbEntity
  8
0
100
AcDbLine
 62
7
  6
CONTINUOUS
 10
7.4516923427
 20
8.4581691554
 11
7.3616923427
 21
8.4581691554
  0
LINE
  5
272
100
AcDbEntity
  8
0
100
AcDbLine
 62
7
  6
CONTINUOUS
 10
6.4236923428
 20
8.4581691554
 11
6.5136923427
 21
8.4581691554
  0
LINE
  5
273
100
AcDbEntity
  8
0
100
AcDbLine
 62
7
  6
CONTINUOUS
 10
14.4236923428
 20
8.4581691554
 11
14.5136923427
 21
8.4581691554
  0
LINE
  5
274
100
AcDbEntity
  8
0
100
AcDbLine
 62
7
  6
CONTINUOUS
 10
10.3876923427
 20
12.5876695021
 11
10.3876923427
 21
12.4976695021
  0
LINE
  5
275
100
AcDbEntity
  8
0
100
AcDbLine
 62
7
  6
CONTINUOUS
 10
10.3976923427
 20
12.0476695021
 11
10.3976923427
 21
11.9276695021
  0
LINE
  5
276
100
AcDbEntity
  8
0
100
AcDbLine
 62
7
  6
CONTINUOUS
 10
15.4516923427
 20
8.8181691554
 11
15.3616923427
 21
8.8181691554
  0
LINE
  5
277
100
AcDbEntity
  8
0
100
AcDbLine
 62
7
  6
CONTINUOUS
 10
7.4516923427
 20
8.8181691554
 11
7.3616923427
 21
8.8181691554
  0
LINE
  5
278
100
AcDbEntity
  8
0
100
AcDbLine
 62
7
  6
CONTINUOUS
 10
6.4236923428
 20
8.8181691554
 11
6.5136923427
 21
8.8181691554
  0
LINE
  5
279
100
AcDbEntity
  8
0
100
AcDbLine
 62
7
  6
CONTINUOUS
 10
14.4236923428
 20
8.8181691554
 11
14.5136923427
 21
8.8181691554
  0
LINE
  5
27A
100
AcDbEntity
  8
0
100
AcDbLine
 62
7
  6
CONTINUOUS
 10
10.6926923427
 20
12.2276695021
 11
10.6926923427
 21
12.0976695021
  0
LINE
  5
27B
100
AcDbEntity
  8
0
100
AcDbLine
 62
9
  6
CONTINUOUS
 10
10.9376923427
 20
9.3753613405
 11
10.9376923427
 21
11.5262495108
  0
LINE
  5
27C
100
AcDbEntity
  8
0
100
AcDbLine
 62
7
  6
CONTINUOUS
 10
10.9376923427
 20
11.5262495108
 11
10.9376923432
 21
11.5262523291
  0
LINE
  5
27D
100
AcDbEntity
  8
0
100
AcDbLine
 62
9
  6
CONTINUOUS
 10
14.6388304472
 20
8.9759302653
 11
14.8167026114
 21
8.9759306092
  0
LINE
  5
27E
100
AcDbEntity
  8
0
100
AcDbLine
 62
9
  6
CONTINUOUS
 10
15.0583145134
 20
8.9759298475
 11
15.2365383758
 21
8.9759302653
  0
LINE
  5
27F
100
AcDbEntity
  8
0
100
AcDbLine
 62
9
  6
CONTINUOUS
 10
6.6388304472
 20
8.9759302653
 11
6.8167026114
 21
8.9759306092
  0
LINE
  5
280
100
AcDbEntity
  8
0
100
AcDbLine
 62
9
  6
CONTINUOUS
 10
7.0583145134
 20
8.9759298475
 11
7.2365383758
 21
8.9759302653
  0
LINE
  5
281
100
AcDbEntity
  8
0
100
AcDbLine
 62
7
  6
CONTINUOUS
 10
15.2299275887
 20
8.9784411055
 11
15.0501085157
 21
8.9784411055
  0
LINE
  5
282
100
AcDbEntity
  8
0
100
AcDbLine
 62
7
  6
CONTINUOUS
 10
14.825086687
 20
8.9784411055
 11
14.6454570967
 21
8.9784411055
  0
LINE
  5
283
100
AcDbEntity
  8
0
100
AcDbLine
 62
7
  6
CONTINUOUS
 10
7.2299275887
 20
8.9784411055
 11
7.0501085157
 21
8.9784411055
  0
LINE
  5
284
100
AcDbEntity
  8
0
100
AcDbLine
 62
7
  6
CONTINUOUS
 10
6.825086687
 20
8.9784411055
 11
6.6454570967
 21
8.9784411055
  0
LINE
  5
285
100
AcDbEntity
  8
0
100
AcDbLine
 62
7
  6
CONTINUOUS
 10
16.0790792218
 20
8.9981691554
 11
16.0641102454
 21
8.9981691554
  0
LINE
  5
286
100
AcDbEntity
  8
0
100
AcDbLine
 62
7
  6
CONTINUOUS
 10
8.0790792218
 20
8.9981691554
 11
8.0641102454
 21
8.9981691554
  0
LINE
  5
287
100
AcDbEntity
  8
0
100
AcDbLine
 62
7
  6
CONTINUOUS
 10
5.7963054636
 20
8.9981691554
 11
5.81127444
 21
8.9981691554
  0
LINE
  5
288
100
AcDbEntity
  8
0
100
AcDbLine
 62
7
  6
CONTINUOUS
 10
13.7963054636
 20
8.9981691554
 11
13.81127444
 21
8.9981691554
  0
LINE
  5
289
100
AcDbEntity
  8
0
100
AcDbLine
 62
9
  6
CONTINUOUS
 10
6.6576923427
 20
8.9984411055
 11
7.2176923427
 21
8.9984411055
  0
LINE
  5
28A
100
AcDbEntity
  8
0
100
AcDbLine
 62
9
  6
CONTINUOUS
 10
14.6576923427
 20
8.9984411055
 11
15.2176923427
 21
8.9984411055
  0
LINE
  5
28B
100
AcDbEntity
  8
0
100
AcDbLine
 62
9
  6
CONTINUOUS
 10
15.2176923427
 20
9.0052971355
 11
14.6576923427
 21
9.0052971355
  0
LINE
  5
28C
100
AcDbEntity
  8
0
100
AcDbLine
 62
9
  6
CONTINUOUS
 10
7.2176923427
 20
9.0052971355
 11
6.6576923427
 21
9.0052971355
  0
LINE
  5
28D
100
AcDbEntity
  8
0
100
AcDbLine
 62
9
  6
CONTINUOUS
 10
6.7118858911
 20
9.0810204942
 11
7.1634987944
 21
9.0810204942
  0
LINE
  5
28E
100
AcDbEntity
  8
0
100
AcDbLine
 62
9
  6
CONTINUOUS
 10
14.7118858911
 20
9.0810204942
 11
15.1634987944
 21
9.0810204942
  0
LINE
  5
28F
100
AcDbEntity
  8
0
100
AcDbLine
 62
7
  6
CONTINUOUS
 10
11.1826923427
 20
12.2276695021
 11
11.1826923427
 21
12.0976695021
  0
LINE
  5
290
100
AcDbEntity
  8
0
100
AcDbLine
 62
7
  6
CONTINUOUS
 10
11.4776923427
 20
12.0476695021
 11
11.4776923427
 21
11.9276695021
  0
LINE
  5
291
100
AcDbEntity
  8
0
100
AcDbLine
 62
7
  6
CONTINUOUS
 10
11.4876923427
 20
12.5876695021
 11
11.4876923427
 21
12.4976695021
  0
LINE
  5
292
100
AcDbEntity
  8
0
100
AcDbLine
 62
9
  6
CONTINUOUS
 10
10.0076923427
 20
9.9658360399
 11
10.0142038312
 21
9.9658360399
  0
LINE
  5
293
100
AcDbEntity
  8
0
100
AcDbLine
 62
9
  6
CONTINUOUS
 10
11.8611808543
 20
9.9658360399
 11
11.8676923427
 21
9.9658360399
  0
LINE
  5
294
100
AcDbEntity
  8
0
100
AcDbLine
 62
9
  6
CONTINUOUS
 10
11.8676923427
 20
10.0091296425
 11
11.8483008711
 21
10.0091296425
  0
LINE
  5
295
100
AcDbEntity
  8
0
100
AcDbLine
 62
9
  6
CONTINUOUS
 10
10.0270838144
 20
10.0091296425
 11
10.0076923427
 21
10.0091296425
  0
LINE
  5
296
100
AcDbEntity
  8
0
100
AcDbLine
 62
9
  6
CONTINUOUS
 10
10.0402584293
 20
10.0682794703
 11
10.0446810745
 21
10.0682794703
  0
LINE
  5
297
100
AcDbEntity
  8
0
100
AcDbLine
 62
9
  6
CONTINUOUS
 10
11.830703611
 20
10.0682794703
 11
11.8351262561
 21
10.0682794703
  0
LINE
  5
298
100
AcDbEntity
  8
0
100
AcDbLine
 62
7
  6
CONTINUOUS
 10
11.8676923427
 20
10.0091296425
 11
11.8676923427
 21
9.9658360399
  0
LINE
  5
299
100
AcDbEntity
  8
0
100
AcDbLine
 62
7
  6
CONTINUOUS
 10
11.9276923427
 20
6.7976695021
 11
11.9276923427
 21
6.6876695021
  0
LINE
  5
29A
100
AcDbEntity
  8
0
100
AcDbLine
 62
7
  6
CONTINUOUS
 10
12.0076923427
 20
6.6176695021
 11
12.0076923427
 21
6.3576695021
  0
LINE
  5
29B
100
AcDbEntity
  8
0
100
AcDbLine
 62
7
  6
CONTINUOUS
 10
12.1176923427
 20
6.3076695021
 11
12.1176923427
 21
6.2689936333
  0
LINE
  5
29C
100
AcDbEntity
  8
0
100
AcDbLine
 62
7
  6
CONTINUOUS
 10
11.8296777725
 20
10.0717276302
 11
11.8351262561
 21
10.0682794703
  0
LINE
  5
29D
100
AcDbEntity
  8
0
100
AcDbLine
 62
7
  6
CONTINUOUS
 10
11.6867478156
 20
10.5151003541
 11
11.6119010166
 21
10.7380407662
  0
LINE
  5
29E
100
AcDbEntity
  8
0
100
AcDbLine
 62
7
  6
CONTINUOUS
 10
11.7332124241
 20
10.3753263677
 11
11.6867478156
 21
10.5151003541
  0
LWPOLYLINE
  5
29F
100
AcDbEntity
  8
0
100
AcDbPolyline
 62
7
  6
CONTINUOUS
 90
4
 70
0
 10
11.6118814066
 20
10.7380993797
 10
11.5719728463
 20
10.8587277321
 10
11.54297584
 20
10.9498427719
 10
11.5292662351
 20
10.9965264888
  0
LWPOLYLINE
  5
2A0
100
AcDbEntity
  8
0
100
AcDbPolyline
 62
7
  6
CONTINUOUS
 90
4
 70
0
 10
11.8765004149
 20
9.9143422638
 10
11.8274644417
 20
10.0791673189
 10
11.7769243293
 20
10.2406205097
 10
11.7332142724
 20
10.3753207449
  0
LWPOLYLINE
  5
2A1
100
AcDbEntity
  8
0
100
AcDbPolyline
 62
7
  6
CONTINUOUS
 90
3
 70
0
 10
11.9070211469
 20
9.8064593239
 10
11.8980466947
 20
9.838666454
 10
11.8764998492
 20
9.9143442225
  0
LINE
  5
2A2
100
AcDbEntity
  8
0
100
AcDbLine
 62
7
  6
CONTINUOUS
 10
11.5292662351
 20
10.9965264888
 11
11.5285756436
 21
10.9991089589
  0
LINE
  5
2A3
100
AcDbEntity
  8
0
100
AcDbLine
 62
7
  6
CONTINUOUS
 10
11.5285756436
 20
10.9991089589
 11
11.527938259
 21
11.0015439626
  0
LINE
  5
2A4
100
AcDbEntity
  8
0
100
AcDbLine
 62
7
  6
CONTINUOUS
 10
11.527938259
 20
11.0015439626
 11
11.5276644441
 21
11.0026143327
  0
LWPOLYLINE
  5
2A5
100
AcDbEntity
  8
0
100
AcDbPolyline
 62
7
  6
CONTINUOUS
 90
3
 70
0
 10
11.5276644441
 20
11.0026143327
 10
11.5275095053
 20
11.0032319218
 10
11.5274759105
 20
11.0033680942
  0
LWPOLYLINE
  5
2A6
100
AcDbEntity
  8
0
100
AcDbPolyline
 62
7
  6
CONTINUOUS
 90
4
 70
0
 10
12.0389119252
 20
9.2596281578
 10
11.9999814408
 20
9.440043164
 10
11.9534048466
 20
9.6322012684
 10
11.9070208309
 20
9.8064604654
  0
LINE
  5
2A7
100
AcDbEntity
  8
0
100
AcDbLine
 62
7
  6
CONTINUOUS
 10
12.0386279583
 20
9.2596234703
 11
12.0391923427
 21
9.2568196117
  0
LINE
  5
2A8
100
AcDbEntity
  8
0
100
AcDbLine
 62
7
  6
CONTINUOUS
 10
12.3876923427
 20
5.9468608862
 11
12.3876923427
 21
5.8076695021
  0
LINE
  5
2A9
100
AcDbEntity
  8
0
100
AcDbLine
 62
7
  6
CONTINUOUS
 10
9.6937962684
 20
6.2261399491
 11
9.5459004222
 21
6.0837217268
  0
LINE
  5
2AA
100
AcDbEntity
  8
0
100
AcDbLine
 62
7
  6
CONTINUOUS
 10
14.4324358671
 20
7.6981750984
 11
14.362926783
 21
7.8004167549
  0
LINE
  5
2AB
100
AcDbEntity
  8
0
100
AcDbLine
 62
9
  6
CONTINUOUS
 10
10.942730004
 20
11.8309908604
 11
11.4505640149
 21
11.8309940316
  0
LINE
  5
2AC
100
AcDbEntity
  8
0
100
AcDbLine
 62
9
  6
CONTINUOUS
 10
10.4248143526
 20
11.830990449
 11
10.9376923427
 21
11.830993514
  0
LINE
  5
2AD
100
AcDbEntity
  8
0
100
AcDbLine
 62
9
  6
CONTINUOUS
 10
13.7229529982
 20
8.4179217818
 11
13.7229529982
 21
8.858416529
  0
LINE
  5
2AE
100
AcDbEntity
  8
0
100
AcDbLine
 62
9
  6
CONTINUOUS
 10
13.7463834582
 20
8.9509608174
 11
13.7463834582
 21
8.3253774934
  0
LINE
  5
2AF
100
AcDbEntity
  8
0
100
AcDbLine
 62
9
  6
CONTINUOUS
 10
13.7963054636
 20
8.9981691554
 11
13.7963054636
 21
8.2781691554
  0
LINE
  5
2B0
100
AcDbEntity
  8
0
100
AcDbLine
 62
9
  6
CONTINUOUS
 10
13.81127444
 20
8.2781691554
 11
13.81127444
 21
8.9981691554
  0
LINE
  5
2B1
100
AcDbEntity
  8
0
100
AcDbLine
 62
7
  6
CONTINUOUS
 10
13.8376923427
 20
5.9171685199
 11
13.8376923427
 21
5.8076695021
  0
LINE
  5
2B2
100
AcDbEntity
  8
0
100
AcDbLine
 62
9
  6
CONTINUOUS
 10
13.8570621638
 20
8.9682560754
 11
13.8570621638
 21
8.3080822354
  0
LINE
  5
2B3
100
AcDbEntity
  8
0
100
AcDbLine
 62
9
  6
CONTINUOUS
 10
13.8894737776
 20
8.3317896237
 11
13.8894737776
 21
8.9445486871
  0
LINE
  5
2B4
100
AcDbEntity
  8
0
100
AcDbLine
 62
9
  6
CONTINUOUS
 10
10.424150476
 20
11.8835585
 11
11.4512342094
 21
11.8835585
  0
LINE
  5
2B5
100
AcDbEntity
  8
0
100
AcDbLine
 62
9
  6
CONTINUOUS
 10
10.3976923427
 20
11.9276695021
 11
11.4776923427
 21
11.9276695021
  0
LINE
  5
2B6
100
AcDbEntity
  8
0
100
AcDbLine
 62
9
  6
CONTINUOUS
 10
11.4776923427
 20
12.0476695021
 11
10.3976923427
 21
12.0476695021
  0
LINE
  5
2B7
100
AcDbEntity
  8
0
100
AcDbLine
 62
7
  6
CONTINUOUS
 10
11.4276893071
 20
12.0976695021
 11
10.4476923427
 21
12.0976695021
  0
LINE
  5
2B8
100
AcDbEntity
  8
0
100
AcDbLine
 62
7
  6
CONTINUOUS
 10
11.1826923427
 20
12.2276695021
 11
10.6926923427
 21
12.2276695021
  0
LINE
  5
2B9
100
AcDbEntity
  8
0
100
AcDbLine
 62
7
  6
CONTINUOUS
 10
14.1926923427
 20
6.4476695021
 11
14.1926923427
 21
6.2376695021
  0
LINE
  5
2BA
100
AcDbEntity
  8
0
100
AcDbLine
 62
7
  6
CONTINUOUS
 10
14.2276923427
 20
6.5176695021
 11
14.2276923427
 21
6.4476695021
  0
LINE
  5
2BB
100
AcDbEntity
  8
0
100
AcDbLine
 62
7
  6
CONTINUOUS
 10
11.4676923427
 20
12.4776695021
 11
10.4076923427
 21
12.4776695021
  0
LINE
  5
2BC
100
AcDbEntity
  8
0
100
AcDbLine
 62
9
  6
CONTINUOUS
 10
10.3876923427
 20
12.4976695021
 11
11.4876923427
 21
12.4976695021
  0
LINE
  5
2BD
100
AcDbEntity
  8
0
100
AcDbLine
 62
9
  6
CONTINUOUS
 10
11.4876923427
 20
12.5876695021
 11
10.3876923427
 21
12.5876695021
  0
LINE
  5
2BE
100
AcDbEntity
  8
0
100
AcDbLine
 62
7
  6
CONTINUOUS
 10
11.4676923427
 20
12.6076695021
 11
10.4076941637
 21
12.6076695021
  0
LINE
  5
2BF
100
AcDbEntity
  8
0
100
AcDbLine
 62
9
  6
CONTINUOUS
 10
14.3933311999
 20
8.8558287579
 11
14.3933311999
 21
8.4205095529
  0
LINE
  5
2C0
100
AcDbEntity
  8
0
100
AcDbLine
 62
7
  6
CONTINUOUS
 10
14.4236923428
 20
8.8181691554
 11
14.4236923428
 21
8.4581691554
  0
LINE
  5
2C1
100
AcDbEntity
  8
0
100
AcDbLine
 62
7
  6
CONTINUOUS
 10
14.4876923427
 20
7.9676695021
 11
14.4876923427
 21
7.8976695021
  0
LINE
  5
2C2
100
AcDbEntity
  8
0
100
AcDbLine
 62
9
  6
CONTINUOUS
 10
14.5136923427
 20
8.4581691554
 11
14.5136923427
 21
8.8181691554
  0
LINE
  5
2C3
100
AcDbEntity
  8
0
100
AcDbLine
 62
7
  6
CONTINUOUS
 10
14.5236923427
 20
8.4592697423
 11
14.5236923427
 21
8.8170685685
  0
LINE
  5
2C4
100
AcDbEntity
  8
0
100
AcDbLine
 62
7
  6
CONTINUOUS
 10
14.6076923427
 20
8.0476695021
 11
14.6076923427
 21
7.9776695021
  0
LINE
  5
2C5
100
AcDbEntity
  8
0
100
AcDbLine
 62
7
  6
CONTINUOUS
 10
14.6576923427
 20
9.0052971355
 11
14.6576923427
 21
8.9984411055
  0
LINE
  5
2C6
100
AcDbEntity
  8
0
100
AcDbLine
 62
7
  6
CONTINUOUS
 10
14.6791923427
 20
8.2776695021
 11
14.6791923427
 21
8.0576695021
  0
LINE
  5
2C7
100
AcDbEntity
  8
0
100
AcDbLine
 62
7
  6
CONTINUOUS
 10
15.1961923427
 20
8.2776695021
 11
15.1961923427
 21
8.0576695021
  0
LINE
  5
2C8
100
AcDbEntity
  8
0
100
AcDbLine
 62
7
  6
CONTINUOUS
 10
15.2176923427
 20
9.0052971355
 11
15.2176923427
 21
8.9984411055
  0
LINE
  5
2C9
100
AcDbEntity
  8
0
100
AcDbLine
 62
7
  6
CONTINUOUS
 10
15.2676923427
 20
8.0476695021
 11
15.2676923427
 21
7.9776695021
  0
LINE
  5
2CA
100
AcDbEntity
  8
0
100
AcDbLine
 62
7
  6
CONTINUOUS
 10
15.3516923427
 20
8.8170685685
 11
15.3516923427
 21
8.4592697423
  0
LINE
  5
2CB
100
AcDbEntity
  8
0
100
AcDbLine
 62
9
  6
CONTINUOUS
 10
15.3616923427
 20
8.8181691554
 11
15.3616923427
 21
8.4581691554
  0
LINE
  5
2CC
100
AcDbEntity
  8
0
100
AcDbLine
 62
7
  6
CONTINUOUS
 10
15.3876923427
 20
7.9676695021
 11
15.3876923427
 21
7.8976695021
  0
LINE
  5
2CD
100
AcDbEntity
  8
0
100
AcDbLine
 62
7
  6
CONTINUOUS
 10
15.4516923427
 20
8.4581691554
 11
15.4516923427
 21
8.8181691554
  0
LINE
  5
2CE
100
AcDbEntity
  8
0
100
AcDbLine
 62
9
  6
CONTINUOUS
 10
15.4820534856
 20
8.4205095529
 11
15.4820534856
 21
8.8558287579
  0
LINE
  5
2CF
100
AcDbEntity
  8
0
100
AcDbLine
 62
7
  6
CONTINUOUS
 10
15.4429488183
 20
7.6981750984
 11
15.5124579025
 21
7.8004167549
  0
LINE
  5
2D0
100
AcDbEntity
  8
0
100
AcDbLine
 62
7
  6
CONTINUOUS
 10
15.6476923427
 20
6.5176695021
 11
15.6476923427
 21
6.4476695021
  0
LINE
  5
2D1
100
AcDbEntity
  8
0
100
AcDbLine
 62
7
  6
CONTINUOUS
 10
15.6826923427
 20
6.4476695021
 11
15.6826923427
 21
6.2376695021
  0
LINE
  5
2D2
100
AcDbEntity
  8
0
100
AcDbLine
 62
9
  6
CONTINUOUS
 10
15.9859109079
 20
8.9445486871
 11
15.9859109079
 21
8.3317896237
  0
LINE
  5
2D3
100
AcDbEntity
  8
0
100
AcDbLine
 62
9
  6
CONTINUOUS
 10
16.0183225217
 20
8.3080822354
 11
16.0183225217
 21
8.9682560754
  0
LINE
  5
2D4
100
AcDbEntity
  8
0
100
AcDbLine
 62
7
  6
CONTINUOUS
 10
16.0376923427
 20
5.9171685199
 11
16.0376923427
 21
5.8076695021
  0
LINE
  5
2D5
100
AcDbEntity
  8
0
100
AcDbLine
 62
9
  6
CONTINUOUS
 10
16.0641102454
 20
8.9981691554
 11
16.0641102454
 21
8.2781691554
  0
LINE
  5
2D6
100
AcDbEntity
  8
0
100
AcDbLine
 62
9
  6
CONTINUOUS
 10
16.0790792218
 20
8.2781691554
 11
16.0790792218
 21
8.9981691554
  0
LINE
  5
2D7
100
AcDbEntity
  8
0
100
AcDbLine
 62
9
  6
CONTINUOUS
 10
16.1290012272
 20
8.3253774934
 11
16.1290012272
 21
8.9509608174
  0
LINE
  5
2D8
100
AcDbEntity
  8
0
100
AcDbLine
 62
9
  6
CONTINUOUS
 10
16.1524316873
 20
8.858416529
 11
16.1524316873
 21
8.4179217818
  0
ARC
  5
2D9
100
AcDbEntity
  8
0
100
AcDbCircle
 62
7
  6
CONTINUOUS
 10
5.4960925777
 20
5.2353504946
 40
3.73
100
AcDbArc
 50
76.0811997271
 51
83.9460923514
  0
ARC
  5
2DA
100
AcDbEntity
  8
0
100
AcDbCircle
 62
7
  6
CONTINUOUS
 10
5.3936178123
 20
7.0974613155
 40
1.2
100
AcDbArc
 50
15.4188283841
 51
30.0393607241
  0
ARC
  5
2DB
100
AcDbEntity
  8
0
100
AcDbCircle
 62
7
  6
CONTINUOUS
 10
5.964103648
 20
7.0566695021
 40
0.6
100
AcDbArc
 50
296.0601511633
 51
340.053415241
  0
ARC
  5
2DC
100
AcDbEntity
  8
0
100
AcDbCircle
 62
7
  6
CONTINUOUS
 10
5.7105861234
 20
6.4493453168
 40
0.45
100
AcDbArc
 50
297.5061421611
 51
330.466835501
  0
ARC
  5
2DD
100
AcDbEntity
  8
0
100
AcDbCircle
 62
7
  6
CONTINUOUS
 10
5.9876923427
 20
5.9171685199
 40
0.15
100
AcDbArc
 50
117.5061421612
 51
180.0
  0
ARC
  5
2DE
100
AcDbEntity
  8
0
100
AcDbCircle
 62
7
  6
CONTINUOUS
 10
6.1195192681
 20
6.2176695021
 40
0.02
100
AcDbArc
 50
90.0
 51
150.4668355009
  0
ARC
  5
2DF
100
AcDbEntity
  8
0
100
AcDbCircle
 62
7
  6
CONTINUOUS
 10
5.6538999955
 20
7.1692470043
 40
0.93
100
AcDbArc
 50
340.053415241
 51
15.418828384
  0
ARC
  5
2E0
100
AcDbEntity
  8
0
100
AcDbCircle
 62
7
  6
CONTINUOUS
 10
6.4099611621
 20
7.8376695021
 40
0.06
100
AcDbArc
 50
90.0
 51
218.3803609955
  0
ARC
  5
2E1
100
AcDbEntity
  8
0
100
AcDbCircle
 62
7
  6
CONTINUOUS
 10
6.1906923427
 20
8.6381691554
 40
0.517
100
AcDbArc
 50
154.7853651812
 51
205.2146348188
  0
ARC
  5
2E2
100
AcDbEntity
  8
0
100
AcDbCircle
 62
7
  6
CONTINUOUS
 10
5.4967734312
 20
8.3114191833
 40
0.25
100
AcDbArc
 50
3.2006734286
 51
25.2146348188
  0
ARC
  5
2E3
100
AcDbEntity
  8
0
100
AcDbCircle
 62
7
  6
CONTINUOUS
 10
5.4967734312
 20
8.9649191275
 40
0.25
100
AcDbArc
 50
334.7853651812
 51
356.7993265714
  0
ARC
  5
2E4
100
AcDbEntity
  8
0
100
AcDbCircle
 62
7
  6
CONTINUOUS
 10
5.7963054636
 20
8.3281691554
 40
0.05
100
AcDbArc
 50
183.2006734286
 51
270.0
  0
ARC
  5
2E5
100
AcDbEntity
  8
0
100
AcDbCircle
 62
7
  6
CONTINUOUS
 10
5.7963054636
 20
8.9481691554
 40
0.05
100
AcDbArc
 50
90.0
 51
176.7993265714
  0
ARC
  5
2E6
100
AcDbEntity
  8
0
100
AcDbCircle
 62
7
  6
CONTINUOUS
 10
5.81127444
 20
8.9481691554
 40
0.05
100
AcDbArc
 50
23.6868993628
 51
90.0
  0
ARC
  5
2E7
100
AcDbEntity
  8
0
100
AcDbCircle
 62
7
  6
CONTINUOUS
 10
5.81127444
 20
8.3281691554
 40
0.05
100
AcDbArc
 50
270.0
 51
336.3131006372
  0
ARC
  5
2E8
100
AcDbEntity
  8
0
100
AcDbCircle
 62
7
  6
CONTINUOUS
 10
6.383709338
 20
8.4593350571
 40
0.04
100
AcDbArc
 50
283.9188002729
 51
358.3297322854
  0
ARC
  5
2E9
100
AcDbEntity
  8
0
100
AcDbCircle
 62
7
  6
CONTINUOUS
 10
5.8936923427
 20
8.9843256115
 40
0.04
100
AcDbArc
 50
203.6868993632
 51
263.9460923514
  0
ARC
  5
2EA
100
AcDbEntity
  8
0
100
AcDbCircle
 62
7
  6
CONTINUOUS
 10
5.8936923427
 20
8.2920126993
 40
0.04
100
AcDbArc
 50
96.0539076486
 51
156.3131006368
  0
ARC
  5
2EB
100
AcDbEntity
  8
0
100
AcDbCircle
 62
7
  6
CONTINUOUS
 10
6.383709338
 20
8.8170032537
 40
0.04
100
AcDbArc
 50
1.6702677143
 51
76.0811997271
  0
ARC
  5
2EC
100
AcDbEntity
  8
0
100
AcDbCircle
 62
7
  6
CONTINUOUS
 10
7.4654235234
 20
7.8376695021
 40
0.06
100
AcDbArc
 50
321.6196390045
 51
90.0
  0
ARC
  5
2ED
100
AcDbEntity
  8
0
100
AcDbCircle
 62
7
  6
CONTINUOUS
 10
7.2576923427
 20
8.0476695021
 40
0.01
100
AcDbArc
 50
0.0
 51
90.0
  0
ARC
  5
2EE
100
AcDbEntity
  8
0
100
AcDbCircle
 62
7
  6
CONTINUOUS
 10
6.6176923427
 20
8.0476695021
 40
0.01
100
AcDbArc
 50
90.0
 51
180.0
  0
ARC
  5
2EF
100
AcDbEntity
  8
0
100
AcDbCircle
 62
7
  6
CONTINUOUS
 10
7.3776923427
 20
7.9676695021
 40
0.01
100
AcDbArc
 50
0.0
 51
90.0
  0
ARC
  5
2F0
100
AcDbEntity
  8
0
100
AcDbCircle
 62
7
  6
CONTINUOUS
 10
6.4976923427
 20
7.9676695021
 40
0.01
100
AcDbArc
 50
90.0
 51
180.0
  0
ARC
  5
2F1
100
AcDbEntity
  8
0
100
AcDbCircle
 62
7
  6
CONTINUOUS
 10
6.8794878046
 20
8.481748156
 40
3.5
100
AcDbArc
 50
331.2384607781
 51
11.1934780244
  0
ARC
  5
2F2
100
AcDbEntity
  8
0
100
AcDbCircle
 62
7
  6
CONTINUOUS
 10
6.9376923427
 20
8.4184411055
 40
0.7
100
AcDbArc
 50
71.180936631
 51
108.819063369
  0
ARC
  5
2F3
100
AcDbEntity
  8
0
100
AcDbCircle
 62
7
  6
CONTINUOUS
 10
6.9376923427
 20
8.6381691554
 40
0.451
100
AcDbArc
 50
23.370340497
 51
48.4965643543
  0
ARC
  5
2F4
100
AcDbEntity
  8
0
100
AcDbCircle
 62
7
  6
CONTINUOUS
 10
6.9376923427
 20
8.6381691554
 40
0.451
100
AcDbArc
 50
306.9334449091
 51
336.629659503
  0
ARC
  5
2F5
100
AcDbEntity
  8
0
100
AcDbCircle
 62
7
  6
CONTINUOUS
 10
6.9376923427
 20
8.6381691554
 40
0.451
100
AcDbArc
 50
203.370340497
 51
233.0665550909
  0
ARC
  5
2F6
100
AcDbEntity
  8
0
100
AcDbCircle
 62
7
  6
CONTINUOUS
 10
6.9376923427
 20
8.6381691554
 40
0.451
100
AcDbArc
 50
131.5034356457
 51
156.629659503
  0
CIRCLE
  5
2F7
100
AcDbEntity
  8
0
100
AcDbCircle
 62
7
  6
CONTINUOUS
 10
6.9376923427
 20
8.6381691554
 40
0.36
  0
CIRCLE
  5
2F8
100
AcDbEntity
  8
0
100
AcDbCircle
 62
9
  6
CONTINUOUS
 10
6.9376923427
 20
8.6381691554
 40
0.312791662
  0
CIRCLE
  5
2F9
100
AcDbEntity
  8
0
100
AcDbCircle
 62
9
  6
CONTINUOUS
 10
6.9376923427
 20
8.6381691554
 40
0.2202473736
  0
ARC
  5
2FA
100
AcDbEntity
  8
0
100
AcDbCircle
 62
7
  6
CONTINUOUS
 10
6.5136923427
 20
8.4681691554
 40
0.01
100
AcDbArc
 50
270.0
 51
360.0
  0
ARC
  5
2FB
100
AcDbEntity
  8
0
100
AcDbCircle
 62
7
  6
CONTINUOUS
 10
6.7376923427
 20
9.0052971355
 40
0.08
100
AcDbArc
 50
108.8190633691
 51
180.0
  0
ARC
  5
2FC
100
AcDbEntity
  8
0
100
AcDbCircle
 62
7
  6
CONTINUOUS
 10
6.6776923427
 20
8.9984411055
 40
0.02
100
AcDbArc
 50
180.0
 51
270.0
  0
ARC
  5
2FD
100
AcDbEntity
  8
0
100
AcDbCircle
 62
7
  6
CONTINUOUS
 10
6.5136923427
 20
8.8081691554
 40
0.01
100
AcDbArc
 50
0.0
 51
90.0
  0
ARC
  5
2FE
100
AcDbEntity
  8
0
100
AcDbCircle
 62
7
  6
CONTINUOUS
 10
6.6454570967
 20
8.9684411055
 40
0.01
100
AcDbArc
 50
90.0
 51
131.503435647
  0
ARC
  5
2FF
100
AcDbEntity
  8
0
100
AcDbCircle
 62
7
  6
CONTINUOUS
 10
7.4916753475
 20
8.4593350571
 40
0.04
100
AcDbArc
 50
181.6702677146
 51
256.0811997271
  0
ARC
  5
300
100
AcDbEntity
  8
0
100
AcDbCircle
 62
7
  6
CONTINUOUS
 10
7.3616923427
 20
8.4681691554
 40
0.01
100
AcDbArc
 50
180.0
 51
270.0
  0
ARC
  5
301
100
AcDbEntity
  8
0
100
AcDbCircle
 62
7
  6
CONTINUOUS
 10
7.1376923427
 20
9.0052971355
 40
0.08
100
AcDbArc
 50
0.0
 51
71.1809366309
  0
ARC
  5
302
100
AcDbEntity
  8
0
100
AcDbCircle
 62
7
  6
CONTINUOUS
 10
7.4916753475
 20
8.8170032537
 40
0.04
100
AcDbArc
 50
103.9188002729
 51
178.3297322857
  0
ARC
  5
303
100
AcDbEntity
  8
0
100
AcDbCircle
 62
7
  6
CONTINUOUS
 10
7.1976923427
 20
8.9984411055
 40
0.02
100
AcDbArc
 50
270.0
 51
360.0
  0
ARC
  5
304
100
AcDbEntity
  8
0
100
AcDbCircle
 62
7
  6
CONTINUOUS
 10
7.2299275887
 20
8.9684411055
 40
0.01
100
AcDbArc
 50
48.496564353
 51
90.0
  0
ARC
  5
305
100
AcDbEntity
  8
0
100
AcDbCircle
 62
7
  6
CONTINUOUS
 10
7.3616923427
 20
8.8081691554
 40
0.01
100
AcDbArc
 50
90.0
 51
180.0
  0
ARC
  5
306
100
AcDbEntity
  8
0
100
AcDbCircle
 62
7
  6
CONTINUOUS
 10
8.3792921078
 20
5.2353504946
 40
3.73
100
AcDbArc
 50
96.0539076486
 51
103.9188002729
  0
ARC
  5
307
100
AcDbEntity
  8
0
100
AcDbCircle
 62
7
  6
CONTINUOUS
 10
8.4817668731
 20
7.0974613155
 40
1.2
100
AcDbArc
 50
149.9606392759
 51
164.5811716159
  0
ARC
  5
308
100
AcDbEntity
  8
0
100
AcDbCircle
 62
7
  6
CONTINUOUS
 10
7.9112810375
 20
7.0566695021
 40
0.6
100
AcDbArc
 50
199.946584759
 51
243.9398488367
  0
ARC
  5
309
100
AcDbEntity
  8
0
100
AcDbCircle
 62
7
  6
CONTINUOUS
 10
8.1647985621
 20
6.4493453168
 40
0.45
100
AcDbArc
 50
209.533164499
 51
242.4938578389
  0
ARC
  5
30A
100
AcDbEntity
  8
0
100
AcDbCircle
 62
7
  6
CONTINUOUS
 10
9.8463974396
 20
6.0676695021
 40
0.22
100
AcDbArc
 50
113.7786911197
 51
133.9190758133
  0
ARC
  5
30B
100
AcDbEntity
  8
0
100
AcDbCircle
 62
7
  6
CONTINUOUS
 10
9.6776923427
 20
5.9468608862
 40
0.19
100
AcDbArc
 50
133.9190758134
 51
180.0
  0
ARC
  5
30C
100
AcDbEntity
  8
0
100
AcDbCircle
 62
7
  6
CONTINUOUS
 10
7.8876923427
 20
5.9171685199
 40
0.15
100
AcDbArc
 50
0.0
 51
62.4938578388
  0
ARC
  5
30D
100
AcDbEntity
  8
0
100
AcDbCircle
 62
7
  6
CONTINUOUS
 10
9.9376923427
 20
6.6176695021
 40
0.07
100
AcDbArc
 50
90.0
 51
180.0
  0
ARC
  5
30E
100
AcDbEntity
  8
0
100
AcDbCircle
 62
7
  6
CONTINUOUS
 10
9.8076923427
 20
6.3076695021
 40
0.05
100
AcDbArc
 50
90.0
 51
180.0
  0
ARC
  5
30F
100
AcDbEntity
  8
0
100
AcDbCircle
 62
7
  6
CONTINUOUS
 10
7.7558654174
 20
6.2176695021
 40
0.02
100
AcDbArc
 50
29.5331644991
 51
90.0
  0
ARC
  5
310
100
AcDbEntity
  8
0
100
AcDbCircle
 62
7
  6
CONTINUOUS
 10
8.22148469
 20
7.1692470043
 40
0.93
100
AcDbArc
 50
164.581171616
 51
199.946584759
  0
ARC
  5
311
100
AcDbEntity
  8
0
100
AcDbCircle
 62
7
  6
CONTINUOUS
 10
7.6846923427
 20
8.6381691554
 40
0.517
100
AcDbArc
 50
334.7853651812
 51
25.2146348188
  0
ARC
  5
312
100
AcDbEntity
  8
0
100
AcDbCircle
 62
7
  6
CONTINUOUS
 10
8.3786112543
 20
8.3114191833
 40
0.25
100
AcDbArc
 50
154.7853651812
 51
176.7993265714
  0
ARC
  5
313
100
AcDbEntity
  8
0
100
AcDbCircle
 62
7
  6
CONTINUOUS
 10
8.3786112543
 20
8.9649191275
 40
0.25
100
AcDbArc
 50
183.2006734286
 51
205.2146348188
  0
ARC
  5
314
100
AcDbEntity
  8
0
100
AcDbCircle
 62
7
  6
CONTINUOUS
 10
8.0790792218
 20
8.3281691554
 40
0.05
100
AcDbArc
 50
270.0
 51
356.7993265714
  0
ARC
  5
315
100
AcDbEntity
  8
0
100
AcDbCircle
 62
7
  6
CONTINUOUS
 10
8.0790792218
 20
8.9481691554
 40
0.05
100
AcDbArc
 50
3.2006734286
 51
90.0
  0
ARC
  5
316
100
AcDbEntity
  8
0
100
AcDbCircle
 62
7
  6
CONTINUOUS
 10
8.0641102454
 20
8.9481691554
 40
0.05
100
AcDbArc
 50
90.0
 51
156.3131006372
  0
ARC
  5
317
100
AcDbEntity
  8
0
100
AcDbCircle
 62
7
  6
CONTINUOUS
 10
8.0641102454
 20
8.3281691554
 40
0.05
100
AcDbArc
 50
203.6868993628
 51
270.0
  0
ARC
  5
318
100
AcDbEntity
  8
0
100
AcDbCircle
 62
7
  6
CONTINUOUS
 10
7.9816923427
 20
8.9843256115
 40
0.04
100
AcDbArc
 50
276.0539076486
 51
336.3131006368
  0
ARC
  5
319
100
AcDbEntity
  8
0
100
AcDbCircle
 62
7
  6
CONTINUOUS
 10
7.9816923427
 20
8.2920126993
 40
0.04
100
AcDbArc
 50
23.6868993632
 51
83.9460923514
  0
ARC
  5
31A
100
AcDbEntity
  8
0
100
AcDbCircle
 62
7
  6
CONTINUOUS
 10
5.4960925777
 20
12.0409878162
 40
3.73
100
AcDbArc
 50
276.0539076486
 51
283.9188002729
  0
ARC
  5
31B
100
AcDbEntity
  8
0
100
AcDbCircle
 62
7
  6
CONTINUOUS
 10
8.3792921078
 20
12.0409878162
 40
3.73
100
AcDbArc
 50
256.0811997271
 51
263.9460923514
  0
ARC
  5
31C
100
AcDbEntity
  8
0
100
AcDbCircle
 62
7
  6
CONTINUOUS
 10
10.9376915486
 20
10.9262485768
 40
1.0399986085
100
AcDbArc
 50
322.393827632
 51
60.4523710993
  0
ARC
  5
31D
100
AcDbEntity
  8
0
100
AcDbCircle
 62
7
  6
CONTINUOUS
 10
10.9376865809
 20
10.9262518954
 40
1.0399931469
100
AcDbArc
 50
119.5474048997
 51
217.5676833052
  0
ARC
  5
31E
100
AcDbEntity
  8
0
100
AcDbCircle
 62
7
  6
CONTINUOUS
 10
10.8285020866
 20
12.8198259531
 40
0.69
100
AcDbArc
 50
300.8851747973
 51
330.2722763339
  0
ARC
  5
31F
100
AcDbEntity
  8
0
100
AcDbCircle
 62
7
  6
CONTINUOUS
 10
10.9376457714
 20
10.926218528
 40
0.6000338028
100
AcDbArc
 50
6.5773279616
 51
89.9955530273
  0
ARC
  5
320
100
AcDbEntity
  8
0
100
AcDbCircle
 62
9
  6
CONTINUOUS
 10
10.8899102723
 20
10.9038321236
 40
0.5535661272
100
AcDbArc
 50
169.5888315491
 51
170.0469865997
  0
ARC
  5
321
100
AcDbEntity
  8
0
100
AcDbCircle
 62
9
  6
CONTINUOUS
 10
10.8851014151
 20
10.9046783577
 40
0.5486833806
100
AcDbArc
 50
170.0472302073
 51
170.3451546878
  0
ARC
  5
322
100
AcDbEntity
  8
0
100
AcDbCircle
 62
9
  6
CONTINUOUS
 10
10.8775082755
 20
10.9059557068
 40
0.5409835634
100
AcDbArc
 50
170.3436499353
 51
171.2944930769
  0
ARC
  5
323
100
AcDbEntity
  8
0
100
AcDbCircle
 62
7
  6
CONTINUOUS
 10
10.8516089168
 20
10.9009316711
 40
0.5144528702
100
AcDbArc
 50
168.5144907555
 51
168.8410023064
  0
ARC
  5
324
100
AcDbEntity
  8
0
100
AcDbCircle
 62
7
  6
CONTINUOUS
 10
10.8474610552
 20
10.9017512971
 40
0.5102248045
100
AcDbArc
 50
168.8411578169
 51
169.0578018004
  0
ARC
  5
325
100
AcDbEntity
  8
0
100
AcDbCircle
 62
7
  6
CONTINUOUS
 10
10.8440277893
 20
10.9024147869
 40
0.5067280154
100
AcDbArc
 50
169.0577711923
 51
169.3034170526
  0
ARC
  5
326
100
AcDbEntity
  8
0
100
AcDbCircle
 62
7
  6
CONTINUOUS
 10
10.1176923427
 20
9.9658360399
 40
0.11
100
AcDbArc
 50
180.0
 51
197.0031751662
  0
ARC
  5
327
100
AcDbEntity
  8
0
100
AcDbCircle
 62
7
  6
CONTINUOUS
 10
10.0776923427
 20
10.0091296425
 40
0.07
100
AcDbArc
 50
122.3283277064
 51
180.0
  0
ARC
  5
328
100
AcDbEntity
  8
0
100
AcDbCircle
 62
7
  6
CONTINUOUS
 10
10.4476923427
 20
11.9276695021
 40
0.05
100
AcDbArc
 50
180.0
 51
241.9113365708
  0
ARC
  5
329
100
AcDbEntity
  8
0
100
AcDbCircle
 62
7
  6
CONTINUOUS
 10
10.4476923427
 20
12.0476695021
 40
0.05
100
AcDbArc
 50
90.0
 51
180.0
  0
ARC
  5
32A
100
AcDbEntity
  8
0
100
AcDbCircle
 62
7
  6
CONTINUOUS
 10
10.410025356
 20
11.8570918987
 40
0.03
100
AcDbArc
 50
299.5476168088
 51
61.9113365703
  0
ARC
  5
32B
100
AcDbEntity
  8
0
100
AcDbCircle
 62
7
  6
CONTINUOUS
 10
10.4076923427
 20
12.5876695021
 40
0.02
100
AcDbArc
 50
90.0
 51
180.0
  0
ARC
  5
32C
100
AcDbEntity
  8
0
100
AcDbCircle
 62
7
  6
CONTINUOUS
 10
10.4076923427
 20
12.4976695021
 40
0.02
100
AcDbArc
 50
180.0
 51
270.0
  0
ARC
  5
32D
100
AcDbEntity
  8
0
100
AcDbCircle
 62
7
  6
CONTINUOUS
 10
13.4960925777
 20
5.2353504946
 40
3.73
100
AcDbArc
 50
76.0811997271
 51
83.9460923514
  0
ARC
  5
32E
100
AcDbEntity
  8
0
100
AcDbCircle
 62
7
  6
CONTINUOUS
 10
13.3936178123
 20
7.0974613155
 40
1.2
100
AcDbArc
 50
15.4188283841
 51
30.0393607241
  0
ARC
  5
32F
100
AcDbEntity
  8
0
100
AcDbCircle
 62
7
  6
CONTINUOUS
 10
13.964103648
 20
7.0566695021
 40
0.6
100
AcDbArc
 50
296.0601511633
 51
340.053415241
  0
ARC
  5
330
100
AcDbEntity
  8
0
100
AcDbCircle
 62
7
  6
CONTINUOUS
 10
13.7105861234
 20
6.4493453168
 40
0.45
100
AcDbArc
 50
297.5061421611
 51
330.466835501
  0
ARC
  5
331
100
AcDbEntity
  8
0
100
AcDbCircle
 62
7
  6
CONTINUOUS
 10
12.0289872459
 20
6.0676695021
 40
0.22
100
AcDbArc
 50
46.0809241867
 51
66.2213088803
  0
ARC
  5
332
100
AcDbEntity
  8
0
100
AcDbCircle
 62
7
  6
CONTINUOUS
 10
12.1976923427
 20
5.9468608862
 40
0.19
100
AcDbArc
 50
0.0
 51
46.0809241866
  0
ARC
  5
333
100
AcDbEntity
  8
0
100
AcDbCircle
 62
7
  6
CONTINUOUS
 10
13.9876923427
 20
5.9171685199
 40
0.15
100
AcDbArc
 50
117.5061421612
 51
180.0
  0
ARC
  5
334
100
AcDbEntity
  8
0
100
AcDbCircle
 62
7
  6
CONTINUOUS
 10
11.9376923427
 20
6.6176695021
 40
0.07
100
AcDbArc
 50
0.0
 51
90.0
  0
ARC
  5
335
100
AcDbEntity
  8
0
100
AcDbCircle
 62
7
  6
CONTINUOUS
 10
12.0676923427
 20
6.3076695021
 40
0.05
100
AcDbArc
 50
0.0
 51
90.0
  0
ARC
  5
336
100
AcDbEntity
  8
0
100
AcDbCircle
 62
7
  6
CONTINUOUS
 10
14.1195192681
 20
6.2176695021
 40
0.02
100
AcDbArc
 50
90.0
 51
150.4668355009
  0
ARC
  5
337
100
AcDbEntity
  8
0
100
AcDbCircle
 62
7
  6
CONTINUOUS
 10
13.6538999955
 20
7.1692470043
 40
0.93
100
AcDbArc
 50
340.053415241
 51
15.418828384
  0
ARC
  5
338
100
AcDbEntity
  8
0
100
AcDbCircle
 62
7
  6
CONTINUOUS
 10
14.1906923427
 20
8.6381691554
 40
0.517
100
AcDbArc
 50
154.7853651812
 51
205.2146348188
  0
ARC
  5
339
100
AcDbEntity
  8
0
100
AcDbCircle
 62
7
  6
CONTINUOUS
 10
13.4967734312
 20
8.3114191833
 40
0.25
100
AcDbArc
 50
3.2006734286
 51
25.2146348188
  0
ARC
  5
33A
100
AcDbEntity
  8
0
100
AcDbCircle
 62
7
  6
CONTINUOUS
 10
13.4967734312
 20
8.9649191275
 40
0.25
100
AcDbArc
 50
334.7853651812
 51
356.7993265714
  0
ARC
  5
33B
100
AcDbEntity
  8
0
100
AcDbCircle
 62
7
  6
CONTINUOUS
 10
13.7963054636
 20
8.3281691554
 40
0.05
100
AcDbArc
 50
183.2006734286
 51
270.0
  0
ARC
  5
33C
100
AcDbEntity
  8
0
100
AcDbCircle
 62
7
  6
CONTINUOUS
 10
13.7963054636
 20
8.9481691554
 40
0.05
100
AcDbArc
 50
90.0
 51
176.7993265714
  0
ARC
  5
33D
100
AcDbEntity
  8
0
100
AcDbCircle
 62
7
  6
CONTINUOUS
 10
13.81127444
 20
8.9481691554
 40
0.05
100
AcDbArc
 50
23.6868993628
 51
90.0
  0
ARC
  5
33E
100
AcDbEntity
  8
0
100
AcDbCircle
 62
7
  6
CONTINUOUS
 10
13.81127444
 20
8.3281691554
 40
0.05
100
AcDbArc
 50
270.0
 51
336.3131006372
  0
ARC
  5
33F
100
AcDbEntity
  8
0
100
AcDbCircle
 62
7
  6
CONTINUOUS
 10
13.8936923427
 20
8.9843256115
 40
0.04
100
AcDbArc
 50
203.6868993632
 51
263.9460923514
  0
ARC
  5
340
100
AcDbEntity
  8
0
100
AcDbCircle
 62
7
  6
CONTINUOUS
 10
13.8936923427
 20
8.2920126993
 40
0.04
100
AcDbArc
 50
96.0539076486
 51
156.3131006368
  0
ARC
  5
341
100
AcDbEntity
  8
0
100
AcDbCircle
 62
7
  6
CONTINUOUS
 10
16.3792921078
 20
5.2353504946
 40
3.73
100
AcDbArc
 50
96.0539076486
 51
103.9188002729
  0
ARC
  5
342
100
AcDbEntity
  8
0
100
AcDbCircle
 62
7
  6
CONTINUOUS
 10
16.4817668731
 20
7.0974613155
 40
1.2
100
AcDbArc
 50
149.9606392759
 51
164.5811716159
  0
ARC
  5
343
100
AcDbEntity
  8
0
100
AcDbCircle
 62
7
  6
CONTINUOUS
 10
15.9112810375
 20
7.0566695021
 40
0.6
100
AcDbArc
 50
199.946584759
 51
243.9398488367
  0
ARC
  5
344
100
AcDbEntity
  8
0
100
AcDbCircle
 62
7
  6
CONTINUOUS
 10
16.1647985621
 20
6.4493453168
 40
0.45
100
AcDbArc
 50
209.533164499
 51
242.4938578389
  0
ARC
  5
345
100
AcDbEntity
  8
0
100
AcDbCircle
 62
7
  6
CONTINUOUS
 10
15.8876923427
 20
5.9171685199
 40
0.15
100
AcDbArc
 50
0.0
 51
62.4938578388
  0
ARC
  5
346
100
AcDbEntity
  8
0
100
AcDbCircle
 62
7
  6
CONTINUOUS
 10
15.7558654174
 20
6.2176695021
 40
0.02
100
AcDbArc
 50
29.5331644991
 51
90.0
  0
ARC
  5
347
100
AcDbEntity
  8
0
100
AcDbCircle
 62
7
  6
CONTINUOUS
 10
14.4099611621
 20
7.8376695021
 40
0.06
100
AcDbArc
 50
90.0
 51
218.3803609955
  0
ARC
  5
348
100
AcDbEntity
  8
0
100
AcDbCircle
 62
7
  6
CONTINUOUS
 10
15.2576923427
 20
8.0476695021
 40
0.01
100
AcDbArc
 50
0.0
 51
90.0
  0
ARC
  5
349
100
AcDbEntity
  8
0
100
AcDbCircle
 62
7
  6
CONTINUOUS
 10
14.6176923427
 20
8.0476695021
 40
0.01
100
AcDbArc
 50
90.0
 51
180.0
  0
ARC
  5
34A
100
AcDbEntity
  8
0
100
AcDbCircle
 62
7
  6
CONTINUOUS
 10
15.3776923427
 20
7.9676695021
 40
0.01
100
AcDbArc
 50
0.0
 51
90.0
  0
ARC
  5
34B
100
AcDbEntity
  8
0
100
AcDbCircle
 62
7
  6
CONTINUOUS
 10
14.4976923427
 20
7.9676695021
 40
0.01
100
AcDbArc
 50
90.0
 51
180.0
  0
ARC
  5
34C
100
AcDbEntity
  8
0
100
AcDbCircle
 62
7
  6
CONTINUOUS
 10
14.383709338
 20
8.4593350571
 40
0.04
100
AcDbArc
 50
283.9188002729
 51
358.3297322854
  0
ARC
  5
34D
100
AcDbEntity
  8
0
100
AcDbCircle
 62
7
  6
CONTINUOUS
 10
14.5136923427
 20
8.4681691554
 40
0.01
100
AcDbArc
 50
270.0
 51
360.0
  0
ARC
  5
34E
100
AcDbEntity
  8
0
100
AcDbCircle
 62
7
  6
CONTINUOUS
 10
14.7376923427
 20
9.0052971355
 40
0.08
100
AcDbArc
 50
108.8190633691
 51
180.0
  0
ARC
  5
34F
100
AcDbEntity
  8
0
100
AcDbCircle
 62
7
  6
CONTINUOUS
 10
14.383709338
 20
8.8170032537
 40
0.04
100
AcDbArc
 50
1.6702677143
 51
76.0811997271
  0
ARC
  5
350
100
AcDbEntity
  8
0
100
AcDbCircle
 62
7
  6
CONTINUOUS
 10
14.6776923427
 20
8.9984411055
 40
0.02
100
AcDbArc
 50
180.0
 51
270.0
  0
ARC
  5
351
100
AcDbEntity
  8
0
100
AcDbCircle
 62
7
  6
CONTINUOUS
 10
14.5136923427
 20
8.8081691554
 40
0.01
100
AcDbArc
 50
0.0
 51
90.0
  0
ARC
  5
352
100
AcDbEntity
  8
0
100
AcDbCircle
 62
7
  6
CONTINUOUS
 10
14.6454570967
 20
8.9684411055
 40
0.01
100
AcDbArc
 50
90.0
 51
131.503435647
  0
ARC
  5
353
100
AcDbEntity
  8
0
100
AcDbCircle
 62
7
  6
CONTINUOUS
 10
14.9958968809
 20
8.481748156
 40
3.5
100
AcDbArc
 50
168.8091951467
 51
208.7615392219
  0
ARC
  5
354
100
AcDbEntity
  8
0
100
AcDbCircle
 62
7
  6
CONTINUOUS
 10
14.9376923427
 20
8.4184411055
 40
0.7
100
AcDbArc
 50
71.180936631
 51
108.819063369
  0
ARC
  5
355
100
AcDbEntity
  8
0
100
AcDbCircle
 62
7
  6
CONTINUOUS
 10
14.9376923427
 20
8.6381691554
 40
0.451
100
AcDbArc
 50
23.370340497
 51
48.4965643543
  0
ARC
  5
356
100
AcDbEntity
  8
0
100
AcDbCircle
 62
7
  6
CONTINUOUS
 10
14.9376923427
 20
8.6381691554
 40
0.451
100
AcDbArc
 50
306.9334449091
 51
336.629659503
  0
ARC
  5
357
100
AcDbEntity
  8
0
100
AcDbCircle
 62
7
  6
CONTINUOUS
 10
14.9376923427
 20
8.6381691554
 40
0.451
100
AcDbArc
 50
203.370340497
 51
233.0665550909
  0
ARC
  5
358
100
AcDbEntity
  8
0
100
AcDbCircle
 62
7
  6
CONTINUOUS
 10
14.9376923427
 20
8.6381691554
 40
0.451
100
AcDbArc
 50
131.5034356457
 51
156.629659503
  0
CIRCLE
  5
359
100
AcDbEntity
  8
0
100
AcDbCircle
 62
7
  6
CONTINUOUS
 10
14.9376923427
 20
8.6381691554
 40
0.36
  0
CIRCLE
  5
35A
100
AcDbEntity
  8
0
100
AcDbCircle
 62
9
  6
CONTINUOUS
 10
14.9376923427
 20
8.6381691554
 40
0.312791662
  0
CIRCLE
  5
35B
100
AcDbEntity
  8
0
100
AcDbCircle
 62
9
  6
CONTINUOUS
 10
14.9376923427
 20
8.6381691554
 40
0.2202473736
  0
ARC
  5
35C
100
AcDbEntity
  8
0
100
AcDbCircle
 62
7
  6
CONTINUOUS
 10
15.3616923427
 20
8.4681691554
 40
0.01
100
AcDbArc
 50
180.0
 51
270.0
  0
ARC
  5
35D
100
AcDbEntity
  8
0
100
AcDbCircle
 62
7
  6
CONTINUOUS
 10
15.1376923427
 20
9.0052971355
 40
0.08
100
AcDbArc
 50
0.0
 51
71.1809366309
  0
ARC
  5
35E
100
AcDbEntity
  8
0
100
AcDbCircle
 62
7
  6
CONTINUOUS
 10
15.1976923427
 20
8.9984411055
 40
0.02
100
AcDbArc
 50
270.0
 51
360.0
  0
ARC
  5
35F
100
AcDbEntity
  8
0
100
AcDbCircle
 62
7
  6
CONTINUOUS
 10
15.2299275887
 20
8.9684411055
 40
0.01
100
AcDbArc
 50
48.496564353
 51
90.0
  0
ARC
  5
360
100
AcDbEntity
  8
0
100
AcDbCircle
 62
7
  6
CONTINUOUS
 10
15.3616923427
 20
8.8081691554
 40
0.01
100
AcDbArc
 50
90.0
 51
180.0
  0
ARC
  5
361
100
AcDbEntity
  8
0
100
AcDbCircle
 62
7
  6
CONTINUOUS
 10
16.22148469
 20
7.1692470043
 40
0.93
100
AcDbArc
 50
164.581171616
 51
199.946584759
  0
ARC
  5
362
100
AcDbEntity
  8
0
100
AcDbCircle
 62
7
  6
CONTINUOUS
 10
15.4654235234
 20
7.8376695021
 40
0.06
100
AcDbArc
 50
321.6196390045
 51
90.0
  0
ARC
  5
363
100
AcDbEntity
  8
0
100
AcDbCircle
 62
7
  6
CONTINUOUS
 10
15.6846923427
 20
8.6381691554
 40
0.517
100
AcDbArc
 50
334.7853651812
 51
25.2146348188
  0
ARC
  5
364
100
AcDbEntity
  8
0
100
AcDbCircle
 62
7
  6
CONTINUOUS
 10
16.3786112543
 20
8.3114191833
 40
0.25
100
AcDbArc
 50
154.7853651812
 51
176.7993265714
  0
ARC
  5
365
100
AcDbEntity
  8
0
100
AcDbCircle
 62
7
  6
CONTINUOUS
 10
16.3786112543
 20
8.9649191275
 40
0.25
100
AcDbArc
 50
183.2006734286
 51
205.2146348188
  0
ARC
  5
366
100
AcDbEntity
  8
0
100
AcDbCircle
 62
7
  6
CONTINUOUS
 10
16.0790792218
 20
8.3281691554
 40
0.05
100
AcDbArc
 50
270.0
 51
356.7993265714
  0
ARC
  5
367
100
AcDbEntity
  8
0
100
AcDbCircle
 62
7
  6
CONTINUOUS
 10
16.0790792218
 20
8.9481691554
 40
0.05
100
AcDbArc
 50
3.2006734286
 51
90.0
  0
ARC
  5
368
100
AcDbEntity
  8
0
100
AcDbCircle
 62
7
  6
CONTINUOUS
 10
16.0641102454
 20
8.9481691554
 40
0.05
100
AcDbArc
 50
90.0
 51
156.3131006372
  0
ARC
  5
369
100
AcDbEntity
  8
0
100
AcDbCircle
 62
7
  6
CONTINUOUS
 10
16.0641102454
 20
8.3281691554
 40
0.05
100
AcDbArc
 50
203.6868993628
 51
270.0
  0
ARC
  5
36A
100
AcDbEntity
  8
0
100
AcDbCircle
 62
7
  6
CONTINUOUS
 10
15.4916753475
 20
8.4593350571
 40
0.04
100
AcDbArc
 50
181.6702677146
 51
256.0811997271
  0
ARC
  5
36B
100
AcDbEntity
  8
0
100
AcDbCircle
 62
7
  6
CONTINUOUS
 10
15.9816923427
 20
8.9843256115
 40
0.04
100
AcDbArc
 50
276.0539076486
 51
336.3131006368
  0
ARC
  5
36C
100
AcDbEntity
  8
0
100
AcDbCircle
 62
7
  6
CONTINUOUS
 10
15.9816923427
 20
8.2920126993
 40
0.04
100
AcDbArc
 50
23.6868993632
 51
83.9460923514
  0
ARC
  5
36D
100
AcDbEntity
  8
0
100
AcDbCircle
 62
7
  6
CONTINUOUS
 10
15.4916753475
 20
8.8170032537
 40
0.04
100
AcDbArc
 50
103.9188002729
 51
178.3297322857
  0
ARC
  5
36E
100
AcDbEntity
  8
0
100
AcDbCircle
 62
7
  6
CONTINUOUS
 10
10.9376923427
 20
10.9262495108
 40
0.75
100
AcDbArc
 50
339.3724716962
 51
200.6275283038
  0
ARC
  5
36F
100
AcDbEntity
  8
0
100
AcDbCircle
 62
9
  6
CONTINUOUS
 10
10.9376923427
 20
10.9262495108
 40
0.6960449438
100
AcDbArc
 50
344.376959695
 51
194.7128984067
  0
ARC
  5
370
100
AcDbEntity
  8
0
100
AcDbCircle
 62
7
  6
CONTINUOUS
 10
10.9376923427
 20
10.9262495108
 40
0.652
100
AcDbArc
 50
351.6576102982
 51
188.2753275313
  0
ARC
  5
371
100
AcDbEntity
  8
0
100
AcDbCircle
 62
9
  6
CONTINUOUS
 10
10.9376923427
 20
10.9262495108
 40
0.632
100
AcDbArc
 50
355.5403419826
 51
184.5599720744
  0
ARC
  5
372
100
AcDbEntity
  8
0
100
AcDbCircle
 62
7
  6
CONTINUOUS
 10
10.9377389261
 20
10.9262185291
 40
0.6000338077
100
AcDbArc
 50
90.0044481478
 51
173.4226722661
  0
ARC
  5
373
100
AcDbEntity
  8
0
100
AcDbCircle
 62
9
  6
CONTINUOUS
 10
10.985261663
 20
10.9037937565
 40
0.5537823087
100
AcDbArc
 50
9.9767062887
 51
10.4205316324
  0
ARC
  5
374
100
AcDbEntity
  8
0
100
AcDbCircle
 62
9
  6
CONTINUOUS
 10
10.9901342202
 20
10.9046527246
 40
0.5488346186
100
AcDbArc
 50
9.6548279971
 51
9.9765163667
  0
ARC
  5
375
100
AcDbEntity
  8
0
100
AcDbCircle
 62
9
  6
CONTINUOUS
 10
10.9978278499
 20
10.9059477163
 40
0.5410327757
100
AcDbArc
 50
8.71379078
 51
9.6562752502
  0
ARC
  5
376
100
AcDbEntity
  8
0
100
AcDbCircle
 62
7
  6
CONTINUOUS
 10
11.0231434874
 20
10.9008044247
 40
0.5150978278
100
AcDbArc
 50
11.2297472823
 51
11.4964968916
  0
ARC
  5
377
100
AcDbEntity
  8
0
100
AcDbCircle
 62
7
  6
CONTINUOUS
 10
11.0270941319
 20
10.9015890565
 40
0.5110700196
100
AcDbArc
 50
10.981239088
 51
11.2297196497
  0
ARC
  5
378
100
AcDbEntity
  8
0
100
AcDbCircle
 62
7
  6
CONTINUOUS
 10
11.031076648
 20
10.9023614167
 40
0.5070132999
100
AcDbArc
 50
10.6955532664
 51
10.9812844907
  0
ARC
  5
379
100
AcDbEntity
  8
0
100
AcDbCircle
 62
7
  6
CONTINUOUS
 10
11.7576923427
 20
9.9658360399
 40
0.11
100
AcDbArc
 50
352.2996039236
 51
360.0
  0
ARC
  5
37A
100
AcDbEntity
  8
0
100
AcDbCircle
 62
7
  6
CONTINUOUS
 10
11.7976923427
 20
10.0091296425
 40
0.07
100
AcDbArc
 50
0.0
 51
57.6716722936
  0
ARC
  5
37B
100
AcDbEntity
  8
0
100
AcDbCircle
 62
7
  6
CONTINUOUS
 10
13.4960925777
 20
12.0409878162
 40
3.73
100
AcDbArc
 50
276.0539076486
 51
283.9188002729
  0
ARC
  5
37C
100
AcDbEntity
  8
0
100
AcDbCircle
 62
7
  6
CONTINUOUS
 10
10.9376923427
 20
11.6976695021
 40
1.03
100
AcDbArc
 50
62.0668985224
 51
117.9331014776
  0
ARC
  5
37D
100
AcDbEntity
  8
0
100
AcDbCircle
 62
7
  6
CONTINUOUS
 10
11.0468825989
 20
12.8198259531
 40
0.69
100
AcDbArc
 50
209.7277236661
 51
239.1148252027
  0
ARC
  5
37E
100
AcDbEntity
  8
0
100
AcDbCircle
 62
7
  6
CONTINUOUS
 10
11.4276923427
 20
11.9276695021
 40
0.05
100
AcDbArc
 50
298.0886634292
 51
360.0
  0
ARC
  5
37F
100
AcDbEntity
  8
0
100
AcDbCircle
 62
7
  6
CONTINUOUS
 10
11.4276923427
 20
12.0476695021
 40
0.05
100
AcDbArc
 50
0.0
 51
90.0
  0
ARC
  5
380
100
AcDbEntity
  8
0
100
AcDbCircle
 62
7
  6
CONTINUOUS
 10
11.4653593295
 20
11.8570918987
 40
0.03
100
AcDbArc
 50
118.0886634297
 51
240.4523831912
  0
ARC
  5
381
100
AcDbEntity
  8
0
100
AcDbCircle
 62
7
  6
CONTINUOUS
 10
11.4676923427
 20
12.5876695021
 40
0.02
100
AcDbArc
 50
0.0
 51
90.0
  0
ARC
  5
382
100
AcDbEntity
  8
0
100
AcDbCircle
 62
7
  6
CONTINUOUS
 10
11.4676923427
 20
12.4976695021
 40
0.02
100
AcDbArc
 50
270.0
 51
360.0
  0
ARC
  5
383
100
AcDbEntity
  8
0
100
AcDbCircle
 62
7
  6
CONTINUOUS
 10
16.3792921078
 20
12.0409878162
 40
3.73
100
AcDbArc
 50
256.0811997271
 51
263.9460923514
  0
SPLINE
  5
384
100
AcDbEntity
  8
0
100
AcDbSpline
 62
7
  6
CONTINUOUS
 70
0
 71
3
 72
23
 73
19
 74
0
 42
0.0000001
 43
0.0000001
 44
0.0000000001
 40
0.0
 40
0.0
 40
0.0
 40
0.0
 40
0.0613328599
 40
0.1218679416
 40
0.181952953
 40
0.2419110886
 40
0.3020354274
 40
0.3625474686
 40
0.423596843
 40
0.4852804775
 40
0.5476538363
 40
0.610733003
 40
0.6744838725
 40
0.7388282536
 40
0.803652943
 40
0.8688497906
 40
0.9343134805
 40
1.0
 40
1.0
 40
1.0
 40
1.0
 10
10.9376923427
 20
11.5262495108
 30
0.0
 10
10.9203088589
 20
11.5262495108
 30
0.0
 10
10.8857435562
 20
11.5245877411
 30
0.0
 10
10.8346413118
 20
11.5170962497
 30
0.0
 10
10.7848823478
 20
11.5047749736
 30
0.0
 10
10.7366482672
 20
11.4877756651
 30
0.0
 10
10.6901284069
 20
11.4662473941
 30
0.0
 10
10.6455019927
 20
11.4404159268
 30
0.0
 10
10.6029434343
 20
11.4105361191
 30
0.0
 10
10.562642289
 20
11.3768521119
 30
0.0
 10
10.5248065861
 20
11.339600301
 30
0.0
 10
10.4896302187
 20
11.2990541225
 30
0.0
 10
10.457262036
 20
11.2555393567
 30
0.0
 10
10.4278832268
 20
11.2093659493
 30
0.0
 10
10.4017692152
 20
11.1608036603
 30
0.0
 10
10.3792008948
 20
11.1101434311
 30
0.0
 10
10.3605352839
 20
11.0576585794
 30
0.0
 10
10.3511649348
 20
11.0216142155
 30
0.0
 10
10.347457916
 20
11.0033695749
 30
0.0
  0
SPLINE
  5
385
100
AcDbEntity
  8
0
100
AcDbSpline
 62
7
  6
CONTINUOUS
 70
0
 71
3
 72
23
 73
19
 74
0
 42
0.0000001
 43
0.0000001
 44
0.0000000001
 40
0.0
 40
0.0
 40
0.0
 40
0.0
 40
0.0656864596
 40
0.1311501773
 40
0.1963469341
 40
0.2611714143
 40
0.3255154885
 40
0.3892659842
 40
0.4523447884
 40
0.514717847
 40
0.5764012894
 40
0.6374505945
 40
0.6979627055
 40
0.7580872533
 40
0.8180457336
 40
0.8781311796
 40
0.938666723
 40
1.0
 40
1.0
 40
1.0
 40
1.0
 10
11.527906852
 20
11.0034675533
 30
0.0
 10
11.5241967451
 20
11.0217093172
 30
0.0
 10
11.5148215558
 20
11.0577478235
 30
0.0
 10
11.4961513018
 20
11.1102240091
 30
0.0
 10
11.4735799398
 20
11.1608756465
 30
0.0
 10
11.4474640969
 20
11.2094293873
 30
0.0
 10
11.4180845588
 20
11.2555943987
 30
0.0
 10
11.3857166104
 20
11.2991010207
 30
0.0
 10
11.3505412667
 20
11.3396393426
 30
0.0
 10
11.3127073474
 20
11.376883717
 30
0.0
 10
11.2724087338
 20
11.4105608684
 30
0.0
 10
11.2298533673
 20
11.4404344794
 30
0.0
 10
11.1852307349
 20
11.4662604858
 30
0.0
 10
11.1387151797
 20
11.4877841114
 30
0.0
 10
11.0904858814
 20
11.5047797114
 30
0.0
 10
11.0407321048
 20
11.5170982776
 30
0.0
 10
10.9896353893
 20
11.5245881092
 30
0.0
 10
10.9550739029
 20
11.5262495108
 30
0.0
 10
10.9376923427
 20
11.5262495108
 30
0.0
  0
SPLINE
  5
386
100
AcDbEntity
  8
0
100
AcDbSpline
 62
7
  6
CONTINUOUS
 70
0
 71
3
 72
33
 73
29
 74
0
 42
0.0000001
 43
0.0000001
 44
0.0000000001
 40
0.0
 40
0.0
 40
0.0
 40
0.0
 40
0.0026303171
 40
0.0052437338
 40
0.0079362022
 40
0.0107733396
 40
0.0170000916
 40
0.023998493
 40
0.0316716963
 40
0.03997794
 40
0.0488850485
 40
0.0583476602
 40
0.068316637
 40
0.0787575172
 40
0.1009214744
 40
0.1245830006
 40
0.1495694915
 40
0.1757396501
 40
0.2030042758
 40
0.2312855487
 40
0.2605034254
 40
0.3214886474
 40
0.3856387388
 40
0.4527191165
 40
0.5226018603
 40
0.6704603346
 40
0.8291785179
 40
1.0
 40
1.0
 40
1.0
 40
1.0
 10
12.0391923427
 20
9.2568196117
 30
0.0
 10
12.0391923427
 20
9.2558363444
 30
0.0
 10
12.0389874882
 20
9.2538695343
 30
0.0
 10
12.0380711424
 20
9.2510285472
 30
0.0
 10
12.0366144799
 20
9.2483389372
 30
0.0
 10
12.0339474677
 20
9.2448289966
 30
0.0
 10
12.0294611733
 20
9.2407728585
 30
0.0
 10
12.0229669525
 20
9.2364113886
 30
0.0
 10
12.0154443757
 20
9.2322471334
 30
0.0
 10
12.0070144646
 20
9.2282995873
 30
0.0
 10
11.997771362
 20
9.2245476069
 30
0.0
 10
11.9877976858
 20
9.2209700549
 30
0.0
 10
11.9771680542
 20
9.2175425151
 30
0.0
 10
11.9618915899
 20
9.2130740664
 30
0.0
 10
11.9415049721
 20
9.2078732086
 30
0.0
 10
11.9156554583
 20
9.2021567138
 30
0.0
 10
11.8881987005
 20
9.1968173111
 30
0.0
 10
11.8593134383
 20
9.1918038174
 30
0.0
 10
11.8291292179
 20
9.1871004144
 30
0.0
 10
11.7977510818
 20
9.182683719
 30
0.0
 10
11.7538161791
 20
9.1770641729
 30
0.0
 10
11.6964657574
 20
9.1706805668
 30
0.0
 10
11.6249201118
 20
9.1639975035
 30
0.0
 10
11.5499683199
 20
9.1581087923
 30
0.0
 10
11.443720981
 20
9.1511547788
 30
0.0
 10
11.3031414656
 20
9.1444336295
 30
0.0
 10
11.1247418483
 20
9.1393810261
 30
0.0
 10
11.0015489693
 20
9.1382778828
 30
0.0
 10
10.9376923427
 20
9.1382778828
 30
0.0
  0
SPLINE
  5
387
100
AcDbEntity
  8
0
100
AcDbSpline
 62
7
  6
CONTINUOUS
 70
0
 71
3
 72
33
 73
29
 74
0
 42
0.0000001
 43
0.0000001
 44
0.0000000001
 40
0.0
 40
0.0
 40
0.0
 40
0.0
 40
0.1708214821
 40
0.3295396654
 40
0.4773981397
 40
0.5472808835
 40
0.6143612612
 40
0.6785113526
 40
0.7394965746
 40
0.7687144513
 40
0.7969957242
 40
0.8242603499
 40
0.8504305085
 40
0.8754169994
 40
0.8990785256
 40
0.9212424828
 40
0.931683363
 40
0.9416523398
 40
0.9511149515
 40
0.96002206
 40
0.9683283037
 40
0.976001507
 40
0.9829999084
 40
0.9892266604
 40
0.9920637978
 40
0.9947562662
 40
0.9973696829
 40
1.0
 40
1.0
 40
1.0
 40
1.0
 10
10.9376923427
 20
9.1382778828
 30
0.0
 10
10.8738357162
 20
9.1382778828
 30
0.0
 10
10.7506428372
 20
9.1393810261
 30
0.0
 10
10.5722432198
 20
9.1444336295
 30
0.0
 10
10.4316637044
 20
9.1511547788
 30
0.0
 10
10.3254163656
 20
9.1581087923
 30
0.0
 10
10.2504645737
 20
9.1639975035
 30
0.0
 10
10.178918928
 20
9.1706805668
 30
0.0
 10
10.1215685064
 20
9.1770641729
 30
0.0
 10
10.0776336037
 20
9.182683719
 30
0.0
 10
10.0462554676
 20
9.1871004144
 30
0.0
 10
10.0160712471
 20
9.1918038174
 30
0.0
 10
9.987185985
 20
9.1968173111
 30
0.0
 10
9.9597292272
 20
9.2021567138
 30
0.0
 10
9.9338797134
 20
9.2078732086
 30
0.0
 10
9.9134930955
 20
9.2130740664
 30
0.0
 10
9.8982166313
 20
9.2175425151
 30
0.0
 10
9.8875869996
 20
9.2209700549
 30
0.0
 10
9.8776133235
 20
9.2245476069
 30
0.0
 10
9.8683702208
 20
9.2282995873
 30
0.0
 10
9.8599403098
 20
9.2322471334
 30
0.0
 10
9.852417733
 20
9.2364113886
 30
0.0
 10
9.8459235122
 20
9.2407728585
 30
0.0
 10
9.8414372178
 20
9.2448289966
 30
0.0
 10
9.8387702056
 20
9.2483389372
 30
0.0
 10
9.8373135431
 20
9.2510285472
 30
0.0
 10
9.8363971973
 20
9.2538695343
 30
0.0
 10
9.8361923427
 20
9.2558363444
 30
0.0
 10
9.8361923427
 20
9.2568196117
 30
0.0
  0
SPLINE
  5
388
100
AcDbEntity
  8
0
100
AcDbSpline
 62
9
  6
CONTINUOUS
 70
0
 71
3
 72
23
 73
19
 74
0
 42
0.0000001
 43
0.0000001
 44
0.0000000001
 40
0.0
 40
0.0
 40
0.0
 40
0.0
 40
0.0616999904
 40
0.1229268959
 40
0.1838976478
 40
0.2448110519
 40
0.3058497725
 40
0.3671545249
 40
0.4288141722
 40
0.4908809198
 40
0.5533811274
 40
0.6163203241
 40
0.6796677824
 40
0.743360654
 40
0.8073125403
 40
0.871444749
 40
0.935685946
 40
1.0
 40
1.0
 40
1.0
 40
1.0
 10
10.9376923427
 20
11.5262495108
 30
0.0
 10
10.9201144407
 20
11.5262495108
 30
0.0
 10
10.8850702087
 20
11.5245848623
 30
0.0
 10
10.8331368237
 20
11.5171284816
 30
0.0
 10
10.7823536512
 20
11.5048559813
 30
0.0
 10
10.7329951459
 20
11.4879012843
 30
0.0
 10
10.6853434474
 20
11.4663881836
 30
0.0
 10
10.6396604481
 20
11.440535198
 30
0.0
 10
10.596188611
 20
11.4106026753
 30
0.0
 10
10.5551813311
 20
11.3768388976
 30
0.0
 10
10.5169063756
 20
11.3394848759
 30
0.0
 10
10.4816147012
 20
11.2988200554
 30
0.0
 10
10.4494858978
 20
11.2551942929
 30
0.0
 10
10.4207183579
 20
11.208942902
 30
0.0
 10
10.3955686178
 20
11.1603755834
 30
0.0
 10
10.3743027218
 20
11.1098138423
 30
0.0
 10
10.3571630729
 20
11.0576017932
 30
0.0
 10
10.3487688802
 20
11.0218885333
 30
0.0
 10
10.3454579116
 20
11.0038675376
 30
0.0
  0
LINE
  5
389
100
AcDbEntity
  8
0
100
AcDbLine
 62
9
  6
CONTINUOUS
 10
10.9376923427
 20
11.830993514
 11
10.942730004
 21
11.8309908604
  0
SPLINE
  5
38A
100
AcDbEntity
  8
0
100
AcDbSpline
 62
9
  6
CONTINUOUS
 70
0
 71
3
 72
23
 73
19
 74
0
 42
0.0000001
 43
0.0000001
 44
0.0000000001
 40
0.0
 40
0.0
 40
0.0
 40
0.0
 40
0.062908917
 40
0.1245698355
 40
0.1853774946
 40
0.2457116458
 40
0.3059270343
 40
0.3663010503
 40
0.4881840128
 40
0.5500460919
 40
0.6125874343
 40
0.6758175132
 40
0.7396994428
 40
0.8041426862
 40
0.8690601756
 40
0.9343559885
 40
0.9671325161
 40
1.0
 40
1.0
 40
1.0
 40
1.0
 10
10.9376923427
 20
11.4737790186
 30
0.0
 10
10.9206273714
 20
11.4737790186
 30
0.0
 10
10.8868154501
 20
11.4723139285
 30
0.0
 10
10.8369078829
 20
11.465644243
 30
0.0
 10
10.7884834937
 20
11.4546513686
 30
0.0
 10
10.7416225126
 20
11.439462471
 30
0.0
 10
10.696408801
 20
11.4202029537
 30
0.0
 10
10.638295101
 20
11.3892603449
 30
0.0
 10
10.5839152163
 20
11.350875965
 30
0.0
 10
10.5341137786
 20
11.3062763974
 30
0.0
 10
10.4987997599
 20
11.2695530968
 30
0.0
 10
10.4658525374
 20
11.2299881146
 30
0.0
 10
10.4354088391
 20
11.1878269055
 30
0.0
 10
10.4077416119
 20
11.1432512651
 30
0.0
 10
10.3831393057
 20
11.0964800086
 30
0.0
 10
10.3655461425
 20
11.055857702
 30
0.0
 10
10.3536221866
 20
11.0223883157
 30
0.0
 10
10.3484894633
 20
11.0053260844
 30
0.0
 10
10.3461698296
 20
10.9967173328
 30
0.0
  0
SPLINE
  5
38B
100
AcDbEntity
  8
0
100
AcDbSpline
 62
9
  6
CONTINUOUS
 70
0
 71
3
 72
26
 73
22
 74
0
 42
0.0000001
 43
0.0000001
 44
0.0000000001
 40
0.0
 40
0.0
 40
0.0
 40
0.0
 40
0.1403408691
 40
0.2074303515
 40
0.2729100448
 40
0.3371180885
 40
0.4003009376
 40
0.5242626568
 40
0.5854002652
 40
0.6460905017
 40
0.7063895187
 40
0.7662753045
 40
0.7960427573
 40
0.8256821738
 40
0.8551785313
 40
0.884515532
 40
0.9136683639
 40
0.9426199673
 40
0.9713748919
 40
0.985696732
 40
1.0
 40
1.0
 40
1.0
 40
1.0
 10
10.9376923427
 20
11.1131910555
 30
0.0
 10
10.8995864193
 20
11.1131910555
 30
0.0
 10
10.8431709061
 20
11.1100714502
 30
0.0
 10
10.7698656433
 20
11.0989833533
 30
0.0
 10
10.7176178363
 20
11.0876231852
 30
0.0
 10
10.6672402263
 20
11.0731749235
 30
0.0
 10
10.6029769754
 20
11.0500882271
 30
0.0
 10
10.541858053
 20
11.02109001
 30
0.0
 10
10.4846873243
 20
10.9865869724
 30
0.0
 10
10.4441092654
 20
10.9582538417
 30
0.0
 10
10.4057757365
 20
10.9274973776
 30
0.0
 10
10.3758179974
 20
10.8998666748
 30
0.0
 10
10.3532776716
 20
10.8765957885
 30
0.0
 10
10.3371627701
 20
10.8586141144
 30
0.0
 10
10.3218843395
 20
10.8400667906
 30
0.0
 10
10.3075313728
 20
10.820957483
 30
0.0
 10
10.2942497445
 20
10.8012629399
 30
0.0
 10
10.2822307846
 20
10.7809536819
 30
0.0
 10
10.2734642737
 20
10.7634453416
 30
0.0
 10
10.2674167544
 20
10.7490822094
 30
0.0
 10
10.2647360712
 20
10.7417822054
 30
0.0
 10
10.2635032789
 20
10.7380993797
 30
0.0
  0
SPLINE
  5
38C
100
AcDbEntity
  8
0
100
AcDbSpline
 62
9
  6
CONTINUOUS
 70
0
 71
3
 72
24
 73
20
 74
0
 42
0.0000001
 43
0.0000001
 44
0.0000000001
 40
0.0
 40
0.0
 40
0.0
 40
0.0
 40
0.1531802633
 40
0.2259808145
 40
0.296638953
 40
0.4324324443
 40
0.5616013057
 40
0.6843424972
 40
0.7139888587
 40
0.7431814678
 40
0.8000403112
 40
0.8276425236
 40
0.8546372444
 40
0.8809623924
 40
0.9065456683
 40
0.9312915496
 40
0.9551259298
 40
0.9780082219
 40
1.0
 40
1.0
 40
1.0
 40
1.0
 10
10.9376923427
 20
10.6873916431
 30
0.0
 10
10.8924239516
 20
10.6873916431
 30
0.0
 10
10.8255788675
 20
10.684513178
 30
0.0
 10
10.7384654513
 20
10.6744775883
 30
0.0
 10
10.6569963652
 20
10.6611496254
 30
0.0
 10
10.5603252311
 20
10.6382411441
 30
0.0
 10
10.4517181518
 20
10.6012288928
 30
0.0
 10
10.3758134799
 20
10.5667453487
 30
0.0
 10
10.328544987
 20
10.5413346491
 30
0.0
 10
10.2988795944
 20
10.5243279162
 30
0.0
 10
10.2704704454
 20
10.5063609589
 30
0.0
 10
10.2435609182
 20
10.4873569605
 30
0.0
 10
10.2245435713
 20
10.4728467858
 30
0.0
 10
10.2066133346
 20
10.4579277549
 30
0.0
 10
10.1899208914
 20
10.4425960908
 30
0.0
 10
10.1747098371
 20
10.4267961903
 30
0.0
 10
10.1612509374
 20
10.4104784991
 30
0.0
 10
10.1500031281
 20
10.3935418039
 30
0.0
 10
10.1442019781
 20
10.3815003801
 30
0.0
 10
10.1421722614
 20
10.3753263677
 30
0.0
  0
SPLINE
  5
38D
100
AcDbEntity
  8
0
100
AcDbSpline
 62
9
  6
CONTINUOUS
 70
0
 71
3
 72
28
 73
24
 74
0
 42
0.0000001
 43
0.0000001
 44
0.0000000001
 40
0.0
 40
0.0
 40
0.0
 40
0.0
 40
0.1644134091
 40
0.3175300072
 40
0.4608122621
 40
0.5288971404
 40
0.5945615077
 40
0.6577318972
 40
0.7182527161
 40
0.7759113997
 40
0.830289761
 40
0.856102513
 40
0.8808873905
 40
0.9045334205
 40
0.926882083
 40
0.9375150527
 40
0.94775851
 40
0.9575831439
 40
0.9669672436
 40
0.9759036503
 40
0.9843855978
 40
0.9923862527
 40
1.0
 40
1.0
 40
1.0
 40
1.0
 10
10.9376923427
 20
10.1257430594
 30
0.0
 10
10.8838747514
 20
10.1257430594
 30
0.0
 10
10.7799130612
 20
10.1232306131
 30
0.0
 10
10.6294519833
 20
10.1117035476
 30
0.0
 10
10.5110764459
 20
10.0963214507
 30
0.0
 10
10.4217101486
 20
10.0808759213
 30
0.0
 10
10.358526364
 20
10.0680752427
 30
0.0
 10
10.2981667566
 20
10.0539430832
 30
0.0
 10
10.2408306281
 20
10.0385248695
 30
0.0
 10
10.1868301553
 20
10.0219173964
 30
0.0
 10
10.1442949129
 20
10.0067971836
 30
0.0
 10
10.1124174778
 20
9.993956724
 30
0.0
 10
10.0901730015
 20
9.9841571236
 30
0.0
 10
10.0693387818
 20
9.9740083712
 30
0.0
 10
10.0530816922
 20
9.9650794708
 30
0.0
 10
10.0410375224
 20
9.9576492076
 30
0.0
 10
10.0326918259
 20
9.9520455287
 30
0.0
 10
10.0249467769
 20
9.9462977428
 30
0.0
 10
10.0178707873
 20
9.940388115
 30
0.0
 10
10.0115405302
 20
9.9343028566
 30
0.0
 10
10.006035815
 20
9.9280436923
 30
0.0
 10
10.0016118972
 20
9.9214797814
 30
0.0
 10
9.9995764947
 20
9.9167385411
 30
0.0
 10
9.9988848373
 20
9.9143442259
 30
0.0
  0
SPLINE
  5
38E
100
AcDbEntity
  8
0
100
AcDbSpline
 62
9
  6
CONTINUOUS
 70
0
 71
3
 72
28
 73
24
 74
0
 42
0.0000001
 43
0.0000001
 44
0.0000000001
 40
0.0
 40
0.0
 40
0.0
 40
0.0
 40
0.1660154897
 40
0.3205152605
 40
0.4648603396
 40
0.5333244517
 40
0.5992534149
 40
0.6625634489
 40
0.7230856889
 40
0.7805918435
 40
0.8346391788
 40
0.8602110811
 40
0.8846962502
 40
0.9079755654
 40
0.9298754794
 40
0.9402491414
 40
0.9502060895
 40
0.9597136437
 40
0.968748018
 40
0.9773007849
 40
0.9853558487
 40
0.9928833073
 40
1.0
 40
1.0
 40
1.0
 40
1.0
 10
10.9376923427
 20
9.9943848185
 30
0.0
 10
10.8820684639
 20
9.9943848185
 30
0.0
 10
10.7746622403
 20
9.9922880381
 30
0.0
 10
10.6191670404
 20
9.9825983938
 30
0.0
 10
10.4967424413
 20
9.9695834737
 30
0.0
 10
10.4042786511
 20
9.9563934333
 30
0.0
 10
10.338948364
 20
9.945402473
 30
0.0
 10
10.2765445205
 20
9.9331872271
 30
0.0
 10
10.217279586
 20
9.919756361
 30
0.0
 10
10.1614899914
 20
9.9051661858
 30
0.0
 10
10.1175333555
 20
9.8917344257
 30
0.0
 10
10.0846041183
 20
9.8802187812
 30
0.0
 10
10.061669991
 20
9.8713853102
 30
0.0
 10
10.0402143411
 20
9.8621790994
 30
0.0
 10
10.023477131
 20
9.8540086967
 30
0.0
 10
10.0110910897
 20
9.847162256
 30
0.0
 10
10.0025350371
 20
9.8419850039
 30
0.0
 10
9.9946100706
 20
9.8366505851
 30
0.0
 10
9.9873878325
 20
9.8311393137
 30
0.0
 10
9.9809464475
 20
9.8254418171
 30
0.0
 10
9.9753835222
 20
9.8195490211
 30
0.0
 10
9.9709701228
 20
9.8133146907
 30
0.0
 10
9.9690000192
 20
9.8087584967
 30
0.0
 10
9.9683638536
 20
9.8064604617
 30
0.0
  0
SPLINE
  5
38F
100
AcDbEntity
  8
0
100
AcDbSpline
 62
7
  6
CONTINUOUS
 70
0
 71
3
 72
34
 73
30
 74
0
 42
0.0000001
 43
0.0000001
 44
0.0000000001
 40
0.0
 40
0.0
 40
0.0
 40
0.0
 40
0.0025988233
 40
0.0052715675
 40
0.0080842107
 40
0.0110746821
 40
0.0176305146
 40
0.0211882398
 40
0.0249104109
 40
0.0328282419
 40
0.0413592438
 40
0.050465562
 40
0.0600989677
 40
0.0702167636
 40
0.0807877205
 40
0.1031548894
 40
0.1269614814
 40
0.1520485627
 40
0.1782852343
 40
0.2055897816
 40
0.263092622
 40
0.3240066072
 40
0.3880290209
 40
0.4549347276
 40
0.5246027962
 40
0.596946439
 40
0.6719266406
 40
0.8299810422
 40
1.0
 40
1.0
 40
1.0
 40
1.0
 10
9.8364725313
 20
9.2596270239
 30
0.0
 10
9.8366643219
 20
9.2605769136
 30
0.0
 10
9.8372536805
 20
9.2624679017
 30
0.0
 10
9.8386709631
 20
9.2651436376
 30
0.0
 10
9.8405659416
 20
9.2676858231
 30
0.0
 10
9.8437602578
 20
9.2710196293
 30
0.0
 10
9.8476390229
 20
9.2740297987
 30
0.0
 10
9.8519618052
 20
9.2768449961
 30
0.0
 10
9.8568464454
 20
9.2797224971
 30
0.0
 10
9.8635465624
 20
9.2831540793
 30
0.0
 10
9.8722760572
 20
9.2869853477
 30
0.0
 10
9.8817715844
 20
9.2906322074
 30
0.0
 10
9.891953651
 20
9.2941185273
 30
0.0
 10
9.9027563944
 20
9.2974611125
 30
0.0
 10
9.9182104229
 20
9.3018171212
 30
0.0
 10
9.9387547752
 20
9.3069025628
 30
0.0
 10
9.9647326336
 20
9.3125035365
 30
0.0
 10
9.9922558811
 20
9.3177410101
 30
0.0
 10
10.0211605661
 20
9.3226627921
 30
0.0
 10
10.0620917598
 20
9.3289291018
 30
0.0
 10
10.1159739478
 20
9.3359929977
 30
0.0
 10
10.1835983869
 20
9.343430105
 30
0.0
 10
10.2548328965
 20
9.3500112009
 30
0.0
 10
10.329408792
 20
9.3558131144
 30
0.0
 10
10.4071491478
 20
9.3608562986
 30
0.0
 10
10.4879483491
 20
9.3651714205
 30
0.0
 10
10.6017158818
 20
9.3700522061
 30
0.0
 10
10.7519584305
 20
9.3742731522
 30
0.0
 10
10.8742950769
 20
9.3753613405
 30
0.0
 10
10.9376923427
 20
9.3753613405
 30
0.0
  0
SPLINE
  5
390
100
AcDbEntity
  8
0
100
AcDbSpline
 62
7
  6
CONTINUOUS
 70
0
 71
3
 72
34
 73
30
 74
0
 42
0.0000001
 43
0.0000001
 44
0.0000000001
 40
0.0
 40
0.0
 40
0.0
 40
0.0
 40
0.1700190153
 40
0.3280734646
 40
0.4030536868
 40
0.4753973476
 40
0.5450654317
 40
0.611971151
 40
0.6759935741
 40
0.7369075646
 40
0.7944104051
 40
0.8217149497
 40
0.8479516169
 40
0.8730386913
 40
0.8968452733
 40
0.9192124283
 40
0.9297833763
 40
0.9399011618
 40
0.9495345558
 40
0.9586408602
 40
0.9671718465
 40
0.9750896603
 40
0.9788118225
 40
0.9823695378
 40
0.9889253472
 40
0.9919158071
 40
0.9947284403
 40
0.9974011779
 40
1.0
 40
1.0
 40
1.0
 40
1.0
 10
10.9376923427
 20
9.3753613405
 30
0.0
 10
11.0010896413
 20
9.3753613405
 30
0.0
 10
11.1234263485
 20
9.3742731511
 30
0.0
 10
11.2736689707
 20
9.3700522007
 30
0.0
 10
11.3874365557
 20
9.3651714101
 30
0.0
 10
11.4682357913
 20
9.3608562838
 30
0.0
 10
11.5459761779
 20
9.3558130943
 30
0.0
 10
11.6205521003
 20
9.3500111747
 30
0.0
 10
11.6917866321
 20
9.3434300716
 30
0.0
 10
11.759411088
 20
9.3359929559
 30
0.0
 10
11.8132932857
 20
9.3289290515
 30
0.0
 10
11.8542244828
 20
9.3226627335
 30
0.0
 10
11.8831291667
 20
9.3177409451
 30
0.0
 10
11.9106524099
 20
9.3125034643
 30
0.0
 10
11.9366302596
 20
9.3069024825
 30
0.0
 10
11.9571746012
 20
9.3018170328
 30
0.0
 10
11.9726286176
 20
9.2974610163
 30
0.0
 10
11.9834313491
 20
9.2941184251
 30
0.0
 10
11.9936134016
 20
9.2906320988
 30
0.0
 10
12.0031089115
 20
9.2869852318
 30
0.0
 10
12.0118383857
 20
9.2831539554
 30
0.0
 10
12.0185384827
 20
9.2797223651
 30
0.0
 10
12.0234231047
 20
9.2768448576
 30
0.0
 10
12.0277458654
 20
9.274029654
 30
0.0
 10
12.0316246042
 20
9.2710194754
 30
0.0
 10
12.0348188855
 20
9.2676856572
 30
0.0
 10
12.0367138347
 20
9.2651434619
 30
0.0
 10
12.0381310839
 20
9.2624677148
 30
0.0
 10
12.0387204162
 20
9.2605767209
 30
0.0
 10
12.0389121936
 20
9.2596268288
 30
0.0
  0
SPLINE
  5
391
100
AcDbEntity
  8
0
100
AcDbSpline
 62
9
  6
CONTINUOUS
 70
0
 71
3
 72
28
 73
24
 74
0
 42
0.0000001
 43
0.0000001
 44
0.0000000001
 40
0.0
 40
0.0
 40
0.0
 40
0.0
 40
0.0071166927
 40
0.0146441513
 40
0.0226992151
 40
0.031251982
 40
0.0402863563
 40
0.0497939105
 40
0.0597508586
 40
0.0701245206
 40
0.0920244346
 40
0.1153037498
 40
0.1397889189
 40
0.1653608212
 40
0.2194081565
 40
0.2769143111
 40
0.3374365511
 40
0.4007465851
 40
0.4666755483
 40
0.5351396604
 40
0.6794847395
 40
0.8339845103
 40
1.0
 40
1.0
 40
1.0
 40
1.0
 10
11.9070208319
 20
9.8064604617
 30
0.0
 10
11.9063846663
 20
9.8087584967
 30
0.0
 10
11.9044145627
 20
9.8133146907
 30
0.0
 10
11.9000011632
 20
9.8195490211
 30
0.0
 10
11.894438238
 20
9.8254418171
 30
0.0
 10
11.887996853
 20
9.8311393137
 30
0.0
 10
11.8807746149
 20
9.8366505851
 30
0.0
 10
11.8728496484
 20
9.8419850039
 30
0.0
 10
11.8642935958
 20
9.847162256
 30
0.0
 10
11.8519075545
 20
9.8540086967
 30
0.0
 10
11.8351703444
 20
9.8621790994
 30
0.0
 10
11.8137146945
 20
9.8713853102
 30
0.0
 10
11.7907805671
 20
9.8802187812
 30
0.0
 10
11.75785133
 20
9.8917344257
 30
0.0
 10
11.713894694
 20
9.9051661858
 30
0.0
 10
11.6581050995
 20
9.919756361
 30
0.0
 10
11.598840165
 20
9.9331872271
 30
0.0
 10
11.5364363215
 20
9.945402473
 30
0.0
 10
11.4711060344
 20
9.9563934333
 30
0.0
 10
11.3786422442
 20
9.9695834737
 30
0.0
 10
11.2562176451
 20
9.9825983938
 30
0.0
 10
11.1007224452
 20
9.9922880381
 30
0.0
 10
10.9933162216
 20
9.9943848185
 30
0.0
 10
10.9376923427
 20
9.9943848185
 30
0.0
  0
SPLINE
  5
392
100
AcDbEntity
  8
0
100
AcDbSpline
 62
9
  6
CONTINUOUS
 70
0
 71
3
 72
28
 73
24
 74
0
 42
0.0000001
 43
0.0000001
 44
0.0000000001
 40
0.0
 40
0.0
 40
0.0
 40
0.0
 40
0.0076137473
 40
0.0156144022
 40
0.0240963497
 40
0.0330327564
 40
0.0424168561
 40
0.05224149
 40
0.0624849473
 40
0.073117917
 40
0.0954665795
 40
0.1191126095
 40
0.143897487
 40
0.169710239
 40
0.2240886003
 40
0.2817472839
 40
0.3422681028
 40
0.4054384923
 40
0.4711028596
 40
0.5391877379
 40
0.6824699928
 40
0.8355865909
 40
1.0
 40
1.0
 40
1.0
 40
1.0
 10
11.8764998482
 20
9.914344226
 30
0.0
 10
11.8758081908
 20
9.9167385411
 30
0.0
 10
11.8737727882
 20
9.9214797815
 30
0.0
 10
11.8693488704
 20
9.9280436923
 30
0.0
 10
11.8638441553
 20
9.9343028566
 30
0.0
 10
11.8575138982
 20
9.940388115
 30
0.0
 10
11.8504379085
 20
9.9462977428
 30
0.0
 10
11.8426928596
 20
9.9520455287
 30
0.0
 10
11.8343471631
 20
9.9576492076
 30
0.0
 10
11.8223029932
 20
9.9650794708
 30
0.0
 10
11.8060459037
 20
9.9740083712
 30
0.0
 10
11.7852116839
 20
9.9841571236
 30
0.0
 10
11.7629672076
 20
9.993956724
 30
0.0
 10
11.7310897725
 20
10.0067971836
 30
0.0
 10
11.6885545302
 20
10.0219173964
 30
0.0
 10
11.6345540574
 20
10.0385248695
 30
0.0
 10
11.5772179288
 20
10.0539430832
 30
0.0
 10
11.5168583215
 20
10.0680752427
 30
0.0
 10
11.4536745369
 20
10.0808759213
 30
0.0
 10
11.3643082396
 20
10.0963214507
 30
0.0
 10
11.2459327021
 20
10.1117035476
 30
0.0
 10
11.0954716243
 20
10.1232306131
 30
0.0
 10
10.9915099341
 20
10.1257430594
 30
0.0
 10
10.9376923427
 20
10.1257430594
 30
0.0
  0
SPLINE
  5
393
100
AcDbEntity
  8
0
100
AcDbSpline
 62
9
  6
CONTINUOUS
 70
0
 71
3
 72
24
 73
20
 74
0
 42
0.0000001
 43
0.0000001
 44
0.0000000001
 40
0.0
 40
0.0
 40
0.0
 40
0.0
 40
0.0219917781
 40
0.0448740702
 40
0.0687084504
 40
0.0934543317
 40
0.1190376076
 40
0.1453627556
 40
0.1723574764
 40
0.1999596888
 40
0.2568185322
 40
0.2860111413
 40
0.3156575028
 40
0.4383986943
 40
0.5675675557
 40
0.703361047
 40
0.7740191855
 40
0.8468197367
 40
1.0
 40
1.0
 40
1.0
 40
1.0
 10
11.7332124241
 20
10.3753263677
 30
0.0
 10
11.7311827074
 20
10.3815003801
 30
0.0
 10
11.7253815573
 20
10.3935418039
 30
0.0
 10
11.714133748
 20
10.4104784991
 30
0.0
 10
11.7006748483
 20
10.4267961903
 30
0.0
 10
11.6854637941
 20
10.4425960908
 30
0.0
 10
11.6687713509
 20
10.4579277549
 30
0.0
 10
11.6508411142
 20
10.4728467858
 30
0.0
 10
11.6318237672
 20
10.4873569605
 30
0.0
 10
11.6049142401
 20
10.5063609589
 30
0.0
 10
11.5765050911
 20
10.5243279162
 30
0.0
 10
11.5468396985
 20
10.5413346491
 30
0.0
 10
11.4995712056
 20
10.5667453487
 30
0.0
 10
11.4236665337
 20
10.6012288928
 30
0.0
 10
11.3150594544
 20
10.6382411441
 30
0.0
 10
11.2183883203
 20
10.6611496254
 30
0.0
 10
11.1369192342
 20
10.6744775883
 30
0.0
 10
11.049805818
 20
10.684513178
 30
0.0
 10
10.9829607339
 20
10.6873916431
 30
0.0
 10
10.9376923427
 20
10.6873916431
 30
0.0
  0
SPLINE
  5
394
100
AcDbEntity
  8
0
100
AcDbSpline
 62
9
  6
CONTINUOUS
 70
0
 71
3
 72
26
 73
22
 74
0
 42
0.0000001
 43
0.0000001
 44
0.0000000001
 40
0.0
 40
0.0
 40
0.0
 40
0.0
 40
0.014303268
 40
0.0286251081
 40
0.0573800327
 40
0.0863316361
 40
0.115484468
 40
0.1448214687
 40
0.1743178262
 40
0.2039572427
 40
0.2337246955
 40
0.2936104813
 40
0.3539094983
 40
0.4145997348
 40
0.4757373432
 40
0.5996990624
 40
0.6628819115
 40
0.7270899552
 40
0.7925696485
 40
0.8596591309
 40
1.0
 40
1.0
 40
1.0
 40
1.0
 10
11.6118814066
 20
10.7380993797
 30
0.0
 10
11.6106486142
 20
10.7417822054
 30
0.0
 10
11.607967931
 20
10.7490822094
 30
0.0
 10
11.6019204118
 20
10.7634453416
 30
0.0
 10
11.5931539009
 20
10.7809536819
 30
0.0
 10
11.581134941
 20
10.8012629399
 30
0.0
 10
11.5678533127
 20
10.820957483
 30
0.0
 10
11.553500346
 20
10.8400667906
 30
0.0
 10
11.5382219154
 20
10.8586141144
 30
0.0
 10
11.5221070138
 20
10.8765957885
 30
0.0
 10
11.4995666881
 20
10.8998666748
 30
0.0
 10
11.469608949
 20
10.9274973776
 30
0.0
 10
11.4312754201
 20
10.9582538417
 30
0.0
 10
11.3906973612
 20
10.9865869724
 30
0.0
 10
11.3335266325
 20
11.02109001
 30
0.0
 10
11.2724077101
 20
11.0500882271
 30
0.0
 10
11.2081444592
 20
11.0731749235
 30
0.0
 10
11.1577668492
 20
11.0876231852
 30
0.0
 10
11.1055190422
 20
11.0989833533
 30
0.0
 10
11.0322137793
 20
11.1100714502
 30
0.0
 10
10.9757982662
 20
11.1131910555
 30
0.0
 10
10.9376923427
 20
11.1131910555
 30
0.0
  0
SPLINE
  5
395
100
AcDbEntity
  8
0
100
AcDbSpline
 62
9
  6
CONTINUOUS
 70
0
 71
3
 72
23
 73
19
 74
0
 42
0.0000001
 43
0.0000001
 44
0.0000000001
 40
0.0
 40
0.0
 40
0.0
 40
0.0
 40
0.0328674839
 40
0.0656440114
 40
0.1309398242
 40
0.1958573135
 40
0.2603005568
 40
0.3241824863
 40
0.387412565
 40
0.4499539072
 40
0.5118159862
 40
0.6336989487
 40
0.6940729648
 40
0.7542883534
 40
0.8146225049
 40
0.8754301642
 40
0.9370910828
 40
1.0
 40
1.0
 40
1.0
 40
1.0
 10
11.5292148464
 20
10.9967173678
 30
0.0
 10
11.5268952122
 20
11.0053261189
 30
0.0
 10
11.5217624878
 20
11.022388349
 30
0.0
 10
11.5098385305
 20
11.055857733
 30
0.0
 10
11.4922453661
 20
11.0964800369
 30
0.0
 10
11.4676430591
 20
11.1432512903
 30
0.0
 10
11.4399758315
 20
11.1878269276
 30
0.0
 10
11.4095321333
 20
11.2299881336
 30
0.0
 10
11.376584911
 20
11.269553113
 30
0.0
 10
11.341270893
 20
11.3062764107
 30
0.0
 10
11.2914694563
 20
11.350875975
 30
0.0
 10
11.2370895731
 20
11.3892603519
 30
0.0
 10
11.178975875
 20
11.4202029582
 30
0.0
 10
11.1337621651
 20
11.4394624739
 30
0.0
 10
11.0869011857
 20
11.4546513702
 30
0.0
 10
11.0384767984
 20
11.4656442437
 30
0.0
 10
10.9885692333
 20
11.4723139286
 30
0.0
 10
10.9547573134
 20
11.4737790186
 30
0.0
 10
10.9376923427
 20
11.4737790186
 30
0.0
  0
SPLINE
  5
396
100
AcDbEntity
  8
0
100
AcDbSpline
 62
9
  6
CONTINUOUS
 70
0
 71
3
 72
23
 73
19
 74
0
 42
0.0000001
 43
0.0000001
 44
0.0000000001
 40
0.0
 40
0.0
 40
0.0
 40
0.0
 40
0.0643141095
 40
0.1285553871
 40
0.1926875936
 40
0.2566393955
 40
0.3203321036
 40
0.383679341
 40
0.4466183097
 40
0.5091183215
 40
0.571184932
 40
0.6328445091
 40
0.69414927
 40
0.7551880824
 40
0.8161016604
 40
0.8770726397
 40
0.9382997896
 40
1.0
 40
1.0
 40
1.0
 40
1.0
 10
11.5299102847
 20
11.0039572438
 30
0.0
 10
11.5265967137
 20
11.0219757911
 30
0.0
 10
11.5181982082
 20
11.0576840185
 30
0.0
 10
11.501053899
 20
11.10988839
 30
0.0
 10
11.4797846168
 20
11.1604423439
 30
0.0
 10
11.4546326237
 20
11.2090018341
 30
0.0
 10
11.4258639158
 20
11.2552454883
 30
0.0
 10
11.3937349023
 20
11.2988636943
 30
0.0
 10
11.358443859
 20
11.3395212077
 30
0.0
 10
11.3201703418
 20
11.3768682954
 30
0.0
 10
11.279165303
 20
11.4106256861
 30
0.0
 10
11.2356964036
 20
11.4405524333
 30
0.0
 10
11.1900169598
 20
11.4664003332
 30
0.0
 10
11.1423693532
 20
11.4879091082
 30
0.0
 10
11.0930154171
 20
11.5048603658
 30
0.0
 10
11.0422371955
 20
11.5171303588
 30
0.0
 10
10.990309057
 20
11.5245852057
 30
0.0
 10
10.9552684335
 20
11.5262495108
 30
0.0
 10
10.9376923427
 20
11.5262495108
 30
0.0
  0
ENDSEC
  0
SECTION
  2
OBJECTS
  0
DICTIONARY
  5
C
100
AcDbDictionary
280
0
281
1
  3
ACAD_GROUP
350
D
  3
ACAD_MLINESTYLE
350
17
  3
ACAD_LAYOUT
350
1A
  3
ACAD_PLOTSETTINGS
350
19
  3
ACAD_PLOTSTYLENAME
350
E
  0
DICTIONARY
  5
D
102
{ACAD_REACTORS
330
C
102
}
100
AcDbDictionary
280
0
281
1
  0
ACDBDICTIONARYWDFLT
  5
E
102
{ACAD_REACTORS
330
C
102
}
100
AcDbDictionary
281
1
  3
Normal
350
F
100
AcDbDictionaryWithDefault
340
F
  0
DICTIONARY
  5
17
102
{ACAD_REACTORS
330
C
102
}
100
AcDbDictionary
280
0
281
1
  3
Standard
350
18
  0
DICTIONARY
  5
19
102
{ACAD_REACTORS
330
C
102
}
100
AcDbDictionary
281
1
  0
DICTIONARY
  5
1A
102
{ACAD_REACTORS
330
C
102
}
100
AcDbDictionary
281
1
  3
Model
350
397
  3
Layout1
350
398
  0
ACDBPLACEHOLDER
  5
F
102
{ACAD_REACTORS
330
E
102
}
  0
MLINESTYLE
  5
18
102
{ACAD_REACTORS
330
17
102
}
100
AcDbMlineStyle
  2
STANDARD
 70
0
  3

 62
256
 51
90.0
 52
90.0
 71
2
 49
0.5
 62
256
  6
BYLAYER
 49
-0.5
 62
256
  6
BYLAYER
  0
LAYOUT
  5
397
102
{ACAD_REACTORS
330
1A
102
}
100
AcDbPlotSettings
  1

  2
none_device
  4
ANSI_C_(22.00_x_17.00_Inches)
  6

 40
0.0
 41
0.0
 42
0.0
 43
0.0
 44
558.8
 45
431.8
 46
0.0
 47
0.0
 48
0.0
 49
0.0
140
0.0
141
0.0
142
1.0
143
1.0
 70
1024
 72
0
 73
0
 74
0
  7

 75
0
147
1.0
148
0.0
149
0.0
100
AcDbLayout
  1
Model
 70
0
 71
0
 10
0.0
 20
0.0
 11
22.0
 21
17.0
 12
0.0
 22
0.0
 32
0.0
 14
0.0
 24
0.0
 34
0.0
 15
0.0
 25
0.0
 35
0.0
146
0.0
 13
0.0
 23
0.0
 33
0.0
 16
1.0
 26
0.0
 36
0.0
 17
0.0
 27
1.0
 37
0.0
 76
0
330
202
345
0
346
0
  0
LAYOUT
  5
398
102
{ACAD_REACTORS
330
1A
102
}
100
AcDbPlotSettings
  1

  2
none_device
  4
ANSI_C_(22.00_x_17.00_Inches)
  6

 40
0.0
 41
0.0
 42
0.0
 43
0.0
 44
558.8
 45
431.8
 46
0.0
 47
0.0
 48
0.0
 49
0.0
140
0.0
141
0.0
142
1.0
143
1.0
 70
0
 72
0
 73
0
 74
0
  7

 75
0
147
1.0
148
0.0
149
0.0
100
AcDbLayout
  1
Layout1
 70
0
 71
1
 10
0.0
 20
0.0
 11
22.0
 21
17.0
 12
0.0
 22
0.0
 32
0.0
 14
0.0
 24
0.0
 34
0.0
 15
0.0
 25
0.0
 35
0.0
146
0.0
 13
0.0
 23
0.0
 33
0.0
 16
1.0
 26
0.0
 36
0.0
 17
0.0
 27
1.0
 37
0.0
 76
0
330
203
345
0
346
0
  0
ENDSEC
  0
EOF
