999
DXF file: 3-2451_FRONT.dxf
999
Pro/ENGINEER 2018400 by Parametric Technology Corporation
  0
SECTION
  2
HEADER
  9
$ACADVER
  1
AC1027
  9
$DWGCODEPAGE
  3
ANSI_1252
  9
$EXTMAX
 10
11.0
 20
8.5
 30
0.0
  9
$EXTMIN
 10
0.0
 20
0.0
 30
0.0
  9
$LIMMIN
 10
0.0
 20
0.0
  9
$LIMMAX
 10
11.0
 20
8.5
  9
$VIEWCTR
 10
5.5
 20
4.25
  9
$VIEWSIZE
 40
8.5
  9
$CLAYER
  8
0
  9
$LTSCALE
 40
0.605
  9
$CELTYPE
  6
BYLAYER
  9
$DIMSCALE
 40
1.0
  9
$DIMASZ
 40
0.1
  9
$DIMEXO
 40
0.0625
  9
$DIMDLI
 40
0.418
  9
$DIMEXE
 40
0.125
  9
$DIMCEN
 40
0.099
  9
$DIMLFAC
 40
1.0
  9
$DIMBLK
  1
_FILLED
  9
$DIMALT
 70
1
  9
$DIMALTD
 70
2
  9
$DIMALTTD
 70
2
  9
$DIMALTF
 40
25.4
  9
$DIMTXT
 40
0.08
  9
$DIMTOL
 70
1
  9
$DIMLIM
 70
0
  9
$DIMTFAC
 40
1.0
  9
$DIMTP
 40
0.001
  9
$DIMTM
 40
0.001
  9
$DIMGAP
 40
0.09
  9
$DIMDSEP
 70
46
  9
$AUNITS
 70
0
  9
$PDMODE
 70
3
  9
$PDSIZE
 40
0.3125
  9
$HANDSEED
  5
34D
  9
$TILEMODE
 70
1
  9
$MEASUREMENT
 70
0
  9
$INSUNITS
 70
1
  0
ENDSEC
  0
SECTION
  2
CLASSES
  0
CLASS
  1
ACDBDICTIONARYWDFLT
  2
AcDbDictionaryWithDefault
  3
AutoCAD 2000
 90
0
 91
1
280
0
281
0
  0
CLASS
  1
ACDBPLACEHOLDER
  2
AcDbPlaceHolder
  3
AutoCAD 2000
 90
0
 91
1
280
0
281
0
  0
CLASS
  1
LAYOUT
  2
AcDbLayout
  3
AutoCAD 2000
 90
0
 91
0
280
0
281
0
  0
ENDSEC
  0
SECTION
  2
TABLES
  0
TABLE
  2
VPORT
  5
8
100
AcDbSymbolTable
 70
2
  0
VPORT
  5
1F4
100
AcDbSymbolTableRecord
100
AcDbViewportTableRecord
  2
*ACTIVE
 70
0
 10
0.0
 20
0.0
 11
1.0
 21
1.0
 12
5.5
 22
4.25
 13
0.0
 23
0.0
 14
1.0
 24
1.0
 15
0.0
 25
0.0
 16
0.0
 26
0.0
 36
1.0
 17
0.0
 27
0.0
 37
0.0
 40
8.5
 41
1.2941176471
 42
50.0
 43
0.0
 44
0.0
 50
0.0
 51
0.0
 71
0
 72
100
 73
1
 74
1
 75
0
 76
0
 77
0
 78
0
  0
ENDTAB
  0
TABLE
  2
LTYPE
  5
5
100
AcDbSymbolTable
 70
6
  0
LTYPE
  5
14
100
AcDbSymbolTableRecord
100
AcDbLinetypeTableRecord
  2
BYBLOCK
 70
0
  3

 72
65
 73
0
 40
0.0
  0
LTYPE
  5
15
100
AcDbSymbolTableRecord
100
AcDbLinetypeTableRecord
  2
BYLAYER
 70
0
  3

 72
65
 73
0
 40
0.0
  0
LTYPE
  5
16
100
AcDbSymbolTableRecord
100
AcDbLinetypeTableRecord
  2
CONTINUOUS
 70
64
  3
Solid line
 72
65
 73
0
 40
0.0
  0
LTYPE
  5
1F5
100
AcDbSymbolTableRecord
100
AcDbLinetypeTableRecord
  2
CENTER
 70
64
  3
____ _ ____ _ ____ _ ____ _ ____ _ ____ _ ____
 72
65
 73
4
 40
0.6
 49
0.375
 74
0
 49
-0.075
 74
0
 49
0.075
 74
0
 49
-0.075
 74
0
  0
LTYPE
  5
1F6
100
AcDbSymbolTableRecord
100
AcDbLinetypeTableRecord
  2
HIDDEN
 70
64
  3
- - - - - - - - - - - - - - - - - - - -
 72
65
 73
2
 40
0.2
 49
0.1
 74
0
 49
-0.1
 74
0
  0
LTYPE
  5
1F7
100
AcDbSymbolTableRecord
100
AcDbLinetypeTableRecord
  2
PHANTOM
 70
64
  3
_____ _ _ _____ _ _ _____ _ _ _____
 72
65
 73
6
 40
0.8
 49
0.45
 74
0
 49
-0.05
 74
0
 49
0.1
 74
0
 49
-0.05
 74
0
 49
0.1
 74
0
 49
-0.05
 74
0
  0
LTYPE
  5
1F8
100
AcDbSymbolTableRecord
100
AcDbLinetypeTableRecord
  2
DOT
 70
64
  3
. . . . . . . . . . . . . . . . . . . .
 72
65
 73
2
 40
0.2
 49
0.1
 74
0
 49
-0.1
 74
0
  0
LTYPE
  5
1F9
100
AcDbSymbolTableRecord
100
AcDbLinetypeTableRecord
  2
DASHED
 70
64
  3
- - - - - - - - - - - - - - - - - - - -
 72
65
 73
2
 40
0.2
 49
0.1
 74
0
 49
-0.1
 74
0
  0
ENDTAB
  0
TABLE
  2
LAYER
  5
2
100
AcDbSymbolTable
 70
36
  0
LAYER
  5
10
100
AcDbSymbolTableRecord
100
AcDbLayerTableRecord
  2
0
 70
0
 62
7
  6
CONTINUOUS
370
-3
390
F
  0
LAYER
  5
1FA
100
AcDbSymbolTableRecord
100
AcDbLayerTableRecord
  2
DEFAULT_1
 70
0
 62
7
  6
CENTER
370
-3
390
F
  0
LAYER
  5
1FB
100
AcDbSymbolTableRecord
100
AcDbLayerTableRecord
  2
DEFAULT_2
 70
0
 62
8
  6
HIDDEN
370
-3
390
F
  0
LAYER
  5
1FC
100
AcDbSymbolTableRecord
100
AcDbLayerTableRecord
  2
DEFAULT_3
 70
0
 62
7
  6
PHANTOM
370
-3
390
F
  0
LAYER
  5
1FD
100
AcDbSymbolTableRecord
100
AcDbLayerTableRecord
  2
ALL_FEATURES
 70
0
 62
7
  6
CONTINUOUS
370
-3
390
F
  0
LAYER
  5
1FE
100
AcDbSymbolTableRecord
100
AcDbLayerTableRecord
  2
AXES_FEATURES
 70
0
 62
7
  6
CONTINUOUS
370
-3
390
F
  0
LAYER
  5
1FF
100
AcDbSymbolTableRecord
100
AcDbLayerTableRecord
  2
CHAMFER_FEATURES
 70
0
 62
7
  6
CONTINUOUS
370
-3
390
F
  0
LAYER
  5
200
100
AcDbSymbolTableRecord
100
AcDbLayerTableRecord
  2
COORDINATE_SYSTEMS
 70
0
 62
7
  6
CONTINUOUS
370
-3
390
F
  0
LAYER
  5
201
100
AcDbSymbolTableRecord
100
AcDbLayerTableRecord
  2
CUT_FEATURES
 70
0
 62
7
  6
CONTINUOUS
370
-3
390
F
  0
LAYER
  5
202
100
AcDbSymbolTableRecord
100
AcDbLayerTableRecord
  2
CYAN
 70
0
 62
7
  6
CONTINUOUS
370
-3
390
F
  0
LAYER
  5
203
100
AcDbSymbolTableRecord
100
AcDbLayerTableRecord
  2
DATUM_CURVES
 70
0
 62
7
  6
CONTINUOUS
370
-3
390
F
  0
LAYER
  5
204
100
AcDbSymbolTableRecord
100
AcDbLayerTableRecord
  2
DATUM_PLANES
 70
0
 62
7
  6
CONTINUOUS
370
-3
390
F
  0
LAYER
  5
205
100
AcDbSymbolTableRecord
100
AcDbLayerTableRecord
  2
DATUM_POINTS
 70
0
 62
7
  6
CONTINUOUS
370
-3
390
F
  0
LAYER
  5
206
100
AcDbSymbolTableRecord
100
AcDbLayerTableRecord
  2
DEFAULT_COORDINATE_SYSTEM
 70
0
 62
7
  6
CONTINUOUS
370
-3
390
F
  0
LAYER
  5
207
100
AcDbSymbolTableRecord
100
AcDbLayerTableRecord
  2
DEFAULT_DATUM_AXES
 70
0
 62
7
  6
CONTINUOUS
370
-3
390
F
  0
LAYER
  5
208
100
AcDbSymbolTableRecord
100
AcDbLayerTableRecord
  2
DEFAULT_DATUM_CURVES
 70
0
 62
7
  6
CONTINUOUS
370
-3
390
F
  0
LAYER
  5
209
100
AcDbSymbolTableRecord
100
AcDbLayerTableRecord
  2
DEFAULT_DATUM_PLANES
 70
0
 62
7
  6
CONTINUOUS
370
-3
390
F
  0
LAYER
  5
20A
100
AcDbSymbolTableRecord
100
AcDbLayerTableRecord
  2
DEFAULT_SURFACES
 70
0
 62
7
  6
CONTINUOUS
370
-3
390
F
  0
LAYER
  5
20B
100
AcDbSymbolTableRecord
100
AcDbLayerTableRecord
  2
DIMENSIONS
 70
0
 62
7
  6
CONTINUOUS
370
-3
390
F
  0
LAYER
  5
20C
100
AcDbSymbolTableRecord
100
AcDbLayerTableRecord
  2
HOLE_FEATURES
 70
0
 62
7
  6
CONTINUOUS
370
-3
390
F
  0
LAYER
  5
20D
100
AcDbSymbolTableRecord
100
AcDbLayerTableRecord
  2
PART_REFERENCE_DIMENSIONS
 70
0
 62
7
  6
CONTINUOUS
370
-3
390
F
  0
LAYER
  5
20E
100
AcDbSymbolTableRecord
100
AcDbLayerTableRecord
  2
PLATED_SURFACE_AREA
 70
0
 62
7
  6
CONTINUOUS
370
-3
390
F
  0
LAYER
  5
20F
100
AcDbSymbolTableRecord
100
AcDbLayerTableRecord
  2
POINTS
 70
0
 62
7
  6
CONTINUOUS
370
-3
390
F
  0
LAYER
  5
210
100
AcDbSymbolTableRecord
100
AcDbLayerTableRecord
  2
PROTRUSION_FEATURES
 70
0
 62
7
  6
CONTINUOUS
370
-3
390
F
  0
LAYER
  5
211
100
AcDbSymbolTableRecord
100
AcDbLayerTableRecord
  2
QUILTS
 70
0
 62
7
  6
CONTINUOUS
370
-3
390
F
  0
LAYER
  5
212
100
AcDbSymbolTableRecord
100
AcDbLayerTableRecord
  2
REFERENCE_DIMENSIONS
 70
0
 62
7
  6
CONTINUOUS
370
-3
390
F
  0
LAYER
  5
213
100
AcDbSymbolTableRecord
100
AcDbLayerTableRecord
  2
ROUND_FEATURES
 70
0
 62
7
  6
CONTINUOUS
370
-3
390
F
  0
LAYER
  5
214
100
AcDbSymbolTableRecord
100
AcDbLayerTableRecord
  2
SURFACE_FEATURES
 70
0
 62
7
  6
CONTINUOUS
370
-3
390
F
  0
LAYER
  5
215
100
AcDbSymbolTableRecord
100
AcDbLayerTableRecord
  2
WETTED_SURFACES
 70
0
 62
7
  6
CONTINUOUS
370
-3
390
F
  0
LAYER
  5
216
100
AcDbSymbolTableRecord
100
AcDbLayerTableRecord
  2
WETTED_SURFACE_AREA
 70
0
 62
7
  6
CONTINUOUS
370
-3
390
F
  0
LAYER
  5
217
100
AcDbSymbolTableRecord
100
AcDbLayerTableRecord
  2
WHITE
 70
0
 62
7
  6
CONTINUOUS
370
-3
390
F
  0
ENDTAB
  0
TABLE
  2
STYLE
  5
3
100
AcDbSymbolTable
 70
1
  0
STYLE
  5
11
100
AcDbSymbolTableRecord
100
AcDbTextStyleTableRecord
  2
STANDARD
 70
0
 40
0.0
 41
0.8
 50
0.0
 71
0
 42
0.2
  3
txt
  4

  0
STYLE
  5
218
100
AcDbSymbolTableRecord
100
AcDbTextStyleTableRecord
  2
TEXTSTYLE_1
 70
0
 40
0.0
 41
0.8
 50
0.0
 71
0
 42
0.2
  3
gdt
  4

  0
ENDTAB
  0
TABLE
  2
VIEW
  5
6
100
AcDbSymbolTable
 70
0
  0
ENDTAB
  0
TABLE
  2
UCS
  5
7
100
AcDbSymbolTable
 70
0
  0
ENDTAB
  0
TABLE
  2
APPID
  5
9
100
AcDbSymbolTable
 70
1
  0
APPID
  5
219
100
AcDbSymbolTableRecord
100
AcDbRegAppTableRecord
  2
ACAD
 70
0
  0
ENDTAB
  0
TABLE
  2
BLOCK_RECORD
  5
1
100
AcDbSymbolTable
 70
0
  0
BLOCK_RECORD
  5
21A
100
AcDbSymbolTableRecord
100
AcDbBlockTableRecord
  2
*Model_Space
  0
BLOCK_RECORD
  5
21B
100
AcDbSymbolTableRecord
100
AcDbBlockTableRecord
  2
*Paper_Space
  0
BLOCK_RECORD
  5
21C
100
AcDbSymbolTableRecord
100
AcDbBlockTableRecord
  2
_FILLED
  0
ENDTAB
  0
TABLE
  2
DIMSTYLE
  5
A
100
AcDbSymbolTable
 70
1
100
AcDbDimStyleTable
 71
0
  0
DIMSTYLE
105
21D
100
AcDbSymbolTableRecord
100
AcDbDimStyleTableRecord
  2
STANDARD
 70
0
  3

  4

 40
1.0
 41
0.1
 42
0.0625
 43
0.38
 44
0.125
 45
0.0
 46
0.0
 47
0.001
 48
0.001
140
0.08
141
0.09
142
0.0
143
25.4
144
1.0
145
0.0
146
1.0
147
0.09
 71
1.0
 72
0.0
 73
1
 74
1
 75
0
 76
0
 77
0
 78
4
 79
1
170
1
171
2
172
0
173
0
174
0
175
0
176
0
177
0
178
0
270
2
179
3
271
3
272
3
273
2
274
2
275
0
280
0
281
0
282
0
283
1
284
4
285
0
286
0
287
3
288
0
340
11
278
46
341
21C
342
21C
343
21C
344
21C
  0
ENDTAB
  0
ENDSEC
  0
SECTION
  2
BLOCKS
  0
BLOCK
  5
20
100
AcDbEntity
  8
0
100
AcDbBlockBegin
  2
*Model_Space
 70
0
 10
0.0
 20
0.0
 30
0.0
  3
*Model_Space
  1

  0
ENDBLK
  5
21
100
AcDbEntity
  8
0
100
AcDbBlockEnd
  0
BLOCK
  5
1C
100
AcDbEntity
  8
0
100
AcDbBlockBegin
  2
*Paper_Space
 70
0
 10
0.0
 20
0.0
 30
0.0
  3
*Paper_Space
  1

  0
ENDBLK
  5
1D
100
AcDbEntity
  8
0
100
AcDbBlockEnd
  0
BLOCK
  5
21E
100
AcDbEntity
  8
0
100
AcDbBlockBegin
  2
_FILLED
 70
64
 10
0.0
 20
0.0
  3
_FILLED
  1

  0
SOLID
  5
21F
100
AcDbEntity
  8
0
  6
BYBLOCK
 62
0
100
AcDbTrace
 10
0.0
 20
0.0
 11
-1.0
 21
0.2
 12
-1.0
 22
-0.2
 13
-1.0
 23
-0.2
  0
ENDBLK
  5
220
100
AcDbEntity
  8
0
  6
BYBLOCK
 62
0
100
AcDbBlockEnd
  0
ENDSEC
  0
SECTION
  2
ENTITIES
  0
MTEXT
  5
221
100
AcDbEntity
  8
0
100
AcDbMText
 62
2
  6
CONTINUOUS
  7
STANDARD
 71
3
 72
1
 10
4.3931677019
 20
2.7303797174
 30
0.0
 11
1.0
 21
0.0
 31
0.0
 73
2
 44
0.9
  1
SCALE  .500
 40
0.08
 41
0.704
  0
LINE
  5
222
100
AcDbEntity
  8
0
100
AcDbLine
 62
7
  6
CONTINUOUS
 10
0.0
 20
0.0
 11
0.0
 21
8.5
  0
LINE
  5
223
100
AcDbEntity
  8
0
100
AcDbLine
 62
7
  6
CONTINUOUS
 10
0.0
 20
0.0
 11
11.0
 21
0.0
  0
LINE
  5
224
100
AcDbEntity
  8
0
100
AcDbLine
 62
7
  6
CONTINUOUS
 10
0.0
 20
8.5
 11
11.0
 21
8.5
  0
LINE
  5
225
100
AcDbEntity
  8
0
100
AcDbLine
 62
7
  6
CONTINUOUS
 10
11.0
 20
0.0
 11
11.0
 21
8.5
  0
LINE
  5
226
100
AcDbEntity
  8
0
100
AcDbLine
 62
7
  6
CONTINUOUS
 10
1.5813579193
 20
4.6885715384
 11
1.5813579193
 21
4.9380758591
  0
LINE
  5
227
100
AcDbEntity
  8
0
100
AcDbLine
 62
7
  6
CONTINUOUS
 10
1.592601574
 20
4.6651578777
 11
1.592601574
 21
4.9614895199
  0
LINE
  5
228
100
AcDbEntity
  8
0
100
AcDbLine
 62
7
  6
CONTINUOUS
 10
1.6413808227
 20
4.5899650971
 11
1.6413808227
 21
5.0366823005
  0
LINE
  5
229
100
AcDbEntity
  8
0
100
AcDbLine
 62
7
  6
CONTINUOUS
 10
1.6704064835
 20
4.5675486988
 11
1.6704064835
 21
5.0590986988
  0
LINE
  5
22A
100
AcDbEntity
  8
0
100
AcDbLine
 62
7
  6
CONTINUOUS
 10
1.6813579193
 20
4.5675486988
 11
1.6813579193
 21
5.0590986988
  0
LINE
  5
22B
100
AcDbEntity
  8
0
100
AcDbLine
 62
7
  6
CONTINUOUS
 10
1.7013579193
 20
4.5875486988
 11
1.7013579193
 21
5.0390986988
  0
LINE
  5
22C
100
AcDbEntity
  8
0
100
AcDbLine
 62
7
  6
CONTINUOUS
 10
2.7888579193
 20
4.6738236988
 11
2.7888579193
 21
4.9528236988
  0
LINE
  5
22D
100
AcDbEntity
  8
0
100
AcDbLine
 62
7
  6
CONTINUOUS
 10
2.8290456134
 20
4.6499717112
 11
2.8290456134
 21
4.9766756863
  0
LINE
  5
22E
100
AcDbEntity
  8
0
100
AcDbLine
 62
7
  6
CONTINUOUS
 10
2.9628568066
 20
4.6621338402
 11
2.9628568066
 21
4.9645135574
  0
LINE
  5
22F
100
AcDbEntity
  8
0
100
AcDbLine
 62
7
  6
CONTINUOUS
 10
2.9863579193
 20
4.681825011
 11
2.9863579193
 21
4.9448223865
  0
LINE
  5
230
100
AcDbEntity
  8
0
100
AcDbLine
 62
7
  6
CONTINUOUS
 10
3.0373579193
 20
4.9286486988
 11
3.0373579193
 21
4.6979986988
  0
LINE
  5
231
100
AcDbEntity
  8
0
100
AcDbLine
 62
7
  6
CONTINUOUS
 10
5.4157142185
 20
4.1128284673
 11
4.98450162
 21
4.1128284673
  0
LINE
  5
232
100
AcDbEntity
  8
0
100
AcDbLine
 62
7
  6
CONTINUOUS
 10
4.9865596909
 20
4.1147890948
 11
5.4136905964
 21
4.1147890948
  0
LINE
  5
233
100
AcDbEntity
  8
0
100
AcDbLine
 62
7
  6
CONTINUOUS
 10
4.9865596909
 20
4.1171277895
 11
5.4136905964
 21
4.1171277895
  0
LINE
  5
234
100
AcDbEntity
  8
0
100
AcDbLine
 62
7
  6
CONTINUOUS
 10
5.4136905964
 20
4.1195999255
 11
4.9865252421
 21
4.1195999255
  0
LINE
  5
235
100
AcDbEntity
  8
0
100
AcDbLine
 62
7
  6
CONTINUOUS
 10
4.9865252421
 20
4.1300615471
 11
4.9941079193
 21
4.1300615471
  0
LINE
  5
236
100
AcDbEntity
  8
0
100
AcDbLine
 62
7
  6
CONTINUOUS
 10
5.0281079193
 20
4.1300615471
 11
5.0361079193
 21
4.1300615471
  0
LINE
  5
237
100
AcDbEntity
  8
0
100
AcDbLine
 62
7
  6
CONTINUOUS
 10
5.0701079193
 20
4.1300615471
 11
5.0781079193
 21
4.1300615471
  0
LINE
  5
238
100
AcDbEntity
  8
0
100
AcDbLine
 62
7
  6
CONTINUOUS
 10
5.1121079193
 20
4.1300615471
 11
5.1201079193
 21
4.1300615471
  0
LINE
  5
239
100
AcDbEntity
  8
0
100
AcDbLine
 62
7
  6
CONTINUOUS
 10
5.1541079193
 20
4.1300615471
 11
5.1621079193
 21
4.1300615471
  0
LINE
  5
23A
100
AcDbEntity
  8
0
100
AcDbLine
 62
7
  6
CONTINUOUS
 10
5.1961079193
 20
4.1300615471
 11
5.2041079193
 21
4.1300615471
  0
LINE
  5
23B
100
AcDbEntity
  8
0
100
AcDbLine
 62
7
  6
CONTINUOUS
 10
5.2381079193
 20
4.1300615471
 11
5.2461079193
 21
4.1300615471
  0
LINE
  5
23C
100
AcDbEntity
  8
0
100
AcDbLine
 62
7
  6
CONTINUOUS
 10
5.2801079193
 20
4.1300615471
 11
5.2881079193
 21
4.1300615471
  0
LINE
  5
23D
100
AcDbEntity
  8
0
100
AcDbLine
 62
7
  6
CONTINUOUS
 10
5.3221079193
 20
4.1300615471
 11
5.3301079193
 21
4.1300615471
  0
LINE
  5
23E
100
AcDbEntity
  8
0
100
AcDbLine
 62
7
  6
CONTINUOUS
 10
5.3641079193
 20
4.1300615471
 11
5.3721079193
 21
4.1300615471
  0
LINE
  5
23F
100
AcDbEntity
  8
0
100
AcDbLine
 62
7
  6
CONTINUOUS
 10
5.4061079193
 20
4.1300615471
 11
5.4136905964
 21
4.1300615471
  0
LINE
  5
240
100
AcDbEntity
  8
0
100
AcDbLine
 62
7
  6
CONTINUOUS
 10
5.4439693082
 20
4.1427001477
 11
5.4141079193
 21
4.1427001477
  0
LINE
  5
241
100
AcDbEntity
  8
0
100
AcDbLine
 62
7
  6
CONTINUOUS
 10
5.4061079193
 20
4.1427001477
 11
5.3721079193
 21
4.1427001477
  0
LINE
  5
242
100
AcDbEntity
  8
0
100
AcDbLine
 62
7
  6
CONTINUOUS
 10
5.3641079193
 20
4.1427001477
 11
5.3301079193
 21
4.1427001477
  0
LINE
  5
243
100
AcDbEntity
  8
0
100
AcDbLine
 62
7
  6
CONTINUOUS
 10
5.3221079193
 20
4.1427001477
 11
5.2881079193
 21
4.1427001477
  0
LINE
  5
244
100
AcDbEntity
  8
0
100
AcDbLine
 62
7
  6
CONTINUOUS
 10
5.2801079193
 20
4.1427001477
 11
5.2461079193
 21
4.1427001477
  0
LINE
  5
245
100
AcDbEntity
  8
0
100
AcDbLine
 62
7
  6
CONTINUOUS
 10
5.2381079193
 20
4.1427001477
 11
5.2041079193
 21
4.1427001477
  0
LINE
  5
246
100
AcDbEntity
  8
0
100
AcDbLine
 62
7
  6
CONTINUOUS
 10
4.9562465303
 20
4.1427001477
 11
4.9861079193
 21
4.1427001477
  0
LINE
  5
247
100
AcDbEntity
  8
0
100
AcDbLine
 62
7
  6
CONTINUOUS
 10
4.9941079193
 20
4.1427001477
 11
5.0281079193
 21
4.1427001477
  0
LINE
  5
248
100
AcDbEntity
  8
0
100
AcDbLine
 62
7
  6
CONTINUOUS
 10
5.0361079193
 20
4.1427001477
 11
5.0701079193
 21
4.1427001477
  0
LINE
  5
249
100
AcDbEntity
  8
0
100
AcDbLine
 62
7
  6
CONTINUOUS
 10
5.0781079193
 20
4.1427001477
 11
5.1121079193
 21
4.1427001477
  0
LINE
  5
24A
100
AcDbEntity
  8
0
100
AcDbLine
 62
7
  6
CONTINUOUS
 10
5.1201079193
 20
4.1427001477
 11
5.1541079193
 21
4.1427001477
  0
LINE
  5
24B
100
AcDbEntity
  8
0
100
AcDbLine
 62
7
  6
CONTINUOUS
 10
5.1621079193
 20
4.1427001477
 11
5.1961079193
 21
4.1427001477
  0
LINE
  5
24C
100
AcDbEntity
  8
0
100
AcDbLine
 62
7
  6
CONTINUOUS
 10
5.4356987328
 20
4.1451722837
 11
5.4141079193
 21
4.1451722837
  0
LINE
  5
24D
100
AcDbEntity
  8
0
100
AcDbLine
 62
7
  6
CONTINUOUS
 10
5.4061079193
 20
4.1451722837
 11
5.3721079193
 21
4.1451722837
  0
LINE
  5
24E
100
AcDbEntity
  8
0
100
AcDbLine
 62
7
  6
CONTINUOUS
 10
5.3641079193
 20
4.1451722837
 11
5.3301079193
 21
4.1451722837
  0
LINE
  5
24F
100
AcDbEntity
  8
0
100
AcDbLine
 62
7
  6
CONTINUOUS
 10
5.3221079193
 20
4.1451722837
 11
5.2881079193
 21
4.1451722837
  0
LINE
  5
250
100
AcDbEntity
  8
0
100
AcDbLine
 62
7
  6
CONTINUOUS
 10
5.2801079193
 20
4.1451722837
 11
5.2461079193
 21
4.1451722837
  0
LINE
  5
251
100
AcDbEntity
  8
0
100
AcDbLine
 62
7
  6
CONTINUOUS
 10
5.2381079193
 20
4.1451722837
 11
5.2041079193
 21
4.1451722837
  0
LINE
  5
252
100
AcDbEntity
  8
0
100
AcDbLine
 62
7
  6
CONTINUOUS
 10
4.9645171057
 20
4.1451722837
 11
4.9861079193
 21
4.1451722837
  0
LINE
  5
253
100
AcDbEntity
  8
0
100
AcDbLine
 62
7
  6
CONTINUOUS
 10
4.9941079193
 20
4.1451722837
 11
5.0281079193
 21
4.1451722837
  0
LINE
  5
254
100
AcDbEntity
  8
0
100
AcDbLine
 62
7
  6
CONTINUOUS
 10
5.0361079193
 20
4.1451722837
 11
5.0701079193
 21
4.1451722837
  0
LINE
  5
255
100
AcDbEntity
  8
0
100
AcDbLine
 62
7
  6
CONTINUOUS
 10
5.0781079193
 20
4.1451722837
 11
5.1121079193
 21
4.1451722837
  0
LINE
  5
256
100
AcDbEntity
  8
0
100
AcDbLine
 62
7
  6
CONTINUOUS
 10
5.1201079193
 20
4.1451722837
 11
5.1541079193
 21
4.1451722837
  0
LINE
  5
257
100
AcDbEntity
  8
0
100
AcDbLine
 62
7
  6
CONTINUOUS
 10
5.1621079193
 20
4.1451722837
 11
5.1961079193
 21
4.1451722837
  0
LINE
  5
258
100
AcDbEntity
  8
0
100
AcDbLine
 62
7
  6
CONTINUOUS
 10
4.9865252421
 20
4.1473492626
 11
5.4136905964
 21
4.1473492626
  0
LINE
  5
259
100
AcDbEntity
  8
0
100
AcDbLine
 62
7
  6
CONTINUOUS
 10
5.4136905964
 20
4.1498213985
 11
4.9865252421
 21
4.1498213985
  0
LINE
  5
25A
100
AcDbEntity
  8
0
100
AcDbLine
 62
7
  6
CONTINUOUS
 10
5.4136905964
 20
4.1535657155
 11
4.9865252421
 21
4.1535657155
  0
LINE
  5
25B
100
AcDbEntity
  8
0
100
AcDbLine
 62
7
  6
CONTINUOUS
 10
5.4136905964
 20
4.1596487272
 11
4.9865252421
 21
4.1596487272
  0
LINE
  5
25C
100
AcDbEntity
  8
0
100
AcDbLine
 62
7
  6
CONTINUOUS
 10
4.98450162
 20
4.1628259571
 11
5.4157142185
 21
4.1628259571
  0
LINE
  5
25D
100
AcDbEntity
  8
0
100
AcDbLine
 62
7
  6
CONTINUOUS
 10
4.9125173681
 20
4.1350728245
 11
4.9125173681
 21
4.1405815999
  0
LINE
  5
25E
100
AcDbEntity
  8
0
100
AcDbLine
 62
7
  6
CONTINUOUS
 10
4.9208305959
 20
4.1393479651
 11
4.9208305959
 21
4.1351005022
  0
LINE
  5
25F
100
AcDbEntity
  8
0
100
AcDbLine
 62
7
  6
CONTINUOUS
 10
4.9245173681
 20
4.1472344764
 11
4.9245173681
 21
4.1519942781
  0
LINE
  5
260
100
AcDbEntity
  8
0
100
AcDbLine
 62
7
  6
CONTINUOUS
 10
4.927470124
 20
4.1520121358
 11
4.927470124
 21
4.154135526
  0
LINE
  5
261
100
AcDbEntity
  8
0
100
AcDbLine
 62
7
  6
CONTINUOUS
 10
4.9405156353
 20
4.1393479651
 11
4.9405156353
 21
4.1313561852
  0
LINE
  5
262
100
AcDbEntity
  8
0
100
AcDbLine
 62
7
  6
CONTINUOUS
 10
4.9485156353
 20
4.1313455399
 11
4.9485156353
 21
4.1356036481
  0
LINE
  5
263
100
AcDbEntity
  8
0
100
AcDbLine
 62
7
  6
CONTINUOUS
 10
4.98450162
 20
4.1128284673
 11
4.98450162
 21
4.1147890948
  0
LINE
  5
264
100
AcDbEntity
  8
0
100
AcDbLine
 62
7
  6
CONTINUOUS
 10
4.9861079193
 20
4.1427001477
 11
4.9861079193
 21
4.1300622551
  0
LINE
  5
265
100
AcDbEntity
  8
0
100
AcDbLine
 62
7
  6
CONTINUOUS
 10
4.9861079193
 20
4.1451722837
 11
4.9861079193
 21
4.1473492626
  0
LINE
  5
266
100
AcDbEntity
  8
0
100
AcDbLine
 62
7
  6
CONTINUOUS
 10
4.9865252421
 20
4.1535657155
 11
4.9865252421
 21
4.1498213985
  0
LINE
  5
267
100
AcDbEntity
  8
0
100
AcDbLine
 62
7
  6
CONTINUOUS
 10
4.9865252421
 20
4.1195999255
 11
4.9865252421
 21
4.1300615471
  0
LINE
  5
268
100
AcDbEntity
  8
0
100
AcDbLine
 62
7
  6
CONTINUOUS
 10
4.9865252421
 20
4.1596487272
 11
4.9865252421
 21
4.1628259571
  0
LINE
  5
269
100
AcDbEntity
  8
ALL_FEATURES
100
AcDbLine
 62
7
  6
CONTINUOUS
 10
4.7878531677
 20
4.153596555
 11
4.7876079193
 21
4.1515657454
  0
LWPOLYLINE
  5
26A
100
AcDbEntity
  8
ALL_FEATURES
100
AcDbPolyline
 62
7
  6
CONTINUOUS
 90
14
 70
0
 10
4.9778843274
 20
4.8385343751
 10
4.9779306659
 20
4.8387666946
 10
4.9777206015
 20
4.8379197003
 10
4.9771943871
 20
4.83585024
 10
4.9762842222
 20
4.8323895665
 10
4.9749835422
 20
4.8275888989
 10
4.9733535889
 20
4.8217136964
 10
4.9713861826
 20
4.8147534339
 10
4.9690353037
 20
4.8065606204
 10
4.966310605
 20
4.7971794514
 10
4.9631844825
 20
4.7865201578
 10
4.9596239784
 20
4.7744733177
 10
4.9556287269
 20
4.7610374375
 10
4.9511751686
 20
4.746128438
  0
LWPOLYLINE
  5
26B
100
AcDbEntity
  8
ALL_FEATURES
100
AcDbPolyline
 62
7
  6
CONTINUOUS
 90
9
 70
0
 10
4.8344704508
 20
4.3404121122
 10
4.8285042723
 20
4.3177044186
 10
4.8225367209
 20
4.2946881299
 10
4.8165799363
 20
4.2713897035
 10
4.8106418877
 20
4.2478194085
 10
4.8047264892
 20
4.2239705274
 10
4.7988419732
 20
4.1998524628
 10
4.7930007771
 20
4.1754915314
 10
4.7878414128
 20
4.1535968253
  0
LINE
  5
26C
100
AcDbEntity
  8
ALL_FEATURES
100
AcDbLine
 62
7
  6
CONTINUOUS
 10
4.843518419
 20
4.3743144629
 11
4.8344704508
 21
4.3404121122
  0
LINE
  5
26D
100
AcDbEntity
  8
ALL_FEATURES
100
AcDbLine
 62
7
  6
CONTINUOUS
 10
4.8463696204
 20
4.3848749445
 11
4.843518419
 21
4.3743144629
  0
LWPOLYLINE
  5
26E
100
AcDbEntity
  8
ALL_FEATURES
100
AcDbPolyline
 62
7
  6
CONTINUOUS
 90
11
 70
0
 10
4.9197376538
 20
4.6412474282
 10
4.9135736393
 20
4.6205470931
 10
4.907091293
 20
4.5986688691
 10
4.9003048503
 20
4.575620434
 10
4.8932304199
 20
4.5514136373
 10
4.88588764
 20
4.5260702621
 10
4.8782923217
 20
4.4995964842
 10
4.8704568094
 20
4.4719832452
 10
4.8623997598
 20
4.4432401162
 10
4.8541465354
 20
4.4133974867
 10
4.8463695426
 20
4.3848746568
  0
LINE
  5
26F
100
AcDbEntity
  8
ALL_FEATURES
100
AcDbLine
 62
7
  6
CONTINUOUS
 10
4.9511751686
 20
4.746128438
 11
4.9411239549
 21
4.7126217535
  0
LINE
  5
270
100
AcDbEntity
  8
ALL_FEATURES
100
AcDbLine
 62
7
  6
CONTINUOUS
 10
4.9411227925
 20
4.7126178852
 11
4.9197376538
 21
4.6412474282
  0
LINE
  5
271
100
AcDbEntity
  8
0
100
AcDbLine
 62
7
  6
CONTINUOUS
 10
5.4876984704
 20
4.1350728245
 11
5.4768214075
 21
4.1454175261
  0
LINE
  5
272
100
AcDbEntity
  8
0
100
AcDbLine
 62
7
  6
CONTINUOUS
 10
5.4876984704
 20
4.1405815999
 11
5.4756984704
 21
4.1519942781
  0
LINE
  5
273
100
AcDbEntity
  8
0
100
AcDbLine
 62
7
  6
CONTINUOUS
 10
4.9941079193
 20
4.1473492626
 11
4.9941079193
 21
4.1451722837
  0
LINE
  5
274
100
AcDbEntity
  8
0
100
AcDbLine
 62
7
  6
CONTINUOUS
 10
4.9941079193
 20
4.1300615471
 11
4.9941079193
 21
4.1427001477
  0
LINE
  5
275
100
AcDbEntity
  8
0
100
AcDbLine
 62
7
  6
CONTINUOUS
 10
5.0281079193
 20
4.1427001477
 11
5.0281079193
 21
4.1300615471
  0
LINE
  5
276
100
AcDbEntity
  8
0
100
AcDbLine
 62
7
  6
CONTINUOUS
 10
5.0281079193
 20
4.1451722837
 11
5.0281079193
 21
4.1473492626
  0
LINE
  5
277
100
AcDbEntity
  8
0
100
AcDbLine
 62
7
  6
CONTINUOUS
 10
5.0361079193
 20
4.1473492626
 11
5.0361079193
 21
4.1451722837
  0
LINE
  5
278
100
AcDbEntity
  8
0
100
AcDbLine
 62
7
  6
CONTINUOUS
 10
5.0361079193
 20
4.1300615471
 11
5.0361079193
 21
4.1427001477
  0
LINE
  5
279
100
AcDbEntity
  8
0
100
AcDbLine
 62
7
  6
CONTINUOUS
 10
5.0701079193
 20
4.1427001477
 11
5.0701079193
 21
4.1300615471
  0
LINE
  5
27A
100
AcDbEntity
  8
0
100
AcDbLine
 62
7
  6
CONTINUOUS
 10
5.0701079193
 20
4.1451722837
 11
5.0701079193
 21
4.1473492626
  0
LINE
  5
27B
100
AcDbEntity
  8
0
100
AcDbLine
 62
7
  6
CONTINUOUS
 10
5.0781079193
 20
4.1473492626
 11
5.0781079193
 21
4.1451722837
  0
LINE
  5
27C
100
AcDbEntity
  8
0
100
AcDbLine
 62
7
  6
CONTINUOUS
 10
5.0781079193
 20
4.1300615471
 11
5.0781079193
 21
4.1427001477
  0
LINE
  5
27D
100
AcDbEntity
  8
0
100
AcDbLine
 62
7
  6
CONTINUOUS
 10
5.1121079193
 20
4.1427001477
 11
5.1121079193
 21
4.1300615471
  0
LINE
  5
27E
100
AcDbEntity
  8
0
100
AcDbLine
 62
7
  6
CONTINUOUS
 10
5.1121079193
 20
4.1451722837
 11
5.1121079193
 21
4.1473492626
  0
LINE
  5
27F
100
AcDbEntity
  8
0
100
AcDbLine
 62
7
  6
CONTINUOUS
 10
5.1201079193
 20
4.1473492626
 11
5.1201079193
 21
4.1451722837
  0
LINE
  5
280
100
AcDbEntity
  8
0
100
AcDbLine
 62
7
  6
CONTINUOUS
 10
5.1201079193
 20
4.1300615471
 11
5.1201079193
 21
4.1427001477
  0
LINE
  5
281
100
AcDbEntity
  8
0
100
AcDbLine
 62
7
  6
CONTINUOUS
 10
5.1541079193
 20
4.1427001477
 11
5.1541079193
 21
4.1300615471
  0
LINE
  5
282
100
AcDbEntity
  8
0
100
AcDbLine
 62
7
  6
CONTINUOUS
 10
5.1541079193
 20
4.1451722837
 11
5.1541079193
 21
4.1473492626
  0
LINE
  5
283
100
AcDbEntity
  8
0
100
AcDbLine
 62
7
  6
CONTINUOUS
 10
5.1621079193
 20
4.1473492626
 11
5.1621079193
 21
4.1451722837
  0
LINE
  5
284
100
AcDbEntity
  8
0
100
AcDbLine
 62
7
  6
CONTINUOUS
 10
5.1621079193
 20
4.1300615471
 11
5.1621079193
 21
4.1427001477
  0
LINE
  5
285
100
AcDbEntity
  8
0
100
AcDbLine
 62
7
  6
CONTINUOUS
 10
5.1961079193
 20
4.1427001477
 11
5.1961079193
 21
4.1300615471
  0
LINE
  5
286
100
AcDbEntity
  8
0
100
AcDbLine
 62
7
  6
CONTINUOUS
 10
5.1961079193
 20
4.1451722837
 11
5.1961079193
 21
4.1473492626
  0
LINE
  5
287
100
AcDbEntity
  8
ALL_FEATURES
100
AcDbLine
 62
7
  6
CONTINUOUS
 10
5.2001079193
 20
5.0383236988
 11
5.2001079193
 21
4.2095064319
  0
LINE
  5
288
100
AcDbEntity
  8
0
100
AcDbLine
 62
7
  6
CONTINUOUS
 10
5.2041079193
 20
4.1427001477
 11
5.2041079193
 21
4.1300615471
  0
LINE
  5
289
100
AcDbEntity
  8
0
100
AcDbLine
 62
7
  6
CONTINUOUS
 10
5.2041079193
 20
4.1451722837
 11
5.2041079193
 21
4.1473492626
  0
LINE
  5
28A
100
AcDbEntity
  8
0
100
AcDbLine
 62
7
  6
CONTINUOUS
 10
1.6813579193
 20
4.5675486988
 11
1.6704064835
 21
4.5675486988
  0
LINE
  5
28B
100
AcDbEntity
  8
0
100
AcDbLine
 62
7
  6
CONTINUOUS
 10
8.7191079193
 20
4.5675486988
 11
8.730059355
 21
4.5675486988
  0
LINE
  5
28C
100
AcDbEntity
  8
0
100
AcDbLine
 62
7
  6
CONTINUOUS
 10
3.0373579193
 20
4.6979986988
 11
2.9863579193
 21
4.6979986988
  0
LINE
  5
28D
100
AcDbEntity
  8
0
100
AcDbLine
 62
7
  6
CONTINUOUS
 10
7.3631079193
 20
4.6979986988
 11
7.4141079193
 21
4.6979986988
  0
LINE
  5
28E
100
AcDbEntity
  8
0
100
AcDbLine
 62
7
  6
CONTINUOUS
 10
5.4716973059
 20
4.1537084967
 11
5.478218962
 21
4.1431562353
  0
LINE
  5
28F
100
AcDbEntity
  8
0
100
AcDbLine
 62
7
  6
CONTINUOUS
 10
5.2381079193
 20
4.1473492626
 11
5.2381079193
 21
4.1451722837
  0
LINE
  5
290
100
AcDbEntity
  8
0
100
AcDbLine
 62
7
  6
CONTINUOUS
 10
5.2381079193
 20
4.1300615471
 11
5.2381079193
 21
4.1427001477
  0
LINE
  5
291
100
AcDbEntity
  8
0
100
AcDbLine
 62
7
  6
CONTINUOUS
 10
5.2461079193
 20
4.1427001477
 11
5.2461079193
 21
4.1300615471
  0
LINE
  5
292
100
AcDbEntity
  8
0
100
AcDbLine
 62
7
  6
CONTINUOUS
 10
5.2461079193
 20
4.1451722837
 11
5.2461079193
 21
4.1473492626
  0
LINE
  5
293
100
AcDbEntity
  8
0
100
AcDbLine
 62
7
  6
CONTINUOUS
 10
5.2801079193
 20
4.1473492626
 11
5.2801079193
 21
4.1451722837
  0
LINE
  5
294
100
AcDbEntity
  8
0
100
AcDbLine
 62
7
  6
CONTINUOUS
 10
5.2801079193
 20
4.1300615471
 11
5.2801079193
 21
4.1427001477
  0
LINE
  5
295
100
AcDbEntity
  8
0
100
AcDbLine
 62
7
  6
CONTINUOUS
 10
5.2881079193
 20
4.1427001477
 11
5.2881079193
 21
4.1300615471
  0
LINE
  5
296
100
AcDbEntity
  8
0
100
AcDbLine
 62
7
  6
CONTINUOUS
 10
5.2881079193
 20
4.1451722837
 11
5.2881079193
 21
4.1473492626
  0
LINE
  5
297
100
AcDbEntity
  8
0
100
AcDbLine
 62
7
  6
CONTINUOUS
 10
5.3221079193
 20
4.1473492626
 11
5.3221079193
 21
4.1451722837
  0
LINE
  5
298
100
AcDbEntity
  8
0
100
AcDbLine
 62
7
  6
CONTINUOUS
 10
5.3221079193
 20
4.1300615471
 11
5.3221079193
 21
4.1427001477
  0
LINE
  5
299
100
AcDbEntity
  8
0
100
AcDbLine
 62
7
  6
CONTINUOUS
 10
5.3301079193
 20
4.1427001477
 11
5.3301079193
 21
4.1300615471
  0
LINE
  5
29A
100
AcDbEntity
  8
0
100
AcDbLine
 62
7
  6
CONTINUOUS
 10
5.3301079193
 20
4.1451722837
 11
5.3301079193
 21
4.1473492626
  0
LINE
  5
29B
100
AcDbEntity
  8
0
100
AcDbLine
 62
7
  6
CONTINUOUS
 10
5.3641079193
 20
4.1473492626
 11
5.3641079193
 21
4.1451722837
  0
LINE
  5
29C
100
AcDbEntity
  8
0
100
AcDbLine
 62
7
  6
CONTINUOUS
 10
5.3641079193
 20
4.1300615471
 11
5.3641079193
 21
4.1427001477
  0
LINE
  5
29D
100
AcDbEntity
  8
0
100
AcDbLine
 62
7
  6
CONTINUOUS
 10
5.3721079193
 20
4.1427001477
 11
5.3721079193
 21
4.1300615471
  0
LINE
  5
29E
100
AcDbEntity
  8
0
100
AcDbLine
 62
7
  6
CONTINUOUS
 10
5.3721079193
 20
4.1451722837
 11
5.3721079193
 21
4.1473492626
  0
LINE
  5
29F
100
AcDbEntity
  8
0
100
AcDbLine
 62
7
  6
CONTINUOUS
 10
5.4061079193
 20
4.1473492626
 11
5.4061079193
 21
4.1451722837
  0
LINE
  5
2A0
100
AcDbEntity
  8
0
100
AcDbLine
 62
7
  6
CONTINUOUS
 10
5.4061079193
 20
4.1300615471
 11
5.4061079193
 21
4.1427001477
  0
LINE
  5
2A1
100
AcDbEntity
  8
0
100
AcDbLine
 62
7
  6
CONTINUOUS
 10
5.4136905964
 20
4.1535657155
 11
5.4136905964
 21
4.1498213985
  0
LINE
  5
2A2
100
AcDbEntity
  8
0
100
AcDbLine
 62
7
  6
CONTINUOUS
 10
5.4136905964
 20
4.1195999255
 11
5.4136905964
 21
4.1300615471
  0
LINE
  5
2A3
100
AcDbEntity
  8
0
100
AcDbLine
 62
7
  6
CONTINUOUS
 10
5.4136905964
 20
4.1596487272
 11
5.4136905964
 21
4.1628259571
  0
LINE
  5
2A4
100
AcDbEntity
  8
0
100
AcDbLine
 62
7
  6
CONTINUOUS
 10
5.4141079193
 20
4.1427001477
 11
5.4141079193
 21
4.1300622551
  0
LINE
  5
2A5
100
AcDbEntity
  8
0
100
AcDbLine
 62
7
  6
CONTINUOUS
 10
5.4141079193
 20
4.1451722837
 11
5.4141079193
 21
4.1473492626
  0
LINE
  5
2A6
100
AcDbEntity
  8
0
100
AcDbLine
 62
7
  6
CONTINUOUS
 10
5.4157142185
 20
4.1128284673
 11
5.4157142185
 21
4.1147890948
  0
LINE
  5
2A7
100
AcDbEntity
  8
0
100
AcDbLine
 62
7
  6
CONTINUOUS
 10
5.4517002033
 20
4.1356036481
 11
5.4517002033
 21
4.1313455399
  0
LINE
  5
2A8
100
AcDbEntity
  8
0
100
AcDbLine
 62
7
  6
CONTINUOUS
 10
5.4597002033
 20
4.1313455399
 11
5.4597002033
 21
4.1393479651
  0
LINE
  5
2A9
100
AcDbEntity
  8
0
100
AcDbLine
 62
7
  6
CONTINUOUS
 10
5.4727457145
 20
4.1541355316
 11
5.4727457145
 21
4.1520121358
  0
LINE
  5
2AA
100
AcDbEntity
  8
0
100
AcDbLine
 62
7
  6
CONTINUOUS
 10
5.4756984704
 20
4.1519942781
 11
5.4756984704
 21
4.1472344764
  0
LINE
  5
2AB
100
AcDbEntity
  8
0
100
AcDbLine
 62
7
  6
CONTINUOUS
 10
4.9285185327
 20
4.1537084967
 11
4.9219968765
 21
4.1431562353
  0
LINE
  5
2AC
100
AcDbEntity
  8
0
100
AcDbLine
 62
7
  6
CONTINUOUS
 10
4.9125173681
 20
4.1405815999
 11
4.9245173681
 21
4.1519942781
  0
LINE
  5
2AD
100
AcDbEntity
  8
0
100
AcDbLine
 62
7
  6
CONTINUOUS
 10
4.9125173681
 20
4.1350728245
 11
4.923394431
 21
4.1454175261
  0
LINE
  5
2AE
100
AcDbEntity
  8
0
100
AcDbLine
 62
7
  6
CONTINUOUS
 10
3.0373579193
 20
4.9286486988
 11
2.9863579193
 21
4.9286486988
  0
LINE
  5
2AF
100
AcDbEntity
  8
0
100
AcDbLine
 62
7
  6
CONTINUOUS
 10
7.3631079193
 20
4.9286486988
 11
7.4141079193
 21
4.9286486988
  0
LWPOLYLINE
  5
2B0
100
AcDbEntity
  8
ALL_FEATURES
100
AcDbPolyline
 62
7
  6
CONTINUOUS
 90
15
 70
0
 10
5.4539987878
 20
4.7295832151
 10
5.4490406699
 20
4.746128438
 10
5.4445871116
 20
4.7610374375
 10
5.4405918601
 20
4.7744733177
 10
5.437031356
 20
4.7865201578
 10
5.4339052335
 20
4.7971794514
 10
5.4311805348
 20
4.8065606204
 10
5.4288296559
 20
4.8147534339
 10
5.4268622496
 20
4.8217136964
 10
5.4252322963
 20
4.8275888989
 10
5.4239316163
 20
4.8323895665
 10
5.4230214514
 20
4.83585024
 10
5.422495237
 20
4.8379197003
 10
5.4222851726
 20
4.8387666946
 10
5.4223315111
 20
4.8385343751
  0
LINE
  5
2B1
100
AcDbEntity
  8
ALL_FEATURES
100
AcDbLine
 62
7
  6
CONTINUOUS
 10
5.4696592849
 20
4.6774139457
 11
5.4539987878
 21
4.7295832151
  0
LWPOLYLINE
  5
2B2
100
AcDbEntity
  8
ALL_FEATURES
100
AcDbPolyline
 62
7
  6
CONTINUOUS
 90
11
 70
0
 10
5.5460693031
 20
4.4133974867
 10
5.5378160787
 20
4.4432401162
 10
5.5297590291
 20
4.4719832452
 10
5.5219235168
 20
4.4995964842
 10
5.5143281985
 20
4.5260702621
 10
5.5069854186
 20
4.5514136373
 10
5.4999109882
 20
4.575620434
 10
5.4931245455
 20
4.5986688691
 10
5.4866421992
 20
4.6205470931
 10
5.4804781847
 20
4.6412474282
 10
5.4696594199
 20
4.6774134953
  0
LINE
  5
2B3
100
AcDbEntity
  8
ALL_FEATURES
100
AcDbLine
 62
7
  6
CONTINUOUS
 10
5.5566974195
 20
4.3743144629
 11
5.5460693031
 21
4.4133974867
  0
LINE
  5
2B4
100
AcDbEntity
  8
ALL_FEATURES
100
AcDbLine
 62
7
  6
CONTINUOUS
 10
5.5605034717
 20
4.3601281177
 11
5.5566974195
 21
4.3743144629
  0
LWPOLYLINE
  5
2B5
100
AcDbEntity
  8
ALL_FEATURES
100
AcDbPolyline
 62
7
  6
CONTINUOUS
 90
10
 70
0
 10
5.6123744257
 20
4.1535968253
 10
5.6072150614
 20
4.1754915314
 10
5.6013738653
 20
4.1998524628
 10
5.5954893493
 20
4.2239705274
 10
5.5895739508
 20
4.2478194085
 10
5.5836359023
 20
4.2713897035
 10
5.5776791176
 20
4.2946881299
 10
5.5717115662
 20
4.3177044186
 10
5.5657453877
 20
4.3404121122
 10
5.5605034209
 20
4.3601283077
  0
LINE
  5
2B6
100
AcDbEntity
  8
0
100
AcDbLine
 62
7
  6
CONTINUOUS
 10
5.4793852426
 20
4.1350898569
 11
5.4793852426
 21
4.1393479651
  0
LINE
  5
2B7
100
AcDbEntity
  8
0
100
AcDbLine
 62
7
  6
CONTINUOUS
 10
5.4876984704
 20
4.1405815999
 11
5.4876984704
 21
4.1350728245
  0
LINE
  5
2B8
100
AcDbEntity
  8
ALL_FEATURES
100
AcDbLine
 62
7
  6
CONTINUOUS
 10
5.1955227087
 20
5.0382730135
 11
5.2001079193
 21
5.0383236988
  0
LINE
  5
2B9
100
AcDbEntity
  8
0
100
AcDbLine
 62
7
  6
CONTINUOUS
 10
1.6813579193
 20
5.0590986988
 11
1.6704064835
 21
5.0590986988
  0
LINE
  5
2BA
100
AcDbEntity
  8
0
100
AcDbLine
 62
7
  6
CONTINUOUS
 10
8.7191079193
 20
5.0590986988
 11
8.730059355
 21
5.0590986988
  0
LINE
  5
2BB
100
AcDbEntity
  8
ALL_FEATURES
100
AcDbLine
 62
7
  6
CONTINUOUS
 10
5.2001079193
 20
5.0383236988
 11
5.2047473279
 21
5.0382718074
  0
LINE
  5
2BC
100
AcDbEntity
  8
ALL_FEATURES
100
AcDbLine
 62
7
  6
CONTINUOUS
 10
5.6126079193
 20
4.1515657454
 11
5.6123626737
 21
4.153596555
  0
LINE
  5
2BD
100
AcDbEntity
  8
0
100
AcDbLine
 62
7
  6
CONTINUOUS
 10
7.3631079193
 20
4.6979986988
 11
7.3631079193
 21
4.9286486988
  0
LINE
  5
2BE
100
AcDbEntity
  8
0
100
AcDbLine
 62
7
  6
CONTINUOUS
 10
7.4141079193
 20
4.9448223865
 11
7.4141079193
 21
4.681825011
  0
LINE
  5
2BF
100
AcDbEntity
  8
0
100
AcDbLine
 62
7
  6
CONTINUOUS
 10
7.4376090319
 20
4.9645135574
 11
7.4376090319
 21
4.6621338402
  0
LINE
  5
2C0
100
AcDbEntity
  8
0
100
AcDbLine
 62
7
  6
CONTINUOUS
 10
7.5714202251
 20
4.9766756863
 11
7.5714202251
 21
4.6499717112
  0
LINE
  5
2C1
100
AcDbEntity
  8
0
100
AcDbLine
 62
7
  6
CONTINUOUS
 10
7.6116079193
 20
4.9528236988
 11
7.6116079193
 21
4.6738236988
  0
LINE
  5
2C2
100
AcDbEntity
  8
0
100
AcDbLine
 62
7
  6
CONTINUOUS
 10
8.6991079193
 20
5.0390986988
 11
8.6991079193
 21
4.5875486988
  0
LINE
  5
2C3
100
AcDbEntity
  8
0
100
AcDbLine
 62
7
  6
CONTINUOUS
 10
8.7191079193
 20
5.0590986988
 11
8.7191079193
 21
4.5675486988
  0
LINE
  5
2C4
100
AcDbEntity
  8
0
100
AcDbLine
 62
7
  6
CONTINUOUS
 10
8.730059355
 20
5.0590986988
 11
8.730059355
 21
4.5675486988
  0
LINE
  5
2C5
100
AcDbEntity
  8
0
100
AcDbLine
 62
7
  6
CONTINUOUS
 10
8.7590850158
 20
5.0366823005
 11
8.7590850158
 21
4.5899650971
  0
LINE
  5
2C6
100
AcDbEntity
  8
0
100
AcDbLine
 62
7
  6
CONTINUOUS
 10
8.8078642645
 20
4.9614895199
 11
8.8078642645
 21
4.6651578777
  0
LINE
  5
2C7
100
AcDbEntity
  8
0
100
AcDbLine
 62
7
  6
CONTINUOUS
 10
8.8191079193
 20
4.9380758591
 11
8.8191079193
 21
4.6885715384
  0
ARC
  5
2C8
100
AcDbEntity
  8
0
100
AcDbCircle
 62
7
  6
CONTINUOUS
 10
0.6949105111
 20
-15.9425199034
 40
21.0
100
AcDbArc
 50
84.2774261872
 51
87.2529863377
  0
ARC
  5
2C9
100
AcDbEntity
  8
0
100
AcDbCircle
 62
7
  6
CONTINUOUS
 10
2.9182176204
 20
4.4110714116
 40
0.255
100
AcDbArc
 50
79.9181044226
 51
110.4686087921
  0
ARC
  5
2CA
100
AcDbEntity
  8
ALL_FEATURES
100
AcDbCircle
 62
7
  6
CONTINUOUS
 10
5.1994152508
 20
4.8131435447
 40
0.2256990834
100
AcDbArc
 50
6.4895018136
 51
6.6969800406
  0
ARC
  5
2CB
100
AcDbEntity
  8
ALL_FEATURES
100
AcDbCircle
 62
7
  6
CONTINUOUS
 10
5.1998080855
 20
4.8131862486
 40
0.2253039393
100
AcDbArc
 50
4.528628797
 51
6.4900023819
  0
ARC
  5
2CC
100
AcDbEntity
  8
ALL_FEATURES
100
AcDbCircle
 62
7
  6
CONTINUOUS
 10
5.1764160696
 20
4.804933027
 40
0.2017756148
100
AcDbArc
 50
170.3932096479
 51
170.8534221389
  0
ARC
  5
2CD
100
AcDbEntity
  8
ALL_FEATURES
100
AcDbCircle
 62
7
  6
CONTINUOUS
 10
5.1730120005
 20
4.8054755893
 40
0.1983285828
100
AcDbArc
 50
170.8518477693
 51
171.5381820339
  0
ARC
  5
2CE
100
AcDbEntity
  8
ALL_FEATURES
100
AcDbCircle
 62
7
  6
CONTINUOUS
 10
5.1657248616
 20
4.8030066513
 40
0.1912707654
100
AcDbArc
 50
169.2918072237
 51
169.5608353055
  0
ARC
  5
2CF
100
AcDbEntity
  8
0
100
AcDbCircle
 62
7
  6
CONTINUOUS
 10
1.5035089339
 20
4.5539429889
 40
0.1425
100
AcDbArc
 50
14.6424776248
 51
51.3022866218
  0
ARC
  5
2D0
100
AcDbEntity
  8
0
100
AcDbCircle
 62
7
  6
CONTINUOUS
 10
4.9865252366
 20
4.2530566014
 40
0.1229950543
100
AcDbArc
 50
269.8055973401
 51
270.0000025797
  0
ARC
  5
2D1
100
AcDbEntity
  8
0
100
AcDbCircle
 62
7
  6
CONTINUOUS
 10
2.818554789
 20
4.6780776288
 40
0.03
100
AcDbArc
 50
188.1518829448
 51
290.4686090761
  0
ARC
  5
2D2
100
AcDbEntity
  8
0
100
AcDbCircle
 62
7
  6
CONTINUOUS
 10
1.6704064835
 20
4.5975486988
 40
0.03
100
AcDbArc
 50
194.6424776246
 51
270.0
  0
ARC
  5
2D3
100
AcDbEntity
  8
0
100
AcDbCircle
 62
7
  6
CONTINUOUS
 10
1.6113579193
 20
4.6885715384
 40
0.03
100
AcDbArc
 50
180.0
 51
231.3022866217
  0
ARC
  5
2D4
100
AcDbEntity
  8
0
100
AcDbCircle
 62
7
  6
CONTINUOUS
 10
2.9663579193
 20
4.681825011
 40
0.02
100
AcDbArc
 50
259.9181044225
 51
360.0
  0
ARC
  5
2D5
100
AcDbEntity
  8
0
100
AcDbCircle
 62
7
  6
CONTINUOUS
 10
1.6813579193
 20
4.5875486988
 40
0.02
100
AcDbArc
 50
270.0
 51
360.0
  0
ARC
  5
2D6
100
AcDbEntity
  8
0
100
AcDbCircle
 62
7
  6
CONTINUOUS
 10
4.9302520952
 20
4.151992968
 40
0.0057347273
100
AcDbArc
 50
170.638788035
 51
179.9869108177
  0
ARC
  5
2D7
100
AcDbEntity
  8
0
100
AcDbCircle
 62
7
  6
CONTINUOUS
 10
2.9182176204
 20
5.215575986
 40
0.255
100
AcDbArc
 50
249.5313912079
 51
280.0818955774
  0
ARC
  5
2D8
100
AcDbEntity
  8
0
100
AcDbCircle
 62
7
  6
CONTINUOUS
 10
1.5035089339
 20
5.0727044086
 40
0.1425
100
AcDbArc
 50
308.6977133782
 51
345.3575223752
  0
ARC
  5
2D9
100
AcDbEntity
  8
0
100
AcDbCircle
 62
7
  6
CONTINUOUS
 10
2.818554789
 20
4.9485697687
 40
0.03
100
AcDbArc
 50
69.5313909201
 51
171.848117056
  0
ARC
  5
2DA
100
AcDbEntity
  8
0
100
AcDbCircle
 62
7
  6
CONTINUOUS
 10
1.6704064835
 20
5.0290986988
 40
0.03
100
AcDbArc
 50
90.0
 51
165.3575223754
  0
ARC
  5
2DB
100
AcDbEntity
  8
0
100
AcDbCircle
 62
7
  6
CONTINUOUS
 10
1.6113579193
 20
4.9380758591
 40
0.03
100
AcDbArc
 50
128.6977133783
 51
180.0
  0
ARC
  5
2DC
100
AcDbEntity
  8
0
100
AcDbCircle
 62
7
  6
CONTINUOUS
 10
1.6813579193
 20
5.0390986988
 40
0.02
100
AcDbArc
 50
0.0
 51
90.0
  0
ARC
  5
2DD
100
AcDbEntity
  8
0
100
AcDbCircle
 62
7
  6
CONTINUOUS
 10
0.6949105111
 20
25.5691673009
 40
21.0
100
AcDbArc
 50
272.7470136623
 51
275.7225738128
  0
ARC
  5
2DE
100
AcDbEntity
  8
0
100
AcDbCircle
 62
7
  6
CONTINUOUS
 10
3.2313579193
 20
4.8133236988
 40
0.55
100
AcDbArc
 50
195.6112478132
 51
164.3888497761
  0
ARC
  5
2DF
100
AcDbEntity
  8
0
100
AcDbCircle
 62
7
  6
CONTINUOUS
 10
3.2313579193
 20
4.8133236988
 40
0.5096382736
100
AcDbArc
 50
196.4156290184
 51
163.5849992961
  0
ARC
  5
2E0
100
AcDbEntity
  8
0
100
AcDbCircle
 62
7
  6
CONTINUOUS
 10
3.2313579193
 20
4.8133236988
 40
0.4177872426
100
AcDbArc
 50
202.2444385924
 51
157.7555947416
  0
ARC
  5
2E1
100
AcDbEntity
  8
0
100
AcDbCircle
 62
7
  6
CONTINUOUS
 10
3.2313579193
 20
4.8133236988
 40
0.4090865376
100
AcDbArc
 50
202.3799403085
 51
157.620085905
  0
ARC
  5
2E2
100
AcDbEntity
  8
ALL_FEATURES
100
AcDbCircle
 62
7
  6
CONTINUOUS
 10
3.2313579193
 20
4.8133236988
 40
0.3725
100
AcDbArc
 50
203.5660337781
 51
156.4339662219
  0
ARC
  5
2E3
100
AcDbEntity
  8
ALL_FEATURES
100
AcDbCircle
 62
7
  6
CONTINUOUS
 10
3.2313579193
 20
4.8133236988
 40
0.355
100
AcDbArc
 50
204.5461916676
 51
155.4538083324
  0
ARC
  5
2E4
100
AcDbEntity
  8
0
100
AcDbCircle
 62
7
  6
CONTINUOUS
 10
3.2313579193
 20
4.8133236988
 40
0.2938655903
100
AcDbArc
 50
210.2533879895
 51
149.7466120105
  0
ARC
  5
2E5
100
AcDbEntity
  8
0
100
AcDbCircle
 62
7
  6
CONTINUOUS
 10
3.2313579193
 20
4.8133236988
 40
0.2638655883
100
AcDbArc
 50
205.91841745
 51
154.0816523288
  0
ARC
  5
2E6
100
AcDbEntity
  8
ALL_FEATURES
100
AcDbCircle
 62
7
  6
CONTINUOUS
 10
3.2313579193
 20
4.8133236988
 40
0.2255
100
AcDbArc
 50
210.7294768424
 51
149.2705231576
  0
CIRCLE
  5
2E7
100
AcDbEntity
  8
0
100
AcDbCircle
 62
7
  6
CONTINUOUS
 10
3.2313579193
 20
4.8133236988
 40
0.1494309477
  0
CIRCLE
  5
2E8
100
AcDbEntity
  8
0
100
AcDbCircle
 62
7
  6
CONTINUOUS
 10
3.2313579193
 20
4.8133236988
 40
0.1461176229
  0
CIRCLE
  5
2E9
100
AcDbEntity
  8
0
100
AcDbCircle
 62
7
  6
CONTINUOUS
 10
3.2313579193
 20
4.8133236988
 40
0.14
  0
CIRCLE
  5
2EA
100
AcDbEntity
  8
0
100
AcDbCircle
 62
7
  6
CONTINUOUS
 10
3.2313579193
 20
4.8133236988
 40
0.1129032259
  0
ARC
  5
2EB
100
AcDbEntity
  8
0
100
AcDbCircle
 62
7
  6
CONTINUOUS
 10
2.9663579193
 20
4.9448223865
 40
0.02
100
AcDbArc
 50
0.0
 51
100.0818955775
  0
ARC
  5
2EC
100
AcDbEntity
  8
0
100
AcDbCircle
 62
7
  6
CONTINUOUS
 10
5.2001079193
 20
4.8133236988
 40
0.55
100
AcDbArc
 50
309.8136332054
 51
230.1859404221
  0
ARC
  5
2ED
100
AcDbEntity
  8
0
100
AcDbCircle
 62
7
  6
CONTINUOUS
 10
5.2001079193
 20
4.8133236988
 40
0.5238138214
100
AcDbArc
 50
311.1248866832
 51
228.8762435867
  0
ARC
  5
2EE
100
AcDbEntity
  8
0
100
AcDbCircle
 62
7
  6
CONTINUOUS
 10
5.2001079193
 20
4.8133236988
 40
0.4637377261
100
AcDbArc
 50
314.7275641283
 51
225.2727621616
  0
ARC
  5
2EF
100
AcDbEntity
  8
0
100
AcDbCircle
 62
7
  6
CONTINUOUS
 10
5.2001079193
 20
4.8133236988
 40
0.4389596876
100
AcDbArc
 50
316.5191285895
 51
223.4795380058
  0
ARC
  5
2F0
100
AcDbEntity
  8
0
100
AcDbCircle
 62
7
  6
CONTINUOUS
 10
5.2001079193
 20
4.8133236988
 40
0.4199999996
100
AcDbArc
 50
318.0487674314
 51
221.9512027588
  0
ARC
  5
2F1
100
AcDbEntity
  8
0
100
AcDbCircle
 62
7
  6
CONTINUOUS
 10
5.2001079193
 20
4.8133236988
 40
0.365
100
AcDbArc
 50
323.5663280507
 51
216.4337667474
  0
ARC
  5
2F2
100
AcDbEntity
  8
0
100
AcDbCircle
 62
7
  6
CONTINUOUS
 10
5.2001079193
 20
4.8133236988
 40
0.3349999994
100
AcDbArc
 50
327.5458427744
 51
212.4540526674
  0
ARC
  5
2F3
100
AcDbEntity
  8
0
100
AcDbCircle
 62
7
  6
CONTINUOUS
 10
5.2001079193
 20
4.8133236988
 40
0.3275
100
AcDbArc
 50
328.7092204649
 51
211.2907795351
  0
ARC
  5
2F4
100
AcDbEntity
  8
0
100
AcDbCircle
 62
7
  6
CONTINUOUS
 10
5.2001079193
 20
4.8133236988
 40
0.296914131
100
AcDbArc
 50
334.2853339469
 51
205.7146580856
  0
ARC
  5
2F5
100
AcDbEntity
  8
0
100
AcDbCircle
 62
7
  6
CONTINUOUS
 10
5.2001079193
 20
4.8133236988
 40
0.2799747305
100
AcDbArc
 50
338.2350232464
 51
201.7649746109
  0
ARC
  5
2F6
100
AcDbEntity
  8
0
100
AcDbCircle
 62
7
  6
CONTINUOUS
 10
5.2001079193
 20
4.8133236988
 40
0.2589999971
100
AcDbArc
 50
344.4893430221
 51
195.5070181653
  0
ARC
  5
2F7
100
AcDbEntity
  8
0
100
AcDbCircle
 62
7
  6
CONTINUOUS
 10
5.2001079193
 20
4.8133236988
 40
0.2349999934
100
AcDbArc
 50
355.6363816304
 51
184.3677883391
  0
ARC
  5
2F8
100
AcDbEntity
  8
ALL_FEATURES
100
AcDbCircle
 62
7
  6
CONTINUOUS
 10
5.2001093963
 20
4.8157711713
 40
0.2225525275
100
AcDbArc
 50
88.8052989596
 51
91.1807572516
  0
ARC
  5
2F9
100
AcDbEntity
  8
0
100
AcDbCircle
 62
7
  6
CONTINUOUS
 10
9.7055553274
 20
-15.9425199034
 40
21.0
100
AcDbArc
 50
92.7470136623
 51
95.7225738128
  0
ARC
  5
2FA
100
AcDbEntity
  8
0
100
AcDbCircle
 62
7
  6
CONTINUOUS
 10
7.4822482181
 20
4.4110714116
 40
0.255
100
AcDbArc
 50
69.5313912079
 51
100.0818955774
  0
ARC
  5
2FB
100
AcDbEntity
  8
ALL_FEATURES
100
AcDbCircle
 62
7
  6
CONTINUOUS
 10
5.2008005877
 20
4.8131435447
 40
0.2256990834
100
AcDbArc
 50
173.3030199594
 51
173.5104981864
  0
ARC
  5
2FC
100
AcDbEntity
  8
ALL_FEATURES
100
AcDbCircle
 62
7
  6
CONTINUOUS
 10
5.200407753
 20
4.8131862486
 40
0.2253039393
100
AcDbArc
 50
173.5099976181
 51
175.471371203
  0
ARC
  5
2FD
100
AcDbEntity
  8
ALL_FEATURES
100
AcDbCircle
 62
7
  6
CONTINUOUS
 10
5.2237270949
 20
4.8049209195
 40
0.2018492903
100
AcDbArc
 50
9.1786327216
 51
9.6068597694
  0
ARC
  5
2FE
100
AcDbEntity
  8
ALL_FEATURES
100
AcDbCircle
 62
7
  6
CONTINUOUS
 10
5.2270729055
 20
4.805455584
 40
0.1984610342
100
AcDbArc
 50
8.4650094698
 51
9.180330817
  0
ARC
  5
2FF
100
AcDbEntity
  8
ALL_FEATURES
100
AcDbCircle
 62
7
  6
CONTINUOUS
 10
5.2344274137
 20
4.8029948335
 40
0.1913354178
100
AcDbArc
 50
10.4389160544
 51
10.7342674766
  0
ARC
  5
300
100
AcDbEntity
  8
0
100
AcDbCircle
 62
7
  6
CONTINUOUS
 10
8.8969569047
 20
4.5539429889
 40
0.1425
100
AcDbArc
 50
128.6977133782
 51
165.3575223752
  0
ARC
  5
301
100
AcDbEntity
  8
0
100
AcDbCircle
 62
7
  6
CONTINUOUS
 10
5.413690602
 20
4.2530566014
 40
0.1229950543
100
AcDbArc
 50
269.9999974203
 51
270.1944026599
  0
ARC
  5
302
100
AcDbEntity
  8
0
100
AcDbCircle
 62
7
  6
CONTINUOUS
 10
7.5819110495
 20
4.6780776288
 40
0.03
100
AcDbArc
 50
249.5313909201
 51
351.848117056
  0
ARC
  5
303
100
AcDbEntity
  8
0
100
AcDbCircle
 62
7
  6
CONTINUOUS
 10
8.730059355
 20
4.5975486988
 40
0.03
100
AcDbArc
 50
270.0
 51
345.3575223754
  0
ARC
  5
304
100
AcDbEntity
  8
0
100
AcDbCircle
 62
7
  6
CONTINUOUS
 10
8.7891079193
 20
4.6885715384
 40
0.03
100
AcDbArc
 50
308.6977133783
 51
360.0
  0
ARC
  5
305
100
AcDbEntity
  8
0
100
AcDbCircle
 62
7
  6
CONTINUOUS
 10
7.4341079193
 20
4.681825011
 40
0.02
100
AcDbArc
 50
180.0
 51
280.0818955775
  0
ARC
  5
306
100
AcDbEntity
  8
0
100
AcDbCircle
 62
7
  6
CONTINUOUS
 10
8.7191079193
 20
4.5875486988
 40
0.02
100
AcDbArc
 50
180.0
 51
270.0
  0
ARC
  5
307
100
AcDbEntity
  8
0
100
AcDbCircle
 62
7
  6
CONTINUOUS
 10
5.4699195862
 20
4.1519893478
 40
0.0057788864
100
AcDbArc
 50
0.0488819485
 51
9.3254923397
  0
ARC
  5
308
100
AcDbEntity
  8
0
100
AcDbCircle
 62
7
  6
CONTINUOUS
 10
7.1691079193
 20
4.8133236988
 40
0.55
100
AcDbArc
 50
15.6112478132
 51
344.3888497761
  0
ARC
  5
309
100
AcDbEntity
  8
0
100
AcDbCircle
 62
7
  6
CONTINUOUS
 10
7.1691079193
 20
4.8133236988
 40
0.5096382736
100
AcDbArc
 50
16.4156290184
 51
343.5849992961
  0
ARC
  5
30A
100
AcDbEntity
  8
0
100
AcDbCircle
 62
7
  6
CONTINUOUS
 10
7.1691079193
 20
4.8133236988
 40
0.4177872426
100
AcDbArc
 50
22.2444385924
 51
337.7555947416
  0
ARC
  5
30B
100
AcDbEntity
  8
0
100
AcDbCircle
 62
7
  6
CONTINUOUS
 10
7.1691079193
 20
4.8133236988
 40
0.4090865376
100
AcDbArc
 50
22.3799403085
 51
337.620085905
  0
ARC
  5
30C
100
AcDbEntity
  8
ALL_FEATURES
100
AcDbCircle
 62
7
  6
CONTINUOUS
 10
7.1691079193
 20
4.8133236988
 40
0.3725
100
AcDbArc
 50
23.5660337781
 51
336.4339662219
  0
ARC
  5
30D
100
AcDbEntity
  8
ALL_FEATURES
100
AcDbCircle
 62
7
  6
CONTINUOUS
 10
7.1691079193
 20
4.8133236988
 40
0.355
100
AcDbArc
 50
24.5461916676
 51
335.4538083324
  0
ARC
  5
30E
100
AcDbEntity
  8
0
100
AcDbCircle
 62
7
  6
CONTINUOUS
 10
7.1691079193
 20
4.8133236988
 40
0.2938655903
100
AcDbArc
 50
30.2533879895
 51
329.7466120105
  0
ARC
  5
30F
100
AcDbEntity
  8
0
100
AcDbCircle
 62
7
  6
CONTINUOUS
 10
7.1691079193
 20
4.8133236988
 40
0.2638655883
100
AcDbArc
 50
25.91841745
 51
334.0816523288
  0
ARC
  5
310
100
AcDbEntity
  8
ALL_FEATURES
100
AcDbCircle
 62
7
  6
CONTINUOUS
 10
7.1691079193
 20
4.8133236988
 40
0.2255
100
AcDbArc
 50
30.7294768424
 51
329.2705231576
  0
CIRCLE
  5
311
100
AcDbEntity
  8
0
100
AcDbCircle
 62
7
  6
CONTINUOUS
 10
7.1691079193
 20
4.8133236988
 40
0.1494309477
  0
CIRCLE
  5
312
100
AcDbEntity
  8
0
100
AcDbCircle
 62
7
  6
CONTINUOUS
 10
7.1691079193
 20
4.8133236988
 40
0.1461176229
  0
CIRCLE
  5
313
100
AcDbEntity
  8
0
100
AcDbCircle
 62
7
  6
CONTINUOUS
 10
7.1691079193
 20
4.8133236988
 40
0.14
  0
CIRCLE
  5
314
100
AcDbEntity
  8
0
100
AcDbCircle
 62
7
  6
CONTINUOUS
 10
7.1691079193
 20
4.8133236988
 40
0.1129032259
  0
ARC
  5
315
100
AcDbEntity
  8
0
100
AcDbCircle
 62
7
  6
CONTINUOUS
 10
7.5819110495
 20
4.9485697687
 40
0.03
100
AcDbArc
 50
8.1518829448
 51
110.4686090761
  0
ARC
  5
316
100
AcDbEntity
  8
0
100
AcDbCircle
 62
7
  6
CONTINUOUS
 10
7.4341079193
 20
4.9448223865
 40
0.02
100
AcDbArc
 50
79.9181044225
 51
180.0
  0
ARC
  5
317
100
AcDbEntity
  8
0
100
AcDbCircle
 62
7
  6
CONTINUOUS
 10
7.4822482181
 20
5.215575986
 40
0.255
100
AcDbArc
 50
259.9181044226
 51
290.4686087921
  0
ARC
  5
318
100
AcDbEntity
  8
0
100
AcDbCircle
 62
7
  6
CONTINUOUS
 10
8.8969569047
 20
5.0727044086
 40
0.1425
100
AcDbArc
 50
194.6424776248
 51
231.3022866218
  0
ARC
  5
319
100
AcDbEntity
  8
0
100
AcDbCircle
 62
7
  6
CONTINUOUS
 10
8.730059355
 20
5.0290986988
 40
0.03
100
AcDbArc
 50
14.6424776246
 51
90.0
  0
ARC
  5
31A
100
AcDbEntity
  8
0
100
AcDbCircle
 62
7
  6
CONTINUOUS
 10
8.7891079193
 20
4.9380758591
 40
0.03
100
AcDbArc
 50
0.0
 51
51.3022866217
  0
ARC
  5
31B
100
AcDbEntity
  8
0
100
AcDbCircle
 62
7
  6
CONTINUOUS
 10
8.7191079193
 20
5.0390986988
 40
0.02
100
AcDbArc
 50
90.0
 51
180.0
  0
ARC
  5
31C
100
AcDbEntity
  8
0
100
AcDbCircle
 62
7
  6
CONTINUOUS
 10
9.7055553274
 20
25.5691673009
 40
21.0
100
AcDbArc
 50
264.2774261872
 51
267.2529863377
  0
SPLINE
  5
31D
100
AcDbEntity
  8
0
100
AcDbSpline
 62
7
  6
CONTINUOUS
 70
0
 71
3
 72
11
 73
7
 74
0
 42
0.0000001
 43
0.0000001
 44
0.0000000001
 40
0.0
 40
0.0
 40
0.0
 40
0.0
 40
0.2662914954
 40
0.5190080208
 40
0.762083561
 40
1.0
 40
1.0
 40
1.0
 40
1.0
 10
4.9219969241
 20
4.1431562325
 30
0.0
 10
4.9218088552
 20
4.1428517515
 30
0.0
 10
4.9214749298
 20
4.1422370874
 30
0.0
 10
4.9211043968
 20
4.1412789938
 30
0.0
 10
4.9208807797
 20
4.1403151672
 30
0.0
 10
4.9208305959
 20
4.1396677113
 30
0.0
 10
4.9208305959
 20
4.1393479651
 30
0.0
  0
SPLINE
  5
31E
100
AcDbEntity
  8
0
100
AcDbSpline
 62
7
  6
CONTINUOUS
 70
0
 71
3
 72
29
 73
25
 74
0
 42
0.0000001
 43
0.0000001
 44
0.0000000001
 40
0.0
 40
0.0
 40
0.0
 40
0.0
 40
0.013803071
 40
0.0279288803
 40
0.0426569466
 40
0.0582304314
 40
0.0748511935
 40
0.0926765881
 40
0.1118243998
 40
0.1323810428
 40
0.1544059186
 40
0.1779285054
 40
0.2029599652
 40
0.229499583
 40
0.2870284741
 40
0.3502731135
 40
0.4188650651
 40
0.4923190403
 40
0.5700830247
 40
0.6515170446
 40
0.7359477105
 40
0.8226871642
 40
0.9110014646
 40
1.0
 40
1.0
 40
1.0
 40
1.0
 10
4.9485156353
 20
4.1356036481
 30
0.0
 10
4.9485156353
 20
4.1357961767
 30
0.0
 10
4.9485471338
 20
4.1361864077
 30
0.0
 10
4.9486873663
 20
4.1367668627
 30
0.0
 10
4.9489196541
 20
4.1373435515
 30
0.0
 10
4.9492428682
 20
4.1379145932
 30
0.0
 10
4.9496559716
 20
4.1384785508
 30
0.0
 10
4.9501573488
 20
4.1390345114
 30
0.0
 10
4.9507456301
 20
4.1395815624
 30
0.0
 10
4.9514195089
 20
4.1401186638
 30
0.0
 10
4.9521775393
 20
4.1406446131
 30
0.0
 10
4.953017831
 20
4.1411584159
 30
0.0
 10
4.9539383852
 20
4.1416589406
 30
0.0
 10
4.9553071671
 20
4.1423248816
 30
0.0
 10
4.9572087803
 20
4.1431086843
 30
0.0
 10
4.9597122852
 20
4.1439551967
 30
0.0
 10
4.9624723414
 20
4.1447224064
 30
0.0
 10
4.9654626946
 20
4.1454035605
 30
0.0
 10
4.9686549841
 20
4.1459912649
 30
0.0
 10
4.9720185201
 20
4.1464804864
 30
0.0
 10
4.9755214321
 20
4.1468658685
 30
0.0
 10
4.9791307023
 20
4.1471440496
 30
0.0
 10
4.982810505
 20
4.1473117043
 30
0.0
 10
4.985283869
 20
4.1473492626
 30
0.0
 10
4.9865252421
 20
4.1473492626
 30
0.0
  0
SPLINE
  5
31F
100
AcDbEntity
  8
0
100
AcDbSpline
 62
7
  6
CONTINUOUS
 70
0
 71
3
 72
30
 73
26
 74
0
 42
0.0000001
 43
0.0000001
 44
0.0000000001
 40
0.0
 40
0.0
 40
0.0
 40
0.0
 40
0.0138029393
 40
0.0279286136
 40
0.0426565393
 40
0.0582298754
 40
0.0748504788
 40
0.0926757032
 40
0.111823332
 40
0.1323797786
 40
0.154404444
 40
0.1779268061
 40
0.2029580268
 40
0.2294973911
 40
0.2575328106
 40
0.2870352804
 40
0.3502793154
 40
0.4188706115
 40
0.4923238848
 40
0.5700871262
 40
0.6515203673
 40
0.7359502254
 40
0.8226888517
 40
0.9110023125
 40
1.0
 40
1.0
 40
1.0
 40
1.0
 10
4.9208305959
 20
4.1351005022
 30
0.0
 10
4.9208305959
 20
4.1347675672
 30
0.0
 10
4.9208850656
 20
4.1340927501
 30
0.0
 10
4.9211275662
 20
4.1330889833
 30
0.0
 10
4.9215292559
 20
4.1320917292
 30
0.0
 10
4.9220881823
 20
4.1311042407
 30
0.0
 10
4.922802552
 20
4.1301290024
 30
0.0
 10
4.9236695714
 20
4.1291675932
 30
0.0
 10
4.9246868721
 20
4.1282215911
 30
0.0
 10
4.9258521944
 20
4.1272927943
 30
0.0
 10
4.9271630383
 20
4.1263832845
 30
0.0
 10
4.9286161334
 20
4.1254947708
 30
0.0
 10
4.9302080295
 20
4.1246292541
 30
0.0
 10
4.9319351389
 20
4.1237888552
 30
0.0
 10
4.9337935538
 20
4.1229757796
 30
0.0
 10
4.9365037337
 20
4.1219055022
 30
0.0
 10
4.9401928571
 20
4.1206583979
 30
0.0
 10
4.9449655413
 20
4.1193316457
 30
0.0
 10
4.9501367506
 20
4.1181537528
 30
0.0
 10
4.955657081
 20
4.1171374468
 30
0.0
 10
4.9614735677
 20
4.1162914486
 30
0.0
 10
4.9675310673
 20
4.1156250165
 30
0.0
 10
4.9737724915
 20
4.1151439647
 30
0.0
 10
4.9801358856
 20
4.1148540434
 30
0.0
 10
4.9844130144
 20
4.1147890948
 30
0.0
 10
4.9865596909
 20
4.1147890948
 30
0.0
  0
SPLINE
  5
320
100
AcDbEntity
  8
0
100
AcDbSpline
 62
7
  6
CONTINUOUS
 70
0
 71
3
 72
30
 73
26
 74
0
 42
0.0000001
 43
0.0000001
 44
0.0000000001
 40
0.0
 40
0.0
 40
0.0
 40
0.0
 40
0.0889976875
 40
0.1773111483
 40
0.2640497746
 40
0.3484796327
 40
0.4299128738
 40
0.5076761152
 40
0.5811293885
 40
0.6497206846
 40
0.7129647196
 40
0.7424671894
 40
0.7705026089
 40
0.7970419732
 40
0.8220731939
 40
0.845595556
 40
0.8676202214
 40
0.888176668
 40
0.9073242968
 40
0.9251495212
 40
0.9417701246
 40
0.9573434607
 40
0.9720713864
 40
0.9861970607
 40
1.0
 40
1.0
 40
1.0
 40
1.0
 10
5.4136905964
 20
4.1147890948
 30
0.0
 10
5.4158361478
 20
4.1147890948
 30
0.0
 10
5.420111035
 20
4.1148540094
 30
0.0
 10
5.426471094
 20
4.1151437787
 30
0.0
 10
5.432709247
 20
4.1156245783
 30
0.0
 10
5.4387635719
 20
4.1162906612
 30
0.0
 10
5.4445770102
 20
4.117136216
 30
0.0
 10
5.4500944473
 20
4.1181519894
 30
0.0
 10
5.4552629465
 20
4.1193292649
 30
0.0
 10
5.4600331293
 20
4.1206553218
 30
0.0
 10
5.4637203191
 20
4.1219017724
 30
0.0
 10
5.4664290786
 20
4.1229714889
 30
0.0
 10
5.4682865196
 20
4.1237841384
 30
0.0
 10
5.4700127238
 20
4.1246240968
 30
0.0
 10
5.4716037856
 20
4.12548916
 30
0.0
 10
5.4730561191
 20
4.126377208
 30
0.0
 10
5.474366276
 20
4.1272862411
 30
0.0
 10
5.4755309874
 20
4.1282145511
 30
0.0
 10
5.476547755
 20
4.1291600574
 30
0.0
 10
5.47741432
 20
4.1301209627
 30
0.0
 10
5.4781283153
 20
4.1310956899
 30
0.0
 10
5.4786869488
 20
4.1320826609
 30
0.0
 10
5.479088428
 20
4.1330793923
 30
0.0
 10
5.4793308015
 20
4.134082633
 30
0.0
 10
5.4793852426
 20
4.1347570964
 30
0.0
 10
5.4793852426
 20
4.1350898569
 30
0.0
  0
SPLINE
  5
321
100
AcDbEntity
  8
0
100
AcDbSpline
 62
7
  6
CONTINUOUS
 70
0
 71
3
 72
11
 73
7
 74
0
 42
0.0000001
 43
0.0000001
 44
0.0000000001
 40
0.0
 40
0.0
 40
0.0
 40
0.0
 40
0.237916439
 40
0.4809919792
 40
0.7337085046
 40
1.0
 40
1.0
 40
1.0
 40
1.0
 10
5.4793852426
 20
4.1393479651
 30
0.0
 10
5.4793852426
 20
4.1396677113
 30
0.0
 10
5.4793350588
 20
4.1403151672
 30
0.0
 10
5.4791114417
 20
4.1412789938
 30
0.0
 10
5.4787409087
 20
4.1422370874
 30
0.0
 10
5.4784069833
 20
4.1428517515
 30
0.0
 10
5.4782189144
 20
4.1431562325
 30
0.0
  0
SPLINE
  5
322
100
AcDbEntity
  8
0
100
AcDbSpline
 62
7
  6
CONTINUOUS
 70
0
 71
3
 72
28
 73
24
 74
0
 42
0.0000001
 43
0.0000001
 44
0.0000000001
 40
0.0
 40
0.0
 40
0.0
 40
0.0
 40
0.01379839
 40
0.0279225988
 40
0.0426516726
 40
0.0582275666
 40
0.0926357323
 40
0.1117872817
 40
0.1323444486
 40
0.1543658136
 40
0.1778889633
 40
0.202924709
 40
0.2294669905
 40
0.2869922316
 40
0.350245081
 40
0.4188364527
 40
0.4923012505
 40
0.5700632707
 40
0.6514918418
 40
0.7359291693
 40
0.8226953749
 40
0.9110234725
 40
1.0
 40
1.0
 40
1.0
 40
1.0
 10
4.9405156353
 20
4.1313561852
 30
0.0
 10
4.9405156353
 20
4.1311230502
 30
0.0
 10
4.9405538431
 20
4.1306504595
 30
0.0
 10
4.9407238143
 20
4.1299474698
 30
0.0
 10
4.9410052453
 20
4.1292488744
 30
0.0
 10
4.9415449994
 20
4.128294994
 30
0.0
 10
4.9422996268
 20
4.127390429
 30
0.0
 10
4.9432170283
 20
4.1265374346
 30
0.0
 10
4.9440334899
 20
4.1258866834
 30
0.0
 10
4.9449515273
 20
4.125249513
 30
0.0
 10
4.9459694991
 20
4.1246272183
 30
0.0
 10
4.9470847978
 20
4.1240210584
 30
0.0
 10
4.9487429112
 20
4.1232144329
 30
0.0
 10
4.951046295
 20
4.1222644646
 30
0.0
 10
4.9540790868
 20
4.1212395496
 30
0.0
 10
4.9574225632
 20
4.1203096448
 30
0.0
 10
4.9610451101
 20
4.1194850547
 30
0.0
 10
4.964911974
 20
4.1187727412
 30
0.0
 10
4.9689863124
 20
4.1181802734
 30
0.0
 10
4.9732299227
 20
4.1177132947
 30
0.0
 10
4.9776027219
 20
4.1173764298
 30
0.0
 10
4.9820604597
 20
4.1171733735
 30
0.0
 10
4.9850563603
 20
4.1171277895
 30
0.0
 10
4.9865596909
 20
4.1171277895
 30
0.0
  0
SPLINE
  5
323
100
AcDbEntity
  8
0
100
AcDbSpline
 62
7
  6
CONTINUOUS
 70
0
 71
3
 72
28
 73
24
 74
0
 42
0.0000001
 43
0.0000001
 44
0.0000000001
 40
0.0
 40
0.0
 40
0.0
 40
0.0
 40
0.0889765275
 40
0.1773046251
 40
0.2640708307
 40
0.3485081582
 40
0.4299367293
 40
0.5076987495
 40
0.5811635473
 40
0.649754919
 40
0.7130077684
 40
0.7705330095
 40
0.797075291
 40
0.8221110367
 40
0.8456341864
 40
0.8676555514
 40
0.8882127183
 40
0.9073642677
 40
0.9417724334
 40
0.9573483274
 40
0.9720774012
 40
0.98620161
 40
1.0
 40
1.0
 40
1.0
 40
1.0
 10
5.4136905964
 20
4.1171277895
 30
0.0
 10
5.4151928023
 20
4.1171277895
 30
0.0
 10
5.4181864614
 20
4.1171733393
 30
0.0
 10
5.4226408641
 20
4.1173762438
 30
0.0
 10
5.4270103917
 20
4.1177128566
 30
0.0
 10
5.431250827
 20
4.1181794859
 30
0.0
 10
5.4353221171
 20
4.1187715105
 30
0.0
 10
5.439186088
 20
4.1194832911
 30
0.0
 10
5.4428059246
 20
4.1203072642
 30
0.0
 10
5.4461468995
 20
4.1212364733
 30
0.0
 10
5.4491774222
 20
4.1222606215
 30
0.0
 10
5.4514790827
 20
4.123209879
 30
0.0
 10
5.4531359556
 20
4.124015901
 30
0.0
 10
5.4542504198
 20
4.1246216074
 30
0.0
 10
5.45526763
 20
4.1252434366
 30
0.0
 10
5.4561849805
 20
4.1258801302
 30
0.0
 10
5.4570008314
 20
4.1265303946
 30
0.0
 10
5.4579175464
 20
4.1273827508
 30
0.0
 10
5.4586716093
 20
4.128286639
 30
0.0
 10
5.4592109595
 20
4.1292398058
 30
0.0
 10
5.4594921799
 20
4.1299378785
 30
0.0
 10
5.459662024
 20
4.1306403422
 30
0.0
 10
5.4597002033
 20
4.1311125793
 30
0.0
 10
5.4597002033
 20
4.1313455399
 30
0.0
  0
SPLINE
  5
324
100
AcDbEntity
  8
0
100
AcDbSpline
 62
7
  6
CONTINUOUS
 70
0
 71
3
 72
29
 73
25
 74
0
 42
0.0000001
 43
0.0000001
 44
0.0000000001
 40
0.0
 40
0.0
 40
0.0
 40
0.0
 40
0.0889985354
 40
0.1773128358
 40
0.2640522895
 40
0.3484829554
 40
0.4299169753
 40
0.5076809597
 40
0.5811349349
 40
0.6497268865
 40
0.7129715259
 40
0.770500417
 40
0.7970400348
 40
0.8220714946
 40
0.8455940814
 40
0.8676189572
 40
0.8881756002
 40
0.9073234119
 40
0.9251488065
 40
0.9417695686
 40
0.9573430534
 40
0.9720711197
 40
0.986196929
 40
1.0
 40
1.0
 40
1.0
 40
1.0
 10
5.4136905964
 20
4.1473492626
 30
0.0
 10
5.4149319695
 20
4.1473492626
 30
0.0
 10
5.4174053335
 20
4.1473117043
 30
0.0
 10
5.4210851363
 20
4.1471440496
 30
0.0
 10
5.4246944064
 20
4.1468658685
 30
0.0
 10
5.4281973184
 20
4.1464804864
 30
0.0
 10
5.4315608544
 20
4.1459912649
 30
0.0
 10
5.4347531439
 20
4.1454035605
 30
0.0
 10
5.4377434971
 20
4.1447224064
 30
0.0
 10
5.4405035534
 20
4.1439551967
 30
0.0
 10
5.4430070582
 20
4.1431086843
 30
0.0
 10
5.4449086715
 20
4.1423248816
 30
0.0
 10
5.4462774533
 20
4.1416589406
 30
0.0
 10
5.4471980076
 20
4.1411584159
 30
0.0
 10
5.4480382992
 20
4.1406446131
 30
0.0
 10
5.4487963296
 20
4.1401186638
 30
0.0
 10
5.4494702084
 20
4.1395815624
 30
0.0
 10
5.4500584898
 20
4.1390345114
 30
0.0
 10
5.4505598669
 20
4.1384785508
 30
0.0
 10
5.4509729703
 20
4.1379145932
 30
0.0
 10
5.4512961844
 20
4.1373435515
 30
0.0
 10
5.4515284723
 20
4.1367668627
 30
0.0
 10
5.4516687047
 20
4.1361864077
 30
0.0
 10
5.4517002033
 20
4.1357961767
 30
0.0
 10
5.4517002033
 20
4.1356036481
 30
0.0
  0
SPLINE
  5
325
100
AcDbEntity
  8
0
100
AcDbSpline
 62
7
  6
CONTINUOUS
 70
0
 71
3
 72
30
 73
26
 74
0
 42
0.0000001
 43
0.0000001
 44
0.0000000001
 40
0.0
 40
0.0
 40
0.0
 40
0.0
 40
0.0889976875
 40
0.1773111483
 40
0.2640497746
 40
0.3484796327
 40
0.4299128738
 40
0.5076761152
 40
0.5811293885
 40
0.6497206846
 40
0.7129647196
 40
0.7424671894
 40
0.7705026089
 40
0.7970419732
 40
0.8220731939
 40
0.845595556
 40
0.8676202214
 40
0.888176668
 40
0.9073242968
 40
0.9251495212
 40
0.9417701246
 40
0.9573434607
 40
0.9720713864
 40
0.9861970607
 40
1.0
 40
1.0
 40
1.0
 40
1.0
 10
4.9865252421
 20
4.1535657155
 30
0.0
 10
4.9850225934
 20
4.1535657155
 30
0.0
 10
4.9820286526
 20
4.1535202522
 30
0.0
 10
4.9775743503
 20
4.1533173107
 30
0.0
 10
4.9732054255
 20
4.15298058
 30
0.0
 10
4.9689652458
 20
4.1525140852
 30
0.0
 10
4.9648937723
 20
4.1519218963
 30
0.0
 10
4.9610296048
 20
4.1512104938
 30
0.0
 10
4.9574098181
 20
4.1503859824
 30
0.0
 10
4.9540689943
 20
4.1494572712
 30
0.0
 10
4.9514866506
 20
4.1485843126
 30
0.0
 10
4.949589556
 20
4.1478351308
 30
0.0
 10
4.948288687
 20
4.1472659873
 30
0.0
 10
4.9470797304
 20
4.1466777177
 30
0.0
 10
4.9459654215
 20
4.146071866
 30
0.0
 10
4.9449482718
 20
4.1454499167
 30
0.0
 10
4.9440306962
 20
4.1448132704
 30
0.0
 10
4.9432149841
 20
4.1441631234
 30
0.0
 10
4.9425028853
 20
4.1435009328
 30
0.0
 10
4.9418959818
 20
4.1428279575
 30
0.0
 10
4.9413959312
 20
4.1421453019
 30
0.0
 10
4.9410046892
 20
4.1414540714
 30
0.0
 10
4.940723511
 20
4.1407560051
 30
0.0
 10
4.9405537634
 20
4.1400533799
 30
0.0
 10
4.9405156353
 20
4.1395810158
 30
0.0
 10
4.9405156353
 20
4.1393479651
 30
0.0
  0
SPLINE
  5
326
100
AcDbEntity
  8
0
100
AcDbSpline
 62
7
  6
CONTINUOUS
 70
0
 71
3
 72
28
 73
24
 74
0
 42
0.0000001
 43
0.0000001
 44
0.0000000001
 40
0.0
 40
0.0
 40
0.0
 40
0.0
 40
0.0889765275
 40
0.1773046251
 40
0.2640708307
 40
0.3485081582
 40
0.4299367293
 40
0.5076987495
 40
0.5811635473
 40
0.649754919
 40
0.7130077684
 40
0.7705330095
 40
0.797075291
 40
0.8221110367
 40
0.8456341864
 40
0.8676555514
 40
0.8882127183
 40
0.9073642677
 40
0.9417724334
 40
0.9573483274
 40
0.9720774012
 40
0.98620161
 40
1.0
 40
1.0
 40
1.0
 40
1.0
 10
4.9865252421
 20
4.1498213985
 30
0.0
 10
4.9850230362
 20
4.1498213985
 30
0.0
 10
4.9820293771
 20
4.1497758487
 30
0.0
 10
4.9775749744
 20
4.1495729443
 30
0.0
 10
4.9732054468
 20
4.1492363314
 30
0.0
 10
4.9689650115
 20
4.1487697021
 30
0.0
 10
4.9648937214
 20
4.1481776775
 30
0.0
 10
4.9610297505
 20
4.147465897
 30
0.0
 10
4.957409914
 20
4.1466419238
 30
0.0
 10
4.954068939
 20
4.1457127147
 30
0.0
 10
4.9510384163
 20
4.1446885666
 30
0.0
 10
4.9487367558
 20
4.143739309
 30
0.0
 10
4.9470798829
 20
4.142933287
 30
0.0
 10
4.9459654187
 20
4.1423275806
 30
0.0
 10
4.9449482085
 20
4.1417057514
 30
0.0
 10
4.944030858
 20
4.1410690578
 30
0.0
 10
4.9432150072
 20
4.1404187934
 30
0.0
 10
4.9422982921
 20
4.1395664372
 30
0.0
 10
4.9415442292
 20
4.138662549
 30
0.0
 10
4.941004879
 20
4.1377093823
 30
0.0
 10
4.9407236586
 20
4.1370113095
 30
0.0
 10
4.9405538145
 20
4.1363088458
 30
0.0
 10
4.9405156353
 20
4.1358366087
 30
0.0
 10
4.9405156353
 20
4.1356036481
 30
0.0
  0
SPLINE
  5
327
100
AcDbEntity
  8
0
100
AcDbSpline
 62
7
  6
CONTINUOUS
 70
0
 71
3
 72
28
 73
24
 74
0
 42
0.0000001
 43
0.0000001
 44
0.0000000001
 40
0.0
 40
0.0
 40
0.0
 40
0.0
 40
0.01379839
 40
0.0279225988
 40
0.0426516726
 40
0.0582275666
 40
0.0926357323
 40
0.1117872817
 40
0.1323444486
 40
0.1543658136
 40
0.1778889633
 40
0.202924709
 40
0.2294669905
 40
0.2869922316
 40
0.350245081
 40
0.4188364527
 40
0.4923012505
 40
0.5700632707
 40
0.6514918418
 40
0.7359291693
 40
0.8226953749
 40
0.9110234725
 40
1.0
 40
1.0
 40
1.0
 40
1.0
 10
5.4597002033
 20
4.1356036481
 30
0.0
 10
5.4597002033
 20
4.1358366087
 30
0.0
 10
5.459662024
 20
4.1363088458
 30
0.0
 10
5.4594921799
 20
4.1370113095
 30
0.0
 10
5.4592109595
 20
4.1377093823
 30
0.0
 10
5.4586716093
 20
4.138662549
 30
0.0
 10
5.4579175464
 20
4.1395664372
 30
0.0
 10
5.4570008314
 20
4.1404187934
 30
0.0
 10
5.4561849805
 20
4.1410690578
 30
0.0
 10
5.45526763
 20
4.1417057514
 30
0.0
 10
5.4542504198
 20
4.1423275806
 30
0.0
 10
5.4531359556
 20
4.142933287
 30
0.0
 10
5.4514790827
 20
4.143739309
 30
0.0
 10
5.4491774222
 20
4.1446885666
 30
0.0
 10
5.4461468995
 20
4.1457127147
 30
0.0
 10
5.4428059246
 20
4.1466419238
 30
0.0
 10
5.439186088
 20
4.147465897
 30
0.0
 10
5.4353221171
 20
4.1481776775
 30
0.0
 10
5.431250827
 20
4.1487697021
 30
0.0
 10
5.4270103917
 20
4.1492363314
 30
0.0
 10
5.4226408641
 20
4.1495729443
 30
0.0
 10
5.4181864614
 20
4.1497758487
 30
0.0
 10
5.4151928023
 20
4.1498213985
 30
0.0
 10
5.4136905964
 20
4.1498213985
 30
0.0
  0
LINE
  5
328
100
AcDbEntity
  8
0
100
AcDbLine
 62
7
  6
CONTINUOUS
 10
5.4716973384
 20
4.1537084986
 11
5.470851191
 21
4.1548703883
  0
SPLINE
  5
329
100
AcDbEntity
  8
0
100
AcDbSpline
 62
7
  6
CONTINUOUS
 70
0
 71
3
 72
26
 73
22
 74
0
 42
0.0000001
 43
0.0000001
 44
0.0000000001
 40
0.0
 40
0.0
 40
0.0
 40
0.0
 40
0.0314490316
 40
0.0487183352
 40
0.0671091919
 40
0.0866757865
 40
0.1074544488
 40
0.1294629179
 40
0.1527085719
 40
0.202895937
 40
0.2579283666
 40
0.3175935062
 40
0.3816157147
 40
0.4496410252
 40
0.5212782707
 40
0.59607637
 40
0.6735534168
 40
0.7532176899
 40
0.8345691876
 40
0.9170499293
 40
1.0
 40
1.0
 40
1.0
 40
1.0
 10
5.4782189144
 20
4.1431562325
 30
0.0
 10
5.4778427094
 20
4.1437653035
 30
0.0
 10
5.4771542984
 20
4.1446454651
 30
0.0
 10
5.4760769039
 20
4.1457290874
 30
0.0
 10
5.475127663
 20
4.1465551601
 30
0.0
 10
5.4740645644
 20
4.1473672243
 30
0.0
 10
5.4728891949
 20
4.1481641628
 30
0.0
 10
5.4716039521
 20
4.1489447111
 30
0.0
 10
5.4696978406
 20
4.1499884909
 30
0.0
 10
5.4670485506
 20
4.151233549
 30
0.0
 10
5.4635521466
 20
4.1526041421
 30
0.0
 10
5.4596864843
 20
4.1538778819
 30
0.0
 10
5.4554797228
 20
4.1550443045
 30
0.0
 10
5.450962687
 20
4.1560956905
 30
0.0
 10
5.4461686492
 20
4.157023054
 30
0.0
 10
5.4411334284
 20
4.1578202203
 30
0.0
 10
5.4358943346
 20
4.158480782
 30
0.0
 10
5.4304895187
 20
4.1589998182
 30
0.0
 10
5.4249585687
 20
4.1593734045
 30
0.0
 10
5.4193448007
 20
4.1595983495
 30
0.0
 10
5.4155788288
 20
4.1596487272
 30
0.0
 10
5.4136905964
 20
4.1596487272
 30
0.0
  0
LINE
  5
32A
100
AcDbEntity
  8
0
100
AcDbLine
 62
7
  6
CONTINUOUS
 10
4.9293646516
 20
4.1548703932
 11
4.9285185001
 21
4.1537084986
  0
SPLINE
  5
32B
100
AcDbEntity
  8
0
100
AcDbSpline
 62
7
  6
CONTINUOUS
 70
0
 71
3
 72
30
 73
26
 74
0
 42
0.0000001
 43
0.0000001
 44
0.0000000001
 40
0.0
 40
0.0
 40
0.0
 40
0.0
 40
0.0138029393
 40
0.0279286136
 40
0.0426565393
 40
0.0582298754
 40
0.0748504788
 40
0.0926757032
 40
0.111823332
 40
0.1323797786
 40
0.154404444
 40
0.1779268061
 40
0.2029580268
 40
0.2294973911
 40
0.2575328106
 40
0.2870352804
 40
0.3502793154
 40
0.4188706115
 40
0.4923238848
 40
0.5700871262
 40
0.6515203673
 40
0.7359502254
 40
0.8226888517
 40
0.9110023125
 40
1.0
 40
1.0
 40
1.0
 40
1.0
 10
5.4597002033
 20
4.1393479651
 30
0.0
 10
5.4597002033
 20
4.1395810158
 30
0.0
 10
5.4596620751
 20
4.1400533799
 30
0.0
 10
5.4594923275
 20
4.1407560051
 30
0.0
 10
5.4592111493
 20
4.1414540714
 30
0.0
 10
5.4588199073
 20
4.1421453019
 30
0.0
 10
5.4583198567
 20
4.1428279575
 30
0.0
 10
5.4577129532
 20
4.1435009328
 30
0.0
 10
5.4570008544
 20
4.1441631234
 30
0.0
 10
5.4561851423
 20
4.1448132704
 30
0.0
 10
5.4552675668
 20
4.1454499167
 30
0.0
 10
5.454250417
 20
4.146071866
 30
0.0
 10
5.4531361081
 20
4.1466777177
 30
0.0
 10
5.4519271515
 20
4.1472659873
 30
0.0
 10
5.4506262825
 20
4.1478351308
 30
0.0
 10
5.4487291879
 20
4.1485843126
 30
0.0
 10
5.4461468442
 20
4.1494572712
 30
0.0
 10
5.4428060204
 20
4.1503859824
 30
0.0
 10
5.4391862337
 20
4.1512104938
 30
0.0
 10
5.4353220662
 20
4.1519218963
 30
0.0
 10
5.4312505927
 20
4.1525140852
 30
0.0
 10
5.427010413
 20
4.15298058
 30
0.0
 10
5.4226414882
 20
4.1533173107
 30
0.0
 10
5.4181871859
 20
4.1535202522
 30
0.0
 10
5.4151932451
 20
4.1535657155
 30
0.0
 10
5.4136905964
 20
4.1535657155
 30
0.0
  0
SPLINE
  5
32C
100
AcDbEntity
  8
0
100
AcDbSpline
 62
7
  6
CONTINUOUS
 70
0
 71
3
 72
29
 73
25
 74
0
 42
0.0000001
 43
0.0000001
 44
0.0000000001
 40
0.0
 40
0.0
 40
0.0
 40
0.0
 40
0.013803071
 40
0.0279288803
 40
0.0426569466
 40
0.0582304314
 40
0.0748511935
 40
0.0926765881
 40
0.1118243998
 40
0.1323810428
 40
0.1544059186
 40
0.1779285054
 40
0.2029599652
 40
0.229499583
 40
0.2870284741
 40
0.3502731135
 40
0.4188650651
 40
0.4923190403
 40
0.5700830247
 40
0.6515170446
 40
0.7359477105
 40
0.8226871642
 40
0.9110014646
 40
1.0
 40
1.0
 40
1.0
 40
1.0
 10
5.4517002033
 20
4.1313455399
 30
0.0
 10
5.4517002033
 20
4.1311530114
 30
0.0
 10
5.4516687047
 20
4.1307627803
 30
0.0
 10
5.4515284723
 20
4.1301823253
 30
0.0
 10
5.4512961844
 20
4.1296056365
 30
0.0
 10
5.4509729703
 20
4.1290345949
 30
0.0
 10
5.4505598669
 20
4.1284706372
 30
0.0
 10
5.4500584898
 20
4.1279146767
 30
0.0
 10
5.4494702084
 20
4.1273676256
 30
0.0
 10
5.4487963296
 20
4.1268305242
 30
0.0
 10
5.4480382992
 20
4.1263045749
 30
0.0
 10
5.4471980076
 20
4.1257907721
 30
0.0
 10
5.4462774533
 20
4.1252902474
 30
0.0
 10
5.4449086715
 20
4.1246243064
 30
0.0
 10
5.4430070582
 20
4.1238405037
 30
0.0
 10
5.4405035534
 20
4.1229939913
 30
0.0
 10
5.4377434971
 20
4.1222267816
 30
0.0
 10
5.4347531439
 20
4.1215456275
 30
0.0
 10
5.4315608544
 20
4.1209579232
 30
0.0
 10
5.4281973184
 20
4.1204687016
 30
0.0
 10
5.4246944064
 20
4.1200833195
 30
0.0
 10
5.4210851363
 20
4.1198051385
 30
0.0
 10
5.4174053335
 20
4.1196374837
 30
0.0
 10
5.4149319695
 20
4.1195999255
 30
0.0
 10
5.4136905964
 20
4.1195999255
 30
0.0
  0
SPLINE
  5
32D
100
AcDbEntity
  8
0
100
AcDbSpline
 62
7
  6
CONTINUOUS
 70
0
 71
3
 72
26
 73
22
 74
0
 42
0.0000001
 43
0.0000001
 44
0.0000000001
 40
0.0
 40
0.0
 40
0.0
 40
0.0
 40
0.0829500707
 40
0.1654308124
 40
0.2467823101
 40
0.3264465832
 40
0.40392363
 40
0.4787217293
 40
0.5503589748
 40
0.6183842853
 40
0.6824064938
 40
0.7420716334
 40
0.797104063
 40
0.8472914281
 40
0.8705370821
 40
0.8925455512
 40
0.9133242135
 40
0.9328908081
 40
0.9512816648
 40
0.9685509684
 40
1.0
 40
1.0
 40
1.0
 40
1.0
 10
4.9865252421
 20
4.1596487272
 30
0.0
 10
4.9846370097
 20
4.1596487272
 30
0.0
 10
4.9808710378
 20
4.1595983495
 30
0.0
 10
4.9752572698
 20
4.1593734045
 30
0.0
 10
4.9697263198
 20
4.1589998182
 30
0.0
 10
4.9643215039
 20
4.158480782
 30
0.0
 10
4.9590824101
 20
4.1578202203
 30
0.0
 10
4.9540471893
 20
4.157023054
 30
0.0
 10
4.9492531515
 20
4.1560956905
 30
0.0
 10
4.9447361157
 20
4.1550443045
 30
0.0
 10
4.9405293542
 20
4.1538778819
 30
0.0
 10
4.9366636919
 20
4.1526041421
 30
0.0
 10
4.9331672879
 20
4.151233549
 30
0.0
 10
4.9305179979
 20
4.1499884909
 30
0.0
 10
4.9286118864
 20
4.1489447111
 30
0.0
 10
4.9273266436
 20
4.1481641628
 30
0.0
 10
4.9261512741
 20
4.1473672243
 30
0.0
 10
4.9250881755
 20
4.1465551601
 30
0.0
 10
4.9241389346
 20
4.1457290874
 30
0.0
 10
4.9230615401
 20
4.1446454651
 30
0.0
 10
4.9223731291
 20
4.1437653035
 30
0.0
 10
4.9219969241
 20
4.1431562325
 30
0.0
  0
SPLINE
  5
32E
100
AcDbEntity
  8
0
100
AcDbSpline
 62
7
  6
CONTINUOUS
 70
0
 71
3
 72
29
 73
25
 74
0
 42
0.0000001
 43
0.0000001
 44
0.0000000001
 40
0.0
 40
0.0
 40
0.0
 40
0.0
 40
0.0889985354
 40
0.1773128358
 40
0.2640522895
 40
0.3484829554
 40
0.4299169753
 40
0.5076809597
 40
0.5811349349
 40
0.6497268865
 40
0.7129715259
 40
0.770500417
 40
0.7970400348
 40
0.8220714946
 40
0.8455940814
 40
0.8676189572
 40
0.8881756002
 40
0.9073234119
 40
0.9251488065
 40
0.9417695686
 40
0.9573430534
 40
0.9720711197
 40
0.986196929
 40
1.0
 40
1.0
 40
1.0
 40
1.0
 10
4.9865252421
 20
4.1195999255
 30
0.0
 10
4.985283869
 20
4.1195999255
 30
0.0
 10
4.982810505
 20
4.1196374837
 30
0.0
 10
4.9791307023
 20
4.1198051385
 30
0.0
 10
4.9755214321
 20
4.1200833195
 30
0.0
 10
4.9720185201
 20
4.1204687016
 30
0.0
 10
4.9686549841
 20
4.1209579232
 30
0.0
 10
4.9654626946
 20
4.1215456275
 30
0.0
 10
4.9624723414
 20
4.1222267816
 30
0.0
 10
4.9597122852
 20
4.1229939913
 30
0.0
 10
4.9572087803
 20
4.1238405037
 30
0.0
 10
4.9553071671
 20
4.1246243064
 30
0.0
 10
4.9539383852
 20
4.1252902474
 30
0.0
 10
4.953017831
 20
4.1257907721
 30
0.0
 10
4.9521775393
 20
4.1263045749
 30
0.0
 10
4.9514195089
 20
4.1268305242
 30
0.0
 10
4.9507456301
 20
4.1273676256
 30
0.0
 10
4.9501573488
 20
4.1279146767
 30
0.0
 10
4.9496559716
 20
4.1284706372
 30
0.0
 10
4.9492428682
 20
4.1290345949
 30
0.0
 10
4.9489196541
 20
4.1296056365
 30
0.0
 10
4.9486873663
 20
4.1301823253
 30
0.0
 10
4.9485471338
 20
4.1307627803
 30
0.0
 10
4.9485156353
 20
4.1311530114
 30
0.0
 10
4.9485156353
 20
4.1313455399
 30
0.0
  0
SPLINE
  5
32F
100
AcDbEntity
  8
ALL_FEATURES
100
AcDbSpline
 62
7
  6
CONTINUOUS
 70
0
 71
3
 72
24
 73
20
 74
0
 42
0.0000001
 43
0.0000001
 44
0.0000000001
 40
0.0
 40
0.0
 40
0.0
 40
0.0
 40
0.0625034058
 40
0.1250036705
 40
0.1874963574
 40
0.2499892208
 40
0.312490667
 40
0.3749952963
 40
0.4374944379
 40
0.4687493573
 40
0.5000044143
 40
0.562504098
 40
0.6250088169
 40
0.687509731
 40
0.7500021268
 40
0.8124952716
 40
0.8749959798
 40
0.9374993342
 40
1.0
 40
1.0
 40
1.0
 40
1.0
 10
5.4235743436
 20
4.8394642081
 30
0.0
 10
5.4227908324
 20
4.8461369615
 30
0.0
 10
5.42062681
 20
4.8594197303
 30
0.0
 10
5.415624647
 20
4.8789695145
 30
0.0
 10
5.4088970503
 20
4.8979960093
 30
0.0
 10
5.4004737777
 20
4.9163346514
 30
0.0
 10
5.3904430771
 20
4.933846808
 30
0.0
 10
5.3788964136
 20
4.9503983987
 30
0.0
 10
5.3680821162
 20
4.9632823255
 30
0.0
 10
5.3587651461
 20
4.9729707751
 30
0.0
 10
5.3490182908
 20
4.9822266999
 30
0.0
 10
5.3360674807
 20
4.9929608763
 30
0.0
 10
5.3194448826
 20
5.0044050956
 30
0.0
 10
5.3018711443
 20
5.0143273397
 30
0.0
 10
5.283479816
 20
5.022635165
 30
0.0
 10
5.2644120904
 20
5.0292436503
 30
0.0
 10
5.244830038
 20
5.0341251119
 30
0.0
 10
5.2248925235
 20
5.0372474116
 30
0.0
 10
5.2114635619
 20
5.0381352839
 30
0.0
 10
5.2047467204
 20
5.0382753183
 30
0.0
  0
SPLINE
  5
330
100
AcDbEntity
  8
0
100
AcDbSpline
 62
7
  6
CONTINUOUS
 70
0
 71
3
 72
18
 73
14
 74
0
 42
0.0000001
 43
0.0000001
 44
0.0000000001
 40
0.0
 40
0.0
 40
0.0
 40
0.0
 40
0.036404864
 40
0.0769309629
 40
0.1216732066
 40
0.1705996055
 40
0.2236156207
 40
0.2805517286
 40
0.4052240404
 40
0.5423971005
 40
0.6893163115
 40
0.8430188156
 40
1.0
 40
1.0
 40
1.0
 40
1.0
 10
4.916423114
 20
4.1478092299
 30
0.0
 10
4.9170617548
 20
4.1483836217
 30
0.0
 10
4.9184913042
 20
4.1495095749
 30
0.0
 10
4.9209146811
 20
4.1510549347
 30
0.0
 10
4.9237155908
 20
4.1525376591
 30
0.0
 10
4.9268775483
 20
4.1539499676
 30
0.0
 10
4.9303831522
 20
4.1552826623
 30
0.0
 10
4.9356492622
 20
4.1569951811
 30
0.0
 10
4.9429464681
 20
4.1588517782
 30
0.0
 10
4.952437796
 20
4.1605952879
 30
0.0
 10
4.9626932577
 20
4.1618728778
 30
0.0
 10
4.97346617
 20
4.162651474
 30
0.0
 10
4.9807977651
 20
4.1628259571
 30
0.0
 10
4.98450162
 20
4.1628259571
 30
0.0
  0
SPLINE
  5
331
100
AcDbEntity
  8
ALL_FEATURES
100
AcDbSpline
 62
7
  6
CONTINUOUS
 70
0
 71
3
 72
35
 73
31
 74
0
 42
0.0000001
 43
0.0000001
 44
0.0000000001
 40
0.0
 40
0.0
 40
0.0
 40
0.0
 40
0.1701011125
 40
0.2504334579
 40
0.3278967931
 40
0.4026597771
 40
0.4747388095
 40
0.5441017665
 40
0.6106699721
 40
0.6743295268
 40
0.7348644121
 40
0.7638801855
 40
0.7919812025
 40
0.8190942818
 40
0.8451498873
 40
0.8700696742
 40
0.8937292956
 40
0.9159817161
 40
0.9366142199
 40
0.9462613971
 40
0.9554179762
 40
0.9640565394
 40
0.9721672753
 40
0.9797436758
 40
0.9833235717
 40
0.9867719208
 40
0.9901125233
 40
0.9933869175
 40
0.9966562049
 40
1.0
 40
1.0
 40
1.0
 40
1.0
 10
5.2001079193
 20
4.093625059
 30
0.0
 10
5.2241583695
 20
4.093625059
 30
0.0
 10
5.2595693944
 20
4.0940414646
 30
0.0
 10
5.3059088964
 20
4.0954842773
 30
0.0
 10
5.338759429
 20
4.096927338
 30
0.0
 10
5.3704237653
 20
4.0987236215
 30
0.0
 10
5.4009178419
 20
4.1008782693
 30
0.0
 10
5.4302215922
 20
4.1033950663
 30
0.0
 10
5.4582943582
 20
4.1062887351
 30
0.0
 10
5.4850676104
 20
4.1095703019
 30
0.0
 10
5.506504996
 20
4.1127019051
 30
0.0
 10
5.5229106196
 20
4.1154563288
 30
0.0
 10
5.5346221529
 20
4.1176205186
 30
0.0
 10
5.5458803771
 20
4.1199240381
 30
0.0
 10
5.5566461141
 20
4.1223781378
 30
0.0
 10
5.5668716566
 20
4.1249907716
 30
0.0
 10
5.5764907255
 20
4.1277865222
 30
0.0
 10
5.5854132411
 20
4.1307815448
 30
0.0
 10
5.5923157776
 20
4.1335418664
 30
0.0
 10
5.5973595784
 20
4.1359230341
 30
0.0
 10
5.6007829311
 20
4.1377534044
 30
0.0
 10
5.6039021978
 20
4.1396795422
 30
0.0
 10
5.6066815084
 20
4.1417111472
 30
0.0
 10
5.6087222986
 20
4.1435276146
 30
0.0
 10
5.6100970011
 20
4.1450717221
 30
0.0
 10
5.6109658753
 20
4.1462557936
 30
0.0
 10
5.6116744064
 20
4.1474937775
 30
0.0
 10
5.6122038182
 20
4.1487922555
 30
0.0
 10
5.6125344821
 20
4.1501560877
 30
0.0
 10
5.6126079193
 20
4.1510929691
 30
0.0
 10
5.6126079193
 20
4.1515657454
 30
0.0
  0
SPLINE
  5
332
100
AcDbEntity
  8
ALL_FEATURES
100
AcDbSpline
 62
7
  6
CONTINUOUS
 70
0
 71
3
 72
35
 73
31
 74
0
 42
0.0000001
 43
0.0000001
 44
0.0000000001
 40
0.0
 40
0.0
 40
0.0
 40
0.0
 40
0.0033437951
 40
0.0066130825
 40
0.0098874767
 40
0.0132280792
 40
0.0166764283
 40
0.0202563242
 40
0.0278327247
 40
0.0359434606
 40
0.0445820238
 40
0.0537386029
 40
0.0633857801
 40
0.0840182839
 40
0.1062707044
 40
0.1299303258
 40
0.1548501127
 40
0.1809057182
 40
0.2080187975
 40
0.2361198145
 40
0.2651355879
 40
0.3256704732
 40
0.3893300279
 40
0.4558982335
 40
0.5252611905
 40
0.5973402229
 40
0.6721032069
 40
0.7495665421
 40
0.8298988875
 40
1.0
 40
1.0
 40
1.0
 40
1.0
 10
4.7876079193
 20
4.1515657454
 30
0.0
 10
4.7876079193
 20
4.1510929691
 30
0.0
 10
4.7876813564
 20
4.1501560877
 30
0.0
 10
4.7880120203
 20
4.1487922555
 30
0.0
 10
4.7885414321
 20
4.1474937775
 30
0.0
 10
4.7892499633
 20
4.1462557936
 30
0.0
 10
4.7901188374
 20
4.1450717221
 30
0.0
 10
4.7914935399
 20
4.1435276146
 30
0.0
 10
4.7935343301
 20
4.1417111472
 30
0.0
 10
4.7963136407
 20
4.1396795422
 30
0.0
 10
4.7994329074
 20
4.1377534044
 30
0.0
 10
4.8028562601
 20
4.1359230341
 30
0.0
 10
4.8079000609
 20
4.1335418664
 30
0.0
 10
4.8148025974
 20
4.1307815448
 30
0.0
 10
4.823725113
 20
4.1277865222
 30
0.0
 10
4.8333441819
 20
4.1249907716
 30
0.0
 10
4.8435697244
 20
4.1223781378
 30
0.0
 10
4.8543354614
 20
4.1199240381
 30
0.0
 10
4.8655936856
 20
4.1176205186
 30
0.0
 10
4.8773052189
 20
4.1154563288
 30
0.0
 10
4.8937108425
 20
4.1127019051
 30
0.0
 10
4.9151482281
 20
4.1095703019
 30
0.0
 10
4.9419214803
 20
4.1062887351
 30
0.0
 10
4.9699942463
 20
4.1033950663
 30
0.0
 10
4.9992979966
 20
4.1008782693
 30
0.0
 10
5.0297920732
 20
4.0987236215
 30
0.0
 10
5.0614564095
 20
4.096927338
 30
0.0
 10
5.0943069421
 20
4.0954842773
 30
0.0
 10
5.1406464441
 20
4.0940414646
 30
0.0
 10
5.176057469
 20
4.093625059
 30
0.0
 10
5.2001079193
 20
4.093625059
 30
0.0
  0
SPLINE
  5
333
100
AcDbEntity
  8
ALL_FEATURES
100
AcDbSpline
 62
7
  6
CONTINUOUS
 70
0
 71
3
 72
24
 73
20
 74
0
 42
0.0000001
 43
0.0000001
 44
0.0000000001
 40
0.0
 40
0.0
 40
0.0
 40
0.0
 40
0.062500659
 40
0.1250040105
 40
0.1875047323
 40
0.249997891
 40
0.3124902741
 40
0.3749911739
 40
0.4374958938
 40
0.499995588
 40
0.5312506503
 40
0.56250557
 40
0.6250047025
 40
0.6875093298
 40
0.7500107812
 40
0.8125036482
 40
0.8749963321
 40
0.9374965946
 40
1.0
 40
1.0
 40
1.0
 40
1.0
 10
5.1955233358
 20
5.0382764421
 30
0.0
 10
5.1888053327
 20
5.0381380181
 30
0.0
 10
5.1753739003
 20
5.0372531357
 30
0.0
 10
5.1554323499
 20
5.0341346367
 30
0.0
 10
5.135846011
 20
5.0292563085
 30
0.0
 10
5.1167738237
 20
5.0226503168
 30
0.0
 10
5.0983779422
 20
5.0143443149
 30
0.0
 10
5.0807996857
 20
5.0044231623
 30
0.0
 10
5.0641726619
 20
4.9929793785
 30
0.0
 10
5.0512182976
 20
4.9822450473
 30
0.0
 10
5.0414687115
 20
4.9729887146
 30
0.0
 10
5.0321491051
 20
4.9632996658
 30
0.0
 10
5.0213317275
 20
4.9504146249
 30
0.0
 10
5.0097817578
 20
4.9338611968
 30
0.0
 10
4.9997481869
 20
4.9163467661
 30
0.0
 10
4.9913225182
 20
4.8980054832
 30
0.0
 10
4.9845930679
 20
4.8789760376
 30
0.0
 10
4.9795896244
 20
4.8594230733
 30
0.0
 10
4.9774251377
 20
4.8461380825
 30
0.0
 10
4.9766414949
 20
4.8394642081
 30
0.0
  0
SPLINE
  5
334
100
AcDbEntity
  8
0
100
AcDbSpline
 62
7
  6
CONTINUOUS
 70
0
 71
3
 72
18
 73
14
 74
0
 42
0.0000001
 43
0.0000001
 44
0.0000000001
 40
0.0
 40
0.0
 40
0.0
 40
0.0
 40
0.156981188
 40
0.3106837041
 40
0.4576029189
 40
0.5947759756
 40
0.7194482847
 40
0.7763843903
 40
0.8294004045
 40
0.8783268009
 40
0.9230690421
 40
0.9635951394
 40
1.0
 40
1.0
 40
1.0
 40
1.0
 10
5.4157142185
 20
4.1628259571
 30
0.0
 10
5.4194180735
 20
4.1628259571
 30
0.0
 10
5.426749669
 20
4.1626514739
 30
0.0
 10
5.4375225817
 20
4.1618728777
 30
0.0
 10
5.4477780437
 20
4.1605952877
 30
0.0
 10
5.4572693715
 20
4.1588517779
 30
0.0
 10
5.4645665772
 20
4.1569951809
 30
0.0
 10
5.469832687
 20
4.155282662
 30
0.0
 10
5.4733382909
 20
4.1539499674
 30
0.0
 10
5.4765002482
 20
4.1525376589
 30
0.0
 10
5.4793011577
 20
4.1510549345
 30
0.0
 10
5.4817245344
 20
4.1495095748
 30
0.0
 10
5.4831540838
 20
4.1483836216
 30
0.0
 10
5.4837927245
 20
4.1478092299
 30
0.0
  0
SPLINE
  5
335
100
AcDbEntity
  8
ALL_FEATURES
100
AcDbSpline
 62
7
  6
CONTINUOUS
 70
0
 71
3
 72
23
 73
19
 74
0
 42
0.0000001
 43
0.0000001
 44
0.0000000001
 40
0.0
 40
0.0
 40
0.0
 40
0.0
 40
0.0652144285
 40
0.1299892086
 40
0.1943877308
 40
0.2583847771
 40
0.3219351866
 40
0.3849806176
 40
0.4474918119
 40
0.5094767324
 40
0.5709848858
 40
0.6320954196
 40
0.6929199366
 40
0.7536116979
 40
0.8143840027
 40
0.8755097397
 40
0.9372801976
 40
1.0
 40
1.0
 40
1.0
 40
1.0
 10
4.9779023893
 20
4.8386185565
 30
0.0
 10
4.9793307442
 20
4.8452681005
 30
0.0
 10
4.9829151013
 20
4.8583708228
 30
0.0
 10
4.9900195009
 20
4.8773810519
 30
0.0
 10
4.9985766235
 20
4.8956424391
 30
0.0
 10
5.0084517944
 20
4.9130774186
 30
0.0
 10
5.019539949
 20
4.9295968532
 30
0.0
 10
5.0317378252
 20
4.945118019
 30
0.0
 10
5.0449794748
 20
4.9595396275
 30
0.0
 10
5.0592090957
 20
4.9727545835
 30
0.0
 10
5.0743550853
 20
4.9846748832
 30
0.0
 10
5.0903419044
 20
4.9952248368
 30
0.0
 10
5.1071006051
 20
5.0043255388
 30
0.0
 10
5.124567875
 20
5.0118941682
 30
0.0
 10
5.1426795993
 20
5.0178588205
 30
0.0
 10
5.1613697995
 20
5.0221735996
 30
0.0
 10
5.180575725
 20
5.0247916954
 30
0.0
 10
5.1935668614
 20
5.0253702764
 30
0.0
 10
5.2001079193
 20
5.0253702764
 30
0.0
  0
SPLINE
  5
336
100
AcDbEntity
  8
ALL_FEATURES
100
AcDbSpline
 62
7
  6
CONTINUOUS
 70
0
 71
3
 72
34
 73
30
 74
0
 42
0.0000001
 43
0.0000001
 44
0.0000000001
 40
0.0
 40
0.0
 40
0.0
 40
0.0
 40
0.0084364225
 40
0.0170880308
 40
0.0260721243
 40
0.0354020994
 40
0.0450942978
 40
0.0551550233
 40
0.0655748326
 40
0.0763358228
 40
0.0988272973
 40
0.110528666
 40
0.122507734
 40
0.1347526494
 40
0.147252949
 40
0.1729724631
 40
0.1995942859
 40
0.2270704363
 40
0.2553493412
 40
0.284375313
 40
0.3445172601
 40
0.4073128632
 40
0.4726224012
 40
0.5403818646
 40
0.6105509914
 40
0.6831307836
 40
0.7581706413
 40
0.8358544235
 40
1.0
 40
1.0
 40
1.0
 40
1.0
 10
4.8397124176
 20
4.3601283077
 30
0.0
 10
4.839988012
 20
4.3611592751
 30
0.0
 10
4.8407692392
 20
4.3631917573
 30
0.0
 10
4.8424614928
 20
4.3660346689
 30
0.0
 10
4.8445548997
 20
4.3687351895
 30
0.0
 10
4.8469564109
 20
4.3713441522
 30
0.0
 10
4.8496409341
 20
4.3738636996
 30
0.0
 10
4.8525794255
 20
4.3763023907
 30
0.0
 10
4.85574613
 20
4.3786690038
 30
0.0
 10
4.8603080839
 20
4.3817868436
 30
0.0
 10
4.8651790472
 20
4.3847303678
 30
0.0
 10
4.8702983181
 20
4.3875424489
 30
0.0
 10
4.8743339984
 20
4.3896327013
 30
0.0
 10
4.8785055694
 20
4.391677513
 30
0.0
 10
4.8842935265
 20
4.3943708105
 30
0.0
 10
4.8918243228
 20
4.3976251883
 30
0.0
 10
4.9012139611
 20
4.4013403418
 30
0.0
 10
4.9110074694
 20
4.4049033154
 30
0.0
 10
4.9211742024
 20
4.4083196535
 30
0.0
 10
4.9353586435
 20
4.4127405914
 30
0.0
 10
4.9538812619
 20
4.4179001771
 30
0.0
 10
4.9770385386
 20
4.4234658408
 30
0.0
 10
5.0013072886
 20
4.4284735623
 30
0.0
 10
5.0266353077
 20
4.4329026005
 30
0.0
 10
5.0529895781
 20
4.4367374004
 30
0.0
 10
5.0803538693
 20
4.4399525748
 30
0.0
 10
5.1087409765
 20
4.4425244273
 30
0.0
 10
5.1487450384
 20
4.445083494
 30
0.0
 10
5.1793442851
 20
4.4458182092
 30
0.0
 10
5.2001079193
 20
4.4458182092
 30
0.0
  0
SPLINE
  5
337
100
AcDbEntity
  8
ALL_FEATURES
100
AcDbSpline
 62
7
  6
CONTINUOUS
 70
0
 71
3
 72
23
 73
19
 74
0
 42
0.0000001
 43
0.0000001
 44
0.0000000001
 40
0.0
 40
0.0
 40
0.0
 40
0.0
 40
0.0647580179
 40
0.1293078197
 40
0.1936712117
 40
0.2577978287
 40
0.3216188339
 40
0.3850530633
 40
0.4480347627
 40
0.5105301396
 40
0.5725424721
 40
0.6341014923
 40
0.6952620318
 40
0.7561166901
 40
0.8168083786
 40
0.8775356992
 40
0.9385194298
 40
1.0
 40
1.0
 40
1.0
 40
1.0
 10
4.9774701024
 20
4.8386064715
 30
0.0
 10
4.9786208661
 20
4.8454055852
 30
0.0
 10
4.9816129772
 20
4.8588713246
 30
0.0
 10
4.9878410265
 20
4.8785546422
 30
0.0
 10
4.9956100562
 20
4.897609722
 30
0.0
 10
5.0048166012
 20
4.9159250777
 30
0.0
 10
5.0153632224
 20
4.9333869183
 30
0.0
 10
5.0271511073
 20
4.9498863737
 30
0.0
 10
5.0401040592
 20
4.9653054235
 30
0.0
 10
5.0541586009
 20
4.9795171282
 30
0.0
 10
5.0692320194
 20
4.9924124589
 30
0.0
 10
5.0852282046
 20
5.0039030073
 30
0.0
 10
5.1020578638
 20
5.0138972223
 30
0.0
 10
5.1196352295
 20
5.0223007971
 30
0.0
 10
5.1378732866
 20
5.0290237435
 30
0.0
 10
5.1566746196
 20
5.0340141476
 30
0.0
 10
5.1759450091
 20
5.0372198892
 30
0.0
 10
5.1889775011
 20
5.0381282257
 30
0.0
 10
5.1955227087
 20
5.0382730135
 30
0.0
  0
SPLINE
  5
338
100
AcDbEntity
  8
ALL_FEATURES
100
AcDbSpline
 62
7
  6
CONTINUOUS
 70
0
 71
3
 72
23
 73
19
 74
0
 42
0.0000001
 43
0.0000001
 44
0.0000000001
 40
0.0
 40
0.0
 40
0.0
 40
0.0
 40
0.0652648849
 40
0.130178337
 40
0.1947862452
 40
0.2590441948
 40
0.3228868452
 40
0.3862363747
 40
0.4490388638
 40
0.5112778468
 40
0.5729793447
 40
0.6342005379
 40
0.6950316812
 40
0.7556072133
 40
0.8161234238
 40
0.8768375865
 40
0.9380299405
 40
1.0
 40
1.0
 40
1.0
 40
1.0
 10
4.9777848398
 20
4.838546121
 30
0.0
 10
4.9790763312
 20
4.8453758956
 30
0.0
 10
4.9823945805
 20
4.8588653244
 30
0.0
 10
4.9891491009
 20
4.8785034279
 30
0.0
 10
4.9974220085
 20
4.8974343109
 30
0.0
 10
5.0070851869
 20
4.9155637237
 30
0.0
 10
5.0180336445
 20
4.9327879582
 30
0.0
 10
5.0301629981
 20
4.9490088699
 30
0.0
 10
5.0434010853
 20
4.9641136657
 30
0.0
 10
5.0576880077
 20
4.9779815796
 30
0.0
 10
5.0729451979
 20
4.9905119098
 30
0.0
 10
5.0890871916
 20
5.0016191194
 30
0.0
 10
5.106035298
 20
5.0112144859
 30
0.0
 10
5.1237160796
 20
5.019205112
 30
0.0
 10
5.142053774
 20
5.0255090866
 30
0.0
 10
5.1609681838
 20
5.0300747248
 30
0.0
 10
5.1803822252
 20
5.0328488808
 30
0.0
 10
5.1935080124
 20
5.0334645362
 30
0.0
 10
5.2001079193
 20
5.0334645362
 30
0.0
  0
SPLINE
  5
339
100
AcDbEntity
  8
ALL_FEATURES
100
AcDbSpline
 62
7
  6
CONTINUOUS
 70
0
 71
3
 72
23
 73
19
 74
0
 42
0.0000001
 43
0.0000001
 44
0.0000000001
 40
0.0
 40
0.0
 40
0.0
 40
0.0
 40
0.0619709541
 40
0.123164316
 40
0.1838794547
 40
0.2443964797
 40
0.3049725684
 40
0.3658040003
 40
0.4270252109
 40
0.48872648
 40
0.5509650075
 40
0.6137668957
 40
0.6771157756
 40
0.7409578687
 40
0.8052153848
 40
0.8698229706
 40
0.9347360968
 40
1.0
 40
1.0
 40
1.0
 40
1.0
 10
5.2001079193
 20
5.0334645362
 30
0.0
 10
5.2067061206
 20
5.0334645362
 30
0.0
 10
5.2198285244
 20
5.0328491991
 30
0.0
 10
5.2392376607
 20
5.0300764775
 30
0.0
 10
5.2581474663
 20
5.0255131839
 30
0.0
 10
5.2764809198
 20
5.0192124221
 30
0.0
 10
5.2941578938
 20
5.0112258269
 30
0.0
 10
5.3111026723
 20
5.0016352035
 30
0.0
 10
5.3272418819
 20
4.990533383
 30
0.0
 10
5.3424968986
 20
4.9780090225
 30
0.0
 10
5.356782341
 20
4.9641475938
 30
0.0
 10
5.3700196503
 20
4.949049654
 30
0.0
 10
5.3821489571
 20
4.9328358591
 30
0.0
 10
5.3930982499
 20
4.9156189752
 30
0.0
 10
5.4027632623
 20
4.8974970648
 30
0.0
 10
5.4110390847
 20
4.8785737528
 30
0.0
 10
5.4177979139
 20
4.8589433381
 30
0.0
 10
5.4211205406
 20
4.8454590917
 30
0.0
 10
5.4224147635
 20
4.8386318708
 30
0.0
  0
SPLINE
  5
33A
100
AcDbEntity
  8
ALL_FEATURES
100
AcDbSpline
 62
7
  6
CONTINUOUS
 70
0
 71
3
 72
23
 73
19
 74
0
 42
0.0000001
 43
0.0000001
 44
0.0000000001
 40
0.0
 40
0.0
 40
0.0
 40
0.0
 40
0.0230497517
 40
0.0463789675
 40
0.0702111339
 40
0.0946376286
 40
0.1452968765
 40
0.1985351309
 40
0.2543516558
 40
0.3125988812
 40
0.3731505038
 40
0.4358422182
 40
0.5005014309
 40
0.5670181937
 40
0.6352786541
 40
0.7051827033
 40
0.849675385
 40
1.0
 40
1.0
 40
1.0
 40
1.0
 10
4.8463696204
 20
4.3848749445
 30
0.0
 10
4.846569297
 20
4.3856125665
 30
0.0
 10
4.8470756347
 20
4.3870700065
 30
0.0
 10
4.8481019316
 20
4.3891641059
 30
0.0
 10
4.8493552931
 20
4.3911833778
 30
0.0
 10
4.8513011857
 20
4.393825968
 30
0.0
 10
4.854130582
 20
4.3970153195
 30
0.0
 10
4.858009772
 20
4.4006279265
 30
0.0
 10
4.8623420982
 20
4.4040977851
 30
0.0
 10
4.8670644675
 20
4.4074507394
 30
0.0
 10
4.8721350089
 20
4.4106937523
 30
0.0
 10
4.8775138082
 20
4.4138389865
 30
0.0
 10
4.8831677234
 20
4.4168978921
 30
0.0
 10
4.8890739617
 20
4.4198719651
 30
0.0
 10
4.8952120843
 20
4.4227667743
 30
0.0
 10
4.9037781397
 20
4.4265681782
 30
0.0
 10
4.9149857795
 20
4.4311156072
 30
0.0
 10
4.9241717258
 20
4.4344608777
 30
0.0
 10
4.9288801712
 20
4.4360943031
 30
0.0
  0
SPLINE
  5
33B
100
AcDbEntity
  8
ALL_FEATURES
100
AcDbSpline
 62
7
  6
CONTINUOUS
 70
0
 71
3
 72
17
 73
13
 74
0
 42
0.0000001
 43
0.0000001
 44
0.0000000001
 40
0.0
 40
0.0
 40
0.0
 40
0.0
 40
0.0518066217
 40
0.105147015
 40
0.1599643584
 40
0.216200091
 40
0.3327921666
 40
0.4547788301
 40
0.5821378349
 40
0.7150590409
 40
0.8541254605
 40
1.0
 40
1.0
 40
1.0
 40
1.0
 10
4.9288801712
 20
4.4360943031
 30
0.0
 10
4.933372084
 20
4.4376526105
 30
0.0
 10
4.9425351866
 20
4.4406832464
 30
0.0
 10
4.9565912956
 20
4.4449248628
 30
0.0
 10
4.9711398901
 20
4.4489256336
 30
0.0
 10
4.991408656
 20
4.4539970543
 30
0.0
 10
5.0178706486
 20
4.4596812158
 30
0.0
 10
5.0509765959
 20
4.4653778604
 30
0.0
 10
5.0857666138
 20
4.4699653214
 30
0.0
 10
5.1222671324
 20
4.4733682694
 30
0.0
 10
5.1605671124
 20
4.4754748601
 30
0.0
 10
5.1867203334
 20
4.4759369935
 30
0.0
 10
5.2001079193
 20
4.4759369935
 30
0.0
  0
SPLINE
  5
33C
100
AcDbEntity
  8
ALL_FEATURES
100
AcDbSpline
 62
7
  6
CONTINUOUS
 70
0
 71
3
 72
37
 73
33
 74
0
 42
0.0000001
 43
0.0000001
 44
0.0000000001
 40
0.0
 40
0.0
 40
0.0
 40
0.0
 40
0.0032413735
 40
0.0065166138
 40
0.0098767162
 40
0.0133543884
 40
0.0207127068
 40
0.0245967593
 40
0.0286089431
 40
0.0370205099
 40
0.0459462877
 40
0.0553647356
 40
0.0652420661
 40
0.0755502922
 40
0.086266457
 40
0.097364179
 40
0.1088148832
 40
0.1326950258
 40
0.1577759223
 40
0.1839473373
 40
0.2111399598
 40
0.2392852771
 40
0.2683115842
 40
0.3287956229
 40
0.392324783
 40
0.4586962812
 40
0.527805771
 40
0.5995792229
 40
0.6739876261
 40
0.751052154
 40
0.8309414798
 40
1.0
 40
1.0
 40
1.0
 40
1.0
 10
5.6123744276
 20
4.1535968173
 30
0.0
 10
5.6122706623
 20
4.154040943
 30
0.0
 10
5.6119931542
 20
4.1549190532
 30
0.0
 10
5.6113906217
 20
4.1561755755
 30
0.0
 10
5.6106209571
 20
4.1573761621
 30
0.0
 10
5.6093721986
 20
4.1589388086
 30
0.0
 10
5.607874096
 20
4.160381095
 30
0.0
 10
5.606212866
 20
4.1617404211
 30
0.0
 10
5.6043714503
 20
4.1631110412
 30
0.0
 10
5.6018506142
 20
4.1647505628
 30
0.0
 10
5.5985640185
 20
4.1665909959
 30
0.0
 10
5.5949995686
 20
4.1683447035
 30
0.0
 10
5.5911863009
 20
4.1700236586
 30
0.0
 10
5.5871465548
 20
4.1716340252
 30
0.0
 10
5.5828987438
 20
4.1731800669
 30
0.0
 10
5.5784602754
 20
4.1746673477
 30
0.0
 10
5.5722217888
 20
4.1766076921
 30
0.0
 10
5.5640334975
 20
4.1788969168
 30
0.0
 10
5.5537697231
 20
4.181434867
 30
0.0
 10
5.5429919267
 20
4.1838210231
 30
0.0
 10
5.5317433083
 20
4.1860622895
 30
0.0
 10
5.5200606684
 20
4.1881701422
 30
0.0
 10
5.503724314
 20
4.1908554836
 30
0.0
 10
5.4824059376
 20
4.1939116002
 30
0.0
 10
5.4558081679
 20
4.1971180345
 30
0.0
 10
5.4279477081
 20
4.1999472526
 30
0.0
 10
5.3988882816
 20
4.2024089
 30
0.0
 10
5.3686675389
 20
4.204517121
 30
0.0
 10
5.337303412
 20
4.2062754017
 30
0.0
 10
5.3047786842
 20
4.2076878386
 30
0.0
 10
5.2589270343
 20
4.2090989741
 30
0.0
 10
5.2238957685
 20
4.2095064319
 30
0.0
 10
5.2001079193
 20
4.2095064319
 30
0.0
  0
SPLINE
  5
33D
100
AcDbEntity
  8
ALL_FEATURES
100
AcDbSpline
 62
7
  6
CONTINUOUS
 70
0
 71
3
 72
29
 73
25
 74
0
 42
0.0000001
 43
0.0000001
 44
0.0000000001
 40
0.0
 40
0.0
 40
0.0
 40
0.0
 40
0.0733554873
 40
0.1443787153
 40
0.2133960525
 40
0.2807239636
 40
0.3466521364
 40
0.4113641915
 40
0.5375393998
 40
0.5992034646
 40
0.6599280704
 40
0.6899364845
 40
0.7196985444
 40
0.7783934307
 40
0.8073009368
 40
0.8358935648
 40
0.8641483205
 40
0.8920456283
 40
0.9195592029
 40
0.9466859561
 40
0.9601134834
 40
0.9734612683
 40
0.986748143
 40
1.0
 40
1.0
 40
1.0
 40
1.0
 10
5.2001079193
 20
4.8204621604
 30
0.0
 10
5.2079664656
 20
4.8204621604
 30
0.0
 10
5.2234380968
 20
4.820014658
 30
0.0
 10
5.2462211532
 20
4.8179689816
 30
0.0
 10
5.2681966303
 20
4.8146150362
 30
0.0
 10
5.2893848873
 20
4.8100077124
 30
0.0
 10
5.3097995775
 20
4.804205682
 30
0.0
 10
5.335754253
 20
4.7950400077
 30
0.0
 10
5.3604003062
 20
4.7836756216
 30
0.0
 10
5.3834330002
 20
4.7702865236
 30
0.0
 10
5.3970133677
 20
4.7612017817
 30
0.0
 10
5.4073857405
 20
4.7535143771
 30
0.0
 10
5.4173330375
 20
4.7456303802
 30
0.0
 10
5.4267885669
 20
4.7373237272
 30
0.0
 10
5.4356640608
 20
4.7285922899
 30
0.0
 10
5.4419564746
 20
4.7218949391
 30
0.0
 10
5.4478823147
 20
4.7150130168
 30
0.0
 10
5.4534052771
 20
4.7079486436
 30
0.0
 10
5.4584567142
 20
4.7006853556
 30
0.0
 10
5.4622260665
 20
4.6944346376
 30
0.0
 10
5.4649027907
 20
4.6893161662
 30
0.0
 10
5.4667171269
 20
4.6854247976
 30
0.0
 10
5.4683302714
 20
4.6814661793
 30
0.0
 10
5.4692517991
 20
4.6787738753
 30
0.0
 10
5.4696592849
 20
4.6774139457
 30
0.0
  0
SPLINE
  5
33E
100
AcDbEntity
  8
ALL_FEATURES
100
AcDbSpline
 62
7
  6
CONTINUOUS
 70
0
 71
3
 72
37
 73
33
 74
0
 42
0.0000001
 43
0.0000001
 44
0.0000000001
 40
0.0
 40
0.0
 40
0.0
 40
0.0
 40
0.1690585202
 40
0.248947846
 40
0.3260123739
 40
0.4004207771
 40
0.472194229
 40
0.5413037188
 40
0.6076752171
 40
0.6712043771
 40
0.7316884158
 40
0.7607147229
 40
0.7888600402
 40
0.8160526627
 40
0.8422240778
 40
0.8673049742
 40
0.8911851168
 40
0.902635821
 40
0.913733543
 40
0.9244497078
 40
0.9347579339
 40
0.9446352644
 40
0.9540537123
 40
0.9629794901
 40
0.9713910569
 40
0.9754032407
 40
0.9792872932
 40
0.9866456116
 40
0.9901232838
 40
0.9934833862
 40
0.9967586265
 40
1.0
 40
1.0
 40
1.0
 40
1.0
 10
5.2001079193
 20
4.2095064319
 30
0.0
 10
5.17632007
 20
4.2095064319
 30
0.0
 10
5.1412888042
 20
4.2090989741
 30
0.0
 10
5.0954371543
 20
4.2076878386
 30
0.0
 10
5.0629124266
 20
4.2062754017
 30
0.0
 10
5.0315482996
 20
4.204517121
 30
0.0
 10
5.001327557
 20
4.2024089
 30
0.0
 10
4.9722681304
 20
4.1999472526
 30
0.0
 10
4.9444076706
 20
4.1971180345
 30
0.0
 10
4.9178099009
 20
4.1939116002
 30
0.0
 10
4.8964915245
 20
4.1908554836
 30
0.0
 10
4.8801551701
 20
4.1881701422
 30
0.0
 10
4.8684725302
 20
4.1860622895
 30
0.0
 10
4.8572239118
 20
4.1838210231
 30
0.0
 10
4.8464461154
 20
4.181434867
 30
0.0
 10
4.836182341
 20
4.1788969168
 30
0.0
 10
4.8279940497
 20
4.1766076921
 30
0.0
 10
4.8217555631
 20
4.1746673477
 30
0.0
 10
4.8173170947
 20
4.1731800669
 30
0.0
 10
4.8130692837
 20
4.1716340252
 30
0.0
 10
4.8090295376
 20
4.1700236586
 30
0.0
 10
4.80521627
 20
4.1683447035
 30
0.0
 10
4.80165182
 20
4.1665909959
 30
0.0
 10
4.7983652243
 20
4.1647505628
 30
0.0
 10
4.7958443882
 20
4.1631110412
 30
0.0
 10
4.7940029725
 20
4.1617404211
 30
0.0
 10
4.7923417425
 20
4.160381095
 30
0.0
 10
4.7908436399
 20
4.1589388086
 30
0.0
 10
4.7895948814
 20
4.1573761621
 30
0.0
 10
4.7888252168
 20
4.1561755755
 30
0.0
 10
4.7882226843
 20
4.1549190532
 30
0.0
 10
4.7879451762
 20
4.1540409429
 30
0.0
 10
4.7878414109
 20
4.1535968173
 30
0.0
  0
SPLINE
  5
33F
100
AcDbEntity
  8
0
100
AcDbSpline
 62
7
  6
CONTINUOUS
 70
0
 71
3
 72
23
 73
19
 74
0
 42
0.0000001
 43
0.0000001
 44
0.0000000001
 40
0.0
 40
0.0
 40
0.0
 40
0.0
 40
0.1773061901
 40
0.348508096
 40
0.429946953
 40
0.5077187998
 40
0.5811928804
 40
0.6497929204
 40
0.7130537645
 40
0.7705862687
 40
0.8221575963
 40
0.8676885107
 40
0.90737316
 40
0.9252049289
 40
0.9418306419
 40
0.972073895
 40
0.9861998748
 40
1.0
 40
1.0
 40
1.0
 40
1.0
 10
4.98450162
 20
4.1128284673
 30
0.0
 10
4.9798187491
 20
4.1128284673
 30
0.0
 10
4.9706120075
 20
4.1131042206
 30
0.0
 10
4.9592956226
 20
4.1141444114
 30
0.0
 10
4.9506580838
 20
4.1154000943
 30
0.0
 10
4.9446126971
 20
4.116513776
 30
0.0
 10
4.9389492674
 20
4.1178029035
 30
0.0
 10
4.9337222269
 20
4.1192567091
 30
0.0
 10
4.928980563
 20
4.1208590102
 30
0.0
 10
4.9247687102
 20
4.1225965164
 30
0.0
 10
4.9211238846
 20
4.1244513237
 30
0.0
 10
4.9180786195
 20
4.1264080039
 30
0.0
 10
4.9159904808
 20
4.1281719372
 30
0.0
 10
4.9146766768
 20
4.1296284655
 30
0.0
 10
4.9136660966
 20
4.1310083384
 30
0.0
 10
4.9129391318
 20
4.1324711133
 30
0.0
 10
4.9125771627
 20
4.133969451
 30
0.0
 10
4.912517368
 20
4.1347083465
 30
0.0
 10
4.9125173681
 20
4.1350728245
 30
0.0
  0
SPLINE
  5
340
100
AcDbEntity
  8
0
100
AcDbSpline
 62
7
  6
CONTINUOUS
 70
0
 71
3
 72
23
 73
19
 74
0
 42
0.0000001
 43
0.0000001
 44
0.0000000001
 40
0.0
 40
0.0
 40
0.0
 40
0.0
 40
0.0138001255
 40
0.0279261061
 40
0.0581693611
 40
0.0747950754
 40
0.0926268462
 40
0.1323115001
 40
0.1778424171
 40
0.229413748
 40
0.286946254
 40
0.3502071002
 40
0.4188071419
 40
0.4922812229
 40
0.5700530709
 40
0.6514919265
 40
0.8226938188
 40
1.0
 40
1.0
 40
1.0
 40
1.0
 10
5.4876984704
 20
4.1350728245
 30
0.0
 10
5.4876984704
 20
4.1347083465
 30
0.0
 10
5.4876386756
 20
4.1339694509
 30
0.0
 10
5.4872767064
 20
4.1324711132
 30
0.0
 10
5.4865497417
 20
4.1310083382
 30
0.0
 10
5.4855391615
 20
4.1296284651
 30
0.0
 10
5.4842253573
 20
4.1281719367
 30
0.0
 10
5.4821372183
 20
4.1264080034
 30
0.0
 10
5.4790919529
 20
4.1244513231
 30
0.0
 10
5.475447127
 20
4.1225965159
 30
0.0
 10
5.4712352741
 20
4.1208590097
 30
0.0
 10
5.46649361
 20
4.1192567087
 30
0.0
 10
5.4612665694
 20
4.1178029031
 30
0.0
 10
5.4556031396
 20
4.1165137756
 30
0.0
 10
5.4495577529
 20
4.115400094
 30
0.0
 10
5.4409202145
 20
4.1141444113
 30
0.0
 10
5.4296038301
 20
4.1131042206
 30
0.0
 10
5.4203970891
 20
4.1128284672
 30
0.0
 10
5.4157142185
 20
4.1128284673
 30
0.0
  0
SPLINE
  5
341
100
AcDbEntity
  8
ALL_FEATURES
100
AcDbSpline
 62
7
  6
CONTINUOUS
 70
0
 71
3
 72
23
 73
19
 74
0
 42
0.0000001
 43
0.0000001
 44
0.0000000001
 40
0.0
 40
0.0
 40
0.0
 40
0.0
 40
0.0627198159
 40
0.1244902896
 40
0.1856160425
 40
0.2463883613
 40
0.3070801329
 40
0.3679046566
 40
0.4290151929
 40
0.490523345
 40
0.5525082604
 40
0.6150194467
 40
0.6780648682
 40
0.7416152685
 40
0.8056123065
 40
0.8700108207
 40
0.9347855917
 40
1.0
 40
1.0
 40
1.0
 40
1.0
 10
5.2001079193
 20
5.0253702764
 30
0.0
 10
5.2066489525
 20
5.0253702764
 30
0.0
 10
5.21964004
 20
5.0247916997
 30
0.0
 10
5.2388458947
 20
5.0221736238
 30
0.0
 10
5.2575360285
 20
5.0178588771
 30
0.0
 10
5.2756476916
 20
5.0118942693
 30
0.0
 10
5.2931149064
 20
5.0043256958
 30
0.0
 10
5.3098735584
 20
4.99522506
 30
0.0
 10
5.3258603364
 20
4.9846751816
 30
0.0
 10
5.3410062933
 20
4.9727549655
 30
0.0
 10
5.3552358909
 20
4.9595401006
 30
0.0
 10
5.3684775269
 20
4.945118589
 30
0.0
 10
5.3806753994
 20
4.9295975242
 30
0.0
 10
5.3917635625
 20
4.9130781945
 30
0.0
 10
5.401638756
 20
4.8956433228
 30
0.0
 10
5.4101959166
 20
4.8773820455
 30
0.0
 10
5.4173003746
 20
4.8583719292
 30
0.0
 10
5.4208847927
 20
4.8452692839
 30
0.0
 10
5.4223131867
 20
4.8386197783
 30
0.0
  0
SPLINE
  5
342
100
AcDbEntity
  8
ALL_FEATURES
100
AcDbSpline
 62
7
  6
CONTINUOUS
 70
0
 71
3
 72
23
 73
19
 74
0
 42
0.0000001
 43
0.0000001
 44
0.0000000001
 40
0.0
 40
0.0
 40
0.0
 40
0.0
 40
0.0614787972
 40
0.1224614872
 40
0.1831883646
 40
0.2438800876
 40
0.3047351171
 40
0.3658961867
 40
0.4274557929
 40
0.4894686931
 40
0.5519645811
 40
0.6149466876
 40
0.6783811958
 40
0.7422023448
 40
0.8063290009
 40
0.8706923596
 40
0.9352420847
 40
1.0
 40
1.0
 40
1.0
 40
1.0
 10
5.2047473279
 20
5.0382718074
 30
0.0
 10
5.2112911902
 20
5.0381253351
 30
0.0
 10
5.2243209164
 20
5.0372138687
 30
0.0
 10
5.2435869026
 20
5.034004186
 30
0.0
 10
5.2623837757
 20
5.0290105843
 30
0.0
 10
5.2806173593
 20
5.0222851507
 30
0.0
 10
5.2981902861
 20
5.0138798087
 30
0.0
 10
5.3150156138
 20
5.0038845643
 30
0.0
 10
5.3310076063
 20
4.9923936584
 30
0.0
 10
5.3460770127
 20
4.9794985939
 30
0.0
 10
5.3601277632
 20
4.9652877341
 30
0.0
 10
5.3730772277
 20
4.9498700947
 30
0.0
 10
5.3848619618
 20
4.9333725476
 30
0.0
 10
5.3954057835
 20
4.9159130392
 30
0.0
 10
5.4046099242
 20
4.8976003855
 30
0.0
 10
5.4123769998
 20
4.8785483223
 30
0.0
 10
5.4186035797
 20
4.8588682707
 30
0.0
 10
5.4215950836
 20
4.8454048391
 30
0.0
 10
5.4227456635
 20
4.8386069005
 30
0.0
  0
SPLINE
  5
343
100
AcDbEntity
  8
0
100
AcDbSpline
 62
7
  6
CONTINUOUS
 70
0
 71
3
 72
12
 73
8
 74
0
 42
0.0000001
 43
0.0000001
 44
0.0000000001
 40
0.0
 40
0.0
 40
0.0
 40
0.0
 40
0.1089054412
 40
0.2196713239
 40
0.4526587819
 40
0.7102218437
 40
1.0
 40
1.0
 40
1.0
 40
1.0
 10
4.9125173681
 20
4.1405815999
 30
0.0
 10
4.9125173681
 20
4.14088845
 30
0.0
 10
4.9125594958
 20
4.1415081988
 30
0.0
 10
4.9128137564
 20
4.1427611795
 30
0.0
 10
4.9134692434
 20
4.1443424224
 30
0.0
 10
4.9147305823
 20
4.1461582831
 30
0.0
 10
4.9158160517
 20
4.1472632399
 30
0.0
 10
4.916423114
 20
4.1478092299
 30
0.0
  0
SPLINE
  5
344
100
AcDbEntity
  8
ALL_FEATURES
100
AcDbSpline
 62
7
  6
CONTINUOUS
 70
0
 71
3
 72
29
 73
25
 74
0
 42
0.0000001
 43
0.0000001
 44
0.0000000001
 40
0.0
 40
0.0
 40
0.0
 40
0.0
 40
0.013251857
 40
0.0265387317
 40
0.0398865166
 40
0.0533140439
 40
0.0804407971
 40
0.1079543717
 40
0.1358516795
 40
0.1641064352
 40
0.1926990632
 40
0.2216065693
 40
0.2803014556
 40
0.3100635155
 40
0.3400719296
 40
0.4007965354
 40
0.4624606002
 40
0.5886358085
 40
0.6533478636
 40
0.7192760364
 40
0.7866039475
 40
0.8556212847
 40
0.9266445127
 40
1.0
 40
1.0
 40
1.0
 40
1.0
 10
4.9305565536
 20
4.6774139457
 30
0.0
 10
4.9309640394
 20
4.6787738753
 30
0.0
 10
4.9318855671
 20
4.6814661793
 30
0.0
 10
4.9334987117
 20
4.6854247976
 30
0.0
 10
4.9353130478
 20
4.6893161662
 30
0.0
 10
4.9379897721
 20
4.6944346376
 30
0.0
 10
4.9417591243
 20
4.7006853556
 30
0.0
 10
4.9468105614
 20
4.7079486436
 30
0.0
 10
4.9523335239
 20
4.7150130168
 30
0.0
 10
4.9582593639
 20
4.7218949391
 30
0.0
 10
4.9645517777
 20
4.7285922899
 30
0.0
 10
4.9734272716
 20
4.7373237272
 30
0.0
 10
4.982882801
 20
4.7456303802
 30
0.0
 10
4.992830098
 20
4.7535143771
 30
0.0
 10
5.0032024708
 20
4.7612017817
 30
0.0
 10
5.0167828383
 20
4.7702865236
 30
0.0
 10
5.0398155323
 20
4.7836756216
 30
0.0
 10
5.0644615855
 20
4.7950400077
 30
0.0
 10
5.0904162611
 20
4.804205682
 30
0.0
 10
5.1108309512
 20
4.8100077124
 30
0.0
 10
5.1320192082
 20
4.8146150362
 30
0.0
 10
5.1539946853
 20
4.8179689816
 30
0.0
 10
5.1767777418
 20
4.820014658
 30
0.0
 10
5.1922493729
 20
4.8204621604
 30
0.0
 10
5.2001079193
 20
4.8204621604
 30
0.0
  0
SPLINE
  5
345
100
AcDbEntity
  8
ALL_FEATURES
100
AcDbSpline
 62
7
  6
CONTINUOUS
 70
0
 71
3
 72
17
 73
13
 74
0
 42
0.0000001
 43
0.0000001
 44
0.0000000001
 40
0.0
 40
0.0
 40
0.0
 40
0.0
 40
0.1458752144
 40
0.2849420947
 40
0.4178635883
 40
0.5452227239
 40
0.6672093382
 40
0.7838011647
 40
0.8400366919
 40
0.8948537609
 40
0.9481938055
 40
1.0
 40
1.0
 40
1.0
 40
1.0
 10
5.2001079193
 20
4.4759369935
 30
0.0
 10
5.2134958836
 20
4.4759369935
 30
0.0
 10
5.2396498276
 20
4.4754748342
 30
0.0
 10
5.277950841
 20
4.4733681249
 30
0.0
 10
5.3144522944
 20
4.469964989
 30
0.0
 10
5.3492431514
 20
4.4653772802
 30
0.0
 10
5.3823498377
 20
4.4596803318
 30
0.0
 10
5.4088123733
 20
4.453995867
 30
0.0
 10
5.4290815124
 20
4.4489241773
 30
0.0
 10
5.4436303404
 20
4.4449231963
 30
0.0
 10
5.4576866443
 20
4.4406813567
 30
0.0
 10
5.4668498593
 20
4.43765056
 30
0.0
 10
5.4713418204
 20
4.4360921685
 30
0.0
  0
SPLINE
  5
346
100
AcDbEntity
  8
ALL_FEATURES
100
AcDbSpline
 62
7
  6
CONTINUOUS
 70
0
 71
3
 72
23
 73
19
 74
0
 42
0.0000001
 43
0.0000001
 44
0.0000000001
 40
0.0
 40
0.0
 40
0.0
 40
0.0
 40
0.1503241923
 40
0.2948164915
 40
0.3647203879
 40
0.4329807219
 40
0.4994973671
 40
0.5641564881
 40
0.6268481363
 40
0.6873997109
 40
0.7456469398
 40
0.8014635322
 40
0.8547019372
 40
0.9053614603
 40
0.9297881357
 40
0.9536205123
 40
0.9769499749
 40
1.0
 40
1.0
 40
1.0
 40
1.0
 10
5.4713418204
 20
4.4360921685
 30
0.0
 10
5.4760499224
 20
4.4344587914
 30
0.0
 10
5.4852351969
 20
4.4311136246
 30
0.0
 10
5.4964420111
 20
4.4265663515
 30
0.0
 10
5.5050074337
 20
4.4227650885
 30
0.0
 10
5.5111451032
 20
4.419870391
 30
0.0
 10
5.517050903
 20
4.4168964345
 30
0.0
 10
5.5227043964
 20
4.4138376529
 30
0.0
 10
5.5280827921
 20
4.4106925499
 30
0.0
 10
5.5331529483
 20
4.4074496728
 30
0.0
 10
5.5378749564
 20
4.4040968636
 30
0.0
 10
5.5422069497
 20
4.4006271587
 30
0.0
 10
5.5460858387
 20
4.3970147138
 30
0.0
 10
5.5489150171
 20
4.3938255158
 30
0.0
 10
5.5508607611
 20
4.3911830556
 30
0.0
 10
5.5521140267
 20
4.3891638825
 30
0.0
 10
5.5531402477
 20
4.3870698893
 30
0.0
 10
5.5536465522
 20
4.385612527
 30
0.0
 10
5.5538462181
 20
4.3848749445
 30
0.0
  0
SPLINE
  5
347
100
AcDbEntity
  8
0
100
AcDbSpline
 62
7
  6
CONTINUOUS
 70
0
 71
3
 72
12
 73
8
 74
0
 42
0.0000001
 43
0.0000001
 44
0.0000000001
 40
0.0
 40
0.0
 40
0.0
 40
0.0
 40
0.289778149
 40
0.547341212
 40
0.7803286709
 40
0.8910945549
 40
1.0
 40
1.0
 40
1.0
 40
1.0
 10
5.4837927245
 20
4.1478092299
 30
0.0
 10
5.4843997868
 20
4.1472632399
 30
0.0
 10
5.4854852561
 20
4.1461582831
 30
0.0
 10
5.4867465952
 20
4.1443424225
 30
0.0
 10
5.4874020824
 20
4.1427611796
 30
0.0
 10
5.4876563428
 20
4.1415081988
 30
0.0
 10
5.4876984705
 20
4.14088845
 30
0.0
 10
5.4876984704
 20
4.1405815999
 30
0.0
  0
SPLINE
  5
348
100
AcDbEntity
  8
ALL_FEATURES
100
AcDbSpline
 62
7
  6
CONTINUOUS
 70
0
 71
3
 72
31
 73
27
 74
0
 42
0.0000001
 43
0.0000001
 44
0.0000000001
 40
0.0
 40
0.0
 40
0.0
 40
0.0
 40
0.0139666855
 40
0.0279359476
 40
0.0419306156
 40
0.0559667595
 40
0.0700538854
 40
0.084196331
 40
0.1126567451
 40
0.1413570161
 40
0.1702849615
 40
0.1994315624
 40
0.2287848185
 40
0.288077377
 40
0.3180057555
 40
0.3481022617
 40
0.4087930936
 40
0.4701778747
 40
0.5323065367
 40
0.5952656644
 40
0.6591655918
 40
0.7241531465
 40
0.7904286055
 40
0.8582858556
 40
0.9280374711
 40
1.0
 40
1.0
 40
1.0
 40
1.0
 10
4.9411239549
 20
4.7126217535
 30
0.0
 10
4.941545185
 20
4.7140233429
 30
0.0
 10
4.942475697
 20
4.7168006875
 30
0.0
 10
4.944071134
 20
4.7208960212
 30
0.0
 10
4.9458524695
 20
4.7249219981
 30
0.0
 10
4.9478024272
 20
4.7288824679
 30
0.0
 10
4.9499051332
 20
4.7327814094
 30
0.0
 10
4.9528967461
 20
4.7379144821
 30
0.0
 10
4.9569573716
 20
4.7441918196
 30
0.0
 10
4.9622549731
 20
4.7514976742
 30
0.0
 10
4.9679321989
 20
4.7586042784
 30
0.0
 10
4.9739562138
 20
4.7655100602
 30
0.0
 10
4.9824372471
 20
4.7744814346
 30
0.0
 10
4.991490414
 20
4.7830111338
 30
0.0
 10
5.0010315295
 20
4.791093974
 30
0.0
 10
5.0109573544
 20
4.7989387314
 30
0.0
 10
5.0239646918
 20
4.8081846446
 30
0.0
 10
5.0404214255
 20
4.8182982987
 30
0.0
 10
5.0577240734
 20
4.8274078504
 30
0.0
 10
5.0758307971
 20
4.8354629945
 30
0.0
 10
5.0947094935
 20
4.8424133122
 30
0.0
 10
5.1143387522
 20
4.8482028656
 30
0.0
 10
5.1347109817
 20
4.8527796829
 30
0.0
 10
5.1558314224
 20
4.8560968902
 30
0.0
 10
5.1777130704
 20
4.8581116048
 30
0.0
 10
5.1925672238
 20
4.8585506057
 30
0.0
 10
5.2001079193
 20
4.8585506057
 30
0.0
  0
SPLINE
  5
349
100
AcDbEntity
  8
ALL_FEATURES
100
AcDbSpline
 62
7
  6
CONTINUOUS
 70
0
 71
3
 72
34
 73
30
 74
0
 42
0.0000001
 43
0.0000001
 44
0.0000000001
 40
0.0
 40
0.0
 40
0.0
 40
0.0
 40
0.1641455765
 40
0.2418293587
 40
0.3168692164
 40
0.3894490086
 40
0.4596181354
 40
0.5273775988
 40
0.5926871368
 40
0.6554827399
 40
0.715624687
 40
0.7446506588
 40
0.7729295637
 40
0.8004057141
 40
0.8270275369
 40
0.852747051
 40
0.8652473506
 40
0.877492266
 40
0.889471334
 40
0.9011727027
 40
0.9236641772
 40
0.9344251674
 40
0.9448449767
 40
0.9549057022
 40
0.9645979006
 40
0.9739278757
 40
0.9829119692
 40
0.9915635775
 40
1.0
 40
1.0
 40
1.0
 40
1.0
 10
5.2001079193
 20
4.4458182092
 30
0.0
 10
5.2208715534
 20
4.4458182092
 30
0.0
 10
5.2514708002
 20
4.445083494
 30
0.0
 10
5.291474862
 20
4.4425244273
 30
0.0
 10
5.3198619692
 20
4.4399525748
 30
0.0
 10
5.3472262604
 20
4.4367374004
 30
0.0
 10
5.3735805308
 20
4.4329026005
 30
0.0
 10
5.3989085499
 20
4.4284735623
 30
0.0
 10
5.4231772999
 20
4.4234658408
 30
0.0
 10
5.4463345766
 20
4.4179001771
 30
0.0
 10
5.464857195
 20
4.4127405914
 30
0.0
 10
5.4790416361
 20
4.4083196535
 30
0.0
 10
5.4892083691
 20
4.4049033154
 30
0.0
 10
5.4990018774
 20
4.4013403418
 30
0.0
 10
5.5083915157
 20
4.3976251883
 30
0.0
 10
5.515922312
 20
4.3943708105
 30
0.0
 10
5.5217102691
 20
4.391677513
 30
0.0
 10
5.5258818401
 20
4.3896327013
 30
0.0
 10
5.5299175204
 20
4.3875424489
 30
0.0
 10
5.5350367914
 20
4.3847303678
 30
0.0
 10
5.5399077546
 20
4.3817868436
 30
0.0
 10
5.5444697085
 20
4.3786690038
 30
0.0
 10
5.547636413
 20
4.3763023907
 30
0.0
 10
5.5505749045
 20
4.3738636996
 30
0.0
 10
5.5532594276
 20
4.3713441522
 30
0.0
 10
5.5556609388
 20
4.3687351895
 30
0.0
 10
5.5577543457
 20
4.3660346689
 30
0.0
 10
5.5594465994
 20
4.3631917573
 30
0.0
 10
5.5602278265
 20
4.3611592751
 30
0.0
 10
5.5605034209
 20
4.3601283077
 30
0.0
  0
SPLINE
  5
34A
100
AcDbEntity
  8
ALL_FEATURES
100
AcDbSpline
 62
7
  6
CONTINUOUS
 70
0
 71
3
 72
31
 73
27
 74
0
 42
0.0000001
 43
0.0000001
 44
0.0000000001
 40
0.0
 40
0.0
 40
0.0
 40
0.0
 40
0.0719625289
 40
0.1417141444
 40
0.2095713945
 40
0.2758468535
 40
0.3408344082
 40
0.4047343356
 40
0.4676934633
 40
0.5298221253
 40
0.5912069064
 40
0.6518977383
 40
0.6819942445
 40
0.711922623
 40
0.7712151815
 40
0.8005684376
 40
0.8297150385
 40
0.8586429839
 40
0.8873432549
 40
0.915803669
 40
0.9299461146
 40
0.9440332405
 40
0.9580693844
 40
0.9720640524
 40
0.9860333145
 40
1.0
 40
1.0
 40
1.0
 40
1.0
 10
5.2001079193
 20
4.8585506057
 30
0.0
 10
5.2076486147
 20
4.8585506057
 30
0.0
 10
5.2225027681
 20
4.8581116048
 30
0.0
 10
5.2443844161
 20
4.8560968902
 30
0.0
 10
5.2655048568
 20
4.8527796829
 30
0.0
 10
5.2858770863
 20
4.8482028656
 30
0.0
 10
5.305506345
 20
4.8424133122
 30
0.0
 10
5.3243850414
 20
4.8354629945
 30
0.0
 10
5.3424917651
 20
4.8274078504
 30
0.0
 10
5.359794413
 20
4.8182982987
 30
0.0
 10
5.3762511467
 20
4.8081846446
 30
0.0
 10
5.3892584841
 20
4.7989387314
 30
0.0
 10
5.3991843091
 20
4.791093974
 30
0.0
 10
5.4087254245
 20
4.7830111338
 30
0.0
 10
5.4177785915
 20
4.7744814346
 30
0.0
 10
5.4262596247
 20
4.7655100602
 30
0.0
 10
5.4322836397
 20
4.7586042784
 30
0.0
 10
5.4379608655
 20
4.7514976742
 30
0.0
 10
5.4432584669
 20
4.7441918196
 30
0.0
 10
5.4473190924
 20
4.7379144821
 30
0.0
 10
5.4503107053
 20
4.7327814094
 30
0.0
 10
5.4524134113
 20
4.7288824679
 30
0.0
 10
5.454363369
 20
4.7249219981
 30
0.0
 10
5.4561447045
 20
4.7208960212
 30
0.0
 10
5.4577401415
 20
4.7168006875
 30
0.0
 10
5.4586706535
 20
4.7140233429
 30
0.0
 10
5.4590918836
 20
4.7126217535
 30
0.0
  0
ENDSEC
  0
SECTION
  2
OBJECTS
  0
DICTIONARY
  5
C
100
AcDbDictionary
280
0
281
1
  3
ACAD_GROUP
350
D
  3
ACAD_MLINESTYLE
350
17
  3
ACAD_LAYOUT
350
1A
  3
ACAD_PLOTSETTINGS
350
19
  3
ACAD_PLOTSTYLENAME
350
E
  0
DICTIONARY
  5
D
102
{ACAD_REACTORS
330
C
102
}
100
AcDbDictionary
280
0
281
1
  0
ACDBDICTIONARYWDFLT
  5
E
102
{ACAD_REACTORS
330
C
102
}
100
AcDbDictionary
281
1
  3
Normal
350
F
100
AcDbDictionaryWithDefault
340
F
  0
DICTIONARY
  5
17
102
{ACAD_REACTORS
330
C
102
}
100
AcDbDictionary
280
0
281
1
  3
Standard
350
18
  0
DICTIONARY
  5
19
102
{ACAD_REACTORS
330
C
102
}
100
AcDbDictionary
281
1
  0
DICTIONARY
  5
1A
102
{ACAD_REACTORS
330
C
102
}
100
AcDbDictionary
281
1
  3
Model
350
34B
  3
Layout1
350
34C
  0
ACDBPLACEHOLDER
  5
F
102
{ACAD_REACTORS
330
E
102
}
  0
MLINESTYLE
  5
18
102
{ACAD_REACTORS
330
17
102
}
100
AcDbMlineStyle
  2
STANDARD
 70
0
  3

 62
256
 51
90.0
 52
90.0
 71
2
 49
0.5
 62
256
  6
BYLAYER
 49
-0.5
 62
256
  6
BYLAYER
  0
LAYOUT
  5
34B
102
{ACAD_REACTORS
330
1A
102
}
100
AcDbPlotSettings
  1

  2
none_device
  4
ANSI_A_(11.00_x_8.50_Inches)
  6

 40
0.0
 41
0.0
 42
0.0
 43
0.0
 44
279.4
 45
215.9
 46
0.0
 47
0.0
 48
0.0
 49
0.0
140
0.0
141
0.0
142
1.0
143
1.0
 70
1024
 72
0
 73
0
 74
0
  7

 75
0
147
1.0
148
0.0
149
0.0
100
AcDbLayout
  1
Model
 70
0
 71
0
 10
0.0
 20
0.0
 11
11.0
 21
8.5
 12
0.0
 22
0.0
 32
0.0
 14
0.0
 24
0.0
 34
0.0
 15
0.0
 25
0.0
 35
0.0
146
0.0
 13
0.0
 23
0.0
 33
0.0
 16
1.0
 26
0.0
 36
0.0
 17
0.0
 27
1.0
 37
0.0
 76
0
330
21A
345
0
346
0
  0
LAYOUT
  5
34C
102
{ACAD_REACTORS
330
1A
102
}
100
AcDbPlotSettings
  1

  2
none_device
  4
ANSI_A_(11.00_x_8.50_Inches)
  6

 40
0.0
 41
0.0
 42
0.0
 43
0.0
 44
279.4
 45
215.9
 46
0.0
 47
0.0
 48
0.0
 49
0.0
140
0.0
141
0.0
142
1.0
143
1.0
 70
0
 72
0
 73
0
 74
0
  7

 75
0
147
1.0
148
0.0
149
0.0
100
AcDbLayout
  1
Layout1
 70
0
 71
1
 10
0.0
 20
0.0
 11
11.0
 21
8.5
 12
0.0
 22
0.0
 32
0.0
 14
0.0
 24
0.0
 34
0.0
 15
0.0
 25
0.0
 35
0.0
146
0.0
 13
0.0
 23
0.0
 33
0.0
 16
1.0
 26
0.0
 36
0.0
 17
0.0
 27
1.0
 37
0.0
 76
0
330
21B
345
0
346
0
  0
ENDSEC
  0
EOF
