999
DXF file: 3-2451_RIGHT.dxf
999
Pro/ENGINEER 2018400 by Parametric Technology Corporation
  0
SECTION
  2
HEADER
  9
$ACADVER
  1
AC1027
  9
$DWGCODEPAGE
  3
ANSI_1252
  9
$EXTMAX
 10
11.0
 20
8.5
 30
0.0
  9
$EXTMIN
 10
0.0
 20
0.0
 30
0.0
  9
$LIMMIN
 10
0.0
 20
0.0
  9
$LIMMAX
 10
11.0
 20
8.5
  9
$VIEWCTR
 10
5.5
 20
4.25
  9
$VIEWSIZE
 40
8.5
  9
$CLAYER
  8
0
  9
$LTSCALE
 40
0.605
  9
$CELTYPE
  6
BYLAYER
  9
$DIMSCALE
 40
1.0
  9
$DIMASZ
 40
0.1
  9
$DIMEXO
 40
0.0625
  9
$DIMDLI
 40
0.418
  9
$DIMEXE
 40
0.125
  9
$DIMCEN
 40
0.099
  9
$DIMLFAC
 40
1.0
  9
$DIMBLK
  1
_FILLED
  9
$DIMALT
 70
1
  9
$DIMALTD
 70
2
  9
$DIMALTTD
 70
2
  9
$DIMALTF
 40
25.4
  9
$DIMTXT
 40
0.08
  9
$DIMTOL
 70
1
  9
$DIMLIM
 70
0
  9
$DIMTFAC
 40
1.0
  9
$DIMTP
 40
0.001
  9
$DIMTM
 40
0.001
  9
$DIMGAP
 40
0.09
  9
$DIMDSEP
 70
46
  9
$AUNITS
 70
0
  9
$PDMODE
 70
3
  9
$PDSIZE
 40
0.3125
  9
$HANDSEED
  5
2C6
  9
$TILEMODE
 70
1
  9
$MEASUREMENT
 70
0
  9
$INSUNITS
 70
1
  0
ENDSEC
  0
SECTION
  2
CLASSES
  0
CLASS
  1
ACDBDICTIONARYWDFLT
  2
AcDbDictionaryWithDefault
  3
AutoCAD 2000
 90
0
 91
1
280
0
281
0
  0
CLASS
  1
ACDBPLACEHOLDER
  2
AcDbPlaceHolder
  3
AutoCAD 2000
 90
0
 91
1
280
0
281
0
  0
CLASS
  1
LAYOUT
  2
AcDbLayout
  3
AutoCAD 2000
 90
0
 91
0
280
0
281
0
  0
ENDSEC
  0
SECTION
  2
TABLES
  0
TABLE
  2
VPORT
  5
8
100
AcDbSymbolTable
 70
2
  0
VPORT
  5
1F4
100
AcDbSymbolTableRecord
100
AcDbViewportTableRecord
  2
*ACTIVE
 70
0
 10
0.0
 20
0.0
 11
1.0
 21
1.0
 12
5.5
 22
4.25
 13
0.0
 23
0.0
 14
1.0
 24
1.0
 15
0.0
 25
0.0
 16
0.0
 26
0.0
 36
1.0
 17
0.0
 27
0.0
 37
0.0
 40
8.5
 41
1.2941176471
 42
50.0
 43
0.0
 44
0.0
 50
0.0
 51
0.0
 71
0
 72
100
 73
1
 74
1
 75
0
 76
0
 77
0
 78
0
  0
ENDTAB
  0
TABLE
  2
LTYPE
  5
5
100
AcDbSymbolTable
 70
6
  0
LTYPE
  5
14
100
AcDbSymbolTableRecord
100
AcDbLinetypeTableRecord
  2
BYBLOCK
 70
0
  3

 72
65
 73
0
 40
0.0
  0
LTYPE
  5
15
100
AcDbSymbolTableRecord
100
AcDbLinetypeTableRecord
  2
BYLAYER
 70
0
  3

 72
65
 73
0
 40
0.0
  0
LTYPE
  5
16
100
AcDbSymbolTableRecord
100
AcDbLinetypeTableRecord
  2
CONTINUOUS
 70
64
  3
Solid line
 72
65
 73
0
 40
0.0
  0
LTYPE
  5
1F5
100
AcDbSymbolTableRecord
100
AcDbLinetypeTableRecord
  2
CENTER
 70
64
  3
____ _ ____ _ ____ _ ____ _ ____ _ ____ _ ____
 72
65
 73
4
 40
0.6
 49
0.375
 74
0
 49
-0.075
 74
0
 49
0.075
 74
0
 49
-0.075
 74
0
  0
LTYPE
  5
1F6
100
AcDbSymbolTableRecord
100
AcDbLinetypeTableRecord
  2
HIDDEN
 70
64
  3
- - - - - - - - - - - - - - - - - - - -
 72
65
 73
2
 40
0.2
 49
0.1
 74
0
 49
-0.1
 74
0
  0
LTYPE
  5
1F7
100
AcDbSymbolTableRecord
100
AcDbLinetypeTableRecord
  2
PHANTOM
 70
64
  3
_____ _ _ _____ _ _ _____ _ _ _____
 72
65
 73
6
 40
0.8
 49
0.45
 74
0
 49
-0.05
 74
0
 49
0.1
 74
0
 49
-0.05
 74
0
 49
0.1
 74
0
 49
-0.05
 74
0
  0
LTYPE
  5
1F8
100
AcDbSymbolTableRecord
100
AcDbLinetypeTableRecord
  2
DOT
 70
64
  3
. . . . . . . . . . . . . . . . . . . .
 72
65
 73
2
 40
0.2
 49
0.1
 74
0
 49
-0.1
 74
0
  0
LTYPE
  5
1F9
100
AcDbSymbolTableRecord
100
AcDbLinetypeTableRecord
  2
DASHED
 70
64
  3
- - - - - - - - - - - - - - - - - - - -
 72
65
 73
2
 40
0.2
 49
0.1
 74
0
 49
-0.1
 74
0
  0
ENDTAB
  0
TABLE
  2
LAYER
  5
2
100
AcDbSymbolTable
 70
36
  0
LAYER
  5
10
100
AcDbSymbolTableRecord
100
AcDbLayerTableRecord
  2
0
 70
0
 62
7
  6
CONTINUOUS
370
-3
390
F
  0
LAYER
  5
1FA
100
AcDbSymbolTableRecord
100
AcDbLayerTableRecord
  2
DEFAULT_1
 70
0
 62
7
  6
CENTER
370
-3
390
F
  0
LAYER
  5
1FB
100
AcDbSymbolTableRecord
100
AcDbLayerTableRecord
  2
DEFAULT_2
 70
0
 62
8
  6
HIDDEN
370
-3
390
F
  0
LAYER
  5
1FC
100
AcDbSymbolTableRecord
100
AcDbLayerTableRecord
  2
DEFAULT_3
 70
0
 62
7
  6
PHANTOM
370
-3
390
F
  0
LAYER
  5
1FD
100
AcDbSymbolTableRecord
100
AcDbLayerTableRecord
  2
ALL_FEATURES
 70
0
 62
7
  6
CONTINUOUS
370
-3
390
F
  0
LAYER
  5
1FE
100
AcDbSymbolTableRecord
100
AcDbLayerTableRecord
  2
AXES_FEATURES
 70
0
 62
7
  6
CONTINUOUS
370
-3
390
F
  0
LAYER
  5
1FF
100
AcDbSymbolTableRecord
100
AcDbLayerTableRecord
  2
CHAMFER_FEATURES
 70
0
 62
7
  6
CONTINUOUS
370
-3
390
F
  0
LAYER
  5
200
100
AcDbSymbolTableRecord
100
AcDbLayerTableRecord
  2
COORDINATE_SYSTEMS
 70
0
 62
7
  6
CONTINUOUS
370
-3
390
F
  0
LAYER
  5
201
100
AcDbSymbolTableRecord
100
AcDbLayerTableRecord
  2
CUT_FEATURES
 70
0
 62
7
  6
CONTINUOUS
370
-3
390
F
  0
LAYER
  5
202
100
AcDbSymbolTableRecord
100
AcDbLayerTableRecord
  2
CYAN
 70
0
 62
7
  6
CONTINUOUS
370
-3
390
F
  0
LAYER
  5
203
100
AcDbSymbolTableRecord
100
AcDbLayerTableRecord
  2
DATUM_CURVES
 70
0
 62
7
  6
CONTINUOUS
370
-3
390
F
  0
LAYER
  5
204
100
AcDbSymbolTableRecord
100
AcDbLayerTableRecord
  2
DATUM_PLANES
 70
0
 62
7
  6
CONTINUOUS
370
-3
390
F
  0
LAYER
  5
205
100
AcDbSymbolTableRecord
100
AcDbLayerTableRecord
  2
DATUM_POINTS
 70
0
 62
7
  6
CONTINUOUS
370
-3
390
F
  0
LAYER
  5
206
100
AcDbSymbolTableRecord
100
AcDbLayerTableRecord
  2
DEFAULT_COORDINATE_SYSTEM
 70
0
 62
7
  6
CONTINUOUS
370
-3
390
F
  0
LAYER
  5
207
100
AcDbSymbolTableRecord
100
AcDbLayerTableRecord
  2
DEFAULT_DATUM_AXES
 70
0
 62
7
  6
CONTINUOUS
370
-3
390
F
  0
LAYER
  5
208
100
AcDbSymbolTableRecord
100
AcDbLayerTableRecord
  2
DEFAULT_DATUM_CURVES
 70
0
 62
7
  6
CONTINUOUS
370
-3
390
F
  0
LAYER
  5
209
100
AcDbSymbolTableRecord
100
AcDbLayerTableRecord
  2
DEFAULT_DATUM_PLANES
 70
0
 62
7
  6
CONTINUOUS
370
-3
390
F
  0
LAYER
  5
20A
100
AcDbSymbolTableRecord
100
AcDbLayerTableRecord
  2
DEFAULT_SURFACES
 70
0
 62
7
  6
CONTINUOUS
370
-3
390
F
  0
LAYER
  5
20B
100
AcDbSymbolTableRecord
100
AcDbLayerTableRecord
  2
DIMENSIONS
 70
0
 62
7
  6
CONTINUOUS
370
-3
390
F
  0
LAYER
  5
20C
100
AcDbSymbolTableRecord
100
AcDbLayerTableRecord
  2
HOLE_FEATURES
 70
0
 62
7
  6
CONTINUOUS
370
-3
390
F
  0
LAYER
  5
20D
100
AcDbSymbolTableRecord
100
AcDbLayerTableRecord
  2
PART_REFERENCE_DIMENSIONS
 70
0
 62
7
  6
CONTINUOUS
370
-3
390
F
  0
LAYER
  5
20E
100
AcDbSymbolTableRecord
100
AcDbLayerTableRecord
  2
PLATED_SURFACE_AREA
 70
0
 62
7
  6
CONTINUOUS
370
-3
390
F
  0
LAYER
  5
20F
100
AcDbSymbolTableRecord
100
AcDbLayerTableRecord
  2
POINTS
 70
0
 62
7
  6
CONTINUOUS
370
-3
390
F
  0
LAYER
  5
210
100
AcDbSymbolTableRecord
100
AcDbLayerTableRecord
  2
PROTRUSION_FEATURES
 70
0
 62
7
  6
CONTINUOUS
370
-3
390
F
  0
LAYER
  5
211
100
AcDbSymbolTableRecord
100
AcDbLayerTableRecord
  2
QUILTS
 70
0
 62
7
  6
CONTINUOUS
370
-3
390
F
  0
LAYER
  5
212
100
AcDbSymbolTableRecord
100
AcDbLayerTableRecord
  2
REFERENCE_DIMENSIONS
 70
0
 62
7
  6
CONTINUOUS
370
-3
390
F
  0
LAYER
  5
213
100
AcDbSymbolTableRecord
100
AcDbLayerTableRecord
  2
ROUND_FEATURES
 70
0
 62
7
  6
CONTINUOUS
370
-3
390
F
  0
LAYER
  5
214
100
AcDbSymbolTableRecord
100
AcDbLayerTableRecord
  2
SURFACE_FEATURES
 70
0
 62
7
  6
CONTINUOUS
370
-3
390
F
  0
LAYER
  5
215
100
AcDbSymbolTableRecord
100
AcDbLayerTableRecord
  2
WETTED_SURFACES
 70
0
 62
7
  6
CONTINUOUS
370
-3
390
F
  0
LAYER
  5
216
100
AcDbSymbolTableRecord
100
AcDbLayerTableRecord
  2
WETTED_SURFACE_AREA
 70
0
 62
7
  6
CONTINUOUS
370
-3
390
F
  0
LAYER
  5
217
100
AcDbSymbolTableRecord
100
AcDbLayerTableRecord
  2
WHITE
 70
0
 62
7
  6
CONTINUOUS
370
-3
390
F
  0
ENDTAB
  0
TABLE
  2
STYLE
  5
3
100
AcDbSymbolTable
 70
1
  0
STYLE
  5
11
100
AcDbSymbolTableRecord
100
AcDbTextStyleTableRecord
  2
STANDARD
 70
0
 40
0.0
 41
0.8
 50
0.0
 71
0
 42
0.2
  3
txt
  4

  0
STYLE
  5
218
100
AcDbSymbolTableRecord
100
AcDbTextStyleTableRecord
  2
TEXTSTYLE_1
 70
0
 40
0.0
 41
0.8
 50
0.0
 71
0
 42
0.2
  3
gdt
  4

  0
ENDTAB
  0
TABLE
  2
VIEW
  5
6
100
AcDbSymbolTable
 70
0
  0
ENDTAB
  0
TABLE
  2
UCS
  5
7
100
AcDbSymbolTable
 70
0
  0
ENDTAB
  0
TABLE
  2
APPID
  5
9
100
AcDbSymbolTable
 70
1
  0
APPID
  5
219
100
AcDbSymbolTableRecord
100
AcDbRegAppTableRecord
  2
ACAD
 70
0
  0
ENDTAB
  0
TABLE
  2
BLOCK_RECORD
  5
1
100
AcDbSymbolTable
 70
0
  0
BLOCK_RECORD
  5
21A
100
AcDbSymbolTableRecord
100
AcDbBlockTableRecord
  2
*Model_Space
  0
BLOCK_RECORD
  5
21B
100
AcDbSymbolTableRecord
100
AcDbBlockTableRecord
  2
*Paper_Space
  0
BLOCK_RECORD
  5
21C
100
AcDbSymbolTableRecord
100
AcDbBlockTableRecord
  2
_FILLED
  0
ENDTAB
  0
TABLE
  2
DIMSTYLE
  5
A
100
AcDbSymbolTable
 70
1
100
AcDbDimStyleTable
 71
0
  0
DIMSTYLE
105
21D
100
AcDbSymbolTableRecord
100
AcDbDimStyleTableRecord
  2
STANDARD
 70
0
  3

  4

 40
1.0
 41
0.1
 42
0.0625
 43
0.38
 44
0.125
 45
0.0
 46
0.0
 47
0.001
 48
0.001
140
0.08
141
0.09
142
0.0
143
25.4
144
1.0
145
0.0
146
1.0
147
0.09
 71
1.0
 72
0.0
 73
1
 74
1
 75
0
 76
0
 77
0
 78
4
 79
1
170
1
171
2
172
0
173
0
174
0
175
0
176
0
177
0
178
0
270
2
179
3
271
3
272
3
273
2
274
2
275
0
280
0
281
0
282
0
283
1
284
4
285
0
286
0
287
3
288
0
340
11
278
46
341
21C
342
21C
343
21C
344
21C
  0
ENDTAB
  0
ENDSEC
  0
SECTION
  2
BLOCKS
  0
BLOCK
  5
20
100
AcDbEntity
  8
0
100
AcDbBlockBegin
  2
*Model_Space
 70
0
 10
0.0
 20
0.0
 30
0.0
  3
*Model_Space
  1

  0
ENDBLK
  5
21
100
AcDbEntity
  8
0
100
AcDbBlockEnd
  0
BLOCK
  5
1C
100
AcDbEntity
  8
0
100
AcDbBlockBegin
  2
*Paper_Space
 70
0
 10
0.0
 20
0.0
 30
0.0
  3
*Paper_Space
  1

  0
ENDBLK
  5
1D
100
AcDbEntity
  8
0
100
AcDbBlockEnd
  0
BLOCK
  5
21E
100
AcDbEntity
  8
0
100
AcDbBlockBegin
  2
_FILLED
 70
64
 10
0.0
 20
0.0
  3
_FILLED
  1

  0
SOLID
  5
21F
100
AcDbEntity
  8
0
  6
BYBLOCK
 62
0
100
AcDbTrace
 10
0.0
 20
0.0
 11
-1.0
 21
0.2
 12
-1.0
 22
-0.2
 13
-1.0
 23
-0.2
  0
ENDBLK
  5
220
100
AcDbEntity
  8
0
  6
BYBLOCK
 62
0
100
AcDbBlockEnd
  0
ENDSEC
  0
SECTION
  2
ENTITIES
  0
MTEXT
  5
221
100
AcDbEntity
  8
0
100
AcDbMText
 62
2
  6
CONTINUOUS
  7
STANDARD
 71
3
 72
1
 10
4.7961230616
 20
2.7303797174
 30
0.0
 11
1.0
 21
0.0
 31
0.0
 73
2
 44
0.9
  1
SCALE  .500
 40
0.08
 41
0.704
  0
LINE
  5
222
100
AcDbEntity
  8
0
100
AcDbLine
 62
7
  6
CONTINUOUS
 10
0.0
 20
0.0
 11
0.0
 21
8.5
  0
LINE
  5
223
100
AcDbEntity
  8
0
100
AcDbLine
 62
7
  6
CONTINUOUS
 10
0.0
 20
0.0
 11
11.0
 21
0.0
  0
LINE
  5
224
100
AcDbEntity
  8
0
100
AcDbLine
 62
7
  6
CONTINUOUS
 10
0.0
 20
8.5
 11
11.0
 21
8.5
  0
LINE
  5
225
100
AcDbEntity
  8
0
100
AcDbLine
 62
7
  6
CONTINUOUS
 10
11.0
 20
0.0
 11
11.0
 21
8.5
  0
LINE
  5
226
100
AcDbEntity
  8
0
100
AcDbLine
 62
7
  6
CONTINUOUS
 10
3.5667552357
 20
4.1535657155
 11
3.5655386333
 21
4.1498213985
  0
LINE
  5
227
100
AcDbEntity
  8
0
100
AcDbLine
 62
7
  6
CONTINUOUS
 10
3.610512972
 20
4.1393479651
 11
3.6092963697
 21
4.1356036481
  0
LINE
  5
228
100
AcDbEntity
  8
0
100
AcDbLine
 62
7
  6
CONTINUOUS
 10
3.6236180815
 20
4.1350898569
 11
3.6224014792
 21
4.1313455399
  0
LINE
  5
229
100
AcDbEntity
  8
0
100
AcDbLine
 62
7
  6
CONTINUOUS
 10
3.6673758179
 20
4.1208721065
 11
3.6661592156
 21
4.1171277895
  0
LINE
  5
22A
100
AcDbEntity
  8
ALL_FEATURES
100
AcDbLine
 62
7
  6
CONTINUOUS
 10
3.5610717062
 20
4.4759369935
 11
3.3945874138
 21
4.2095064319
  0
LINE
  5
22B
100
AcDbEntity
  8
0
100
AcDbLine
 62
7
  6
CONTINUOUS
 10
3.6661592156
 20
4.1171277895
 11
3.5655386333
 21
4.1498213985
  0
LINE
  5
22C
100
AcDbEntity
  8
ALL_FEATURES
100
AcDbLine
 62
7
  6
CONTINUOUS
 10
3.7512336074
 20
4.093625059
 11
3.3945874138
 21
4.2095064319
  0
LINE
  5
22D
100
AcDbEntity
  8
ALL_FEATURES
100
AcDbLine
 62
7
  6
CONTINUOUS
 10
3.8722709114
 20
4.2730702416
 11
3.7512336074
 21
4.093625059
  0
LINE
  5
22E
100
AcDbEntity
  8
0
100
AcDbLine
 62
7
  6
CONTINUOUS
 10
7.0122587998
 20
4.2633236988
 11
6.9526483907
 21
4.2633236988
  0
LINE
  5
22F
100
AcDbEntity
  8
ALL_FEATURES
100
AcDbLine
 62
7
  6
CONTINUOUS
 10
6.7972587998
 20
4.4408236988
 11
6.6922587998
 21
4.4408236988
  0
LINE
  5
230
100
AcDbEntity
  8
0
100
AcDbLine
 62
7
  6
CONTINUOUS
 10
6.6922587998
 20
4.4483236988
 11
6.6772587998
 21
4.4483236988
  0
LINE
  5
231
100
AcDbEntity
  8
ALL_FEATURES
100
AcDbLine
 62
7
  6
CONTINUOUS
 10
6.6922587998
 20
4.4583236988
 11
6.6572587998
 21
4.4583236988
  0
LINE
  5
232
100
AcDbEntity
  8
0
100
AcDbLine
 62
7
  6
CONTINUOUS
 10
5.3222251079
 20
5.0932984298
 11
5.2942587998
 21
5.0723236988
  0
LINE
  5
233
100
AcDbEntity
  8
0
100
AcDbLine
 62
7
  6
CONTINUOUS
 10
6.6224156146
 20
4.5133236988
 11
6.61771102
 21
4.5133236988
  0
LINE
  5
234
100
AcDbEntity
  8
0
100
AcDbLine
 62
7
  6
CONTINUOUS
 10
5.9672587998
 20
4.5883236988
 11
5.9322587998
 21
4.5883236988
  0
LINE
  5
235
100
AcDbEntity
  8
ALL_FEATURES
100
AcDbLine
 62
7
  6
CONTINUOUS
 10
5.2822587998
 20
4.5883236988
 11
4.7462587998
 21
4.5883236988
  0
LINE
  5
236
100
AcDbEntity
  8
0
100
AcDbLine
 62
7
  6
CONTINUOUS
 10
5.9272587998
 20
4.6483236988
 11
5.8922587998
 21
4.6483236988
  0
LINE
  5
237
100
AcDbEntity
  8
ALL_FEATURES
100
AcDbLine
 62
7
  6
CONTINUOUS
 10
5.8059451091
 20
4.6840736988
 11
5.8872587998
 21
4.6840736988
  0
LINE
  5
238
100
AcDbEntity
  8
0
100
AcDbLine
 62
7
  6
CONTINUOUS
 10
5.3222251079
 20
4.5333489677
 11
5.2942587998
 21
4.5543236988
  0
LINE
  5
239
100
AcDbEntity
  8
0
100
AcDbLine
 62
7
  6
CONTINUOUS
 10
5.2822587998
 20
4.5783236988
 11
5.2822587998
 21
5.0483236988
  0
LINE
  5
23A
100
AcDbEntity
  8
0
100
AcDbLine
 62
7
  6
CONTINUOUS
 10
5.2942587998
 20
4.5543236988
 11
5.2942587998
 21
5.0723236988
  0
LINE
  5
23B
100
AcDbEntity
  8
0
100
AcDbLine
 62
7
  6
CONTINUOUS
 10
5.3222251079
 20
5.0932984298
 11
5.3222251079
 21
4.5333489677
  0
LINE
  5
23C
100
AcDbEntity
  8
0
100
AcDbLine
 62
7
  6
CONTINUOUS
 10
5.3333824044
 20
5.1102378308
 11
5.3333824044
 21
4.5164095667
  0
LINE
  5
23D
100
AcDbEntity
  8
ALL_FEATURES
100
AcDbLine
 62
7
  6
CONTINUOUS
 10
5.2822587998
 20
4.8133236988
 11
4.7464587998
 21
4.8126692631
  0
LINE
  5
23E
100
AcDbEntity
  8
0
100
AcDbLine
 62
7
  6
CONTINUOUS
 10
5.3755833038
 20
4.9262269246
 11
5.3755833024
 21
4.9199151938
  0
LINE
  5
23F
100
AcDbEntity
  8
0
100
AcDbLine
 62
7
  6
CONTINUOUS
 10
5.3755833026
 20
4.7067317762
 11
5.3755833038
 21
4.700420473
  0
LINE
  5
240
100
AcDbEntity
  8
0
100
AcDbLine
 62
7
  6
CONTINUOUS
 10
5.4043780912
 20
5.1246638146
 11
5.4043780945
 21
4.965822847
  0
LINE
  5
241
100
AcDbEntity
  8
0
100
AcDbLine
 62
7
  6
CONTINUOUS
 10
5.4043780926
 20
4.6608243898
 11
5.4043780912
 21
4.5019835829
  0
LINE
  5
242
100
AcDbEntity
  8
ALL_FEATURES
100
AcDbLine
 62
7
  6
CONTINUOUS
 10
5.8059451479
 20
4.9425736988
 11
5.8872587998
 21
4.9425736988
  0
LINE
  5
243
100
AcDbEntity
  8
0
100
AcDbLine
 62
7
  6
CONTINUOUS
 10
5.9272587998
 20
4.9783236988
 11
5.8922587998
 21
4.9783236988
  0
LINE
  5
244
100
AcDbEntity
  8
0
100
AcDbLine
 62
7
  6
CONTINUOUS
 10
5.4807096453
 20
4.5968207603
 11
5.4807096383
 21
4.5501495115
  0
LINE
  5
245
100
AcDbEntity
  8
0
100
AcDbLine
 62
7
  6
CONTINUOUS
 10
5.4807096383
 20
5.076497886
 11
5.4807096518
 21
5.0298268024
  0
LINE
  5
246
100
AcDbEntity
  8
0
100
AcDbLine
 62
7
  6
CONTINUOUS
 10
5.9672587998
 20
5.0383236988
 11
5.9322587998
 21
5.0383236988
  0
LINE
  5
247
100
AcDbEntity
  8
ALL_FEATURES
100
AcDbLine
 62
7
  6
CONTINUOUS
 10
5.2822587998
 20
5.0383236988
 11
4.8182587998
 21
5.0383236988
  0
LINE
  5
248
100
AcDbEntity
  8
0
100
AcDbLine
 62
7
  6
CONTINUOUS
 10
6.6224156146
 20
5.1133236988
 11
6.61771102
 21
5.1133236988
  0
LINE
  5
249
100
AcDbEntity
  8
ALL_FEATURES
100
AcDbLine
 62
7
  6
CONTINUOUS
 10
6.6922587998
 20
5.1683236988
 11
6.6572587998
 21
5.1683236988
  0
LINE
  5
24A
100
AcDbEntity
  8
0
100
AcDbLine
 62
7
  6
CONTINUOUS
 10
6.6922587998
 20
5.1783236988
 11
6.6772587998
 21
5.1783236988
  0
LINE
  5
24B
100
AcDbEntity
  8
ALL_FEATURES
100
AcDbLine
 62
7
  6
CONTINUOUS
 10
6.7972587998
 20
5.1858236988
 11
6.6922587998
 21
5.1858236988
  0
LINE
  5
24C
100
AcDbEntity
  8
0
100
AcDbLine
 62
7
  6
CONTINUOUS
 10
7.0122587998
 20
5.3633236988
 11
6.9526483907
 21
5.3633236988
  0
LINE
  5
24D
100
AcDbEntity
  8
0
100
AcDbLine
 62
7
  6
CONTINUOUS
 10
5.8872587998
 20
4.6533236988
 11
5.8872587998
 21
4.9733236988
  0
LINE
  5
24E
100
AcDbEntity
  8
0
100
AcDbLine
 62
7
  6
CONTINUOUS
 10
5.8922587998
 20
4.6483236988
 11
5.8922587998
 21
4.9783236988
  0
LINE
  5
24F
100
AcDbEntity
  8
0
100
AcDbLine
 62
7
  6
CONTINUOUS
 10
5.9272587998
 20
4.5933236988
 11
5.9272587998
 21
5.0333236988
  0
LINE
  5
250
100
AcDbEntity
  8
0
100
AcDbLine
 62
7
  6
CONTINUOUS
 10
5.9322587998
 20
4.5883236988
 11
5.9322587998
 21
5.0383236988
  0
LINE
  5
251
100
AcDbEntity
  8
0
100
AcDbLine
 62
7
  6
CONTINUOUS
 10
5.9672587998
 20
4.5494581084
 11
5.9672587998
 21
5.0771892891
  0
LINE
  5
252
100
AcDbEntity
  8
0
100
AcDbLine
 62
7
  6
CONTINUOUS
 10
6.0158851734
 20
4.5259409189
 11
6.0158851734
 21
5.1007064787
  0
LINE
  5
253
100
AcDbEntity
  8
ALL_FEATURES
100
AcDbLine
 62
7
  6
CONTINUOUS
 10
6.0670060017
 20
4.560695461
 11
6.0670060017
 21
5.0659519366
  0
LINE
  5
254
100
AcDbEntity
  8
0
100
AcDbLine
 62
7
  6
CONTINUOUS
 10
6.8934531848
 20
5.3371375223
 11
6.8388385553
 21
5.2770614298
  0
LINE
  5
255
100
AcDbEntity
  8
ALL_FEATURES
100
AcDbLine
 62
7
  6
CONTINUOUS
 10
6.2078391402
 20
4.6196912851
 11
6.2078391402
 21
5.0069561125
  0
LINE
  5
256
100
AcDbEntity
  8
0
100
AcDbLine
 62
7
  6
CONTINUOUS
 10
6.8934531848
 20
4.2895098752
 11
6.8388385553
 21
4.3495859677
  0
LINE
  5
257
100
AcDbEntity
  8
ALL_FEATURES
100
AcDbLine
 62
7
  6
CONTINUOUS
 10
6.4901019836
 20
4.6085326718
 11
6.4901019836
 21
5.0181147257
  0
LINE
  5
258
100
AcDbEntity
  8
0
100
AcDbLine
 62
7
  6
CONTINUOUS
 10
6.5876571293
 20
4.5171481262
 11
6.5876571257
 21
4.5500965031
  0
LINE
  5
259
100
AcDbEntity
  8
0
100
AcDbLine
 62
7
  6
CONTINUOUS
 10
6.5876571279
 20
5.0765508964
 11
6.5876571293
 21
5.1094992713
  0
LINE
  5
25A
100
AcDbEntity
  8
0
100
AcDbLine
 62
7
  6
CONTINUOUS
 10
6.61771102
 20
4.5133236988
 11
6.6177110282
 21
4.5190801575
  0
LINE
  5
25B
100
AcDbEntity
  8
0
100
AcDbLine
 62
7
  6
CONTINUOUS
 10
6.6177110282
 20
5.10756724
 11
6.61771102
 21
5.1133236988
  0
LINE
  5
25C
100
AcDbEntity
  8
ALL_FEATURES
100
AcDbLine
 62
7
  6
CONTINUOUS
 10
6.6572587998
 20
4.4583236988
 11
6.6572587998
 21
5.1683236988
  0
LINE
  5
25D
100
AcDbEntity
  8
0
100
AcDbLine
 62
7
  6
CONTINUOUS
 10
6.6772587998
 20
4.4483236988
 11
6.6772587998
 21
4.4583236988
  0
LINE
  5
25E
100
AcDbEntity
  8
0
100
AcDbLine
 62
7
  6
CONTINUOUS
 10
6.6772587998
 20
5.1683236988
 11
6.6772587998
 21
5.1783236988
  0
LINE
  5
25F
100
AcDbEntity
  8
ALL_FEATURES
100
AcDbLine
 62
7
  6
CONTINUOUS
 10
6.6922587998
 20
4.4408236988
 11
6.6922587998
 21
5.1858236988
  0
LINE
  5
260
100
AcDbEntity
  8
0
100
AcDbLine
 62
7
  6
CONTINUOUS
 10
6.7872587998
 20
4.3933236988
 11
6.7872587998
 21
4.4408236988
  0
LINE
  5
261
100
AcDbEntity
  8
0
100
AcDbLine
 62
7
  6
CONTINUOUS
 10
6.7872587998
 20
5.1858236988
 11
6.7872587998
 21
5.2333236988
  0
LINE
  5
262
100
AcDbEntity
  8
0
100
AcDbLine
 62
7
  6
CONTINUOUS
 10
6.7972587998
 20
4.4042371615
 11
6.7972587998
 21
5.2224102361
  0
LINE
  5
263
100
AcDbEntity
  8
0
100
AcDbLine
 62
7
  6
CONTINUOUS
 10
6.8008924632
 20
5.2522833865
 11
6.8008924623
 21
5.2300996049
  0
LINE
  5
264
100
AcDbEntity
  8
0
100
AcDbLine
 62
7
  6
CONTINUOUS
 10
6.8008924622
 20
4.3965477927
 11
6.8008924632
 21
4.374364011
  0
LINE
  5
265
100
AcDbEntity
  8
0
100
AcDbLine
 62
7
  6
CONTINUOUS
 10
6.8023295272
 20
4.3955364562
 11
6.8023295272
 21
5.2311109413
  0
LINE
  5
266
100
AcDbEntity
  8
0
100
AcDbLine
 62
7
  6
CONTINUOUS
 10
6.8388385553
 20
5.2770614298
 11
6.8388385431
 21
5.2569311324
  0
LINE
  5
267
100
AcDbEntity
  8
0
100
AcDbLine
 62
7
  6
CONTINUOUS
 10
6.838838542
 20
4.3697162662
 11
6.8388385553
 21
4.3495859677
  0
LINE
  5
268
100
AcDbEntity
  8
0
100
AcDbLine
 62
7
  6
CONTINUOUS
 10
6.8909871913
 20
4.3036854213
 11
6.8909871913
 21
5.3229619762
  0
LINE
  5
269
100
AcDbEntity
  8
0
100
AcDbLine
 62
7
  6
CONTINUOUS
 10
6.8934531848
 20
4.2895098752
 11
6.8934531767
 21
4.2993426087
  0
LINE
  5
26A
100
AcDbEntity
  8
0
100
AcDbLine
 62
7
  6
CONTINUOUS
 10
6.8934531773
 20
5.32730479
 11
6.8934531848
 21
5.3371375223
  0
LINE
  5
26B
100
AcDbEntity
  8
0
100
AcDbLine
 62
7
  6
CONTINUOUS
 10
6.9526483904
 20
5.3631468909
 11
6.9526483907
 21
5.3633236988
  0
LINE
  5
26C
100
AcDbEntity
  8
0
100
AcDbLine
 62
7
  6
CONTINUOUS
 10
6.9526483907
 20
4.2633236988
 11
6.9526483906
 21
4.2635005066
  0
LINE
  5
26D
100
AcDbEntity
  8
0
100
AcDbLine
 62
7
  6
CONTINUOUS
 10
6.9575092909
 20
4.2633236988
 11
6.9575092909
 21
5.3633236988
  0
LINE
  5
26E
100
AcDbEntity
  8
ALL_FEATURES
100
AcDbLine
 62
7
  6
CONTINUOUS
 10
7.0122587998
 20
4.2633236988
 11
7.0122587998
 21
5.3633236988
  0
ARC
  5
26F
100
AcDbEntity
  8
ALL_FEATURES
100
AcDbCircle
 62
7
  6
CONTINUOUS
 10
4.7465532415
 20
2.5894025984
 40
1.9989224598
100
AcDbArc
 50
90.008439687
 51
103.8594922324
  0
ARC
  5
270
100
AcDbEntity
  8
ALL_FEATURES
100
AcDbCircle
 62
7
  6
CONTINUOUS
 10
4.7462926837
 20
2.5916954705
 40
1.9966326119
100
AcDbArc
 50
103.8679939565
 51
105.7357908941
  0
ARC
  5
271
100
AcDbEntity
  8
ALL_FEATURES
100
AcDbCircle
 62
7
  6
CONTINUOUS
 10
4.8182641348
 20
3.0681718781
 40
1.9701518207
100
AcDbArc
 50
90.000155151
 51
94.0249250513
  0
ARC
  5
272
100
AcDbEntity
  8
ALL_FEATURES
100
AcDbCircle
 62
7
  6
CONTINUOUS
 10
4.8182644269
 20
3.0682630357
 40
1.9700609084
100
AcDbArc
 50
94.0251196125
 51
96.5740413992
  0
ARC
  5
273
100
AcDbEntity
  8
ALL_FEATURES
100
AcDbCircle
 62
7
  6
CONTINUOUS
 10
4.6982911467
 20
3.5851536893
 40
1.259623285
100
AcDbArc
 50
140.8265908134
 51
142.2467518355
  0
ARC
  5
274
100
AcDbEntity
  8
ALL_FEATURES
100
AcDbCircle
 62
7
  6
CONTINUOUS
 10
4.4176496736
 20
3.9406217878
 40
1.0101085331
100
AcDbArc
 50
114.6678153972
 51
119.4208070131
  0
ARC
  5
275
100
AcDbEntity
  8
ALL_FEATURES
100
AcDbCircle
 62
7
  6
CONTINUOUS
 10
4.5380396984
 20
3.7839342777
 40
1.0026249154
100
AcDbArc
 50
114.2745826153
 51
118.5029177033
  0
ARC
  5
276
100
AcDbEntity
  8
ALL_FEATURES
100
AcDbCircle
 62
7
  6
CONTINUOUS
 10
4.3665345186
 20
3.9396830018
 40
0.5961908798
100
AcDbArc
 50
143.3485953036
 51
145.9998225558
  0
ARC
  5
277
100
AcDbEntity
  8
0
100
AcDbCircle
 62
7
  6
CONTINUOUS
 10
5.4134449831
 20
4.7133236988
 40
0.04
100
AcDbArc
 50
198.819063369
 51
234.0152538154
  0
ARC
  5
278
100
AcDbEntity
  8
0
100
AcDbCircle
 62
7
  6
CONTINUOUS
 10
5.3722587998
 20
4.5258236988
 40
0.04
100
AcDbArc
 50
193.612449557
 51
323.4158406407
  0
ARC
  5
279
100
AcDbEntity
  8
0
100
AcDbCircle
 62
7
  6
CONTINUOUS
 10
5.3042251079
 20
4.5093489677
 40
0.03
100
AcDbArc
 50
13.6124495567
 51
53.1301023534
  0
ARC
  5
27A
100
AcDbEntity
  8
0
100
AcDbCircle
 62
7
  6
CONTINUOUS
 10
5.3122587998
 20
4.5783236988
 40
0.03
100
AcDbArc
 50
180.0
 51
233.1301023541
  0
ARC
  5
27B
100
AcDbEntity
  8
ALL_FEATURES
100
AcDbCircle
 62
7
  6
CONTINUOUS
 10
4.0235537146
 20
5.0688489629
 40
0.7512986698
100
AcDbArc
 50
243.4168877222
 51
246.3177228176
  0
ARC
  5
27C
100
AcDbEntity
  8
ALL_FEATURES
100
AcDbCircle
 62
7
  6
CONTINUOUS
 10
4.0195766435
 20
5.0623068601
 40
0.7436696935
100
AcDbArc
 50
240.9683752256
 51
243.4653548293
  0
ARC
  5
27D
100
AcDbEntity
  8
0
100
AcDbCircle
 62
7
  6
CONTINUOUS
 10
5.4134449831
 20
4.9133236988
 40
0.04
100
AcDbArc
 50
125.9824579454
 51
161.180936631
  0
ARC
  5
27E
100
AcDbEntity
  8
0
100
AcDbCircle
 62
7
  6
CONTINUOUS
 10
5.3722587998
 20
5.1008236988
 40
0.04
100
AcDbArc
 50
36.5841593593
 51
166.387550443
  0
ARC
  5
27F
100
AcDbEntity
  8
0
100
AcDbCircle
 62
7
  6
CONTINUOUS
 10
5.3042251079
 20
5.1172984298
 40
0.03
100
AcDbArc
 50
306.8698976466
 51
346.3875504433
  0
ARC
  5
280
100
AcDbEntity
  8
0
100
AcDbCircle
 62
7
  6
CONTINUOUS
 10
5.3122587998
 20
5.0483236988
 40
0.03
100
AcDbArc
 50
126.8698976459
 51
180.0
  0
ARC
  5
281
100
AcDbEntity
  8
0
100
AcDbCircle
 62
7
  6
CONTINUOUS
 10
5.9615344051
 20
2.0968236988
 40
2.5
100
AcDbArc
 50
75.4959114181
 51
86.1951852305
  0
ARC
  5
282
100
AcDbEntity
  8
0
100
AcDbCircle
 62
7
  6
CONTINUOUS
 10
5.9615344051
 20
2.0968236988
 40
2.5
100
AcDbArc
 50
90.7865177371
 51
96.589279755
  0
ARC
  5
283
100
AcDbEntity
  8
0
100
AcDbCircle
 62
7
  6
CONTINUOUS
 10
5.9615344051
 20
2.0968236988
 40
2.5
100
AcDbArc
 50
98.7100967947
 51
101.0887862153
  0
ARC
  5
284
100
AcDbEntity
  8
ALL_FEATURES
100
AcDbCircle
 62
7
  6
CONTINUOUS
 10
6.3673628932
 20
4.0412864336
 40
0.6
100
AcDbArc
 50
105.418828384
 51
120.0393607241
  0
ARC
  5
285
100
AcDbEntity
  8
ALL_FEATURES
100
AcDbCircle
 62
7
  6
CONTINUOUS
 10
6.3314700487
 20
4.1714275251
 40
0.465
100
AcDbArc
 50
70.053415241
 51
105.418828384
  0
ARC
  5
286
100
AcDbEntity
  8
0
100
AcDbCircle
 62
7
  6
CONTINUOUS
 10
6.2797587998
 20
4.1927807332
 40
0.425
100
AcDbArc
 50
120.0393607241
 51
128.3803609955
  0
ARC
  5
287
100
AcDbEntity
  8
ALL_FEATURES
100
AcDbCircle
 62
7
  6
CONTINUOUS
 10
6.3877587998
 20
4.3265293514
 40
0.3
100
AcDbArc
 50
26.0601511633
 51
70.053415241
  0
ARC
  5
288
100
AcDbEntity
  8
0
100
AcDbCircle
 62
7
  6
CONTINUOUS
 10
6.6914208925
 20
4.1997705891
 40
0.225
100
AcDbArc
 50
27.5061421611
 51
60.466835501
  0
ARC
  5
289
100
AcDbEntity
  8
0
100
AcDbCircle
 62
7
  6
CONTINUOUS
 10
5.5047508766
 20
4.4274832209
 40
0.125
100
AcDbArc
 50
101.0887862153
 51
143.4158406407
  0
ARC
  5
28A
100
AcDbEntity
  8
0
100
AcDbCircle
 62
7
  6
CONTINUOUS
 10
6.61771102
 20
4.6333236988
 40
0.12
100
AcDbArc
 50
255.4959114181
 51
270.0
  0
ARC
  5
28B
100
AcDbEntity
  8
0
100
AcDbCircle
 62
7
  6
CONTINUOUS
 10
6.7722439487
 20
4.2890454163
 40
0.09
100
AcDbArc
 50
42.2736890061
 51
71.4388357052
  0
ARC
  5
28C
100
AcDbEntity
  8
0
100
AcDbCircle
 62
7
  6
CONTINUOUS
 10
6.9526483907
 20
4.3433236988
 40
0.08
100
AcDbArc
 50
222.2736890061
 51
270.0
  0
ARC
  5
28D
100
AcDbEntity
  8
0
100
AcDbCircle
 62
7
  6
CONTINUOUS
 10
6.9575092909
 20
4.3383236988
 40
0.075
100
AcDbArc
 50
207.5061421611
 51
270.0
  0
ARC
  5
28E
100
AcDbEntity
  8
0
100
AcDbCircle
 62
7
  6
CONTINUOUS
 10
6.6772587998
 20
4.4783236988
 40
0.03
100
AcDbArc
 50
183.0375086806
 51
270.0
  0
ARC
  5
28F
100
AcDbEntity
  8
0
100
AcDbCircle
 62
7
  6
CONTINUOUS
 10
5.9972587998
 20
4.5494581084
 40
0.03
100
AcDbArc
 50
180.0
 51
308.3803609955
  0
ARC
  5
290
100
AcDbEntity
  8
0
100
AcDbCircle
 62
7
  6
CONTINUOUS
 10
6.8072587998
 20
4.3933236988
 40
0.02
100
AcDbArc
 50
180.0
 51
251.4388357052
  0
ARC
  5
291
100
AcDbEntity
  8
0
100
AcDbCircle
 62
7
  6
CONTINUOUS
 10
6.8072587998
 20
4.4042371615
 40
0.01
100
AcDbArc
 50
180.0
 51
240.4668355008
  0
ARC
  5
292
100
AcDbEntity
  8
0
100
AcDbCircle
 62
7
  6
CONTINUOUS
 10
5.9322587998
 20
4.5933236988
 40
0.005
100
AcDbArc
 50
180.0
 51
270.0
  0
ARC
  5
293
100
AcDbEntity
  8
0
100
AcDbCircle
 62
7
  6
CONTINUOUS
 10
5.8922587998
 20
4.6533236988
 40
0.005
100
AcDbArc
 50
180.0
 51
270.0
  0
ARC
  5
294
100
AcDbEntity
  8
0
100
AcDbCircle
 62
7
  6
CONTINUOUS
 10
5.7068729981
 20
4.8133236988
 40
0.35
100
AcDbArc
 50
195.3203927879
 51
198.819063369
  0
ARC
  5
295
100
AcDbEntity
  8
0
100
AcDbCircle
 62
7
  6
CONTINUOUS
 10
5.7068729981
 20
4.8133236988
 40
0.35
100
AcDbArc
 50
161.180936631
 51
164.6799240032
  0
CIRCLE
  5
296
100
AcDbEntity
  8
0
100
AcDbCircle
 62
7
  6
CONTINUOUS
 10
5.5970089732
 20
4.8133236988
 40
0.245775
  0
CIRCLE
  5
297
100
AcDbEntity
  8
0
100
AcDbCircle
 62
7
  6
CONTINUOUS
 10
5.5970089732
 20
4.8133236988
 40
0.2233585994
  0
CIRCLE
  5
298
100
AcDbEntity
  8
0
100
AcDbCircle
 62
7
  6
CONTINUOUS
 10
5.5970089732
 20
4.8133236988
 40
0.1481658195
  0
ARC
  5
299
100
AcDbEntity
  8
0
100
AcDbCircle
 62
7
  6
CONTINUOUS
 10
5.5047508766
 20
5.1991641766
 40
0.125
100
AcDbArc
 50
216.5841593593
 51
258.9112137847
  0
CIRCLE
  5
29A
100
AcDbEntity
  8
0
100
AcDbCircle
 62
7
  6
CONTINUOUS
 10
5.5970089732
 20
4.8133236988
 40
0.1247521569
  0
ARC
  5
29B
100
AcDbEntity
  8
0
100
AcDbCircle
 62
7
  6
CONTINUOUS
 10
5.9972587998
 20
5.0771892891
 40
0.03
100
AcDbArc
 50
51.6196390045
 51
180.0
  0
ARC
  5
29C
100
AcDbEntity
  8
0
100
AcDbCircle
 62
7
  6
CONTINUOUS
 10
5.9322587998
 20
5.0333236988
 40
0.005
100
AcDbArc
 50
90.0
 51
180.0
  0
ARC
  5
29D
100
AcDbEntity
  8
0
100
AcDbCircle
 62
7
  6
CONTINUOUS
 10
5.8922587998
 20
4.9733236988
 40
0.005
100
AcDbArc
 50
90.0
 51
180.0
  0
ARC
  5
29E
100
AcDbEntity
  8
0
100
AcDbCircle
 62
7
  6
CONTINUOUS
 10
5.9615344051
 20
7.5298236988
 40
2.5
100
AcDbArc
 50
273.8048147695
 51
284.5040885819
  0
ARC
  5
29F
100
AcDbEntity
  8
0
100
AcDbCircle
 62
7
  6
CONTINUOUS
 10
5.9615344051
 20
7.5298236988
 40
2.5
100
AcDbArc
 50
263.41071568
 51
269.2134822629
  0
ARC
  5
2A0
100
AcDbEntity
  8
0
100
AcDbCircle
 62
7
  6
CONTINUOUS
 10
5.9615344051
 20
7.5298236988
 40
2.5
100
AcDbArc
 50
258.9112137847
 51
261.2899026294
  0
ARC
  5
2A1
100
AcDbEntity
  8
ALL_FEATURES
100
AcDbCircle
 62
7
  6
CONTINUOUS
 10
6.3673628932
 20
5.585360964
 40
0.6
100
AcDbArc
 50
239.9606392759
 51
254.581171616
  0
ARC
  5
2A2
100
AcDbEntity
  8
ALL_FEATURES
100
AcDbCircle
 62
7
  6
CONTINUOUS
 10
6.3314700487
 20
5.4552198724
 40
0.465
100
AcDbArc
 50
254.581171616
 51
289.946584759
  0
ARC
  5
2A3
100
AcDbEntity
  8
0
100
AcDbCircle
 62
7
  6
CONTINUOUS
 10
6.2797587998
 20
5.4338666643
 40
0.425
100
AcDbArc
 50
231.6196390045
 51
239.9606392759
  0
ARC
  5
2A4
100
AcDbEntity
  8
ALL_FEATURES
100
AcDbCircle
 62
7
  6
CONTINUOUS
 10
6.3877587998
 20
5.3001180461
 40
0.3
100
AcDbArc
 50
289.946584759
 51
333.9398488367
  0
ARC
  5
2A5
100
AcDbEntity
  8
0
100
AcDbCircle
 62
7
  6
CONTINUOUS
 10
6.6914208925
 20
5.4268768085
 40
0.225
100
AcDbArc
 50
299.533164499
 51
332.4938578389
  0
ARC
  5
2A6
100
AcDbEntity
  8
0
100
AcDbCircle
 62
7
  6
CONTINUOUS
 10
6.61771102
 20
4.9933236988
 40
0.12
100
AcDbArc
 50
90.0
 51
104.5040885819
  0
ARC
  5
2A7
100
AcDbEntity
  8
0
100
AcDbCircle
 62
7
  6
CONTINUOUS
 10
6.7722439487
 20
5.3376019813
 40
0.09
100
AcDbArc
 50
288.5611642948
 51
317.7263109939
  0
ARC
  5
2A8
100
AcDbEntity
  8
0
100
AcDbCircle
 62
7
  6
CONTINUOUS
 10
6.9526483907
 20
5.2833236988
 40
0.08
100
AcDbArc
 50
90.0
 51
137.7263109939
  0
ARC
  5
2A9
100
AcDbEntity
  8
0
100
AcDbCircle
 62
7
  6
CONTINUOUS
 10
6.9575092909
 20
5.2883236988
 40
0.075
100
AcDbArc
 50
90.0
 51
152.4938578389
  0
ARC
  5
2AA
100
AcDbEntity
  8
0
100
AcDbCircle
 62
7
  6
CONTINUOUS
 10
6.6772587998
 20
5.1483236988
 40
0.03
100
AcDbArc
 50
90.0
 51
176.9624913194
  0
ARC
  5
2AB
100
AcDbEntity
  8
0
100
AcDbCircle
 62
7
  6
CONTINUOUS
 10
6.8072587998
 20
5.2333236988
 40
0.02
100
AcDbArc
 50
108.5611642948
 51
180.0
  0
ARC
  5
2AC
100
AcDbEntity
  8
0
100
AcDbCircle
 62
7
  6
CONTINUOUS
 10
6.8072587998
 20
5.2224102361
 40
0.01
100
AcDbArc
 50
119.5331644992
 51
180.0
  0
SPLINE
  5
2AD
100
AcDbEntity
  8
ALL_FEATURES
100
AcDbSpline
 62
7
  6
CONTINUOUS
 70
0
 71
3
 72
15
 73
11
 74
0
 42
0.0000001
 43
0.0000001
 44
0.0000000001
 40
0.0
 40
0.0
 40
0.0
 40
0.0
 40
0.1250014552
 40
0.2500059307
 40
0.375007471
 40
0.5
 40
0.624992529
 40
0.7499940693
 40
0.8749985448
 40
1.0
 40
1.0
 40
1.0
 40
1.0
 10
4.2048024117
 20
4.5134993295
 30
0.0
 10
4.1891127651
 20
4.5090785733
 30
0.0
 10
4.1580841805
 20
4.4989331365
 30
0.0
 10
4.1129557933
 20
4.4799620642
 30
0.0
 10
4.0695225417
 20
4.4573736446
 30
0.0
 10
4.0280844671
 20
4.4313074473
 30
0.0
 10
3.9889427
 20
4.40190536
 30
0.0
 10
3.9523372806
 20
4.3693980176
 30
0.0
 10
3.9185056948
 20
4.3340158651
 30
0.0
 10
3.8979517437
 20
4.308653727
 30
0.0
 10
3.8882211699
 20
4.2955761114
 30
0.0
  0
SPLINE
  5
2AE
100
AcDbEntity
  8
ALL_FEATURES
100
AcDbSpline
 62
7
  6
CONTINUOUS
 70
0
 71
3
 72
11
 73
7
 74
0
 42
0.0000001
 43
0.0000001
 44
0.0000000001
 40
0.0
 40
0.0
 40
0.0
 40
0.0
 40
0.2499987121
 40
0.5
 40
0.7500012879
 40
1.0
 40
1.0
 40
1.0
 40
1.0
 10
4.5927179096
 20
5.0253702764
 30
0.0
 10
4.5412308151
 20
5.0194366183
 30
0.0
 10
4.4386831075
 20
5.0034647215
 30
0.0
 10
4.2872624185
 20
4.9674743417
 30
0.0
 10
4.1391332574
 20
4.9197115516
 30
0.0
 10
4.0431724435
 20
4.8801811074
 30
0.0
 10
3.9960741357
 20
4.8585506057
 30
0.0
  0
SPLINE
  5
2AF
100
AcDbEntity
  8
ALL_FEATURES
100
AcDbSpline
 62
7
  6
CONTINUOUS
 70
0
 71
3
 72
13
 73
9
 74
0
 42
0.0000001
 43
0.0000001
 44
0.0000000001
 40
0.0
 40
0.0
 40
0.0
 40
0.0
 40
0.1250308484
 40
0.250062704
 40
0.5
 40
0.749937296
 40
0.8749691516
 40
1.0
 40
1.0
 40
1.0
 40
1.0
 10
3.9214640556
 20
4.8204621604
 30
0.0
 10
3.903183165
 20
4.8101525522
 30
0.0
 10
3.8672561247
 20
4.7883805674
 30
0.0
 10
3.7982897739
 20
4.7404752416
 30
0.0
 10
3.7178551479
 20
4.6726905885
 30
0.0
 10
3.6465199321
 20
4.59538745
 30
0.0
 10
3.5955599329
 20
4.528646486
 30
0.0
 10
3.572193435
 20
4.4937354802
 30
0.0
 10
3.5610717062
 20
4.4759369935
 30
0.0
  0
SPLINE
  5
2B0
100
AcDbEntity
  8
ALL_FEATURES
100
AcDbSpline
 62
7
  6
CONTINUOUS
 70
0
 71
3
 72
26
 73
22
 74
0
 42
0.0000001
 43
0.0000001
 44
0.0000000001
 40
0.0
 40
0.0
 40
0.0
 40
0.0
 40
0.0048502458
 40
0.0191984618
 40
0.0427411518
 40
0.075175215
 40
0.1161689431
 40
0.1652745001
 40
0.2220181901
 40
0.2859401665
 40
0.3565622179
 40
0.4333179824
 40
0.5156416279
 40
0.6030519061
 40
0.6951190139
 40
0.7428022291
 40
0.7915813501
 40
0.8414907187
 40
0.892630021
 40
0.9452328331
 40
1.0
 40
1.0
 40
1.0
 40
1.0
 10
4.6799783281
 20
5.0334645362
 30
0.0
 10
4.6800745117
 20
5.0331038049
 30
0.0
 10
4.6804536904
 20
5.0316755339
 30
0.0
 10
4.6812863884
 20
5.0284927725
 30
0.0
 10
4.6826395236
 20
5.0232515554
 30
0.0
 10
4.6844776897
 20
5.0160173926
 30
0.0
 10
4.686767194
 20
5.0068678368
 30
0.0
 10
4.689504077
 20
4.9959013873
 30
0.0
 10
4.6926801181
 20
4.9832255658
 30
0.0
 10
4.6962950338
 20
4.968952379
 30
0.0
 10
4.7003470746
 20
4.9532009631
 30
0.0
 10
4.7048587887
 20
4.9361055449
 30
0.0
 10
4.7098528909
 20
4.9178014414
 30
0.0
 10
4.7153937256
 20
4.8984261972
 30
0.0
 10
4.7204632937
 20
4.8816910327
 30
0.0
 10
4.7248977591
 20
4.8678733027
 30
0.0
 10
4.7284892104
 20
4.8571940763
 30
0.0
 10
4.7323462942
 20
4.8463249108
 30
0.0
 10
4.7365362849
 20
4.8352640743
 30
0.0
 10
4.7411479652
 20
4.8239663688
 30
0.0
 10
4.7445969228
 20
4.8164513566
 30
0.0
 10
4.7464587998
 20
4.8126692631
 30
0.0
  0
SPLINE
  5
2B1
100
AcDbEntity
  8
ALL_FEATURES
100
AcDbSpline
 62
7
  6
CONTINUOUS
 70
0
 71
3
 72
19
 73
15
 74
0
 42
0.0000001
 43
0.0000001
 44
0.0000000001
 40
0.0
 40
0.0
 40
0.0
 40
0.0
 40
0.0745645394
 40
0.1107890146
 40
0.1464665249
 40
0.1817048246
 40
0.2165583814
 40
0.2851811168
 40
0.4184475639
 40
0.5465875118
 40
0.6693518688
 40
0.7862368867
 40
0.8966678634
 40
1.0
 40
1.0
 40
1.0
 40
1.0
 10
4.7464587998
 20
4.8126692631
 30
0.0
 10
4.7481673084
 20
4.8091987121
 30
0.0
 10
4.7505771704
 20
4.8039778772
 30
0.0
 10
4.7535515107
 20
4.796985556
 30
0.0
 10
4.7556420665
 20
4.7918351438
 30
0.0
 10
4.7576411942
 20
4.786725003
 30
0.0
 10
4.7601907796
 20
4.7799953459
 30
0.0
 10
4.7643674842
 20
4.7684447242
 30
0.0
 10
4.7698004368
 20
4.7522056914
 30
0.0
 10
4.7757041518
 20
4.7331689376
 30
0.0
 10
4.7810727026
 20
4.7148587865
 30
0.0
 10
4.7859737442
 20
4.69737059
 30
0.0
 10
4.7904540574
 20
4.6808123321
 30
0.0
 10
4.7932829585
 20
4.6700894418
 30
0.0
 10
4.7946376552
 20
4.6649027191
 30
0.0
  0
LINE
  5
2B2
100
AcDbEntity
  8
ALL_FEATURES
100
AcDbLine
 62
7
  6
CONTINUOUS
 10
4.7946376552
 20
4.6649027191
 11
4.8143367138
 21
4.5883236988
  0
SPLINE
  5
2B3
100
AcDbEntity
  8
ALL_FEATURES
100
AcDbSpline
 62
7
  6
CONTINUOUS
 70
0
 71
3
 72
9
 73
5
 74
0
 42
0.0000001
 43
0.0000001
 44
0.0000000001
 40
0.0
 40
0.0
 40
0.0
 40
0.0
 40
0.2491720963
 40
1.0
 40
1.0
 40
1.0
 40
1.0
 10
4.7464587998
 20
4.8126692631
 30
0.0
 10
4.7399542936
 20
4.8126613184
 30
0.0
 10
4.7138501102
 20
4.8125211048
 30
0.0
 10
4.6877479606
 20
4.811935727
 30
0.0
 10
4.6681608215
 20
4.8112263306
 30
0.0
  0
SPLINE
  5
2B4
100
AcDbEntity
  8
ALL_FEATURES
100
AcDbSpline
 62
7
  6
CONTINUOUS
 70
0
 71
3
 72
26
 73
22
 74
0
 42
0.0000001
 43
0.0000001
 44
0.0000000001
 40
0.0
 40
0.0
 40
0.0
 40
0.0
 40
0.0545567653
 40
0.106729599
 40
0.1573624711
 40
0.2067463971
 40
0.2550137051
 40
0.3022191692
 40
0.3934866999
 40
0.4803455124
 40
0.5623747318
 40
0.6390879956
 40
0.70989843
 40
0.774210246
 40
0.8314990684
 40
0.8812540327
 40
0.9229478242
 40
0.9560730011
 40
0.9802166708
 40
0.9949890765
 40
1.0
 40
1.0
 40
1.0
 40
1.0
 10
4.6681608215
 20
4.8112263306
 30
0.0
 10
4.6702842048
 20
4.8074843267
 30
0.0
 10
4.6742276544
 20
4.8000427993
 30
0.0
 10
4.6795277139
 20
4.788818966
 30
0.0
 10
4.6843500847
 20
4.7778270499
 30
0.0
 10
4.6888003246
 20
4.7670119784
 30
0.0
 10
4.6929549554
 20
4.7563699388
 30
0.0
 10
4.6981014964
 20
4.7425712247
 30
0.0
 10
4.7040115429
 20
4.7258111032
 30
0.0
 10
4.7105038163
 20
4.7063481699
 30
0.0
 10
4.7163888941
 20
4.6878947355
 30
0.0
 10
4.7217340312
 20
4.6705985438
 30
0.0
 10
4.7265596982
 20
4.6546047386
 30
0.0
 10
4.7308852837
 20
4.6400602993
 30
0.0
 10
4.7347030997
 20
4.6270972769
 30
0.0
 10
4.7380066906
 20
4.6158422894
 30
0.0
 10
4.7407806434
 20
4.6064178274
 30
0.0
 10
4.7430137049
 20
4.5989396514
 30
0.0
 10
4.7446615469
 20
4.593502511
 30
0.0
 10
4.7456777219
 20
4.5901906992
 30
0.0
 10
4.7461410221
 20
4.5887009138
 30
0.0
 10
4.7462587998
 20
4.5883236988
 30
0.0
  0
SPLINE
  5
2B5
100
AcDbEntity
  8
ALL_FEATURES
100
AcDbSpline
 62
7
  6
CONTINUOUS
 70
0
 71
3
 72
26
 73
22
 74
0
 42
0.0000001
 43
0.0000001
 44
0.0000000001
 40
0.0
 40
0.0
 40
0.0
 40
0.0
 40
0.0047605435
 40
0.0188499038
 40
0.0419800529
 40
0.0738634826
 40
0.1141886342
 40
0.1625455221
 40
0.2185034544
 40
0.2816488705
 40
0.3515542096
 40
0.4277177231
 40
0.5096471024
 40
0.5969548302
 40
0.6893216646
 40
0.7373544706
 40
0.7866545833
 40
0.8372937003
 40
0.8894240087
 40
0.9433623777
 40
1.0
 40
1.0
 40
1.0
 40
1.0
 10
4.5927179096
 20
5.0253702764
 30
0.0
 10
4.59282575
 20
5.0250258502
 30
0.0
 10
4.5932510515
 20
5.0236615259
 30
0.0
 10
4.5941855318
 20
5.0206191388
 30
0.0
 10
4.5957049917
 20
5.0156053774
 30
0.0
 10
4.5977707113
 20
5.0086788598
 30
0.0
 10
4.6003462173
 20
4.9999087106
 30
0.0
 10
4.6034280823
 20
4.9893850347
 30
0.0
 10
4.6070086678
 20
4.9772046569
 30
0.0
 10
4.6110893241
 20
4.9634685397
 30
0.0
 10
4.6156701981
 20
4.9482830877
 30
0.0
 10
4.6207785182
 20
4.9317696328
 30
0.0
 10
4.626442657
 20
4.9140476942
 30
0.0
 10
4.6327377647
 20
4.895239411
 30
0.0
 10
4.6385006985
 20
4.878964969
 30
0.0
 10
4.6435458966
 20
4.8654966981
 30
0.0
 10
4.6476411537
 20
4.855052086
 30
0.0
 10
4.6520438233
 20
4.8443960356
 30
0.0
 10
4.6568313561
 20
4.8335215471
 30
0.0
 10
4.662110508
 20
4.822370478
 30
0.0
 10
4.6660416755
 20
4.8149608672
 30
0.0
 10
4.6681608215
 20
4.8112263306
 30
0.0
  0
SPLINE
  5
2B6
100
AcDbEntity
  8
ALL_FEATURES
100
AcDbSpline
 62
7
  6
CONTINUOUS
 70
0
 71
3
 72
28
 73
24
 74
0
 42
0.0000001
 43
0.0000001
 44
0.0000000001
 40
0.0
 40
0.0
 40
0.0
 40
0.0
 40
0.0339533569
 40
0.0659979136
 40
0.0964793804
 40
0.1257358098
 40
0.1815577457
 40
0.2344087648
 40
0.2848288434
 40
0.3331593637
 40
0.4244680606
 40
0.5093607268
 40
0.5881539901
 40
0.660961514
 40
0.7276153992
 40
0.7878613895
 40
0.8413927511
 40
0.8878774131
 40
0.9269356155
 40
0.9581596858
 40
0.9810743166
 40
0.99518599
 40
1.0
 40
1.0
 40
1.0
 40
1.0
 10
4.1258505654
 20
4.6979128549
 30
0.0
 10
4.1277863688
 20
4.6963417231
 30
0.0
 10
4.1315119435
 20
4.6932415797
 30
0.0
 10
4.1368467297
 20
4.6885793314
 30
0.0
 10
4.1418225947
 20
4.6840331416
 30
0.0
 10
4.1479783224
 20
4.6781923842
 30
0.0
 10
4.1551758632
 20
4.6710650292
 30
0.0
 10
4.163262589
 20
4.6626330868
 30
0.0
 10
4.1707963009
 20
4.6544368305
 30
0.0
 10
4.1800502043
 20
4.6439895231
 30
0.0
 10
4.1907059958
 20
4.6314059837
 30
0.0
 10
4.2024878357
 20
4.6168521362
 30
0.0
 10
4.2131752778
 20
4.6031642692
 30
0.0
 10
4.2228865238
 20
4.5904152554
 30
0.0
 10
4.2316688601
 20
4.5786715779
 30
0.0
 10
4.239550816
 20
4.5680223196
 30
0.0
 10
4.2465227071
 20
4.5585421009
 30
0.0
 10
4.2525688946
 20
4.5503123357
 30
0.0
 10
4.2576590168
 20
4.5434126774
 30
0.0
 10
4.2617582623
 20
4.5379328872
 30
0.0
 10
4.264787276
 20
4.533940296
 30
0.0
 10
4.2666579712
 20
4.5315031759
 30
0.0
 10
4.2675108434
 20
4.5304059789
 30
0.0
 10
4.2677282941
 20
4.5301272883
 30
0.0
  0
SPLINE
  5
2B7
100
AcDbEntity
  8
ALL_FEATURES
100
AcDbSpline
 62
7
  6
CONTINUOUS
 70
0
 71
3
 72
15
 73
11
 74
0
 42
0.0000001
 43
0.0000001
 44
0.0000000001
 40
0.0
 40
0.0
 40
0.0
 40
0.0
 40
0.1254393318
 40
0.2512323634
 40
0.377059872
 40
0.5026582321
 40
0.6278289183
 40
0.7524492781
 40
0.8764844391
 40
1.0
 40
1.0
 40
1.0
 40
1.0
 10
4.6681608215
 20
4.8112263306
 30
0.0
 10
4.6448687501
 20
4.810382751
 30
0.0
 10
4.5982422335
 20
4.8079287467
 30
0.0
 10
4.5284405906
 20
4.8017365307
 30
0.0
 10
4.4589038934
 20
4.7927928331
 30
0.0
 10
4.389929777
 20
4.7808655736
 30
0.0
 10
4.3218148022
 20
4.7657218922
 30
0.0
 10
4.2548546482
 20
4.7471272022
 30
0.0
 10
4.1893501001
 20
4.7248477883
 30
0.0
 10
4.1467713666
 20
4.7073477771
 30
0.0
 10
4.1258505654
 20
4.6979128549
 30
0.0
  0
SPLINE
  5
2B8
100
AcDbEntity
  8
ALL_FEATURES
100
AcDbSpline
 62
7
  6
CONTINUOUS
 70
0
 71
3
 72
27
 73
23
 74
0
 42
0.0000001
 43
0.0000001
 44
0.0000000001
 40
0.0
 40
0.0
 40
0.0
 40
0.0
 40
0.0698794109
 40
0.1019055455
 40
0.1325025444
 40
0.1905350365
 40
0.2450668905
 40
0.2967322592
 40
0.3459414773
 40
0.4381289147
 40
0.522984905
 40
0.6010530163
 40
0.6726467432
 40
0.7377569924
 40
0.7962727399
 40
0.84800791
 40
0.8927437253
 40
0.9302062551
 40
0.9600841801
 40
0.9819671947
 40
0.9954185664
 40
1.0
 40
1.0
 40
1.0
 40
1.0
 10
4.0595835675
 20
4.6650338474
 30
0.0
 10
4.0635244168
 20
4.6621223691
 30
0.0
 10
4.0691802941
 20
4.6577510443
 30
0.0
 10
4.0763486222
 20
4.6518403019
 30
0.0
 10
4.0827821091
 20
4.6463461078
 30
0.0
 10
4.090287123
 20
4.639678394
 30
0.0
 10
4.0987109717
 20
4.6318260723
 30
0.0
 10
4.1065336402
 20
4.6242396311
 30
0.0
 10
4.116087383
 20
4.6146487336
 30
0.0
 10
4.127046962
 20
4.6031765638
 30
0.0
 10
4.1391304818
 20
4.5899861974
 30
0.0
 10
4.1500336712
 20
4.577676497
 30
0.0
 10
4.1598911584
 20
4.5662917983
 30
0.0
 10
4.1687658393
 20
4.5558703417
 30
0.0
 10
4.1766975784
 20
4.5464750221
 30
0.0
 10
4.1836880325
 20
4.5381546966
 30
0.0
 10
4.189730953
 20
4.5309663223
 30
0.0
 10
4.194804948
 20
4.5249655338
 30
0.0
 10
4.198881503
 20
4.5202199469
 30
0.0
 10
4.2018883461
 20
4.5167751653
 30
0.0
 10
4.2037427622
 20
4.5146788925
 30
0.0
 10
4.2045873244
 20
4.5137379285
 30
0.0
 10
4.2048024117
 20
4.5134993295
 30
0.0
  0
SPLINE
  5
2B9
100
AcDbEntity
  8
ALL_FEATURES
100
AcDbSpline
 62
7
  6
CONTINUOUS
 70
0
 71
3
 72
27
 73
23
 74
0
 42
0.0000001
 43
0.0000001
 44
0.0000000001
 40
0.0
 40
0.0
 40
0.0
 40
0.0
 40
0.0044158662
 40
0.0174379485
 40
0.0679493458
 40
0.1047799358
 40
0.1489610327
 40
0.2002620256
 40
0.25850343
 40
0.3235339575
 40
0.3952576182
 40
0.4736738974
 40
0.5590847772
 40
0.6520163263
 40
0.701650987
 40
0.7537561843
 40
0.8087211822
 40
0.8671471528
 40
0.897912817
 40
0.9300668418
 40
0.9639721685
 40
1.0
 40
1.0
 40
1.0
 40
1.0
 10
3.9960741357
 20
4.8585506057
 30
0.0
 10
3.9962460916
 20
4.8582984943
 30
0.0
 10
3.9969239206
 20
4.8573021
 30
0.0
 10
3.9995494009
 20
4.853408811
 30
0.0
 10
4.0033883026
 20
4.8476320309
 30
0.0
 10
4.0083783533
 20
4.8400350817
 30
0.0
 10
4.0134104758
 20
4.832400473
 30
0.0
 10
4.0192972688
 20
4.8235571119
 30
0.0
 10
4.0260588785
 20
4.8135655271
 30
0.0
 10
4.0337208498
 20
4.8024796488
 30
0.0
 10
4.0423476496
 20
4.7903672541
 30
0.0
 10
4.0520216286
 20
4.7772738953
 30
0.0
 10
4.0628977709
 20
4.7632516913
 30
0.0
 10
4.0728979829
 20
4.7510736295
 30
0.0
 10
4.0817061854
 20
4.7409037364
 30
0.0
 10
4.0889677056
 20
4.7328683081
 30
0.0
 10
4.0968356393
 20
4.7245659241
 30
0.0
 10
4.1038895603
 20
4.7175287823
 30
0.0
 10
4.1099595138
 20
4.7117421674
 30
0.0
 10
4.1148932
 20
4.7072211017
 30
0.0
 10
4.1202024701
 20
4.7025742112
 30
0.0
 10
4.1239173644
 20
4.6994818745
 30
0.0
 10
4.1258505654
 20
4.6979128549
 30
0.0
  0
SPLINE
  5
2BA
100
AcDbEntity
  8
ALL_FEATURES
100
AcDbSpline
 62
7
  6
CONTINUOUS
 70
0
 71
3
 72
26
 73
22
 74
0
 42
0.0000001
 43
0.0000001
 44
0.0000000001
 40
0.0
 40
0.0
 40
0.0
 40
0.0
 40
0.0846875259
 40
0.1575850614
 40
0.2230187402
 40
0.2827986766
 40
0.3380170904
 40
0.3894118894
 40
0.4828990046
 40
0.5660883195
 40
0.64045389
 40
0.7071002152
 40
0.766590026
 40
0.8192989385
 40
0.8653962422
 40
0.90497541
 40
0.9380323212
 40
0.9644691509
 40
0.9839085482
 40
0.9959020532
 40
1.0
 40
1.0
 40
1.0
 40
1.0
 10
3.7217836528
 20
4.380819407
 30
0.0
 10
3.7266181224
 20
4.3786957217
 30
0.0
 10
3.7355844814
 20
4.3746760936
 30
0.0
 10
3.7481817106
 20
4.3687870017
 30
0.0
 10
3.759316631
 20
4.3634390442
 30
0.0
 10
3.7694119578
 20
4.3584738877
 30
0.0
 10
3.7786854799
 20
4.3538220232
 30
0.0
 10
3.7897986311
 20
4.3481508841
 30
0.0
 10
3.8024118291
 20
4.341583093
 30
0.0
 10
3.8162371869
 20
4.3342434097
 30
0.0
 10
3.8285439199
 20
4.3276129399
 30
0.0
 10
3.8395300869
 20
4.3216470776
 30
0.0
 10
3.8493205978
 20
4.3163090495
 30
0.0
 10
3.857988854
 20
4.3115892351
 30
0.0
 10
3.8655735466
 20
4.3074754673
 30
0.0
 10
3.8720922559
 20
4.3039664436
 30
0.0
 10
3.8775451794
 20
4.3010638385
 30
0.0
 10
3.8819068164
 20
4.2987838341
 30
0.0
 10
3.8851167581
 20
4.2971358632
 30
0.0
 10
3.8870938113
 20
4.2961362164
 30
0.0
 10
3.8879921635
 20
4.2956894363
 30
0.0
 10
3.8882211699
 20
4.2955761114
 30
0.0
  0
SPLINE
  5
2BB
100
AcDbEntity
  8
ALL_FEATURES
100
AcDbSpline
 62
7
  6
CONTINUOUS
 70
0
 71
3
 72
25
 73
21
 74
0
 42
0.0000001
 43
0.0000001
 44
0.0000000001
 40
0.0
 40
0.0
 40
0.0
 40
0.0
 40
0.0843604663
 40
0.1569140179
 40
0.2220176639
 40
0.2814931018
 40
0.3875952116
 40
0.4807200769
 40
0.5636984033
 40
0.6379944432
 40
0.7046996077
 40
0.7643583474
 40
0.8173255482
 40
0.8637452326
 40
0.903684161
 40
0.9371104151
 40
0.9638965849
 40
0.9836301786
 40
0.9958265111
 40
1.0
 40
1.0
 40
1.0
 40
1.0
 10
3.7023638682
 20
4.3563732922
 30
0.0
 10
3.7072628452
 20
4.3542926454
 30
0.0
 10
3.716349327
 20
4.3503611956
 30
0.0
 10
3.7291250362
 20
4.3446163442
 30
0.0
 10
3.7404199529
 20
4.3394084731
 30
0.0
 10
3.75358517
 20
4.333203088
 30
0.0
 10
3.7682759978
 20
4.3260891701
 30
0.0
 10
3.78421847
 20
4.3181605298
 30
0.0
 10
3.798312105
 20
4.3110219697
 30
0.0
 10
3.8108819667
 20
4.3045646794
 30
0.0
 10
3.8221247727
 20
4.2987441803
 30
0.0
 10
3.8321636117
 20
4.2935251644
 30
0.0
 10
3.8410682838
 20
4.2888992091
 30
0.0
 10
3.8488739769
 20
4.2848566319
 30
0.0
 10
3.8555939559
 20
4.2813985835
 30
0.0
 10
3.8612238674
 20
4.2785295082
 30
0.0
 10
3.8657326164
 20
4.2762682255
 30
0.0
 10
3.8690544641
 20
4.2746283866
 30
0.0
 10
3.8711023004
 20
4.2736308627
 30
0.0
 10
3.8720333476
 20
4.2731838148
 30
0.0
 10
3.8722709114
 20
4.2730702416
 30
0.0
  0
SPLINE
  5
2BC
100
AcDbEntity
  8
ALL_FEATURES
100
AcDbSpline
 62
7
  6
CONTINUOUS
 70
0
 71
3
 72
26
 73
22
 74
0
 42
0.0000001
 43
0.0000001
 44
0.0000000001
 40
0.0
 40
0.0
 40
0.0
 40
0.0
 40
0.0045365369
 40
0.017870443
 40
0.0692772653
 40
0.1065462266
 40
0.1510908484
 40
0.2026426286
 40
0.2609891269
 40
0.3259523756
 40
0.3974289324
 40
0.4754227072
 40
0.5602665876
 40
0.6525371111
 40
0.7018387755
 40
0.7536409433
 40
0.8083652831
 40
0.8666608561
 40
0.8974220067
 40
0.9296389048
 40
1.0
 40
1.0
 40
1.0
 40
1.0
 10
3.9214640556
 20
4.8204621604
 30
0.0
 10
3.9216523117
 20
4.8202087201
 30
0.0
 10
3.9223929161
 20
4.8192096367
 30
0.0
 10
3.9252513106
 20
4.8153271829
 30
0.0
 10
3.9294286213
 20
4.8095871138
 30
0.0
 10
3.9348510366
 20
4.8020670491
 30
0.0
 10
3.9402961118
 20
4.7945508856
 30
0.0
 10
3.9466467825
 20
4.7858795693
 30
0.0
 10
3.9539180258
 20
4.7761215524
 30
0.0
 10
3.9621317395
 20
4.7653372686
 30
0.0
 10
3.9713492421
 20
4.753600491
 30
0.0
 10
3.9816533244
 20
4.7409605403
 30
0.0
 10
3.9932012664
 20
4.7274733576
 30
0.0
 10
4.0037889857
 20
4.7157997234
 30
0.0
 10
4.0130930623
 20
4.7060756847
 30
0.0
 10
4.0207555655
 20
4.6984004883
 30
0.0
 10
4.0290506237
 20
4.6904764895
 30
0.0
 10
4.0364761875
 20
4.6837673233
 30
0.0
 10
4.042863061
 20
4.6782497635
 30
0.0
 10
4.0499997426
 20
4.6723182216
 30
0.0
 10
4.055645203
 20
4.66794349
 30
0.0
 10
4.0595835675
 20
4.6650338474
 30
0.0
  0
SPLINE
  5
2BD
100
AcDbEntity
  8
ALL_FEATURES
100
AcDbSpline
 62
7
  6
CONTINUOUS
 70
0
 71
3
 72
14
 73
10
 74
0
 42
0.0000001
 43
0.0000001
 44
0.0000000001
 40
0.0
 40
0.0
 40
0.0
 40
0.0
 40
0.1250364303
 40
0.2500464532
 40
0.3750750811
 40
0.5001360918
 40
0.6252151912
 40
0.7502731741
 40
1.0
 40
1.0
 40
1.0
 40
1.0
 10
4.0595835675
 20
4.6650338474
 30
0.0
 10
4.0433146436
 20
4.6561996156
 30
0.0
 10
4.0112575432
 20
4.6376384334
 30
0.0
 10
3.9647214595
 20
4.60729097
 30
0.0
 10
3.9198009206
 20
4.5745929625
 30
0.0
 10
3.8765563924
 20
4.5396960357
 30
0.0
 10
3.8350437022
 20
4.5027478672
 30
0.0
 10
3.7821194702
 20
4.4509875177
 30
0.0
 10
3.7451393744
 20
4.4094830626
 30
0.0
 10
3.7217836528
 20
4.380819407
 30
0.0
  0
SPLINE
  5
2BE
100
AcDbEntity
  8
ALL_FEATURES
100
AcDbSpline
 62
7
  6
CONTINUOUS
 70
0
 71
3
 72
20
 73
16
 74
0
 42
0.0000001
 43
0.0000001
 44
0.0000000001
 40
0.0
 40
0.0
 40
0.0
 40
0.0
 40
0.017531762
 40
0.0680288816
 40
0.1046560268
 40
0.1484252553
 40
0.1992533335
 40
0.2571051199
 40
0.394087877
 40
0.4734838798
 40
0.5605503371
 40
0.6557160082
 40
0.759861507
 40
0.8740941676
 40
1.0
 40
1.0
 40
1.0
 40
1.0
 10
3.5610717062
 20
4.4759369935
 30
0.0
 10
3.5616216954
 20
4.4755372194
 30
0.0
 10
3.5637557953
 20
4.473985918
 30
0.0
 10
3.567038659
 20
4.4715990457
 30
0.0
 10
3.5711439787
 20
4.4686130053
 30
0.0
 10
3.5752607861
 20
4.4656209332
 30
0.0
 10
3.5800565775
 20
4.4621629972
 30
0.0
 10
3.5878151237
 20
4.4566331755
 30
0.0
 10
3.5965477973
 20
4.4505613939
 30
0.0
 10
3.6063051443
 20
4.4439814259
 30
0.0
 10
3.6147856765
 20
4.4384099377
 30
0.0
 10
3.6241480416
 20
4.432434174
 30
0.0
 10
3.6344992652
 20
4.4260518196
 30
0.0
 10
3.6459828073
 20
4.4192378634
 30
0.0
 10
3.6540794239
 20
4.4146340819
 30
0.0
 10
3.6583476012
 20
4.4122621107
 30
0.0
  0
LINE
  5
2BF
100
AcDbEntity
  8
ALL_FEATURES
100
AcDbLine
 62
7
  6
CONTINUOUS
 10
3.6583476012
 20
4.4122621107
 11
3.6586794687
 21
4.412077791
  0
SPLINE
  5
2C0
100
AcDbEntity
  8
ALL_FEATURES
100
AcDbSpline
 62
7
  6
CONTINUOUS
 70
0
 71
3
 72
25
 73
21
 74
0
 42
0.0000001
 43
0.0000001
 44
0.0000000001
 40
0.0
 40
0.0
 40
0.0
 40
0.0
 40
0.0155964022
 40
0.0602130252
 40
0.0924557002
 40
0.1311528843
 40
0.1763454748
 40
0.2281770635
 40
0.2868731377
 40
0.352876527
 40
0.4268307377
 40
0.5099472853
 40
0.6038323919
 40
0.6556599137
 40
0.7115096935
 40
0.7721608314
 40
0.8387612141
 40
0.8747623489
 40
0.9132056242
 40
1.0
 40
1.0
 40
1.0
 40
1.0
 10
3.542251401
 20
4.4458182092
 30
0.0
 10
3.5430405364
 20
4.4452798245
 30
0.0
 10
3.5460871007
 20
4.4432012098
 30
0.0
 10
3.5507650139
 20
4.4400095255
 30
0.0
 10
3.5566130083
 20
4.4360222167
 30
0.0
 10
3.5625097055
 20
4.4320437982
 30
0.0
 10
3.5694345171
 20
4.4274442295
 30
0.0
 10
3.577430044
 20
4.4222433693
 30
0.0
 10
3.5865592026
 20
4.4164485831
 30
0.0
 10
3.5969217906
 20
4.4100703652
 30
0.0
 10
3.6086683765
 20
4.4030897975
 30
0.0
 10
3.6220267039
 20
4.3954831381
 30
0.0
 10
3.6343432725
 20
4.3887911059
 30
0.0
 10
3.6452866143
 20
4.3830752485
 30
0.0
 10
3.6544835041
 20
4.3784141991
 30
0.0
 10
3.6645515622
 20
4.3734724141
 30
0.0
 10
3.6735883223
 20
4.3691908213
 30
0.0
 10
3.6814327954
 20
4.3655713724
 30
0.0
 10
3.6904344697
 20
4.361508332
 30
0.0
 10
3.6974706466
 20
4.3584514946
 30
0.0
 10
3.7023638682
 20
4.3563732922
 30
0.0
  0
SPLINE
  5
2C1
100
AcDbEntity
  8
ALL_FEATURES
100
AcDbSpline
 62
7
  6
CONTINUOUS
 70
0
 71
3
 72
10
 73
6
 74
0
 42
0.0000001
 43
0.0000001
 44
0.0000000001
 40
0.0
 40
0.0
 40
0.0
 40
0.0
 40
0.5025469073
 40
0.7520880554
 40
1.0
 40
1.0
 40
1.0
 40
1.0
 10
3.7023638682
 20
4.3563732922
 30
0.0
 10
3.6774814734
 20
4.3242424044
 30
0.0
 10
3.6425282577
 20
4.2743206651
 30
0.0
 10
3.6009737295
 20
4.2049268702
 30
0.0
 10
3.5819571876
 20
4.169456146
 30
0.0
 10
3.5729105106
 20
4.1515657454
 30
0.0
  0
SPLINE
  5
2C2
100
AcDbEntity
  8
ALL_FEATURES
100
AcDbSpline
 62
7
  6
CONTINUOUS
 70
0
 71
3
 72
25
 73
21
 74
0
 42
0.0000001
 43
0.0000001
 44
0.0000000001
 40
0.0
 40
0.0
 40
0.0
 40
0.0
 40
0.0049167355
 40
0.0194672501
 40
0.0433521817
 40
0.0762724106
 40
0.1178930557
 40
0.1677351517
 40
0.2252859374
 40
0.2900422629
 40
0.3614759949
 40
0.43894889
 40
0.521810705
 40
0.609469538
 40
0.7013623146
 40
0.7970143828
 40
0.8461786329
 40
0.8962612204
 40
0.9473859677
 40
1.0
 40
1.0
 40
1.0
 40
1.0
 10
4.8182587998
 20
5.0383236988
 30
0.0
 10
4.818333146
 20
5.0379516649
 30
0.0
 10
4.818626275
 20
5.0364783938
 30
0.0
 10
4.8192698496
 20
5.0331957001
 30
0.0
 10
4.8203155431
 20
5.0277898954
 30
0.0
 10
4.821735765
 20
5.0203290346
 30
0.0
 10
4.8235039753
 20
5.0108955676
 30
0.0
 10
4.8256175354
 20
4.9995931775
 30
0.0
 10
4.8280698597
 20
4.9865379722
 30
0.0
 10
4.8308605672
 20
4.9718511428
 30
0.0
 10
4.8339876839
 20
4.9556635305
 30
0.0
 10
4.8374687146
 20
4.9381215649
 30
0.0
 10
4.8413203614
 20
4.9193770886
 30
0.0
 10
4.8455923349
 20
4.8995838336
 30
0.0
 10
4.8503364832
 20
4.8788843576
 30
0.0
 10
4.8547414459
 20
4.8611564849
 30
0.0
 10
4.8586672266
 20
4.8466383383
 30
0.0
 10
4.8618938032
 20
4.835492165
 30
0.0
 10
4.8654390878
 20
4.8241633408
 30
0.0
 10
4.8681085092
 20
4.8166135367
 30
0.0
 10
4.869553684
 20
4.8128196134
 30
0.0
  0
SPLINE
  5
2C3
100
AcDbEntity
  8
ALL_FEATURES
100
AcDbSpline
 62
7
  6
CONTINUOUS
 70
0
 71
3
 72
25
 73
21
 74
0
 42
0.0000001
 43
0.0000001
 44
0.0000000001
 40
0.0
 40
0.0
 40
0.0
 40
0.0
 40
0.0527855726
 40
0.1040604333
 40
0.1542731731
 40
0.2035484829
 40
0.2993689155
 40
0.3913643622
 40
0.4790679408
 40
0.5619246006
 40
0.6393510036
 40
0.7107054071
 40
0.7753583009
 40
0.8327905121
 40
0.8825079776
 40
0.9240069981
 40
0.9568176648
 40
0.9806138339
 40
0.9951049253
 40
1.0
 40
1.0
 40
1.0
 40
1.0
 10
4.869553684
 20
4.8128196134
 30
0.0
 10
4.8709986483
 20
4.8090262426
 30
0.0
 10
4.8736695073
 20
4.8014796244
 30
0.0
 10
4.8772231439
 20
4.7901592951
 30
0.0
 10
4.8804631236
 20
4.7790267361
 30
0.0
 10
4.8844121907
 20
4.7645352161
 30
0.0
 10
4.8888569671
 20
4.746851073
 30
0.0
 10
4.89366458
 20
4.7262154164
 30
0.0
 10
4.898011465
 20
4.7064977261
 30
0.0
 10
4.9019466173
 20
4.6878375719
 30
0.0
 10
4.9055168085
 20
4.6703858056
 30
0.0
 10
4.908735892
 20
4.6542912972
 30
0.0
 10
4.9116185834
 20
4.639697599
 30
0.0
 10
4.9141599565
 20
4.6267325502
 30
0.0
 10
4.9163567016
 20
4.6155143914
 30
0.0
 10
4.9181993608
 20
4.6061562696
 30
0.0
 10
4.9196825193
 20
4.5987590427
 30
0.0
 10
4.9207767572
 20
4.5934021553
 30
0.0
 10
4.9214513475
 20
4.5901506259
 30
0.0
 10
4.9217591925
 20
4.5886919421
 30
0.0
 10
4.9218373016
 20
4.5883236988
 30
0.0
  0
ENDSEC
  0
SECTION
  2
OBJECTS
  0
DICTIONARY
  5
C
100
AcDbDictionary
280
0
281
1
  3
ACAD_GROUP
350
D
  3
ACAD_MLINESTYLE
350
17
  3
ACAD_LAYOUT
350
1A
  3
ACAD_PLOTSETTINGS
350
19
  3
ACAD_PLOTSTYLENAME
350
E
  0
DICTIONARY
  5
D
102
{ACAD_REACTORS
330
C
102
}
100
AcDbDictionary
280
0
281
1
  0
ACDBDICTIONARYWDFLT
  5
E
102
{ACAD_REACTORS
330
C
102
}
100
AcDbDictionary
281
1
  3
Normal
350
F
100
AcDbDictionaryWithDefault
340
F
  0
DICTIONARY
  5
17
102
{ACAD_REACTORS
330
C
102
}
100
AcDbDictionary
280
0
281
1
  3
Standard
350
18
  0
DICTIONARY
  5
19
102
{ACAD_REACTORS
330
C
102
}
100
AcDbDictionary
281
1
  0
DICTIONARY
  5
1A
102
{ACAD_REACTORS
330
C
102
}
100
AcDbDictionary
281
1
  3
Model
350
2C4
  3
Layout1
350
2C5
  0
ACDBPLACEHOLDER
  5
F
102
{ACAD_REACTORS
330
E
102
}
  0
MLINESTYLE
  5
18
102
{ACAD_REACTORS
330
17
102
}
100
AcDbMlineStyle
  2
STANDARD
 70
0
  3

 62
256
 51
90.0
 52
90.0
 71
2
 49
0.5
 62
256
  6
BYLAYER
 49
-0.5
 62
256
  6
BYLAYER
  0
LAYOUT
  5
2C4
102
{ACAD_REACTORS
330
1A
102
}
100
AcDbPlotSettings
  1

  2
none_device
  4
ANSI_A_(11.00_x_8.50_Inches)
  6

 40
0.0
 41
0.0
 42
0.0
 43
0.0
 44
279.4
 45
215.9
 46
0.0
 47
0.0
 48
0.0
 49
0.0
140
0.0
141
0.0
142
1.0
143
1.0
 70
1024
 72
0
 73
0
 74
0
  7

 75
0
147
1.0
148
0.0
149
0.0
100
AcDbLayout
  1
Model
 70
0
 71
0
 10
0.0
 20
0.0
 11
11.0
 21
8.5
 12
0.0
 22
0.0
 32
0.0
 14
0.0
 24
0.0
 34
0.0
 15
0.0
 25
0.0
 35
0.0
146
0.0
 13
0.0
 23
0.0
 33
0.0
 16
1.0
 26
0.0
 36
0.0
 17
0.0
 27
1.0
 37
0.0
 76
0
330
21A
345
0
346
0
  0
LAYOUT
  5
2C5
102
{ACAD_REACTORS
330
1A
102
}
100
AcDbPlotSettings
  1

  2
none_device
  4
ANSI_A_(11.00_x_8.50_Inches)
  6

 40
0.0
 41
0.0
 42
0.0
 43
0.0
 44
279.4
 45
215.9
 46
0.0
 47
0.0
 48
0.0
 49
0.0
140
0.0
141
0.0
142
1.0
143
1.0
 70
0
 72
0
 73
0
 74
0
  7

 75
0
147
1.0
148
0.0
149
0.0
100
AcDbLayout
  1
Layout1
 70
0
 71
1
 10
0.0
 20
0.0
 11
11.0
 21
8.5
 12
0.0
 22
0.0
 32
0.0
 14
0.0
 24
0.0
 34
0.0
 15
0.0
 25
0.0
 35
0.0
146
0.0
 13
0.0
 23
0.0
 33
0.0
 16
1.0
 26
0.0
 36
0.0
 17
0.0
 27
1.0
 37
0.0
 76
0
330
21B
345
0
346
0
  0
ENDSEC
  0
EOF
