999
DXF file: 3-2455_FRONT.dxf
999
Pro/ENGINEER 2018400 by Parametric Technology Corporation
  0
SECTION
  2
HEADER
  9
$ACADVER
  1
AC1027
  9
$DWGCODEPAGE
  3
ANSI_1252
  9
$EXTMAX
 10
11.0
 20
8.5
 30
0.0
  9
$EXTMIN
 10
0.0
 20
0.0
 30
0.0
  9
$LIMMIN
 10
0.0
 20
0.0
  9
$LIMMAX
 10
11.0
 20
8.5
  9
$VIEWCTR
 10
5.5
 20
4.25
  9
$VIEWSIZE
 40
8.5
  9
$CLAYER
  8
0
  9
$LTSCALE
 40
0.605
  9
$CELTYPE
  6
BYLAYER
  9
$DIMSCALE
 40
1.0
  9
$DIMASZ
 40
0.1
  9
$DIMEXO
 40
0.0625
  9
$DIMDLI
 40
0.418
  9
$DIMEXE
 40
0.125
  9
$DIMCEN
 40
0.099
  9
$DIMLFAC
 40
1.0
  9
$DIMBLK
  1
_FILLED
  9
$DIMALT
 70
1
  9
$DIMALTD
 70
2
  9
$DIMALTTD
 70
2
  9
$DIMALTF
 40
25.4
  9
$DIMTXT
 40
0.08
  9
$DIMTOL
 70
1
  9
$DIMLIM
 70
0
  9
$DIMTFAC
 40
1.0
  9
$DIMTP
 40
0.001
  9
$DIMTM
 40
0.001
  9
$DIMGAP
 40
0.09
  9
$DIMDSEP
 70
46
  9
$AUNITS
 70
0
  9
$PDMODE
 70
3
  9
$PDSIZE
 40
0.3125
  9
$HANDSEED
  5
2DC
  9
$TILEMODE
 70
1
  9
$MEASUREMENT
 70
0
  9
$INSUNITS
 70
1
  0
ENDSEC
  0
SECTION
  2
CLASSES
  0
CLASS
  1
ACDBDICTIONARYWDFLT
  2
AcDbDictionaryWithDefault
  3
AutoCAD 2000
 90
0
 91
1
280
0
281
0
  0
CLASS
  1
ACDBPLACEHOLDER
  2
AcDbPlaceHolder
  3
AutoCAD 2000
 90
0
 91
1
280
0
281
0
  0
CLASS
  1
LAYOUT
  2
AcDbLayout
  3
AutoCAD 2000
 90
0
 91
0
280
0
281
0
  0
ENDSEC
  0
SECTION
  2
TABLES
  0
TABLE
  2
VPORT
  5
8
100
AcDbSymbolTable
 70
2
  0
VPORT
  5
1F4
100
AcDbSymbolTableRecord
100
AcDbViewportTableRecord
  2
*ACTIVE
 70
0
 10
0.0
 20
0.0
 11
1.0
 21
1.0
 12
5.5
 22
4.25
 13
0.0
 23
0.0
 14
1.0
 24
1.0
 15
0.0
 25
0.0
 16
0.0
 26
0.0
 36
1.0
 17
0.0
 27
0.0
 37
0.0
 40
8.5
 41
1.2941176471
 42
50.0
 43
0.0
 44
0.0
 50
0.0
 51
0.0
 71
0
 72
100
 73
1
 74
1
 75
0
 76
0
 77
0
 78
0
  0
ENDTAB
  0
TABLE
  2
LTYPE
  5
5
100
AcDbSymbolTable
 70
6
  0
LTYPE
  5
14
100
AcDbSymbolTableRecord
100
AcDbLinetypeTableRecord
  2
BYBLOCK
 70
0
  3

 72
65
 73
0
 40
0.0
  0
LTYPE
  5
15
100
AcDbSymbolTableRecord
100
AcDbLinetypeTableRecord
  2
BYLAYER
 70
0
  3

 72
65
 73
0
 40
0.0
  0
LTYPE
  5
16
100
AcDbSymbolTableRecord
100
AcDbLinetypeTableRecord
  2
CONTINUOUS
 70
64
  3
Solid line
 72
65
 73
0
 40
0.0
  0
LTYPE
  5
1F5
100
AcDbSymbolTableRecord
100
AcDbLinetypeTableRecord
  2
CENTER
 70
64
  3
____ _ ____ _ ____ _ ____ _ ____ _ ____ _ ____
 72
65
 73
4
 40
0.6
 49
0.375
 74
0
 49
-0.075
 74
0
 49
0.075
 74
0
 49
-0.075
 74
0
  0
LTYPE
  5
1F6
100
AcDbSymbolTableRecord
100
AcDbLinetypeTableRecord
  2
HIDDEN
 70
64
  3
- - - - - - - - - - - - - - - - - - - -
 72
65
 73
2
 40
0.2
 49
0.1
 74
0
 49
-0.1
 74
0
  0
LTYPE
  5
1F7
100
AcDbSymbolTableRecord
100
AcDbLinetypeTableRecord
  2
PHANTOM
 70
64
  3
_____ _ _ _____ _ _ _____ _ _ _____
 72
65
 73
6
 40
0.8
 49
0.45
 74
0
 49
-0.05
 74
0
 49
0.1
 74
0
 49
-0.05
 74
0
 49
0.1
 74
0
 49
-0.05
 74
0
  0
LTYPE
  5
1F8
100
AcDbSymbolTableRecord
100
AcDbLinetypeTableRecord
  2
DOT
 70
64
  3
. . . . . . . . . . . . . . . . . . . .
 72
65
 73
2
 40
0.2
 49
0.1
 74
0
 49
-0.1
 74
0
  0
LTYPE
  5
1F9
100
AcDbSymbolTableRecord
100
AcDbLinetypeTableRecord
  2
DASHED
 70
64
  3
- - - - - - - - - - - - - - - - - - - -
 72
65
 73
2
 40
0.2
 49
0.1
 74
0
 49
-0.1
 74
0
  0
ENDTAB
  0
TABLE
  2
LAYER
  5
2
100
AcDbSymbolTable
 70
36
  0
LAYER
  5
10
100
AcDbSymbolTableRecord
100
AcDbLayerTableRecord
  2
0
 70
0
 62
7
  6
CONTINUOUS
370
-3
390
F
  0
LAYER
  5
1FA
100
AcDbSymbolTableRecord
100
AcDbLayerTableRecord
  2
DEFAULT_1
 70
0
 62
7
  6
CENTER
370
-3
390
F
  0
LAYER
  5
1FB
100
AcDbSymbolTableRecord
100
AcDbLayerTableRecord
  2
DEFAULT_2
 70
0
 62
8
  6
HIDDEN
370
-3
390
F
  0
LAYER
  5
1FC
100
AcDbSymbolTableRecord
100
AcDbLayerTableRecord
  2
DEFAULT_3
 70
0
 62
7
  6
PHANTOM
370
-3
390
F
  0
LAYER
  5
1FD
100
AcDbSymbolTableRecord
100
AcDbLayerTableRecord
  2
3-985_ASSY_PLANES
 70
0
 62
7
  6
CONTINUOUS
370
-3
390
F
  0
LAYER
  5
1FE
100
AcDbSymbolTableRecord
100
AcDbLayerTableRecord
  2
ALL_ASSEMBLY_MEMBERS
 70
0
 62
7
  6
CONTINUOUS
370
-3
390
F
  0
LAYER
  5
1FF
100
AcDbSymbolTableRecord
100
AcDbLayerTableRecord
  2
ALL_FEATURES
 70
0
 62
7
  6
CONTINUOUS
370
-3
390
F
  0
LAYER
  5
200
100
AcDbSymbolTableRecord
100
AcDbLayerTableRecord
  2
AXES_FEATURES
 70
0
 62
7
  6
CONTINUOUS
370
-3
390
F
  0
LAYER
  5
201
100
AcDbSymbolTableRecord
100
AcDbLayerTableRecord
  2
CHAMFER_FEATURES
 70
0
 62
7
  6
CONTINUOUS
370
-3
390
F
  0
LAYER
  5
202
100
AcDbSymbolTableRecord
100
AcDbLayerTableRecord
  2
COORDINATE_SYSTEMS
 70
0
 62
7
  6
CONTINUOUS
370
-3
390
F
  0
LAYER
  5
203
100
AcDbSymbolTableRecord
100
AcDbLayerTableRecord
  2
CUT_FEATURES
 70
0
 62
7
  6
CONTINUOUS
370
-3
390
F
  0
LAYER
  5
204
100
AcDbSymbolTableRecord
100
AcDbLayerTableRecord
  2
CYAN
 70
0
 62
7
  6
CONTINUOUS
370
-3
390
F
  0
LAYER
  5
205
100
AcDbSymbolTableRecord
100
AcDbLayerTableRecord
  2
DATUM_CURVES
 70
0
 62
7
  6
CONTINUOUS
370
-3
390
F
  0
LAYER
  5
206
100
AcDbSymbolTableRecord
100
AcDbLayerTableRecord
  2
DATUM_PLANES
 70
0
 62
7
  6
CONTINUOUS
370
-3
390
F
  0
LAYER
  5
207
100
AcDbSymbolTableRecord
100
AcDbLayerTableRecord
  2
DATUM_POINTS
 70
0
 62
7
  6
CONTINUOUS
370
-3
390
F
  0
LAYER
  5
208
100
AcDbSymbolTableRecord
100
AcDbLayerTableRecord
  2
DEFAULT_COORDINATE_SYSTEM
 70
0
 62
7
  6
CONTINUOUS
370
-3
390
F
  0
LAYER
  5
209
100
AcDbSymbolTableRecord
100
AcDbLayerTableRecord
  2
DEFAULT_DATUM_AXES
 70
0
 62
7
  6
CONTINUOUS
370
-3
390
F
  0
LAYER
  5
20A
100
AcDbSymbolTableRecord
100
AcDbLayerTableRecord
  2
DEFAULT_DATUM_CURVES
 70
0
 62
7
  6
CONTINUOUS
370
-3
390
F
  0
LAYER
  5
20B
100
AcDbSymbolTableRecord
100
AcDbLayerTableRecord
  2
DEFAULT_DATUM_PLANES
 70
0
 62
7
  6
CONTINUOUS
370
-3
390
F
  0
LAYER
  5
20C
100
AcDbSymbolTableRecord
100
AcDbLayerTableRecord
  2
DEFAULT_SURFACES
 70
0
 62
7
  6
CONTINUOUS
370
-3
390
F
  0
LAYER
  5
20D
100
AcDbSymbolTableRecord
100
AcDbLayerTableRecord
  2
DIMENSIONS
 70
0
 62
7
  6
CONTINUOUS
370
-3
390
F
  0
LAYER
  5
20E
100
AcDbSymbolTableRecord
100
AcDbLayerTableRecord
  2
HOLE_FEATURES
 70
0
 62
7
  6
CONTINUOUS
370
-3
390
F
  0
LAYER
  5
20F
100
AcDbSymbolTableRecord
100
AcDbLayerTableRecord
  2
PART_REFERENCE_DIMENSIONS
 70
0
 62
7
  6
CONTINUOUS
370
-3
390
F
  0
LAYER
  5
210
100
AcDbSymbolTableRecord
100
AcDbLayerTableRecord
  2
PLATED_SURFACE_AREA
 70
0
 62
7
  6
CONTINUOUS
370
-3
390
F
  0
LAYER
  5
211
100
AcDbSymbolTableRecord
100
AcDbLayerTableRecord
  2
POINTS
 70
0
 62
7
  6
CONTINUOUS
370
-3
390
F
  0
LAYER
  5
212
100
AcDbSymbolTableRecord
100
AcDbLayerTableRecord
  2
PROTRUSION_FEATURES
 70
0
 62
7
  6
CONTINUOUS
370
-3
390
F
  0
LAYER
  5
213
100
AcDbSymbolTableRecord
100
AcDbLayerTableRecord
  2
QUILTS
 70
0
 62
7
  6
CONTINUOUS
370
-3
390
F
  0
LAYER
  5
214
100
AcDbSymbolTableRecord
100
AcDbLayerTableRecord
  2
REFERENCE_DIMENSIONS
 70
0
 62
7
  6
CONTINUOUS
370
-3
390
F
  0
LAYER
  5
215
100
AcDbSymbolTableRecord
100
AcDbLayerTableRecord
  2
ROUND_FEATURES
 70
0
 62
7
  6
CONTINUOUS
370
-3
390
F
  0
LAYER
  5
216
100
AcDbSymbolTableRecord
100
AcDbLayerTableRecord
  2
SURFACE_FEATURES
 70
0
 62
7
  6
CONTINUOUS
370
-3
390
F
  0
LAYER
  5
217
100
AcDbSymbolTableRecord
100
AcDbLayerTableRecord
  2
SURFACE_FINISH_SYMBOLS
 70
0
 62
7
  6
CONTINUOUS
370
-3
390
F
  0
LAYER
  5
218
100
AcDbSymbolTableRecord
100
AcDbLayerTableRecord
  2
WETTED_SURFACES
 70
0
 62
7
  6
CONTINUOUS
370
-3
390
F
  0
LAYER
  5
219
100
AcDbSymbolTableRecord
100
AcDbLayerTableRecord
  2
WETTED_SURFACE_AREA
 70
0
 62
7
  6
CONTINUOUS
370
-3
390
F
  0
LAYER
  5
21A
100
AcDbSymbolTableRecord
100
AcDbLayerTableRecord
  2
WHITE
 70
0
 62
7
  6
CONTINUOUS
370
-3
390
F
  0
ENDTAB
  0
TABLE
  2
STYLE
  5
3
100
AcDbSymbolTable
 70
1
  0
STYLE
  5
11
100
AcDbSymbolTableRecord
100
AcDbTextStyleTableRecord
  2
STANDARD
 70
0
 40
0.0
 41
0.8
 50
0.0
 71
0
 42
0.2
  3
txt
  4

  0
STYLE
  5
21B
100
AcDbSymbolTableRecord
100
AcDbTextStyleTableRecord
  2
TEXTSTYLE_1
 70
0
 40
0.0
 41
0.8
 50
0.0
 71
0
 42
0.2
  3
gdt
  4

  0
ENDTAB
  0
TABLE
  2
VIEW
  5
6
100
AcDbSymbolTable
 70
0
  0
ENDTAB
  0
TABLE
  2
UCS
  5
7
100
AcDbSymbolTable
 70
0
  0
ENDTAB
  0
TABLE
  2
APPID
  5
9
100
AcDbSymbolTable
 70
1
  0
APPID
  5
21C
100
AcDbSymbolTableRecord
100
AcDbRegAppTableRecord
  2
ACAD
 70
0
  0
ENDTAB
  0
TABLE
  2
BLOCK_RECORD
  5
1
100
AcDbSymbolTable
 70
0
  0
BLOCK_RECORD
  5
21D
100
AcDbSymbolTableRecord
100
AcDbBlockTableRecord
  2
*Model_Space
  0
BLOCK_RECORD
  5
21E
100
AcDbSymbolTableRecord
100
AcDbBlockTableRecord
  2
*Paper_Space
  0
BLOCK_RECORD
  5
21F
100
AcDbSymbolTableRecord
100
AcDbBlockTableRecord
  2
_FILLED
  0
ENDTAB
  0
TABLE
  2
DIMSTYLE
  5
A
100
AcDbSymbolTable
 70
1
100
AcDbDimStyleTable
 71
0
  0
DIMSTYLE
105
220
100
AcDbSymbolTableRecord
100
AcDbDimStyleTableRecord
  2
STANDARD
 70
0
  3

  4

 40
1.0
 41
0.1
 42
0.0625
 43
0.38
 44
0.125
 45
0.0
 46
0.0
 47
0.001
 48
0.001
140
0.08
141
0.09
142
0.0
143
25.4
144
1.0
145
0.0
146
1.0
147
0.09
 71
1.0
 72
0.0
 73
1
 74
1
 75
0
 76
0
 77
0
 78
4
 79
1
170
1
171
2
172
0
173
0
174
0
175
0
176
0
177
0
178
0
270
2
179
3
271
3
272
3
273
2
274
2
275
0
280
0
281
0
282
0
283
1
284
4
285
0
286
0
287
3
288
0
340
11
278
46
341
21F
342
21F
343
21F
344
21F
  0
ENDTAB
  0
ENDSEC
  0
SECTION
  2
BLOCKS
  0
BLOCK
  5
20
100
AcDbEntity
  8
0
100
AcDbBlockBegin
  2
*Model_Space
 70
0
 10
0.0
 20
0.0
 30
0.0
  3
*Model_Space
  1

  0
ENDBLK
  5
21
100
AcDbEntity
  8
0
100
AcDbBlockEnd
  0
BLOCK
  5
1C
100
AcDbEntity
  8
0
100
AcDbBlockBegin
  2
*Paper_Space
 70
0
 10
0.0
 20
0.0
 30
0.0
  3
*Paper_Space
  1

  0
ENDBLK
  5
1D
100
AcDbEntity
  8
0
100
AcDbBlockEnd
  0
BLOCK
  5
221
100
AcDbEntity
  8
0
100
AcDbBlockBegin
  2
_FILLED
 70
64
 10
0.0
 20
0.0
  3
_FILLED
  1

  0
SOLID
  5
222
100
AcDbEntity
  8
0
  6
BYBLOCK
 62
0
100
AcDbTrace
 10
0.0
 20
0.0
 11
-1.0
 21
0.2
 12
-1.0
 22
-0.2
 13
-1.0
 23
-0.2
  0
ENDBLK
  5
223
100
AcDbEntity
  8
0
  6
BYBLOCK
 62
0
100
AcDbBlockEnd
  0
ENDSEC
  0
SECTION
  2
ENTITIES
  0
MTEXT
  5
224
100
AcDbEntity
  8
0
100
AcDbMText
 62
2
  6
CONTINUOUS
  7
STANDARD
 71
3
 72
1
 10
2.8655085404
 20
1.3046491738
 30
0.0
 11
1.0
 21
0.0
 31
0.0
 73
2
 44
0.9
  1
SCALE  .500
 40
0.08
 41
0.704
  0
LINE
  5
225
100
AcDbEntity
  8
0
100
AcDbLine
 62
7
  6
CONTINUOUS
 10
0.0
 20
0.0
 11
0.0
 21
8.5
  0
LINE
  5
226
100
AcDbEntity
  8
0
100
AcDbLine
 62
7
  6
CONTINUOUS
 10
0.0
 20
0.0
 11
11.0
 21
0.0
  0
LINE
  5
227
100
AcDbEntity
  8
0
100
AcDbLine
 62
7
  6
CONTINUOUS
 10
0.0
 20
8.5
 11
11.0
 21
8.5
  0
LINE
  5
228
100
AcDbEntity
  8
0
100
AcDbLine
 62
7
  6
CONTINUOUS
 10
11.0
 20
0.0
 11
11.0
 21
8.5
  0
LINE
  5
229
100
AcDbEntity
  8
ALL_ASSEMBLY_MEMBERS
100
AcDbLine
 62
7
  6
CONTINUOUS
 10
1.8639557453
 20
6.2065381069
 11
1.8639557453
 21
6.4560424275
  0
LINE
  5
22A
100
AcDbEntity
  8
ALL_ASSEMBLY_MEMBERS
100
AcDbLine
 62
7
  6
CONTINUOUS
 10
1.8751994001
 20
6.1831244461
 11
1.8751994001
 21
6.4794560883
  0
LINE
  5
22B
100
AcDbEntity
  8
ALL_ASSEMBLY_MEMBERS
100
AcDbLine
 62
7
  6
CONTINUOUS
 10
1.9239786488
 20
6.1079316655
 11
1.9239786488
 21
6.5546488689
  0
LINE
  5
22C
100
AcDbEntity
  8
ALL_ASSEMBLY_MEMBERS
100
AcDbLine
 62
7
  6
CONTINUOUS
 10
1.9530043096
 20
6.0855152672
 11
1.9530043096
 21
6.5770652672
  0
LINE
  5
22D
100
AcDbEntity
  8
ALL_ASSEMBLY_MEMBERS
100
AcDbLine
 62
7
  6
CONTINUOUS
 10
1.9639557453
 20
6.0855152672
 11
1.9639557453
 21
6.5770652672
  0
LINE
  5
22E
100
AcDbEntity
  8
ALL_ASSEMBLY_MEMBERS
100
AcDbLine
 62
7
  6
CONTINUOUS
 10
1.9839557453
 20
6.1055152672
 11
1.9839557453
 21
6.5570652672
  0
LINE
  5
22F
100
AcDbEntity
  8
ALL_ASSEMBLY_MEMBERS
100
AcDbLine
 62
7
  6
CONTINUOUS
 10
3.0714557453
 20
6.1917902672
 11
3.0714557453
 21
6.4707902672
  0
LINE
  5
230
100
AcDbEntity
  8
ALL_ASSEMBLY_MEMBERS
100
AcDbLine
 62
7
  6
CONTINUOUS
 10
3.1116434395
 20
6.1679382797
 11
3.1116434395
 21
6.4946422548
  0
LINE
  5
231
100
AcDbEntity
  8
ALL_ASSEMBLY_MEMBERS
100
AcDbLine
 62
7
  6
CONTINUOUS
 10
3.2454546327
 20
6.1801004086
 11
3.2454546327
 21
6.4824801258
  0
LINE
  5
232
100
AcDbEntity
  8
ALL_ASSEMBLY_MEMBERS
100
AcDbLine
 62
7
  6
CONTINUOUS
 10
3.2689557453
 20
6.1997915795
 11
3.2689557453
 21
6.462788955
  0
LINE
  5
233
100
AcDbEntity
  8
ALL_ASSEMBLY_MEMBERS
100
AcDbLine
 62
7
  6
CONTINUOUS
 10
3.3199557453
 20
6.4466152672
 11
3.3199557453
 21
6.2159652672
  0
LINE
  5
234
100
AcDbEntity
  8
ALL_ASSEMBLY_MEMBERS
100
AcDbLine
 62
7
  6
CONTINUOUS
 10
5.4721059369
 20
3.6311288511
 11
5.4814557453
 21
3.6312902672
  0
LINE
  5
235
100
AcDbEntity
  8
ALL_ASSEMBLY_MEMBERS
100
AcDbLine
 62
7
  6
CONTINUOUS
 10
5.4814557453
 20
3.6312902672
 11
5.490867531
 21
3.6311267001
  0
LINE
  5
236
100
AcDbEntity
  8
ALL_ASSEMBLY_MEMBERS
100
AcDbLine
 62
7
  6
CONTINUOUS
 10
5.0057057453
 20
2.4965753177
 11
5.0057778846
 21
2.497298933
  0
LINE
  5
237
100
AcDbEntity
  8
ALL_ASSEMBLY_MEMBERS
100
AcDbLine
 62
7
  6
CONTINUOUS
 10
4.9308543838
 20
2.497979587
 11
4.9307057453
 21
2.4965753177
  0
LINE
  5
238
100
AcDbEntity
  8
ALL_ASSEMBLY_MEMBERS
100
AcDbLine
 62
7
  6
CONTINUOUS
 10
5.4814557453
 20
3.6312902672
 11
5.4814557453
 21
2.5558461821
  0
LINE
  5
239
100
AcDbEntity
  8
ALL_ASSEMBLY_MEMBERS
100
AcDbLine
 62
7
  6
CONTINUOUS
 10
5.4814557453
 20
2.536768302
 11
5.4814557453
 21
2.4566130461
  0
LINE
  5
23A
100
AcDbEntity
  8
ALL_ASSEMBLY_MEMBERS
100
AcDbLine
 62
7
  6
CONTINUOUS
 10
5.183578191
 20
3.3667996206
 11
5.1834999498
 21
3.3661394846
  0
LINE
  5
23B
100
AcDbEntity
  8
ALL_ASSEMBLY_MEMBERS
100
AcDbLine
 62
7
  6
CONTINUOUS
 10
5.1836002604
 20
3.3667969802
 11
5.1835038824
 21
3.3661390229
  0
LINE
  5
23C
100
AcDbEntity
  8
ALL_ASSEMBLY_MEMBERS
100
AcDbLine
 62
7
  6
CONTINUOUS
 10
5.186567141
 20
3.3698625636
 11
5.1865547265
 21
3.369812037
  0
LINE
  5
23D
100
AcDbEntity
  8
ALL_ASSEMBLY_MEMBERS
100
AcDbLine
 62
7
  6
CONTINUOUS
 10
5.1865547265
 20
3.369812037
 11
5.1864889128
 21
3.3695487358
  0
LINE
  5
23E
100
AcDbEntity
  8
ALL_ASSEMBLY_MEMBERS
100
AcDbLine
 62
7
  6
CONTINUOUS
 10
5.1864889128
 20
3.3695487358
 11
5.1863621467
 21
3.3690514465
  0
LINE
  5
23F
100
AcDbEntity
  8
ALL_ASSEMBLY_MEMBERS
100
AcDbLine
 62
7
  6
CONTINUOUS
 10
5.1863621467
 20
3.3690514465
 11
5.1862410751
 21
3.3685837887
  0
LWPOLYLINE
  5
240
100
AcDbEntity
  8
ALL_ASSEMBLY_MEMBERS
100
AcDbPolyline
 62
7
  6
CONTINUOUS
 90
10
 70
0
 10
4.9967914424
 20
2.771395532
 10
4.9895268429
 20
2.7448461083
 10
4.9813390594
 20
2.7141412517
 10
4.9733247697
 20
2.6831892171
 10
4.9655110107
 20
2.6520441149
 10
4.9579167434
 20
2.6207311071
 10
4.9505537172
 20
2.5892449729
 10
4.9434403163
 20
2.5576066401
 10
4.9366007244
 20
2.5258646438
 10
4.9308459744
 20
2.4979796909
  0
LWPOLYLINE
  5
241
100
AcDbEntity
  8
ALL_ASSEMBLY_MEMBERS
100
AcDbPolyline
 62
7
  6
CONTINUOUS
 90
3
 70
0
 10
5.8349419808
 20
3.1883299222
 10
5.8232000368
 20
3.2233242157
 10
5.8185597636
 20
3.2371868479
  0
LWPOLYLINE
  5
242
100
AcDbEntity
  8
ALL_ASSEMBLY_MEMBERS
100
AcDbPolyline
 62
7
  6
CONTINUOUS
 90
13
 70
0
 10
5.8185570283
 20
3.2371950265
 10
5.8132743247
 20
3.2530259955
 10
5.8078363183
 20
3.2694075281
 10
5.8028084361
 20
3.2846551327
 10
5.7981724783
 20
3.2988298255
 10
5.7939465714
 20
3.3118797186
 10
5.7901806293
 20
3.3236491921
 10
5.7868564941
 20
3.3341887376
 10
5.7839676968
 20
3.3435097764
 10
5.7815703543
 20
3.3514110575
 10
5.7796651915
 20
3.3578520293
 10
5.7782015334
 20
3.362956376
 10
5.777225803
 20
3.3664915055
  0
LWPOLYLINE
  5
243
100
AcDbEntity
  8
ALL_ASSEMBLY_MEMBERS
100
AcDbPolyline
 62
7
  6
CONTINUOUS
 90
5
 70
0
 10
5.8792163133
 20
3.0558270917
 10
5.8716921399
 20
3.078625034
 10
5.8635692357
 20
3.1030463481
 10
5.8557982315
 20
3.1262680292
 10
5.8349419808
 20
3.1883299222
  0
LWPOLYLINE
  5
244
100
AcDbEntity
  8
ALL_ASSEMBLY_MEMBERS
100
AcDbPolyline
 62
7
  6
CONTINUOUS
 90
9
 70
0
 10
5.9432380945
 20
2.8514667949
 10
5.9346794902
 20
2.8802407329
 10
5.9261983909
 20
2.9082180969
 10
5.917823971
 20
2.9353723135
 10
5.9095778302
 20
2.9616996129
 10
5.9014741055
 20
2.9872172088
 10
5.8935326304
 20
3.0119217
 10
5.8857788744
 20
3.0357908357
 10
5.8792168109
 20
3.0558255778
  0
LINE
  5
245
100
AcDbEntity
  8
ALL_ASSEMBLY_MEMBERS
100
AcDbLine
 62
7
  6
CONTINUOUS
 10
5.9517227309
 20
2.8223459366
 11
5.9432380945
 21
2.8514667949
  0
LINE
  5
246
100
AcDbEntity
  8
ALL_ASSEMBLY_MEMBERS
100
AcDbLine
 62
7
  6
CONTINUOUS
 10
5.9555967891
 20
2.8088357858
 11
5.9517227309
 21
2.8223459366
  0
LINE
  5
247
100
AcDbEntity
  8
ALL_ASSEMBLY_MEMBERS
100
AcDbLine
 62
7
  6
CONTINUOUS
 10
5.9594519795
 20
2.7952498731
 11
5.9555967891
 21
2.8088357858
  0
LINE
  5
248
100
AcDbEntity
  8
ALL_ASSEMBLY_MEMBERS
100
AcDbLine
 62
7
  6
CONTINUOUS
 10
5.9632866773
 20
2.7815886405
 11
5.9594519795
 21
2.7952498731
  0
LINE
  5
249
100
AcDbEntity
  8
ALL_ASSEMBLY_MEMBERS
100
AcDbLine
 62
7
  6
CONTINUOUS
 10
5.9661201349
 20
2.7713952189
 11
5.9632866773
 21
2.7815886405
  0
LINE
  5
24A
100
AcDbEntity
  8
ALL_ASSEMBLY_MEMBERS
100
AcDbLine
 62
7
  6
CONTINUOUS
 10
5.7772169929
 20
3.3665242117
 11
5.777225803
 21
3.3664915055
  0
LINE
  5
24B
100
AcDbEntity
  8
ALL_ASSEMBLY_MEMBERS
100
AcDbLine
 62
7
  6
CONTINUOUS
 10
5.7772169929
 20
3.3665242117
 11
5.776881384
 21
3.367780472
  0
LINE
  5
24C
100
AcDbEntity
  8
ALL_ASSEMBLY_MEMBERS
100
AcDbLine
 62
7
  6
CONTINUOUS
 10
5.776881384
 20
3.367780472
 11
5.7766435893
 21
3.368686922
  0
LINE
  5
24D
100
AcDbEntity
  8
ALL_ASSEMBLY_MEMBERS
100
AcDbLine
 62
7
  6
CONTINUOUS
 10
5.7766435893
 20
3.368686922
 11
5.7764756393
 21
3.36933939
  0
LINE
  5
24E
100
AcDbEntity
  8
ALL_ASSEMBLY_MEMBERS
100
AcDbLine
 62
7
  6
CONTINUOUS
 10
5.7764756393
 20
3.36933939
 11
5.7763864167
 21
3.3696927436
  0
LWPOLYLINE
  5
24F
100
AcDbEntity
  8
ALL_ASSEMBLY_MEMBERS
100
AcDbPolyline
 62
7
  6
CONTINUOUS
 90
3
 70
0
 10
5.7763864167
 20
3.3696927436
 10
5.7763467449
 20
3.3698527604
 10
5.7763462629
 20
3.3698547291
  0
LINE
  5
250
100
AcDbEntity
  8
ALL_ASSEMBLY_MEMBERS
100
AcDbLine
 62
7
  6
CONTINUOUS
 10
6.0322057453
 20
2.4965753177
 11
6.032057113
 21
2.4979795871
  0
LINE
  5
251
100
AcDbEntity
  8
ALL_ASSEMBLY_MEMBERS
100
AcDbLine
 62
7
  6
CONTINUOUS
 10
5.95713342
 20
2.4972989307
 11
5.9572057453
 21
2.4965753177
  0
LINE
  5
252
100
AcDbEntity
  8
ALL_ASSEMBLY_MEMBERS
100
AcDbLine
 62
7
  6
CONTINUOUS
 10
5.1862410751
 20
3.3685837887
 11
5.1859525714
 21
3.3674881591
  0
LINE
  5
253
100
AcDbEntity
  8
ALL_ASSEMBLY_MEMBERS
100
AcDbLine
 62
7
  6
CONTINUOUS
 10
5.1856856877
 20
3.3664915055
 11
5.1859525714
 21
3.3674881591
  0
LWPOLYLINE
  5
254
100
AcDbEntity
  8
ALL_ASSEMBLY_MEMBERS
100
AcDbPolyline
 62
7
  6
CONTINUOUS
 90
13
 70
0
 10
5.1856856877
 20
3.3664915055
 10
5.1847099573
 20
3.362956376
 10
5.1832462991
 20
3.3578520293
 10
5.1813411364
 20
3.3514110575
 10
5.1789437938
 20
3.3435097764
 10
5.1760549966
 20
3.3341887376
 10
5.1727308613
 20
3.3236491921
 10
5.1689649193
 20
3.3118797186
 10
5.1647390124
 20
3.2988298255
 10
5.1601030546
 20
3.2846551327
 10
5.1550751723
 20
3.2694075281
 10
5.1496371659
 20
3.2530259955
 10
5.1443544624
 20
3.2371950265
  0
LWPOLYLINE
  5
255
100
AcDbEntity
  8
ALL_ASSEMBLY_MEMBERS
100
AcDbPolyline
 62
7
  6
CONTINUOUS
 90
3
 70
0
 10
4.9996248134
 20
2.7815886405
 10
4.997715827
 20
2.7747305279
 10
4.9967913558
 20
2.7713952189
  0
LINE
  5
256
100
AcDbEntity
  8
ALL_ASSEMBLY_MEMBERS
100
AcDbLine
 62
7
  6
CONTINUOUS
 10
5.0034595111
 20
2.7952498731
 11
4.9996248134
 21
2.7815886405
  0
LINE
  5
257
100
AcDbEntity
  8
ALL_ASSEMBLY_MEMBERS
100
AcDbLine
 62
7
  6
CONTINUOUS
 10
5.0073147016
 20
2.8088357858
 11
5.0034595111
 21
2.7952498731
  0
LINE
  5
258
100
AcDbEntity
  8
ALL_ASSEMBLY_MEMBERS
100
AcDbLine
 62
7
  6
CONTINUOUS
 10
5.0120519763
 20
2.8253375682
 11
5.0073147016
 21
2.8088357858
  0
LWPOLYLINE
  5
259
100
AcDbEntity
  8
ALL_ASSEMBLY_MEMBERS
100
AcDbPolyline
 62
7
  6
CONTINUOUS
 90
10
 70
0
 10
5.0836946798
 20
3.0558255778
 10
5.0771326163
 20
3.0357908357
 10
5.0693788603
 20
3.0119217
 10
5.0614373851
 20
2.9872172088
 10
5.0533336604
 20
2.9616996129
 10
5.0450875197
 20
2.9353723135
 10
5.0367130998
 20
2.9082180969
 10
5.0282320005
 20
2.8802407329
 10
5.0196733962
 20
2.8514667949
 10
5.0120518143
 20
2.8253370073
  0
LWPOLYLINE
  5
25A
100
AcDbEntity
  8
ALL_ASSEMBLY_MEMBERS
100
AcDbPolyline
 62
7
  6
CONTINUOUS
 90
4
 70
0
 10
5.1071132592
 20
3.1262680292
 10
5.099342255
 20
3.1030463481
 10
5.0912193508
 20
3.078625034
 10
5.0836951774
 20
3.0558270917
  0
LINE
  5
25B
100
AcDbEntity
  8
ALL_ASSEMBLY_MEMBERS
100
AcDbLine
 62
7
  6
CONTINUOUS
 10
5.1443517271
 20
3.2371868479
 11
5.1340508672
 21
3.2064422605
  0
LINE
  5
25C
100
AcDbEntity
  8
ALL_ASSEMBLY_MEMBERS
100
AcDbLine
 62
7
  6
CONTINUOUS
 10
5.1340508672
 20
3.2064422605
 11
5.1071132592
 21
3.1262680292
  0
LWPOLYLINE
  5
25D
100
AcDbEntity
  8
ALL_ASSEMBLY_MEMBERS
100
AcDbPolyline
 62
7
  6
CONTINUOUS
 90
10
 70
0
 10
6.0320655163
 20
2.4979796909
 10
6.0263107663
 20
2.5258646438
 10
6.0194711744
 20
2.5576066401
 10
6.0123577734
 20
2.5892449729
 10
6.0049947473
 20
2.6207311071
 10
5.99740048
 20
2.6520441149
 10
5.989586721
 20
2.6831892171
 10
5.9815724313
 20
2.7141412517
 10
5.9733846477
 20
2.7448461083
 10
5.9661200483
 20
2.771395532
  0
LINE
  5
25E
100
AcDbEntity
  8
ALL_ASSEMBLY_MEMBERS
100
AcDbLine
 62
7
  6
CONTINUOUS
 10
5.7794076083
 20
3.3661390229
 11
5.7793112303
 21
3.3667969802
  0
LINE
  5
25F
100
AcDbEntity
  8
ALL_ASSEMBLY_MEMBERS
100
AcDbLine
 62
7
  6
CONTINUOUS
 10
5.7794115409
 20
3.3661394846
 11
5.7793332997
 21
3.3667996206
  0
LINE
  5
260
100
AcDbEntity
  8
ALL_ASSEMBLY_MEMBERS
100
AcDbLine
 62
7
  6
CONTINUOUS
 10
1.9639557453
 20
6.0855152672
 11
1.9530043096
 21
6.0855152672
  0
LINE
  5
261
100
AcDbEntity
  8
ALL_ASSEMBLY_MEMBERS
100
AcDbLine
 62
7
  6
CONTINUOUS
 10
9.0014557453
 20
6.0855152672
 11
9.0124071811
 21
6.0855152672
  0
LINE
  5
262
100
AcDbEntity
  8
ALL_ASSEMBLY_MEMBERS
100
AcDbLine
 62
7
  6
CONTINUOUS
 10
3.3199557453
 20
6.2159652672
 11
3.2689557453
 21
6.2159652672
  0
LINE
  5
263
100
AcDbEntity
  8
ALL_ASSEMBLY_MEMBERS
100
AcDbLine
 62
7
  6
CONTINUOUS
 10
7.6454557453
 20
6.2159652672
 11
7.6964557453
 21
6.2159652672
  0
LINE
  5
264
100
AcDbEntity
  8
ALL_ASSEMBLY_MEMBERS
100
AcDbLine
 62
7
  6
CONTINUOUS
 10
3.3199557453
 20
6.4466152672
 11
3.2689557453
 21
6.4466152672
  0
LINE
  5
265
100
AcDbEntity
  8
ALL_ASSEMBLY_MEMBERS
100
AcDbLine
 62
7
  6
CONTINUOUS
 10
7.6454557453
 20
6.4466152672
 11
7.6964557453
 21
6.4466152672
  0
LINE
  5
266
100
AcDbEntity
  8
ALL_ASSEMBLY_MEMBERS
100
AcDbLine
 62
7
  6
CONTINUOUS
 10
1.9639557453
 20
6.5770652672
 11
1.9530043096
 21
6.5770652672
  0
LINE
  5
267
100
AcDbEntity
  8
ALL_ASSEMBLY_MEMBERS
100
AcDbLine
 62
7
  6
CONTINUOUS
 10
9.0014557453
 20
6.5770652672
 11
9.0124071811
 21
6.5770652672
  0
LINE
  5
268
100
AcDbEntity
  8
ALL_ASSEMBLY_MEMBERS
100
AcDbLine
 62
7
  6
CONTINUOUS
 10
7.6454557453
 20
6.2159652672
 11
7.6454557453
 21
6.4466152672
  0
LINE
  5
269
100
AcDbEntity
  8
ALL_ASSEMBLY_MEMBERS
100
AcDbLine
 62
7
  6
CONTINUOUS
 10
7.6964557453
 20
6.462788955
 11
7.6964557453
 21
6.1997915795
  0
LINE
  5
26A
100
AcDbEntity
  8
ALL_ASSEMBLY_MEMBERS
100
AcDbLine
 62
7
  6
CONTINUOUS
 10
7.719956858
 20
6.4824801258
 11
7.719956858
 21
6.1801004086
  0
LINE
  5
26B
100
AcDbEntity
  8
ALL_ASSEMBLY_MEMBERS
100
AcDbLine
 62
7
  6
CONTINUOUS
 10
7.8537680511
 20
6.4946422548
 11
7.8537680511
 21
6.1679382797
  0
LINE
  5
26C
100
AcDbEntity
  8
ALL_ASSEMBLY_MEMBERS
100
AcDbLine
 62
7
  6
CONTINUOUS
 10
7.8939557453
 20
6.4707902672
 11
7.8939557453
 21
6.1917902672
  0
LINE
  5
26D
100
AcDbEntity
  8
ALL_ASSEMBLY_MEMBERS
100
AcDbLine
 62
7
  6
CONTINUOUS
 10
8.9814557453
 20
6.5570652672
 11
8.9814557453
 21
6.1055152672
  0
LINE
  5
26E
100
AcDbEntity
  8
ALL_ASSEMBLY_MEMBERS
100
AcDbLine
 62
7
  6
CONTINUOUS
 10
9.0014557453
 20
6.5770652672
 11
9.0014557453
 21
6.0855152672
  0
LINE
  5
26F
100
AcDbEntity
  8
ALL_ASSEMBLY_MEMBERS
100
AcDbLine
 62
7
  6
CONTINUOUS
 10
9.0124071811
 20
6.5770652672
 11
9.0124071811
 21
6.0855152672
  0
LINE
  5
270
100
AcDbEntity
  8
ALL_ASSEMBLY_MEMBERS
100
AcDbLine
 62
7
  6
CONTINUOUS
 10
9.0414328419
 20
6.5546488689
 11
9.0414328419
 21
6.1079316655
  0
LINE
  5
271
100
AcDbEntity
  8
ALL_ASSEMBLY_MEMBERS
100
AcDbLine
 62
7
  6
CONTINUOUS
 10
9.0902120906
 20
6.4794560883
 11
9.0902120906
 21
6.1831244461
  0
LINE
  5
272
100
AcDbEntity
  8
ALL_ASSEMBLY_MEMBERS
100
AcDbLine
 62
7
  6
CONTINUOUS
 10
9.1014557453
 20
6.4560424275
 11
9.1014557453
 21
6.2065381069
  0
ARC
  5
273
100
AcDbEntity
  8
ALL_ASSEMBLY_MEMBERS
100
AcDbCircle
 62
7
  6
CONTINUOUS
 10
0.9775083372
 20
-14.4245533349
 40
21.0
100
AcDbArc
 50
84.2774261872
 51
87.2529863377
  0
ARC
  5
274
100
AcDbEntity
  8
ALL_ASSEMBLY_MEMBERS
100
AcDbCircle
 62
7
  6
CONTINUOUS
 10
5.4814557453
 20
3.3312902672
 40
0.62
100
AcDbArc
 50
316.1136091337
 51
223.8872375202
  0
ARC
  5
275
100
AcDbEntity
  8
ALL_ASSEMBLY_MEMBERS
100
AcDbCircle
 62
7
  6
CONTINUOUS
 10
5.4814557453
 20
3.3312902672
 40
0.5893641683
100
AcDbArc
 50
317.7827235062
 51
222.2170714063
  0
ARC
  5
276
100
AcDbEntity
  8
ALL_ASSEMBLY_MEMBERS
100
AcDbCircle
 62
7
  6
CONTINUOUS
 10
5.4814557453
 20
3.3312902672
 40
0.5096141977
100
AcDbArc
 50
323.1351464854
 51
216.8657106162
  0
ARC
  5
277
100
AcDbEntity
  8
ALL_ASSEMBLY_MEMBERS
100
AcDbCircle
 62
7
  6
CONTINUOUS
 10
5.4814557453
 20
3.3312902672
 40
0.4837956741
100
AcDbArc
 50
325.2953438494
 51
214.7046328315
  0
ARC
  5
278
100
AcDbEntity
  8
ALL_ASSEMBLY_MEMBERS
100
AcDbCircle
 62
7
  6
CONTINUOUS
 10
5.4814557453
 20
3.3312902672
 40
0.4599999995
100
AcDbArc
 50
327.568991996
 51
212.4311547441
  0
ARC
  5
279
100
AcDbEntity
  8
ALL_ASSEMBLY_MEMBERS
100
AcDbCircle
 62
7
  6
CONTINUOUS
 10
5.4814557453
 20
3.3312902672
 40
0.405
100
AcDbArc
 50
334.2123480364
 51
205.7874276017
  0
ARC
  5
27A
100
AcDbEntity
  8
ALL_ASSEMBLY_MEMBERS
100
AcDbCircle
 62
7
  6
CONTINUOUS
 10
5.4814557453
 20
3.3312902672
 40
0.3699999992
100
AcDbArc
 50
340.0737293897
 51
199.9262268082
  0
ARC
  5
27B
100
AcDbEntity
  8
ALL_ASSEMBLY_MEMBERS
100
AcDbCircle
 62
7
  6
CONTINUOUS
 10
5.4814557453
 20
3.3312902672
 40
0.365
100
AcDbArc
 50
341.0952402583
 51
198.9047597417
  0
ARC
  5
27C
100
AcDbEntity
  8
ALL_ASSEMBLY_MEMBERS
100
AcDbCircle
 62
7
  6
CONTINUOUS
 10
5.4814557453
 20
3.3312902672
 40
0.3411764694
100
AcDbArc
 50
346.68962083
 51
193.3104088258
  0
ARC
  5
27D
100
AcDbEntity
  8
ALL_ASSEMBLY_MEMBERS
100
AcDbCircle
 62
7
  6
CONTINUOUS
 10
5.4814557453
 20
3.3312902672
 40
0.3201185188
100
AcDbArc
 50
353.463769477
 51
186.536230525
  0
ARC
  5
27E
100
AcDbEntity
  8
ALL_ASSEMBLY_MEMBERS
100
AcDbCircle
 62
7
  6
CONTINUOUS
 10
5.4802998956
 20
3.3310221949
 40
0.3011660687
100
AcDbArc
 50
6.8226408528
 51
7.4799680788
  0
ARC
  5
27F
100
AcDbEntity
  8
ALL_ASSEMBLY_MEMBERS
100
AcDbCircle
 62
7
  6
CONTINUOUS
 10
5.4826113664
 20
3.3310222232
 40
0.3011658382
100
AcDbArc
 50
172.5211931495
 51
173.1773593204
  0
ARC
  5
280
100
AcDbEntity
  8
ALL_ASSEMBLY_MEMBERS
100
AcDbCircle
 62
7
  6
CONTINUOUS
 10
5.4809610229
 20
3.3310977132
 40
0.3005006446
100
AcDbArc
 50
4.6781807646
 51
6.6965712217
  0
ARC
  5
281
100
AcDbEntity
  8
ALL_ASSEMBLY_MEMBERS
100
AcDbCircle
 62
7
  6
CONTINUOUS
 10
5.4819504678
 20
3.3310977132
 40
0.3005006446
100
AcDbArc
 50
173.3034287784
 51
175.3218192354
  0
ARC
  5
282
100
AcDbEntity
  8
ALL_ASSEMBLY_MEMBERS
100
AcDbCircle
 62
7
  6
CONTINUOUS
 10
5.481460343
 20
3.3342612888
 40
0.2970289785
100
AcDbArc
 50
88.1831902901
 51
91.8048647099
  0
ARC
  5
283
100
AcDbEntity
  8
ALL_ASSEMBLY_MEMBERS
100
AcDbCircle
 62
7
  6
CONTINUOUS
 10
5.4814568786
 20
3.3536952943
 40
0.2775949729
100
AcDbArc
 50
88.057099866
 51
90.0002339138
  0
ARC
  5
284
100
AcDbEntity
  8
ALL_ASSEMBLY_MEMBERS
100
AcDbCircle
 62
7
  6
CONTINUOUS
 10
5.4814525141
 20
3.3538186327
 40
0.2774716345
100
AcDbArc
 50
89.9993327772
 51
91.9305225476
  0
ARC
  5
285
100
AcDbEntity
  8
ALL_ASSEMBLY_MEMBERS
100
AcDbCircle
 62
7
  6
CONTINUOUS
 10
5.4524591716
 20
3.3209623236
 40
0.27160209
100
AcDbArc
 50
170.3139260595
 51
170.9574406897
  0
ARC
  5
286
100
AcDbEntity
  8
ALL_ASSEMBLY_MEMBERS
100
AcDbCircle
 62
7
  6
CONTINUOUS
 10
5.4453333244
 20
3.3220778449
 40
0.26438948
100
AcDbArc
 50
170.9534752763
 51
171.9409291608
  0
ARC
  5
287
100
AcDbEntity
  8
ALL_ASSEMBLY_MEMBERS
100
AcDbCircle
 62
7
  6
CONTINUOUS
 10
3.2008154465
 20
5.92903798
 40
0.255
100
AcDbArc
 50
79.9181044226
 51
110.4686087921
  0
ARC
  5
288
100
AcDbEntity
  8
ALL_ASSEMBLY_MEMBERS
100
AcDbCircle
 62
7
  6
CONTINUOUS
 10
1.7861067599
 20
6.0719095574
 40
0.1425
100
AcDbArc
 50
14.6424776248
 51
51.3022866218
  0
ARC
  5
289
100
AcDbEntity
  8
ALL_ASSEMBLY_MEMBERS
100
AcDbCircle
 62
7
  6
CONTINUOUS
 10
3.1011526151
 20
6.1960441973
 40
0.03
100
AcDbArc
 50
188.1518829448
 51
290.4686090761
  0
ARC
  5
28A
100
AcDbEntity
  8
ALL_ASSEMBLY_MEMBERS
100
AcDbCircle
 62
7
  6
CONTINUOUS
 10
1.9530043096
 20
6.1155152672
 40
0.03
100
AcDbArc
 50
194.6424776246
 51
270.0
  0
ARC
  5
28B
100
AcDbEntity
  8
ALL_ASSEMBLY_MEMBERS
100
AcDbCircle
 62
7
  6
CONTINUOUS
 10
1.8939557453
 20
6.2065381069
 40
0.03
100
AcDbArc
 50
180.0
 51
231.3022866217
  0
ARC
  5
28C
100
AcDbEntity
  8
ALL_ASSEMBLY_MEMBERS
100
AcDbCircle
 62
7
  6
CONTINUOUS
 10
3.2489557453
 20
6.1997915795
 40
0.02
100
AcDbArc
 50
259.9181044225
 51
360.0
  0
ARC
  5
28D
100
AcDbEntity
  8
ALL_ASSEMBLY_MEMBERS
100
AcDbCircle
 62
7
  6
CONTINUOUS
 10
1.9639557453
 20
6.1055152672
 40
0.02
100
AcDbArc
 50
270.0
 51
360.0
  0
ARC
  5
28E
100
AcDbEntity
  8
ALL_ASSEMBLY_MEMBERS
100
AcDbCircle
 62
7
  6
CONTINUOUS
 10
1.7861067599
 20
6.5906709771
 40
0.1425
100
AcDbArc
 50
308.6977133782
 51
345.3575223752
  0
ARC
  5
28F
100
AcDbEntity
  8
ALL_ASSEMBLY_MEMBERS
100
AcDbCircle
 62
7
  6
CONTINUOUS
 10
1.9530043096
 20
6.5470652672
 40
0.03
100
AcDbArc
 50
90.0
 51
165.3575223754
  0
ARC
  5
290
100
AcDbEntity
  8
ALL_ASSEMBLY_MEMBERS
100
AcDbCircle
 62
7
  6
CONTINUOUS
 10
1.8939557453
 20
6.4560424275
 40
0.03
100
AcDbArc
 50
128.6977133783
 51
180.0
  0
ARC
  5
291
100
AcDbEntity
  8
ALL_ASSEMBLY_MEMBERS
100
AcDbCircle
 62
7
  6
CONTINUOUS
 10
1.9639557453
 20
6.5570652672
 40
0.02
100
AcDbArc
 50
0.0
 51
90.0
  0
ARC
  5
292
100
AcDbEntity
  8
ALL_ASSEMBLY_MEMBERS
100
AcDbCircle
 62
7
  6
CONTINUOUS
 10
0.9775083372
 20
27.0871338694
 40
21.0
100
AcDbArc
 50
272.7470136623
 51
275.7225738128
  0
ARC
  5
293
100
AcDbEntity
  8
ALL_ASSEMBLY_MEMBERS
100
AcDbCircle
 62
7
  6
CONTINUOUS
 10
3.101152615
 20
6.4665363372
 40
0.03
100
AcDbArc
 50
69.5313909201
 51
171.848117056
  0
ARC
  5
294
100
AcDbEntity
  8
ALL_ASSEMBLY_MEMBERS
100
AcDbCircle
 62
7
  6
CONTINUOUS
 10
3.2489557453
 20
6.462788955
 40
0.02
100
AcDbArc
 50
0.0
 51
100.0818955775
  0
ARC
  5
295
100
AcDbEntity
  8
ALL_ASSEMBLY_MEMBERS
100
AcDbCircle
 62
7
  6
CONTINUOUS
 10
3.2008154465
 20
6.7335425544
 40
0.255
100
AcDbArc
 50
249.5313912079
 51
280.0818955774
  0
ARC
  5
296
100
AcDbEntity
  8
ALL_ASSEMBLY_MEMBERS
100
AcDbCircle
 62
7
  6
CONTINUOUS
 10
3.5139557453
 20
6.3312902672
 40
0.55
100
AcDbArc
 50
195.6112478132
 51
164.3888497761
  0
ARC
  5
297
100
AcDbEntity
  8
ALL_ASSEMBLY_MEMBERS
100
AcDbCircle
 62
7
  6
CONTINUOUS
 10
3.5139557453
 20
6.3312902672
 40
0.5096382736
100
AcDbArc
 50
196.4156290184
 51
163.5849992961
  0
ARC
  5
298
100
AcDbEntity
  8
ALL_ASSEMBLY_MEMBERS
100
AcDbCircle
 62
7
  6
CONTINUOUS
 10
3.5139557453
 20
6.3312902672
 40
0.4177872426
100
AcDbArc
 50
202.2444385924
 51
157.7555947416
  0
ARC
  5
299
100
AcDbEntity
  8
ALL_ASSEMBLY_MEMBERS
100
AcDbCircle
 62
7
  6
CONTINUOUS
 10
3.5139557453
 20
6.3312902672
 40
0.4090865376
100
AcDbArc
 50
202.3799403085
 51
157.620085905
  0
ARC
  5
29A
100
AcDbEntity
  8
ALL_ASSEMBLY_MEMBERS
100
AcDbCircle
 62
7
  6
CONTINUOUS
 10
3.5139557453
 20
6.3312902672
 40
0.3725
100
AcDbArc
 50
203.5660337781
 51
156.4339662219
  0
ARC
  5
29B
100
AcDbEntity
  8
ALL_ASSEMBLY_MEMBERS
100
AcDbCircle
 62
7
  6
CONTINUOUS
 10
3.5139557453
 20
6.3312902672
 40
0.355
100
AcDbArc
 50
204.5461916676
 51
155.4538083324
  0
ARC
  5
29C
100
AcDbEntity
  8
ALL_ASSEMBLY_MEMBERS
100
AcDbCircle
 62
7
  6
CONTINUOUS
 10
3.5139557453
 20
6.3312902672
 40
0.2938655903
100
AcDbArc
 50
210.2533879895
 51
149.7466120105
  0
ARC
  5
29D
100
AcDbEntity
  8
ALL_ASSEMBLY_MEMBERS
100
AcDbCircle
 62
7
  6
CONTINUOUS
 10
3.5139557453
 20
6.3312902672
 40
0.2638655883
100
AcDbArc
 50
205.91841745
 51
154.0816523288
  0
ARC
  5
29E
100
AcDbEntity
  8
ALL_ASSEMBLY_MEMBERS
100
AcDbCircle
 62
7
  6
CONTINUOUS
 10
3.5139557453
 20
6.3312902672
 40
0.2255
100
AcDbArc
 50
210.7294768424
 51
149.2705231576
  0
CIRCLE
  5
29F
100
AcDbEntity
  8
ALL_ASSEMBLY_MEMBERS
100
AcDbCircle
 62
7
  6
CONTINUOUS
 10
3.5139557453
 20
6.3312902672
 40
0.1494309477
  0
CIRCLE
  5
2A0
100
AcDbEntity
  8
ALL_ASSEMBLY_MEMBERS
100
AcDbCircle
 62
7
  6
CONTINUOUS
 10
3.5139557453
 20
6.3312902672
 40
0.1461176229
  0
CIRCLE
  5
2A1
100
AcDbEntity
  8
ALL_ASSEMBLY_MEMBERS
100
AcDbCircle
 62
7
  6
CONTINUOUS
 10
3.5139557453
 20
6.3312902672
 40
0.14
  0
CIRCLE
  5
2A2
100
AcDbEntity
  8
ALL_ASSEMBLY_MEMBERS
100
AcDbCircle
 62
7
  6
CONTINUOUS
 10
3.5139557453
 20
6.3312902672
 40
0.1129032259
  0
ARC
  5
2A3
100
AcDbEntity
  8
ALL_ASSEMBLY_MEMBERS
100
AcDbCircle
 62
7
  6
CONTINUOUS
 10
9.9879031535
 20
-14.4245533349
 40
21.0
100
AcDbArc
 50
92.7470136623
 51
95.7225738128
  0
ARC
  5
2A4
100
AcDbEntity
  8
ALL_ASSEMBLY_MEMBERS
100
AcDbCircle
 62
7
  6
CONTINUOUS
 10
5.5103690526
 20
3.3209484257
 40
0.2716865078
100
AcDbArc
 50
9.0701479965
 51
9.6861433002
  0
ARC
  5
2A5
100
AcDbEntity
  8
ALL_ASSEMBLY_MEMBERS
100
AcDbCircle
 62
7
  6
CONTINUOUS
 10
5.5174205458
 20
3.3220547224
 40
0.264548786
100
AcDbArc
 50
8.0605516347
 51
9.0742974463
  0
ARC
  5
2A6
100
AcDbEntity
  8
ALL_ASSEMBLY_MEMBERS
100
AcDbCircle
 62
7
  6
CONTINUOUS
 10
7.7645960442
 20
5.92903798
 40
0.255
100
AcDbArc
 50
69.5313912079
 51
100.0818955774
  0
ARC
  5
2A7
100
AcDbEntity
  8
ALL_ASSEMBLY_MEMBERS
100
AcDbCircle
 62
7
  6
CONTINUOUS
 10
9.1793047307
 20
6.0719095574
 40
0.1425
100
AcDbArc
 50
128.6977133782
 51
165.3575223752
  0
ARC
  5
2A8
100
AcDbEntity
  8
ALL_ASSEMBLY_MEMBERS
100
AcDbCircle
 62
7
  6
CONTINUOUS
 10
7.8642588756
 20
6.1960441973
 40
0.03
100
AcDbArc
 50
249.5313909201
 51
351.848117056
  0
ARC
  5
2A9
100
AcDbEntity
  8
ALL_ASSEMBLY_MEMBERS
100
AcDbCircle
 62
7
  6
CONTINUOUS
 10
9.0124071811
 20
6.1155152672
 40
0.03
100
AcDbArc
 50
270.0
 51
345.3575223754
  0
ARC
  5
2AA
100
AcDbEntity
  8
ALL_ASSEMBLY_MEMBERS
100
AcDbCircle
 62
7
  6
CONTINUOUS
 10
9.0714557453
 20
6.2065381069
 40
0.03
100
AcDbArc
 50
308.6977133783
 51
360.0
  0
ARC
  5
2AB
100
AcDbEntity
  8
ALL_ASSEMBLY_MEMBERS
100
AcDbCircle
 62
7
  6
CONTINUOUS
 10
7.7164557453
 20
6.1997915795
 40
0.02
100
AcDbArc
 50
180.0
 51
280.0818955775
  0
ARC
  5
2AC
100
AcDbEntity
  8
ALL_ASSEMBLY_MEMBERS
100
AcDbCircle
 62
7
  6
CONTINUOUS
 10
9.0014557453
 20
6.1055152672
 40
0.02
100
AcDbArc
 50
180.0
 51
270.0
  0
ARC
  5
2AD
100
AcDbEntity
  8
ALL_ASSEMBLY_MEMBERS
100
AcDbCircle
 62
7
  6
CONTINUOUS
 10
7.4514557453
 20
6.3312902672
 40
0.55
100
AcDbArc
 50
15.6112478132
 51
344.3888497761
  0
ARC
  5
2AE
100
AcDbEntity
  8
ALL_ASSEMBLY_MEMBERS
100
AcDbCircle
 62
7
  6
CONTINUOUS
 10
7.4514557453
 20
6.3312902672
 40
0.5096382736
100
AcDbArc
 50
16.4156290184
 51
343.5849992961
  0
ARC
  5
2AF
100
AcDbEntity
  8
ALL_ASSEMBLY_MEMBERS
100
AcDbCircle
 62
7
  6
CONTINUOUS
 10
7.4514557453
 20
6.3312902672
 40
0.4177872426
100
AcDbArc
 50
22.2444385924
 51
337.7555947416
  0
ARC
  5
2B0
100
AcDbEntity
  8
ALL_ASSEMBLY_MEMBERS
100
AcDbCircle
 62
7
  6
CONTINUOUS
 10
7.4514557453
 20
6.3312902672
 40
0.4090865376
100
AcDbArc
 50
22.3799403085
 51
337.620085905
  0
ARC
  5
2B1
100
AcDbEntity
  8
ALL_ASSEMBLY_MEMBERS
100
AcDbCircle
 62
7
  6
CONTINUOUS
 10
7.4514557453
 20
6.3312902672
 40
0.3725
100
AcDbArc
 50
23.5660337781
 51
336.4339662219
  0
ARC
  5
2B2
100
AcDbEntity
  8
ALL_ASSEMBLY_MEMBERS
100
AcDbCircle
 62
7
  6
CONTINUOUS
 10
7.4514557453
 20
6.3312902672
 40
0.355
100
AcDbArc
 50
24.5461916676
 51
335.4538083324
  0
ARC
  5
2B3
100
AcDbEntity
  8
ALL_ASSEMBLY_MEMBERS
100
AcDbCircle
 62
7
  6
CONTINUOUS
 10
7.4514557453
 20
6.3312902672
 40
0.2938655903
100
AcDbArc
 50
30.2533879895
 51
329.7466120105
  0
ARC
  5
2B4
100
AcDbEntity
  8
ALL_ASSEMBLY_MEMBERS
100
AcDbCircle
 62
7
  6
CONTINUOUS
 10
7.4514557453
 20
6.3312902672
 40
0.2638655883
100
AcDbArc
 50
25.91841745
 51
334.0816523288
  0
ARC
  5
2B5
100
AcDbEntity
  8
ALL_ASSEMBLY_MEMBERS
100
AcDbCircle
 62
7
  6
CONTINUOUS
 10
7.4514557453
 20
6.3312902672
 40
0.2255
100
AcDbArc
 50
30.7294768424
 51
329.2705231576
  0
CIRCLE
  5
2B6
100
AcDbEntity
  8
ALL_ASSEMBLY_MEMBERS
100
AcDbCircle
 62
7
  6
CONTINUOUS
 10
7.4514557453
 20
6.3312902672
 40
0.1494309477
  0
CIRCLE
  5
2B7
100
AcDbEntity
  8
ALL_ASSEMBLY_MEMBERS
100
AcDbCircle
 62
7
  6
CONTINUOUS
 10
7.4514557453
 20
6.3312902672
 40
0.1461176229
  0
CIRCLE
  5
2B8
100
AcDbEntity
  8
ALL_ASSEMBLY_MEMBERS
100
AcDbCircle
 62
7
  6
CONTINUOUS
 10
7.4514557453
 20
6.3312902672
 40
0.14
  0
CIRCLE
  5
2B9
100
AcDbEntity
  8
ALL_ASSEMBLY_MEMBERS
100
AcDbCircle
 62
7
  6
CONTINUOUS
 10
7.4514557453
 20
6.3312902672
 40
0.1129032259
  0
ARC
  5
2BA
100
AcDbEntity
  8
ALL_ASSEMBLY_MEMBERS
100
AcDbCircle
 62
7
  6
CONTINUOUS
 10
7.8642588756
 20
6.4665363372
 40
0.03
100
AcDbArc
 50
8.1518829448
 51
110.4686090761
  0
ARC
  5
2BB
100
AcDbEntity
  8
ALL_ASSEMBLY_MEMBERS
100
AcDbCircle
 62
7
  6
CONTINUOUS
 10
7.7164557453
 20
6.462788955
 40
0.02
100
AcDbArc
 50
79.9181044225
 51
180.0
  0
ARC
  5
2BC
100
AcDbEntity
  8
ALL_ASSEMBLY_MEMBERS
100
AcDbCircle
 62
7
  6
CONTINUOUS
 10
7.7645960442
 20
6.7335425544
 40
0.255
100
AcDbArc
 50
259.9181044226
 51
290.4686087921
  0
ARC
  5
2BD
100
AcDbEntity
  8
ALL_ASSEMBLY_MEMBERS
100
AcDbCircle
 62
7
  6
CONTINUOUS
 10
9.1793047307
 20
6.5906709771
 40
0.1425
100
AcDbArc
 50
194.6424776248
 51
231.3022866218
  0
ARC
  5
2BE
100
AcDbEntity
  8
ALL_ASSEMBLY_MEMBERS
100
AcDbCircle
 62
7
  6
CONTINUOUS
 10
9.0124071811
 20
6.5470652672
 40
0.03
100
AcDbArc
 50
14.6424776246
 51
90.0
  0
ARC
  5
2BF
100
AcDbEntity
  8
ALL_ASSEMBLY_MEMBERS
100
AcDbCircle
 62
7
  6
CONTINUOUS
 10
9.0714557453
 20
6.4560424275
 40
0.03
100
AcDbArc
 50
0.0
 51
51.3022866217
  0
ARC
  5
2C0
100
AcDbEntity
  8
ALL_ASSEMBLY_MEMBERS
100
AcDbCircle
 62
7
  6
CONTINUOUS
 10
9.0014557453
 20
6.5570652672
 40
0.02
100
AcDbArc
 50
90.0
 51
180.0
  0
ARC
  5
2C1
100
AcDbEntity
  8
ALL_ASSEMBLY_MEMBERS
100
AcDbCircle
 62
7
  6
CONTINUOUS
 10
9.9879031535
 20
27.0871338694
 40
21.0
100
AcDbArc
 50
264.2774261872
 51
267.2529863377
  0
SPLINE
  5
2C2
100
AcDbEntity
  8
ALL_ASSEMBLY_MEMBERS
100
AcDbSpline
 62
7
  6
CONTINUOUS
 70
0
 71
3
 72
24
 73
20
 74
0
 42
0.0000001
 43
0.0000001
 44
0.0000000001
 40
0.0
 40
0.0
 40
0.0
 40
0.0
 40
0.0625034867
 40
0.1250029487
 40
0.1874950607
 40
0.2499886996
 40
0.3124907759
 40
0.3749953743
 40
0.4374942631
 40
0.4687489068
 40
0.5000037834
 40
0.5625036076
 40
0.6250083999
 40
0.6875095991
 40
0.7500023535
 40
0.8124951706
 40
0.874995461
 40
0.9374989565
 40
1.0
 40
1.0
 40
1.0
 40
1.0
 10
5.7789031723
 20
3.3702278589
 30
0.0
 10
5.7777569114
 20
3.3789582124
 30
0.0
 10
5.7746973093
 20
3.3963273998
 30
0.0
 10
5.7678514925
 20
3.4218717473
 30
0.0
 10
5.7587867811
 20
3.4467172696
 30
0.0
 10
5.7475456114
 20
3.4706565647
 30
0.0
 10
5.734244736
 20
3.4935170861
 30
0.0
 10
5.718998471
 20
3.5151284156
 30
0.0
 10
5.7047626414
 20
3.5319594526
 30
0.0
 10
5.6925184997
 20
3.5446242901
 30
0.0
 10
5.6797218756
 20
3.5567307983
 30
0.0
 10
5.6627396754
 20
3.5707861211
 30
0.0
 10
5.6409674878
 20
3.5858018228
 30
0.0
 10
5.6179669636
 20
3.5988587481
 30
0.0
 10
5.5939075601
 20
3.609840699
 30
0.0
 10
5.5689663457
 20
3.6186370105
 30
0.0
 10
5.5433483826
 20
3.6252110256
 30
0.0
 10
5.5172550785
 20
3.6295224322
 30
0.0
 10
5.4996687837
 20
3.6308619174
 30
0.0
 10
5.4908682687
 20
3.6311409486
 30
0.0
  0
SPLINE
  5
2C3
100
AcDbEntity
  8
ALL_ASSEMBLY_MEMBERS
100
AcDbSpline
 62
7
  6
CONTINUOUS
 70
0
 71
3
 72
35
 73
31
 74
0
 42
0.0000001
 43
0.0000001
 44
0.0000000001
 40
0.0
 40
0.0
 40
0.0
 40
0.0
 40
0.0024559575
 40
0.0050717253
 40
0.0079337053
 40
0.0110510307
 40
0.01441493
 40
0.0180197327
 40
0.0218515146
 40
0.0258910247
 40
0.0345433432
 40
0.0439040696
 40
0.0538916578
 40
0.064415126
 40
0.0754002686
 40
0.0868121057
 40
0.1107868715
 40
0.1360998155
 40
0.1625723444
 40
0.2184647045
 40
0.2777592018
 40
0.3399134312
 40
0.4046253158
 40
0.471668752
 40
0.5409095034
 40
0.6122451853
 40
0.685617902
 40
0.7610037397
 40
0.8384700857
 40
1.0
 40
1.0
 40
1.0
 40
1.0
 10
5.0057781588
 20
2.4972989297
 30
0.0
 10
5.0058561274
 20
2.4976846788
 30
0.0
 10
5.0061496049
 20
2.4984574886
 30
0.0
 10
5.0068960631
 20
2.4994976447
 30
0.0
 10
5.0078869051
 20
2.5004610594
 30
0.0
 10
5.0090757905
 20
2.501374694
 30
0.0
 10
5.0104373036
 20
2.502248407
 30
0.0
 10
5.0119543986
 20
2.5030834201
 30
0.0
 10
5.0136102742
 20
2.5038848207
 30
0.0
 10
5.0160393424
 20
2.5049400028
 30
0.0
 10
5.0193509102
 20
2.506179908
 30
0.0
 10
5.0236270368
 20
2.5075429764
 30
0.0
 10
5.0282394478
 20
2.5088262152
 30
0.0
 10
5.0331378029
 20
2.510044156
 30
0.0
 10
5.0382833472
 20
2.5112083849
 30
0.0
 10
5.0455602582
 20
2.5127142432
 30
0.0
 10
5.0551303917
 20
2.5144596827
 30
0.0
 10
5.067120575
 20
2.5163659767
 30
0.0
 10
5.0842079792
 20
2.5187674111
 30
0.0
 10
5.1067524483
 20
2.521441452
 30
0.0
 10
5.1350372852
 20
2.5241995234
 30
0.0
 10
5.1647695541
 20
2.5266358023
 30
0.0
 10
5.1957693964
 20
2.5287718873
 30
0.0
 10
5.2279239989
 20
2.5306387033
 30
0.0
 10
5.2611551457
 20
2.5322476135
 30
0.0
 10
5.2954121792
 20
2.5336127564
 30
0.0
 10
5.330663054
 20
2.5347394132
 30
0.0
 10
5.3669033019
 20
2.5356336292
 30
0.0
 10
5.4172734437
 20
2.5365132276
 30
0.0
 10
5.455571717
 20
2.536768302
 30
0.0
 10
5.4814557453
 20
2.536768302
 30
0.0
  0
SPLINE
  5
2C4
100
AcDbEntity
  8
ALL_ASSEMBLY_MEMBERS
100
AcDbSpline
 62
7
  6
CONTINUOUS
 70
0
 71
3
 72
37
 73
33
 74
0
 42
0.0000001
 43
0.0000001
 44
0.0000000001
 40
0.0
 40
0.0
 40
0.0
 40
0.0
 40
0.1708191994
 40
0.3295352616
 40
0.4047999199
 40
0.4773938463
 40
0.5472756563
 40
0.6143551375
 40
0.6785043717
 40
0.7394887787
 40
0.768706265
 40
0.7969871599
 40
0.8242514212
 40
0.8504212302
 40
0.8754073871
 40
0.8990685971
 40
0.9103532203
 40
0.9212333081
 40
0.9316740488
 40
0.9416428924
 40
0.9511053776
 40
0.9600123671
 40
0.9683184998
 40
0.9759916006
 40
0.9795831244
 40
0.9829928577
 40
0.9862079702
 40
0.9892268044
 40
0.9920639039
 40
0.9947563363
 40
0.9973697181
 40
1.0
 40
1.0
 40
1.0
 40
1.0
 10
5.4814557453
 20
2.4373044533
 30
0.0
 10
5.5133840586
 20
2.4373044533
 30
0.0
 10
5.5749802416
 20
2.4378563953
 30
0.0
 10
5.6506172936
 20
2.439997249
 30
0.0
 10
5.7078674196
 20
2.4424725653
 30
0.0
 10
5.7485078621
 20
2.4446613004
 30
0.0
 10
5.7875937423
 20
2.4472200073
 30
0.0
 10
5.8250696278
 20
2.4501642386
 30
0.0
 10
5.860842453
 20
2.4535058018
 30
0.0
 10
5.8895176641
 20
2.456697597
 30
0.0
 10
5.9114851138
 20
2.4595073724
 30
0.0
 10
5.9271741867
 20
2.4617157158
 30
0.0
 10
5.9422662798
 20
2.4640674319
 30
0.0
 10
5.9567089709
 20
2.4665741275
 30
0.0
 10
5.9704371412
 20
2.4692440072
 30
0.0
 10
5.9813768121
 20
2.4716626098
 30
0.0
 10
5.9896924595
 20
2.4737178725
 30
0.0
 10
5.9955798375
 20
2.4752945087
 30
0.0
 10
6.0011935897
 20
2.4769368191
 30
0.0
 10
6.0065084254
 20
2.4786505223
 30
0.0
 10
6.0114952331
 20
2.4804393356
 30
0.0
 10
6.0161168785
 20
2.4823152459
 30
0.0
 10
6.0203315203
 20
2.4842892757
 30
0.0
 10
6.0235360223
 20
2.4860619735
 30
0.0
 10
6.0258427775
 20
2.4875478084
 30
0.0
 10
6.0273873536
 20
2.4886729401
 30
0.0
 10
6.0287631933
 20
2.4898407341
 30
0.0
 10
6.0299475031
 20
2.4910586092
 30
0.0
 10
6.0309167324
 20
2.4923350464
 30
0.0
 10
6.0316451659
 20
2.4936797687
 30
0.0
 10
6.0321033122
 20
2.4951002838
 30
0.0
 10
6.0322057453
 20
2.496083684
 30
0.0
 10
6.0322057453
 20
2.4965753177
 30
0.0
  0
SPLINE
  5
2C5
100
AcDbEntity
  8
ALL_ASSEMBLY_MEMBERS
100
AcDbSpline
 62
7
  6
CONTINUOUS
 70
0
 71
3
 72
37
 73
33
 74
0
 42
0.0000001
 43
0.0000001
 44
0.0000000001
 40
0.0
 40
0.0
 40
0.0
 40
0.0
 40
0.0026302819
 40
0.0052436637
 40
0.0079360961
 40
0.0107731956
 40
0.0137920298
 40
0.0170071423
 40
0.0204168756
 40
0.0240083994
 40
0.0316815002
 40
0.0399876329
 40
0.0488946224
 40
0.0583571076
 40
0.0683259512
 40
0.0787666919
 40
0.0896467797
 40
0.1009314029
 40
0.1245926129
 40
0.1495787698
 40
0.1757485788
 40
0.2030128401
 40
0.231293735
 40
0.2605112213
 40
0.3214956283
 40
0.3856448625
 40
0.4527243437
 40
0.5226061537
 40
0.5952000801
 40
0.6704647384
 40
0.8291808006
 40
1.0
 40
1.0
 40
1.0
 40
1.0
 10
4.9307057453
 20
2.4965753177
 30
0.0
 10
4.9307057453
 20
2.496083684
 30
0.0
 10
4.9308081785
 20
2.4951002838
 30
0.0
 10
4.9312663248
 20
2.4936797687
 30
0.0
 10
4.9319947582
 20
2.4923350464
 30
0.0
 10
4.9329639875
 20
2.4910586092
 30
0.0
 10
4.9341482973
 20
2.4898407341
 30
0.0
 10
4.9355241371
 20
2.4886729401
 30
0.0
 10
4.9370687132
 20
2.4875478084
 30
0.0
 10
4.9393754684
 20
2.4860619735
 30
0.0
 10
4.9425799704
 20
2.4842892757
 30
0.0
 10
4.9467946122
 20
2.4823152459
 30
0.0
 10
4.9514162575
 20
2.4804393356
 30
0.0
 10
4.9564030652
 20
2.4786505223
 30
0.0
 10
4.9617179009
 20
2.4769368191
 30
0.0
 10
4.9673316532
 20
2.4752945087
 30
0.0
 10
4.9732190312
 20
2.4737178725
 30
0.0
 10
4.9815346786
 20
2.4716626098
 30
0.0
 10
4.9924743495
 20
2.4692440072
 30
0.0
 10
5.0062025198
 20
2.4665741275
 30
0.0
 10
5.0206452109
 20
2.4640674319
 30
0.0
 10
5.035737304
 20
2.4617157158
 30
0.0
 10
5.0514263769
 20
2.4595073724
 30
0.0
 10
5.0733938266
 20
2.456697597
 30
0.0
 10
5.1020690377
 20
2.4535058018
 30
0.0
 10
5.1378418629
 20
2.4501642386
 30
0.0
 10
5.1753177484
 20
2.4472200073
 30
0.0
 10
5.2144036286
 20
2.4446613004
 30
0.0
 10
5.2550440711
 20
2.4424725653
 30
0.0
 10
5.3122941971
 20
2.439997249
 30
0.0
 10
5.3879312491
 20
2.4378563953
 30
0.0
 10
5.4495274321
 20
2.4373044533
 30
0.0
 10
5.4814557453
 20
2.4373044533
 30
0.0
  0
SPLINE
  5
2C6
100
AcDbEntity
  8
ALL_ASSEMBLY_MEMBERS
100
AcDbSpline
 62
7
  6
CONTINUOUS
 70
0
 71
3
 72
24
 73
20
 74
0
 42
0.0000001
 43
0.0000001
 44
0.0000000001
 40
0.0
 40
0.0
 40
0.0
 40
0.0
 40
0.0625010364
 40
0.1250045308
 40
0.1875048333
 40
0.2499976612
 40
0.3124904043
 40
0.3749915919
 40
0.437496385
 40
0.4999962173
 40
0.5312510985
 40
0.562505743
 40
0.625004625
 40
0.6875092214
 40
0.7500113006
 40
0.8125049417
 40
0.8749970523
 40
0.9374965138
 40
1.0
 40
1.0
 40
1.0
 40
1.0
 10
5.4721052304
 20
3.6311429082
 30
0.0
 10
5.4633032407
 20
3.6308656656
 30
0.0
 10
5.4457138369
 20
3.629529476
 30
0.0
 10
5.4196155244
 20
3.6252221809
 30
0.0
 10
5.3939923029
 20
3.6186514647
 30
0.0
 10
5.3690456704
 20
3.6098576741
 30
0.0
 10
5.3449807959
 20
3.5988774243
 30
0.0
 10
5.3219748891
 20
3.5858213328
 30
0.0
 10
5.3001974783
 20
3.5708056831
 30
0.0
 10
5.2832111267
 20
3.5567497891
 30
0.0
 10
5.2704113432
 20
3.5446424866
 30
0.0
 10
5.2581641695
 20
3.5319766312
 30
0.0
 10
5.2439248326
 20
3.5151438973
 30
0.0
 10
5.2286748669
 20
3.4935299525
 30
0.0
 10
5.2153708536
 20
3.4706663148
 30
0.0
 10
5.2041271599
 20
3.4467234856
 30
0.0
 10
5.1950606054
 20
3.4218740883
 30
0.0
 10
5.1882136603
 20
3.3963256223
 30
0.0
 10
5.1851537922
 20
3.3789535883
 30
0.0
 10
5.1840075237
 20
3.3702218053
 30
0.0
  0
SPLINE
  5
2C7
100
AcDbEntity
  8
ALL_ASSEMBLY_MEMBERS
100
AcDbSpline
 62
7
  6
CONTINUOUS
 70
0
 71
3
 72
35
 73
31
 74
0
 42
0.0000001
 43
0.0000001
 44
0.0000000001
 40
0.0
 40
0.0
 40
0.0
 40
0.0
 40
0.1615299144
 40
0.2389962603
 40
0.3143820981
 40
0.3877548148
 40
0.4590904967
 40
0.5283312481
 40
0.5953746844
 40
0.660086569
 40
0.7222407983
 40
0.7815352957
 40
0.8374276558
 40
0.8639001847
 40
0.8892131286
 40
0.9131878945
 40
0.9245997316
 40
0.9355848741
 40
0.9461083423
 40
0.9560959305
 40
0.9654566569
 40
0.9741089754
 40
0.9781484855
 40
0.9819802673
 40
0.98558507
 40
0.9889489693
 40
0.9920662948
 40
0.9949282747
 40
0.9975440425
 40
1.0
 40
1.0
 40
1.0
 40
1.0
 10
5.4814557453
 20
2.536768302
 30
0.0
 10
5.5073397737
 20
2.536768302
 30
0.0
 10
5.5456380471
 20
2.5365132276
 30
0.0
 10
5.5960081889
 20
2.5356336292
 30
0.0
 10
5.6322484368
 20
2.5347394132
 30
0.0
 10
5.6674993116
 20
2.5336127564
 30
0.0
 10
5.7017563451
 20
2.5322476135
 30
0.0
 10
5.7349874919
 20
2.5306387033
 30
0.0
 10
5.7671420944
 20
2.5287718873
 30
0.0
 10
5.7981419367
 20
2.5266358023
 30
0.0
 10
5.8278742056
 20
2.5241995234
 30
0.0
 10
5.8561590425
 20
2.521441452
 30
0.0
 10
5.8787035116
 20
2.5187674111
 30
0.0
 10
5.8957909158
 20
2.5163659767
 30
0.0
 10
5.9077810991
 20
2.5144596827
 30
0.0
 10
5.9173512326
 20
2.5127142432
 30
0.0
 10
5.9246281436
 20
2.5112083848
 30
0.0
 10
5.9297736879
 20
2.510044156
 30
0.0
 10
5.934672043
 20
2.5088262152
 30
0.0
 10
5.939284454
 20
2.5075429763
 30
0.0
 10
5.9435605806
 20
2.506179908
 30
0.0
 10
5.9468721484
 20
2.5049400028
 30
0.0
 10
5.9493012166
 20
2.5038848206
 30
0.0
 10
5.9509570922
 20
2.50308342
 30
0.0
 10
5.9524741872
 20
2.5022484069
 30
0.0
 10
5.9538357003
 20
2.501374694
 30
0.0
 10
5.9550245856
 20
2.5004610593
 30
0.0
 10
5.9560154276
 20
2.4994976447
 30
0.0
 10
5.9567618859
 20
2.4984574886
 30
0.0
 10
5.9570553633
 20
2.4976846788
 30
0.0
 10
5.9571333319
 20
2.4972989297
 30
0.0
  0
SPLINE
  5
2C8
100
AcDbEntity
  8
ALL_ASSEMBLY_MEMBERS
100
AcDbSpline
 62
7
  6
CONTINUOUS
 70
0
 71
3
 72
23
 73
19
 74
0
 42
0.0000001
 43
0.0000001
 44
0.0000000001
 40
0.0
 40
0.0
 40
0.0
 40
0.0
 40
0.060971372
 40
0.1212781215
 40
0.1812490485
 40
0.2411887862
 40
0.3013660832
 40
0.3619709406
 40
0.4231344061
 40
0.484937995
 40
0.5474278918
 40
0.6106082669
 40
0.6744380301
 40
0.7388320091
 40
0.8036802461
 40
0.8688783668
 40
0.9343268378
 40
1.0
 40
1.0
 40
1.0
 40
1.0
 10
5.490867531
 20
3.6311267001
 30
0.0
 10
5.499370056
 20
3.6308306289
 30
0.0
 10
5.5162659696
 20
3.6294376317
 30
0.0
 10
5.5411924071
 20
3.6249482928
 30
0.0
 10
5.5654409799
 20
3.618144995
 30
0.0
 10
5.588924238
 20
3.6090994985
 30
0.0
 10
5.6115508301
 20
3.5978884217
 30
0.0
 10
5.633238769
 20
3.5846295454
 30
0.0
 10
5.6539023407
 20
3.5694420653
 30
0.0
 10
5.6734496686
 20
3.5524414005
 30
0.0
 10
5.691779702
 20
3.5337407555
 30
0.0
 10
5.7088063973
 20
3.5134780809
 30
0.0
 10
5.7244593589
 20
3.4918096535
 30
0.0
 10
5.738642835
 20
3.4688779053
 30
0.0
 10
5.7512232467
 20
3.4448127991
 30
0.0
 10
5.7620654671
 20
3.4197533172
 30
0.0
 10
5.7709852455
 20
3.3938240794
 30
0.0
 10
5.7754051441
 20
3.3760334487
 30
0.0
 10
5.7771289499
 20
3.3670332974
 30
0.0
  0
SPLINE
  5
2C9
100
AcDbEntity
  8
ALL_ASSEMBLY_MEMBERS
100
AcDbSpline
 62
7
  6
CONTINUOUS
 70
0
 71
3
 72
32
 73
28
 74
0
 42
0.0000001
 43
0.0000001
 44
0.0000000001
 40
0.0
 40
0.0
 40
0.0
 40
0.0
 40
0.1644101807
 40
0.2422779653
 40
0.3175369924
 40
0.4608164292
 40
0.5288999673
 40
0.5945630413
 40
0.6577321855
 40
0.7182518101
 40
0.7474609023
 40
0.7759121519
 40
0.8302894359
 40
0.8561016753
 40
0.8808860595
 40
0.8928594272
 40
0.9045330129
 40
0.9158822964
 40
0.9268835677
 40
0.9375163234
 40
0.9477595739
 40
0.9575840086
 40
0.9669679175
 40
0.9759041421
 40
0.9843859158
 40
0.9923864065
 40
1.0
 40
1.0
 40
1.0
 40
1.0
 10
5.4814557453
 20
2.9310370415
 30
0.0
 10
5.5083645475
 20
2.9310370415
 30
0.0
 10
5.5480292719
 20
2.9300774806
 30
0.0
 10
5.5998984663
 20
2.9267519706
 30
0.0
 10
5.6482171199
 20
2.9223738173
 30
0.0
 10
5.6947640107
 20
2.9163263334
 30
0.0
 10
5.7394468373
 20
2.908603426
 30
0.0
 10
5.7710388646
 20
2.9022031967
 30
0.0
 10
5.801218401
 20
2.8951367798
 30
0.0
 10
5.8253899673
 20
2.8886379971
 30
0.0
 10
5.8439263759
 20
2.8831086529
 30
0.0
 10
5.8613927487
 20
2.8775232462
 30
0.0
 10
5.8781546651
 20
2.8715640665
 30
0.0
 10
5.8940930828
 20
2.8651436744
 30
0.0
 10
5.9034673319
 20
2.8610149259
 30
0.0
 10
5.9106249278
 20
2.8576077167
 30
0.0
 10
5.9157430345
 20
2.8550350792
 30
0.0
 10
5.9206552116
 20
2.8524105496
 30
0.0
 10
5.9253420389
 20
2.8497300605
 30
0.0
 10
5.9297832102
 20
2.846990045
 30
0.0
 10
5.9339560637
 20
2.8441882431
 30
0.0
 10
5.9378285824
 20
2.8413143385
 30
0.0
 10
5.9413665734
 20
2.838359525
 30
0.0
 10
5.9445316968
 20
2.8353168932
 30
0.0
 10
5.947284048
 20
2.8321873087
 30
0.0
 10
5.9494959978
 20
2.8289053495
 30
0.0
 10
5.9505136905
 20
2.8265347267
 30
0.0
 10
5.9508595144
 20
2.8253375682
 30
0.0
  0
SPLINE
  5
2CA
100
AcDbEntity
  8
ALL_ASSEMBLY_MEMBERS
100
AcDbSpline
 62
7
  6
CONTINUOUS
 70
0
 71
3
 72
27
 73
23
 74
0
 42
0.0000001
 43
0.0000001
 44
0.0000000001
 40
0.0
 40
0.0
 40
0.0
 40
0.0
 40
0.0219896961
 40
0.0333195717
 40
0.0448801191
 40
0.0687122417
 40
0.0934558022
 40
0.1190367003
 40
0.1453594232
 40
0.172351672
 40
0.1999513699
 40
0.2568050606
 40
0.2859950372
 40
0.3156387328
 40
0.3762027905
 40
0.4384083511
 40
0.5675656883
 40
0.7033470993
 40
0.7739989633
 40
0.8467930578
 40
0.9220254371
 40
1.0
 40
1.0
 40
1.0
 40
1.0
 10
5.0836951774
 20
3.0558270917
 30
0.0
 10
5.0847098941
 20
3.0589141413
 30
0.0
 10
5.0868645788
 20
3.0633887355
 30
0.0
 10
5.0903369404
 20
3.0690370178
 30
0.0
 10
5.0942994737
 20
3.0746973839
 30
0.0
 10
5.0999635461
 20
3.081561797
 30
0.0
 10
5.107568734
 20
3.0894625136
 30
0.0
 10
5.1159149714
 20
3.0971282282
 30
0.0
 10
5.1248800352
 20
3.104587867
 30
0.0
 10
5.1343886955
 20
3.1118430092
 30
0.0
 10
5.1478434458
 20
3.1213450958
 30
0.0
 10
5.1620480593
 20
3.1303287014
 30
0.0
 10
5.1768807086
 20
3.1388320387
 30
0.0
 10
5.192423091
 20
3.1471877035
 30
0.0
 10
5.2126788928
 20
3.1570615484
 30
0.0
 10
5.2469372541
 20
3.1716663531
 30
0.0
 10
5.292774259
 20
3.1872867446
 30
0.0
 10
5.3411070101
 20
3.1987400392
 30
0.0
 10
5.3818411781
 20
3.2054043086
 30
0.0
 10
5.4139569493
 20
3.2091034588
 30
0.0
 10
5.4472890011
 20
3.2113660905
 30
0.0
 10
5.4699330012
 20
3.2118613334
 30
0.0
 10
5.4814557453
 20
3.2118613334
 30
0.0
  0
SPLINE
  5
2CB
100
AcDbEntity
  8
ALL_ASSEMBLY_MEMBERS
100
AcDbSpline
 62
7
  6
CONTINUOUS
 70
0
 71
3
 72
37
 73
33
 74
0
 42
0.0000001
 43
0.0000001
 44
0.0000000001
 40
0.0
 40
0.0
 40
0.0
 40
0.0
 40
0.1700174183
 40
0.3280704284
 40
0.403049984
 40
0.4753930151
 40
0.5450605077
 40
0.6119656764
 40
0.6759875941
 40
0.7369011315
 40
0.7661091177
 40
0.7944046674
 40
0.8217090482
 40
0.8479455733
 40
0.8730325315
 40
0.8968390305
 40
0.9082158444
 40
0.9192070546
 40
0.9297780011
 40
0.9398957987
 40
0.9495292191
 40
0.9586355692
 40
0.9671666197
 40
0.9750845136
 40
0.9788067206
 40
0.9823644893
 40
0.9857412495
 40
0.9889251939
 40
0.9919157233
 40
0.9947284151
 40
0.9974011862
 40
1.0
 40
1.0
 40
1.0
 40
1.0
 10
5.4814557453
 20
2.5558461821
 30
0.0
 10
5.4497572235
 20
2.5558461821
 30
0.0
 10
5.3885891075
 20
2.5553020913
 30
0.0
 10
5.3134680818
 20
2.5531916344
 30
0.0
 10
5.2565844944
 20
2.5507512557
 30
0.0
 10
5.2161850058
 20
2.5485937174
 30
0.0
 10
5.1773149488
 20
2.5460721161
 30
0.0
 10
5.1400270352
 20
2.5431712751
 30
0.0
 10
5.1044100557
 20
2.5398804205
 30
0.0
 10
5.0758412698
 20
2.5367395727
 30
0.0
 10
5.0539363979
 20
2.5339766312
 30
0.0
 10
5.0382737389
 20
2.5318064707
 30
0.0
 10
5.0231911109
 20
2.5294970111
 30
0.0
 10
5.0087386994
 20
2.5270363136
 30
0.0
 10
4.9949772623
 20
2.5244173266
 30
0.0
 10
4.9839909689
 20
2.522049506
 30
0.0
 10
4.9756196002
 20
2.5200396134
 30
0.0
 10
4.9696742994
 20
2.5184991744
 30
0.0
 10
4.9639888936
 20
2.516896332
 30
0.0
 10
4.9585874639
 20
2.5152251385
 30
0.0
 10
4.9534963928
 20
2.5134819808
 30
0.0
 10
4.9487485467
 20
2.511658579
 30
0.0
 10
4.9443838073
 20
2.5097429764
 30
0.0
 10
4.9410334606
 20
2.5080271978
 30
0.0
 10
4.938591494
 20
2.506588498
 30
0.0
 10
4.9369255227
 20
2.5055042702
 30
0.0
 10
4.9354058537
 20
2.5043841435
 30
0.0
 10
4.9340542586
 20
2.5032214241
 30
0.0
 10
4.9328930878
 20
2.5020089012
 30
0.0
 10
4.931945422
 20
2.5007379488
 30
0.0
 10
4.9312366866
 20
2.4994000919
 30
0.0
 10
4.9309419139
 20
2.4984546231
 30
0.0
 10
4.9308459735
 20
2.4979796864
 30
0.0
  0
SPLINE
  5
2CC
100
AcDbEntity
  8
ALL_ASSEMBLY_MEMBERS
100
AcDbSpline
 62
7
  6
CONTINUOUS
 70
0
 71
3
 72
39
 73
35
 74
0
 42
0.0000001
 43
0.0000001
 44
0.0000000001
 40
0.0
 40
0.0
 40
0.0
 40
0.0
 40
0.1618340393
 40
0.2394456524
 40
0.3149738048
 40
0.3884856511
 40
0.4599565069
 40
0.529327842
 40
0.5964960725
 40
0.6613237923
 40
0.7235806029
 40
0.7536589885
 40
0.7829540998
 40
0.8113888296
 40
0.8388873058
 40
0.865358245
 40
0.890645321
 40
0.9027900921
 40
0.9145628099
 40
0.9259303359
 40
0.9368606831
 40
0.9473116218
 40
0.9571972178
 40
0.9664266606
 40
0.9749202315
 40
0.9788686586
 40
0.9825952492
 40
0.9860827746
 40
0.9893215252
 40
0.9923056924
 40
0.9950277978
 40
0.9975384578
 40
0.9987618386
 40
1.0
 40
1.0
 40
1.0
 40
1.0
 10
5.4814557453
 20
2.4566130461
 30
0.0
 10
5.4554866208
 20
2.4566130461
 30
0.0
 10
5.4170625352
 20
2.456868335
 30
0.0
 10
5.3665267962
 20
2.457748833
 30
0.0
 10
5.3301672308
 20
2.4586439509
 30
0.0
 10
5.2948000332
 20
2.4597719632
 30
0.0
 10
5.2604299476
 20
2.4611391956
 30
0.0
 10
5.2270895026
 20
2.4627511844
 30
0.0
 10
5.1948302241
 20
2.4646222428
 30
0.0
 10
5.1637319707
 20
2.4667645901
 30
0.0
 10
5.1385957318
 20
2.4688248386
 30
0.0
 10
5.1191633299
 20
2.4706501079
 30
0.0
 10
5.1051471574
 20
2.4720965713
 30
0.0
 10
5.0915585155
 20
2.47364595
 30
0.0
 10
5.0784397248
 20
2.4753075093
 30
0.0
 10
5.0658463532
 20
2.4770879735
 30
0.0
 10
5.0557203763
 20
2.4787107613
 30
0.0
 10
5.0479475678
 20
2.4800997514
 30
0.0
 10
5.0423879311
 20
2.4811731908
 30
0.0
 10
5.0370371232
 20
2.4822968123
 30
0.0
 10
5.0319153433
 20
2.4834747225
 30
0.0
 10
5.0270514205
 20
2.4847080266
 30
0.0
 10
5.0224886732
 20
2.486011825
 30
0.0
 10
5.0182799111
 20
2.4873996837
 30
0.0
 10
5.0150380983
 20
2.4886656799
 30
0.0
 10
5.0126777555
 20
2.4897445985
 30
0.0
 10
5.0110849722
 20
2.4905658924
 30
0.0
 10
5.0096421045
 20
2.4914238654
 30
0.0
 10
5.0083671458
 20
2.4923228604
 30
0.0
 10
5.0072791612
 20
2.4932644784
 30
0.0
 10
5.0064182799
 20
2.4942722646
 30
0.0
 10
5.0059342731
 20
2.4952041333
 30
0.0
 10
5.0057384247
 20
2.4959808014
 30
0.0
 10
5.0057057453
 20
2.4963766329
 30
0.0
 10
5.0057057453
 20
2.4965753177
 30
0.0
  0
SPLINE
  5
2CD
100
AcDbEntity
  8
ALL_ASSEMBLY_MEMBERS
100
AcDbSpline
 62
7
  6
CONTINUOUS
 70
0
 71
3
 72
39
 73
35
 74
0
 42
0.0000001
 43
0.0000001
 44
0.0000000001
 40
0.0
 40
0.0
 40
0.0
 40
0.0
 40
0.0012381614
 40
0.0024615422
 40
0.0049722022
 40
0.0076943076
 40
0.0106784748
 40
0.0139172254
 40
0.0174047508
 40
0.0211313414
 40
0.0250797685
 40
0.0335733394
 40
0.0428027822
 40
0.0526883782
 40
0.0631393169
 40
0.0740696641
 40
0.0854371901
 40
0.0972099079
 40
0.109354679
 40
0.134641755
 40
0.1611126942
 40
0.1886111704
 40
0.2170459002
 40
0.2463410115
 40
0.2764193971
 40
0.3386762077
 40
0.4035039275
 40
0.470672158
 40
0.5400434931
 40
0.6115143489
 40
0.6850261952
 40
0.7605543476
 40
0.8381659607
 40
1.0
 40
1.0
 40
1.0
 40
1.0
 10
5.9572057453
 20
2.4965753177
 30
0.0
 10
5.9572057453
 20
2.4963766329
 30
0.0
 10
5.957173066
 20
2.4959808014
 30
0.0
 10
5.9569772176
 20
2.4952041333
 30
0.0
 10
5.9564932108
 20
2.4942722646
 30
0.0
 10
5.9556323295
 20
2.4932644784
 30
0.0
 10
5.9545443449
 20
2.4923228604
 30
0.0
 10
5.9532693862
 20
2.4914238654
 30
0.0
 10
5.9518265185
 20
2.4905658924
 30
0.0
 10
5.9502337352
 20
2.4897445985
 30
0.0
 10
5.9478733924
 20
2.4886656799
 30
0.0
 10
5.9446315796
 20
2.4873996837
 30
0.0
 10
5.9404228175
 20
2.486011825
 30
0.0
 10
5.9358600702
 20
2.4847080266
 30
0.0
 10
5.9309961474
 20
2.4834747225
 30
0.0
 10
5.9258743675
 20
2.4822968123
 30
0.0
 10
5.9205235596
 20
2.4811731908
 30
0.0
 10
5.9149639229
 20
2.4800997514
 30
0.0
 10
5.9071911143
 20
2.4787107613
 30
0.0
 10
5.8970651374
 20
2.4770879735
 30
0.0
 10
5.8844717659
 20
2.4753075093
 30
0.0
 10
5.8713529752
 20
2.47364595
 30
0.0
 10
5.8577643333
 20
2.4720965713
 30
0.0
 10
5.8437481608
 20
2.4706501079
 30
0.0
 10
5.8243157589
 20
2.4688248386
 30
0.0
 10
5.79917952
 20
2.4667645901
 30
0.0
 10
5.7680812666
 20
2.4646222428
 30
0.0
 10
5.7358219881
 20
2.4627511844
 30
0.0
 10
5.7024815431
 20
2.4611391956
 30
0.0
 10
5.6681114574
 20
2.4597719632
 30
0.0
 10
5.6327442599
 20
2.4586439509
 30
0.0
 10
5.5963846945
 20
2.457748833
 30
0.0
 10
5.5458489554
 20
2.456868335
 30
0.0
 10
5.5074248699
 20
2.4566130461
 30
0.0
 10
5.4814557453
 20
2.4566130461
 30
0.0
  0
SPLINE
  5
2CE
100
AcDbEntity
  8
ALL_ASSEMBLY_MEMBERS
100
AcDbSpline
 62
7
  6
CONTINUOUS
 70
0
 71
3
 72
31
 73
27
 74
0
 42
0.0000001
 43
0.0000001
 44
0.0000000001
 40
0.0
 40
0.0
 40
0.0
 40
0.0
 40
0.0143011853
 40
0.0286208765
 40
0.0429759989
 40
0.0573769627
 40
0.0718275642
 40
0.0863277922
 40
0.1154761297
 40
0.1448086678
 40
0.1743005734
 40
0.203935555
 40
0.2336985723
 40
0.2935754859
 40
0.3236785724
 40
0.3538742032
 40
0.4145555282
 40
0.4756841531
 40
0.5373528961
 40
0.5996950692
 40
0.6628685865
 40
0.7270671521
 40
0.7925371896
 40
0.8596168176
 40
0.9286557238
 40
1.0
 40
1.0
 40
1.0
 40
1.0
 10
5.1443544624
 20
3.2371950265
 30
0.0
 10
5.1449704909
 20
3.239036674
 30
0.0
 10
5.146310233
 20
3.2426870825
 30
0.0
 10
5.1485746285
 20
3.2480674303
 30
0.0
 10
5.151077874
 20
3.2533558866
 30
0.0
 10
5.1537955205
 20
3.2585570207
 30
0.0
 10
5.1567053144
 20
3.2636755773
 30
0.0
 10
5.1608202834
 20
3.2704079177
 30
0.0
 10
5.1663644998
 20
3.2786287312
 30
0.0
 10
5.1735402286
 20
3.2881844196
 30
0.0
 10
5.1811793171
 20
3.2974590137
 30
0.0
 10
5.1892366327
 20
3.3064508308
 30
0.0
 10
5.2005067297
 20
3.3180871812
 30
0.0
 10
5.2124700587
 20
3.3291238723
 30
0.0
 10
5.2250228425
 20
3.3395544188
 30
0.0
 10
5.2380047653
 20
3.3496257985
 30
0.0
 10
5.2549421176
 20
3.361451685
 30
0.0
 10
5.2762881525
 20
3.3743345038
 30
0.0
 10
5.2986417686
 20
3.3858783908
 30
0.0
 10
5.3219624819
 20
3.3960337883
 30
0.0
 10
5.3462235033
 20
3.4047513087
 30
0.0
 10
5.371412644
 20
3.4119754939
 30
0.0
 10
5.3975369563
 20
3.4176564894
 30
0.0
 10
5.4246209556
 20
3.4217523959
 30
0.0
 10
5.4527001548
 20
3.4242265215
 30
0.0
 10
5.4717679623
 20
3.4247610396
 30
0.0
 10
5.4814557453
 20
3.4247610396
 30
0.0
  0
SPLINE
  5
2CF
100
AcDbEntity
  8
ALL_ASSEMBLY_MEMBERS
100
AcDbSpline
 62
7
  6
CONTINUOUS
 70
0
 71
3
 72
23
 73
19
 74
0
 42
0.0000001
 43
0.0000001
 44
0.0000000001
 40
0.0
 40
0.0
 40
0.0
 40
0.0
 40
0.0614806586
 40
0.122570461
 40
0.1834738008
 40
0.2443788642
 40
0.3054552752
 40
0.3668227374
 40
0.4285572251
 40
0.4907011705
 40
0.5532760582
 40
0.6162797367
 40
0.6796753441
 40
0.7433950921
 40
0.8073548685
 40
0.8714799145
 40
0.9357027443
 40
1.0
 40
1.0
 40
1.0
 40
1.0
 10
5.4908683215
 20
3.6311306809
 30
0.0
 10
5.49949983
 20
3.6308377762
 30
0.0
 10
5.5166916339
 20
3.6294475846
 30
0.0
 10
5.5421096546
 20
3.6249723229
 30
0.0
 10
5.5669262423
 20
3.6181786044
 30
0.0
 10
5.5910091528
 20
3.6091296026
 30
0.0
 10
5.6142222979
 20
3.597890314
 30
0.0
 10
5.6364467318
 20
3.5845802804
 30
0.0
 10
5.6575640161
 20
3.56932066
 30
0.0
 10
5.6774522769
 20
3.5522304995
 30
0.0
 10
5.6959805552
 20
3.533424642
 30
0.0
 10
5.7130387135
 20
3.5130480708
 30
0.0
 10
5.7285416346
 20
3.4912685856
 30
0.0
 10
5.7423887176
 20
3.4682437047
 30
0.0
 10
5.7544539631
 20
3.4441218293
 30
0.0
 10
5.7646125568
 20
3.4190592039
 30
0.0
 10
5.7727430434
 20
3.3932180373
 30
0.0
 10
5.7766628935
 20
3.3755633448
 30
0.0
 10
5.7781824488
 20
3.3666599488
 30
0.0
  0
SPLINE
  5
2D0
100
AcDbEntity
  8
ALL_ASSEMBLY_MEMBERS
100
AcDbSpline
 62
7
  6
CONTINUOUS
 70
0
 71
3
 72
24
 73
20
 74
0
 42
0.0000001
 43
0.0000001
 44
0.0000000001
 40
0.0
 40
0.0
 40
0.0
 40
0.0
 40
0.0328642588
 40
0.0656375702
 40
0.130926976
 40
0.1958380954
 40
0.2602750153
 40
0.3241506766
 40
0.3873745511
 40
0.4499097566
 40
0.5117657655
 40
0.5730058594
 40
0.6337348935
 40
0.6941029853
 40
0.7543124651
 40
0.8146406959
 40
0.8754423882
 40
0.937097256
 40
1.0
 40
1.0
 40
1.0
 40
1.0
 10
5.1856944866
 20
3.3665241701
 30
0.0
 10
5.1868543033
 20
3.370828546
 30
0.0
 10
5.1894206648
 20
3.379359662
 30
0.0
 10
5.195382642
 20
3.3960943554
 30
0.0
 10
5.2041792258
 20
3.4164055109
 30
0.0
 10
5.2164803687
 20
3.4397911337
 30
0.0
 10
5.2303140188
 20
3.4620789774
 30
0.0
 10
5.2455357335
 20
3.4831594986
 30
0.0
 10
5.262009839
 20
3.5029422992
 30
0.0
 10
5.2796650338
 20
3.5213028165
 30
0.0
 10
5.2984417439
 20
3.5381164529
 30
0.0
 10
5.3182702748
 20
3.5532780937
 30
0.0
 10
5.3390812611
 20
3.5666943992
 30
0.0
 10
5.360814924
 20
3.5782677656
 30
0.0
 10
5.3834205732
 20
3.5878965381
 30
0.0
 10
5.4068513884
 20
3.5954912522
 30
0.0
 10
5.4310634955
 20
3.6009876177
 30
0.0
 10
5.4560173041
 20
3.6043224806
 30
0.0
 10
5.4729232595
 20
3.6050550212
 30
0.0
 10
5.4814557453
 20
3.6050550212
 30
0.0
  0
SPLINE
  5
2D1
100
AcDbEntity
  8
ALL_ASSEMBLY_MEMBERS
100
AcDbSpline
 62
7
  6
CONTINUOUS
 70
0
 71
3
 72
32
 73
28
 74
0
 42
0.0000001
 43
0.0000001
 44
0.0000000001
 40
0.0
 40
0.0
 40
0.0
 40
0.0
 40
0.16601135
 40
0.3205072584
 40
0.3939165357
 40
0.4648579675
 40
0.5333203592
 40
0.5992476621
 40
0.6625560976
 40
0.7230768041
 40
0.7522301277
 40
0.7805839365
 40
0.8346298846
 40
0.8602011259
 40
0.8725870495
 40
0.8846865794
 40
0.9079652822
 40
0.9298646115
 40
0.9402379932
 40
0.9501946692
 40
0.9597019604
 40
0.9687360821
 40
0.977288608
 40
0.9853434399
 40
0.9928706807
 40
0.9964698427
 40
1.0
 40
1.0
 40
1.0
 40
1.0
 10
5.4814557453
 20
2.8653579211
 30
0.0
 10
5.5092677107
 20
2.8653579211
 30
0.0
 10
5.5629699878
 20
2.8643092558
 30
0.0
 10
5.6288570905
 20
2.8602046676
 30
0.0
 10
5.678698037
 20
2.8554256306
 30
0.0
 10
5.7141051724
 20
2.8512209276
 30
0.0
 10
5.7481628693
 20
2.8463620706
 30
0.0
 10
5.7808280127
 20
2.8408668006
 30
0.0
 10
5.8120297548
 20
2.8347588157
 30
0.0
 10
5.8370298645
 20
2.8290942677
 30
0.0
 10
5.8561992432
 20
2.8242405898
 30
0.0
 10
5.8742293845
 20
2.8193215548
 30
0.0
 10
5.8915355027
 20
2.8140326791
 30
0.0
 10
5.9060867129
 20
2.8089437594
 30
0.0
 10
5.9139353909
 20
2.8059890481
 30
0.0
 10
5.9213742834
 20
2.8030395772
 30
0.0
 10
5.9301950697
 20
2.7992549737
 30
0.0
 10
5.9385636016
 20
2.7951697258
 30
0.0
 10
5.9447566174
 20
2.7917464971
 30
0.0
 10
5.949034627
 20
2.7891578765
 30
0.0
 10
5.9529971058
 20
2.7864906152
 30
0.0
 10
5.9566081717
 20
2.7837351264
 30
0.0
 10
5.9598289644
 20
2.7808858374
 30
0.0
 10
5.9626099888
 20
2.7779412457
 30
0.0
 10
5.9644758892
 20
2.7753018911
 30
0.0
 10
5.9655649335
 20
2.7730960356
 30
0.0
 10
5.9659622722
 20
2.7719655069
 30
0.0
 10
5.9661200483
 20
2.771395532
 30
0.0
  0
SPLINE
  5
2D2
100
AcDbEntity
  8
ALL_ASSEMBLY_MEMBERS
100
AcDbSpline
 62
7
  6
CONTINUOUS
 70
0
 71
3
 72
31
 73
27
 74
0
 42
0.0000001
 43
0.0000001
 44
0.0000000001
 40
0.0
 40
0.0
 40
0.0
 40
0.0
 40
0.0713442762
 40
0.1403831824
 40
0.2074628104
 40
0.2729328479
 40
0.3371314135
 40
0.4003049308
 40
0.4626471039
 40
0.5243158469
 40
0.5854444718
 40
0.6461257968
 40
0.6763214276
 40
0.7064245141
 40
0.7663014277
 40
0.796064445
 40
0.8256994266
 40
0.8551913322
 40
0.8845238703
 40
0.9136722078
 40
0.9281724358
 40
0.9426230373
 40
0.9570240011
 40
0.9713791235
 40
0.9856988147
 40
1.0
 40
1.0
 40
1.0
 40
1.0
 10
5.4814557453
 20
3.4247610396
 30
0.0
 10
5.4911435284
 20
3.4247610396
 30
0.0
 10
5.5102113359
 20
3.4242265215
 30
0.0
 10
5.538290535
 20
3.4217523959
 30
0.0
 10
5.5653745343
 20
3.4176564894
 30
0.0
 10
5.5914988467
 20
3.4119754939
 30
0.0
 10
5.6166879874
 20
3.4047513087
 30
0.0
 10
5.6409490088
 20
3.3960337883
 30
0.0
 10
5.6642697221
 20
3.3858783908
 30
0.0
 10
5.6866233381
 20
3.3743345038
 30
0.0
 10
5.707969373
 20
3.361451685
 30
0.0
 10
5.7249067254
 20
3.3496257985
 30
0.0
 10
5.7378886482
 20
3.3395544188
 30
0.0
 10
5.750441432
 20
3.3291238723
 30
0.0
 10
5.762404761
 20
3.3180871812
 30
0.0
 10
5.773674858
 20
3.3064508308
 30
0.0
 10
5.7817321736
 20
3.2974590137
 30
0.0
 10
5.789371262
 20
3.2881844196
 30
0.0
 10
5.7965469909
 20
3.2786287312
 30
0.0
 10
5.8020912072
 20
3.2704079177
 30
0.0
 10
5.8062061762
 20
3.2636755773
 30
0.0
 10
5.8091159702
 20
3.2585570207
 30
0.0
 10
5.8118336167
 20
3.2533558866
 30
0.0
 10
5.8143368622
 20
3.2480674303
 30
0.0
 10
5.8166012577
 20
3.2426870825
 30
0.0
 10
5.8179409997
 20
3.239036674
 30
0.0
 10
5.8185570283
 20
3.2371950265
 30
0.0
  0
SPLINE
  5
2D3
100
AcDbEntity
  8
ALL_ASSEMBLY_MEMBERS
100
AcDbSpline
 62
7
  6
CONTINUOUS
 70
0
 71
3
 72
37
 73
33
 74
0
 42
0.0000001
 43
0.0000001
 44
0.0000000001
 40
0.0
 40
0.0
 40
0.0
 40
0.0
 40
0.0025988138
 40
0.0052715849
 40
0.0080842767
 40
0.0110748061
 40
0.0142587505
 40
0.0176355107
 40
0.0211932794
 40
0.0249154864
 40
0.0328333803
 40
0.0413644308
 40
0.0504707809
 40
0.0601042014
 40
0.0702219989
 40
0.0807929454
 40
0.0917841556
 40
0.1031609695
 40
0.1269674685
 40
0.1520544267
 40
0.1782909518
 40
0.2055953326
 40
0.2338908824
 40
0.2630988685
 40
0.3240124059
 40
0.3880343236
 40
0.4549394923
 40
0.5246069849
 40
0.596950016
 40
0.6719295716
 40
0.8299825817
 40
1.0
 40
1.0
 40
1.0
 40
1.0
 10
6.0320655172
 20
2.4979796864
 30
0.0
 10
6.0319695768
 20
2.4984546231
 30
0.0
 10
6.0316748041
 20
2.4994000919
 30
0.0
 10
6.0309660687
 20
2.5007379488
 30
0.0
 10
6.0300184029
 20
2.5020089012
 30
0.0
 10
6.0288572321
 20
2.5032214241
 30
0.0
 10
6.027505637
 20
2.5043841435
 30
0.0
 10
6.025985968
 20
2.5055042702
 30
0.0
 10
6.0243199967
 20
2.506588498
 30
0.0
 10
6.0218780301
 20
2.5080271978
 30
0.0
 10
6.0185276834
 20
2.5097429764
 30
0.0
 10
6.014162944
 20
2.511658579
 30
0.0
 10
6.0094150979
 20
2.5134819808
 30
0.0
 10
6.0043240268
 20
2.5152251385
 30
0.0
 10
5.9989225971
 20
2.516896332
 30
0.0
 10
5.9932371913
 20
2.5184991744
 30
0.0
 10
5.9872918905
 20
2.5200396134
 30
0.0
 10
5.9789205218
 20
2.522049506
 30
0.0
 10
5.9679342284
 20
2.5244173266
 30
0.0
 10
5.9541727912
 20
2.5270363136
 30
0.0
 10
5.9397203798
 20
2.5294970111
 30
0.0
 10
5.9246377518
 20
2.5318064707
 30
0.0
 10
5.9089750928
 20
2.5339766312
 30
0.0
 10
5.8870702209
 20
2.5367395727
 30
0.0
 10
5.858501435
 20
2.5398804205
 30
0.0
 10
5.8228844555
 20
2.5431712751
 30
0.0
 10
5.7855965418
 20
2.5460721161
 30
0.0
 10
5.7467264848
 20
2.5485937174
 30
0.0
 10
5.7063269963
 20
2.5507512557
 30
0.0
 10
5.6494434089
 20
2.5531916344
 30
0.0
 10
5.5743223832
 20
2.5553020913
 30
0.0
 10
5.5131542672
 20
2.5558461821
 30
0.0
 10
5.4814557453
 20
2.5558461821
 30
0.0
  0
SPLINE
  5
2D4
100
AcDbEntity
  8
ALL_ASSEMBLY_MEMBERS
100
AcDbSpline
 62
7
  6
CONTINUOUS
 70
0
 71
3
 72
27
 73
23
 74
0
 42
0.0000001
 43
0.0000001
 44
0.0000000001
 40
0.0
 40
0.0
 40
0.0
 40
0.0
 40
0.0779745629
 40
0.1532069422
 40
0.2260010367
 40
0.2966529007
 40
0.4324343117
 40
0.5615916489
 40
0.6237972095
 40
0.6843612672
 40
0.7140049628
 40
0.7431949394
 40
0.8000486301
 40
0.827648328
 40
0.8546405768
 40
0.8809632997
 40
0.9065441978
 40
0.9312877583
 40
0.9551198809
 40
0.9666804283
 40
0.9780103039
 40
1.0
 40
1.0
 40
1.0
 40
1.0
 10
5.4814557453
 20
3.2118613334
 30
0.0
 10
5.4929784895
 20
3.2118613334
 30
0.0
 10
5.5156224896
 20
3.2113660905
 30
0.0
 10
5.5489545414
 20
3.2091034588
 30
0.0
 10
5.5810703125
 20
3.2054043086
 30
0.0
 10
5.6218044806
 20
3.1987400392
 30
0.0
 10
5.6701372316
 20
3.1872867446
 30
0.0
 10
5.7159742366
 20
3.1716663531
 30
0.0
 10
5.7502325979
 20
3.1570615484
 30
0.0
 10
5.7704883997
 20
3.1471877035
 30
0.0
 10
5.7860307821
 20
3.1388320387
 30
0.0
 10
5.8008634314
 20
3.1303287014
 30
0.0
 10
5.8150680449
 20
3.1213450958
 30
0.0
 10
5.8285227951
 20
3.1118430092
 30
0.0
 10
5.8380314555
 20
3.104587867
 30
0.0
 10
5.8469965193
 20
3.0971282282
 30
0.0
 10
5.8553427567
 20
3.0894625136
 30
0.0
 10
5.8629479446
 20
3.081561797
 30
0.0
 10
5.868612017
 20
3.0746973839
 30
0.0
 10
5.8725745503
 20
3.0690370178
 30
0.0
 10
5.8760469119
 20
3.0633887355
 30
0.0
 10
5.8782015966
 20
3.0589141413
 30
0.0
 10
5.8792163133
 20
3.0558270917
 30
0.0
  0
SPLINE
  5
2D5
100
AcDbEntity
  8
ALL_ASSEMBLY_MEMBERS
100
AcDbSpline
 62
7
  6
CONTINUOUS
 70
0
 71
3
 72
32
 73
28
 74
0
 42
0.0000001
 43
0.0000001
 44
0.0000000001
 40
0.0
 40
0.0
 40
0.0
 40
0.0
 40
0.0035301573
 40
0.0071293193
 40
0.0146565601
 40
0.022711392
 40
0.0312639179
 40
0.0402980396
 40
0.0498053308
 40
0.0597620068
 40
0.0701353885
 40
0.0920347178
 40
0.1153134206
 40
0.1274129505
 40
0.1397988741
 40
0.1653701154
 40
0.2194160635
 40
0.2477698723
 40
0.2769231959
 40
0.3374439024
 40
0.4007523379
 40
0.4666796408
 40
0.5351420325
 40
0.6060834643
 40
0.6794927416
 40
0.83398865
 40
1.0
 40
1.0
 40
1.0
 40
1.0
 10
4.9967914424
 20
2.771395532
 30
0.0
 10
4.9969492185
 20
2.7719655069
 30
0.0
 10
4.9973465571
 20
2.7730960356
 30
0.0
 10
4.9984356015
 20
2.7753018911
 30
0.0
 10
5.0003015019
 20
2.7779412457
 30
0.0
 10
5.0030825263
 20
2.7808858374
 30
0.0
 10
5.006303319
 20
2.7837351264
 30
0.0
 10
5.0099143849
 20
2.7864906152
 30
0.0
 10
5.0138768637
 20
2.7891578765
 30
0.0
 10
5.0181548733
 20
2.7917464971
 30
0.0
 10
5.024347889
 20
2.7951697258
 30
0.0
 10
5.032716421
 20
2.7992549737
 30
0.0
 10
5.0415372073
 20
2.8030395772
 30
0.0
 10
5.0489760997
 20
2.8059890481
 30
0.0
 10
5.0568247777
 20
2.8089437594
 30
0.0
 10
5.071375988
 20
2.8140326791
 30
0.0
 10
5.0886821062
 20
2.8193215548
 30
0.0
 10
5.1067122474
 20
2.8242405898
 30
0.0
 10
5.1258816262
 20
2.8290942677
 30
0.0
 10
5.1508817359
 20
2.8347588157
 30
0.0
 10
5.1820834779
 20
2.8408668006
 30
0.0
 10
5.2147486213
 20
2.8463620706
 30
0.0
 10
5.2488063182
 20
2.8512209276
 30
0.0
 10
5.2842134537
 20
2.8554256306
 30
0.0
 10
5.3340544002
 20
2.8602046676
 30
0.0
 10
5.3999415029
 20
2.8643092558
 30
0.0
 10
5.45364378
 20
2.8653579211
 30
0.0
 10
5.4814557453
 20
2.8653579211
 30
0.0
  0
SPLINE
  5
2D6
100
AcDbEntity
  8
ALL_ASSEMBLY_MEMBERS
100
AcDbSpline
 62
7
  6
CONTINUOUS
 70
0
 71
3
 72
24
 73
20
 74
0
 42
0.0000001
 43
0.0000001
 44
0.0000000001
 40
0.0
 40
0.0
 40
0.0
 40
0.0
 40
0.0629027444
 40
0.1245576127
 40
0.1853593055
 40
0.2456875367
 40
0.3058970168
 40
0.3662651088
 40
0.4269941429
 40
0.4882342367
 40
0.5500902454
 40
0.6126254506
 40
0.6758493247
 40
0.7397249856
 40
0.8041619052
 40
0.8690730244
 40
0.9343624301
 40
0.9671357413
 40
1.0
 40
1.0
 40
1.0
 40
1.0
 10
5.4814557453
 20
3.6050550212
 30
0.0
 10
5.4899882303
 20
3.6050550212
 30
0.0
 10
5.5068941841
 20
3.6043224808
 30
0.0
 10
5.5318479902
 20
3.6009876185
 30
0.0
 10
5.5560600951
 20
3.5954912541
 30
0.0
 10
5.5794909082
 20
3.5878965415
 30
0.0
 10
5.6020965555
 20
3.5782677709
 30
0.0
 10
5.6238302167
 20
3.5666944067
 30
0.0
 10
5.6446412015
 20
3.5532781037
 30
0.0
 10
5.6644697312
 20
3.5381164657
 30
0.0
 10
5.6832464403
 20
3.5213028324
 30
0.0
 10
5.7009016344
 20
3.5029423183
 30
0.0
 10
5.7173757396
 20
3.4831595212
 30
0.0
 10
5.7325974543
 20
3.4620790036
 30
0.0
 10
5.7464311048
 20
3.4397911635
 30
0.0
 10
5.7587322487
 20
3.4164055445
 30
0.0
 10
5.7675288338
 20
3.3960943923
 30
0.0
 10
5.7734908128
 20
3.3793597015
 30
0.0
 10
5.7760571755
 20
3.3708285869
 30
0.0
 10
5.7772169929
 20
3.3665242117
 30
0.0
  0
SPLINE
  5
2D7
100
AcDbEntity
  8
ALL_ASSEMBLY_MEMBERS
100
AcDbSpline
 62
7
  6
CONTINUOUS
 70
0
 71
3
 72
23
 73
19
 74
0
 42
0.0000001
 43
0.0000001
 44
0.0000000001
 40
0.0
 40
0.0
 40
0.0
 40
0.0
 40
0.0642973631
 40
0.1285202903
 40
0.1926454023
 40
0.2566051891
 40
0.3203248645
 40
0.3837202902
 40
0.4467236828
 40
0.5092981986
 40
0.5714417227
 40
0.6331757661
 40
0.6945428153
 40
0.7556189226
 40
0.8165239243
 40
0.8774275527
 40
0.9385180798
 40
1.0
 40
1.0
 40
1.0
 40
1.0
 10
5.1847289345
 20
3.3666593193
 30
0.0
 10
5.1862486973
 20
3.3755640563
 30
0.0
 10
5.1901692288
 20
3.3932213881
 30
0.0
 10
5.1983013731
 20
3.4190662996
 30
0.0
 10
5.2084621877
 20
3.4441323949
 30
0.0
 10
5.2205301781
 20
3.4682573867
 30
0.0
 10
5.2343804664
 20
3.4912849663
 30
0.0
 10
5.2498870051
 20
3.5130666685
 30
0.0
 10
5.266949171
 20
3.5334448926
 30
0.0
 10
5.2854818113
 20
3.5522517594
 30
0.0
 10
5.305374689
 20
3.5693422725
 30
0.0
 10
5.3264967959
 20
3.5846015391
 30
0.0
 10
5.3487262075
 20
3.5979104585
 30
0.0
 10
5.3719444459
 20
3.6091477996
 30
0.0
 10
5.3960324805
 20
3.6181940324
 30
0.0
 10
5.420854157
 20
3.6249841895
 30
0.0
 10
5.4462771808
 20
3.6294550576
 30
0.0
 10
5.4634721275
 20
3.6308417553
 30
0.0
 10
5.4721051608
 20
3.6311327776
 30
0.0
  0
SPLINE
  5
2D8
100
AcDbEntity
  8
ALL_ASSEMBLY_MEMBERS
100
AcDbSpline
 62
7
  6
CONTINUOUS
 70
0
 71
3
 72
32
 73
28
 74
0
 42
0.0000001
 43
0.0000001
 44
0.0000000001
 40
0.0
 40
0.0
 40
0.0
 40
0.0
 40
0.0076135935
 40
0.0156140842
 40
0.0240958579
 40
0.0330320825
 40
0.0424159914
 40
0.0522404261
 40
0.0624836766
 40
0.0731164323
 40
0.0841177036
 40
0.0954669871
 40
0.1071405728
 40
0.1191139405
 40
0.1438983247
 40
0.1697105641
 40
0.2240878481
 40
0.2525390977
 40
0.2817481899
 40
0.3422678145
 40
0.4054369587
 40
0.4711000327
 40
0.5391835708
 40
0.6824630076
 40
0.7577220347
 40
0.8355898193
 40
1.0
 40
1.0
 40
1.0
 40
1.0
 10
5.0120519763
 20
2.8253375682
 30
0.0
 10
5.0123978002
 20
2.8265347267
 30
0.0
 10
5.0134154929
 20
2.8289053495
 30
0.0
 10
5.0156274427
 20
2.8321873087
 30
0.0
 10
5.0183797939
 20
2.8353168932
 30
0.0
 10
5.0215449173
 20
2.838359525
 30
0.0
 10
5.0250829083
 20
2.8413143385
 30
0.0
 10
5.028955427
 20
2.8441882431
 30
0.0
 10
5.0331282805
 20
2.846990045
 30
0.0
 10
5.0375694518
 20
2.8497300605
 30
0.0
 10
5.0422562791
 20
2.8524105496
 30
0.0
 10
5.0471684562
 20
2.8550350792
 30
0.0
 10
5.0522865628
 20
2.8576077167
 30
0.0
 10
5.0594441587
 20
2.8610149259
 30
0.0
 10
5.0688184079
 20
2.8651436744
 30
0.0
 10
5.0847568256
 20
2.8715640665
 30
0.0
 10
5.101518742
 20
2.8775232462
 30
0.0
 10
5.1189851148
 20
2.8831086529
 30
0.0
 10
5.1375215234
 20
2.8886379971
 30
0.0
 10
5.1616930897
 20
2.8951367798
 30
0.0
 10
5.1918726261
 20
2.9022031967
 30
0.0
 10
5.2234646534
 20
2.908603426
 30
0.0
 10
5.26814748
 20
2.9163263334
 30
0.0
 10
5.3146943708
 20
2.9223738173
 30
0.0
 10
5.3630130244
 20
2.9267519706
 30
0.0
 10
5.4148822188
 20
2.9300774806
 30
0.0
 10
5.4545469432
 20
2.9310370415
 30
0.0
 10
5.4814557453
 20
2.9310370415
 30
0.0
  0
SPLINE
  5
2D9
100
AcDbEntity
  8
ALL_ASSEMBLY_MEMBERS
100
AcDbSpline
 62
7
  6
CONTINUOUS
 70
0
 71
3
 72
23
 73
19
 74
0
 42
0.0000001
 43
0.0000001
 44
0.0000000001
 40
0.0
 40
0.0
 40
0.0
 40
0.0
 40
0.065673309
 40
0.1311219039
 40
0.1963200796
 40
0.2611682655
 40
0.3255620561
 40
0.3893914605
 40
0.4525713241
 40
0.5150605833
 40
0.5768634702
 40
0.6380262237
 40
0.6986304498
 40
0.7588073136
 40
0.8187470116
 40
0.8787184802
 40
0.939026494
 40
1.0
 40
1.0
 40
1.0
 40
1.0
 10
5.1857829447
 20
3.3670354065
 30
0.0
 10
5.1875070769
 20
3.3760368493
 30
0.0
 10
5.1919278906
 20
3.3938299987
 30
0.0
 10
5.2008495929
 20
3.4197627714
 30
0.0
 10
5.2116941987
 20
3.4448254983
 30
0.0
 10
5.2242774268
 20
3.4688934884
 30
0.0
 10
5.2384640987
 20
3.4918276989
 30
0.0
 10
5.2541205834
 20
3.5134981194
 30
0.0
 10
5.2711511332
 20
3.5337622318
 30
0.0
 10
5.2894853242
 20
3.5524636923
 30
0.0
 10
5.3090370412
 20
3.5694645294
 30
0.0
 10
5.3297051966
 20
3.5846514969
 30
0.0
 10
5.3513978838
 20
3.5979091194
 30
0.0
 10
5.3740293666
 20
3.609118137
 30
0.0
 10
5.3975176078
 20
3.6181607627
 30
0.0
 10
5.4217712149
 20
3.6249603975
 30
0.0
 10
5.4467027097
 20
3.6294452425
 30
0.0
 10
5.4636018315
 20
3.6308346858
 30
0.0
 10
5.4721059369
 20
3.6311288511
 30
0.0
  0
ENDSEC
  0
SECTION
  2
OBJECTS
  0
DICTIONARY
  5
C
100
AcDbDictionary
280
0
281
1
  3
ACAD_GROUP
350
D
  3
ACAD_MLINESTYLE
350
17
  3
ACAD_LAYOUT
350
1A
  3
ACAD_PLOTSETTINGS
350
19
  3
ACAD_PLOTSTYLENAME
350
E
  0
DICTIONARY
  5
D
102
{ACAD_REACTORS
330
C
102
}
100
AcDbDictionary
280
0
281
1
  0
ACDBDICTIONARYWDFLT
  5
E
102
{ACAD_REACTORS
330
C
102
}
100
AcDbDictionary
281
1
  3
Normal
350
F
100
AcDbDictionaryWithDefault
340
F
  0
DICTIONARY
  5
17
102
{ACAD_REACTORS
330
C
102
}
100
AcDbDictionary
280
0
281
1
  3
Standard
350
18
  0
DICTIONARY
  5
19
102
{ACAD_REACTORS
330
C
102
}
100
AcDbDictionary
281
1
  0
DICTIONARY
  5
1A
102
{ACAD_REACTORS
330
C
102
}
100
AcDbDictionary
281
1
  3
Model
350
2DA
  3
Layout1
350
2DB
  0
ACDBPLACEHOLDER
  5
F
102
{ACAD_REACTORS
330
E
102
}
  0
MLINESTYLE
  5
18
102
{ACAD_REACTORS
330
17
102
}
100
AcDbMlineStyle
  2
STANDARD
 70
0
  3

 62
256
 51
90.0
 52
90.0
 71
2
 49
0.5
 62
256
  6
BYLAYER
 49
-0.5
 62
256
  6
BYLAYER
  0
LAYOUT
  5
2DA
102
{ACAD_REACTORS
330
1A
102
}
100
AcDbPlotSettings
  1

  2
none_device
  4
ANSI_A_(11.00_x_8.50_Inches)
  6

 40
0.0
 41
0.0
 42
0.0
 43
0.0
 44
279.4
 45
215.9
 46
0.0
 47
0.0
 48
0.0
 49
0.0
140
0.0
141
0.0
142
1.0
143
1.0
 70
1024
 72
0
 73
0
 74
0
  7

 75
0
147
1.0
148
0.0
149
0.0
100
AcDbLayout
  1
Model
 70
0
 71
0
 10
0.0
 20
0.0
 11
11.0
 21
8.5
 12
0.0
 22
0.0
 32
0.0
 14
0.0
 24
0.0
 34
0.0
 15
0.0
 25
0.0
 35
0.0
146
0.0
 13
0.0
 23
0.0
 33
0.0
 16
1.0
 26
0.0
 36
0.0
 17
0.0
 27
1.0
 37
0.0
 76
0
330
21D
345
0
346
0
  0
LAYOUT
  5
2DB
102
{ACAD_REACTORS
330
1A
102
}
100
AcDbPlotSettings
  1

  2
none_device
  4
ANSI_A_(11.00_x_8.50_Inches)
  6

 40
0.0
 41
0.0
 42
0.0
 43
0.0
 44
279.4
 45
215.9
 46
0.0
 47
0.0
 48
0.0
 49
0.0
140
0.0
141
0.0
142
1.0
143
1.0
 70
0
 72
0
 73
0
 74
0
  7

 75
0
147
1.0
148
0.0
149
0.0
100
AcDbLayout
  1
Layout1
 70
0
 71
1
 10
0.0
 20
0.0
 11
11.0
 21
8.5
 12
0.0
 22
0.0
 32
0.0
 14
0.0
 24
0.0
 34
0.0
 15
0.0
 25
0.0
 35
0.0
146
0.0
 13
0.0
 23
0.0
 33
0.0
 16
1.0
 26
0.0
 36
0.0
 17
0.0
 27
1.0
 37
0.0
 76
0
330
21E
345
0
346
0
  0
ENDSEC
  0
EOF
