999
DXF file: 3-2455_TOP.dxf
999
Pro/ENGINEER 2018400 by Parametric Technology Corporation
  0
SECTION
  2
HEADER
  9
$ACADVER
  1
AC1027
  9
$DWGCODEPAGE
  3
ANSI_1252
  9
$EXTMAX
 10
11.0
 20
8.5
 30
0.0
  9
$EXTMIN
 10
0.0
 20
0.0
 30
0.0
  9
$LIMMIN
 10
0.0
 20
0.0
  9
$LIMMAX
 10
11.0
 20
8.5
  9
$VIEWCTR
 10
5.5
 20
4.25
  9
$VIEWSIZE
 40
8.5
  9
$CLAYER
  8
0
  9
$LTSCALE
 40
0.605
  9
$CELTYPE
  6
BYLAYER
  9
$DIMSCALE
 40
1.0
  9
$DIMASZ
 40
0.1
  9
$DIMEXO
 40
0.0625
  9
$DIMDLI
 40
0.418
  9
$DIMEXE
 40
0.125
  9
$DIMCEN
 40
0.099
  9
$DIMLFAC
 40
1.0
  9
$DIMBLK
  1
_FILLED
  9
$DIMALT
 70
1
  9
$DIMALTD
 70
2
  9
$DIMALTTD
 70
2
  9
$DIMALTF
 40
25.4
  9
$DIMTXT
 40
0.08
  9
$DIMTOL
 70
1
  9
$DIMLIM
 70
0
  9
$DIMTFAC
 40
1.0
  9
$DIMTP
 40
0.001
  9
$DIMTM
 40
0.001
  9
$DIMGAP
 40
0.09
  9
$DIMDSEP
 70
46
  9
$AUNITS
 70
0
  9
$PDMODE
 70
3
  9
$PDSIZE
 40
0.3125
  9
$HANDSEED
  5
38F
  9
$TILEMODE
 70
1
  9
$MEASUREMENT
 70
0
  9
$INSUNITS
 70
1
  0
ENDSEC
  0
SECTION
  2
CLASSES
  0
CLASS
  1
ACDBDICTIONARYWDFLT
  2
AcDbDictionaryWithDefault
  3
AutoCAD 2000
 90
0
 91
1
280
0
281
0
  0
CLASS
  1
ACDBPLACEHOLDER
  2
AcDbPlaceHolder
  3
AutoCAD 2000
 90
0
 91
1
280
0
281
0
  0
CLASS
  1
LAYOUT
  2
AcDbLayout
  3
AutoCAD 2000
 90
0
 91
0
280
0
281
0
  0
ENDSEC
  0
SECTION
  2
TABLES
  0
TABLE
  2
VPORT
  5
8
100
AcDbSymbolTable
 70
2
  0
VPORT
  5
1F4
100
AcDbSymbolTableRecord
100
AcDbViewportTableRecord
  2
*ACTIVE
 70
0
 10
0.0
 20
0.0
 11
1.0
 21
1.0
 12
5.5
 22
4.25
 13
0.0
 23
0.0
 14
1.0
 24
1.0
 15
0.0
 25
0.0
 16
0.0
 26
0.0
 36
1.0
 17
0.0
 27
0.0
 37
0.0
 40
8.5
 41
1.2941176471
 42
50.0
 43
0.0
 44
0.0
 50
0.0
 51
0.0
 71
0
 72
100
 73
1
 74
1
 75
0
 76
0
 77
0
 78
0
  0
ENDTAB
  0
TABLE
  2
LTYPE
  5
5
100
AcDbSymbolTable
 70
6
  0
LTYPE
  5
14
100
AcDbSymbolTableRecord
100
AcDbLinetypeTableRecord
  2
BYBLOCK
 70
0
  3

 72
65
 73
0
 40
0.0
  0
LTYPE
  5
15
100
AcDbSymbolTableRecord
100
AcDbLinetypeTableRecord
  2
BYLAYER
 70
0
  3

 72
65
 73
0
 40
0.0
  0
LTYPE
  5
16
100
AcDbSymbolTableRecord
100
AcDbLinetypeTableRecord
  2
CONTINUOUS
 70
64
  3
Solid line
 72
65
 73
0
 40
0.0
  0
LTYPE
  5
1F5
100
AcDbSymbolTableRecord
100
AcDbLinetypeTableRecord
  2
CENTER
 70
64
  3
____ _ ____ _ ____ _ ____ _ ____ _ ____ _ ____
 72
65
 73
4
 40
0.6
 49
0.375
 74
0
 49
-0.075
 74
0
 49
0.075
 74
0
 49
-0.075
 74
0
  0
LTYPE
  5
1F6
100
AcDbSymbolTableRecord
100
AcDbLinetypeTableRecord
  2
HIDDEN
 70
64
  3
- - - - - - - - - - - - - - - - - - - -
 72
65
 73
2
 40
0.2
 49
0.1
 74
0
 49
-0.1
 74
0
  0
LTYPE
  5
1F7
100
AcDbSymbolTableRecord
100
AcDbLinetypeTableRecord
  2
PHANTOM
 70
64
  3
_____ _ _ _____ _ _ _____ _ _ _____
 72
65
 73
6
 40
0.8
 49
0.45
 74
0
 49
-0.05
 74
0
 49
0.1
 74
0
 49
-0.05
 74
0
 49
0.1
 74
0
 49
-0.05
 74
0
  0
LTYPE
  5
1F8
100
AcDbSymbolTableRecord
100
AcDbLinetypeTableRecord
  2
DOT
 70
64
  3
. . . . . . . . . . . . . . . . . . . .
 72
65
 73
2
 40
0.2
 49
0.1
 74
0
 49
-0.1
 74
0
  0
LTYPE
  5
1F9
100
AcDbSymbolTableRecord
100
AcDbLinetypeTableRecord
  2
DASHED
 70
64
  3
- - - - - - - - - - - - - - - - - - - -
 72
65
 73
2
 40
0.2
 49
0.1
 74
0
 49
-0.1
 74
0
  0
ENDTAB
  0
TABLE
  2
LAYER
  5
2
100
AcDbSymbolTable
 70
36
  0
LAYER
  5
10
100
AcDbSymbolTableRecord
100
AcDbLayerTableRecord
  2
0
 70
0
 62
7
  6
CONTINUOUS
370
-3
390
F
  0
LAYER
  5
1FA
100
AcDbSymbolTableRecord
100
AcDbLayerTableRecord
  2
DEFAULT_1
 70
0
 62
7
  6
CENTER
370
-3
390
F
  0
LAYER
  5
1FB
100
AcDbSymbolTableRecord
100
AcDbLayerTableRecord
  2
DEFAULT_2
 70
0
 62
8
  6
HIDDEN
370
-3
390
F
  0
LAYER
  5
1FC
100
AcDbSymbolTableRecord
100
AcDbLayerTableRecord
  2
DEFAULT_3
 70
0
 62
7
  6
PHANTOM
370
-3
390
F
  0
LAYER
  5
1FD
100
AcDbSymbolTableRecord
100
AcDbLayerTableRecord
  2
3-985_ASSY_PLANES
 70
0
 62
7
  6
CONTINUOUS
370
-3
390
F
  0
LAYER
  5
1FE
100
AcDbSymbolTableRecord
100
AcDbLayerTableRecord
  2
ALL_ASSEMBLY_MEMBERS
 70
0
 62
7
  6
CONTINUOUS
370
-3
390
F
  0
LAYER
  5
1FF
100
AcDbSymbolTableRecord
100
AcDbLayerTableRecord
  2
ALL_FEATURES
 70
0
 62
7
  6
CONTINUOUS
370
-3
390
F
  0
LAYER
  5
200
100
AcDbSymbolTableRecord
100
AcDbLayerTableRecord
  2
AXES_FEATURES
 70
0
 62
7
  6
CONTINUOUS
370
-3
390
F
  0
LAYER
  5
201
100
AcDbSymbolTableRecord
100
AcDbLayerTableRecord
  2
CHAMFER_FEATURES
 70
0
 62
7
  6
CONTINUOUS
370
-3
390
F
  0
LAYER
  5
202
100
AcDbSymbolTableRecord
100
AcDbLayerTableRecord
  2
COORDINATE_SYSTEMS
 70
0
 62
7
  6
CONTINUOUS
370
-3
390
F
  0
LAYER
  5
203
100
AcDbSymbolTableRecord
100
AcDbLayerTableRecord
  2
CUT_FEATURES
 70
0
 62
7
  6
CONTINUOUS
370
-3
390
F
  0
LAYER
  5
204
100
AcDbSymbolTableRecord
100
AcDbLayerTableRecord
  2
CYAN
 70
0
 62
7
  6
CONTINUOUS
370
-3
390
F
  0
LAYER
  5
205
100
AcDbSymbolTableRecord
100
AcDbLayerTableRecord
  2
DATUM_CURVES
 70
0
 62
7
  6
CONTINUOUS
370
-3
390
F
  0
LAYER
  5
206
100
AcDbSymbolTableRecord
100
AcDbLayerTableRecord
  2
DATUM_PLANES
 70
0
 62
7
  6
CONTINUOUS
370
-3
390
F
  0
LAYER
  5
207
100
AcDbSymbolTableRecord
100
AcDbLayerTableRecord
  2
DATUM_POINTS
 70
0
 62
7
  6
CONTINUOUS
370
-3
390
F
  0
LAYER
  5
208
100
AcDbSymbolTableRecord
100
AcDbLayerTableRecord
  2
DEFAULT_COORDINATE_SYSTEM
 70
0
 62
7
  6
CONTINUOUS
370
-3
390
F
  0
LAYER
  5
209
100
AcDbSymbolTableRecord
100
AcDbLayerTableRecord
  2
DEFAULT_DATUM_AXES
 70
0
 62
7
  6
CONTINUOUS
370
-3
390
F
  0
LAYER
  5
20A
100
AcDbSymbolTableRecord
100
AcDbLayerTableRecord
  2
DEFAULT_DATUM_CURVES
 70
0
 62
7
  6
CONTINUOUS
370
-3
390
F
  0
LAYER
  5
20B
100
AcDbSymbolTableRecord
100
AcDbLayerTableRecord
  2
DEFAULT_DATUM_PLANES
 70
0
 62
7
  6
CONTINUOUS
370
-3
390
F
  0
LAYER
  5
20C
100
AcDbSymbolTableRecord
100
AcDbLayerTableRecord
  2
DEFAULT_SURFACES
 70
0
 62
7
  6
CONTINUOUS
370
-3
390
F
  0
LAYER
  5
20D
100
AcDbSymbolTableRecord
100
AcDbLayerTableRecord
  2
DIMENSIONS
 70
0
 62
7
  6
CONTINUOUS
370
-3
390
F
  0
LAYER
  5
20E
100
AcDbSymbolTableRecord
100
AcDbLayerTableRecord
  2
HOLE_FEATURES
 70
0
 62
7
  6
CONTINUOUS
370
-3
390
F
  0
LAYER
  5
20F
100
AcDbSymbolTableRecord
100
AcDbLayerTableRecord
  2
PART_REFERENCE_DIMENSIONS
 70
0
 62
7
  6
CONTINUOUS
370
-3
390
F
  0
LAYER
  5
210
100
AcDbSymbolTableRecord
100
AcDbLayerTableRecord
  2
PLATED_SURFACE_AREA
 70
0
 62
7
  6
CONTINUOUS
370
-3
390
F
  0
LAYER
  5
211
100
AcDbSymbolTableRecord
100
AcDbLayerTableRecord
  2
POINTS
 70
0
 62
7
  6
CONTINUOUS
370
-3
390
F
  0
LAYER
  5
212
100
AcDbSymbolTableRecord
100
AcDbLayerTableRecord
  2
PROTRUSION_FEATURES
 70
0
 62
7
  6
CONTINUOUS
370
-3
390
F
  0
LAYER
  5
213
100
AcDbSymbolTableRecord
100
AcDbLayerTableRecord
  2
QUILTS
 70
0
 62
7
  6
CONTINUOUS
370
-3
390
F
  0
LAYER
  5
214
100
AcDbSymbolTableRecord
100
AcDbLayerTableRecord
  2
REFERENCE_DIMENSIONS
 70
0
 62
7
  6
CONTINUOUS
370
-3
390
F
  0
LAYER
  5
215
100
AcDbSymbolTableRecord
100
AcDbLayerTableRecord
  2
ROUND_FEATURES
 70
0
 62
7
  6
CONTINUOUS
370
-3
390
F
  0
LAYER
  5
216
100
AcDbSymbolTableRecord
100
AcDbLayerTableRecord
  2
SURFACE_FEATURES
 70
0
 62
7
  6
CONTINUOUS
370
-3
390
F
  0
LAYER
  5
217
100
AcDbSymbolTableRecord
100
AcDbLayerTableRecord
  2
SURFACE_FINISH_SYMBOLS
 70
0
 62
7
  6
CONTINUOUS
370
-3
390
F
  0
LAYER
  5
218
100
AcDbSymbolTableRecord
100
AcDbLayerTableRecord
  2
WETTED_SURFACES
 70
0
 62
7
  6
CONTINUOUS
370
-3
390
F
  0
LAYER
  5
219
100
AcDbSymbolTableRecord
100
AcDbLayerTableRecord
  2
WETTED_SURFACE_AREA
 70
0
 62
7
  6
CONTINUOUS
370
-3
390
F
  0
LAYER
  5
21A
100
AcDbSymbolTableRecord
100
AcDbLayerTableRecord
  2
WHITE
 70
0
 62
7
  6
CONTINUOUS
370
-3
390
F
  0
ENDTAB
  0
TABLE
  2
STYLE
  5
3
100
AcDbSymbolTable
 70
1
  0
STYLE
  5
11
100
AcDbSymbolTableRecord
100
AcDbTextStyleTableRecord
  2
STANDARD
 70
0
 40
0.0
 41
0.8
 50
0.0
 71
0
 42
0.2
  3
txt
  4

  0
STYLE
  5
21B
100
AcDbSymbolTableRecord
100
AcDbTextStyleTableRecord
  2
TEXTSTYLE_1
 70
0
 40
0.0
 41
0.8
 50
0.0
 71
0
 42
0.2
  3
gdt
  4

  0
ENDTAB
  0
TABLE
  2
VIEW
  5
6
100
AcDbSymbolTable
 70
0
  0
ENDTAB
  0
TABLE
  2
UCS
  5
7
100
AcDbSymbolTable
 70
0
  0
ENDTAB
  0
TABLE
  2
APPID
  5
9
100
AcDbSymbolTable
 70
1
  0
APPID
  5
21C
100
AcDbSymbolTableRecord
100
AcDbRegAppTableRecord
  2
ACAD
 70
0
  0
ENDTAB
  0
TABLE
  2
BLOCK_RECORD
  5
1
100
AcDbSymbolTable
 70
0
  0
BLOCK_RECORD
  5
21D
100
AcDbSymbolTableRecord
100
AcDbBlockTableRecord
  2
*Model_Space
  0
BLOCK_RECORD
  5
21E
100
AcDbSymbolTableRecord
100
AcDbBlockTableRecord
  2
*Paper_Space
  0
BLOCK_RECORD
  5
21F
100
AcDbSymbolTableRecord
100
AcDbBlockTableRecord
  2
_FILLED
  0
ENDTAB
  0
TABLE
  2
DIMSTYLE
  5
A
100
AcDbSymbolTable
 70
1
100
AcDbDimStyleTable
 71
0
  0
DIMSTYLE
105
220
100
AcDbSymbolTableRecord
100
AcDbDimStyleTableRecord
  2
STANDARD
 70
0
  3

  4

 40
1.0
 41
0.1
 42
0.0625
 43
0.38
 44
0.125
 45
0.0
 46
0.0
 47
0.001
 48
0.001
140
0.08
141
0.09
142
0.0
143
25.4
144
1.0
145
0.0
146
1.0
147
0.09
 71
1.0
 72
0.0
 73
1
 74
1
 75
0
 76
0
 77
0
 78
4
 79
1
170
1
171
2
172
0
173
0
174
0
175
0
176
0
177
0
178
0
270
2
179
3
271
3
272
3
273
2
274
2
275
0
280
0
281
0
282
0
283
1
284
4
285
0
286
0
287
3
288
0
340
11
278
46
341
21F
342
21F
343
21F
344
21F
  0
ENDTAB
  0
ENDSEC
  0
SECTION
  2
BLOCKS
  0
BLOCK
  5
20
100
AcDbEntity
  8
0
100
AcDbBlockBegin
  2
*Model_Space
 70
0
 10
0.0
 20
0.0
 30
0.0
  3
*Model_Space
  1

  0
ENDBLK
  5
21
100
AcDbEntity
  8
0
100
AcDbBlockEnd
  0
BLOCK
  5
1C
100
AcDbEntity
  8
0
100
AcDbBlockBegin
  2
*Paper_Space
 70
0
 10
0.0
 20
0.0
 30
0.0
  3
*Paper_Space
  1

  0
ENDBLK
  5
1D
100
AcDbEntity
  8
0
100
AcDbBlockEnd
  0
BLOCK
  5
221
100
AcDbEntity
  8
0
100
AcDbBlockBegin
  2
_FILLED
 70
64
 10
0.0
 20
0.0
  3
_FILLED
  1

  0
SOLID
  5
222
100
AcDbEntity
  8
0
  6
BYBLOCK
 62
0
100
AcDbTrace
 10
0.0
 20
0.0
 11
-1.0
 21
0.2
 12
-1.0
 22
-0.2
 13
-1.0
 23
-0.2
  0
ENDBLK
  5
223
100
AcDbEntity
  8
0
  6
BYBLOCK
 62
0
100
AcDbBlockEnd
  0
ENDSEC
  0
SECTION
  2
ENTITIES
  0
MTEXT
  5
224
100
AcDbEntity
  8
0
100
AcDbMText
 62
2
  6
CONTINUOUS
  7
STANDARD
 71
3
 72
1
 10
2.8655085404
 20
1.0692287402
 30
0.0
 11
1.0
 21
0.0
 31
0.0
 73
2
 44
0.9
  1
SCALE  .500
 40
0.08
 41
0.704
  0
LINE
  5
225
100
AcDbEntity
  8
0
100
AcDbLine
 62
7
  6
CONTINUOUS
 10
0.0
 20
0.0
 11
0.0
 21
8.5
  0
LINE
  5
226
100
AcDbEntity
  8
0
100
AcDbLine
 62
7
  6
CONTINUOUS
 10
0.0
 20
0.0
 11
11.0
 21
0.0
  0
LINE
  5
227
100
AcDbEntity
  8
0
100
AcDbLine
 62
7
  6
CONTINUOUS
 10
0.0
 20
8.5
 11
11.0
 21
8.5
  0
LINE
  5
228
100
AcDbEntity
  8
0
100
AcDbLine
 62
7
  6
CONTINUOUS
 10
11.0
 20
0.0
 11
11.0
 21
8.5
  0
LINE
  5
229
100
AcDbEntity
  8
ALL_ASSEMBLY_MEMBERS
100
AcDbLine
 62
7
  6
CONTINUOUS
 10
1.8639557453
 20
5.576708777
 11
1.8639557453
 21
5.8262129715
  0
LINE
  5
22A
100
AcDbEntity
  8
ALL_ASSEMBLY_MEMBERS
100
AcDbLine
 62
7
  6
CONTINUOUS
 10
1.8751993981
 20
5.5532950547
 11
1.8751993981
 21
5.8496266937
  0
LINE
  5
22B
100
AcDbEntity
  8
ALL_ASSEMBLY_MEMBERS
100
AcDbLine
 62
7
  6
CONTINUOUS
 10
1.9239786486
 20
5.4781022733
 11
1.9239786486
 21
5.9248194751
  0
LINE
  5
22C
100
AcDbEntity
  8
ALL_ASSEMBLY_MEMBERS
100
AcDbLine
 62
7
  6
CONTINUOUS
 10
1.9530043095
 20
5.4556858742
 11
1.9530043095
 21
5.9472358742
  0
LINE
  5
22D
100
AcDbEntity
  8
ALL_ASSEMBLY_MEMBERS
100
AcDbLine
 62
7
  6
CONTINUOUS
 10
1.9639557453
 20
5.4556858742
 11
1.9639557453
 21
5.9472358742
  0
LINE
  5
22E
100
AcDbEntity
  8
ALL_ASSEMBLY_MEMBERS
100
AcDbLine
 62
7
  6
CONTINUOUS
 10
1.9839557453
 20
5.4756858743
 11
1.9839557453
 21
5.9272358742
  0
LINE
  5
22F
100
AcDbEntity
  8
ALL_ASSEMBLY_MEMBERS
100
AcDbLine
 62
7
  6
CONTINUOUS
 10
2.9639557453
 20
7.061961192
 11
2.9639557453
 21
7.1167107008
  0
LINE
  5
230
100
AcDbEntity
  8
ALL_ASSEMBLY_MEMBERS
100
AcDbLine
 62
7
  6
CONTINUOUS
 10
3.0714557452
 20
5.5619608742
 11
3.0714557452
 21
5.8409608742
  0
LINE
  5
231
100
AcDbEntity
  8
ALL_ASSEMBLY_MEMBERS
100
AcDbLine
 62
7
  6
CONTINUOUS
 10
3.1116434395
 20
5.5381088867
 11
3.1116434395
 21
5.8648128617
  0
LINE
  5
232
100
AcDbEntity
  8
ALL_ASSEMBLY_MEMBERS
100
AcDbLine
 62
7
  6
CONTINUOUS
 10
3.1414557453
 20
6.7967107008
 11
3.1414557453
 21
6.9017107008
  0
LINE
  5
233
100
AcDbEntity
  8
ALL_ASSEMBLY_MEMBERS
100
AcDbLine
 62
7
  6
CONTINUOUS
 10
3.1589557453
 20
6.7617107008
 11
3.1589557453
 21
6.7967107008
  0
LINE
  5
234
100
AcDbEntity
  8
ALL_ASSEMBLY_MEMBERS
100
AcDbLine
 62
7
  6
CONTINUOUS
 10
3.2454546326
 20
5.5502710156
 11
3.2454546326
 21
5.8526507328
  0
LINE
  5
235
100
AcDbEntity
  8
ALL_ASSEMBLY_MEMBERS
100
AcDbLine
 62
7
  6
CONTINUOUS
 10
3.2689557453
 20
5.5699621901
 11
3.2689557453
 21
5.8329595583
  0
LINE
  5
236
100
AcDbEntity
  8
ALL_ASSEMBLY_MEMBERS
100
AcDbLine
 62
7
  6
CONTINUOUS
 10
3.2889557453
 20
6.0367107008
 11
3.2889557453
 21
6.0717107008
  0
LINE
  5
237
100
AcDbEntity
  8
ALL_ASSEMBLY_MEMBERS
100
AcDbLine
 62
7
  6
CONTINUOUS
 10
3.3199557453
 20
5.586141056
 11
3.3199557453
 21
5.8167806924
  0
LINE
  5
238
100
AcDbEntity
  8
ALL_ASSEMBLY_MEMBERS
100
AcDbLine
 62
7
  6
CONTINUOUS
 10
3.3489557453
 20
5.9967107008
 11
3.3489557453
 21
6.0317107008
  0
LINE
  5
239
100
AcDbEntity
  8
ALL_ASSEMBLY_MEMBERS
100
AcDbLine
 62
7
  6
CONTINUOUS
 10
3.3739557453
 20
5.5178968842
 11
3.3739557453
 21
5.5213248992
  0
LINE
  5
23A
100
AcDbEntity
  8
ALL_ASSEMBLY_MEMBERS
100
AcDbLine
 62
7
  6
CONTINUOUS
 10
3.3847057453
 20
5.9917107008
 11
3.3847057453
 21
5.8817107008
  0
LINE
  5
23B
100
AcDbEntity
  8
ALL_ASSEMBLY_MEMBERS
100
AcDbLine
 62
7
  6
CONTINUOUS
 10
3.6432057453
 20
5.9917107008
 11
3.6432057453
 21
5.8817107008
  0
LINE
  5
23C
100
AcDbEntity
  8
ALL_ASSEMBLY_MEMBERS
100
AcDbLine
 62
7
  6
CONTINUOUS
 10
3.6539557453
 20
5.5178968842
 11
3.6539557453
 21
5.5213248992
  0
LINE
  5
23D
100
AcDbEntity
  8
ALL_ASSEMBLY_MEMBERS
100
AcDbLine
 62
7
  6
CONTINUOUS
 10
3.6789557453
 20
5.9967107008
 11
3.6789557453
 21
6.0317107008
  0
LINE
  5
23E
100
AcDbEntity
  8
ALL_ASSEMBLY_MEMBERS
100
AcDbLine
 62
7
  6
CONTINUOUS
 10
3.7389557453
 20
6.0367107008
 11
3.7389557453
 21
6.0717107008
  0
LINE
  5
23F
100
AcDbEntity
  8
ALL_ASSEMBLY_MEMBERS
100
AcDbLine
 62
7
  6
CONTINUOUS
 10
3.8689557453
 20
6.7617107008
 11
3.8689557453
 21
6.7967107008
  0
LINE
  5
240
100
AcDbEntity
  8
ALL_ASSEMBLY_MEMBERS
100
AcDbLine
 62
7
  6
CONTINUOUS
 10
3.8864557453
 20
6.7967107008
 11
3.8864557453
 21
6.9017107008
  0
LINE
  5
241
100
AcDbEntity
  8
ALL_ASSEMBLY_MEMBERS
100
AcDbLine
 62
7
  6
CONTINUOUS
 10
4.0639557453
 20
7.061961192
 11
4.0639557453
 21
7.1167107008
  0
LINE
  5
242
100
AcDbEntity
  8
ALL_ASSEMBLY_MEMBERS
100
AcDbLine
 62
7
  6
CONTINUOUS
 10
5.9910699478
 20
6.9004132662
 11
6.070819914
 21
6.97720953
  0
LINE
  5
243
100
AcDbEntity
  8
ALL_ASSEMBLY_MEMBERS
100
AcDbLine
 62
7
  6
CONTINUOUS
 10
4.8614557453
 20
7.0492415513
 11
4.8614557453
 21
7.1167107008
  0
LINE
  5
244
100
AcDbEntity
  8
ALL_ASSEMBLY_MEMBERS
100
AcDbLine
 62
7
  6
CONTINUOUS
 10
5.1823116312
 20
4.162907119
 11
5.1823406101
 21
4.1217980826
  0
LINE
  5
245
100
AcDbEntity
  8
ALL_ASSEMBLY_MEMBERS
100
AcDbLine
 62
7
  6
CONTINUOUS
 10
5.0764557453
 20
6.7117107008
 11
5.0764557453
 21
6.8417107008
  0
LINE
  5
246
100
AcDbEntity
  8
ALL_ASSEMBLY_MEMBERS
100
AcDbLine
 62
7
  6
CONTINUOUS
 10
5.1314557453
 20
6.6151002213
 11
5.1314557453
 21
6.6767107008
  0
LINE
  5
247
100
AcDbEntity
  8
ALL_ASSEMBLY_MEMBERS
100
AcDbLine
 62
7
  6
CONTINUOUS
 10
5.1814557453
 20
5.0517107008
 11
5.1814572559
 21
4.4956534134
  0
LINE
  5
248
100
AcDbEntity
  8
ALL_ASSEMBLY_MEMBERS
100
AcDbLine
 62
7
  6
CONTINUOUS
 10
5.1823406101
 20
4.1217980826
 11
5.1823083728
 21
4.0793634712
  0
LINE
  5
249
100
AcDbEntity
  8
ALL_ASSEMBLY_MEMBERS
100
AcDbLine
 62
7
  6
CONTINUOUS
 10
5.1823079621
 20
4.0793634746
 11
5.1821995842
 21
4.0370579452
  0
LINE
  5
24A
100
AcDbEntity
  8
ALL_ASSEMBLY_MEMBERS
100
AcDbLine
 62
7
  6
CONTINUOUS
 10
5.1822051625
 20
4.0385448052
 11
5.182005912
 21
3.9956600227
  0
LINE
  5
24B
100
AcDbEntity
  8
ALL_ASSEMBLY_MEMBERS
100
AcDbLine
 62
7
  6
CONTINUOUS
 10
5.1820188187
 20
3.9977490232
 11
5.1819362366
 21
3.9841753289
  0
LINE
  5
24C
100
AcDbEntity
  8
ALL_ASSEMBLY_MEMBERS
100
AcDbLine
 62
7
  6
CONTINUOUS
 10
5.1820156857
 20
3.9977491646
 11
5.1817233051
 21
3.9555407906
  0
LINE
  5
24D
100
AcDbEntity
  8
ALL_ASSEMBLY_MEMBERS
100
AcDbLine
 62
7
  6
CONTINUOUS
 10
5.1817432762
 20
3.9577407941
 11
5.1816400715
 21
3.9456459106
  0
LINE
  5
24E
100
AcDbEntity
  8
ALL_ASSEMBLY_MEMBERS
100
AcDbLine
 62
7
  6
CONTINUOUS
 10
5.1817388045
 20
3.9577410962
 11
5.1813487042
 21
3.9166724414
  0
LINE
  5
24F
100
AcDbEntity
  8
ALL_ASSEMBLY_MEMBERS
100
AcDbLine
 62
7
  6
CONTINUOUS
 10
5.1797750537
 20
3.8129794227
 11
5.1797625553
 21
3.811706245
  0
LINE
  5
250
100
AcDbEntity
  8
ALL_ASSEMBLY_MEMBERS
100
AcDbLine
 62
7
  6
CONTINUOUS
 10
5.1813718616
 20
3.9184752945
 11
5.1812688711
 21
3.9092535144
  0
LINE
  5
251
100
AcDbEntity
  8
ALL_ASSEMBLY_MEMBERS
100
AcDbLine
 62
7
  6
CONTINUOUS
 10
5.1813660847
 20
3.9184758285
 11
5.1808807712
 21
3.8790538618
  0
LINE
  5
252
100
AcDbEntity
  8
ALL_ASSEMBLY_MEMBERS
100
AcDbLine
 62
7
  6
CONTINUOUS
 10
5.1808988395
 20
3.8799402709
 11
5.1808349546
 21
3.8753610808
  0
LWPOLYLINE
  5
253
100
AcDbEntity
  8
ALL_ASSEMBLY_MEMBERS
100
AcDbPolyline
 62
7
  6
CONTINUOUS
 90
3
 70
0
 10
5.1808918076
 20
3.8799411122
 10
5.1803201177
 20
3.8427111392
 10
5.1797750537
 20
3.8129794227
  0
LINE
  5
254
100
AcDbEntity
  8
ALL_ASSEMBLY_MEMBERS
100
AcDbLine
 62
7
  6
CONTINUOUS
 10
5.1797855192
 20
3.8129799938
 11
5.1797625553
 21
3.811706245
  0
LWPOLYLINE
  5
255
100
AcDbEntity
  8
ALL_ASSEMBLY_MEMBERS
100
AcDbPolyline
 62
7
  6
CONTINUOUS
 90
13
 70
0
 10
5.1797750687
 20
3.8129801822
 10
5.1786021102
 20
3.7603899223
 10
5.1769899582
 20
3.7031766311
 10
5.1750354944
 20
3.6473004727
 10
5.1727236782
 20
3.5927968723
 10
5.1700431869
 20
3.5397103208
 10
5.1669868527
 20
3.4880937221
 10
5.163547238
 20
3.4379403492
 10
5.1597238652
 20
3.3893036788
 10
5.1555280296
 20
3.3423140733
 10
5.1509702183
 20
3.297015347
 10
5.1460562844
 20
3.2533699644
 10
5.1414140043
 20
3.2160773387
  0
LWPOLYLINE
  5
256
100
AcDbEntity
  8
ALL_ASSEMBLY_MEMBERS
100
AcDbPolyline
 62
7
  6
CONTINUOUS
 90
9
 70
0
 10
6.023607279
 20
2.4814319275
 10
6.0179515107
 20
2.4950079895
 10
6.011166882
 20
2.5114856154
 10
6.0041833569
 20
2.5286870186
 10
5.9970334578
 20
2.5465745159
 10
5.9897365874
 20
2.5651419834
 10
5.9822988557
 20
2.5844180654
 10
5.974738594
 20
2.6044017842
 10
5.9670865275
 20
2.6250592732
  0
LINE
  5
257
100
AcDbEntity
  8
ALL_ASSEMBLY_MEMBERS
100
AcDbLine
 62
7
  6
CONTINUOUS
 10
5.4814557453
 20
5.0517107008
 11
5.4814557453
 21
2.2018840197
  0
LINE
  5
258
100
AcDbEntity
  8
ALL_ASSEMBLY_MEMBERS
100
AcDbLine
 62
7
  6
CONTINUOUS
 10
5.1414141777
 20
3.2160786695
 11
5.1414140043
 21
3.2160773387
  0
LWPOLYLINE
  5
259
100
AcDbEntity
  8
ALL_ASSEMBLY_MEMBERS
100
AcDbPolyline
 62
7
  6
CONTINUOUS
 90
10
 70
0
 10
5.1414141777
 20
3.2160786695
 10
5.1376542975
 20
3.1882112743
 10
5.1327751725
 20
3.1546760419
 10
5.1274187297
 20
3.1207254217
 10
5.1215519572
 20
3.0864129505
 10
5.1151418565
 20
3.0518036269
 10
5.1081701019
 20
3.0169660408
 10
5.1006483661
 20
2.9819599792
 10
5.0925958623
 20
2.9468448311
 10
5.0850657295
 20
2.9158059336
  0
LINE
  5
25A
100
AcDbEntity
  8
ALL_ASSEMBLY_MEMBERS
100
AcDbLine
 62
7
  6
CONTINUOUS
 10
5.0850670999
 20
2.9158114448
 11
5.0850657295
 21
2.9158059336
  0
LWPOLYLINE
  5
25B
100
AcDbEntity
  8
ALL_ASSEMBLY_MEMBERS
100
AcDbPolyline
 62
7
  6
CONTINUOUS
 90
8
 70
0
 10
5.9670865275
 20
2.6250592732
 10
5.9598445117
 20
2.6450399574
 10
5.9580126575
 20
2.6501677735
 10
5.9561682106
 20
2.6553646305
 10
5.9543115006
 20
2.6606306971
 10
5.9524428778
 20
2.6659661031
 10
5.9505627071
 20
2.6713709554
 10
5.9486713452
 20
2.6768454045
  0
LINE
  5
25C
100
AcDbEntity
  8
ALL_ASSEMBLY_MEMBERS
100
AcDbLine
 62
7
  6
CONTINUOUS
 10
5.9486713452
 20
2.6768454045
 11
5.9460711533
 21
2.6844338001
  0
LWPOLYLINE
  5
25D
100
AcDbEntity
  8
ALL_ASSEMBLY_MEMBERS
100
AcDbPolyline
 62
7
  6
CONTINUOUS
 90
10
 70
0
 10
5.9460699237
 20
2.6844374054
 10
5.9390073601
 20
2.7054078177
 10
5.9308527058
 20
2.7303007642
 10
5.9227543053
 20
2.7558044343
 10
5.9147404412
 20
2.781883605
 10
5.9068355105
 20
2.8085143806
 10
5.899059694
 20
2.8356873581
 10
5.8914359601
 20
2.8633845415
 10
5.8839904042
 20
2.8915762131
 10
5.8778443908
 20
2.9158114448
  0
LINE
  5
25E
100
AcDbEntity
  8
ALL_ASSEMBLY_MEMBERS
100
AcDbLine
 62
7
  6
CONTINUOUS
 10
5.8778443908
 20
2.9158114448
 11
5.8778420214
 21
2.9158209701
  0
LWPOLYLINE
  5
25F
100
AcDbEntity
  8
ALL_ASSEMBLY_MEMBERS
100
AcDbPolyline
 62
7
  6
CONTINUOUS
 90
10
 70
0
 10
5.8778457612
 20
2.9158059336
 10
5.8703156284
 20
2.9468448311
 10
5.8622631246
 20
2.9819599792
 10
5.8547413888
 20
3.0169660408
 10
5.8477696342
 20
3.0518036269
 10
5.8413595335
 20
3.0864129505
 10
5.8354927609
 20
3.1207254217
 10
5.8301363182
 20
3.1546760419
 10
5.8252571932
 20
3.1882112743
 10
5.821497313
 20
3.2160786695
  0
LINE
  5
260
100
AcDbEntity
  8
ALL_ASSEMBLY_MEMBERS
100
AcDbLine
 62
7
  6
CONTINUOUS
 10
5.1343578658
 20
6.5888688164
 11
5.1314557453
 21
6.6151002213
  0
LINE
  5
261
100
AcDbEntity
  8
ALL_ASSEMBLY_MEMBERS
100
AcDbLine
 62
7
  6
CONTINUOUS
 10
5.7831239293
 20
3.8129796392
 11
5.7831489354
 21
3.811706245
  0
LINE
  5
262
100
AcDbEntity
  8
ALL_ASSEMBLY_MEMBERS
100
AcDbLine
 62
7
  6
CONTINUOUS
 10
5.783136437
 20
3.8129794227
 11
5.7825913729
 21
3.8427111392
  0
LINE
  5
263
100
AcDbEntity
  8
ALL_ASSEMBLY_MEMBERS
100
AcDbLine
 62
7
  6
CONTINUOUS
 10
5.7820196831
 20
3.8799411122
 11
5.7825913729
 21
3.8427111392
  0
LINE
  5
264
100
AcDbEntity
  8
ALL_ASSEMBLY_MEMBERS
100
AcDbLine
 62
7
  6
CONTINUOUS
 10
5.7820765361
 20
3.8753610808
 11
5.7815627864
 21
3.9166724414
  0
LINE
  5
265
100
AcDbEntity
  8
ALL_ASSEMBLY_MEMBERS
100
AcDbLine
 62
7
  6
CONTINUOUS
 10
5.781545406
 20
3.9184758285
 11
5.7816550543
 21
3.9092547413
  0
LINE
  5
266
100
AcDbEntity
  8
ALL_ASSEMBLY_MEMBERS
100
AcDbLine
 62
7
  6
CONTINUOUS
 10
5.7831489354
 20
3.811706245
 11
5.783136437
 21
3.8129794227
  0
LINE
  5
267
100
AcDbEntity
  8
ALL_ASSEMBLY_MEMBERS
100
AcDbLine
 62
7
  6
CONTINUOUS
 10
5.7816426196
 20
3.9092535144
 11
5.7811881855
 21
3.9555407906
  0
LINE
  5
268
100
AcDbEntity
  8
ALL_ASSEMBLY_MEMBERS
100
AcDbLine
 62
7
  6
CONTINUOUS
 10
5.7811726862
 20
3.9577410962
 11
5.7812835405
 21
3.9456468183
  0
LINE
  5
269
100
AcDbEntity
  8
ALL_ASSEMBLY_MEMBERS
100
AcDbLine
 62
7
  6
CONTINUOUS
 10
5.7811682145
 20
3.9577407941
 11
5.7812714191
 21
3.9456459106
  0
LINE
  5
26A
100
AcDbEntity
  8
ALL_ASSEMBLY_MEMBERS
100
AcDbLine
 62
7
  6
CONTINUOUS
 10
5.780895805
 20
3.9977491646
 11
5.7811881855
 21
3.9555407906
  0
LINE
  5
26B
100
AcDbEntity
  8
ALL_ASSEMBLY_MEMBERS
100
AcDbLine
 62
7
  6
CONTINUOUS
 10
5.780892672
 20
3.9977490232
 11
5.7809752541
 21
3.9841753289
  0
LWPOLYLINE
  5
26C
100
AcDbEntity
  8
ALL_ASSEMBLY_MEMBERS
100
AcDbPolyline
 62
7
  6
CONTINUOUS
 90
4
 70
0
 10
5.7809055786
 20
3.9956600227
 10
5.7807119065
 20
4.0370579452
 10
5.7806025943
 20
4.0797281592
 10
5.7805708806
 20
4.1217980826
  0
LINE
  5
26D
100
AcDbEntity
  8
ALL_ASSEMBLY_MEMBERS
100
AcDbLine
 62
7
  6
CONTINUOUS
 10
5.7814557453
 20
5.0517107008
 11
5.7814539471
 21
4.4948202842
  0
LINE
  5
26E
100
AcDbEntity
  8
ALL_ASSEMBLY_MEMBERS
100
AcDbLine
 62
7
  6
CONTINUOUS
 10
5.7805998594
 20
4.162907119
 11
5.7805708806
 21
4.1217980826
  0
LINE
  5
26F
100
AcDbEntity
  8
ALL_ASSEMBLY_MEMBERS
100
AcDbLine
 62
7
  6
CONTINUOUS
 10
5.8285536249
 20
6.5888688164
 11
5.8314557453
 21
6.6151002213
  0
LWPOLYLINE
  5
270
100
AcDbEntity
  8
ALL_ASSEMBLY_MEMBERS
100
AcDbPolyline
 62
7
  6
CONTINUOUS
 90
9
 70
0
 10
5.0850670999
 20
2.9158114448
 10
5.0789210865
 20
2.8915762131
 10
5.0714755306
 20
2.8633845415
 10
5.0638517967
 20
2.8356873581
 10
5.0560759802
 20
2.8085143806
 10
5.0481710495
 20
2.781883605
 10
5.0401571854
 20
2.7558044343
 10
5.0320587848
 20
2.7303007642
 10
5.0239041306
 20
2.7054078177
  0
LWPOLYLINE
  5
271
100
AcDbEntity
  8
ALL_ASSEMBLY_MEMBERS
100
AcDbPolyline
 62
7
  6
CONTINUOUS
 90
8
 70
0
 10
5.0239041306
 20
2.7054078177
 10
5.0161423441
 20
2.6823896275
 10
5.0142401455
 20
2.6768454045
 10
5.0123487835
 20
2.6713709554
 10
5.0104686128
 20
2.6659661031
 10
5.00859999
 20
2.6606306971
 10
5.0067432801
 20
2.6553646305
 10
5.0048988332
 20
2.6501677735
  0
LINE
  5
272
100
AcDbEntity
  8
ALL_ASSEMBLY_MEMBERS
100
AcDbLine
 62
7
  6
CONTINUOUS
 10
5.0048988332
 20
2.6501677735
 11
5.002338704
 21
2.6430105409
  0
LWPOLYLINE
  5
273
100
AcDbEntity
  8
ALL_ASSEMBLY_MEMBERS
100
AcDbPolyline
 62
7
  6
CONTINUOUS
 90
10
 70
0
 10
5.0023393783
 20
2.6430124175
 10
4.9958249632
 20
2.6250592732
 10
4.9881728966
 20
2.6044017842
 10
4.980612635
 20
2.5844180654
 10
4.9731749033
 20
2.5651419834
 10
4.9658780328
 20
2.5465745159
 10
4.9587281338
 20
2.5286870186
 10
4.9517446087
 20
2.5114856154
 10
4.94495998
 20
2.4950079895
 10
4.9393042117
 20
2.4814319275
  0
LINE
  5
274
100
AcDbEntity
  8
ALL_ASSEMBLY_MEMBERS
100
AcDbLine
 62
7
  6
CONTINUOUS
 10
5.8214974864
 20
3.2160773387
 11
5.821497313
 21
3.2160786695
  0
LWPOLYLINE
  5
275
100
AcDbEntity
  8
ALL_ASSEMBLY_MEMBERS
100
AcDbPolyline
 62
7
  6
CONTINUOUS
 90
13
 70
0
 10
5.8214974864
 20
3.2160773387
 10
5.8168552063
 20
3.2533699644
 10
5.8119412724
 20
3.297015347
 10
5.8073834611
 20
3.3423140733
 10
5.8031876255
 20
3.3893036788
 10
5.7993642527
 20
3.4379403492
 10
5.795924638
 20
3.4880937221
 10
5.7928683038
 20
3.5397103208
 10
5.7901878125
 20
3.5927968723
 10
5.7878759963
 20
3.6473004727
 10
5.7859215325
 20
3.7031766311
 10
5.7843093805
 20
3.7603899223
 10
5.783136422
 20
3.8129801822
  0
LINE
  5
276
100
AcDbEntity
  8
ALL_ASSEMBLY_MEMBERS
100
AcDbLine
 62
7
  6
CONTINUOUS
 10
5.8314557453
 20
6.6151002213
 11
5.8314557453
 21
6.6767107008
  0
LINE
  5
277
100
AcDbEntity
  8
ALL_ASSEMBLY_MEMBERS
100
AcDbLine
 62
7
  6
CONTINUOUS
 10
5.8864557453
 20
6.7117107008
 11
5.8864557453
 21
6.8417107008
  0
LINE
  5
278
100
AcDbEntity
  8
ALL_ASSEMBLY_MEMBERS
100
AcDbLine
 62
7
  6
CONTINUOUS
 10
6.1014557453
 20
7.0492415513
 11
6.1014557453
 21
7.1167107008
  0
LINE
  5
279
100
AcDbEntity
  8
ALL_ASSEMBLY_MEMBERS
100
AcDbLine
 62
7
  6
CONTINUOUS
 10
5.7814557453
 20
5.0517107008
 11
5.1814557453
 21
5.0517107008
  0
LINE
  5
27A
100
AcDbEntity
  8
ALL_ASSEMBLY_MEMBERS
100
AcDbLine
 62
7
  6
CONTINUOUS
 10
5.1613372266
 20
5.0747876239
 11
5.8015742641
 21
5.0747876239
  0
LINE
  5
27B
100
AcDbEntity
  8
ALL_ASSEMBLY_MEMBERS
100
AcDbLine
 62
7
  6
CONTINUOUS
 10
5.1402792751
 20
5.1070048183
 11
5.8226322156
 21
5.1070048183
  0
LINE
  5
27C
100
AcDbEntity
  8
ALL_ASSEMBLY_MEMBERS
100
AcDbLine
 62
7
  6
CONTINUOUS
 10
5.1316741431
 20
5.1804457889
 11
5.8312373476
 21
5.1804457889
  0
LINE
  5
27D
100
AcDbEntity
  8
ALL_ASSEMBLY_MEMBERS
100
AcDbLine
 62
7
  6
CONTINUOUS
 10
5.1722787452
 20
5.2537976333
 11
5.7906327455
 21
5.2537976333
  0
LINE
  5
27E
100
AcDbEntity
  8
ALL_ASSEMBLY_MEMBERS
100
AcDbLine
 62
7
  6
CONTINUOUS
 10
1.9639557453
 20
5.4556858742
 11
1.9530043096
 21
5.4556858742
  0
LINE
  5
27F
100
AcDbEntity
  8
ALL_ASSEMBLY_MEMBERS
100
AcDbLine
 62
7
  6
CONTINUOUS
 10
9.0014557453
 20
5.4556858742
 11
9.0124071811
 21
5.4556858742
  0
LINE
  5
280
100
AcDbEntity
  8
ALL_ASSEMBLY_MEMBERS
100
AcDbLine
 62
7
  6
CONTINUOUS
 10
3.4010525196
 20
5.4800352048
 11
3.6268589711
 21
5.4800352048
  0
LINE
  5
281
100
AcDbEntity
  8
ALL_ASSEMBLY_MEMBERS
100
AcDbLine
 62
7
  6
CONTINUOUS
 10
7.3385525196
 20
5.4800352048
 11
7.5643589711
 21
5.4800352048
  0
LINE
  5
282
100
AcDbEntity
  8
ALL_ASSEMBLY_MEMBERS
100
AcDbLine
 62
7
  6
CONTINUOUS
 10
3.3739557453
 20
5.5178968842
 11
3.6539557453
 21
5.5178968842
  0
LINE
  5
283
100
AcDbEntity
  8
ALL_ASSEMBLY_MEMBERS
100
AcDbLine
 62
7
  6
CONTINUOUS
 10
7.3114557453
 20
5.5178968842
 11
7.5914557453
 21
5.5178968842
  0
LINE
  5
284
100
AcDbEntity
  8
ALL_ASSEMBLY_MEMBERS
100
AcDbLine
 62
7
  6
CONTINUOUS
 10
3.3739557453
 20
5.5213248992
 11
3.6539557453
 21
5.5213248992
  0
LINE
  5
285
100
AcDbEntity
  8
ALL_ASSEMBLY_MEMBERS
100
AcDbLine
 62
7
  6
CONTINUOUS
 10
7.3114557453
 20
5.5213248992
 11
7.5914557453
 21
5.5213248992
  0
LINE
  5
286
100
AcDbEntity
  8
ALL_ASSEMBLY_MEMBERS
100
AcDbLine
 62
7
  6
CONTINUOUS
 10
7.5975733683
 20
5.5313248992
 11
7.3053381223
 21
5.5313248992
  0
LINE
  5
287
100
AcDbEntity
  8
ALL_ASSEMBLY_MEMBERS
100
AcDbLine
 62
7
  6
CONTINUOUS
 10
3.6600733683
 20
5.5313248992
 11
3.3678381223
 21
5.5313248992
  0
LINE
  5
288
100
AcDbEntity
  8
ALL_ASSEMBLY_MEMBERS
100
AcDbLine
 62
7
  6
CONTINUOUS
 10
7.6008866931
 20
5.5325803192
 11
7.3020247976
 21
5.5325803192
  0
LINE
  5
289
100
AcDbEntity
  8
ALL_ASSEMBLY_MEMBERS
100
AcDbLine
 62
7
  6
CONTINUOUS
 10
3.6633866931
 20
5.5325803192
 11
3.3645247976
 21
5.5325803192
  0
LINE
  5
28A
100
AcDbEntity
  8
ALL_ASSEMBLY_MEMBERS
100
AcDbLine
 62
7
  6
CONTINUOUS
 10
3.3199557453
 20
5.5861358742
 11
3.2689557453
 21
5.5861358742
  0
LINE
  5
28B
100
AcDbEntity
  8
ALL_ASSEMBLY_MEMBERS
100
AcDbLine
 62
7
  6
CONTINUOUS
 10
7.6454557453
 20
5.5861358742
 11
7.6964557453
 21
5.5861358742
  0
LINE
  5
28C
100
AcDbEntity
  8
ALL_ASSEMBLY_MEMBERS
100
AcDbLine
 62
7
  6
CONTINUOUS
 10
3.3199557453
 20
5.8167858742
 11
3.2689557453
 21
5.8167858742
  0
LINE
  5
28D
100
AcDbEntity
  8
ALL_ASSEMBLY_MEMBERS
100
AcDbLine
 62
7
  6
CONTINUOUS
 10
7.6454557453
 20
5.8167858742
 11
7.6964557453
 21
5.8167858742
  0
LINE
  5
28E
100
AcDbEntity
  8
ALL_ASSEMBLY_MEMBERS
100
AcDbLine
 62
7
  6
CONTINUOUS
 10
6.9014557453
 20
7.061961192
 11
6.9014557453
 21
7.1167107008
  0
LINE
  5
28F
100
AcDbEntity
  8
ALL_ASSEMBLY_MEMBERS
100
AcDbLine
 62
7
  6
CONTINUOUS
 10
3.6494557453
 20
5.8817107008
 11
3.3784557453
 21
5.8817107008
  0
LINE
  5
290
100
AcDbEntity
  8
ALL_ASSEMBLY_MEMBERS
100
AcDbLine
 62
7
  6
CONTINUOUS
 10
7.3159557453
 20
5.8817107008
 11
7.5869557453
 21
5.8817107008
  0
LINE
  5
291
100
AcDbEntity
  8
ALL_ASSEMBLY_MEMBERS
100
AcDbLine
 62
7
  6
CONTINUOUS
 10
1.9639557453
 20
5.9472358742
 11
1.9530043096
 21
5.9472358742
  0
LINE
  5
292
100
AcDbEntity
  8
ALL_ASSEMBLY_MEMBERS
100
AcDbLine
 62
7
  6
CONTINUOUS
 10
9.0014557453
 20
5.9472358742
 11
9.0124071811
 21
5.9472358742
  0
LINE
  5
293
100
AcDbEntity
  8
ALL_ASSEMBLY_MEMBERS
100
AcDbLine
 62
7
  6
CONTINUOUS
 10
7.6114554593
 20
5.9917107008
 11
7.2914560314
 21
5.9917107008
  0
LINE
  5
294
100
AcDbEntity
  8
ALL_ASSEMBLY_MEMBERS
100
AcDbLine
 62
7
  6
CONTINUOUS
 10
3.6739554593
 20
5.9917107008
 11
3.3539560314
 21
5.9917107008
  0
LINE
  5
295
100
AcDbEntity
  8
ALL_ASSEMBLY_MEMBERS
100
AcDbLine
 62
7
  6
CONTINUOUS
 10
7.6164557453
 20
5.9967107008
 11
7.2864557453
 21
5.9967107008
  0
LINE
  5
296
100
AcDbEntity
  8
ALL_ASSEMBLY_MEMBERS
100
AcDbLine
 62
7
  6
CONTINUOUS
 10
3.6789557453
 20
5.9967107008
 11
3.3489557453
 21
5.9967107008
  0
LINE
  5
297
100
AcDbEntity
  8
ALL_ASSEMBLY_MEMBERS
100
AcDbLine
 62
7
  6
CONTINUOUS
 10
7.6714520733
 20
6.0317107008
 11
7.2314594174
 21
6.0317107008
  0
LINE
  5
298
100
AcDbEntity
  8
ALL_ASSEMBLY_MEMBERS
100
AcDbLine
 62
7
  6
CONTINUOUS
 10
3.7339520733
 20
6.0317107008
 11
3.2939594174
 21
6.0317107008
  0
LINE
  5
299
100
AcDbEntity
  8
ALL_ASSEMBLY_MEMBERS
100
AcDbLine
 62
7
  6
CONTINUOUS
 10
7.6764557453
 20
6.0367107008
 11
7.2264557453
 21
6.0367107008
  0
LINE
  5
29A
100
AcDbEntity
  8
ALL_ASSEMBLY_MEMBERS
100
AcDbLine
 62
7
  6
CONTINUOUS
 10
3.7389557453
 20
6.0367107008
 11
3.2889557453
 21
6.0367107008
  0
LINE
  5
29B
100
AcDbEntity
  8
ALL_ASSEMBLY_MEMBERS
100
AcDbLine
 62
7
  6
CONTINUOUS
 10
7.7153182898
 20
6.0717107008
 11
7.1875932009
 21
6.0717107008
  0
LINE
  5
29C
100
AcDbEntity
  8
ALL_ASSEMBLY_MEMBERS
100
AcDbLine
 62
7
  6
CONTINUOUS
 10
3.7778182898
 20
6.0717107008
 11
3.2500932009
 21
6.0717107008
  0
LINE
  5
29D
100
AcDbEntity
  8
ALL_ASSEMBLY_MEMBERS
100
AcDbLine
 62
7
  6
CONTINUOUS
 10
3.8013385251
 20
6.1203370747
 11
3.2265729656
 21
6.1203370747
  0
LINE
  5
29E
100
AcDbEntity
  8
ALL_ASSEMBLY_MEMBERS
100
AcDbLine
 62
7
  6
CONTINUOUS
 10
7.7388385251
 20
6.1203370747
 11
7.1640729656
 21
6.1203370747
  0
LINE
  5
29F
100
AcDbEntity
  8
ALL_ASSEMBLY_MEMBERS
100
AcDbLine
 62
7
  6
CONTINUOUS
 10
4.9718415429
 20
6.9004132662
 11
4.8920915766
 21
6.97720953
  0
LINE
  5
2A0
100
AcDbEntity
  8
ALL_ASSEMBLY_MEMBERS
100
AcDbLine
 62
7
  6
CONTINUOUS
 10
7.0789557453
 20
6.7967107008
 11
7.0789557453
 21
6.9017107008
  0
LINE
  5
2A1
100
AcDbEntity
  8
ALL_ASSEMBLY_MEMBERS
100
AcDbLine
 62
7
  6
CONTINUOUS
 10
7.0964557453
 20
6.7617107008
 11
7.0964557453
 21
6.7967107008
  0
LINE
  5
2A2
100
AcDbEntity
  8
ALL_ASSEMBLY_MEMBERS
100
AcDbLine
 62
7
  6
CONTINUOUS
 10
7.2264557453
 20
6.0367107008
 11
7.2264557453
 21
6.0717107008
  0
LINE
  5
2A3
100
AcDbEntity
  8
ALL_ASSEMBLY_MEMBERS
100
AcDbLine
 62
7
  6
CONTINUOUS
 10
3.2613275075
 20
6.1714579027
 11
3.7665839831
 21
6.1714579027
  0
LINE
  5
2A4
100
AcDbEntity
  8
ALL_ASSEMBLY_MEMBERS
100
AcDbLine
 62
7
  6
CONTINUOUS
 10
7.1988275075
 20
6.1714579027
 11
7.7040839831
 21
6.1714579027
  0
LINE
  5
2A5
100
AcDbEntity
  8
ALL_ASSEMBLY_MEMBERS
100
AcDbLine
 62
7
  6
CONTINUOUS
 10
3.3203233316
 20
6.3122910412
 11
3.707588159
 21
6.3122910412
  0
LINE
  5
2A6
100
AcDbEntity
  8
ALL_ASSEMBLY_MEMBERS
100
AcDbLine
 62
7
  6
CONTINUOUS
 10
7.2578233316
 20
6.3122910412
 11
7.645088159
 21
6.3122910412
  0
LINE
  5
2A7
100
AcDbEntity
  8
ALL_ASSEMBLY_MEMBERS
100
AcDbLine
 62
7
  6
CONTINUOUS
 10
7.2864557453
 20
5.9967107008
 11
7.2864557453
 21
6.0317107008
  0
LINE
  5
2A8
100
AcDbEntity
  8
ALL_ASSEMBLY_MEMBERS
100
AcDbLine
 62
7
  6
CONTINUOUS
 10
7.3114557453
 20
5.5178968842
 11
7.3114557453
 21
5.5213248992
  0
LINE
  5
2A9
100
AcDbEntity
  8
ALL_ASSEMBLY_MEMBERS
100
AcDbLine
 62
7
  6
CONTINUOUS
 10
7.3222057453
 20
5.9917107008
 11
7.3222057453
 21
5.8817107008
  0
LINE
  5
2AA
100
AcDbEntity
  8
ALL_ASSEMBLY_MEMBERS
100
AcDbLine
 62
7
  6
CONTINUOUS
 10
5.8285536249
 20
6.5888688164
 11
5.1343578658
 21
6.5888688164
  0
LINE
  5
2AB
100
AcDbEntity
  8
ALL_ASSEMBLY_MEMBERS
100
AcDbLine
 62
7
  6
CONTINUOUS
 10
3.3091647184
 20
6.5945538846
 11
3.7187467723
 21
6.5945538846
  0
LINE
  5
2AC
100
AcDbEntity
  8
ALL_ASSEMBLY_MEMBERS
100
AcDbLine
 62
7
  6
CONTINUOUS
 10
7.2466647184
 20
6.5945538846
 11
7.6562467723
 21
6.5945538846
  0
LINE
  5
2AD
100
AcDbEntity
  8
ALL_ASSEMBLY_MEMBERS
100
AcDbLine
 62
7
  6
CONTINUOUS
 10
5.8314557453
 20
6.6151002213
 11
5.1314557453
 21
6.6151002213
  0
LINE
  5
2AE
100
AcDbEntity
  8
ALL_ASSEMBLY_MEMBERS
100
AcDbLine
 62
7
  6
CONTINUOUS
 10
5.8514557452
 20
6.6767107008
 11
5.1114557455
 21
6.6767107008
  0
LINE
  5
2AF
100
AcDbEntity
  8
ALL_ASSEMBLY_MEMBERS
100
AcDbLine
 62
7
  6
CONTINUOUS
 10
5.8864557453
 20
6.7117107008
 11
5.0764557453
 21
6.7117107008
  0
LINE
  5
2B0
100
AcDbEntity
  8
ALL_ASSEMBLY_MEMBERS
100
AcDbLine
 62
7
  6
CONTINUOUS
 10
7.5807057453
 20
5.9917107008
 11
7.5807057453
 21
5.8817107008
  0
LINE
  5
2B1
100
AcDbEntity
  8
ALL_ASSEMBLY_MEMBERS
100
AcDbLine
 62
7
  6
CONTINUOUS
 10
7.5914557453
 20
5.5178968842
 11
7.5914557453
 21
5.5213248992
  0
LINE
  5
2B2
100
AcDbEntity
  8
ALL_ASSEMBLY_MEMBERS
100
AcDbLine
 62
7
  6
CONTINUOUS
 10
7.6164557453
 20
5.9967107008
 11
7.6164557453
 21
6.0317107008
  0
LINE
  5
2B3
100
AcDbEntity
  8
ALL_ASSEMBLY_MEMBERS
100
AcDbLine
 62
7
  6
CONTINUOUS
 10
7.6454557453
 20
5.586141056
 11
7.6454557453
 21
5.8167806924
  0
LINE
  5
2B4
100
AcDbEntity
  8
ALL_ASSEMBLY_MEMBERS
100
AcDbLine
 62
7
  6
CONTINUOUS
 10
7.6764557453
 20
6.0367107008
 11
7.6764557453
 21
6.0717107008
  0
LINE
  5
2B5
100
AcDbEntity
  8
ALL_ASSEMBLY_MEMBERS
100
AcDbLine
 62
7
  6
CONTINUOUS
 10
7.6964557453
 20
5.8329595583
 11
7.6964557453
 21
5.5699621901
  0
LINE
  5
2B6
100
AcDbEntity
  8
ALL_ASSEMBLY_MEMBERS
100
AcDbLine
 62
7
  6
CONTINUOUS
 10
7.719956858
 20
5.8526507328
 11
7.719956858
 21
5.5502710156
  0
LINE
  5
2B7
100
AcDbEntity
  8
ALL_ASSEMBLY_MEMBERS
100
AcDbLine
 62
7
  6
CONTINUOUS
 10
7.8064557453
 20
6.7617107008
 11
7.8064557453
 21
6.7967107008
  0
LINE
  5
2B8
100
AcDbEntity
  8
ALL_ASSEMBLY_MEMBERS
100
AcDbLine
 62
7
  6
CONTINUOUS
 10
7.8239557453
 20
6.7967107008
 11
7.8239557453
 21
6.9017107008
  0
LINE
  5
2B9
100
AcDbEntity
  8
ALL_ASSEMBLY_MEMBERS
100
AcDbLine
 62
7
  6
CONTINUOUS
 10
7.8537680511
 20
5.8648128617
 11
7.8537680511
 21
5.5381088867
  0
LINE
  5
2BA
100
AcDbEntity
  8
ALL_ASSEMBLY_MEMBERS
100
AcDbLine
 62
7
  6
CONTINUOUS
 10
3.1589557453
 20
6.7617107008
 11
3.8689557453
 21
6.7617107008
  0
LINE
  5
2BB
100
AcDbEntity
  8
ALL_ASSEMBLY_MEMBERS
100
AcDbLine
 62
7
  6
CONTINUOUS
 10
7.0964557453
 20
6.7617107008
 11
7.8064557453
 21
6.7617107008
  0
LINE
  5
2BC
100
AcDbEntity
  8
ALL_ASSEMBLY_MEMBERS
100
AcDbLine
 62
7
  6
CONTINUOUS
 10
3.1414557453
 20
6.7967107008
 11
3.8864557453
 21
6.7967107008
  0
LINE
  5
2BD
100
AcDbEntity
  8
ALL_ASSEMBLY_MEMBERS
100
AcDbLine
 62
7
  6
CONTINUOUS
 10
7.0789557453
 20
6.7967107008
 11
7.8239557453
 21
6.7967107008
  0
LINE
  5
2BE
100
AcDbEntity
  8
ALL_ASSEMBLY_MEMBERS
100
AcDbLine
 62
7
  6
CONTINUOUS
 10
5.9414557452
 20
6.8417107008
 11
5.0214557455
 21
6.8417107008
  0
LINE
  5
2BF
100
AcDbEntity
  8
ALL_ASSEMBLY_MEMBERS
100
AcDbLine
 62
7
  6
CONTINUOUS
 10
4.9976600711
 20
6.8590448096
 11
5.9652514196
 21
6.8590448096
  0
LINE
  5
2C0
100
AcDbEntity
  8
ALL_ASSEMBLY_MEMBERS
100
AcDbLine
 62
7
  6
CONTINUOUS
 10
4.9718415431
 20
6.900413266
 11
5.9910699476
 21
6.900413266
  0
LINE
  5
2C1
100
AcDbEntity
  8
ALL_ASSEMBLY_MEMBERS
100
AcDbLine
 62
7
  6
CONTINUOUS
 10
7.8605422826
 20
6.9017107008
 11
7.0423692081
 21
6.9017107008
  0
LINE
  5
2C2
100
AcDbEntity
  8
ALL_ASSEMBLY_MEMBERS
100
AcDbLine
 62
7
  6
CONTINUOUS
 10
3.9230422826
 20
6.9017107008
 11
3.1048692081
 21
6.9017107008
  0
LINE
  5
2C3
100
AcDbEntity
  8
ALL_ASSEMBLY_MEMBERS
100
AcDbLine
 62
7
  6
CONTINUOUS
 10
7.8692429878
 20
6.9067814282
 11
7.0336685028
 21
6.9067814282
  0
LINE
  5
2C4
100
AcDbEntity
  8
ALL_ASSEMBLY_MEMBERS
100
AcDbLine
 62
7
  6
CONTINUOUS
 10
3.9317429878
 20
6.9067814282
 11
3.0961685028
 21
6.9067814282
  0
LINE
  5
2C5
100
AcDbEntity
  8
ALL_ASSEMBLY_MEMBERS
100
AcDbLine
 62
7
  6
CONTINUOUS
 10
6.070819914
 20
6.9772095299
 11
4.8920915767
 21
6.9772095299
  0
LINE
  5
2C6
100
AcDbEntity
  8
ALL_ASSEMBLY_MEMBERS
100
AcDbLine
 62
7
  6
CONTINUOUS
 10
7.9610940226
 20
6.9954390923
 11
6.9418174681
 21
6.9954390923
  0
LINE
  5
2C7
100
AcDbEntity
  8
ALL_ASSEMBLY_MEMBERS
100
AcDbLine
 62
7
  6
CONTINUOUS
 10
4.0235940226
 20
6.9954390923
 11
3.0043174681
 21
6.9954390923
  0
LINE
  5
2C8
100
AcDbEntity
  8
ALL_ASSEMBLY_MEMBERS
100
AcDbLine
 62
7
  6
CONTINUOUS
 10
7.8939557455
 20
5.8409608742
 11
7.8939557455
 21
5.5619608742
  0
LINE
  5
2C9
100
AcDbEntity
  8
ALL_ASSEMBLY_MEMBERS
100
AcDbLine
 62
7
  6
CONTINUOUS
 10
8.0014557453
 20
7.061961192
 11
8.0014557453
 21
7.1167107008
  0
LINE
  5
2CA
100
AcDbEntity
  8
ALL_ASSEMBLY_MEMBERS
100
AcDbLine
 62
7
  6
CONTINUOUS
 10
6.1014557453
 20
7.0492415513
 11
4.8614557453
 21
7.0492415513
  0
LINE
  5
2CB
100
AcDbEntity
  8
ALL_ASSEMBLY_MEMBERS
100
AcDbLine
 62
7
  6
CONTINUOUS
 10
8.0014557453
 20
7.0619611919
 11
6.9014557453
 21
7.0619611919
  0
LINE
  5
2CC
100
AcDbEntity
  8
ALL_ASSEMBLY_MEMBERS
100
AcDbLine
 62
7
  6
CONTINUOUS
 10
4.0639557453
 20
7.0619611919
 11
2.9639557453
 21
7.0619611919
  0
LINE
  5
2CD
100
AcDbEntity
  8
ALL_ASSEMBLY_MEMBERS
100
AcDbLine
 62
7
  6
CONTINUOUS
 10
2.9639557453
 20
7.1167107008
 11
4.0639557453
 21
7.1167107008
  0
LINE
  5
2CE
100
AcDbEntity
  8
ALL_ASSEMBLY_MEMBERS
100
AcDbLine
 62
7
  6
CONTINUOUS
 10
4.8614557453
 20
7.1167107008
 11
6.1014557453
 21
7.1167107008
  0
LINE
  5
2CF
100
AcDbEntity
  8
ALL_ASSEMBLY_MEMBERS
100
AcDbLine
 62
7
  6
CONTINUOUS
 10
6.9014557453
 20
7.1167107008
 11
8.0014557453
 21
7.1167107008
  0
LINE
  5
2D0
100
AcDbEntity
  8
ALL_ASSEMBLY_MEMBERS
100
AcDbLine
 62
7
  6
CONTINUOUS
 10
8.9814557453
 20
5.9272358742
 11
8.9814557453
 21
5.4756858743
  0
LINE
  5
2D1
100
AcDbEntity
  8
ALL_ASSEMBLY_MEMBERS
100
AcDbLine
 62
7
  6
CONTINUOUS
 10
9.0014557453
 20
5.9472358742
 11
9.0014557453
 21
5.4556858742
  0
LINE
  5
2D2
100
AcDbEntity
  8
ALL_ASSEMBLY_MEMBERS
100
AcDbLine
 62
7
  6
CONTINUOUS
 10
9.0124071812
 20
5.9472358742
 11
9.0124071812
 21
5.4556858742
  0
LINE
  5
2D3
100
AcDbEntity
  8
ALL_ASSEMBLY_MEMBERS
100
AcDbLine
 62
7
  6
CONTINUOUS
 10
9.0414328421
 20
5.9248194751
 11
9.0414328421
 21
5.4781022733
  0
LINE
  5
2D4
100
AcDbEntity
  8
ALL_ASSEMBLY_MEMBERS
100
AcDbLine
 62
7
  6
CONTINUOUS
 10
9.0902120926
 20
5.8496266937
 11
9.0902120926
 21
5.5532950547
  0
LINE
  5
2D5
100
AcDbEntity
  8
ALL_ASSEMBLY_MEMBERS
100
AcDbLine
 62
7
  6
CONTINUOUS
 10
9.1014557453
 20
5.8262129715
 11
9.1014557453
 21
5.5767087139
  0
ARC
  5
2D6
100
AcDbEntity
  8
ALL_ASSEMBLY_MEMBERS
100
AcDbCircle
 62
7
  6
CONTINUOUS
 10
0.9775083372
 20
-15.0543827279
 40
21.0
100
AcDbArc
 50
84.2774261876
 51
87.2529863377
  0
ARC
  5
2D7
100
AcDbEntity
  8
ALL_ASSEMBLY_MEMBERS
100
AcDbCircle
 62
7
  6
CONTINUOUS
 10
-7.8748935633
 20
4.0594071863
 40
13.0570258343
100
AcDbArc
 50
359.2124530697
 51
359.3410933376
  0
ARC
  5
2D8
100
AcDbEntity
  8
ALL_ASSEMBLY_MEMBERS
100
AcDbCircle
 62
7
  6
CONTINUOUS
 10
-6.4286737975
 20
4.0390868558
 40
11.6106631849
100
AcDbArc
 50
358.8841457196
 51
359.1920266159
  0
ARC
  5
2D9
100
AcDbEntity
  8
ALL_ASSEMBLY_MEMBERS
100
AcDbCircle
 62
7
  6
CONTINUOUS
 10
-4.7133049109
 20
4.0056654759
 40
9.8949680046
100
AcDbArc
 50
358.5023039654
 51
358.813602665
  0
ARC
  5
2DA
100
AcDbEntity
  8
ALL_ASSEMBLY_MEMBERS
100
AcDbCircle
 62
7
  6
CONTINUOUS
 10
-3.8166773053
 20
3.9828412787
 40
8.9980501788
100
AcDbArc
 50
358.2865313363
 51
358.498365416
  0
ARC
  5
2DB
100
AcDbEntity
  8
ALL_ASSEMBLY_MEMBERS
100
AcDbCircle
 62
7
  6
CONTINUOUS
 10
-3.2434527438
 20
3.9658794078
 40
8.4245747511
100
AcDbArc
 50
358.0717551334
 51
358.28526755
  0
ARC
  5
2DC
100
AcDbEntity
  8
ALL_ASSEMBLY_MEMBERS
100
AcDbCircle
 62
7
  6
CONTINUOUS
 10
9.9879031535
 20
-15.0543827279
 40
21.0
100
AcDbArc
 50
92.7470136623
 51
95.7225738124
  0
ARC
  5
2DD
100
AcDbEntity
  8
ALL_ASSEMBLY_MEMBERS
100
AcDbCircle
 62
7
  6
CONTINUOUS
 10
1.2448580741
 20
3.9742858898
 40
3.9925823686
100
AcDbArc
 50
337.3945798252
 51
337.9961434092
  0
ARC
  5
2DE
100
AcDbEntity
  8
ALL_ASSEMBLY_MEMBERS
100
AcDbCircle
 62
7
  6
CONTINUOUS
 10
1.7874749365
 20
3.6391806276
 40
3.3813097206
100
AcDbArc
 50
352.599166087
 51
352.8089355122
  0
ARC
  5
2DF
100
AcDbEntity
  8
ALL_ASSEMBLY_MEMBERS
100
AcDbCircle
 62
7
  6
CONTINUOUS
 10
2.0098638955
 20
3.6759144708
 40
3.1713707129
100
AcDbArc
 50
340.3386837042
 51
341.0751816523
  0
ARC
  5
2E0
100
AcDbEntity
  8
ALL_ASSEMBLY_MEMBERS
100
AcDbCircle
 62
7
  6
CONTINUOUS
 10
2.0742416013
 20
3.6539306662
 40
3.1033428467
100
AcDbArc
 50
341.1696632417
 51
341.7638126309
  0
ARC
  5
2E1
100
AcDbEntity
  8
ALL_ASSEMBLY_MEMBERS
100
AcDbCircle
 62
7
  6
CONTINUOUS
 10
2.3699608152
 20
3.5669159675
 40
2.7950118923
100
AcDbArc
 50
346.0111509277
 51
346.5129341943
  0
ARC
  5
2E2
100
AcDbEntity
  8
ALL_ASSEMBLY_MEMBERS
100
AcDbCircle
 62
7
  6
CONTINUOUS
 10
5.2365875312
 20
3.2037260307
 40
0.0959716366
100
AcDbArc
 50
172.6056687059
 51
180.0549301895
  0
ARC
  5
2E3
100
AcDbEntity
  8
ALL_ASSEMBLY_MEMBERS
100
AcDbCircle
 62
7
  6
CONTINUOUS
 10
5.2418877921
 20
3.8116744671
 40
0.062125245
100
AcDbArc
 50
179.9706924132
 51
185.9816231944
  0
ARC
  5
2E4
100
AcDbEntity
  8
ALL_ASSEMBLY_MEMBERS
100
AcDbCircle
 62
7
  6
CONTINUOUS
 10
3.2008154465
 20
5.299208587
 40
0.255
100
AcDbArc
 50
79.9181044226
 51
110.468608822
  0
ARC
  5
2E5
100
AcDbEntity
  8
ALL_ASSEMBLY_MEMBERS
100
AcDbCircle
 62
7
  6
CONTINUOUS
 10
1.7861067599
 20
5.4420801644
 40
0.1425
100
AcDbArc
 50
14.6424776248
 51
51.3022866218
  0
ARC
  5
2E6
100
AcDbEntity
  8
ALL_ASSEMBLY_MEMBERS
100
AcDbCircle
 62
7
  6
CONTINUOUS
 10
5.0489474702
 20
5.2741543669
 40
0.125
100
AcDbArc
 50
311.4383187833
 51
350.6274160088
  0
ARC
  5
2E7
100
AcDbEntity
  8
ALL_ASSEMBLY_MEMBERS
100
AcDbCircle
 62
7
  6
CONTINUOUS
 10
5.1614557453
 20
5.1467107008
 40
0.045
100
AcDbArc
 50
131.4383187833
 51
241.9275130641
  0
ARC
  5
2E8
100
AcDbEntity
  8
ALL_ASSEMBLY_MEMBERS
100
AcDbCircle
 62
7
  6
CONTINUOUS
 10
3.6139557453
 20
5.5178968842
 40
0.04
100
AcDbArc
 50
288.819063369
 51
360.0
  0
ARC
  5
2E9
100
AcDbEntity
  8
ALL_ASSEMBLY_MEMBERS
100
AcDbCircle
 62
7
  6
CONTINUOUS
 10
3.4139557453
 20
5.5178968842
 40
0.04
100
AcDbArc
 50
180.0
 51
251.180936631
  0
ARC
  5
2EA
100
AcDbEntity
  8
ALL_ASSEMBLY_MEMBERS
100
AcDbCircle
 62
7
  6
CONTINUOUS
 10
5.1214557453
 20
5.0717107008
 40
0.04
100
AcDbArc
 50
4.4117257858
 51
61.9275130641
  0
ARC
  5
2EB
100
AcDbEntity
  8
ALL_ASSEMBLY_MEMBERS
100
AcDbCircle
 62
7
  6
CONTINUOUS
 10
1.8939557453
 20
5.5767087139
 40
0.03
100
AcDbArc
 50
180.0
 51
231.3022866218
  0
ARC
  5
2EC
100
AcDbEntity
  8
ALL_ASSEMBLY_MEMBERS
100
AcDbCircle
 62
7
  6
CONTINUOUS
 10
1.9530043096
 20
5.4856858742
 40
0.03
100
AcDbArc
 50
194.6424776248
 51
270.0
  0
ARC
  5
2ED
100
AcDbEntity
  8
ALL_ASSEMBLY_MEMBERS
100
AcDbCircle
 62
7
  6
CONTINUOUS
 10
3.1011526151
 20
5.5662148042
 40
0.03
100
AcDbArc
 50
188.151882933
 51
290.468608822
  0
ARC
  5
2EE
100
AcDbEntity
  8
ALL_ASSEMBLY_MEMBERS
100
AcDbCircle
 62
7
  6
CONTINUOUS
 10
5.1862631523
 20
5.0767107008
 40
0.025
100
AcDbArc
 50
184.4117257858
 51
252.8823451572
  0
ARC
  5
2EF
100
AcDbEntity
  8
ALL_ASSEMBLY_MEMBERS
100
AcDbCircle
 62
7
  6
CONTINUOUS
 10
1.9639557453
 20
5.4756858742
 40
0.02
100
AcDbArc
 50
270.0
 51
360.0
  0
ARC
  5
2F0
100
AcDbEntity
  8
ALL_ASSEMBLY_MEMBERS
100
AcDbCircle
 62
7
  6
CONTINUOUS
 10
3.2489557453
 20
5.5699621865
 40
0.02
100
AcDbArc
 50
259.9181044226
 51
360.0
  0
ARC
  5
2F1
100
AcDbEntity
  8
ALL_ASSEMBLY_MEMBERS
100
AcDbCircle
 62
7
  6
CONTINUOUS
 10
3.6439557453
 20
5.5213248992
 40
0.01
100
AcDbArc
 50
0.0
 51
90.0
  0
ARC
  5
2F2
100
AcDbEntity
  8
ALL_ASSEMBLY_MEMBERS
100
AcDbCircle
 62
7
  6
CONTINUOUS
 10
3.3839557453
 20
5.5213248992
 40
0.01
100
AcDbArc
 50
90.0
 51
180.0
  0
ARC
  5
2F3
100
AcDbEntity
  8
ALL_ASSEMBLY_MEMBERS
100
AcDbCircle
 62
7
  6
CONTINUOUS
 10
3.3678381223
 20
5.5363248992
 40
0.005
100
AcDbArc
 50
228.4965643595
 51
270.0
  0
ARC
  5
2F4
100
AcDbEntity
  8
ALL_ASSEMBLY_MEMBERS
100
AcDbCircle
 62
7
  6
CONTINUOUS
 10
3.6600733683
 20
5.5363248992
 40
0.005
100
AcDbArc
 50
270.0
 51
311.5034356405
  0
ARC
  5
2F5
100
AcDbEntity
  8
ALL_ASSEMBLY_MEMBERS
100
AcDbCircle
 62
7
  6
CONTINUOUS
 10
9.7180534166
 20
3.9742858898
 40
3.9925823685
100
AcDbArc
 50
202.0038565908
 51
202.6054201748
  0
ARC
  5
2F6
100
AcDbEntity
  8
ALL_ASSEMBLY_MEMBERS
100
AcDbCircle
 62
7
  6
CONTINUOUS
 10
9.1754365549
 20
3.6391806277
 40
3.3813097214
100
AcDbArc
 50
187.1910644878
 51
187.400833913
  0
ARC
  5
2F7
100
AcDbEntity
  8
ALL_ASSEMBLY_MEMBERS
100
AcDbCircle
 62
7
  6
CONTINUOUS
 10
8.9530475952
 20
3.6759144708
 40
3.1713707129
100
AcDbArc
 50
198.9248183476
 51
199.6613162958
  0
ARC
  5
2F8
100
AcDbEntity
  8
ALL_ASSEMBLY_MEMBERS
100
AcDbCircle
 62
7
  6
CONTINUOUS
 10
8.8886698895
 20
3.6539306662
 40
3.1033428468
100
AcDbArc
 50
198.2361873691
 51
198.8303367583
  0
ARC
  5
2F9
100
AcDbEntity
  8
ALL_ASSEMBLY_MEMBERS
100
AcDbCircle
 62
7
  6
CONTINUOUS
 10
8.5929506755
 20
3.5669159674
 40
2.7950118922
100
AcDbArc
 50
193.4870658057
 51
193.9888490723
  0
ARC
  5
2FA
100
AcDbEntity
  8
ALL_ASSEMBLY_MEMBERS
100
AcDbCircle
 62
7
  6
CONTINUOUS
 10
5.7263239595
 20
3.2037260307
 40
0.0959716366
100
AcDbArc
 50
359.9450698105
 51
7.3943312941
  0
ARC
  5
2FB
100
AcDbEntity
  8
ALL_ASSEMBLY_MEMBERS
100
AcDbCircle
 62
7
  6
CONTINUOUS
 10
5.7220407685
 20
3.8116215088
 40
0.0611082257
100
AcDbArc
 50
353.9899258129
 51
0.079449742
  0
ARC
  5
2FC
100
AcDbEntity
  8
ALL_ASSEMBLY_MEMBERS
100
AcDbCircle
 62
7
  6
CONTINUOUS
 10
7.7645960442
 20
5.299208587
 40
0.255
100
AcDbArc
 50
69.531391178
 51
100.0818955774
  0
ARC
  5
2FD
100
AcDbEntity
  8
ALL_ASSEMBLY_MEMBERS
100
AcDbCircle
 62
7
  6
CONTINUOUS
 10
9.1793047307
 20
5.4420801644
 40
0.1425
100
AcDbArc
 50
128.6977133782
 51
165.3575223752
  0
ARC
  5
2FE
100
AcDbEntity
  8
ALL_ASSEMBLY_MEMBERS
100
AcDbCircle
 62
7
  6
CONTINUOUS
 10
5.9139640205
 20
5.2741543669
 40
0.125
100
AcDbArc
 50
189.3725839912
 51
228.5616812167
  0
ARC
  5
2FF
100
AcDbEntity
  8
ALL_ASSEMBLY_MEMBERS
100
AcDbCircle
 62
7
  6
CONTINUOUS
 10
5.8014557453
 20
5.1467107008
 40
0.045
100
AcDbArc
 50
298.0724869359
 51
48.5616812167
  0
ARC
  5
300
100
AcDbEntity
  8
ALL_ASSEMBLY_MEMBERS
100
AcDbCircle
 62
7
  6
CONTINUOUS
 10
7.3514557453
 20
5.5178968842
 40
0.04
100
AcDbArc
 50
180.0
 51
251.180936631
  0
ARC
  5
301
100
AcDbEntity
  8
ALL_ASSEMBLY_MEMBERS
100
AcDbCircle
 62
7
  6
CONTINUOUS
 10
7.5514557453
 20
5.5178968842
 40
0.04
100
AcDbArc
 50
288.819063369
 51
360.0
  0
ARC
  5
302
100
AcDbEntity
  8
ALL_ASSEMBLY_MEMBERS
100
AcDbCircle
 62
7
  6
CONTINUOUS
 10
5.8414557453
 20
5.0717107008
 40
0.04
100
AcDbArc
 50
118.0724869359
 51
175.5882742142
  0
ARC
  5
303
100
AcDbEntity
  8
ALL_ASSEMBLY_MEMBERS
100
AcDbCircle
 62
7
  6
CONTINUOUS
 10
7.8642588756
 20
5.5662148042
 40
0.03
100
AcDbArc
 50
249.531391178
 51
351.848117067
  0
ARC
  5
304
100
AcDbEntity
  8
ALL_ASSEMBLY_MEMBERS
100
AcDbCircle
 62
7
  6
CONTINUOUS
 10
9.0714557453
 20
5.5767087139
 40
0.03
100
AcDbArc
 50
308.6977133782
 51
360.0
  0
ARC
  5
305
100
AcDbEntity
  8
ALL_ASSEMBLY_MEMBERS
100
AcDbCircle
 62
7
  6
CONTINUOUS
 10
9.0124071811
 20
5.4856858742
 40
0.03
100
AcDbArc
 50
270.0
 51
345.3575223752
  0
ARC
  5
306
100
AcDbEntity
  8
ALL_ASSEMBLY_MEMBERS
100
AcDbCircle
 62
7
  6
CONTINUOUS
 10
5.7766483384
 20
5.0767107008
 40
0.025
100
AcDbArc
 50
287.1176548428
 51
355.5882742142
  0
ARC
  5
307
100
AcDbEntity
  8
ALL_ASSEMBLY_MEMBERS
100
AcDbCircle
 62
7
  6
CONTINUOUS
 10
7.7164557453
 20
5.5699621865
 40
0.02
100
AcDbArc
 50
180.0
 51
280.0818955774
  0
ARC
  5
308
100
AcDbEntity
  8
ALL_ASSEMBLY_MEMBERS
100
AcDbCircle
 62
7
  6
CONTINUOUS
 10
9.0014557453
 20
5.4756858742
 40
0.02
100
AcDbArc
 50
180.0
 51
270.0
  0
ARC
  5
309
100
AcDbEntity
  8
ALL_ASSEMBLY_MEMBERS
100
AcDbCircle
 62
7
  6
CONTINUOUS
 10
7.3214557453
 20
5.5213248992
 40
0.01
100
AcDbArc
 50
90.0
 51
180.0
  0
ARC
  5
30A
100
AcDbEntity
  8
ALL_ASSEMBLY_MEMBERS
100
AcDbCircle
 62
7
  6
CONTINUOUS
 10
7.5814557453
 20
5.5213248992
 40
0.01
100
AcDbArc
 50
0.0
 51
90.0
  0
ARC
  5
30B
100
AcDbEntity
  8
ALL_ASSEMBLY_MEMBERS
100
AcDbCircle
 62
7
  6
CONTINUOUS
 10
7.5975733683
 20
5.5363248992
 40
0.005
100
AcDbArc
 50
270.0
 51
311.5034356405
  0
ARC
  5
30C
100
AcDbEntity
  8
ALL_ASSEMBLY_MEMBERS
100
AcDbCircle
 62
7
  6
CONTINUOUS
 10
7.3053381223
 20
5.5363248992
 40
0.005
100
AcDbArc
 50
228.4965643595
 51
270.0
  0
ARC
  5
30D
100
AcDbEntity
  8
ALL_ASSEMBLY_MEMBERS
100
AcDbCircle
 62
7
  6
CONTINUOUS
 10
1.7190030449
 20
5.8237861753
 40
3.5
100
AcDbArc
 50
350.6274160088
 51
12.6265263525
  0
ARC
  5
30E
100
AcDbEntity
  8
ALL_ASSEMBLY_MEMBERS
100
AcDbCircle
 62
7
  6
CONTINUOUS
 10
3.2008154465
 20
6.1037131614
 40
0.255
100
AcDbArc
 50
249.5313911776
 51
280.0818955774
  0
ARC
  5
30F
100
AcDbEntity
  8
ALL_ASSEMBLY_MEMBERS
100
AcDbCircle
 62
7
  6
CONTINUOUS
 10
1.7861067599
 20
5.9608415841
 40
0.1425
100
AcDbArc
 50
308.6977133782
 51
345.3575223752
  0
ARC
  5
310
100
AcDbEntity
  8
ALL_ASSEMBLY_MEMBERS
100
AcDbCircle
 62
7
  6
CONTINUOUS
 10
3.250090155
 20
6.1017107008
 40
0.03
100
AcDbArc
 50
141.6196390045
 51
270.0
  0
ARC
  5
311
100
AcDbEntity
  8
ALL_ASSEMBLY_MEMBERS
100
AcDbCircle
 62
7
  6
CONTINUOUS
 10
1.8939557453
 20
5.8262130345
 40
0.03
100
AcDbArc
 50
128.6977133782
 51
180.0
  0
ARC
  5
312
100
AcDbEntity
  8
ALL_ASSEMBLY_MEMBERS
100
AcDbCircle
 62
7
  6
CONTINUOUS
 10
1.9530043096
 20
5.9172358742
 40
0.03
100
AcDbArc
 50
90.0
 51
165.3575223752
  0
ARC
  5
313
100
AcDbEntity
  8
ALL_ASSEMBLY_MEMBERS
100
AcDbCircle
 62
7
  6
CONTINUOUS
 10
3.101152615
 20
5.8367069442
 40
0.03
100
AcDbArc
 50
69.5313911776
 51
171.848117068
  0
ARC
  5
314
100
AcDbEntity
  8
ALL_ASSEMBLY_MEMBERS
100
AcDbCircle
 62
7
  6
CONTINUOUS
 10
1.9639557453
 20
5.9272358742
 40
0.02
100
AcDbArc
 50
0.0
 51
90.0
  0
ARC
  5
315
100
AcDbEntity
  8
ALL_ASSEMBLY_MEMBERS
100
AcDbCircle
 62
7
  6
CONTINUOUS
 10
3.2489557453
 20
5.8329595619
 40
0.02
100
AcDbArc
 50
0.0
 51
100.0818955774
  0
ARC
  5
316
100
AcDbEntity
  8
ALL_ASSEMBLY_MEMBERS
100
AcDbCircle
 62
7
  6
CONTINUOUS
 10
3.3539557453
 20
5.9967107008
 40
0.005
100
AcDbArc
 50
180.0
 51
270.0
  0
ARC
  5
317
100
AcDbEntity
  8
ALL_ASSEMBLY_MEMBERS
100
AcDbCircle
 62
7
  6
CONTINUOUS
 10
3.2939557453
 20
6.0367107008
 40
0.005
100
AcDbArc
 50
180.0
 51
270.0
  0
ARC
  5
318
100
AcDbEntity
  8
ALL_ASSEMBLY_MEMBERS
100
AcDbCircle
 62
7
  6
CONTINUOUS
 10
2.7419184801
 20
6.4718147942
 40
0.6
100
AcDbArc
 50
329.9606392759
 51
344.581171616
  0
ARC
  5
319
100
AcDbEntity
  8
ALL_ASSEMBLY_MEMBERS
100
AcDbCircle
 62
7
  6
CONTINUOUS
 10
2.8720595717
 20
6.4359219498
 40
0.465
100
AcDbArc
 50
344.581171616
 51
19.946584759
  0
ARC
  5
31A
100
AcDbEntity
  8
ALL_ASSEMBLY_MEMBERS
100
AcDbCircle
 62
7
  6
CONTINUOUS
 10
2.8934127798
 20
6.3842107008
 40
0.425
100
AcDbArc
 50
321.6196390045
 51
329.9606392759
  0
ARC
  5
31B
100
AcDbEntity
  8
ALL_ASSEMBLY_MEMBERS
100
AcDbCircle
 62
7
  6
CONTINUOUS
 10
3.027161398
 20
6.4922107008
 40
0.3
100
AcDbArc
 50
19.946584759
 51
63.9398488367
  0
ARC
  5
31C
100
AcDbEntity
  8
ALL_ASSEMBLY_MEMBERS
100
AcDbCircle
 62
7
  6
CONTINUOUS
 10
2.9004026357
 20
6.7958727935
 40
0.225
100
AcDbArc
 50
29.533164499
 51
62.4938578389
  0
ARC
  5
31D
100
AcDbEntity
  8
ALL_ASSEMBLY_MEMBERS
100
AcDbCircle
 62
7
  6
CONTINUOUS
 10
3.0389557453
 20
7.061961192
 40
0.075
100
AcDbArc
 50
180.0
 51
242.4938578389
  0
ARC
  5
31E
100
AcDbEntity
  8
ALL_ASSEMBLY_MEMBERS
100
AcDbCircle
 62
7
  6
CONTINUOUS
 10
3.104869208
 20
6.9117107008
 40
0.01
100
AcDbArc
 50
209.533164499
 51
270.0
  0
ARC
  5
31F
100
AcDbEntity
  8
ALL_ASSEMBLY_MEMBERS
100
AcDbCircle
 62
7
  6
CONTINUOUS
 10
3.5139557453
 20
5.8113248992
 40
0.35
100
AcDbArc
 50
251.180936631
 51
288.819063369
  0
ARC
  5
320
100
AcDbEntity
  8
ALL_ASSEMBLY_MEMBERS
100
AcDbCircle
 62
7
  6
CONTINUOUS
 10
3.5139557453
 20
5.7014608742
 40
0.2255
100
AcDbArc
 50
311.5034356457
 51
53.066555091
  0
ARC
  5
321
100
AcDbEntity
  8
ALL_ASSEMBLY_MEMBERS
100
AcDbCircle
 62
7
  6
CONTINUOUS
 10
3.5139557453
 20
5.7014608742
 40
0.2255
100
AcDbArc
 50
210.7274226551
 51
228.4965643543
  0
ARC
  5
322
100
AcDbEntity
  8
ALL_ASSEMBLY_MEMBERS
100
AcDbCircle
 62
7
  6
CONTINUOUS
 10
3.5139557453
 20
5.7014608742
 40
0.2255
100
AcDbArc
 50
126.933444909
 51
149.2723715194
  0
ARC
  5
323
100
AcDbEntity
  8
ALL_ASSEMBLY_MEMBERS
100
AcDbCircle
 62
7
  6
CONTINUOUS
 10
3.7778213357
 20
6.1017107008
 40
0.03
100
AcDbArc
 50
270.0
 51
38.3803609955
  0
ARC
  5
324
100
AcDbEntity
  8
ALL_ASSEMBLY_MEMBERS
100
AcDbCircle
 62
7
  6
CONTINUOUS
 10
3.6739557453
 20
5.9967107008
 40
0.005
100
AcDbArc
 50
270.0
 51
360.0
  0
ARC
  5
325
100
AcDbEntity
  8
ALL_ASSEMBLY_MEMBERS
100
AcDbCircle
 62
7
  6
CONTINUOUS
 10
3.7339557453
 20
6.0367107008
 40
0.005
100
AcDbArc
 50
270.0
 51
360.0
  0
ARC
  5
326
100
AcDbEntity
  8
ALL_ASSEMBLY_MEMBERS
100
AcDbCircle
 62
7
  6
CONTINUOUS
 10
4.2859930105
 20
6.4718147942
 40
0.6
100
AcDbArc
 50
195.418828384
 51
210.0393607241
  0
ARC
  5
327
100
AcDbEntity
  8
ALL_ASSEMBLY_MEMBERS
100
AcDbCircle
 62
7
  6
CONTINUOUS
 10
4.155851919
 20
6.4359219498
 40
0.465
100
AcDbArc
 50
160.053415241
 51
195.418828384
  0
ARC
  5
328
100
AcDbEntity
  8
ALL_ASSEMBLY_MEMBERS
100
AcDbCircle
 62
7
  6
CONTINUOUS
 10
4.1344987109
 20
6.3842107008
 40
0.425
100
AcDbArc
 50
210.0393607241
 51
218.3803609955
  0
ARC
  5
329
100
AcDbEntity
  8
ALL_ASSEMBLY_MEMBERS
100
AcDbCircle
 62
7
  6
CONTINUOUS
 10
4.0007500927
 20
6.4922107008
 40
0.3
100
AcDbArc
 50
116.0601511633
 51
160.053415241
  0
ARC
  5
32A
100
AcDbEntity
  8
ALL_ASSEMBLY_MEMBERS
100
AcDbCircle
 62
7
  6
CONTINUOUS
 10
4.127508855
 20
6.7958727935
 40
0.225
100
AcDbArc
 50
117.5061421611
 51
150.466835501
  0
ARC
  5
32B
100
AcDbEntity
  8
ALL_ASSEMBLY_MEMBERS
100
AcDbCircle
 62
7
  6
CONTINUOUS
 10
4.9024773742
 20
6.8283812448
 40
0.1
100
AcDbArc
 50
17.8565955216
 51
46.0809241867
  0
ARC
  5
32C
100
AcDbEntity
  8
ALL_ASSEMBLY_MEMBERS
100
AcDbCircle
 62
7
  6
CONTINUOUS
 10
4.9614557453
 20
7.0492415513
 40
0.1
100
AcDbArc
 50
180.0
 51
226.0809241867
  0
ARC
  5
32D
100
AcDbEntity
  8
ALL_ASSEMBLY_MEMBERS
100
AcDbCircle
 62
7
  6
CONTINUOUS
 10
3.9889557453
 20
7.061961192
 40
0.075
100
AcDbArc
 50
297.5061421611
 51
360.0
  0
ARC
  5
32E
100
AcDbEntity
  8
ALL_ASSEMBLY_MEMBERS
100
AcDbCircle
 62
7
  6
CONTINUOUS
 10
5.1114557453
 20
6.7117107008
 40
0.035
100
AcDbArc
 50
180.0
 51
270.0
  0
ARC
  5
32F
100
AcDbEntity
  8
ALL_ASSEMBLY_MEMBERS
100
AcDbCircle
 62
7
  6
CONTINUOUS
 10
5.0214557453
 20
6.8667107008
 40
0.025
100
AcDbArc
 50
197.8565955216
 51
270.0
  0
ARC
  5
330
100
AcDbEntity
  8
ALL_ASSEMBLY_MEMBERS
100
AcDbCircle
 62
7
  6
CONTINUOUS
 10
3.9230422827
 20
6.9117107008
 40
0.01
100
AcDbArc
 50
270.0
 51
330.466835501
  0
ARC
  5
331
100
AcDbEntity
  8
ALL_ASSEMBLY_MEMBERS
100
AcDbCircle
 62
7
  6
CONTINUOUS
 10
0.9775083372
 20
26.4573044764
 40
21.0
100
AcDbArc
 50
272.7470136623
 51
275.7225738125
  0
ARC
  5
332
100
AcDbEntity
  8
ALL_ASSEMBLY_MEMBERS
100
AcDbCircle
 62
7
  6
CONTINUOUS
 10
7.4514557453
 20
5.8113248992
 40
0.35
100
AcDbArc
 50
251.180936631
 51
288.819063369
  0
ARC
  5
333
100
AcDbEntity
  8
ALL_ASSEMBLY_MEMBERS
100
AcDbCircle
 62
7
  6
CONTINUOUS
 10
7.4514557453
 20
5.7014608742
 40
0.2255
100
AcDbArc
 50
126.933444909
 51
228.4965643543
  0
ARC
  5
334
100
AcDbEntity
  8
ALL_ASSEMBLY_MEMBERS
100
AcDbCircle
 62
7
  6
CONTINUOUS
 10
7.4514557453
 20
5.7014608742
 40
0.2255
100
AcDbArc
 50
311.5034356457
 51
329.2714623274
  0
ARC
  5
335
100
AcDbEntity
  8
ALL_ASSEMBLY_MEMBERS
100
AcDbCircle
 62
7
  6
CONTINUOUS
 10
7.4514557453
 20
5.7014608742
 40
0.2255
100
AcDbArc
 50
30.7287464076
 51
53.066555091
  0
ARC
  5
336
100
AcDbEntity
  8
ALL_ASSEMBLY_MEMBERS
100
AcDbCircle
 62
7
  6
CONTINUOUS
 10
7.187590155
 20
6.1017107008
 40
0.03
100
AcDbArc
 50
141.6196390045
 51
270.0
  0
ARC
  5
337
100
AcDbEntity
  8
ALL_ASSEMBLY_MEMBERS
100
AcDbCircle
 62
7
  6
CONTINUOUS
 10
7.2914557453
 20
5.9967107008
 40
0.005
100
AcDbArc
 50
180.0
 51
270.0
  0
ARC
  5
338
100
AcDbEntity
  8
ALL_ASSEMBLY_MEMBERS
100
AcDbCircle
 62
7
  6
CONTINUOUS
 10
7.2314557453
 20
6.0367107008
 40
0.005
100
AcDbArc
 50
180.0
 51
270.0
  0
ARC
  5
339
100
AcDbEntity
  8
ALL_ASSEMBLY_MEMBERS
100
AcDbCircle
 62
7
  6
CONTINUOUS
 10
6.6794184801
 20
6.4718147942
 40
0.6
100
AcDbArc
 50
329.9606392759
 51
344.581171616
  0
ARC
  5
33A
100
AcDbEntity
  8
ALL_ASSEMBLY_MEMBERS
100
AcDbCircle
 62
7
  6
CONTINUOUS
 10
6.8095595717
 20
6.4359219498
 40
0.465
100
AcDbArc
 50
344.581171616
 51
19.946584759
  0
ARC
  5
33B
100
AcDbEntity
  8
ALL_ASSEMBLY_MEMBERS
100
AcDbCircle
 62
7
  6
CONTINUOUS
 10
6.8309127798
 20
6.3842107008
 40
0.425
100
AcDbArc
 50
321.6196390045
 51
329.9606392759
  0
ARC
  5
33C
100
AcDbEntity
  8
ALL_ASSEMBLY_MEMBERS
100
AcDbCircle
 62
7
  6
CONTINUOUS
 10
6.964661398
 20
6.4922107008
 40
0.3
100
AcDbArc
 50
19.946584759
 51
63.9398488367
  0
ARC
  5
33D
100
AcDbEntity
  8
ALL_ASSEMBLY_MEMBERS
100
AcDbCircle
 62
7
  6
CONTINUOUS
 10
6.8379026357
 20
6.7958727935
 40
0.225
100
AcDbArc
 50
29.533164499
 51
62.4938578389
  0
ARC
  5
33E
100
AcDbEntity
  8
ALL_ASSEMBLY_MEMBERS
100
AcDbCircle
 62
7
  6
CONTINUOUS
 10
6.0604341165
 20
6.8283812448
 40
0.1
100
AcDbArc
 50
133.9190758133
 51
162.1434044784
  0
ARC
  5
33F
100
AcDbEntity
  8
ALL_ASSEMBLY_MEMBERS
100
AcDbCircle
 62
7
  6
CONTINUOUS
 10
6.0014557453
 20
7.0492415513
 40
0.1
100
AcDbArc
 50
313.9190758133
 51
360.0
  0
ARC
  5
340
100
AcDbEntity
  8
ALL_ASSEMBLY_MEMBERS
100
AcDbCircle
 62
7
  6
CONTINUOUS
 10
6.9764557453
 20
7.061961192
 40
0.075
100
AcDbArc
 50
180.0
 51
242.4938578389
  0
ARC
  5
341
100
AcDbEntity
  8
ALL_ASSEMBLY_MEMBERS
100
AcDbCircle
 62
7
  6
CONTINUOUS
 10
5.8514557453
 20
6.7117107008
 40
0.035
100
AcDbArc
 50
270.0
 51
360.0
  0
ARC
  5
342
100
AcDbEntity
  8
ALL_ASSEMBLY_MEMBERS
100
AcDbCircle
 62
7
  6
CONTINUOUS
 10
5.9414557453
 20
6.8667107008
 40
0.025
100
AcDbArc
 50
270.0
 51
342.1434044784
  0
ARC
  5
343
100
AcDbEntity
  8
ALL_ASSEMBLY_MEMBERS
100
AcDbCircle
 62
7
  6
CONTINUOUS
 10
7.042369208
 20
6.9117107008
 40
0.01
100
AcDbArc
 50
209.533164499
 51
270.0
  0
ARC
  5
344
100
AcDbEntity
  8
ALL_ASSEMBLY_MEMBERS
100
AcDbCircle
 62
7
  6
CONTINUOUS
 10
9.2439084458
 20
5.8237861753
 40
3.5
100
AcDbArc
 50
167.3734736475
 51
189.3725839912
  0
ARC
  5
345
100
AcDbEntity
  8
ALL_ASSEMBLY_MEMBERS
100
AcDbCircle
 62
7
  6
CONTINUOUS
 10
7.7645960442
 20
6.1037131614
 40
0.255
100
AcDbArc
 50
259.9181044226
 51
290.4686088224
  0
ARC
  5
346
100
AcDbEntity
  8
ALL_ASSEMBLY_MEMBERS
100
AcDbCircle
 62
7
  6
CONTINUOUS
 10
9.1793047307
 20
5.9608415841
 40
0.1425
100
AcDbArc
 50
194.6424776248
 51
231.3022866218
  0
ARC
  5
347
100
AcDbEntity
  8
ALL_ASSEMBLY_MEMBERS
100
AcDbCircle
 62
7
  6
CONTINUOUS
 10
7.7153213357
 20
6.1017107008
 40
0.03
100
AcDbArc
 50
270.0
 51
38.3803609955
  0
ARC
  5
348
100
AcDbEntity
  8
ALL_ASSEMBLY_MEMBERS
100
AcDbCircle
 62
7
  6
CONTINUOUS
 10
7.8642588756
 20
5.8367069442
 40
0.03
100
AcDbArc
 50
8.151882932
 51
110.4686088224
  0
ARC
  5
349
100
AcDbEntity
  8
ALL_ASSEMBLY_MEMBERS
100
AcDbCircle
 62
7
  6
CONTINUOUS
 10
9.0714557453
 20
5.8262130345
 40
0.03
100
AcDbArc
 50
0.0
 51
51.3022866218
  0
ARC
  5
34A
100
AcDbEntity
  8
ALL_ASSEMBLY_MEMBERS
100
AcDbCircle
 62
7
  6
CONTINUOUS
 10
9.0124071811
 20
5.9172358742
 40
0.03
100
AcDbArc
 50
14.6424776248
 51
90.0
  0
ARC
  5
34B
100
AcDbEntity
  8
ALL_ASSEMBLY_MEMBERS
100
AcDbCircle
 62
7
  6
CONTINUOUS
 10
7.7164557453
 20
5.8329595619
 40
0.02
100
AcDbArc
 50
79.9181044226
 51
180.0
  0
ARC
  5
34C
100
AcDbEntity
  8
ALL_ASSEMBLY_MEMBERS
100
AcDbCircle
 62
7
  6
CONTINUOUS
 10
9.0014557453
 20
5.9272358742
 40
0.02
100
AcDbArc
 50
90.0
 51
180.0
  0
ARC
  5
34D
100
AcDbEntity
  8
ALL_ASSEMBLY_MEMBERS
100
AcDbCircle
 62
7
  6
CONTINUOUS
 10
7.6114557453
 20
5.9967107008
 40
0.005
100
AcDbArc
 50
270.0
 51
360.0
  0
ARC
  5
34E
100
AcDbEntity
  8
ALL_ASSEMBLY_MEMBERS
100
AcDbCircle
 62
7
  6
CONTINUOUS
 10
7.6714557453
 20
6.0367107008
 40
0.005
100
AcDbArc
 50
270.0
 51
360.0
  0
ARC
  5
34F
100
AcDbEntity
  8
ALL_ASSEMBLY_MEMBERS
100
AcDbCircle
 62
7
  6
CONTINUOUS
 10
8.2234930105
 20
6.4718147942
 40
0.6
100
AcDbArc
 50
195.418828384
 51
210.0393607241
  0
ARC
  5
350
100
AcDbEntity
  8
ALL_ASSEMBLY_MEMBERS
100
AcDbCircle
 62
7
  6
CONTINUOUS
 10
8.093351919
 20
6.4359219498
 40
0.465
100
AcDbArc
 50
160.053415241
 51
195.418828384
  0
ARC
  5
351
100
AcDbEntity
  8
ALL_ASSEMBLY_MEMBERS
100
AcDbCircle
 62
7
  6
CONTINUOUS
 10
8.0719987109
 20
6.3842107008
 40
0.425
100
AcDbArc
 50
210.0393607241
 51
218.3803609955
  0
ARC
  5
352
100
AcDbEntity
  8
ALL_ASSEMBLY_MEMBERS
100
AcDbCircle
 62
7
  6
CONTINUOUS
 10
7.9382500927
 20
6.4922107008
 40
0.3
100
AcDbArc
 50
116.0601511633
 51
160.053415241
  0
ARC
  5
353
100
AcDbEntity
  8
ALL_ASSEMBLY_MEMBERS
100
AcDbCircle
 62
7
  6
CONTINUOUS
 10
8.065008855
 20
6.7958727935
 40
0.225
100
AcDbArc
 50
117.5061421611
 51
150.466835501
  0
ARC
  5
354
100
AcDbEntity
  8
ALL_ASSEMBLY_MEMBERS
100
AcDbCircle
 62
7
  6
CONTINUOUS
 10
7.9264557453
 20
7.061961192
 40
0.075
100
AcDbArc
 50
297.5061421611
 51
360.0
  0
ARC
  5
355
100
AcDbEntity
  8
ALL_ASSEMBLY_MEMBERS
100
AcDbCircle
 62
7
  6
CONTINUOUS
 10
7.8605422827
 20
6.9117107008
 40
0.01
100
AcDbArc
 50
270.0
 51
330.466835501
  0
ARC
  5
356
100
AcDbEntity
  8
ALL_ASSEMBLY_MEMBERS
100
AcDbCircle
 62
7
  6
CONTINUOUS
 10
9.9879031535
 20
26.4573044764
 40
21.0
100
AcDbArc
 50
264.2774261875
 51
267.2529863377
  0
ARC
  5
357
100
AcDbEntity
  8
ALL_ASSEMBLY_MEMBERS
100
AcDbCircle
 62
7
  6
CONTINUOUS
 10
29.5361119709
 20
4.1193282045
 40
23.7555412187
100
AcDbArc
 50
179.9940429229
 51
180.2237243338
  0
ARC
  5
358
100
AcDbEntity
  8
ALL_ASSEMBLY_MEMBERS
100
AcDbCircle
 62
7
  6
CONTINUOUS
 10
18.8378050534
 20
4.0594071863
 40
13.0570258337
100
AcDbArc
 50
180.6589066624
 51
180.7875469303
  0
ARC
  5
359
100
AcDbEntity
  8
ALL_ASSEMBLY_MEMBERS
100
AcDbCircle
 62
7
  6
CONTINUOUS
 10
17.3915852884
 20
4.0390868558
 40
11.6106631852
100
AcDbArc
 50
180.8079733841
 51
181.1158542804
  0
ARC
  5
35A
100
AcDbEntity
  8
ALL_ASSEMBLY_MEMBERS
100
AcDbCircle
 62
7
  6
CONTINUOUS
 10
15.6762164016
 20
4.0056654759
 40
9.8949680047
100
AcDbArc
 50
181.186397335
 51
181.4976960346
  0
ARC
  5
35B
100
AcDbEntity
  8
ALL_ASSEMBLY_MEMBERS
100
AcDbCircle
 62
7
  6
CONTINUOUS
 10
14.7795887969
 20
3.9828412787
 40
8.9980501796
100
AcDbArc
 50
181.501634584
 51
181.7134686636
  0
ARC
  5
35C
100
AcDbEntity
  8
ALL_ASSEMBLY_MEMBERS
100
AcDbCircle
 62
7
  6
CONTINUOUS
 10
14.206364235
 20
3.9658794079
 40
8.4245747516
100
AcDbArc
 50
181.71473245
 51
181.9282448666
  0
SPLINE
  5
35D
100
AcDbEntity
  8
ALL_ASSEMBLY_MEMBERS
100
AcDbSpline
 62
7
  6
CONTINUOUS
 70
0
 71
3
 72
32
 73
28
 74
0
 42
0.0000001
 43
0.0000001
 44
0.0000000001
 40
0.0
 40
0.0
 40
0.0
 40
0.0
 40
0.0178623374
 40
0.0342963866
 40
0.0497165376
 40
0.0644644666
 40
0.0787842473
 40
0.0927957319
 40
0.1065835243
 40
0.1202177424
 40
0.1472229351
 40
0.1741186043
 40
0.2010834065
 40
0.2282269555
 40
0.2556186272
 40
0.2833101843
 40
0.3397105917
 40
0.397584189
 40
0.4570325411
 40
0.5181220129
 40
0.5809306971
 40
0.6455301323
 40
0.7120040247
 40
0.7804580208
 40
0.8511063411
 40
0.9242003276
 40
1.0
 40
1.0
 40
1.0
 40
1.0
 10
6.0322057453
 20
2.4396064726
 30
0.0
 10
6.0322057453
 20
2.4357729276
 30
0.0
 10
6.0318381771
 20
2.4284050131
 30
0.0
 10
6.0301618225
 20
2.4178481613
 30
0.0
 10
6.027583869
 20
2.408167848
 30
0.0
 10
6.0243052625
 20
2.3991902648
 30
0.0
 10
6.0205341873
 20
2.3907414626
 30
0.0
 10
6.016307572
 20
2.3827438689
 30
0.0
 10
6.0116680271
 20
2.3751514955
 30
0.0
 10
6.0050152588
 20
2.3655441131
 30
0.0
 10
5.9958587606
 20
2.3542767107
 30
0.0
 10
5.9837524929
 20
2.3418168467
 30
0.0
 10
5.9707566105
 20
2.3302496887
 30
0.0
 10
5.956969818
 20
2.3194692182
 30
0.0
 10
5.9424883177
 20
2.3093701605
 30
0.0
 10
5.9221996831
 20
2.296672483
 30
0.0
 10
5.8953086581
 20
2.2822712992
 30
0.0
 10
5.8612553055
 20
2.2670304361
 30
0.0
 10
5.8253864913
 20
2.253569539
 30
0.0
 10
5.7878450786
 20
2.241724732
 30
0.0
 10
5.7487053787
 20
2.231437301
 30
0.0
 10
5.7080226233
 20
2.222641816
 30
0.0
 10
5.6658204751
 20
2.215318375
 30
0.0
 10
5.6220826753
 20
2.2094433044
 30
0.0
 10
5.5767354274
 20
2.2051265071
 30
0.0
 10
5.5296821447
 20
2.2024696655
 30
0.0
 10
5.4977235745
 20
2.2018840197
 30
0.0
 10
5.4814557453
 20
2.2018840197
 30
0.0
  0
SPLINE
  5
35E
100
AcDbEntity
  8
ALL_ASSEMBLY_MEMBERS
100
AcDbSpline
 62
7
  6
CONTINUOUS
 70
0
 71
3
 72
11
 73
7
 74
0
 42
0.0000001
 43
0.0000001
 44
0.0000000001
 40
0.0
 40
0.0
 40
0.0
 40
0.0
 40
0.2776817941
 40
0.5325191113
 40
0.7714192726
 40
1.0
 40
1.0
 40
1.0
 40
1.0
 10
4.9307057453
 20
2.4396064726
 30
0.0
 10
4.9307057453
 20
2.4435847822
 30
0.0
 10
4.9311013565
 20
2.451222366
 30
0.0
 10
4.9329058943
 20
2.4621479262
 30
0.0
 10
4.9356703391
 20
2.47213802
 30
0.0
 10
4.9380395755
 20
2.478411231
 30
0.0
 10
4.939304253
 20
2.481432026
 30
0.0
  0
SPLINE
  5
35F
100
AcDbEntity
  8
ALL_ASSEMBLY_MEMBERS
100
AcDbSpline
 62
7
  6
CONTINUOUS
 70
0
 71
3
 72
32
 73
28
 74
0
 42
0.0000001
 43
0.0000001
 44
0.0000000001
 40
0.0
 40
0.0
 40
0.0
 40
0.0
 40
0.0757996724
 40
0.1488936589
 40
0.2195419792
 40
0.2879959753
 40
0.3544698677
 40
0.4190693029
 40
0.4818779871
 40
0.5429674589
 40
0.602415811
 40
0.6602894083
 40
0.7166898157
 40
0.7443813728
 40
0.7717730445
 40
0.7989165935
 40
0.8258813957
 40
0.8527770649
 40
0.8797822576
 40
0.8934164757
 40
0.9072042681
 40
0.9212157527
 40
0.9355355334
 40
0.9502834624
 40
0.9657036134
 40
0.9821376626
 40
1.0
 40
1.0
 40
1.0
 40
1.0
 10
5.4814557453
 20
2.2018840197
 30
0.0
 10
5.4651879162
 20
2.2018840197
 30
0.0
 10
5.433229346
 20
2.2024696655
 30
0.0
 10
5.3861760633
 20
2.2051265071
 30
0.0
 10
5.3408288154
 20
2.2094433044
 30
0.0
 10
5.2970910156
 20
2.215318375
 30
0.0
 10
5.2548888674
 20
2.222641816
 30
0.0
 10
5.214206112
 20
2.231437301
 30
0.0
 10
5.1750664121
 20
2.241724732
 30
0.0
 10
5.1375249994
 20
2.253569539
 30
0.0
 10
5.1016561852
 20
2.2670304361
 30
0.0
 10
5.0676028326
 20
2.2822712992
 30
0.0
 10
5.0407118076
 20
2.296672483
 30
0.0
 10
5.020423173
 20
2.3093701605
 30
0.0
 10
5.0059416727
 20
2.3194692182
 30
0.0
 10
4.9921548802
 20
2.3302496887
 30
0.0
 10
4.9791589978
 20
2.3418168467
 30
0.0
 10
4.9670527301
 20
2.3542767107
 30
0.0
 10
4.9578962319
 20
2.3655441131
 30
0.0
 10
4.9512434636
 20
2.3751514955
 30
0.0
 10
4.9466039187
 20
2.3827438689
 30
0.0
 10
4.9423773034
 20
2.3907414626
 30
0.0
 10
4.9386062282
 20
2.3991902648
 30
0.0
 10
4.9353276217
 20
2.408167848
 30
0.0
 10
4.9327496682
 20
2.4178481613
 30
0.0
 10
4.9310733136
 20
2.4284050131
 30
0.0
 10
4.9307057453
 20
2.4357729276
 30
0.0
 10
4.9307057453
 20
2.4396064726
 30
0.0
  0
LINE
  5
360
100
AcDbEntity
  8
ALL_ASSEMBLY_MEMBERS
100
AcDbLine
 62
7
  6
CONTINUOUS
 10
5.1823406101
 20
4.1217980826
 11
5.1823092834
 21
4.079933603
  0
LINE
  5
361
100
AcDbEntity
  8
ALL_ASSEMBLY_MEMBERS
100
AcDbLine
 62
7
  6
CONTINUOUS
 10
5.1814572559
 20
4.4956534134
 11
5.1823116312
 21
4.162907119
  0
SPLINE
  5
362
100
AcDbEntity
  8
ALL_ASSEMBLY_MEMBERS
100
AcDbSpline
 62
7
  6
CONTINUOUS
 70
0
 71
3
 72
11
 73
7
 74
0
 42
0.0000001
 43
0.0000001
 44
0.0000000001
 40
0.0
 40
0.0
 40
0.0
 40
0.0
 40
0.2285807274
 40
0.4674808887
 40
0.7223182059
 40
1.0
 40
1.0
 40
1.0
 40
1.0
 10
6.0236072377
 20
2.481432026
 30
0.0
 10
6.0248719152
 20
2.478411231
 30
0.0
 10
6.0272411516
 20
2.47213802
 30
0.0
 10
6.0300055963
 20
2.4621479262
 30
0.0
 10
6.0318101342
 20
2.451222366
 30
0.0
 10
6.0322057453
 20
2.4435847822
 30
0.0
 10
6.0322057453
 20
2.4396064726
 30
0.0
  0
LINE
  5
363
100
AcDbEntity
  8
ALL_ASSEMBLY_MEMBERS
100
AcDbLine
 62
7
  6
CONTINUOUS
 10
5.7814539471
 20
4.4948202842
 11
5.7805998594
 21
4.162907119
  0
SPLINE
  5
364
100
AcDbEntity
  8
ALL_ASSEMBLY_MEMBERS
100
AcDbSpline
 62
7
  6
CONTINUOUS
 70
0
 71
3
 72
29
 73
25
 74
0
 42
0.0000001
 43
0.0000001
 44
0.0000000001
 40
0.0
 40
0.0
 40
0.0
 40
0.0
 40
0.174523055
 40
0.3411569781
 40
0.420366351
 40
0.4962438685
 40
0.5683646047
 40
0.6362999388
 40
0.6996337305
 40
0.7580468365
 40
0.7853360666
 40
0.8113102562
 40
0.8359404728
 40
0.859203533
 40
0.8810857527
 40
0.9015876141
 40
0.9207365397
 40
0.9385885401
 40
0.9552313001
 40
0.963146659
 40
0.9708235596
 40
0.985600508
 40
0.9928130935
 40
1.0
 40
1.0
 40
1.0
 40
1.0
 10
5.4814557453
 20
4.4412106498
 30
0.0
 10
5.499557102
 20
4.4412106498
 30
0.0
 10
5.5349446713
 20
4.4418654056
 30
0.0
 10
5.5784897659
 20
4.4442471054
 30
0.0
 10
5.6117449865
 20
4.4470175285
 30
0.0
 10
5.6351866306
 20
4.4494506065
 30
0.0
 10
5.6574077945
 20
4.4522637103
 30
0.0
 10
5.6782636519
 20
4.4554522547
 30
0.0
 10
5.6976154715
 20
4.4590145957
 30
0.0
 10
5.7127096399
 20
4.4623713656
 30
0.0
 10
5.7239214637
 20
4.4652843284
 30
0.0
 10
5.7316860821
 20
4.4675202052
 30
0.0
 10
5.7389817902
 20
4.4698636122
 30
0.0
 10
5.7457907515
 20
4.4723209928
 30
0.0
 10
5.7520951524
 20
4.4748990791
 30
0.0
 10
5.7578788869
 20
4.477604563
 30
0.0
 10
5.763124117
 20
4.4804523636
 30
0.0
 10
5.7678142729
 20
4.4834559328
 30
0.0
 10
5.7712950296
 20
4.4861593392
 30
0.0
 10
5.7737497638
 20
4.488432423
 30
0.0
 10
5.7759213112
 20
4.4907158761
 30
0.0
 10
5.7778005285
 20
4.4931722734
 30
0.0
 10
5.7793084416
 20
4.4957997616
 30
0.0
 10
5.7799258656
 20
4.4971633482
 30
0.0
 10
5.7801939945
 20
4.4978588739
 30
0.0
  0
SPLINE
  5
365
100
AcDbEntity
  8
ALL_ASSEMBLY_MEMBERS
100
AcDbSpline
 62
7
  6
CONTINUOUS
 70
0
 71
3
 72
9
 73
5
 74
0
 42
0.0000001
 43
0.0000001
 44
0.0000000001
 40
0.0
 40
0.0
 40
0.0
 40
0.0
 40
0.4826329078
 40
1.0
 40
1.0
 40
1.0
 40
1.0
 10
5.7801939945
 20
4.4978588739
 30
0.0
 10
5.7805989295
 20
4.4989092745
 30
0.0
 10
5.7812499084
 20
4.5011642639
 30
0.0
 10
5.7814557453
 20
4.5035039324
 30
0.0
 10
5.7814557453
 20
4.5047107008
 30
0.0
  0
LINE
  5
366
100
AcDbEntity
  8
ALL_ASSEMBLY_MEMBERS
100
AcDbLine
 62
7
  6
CONTINUOUS
 10
5.1797625553
 20
3.811706245
 11
5.1795418824
 21
3.800789569
  0
SPLINE
  5
367
100
AcDbEntity
  8
ALL_ASSEMBLY_MEMBERS
100
AcDbSpline
 62
7
  6
CONTINUOUS
 70
0
 71
3
 72
11
 73
7
 74
0
 42
0.0000001
 43
0.0000001
 44
0.0000000001
 40
0.0
 40
0.0
 40
0.0
 40
0.0
 40
0.2579333457
 40
0.5112776026
 40
0.758966858
 40
1.0
 40
1.0
 40
1.0
 40
1.0
 10
5.1763515929
 20
3.6824104183
 30
0.0
 10
5.1749967958
 20
3.6422043835
 30
0.0
 10
5.1717211952
 20
3.5625255727
 30
0.0
 10
5.1646753389
 20
3.4443541225
 30
0.0
 10
5.1551923957
 20
3.3289953294
 30
0.0
 10
5.1468940394
 20
3.2532106039
 30
0.0
 10
5.1421880711
 20
3.2159133228
 30
0.0
  0
SPLINE
  5
368
100
AcDbEntity
  8
ALL_ASSEMBLY_MEMBERS
100
AcDbSpline
 62
7
  6
CONTINUOUS
 70
0
 71
3
 72
29
 73
25
 74
0
 42
0.0000001
 43
0.0000001
 44
0.0000000001
 40
0.0
 40
0.0
 40
0.0
 40
0.0
 40
0.1562657279
 40
0.3032154351
 40
0.3730891161
 40
0.4404617211
 40
0.5052639596
 40
0.5674356808
 40
0.6269615737
 40
0.6839271194
 40
0.7115115889
 40
0.7385301034
 40
0.7910061817
 40
0.8418626953
 40
0.8669679315
 40
0.8920708118
 40
0.9047004577
 40
0.917431341
 40
0.930314608
 40
0.9434117925
 40
0.9567936315
 40
0.9705526617
 40
0.9848712604
 40
1.0
 40
1.0
 40
1.0
 40
1.0
 10
5.4814557453
 20
3.6877574515
 30
0.0
 10
5.4994435989
 20
3.6877574515
 30
0.0
 10
5.5343571619
 20
3.6887678104
 30
0.0
 10
5.5771530367
 20
3.6927488495
 30
0.0
 10
5.6095258735
 20
3.6975067441
 30
0.0
 10
5.6323940724
 20
3.7017832366
 30
0.0
 10
5.6541914561
 20
3.7068539335
 30
0.0
 10
5.6748409918
 20
3.7127636737
 30
0.0
 10
5.6942658231
 20
3.7195579311
 30
0.0
 10
5.7095267131
 20
3.7260936932
 30
0.0
 10
5.7210079067
 20
3.7318566857
 30
0.0
 10
5.7317719184
 20
3.7378691149
 30
0.0
 10
5.744324063
 20
3.7461430206
 30
0.0
 10
5.7556446244
 20
3.7557285088
 30
0.0
 10
5.7636382277
 20
3.7641954595
 30
0.0
 10
5.7681504857
 20
3.7698629607
 30
0.0
 10
5.7714332447
 20
3.7746577466
 30
0.0
 10
5.7737356511
 20
3.7784123578
 30
0.0
 10
5.7758553639
 20
3.7823346571
 30
0.0
 10
5.7777754658
 20
3.7864417469
 30
0.0
 10
5.7794787727
 20
3.790752007
 30
0.0
 10
5.7809540191
 20
3.7952946829
 30
0.0
 10
5.7821237111
 20
3.8001342526
 30
0.0
 10
5.7826301402
 20
3.8034914337
 30
0.0
 10
5.7828131129
 20
3.8052232743
 30
0.0
  0
SPLINE
  5
369
100
AcDbEntity
  8
ALL_ASSEMBLY_MEMBERS
100
AcDbSpline
 62
7
  6
CONTINUOUS
 70
0
 71
3
 72
13
 73
9
 74
0
 42
0.0000001
 43
0.0000001
 44
0.0000000001
 40
0.0
 40
0.0
 40
0.0
 40
0.0
 40
0.2600738276
 40
0.3877406018
 40
0.513752215
 40
0.6380554395
 40
0.7605846111
 40
1.0
 40
1.0
 40
1.0
 40
1.0
 10
5.1406159387
 20
3.2036340215
 30
0.0
 10
5.1373382177
 20
3.1784019717
 30
0.0
 10
5.1320105947
 20
3.1408385051
 30
0.0
 10
5.1239802143
 20
3.091220639
 30
0.0
 10
5.1175778388
 20
3.0547983715
 30
0.0
 10
5.1107480038
 20
3.0189653129
 30
0.0
 10
5.1011784519
 20
2.9723650909
 30
0.0
 10
5.093356209
 20
2.9378239901
 30
0.0
 10
5.0878935313
 20
2.9150469404
 30
0.0
  0
SPLINE
  5
36A
100
AcDbEntity
  8
ALL_ASSEMBLY_MEMBERS
100
AcDbSpline
 62
7
  6
CONTINUOUS
 70
0
 71
3
 72
9
 73
5
 74
0
 42
0.0000001
 43
0.0000001
 44
0.0000000001
 40
0.0
 40
0.0
 40
0.0
 40
0.0
 40
0.2637695069
 40
1.0
 40
1.0
 40
1.0
 40
1.0
 10
5.0820804551
 20
2.8912692133
 30
0.0
 10
5.0774671542
 20
2.8727492506
 30
0.0
 10
5.0592558384
 20
2.8027172902
 30
0.0
 10
5.0383882138
 20
2.733383386
 30
0.0
 10
5.0217177962
 20
2.6827865447
 30
0.0
  0
LINE
  5
36B
100
AcDbEntity
  8
ALL_ASSEMBLY_MEMBERS
100
AcDbLine
 62
7
  6
CONTINUOUS
 10
5.7831489354
 20
3.811706245
 11
5.7833696083
 21
3.800789569
  0
SPLINE
  5
36C
100
AcDbEntity
  8
ALL_ASSEMBLY_MEMBERS
100
AcDbSpline
 62
7
  6
CONTINUOUS
 70
0
 71
3
 72
11
 73
7
 74
0
 42
0.0000001
 43
0.0000001
 44
0.0000000001
 40
0.0
 40
0.0
 40
0.0
 40
0.0
 40
0.2579333457
 40
0.5112776026
 40
0.758966858
 40
1.0
 40
1.0
 40
1.0
 40
1.0
 10
5.7865598977
 20
3.6824104183
 30
0.0
 10
5.7879146949
 20
3.6422043835
 30
0.0
 10
5.7911902954
 20
3.5625255727
 30
0.0
 10
5.7982361517
 20
3.4443541225
 30
0.0
 10
5.807719095
 20
3.3289953294
 30
0.0
 10
5.8160174512
 20
3.2532106039
 30
0.0
 10
5.8207234196
 20
3.2159133228
 30
0.0
  0
LINE
  5
36D
100
AcDbEntity
  8
ALL_ASSEMBLY_MEMBERS
100
AcDbLine
 62
7
  6
CONTINUOUS
 10
5.0114888695
 20
2.6522743829
 11
5.0098060421
 21
2.6473527003
  0
SPLINE
  5
36E
100
AcDbEntity
  8
ALL_ASSEMBLY_MEMBERS
100
AcDbSpline
 62
7
  6
CONTINUOUS
 70
0
 71
3
 72
30
 73
26
 74
0
 42
0.0000001
 43
0.0000001
 44
0.0000000001
 40
0.0
 40
0.0
 40
0.0
 40
0.0
 40
0.1430673558
 40
0.2109464031
 40
0.2767042939
 40
0.3405648327
 40
0.4026857802
 40
0.4632252528
 40
0.5223486663
 40
0.5802602105
 40
0.6372249251
 40
0.6935808461
 40
0.7497530207
 40
0.7779772448
 40
0.8064361884
 40
0.8352885806
 40
0.8647627997
 40
0.8798330118
 40
0.8951951477
 40
0.9109186999
 40
0.9270832893
 40
0.9438014465
 40
0.9613075954
 40
0.9799166803
 40
1.0
 40
1.0
 40
1.0
 40
1.0
 10
5.4814557453
 20
3.0211216658
 30
0.0
 10
5.5015308956
 20
3.0211216658
 30
0.0
 10
5.5311574115
 20
3.0223278488
 30
0.0
 10
5.5697585645
 20
3.0266062195
 30
0.0
 10
5.5971396375
 20
3.0309513007
 30
0.0
 10
5.6234895855
 20
3.0364410035
 30
0.0
 10
5.6488113167
 20
3.0431105674
 30
0.0
 10
5.6730862842
 20
3.050993109
 30
0.0
 10
5.696277953
 20
3.0601515224
 30
0.0
 10
5.7183450518
 20
3.0706487773
 30
0.0
 10
5.7392136646
 20
3.0826087157
 30
0.0
 10
5.7588038282
 20
3.0961506825
 30
0.0
 10
5.7738726779
 20
3.1089837654
 30
0.0
 10
5.78500821
 20
3.1202549509
 30
0.0
 10
5.7928889016
 20
3.129319562
 30
0.0
 10
5.8002284703
 20
3.1390505111
 30
0.0
 10
5.8057541895
 20
3.1477580307
 30
0.0
 10
5.8097773193
 20
3.1551417841
 30
0.0
 10
5.8125966848
 20
3.1609756554
 30
0.0
 10
5.8151676084
 20
3.1670905079
 30
0.0
 10
5.8174646708
 20
3.1735159977
 30
0.0
 10
5.8194650146
 20
3.1803026145
 30
0.0
 10
5.8210399883
 20
3.1875549778
 30
0.0
 10
5.8220669461
 20
3.1953830377
 30
0.0
 10
5.822295552
 20
3.2008159387
 30
0.0
 10
5.822295552
 20
3.2036340215
 30
0.0
  0
SPLINE
  5
36F
100
AcDbEntity
  8
ALL_ASSEMBLY_MEMBERS
100
AcDbSpline
 62
7
  6
CONTINUOUS
 70
0
 71
3
 72
9
 73
5
 74
0
 42
0.0000001
 43
0.0000001
 44
0.0000000001
 40
0.0
 40
0.0
 40
0.0
 40
0.0
 40
0.5287679338
 40
1.0
 40
1.0
 40
1.0
 40
1.0
 10
4.9963371082
 20
2.6088765388
 30
0.0
 10
4.9880564822
 20
2.5856976386
 30
0.0
 10
4.9718917566
 20
2.5420405392
 30
0.0
 10
4.9548325363
 20
2.498727133
 30
0.0
 10
4.9466153035
 20
2.4783890404
 30
0.0
  0
SPLINE
  5
370
100
AcDbEntity
  8
ALL_ASSEMBLY_MEMBERS
100
AcDbSpline
 62
7
  6
CONTINUOUS
 70
0
 71
3
 72
13
 73
9
 74
0
 42
0.0000001
 43
0.0000001
 44
0.0000000001
 40
0.0
 40
0.0
 40
0.0
 40
0.0
 40
0.2600738276
 40
0.3877406018
 40
0.513752215
 40
0.6380554395
 40
0.7605846111
 40
1.0
 40
1.0
 40
1.0
 40
1.0
 10
5.822295552
 20
3.2036340215
 30
0.0
 10
5.825573273
 20
3.1784019717
 30
0.0
 10
5.8309008959
 20
3.1408385051
 30
0.0
 10
5.8389312764
 20
3.091220639
 30
0.0
 10
5.8453336519
 20
3.0547983715
 30
0.0
 10
5.8521634869
 20
3.0189653129
 30
0.0
 10
5.8617330388
 20
2.9723650909
 30
0.0
 10
5.8695552817
 20
2.9378239901
 30
0.0
 10
5.8750179594
 20
2.9150469404
 30
0.0
  0
SPLINE
  5
371
100
AcDbEntity
  8
ALL_ASSEMBLY_MEMBERS
100
AcDbSpline
 62
7
  6
CONTINUOUS
 70
0
 71
3
 72
11
 73
7
 74
0
 42
0.0000001
 43
0.0000001
 44
0.0000000001
 40
0.0
 40
0.0
 40
0.0
 40
0.0
 40
0.2664558079
 40
0.5168043257
 40
0.7591660336
 40
1.0
 40
1.0
 40
1.0
 40
1.0
 10
5.1814557453
 20
4.5047107008
 30
0.0
 10
5.1814557453
 20
4.5037791654
 30
0.0
 10
5.1815778718
 20
4.5019691375
 30
0.0
 10
5.1821434965
 20
4.4993668604
 30
0.0
 10
5.1830353966
 20
4.4969546855
 30
0.0
 10
5.1838106254
 20
4.4954494308
 30
0.0
 10
5.1842325881
 20
4.4947208393
 30
0.0
  0
SPLINE
  5
372
100
AcDbEntity
  8
ALL_ASSEMBLY_MEMBERS
100
AcDbSpline
 62
7
  6
CONTINUOUS
 70
0
 71
3
 72
27
 73
23
 74
0
 42
0.0000001
 43
0.0000001
 44
0.0000000001
 40
0.0
 40
0.0
 40
0.0
 40
0.0
 40
0.0144459791
 40
0.0295892647
 40
0.0456982786
 40
0.0629366662
 40
0.0814010576
 40
0.1011523988
 40
0.1222264336
 40
0.144631829
 40
0.1683601231
 40
0.193393048
 40
0.2197050282
 40
0.2472695707
 40
0.3060522295
 40
0.3695155834
 40
0.4373348741
 40
0.5091129284
 40
0.5844477647
 40
0.6629400117
 40
0.8277159162
 40
1.0
 40
1.0
 40
1.0
 40
1.0
 10
5.1842325881
 20
4.4947208393
 30
0.0
 10
5.1849750785
 20
4.4934388012
 30
0.0
 10
5.1867344472
 20
4.4909464005
 30
0.0
 10
5.1899836075
 20
4.487551722
 30
0.0
 10
5.1938254934
 20
4.4843793879
 30
0.0
 10
5.1982303799
 20
4.4813965045
 30
0.0
 10
5.2031699382
 20
4.4785691052
 30
0.0
 10
5.2086279215
 20
4.4758816036
 30
0.0
 10
5.2145877354
 20
4.4733197743
 30
0.0
 10
5.2210341375
 20
4.4708750358
 30
0.0
 10
5.2279511073
 20
4.4685414653
 30
0.0
 10
5.2353219541
 20
4.4663131115
 30
0.0
 10
5.243130262
 20
4.4641834121
 30
0.0
 10
5.2543474654
 20
4.4614107203
 30
0.0
 10
5.2693791324
 20
4.4582117366
 30
0.0
 10
5.2885753514
 20
4.4548101129
 30
0.0
 10
5.3091791097
 20
4.4517647561
 30
0.0
 10
5.331059188
 20
4.4490772541
 30
0.0
 10
5.3540810361
 20
4.4467531932
 30
0.0
 10
5.3866502189
 20
4.4441083075
 30
0.0
 10
5.429216474
 20
4.4418351312
 30
0.0
 10
5.4637869519
 20
4.4412106498
 30
0.0
 10
5.4814557453
 20
4.4412106498
 30
0.0
  0
SPLINE
  5
373
100
AcDbEntity
  8
ALL_ASSEMBLY_MEMBERS
100
AcDbSpline
 62
7
  6
CONTINUOUS
 70
0
 71
3
 72
28
 73
24
 74
0
 42
0.0000001
 43
0.0000001
 44
0.0000000001
 40
0.0
 40
0.0
 40
0.0
 40
0.0
 40
0.0125415676
 40
0.0242480578
 40
0.0353821401
 40
0.0461640367
 40
0.067232044
 40
0.0881502893
 40
0.1093246999
 40
0.131019249
 40
0.1534087425
 40
0.1766138216
 40
0.2257462033
 40
0.2787577475
 40
0.3357039084
 40
0.3965682984
 40
0.4612544464
 40
0.5295452219
 40
0.6011766452
 40
0.6758823648
 40
0.7533886088
 40
0.8334246526
 40
1.0
 40
1.0
 40
1.0
 40
1.0
 10
5.1823116312
 20
4.162907119
 30
0.0
 10
5.1823116312
 20
4.1615135649
 30
0.0
 10
5.1824460991
 20
4.1588166664
 30
0.0
 10
5.1830591324
 20
4.1549262979
 30
0.0
 10
5.1840166042
 20
4.1513086765
 30
0.0
 10
5.1856571819
 20
4.1468182074
 30
0.0
 10
5.1882844084
 20
4.1415515648
 30
0.0
 10
5.1922550229
 20
4.1357430573
 30
0.0
 10
5.1969065562
 20
4.1303776378
 30
0.0
 10
5.2021807354
 20
4.1253872273
 30
0.0
 10
5.2080214069
 20
4.1207076373
 30
0.0
 10
5.2166917958
 20
4.114727274
 30
0.0
 10
5.2288726538
 20
4.1079094035
 30
0.0
 10
5.2450575362
 20
4.1007561739
 30
0.0
 10
5.2629392276
 20
4.094350281
 30
0.0
 10
5.2824106089
 20
4.0886531492
 30
0.0
 10
5.3033609661
 20
4.0836224527
 30
0.0
 10
5.3256754077
 20
4.079240248
 30
0.0
 10
5.3492319472
 20
4.0754916173
 30
0.0
 10
5.3739121578
 20
4.0723759348
 30
0.0
 10
5.3996022719
 20
4.0698917265
 30
0.0
 10
5.4355360432
 20
4.0674368794
 30
0.0
 10
5.4629467546
 20
4.0667107008
 30
0.0
 10
5.4814557453
 20
4.0667107008
 30
0.0
  0
SPLINE
  5
374
100
AcDbEntity
  8
ALL_ASSEMBLY_MEMBERS
100
AcDbSpline
 62
7
  6
CONTINUOUS
 70
0
 71
3
 72
29
 73
25
 74
0
 42
0.0000001
 43
0.0000001
 44
0.0000000001
 40
0.0
 40
0.0
 40
0.0
 40
0.0
 40
0.0151247227
 40
0.0294405099
 40
0.0431976948
 40
0.0565782344
 40
0.0696744381
 40
0.0825569983
 40
0.095287404
 40
0.1079167492
 40
0.1330194273
 40
0.1581248411
 40
0.2089823922
 40
0.2614599354
 40
0.2884792361
 40
0.3160644937
 40
0.3730316039
 40
0.4325589764
 40
0.4947320165
 40
0.5595353775
 40
0.6269089076
 40
0.6967833215
 40
0.8437339728
 40
1.0
 40
1.0
 40
1.0
 40
1.0
 10
5.1801007961
 20
3.8052004277
 30
0.0
 10
5.1802843809
 20
3.8034692332
 30
0.0
 10
5.1807919415
 20
3.8001132498
 30
0.0
 10
5.1819630004
 20
3.7952753874
 30
0.0
 10
5.1834391981
 20
3.7907340826
 30
0.0
 10
5.1851432687
 20
3.7864249675
 30
0.0
 10
5.1870640717
 20
3.7823189189
 30
0.0
 10
5.1891843859
 20
3.7783975668
 30
0.0
 10
5.1914872999
 20
3.7746438126
 30
0.0
 10
5.1947706582
 20
3.769850043
 30
0.0
 10
5.1992835321
 20
3.7641837039
 30
0.0
 10
5.2072778408
 20
3.755718332
 30
0.0
 10
5.218598923
 20
3.74613454
 30
0.0
 10
5.231151223
 20
3.7378620188
 30
0.0
 10
5.2419152261
 20
3.7318505395
 30
0.0
 10
5.2533963051
 20
3.726088419
 30
0.0
 10
5.2686568853
 20
3.7195536278
 30
0.0
 10
5.2880811345
 20
3.7127603374
 30
0.0
 10
5.3087298868
 20
3.7068514154
 30
0.0
 10
5.3305262994
 20
3.7017814036
 30
0.0
 10
5.3533933561
 20
3.6975054784
 30
0.0
 10
5.3857643888
 20
3.6927482065
 30
0.0
 10
5.428557667
 20
3.6887676819
 30
0.0
 10
5.4634690524
 20
3.6877574515
 30
0.0
 10
5.4814557453
 20
3.6877574515
 30
0.0
  0
SPLINE
  5
375
100
AcDbEntity
  8
ALL_ASSEMBLY_MEMBERS
100
AcDbSpline
 62
7
  6
CONTINUOUS
 70
0
 71
3
 72
30
 73
26
 74
0
 42
0.0000001
 43
0.0000001
 44
0.0000000001
 40
0.0
 40
0.0
 40
0.0
 40
0.0
 40
0.0200833197
 40
0.0386924046
 40
0.0561985535
 40
0.0729167107
 40
0.0890813001
 40
0.1048048523
 40
0.1201669882
 40
0.1352372003
 40
0.1647114194
 40
0.1935638116
 40
0.2220227552
 40
0.2502469793
 40
0.3064191539
 40
0.3627750749
 40
0.4197397895
 40
0.4776513337
 40
0.5367747472
 40
0.5973142198
 40
0.6594351673
 40
0.7232957061
 40
0.7890535969
 40
0.8569326442
 40
1.0
 40
1.0
 40
1.0
 40
1.0
 10
5.1406159387
 20
3.2036340215
 30
0.0
 10
5.1406159387
 20
3.2008159387
 30
0.0
 10
5.1408445446
 20
3.1953830377
 30
0.0
 10
5.1418715024
 20
3.1875549778
 30
0.0
 10
5.1434464761
 20
3.1803026145
 30
0.0
 10
5.1454468199
 20
3.1735159977
 30
0.0
 10
5.1477438823
 20
3.1670905079
 30
0.0
 10
5.1503148059
 20
3.1609756554
 30
0.0
 10
5.1531341713
 20
3.1551417841
 30
0.0
 10
5.1571573011
 20
3.1477580307
 30
0.0
 10
5.1626830204
 20
3.1390505111
 30
0.0
 10
5.170022589
 20
3.129319562
 30
0.0
 10
5.1779032807
 20
3.1202549509
 30
0.0
 10
5.1890388128
 20
3.1089837654
 30
0.0
 10
5.2041076625
 20
3.0961506825
 30
0.0
 10
5.2236978261
 20
3.0826087157
 30
0.0
 10
5.2445664389
 20
3.0706487773
 30
0.0
 10
5.2666335377
 20
3.0601515224
 30
0.0
 10
5.2898252065
 20
3.050993109
 30
0.0
 10
5.3141001739
 20
3.0431105674
 30
0.0
 10
5.3394219052
 20
3.0364410035
 30
0.0
 10
5.3657718531
 20
3.0309513007
 30
0.0
 10
5.3931529261
 20
3.0266062195
 30
0.0
 10
5.4317540792
 20
3.0223278488
 30
0.0
 10
5.4613805951
 20
3.0211216658
 30
0.0
 10
5.4814557453
 20
3.0211216658
 30
0.0
  0
SPLINE
  5
376
100
AcDbEntity
  8
ALL_ASSEMBLY_MEMBERS
100
AcDbSpline
 62
7
  6
CONTINUOUS
 70
0
 71
3
 72
31
 73
27
 74
0
 42
0.0000001
 43
0.0000001
 44
0.0000000001
 40
0.0
 40
0.0
 40
0.0
 40
0.0
 40
0.0195560333
 40
0.0376632666
 40
0.0547071847
 40
0.071011351
 40
0.0868132535
 40
0.102225944
 40
0.1173284525
 40
0.132188585
 40
0.1613812092
 40
0.1901169913
 40
0.2185976284
 40
0.2469556707
 40
0.3036388634
 40
0.360697519
 40
0.4184268262
 40
0.4770606258
 40
0.5367858228
 40
0.5977666466
 40
0.6601513507
 40
0.7240965911
 40
0.7897751488
 40
0.8574496934
 40
0.9274202489
 40
1.0
 40
1.0
 40
1.0
 40
1.0
 10
5.0820804551
 20
2.8912692133
 30
0.0
 10
5.0820804551
 20
2.8880676784
 30
0.0
 10
5.0823540764
 20
2.881897208
 30
0.0
 10
5.0835857491
 20
2.8730141182
 30
0.0
 10
5.0854744592
 20
2.864794625
 30
0.0
 10
5.0878720975
 20
2.8571075944
 30
0.0
 10
5.0906238684
 20
2.8498268578
 30
0.0
 10
5.0937022778
 20
2.8428930217
 30
0.0
 10
5.0970763804
 20
2.8362712979
 30
0.0
 10
5.1018953895
 20
2.8278675274
 30
0.0
 10
5.1085093939
 20
2.8179362598
 30
0.0
 10
5.1172673809
 20
2.8068121556
 30
0.0
 10
5.1266557575
 20
2.7964009887
 30
0.0
 10
5.1399182327
 20
2.783369221
 30
0.0
 10
5.1577992475
 20
2.7684206884
 30
0.0
 10
5.1809341069
 20
2.7524655654
 30
0.0
 10
5.2054999048
 20
2.7381822178
 30
0.0
 10
5.2313969507
 20
2.7254699063
 30
0.0
 10
5.2585361758
 20
2.714221097
 30
0.0
 10
5.286874408
 20
2.7044043156
 30
0.0
 10
5.3163765128
 20
2.6959857233
 30
0.0
 10
5.347030818
 20
2.6889665743
 30
0.0
 10
5.3788514106
 20
2.683344837
 30
0.0
 10
5.411895689
 20
2.6792198086
 30
0.0
 10
5.446232116
 20
2.6766847154
 30
0.0
 10
5.4695736523
 20
2.6761274568
 30
0.0
 10
5.4814557453
 20
2.6761274568
 30
0.0
  0
SPLINE
  5
377
100
AcDbEntity
  8
ALL_ASSEMBLY_MEMBERS
100
AcDbSpline
 62
7
  6
CONTINUOUS
 70
0
 71
3
 72
32
 73
28
 74
0
 42
0.0000001
 43
0.0000001
 44
0.0000000001
 40
0.0
 40
0.0
 40
0.0
 40
0.0
 40
0.0184523006
 40
0.0354565989
 40
0.0514192027
 40
0.0666772882
 40
0.081474094
 40
0.0959280794
 40
0.1101228124
 40
0.1241284897
 40
0.1517739705
 40
0.1791800404
 40
0.2065384589
 40
0.2339713388
 40
0.2615604606
 40
0.2893669265
 40
0.345783916
 40
0.4034468755
 40
0.4625139846
 40
0.5231000698
 40
0.585314213
 40
0.6492525508
 40
0.7150204231
 40
0.7827412053
 40
0.8526379725
 40
0.9249687695
 40
1.0
 40
1.0
 40
1.0
 40
1.0
 10
5.0114888695
 20
2.6522743829
 30
0.0
 10
5.0114888695
 20
2.6488485085
 30
0.0
 10
5.011804946
 20
2.6422596173
 30
0.0
 10
5.0132407655
 20
2.6328059309
 30
0.0
 10
5.0154466346
 20
2.6241149271
 30
0.0
 10
5.0182501032
 20
2.6160360151
 30
0.0
 10
5.0214718184
 20
2.6084204434
 30
0.0
 10
5.0250800421
 20
2.6012005763
 30
0.0
 10
5.0290384772
 20
2.5943364641
 30
0.0
 10
5.0347052999
 20
2.5856487984
 30
0.0
 10
5.0424972616
 20
2.5754411334
 30
0.0
 10
5.0528065322
 20
2.5641151588
 30
0.0
 10
5.0638677702
 20
2.5535845778
 30
0.0
 10
5.0755989591
 20
2.5437569766
 30
0.0
 10
5.0879189979
 20
2.5345417724
 30
0.0
 10
5.1051559355
 20
2.5229597093
 30
0.0
 10
5.1280134721
 20
2.5097976727
 30
0.0
 10
5.15700035
 20
2.4958445976
 30
0.0
 10
5.1875487786
 20
2.4835186377
 30
0.0
 10
5.2195438158
 20
2.4726772842
 30
0.0
 10
5.2529270736
 20
2.4632667069
 30
0.0
 10
5.2876534361
 20
2.4552288235
 30
0.0
 10
5.3237046169
 20
2.4485452606
 30
0.0
 10
5.3610949454
 20
2.4431943838
 30
0.0
 10
5.3998874285
 20
2.4392700901
 30
0.0
 10
5.4401624967
 20
2.4368593156
 30
0.0
 10
5.4675253644
 20
2.4363292888
 30
0.0
 10
5.4814557453
 20
2.4363292888
 30
0.0
  0
LINE
  5
378
100
AcDbEntity
  8
ALL_ASSEMBLY_MEMBERS
100
AcDbLine
 62
7
  6
CONTINUOUS
 10
5.1822791315
 20
4.0642712521
 11
5.1822051625
 21
4.0385448052
  0
LINE
  5
379
100
AcDbEntity
  8
ALL_ASSEMBLY_MEMBERS
100
AcDbLine
 62
7
  6
CONTINUOUS
 10
5.1821542641
 20
4.0252721066
 11
5.1820188187
 21
3.9977490232
  0
LINE
  5
37A
100
AcDbEntity
  8
ALL_ASSEMBLY_MEMBERS
100
AcDbLine
 62
7
  6
CONTINUOUS
 10
5.1819362366
 20
3.9841753289
 11
5.1817432762
 21
3.9577407941
  0
LINE
  5
37B
100
AcDbEntity
  8
ALL_ASSEMBLY_MEMBERS
100
AcDbLine
 62
7
  6
CONTINUOUS
 10
5.1816400715
 20
3.9456459106
 11
5.1813718616
 21
3.9184752945
  0
SPLINE
  5
37C
100
AcDbEntity
  8
ALL_ASSEMBLY_MEMBERS
100
AcDbSpline
 62
7
  6
CONTINUOUS
 70
0
 71
3
 72
31
 73
27
 74
0
 42
0.0000001
 43
0.0000001
 44
0.0000000001
 40
0.0
 40
0.0
 40
0.0
 40
0.0
 40
0.0183330262
 40
0.0352064097
 40
0.0510307357
 40
0.0661464643
 40
0.0807987954
 40
0.095108043
 40
0.1091594689
 40
0.1230245412
 40
0.1504001569
 40
0.1775565552
 40
0.2046882072
 40
0.2319191473
 40
0.2593320507
 40
0.2869891859
 40
0.3431894907
 40
0.4007424697
 40
0.4598024137
 40
0.520477591
 40
0.5828713578
 40
0.6470723682
 40
0.7131767916
 40
0.781297551
 40
0.8516478753
 40
1.0
 40
1.0
 40
1.0
 40
1.0
 10
4.9963371082
 20
2.6088765388
 30
0.0
 10
4.9963371082
 20
2.6053894215
 30
0.0
 10
4.9966619424
 20
2.5986865557
 30
0.0
 10
4.9981405769
 20
2.5890767918
 30
0.0
 10
5.0004132054
 20
2.5802565307
 30
0.0
 10
5.0033023374
 20
2.5720710219
 30
0.0
 10
5.0066234721
 20
2.5643666631
 30
0.0
 10
5.0103439382
 20
2.5570738955
 30
0.0
 10
5.0144263148
 20
2.5501515225
 30
0.0
 10
5.0202720473
 20
2.5414034924
 30
0.0
 10
5.0283132976
 20
2.5311485892
 30
0.0
 10
5.0389532469
 20
2.5198097752
 30
0.0
 10
5.0503716188
 20
2.5093013931
 30
0.0
 10
5.0624831943
 20
2.4995267747
 30
0.0
 10
5.0752043352
 20
2.490390604
 30
0.0
 10
5.0930130704
 20
2.4789396095
 30
0.0
 10
5.116630729
 20
2.4659950722
 30
0.0
 10
5.1465682811
 20
2.4523639956
 30
0.0
 10
5.1781170292
 20
2.4403957517
 30
0.0
 10
5.2111570531
 20
2.4299282882
 30
0.0
 10
5.2456262026
 20
2.4208912633
 30
0.0
 10
5.2814772612
 20
2.4132096939
 30
0.0
 10
5.3186899852
 20
2.4068492718
 30
0.0
 10
5.357279781
 20
2.4017726783
 30
0.0
 10
5.4116128536
 20
2.3967334765
 30
0.0
 10
5.4532377496
 20
2.3952884194
 30
0.0
 10
5.4814557453
 20
2.3952884194
 30
0.0
  0
SPLINE
  5
37D
100
AcDbEntity
  8
ALL_ASSEMBLY_MEMBERS
100
AcDbSpline
 62
7
  6
CONTINUOUS
 70
0
 71
3
 72
11
 73
7
 74
0
 42
0.0000001
 43
0.0000001
 44
0.0000000001
 40
0.0
 40
0.0
 40
0.0
 40
0.0
 40
0.2300199633
 40
0.4703187288
 40
0.7252658418
 40
1.0
 40
1.0
 40
1.0
 40
1.0
 10
5.002338704
 20
2.6430105409
 30
0.0
 10
5.0014357301
 20
2.6404975574
 30
0.0
 10
4.999763567
 20
2.6352939679
 30
0.0
 10
4.9978465306
 20
2.6270848298
 30
0.0
 10
4.9966097038
 20
2.618219557
 30
0.0
 10
4.9963371082
 20
2.6120659133
 30
0.0
 10
4.9963371082
 20
2.6088765388
 30
0.0
  0
SPLINE
  5
37E
100
AcDbEntity
  8
ALL_ASSEMBLY_MEMBERS
100
AcDbSpline
 62
7
  6
CONTINUOUS
 70
0
 71
3
 72
11
 73
7
 74
0
 42
0.0000001
 43
0.0000001
 44
0.0000000001
 40
0.0
 40
0.0
 40
0.0
 40
0.0
 40
0.2302587419
 40
0.4709064169
 40
0.7259413939
 40
1.0
 40
1.0
 40
1.0
 40
1.0
 10
5.0168403374
 20
2.6844338001
 30
0.0
 10
5.016029142
 20
2.682055011
 30
0.0
 10
5.0145328782
 20
2.677132244
 30
0.0
 10
5.0128270068
 20
2.669385201
 30
0.0
 10
5.0117306534
 20
2.6610446833
 30
0.0
 10
5.0114888695
 20
2.655265763
 30
0.0
 10
5.0114888695
 20
2.6522743829
 30
0.0
  0
SPLINE
  5
37F
100
AcDbEntity
  8
ALL_ASSEMBLY_MEMBERS
100
AcDbSpline
 62
7
  6
CONTINUOUS
 70
0
 71
3
 72
31
 73
27
 74
0
 42
0.0000001
 43
0.0000001
 44
0.0000000001
 40
0.0
 40
0.0
 40
0.0
 40
0.0
 40
0.0725797511
 40
0.1425503066
 40
0.2102248512
 40
0.2759034089
 40
0.3398486493
 40
0.4022333534
 40
0.4632141772
 40
0.5229393742
 40
0.5815731738
 40
0.639302481
 40
0.6963611366
 40
0.7530443293
 40
0.7814023716
 40
0.8098830087
 40
0.8386187908
 40
0.867811415
 40
0.8826715475
 40
0.897774056
 40
0.9131867465
 40
0.928988649
 40
0.9452928153
 40
0.9623367334
 40
0.9804439667
 40
1.0
 40
1.0
 40
1.0
 40
1.0
 10
5.4814557453
 20
2.6761274568
 30
0.0
 10
5.4933378384
 20
2.6761274568
 30
0.0
 10
5.5166793746
 20
2.6766847154
 30
0.0
 10
5.5510158017
 20
2.6792198086
 30
0.0
 10
5.5840600801
 20
2.683344837
 30
0.0
 10
5.6158806727
 20
2.6889665743
 30
0.0
 10
5.6465349779
 20
2.6959857233
 30
0.0
 10
5.6760370827
 20
2.7044043156
 30
0.0
 10
5.7043753148
 20
2.714221097
 30
0.0
 10
5.73151454
 20
2.7254699063
 30
0.0
 10
5.7574115859
 20
2.7381822178
 30
0.0
 10
5.7819773838
 20
2.7524655654
 30
0.0
 10
5.8051122432
 20
2.7684206884
 30
0.0
 10
5.8229932579
 20
2.783369221
 30
0.0
 10
5.8362557331
 20
2.7964009887
 30
0.0
 10
5.8456441097
 20
2.8068121556
 30
0.0
 10
5.8544020968
 20
2.8179362598
 30
0.0
 10
5.8610161011
 20
2.8278675274
 30
0.0
 10
5.8658351103
 20
2.8362712979
 30
0.0
 10
5.8692092129
 20
2.8428930217
 30
0.0
 10
5.8722876223
 20
2.8498268578
 30
0.0
 10
5.8750393932
 20
2.8571075944
 30
0.0
 10
5.8774370315
 20
2.864794625
 30
0.0
 10
5.8793257416
 20
2.8730141182
 30
0.0
 10
5.8805574143
 20
2.881897208
 30
0.0
 10
5.8808310356
 20
2.8880676784
 30
0.0
 10
5.8808310356
 20
2.8912692133
 30
0.0
  0
SPLINE
  5
380
100
AcDbEntity
  8
ALL_ASSEMBLY_MEMBERS
100
AcDbSpline
 62
7
  6
CONTINUOUS
 70
0
 71
3
 72
9
 73
5
 74
0
 42
0.0000001
 43
0.0000001
 44
0.0000000001
 40
0.0
 40
0.0
 40
0.0
 40
0.0
 40
0.2637695069
 40
1.0
 40
1.0
 40
1.0
 40
1.0
 10
5.8808310356
 20
2.8912692133
 30
0.0
 10
5.8854443365
 20
2.8727492506
 30
0.0
 10
5.9036556523
 20
2.8027172902
 30
0.0
 10
5.9245232768
 20
2.733383386
 30
0.0
 10
5.9411936945
 20
2.6827865447
 30
0.0
  0
SPLINE
  5
381
100
AcDbEntity
  8
ALL_ASSEMBLY_MEMBERS
100
AcDbSpline
 62
7
  6
CONTINUOUS
 70
0
 71
3
 72
11
 73
7
 74
0
 42
0.0000001
 43
0.0000001
 44
0.0000000001
 40
0.0
 40
0.0
 40
0.0
 40
0.0
 40
0.2333897752
 40
0.4762353497
 40
0.7309026762
 40
1.0
 40
1.0
 40
1.0
 40
1.0
 10
5.0850657295
 20
2.9158059336
 30
0.0
 10
5.0846006311
 20
2.9139353695
 30
0.0
 10
5.0837560272
 20
2.9100914958
 30
0.0
 10
5.0828113149
 20
2.9041257873
 30
0.0
 10
5.0822133066
 20
2.8978187098
 30
0.0
 10
5.0820804551
 20
2.8934916328
 30
0.0
 10
5.0820804551
 20
2.8912692133
 30
0.0
  0
SPLINE
  5
382
100
AcDbEntity
  8
ALL_ASSEMBLY_MEMBERS
100
AcDbSpline
 62
7
  6
CONTINUOUS
 70
0
 71
3
 72
32
 73
28
 74
0
 42
0.0000001
 43
0.0000001
 44
0.0000000001
 40
0.0
 40
0.0
 40
0.0
 40
0.0
 40
0.0750312305
 40
0.1473620275
 40
0.2172587947
 40
0.2849795769
 40
0.3507474492
 40
0.414685787
 40
0.4768999302
 40
0.5374860154
 40
0.5965531245
 40
0.654216084
 40
0.7106330735
 40
0.7384395394
 40
0.7660286612
 40
0.7934615411
 40
0.8208199596
 40
0.8482260295
 40
0.8758715103
 40
0.8898771876
 40
0.9040719206
 40
0.918525906
 40
0.9333227118
 40
0.9485807973
 40
0.9645434011
 40
0.9815476994
 40
1.0
 40
1.0
 40
1.0
 40
1.0
 10
5.4814557453
 20
2.4363292888
 30
0.0
 10
5.4953861263
 20
2.4363292888
 30
0.0
 10
5.522748994
 20
2.4368593156
 30
0.0
 10
5.5630240622
 20
2.4392700901
 30
0.0
 10
5.6018165452
 20
2.4431943838
 30
0.0
 10
5.6392068737
 20
2.4485452606
 30
0.0
 10
5.6752580545
 20
2.4552288235
 30
0.0
 10
5.7099844171
 20
2.4632667069
 30
0.0
 10
5.7433676748
 20
2.4726772842
 30
0.0
 10
5.7753627121
 20
2.4835186377
 30
0.0
 10
5.8059111407
 20
2.4958445976
 30
0.0
 10
5.8348980186
 20
2.5097976727
 30
0.0
 10
5.8577555552
 20
2.5229597093
 30
0.0
 10
5.8749924927
 20
2.5345417724
 30
0.0
 10
5.8873125316
 20
2.5437569766
 30
0.0
 10
5.8990437205
 20
2.5535845778
 30
0.0
 10
5.9101049585
 20
2.5641151588
 30
0.0
 10
5.9204142291
 20
2.5754411334
 30
0.0
 10
5.9282061908
 20
2.5856487984
 30
0.0
 10
5.9338730135
 20
2.5943364641
 30
0.0
 10
5.9378314485
 20
2.6012005763
 30
0.0
 10
5.9414396722
 20
2.6084204434
 30
0.0
 10
5.9446613875
 20
2.6160360151
 30
0.0
 10
5.9474648561
 20
2.6241149271
 30
0.0
 10
5.9496707252
 20
2.6328059309
 30
0.0
 10
5.9511065446
 20
2.6422596173
 30
0.0
 10
5.9514226212
 20
2.6488485085
 30
0.0
 10
5.9514226212
 20
2.6522743829
 30
0.0
  0
SPLINE
  5
383
100
AcDbEntity
  8
ALL_ASSEMBLY_MEMBERS
100
AcDbSpline
 62
7
  6
CONTINUOUS
 70
0
 71
3
 72
11
 73
7
 74
0
 42
0.0000001
 43
0.0000001
 44
0.0000000001
 40
0.0
 40
0.0
 40
0.0
 40
0.0
 40
0.26910095
 40
0.5237686712
 40
0.7666126818
 40
1.0
 40
1.0
 40
1.0
 40
1.0
 10
5.8808310356
 20
2.8912692133
 30
0.0
 10
5.8808310356
 20
2.8934921719
 30
0.0
 10
5.8806981202
 20
2.8978202743
 30
0.0
 10
5.8800998247
 20
2.9041288049
 30
0.0
 10
5.8791546731
 20
2.9100958162
 30
0.0
 10
5.8783096911
 20
2.9139404968
 30
0.0
 10
5.8778443908
 20
2.9158114448
 30
0.0
  0
SPLINE
  5
384
100
AcDbEntity
  8
ALL_ASSEMBLY_MEMBERS
100
AcDbSpline
 62
7
  6
CONTINUOUS
 70
0
 71
3
 72
11
 73
7
 74
0
 42
0.0000001
 43
0.0000001
 44
0.0000000001
 40
0.0
 40
0.0
 40
0.0
 40
0.0
 40
0.2740586061
 40
0.5290935831
 40
0.7697412581
 40
1.0
 40
1.0
 40
1.0
 40
1.0
 10
5.9514226212
 20
2.6522743829
 30
0.0
 10
5.9514226212
 20
2.655265763
 30
0.0
 10
5.9511808373
 20
2.6610446833
 30
0.0
 10
5.9500844839
 20
2.669385201
 30
0.0
 10
5.9483786125
 20
2.677132244
 30
0.0
 10
5.9468823487
 20
2.682055011
 30
0.0
 10
5.9460711533
 20
2.6844338001
 30
0.0
  0
SPLINE
  5
385
100
AcDbEntity
  8
ALL_ASSEMBLY_MEMBERS
100
AcDbSpline
 62
7
  6
CONTINUOUS
 70
0
 71
3
 72
11
 73
7
 74
0
 42
0.0000001
 43
0.0000001
 44
0.0000000001
 40
0.0
 40
0.0
 40
0.0
 40
0.0
 40
0.2747341582
 40
0.5296812712
 40
0.7699800367
 40
1.0
 40
1.0
 40
1.0
 40
1.0
 10
5.9665743825
 20
2.6088765388
 30
0.0
 10
5.9665743825
 20
2.6120659133
 30
0.0
 10
5.9663017869
 20
2.618219557
 30
0.0
 10
5.9650649601
 20
2.6270848298
 30
0.0
 10
5.9631479237
 20
2.6352939679
 30
0.0
 10
5.9614757606
 20
2.6404975574
 30
0.0
 10
5.9605727867
 20
2.6430105409
 30
0.0
  0
LINE
  5
386
100
AcDbEntity
  8
ALL_ASSEMBLY_MEMBERS
100
AcDbLine
 62
7
  6
CONTINUOUS
 10
5.9514226212
 20
2.6522743829
 11
5.9531054486
 21
2.6473527003
  0
SPLINE
  5
387
100
AcDbEntity
  8
ALL_ASSEMBLY_MEMBERS
100
AcDbSpline
 62
7
  6
CONTINUOUS
 70
0
 71
3
 72
31
 73
27
 74
0
 42
0.0000001
 43
0.0000001
 44
0.0000000001
 40
0.0
 40
0.0
 40
0.0
 40
0.0
 40
0.1483521247
 40
0.218702449
 40
0.2868232084
 40
0.3529276318
 40
0.4171286422
 40
0.479522409
 40
0.5401975863
 40
0.5992575303
 40
0.6568105093
 40
0.7130108141
 40
0.7406679493
 40
0.7680808527
 40
0.7953117928
 40
0.8224434448
 40
0.8495998431
 40
0.8769754588
 40
0.8908405311
 40
0.904891957
 40
0.9192012046
 40
0.9338535357
 40
0.9489692643
 40
0.9647935903
 40
0.9816669738
 40
1.0
 40
1.0
 40
1.0
 40
1.0
 10
5.4814557453
 20
2.3952884194
 30
0.0
 10
5.509673741
 20
2.3952884194
 30
0.0
 10
5.5512986371
 20
2.3967334765
 30
0.0
 10
5.6056317097
 20
2.4017726783
 30
0.0
 10
5.6442215055
 20
2.4068492718
 30
0.0
 10
5.6814342295
 20
2.4132096939
 30
0.0
 10
5.7172852881
 20
2.4208912633
 30
0.0
 10
5.7517544376
 20
2.4299282882
 30
0.0
 10
5.7847944615
 20
2.4403957517
 30
0.0
 10
5.8163432096
 20
2.4523639956
 30
0.0
 10
5.8462807617
 20
2.4659950722
 30
0.0
 10
5.8698984203
 20
2.4789396095
 30
0.0
 10
5.8877071555
 20
2.490390604
 30
0.0
 10
5.9004282964
 20
2.4995267747
 30
0.0
 10
5.9125398719
 20
2.5093013931
 30
0.0
 10
5.9239582438
 20
2.5198097752
 30
0.0
 10
5.9345981931
 20
2.5311485892
 30
0.0
 10
5.9426394434
 20
2.5414034924
 30
0.0
 10
5.9484851758
 20
2.5501515225
 30
0.0
 10
5.9525675525
 20
2.5570738955
 30
0.0
 10
5.9562880186
 20
2.5643666631
 30
0.0
 10
5.9596091533
 20
2.5720710219
 30
0.0
 10
5.9624982852
 20
2.5802565307
 30
0.0
 10
5.9647709138
 20
2.5890767918
 30
0.0
 10
5.9662495482
 20
2.5986865557
 30
0.0
 10
5.9665743825
 20
2.6053894215
 30
0.0
 10
5.9665743825
 20
2.6088765388
 30
0.0
  0
SPLINE
  5
388
100
AcDbEntity
  8
ALL_ASSEMBLY_MEMBERS
100
AcDbSpline
 62
7
  6
CONTINUOUS
 70
0
 71
3
 72
28
 73
24
 74
0
 42
0.0000001
 43
0.0000001
 44
0.0000000001
 40
0.0
 40
0.0
 40
0.0
 40
0.0
 40
0.1665753474
 40
0.2466113912
 40
0.3241176352
 40
0.3988233548
 40
0.4704547781
 40
0.5387455536
 40
0.6034317016
 40
0.6642960916
 40
0.7212422525
 40
0.7742537967
 40
0.8233861784
 40
0.8465912575
 40
0.868980751
 40
0.8906753001
 40
0.9118497107
 40
0.932767956
 40
0.9538359633
 40
0.9646178599
 40
0.9757519422
 40
0.9874584324
 40
1.0
 40
1.0
 40
1.0
 40
1.0
 10
5.4814557453
 20
4.0667107008
 30
0.0
 10
5.499964736
 20
4.0667107008
 30
0.0
 10
5.5273754475
 20
4.0674368794
 30
0.0
 10
5.5633092188
 20
4.0698917265
 30
0.0
 10
5.5889993329
 20
4.0723759348
 30
0.0
 10
5.6136795435
 20
4.0754916173
 30
0.0
 10
5.637236083
 20
4.079240248
 30
0.0
 10
5.6595505246
 20
4.0836224527
 30
0.0
 10
5.6805008818
 20
4.0886531492
 30
0.0
 10
5.6999722631
 20
4.094350281
 30
0.0
 10
5.7178539545
 20
4.1007561739
 30
0.0
 10
5.7340388369
 20
4.1079094035
 30
0.0
 10
5.7462196949
 20
4.114727274
 30
0.0
 10
5.7548900838
 20
4.1207076373
 30
0.0
 10
5.7607307553
 20
4.1253872273
 30
0.0
 10
5.7660049345
 20
4.1303776378
 30
0.0
 10
5.7706564678
 20
4.1357430573
 30
0.0
 10
5.7746270823
 20
4.1415515648
 30
0.0
 10
5.7772543088
 20
4.1468182074
 30
0.0
 10
5.7788948865
 20
4.1513086765
 30
0.0
 10
5.7798523583
 20
4.1549262979
 30
0.0
 10
5.7804653916
 20
4.1588166664
 30
0.0
 10
5.7805998594
 20
4.1615135649
 30
0.0
 10
5.7805998594
 20
4.162907119
 30
0.0
  0
SPLINE
  5
389
100
AcDbEntity
  8
ALL_ASSEMBLY_MEMBERS
100
AcDbSpline
 62
7
  6
CONTINUOUS
 70
0
 71
3
 72
9
 73
5
 74
0
 42
0.0000001
 43
0.0000001
 44
0.0000000001
 40
0.0
 40
0.0
 40
0.0
 40
0.0
 40
0.5287679338
 40
1.0
 40
1.0
 40
1.0
 40
1.0
 10
5.9665743825
 20
2.6088765388
 30
0.0
 10
5.9748550085
 20
2.5856976386
 30
0.0
 10
5.9910197341
 20
2.5420405392
 30
0.0
 10
6.0080789544
 20
2.498727133
 30
0.0
 10
6.0162961872
 20
2.4783890404
 30
0.0
  0
LINE
  5
38A
100
AcDbEntity
  8
ALL_ASSEMBLY_MEMBERS
100
AcDbLine
 62
7
  6
CONTINUOUS
 10
5.780751851
 20
4.026569555
 11
5.780892672
 21
3.9977490232
  0
LINE
  5
38B
100
AcDbEntity
  8
ALL_ASSEMBLY_MEMBERS
100
AcDbLine
 62
7
  6
CONTINUOUS
 10
5.7809752541
 20
3.9841753289
 11
5.7811682145
 21
3.9577407941
  0
LINE
  5
38C
100
AcDbEntity
  8
ALL_ASSEMBLY_MEMBERS
100
AcDbLine
 62
7
  6
CONTINUOUS
 10
5.7812714191
 20
3.9456459106
 11
5.7815396291
 21
3.9184752945
  0
ENDSEC
  0
SECTION
  2
OBJECTS
  0
DICTIONARY
  5
C
100
AcDbDictionary
280
0
281
1
  3
ACAD_GROUP
350
D
  3
ACAD_MLINESTYLE
350
17
  3
ACAD_LAYOUT
350
1A
  3
ACAD_PLOTSETTINGS
350
19
  3
ACAD_PLOTSTYLENAME
350
E
  0
DICTIONARY
  5
D
102
{ACAD_REACTORS
330
C
102
}
100
AcDbDictionary
280
0
281
1
  0
ACDBDICTIONARYWDFLT
  5
E
102
{ACAD_REACTORS
330
C
102
}
100
AcDbDictionary
281
1
  3
Normal
350
F
100
AcDbDictionaryWithDefault
340
F
  0
DICTIONARY
  5
17
102
{ACAD_REACTORS
330
C
102
}
100
AcDbDictionary
280
0
281
1
  3
Standard
350
18
  0
DICTIONARY
  5
19
102
{ACAD_REACTORS
330
C
102
}
100
AcDbDictionary
281
1
  0
DICTIONARY
  5
1A
102
{ACAD_REACTORS
330
C
102
}
100
AcDbDictionary
281
1
  3
Model
350
38D
  3
Layout1
350
38E
  0
ACDBPLACEHOLDER
  5
F
102
{ACAD_REACTORS
330
E
102
}
  0
MLINESTYLE
  5
18
102
{ACAD_REACTORS
330
17
102
}
100
AcDbMlineStyle
  2
STANDARD
 70
0
  3

 62
256
 51
90.0
 52
90.0
 71
2
 49
0.5
 62
256
  6
BYLAYER
 49
-0.5
 62
256
  6
BYLAYER
  0
LAYOUT
  5
38D
102
{ACAD_REACTORS
330
1A
102
}
100
AcDbPlotSettings
  1

  2
none_device
  4
ANSI_A_(11.00_x_8.50_Inches)
  6

 40
0.0
 41
0.0
 42
0.0
 43
0.0
 44
279.4
 45
215.9
 46
0.0
 47
0.0
 48
0.0
 49
0.0
140
0.0
141
0.0
142
1.0
143
1.0
 70
1024
 72
0
 73
0
 74
0
  7

 75
0
147
1.0
148
0.0
149
0.0
100
AcDbLayout
  1
Model
 70
0
 71
0
 10
0.0
 20
0.0
 11
11.0
 21
8.5
 12
0.0
 22
0.0
 32
0.0
 14
0.0
 24
0.0
 34
0.0
 15
0.0
 25
0.0
 35
0.0
146
0.0
 13
0.0
 23
0.0
 33
0.0
 16
1.0
 26
0.0
 36
0.0
 17
0.0
 27
1.0
 37
0.0
 76
0
330
21D
345
0
346
0
  0
LAYOUT
  5
38E
102
{ACAD_REACTORS
330
1A
102
}
100
AcDbPlotSettings
  1

  2
none_device
  4
ANSI_A_(11.00_x_8.50_Inches)
  6

 40
0.0
 41
0.0
 42
0.0
 43
0.0
 44
279.4
 45
215.9
 46
0.0
 47
0.0
 48
0.0
 49
0.0
140
0.0
141
0.0
142
1.0
143
1.0
 70
0
 72
0
 73
0
 74
0
  7

 75
0
147
1.0
148
0.0
149
0.0
100
AcDbLayout
  1
Layout1
 70
0
 71
1
 10
0.0
 20
0.0
 11
11.0
 21
8.5
 12
0.0
 22
0.0
 32
0.0
 14
0.0
 24
0.0
 34
0.0
 15
0.0
 25
0.0
 35
0.0
146
0.0
 13
0.0
 23
0.0
 33
0.0
 16
1.0
 26
0.0
 36
0.0
 17
0.0
 27
1.0
 37
0.0
 76
0
330
21E
345
0
346
0
  0
ENDSEC
  0
EOF
