999
DXF file: E:\BT Custom\CADOUTPUT\_RIGHT.dxf
999
Pro/ENGINEER 2018400 by Parametric Technology Corporation
  0
SECTION
  2
HEADER
  9
$ACADVER
  1
AC1018
  9
$DWGCODEPAGE
  3
ANSI_1252
  9
$EXTMAX
 10
22.0
 20
17.0
 30
0.0
  9
$EXTMIN
 10
0.0
 20
0.0
 30
0.0
  9
$LIMMIN
 10
0.0
 20
0.0
  9
$LIMMAX
 10
22.0
 20
17.0
  9
$VIEWCTR
 10
11.0
 20
8.5
  9
$VIEWSIZE
 40
17.0
  9
$CLAYER
  8
0
  9
$LTSCALE
 40
1.21
  9
$CELTYPE
  6
BYLAYER
  9
$DIMSCALE
 40
1.0
  9
$DIMASZ
 40
0.1
  9
$DIMEXO
 40
0.0625
  9
$DIMDLI
 40
0.836
  9
$DIMEXE
 40
0.125
  9
$DIMCEN
 40
0.198
  9
$DIMLFAC
 40
1.0
  9
$DIMBLK
  1
_FILLED
  9
$DIMALT
 70
1
  9
$DIMALTD
 70
2
  9
$DIMALTTD
 70
2
  9
$DIMALTF
 40
25.4
  9
$DIMTXT
 40
0.08
  9
$DIMTOL
 70
1
  9
$DIMLIM
 70
0
  9
$DIMTFAC
 40
1.0
  9
$DIMTP
 40
0.001
  9
$DIMTM
 40
0.001
  9
$DIMGAP
 40
0.09
  9
$DIMDSEP
 70
46
  9
$AUNITS
 70
0
  9
$PDMODE
 70
3
  9
$PDSIZE
 40
0.06
  9
$HANDSEED
  5
449
  9
$TILEMODE
 70
1
  9
$MEASUREMENT
 70
0
  9
$INSUNITS
 70
1
  0
ENDSEC
  0
SECTION
  2
CLASSES
  0
CLASS
  1
ACDBDICTIONARYWDFLT
  2
AcDbDictionaryWithDefault
  3
AutoCAD 2000
 90
0
 91
1
280
0
281
0
  0
CLASS
  1
ACDBPLACEHOLDER
  2
AcDbPlaceHolder
  3
AutoCAD 2000
 90
0
 91
1
280
0
281
0
  0
CLASS
  1
LAYOUT
  2
AcDbLayout
  3
AutoCAD 2000
 90
0
 91
0
280
0
281
0
  0
ENDSEC
  0
SECTION
  2
TABLES
  0
TABLE
  2
VPORT
  5
8
100
AcDbSymbolTable
 70
2
  0
VPORT
  5
1F4
100
AcDbSymbolTableRecord
100
AcDbViewportTableRecord
  2
*ACTIVE
 70
0
 10
0.0
 20
0.0
 11
1.0
 21
1.0
 12
11.0
 22
8.5
 13
0.0
 23
0.0
 14
1.0
 24
1.0
 15
0.0
 25
0.0
 16
0.0
 26
0.0
 36
1.0
 17
0.0
 27
0.0
 37
0.0
 40
17.0
 41
1.2941176471
 42
50.0
 43
0.0
 44
0.0
 50
0.0
 51
0.0
 71
0
 72
100
 73
1
 74
1
 75
0
 76
0
 77
0
 78
0
  0
ENDTAB
  0
TABLE
  2
LTYPE
  5
5
100
AcDbSymbolTable
 70
6
  0
LTYPE
  5
14
100
AcDbSymbolTableRecord
100
AcDbLinetypeTableRecord
  2
BYBLOCK
 70
0
  3

 72
65
 73
0
 40
0.0
  0
LTYPE
  5
15
100
AcDbSymbolTableRecord
100
AcDbLinetypeTableRecord
  2
BYLAYER
 70
0
  3

 72
65
 73
0
 40
0.0
  0
LTYPE
  5
16
100
AcDbSymbolTableRecord
100
AcDbLinetypeTableRecord
  2
CONTINUOUS
 70
64
  3
Solid line
 72
65
 73
0
 40
0.0
  0
LTYPE
  5
1F5
100
AcDbSymbolTableRecord
100
AcDbLinetypeTableRecord
  2
CENTER
 70
64
  3
____ _ ____ _ ____ _ ____ _ ____ _ ____ _ ____
 72
65
 73
4
 40
0.6
 49
0.375
 74
0
 49
-0.075
 74
0
 49
0.075
 74
0
 49
-0.075
 74
0
  0
LTYPE
  5
1F6
100
AcDbSymbolTableRecord
100
AcDbLinetypeTableRecord
  2
HIDDEN
 70
64
  3
- - - - - - - - - - - - - - - - - - - -
 72
65
 73
2
 40
0.2
 49
0.1
 74
0
 49
-0.1
 74
0
  0
LTYPE
  5
1F7
100
AcDbSymbolTableRecord
100
AcDbLinetypeTableRecord
  2
PHANTOM
 70
64
  3
_____ _ _ _____ _ _ _____ _ _ _____
 72
65
 73
6
 40
0.8
 49
0.45
 74
0
 49
-0.05
 74
0
 49
0.1
 74
0
 49
-0.05
 74
0
 49
0.1
 74
0
 49
-0.05
 74
0
  0
LTYPE
  5
1F8
100
AcDbSymbolTableRecord
100
AcDbLinetypeTableRecord
  2
DOT
 70
64
  3
. . . . . . . . . . . . . . . . . . . .
 72
65
 73
2
 40
0.2
 49
0.1
 74
0
 49
-0.1
 74
0
  0
LTYPE
  5
1F9
100
AcDbSymbolTableRecord
100
AcDbLinetypeTableRecord
  2
DASHED
 70
64
  3
- - - - - - - - - - - - - - - - - - - -
 72
65
 73
2
 40
0.2
 49
0.1
 74
0
 49
-0.1
 74
0
  0
ENDTAB
  0
TABLE
  2
LAYER
  5
2
100
AcDbSymbolTable
 70
36
  0
LAYER
  5
10
100
AcDbSymbolTableRecord
100
AcDbLayerTableRecord
  2
0
 70
0
 62
7
  6
CONTINUOUS
370
-3
390
F
  0
LAYER
  5
1FA
100
AcDbSymbolTableRecord
100
AcDbLayerTableRecord
  2
DEFAULT_1
 70
0
 62
7
  6
CENTER
370
-3
390
F
  0
LAYER
  5
1FB
100
AcDbSymbolTableRecord
100
AcDbLayerTableRecord
  2
DEFAULT_2
 70
0
 62
8
  6
HIDDEN
370
-3
390
F
  0
LAYER
  5
1FC
100
AcDbSymbolTableRecord
100
AcDbLayerTableRecord
  2
DEFAULT_3
 70
0
 62
7
  6
PHANTOM
370
-3
390
F
  0
LAYER
  5
1FD
100
AcDbSymbolTableRecord
100
AcDbLayerTableRecord
  2
ALL_FEATURES
 70
0
 62
7
  6
CONTINUOUS
370
-3
390
F
  0
LAYER
  5
1FE
100
AcDbSymbolTableRecord
100
AcDbLayerTableRecord
  2
AXES_FEATURES
 70
0
 62
7
  6
CONTINUOUS
370
-3
390
F
  0
LAYER
  5
1FF
100
AcDbSymbolTableRecord
100
AcDbLayerTableRecord
  2
DEFAULT_COORDINATE_SYSTEM
 70
0
 62
7
  6
CONTINUOUS
370
-3
390
F
  0
LAYER
  5
200
100
AcDbSymbolTableRecord
100
AcDbLayerTableRecord
  2
DEFAULT_DATUM_AXES
 70
0
 62
7
  6
CONTINUOUS
370
-3
390
F
  0
LAYER
  5
201
100
AcDbSymbolTableRecord
100
AcDbLayerTableRecord
  2
DEFAULT_DATUM_PLANES
 70
0
 62
7
  6
CONTINUOUS
370
-3
390
F
  0
LAYER
  5
202
100
AcDbSymbolTableRecord
100
AcDbLayerTableRecord
  2
DIMENSIONS
 70
0
 62
7
  6
CONTINUOUS
370
-3
390
F
  0
ENDTAB
  0
TABLE
  2
STYLE
  5
3
100
AcDbSymbolTable
 70
1
  0
STYLE
  5
11
100
AcDbSymbolTableRecord
100
AcDbTextStyleTableRecord
  2
STANDARD
 70
0
 40
0.0
 41
0.8
 50
0.0
 71
0
 42
0.2
  3
txt
  4

  0
STYLE
  5
203
100
AcDbSymbolTableRecord
100
AcDbTextStyleTableRecord
  2
TEXTSTYLE_1
 70
0
 40
0.0
 41
0.8
 50
0.0
 71
0
 42
0.2
  3
gdt
  4

  0
ENDTAB
  0
TABLE
  2
VIEW
  5
6
100
AcDbSymbolTable
 70
0
  0
ENDTAB
  0
TABLE
  2
UCS
  5
7
100
AcDbSymbolTable
 70
0
  0
ENDTAB
  0
TABLE
  2
APPID
  5
9
100
AcDbSymbolTable
 70
1
  0
APPID
  5
204
100
AcDbSymbolTableRecord
100
AcDbRegAppTableRecord
  2
ACAD
 70
0
  0
ENDTAB
  0
TABLE
  2
BLOCK_RECORD
  5
1
100
AcDbSymbolTable
 70
0
  0
BLOCK_RECORD
  5
205
100
AcDbSymbolTableRecord
100
AcDbBlockTableRecord
  2
*Model_Space
  0
BLOCK_RECORD
  5
206
100
AcDbSymbolTableRecord
100
AcDbBlockTableRecord
  2
*Paper_Space
  0
BLOCK_RECORD
  5
207
100
AcDbSymbolTableRecord
100
AcDbBlockTableRecord
  2
_FILLED
  0
ENDTAB
  0
TABLE
  2
DIMSTYLE
  5
A
100
AcDbSymbolTable
 70
1
100
AcDbDimStyleTable
 71
0
  0
DIMSTYLE
105
208
100
AcDbSymbolTableRecord
100
AcDbDimStyleTableRecord
  2
STANDARD
 70
0
  3

  4

 40
1.0
 41
0.1
 42
0.0625
 43
0.38
 44
0.125
 45
0.0
 46
0.0
 47
0.001
 48
0.001
140
0.08
141
0.09
142
0.0
143
25.4
144
1.0
145
0.0
146
1.0
147
0.09
 71
1.0
 72
0.0
 73
1
 74
1
 75
0
 76
0
 77
0
 78
4
 79
1
170
1
171
2
172
0
173
0
174
0
175
0
176
0
177
0
178
0
270
2
179
3
271
3
272
3
273
2
274
2
275
0
280
0
281
0
282
0
283
1
284
4
285
0
286
0
287
3
288
0
340
11
278
46
341
207
342
207
343
207
344
207
  0
ENDTAB
  0
ENDSEC
  0
SECTION
  2
BLOCKS
  0
BLOCK
  5
20
100
AcDbEntity
  8
0
100
AcDbBlockBegin
  2
*Model_Space
 70
0
 10
0.0
 20
0.0
 30
0.0
  3
*Model_Space
  1

  0
ENDBLK
  5
21
100
AcDbEntity
  8
0
100
AcDbBlockEnd
  0
BLOCK
  5
1C
100
AcDbEntity
  8
0
100
AcDbBlockBegin
  2
*Paper_Space
 70
0
 10
0.0
 20
0.0
 30
0.0
  3
*Paper_Space
  1

  0
ENDBLK
  5
1D
100
AcDbEntity
  8
0
100
AcDbBlockEnd
  0
BLOCK
  5
209
100
AcDbEntity
  8
0
100
AcDbBlockBegin
  2
_FILLED
 70
64
 10
0.0
 20
0.0
  3
_FILLED
  1

  0
SOLID
  5
20A
100
AcDbEntity
  8
0
  6
BYBLOCK
 62
0
100
AcDbTrace
 10
0.0
 20
0.0
 11
-1.0
 21
0.2
 12
-1.0
 22
-0.2
 13
-1.0
 23
-0.2
  0
ENDBLK
  5
20B
100
AcDbEntity
  8
0
  6
BYBLOCK
 62
0
100
AcDbBlockEnd
  0
ENDSEC
  0
SECTION
  2
ENTITIES
  0
LINE
  5
20C
100
AcDbEntity
  8
0
100
AcDbLine
 62
7
  6
CONTINUOUS
 10
7.8047969521
 20
12.0615034412
 11
7.8027542563
 21
12.0569397372
  0
LINE
  5
20D
100
AcDbEntity
  8
0
100
AcDbLine
 62
7
  6
CONTINUOUS
 10
6.5300473463
 20
9.6996688544
 11
6.0611568079
 21
8.9492871355
  0
LINE
  5
20E
100
AcDbEntity
  8
0
100
AcDbLine
 62
7
  6
CONTINUOUS
 10
7.8776209438
 20
12.0124736928
 11
7.8754288343
 21
12.0075761751
  0
LINE
  5
20F
100
AcDbEntity
  8
0
100
AcDbLine
 62
7
  6
CONTINUOUS
 10
8.0325100762
 20
11.8812099698
 11
8.0294099806
 21
11.8742838681
  0
LINE
  5
210
100
AcDbEntity
  8
0
100
AcDbLine
 62
7
  6
CONTINUOUS
 10
15.2838101703
 20
5.3765952972
 11
12.5338101703
 21
5.3765952972
  0
LINE
  5
211
100
AcDbEntity
  8
0
100
AcDbLine
 62
7
  6
CONTINUOUS
 10
15.3588101703
 20
5.3815952972
 11
15.2838101703
 21
5.3815952972
  0
LINE
  5
212
100
AcDbEntity
  8
0
100
AcDbLine
 62
7
  6
CONTINUOUS
 10
12.5338101703
 20
5.3815952972
 11
12.4588101703
 21
5.3815952972
  0
LINE
  5
213
100
AcDbEntity
  8
0
100
AcDbLine
 62
9
  6
CONTINUOUS
 10
12.4588101703
 20
5.5207866813
 11
12.5338101703
 21
5.5207866813
  0
LINE
  5
214
100
AcDbEntity
  8
0
100
AcDbLine
 62
9
  6
CONTINUOUS
 10
15.2838101703
 20
5.5207866813
 11
15.3588101703
 21
5.5207866813
  0
LINE
  5
215
100
AcDbEntity
  8
0
100
AcDbLine
 62
7
  6
CONTINUOUS
 10
8.169677136
 20
11.7593072624
 11
8.1665770404
 21
11.7523811607
  0
LINE
  5
216
100
AcDbEntity
  8
0
100
AcDbLine
 62
7
  6
CONTINUOUS
 10
8.3194547607
 20
11.6288623554
 11
8.3163546651
 21
11.6219362536
  0
LINE
  5
217
100
AcDbEntity
  8
0
100
AcDbLine
 62
9
  6
CONTINUOUS
 10
12.5170182498
 20
5.6576475218
 11
12.5338101703
 21
5.6576475218
  0
LINE
  5
218
100
AcDbEntity
  8
0
100
AcDbLine
 62
9
  6
CONTINUOUS
 10
15.2838101703
 20
5.6576475218
 11
15.3006020909
 21
5.6576475218
  0
LINE
  5
219
100
AcDbEntity
  8
0
100
AcDbLine
 62
9
  6
CONTINUOUS
 10
12.5338101703
 20
5.6879196411
 11
15.2838101703
 21
5.6879196411
  0
LINE
  5
21A
100
AcDbEntity
  8
0
100
AcDbLine
 62
9
  6
CONTINUOUS
 10
12.6287958466
 20
5.8274668525
 11
15.188824494
 21
5.8274668525
  0
LINE
  5
21B
100
AcDbEntity
  8
0
100
AcDbLine
 62
7
  6
CONTINUOUS
 10
8.5248502489
 20
11.5002892226
 11
8.5278253295
 21
11.5069360213
  0
LINE
  5
21C
100
AcDbEntity
  8
0
100
AcDbLine
 62
9
  6
CONTINUOUS
 10
8.6367601887
 20
11.689120006
 11
8.8001758499
 21
12.0542163274
  0
LINE
  5
21D
100
AcDbEntity
  8
0
100
AcDbLine
 62
7
  6
CONTINUOUS
 10
8.5704872887
 20
11.4798622651
 11
8.5734623694
 21
11.4865090638
  0
LINE
  5
21E
100
AcDbEntity
  8
0
100
AcDbLine
 62
7
  6
CONTINUOUS
 10
8.8032073832
 20
11.4123366059
 11
8.8001072876
 21
11.4054105041
  0
LINE
  5
21F
100
AcDbEntity
  8
0
100
AcDbLine
 62
7
  6
CONTINUOUS
 10
7.3352601179
 20
9.1913873948
 11
7.0120466197
 21
8.7122036778
  0
LINE
  5
220
100
AcDbEntity
  8
0
100
AcDbLine
 62
7
  6
CONTINUOUS
 10
12.7788101703
 20
5.9315952972
 11
12.7854147352
 21
5.9315952972
  0
LINE
  5
221
100
AcDbEntity
  8
0
100
AcDbLine
 62
7
  6
CONTINUOUS
 10
15.0322056054
 20
5.9315952972
 11
15.0388101703
 21
5.9315952972
  0
LINE
  5
222
100
AcDbEntity
  8
0
100
AcDbLine
 62
9
  6
CONTINUOUS
 10
12.901364562
 20
6.1412466161
 11
14.9162557786
 21
6.1412466161
  0
LINE
  5
223
100
AcDbEntity
  8
0
100
AcDbLine
 62
7
  6
CONTINUOUS
 10
12.9499880827
 20
6.1795952972
 11
14.8676322579
 21
6.1795952972
  0
LINE
  5
224
100
AcDbEntity
  8
0
100
AcDbLine
 62
9
  6
CONTINUOUS
 10
12.8388101703
 20
6.1915952972
 11
13.343847905
 21
6.1915952972
  0
LINE
  5
225
100
AcDbEntity
  8
0
100
AcDbLine
 62
9
  6
CONTINUOUS
 10
14.4737724357
 20
6.1915952972
 11
14.9788101703
 21
6.1915952972
  0
LINE
  5
226
100
AcDbEntity
  8
0
100
AcDbLine
 62
7
  6
CONTINUOUS
 10
12.9088101703
 20
6.2615952972
 11
13.3613101703
 21
6.2615952972
  0
LINE
  5
227
100
AcDbEntity
  8
0
100
AcDbLine
 62
7
  6
CONTINUOUS
 10
14.4563101703
 20
6.2615952972
 11
14.9088101703
 21
6.2615952972
  0
LINE
  5
228
100
AcDbEntity
  8
0
100
AcDbLine
 62
7
  6
CONTINUOUS
 10
9.0002712615
 20
11.387536636
 11
8.9971711659
 21
11.3806105342
  0
LINE
  5
229
100
AcDbEntity
  8
0
100
AcDbLine
 62
7
  6
CONTINUOUS
 10
9.1825634807
 20
11.3664506409
 11
9.1794633851
 21
11.3595245391
  0
LINE
  5
22A
100
AcDbEntity
  8
0
100
AcDbLine
 62
7
  6
CONTINUOUS
 10
14.8988101703
 20
6.3715952972
 11
14.4563101703
 21
6.3715952972
  0
LINE
  5
22B
100
AcDbEntity
  8
0
100
AcDbLine
 62
7
  6
CONTINUOUS
 10
13.3613101703
 20
6.3715952972
 11
12.9188101703
 21
6.3715952972
  0
LINE
  5
22C
100
AcDbEntity
  8
0
100
AcDbLine
 62
9
  6
CONTINUOUS
 10
13.6753421221
 20
6.588884619
 11
14.1422782185
 21
6.5888846191
  0
LINE
  5
22D
100
AcDbEntity
  8
0
100
AcDbLine
 62
9
  6
CONTINUOUS
 10
13.7754385244
 20
6.6242399581
 11
14.0421818162
 21
6.6242399581
  0
LINE
  5
22E
100
AcDbEntity
  8
0
100
AcDbLine
 62
7
  6
CONTINUOUS
 10
9.3836432592
 20
11.3383840953
 11
9.3814511498
 21
11.3334865776
  0
LINE
  5
22F
100
AcDbEntity
  8
0
100
AcDbLine
 62
7
  6
CONTINUOUS
 10
9.4687234254
 20
11.3167365708
 11
9.4666807297
 21
11.3121728668
  0
LINE
  5
230
100
AcDbEntity
  8
0
100
AcDbLine
 62
9
  6
CONTINUOUS
 10
10.1634393989
 20
11.4167685857
 11
10.4641607334
 21
11.6691030021
  0
LINE
  5
231
100
AcDbEntity
  8
0
100
AcDbLine
 62
7
  6
CONTINUOUS
 10
10.0073175943
 20
11.2857646868
 11
10.1634368625
 21
11.4167710798
  0
LINE
  5
232
100
AcDbEntity
  8
0
100
AcDbLine
 62
9
  6
CONTINUOUS
 10
13.3613101703
 20
6.7117667286
 11
14.4563101703
 21
6.7117667286
  0
LINE
  5
233
100
AcDbEntity
  8
0
100
AcDbLine
 62
9
  6
CONTINUOUS
 10
13.3913101703
 20
6.7831810129
 11
14.4263101703
 21
6.7831810129
  0
LINE
  5
234
100
AcDbEntity
  8
0
100
AcDbLine
 62
7
  6
CONTINUOUS
 10
14.3963101703
 20
6.8545952972
 11
13.4213101703
 21
6.8545952972
  0
LINE
  5
235
100
AcDbEntity
  8
0
100
AcDbLine
 62
7
  6
CONTINUOUS
 10
13.0079166373
 20
7.5622934583
 11
13.0240629272
 21
7.5651308499
  0
LINE
  5
236
100
AcDbEntity
  8
0
100
AcDbLine
 62
9
  6
CONTINUOUS
 10
14.3169164243
 20
7.2721008934
 11
14.4140666459
 21
7.2721008934
  0
LINE
  5
237
100
AcDbEntity
  8
0
100
AcDbLine
 62
9
  6
CONTINUOUS
 10
14.2703747388
 20
7.3743425499
 11
14.4835757301
 21
7.3743425499
  0
LINE
  5
238
100
AcDbEntity
  8
0
100
AcDbLine
 62
7
  6
CONTINUOUS
 10
14.2140089615
 20
7.4715952972
 11
14.436541351
 21
7.4715952972
  0
LINE
  5
239
100
AcDbEntity
  8
0
100
AcDbLine
 62
7
  6
CONTINUOUS
 10
10.4307209956
 20
10.4344577649
 11
11.2202841649
 21
11.096979929
  0
LINE
  5
23A
100
AcDbEntity
  8
0
100
AcDbLine
 62
9
  6
CONTINUOUS
 10
10.5407784902
 20
10.3440499475
 11
11.290207201
 21
10.9728953023
  0
LINE
  5
23B
100
AcDbEntity
  8
0
100
AcDbLine
 62
7
  6
CONTINUOUS
 10
13.6113255348
 20
8.0579026873
 11
13.5815491192
 21
8.0526700721
  0
LINE
  5
23C
100
AcDbEntity
  8
0
100
AcDbLine
 62
9
  6
CONTINUOUS
 10
14.1652724635
 20
7.5415952972
 11
14.3588101703
 21
7.5415952972
  0
LINE
  5
23D
100
AcDbEntity
  8
0
100
AcDbLine
 62
7
  6
CONTINUOUS
 10
14.1573290586
 20
7.5515952972
 11
14.3488101703
 21
7.5515952972
  0
LINE
  5
23E
100
AcDbEntity
  8
0
100
AcDbLine
 62
9
  6
CONTINUOUS
 10
14.1001215448
 20
7.6215952972
 11
14.2388101703
 21
7.6215952972
  0
LINE
  5
23F
100
AcDbEntity
  8
0
100
AcDbLine
 62
7
  6
CONTINUOUS
 10
14.0917305485
 20
7.6315952972
 11
14.2288101703
 21
7.6315952972
  0
LINE
  5
240
100
AcDbEntity
  8
0
100
AcDbLine
 62
7
  6
CONTINUOUS
 10
7.0120466197
 20
8.7122036778
 11
6.0611568079
 21
8.9492871355
  0
LINE
  5
241
100
AcDbEntity
  8
0
100
AcDbLine
 62
9
  6
CONTINUOUS
 10
14.1346166219
 20
8.6549462892
 11
14.1214739756
 21
8.6549462892
  0
LINE
  5
242
100
AcDbEntity
  8
0
100
AcDbLine
 62
9
  6
CONTINUOUS
 10
13.6961463651
 20
8.6549462892
 11
13.6830037187
 21
8.6549462892
  0
LINE
  5
243
100
AcDbEntity
  8
0
100
AcDbLine
 62
7
  6
CONTINUOUS
 10
13.5709653296
 20
8.0631986727
 11
13.5728531634
 21
8.0630335087
  0
LINE
  5
244
100
AcDbEntity
  8
0
100
AcDbLine
 62
7
  6
CONTINUOUS
 10
13.0079166373
 20
7.5622934583
 11
13.0075794911
 21
7.5624878749
  0
LWPOLYLINE
  5
245
100
AcDbEntity
  8
0
100
AcDbPolyline
 62
7
  6
CONTINUOUS
 90
9
 70
0
 10
10.4968965966
 20
10.4899856872
 10
10.4994562751
 20
10.4737463692
 10
10.5037640222
 20
10.4552417837
 10
10.5095051044
 20
10.4370990221
 10
10.516598277
 20
10.4193995253
 10
10.524943876
 20
10.4022071524
 10
10.534514838
 20
10.3856408765
 10
10.5452768816
 20
10.3698134602
 10
10.555690705
 20
10.3565627814
  0
LWPOLYLINE
  5
246
100
AcDbEntity
  8
0
100
AcDbPolyline
 62
7
  6
CONTINUOUS
 90
9
 70
0
 10
10.4835163891
 20
10.4787583601
 10
10.4857581019
 20
10.4622470726
 10
10.4897437
 20
10.4434680995
 10
10.4952124268
 20
10.4250940939
 10
10.50208263
 20
10.4072064282
 10
10.5102534534
 20
10.3898681112
 10
10.5196994424
 20
10.3731993963
 10
10.5303875909
 20
10.3573140952
 10
10.5407784902
 20
10.3440499475
  0
LINE
  5
247
100
AcDbEntity
  8
0
100
AcDbLine
 62
9
  6
CONTINUOUS
 10
13.1102389256
 20
9.3303467688
 11
14.707381415
 21
9.3303467688
  0
LINE
  5
248
100
AcDbEntity
  8
0
100
AcDbLine
 62
9
  6
CONTINUOUS
 10
13.0195991404
 20
9.4542642715
 11
14.7980212002
 21
9.4542642715
  0
LWPOLYLINE
  5
249
100
AcDbEntity
  8
0
100
AcDbPolyline
 62
7
  6
CONTINUOUS
 90
9
 70
0
 10
10.5775337414
 20
10.5381790942
 10
10.578995258
 20
10.5338798157
 10
10.5851577722
 20
10.5177748086
 10
10.5923624411
 20
10.501772824
 10
10.6005341432
 20
10.4859402824
 10
10.6096025608
 20
10.4703423317
 10
10.6195450126
 20
10.4550778687
 10
10.6303270595
 20
10.4402404188
 10
10.6404198596
 20
10.4276589838
  0
LINE
  5
24A
100
AcDbEntity
  8
0
100
AcDbLine
 62
7
  6
CONTINUOUS
 10
10.5775337414
 20
10.5381790942
 11
10.5728887286
 21
10.5537506571
  0
LWPOLYLINE
  5
24B
100
AcDbEntity
  8
0
100
AcDbPolyline
 62
7
  6
CONTINUOUS
 90
9
 70
0
 10
10.5273354707
 20
10.5155269352
 10
10.5306273155
 20
10.4998890084
 10
10.5356784537
 20
10.4819989872
 10
10.5420490221
 20
10.4643789929
 10
10.5496571406
 20
10.4471096521
 10
10.5584047903
 20
10.4302559674
 10
10.5682602231
 20
10.4139335134
 10
10.5791850588
 20
10.398252035
 10
10.589639151
 20
10.3850489099
  0
LINE
  5
24C
100
AcDbEntity
  8
0
100
AcDbLine
 62
7
  6
CONTINUOUS
 10
13.0113762569
 20
9.6422052653
 11
13.1136530257
 21
9.7069327522
  0
LINE
  5
24D
100
AcDbEntity
  8
0
100
AcDbLine
 62
9
  6
CONTINUOUS
 10
12.9788101703
 20
9.5397618354
 11
14.8388101703
 21
9.5397618354
  0
LINE
  5
24E
100
AcDbEntity
  8
0
100
AcDbLine
 62
9
  6
CONTINUOUS
 10
12.9788101703
 20
9.5830554375
 11
14.8388101703
 21
9.5830554375
  0
LINE
  5
24F
100
AcDbEntity
  8
0
100
AcDbLine
 62
9
  6
CONTINUOUS
 10
13.0113762569
 20
9.6422052653
 11
14.8062440837
 21
9.6422052653
  0
LINE
  5
250
100
AcDbEntity
  8
0
100
AcDbLine
 62
9
  6
CONTINUOUS
 10
14.703967315
 20
9.7069327522
 11
13.1136530257
 21
9.7069327522
  0
LINE
  5
251
100
AcDbEntity
  8
0
100
AcDbLine
 62
7
  6
CONTINUOUS
 10
13.0588101703
 20
9.7981753058
 11
12.9438101703
 21
9.7981753058
  0
LINE
  5
252
100
AcDbEntity
  8
0
100
AcDbLine
 62
9
  6
CONTINUOUS
 10
14.688895486
 20
9.8123767158
 11
13.1287248547
 21
9.8123767158
  0
LINE
  5
253
100
AcDbEntity
  8
0
100
AcDbLine
 62
7
  6
CONTINUOUS
 10
8.3198737901
 20
11.6095715408
 11
8.3607409216
 21
11.5818887841
  0
LINE
  5
254
100
AcDbEntity
  8
0
100
AcDbLine
 62
7
  6
CONTINUOUS
 10
8.1700961654
 20
11.7400164478
 11
8.3159356357
 21
11.6412270682
  0
LINE
  5
255
100
AcDbEntity
  8
0
100
AcDbLine
 62
7
  6
CONTINUOUS
 10
15.3006020909
 20
5.6576475218
 11
15.2838101703
 21
5.6738175194
  0
LWPOLYLINE
  5
256
100
AcDbEntity
  8
0
100
AcDbPolyline
 62
7
  6
CONTINUOUS
 90
10
 70
0
 10
12.6619776022
 20
7.8161032852
 10
12.6739830448
 20
7.8027856335
 10
12.6881886725
 20
7.7892325838
 10
12.7031976567
 20
7.7770103494
 10
12.7189387929
 20
7.7660782352
 10
12.735346857
 20
7.7563933917
 10
12.7524267684
 20
7.74798765
 10
12.7701837123
 20
7.7409316939
 10
12.7885935246
 20
7.7352544172
 10
12.8027693575
 20
7.7319034653
  0
LWPOLYLINE
  5
257
100
AcDbEntity
  8
0
100
AcDbPolyline
 62
7
  6
CONTINUOUS
 90
10
 70
0
 10
12.676889817
 20
7.8286161191
 10
12.6888780748
 20
7.8152734044
 10
12.7030099987
 20
7.8016522776
 10
12.7178909589
 20
7.7893200939
 10
12.7334524911
 20
7.7782376786
 10
12.7496319433
 20
7.7683636291
 10
12.766433896
 20
7.7597287123
 10
12.7838626745
 20
7.7524018634
 10
12.8018945507
 20
7.7464116126
 10
12.8158064152
 20
7.7428428556
  0
LWPOLYLINE
  5
258
100
AcDbEntity
  8
0
100
AcDbPolyline
 62
7
  6
CONTINUOUS
 90
10
 70
0
 10
12.7108382629
 20
7.8571022476
 10
12.7227672624
 20
7.8437226883
 10
12.7367138721
 20
7.8299572499
 10
12.7512896281
 20
7.8173777058
 10
12.7664330482
 20
7.8059501505
 10
12.7820876086
 20
7.7956380523
 10
12.79825744
 20
7.7864708385
 10
12.8149454754
 20
7.7785150058
 10
12.8321292396
 20
7.7717998003
 10
12.8453364487
 20
7.7676214959
  0
LWPOLYLINE
  5
259
100
AcDbEntity
  8
0
100
AcDbPolyline
 62
7
  6
CONTINUOUS
 90
8
 70
0
 10
12.7616189715
 20
7.8997123215
 10
12.7733252239
 20
7.8864230765
 10
12.787117639
 20
7.8723091316
 10
12.8015879148
 20
7.859056364
 10
12.8166345192
 20
7.8467358481
 10
12.8321382052
 20
7.835405871
 10
12.8480315371
 20
7.8251684139
 10
12.8595737519
 20
7.8185900675
  0
LINE
  5
25A
100
AcDbEntity
  8
0
100
AcDbLine
 62
7
  6
CONTINUOUS
 10
13.2366250911
 20
7.1299502573
 11
12.9473706668
 21
7.4746702567
  0
LINE
  5
25B
100
AcDbEntity
  8
0
100
AcDbLine
 62
7
  6
CONTINUOUS
 10
10.5407784902
 20
10.3440499475
 11
12.6619776022
 21
7.8161032852
  0
LINE
  5
25C
100
AcDbEntity
  8
0
100
AcDbLine
 62
7
  6
CONTINUOUS
 10
13.3832923923
 20
6.9590482837
 11
13.2513959544
 21
7.1162363374
  0
LINE
  5
25D
100
AcDbEntity
  8
0
100
AcDbLine
 62
7
  6
CONTINUOUS
 10
10.555690705
 20
10.3565627814
 11
12.676889817
 21
7.8286161191
  0
LINE
  5
25E
100
AcDbEntity
  8
0
100
AcDbLine
 62
7
  6
CONTINUOUS
 10
10.589639151
 20
10.3850489099
 11
12.7108382629
 21
7.8571022476
  0
LINE
  5
25F
100
AcDbEntity
  8
0
100
AcDbLine
 62
7
  6
CONTINUOUS
 10
9.8627188811
 20
11.1644333662
 11
10.430721251
 21
10.4344579488
  0
LINE
  5
260
100
AcDbEntity
  8
0
100
AcDbLine
 62
7
  6
CONTINUOUS
 10
11.7608101703
 20
10.4120525229
 11
11.7608101703
 21
11.1321753058
  0
LINE
  5
261
100
AcDbEntity
  8
0
100
AcDbLine
 62
9
  6
CONTINUOUS
 10
11.7808101703
 20
10.3882174511
 11
11.7808101703
 21
11.1521753058
  0
LINE
  5
262
100
AcDbEntity
  8
0
100
AcDbLine
 62
9
  6
CONTINUOUS
 10
11.7868007366
 20
11.1521753058
 11
11.7868007366
 21
10.3810781722
  0
LINE
  5
263
100
AcDbEntity
  8
0
100
AcDbLine
 62
9
  6
CONTINUOUS
 10
11.8582656507
 20
11.1962202496
 11
11.8582656507
 21
10.2959096041
  0
LINE
  5
264
100
AcDbEntity
  8
0
100
AcDbLine
 62
7
  6
CONTINUOUS
 10
10.9132335384
 20
9.9001753058
 11
9.5988101703
 21
9.9001753058
  0
LINE
  5
265
100
AcDbEntity
  8
0
100
AcDbLine
 62
7
  6
CONTINUOUS
 10
8.3622638131
 20
11.5810406975
 11
8.3607409216
 21
11.5818887841
  0
LINE
  5
266
100
AcDbEntity
  8
0
100
AcDbLine
 62
7
  6
CONTINUOUS
 10
8.8947409644
 20
11.3983887746
 11
8.8945517552
 21
11.3985139411
  0
LINE
  5
267
100
AcDbEntity
  8
0
100
AcDbLine
 62
7
  6
CONTINUOUS
 10
9.0819096027
 20
11.3756383104
 11
9.0818859543
 21
11.3756541361
  0
LINE
  5
268
100
AcDbEntity
  8
0
100
AcDbLine
 62
7
  6
CONTINUOUS
 10
8.0329291056
 20
11.8619191552
 11
8.166158011
 21
11.7716719753
  0
LINE
  5
269
100
AcDbEntity
  8
0
100
AcDbLine
 62
7
  6
CONTINUOUS
 10
7.8789479593
 20
11.9952114622
 11
7.950606638
 21
11.9466709924
  0
LINE
  5
26A
100
AcDbEntity
  8
0
100
AcDbLine
 62
7
  6
CONTINUOUS
 10
7.9892790368
 20
11.9204749133
 11
8.0289909512
 21
11.8935746827
  0
LINE
  5
26B
100
AcDbEntity
  8
0
100
AcDbLine
 62
7
  6
CONTINUOUS
 10
8.8494736152
 20
11.4098506958
 11
8.8496606063
 21
11.4097205737
  0
LINE
  5
26C
100
AcDbEntity
  8
0
100
AcDbLine
 62
7
  6
CONTINUOUS
 10
9.0366139774
 20
11.3870370585
 11
9.0366374051
 21
11.3870207396
  0
LINE
  5
26D
100
AcDbEntity
  8
0
100
AcDbLine
 62
7
  6
CONTINUOUS
 10
12.9788474612
 20
7.6316231522
 11
13.0109868417
 21
7.59332093
  0
LINE
  5
26E
100
AcDbEntity
  8
0
100
AcDbLine
 62
7
  6
CONTINUOUS
 10
10.6404198596
 20
10.4276589838
 11
12.7616189715
 21
7.8997123215
  0
LINE
  5
26F
100
AcDbEntity
  8
0
100
AcDbLine
 62
7
  6
CONTINUOUS
 10
12.8269738876
 20
7.9545516074
 11
10.7057747756
 21
10.4824982697
  0
LINE
  5
270
100
AcDbEntity
  8
0
100
AcDbLine
 62
7
  6
CONTINUOUS
 10
12.9053474395
 20
8.0203148259
 11
10.7841483275
 21
10.5482614882
  0
LINE
  5
271
100
AcDbEntity
  8
0
100
AcDbLine
 62
7
  6
CONTINUOUS
 10
13.4222782473
 20
7.4554346997
 11
13.2165862122
 21
7.7005689215
  0
LINE
  5
272
100
AcDbEntity
  8
0
100
AcDbLine
 62
7
  6
CONTINUOUS
 10
12.9919738505
 20
8.0930030155
 11
10.8707747386
 21
10.6209496777
  0
LINE
  5
273
100
AcDbEntity
  8
0
100
AcDbLine
 62
9
  6
CONTINUOUS
 10
12.0275037171
 20
11.2063062988
 11
12.0275037171
 21
10.0942195304
  0
LINE
  5
274
100
AcDbEntity
  8
0
100
AcDbLine
 62
9
  6
CONTINUOUS
 10
12.197597674
 20
11.0656511688
 11
12.197597674
 21
9.9346994428
  0
LINE
  5
275
100
AcDbEntity
  8
0
100
AcDbLine
 62
9
  6
CONTINUOUS
 10
11.7608101703
 20
10.5001753058
 11
11.6868663758
 21
10.5001753058
  0
LINE
  5
276
100
AcDbEntity
  8
0
100
AcDbLine
 62
7
  6
CONTINUOUS
 10
8.7390238859
 20
11.4124043876
 11
8.7406709099
 21
11.4118336327
  0
LINE
  5
277
100
AcDbEntity
  8
0
100
AcDbLine
 62
7
  6
CONTINUOUS
 10
8.3622638131
 20
11.5810406975
 11
8.7390238859
 21
11.4124043876
  0
LINE
  5
278
100
AcDbEntity
  8
0
100
AcDbLine
 62
9
  6
CONTINUOUS
 10
8.7406709099
 20
11.4118336327
 11
8.3607409216
 21
11.5818887841
  0
LINE
  5
279
100
AcDbEntity
  8
0
100
AcDbLine
 62
9
  6
CONTINUOUS
 10
8.7885415122
 20
11.3997977327
 11
8.3198737901
 21
11.6095715408
  0
LINE
  5
27A
100
AcDbEntity
  8
0
100
AcDbLine
 62
9
  6
CONTINUOUS
 10
8.8001072876
 20
11.4054105041
 11
8.3163546651
 21
11.6219362536
  0
LINE
  5
27B
100
AcDbEntity
  8
0
100
AcDbLine
 62
9
  6
CONTINUOUS
 10
8.3194547607
 20
11.6288623554
 11
8.8032073832
 21
11.4123366059
  0
LINE
  5
27C
100
AcDbEntity
  8
0
100
AcDbLine
 62
9
  6
CONTINUOUS
 10
8.3159356357
 20
11.6412270682
 11
8.8147731587
 21
11.4179493773
  0
LINE
  5
27D
100
AcDbEntity
  8
0
100
AcDbLine
 62
9
  6
CONTINUOUS
 10
8.9856053905
 20
11.3749977628
 11
8.1700961654
 21
11.7400164478
  0
LINE
  5
27E
100
AcDbEntity
  8
0
100
AcDbLine
 62
9
  6
CONTINUOUS
 10
8.9971711659
 20
11.3806105342
 11
8.1665770404
 21
11.7523811607
  0
LINE
  5
27F
100
AcDbEntity
  8
0
100
AcDbLine
 62
9
  6
CONTINUOUS
 10
8.169677136
 20
11.7593072624
 11
9.0002712615
 21
11.387536636
  0
LINE
  5
280
100
AcDbEntity
  8
0
100
AcDbLine
 62
9
  6
CONTINUOUS
 10
8.166158011
 20
11.7716719753
 11
9.011837037
 21
11.3931494074
  0
LINE
  5
281
100
AcDbEntity
  8
0
100
AcDbLine
 62
9
  6
CONTINUOUS
 10
9.1678976097
 20
11.3539117677
 11
8.0329291056
 21
11.8619191552
  0
LINE
  5
282
100
AcDbEntity
  8
0
100
AcDbLine
 62
9
  6
CONTINUOUS
 10
9.1794633851
 20
11.3595245391
 11
8.0294099806
 21
11.8742838681
  0
LINE
  5
283
100
AcDbEntity
  8
0
100
AcDbLine
 62
9
  6
CONTINUOUS
 10
8.0325100762
 20
11.8812099698
 11
9.1825634807
 21
11.3664506409
  0
LINE
  5
284
100
AcDbEntity
  8
0
100
AcDbLine
 62
9
  6
CONTINUOUS
 10
8.0289909512
 20
11.8935746827
 11
9.1941292562
 21
11.3720634123
  0
LINE
  5
285
100
AcDbEntity
  8
0
100
AcDbLine
 62
9
  6
CONTINUOUS
 10
9.3698853743
 20
11.3278738062
 11
7.8789479593
 21
11.9952114622
  0
LINE
  5
286
100
AcDbEntity
  8
0
100
AcDbLine
 62
9
  6
CONTINUOUS
 10
9.3814511498
 20
11.3334865776
 11
7.8754288343
 21
12.0075761751
  0
LINE
  5
287
100
AcDbEntity
  8
0
100
AcDbLine
 62
9
  6
CONTINUOUS
 10
7.8776209438
 20
12.0124736928
 11
9.3836432592
 21
11.3383840953
  0
LINE
  5
288
100
AcDbEntity
  8
0
100
AcDbLine
 62
7
  6
CONTINUOUS
 10
7.8027542563
 20
12.0569397372
 11
9.4666807297
 21
11.3121728668
  0
LINE
  5
289
100
AcDbEntity
  8
0
100
AcDbLine
 62
7
  6
CONTINUOUS
 10
7.7514012999
 20
12.0854031227
 11
9.5221195307
 21
11.2928366865
  0
LWPOLYLINE
  5
28A
100
AcDbEntity
  8
0
100
AcDbPolyline
 62
7
  6
CONTINUOUS
 90
9
 70
0
 10
11.1905658317
 20
10.889286266
 10
11.1800053316
 20
10.9013263056
 10
11.1673539735
 20
10.9144421585
 10
11.1541465185
 20
10.9268123198
 10
11.1404675568
 20
10.9383880574
 10
11.1264091847
 20
10.9491318353
 10
11.1120237316
 20
10.9589668463
 10
11.0973619533
 20
10.9678088865
 10
11.0926455938
 20
10.9704082069
  0
LINE
  5
28B
100
AcDbEntity
  8
0
100
AcDbLine
 62
7
  6
CONTINUOUS
 10
13.0814100647
 20
8.1680489098
 11
10.9602109527
 21
10.6959955721
  0
LINE
  5
28C
100
AcDbEntity
  8
0
100
AcDbLine
 62
7
  6
CONTINUOUS
 10
13.6345707107
 20
7.6335692275
 11
13.4288786756
 21
7.8787034493
  0
LINE
  5
28D
100
AcDbEntity
  8
0
100
AcDbLine
 62
7
  6
CONTINUOUS
 10
13.1680364757
 20
8.2407370993
 11
11.0468373637
 21
10.7686837616
  0
LINE
  5
28E
100
AcDbEntity
  8
0
100
AcDbLine
 62
7
  6
CONTINUOUS
 10
13.2464100276
 20
8.3065003178
 11
11.1252109156
 21
10.8344469801
  0
LINE
  5
28F
100
AcDbEntity
  8
0
100
AcDbLine
 62
7
  6
CONTINUOUS
 10
13.3117649437
 20
8.3613396038
 11
11.1905658317
 21
10.889286266
  0
LINE
  5
290
100
AcDbEntity
  8
0
100
AcDbLine
 62
7
  6
CONTINUOUS
 10
13.5380599047
 20
8.1008581073
 11
13.5701992852
 21
8.0625558851
  0
LINE
  5
291
100
AcDbEntity
  8
0
100
AcDbLine
 62
7
  6
CONTINUOUS
 10
13.5817447449
 20
8.0524369344
 11
13.5728531634
 21
8.0630335087
  0
LINE
  5
292
100
AcDbEntity
  8
0
100
AcDbLine
 62
7
  6
CONTINUOUS
 10
12.4588101703
 20
5.3815952972
 11
12.4588101703
 21
5.5207866813
  0
LINE
  5
293
100
AcDbEntity
  8
0
100
AcDbLine
 62
7
  6
CONTINUOUS
 10
12.5338101703
 20
5.3765952972
 11
12.5338101703
 21
5.6879196411
  0
LINE
  5
294
100
AcDbEntity
  8
0
100
AcDbLine
 62
9
  6
CONTINUOUS
 10
12.5742130831
 20
11.0112014827
 11
12.5742130831
 21
9.9891491288
  0
LINE
  5
295
100
AcDbEntity
  8
0
100
AcDbLine
 62
9
  6
CONTINUOUS
 10
12.71631352
 20
11.0273538455
 11
12.71631352
 21
9.9729967661
  0
LINE
  5
296
100
AcDbEntity
  8
0
100
AcDbLine
 62
7
  6
CONTINUOUS
 10
8.7885415122
 20
11.3997977327
 11
8.7406709099
 21
11.4118336327
  0
LINE
  5
297
100
AcDbEntity
  8
0
100
AcDbLine
 62
7
  6
CONTINUOUS
 10
8.9856053905
 20
11.3749977628
 11
8.8147731587
 21
11.4179493773
  0
LINE
  5
298
100
AcDbEntity
  8
0
100
AcDbLine
 62
7
  6
CONTINUOUS
 10
9.1678976097
 20
11.3539117677
 11
9.0818843121
 21
11.3755377218
  0
LINE
  5
299
100
AcDbEntity
  8
0
100
AcDbLine
 62
7
  6
CONTINUOUS
 10
9.0365862598
 20
11.3869268166
 11
9.011837037
 21
11.3931494074
  0
LINE
  5
29A
100
AcDbEntity
  8
0
100
AcDbLine
 62
7
  6
CONTINUOUS
 10
9.3698853743
 20
11.3278738062
 11
9.2859464243
 21
11.348978216
  0
LINE
  5
29B
100
AcDbEntity
  8
0
100
AcDbLine
 62
7
  6
CONTINUOUS
 10
9.2406466698
 20
11.3603677387
 11
9.1941292562
 21
11.3720634123
  0
LINE
  5
29C
100
AcDbEntity
  8
0
100
AcDbLine
 62
7
  6
CONTINUOUS
 10
11.0926455938
 20
10.9704082069
 11
11.078116432
 21
10.9776870367
  0
LWPOLYLINE
  5
29D
100
AcDbEntity
  8
0
100
AcDbPolyline
 62
7
  6
CONTINUOUS
 90
3
 70
0
 10
10.4641607334
 20
11.6691030021
 10
10.3683592862
 20
11.7416141043
 10
9.9555107378
 20
12.0539427269
  0
LINE
  5
29E
100
AcDbEntity
  8
0
100
AcDbLine
 62
7
  6
CONTINUOUS
 10
10.464160733
 20
11.6691030023
 11
11.220284036
 21
11.0969796418
  0
LINE
  5
29F
100
AcDbEntity
  8
0
100
AcDbLine
 62
7
  6
CONTINUOUS
 10
9.9653481533
 20
12.0465312978
 11
9.9653440336
 21
12.0465345548
  0
LWPOLYLINE
  5
2A0
100
AcDbEntity
  8
0
100
AcDbPolyline
 62
7
  6
CONTINUOUS
 90
9
 70
0
 10
11.290207201
 20
10.9728953023
 10
11.2789489263
 20
10.9854316356
 10
11.2651609361
 20
10.9987158607
 10
11.2503857352
 20
11.0109128359
 10
11.2347296748
 20
11.0219702932
 10
11.2183067612
 20
11.0318422832
 10
11.2011615324
 20
11.0404185403
 10
11.183359946
 20
11.0476045227
 10
11.1674887714
 20
11.0526793338
  0
LWPOLYLINE
  5
2A1
100
AcDbEntity
  8
0
100
AcDbPolyline
 62
7
  6
CONTINUOUS
 90
9
 70
0
 10
11.2752949862
 20
10.9603824684
 10
11.2640539565
 20
10.9729390386
 10
11.2503358035
 20
10.9862859846
 10
11.2356831867
 20
10.9985882458
 10
11.2202012026
 20
11.0097924807
 10
11.2040023174
 20
11.0198513774
 10
11.1871321135
 20
11.0286556971
 10
11.1696566868
 20
11.0361112874
 10
11.1541085639
 20
11.0414520066
  0
LWPOLYLINE
  5
2A2
100
AcDbEntity
  8
0
100
AcDbPolyline
 62
7
  6
CONTINUOUS
 90
9
 70
0
 10
11.2413465403
 20
10.9318963399
 10
11.2301593344
 20
10.9444843096
 10
11.2166131707
 20
10.9579662326
 10
11.2022500694
 20
10.9705063036
 10
11.1871714434
 20
10.9820476685
 10
11.1714855987
 20
10.9925389922
 10
11.1552395293
 20
11.0018724572
 10
11.1384984186
 20
11.0099534269
 10
11.1236696899
 20
11.0159107586
  0
LINE
  5
2A3
100
AcDbEntity
  8
0
100
AcDbLine
 62
7
  6
CONTINUOUS
 10
13.3625456523
 20
8.4039496776
 11
11.2413465403
 21
10.9318963399
  0
LINE
  5
2A4
100
AcDbEntity
  8
0
100
AcDbLine
 62
7
  6
CONTINUOUS
 10
13.3964940982
 20
8.4324358061
 11
11.2752949862
 21
10.9603824684
  0
LINE
  5
2A5
100
AcDbEntity
  8
0
100
AcDbLine
 62
7
  6
CONTINUOUS
 10
14.1301857244
 20
7.5857662032
 11
13.9982892865
 21
7.7429542569
  0
LINE
  5
2A6
100
AcDbEntity
  8
0
100
AcDbLine
 62
7
  6
CONTINUOUS
 10
13.411406313
 20
8.44494864
 11
11.290207201
 21
10.9728953023
  0
LINE
  5
2A7
100
AcDbEntity
  8
0
100
AcDbLine
 62
7
  6
CONTINUOUS
 10
13.9873486454
 20
7.7598821148
 11
13.698094221
 21
8.1046021142
  0
LINE
  5
2A8
100
AcDbEntity
  8
0
100
AcDbLine
 62
7
  6
CONTINUOUS
 10
12.8388101703
 20
5.9976247907
 11
12.8388101703
 21
6.1915952972
  0
LINE
  5
2A9
100
AcDbEntity
  8
0
100
AcDbLine
 62
9
  6
CONTINUOUS
 10
12.8969154168
 20
11.1695212591
 11
12.8969154168
 21
9.8308293525
  0
LINE
  5
2AA
100
AcDbEntity
  8
0
100
AcDbLine
 62
7
  6
CONTINUOUS
 10
12.9188101703
 20
6.2615952972
 11
12.9188101703
 21
6.3715952972
  0
LINE
  5
2AB
100
AcDbEntity
  8
0
100
AcDbLine
 62
9
  6
CONTINUOUS
 10
12.9438101703
 20
9.7981753058
 11
12.9438101703
 21
11.2021753058
  0
LINE
  5
2AC
100
AcDbEntity
  8
0
100
AcDbLine
 62
7
  6
CONTINUOUS
 10
12.9788101703
 20
9.5397618354
 11
12.9788101703
 21
9.5830554375
  0
LINE
  5
2AD
100
AcDbEntity
  8
0
100
AcDbLine
 62
9
  6
CONTINUOUS
 10
13.0588101703
 20
9.7981753058
 11
13.0588101703
 21
11.2021753058
  0
LINE
  5
2AE
100
AcDbEntity
  8
0
100
AcDbLine
 62
7
  6
CONTINUOUS
 10
13.1088101703
 20
11.1574423748
 11
13.1088101703
 21
9.8429082368
  0
LINE
  5
2AF
100
AcDbEntity
  8
0
100
AcDbLine
 62
9
  6
CONTINUOUS
 10
13.1135160527
 20
11.1703299644
 11
13.1135160527
 21
9.8300206472
  0
LINE
  5
2B0
100
AcDbEntity
  8
0
100
AcDbLine
 62
9
  6
CONTINUOUS
 10
12.6619776022
 20
7.8161032852
 11
13.411406313
 21
8.44494864
  0
LINE
  5
2B1
100
AcDbEntity
  8
0
100
AcDbLine
 62
7
  6
CONTINUOUS
 10
12.7762831488
 20
7.7096788974
 11
13.4963649254
 21
8.3138992505
  0
LINE
  5
2B2
100
AcDbEntity
  8
0
100
AcDbLine
 62
7
  6
CONTINUOUS
 10
11.7608101703
 20
11.1001753058
 11
11.2160606182
 21
11.1001753058
  0
LINE
  5
2B3
100
AcDbEntity
  8
0
100
AcDbLine
 62
7
  6
CONTINUOUS
 10
9.912718826
 20
11.1001753058
 11
9.7908101703
 21
11.1001753058
  0
LINE
  5
2B4
100
AcDbEntity
  8
0
100
AcDbLine
 62
7
  6
CONTINUOUS
 10
11.7868007366
 20
11.1521753058
 11
11.7808101703
 21
11.1521753058
  0
LINE
  5
2B5
100
AcDbEntity
  8
0
100
AcDbLine
 62
7
  6
CONTINUOUS
 10
13.0588101703
 20
11.2021753058
 11
12.9438101703
 21
11.2021753058
  0
LINE
  5
2B6
100
AcDbEntity
  8
0
100
AcDbLine
 62
9
  6
CONTINUOUS
 10
14.4216827555
 20
11.404919309
 11
13.3959375851
 21
11.404919309
  0
LWPOLYLINE
  5
2B7
100
AcDbEntity
  8
0
100
AcDbPolyline
 62
7
  6
CONTINUOUS
 90
4
 70
0
 10
9.5469801733
 20
11.288705176
 10
9.5827109235
 20
11.2865984679
 10
9.6189537717
 20
11.2844032857
 10
9.649004399
 20
11.2825310841
  0
LWPOLYLINE
  5
2B8
100
AcDbEntity
  8
0
100
AcDbPolyline
 62
7
  6
CONTINUOUS
 90
12
 70
0
 10
9.6490067919
 20
11.2825309329
 10
9.6598165048
 20
11.2815988901
 10
9.6736779743
 20
11.2796977385
 10
9.6882541694
 20
11.2768708802
 10
9.7034800742
 20
11.2730249461
 10
9.7193098811
 20
11.2680526358
 10
9.7356838647
 20
11.2618357962
 10
9.7525387826
 20
11.2542383243
 10
9.7698032697
 20
11.2451015562
 10
9.7872368031
 20
11.2343626516
 10
9.8044587766
 20
11.2221067746
 10
9.8212632913
 20
11.2083549627
  0
LWPOLYLINE
  5
2B9
100
AcDbEntity
  8
0
100
AcDbPolyline
 62
7
  6
CONTINUOUS
 90
8
 70
0
 10
13.3746450243
 20
8.2507864709
 10
13.3697043013
 20
8.2645035824
 10
13.3624037465
 20
8.2816964292
 10
13.353989839
 20
8.2987066595
 10
13.344543427
 20
8.3154506433
 10
13.3340971185
 20
8.3318048353
 10
13.3227003074
 20
8.3476603236
 10
13.3117649437
 20
8.3613396038
  0
LWPOLYLINE
  5
2BA
100
AcDbEntity
  8
0
100
AcDbPolyline
 62
7
  6
CONTINUOUS
 90
10
 70
0
 10
13.456841659
 20
8.2807352922
 10
13.4557428894
 20
8.2950555124
 10
13.4529748464
 20
8.3138536401
 10
13.4487857843
 20
8.3322899301
 10
13.4431996798
 20
8.3503360611
 10
13.4362851718
 20
8.3679843217
 10
13.4280733549
 20
8.3852338805
 10
13.4185125764
 20
8.4020302267
 10
13.407552368
 20
8.4183127387
 10
13.3964940982
 20
8.4324358061
  0
LWPOLYLINE
  5
2BB
100
AcDbEntity
  8
0
100
AcDbPolyline
 62
7
  6
CONTINUOUS
 90
10
 70
0
 10
13.4698787167
 20
8.2916746826
 10
13.4690402808
 20
8.3062170394
 10
13.4666460851
 20
8.325333014
 10
13.4627807858
 20
8.344045444
 10
13.4574686417
 20
8.3623255149
 10
13.4507801631
 20
8.380166059
 10
13.4427475519
 20
8.3975663937
 10
13.4333172835
 20
8.4144697264
 10
13.4224369164
 20
8.4308130011
 10
13.411406313
 20
8.44494864
  0
LINE
  5
2BC
100
AcDbEntity
  8
0
100
AcDbLine
 62
7
  6
CONTINUOUS
 10
13.3588101703
 20
12.0715952972
 11
13.3588101703
 21
12.1615952972
  0
LINE
  5
2BD
100
AcDbEntity
  8
0
100
AcDbLine
 62
7
  6
CONTINUOUS
 10
13.3613101703
 20
6.7117667286
 11
13.3613101703
 21
6.1795952972
  0
LINE
  5
2BE
100
AcDbEntity
  8
0
100
AcDbLine
 62
7
  6
CONTINUOUS
 10
13.3688101703
 20
11.5015952972
 11
13.3688101703
 21
11.6215952972
  0
LINE
  5
2BF
100
AcDbEntity
  8
0
100
AcDbLine
 62
7
  6
CONTINUOUS
 10
13.0102207972
 20
7.5926781424
 11
13.0075794911
 21
7.5624878749
  0
LINE
  5
2C0
100
AcDbEntity
  8
0
100
AcDbLine
 62
7
  6
CONTINUOUS
 10
12.9788474612
 20
7.6316231522
 11
13.5380599047
 21
8.1008581073
  0
LINE
  5
2C1
100
AcDbEntity
  8
0
100
AcDbLine
 62
7
  6
CONTINUOUS
 10
13.0102212442
 20
7.5926785175
 11
13.5709648827
 21
8.0631982977
  0
LINE
  5
2C2
100
AcDbEntity
  8
0
100
AcDbLine
 62
7
  6
CONTINUOUS
 10
13.5553812185
 20
8.0483728063
 11
13.5728531634
 21
8.0630335087
  0
LINE
  5
2C3
100
AcDbEntity
  8
0
100
AcDbLine
 62
7
  6
CONTINUOUS
 10
13.66991758
 20
8.1070672508
 11
12.9498358034
 21
7.5028468977
  0
LINE
  5
2C4
100
AcDbEntity
  8
0
100
AcDbLine
 62
9
  6
CONTINUOUS
 10
13.698094221
 20
8.1046021142
 11
13.4288786756
 21
7.8787034493
  0
LINE
  5
2C5
100
AcDbEntity
  8
0
100
AcDbLine
 62
9
  6
CONTINUOUS
 10
13.2165862122
 20
7.7005689215
 11
12.9473706668
 21
7.4746702567
  0
LINE
  5
2C6
100
AcDbEntity
  8
0
100
AcDbLine
 62
9
  6
CONTINUOUS
 10
14.422352037
 20
11.457484295
 11
13.3952683036
 21
11.457484295
  0
LINE
  5
2C7
100
AcDbEntity
  8
0
100
AcDbLine
 62
9
  6
CONTINUOUS
 10
13.3688101703
 20
11.5015952972
 11
14.4488101703
 21
11.5015952972
  0
LINE
  5
2C8
100
AcDbEntity
  8
0
100
AcDbLine
 62
9
  6
CONTINUOUS
 10
13.3688101703
 20
11.6215952972
 11
14.4488101703
 21
11.6215952972
  0
LINE
  5
2C9
100
AcDbEntity
  8
0
100
AcDbLine
 62
7
  6
CONTINUOUS
 10
13.4188101703
 20
11.6715952972
 11
14.3988101703
 21
11.6715952972
  0
LINE
  5
2CA
100
AcDbEntity
  8
0
100
AcDbLine
 62
7
  6
CONTINUOUS
 10
14.1538101703
 20
11.8015952972
 11
13.6638101703
 21
11.8015952972
  0
LINE
  5
2CB
100
AcDbEntity
  8
0
100
AcDbLine
 62
7
  6
CONTINUOUS
 10
14.8062440837
 20
9.6422052653
 11
14.703967315
 21
9.7069327522
  0
LWPOLYLINE
  5
2CC
100
AcDbEntity
  8
0
100
AcDbPolyline
 62
7
  6
CONTINUOUS
 90
10
 70
0
 10
13.4273116255
 20
8.255956652
 10
13.4254902067
 20
8.2696887689
 10
13.4218609495
 20
8.2877775563
 10
13.4169238308
 20
8.3055935787
 10
13.4107037493
 20
8.3231096241
 10
13.4032667009
 20
8.3403170336
 10
13.3946423832
 20
8.3572147653
 10
13.3847850041
 20
8.3737534978
 10
13.373650497
 20
8.3898785704
 10
13.3625456523
 20
8.4039496776
  0
LINE
  5
2CD
100
AcDbEntity
  8
0
100
AcDbLine
 62
7
  6
CONTINUOUS
 10
13.6638101703
 20
11.6715952972
 11
13.6638101703
 21
11.8015952972
  0
LINE
  5
2CE
100
AcDbEntity
  8
0
100
AcDbLine
 62
9
  6
CONTINUOUS
 10
13.6753421221
 20
6.588884619
 11
13.6753421221
 21
6.1795952972
  0
LINE
  5
2CF
100
AcDbEntity
  8
0
100
AcDbLine
 62
9
  6
CONTINUOUS
 10
13.6966634051
 20
6.588884619
 11
13.6966634051
 21
6.1795952972
  0
LINE
  5
2D0
100
AcDbEntity
  8
0
100
AcDbLine
 62
7
  6
CONTINUOUS
 10
13.4222782473
 20
7.4554346997
 11
13.6345707107
 21
7.6335692275
  0
LINE
  5
2D1
100
AcDbEntity
  8
0
100
AcDbLine
 62
9
  6
CONTINUOUS
 10
13.9873486454
 20
7.7598821148
 11
13.2366250911
 21
7.1299502573
  0
LINE
  5
2D2
100
AcDbEntity
  8
0
100
AcDbLine
 62
7
  6
CONTINUOUS
 10
13.2513959544
 20
7.1162363374
 11
13.9982892865
 21
7.7429542569
  0
LINE
  5
2D3
100
AcDbEntity
  8
0
100
AcDbLine
 62
7
  6
CONTINUOUS
 10
13.3788101703
 20
12.0515952972
 11
14.4388101703
 21
12.0515952972
  0
LINE
  5
2D4
100
AcDbEntity
  8
0
100
AcDbLine
 62
9
  6
CONTINUOUS
 10
13.3588101703
 20
12.0715952972
 11
14.4588101703
 21
12.0715952972
  0
LINE
  5
2D5
100
AcDbEntity
  8
0
100
AcDbLine
 62
9
  6
CONTINUOUS
 10
13.3588101703
 20
12.1615952972
 11
14.4588101703
 21
12.1615952972
  0
LINE
  5
2D6
100
AcDbEntity
  8
0
100
AcDbLine
 62
7
  6
CONTINUOUS
 10
13.3788101703
 20
12.1815952972
 11
14.4388101703
 21
12.1815952972
  0
LINE
  5
2D7
100
AcDbEntity
  8
0
100
AcDbLine
 62
7
  6
CONTINUOUS
 10
8.7100484632
 20
12.5986579529
 11
8.6809996487
 21
12.6038251213
  0
LINE
  5
2D8
100
AcDbEntity
  8
0
100
AcDbLine
 62
7
  6
CONTINUOUS
 10
8.7014471659
 20
12.6002088298
 11
8.6947743668
 21
12.6014119844
  0
LINE
  5
2D9
100
AcDbEntity
  8
0
100
AcDbLine
 62
7
  6
CONTINUOUS
 10
8.7042574813
 20
12.5997118052
 11
8.7100484632
 21
12.5986579529
  0
LINE
  5
2DA
100
AcDbEntity
  8
0
100
AcDbLine
 62
7
  6
CONTINUOUS
 10
8.8114921955
 20
12.5782613063
 11
8.8150437484
 21
12.5774803303
  0
LINE
  5
2DB
100
AcDbEntity
  8
0
100
AcDbLine
 62
7
  6
CONTINUOUS
 10
8.9080619446
 20
12.555388667
 11
8.8114921955
 21
12.5782613063
  0
LINE
  5
2DC
100
AcDbEntity
  8
0
100
AcDbLine
 62
7
  6
CONTINUOUS
 10
8.8727184295
 20
12.5637598131
 11
8.8150437484
 21
12.5774803303
  0
LINE
  5
2DD
100
AcDbEntity
  8
0
100
AcDbLine
 62
7
  6
CONTINUOUS
 10
9.0117063693
 20
12.5269873806
 11
8.9080619446
 21
12.555388667
  0
LINE
  5
2DE
100
AcDbEntity
  8
0
100
AcDbLine
 62
9
  6
CONTINUOUS
 10
14.1209569356
 20
6.1795952972
 11
14.1209569356
 21
6.588884619
  0
LINE
  5
2DF
100
AcDbEntity
  8
0
100
AcDbLine
 62
9
  6
CONTINUOUS
 10
14.1422782185
 20
6.1795952972
 11
14.1422782185
 21
6.5888846191
  0
LINE
  5
2E0
100
AcDbEntity
  8
0
100
AcDbLine
 62
7
  6
CONTINUOUS
 10
14.1538101703
 20
11.6715952972
 11
14.1538101703
 21
11.8015952972
  0
LINE
  5
2E1
100
AcDbEntity
  8
0
100
AcDbLine
 62
7
  6
CONTINUOUS
 10
14.1673101703
 20
7.7941374056
 11
14.1673101703
 21
7.6315952972
  0
LINE
  5
2E2
100
AcDbEntity
  8
0
100
AcDbLine
 62
7
  6
CONTINUOUS
 10
14.2388101703
 20
7.5515952972
 11
14.2388101703
 21
7.6215952972
  0
LINE
  5
2E3
100
AcDbEntity
  8
0
100
AcDbLine
 62
9
  6
CONTINUOUS
 10
13.3832923923
 20
6.9590482837
 11
14.1301857244
 21
7.5857662032
  0
LINE
  5
2E4
100
AcDbEntity
  8
0
100
AcDbLine
 62
7
  6
CONTINUOUS
 10
8.343608447
 20
12.6424005708
 11
8.3181012206
 21
12.6431904962
  0
LINE
  5
2E5
100
AcDbEntity
  8
0
100
AcDbLine
 62
7
  6
CONTINUOUS
 10
14.3588101703
 20
7.4715952972
 11
14.3588101703
 21
7.5415952972
  0
LINE
  5
2E6
100
AcDbEntity
  8
0
100
AcDbLine
 62
7
  6
CONTINUOUS
 10
14.4488101703
 20
11.5015952972
 11
14.4488101703
 21
11.6215952972
  0
LINE
  5
2E7
100
AcDbEntity
  8
0
100
AcDbLine
 62
7
  6
CONTINUOUS
 10
14.4563101703
 20
6.7117667286
 11
14.4563101703
 21
6.1795952972
  0
LINE
  5
2E8
100
AcDbEntity
  8
0
100
AcDbLine
 62
7
  6
CONTINUOUS
 10
14.4588101703
 20
12.0715952972
 11
14.4588101703
 21
12.1615952972
  0
LINE
  5
2E9
100
AcDbEntity
  8
0
100
AcDbLine
 62
7
  6
CONTINUOUS
 10
12.5170182498
 20
5.6576475218
 11
12.5338101703
 21
5.6738175194
  0
LINE
  5
2EA
100
AcDbEntity
  8
0
100
AcDbLine
 62
7
  6
CONTINUOUS
 10
8.268245845
 20
12.6409711014
 11
8.2682497755
 21
12.6409714729
  0
LINE
  5
2EB
100
AcDbEntity
  8
0
100
AcDbLine
 62
7
  6
CONTINUOUS
 10
8.2914156512
 20
12.6426231551
 11
8.2682497755
 21
12.6409714729
  0
LINE
  5
2EC
100
AcDbEntity
  8
0
100
AcDbLine
 62
7
  6
CONTINUOUS
 10
8.3181012206
 20
12.6431904962
 11
8.2914156512
 21
12.6426231551
  0
LINE
  5
2ED
100
AcDbEntity
  8
0
100
AcDbLine
 62
7
  6
CONTINUOUS
 10
14.8388101703
 20
9.5397618354
 11
14.8388101703
 21
9.5830554375
  0
LINE
  5
2EE
100
AcDbEntity
  8
0
100
AcDbLine
 62
7
  6
CONTINUOUS
 10
14.8988101703
 20
6.2615952972
 11
14.8988101703
 21
6.3715952972
  0
LINE
  5
2EF
100
AcDbEntity
  8
0
100
AcDbLine
 62
7
  6
CONTINUOUS
 10
14.9788101703
 20
5.9976247907
 11
14.9788101703
 21
6.1915952972
  0
LINE
  5
2F0
100
AcDbEntity
  8
0
100
AcDbLine
 62
7
  6
CONTINUOUS
 10
15.2838101703
 20
5.3765952972
 11
15.2838101703
 21
5.6879196411
  0
LINE
  5
2F1
100
AcDbEntity
  8
0
100
AcDbLine
 62
7
  6
CONTINUOUS
 10
15.3588101703
 20
5.3815952972
 11
15.3588101703
 21
5.5207866813
  0
ARC
  5
2F2
100
AcDbEntity
  8
0
100
AcDbCircle
 62
7
  6
CONTINUOUS
 10
10.6575120424
 20
-7.5061718777
 40
17.6
100
AcDbArc
 50
83.282310868
 51
83.7478908139
  0
ARC
  5
2F3
100
AcDbEntity
  8
0
100
AcDbCircle
 62
7
  6
CONTINUOUS
 10
9.7927085262
 20
5.5931561477
 40
5.5072181817
100
AcDbArc
 50
97.930128624
 51
112.3374523783
  0
ARC
  5
2F4
100
AcDbEntity
  8
0
100
AcDbCircle
 62
7
  6
CONTINUOUS
 10
9.7909614791
 20
5.5979897359
 40
5.502185572
100
AcDbArc
 50
90.0015756204
 51
97.9190543927
  0
ARC
  5
2F5
100
AcDbEntity
  8
0
100
AcDbCircle
 62
7
  6
CONTINUOUS
 10
9.5993028617
 20
4.6184504514
 40
5.2817267986
100
AcDbArc
 50
90.005344681
 51
101.9008337548
  0
ARC
  5
2F6
100
AcDbEntity
  8
0
100
AcDbCircle
 62
7
  6
CONTINUOUS
 10
9.5988101703
 20
4.6231753058
 40
5.277
100
AcDbArc
 50
101.9061784358
 51
108.9079827008
  0
ARC
  5
2F7
100
AcDbEntity
  8
0
100
AcDbCircle
 62
7
  6
CONTINUOUS
 10
5.6100414915
 20
8.4496196649
 40
4.2080411584
100
AcDbArc
 50
55.5697412961
 51
56.2057327159
  0
ARC
  5
2F8
100
AcDbEntity
  8
0
100
AcDbCircle
 62
7
  6
CONTINUOUS
 10
8.2371776929
 20
7.2737239941
 40
4.2080411146
100
AcDbArc
 50
75.5680679832
 51
76.2040594096
  0
ARC
  5
2F9
100
AcDbEntity
  8
0
100
AcDbCircle
 62
7
  6
CONTINUOUS
 10
9.8506056322
 20
8.055673951
 40
3.5
100
AcDbArc
 50
331.2384607781
 51
344.8394443233
  0
ARC
  5
2FA
100
AcDbEntity
  8
0
100
AcDbCircle
 62
7
  6
CONTINUOUS
 10
9.8506056322
 20
8.055673951
 40
3.5
100
AcDbArc
 50
8.3221794699
 51
21.3578798407
  0
ARC
  5
2FB
100
AcDbEntity
  8
0
100
AcDbCircle
 62
9
  6
CONTINUOUS
 10
9.3133612476
 20
7.4784313075
 40
3.0882421312
100
AcDbArc
 50
139.5888094204
 51
142.1403893844
  0
ARC
  5
2FC
100
AcDbEntity
  8
0
100
AcDbCircle
 62
7
  6
CONTINUOUS
 10
8.1751150986
 20
9.6756033871
 40
2.9715991827
100
AcDbArc
 50
79.7978653094
 51
80.1982362297
  0
ARC
  5
2FD
100
AcDbEntity
  8
0
100
AcDbCircle
 62
7
  6
CONTINUOUS
 10
8.1752914399
 20
9.6765513613
 40
2.97063495
100
AcDbArc
 50
77.6335599146
 51
79.629402313
  0
ARC
  5
2FE
100
AcDbEntity
  8
0
100
AcDbCircle
 62
7
  6
CONTINUOUS
 10
8.1762067521
 20
9.6807447447
 40
2.9663428259
100
AcDbArc
 50
75.7736309087
 51
77.5632445217
  0
ARC
  5
2FF
100
AcDbEntity
  8
0
100
AcDbCircle
 62
7
  6
CONTINUOUS
 10
8.1759452077
 20
9.6812284543
 40
2.9659149121
100
AcDbArc
 50
80.1955390642
 51
86.7593406943
  0
ARC
  5
300
100
AcDbEntity
  8
0
100
AcDbCircle
 62
7
  6
CONTINUOUS
 10
8.1760212174
 20
9.6816819697
 40
2.9655035674
100
AcDbArc
 50
56.0171864141
 51
60.5094916604
  0
ARC
  5
301
100
AcDbEntity
  8
0
100
AcDbCircle
 62
7
  6
CONTINUOUS
 10
8.17610995
 20
9.6818490848
 40
2.9653153981
100
AcDbArc
 50
53.125057472
 51
56.0168032494
  0
ARC
  5
302
100
AcDbEntity
  8
0
100
AcDbCircle
 62
7
  6
CONTINUOUS
 10
8.176167514
 20
9.6819076353
 40
2.9652351209
100
AcDbArc
 50
60.5098056784
 51
61.913069333
  0
ARC
  5
303
100
AcDbEntity
  8
0
100
AcDbCircle
 62
7
  6
CONTINUOUS
 10
8.1762210525
 20
9.6820050677
 40
2.9651239562
100
AcDbArc
 50
61.913100391
 51
73.6326578193
  0
ARC
  5
304
100
AcDbEntity
  8
0
100
AcDbCircle
 62
7
  6
CONTINUOUS
 10
8.1765676681
 20
9.6824629687
 40
2.9645496604
100
AcDbArc
 50
52.8869027367
 51
53.1249497672
  0
ARC
  5
305
100
AcDbEntity
  8
0
100
AcDbCircle
 62
7
  6
CONTINUOUS
 10
8.1780645509
 20
9.6881044022
 40
2.9587523112
100
AcDbArc
 50
73.6336268371
 51
75.7734791421
  0
ARC
  5
306
100
AcDbEntity
  8
0
100
AcDbCircle
 62
7
  6
CONTINUOUS
 10
8.6536544901
 20
8.3718931984
 40
2.5045387572
100
AcDbArc
 50
131.0269231405
 51
147.9845059448
  0
ARC
  5
307
100
AcDbEntity
  8
0
100
AcDbCircle
 62
7
  6
CONTINUOUS
 10
8.6501685639
 20
8.3748691103
 40
2.5
100
AcDbArc
 50
112.3469579043
 51
131.0114221702
  0
ARC
  5
308
100
AcDbEntity
  8
0
100
AcDbCircle
 62
7
  6
CONTINUOUS
 10
8.2442363077
 20
8.578255922
 40
1.0964341825
100
AcDbArc
 50
139.5897552114
 51
145.9991642558
  0
ARC
  5
309
100
AcDbEntity
  8
0
100
AcDbCircle
 62
7
  6
CONTINUOUS
 10
10.6575120424
 20
28.5065224892
 40
17.6
100
AcDbArc
 50
276.2521091861
 51
276.717689132
  0
ARC
  5
30A
100
AcDbEntity
  8
0
100
AcDbCircle
 62
7
  6
CONTINUOUS
 10
9.3195705676
 20
10.5582275776
 40
1.2038326632
100
AcDbArc
 50
45.493790023
 51
54.4698993364
  0
ARC
  5
30B
100
AcDbEntity
  8
0
100
AcDbCircle
 62
7
  6
CONTINUOUS
 10
8.6345378685
 20
11.8971768856
 40
0.9029695368
100
AcDbArc
 50
142.3731155407
 51
167.9683656294
  0
ARC
  5
30C
100
AcDbEntity
  8
0
100
AcDbCircle
 62
7
  6
CONTINUOUS
 10
8.3153797259
 20
12.1430909346
 40
0.5001069622
100
AcDbArc
 50
86.7641989597
 51
89.6668702777
  0
ARC
  5
30D
100
AcDbEntity
  8
0
100
AcDbCircle
 62
7
  6
CONTINUOUS
 10
8.3153884746
 20
12.1431011648
 40
0.5000968919
100
AcDbArc
 50
92.6413394949
 51
95.4091321971
  0
ARC
  5
30E
100
AcDbEntity
  8
0
100
AcDbCircle
 62
7
  6
CONTINUOUS
 10
8.3153807471
 20
12.1431524312
 40
0.5000454607
100
AcDbArc
 50
89.6669463164
 51
90.1530513125
  0
ARC
  5
30F
100
AcDbEntity
  8
0
100
AcDbCircle
 62
7
  6
CONTINUOUS
 10
8.3153829303
 20
12.1431969728
 40
0.5
100
AcDbArc
 50
95.4095346333
 51
142.373028687
  0
ARC
  5
310
100
AcDbEntity
  8
0
100
AcDbCircle
 62
7
  6
CONTINUOUS
 10
8.315382608
 20
12.1432053494
 40
0.4999925477
100
AcDbArc
 50
90.1532807576
 51
92.6412181269
  0
ARC
  5
311
100
AcDbEntity
  8
0
100
AcDbCircle
 62
7
  6
CONTINUOUS
 10
8.6797905032
 20
11.7852565049
 40
0.3243652792
100
AcDbArc
 50
232.9863005523
 51
241.4665246898
  0
ARC
  5
312
100
AcDbEntity
  8
0
100
AcDbCircle
 62
7
  6
CONTINUOUS
 10
8.6797905032
 20
11.7852565049
 40
0.3243652792
100
AcDbArc
 50
250.307276371
 51
258.7859138278
  0
ARC
  5
313
100
AcDbEntity
  8
0
100
AcDbCircle
 62
7
  6
CONTINUOUS
 10
9.6111183128
 20
10.9684838923
 40
0.3189028728
100
AcDbArc
 50
37.9118769244
 51
48.7791145228
  0
ARC
  5
314
100
AcDbEntity
  8
0
100
AcDbCircle
 62
7
  6
CONTINUOUS
 10
11.7868007366
 20
11.2321753058
 40
0.08
100
AcDbArc
 50
270.0
 51
333.2923546979
  0
ARC
  5
315
100
AcDbEntity
  8
0
100
AcDbCircle
 62
7
  6
CONTINUOUS
 10
11.7808101703
 20
11.1321753058
 40
0.02
100
AcDbArc
 50
90.0
 51
180.0
  0
ARC
  5
316
100
AcDbEntity
  8
0
100
AcDbCircle
 62
7
  6
CONTINUOUS
 10
8.3254820731
 20
11.6178508621
 40
0.01
100
AcDbArc
 50
155.8869005304
 51
235.8869005305
  0
ARC
  5
317
100
AcDbEntity
  8
0
100
AcDbCircle
 62
7
  6
CONTINUOUS
 10
8.7909798797
 20
11.4094958956
 40
0.01
100
AcDbArc
 50
255.8869005303
 51
335.8869005304
  0
ARC
  5
318
100
AcDbEntity
  8
0
100
AcDbCircle
 62
7
  6
CONTINUOUS
 10
8.8123347912
 20
11.4082512144
 40
0.01
100
AcDbArc
 50
75.8869005304
 51
155.8869005304
  0
ARC
  5
319
100
AcDbEntity
  8
0
100
AcDbCircle
 62
7
  6
CONTINUOUS
 10
8.3103273527
 20
11.6329477469
 40
0.01
100
AcDbArc
 50
335.8869005304
 51
55.8869005305
  0
ARC
  5
31A
100
AcDbEntity
  8
0
100
AcDbCircle
 62
7
  6
CONTINUOUS
 10
8.1757044484
 20
11.7482957692
 40
0.01
100
AcDbArc
 50
155.8869005304
 51
235.8869005337
  0
ARC
  5
31B
100
AcDbEntity
  8
0
100
AcDbCircle
 62
7
  6
CONTINUOUS
 10
8.988043758
 20
11.3846959257
 40
0.01
100
AcDbArc
 50
255.8869005271
 51
335.8869005304
  0
ARC
  5
31C
100
AcDbEntity
  8
0
100
AcDbCircle
 62
7
  6
CONTINUOUS
 10
9.0093986695
 20
11.3834512445
 40
0.01
100
AcDbArc
 50
75.8869005304
 51
155.8869005304
  0
ARC
  5
31D
100
AcDbEntity
  8
0
100
AcDbCircle
 62
7
  6
CONTINUOUS
 10
8.1605497281
 20
11.7633926539
 40
0.01
100
AcDbArc
 50
335.8869005304
 51
55.8869005304
  0
ARC
  5
31E
100
AcDbEntity
  8
0
100
AcDbCircle
 62
7
  6
CONTINUOUS
 10
8.0385373886
 20
11.8701984766
 40
0.01
100
AcDbArc
 50
155.8869005304
 51
235.8869005321
  0
ARC
  5
31F
100
AcDbEntity
  8
0
100
AcDbCircle
 62
7
  6
CONTINUOUS
 10
9.1703359772
 20
11.3636099306
 40
0.01
100
AcDbArc
 50
255.8869005287
 51
335.8869005304
  0
ARC
  5
320
100
AcDbEntity
  8
0
100
AcDbCircle
 62
7
  6
CONTINUOUS
 10
9.1916908887
 20
11.3623652494
 40
0.01
100
AcDbArc
 50
75.8869005295
 51
155.8869005304
  0
ARC
  5
321
100
AcDbEntity
  8
0
100
AcDbCircle
 62
7
  6
CONTINUOUS
 10
8.0233826682
 20
11.8852953613
 40
0.01
100
AcDbArc
 50
335.8869005304
 51
55.8869005313
  0
ARC
  5
322
100
AcDbEntity
  8
0
100
AcDbCircle
 62
7
  6
CONTINUOUS
 10
7.8845562423
 20
12.0034907836
 40
0.01
100
AcDbArc
 50
155.8869005304
 51
235.8869005313
  0
ARC
  5
323
100
AcDbEntity
  8
0
100
AcDbCircle
 62
7
  6
CONTINUOUS
 10
9.3723237418
 20
11.3375719691
 40
0.01
100
AcDbArc
 50
255.8869005295
 51
335.8869005304
  0
ARC
  5
324
100
AcDbEntity
  8
0
100
AcDbCircle
 62
7
  6
CONTINUOUS
 10
9.3927706672
 20
11.3342987038
 40
0.01
100
AcDbArc
 50
65.8869005305
 51
155.8869005304
  0
ARC
  5
325
100
AcDbEntity
  8
0
100
AcDbCircle
 62
7
  6
CONTINUOUS
 10
7.8684935358
 20
12.0165590843
 40
0.01
100
AcDbArc
 50
335.8869005304
 51
65.8869005303
  0
ARC
  5
326
100
AcDbEntity
  8
0
100
AcDbCircle
 62
7
  6
CONTINUOUS
 10
13.2588101703
 20
6.8545952972
 40
1.1375
100
AcDbArc
 50
0.0
 51
40.0
  0
ARC
  5
327
100
AcDbEntity
  8
0
100
AcDbCircle
 62
7
  6
CONTINUOUS
 10
15.1498961014
 20
6.8465952972
 40
0.85
100
AcDbArc
 50
141.6196390045
 51
149.9606392759
  0
ARC
  5
328
100
AcDbEntity
  8
0
100
AcDbCircle
 62
7
  6
CONTINUOUS
 10
14.8823988651
 20
6.6305952972
 40
0.6
100
AcDbArc
 50
224.7312613339
 51
228.7511239061
  0
ARC
  5
329
100
AcDbEntity
  8
0
100
AcDbCircle
 62
7
  6
CONTINUOUS
 10
12.9352214756
 20
6.6305952972
 40
0.6
100
AcDbArc
 50
311.2488760939
 51
315.2687386661
  0
ARC
  5
32A
100
AcDbEntity
  8
0
100
AcDbCircle
 62
9
  6
CONTINUOUS
 10
13.9089615891
 20
6.0781894048
 40
0.5996147766
100
AcDbArc
 50
75.8457522498
 51
90.014468672
  0
ARC
  5
32B
100
AcDbEntity
  8
0
100
AcDbCircle
 62
9
  6
CONTINUOUS
 10
13.9086120696
 20
6.078573879
 40
0.5992286534
100
AcDbArc
 50
89.9810585348
 51
104.1589092384
  0
ARC
  5
32C
100
AcDbEntity
  8
0
100
AcDbCircle
 62
9
  6
CONTINUOUS
 10
13.908811222
 20
6.1449501346
 40
0.4975001246
100
AcDbArc
 50
74.4498639587
 51
105.5497021285
  0
ARC
  5
32D
100
AcDbEntity
  8
0
100
AcDbCircle
 62
7
  6
CONTINUOUS
 10
12.4637528755
 20
6.2461084864
 40
0.45
100
AcDbArc
 50
291.5160692221
 51
346.5246869505
  0
ARC
  5
32E
100
AcDbEntity
  8
0
100
AcDbCircle
 62
7
  6
CONTINUOUS
 10
12.6488101703
 20
5.5207866813
 40
0.19
100
AcDbArc
 50
133.9190758133
 51
180.0
  0
ARC
  5
32F
100
AcDbEntity
  8
0
100
AcDbCircle
 62
7
  6
CONTINUOUS
 10
13.2588101703
 20
6.8545952972
 40
0.1625
100
AcDbArc
 50
0.0
 51
40.0
  0
ARC
  5
330
100
AcDbEntity
  8
0
100
AcDbCircle
 62
7
  6
CONTINUOUS
 10
12.6838101703
 20
5.6879196411
 40
0.15
100
AcDbArc
 50
111.5160692221
 51
180.0
  0
ARC
  5
331
100
AcDbEntity
  8
0
100
AcDbCircle
 62
7
  6
CONTINUOUS
 10
15.1338101703
 20
5.6879196411
 40
0.15
100
AcDbArc
 50
0.0
 51
68.4839307779
  0
ARC
  5
332
100
AcDbEntity
  8
0
100
AcDbCircle
 62
7
  6
CONTINUOUS
 10
14.4963101703
 20
6.8545952972
 40
0.1
100
AcDbArc
 50
180.0
 51
225.5729959992
  0
ARC
  5
333
100
AcDbEntity
  8
0
100
AcDbCircle
 62
7
  6
CONTINUOUS
 10
14.3563101703
 20
6.7117667286
 40
0.1
100
AcDbArc
 50
0.0
 51
45.5729959992
  0
ARC
  5
334
100
AcDbEntity
  8
0
100
AcDbCircle
 62
7
  6
CONTINUOUS
 10
13.3213101703
 20
6.8545952972
 40
0.1
100
AcDbArc
 50
314.4270040008
 51
360.0
  0
ARC
  5
335
100
AcDbEntity
  8
0
100
AcDbCircle
 62
7
  6
CONTINUOUS
 10
13.4613101703
 20
6.7117667286
 40
0.1
100
AcDbArc
 50
134.4270040008
 51
180.0
  0
ARC
  5
336
100
AcDbEntity
  8
0
100
AcDbCircle
 62
7
  6
CONTINUOUS
 10
12.9088101703
 20
6.1915952972
 40
0.07
100
AcDbArc
 50
90.0
 51
180.0
  0
ARC
  5
337
100
AcDbEntity
  8
0
100
AcDbCircle
 62
7
  6
CONTINUOUS
 10
14.9088101703
 20
6.1915952972
 40
0.07
100
AcDbArc
 50
0.0
 51
90.0
  0
ARC
  5
338
100
AcDbEntity
  8
0
100
AcDbCircle
 62
7
  6
CONTINUOUS
 10
14.436541351
 20
7.4115952972
 40
0.06
100
AcDbArc
 50
321.6196390045
 51
90.0
  0
ARC
  5
339
100
AcDbEntity
  8
0
100
AcDbCircle
 62
7
  6
CONTINUOUS
 10
12.7788101703
 20
5.8815952972
 40
0.05
100
AcDbArc
 50
90.0
 51
178.6276440157
  0
ARC
  5
33A
100
AcDbEntity
  8
0
100
AcDbCircle
 62
7
  6
CONTINUOUS
 10
15.0388101703
 20
5.8815952972
 40
0.05
100
AcDbArc
 50
1.3723559843
 51
90.0
  0
ARC
  5
33B
100
AcDbEntity
  8
0
100
AcDbCircle
 62
7
  6
CONTINUOUS
 10
12.9499880827
 20
6.1295952972
 40
0.05
100
AcDbArc
 50
90.0
 51
166.5246869505
  0
ARC
  5
33C
100
AcDbEntity
  8
0
100
AcDbCircle
 62
7
  6
CONTINUOUS
 10
14.8676322579
 20
6.1295952972
 40
0.05
100
AcDbArc
 50
13.4753130495
 51
90.0
  0
ARC
  5
33D
100
AcDbEntity
  8
0
100
AcDbCircle
 62
7
  6
CONTINUOUS
 10
13.25194598
 20
7.1428060095
 40
0.02
100
AcDbArc
 50
220.0
 51
310.0
  0
ARC
  5
33E
100
AcDbEntity
  8
0
100
AcDbCircle
 62
7
  6
CONTINUOUS
 10
12.9626915556
 20
7.4875260089
 40
0.02
100
AcDbArc
 50
130.0
 51
220.0
  0
ARC
  5
33F
100
AcDbEntity
  8
0
100
AcDbCircle
 62
7
  6
CONTINUOUS
 10
14.2288101703
 20
7.6215952972
 40
0.01
100
AcDbArc
 50
0.0
 51
90.0
  0
ARC
  5
340
100
AcDbEntity
  8
0
100
AcDbCircle
 62
7
  6
CONTINUOUS
 10
14.3488101703
 20
7.5415952972
 40
0.01
100
AcDbArc
 50
0.0
 51
90.0
  0
ARC
  5
341
100
AcDbEntity
  8
0
100
AcDbCircle
 62
7
  6
CONTINUOUS
 10
13.1195753199
 20
8.1660693088
 40
0.2687704442
100
AcDbArc
 50
11.3193116752
 51
18.3730493156
  0
ARC
  5
342
100
AcDbEntity
  8
0
100
AcDbCircle
 62
7
  6
CONTINUOUS
 10
12.9872960359
 20
8.0550737901
 40
0.2687704093
100
AcDbArc
 50
241.6270007709
 51
248.6806886138
  0
ARC
  5
343
100
AcDbEntity
  8
0
100
AcDbCircle
 62
7
  6
CONTINUOUS
 10
13.3244609045
 20
8.16965465
 40
0.2244047619
100
AcDbArc
 50
342.1471483295
 51
40.0
  0
ARC
  5
344
100
AcDbEntity
  8
0
100
AcDbCircle
 62
7
  6
CONTINUOUS
 10
12.9481871697
 20
7.8539234979
 40
0.2244047619
100
AcDbArc
 50
220.0
 51
277.8528516705
  0
ARC
  5
345
100
AcDbEntity
  8
0
100
AcDbCircle
 62
7
  6
CONTINUOUS
 10
12.4913375438
 20
9.2326753058
 40
0.761
100
AcDbArc
 50
83.7478908139
 51
112.7053352042
  0
ARC
  5
346
100
AcDbEntity
  8
0
100
AcDbCircle
 62
7
  6
CONTINUOUS
 10
12.3442746129
 20
9.5841486253
 40
0.38
100
AcDbArc
 50
112.7053352042
 51
117.030325941
  0
ARC
  5
347
100
AcDbEntity
  8
0
100
AcDbCircle
 62
7
  6
CONTINUOUS
 10
12.8308417862
 20
9.2210890987
 40
0.3
100
AcDbArc
 50
21.3578798412
 51
51.0095254968
  0
ARC
  5
348
100
AcDbEntity
  8
0
100
AcDbCircle
 62
7
  6
CONTINUOUS
 10
12.6905785015
 20
9.754507158
 40
0.22
100
AcDbArc
 50
20.298986773
 51
83.282310868
  0
ARC
  5
349
100
AcDbEntity
  8
0
100
AcDbCircle
 62
7
  6
CONTINUOUS
 10
13.0888101703
 20
9.5397618349
 40
0.11
100
AcDbArc
 50
179.9999997229
 51
231.0095254984
  0
ARC
  5
34A
100
AcDbEntity
  8
0
100
AcDbCircle
 62
7
  6
CONTINUOUS
 10
13.0488101703
 20
9.5830554375
 40
0.07
100
AcDbArc
 50
122.3283277052
 51
180.0
  0
ARC
  5
34B
100
AcDbEntity
  8
0
100
AcDbCircle
 62
7
  6
CONTINUOUS
 10
13.0762191123
 20
9.76608258
 40
0.07
100
AcDbArc
 50
302.3283277064
 51
41.4025155477
  0
ARC
  5
34C
100
AcDbEntity
  8
0
100
AcDbCircle
 62
7
  6
CONTINUOUS
 10
12.9438101703
 20
9.8481753058
 40
0.05
100
AcDbArc
 50
200.298986773
 51
270.0
  0
ARC
  5
34D
100
AcDbEntity
  8
0
100
AcDbCircle
 62
7
  6
CONTINUOUS
 10
13.0588101703
 20
9.8481753058
 40
0.05
100
AcDbArc
 50
270.0
 51
360.0
  0
ARC
  5
34E
100
AcDbEntity
  8
0
100
AcDbCircle
 62
7
  6
CONTINUOUS
 10
13.1288101703
 20
9.8429082368
 40
0.02
100
AcDbArc
 50
180.0
 51
220.1191668927
  0
ARC
  5
34F
100
AcDbEntity
  8
0
100
AcDbCircle
 62
7
  6
CONTINUOUS
 10
13.9088101703
 20
7.9923669005
 40
0.7
100
AcDbArc
 50
105.2404667696
 51
108.819063369
  0
ARC
  5
350
100
AcDbEntity
  8
0
100
AcDbCircle
 62
7
  6
CONTINUOUS
 10
13.9088101703
 20
7.9923669005
 40
0.7
100
AcDbArc
 50
71.180936631
 51
74.7595332234
  0
ARC
  5
351
100
AcDbEntity
  8
0
100
AcDbCircle
 62
7
  6
CONTINUOUS
 10
13.9088101703
 20
8.2120949504
 40
0.49155
100
AcDbArc
 50
281.7026462139
 51
159.4485757858
  0
ARC
  5
352
100
AcDbEntity
  8
0
100
AcDbCircle
 62
9
  6
CONTINUOUS
 10
13.9088101703
 20
8.2120949504
 40
0.4467172034
100
AcDbArc
 50
278.917765351
 51
169.5269852464
  0
ARC
  5
353
100
AcDbEntity
  8
0
100
AcDbCircle
 62
9
  6
CONTINUOUS
 10
13.9088101703
 20
8.2120949504
 40
0.2963316422
100
AcDbArc
 50
258.9278289981
 51
205.712789091
  0
ARC
  5
354
100
AcDbEntity
  8
0
100
AcDbCircle
 62
9
  6
CONTINUOUS
 10
13.9088101703
 20
8.2120949504
 40
0.2495043206
100
AcDbArc
 50
242.3870968106
 51
203.761727939
  0
ARC
  5
355
100
AcDbEntity
  8
0
100
AcDbCircle
 62
7
  6
CONTINUOUS
 10
13.7088101703
 20
8.5792229305
 40
0.08
100
AcDbArc
 50
108.819063369
 51
144.4526518609
  0
ARC
  5
356
100
AcDbEntity
  8
0
100
AcDbCircle
 62
7
  6
CONTINUOUS
 10
14.1088101703
 20
8.5792229305
 40
0.08
100
AcDbArc
 50
35.547348101
 51
71.180936631
  0
ARC
  5
357
100
AcDbEntity
  8
0
100
AcDbCircle
 62
7
  6
CONTINUOUS
 10
13.9720277565
 20
7.7470263626
 40
0.02
100
AcDbArc
 50
310.0
 51
40.0
  0
ARC
  5
358
100
AcDbEntity
  8
0
100
AcDbCircle
 62
7
  6
CONTINUOUS
 10
13.6827733322
 20
8.091746362
 40
0.02
100
AcDbArc
 50
40.0
 51
130.0
  0
ARC
  5
359
100
AcDbEntity
  8
0
100
AcDbCircle
 62
7
  6
CONTINUOUS
 10
14.9867785545
 20
9.2210890987
 40
0.3
100
AcDbArc
 50
128.990474501
 51
158.6421201592
  0
ARC
  5
35A
100
AcDbEntity
  8
0
100
AcDbCircle
 62
7
  6
CONTINUOUS
 10
14.7288101703
 20
9.5397618349
 40
0.11
100
AcDbArc
 50
308.9904745028
 51
0.0000002835
  0
ARC
  5
35B
100
AcDbEntity
  8
0
100
AcDbCircle
 62
7
  6
CONTINUOUS
 10
14.7688101703
 20
9.5830554375
 40
0.07
100
AcDbArc
 50
0.0
 51
57.6716722948
  0
ARC
  5
35C
100
AcDbEntity
  8
0
100
AcDbCircle
 62
7
  6
CONTINUOUS
 10
14.7414012284
 20
9.76608258
 40
0.07
100
AcDbArc
 50
138.5974844523
 51
237.6716722936
  0
ARC
  5
35D
100
AcDbEntity
  8
0
100
AcDbCircle
 62
7
  6
CONTINUOUS
 10
15.4528847007
 20
6.6713871105
 40
1.2
100
AcDbArc
 50
149.9606392759
 51
156.1503420002
  0
ARC
  5
35E
100
AcDbEntity
  8
0
100
AcDbCircle
 62
7
  6
CONTINUOUS
 10
15.3538674651
 20
6.2461084864
 40
0.45
100
AcDbArc
 50
193.4753130495
 51
248.4839307779
  0
ARC
  5
35F
100
AcDbEntity
  8
0
100
AcDbCircle
 62
7
  6
CONTINUOUS
 10
15.1688101703
 20
5.5207866813
 40
0.19
100
AcDbArc
 50
0.0
 51
46.0809241867
  0
ARC
  5
360
100
AcDbEntity
  8
0
100
AcDbCircle
 62
7
  6
CONTINUOUS
 10
17.9670147084
 20
8.055673951
 40
3.5
100
AcDbArc
 50
158.6421201593
 51
208.7615392219
  0
ARC
  5
361
100
AcDbEntity
  8
0
100
AcDbCircle
 62
7
  6
CONTINUOUS
 10
13.1081603128
 20
21.6839548184
 40
10.5495226943
100
AcDbArc
 50
250.3745771135
 51
251.2017883993
  0
ARC
  5
362
100
AcDbEntity
  8
0
100
AcDbCircle
 62
9
  6
CONTINUOUS
 10
13.1002610008
 20
21.6612858331
 40
10.5255174476
100
AcDbArc
 50
250.1363430914
 51
250.3736332501
  0
ARC
  5
363
100
AcDbEntity
  8
0
100
AcDbCircle
 62
7
  6
CONTINUOUS
 10
13.9088101703
 20
10.5001753058
 40
1.04
100
AcDbArc
 50
220.1191668984
 51
221.4025155477
  0
ARC
  5
364
100
AcDbEntity
  8
0
100
AcDbCircle
 62
7
  6
CONTINUOUS
 10
13.9088101703
 20
10.5001753058
 40
1.04
100
AcDbArc
 50
318.5974844523
 51
60.4523831912
  0
ARC
  5
365
100
AcDbEntity
  8
0
100
AcDbCircle
 62
7
  6
CONTINUOUS
 10
13.9088101703
 20
10.5001753058
 40
1.04
100
AcDbArc
 50
119.5476168088
 51
139.8808331016
  0
ARC
  5
366
100
AcDbEntity
  8
0
100
AcDbCircle
 62
7
  6
CONTINUOUS
 10
13.9088101703
 20
11.2715952972
 40
1.03
100
AcDbArc
 50
62.0668985224
 51
117.9331014776
  0
ARC
  5
367
100
AcDbEntity
  8
0
100
AcDbCircle
 62
7
  6
CONTINUOUS
 10
12.4913375438
 20
11.7676753058
 40
0.761
100
AcDbArc
 50
247.2946647958
 51
276.2521091861
  0
ARC
  5
368
100
AcDbEntity
  8
0
100
AcDbCircle
 62
7
  6
CONTINUOUS
 10
13.7996199142
 20
12.3937517482
 40
0.69
100
AcDbArc
 50
300.8851747973
 51
330.2722763339
  0
ARC
  5
369
100
AcDbEntity
  8
0
100
AcDbCircle
 62
7
  6
CONTINUOUS
 10
14.0180004264
 20
12.3937517482
 40
0.69
100
AcDbArc
 50
209.7277236661
 51
239.1148252027
  0
ARC
  5
36A
100
AcDbEntity
  8
0
100
AcDbCircle
 62
7
  6
CONTINUOUS
 10
12.3442746129
 20
11.4162019862
 40
0.38
100
AcDbArc
 50
213.5288687144
 51
247.2946647958
  0
ARC
  5
36B
100
AcDbEntity
  8
0
100
AcDbCircle
 62
7
  6
CONTINUOUS
 10
12.6905785015
 20
11.2458434535
 40
0.22
100
AcDbArc
 50
276.717689132
 51
339.701013227
  0
ARC
  5
36C
100
AcDbEntity
  8
0
100
AcDbCircle
 62
7
  6
CONTINUOUS
 10
11.9458101703
 20
11.1521753058
 40
0.098
100
AcDbArc
 50
33.5288687144
 51
153.2923546979
  0
ARC
  5
36D
100
AcDbEntity
  8
0
100
AcDbCircle
 62
7
  6
CONTINUOUS
 10
13.4188101703
 20
11.6215952972
 40
0.05
100
AcDbArc
 50
90.0
 51
180.0
  0
ARC
  5
36E
100
AcDbEntity
  8
0
100
AcDbCircle
 62
7
  6
CONTINUOUS
 10
14.3988101703
 20
11.6215952972
 40
0.05
100
AcDbArc
 50
0.0
 51
90.0
  0
ARC
  5
36F
100
AcDbEntity
  8
0
100
AcDbCircle
 62
7
  6
CONTINUOUS
 10
13.4188101703
 20
11.5015952972
 40
0.05
100
AcDbArc
 50
180.0
 51
241.9113365709
  0
ARC
  5
370
100
AcDbEntity
  8
0
100
AcDbCircle
 62
7
  6
CONTINUOUS
 10
14.3988101703
 20
11.5015952972
 40
0.05
100
AcDbArc
 50
298.0886634291
 51
360.0
  0
ARC
  5
371
100
AcDbEntity
  8
0
100
AcDbCircle
 62
7
  6
CONTINUOUS
 10
12.9438101703
 20
11.1521753058
 40
0.05
100
AcDbArc
 50
90.0
 51
159.701013227
  0
ARC
  5
372
100
AcDbEntity
  8
0
100
AcDbCircle
 62
7
  6
CONTINUOUS
 10
13.0588101703
 20
11.1521753058
 40
0.05
100
AcDbArc
 50
0.0
 51
90.0
  0
ARC
  5
373
100
AcDbEntity
  8
0
100
AcDbCircle
 62
7
  6
CONTINUOUS
 10
14.436477157
 20
11.4310176937
 40
0.03
100
AcDbArc
 50
118.088663429
 51
240.4523831913
  0
ARC
  5
374
100
AcDbEntity
  8
0
100
AcDbCircle
 62
7
  6
CONTINUOUS
 10
13.3811431836
 20
11.4310176937
 40
0.03
100
AcDbArc
 50
299.5476168087
 51
61.911336571
  0
ARC
  5
375
100
AcDbEntity
  8
0
100
AcDbCircle
 62
7
  6
CONTINUOUS
 10
13.1288101703
 20
11.1574423748
 40
0.02
100
AcDbArc
 50
139.8808331043
 51
180.0
  0
ARC
  5
376
100
AcDbEntity
  8
0
100
AcDbCircle
 62
7
  6
CONTINUOUS
 10
14.4388101703
 20
12.1615952972
 40
0.02
100
AcDbArc
 50
0.0
 51
90.0
  0
ARC
  5
377
100
AcDbEntity
  8
0
100
AcDbCircle
 62
7
  6
CONTINUOUS
 10
13.3788101703
 20
12.1615952972
 40
0.02
100
AcDbArc
 50
90.0
 51
180.0
  0
ARC
  5
378
100
AcDbEntity
  8
0
100
AcDbCircle
 62
7
  6
CONTINUOUS
 10
14.4388101703
 20
12.0715952972
 40
0.02
100
AcDbArc
 50
270.0
 51
360.0
  0
ARC
  5
379
100
AcDbEntity
  8
0
100
AcDbCircle
 62
7
  6
CONTINUOUS
 10
13.3788101703
 20
12.0715952972
 40
0.02
100
AcDbArc
 50
180.0
 51
270.0
  0
SPLINE
  5
37A
100
AcDbEntity
  8
0
100
AcDbSpline
 62
7
  6
CONTINUOUS
 70
0
 71
3
 72
19
 73
15
 74
0
 42
0.0000001
 43
0.0000001
 44
0.0000000001
 40
0.0
 40
0.0
 40
0.0
 40
0.0
 40
0.0189998375
 40
0.0400394188
 40
0.0654303595
 40
0.0965168169
 40
0.1339996416
 40
0.1782501338
 40
0.2294637277
 40
0.2877083623
 40
0.4252504768
 40
0.5904899699
 40
0.7825572749
 40
1.0
 40
1.0
 40
1.0
 40
1.0
 10
8.8259326515
 20
11.4282479895
 30
0.0
 10
8.8259472035
 20
11.4282805218
 30
0.0
 10
8.8259632776
 20
11.4283564909
 30
0.0
 10
8.8259394462
 20
11.4284792017
 30
0.0
 10
8.8258735011
 20
11.4286100667
 30
0.0
 10
8.8257668797
 20
11.4287511719
 30
0.0
 10
8.8256194856
 20
11.4289035131
 30
0.0
 10
8.8254311263
 20
11.4290672738
 30
0.0
 10
8.8252018396
 20
11.4292423105
 30
0.0
 10
8.8248201949
 20
11.4295052326
 30
0.0
 10
8.8242403505
 20
11.4298560366
 30
0.0
 10
8.8234233688
 20
11.4302970457
 30
0.0
 10
8.8224566306
 20
11.4307746153
 30
0.0
 10
8.8217587762
 20
11.4310957889
 30
0.0
 10
8.821386502
 20
11.4312624174
 30
0.0
  0
SPLINE
  5
37B
100
AcDbEntity
  8
0
100
AcDbSpline
 62
7
  6
CONTINUOUS
 70
0
 71
3
 72
15
 73
11
 74
0
 42
0.0000001
 43
0.0000001
 44
0.0000000001
 40
0.0
 40
0.0
 40
0.0
 40
0.0
 40
0.124999448
 40
0.2499919442
 40
0.374992181
 40
0.5
 40
0.625007819
 40
0.7500080558
 40
0.875000552
 40
1.0
 40
1.0
 40
1.0
 40
1.0
 10
7.888802395
 20
9.6154295469
 30
0.0
 10
7.8656720686
 20
9.6075066656
 30
0.0
 10
7.8199403394
 20
9.590071725
 30
0.0
 10
7.7532747244
 20
9.5593596487
 30
0.0
 10
7.688801177
 20
9.5242695933
 30
0.0
 10
7.6267914864
 20
9.4849861593
 30
0.0
 10
7.5675125207
 20
9.4416918855
 30
0.0
 10
7.5112319345
 20
9.3945681556
 30
0.0
 10
7.4582211046
 20
9.3438001759
 30
0.0
 10
7.4252366397
 20
9.3076422821
 30
0.0
 10
7.4093867521
 20
9.2890260227
 30
0.0
  0
SPLINE
  5
37C
100
AcDbEntity
  8
0
100
AcDbSpline
 62
7
  6
CONTINUOUS
 70
0
 71
3
 72
22
 73
18
 74
0
 42
0.0000001
 43
0.0000001
 44
0.0000000001
 40
0.0
 40
0.0
 40
0.0
 40
0.0
 40
0.008859301
 40
0.0180725574
 40
0.028072547
 40
0.0391978287
 40
0.0656783443
 40
0.0987243467
 40
0.1388096563
 40
0.1860860125
 40
0.2405044782
 40
0.3019028401
 40
0.3700183297
 40
0.4445220688
 40
0.6110451863
 40
0.7976908713
 40
1.0
 40
1.0
 40
1.0
 40
1.0
 10
8.6856676001
 20
11.489074614
 30
0.0
 10
8.6856875854
 20
11.4891192755
 30
0.0
 10
8.6857174294
 20
11.4892157124
 30
0.0
 10
8.6857273077
 20
11.4893716683
 30
0.0
 10
8.6857032482
 20
11.4895384979
 30
0.0
 10
8.6856220692
 20
11.4897895982
 30
0.0
 10
8.6854264647
 20
11.4901312579
 30
0.0
 10
8.6850791014
 20
11.4905592982
 30
0.0
 10
8.6846061864
 20
11.4910282654
 30
0.0
 10
8.6840092863
 20
11.4915358508
 30
0.0
 10
8.6832908406
 20
11.4920797907
 30
0.0
 10
8.6824545224
 20
11.4926568699
 30
0.0
 10
8.6815049854
 20
11.4932638542
 30
0.0
 10
8.6800399888
 20
11.4941410888
 30
0.0
 10
8.677968306
 20
11.4952773653
 30
0.0
 10
8.6752254203
 20
11.4966526134
 30
0.0
 10
8.6732760739
 20
11.4975560559
 30
0.0
 10
8.6722562358
 20
11.4980125314
 30
0.0
  0
SPLINE
  5
37D
100
AcDbEntity
  8
0
100
AcDbSpline
 62
7
  6
CONTINUOUS
 70
0
 71
3
 72
25
 73
21
 74
0
 42
0.0000001
 43
0.0000001
 44
0.0000000001
 40
0.0
 40
0.0
 40
0.0
 40
0.0
 40
0.0077312556
 40
0.0162564458
 40
0.0261137644
 40
0.0376436813
 40
0.0510453656
 40
0.0664250112
 40
0.0838366304
 40
0.1032953886
 40
0.1482899186
 40
0.2011455489
 40
0.2613891608
 40
0.3283981373
 40
0.4014272032
 40
0.4796245446
 40
0.5620466911
 40
0.6476737554
 40
0.8241528086
 40
1.0
 40
1.0
 40
1.0
 40
1.0
 10
8.516550714
 20
11.5623336357
 30
0.0
 10
8.5165818866
 20
11.5624032771
 30
0.0
 10
8.5166225902
 20
11.562561745
 30
0.0
 10
8.5166108056
 20
11.5628219042
 30
0.0
 10
8.5165325297
 20
11.5631083546
 30
0.0
 10
8.5163895981
 20
11.5634216737
 30
0.0
 10
8.5161826472
 20
11.5637622323
 30
0.0
 10
8.5159121291
 20
11.5641297282
 30
0.0
 10
8.5155785409
 20
11.5645233603
 30
0.0
 10
8.515023199
 20
11.565110589
 30
0.0
 10
8.514171476
 20
11.5658965354
 30
0.0
 10
8.5129631141
 20
11.5668844427
 30
0.0
 10
8.5115367237
 20
11.5679459067
 30
0.0
 10
8.5099092432
 20
11.5690681822
 30
0.0
 10
8.5081002632
 20
11.5702375751
 30
0.0
 10
8.5061322433
 20
11.5714396454
 30
0.0
 10
8.5040300733
 20
11.5726593686
 30
0.0
 10
8.5010544313
 20
11.5743049489
 30
0.0
 10
8.4972123623
 20
11.5762869777
 30
0.0
 10
8.4940662159
 20
11.5777696754
 30
0.0
 10
8.4924822122
 20
11.5784786692
 30
0.0
  0
SPLINE
  5
37E
100
AcDbEntity
  8
0
100
AcDbSpline
 62
7
  6
CONTINUOUS
 70
0
 71
3
 72
27
 73
23
 74
0
 42
0.0000001
 43
0.0000001
 44
0.0000000001
 40
0.0
 40
0.0
 40
0.0
 40
0.0
 40
0.0131157479
 40
0.0177738812
 40
0.0230687235
 40
0.0356405251
 40
0.0509101327
 40
0.0688702486
 40
0.0894681542
 40
0.1126229625
 40
0.1661716143
 40
0.2285064188
 40
0.2983984949
 40
0.3744409847
 40
0.4550785469
 40
0.5386300907
 40
0.6233205689
 40
0.7073128968
 40
0.7887530715
 40
0.865817177
 40
0.9367648557
 40
1.0
 40
1.0
 40
1.0
 40
1.0
 10
8.3699728191
 20
11.6257514602
 30
0.0
 10
8.370045368
 20
11.6259135462
 30
0.0
 10
8.3699836816
 20
11.6261841415
 30
0.0
 10
8.3698551578
 20
11.6264635684
 30
0.0
 10
8.3697048648
 20
11.6267307545
 30
0.0
 10
8.3694459842
 20
11.6270974326
 30
0.0
 10
8.3690479614
 20
11.6275738539
 30
0.0
 10
8.3685482561
 20
11.6281047023
 30
0.0
 10
8.367949279
 20
11.6286876029
 30
0.0
 10
8.3669737956
 20
11.6295733411
 30
0.0
 10
8.3655265286
 20
11.6307784522
 30
0.0
 10
8.363533293
 20
11.6323133134
 30
0.0
 10
8.3612483386
 20
11.633966412
 30
0.0
 10
8.3587193555
 20
11.6357032235
 30
0.0
 10
8.355999469
 20
11.637487394
 30
0.0
 10
8.3531468014
 20
11.6392814407
 30
0.0
 10
8.3502233604
 20
11.6410472068
 30
0.0
 10
8.3472938441
 20
11.642746596
 30
0.0
 10
8.3444242063
 20
11.6443423604
 30
0.0
 10
8.3416799642
 20
11.6457990801
 30
0.0
 10
8.3391244135
 20
11.6470840719
 30
0.0
 10
8.3374799087
 20
11.6478570836
 30
0.0
 10
8.3366984415
 20
11.6482068652
 30
0.0
  0
SPLINE
  5
37F
100
AcDbEntity
  8
0
100
AcDbSpline
 62
7
  6
CONTINUOUS
 70
0
 71
3
 72
18
 73
14
 74
0
 42
0.0000001
 43
0.0000001
 44
0.0000000001
 40
0.0
 40
0.0
 40
0.0
 40
0.0
 40
0.0092873458
 40
0.0160619063
 40
0.0245292905
 40
0.0468544578
 40
0.0765979366
 40
0.1585922979
 40
0.2704430972
 40
0.4115085878
 40
0.5808872319
 40
0.7774800916
 40
1.0
 40
1.0
 40
1.0
 40
1.0
 10
8.2905006998
 20
11.6601024992
 30
0.0
 10
8.2905065069
 20
11.660115478
 30
0.0
 10
8.2905027951
 20
11.6601424776
 30
0.0
 10
8.2904885451
 20
11.6601766405
 30
0.0
 10
8.2904601253
 20
11.6602270587
 30
0.0
 10
8.2904045024
 20
11.6603013096
 30
0.0
 10
8.2902690138
 20
11.6604556841
 30
0.0
 10
8.2900233219
 20
11.6606945329
 30
0.0
 10
8.2896406566
 20
11.6610358266
 30
0.0
 10
8.2891457721
 20
11.6614519998
 30
0.0
 10
8.2885422104
 20
11.6619401856
 30
0.0
 10
8.2878336144
 20
11.6624966737
 30
0.0
 10
8.2873245962
 20
11.662887353
 30
0.0
 10
8.2870534569
 20
11.6630936076
 30
0.0
  0
SPLINE
  5
380
100
AcDbEntity
  8
0
100
AcDbSpline
 62
7
  6
CONTINUOUS
 70
0
 71
3
 72
17
 73
13
 74
0
 42
0.0000001
 43
0.0000001
 44
0.0000000001
 40
0.0
 40
0.0
 40
0.0
 40
0.0
 40
0.0479693281
 40
0.1026313574
 40
0.2284571926
 40
0.3696775626
 40
0.51770714
 40
0.6635285811
 40
0.7980841937
 40
0.9127626116
 40
0.9602254974
 40
1.0
 40
1.0
 40
1.0
 40
1.0
 10
8.2870534569
 20
11.6630936076
 30
0.0
 10
8.286552129
 20
11.6634749658
 30
0.0
 10
8.2854731437
 20
11.6642825045
 30
0.0
 10
8.2830514909
 20
11.666053171
 30
0.0
 10
8.2796064923
 20
11.668498422
 30
0.0
 10
8.2751193287
 20
11.6715925766
 30
0.0
 10
8.2703777048
 20
11.674779523
 30
0.0
 10
8.2656740812
 20
11.6778654893
 30
0.0
 10
8.2613043355
 20
11.6806613436
 30
0.0
 10
8.2579957345
 20
11.682718828
 30
0.0
 10
8.2557238963
 20
11.6840858645
 30
0.0
 10
8.2547350566
 20
11.6846642726
 30
0.0
 10
8.2542815942
 20
11.6849234114
 30
0.0
  0
LINE
  5
381
100
AcDbEntity
  8
0
100
AcDbLine
 62
7
  6
CONTINUOUS
 10
8.2542815942
 20
11.6849234114
 11
8.2522482049
 21
11.6860064552
  0
SPLINE
  5
382
100
AcDbEntity
  8
0
100
AcDbSpline
 62
7
  6
CONTINUOUS
 70
0
 71
3
 72
17
 73
13
 74
0
 42
0.0000001
 43
0.0000001
 44
0.0000000001
 40
0.0
 40
0.0
 40
0.0
 40
0.0
 40
0.0196516612
 40
0.0410006136
 40
0.0663223793
 40
0.0970176536
 40
0.1772591166
 40
0.2849010819
 40
0.4209180842
 40
0.5856157642
 40
0.7787937358
 40
1.0
 40
1.0
 40
1.0
 40
1.0
 10
9.0425059439
 20
11.3929173242
 30
0.0
 10
9.0425114387
 20
11.392929614
 30
0.0
 10
9.0425178512
 20
11.3929578447
 30
0.0
 10
9.0425103344
 20
11.3930034836
 30
0.0
 10
9.0424875168
 20
11.393051815
 30
0.0
 10
9.0424323803
 20
11.3931275714
 30
0.0
 10
9.0423213629
 20
11.3932296163
 30
0.0
 10
9.0421410014
 20
11.393359024
 30
0.0
 10
9.0419016251
 20
11.3935042803
 30
0.0
 10
9.0416037745
 20
11.3936649175
 30
0.0
 10
9.0412479323
 20
11.3938404254
 30
0.0
 10
9.0409899841
 20
11.3939590097
 30
0.0
 10
9.0408516707
 20
11.3940209182
 30
0.0
  0
SPLINE
  5
383
100
AcDbEntity
  8
0
100
AcDbSpline
 62
7
  6
CONTINUOUS
 70
0
 71
3
 72
19
 73
15
 74
0
 42
0.0000001
 43
0.0000001
 44
0.0000000001
 40
0.0
 40
0.0
 40
0.0
 40
0.0
 40
0.0191705803
 40
0.0404401644
 40
0.0661080836
 40
0.0974982577
 40
0.1353162287
 40
0.1799140623
 40
0.2314570887
 40
0.2900127326
 40
0.4279979532
 40
0.5932071528
 40
0.7844660905
 40
1.0
 40
1.0
 40
1.0
 40
1.0
 10
8.9461207631
 20
11.4351780679
 30
0.0
 10
8.946139043
 20
11.4352189002
 30
0.0
 10
8.9461592673
 20
11.4353143425
 30
0.0
 10
8.9461295635
 20
11.4354686105
 30
0.0
 10
8.9460472745
 20
11.4356334058
 30
0.0
 10
8.9459141713
 20
11.4358112991
 30
0.0
 10
8.9457300571
 20
11.436003325
 30
0.0
 10
8.9454948509
 20
11.436209668
 30
0.0
 10
8.9452087141
 20
11.4364300882
 30
0.0
 10
8.9447330934
 20
11.4367604829
 30
0.0
 10
8.9440116935
 20
11.4372002136
 30
0.0
 10
8.9429974014
 20
11.4377509223
 30
0.0
 10
8.9418012875
 20
11.4383440485
 30
0.0
 10
8.9409390234
 20
11.4387414217
 30
0.0
 10
8.9404799331
 20
11.4389469087
 30
0.0
  0
SPLINE
  5
384
100
AcDbEntity
  8
0
100
AcDbSpline
 62
7
  6
CONTINUOUS
 70
0
 71
3
 72
20
 73
16
 74
0
 42
0.0000001
 43
0.0000001
 44
0.0000000001
 40
0.0
 40
0.0
 40
0.0
 40
0.0
 40
0.0091007618
 40
0.0185002841
 40
0.0396896458
 40
0.0660034938
 40
0.0986257463
 40
0.1381056258
 40
0.184644159
 40
0.2382666495
 40
0.2988640854
 40
0.4401578431
 40
0.6062761989
 40
0.7941307972
 40
1.0
 40
1.0
 40
1.0
 40
1.0
 10
8.805553522
 20
11.4967969964
 30
0.0
 10
8.8055710988
 20
11.4968362721
 30
0.0
 10
8.805597755
 20
11.496920528
 30
0.0
 10
8.8056127653
 20
11.4971090037
 30
0.0
 10
8.8055490262
 20
11.4973764091
 30
0.0
 10
8.8053659885
 20
11.4977106357
 30
0.0
 10
8.805077479
 20
11.4980775981
 30
0.0
 10
8.8046827491
 20
11.4984772408
 30
0.0
 10
8.8041826802
 20
11.4989091085
 30
0.0
 10
8.8035787775
 20
11.4993712081
 30
0.0
 10
8.8025864373
 20
11.5000607956
 30
0.0
 10
8.8011027603
 20
11.5009721628
 30
0.0
 10
8.7990494109
 20
11.5020990473
 30
0.0
 10
8.7966820319
 20
11.5032843111
 30
0.0
 10
8.794992472
 20
11.5040665175
 30
0.0
 10
8.7941040373
 20
11.5044641773
 30
0.0
  0
SPLINE
  5
385
100
AcDbEntity
  8
0
100
AcDbSpline
 62
7
  6
CONTINUOUS
 70
0
 71
3
 72
24
 73
20
 74
0
 42
0.0000001
 43
0.0000001
 44
0.0000000001
 40
0.0
 40
0.0
 40
0.0
 40
0.0
 40
0.0084362168
 40
0.0173977461
 40
0.027356334
 40
0.0386521984
 40
0.0515136236
 40
0.0660854848
 40
0.1006531743
 40
0.1426963247
 40
0.1921933666
 40
0.2489322137
 40
0.3125710152
 40
0.3826571406
 40
0.4586515028
 40
0.5399407777
 40
0.6258409068
 40
0.8084357825
 40
1.0
 40
1.0
 40
1.0
 40
1.0
 10
8.6394723335
 20
11.5695783811
 30
0.0
 10
8.6394983128
 20
11.5696364207
 30
0.0
 10
8.6395355256
 20
11.5697640923
 30
0.0
 10
8.6395407095
 20
11.5699720636
 30
0.0
 10
8.63949781
 20
11.5701971319
 30
0.0
 10
8.639408212
 20
11.5704391136
 30
0.0
 10
8.6392725085
 20
11.5706982683
 30
0.0
 10
8.6390153444
 20
11.5710891839
 30
0.0
 10
8.6385699771
 20
11.5716154602
 30
0.0
 10
8.6378873643
 20
11.5722781078
 30
0.0
 10
8.6370322888
 20
11.5729990012
 30
0.0
 10
8.6360111726
 20
11.5737722608
 30
0.0
 10
8.6348317577
 20
11.5745913963
 30
0.0
 10
8.6335038053
 20
11.5754493911
 30
0.0
 10
8.6320385936
 20
11.5763387648
 30
0.0
 10
8.6304488907
 20
11.5772516636
 30
0.0
 10
8.6281346458
 20
11.5785151629
 30
0.0
 10
8.6250424992
 20
11.5800866082
 30
0.0
 10
8.6224863668
 20
11.581279564
 30
0.0
 10
8.6211684326
 20
11.581869466
 30
0.0
  0
SPLINE
  5
386
100
AcDbEntity
  8
0
100
AcDbSpline
 62
7
  6
CONTINUOUS
 70
0
 71
3
 72
22
 73
18
 74
0
 42
0.0000001
 43
0.0000001
 44
0.0000000001
 40
0.0
 40
0.0
 40
0.0
 40
0.0
 40
0.0362063389
 40
0.0497850352
 40
0.0654202866
 40
0.0831508264
 40
0.1029834657
 40
0.1248989898
 40
0.1488589626
 40
0.2026940211
 40
0.263948429
 40
0.3319239447
 40
0.4057979081
 40
0.4846389133
 40
0.6530269221
 40
0.8280443779
 40
1.0
 40
1.0
 40
1.0
 40
1.0
 10
8.4699367403
 20
11.6438481067
 30
0.0
 10
8.470089986
 20
11.6441904615
 30
0.0
 10
8.4698742848
 20
11.6447757624
 30
0.0
 10
8.469520095
 20
11.6453351992
 30
0.0
 10
8.4692253892
 20
11.6457268732
 30
0.0
 10
8.4688656151
 20
11.6461433422
 30
0.0
 10
8.468439102
 20
11.6465888249
 30
0.0
 10
8.46794792
 20
11.6470602115
 30
0.0
 10
8.4671779433
 20
11.6477491256
 30
0.0
 10
8.4660612663
 20
11.6486602441
 30
0.0
 10
8.4645407435
 20
11.6497944162
 30
0.0
 10
8.4628109613
 20
11.6509930109
 30
0.0
 10
8.4608945105
 20
11.652240257
 30
0.0
 10
8.4580614317
 20
11.6539842174
 30
0.0
 10
8.4542593684
 20
11.6561502606
 30
0.0
 10
8.4495216792
 20
11.6586141782
 30
0.0
 10
8.4462717073
 20
11.6601525446
 30
0.0
 10
8.4446457372
 20
11.6608803223
 30
0.0
  0
SPLINE
  5
387
100
AcDbEntity
  8
0
100
AcDbSpline
 62
7
  6
CONTINUOUS
 70
0
 71
3
 72
28
 73
24
 74
0
 42
0.0000001
 43
0.0000001
 44
0.0000000001
 40
0.0
 40
0.0
 40
0.0
 40
0.0
 40
0.0062472319
 40
0.0098861138
 40
0.0139926943
 40
0.0238270048
 40
0.0360475659
 40
0.0507585691
 40
0.0679820859
 40
0.087690544
 40
0.1098280804
 40
0.161051727
 40
0.220838716
 40
0.2881614004
 40
0.3618240115
 40
0.4404882115
 40
0.5226924397
 40
0.6068778994
 40
0.6914131034
 40
0.7746313874
 40
0.8548659514
 40
0.9304982677
 40
1.0
 40
1.0
 40
1.0
 40
1.0
 10
8.3194685149
 20
11.7097422564
 30
0.0
 10
8.3195012854
 20
11.7098154893
 30
0.0
 10
8.3195211421
 20
11.7099462546
 30
0.0
 10
8.3194997684
 20
11.7101247959
 30
0.0
 10
8.3194413519
 20
11.7103436993
 30
0.0
 10
8.3192987603
 20
11.7106501258
 30
0.0
 10
8.3190436645
 20
11.7110482861
 30
0.0
 10
8.3186948791
 20
11.7114961956
 30
0.0
 10
8.3182537276
 20
11.7119918595
 30
0.0
 10
8.3177218642
 20
11.7125331348
 30
0.0
 10
8.3168514751
 20
11.7133526485
 30
0.0
 10
8.3155507873
 20
11.7144640954
 30
0.0
 10
8.3137473479
 20
11.7158765131
 30
0.0
 10
8.3116653308
 20
11.7173982388
 30
0.0
 10
8.3093434603
 20
11.7190006806
 30
0.0
 10
8.3068252125
 20
11.7206535468
 30
0.0
 10
8.3041586348
 20
11.7223254024
 30
0.0
 10
8.3013954999
 20
11.7239840234
 30
0.0
 10
8.2985904277
 20
11.7255969688
 30
0.0
 10
8.2957998429
 20
11.7271321879
 30
0.0
 10
8.2930806585
 20
11.7285588034
 30
0.0
 10
8.2904889627
 20
11.7298478024
 30
0.0
 10
8.2887997722
 20
11.7306363563
 30
0.0
 10
8.2879850753
 20
11.7310010114
 30
0.0
  0
SPLINE
  5
388
100
AcDbEntity
  8
0
100
AcDbSpline
 62
7
  6
CONTINUOUS
 70
0
 71
3
 72
17
 73
13
 74
0
 42
0.0000001
 43
0.0000001
 44
0.0000000001
 40
0.0
 40
0.0
 40
0.0
 40
0.0
 40
0.0406310818
 40
0.0680088097
 40
0.1012082929
 40
0.1406435594
 40
0.1865275759
 40
0.2979193087
 40
0.435537483
 40
0.5989400998
 40
0.7874113528
 40
1.0
 40
1.0
 40
1.0
 40
1.0
 10
8.2080599619
 20
11.7585168201
 30
0.0
 10
8.2080844618
 20
11.7585715247
 30
0.0
 10
8.2080807861
 20
11.7586802178
 30
0.0
 10
8.2080341038
 20
11.758820918
 30
0.0
 10
8.2079696439
 20
11.7589544875
 30
0.0
 10
8.2078787468
 20
11.7591038843
 30
0.0
 10
8.2077111359
 20
11.7593410614
 30
0.0
 10
8.2074318257
 20
11.759675306
 30
0.0
 10
8.2070134333
 20
11.7601172853
 30
0.0
 10
8.2064943501
 20
11.7606195531
 30
0.0
 10
8.2058774888
 20
11.7611790673
 30
0.0
 10
8.2054293851
 20
11.7615655004
 30
0.0
 10
8.2051899362
 20
11.7617680347
 30
0.0
  0
SPLINE
  5
389
100
AcDbEntity
  8
0
100
AcDbSpline
 62
7
  6
CONTINUOUS
 70
0
 71
3
 72
19
 73
15
 74
0
 42
0.0000001
 43
0.0000001
 44
0.0000000001
 40
0.0
 40
0.0
 40
0.0
 40
0.0
 40
0.0463988584
 40
0.0995538367
 40
0.1586622831
 40
0.2228354402
 40
0.3624619603
 40
0.5100462255
 40
0.6565485513
 40
0.7927335587
 40
0.8541655443
 40
0.9097775435
 40
0.9586563275
 40
1.0
 40
1.0
 40
1.0
 40
1.0
 10
8.2051899362
 20
11.7617680347
 30
0.0
 10
8.2047243207
 20
11.7621618687
 30
0.0
 10
8.2037098436
 20
11.7629886409
 30
0.0
 10
8.2020609512
 20
11.7642655382
 30
0.0
 10
8.2001995581
 20
11.7656488285
 30
0.0
 10
8.1973921499
 20
11.7676637271
 30
0.0
 10
8.193581656
 20
11.7702742733
 30
0.0
 10
8.1888044823
 20
11.7733854011
 30
0.0
 10
8.183997941
 20
11.7763659711
 30
0.0
 10
8.1800993895
 20
11.7786601167
 30
0.0
 10
8.1771940857
 20
11.7802841608
 30
0.0
 10
8.1752724183
 20
11.7813155014
 30
0.0
 10
8.1735645121
 20
11.7821858838
 30
0.0
 10
8.1724930956
 20
11.7826947621
 30
0.0
 10
8.1719971157
 20
11.7829167607
 30
0.0
  0
LINE
  5
38A
100
AcDbEntity
  8
0
100
AcDbLine
 62
7
  6
CONTINUOUS
 10
8.1505158737
 20
11.7837046482
 11
8.1478891477
 21
11.7859158631
  0
SPLINE
  5
38B
100
AcDbEntity
  8
0
100
AcDbSpline
 62
7
  6
CONTINUOUS
 70
0
 71
3
 72
17
 73
13
 74
0
 42
0.0000001
 43
0.0000001
 44
0.0000000001
 40
0.0
 40
0.0
 40
0.0
 40
0.0
 40
0.0442812306
 40
0.096444544
 40
0.2204154106
 40
0.3630153775
 40
0.5143096408
 40
0.6638215737
 40
0.8010294272
 40
0.9159698842
 40
0.9623141165
 40
1.0
 40
1.0
 40
1.0
 40
1.0
 10
8.1478891477
 20
11.7859158631
 30
0.0
 10
8.147405209
 20
11.7862802794
 30
0.0
 10
8.1463449548
 20
11.7870656983
 30
0.0
 10
8.1439038911
 20
11.788836111
 30
0.0
 10
8.1403429474
 20
11.7913531059
 30
0.0
 10
8.1356386778
 20
11.7946014411
 30
0.0
 10
8.1306142015
 20
11.7980005289
 30
0.0
 10
8.1256210942
 20
11.8013139089
 30
0.0
 10
8.121014253
 20
11.8043094139
 30
0.0
 10
8.117567082
 20
11.8064989736
 30
0.0
 10
8.1152505179
 20
11.8079284374
 30
0.0
 10
8.1142652781
 20
11.8085208919
 30
0.0
 10
8.1138207286
 20
11.8087820252
 30
0.0
  0
LINE
  5
38C
100
AcDbEntity
  8
0
100
AcDbLine
 62
7
  6
CONTINUOUS
 10
8.1138207286
 20
11.8087820252
 11
8.1120895999
 21
11.8097311265
  0
LINE
  5
38D
100
AcDbEntity
  8
0
100
AcDbLine
 62
7
  6
CONTINUOUS
 10
9.2638567378
 20
11.3587187569
 11
9.2631961244
 21
11.3591611597
  0
SPLINE
  5
38E
100
AcDbEntity
  8
0
100
AcDbSpline
 62
7
  6
CONTINUOUS
 70
0
 71
3
 72
17
 73
13
 74
0
 42
0.0000001
 43
0.0000001
 44
0.0000000001
 40
0.0
 40
0.0
 40
0.0
 40
0.0
 40
0.0197256049
 40
0.0411986107
 40
0.0666987012
 40
0.0976255756
 40
0.1783950138
 40
0.2865477252
 40
0.4229260592
 40
0.5876037877
 40
0.7802341003
 40
1.0
 40
1.0
 40
1.0
 40
1.0
 10
9.1990926991
 20
11.3872758504
 30
0.0
 10
9.1991013751
 20
11.3872952439
 30
0.0
 10
9.1991114877
 20
11.3873398487
 30
0.0
 10
9.199099609
 20
11.3874120068
 30
0.0
 10
9.1990635479
 20
11.387488546
 30
0.0
 10
9.1989764121
 20
11.3876085773
 30
0.0
 10
9.1988012494
 20
11.3877703603
 30
0.0
 10
9.1985169208
 20
11.3879753743
 30
0.0
 10
9.1981402184
 20
11.3882049622
 30
0.0
 10
9.1976725102
 20
11.3884581568
 30
0.0
 10
9.1971152217
 20
11.3887336505
 30
0.0
 10
9.1967116678
 20
11.3889193381
 30
0.0
 10
9.19649562
 20
11.3890160402
 30
0.0
  0
SPLINE
  5
38F
100
AcDbEntity
  8
0
100
AcDbSpline
 62
7
  6
CONTINUOUS
 70
0
 71
3
 72
19
 73
15
 74
0
 42
0.0000001
 43
0.0000001
 44
0.0000000001
 40
0.0
 40
0.0
 40
0.0
 40
0.0
 40
0.0193166594
 40
0.0407083394
 40
0.0664669664
 40
0.0979194413
 40
0.1357764488
 40
0.1803962272
 40
0.2319459762
 40
0.290494821
 40
0.4284329938
 40
0.593549053
 40
0.78466463
 40
1.0
 40
1.0
 40
1.0
 40
1.0
 10
9.0960669993
 20
11.4327013412
 30
0.0
 10
9.0960855619
 20
11.4327428099
 30
0.0
 10
9.0961062571
 20
11.4328395528
 30
0.0
 10
9.0960768967
 20
11.4329959979
 30
0.0
 10
9.0959944566
 20
11.4331630785
 30
0.0
 10
9.0958607924
 20
11.43334331
 30
0.0
 10
9.0956757197
 20
11.4335377317
 30
0.0
 10
9.0954391571
 20
11.4337465152
 30
0.0
 10
9.0951512736
 20
11.4339694223
 30
0.0
 10
9.0946726752
 20
11.4343033433
 30
0.0
 10
9.0939465254
 20
11.4347474394
 30
0.0
 10
9.0929253357
 20
11.4353031306
 30
0.0
 10
9.0917210016
 20
11.4359010844
 30
0.0
 10
9.0908527241
 20
11.4363013801
 30
0.0
 10
9.0903904402
 20
11.4365082965
 30
0.0
  0
SPLINE
  5
390
100
AcDbEntity
  8
0
100
AcDbSpline
 62
7
  6
CONTINUOUS
 70
0
 71
3
 72
20
 73
16
 74
0
 42
0.0000001
 43
0.0000001
 44
0.0000000001
 40
0.0
 40
0.0
 40
0.0
 40
0.0
 40
0.0093011704
 40
0.0188527471
 40
0.0401538008
 40
0.0663148994
 40
0.0985786828
 40
0.1375361173
 40
0.1834541157
 40
0.2363958678
 40
0.2963192112
 40
0.4364981965
 40
0.6022569763
 40
0.791121794
 40
1.0
 40
1.0
 40
1.0
 40
1.0
 10
8.9617994045
 20
11.49189673
 30
0.0
 10
8.9618146411
 20
11.4919307581
 30
0.0
 10
8.9618380493
 20
11.492003368
 30
0.0
 10
8.9618530273
 20
11.4921647793
 30
0.0
 10
8.9618032597
 20
11.4923928437
 30
0.0
 10
8.9616533591
 20
11.4926773796
 30
0.0
 10
8.9614147667
 20
11.4929879676
 30
0.0
 10
8.9610870252
 20
11.4933251835
 30
0.0
 10
8.9606704434
 20
11.4936887042
 30
0.0
 10
8.9601660535
 20
11.4940773887
 30
0.0
 10
8.9593339558
 20
11.4946579504
 30
0.0
 10
8.9580836694
 20
11.4954265695
 30
0.0
 10
8.9563439637
 20
11.4963801408
 30
0.0
 10
8.9543230208
 20
11.4973900649
 30
0.0
 10
8.9528757024
 20
11.4980593462
 30
0.0
 10
8.9521114777
 20
11.4984014101
 30
0.0
  0
SPLINE
  5
391
100
AcDbEntity
  8
0
100
AcDbSpline
 62
7
  6
CONTINUOUS
 70
0
 71
3
 72
22
 73
18
 74
0
 42
0.0000001
 43
0.0000001
 44
0.0000000001
 40
0.0
 40
0.0
 40
0.0
 40
0.0
 40
0.0088682199
 40
0.0181230509
 40
0.0281968191
 40
0.0394255067
 40
0.066192383
 40
0.0995936594
 40
0.1400840274
 40
0.1877826938
 40
0.2426206206
 40
0.3044038779
 40
0.37283952
 40
0.447565298
 40
0.6140812115
 40
0.7998336581
 40
1.0
 40
1.0
 40
1.0
 40
1.0
 10
8.8054387116
 20
11.5608250287
 30
0.0
 10
8.8054601959
 20
11.5608730153
 30
0.0
 10
8.8054921606
 20
11.5609769007
 30
0.0
 10
8.8055023424
 20
11.5611450801
 30
0.0
 10
8.8054760393
 20
11.561325397
 30
0.0
 10
8.8053879891
 20
11.5615975316
 30
0.0
 10
8.8051764297
 20
11.561968426
 30
0.0
 10
8.8048014588
 20
11.5624341722
 30
0.0
 10
8.8042911768
 20
11.5629448924
 30
0.0
 10
8.8036476575
 20
11.5634978997
 30
0.0
 10
8.8028736993
 20
11.5640902247
 30
0.0
 10
8.8019736313
 20
11.5647180689
 30
0.0
 10
8.8009528393
 20
11.5653774895
 30
0.0
 10
8.7993816151
 20
11.5663276514
 30
0.0
 10
8.7971656393
 20
11.567553499
 30
0.0
 10
8.7942407919
 20
11.5690285712
 30
0.0
 10
8.7921653784
 20
11.5699926479
 30
0.0
 10
8.7910822154
 20
11.5704774673
 30
0.0
  0
SPLINE
  5
392
100
AcDbEntity
  8
0
100
AcDbSpline
 62
7
  6
CONTINUOUS
 70
0
 71
3
 72
24
 73
20
 74
0
 42
0.0000001
 43
0.0000001
 44
0.0000000001
 40
0.0
 40
0.0
 40
0.0
 40
0.0
 40
0.0083200289
 40
0.0172128714
 40
0.0271598239
 40
0.0385023413
 40
0.0514604957
 40
0.0661730662
 40
0.1011343311
 40
0.1436763987
 40
0.1937344459
 40
0.2510560455
 40
0.3152515631
 40
0.3858215899
 40
0.4621781834
 40
0.5436522192
 40
0.6295043962
 40
0.8110775078
 40
1.0
 40
1.0
 40
1.0
 40
1.0
 10
8.6376396136
 20
11.6347866331
 30
0.0
 10
8.6376667177
 20
11.6348472029
 30
0.0
 10
8.6377050115
 20
11.6349811633
 30
0.0
 10
8.6377081875
 20
11.6351997292
 30
0.0
 10
8.6376600767
 20
11.6354370702
 30
0.0
 10
8.6375620917
 20
11.635693023
 30
0.0
 10
8.6374150046
 20
11.6359679288
 30
0.0
 10
8.6371372084
 20
11.6363838117
 30
0.0
 10
8.6366581686
 20
11.6369447677
 30
0.0
 10
8.6359261873
 20
11.6376525274
 30
0.0
 10
8.6350111442
 20
11.6384234229
 30
0.0
 10
8.6339204693
 20
11.6392505807
 30
0.0
 10
8.6326631376
 20
11.6401265116
 30
0.0
 10
8.6312503256
 20
11.6410430895
 30
0.0
 10
8.6296949034
 20
11.6419916611
 30
0.0
 10
8.6280114344
 20
11.6429632076
 30
0.0
 10
8.6255716258
 20
11.6443017705
 30
0.0
 10
8.6223290429
 20
11.6459568466
 30
0.0
 10
8.6196518308
 20
11.6472090255
 30
0.0
 10
8.6182765312
 20
11.6478246042
 30
0.0
  0
SPLINE
  5
393
100
AcDbEntity
  8
0
100
AcDbSpline
 62
7
  6
CONTINUOUS
 70
0
 71
3
 72
25
 73
21
 74
0
 42
0.0000001
 43
0.0000001
 44
0.0000000001
 40
0.0
 40
0.0
 40
0.0
 40
0.0
 40
0.0076360189
 40
0.0161034986
 40
0.0259443323
 40
0.0374927765
 40
0.0509419555
 40
0.0663936179
 40
0.0838945458
 40
0.1034583747
 40
0.1486922999
 40
0.2018075653
 40
0.262309626
 40
0.3295552551
 40
0.4027805632
 40
0.4811156248
 40
0.5635978855
 40
0.6491876364
 40
0.8252211399
 40
1.0
 40
1.0
 40
1.0
 40
1.0
 10
8.4698369071
 20
11.708740205
 30
0.0
 10
8.4698681081
 20
11.7088099339
 30
0.0
 10
8.4699083269
 20
11.7089693316
 30
0.0
 10
8.4698946027
 20
11.7092312633
 30
0.0
 10
8.4698134182
 20
11.7095205205
 30
0.0
 10
8.4696667474
 20
11.7098378193
 30
0.0
 10
8.4694551384
 20
11.7101835216
 30
0.0
 10
8.4691790279
 20
11.7105572299
 30
0.0
 10
8.4688390144
 20
11.710958152
 30
0.0
 10
8.4682734522
 20
11.7115568993
 30
0.0
 10
8.4674071982
 20
11.7123593373
 30
0.0
 10
8.4661793533
 20
11.7133691052
 30
0.0
 10
8.4647311615
 20
11.7144546453
 30
0.0
 10
8.4630800401
 20
11.715602452
 30
0.0
 10
8.4612460975
 20
11.7167980193
 30
0.0
 10
8.4592523631
 20
11.7180260772
 30
0.0
 10
8.4571243686
 20
11.7192707522
 30
0.0
 10
8.4541169149
 20
11.720946213
 30
0.0
 10
8.4502408314
 20
11.7229576116
 30
0.0
 10
8.4470667743
 20
11.7244574103
 30
0.0
 10
8.445470847
 20
11.725171741
 30
0.0
  0
SPLINE
  5
394
100
AcDbEntity
  8
0
100
AcDbSpline
 62
7
  6
CONTINUOUS
 70
0
 71
3
 72
26
 73
22
 74
0
 42
0.0000001
 43
0.0000001
 44
0.0000000001
 40
0.0
 40
0.0
 40
0.0
 40
0.0
 40
0.0067901871
 40
0.0147789181
 40
0.0245697238
 40
0.0364714978
 40
0.0506265537
 40
0.067089114
 40
0.0858630105
 40
0.1069179399
 40
0.1556434087
 40
0.2126676958
 40
0.2771831933
 40
0.3482247274
 40
0.4246902252
 40
0.5053612527
 40
0.5889198842
 40
0.6739702532
 40
0.8427263273
 40
0.9235140266
 40
1.0
 40
1.0
 40
1.0
 40
1.0
 10
8.3134663626
 20
11.7776465458
 30
0.0
 10
8.3134992902
 20
11.7777201199
 30
0.0
 10
8.3135342912
 20
11.7778974518
 30
0.0
 10
8.313490203
 20
11.7781892256
 30
0.0
 10
8.3133624801
 20
11.7785195322
 30
0.0
 10
8.3131518894
 20
11.7788904957
 30
0.0
 10
8.3128590982
 20
11.7793023871
 30
0.0
 10
8.312484643
 20
11.7797540828
 30
0.0
 10
8.3120297496
 20
11.7802439534
 30
0.0
 10
8.3112807811
 20
11.7809819808
 30
0.0
 10
8.310151125
 20
11.7819784476
 30
0.0
 10
8.3085716126
 20
11.7832403851
 30
0.0
 10
8.3067326678
 20
11.7845993504
 30
0.0
 10
8.3046637049
 20
11.7860331726
 30
0.0
 10
8.3023980688
 20
11.7875182319
 30
0.0
 10
8.2999731145
 20
11.7890298412
 30
0.0
 10
8.2974295498
 20
11.7905426074
 30
0.0
 10
8.2939473124
 20
11.7925210635
 30
0.0
 10
8.2904378572
 20
11.7943839665
 30
0.0
 10
8.2869642881
 20
11.7960913641
 30
0.0
 10
8.2852703211
 20
11.7968768591
 30
0.0
 10
8.2844415846
 20
11.7972477983
 30
0.0
  0
SPLINE
  5
395
100
AcDbEntity
  8
0
100
AcDbSpline
 62
7
  6
CONTINUOUS
 70
0
 71
3
 72
27
 73
23
 74
0
 42
0.0000001
 43
0.0000001
 44
0.0000000001
 40
0.0
 40
0.0
 40
0.0
 40
0.0
 40
0.0130001425
 40
0.017620602
 40
0.0228742912
 40
0.0353528932
 40
0.050515173
 40
0.068354669
 40
0.0888196563
 40
0.1118307924
 40
0.1650660341
 40
0.2270668787
 40
0.296625353
 40
0.3723607003
 40
0.4527474149
 40
0.5361367696
 40
0.620786553
 40
0.704890827
 40
0.7866226589
 40
0.8641793441
 40
0.9358347434
 40
1.0
 40
1.0
 40
1.0
 40
1.0
 10
8.1791853201
 20
11.8368119146
 30
0.0
 10
8.1792567312
 20
11.8369714309
 30
0.0
 10
8.1791956095
 20
11.8372378369
 30
0.0
 10
8.1790687306
 20
11.8375127655
 30
0.0
 10
8.1789203294
 20
11.8377758664
 30
0.0
 10
8.17866483
 20
11.8381370533
 30
0.0
 10
8.1782721481
 20
11.8386065779
 30
0.0
 10
8.1777792376
 20
11.8391300679
 30
0.0
 10
8.1771884732
 20
11.8397052666
 30
0.0
 10
8.1762262993
 20
11.8405799904
 30
0.0
 10
8.1747988041
 20
11.841771368
 30
0.0
 10
8.1728326541
 20
11.8432905938
 30
0.0
 10
8.1705778805
 20
11.8449289921
 30
0.0
 10
8.1680807114
 20
11.8466525977
 30
0.0
 10
8.1653925617
 20
11.8484255262
 30
0.0
 10
8.1625696719
 20
11.8502106714
 30
0.0
 10
8.159672101
 20
11.8519701668
 30
0.0
 10
8.1567626485
 20
11.8536661224
 30
0.0
 10
8.1539055354
 20
11.8552614203
 30
0.0
 10
8.1511648155
 20
11.8567207039
 30
0.0
 10
8.1486026646
 20
11.8580113177
 30
0.0
 10
8.1469499747
 20
11.8587884959
 30
0.0
 10
8.1461626221
 20
11.8591409118
 30
0.0
  0
SPLINE
  5
396
100
AcDbEntity
  8
0
100
AcDbSpline
 62
7
  6
CONTINUOUS
 70
0
 71
3
 72
17
 73
13
 74
0
 42
0.0000001
 43
0.0000001
 44
0.0000000001
 40
0.0
 40
0.0
 40
0.0
 40
0.0
 40
0.03984854
 40
0.0669623119
 40
0.0999772488
 40
0.1392962694
 40
0.1851240614
 40
0.2965542747
 40
0.4343707145
 40
0.5980923093
 40
0.7869652227
 40
1.0
 40
1.0
 40
1.0
 40
1.0
 10
8.0761461858
 20
11.8822073566
 30
0.0
 10
8.0761707416
 20
11.8822621872
 30
0.0
 10
8.076165511
 20
11.8823718572
 30
0.0
 10
8.0761165218
 20
11.882513142
 30
0.0
 10
8.0760493515
 20
11.8826480915
 30
0.0
 10
8.075955065
 20
11.8827992629
 30
0.0
 10
8.0757815008
 20
11.8830397842
 30
0.0
 10
8.0754930617
 20
11.8833791782
 30
0.0
 10
8.0750618292
 20
11.8838285477
 30
0.0
 10
8.0745274225
 20
11.8843397757
 30
0.0
 10
8.0738929446
 20
11.8849097152
 30
0.0
 10
8.0734323974
 20
11.885303582
 30
0.0
 10
8.0731863752
 20
11.885510059
 30
0.0
  0
SPLINE
  5
397
100
AcDbEntity
  8
0
100
AcDbSpline
 62
7
  6
CONTINUOUS
 70
0
 71
3
 72
19
 73
15
 74
0
 42
0.0000001
 43
0.0000001
 44
0.0000000001
 40
0.0
 40
0.0
 40
0.0
 40
0.0
 40
0.0467993897
 40
0.1002941961
 40
0.1596781161
 40
0.2240607931
 40
0.3639110356
 40
0.5114792083
 40
0.6577693763
 40
0.7936036546
 40
0.8548277059
 40
0.9102203879
 40
0.9588759109
 40
1.0
 40
1.0
 40
1.0
 40
1.0
 10
8.0731863752
 20
11.885510059
 30
0.0
 10
8.0727160512
 20
11.8859047837
 30
0.0
 10
8.0716933366
 20
11.886733117
 30
0.0
 10
8.0700342139
 20
11.8880125154
 30
0.0
 10
8.068165635
 20
11.8893973731
 30
0.0
 10
8.0653542031
 20
11.8914120991
 30
0.0
 10
8.0615459681
 20
11.8940210886
 30
0.0
 10
8.056779148
 20
11.8971294671
 30
0.0
 10
8.0519904086
 20
11.9001052913
 30
0.0
 10
8.0481099874
 20
11.9023944985
 30
0.0
 10
8.0452203916
 20
11.9040136387
 30
0.0
 10
8.0433105701
 20
11.9050408361
 30
0.0
 10
8.0416140201
 20
11.9059068942
 30
0.0
 10
8.0405499141
 20
11.9064127398
 30
0.0
 10
8.0400574423
 20
11.9066331682
 30
0.0
  0
SPLINE
  5
398
100
AcDbEntity
  8
0
100
AcDbSpline
 62
7
  6
CONTINUOUS
 70
0
 71
3
 72
18
 73
14
 74
0
 42
0.0000001
 43
0.0000001
 44
0.0000000001
 40
0.0
 40
0.0
 40
0.0
 40
0.0
 40
0.0111466784
 40
0.0275588847
 40
0.0506208054
 40
0.0807870332
 40
0.1182305103
 40
0.1629986759
 40
0.2744084758
 40
0.4146325565
 40
0.5829380156
 40
0.7784270437
 40
1.0
 40
1.0
 40
1.0
 40
1.0
 10
8.0113723331
 20
11.9107424286
 30
0.0
 10
8.0113784645
 20
11.9107561237
 30
0.0
 10
8.0113777249
 20
11.9107958239
 30
0.0
 10
8.0113506656
 20
11.910858507
 30
0.0
 10
8.0113005558
 20
11.9109381539
 30
0.0
 10
8.0112252694
 20
11.9110343269
 30
0.0
 10
8.0111249889
 20
11.9111476861
 30
0.0
 10
8.010943985
 20
11.9113353004
 30
0.0
 10
8.0106534563
 20
11.9116090514
 30
0.0
 10
8.0102288034
 20
11.9119822625
 30
0.0
 10
8.0097084698
 20
11.9124177715
 30
0.0
 10
8.0090954423
 20
11.912912914
 30
0.0
 10
8.008653965
 20
11.91325978
 30
0.0
 10
8.0084184912
 20
11.9134428561
 30
0.0
  0
SPLINE
  5
399
100
AcDbEntity
  8
0
100
AcDbSpline
 62
7
  6
CONTINUOUS
 70
0
 71
3
 72
19
 73
15
 74
0
 42
0.0000001
 43
0.0000001
 44
0.0000000001
 40
0.0
 40
0.0
 40
0.0
 40
0.0
 40
0.0470179544
 40
0.10161409
 40
0.22945801
 40
0.374511868
 40
0.5267385131
 40
0.6755640297
 40
0.7453776672
 40
0.8104064661
 40
0.8694365488
 40
0.9213497329
 40
0.965150464
 40
1.0
 40
1.0
 40
1.0
 40
1.0
 10
8.0084184912
 20
11.9134428561
 30
0.0
 10
8.0079122305
 20
11.9138364634
 30
0.0
 10
8.0068090216
 20
11.9146754313
 30
0.0
 10
8.0042914794
 20
11.9165345649
 30
0.0
 10
8.0006535474
 20
11.9191266661
 30
0.0
 10
7.9958802159
 20
11.922418517
 30
0.0
 10
7.9908256048
 20
11.9258056164
 30
0.0
 10
7.9865879535
 20
11.9285677016
 30
0.0
 10
7.9833241384
 20
11.9306452295
 30
0.0
 10
7.9810823191
 20
11.9320474353
 30
0.0
 10
7.9790359286
 20
11.9333015104
 30
0.0
 10
7.9772241518
 20
11.9343841366
 30
0.0
 10
7.9756821381
 20
11.9352748521
 30
0.0
 10
7.9747421438
 20
11.935792048
 30
0.0
 10
7.9743211118
 20
11.9360126122
 30
0.0
  0
LINE
  5
39A
100
AcDbEntity
  8
0
100
AcDbLine
 62
7
  6
CONTINUOUS
 10
7.9743211118
 20
11.9360126122
 11
7.9733569379
 21
11.9364880486
  0
LINE
  5
39B
100
AcDbEntity
  8
0
100
AcDbLine
 62
7
  6
CONTINUOUS
 10
8.701448932
 20
12.6002186436
 11
8.7042574813
 21
12.5997118052
  0
SPLINE
  5
39C
100
AcDbEntity
  8
0
100
AcDbSpline
 62
7
  6
CONTINUOUS
 70
0
 71
3
 72
9
 73
5
 74
0
 42
0.0000001
 43
0.0000001
 44
0.0000000001
 40
0.0
 40
0.0
 40
0.0
 40
0.0
 40
0.4905404525
 40
1.0
 40
1.0
 40
1.0
 40
1.0
 10
9.5221187621
 20
11.2928370305
 30
0.0
 10
9.5260832434
 20
11.2916888644
 30
0.0
 10
9.5343180118
 20
11.289854685
 30
0.0
 10
9.5427008426
 20
11.2889543841
 30
0.0
 10
9.5469801733
 20
11.288705176
 30
0.0
  0
LINE
  5
39D
100
AcDbEntity
  8
0
100
AcDbLine
 62
7
  6
CONTINUOUS
 10
7.9733569379
 20
11.9364880486
 11
7.9725869074
 21
11.9366859963
  0
SPLINE
  5
39E
100
AcDbEntity
  8
0
100
AcDbSpline
 62
7
  6
CONTINUOUS
 70
0
 71
3
 72
17
 73
13
 74
0
 42
0.0000001
 43
0.0000001
 44
0.0000000001
 40
0.0
 40
0.0
 40
0.0
 40
0.0
 40
0.2197659024
 40
0.4123962195
 40
0.5770739499
 40
0.7134522798
 40
0.8216049876
 40
0.9023744258
 40
0.9333013015
 40
0.9588013926
 40
0.9802743972
 40
1.0
 40
1.0
 40
1.0
 40
1.0
 10
8.0400574423
 20
11.9066331682
 30
0.0
 10
8.0398413946
 20
11.9067298703
 30
0.0
 10
8.0394340681
 20
11.9069071296
 30
0.0
 10
8.0388573493
 20
11.907139213
 30
0.0
 10
8.0383569385
 20
11.9073193446
 30
0.0
 10
8.0379347604
 20
11.9074473325
 30
0.0
 10
8.0375924475
 20
11.9075228007
 30
0.0
 10
8.037355101
 20
11.9075456551
 30
0.0
 10
8.0372075349
 20
11.9075306756
 30
0.0
 10
8.0371264298
 20
11.9075065795
 30
0.0
 10
8.0370647022
 20
11.9074673673
 30
0.0
 10
8.0370381736
 20
11.9074301102
 30
0.0
 10
8.0370294902
 20
11.90741072
 30
0.0
  0
SPLINE
  5
39F
100
AcDbEntity
  8
0
100
AcDbSpline
 62
7
  6
CONTINUOUS
 70
0
 71
3
 72
19
 73
15
 74
0
 42
0.0000001
 43
0.0000001
 44
0.0000000001
 40
0.0
 40
0.0
 40
0.0
 40
0.0
 40
0.2153353747
 40
0.4064509547
 40
0.5715670116
 40
0.7095051875
 40
0.7680540329
 40
0.8196037789
 40
0.8642235523
 40
0.9020805557
 40
0.9335330312
 40
0.9592916609
 40
0.980683342
 40
1.0
 40
1.0
 40
1.0
 40
1.0
 10
8.1461626221
 20
11.8591409118
 30
0.0
 10
8.1457003382
 20
11.8593478282
 30
0.0
 10
8.1448233662
 20
11.8597286992
 30
0.0
 10
8.1435751066
 20
11.8602285166
 30
0.0
 10
8.142480375
 20
11.8606199034
 30
0.0
 10
8.1416654218
 20
11.8608655989
 30
0.0
 10
8.1410975518
 20
11.861000073
 30
0.0
 10
8.1407395264
 20
11.861066272
 30
0.0
 10
8.1404262238
 20
11.8611036061
 30
0.0
 10
8.1401579339
 20
11.8611121076
 30
0.0
 10
8.1399344749
 20
11.8610917231
 30
0.0
 10
8.1397549484
 20
11.8610418977
 30
0.0
 10
8.139618715
 20
11.8609595717
 30
0.0
 10
8.139560353
 20
11.8608796883
 30
0.0
 10
8.1395417928
 20
11.8608382186
 30
0.0
  0
SPLINE
  5
3A0
100
AcDbEntity
  8
0
100
AcDbSpline
 62
7
  6
CONTINUOUS
 70
0
 71
3
 72
20
 73
16
 74
0
 42
0.0000001
 43
0.0000001
 44
0.0000000001
 40
0.0
 40
0.0
 40
0.0
 40
0.0
 40
0.2088782119
 40
0.3977430296
 40
0.5635018139
 40
0.7036807923
 40
0.7636041311
 40
0.8165458859
 40
0.8624638874
 40
0.9014213203
 40
0.9336850994
 40
0.9598461968
 40
0.9811472518
 40
0.9906988288
 40
1.0
 40
1.0
 40
1.0
 40
1.0
 10
8.2844415846
 20
11.7972477983
 30
0.0
 10
8.2836773599
 20
11.7975898622
 30
0.0
 10
8.2822140316
 20
11.7982233748
 30
0.0
 10
8.2801145146
 20
11.7990577522
 30
0.0
 10
8.2782443823
 20
11.7997199299
 30
0.0
 10
8.2768382308
 20
11.8001403219
 30
0.0
 10
8.2758509227
 20
11.800374119
 30
0.0
 10
8.275225029
 20
11.8004913449
 30
0.0
 10
8.274676399
 20
11.8005598492
 30
0.0
 10
8.2742065714
 20
11.8005796221
 30
0.0
 10
8.2738159926
 20
11.8005506487
 30
0.0
 10
8.2735039288
 20
11.8004728862
 30
0.0
 10
8.273300688
 20
11.8003580673
 30
0.0
 10
8.2731902887
 20
11.8002393662
 30
0.0
 10
8.273151732
 20
11.8001735367
 30
0.0
 10
8.273136505
 20
11.8001395043
 30
0.0
  0
SPLINE
  5
3A1
100
AcDbEntity
  8
0
100
AcDbSpline
 62
7
  6
CONTINUOUS
 70
0
 71
3
 72
22
 73
18
 74
0
 42
0.0000001
 43
0.0000001
 44
0.0000000001
 40
0.0
 40
0.0
 40
0.0
 40
0.0
 40
0.200166348
 40
0.3859187963
 40
0.5524347089
 40
0.6271604808
 40
0.6955961259
 40
0.757379386
 40
0.812217308
 40
0.8599159701
 40
0.9004063397
 40
0.9338076173
 40
0.9605744945
 40
0.9718031819
 40
0.9818769493
 40
0.9911317796
 40
1.0
 40
1.0
 40
1.0
 40
1.0
 10
8.445470847
 20
11.725171741
 30
0.0
 10
8.4443876839
 20
11.7256565605
 30
0.0
 10
8.4422860712
 20
11.7265621041
 30
0.0
 10
8.4392374822
 20
11.7277607183
 30
0.0
 10
8.4368470044
 20
11.7285967009
 30
0.0
 10
8.4350916558
 20
11.7291354998
 30
0.0
 10
8.4339198296
 20
11.7294574864
 30
0.0
 10
8.4328519779
 20
11.7297104753
 30
0.0
 10
8.431894629
 20
11.7298930764
 30
0.0
 10
8.4310534998
 20
11.7300045919
 30
0.0
 10
8.430332669
 20
11.7300449129
 30
0.0
 10
8.429735522
 20
11.7300142828
 30
0.0
 10
8.429317977
 20
11.7299249729
 30
0.0
 10
8.429056366
 20
11.7298093454
 30
0.0
 10
8.4289043662
 20
11.7297088361
 30
0.0
 10
8.4287857243
 20
11.7295892031
 30
0.0
 10
8.4287295432
 20
11.7294961568
 30
0.0
 10
8.4287080685
 20
11.729448166
 30
0.0
  0
SPLINE
  5
3A2
100
AcDbEntity
  8
0
100
AcDbSpline
 62
7
  6
CONTINUOUS
 70
0
 71
3
 72
24
 73
20
 74
0
 42
0.0000001
 43
0.0000001
 44
0.0000000001
 40
0.0
 40
0.0
 40
0.0
 40
0.0
 40
0.1889225023
 40
0.3704956231
 40
0.4563477984
 40
0.5378218307
 40
0.6141784305
 40
0.6847484559
 40
0.7489439674
 40
0.8062655679
 40
0.856323617
 40
0.8988656835
 40
0.9338269438
 40
0.9485395128
 40
0.961497668
 40
0.9728401862
 40
0.9827871368
 40
0.991679975
 40
1.0
 40
1.0
 40
1.0
 40
1.0
 10
8.6182765312
 20
11.6478246042
 30
0.0
 10
8.6169012314
 20
11.6484401829
 30
0.0
 10
8.6141838444
 20
11.649602605
 30
0.0
 10
8.6107893393
 20
11.6509182632
 30
0.0
 10
8.608165685
 20
11.6518460861
 30
0.0
 10
8.6063196116
 20
11.6524543487
 30
0.0
 10
8.6045759761
 20
11.6529824222
 30
0.0
 10
8.6029512065
 20
11.6534254537
 30
0.0
 10
8.6014603306
 20
11.6537796096
 30
0.0
 10
8.6001168538
 20
11.6540419684
 30
0.0
 10
8.5989323409
 20
11.6542108258
 30
0.0
 10
8.5979168676
 20
11.6542852197
 30
0.0
 10
8.5971793853
 20
11.6542687742
 30
0.0
 10
8.5966841625
 20
11.6541988915
 30
0.0
 10
8.5963811548
 20
11.6541254463
 30
0.0
 10
8.5961249934
 20
11.654028008
 30
0.0
 10
8.5959159381
 20
11.6539057736
 30
0.0
 10
8.5957550517
 20
11.6537577984
 30
0.0
 10
8.5956806577
 20
11.6536399963
 30
0.0
 10
8.5956535425
 20
11.6535794315
 30
0.0
  0
SPLINE
  5
3A3
100
AcDbEntity
  8
0
100
AcDbSpline
 62
7
  6
CONTINUOUS
 70
0
 71
3
 72
25
 73
21
 74
0
 42
0.0000001
 43
0.0000001
 44
0.0000000001
 40
0.0
 40
0.0
 40
0.0
 40
0.0
 40
0.1747788718
 40
0.3508123864
 40
0.4364021344
 40
0.518884403
 40
0.5972194634
 40
0.670444768
 40
0.7376904007
 40
0.7981924635
 40
0.8513077234
 40
0.89654165
 40
0.9161054794
 40
0.9336064017
 40
0.9490580549
 40
0.9625072261
 40
0.974055671
 40
0.9838965073
 40
0.9923639853
 40
1.0
 40
1.0
 40
1.0
 40
1.0
 10
8.7910822154
 20
11.5704774673
 30
0.0
 10
8.7894862879
 20
11.5711917981
 30
0.0
 10
8.7862532368
 20
11.5725597956
 30
0.0
 10
8.7821709604
 20
11.5741105272
 30
0.0
 10
8.7789178938
 20
11.5752372503
 30
0.0
 10
8.7765719872
 20
11.5759950757
 30
0.0
 10
8.7743279164
 20
11.5766638425
 30
0.0
 10
8.7722145283
 20
11.5772350847
 30
0.0
 10
8.7702585531
 20
11.5777018
 30
0.0
 10
8.7684842051
 20
11.5780586559
 30
0.0
 10
8.7669131599
 20
11.57830166
 30
0.0
 10
8.7657376261
 20
11.5784131181
 30
0.0
 10
8.7649143192
 20
11.578436023
 30
0.0
 10
8.7643888052
 20
11.5784225076
 30
0.0
 10
8.7639261586
 20
11.5783794643
 30
0.0
 10
8.7635273685
 20
11.5783069741
 30
0.0
 10
8.7631930224
 20
11.5782049766
 30
0.0
 10
8.7629232155
 20
11.5780728217
 30
0.0
 10
8.762718729
 20
11.5779085604
 30
0.0
 10
8.7626266467
 20
11.5777723766
 30
0.0
 10
8.7625954301
 20
11.5777026547
 30
0.0
  0
SPLINE
  5
3A4
100
AcDbEntity
  8
0
100
AcDbSpline
 62
7
  6
CONTINUOUS
 70
0
 71
3
 72
26
 73
22
 74
0
 42
0.0000001
 43
0.0000001
 44
0.0000000001
 40
0.0
 40
0.0
 40
0.0
 40
0.0
 40
0.0764859796
 40
0.1572736832
 40
0.3260297643
 40
0.4110801389
 40
0.494638773
 40
0.5753097975
 40
0.6517753009
 40
0.7228168366
 40
0.7873323308
 40
0.8443566234
 40
0.8930820691
 40
0.9141369956
 40
0.9329108971
 40
0.9493734557
 40
0.9635285044
 40
0.975430271
 40
0.9852210797
 40
0.9932098128
 40
1.0
 40
1.0
 40
1.0
 40
1.0
 10
8.9521114777
 20
11.4984014101
 30
0.0
 10
8.9512827412
 20
11.4987723493
 30
0.0
 10
8.9495684275
 20
11.4995123871
 30
0.0
 10
8.9459810209
 20
11.5009654542
 30
0.0
 10
8.9422537343
 20
11.502341688
 30
0.0
 10
8.9384584027
 20
11.5036206428
 30
0.0
 10
8.9356357096
 20
11.5045097922
 30
0.0
 10
8.9328928964
 20
11.505311255
 30
0.0
 10
8.9302760202
 20
11.5060115887
 30
0.0
 10
8.9278283777
 20
11.5065993811
 30
0.0
 10
8.9255897981
 20
11.5070654994
 30
0.0
 10
8.923596412
 20
11.5074027772
 30
0.0
 10
8.9221006992
 20
11.5075814151
 30
0.0
 10
8.9210513364
 20
11.5076483136
 30
0.0
 10
8.9203829542
 20
11.5076612168
 30
0.0
 10
8.9197966295
 20
11.5076395624
 30
0.0
 10
8.9192943939
 20
11.5075835219
 30
0.0
 10
8.918877443
 20
11.5074934435
 30
0.0
 10
8.9185460187
 20
11.5073686495
 30
0.0
 10
8.9182990482
 20
11.5072071523
 30
0.0
 10
8.9181901148
 20
11.5070629123
 30
0.0
 10
8.9181571808
 20
11.5069893411
 30
0.0
  0
SPLINE
  5
3A5
100
AcDbEntity
  8
0
100
AcDbSpline
 62
7
  6
CONTINUOUS
 70
0
 71
3
 72
27
 73
23
 74
0
 42
0.0000001
 43
0.0000001
 44
0.0000000001
 40
0.0
 40
0.0
 40
0.0
 40
0.0
 40
0.0641652612
 40
0.1358206639
 40
0.2133773547
 40
0.2951091851
 40
0.3792134664
 40
0.4638632457
 40
0.5472526056
 40
0.627639323
 40
0.70337467
 40
0.7729331454
 40
0.8349339668
 40
0.8881692136
 40
0.9111803379
 40
0.9316453186
 40
0.9494848216
 40
0.9646471038
 40
0.977125706
 40
0.9823793937
 40
0.9869998539
 40
1.0
 40
1.0
 40
1.0
 40
1.0
 10
9.0903904402
 20
11.4365082965
 30
0.0
 10
9.0896030875
 20
11.4368607125
 30
0.0
 10
9.0879224749
 20
11.4375755072
 30
0.0
 10
9.0852530767
 20
11.4386265139
 30
0.0
 10
9.0823389267
 20
11.4396983276
 30
0.0
 10
9.0792457996
 20
11.4407663335
 30
0.0
 10
9.076042736
 20
11.4418063158
 30
0.0
 10
9.0728002011
 20
11.4427951074
 30
0.0
 10
9.0695882889
 20
11.4437111155
 30
0.0
 10
9.0664752504
 20
11.4445347758
 30
0.0
 10
9.0635262257
 20
11.4452488647
 30
0.0
 10
9.0608022291
 20
11.4458389443
 30
0.0
 10
9.0583593875
 20
11.4462931655
 30
0.0
 10
9.0565198963
 20
11.4465640781
 30
0.0
 10
9.0552265523
 20
11.4466989154
 30
0.0
 10
9.054404018
 20
11.4467563034
 30
0.0
 10
9.0536852365
 20
11.446775162
 30
0.0
 10
9.0530734727
 20
11.4467552234
 30
0.0
 10
9.0526338948
 20
11.4467051503
 30
0.0
 10
9.0523388158
 20
11.4466405494
 30
0.0
 10
9.0520492536
 20
11.4465520182
 30
0.0
 10
9.0518098543
 20
11.446420124
 30
0.0
 10
9.0517384635
 20
11.4462605986
 30
0.0
  0
SPLINE
  5
3A6
100
AcDbEntity
  8
0
100
AcDbSpline
 62
7
  6
CONTINUOUS
 70
0
 71
3
 72
19
 73
15
 74
0
 42
0.0000001
 43
0.0000001
 44
0.0000000001
 40
0.0
 40
0.0
 40
0.0
 40
0.0
 40
0.0411235134
 40
0.0897781429
 40
0.1451696862
 40
0.2063924283
 40
0.342223971
 40
0.4885118733
 40
0.636079002
 40
0.7759300701
 40
0.8403140188
 40
0.8996998781
 40
0.9531972779
 40
1.0
 40
1.0
 40
1.0
 40
1.0
 10
9.19649562
 20
11.3890160402
 30
0.0
 10
9.196003167
 20
11.3892364602
 30
0.0
 10
9.1949170631
 20
11.3896930422
 30
0.0
 10
9.1931410222
 20
11.3903813094
 30
0.0
 10
9.1911027431
 20
11.3911212779
 30
0.0
 10
9.1879703373
 20
11.3921975832
 30
0.0
 10
9.1836781727
 20
11.3935664275
 30
0.0
 10
9.1782688538
 20
11.395155262
 30
0.0
 10
9.1727752392
 20
11.3966394635
 30
0.0
 10
9.1682925912
 20
11.3977414823
 30
0.0
 10
9.16491713
 20
11.3984960154
 30
0.0
 10
9.1626394827
 20
11.3989670076
 30
0.0
 10
9.1605799911
 20
11.3993520564
 30
0.0
 10
9.15928087
 20
11.3995629749
 30
0.0
 10
9.1586731391
 20
11.3996507866
 30
0.0
  0
SPLINE
  5
3A7
100
AcDbEntity
  8
0
100
AcDbSpline
 62
7
  6
CONTINUOUS
 70
0
 71
3
 72
17
 73
13
 74
0
 42
0.0000001
 43
0.0000001
 44
0.0000000001
 40
0.0
 40
0.0
 40
0.0
 40
0.0
 40
0.2130356306
 40
0.4019096688
 40
0.5656324643
 40
0.7034498743
 40
0.8148805577
 40
0.8607083036
 40
0.9000270407
 40
0.9330414258
 40
0.960154317
 40
1.0
 40
1.0
 40
1.0
 40
1.0
 10
9.1586731391
 20
11.3996507866
 30
0.0
 10
9.1583551875
 20
11.3996967278
 30
0.0
 10
9.1577545091
 20
11.3997778333
 30
0.0
 10
9.1569065948
 20
11.3998713639
 30
0.0
 10
9.1561691553
 20
11.3999293685
 30
0.0
 10
9.1555466068
 20
11.3999516291
 30
0.0
 10
9.1551012418
 20
11.3999406522
 30
0.0
 10
9.1548061753
 20
11.3999098646
 30
0.0
 10
9.1546305849
 20
11.3998794739
 30
0.0
 10
9.154485164
 20
11.3998396653
 30
0.0
 10
9.1543471347
 20
11.3997820756
 30
0.0
 10
9.1542618423
 20
11.3997129083
 30
0.0
 10
9.1542373061
 20
11.3996580598
 30
0.0
  0
LINE
  5
3A8
100
AcDbEntity
  8
0
100
AcDbLine
 62
7
  6
CONTINUOUS
 10
9.2631961244
 20
11.3591611597
 11
9.2621992151
 21
11.3595634954
  0
SPLINE
  5
3A9
100
AcDbEntity
  8
0
100
AcDbSpline
 62
7
  6
CONTINUOUS
 70
0
 71
3
 72
20
 73
16
 74
0
 42
0.0000001
 43
0.0000001
 44
0.0000000001
 40
0.0
 40
0.0
 40
0.0
 40
0.0
 40
0.0359961917
 40
0.0817000234
 40
0.1361179563
 40
0.1980687251
 40
0.2662257886
 40
0.339153911
 40
0.4932640898
 40
0.6480597393
 40
0.7913914218
 40
0.8551791242
 40
0.9119669695
 40
0.9605830217
 40
1.0
 40
1.0
 40
1.0
 40
1.0
 10
9.2621992151
 20
11.3595634954
 30
0.0
 10
9.2617212397
 20
11.359742942
 30
0.0
 10
9.2606275722
 20
11.3601266069
 30
0.0
 10
9.2587925319
 20
11.36072671
 30
0.0
 10
9.2565970346
 20
11.3614081821
 30
0.0
 10
9.2540887879
 20
11.3621556457
 30
0.0
 10
9.2513214002
 20
11.3629523589
 30
0.0
 10
9.2472886457
 20
11.3640780682
 30
0.0
 10
9.2420562932
 20
11.3654761917
 30
0.0
 10
9.2358373747
 20
11.3670479467
 30
0.0
 10
9.2308426215
 20
11.3682332964
 30
0.0
 10
9.2271885023
 20
11.3690449307
 30
0.0
 10
9.2248400152
 20
11.3695385285
 30
0.0
 10
9.2228238513
 20
11.3699315915
 30
0.0
 10
9.2215935951
 20
11.3701459914
 30
0.0
 10
9.2210411494
 20
11.3702317921
 30
0.0
  0
SPLINE
  5
3AA
100
AcDbEntity
  8
0
100
AcDbSpline
 62
7
  6
CONTINUOUS
 70
0
 71
3
 72
15
 73
11
 74
0
 42
0.0000001
 43
0.0000001
 44
0.0000000001
 40
0.0
 40
0.0
 40
0.0
 40
0.0
 40
0.4154164087
 40
0.5821814342
 40
0.720973965
 40
0.8315220673
 40
0.9138081884
 40
0.9445787162
 40
0.9687425414
 40
1.0
 40
1.0
 40
1.0
 40
1.0
 10
9.2210411494
 20
11.3702317921
 30
0.0
 10
9.2207122766
 20
11.3702828696
 30
0.0
 10
9.2202505358
 20
11.3703496643
 30
0.0
 10
9.2196762996
 20
11.3704127562
 30
0.0
 10
9.2193439562
 20
11.3704392282
 30
0.0
 10
9.2190781696
 20
11.3704482548
 30
0.0
 10
9.2188991954
 20
11.370442238
 30
0.0
 10
9.2187896569
 20
11.3704254033
 30
0.0
 10
9.2187244448
 20
11.3704078221
 30
0.0
 10
9.2186802323
 20
11.3703836519
 30
0.0
 10
9.2186700038
 20
11.3703607938
 30
0.0
  0
LINE
  5
3AB
100
AcDbEntity
  8
0
100
AcDbLine
 62
7
  6
CONTINUOUS
 10
8.1120895999
 20
11.8097311265
 11
8.1118010302
 21
11.8098059321
  0
SPLINE
  5
3AC
100
AcDbEntity
  8
0
100
AcDbSpline
 62
7
  6
CONTINUOUS
 70
0
 71
3
 72
17
 73
13
 74
0
 42
0.0000001
 43
0.0000001
 44
0.0000000001
 40
0.0
 40
0.0
 40
0.0
 40
0.0
 40
0.219893006
 40
0.4126554959
 40
0.5774542024
 40
0.7139270838
 40
0.8221279112
 40
0.9028698085
 40
0.9337378847
 40
0.9591377557
 40
0.9804623757
 40
1.0
 40
1.0
 40
1.0
 40
1.0
 10
8.1719971157
 20
11.7829167607
 30
0.0
 10
8.1717787178
 20
11.7830145147
 30
0.0
 10
8.1713669621
 20
11.7831937593
 30
0.0
 10
8.170784029
 20
11.7834286426
 30
0.0
 10
8.1702782727
 20
11.7836111952
 30
0.0
 10
8.1698516709
 20
11.7837412058
 30
0.0
 10
8.1695058947
 20
11.7838182668
 30
0.0
 10
8.1692662591
 20
11.7838422143
 30
0.0
 10
8.1691173091
 20
11.7838278503
 30
0.0
 10
8.1690355575
 20
11.783804082
 30
0.0
 10
8.1689733657
 20
11.7837650777
 30
0.0
 10
8.1689466727
 20
11.7837277887
 30
0.0
 10
8.1689379833
 20
11.7837083857
 30
0.0
  0
SPLINE
  5
3AD
100
AcDbEntity
  8
0
100
AcDbSpline
 62
7
  6
CONTINUOUS
 70
0
 71
3
 72
19
 73
15
 74
0
 42
0.0000001
 43
0.0000001
 44
0.0000000001
 40
0.0
 40
0.0
 40
0.0
 40
0.0
 40
0.2130691409
 40
0.4034716374
 40
0.5689289351
 40
0.7077792406
 40
0.7668545685
 40
0.8189324807
 40
0.8640221628
 40
0.9022592711
 40
0.9339635632
 40
0.9597875868
 40
0.9810321413
 40
1.0
 40
1.0
 40
1.0
 40
1.0
 10
8.2879850753
 20
11.7310010114
 30
0.0
 10
8.2874033301
 20
11.7312613982
 30
0.0
 10
8.2862960333
 20
11.7317419308
 30
0.0
 10
8.2847155326
 20
11.7323739344
 30
0.0
 10
8.2833216166
 20
11.7328719074
 30
0.0
 10
8.2822802818
 20
11.7331865486
 30
0.0
 10
8.2815526817
 20
11.7333603239
 30
0.0
 10
8.2810931579
 20
11.7334468767
 30
0.0
 10
8.2806908602
 20
11.7334968371
 30
0.0
 10
8.2803464765
 20
11.733510255
 30
0.0
 10
8.2800599689
 20
11.7334872247
 30
0.0
 10
8.2798303708
 20
11.7334269165
 30
0.0
 10
8.2796564917
 20
11.7333257841
 30
0.0
 10
8.2795820764
 20
11.7332259363
 30
0.0
 10
8.279558905
 20
11.7331741442
 30
0.0
  0
SPLINE
  5
3AE
100
AcDbEntity
  8
0
100
AcDbSpline
 62
7
  6
CONTINUOUS
 70
0
 71
3
 72
22
 73
18
 74
0
 42
0.0000001
 43
0.0000001
 44
0.0000000001
 40
0.0
 40
0.0
 40
0.0
 40
0.0
 40
0.2020634923
 40
0.3885416946
 40
0.5549639565
 40
0.6294404351
 40
0.6975433432
 40
0.758945041
 40
0.8133829463
 40
0.8606965758
 40
0.9008388415
 40
0.9339632966
 40
0.9605468424
 40
0.9717323444
 40
0.9817967385
 40
0.9910765571
 40
1.0
 40
1.0
 40
1.0
 40
1.0
 10
8.4446457372
 20
11.6608803223
 30
0.0
 10
8.4436221463
 20
11.6613384775
 30
0.0
 10
8.4416418845
 20
11.6621930236
 30
0.0
 10
8.4387764417
 20
11.6633239573
 30
0.0
 10
8.4365380712
 20
11.6641112917
 30
0.0
 10
8.4348993855
 20
11.6646177011
 30
0.0
 10
8.4338081279
 20
11.6649197565
 30
0.0
 10
8.4328149036
 20
11.6651568754
 30
0.0
 10
8.4319252877
 20
11.6653277942
 30
0.0
 10
8.4311441879
 20
11.6654319914
 30
0.0
 10
8.4304749733
 20
11.6654692206
 30
0.0
 10
8.4299204501
 20
11.6654399031
 30
0.0
 10
8.4295326182
 20
11.6653552443
 30
0.0
 10
8.4292894997
 20
11.6652462041
 30
0.0
 10
8.4291479081
 20
11.665151334
 30
0.0
 10
8.4290372097
 20
11.6650384502
 30
0.0
 10
8.4289846164
 20
11.6649508687
 30
0.0
 10
8.4289643779
 20
11.6649056679
 30
0.0
  0
SPLINE
  5
3AF
100
AcDbEntity
  8
0
100
AcDbSpline
 62
7
  6
CONTINUOUS
 70
0
 71
3
 72
24
 73
20
 74
0
 42
0.0000001
 43
0.0000001
 44
0.0000000001
 40
0.0
 40
0.0
 40
0.0
 40
0.0
 40
0.1862166496
 40
0.3667705069
 40
0.4525965624
 40
0.534285945
 40
0.6110403248
 40
0.6821311187
 40
0.7469148672
 40
0.8048426333
 40
0.8554749963
 40
0.8985124631
 40
0.933848639
 40
0.9486879733
 40
0.9617261473
 40
0.9730933482
 40
0.9830077221
 40
0.9918122057
 40
1.0
 40
1.0
 40
1.0
 40
1.0
 10
8.6211684326
 20
11.581869466
 30
0.0
 10
8.6197391886
 20
11.58250919
 30
0.0
 10
8.6169023755
 20
11.5837210652
 30
0.0
 10
8.6133520134
 20
11.5850945134
 30
0.0
 10
8.6105920826
 20
11.5860694666
 30
0.0
 10
8.6086410021
 20
11.5867122043
 30
0.0
 10
8.60679373
 20
11.5872724003
 30
0.0
 10
8.6050689182
 20
11.5877444306
 30
0.0
 10
8.6034836653
 20
11.5881238112
 30
0.0
 10
8.6020533809
 20
11.5884071014
 30
0.0
 10
8.6007913318
 20
11.5885921918
 30
0.0
 10
8.5997090976
 20
11.5886777649
 30
0.0
 10
8.5989231289
 20
11.5886667946
 30
0.0
 10
8.5983954109
 20
11.5885981106
 30
0.0
 10
8.5980731063
 20
11.5885242953
 30
0.0
 10
8.597801067
 20
11.5884251254
 30
0.0
 10
8.5975795306
 20
11.5882998381
 30
0.0
 10
8.5974094926
 20
11.5881473605
 30
0.0
 10
8.5973313522
 20
11.5880250336
 30
0.0
 10
8.5973032316
 20
11.5879621875
 30
0.0
  0
SPLINE
  5
3B0
100
AcDbEntity
  8
0
100
AcDbSpline
 62
7
  6
CONTINUOUS
 70
0
 71
3
 72
25
 73
21
 74
0
 42
0.0000001
 43
0.0000001
 44
0.0000000001
 40
0.0
 40
0.0
 40
0.0
 40
0.0
 40
0.1645034677
 40
0.3363196702
 40
0.421619223
 40
0.5047533603
 40
0.5844703956
 40
0.6595967981
 40
0.7290582951
 40
0.7918935727
 40
0.8472737585
 40
0.8945245332
 40
0.9149474534
 40
0.9331804159
 40
0.9492120212
 40
0.9630657514
 40
0.9748158334
 40
0.9846299604
 40
0.9928308107
 40
1.0
 40
1.0
 40
1.0
 40
1.0
 10
8.7941040373
 20
11.5044641773
 30
0.0
 10
8.7924264334
 20
11.5052150662
 30
0.0
 10
8.7889600083
 20
11.5066689549
 30
0.0
 10
8.7845476422
 20
11.5083220785
 30
0.0
 10
8.7809503575
 20
11.509552224
 30
0.0
 10
8.7783091282
 20
11.5103961422
 30
0.0
 10
8.7757592365
 20
11.5111504817
 30
0.0
 10
8.7733394412
 20
11.5118037209
 30
0.0
 10
8.7710859526
 20
11.5123461493
 30
0.0
 10
8.7690318625
 20
11.5127701388
 30
0.0
 10
8.7672070211
 20
11.5130697968
 30
0.0
 10
8.7658392833
 20
11.5132204064
 30
0.0
 10
8.7648803432
 20
11.5132679173
 30
0.0
 10
8.7642690287
 20
11.5132686421
 30
0.0
 10
8.7637319461
 20
11.5132364726
 30
0.0
 10
8.7632706412
 20
11.5131716218
 30
0.0
 10
8.7628860315
 20
11.5130741468
 30
0.0
 10
8.7625782163
 20
11.5129434904
 30
0.0
 10
8.7623471821
 20
11.5127773301
 30
0.0
 10
8.762244555
 20
11.5126342066
 30
0.0
 10
8.7622118218
 20
11.5125610993
 30
0.0
  0
SPLINE
  5
3B1
100
AcDbEntity
  8
0
100
AcDbSpline
 62
7
  6
CONTINUOUS
 70
0
 71
3
 72
27
 73
23
 74
0
 42
0.0000001
 43
0.0000001
 44
0.0000000001
 40
0.0
 40
0.0
 40
0.0
 40
0.0
 40
0.0640042041
 40
0.1355356684
 40
0.2130044388
 40
0.2946822873
 40
0.378762998
 40
0.4634148795
 40
0.5468263746
 40
0.6272494019
 40
0.7030296798
 40
0.7726370732
 40
0.8346873287
 40
0.8879706671
 40
0.9110050863
 40
0.9314930987
 40
0.9493553102
 40
0.9645404915
 40
0.9770425016
 40
0.9823084279
 40
0.9869416159
 40
1.0
 40
1.0
 40
1.0
 40
1.0
 10
8.9404799331
 20
11.4389469087
 30
0.0
 10
8.9396935606
 20
11.4392988859
 30
0.0
 10
8.9380144547
 20
11.440013322
 30
0.0
 10
8.9353467646
 20
11.4410648816
 30
0.0
 10
8.932432934
 20
11.442138591
 30
0.0
 10
8.929338817
 20
11.4432096092
 30
0.0
 10
8.9261335782
 20
11.4442534243
 30
0.0
 10
8.9228878553
 20
11.4452465253
 30
0.0
 10
8.9196719531
 20
11.4461669563
 30
0.0
 10
8.9165543564
 20
11.4469947986
 30
0.0
 10
8.9136004447
 20
11.4477125124
 30
0.0
 10
8.9108714623
 20
11.4483054069
 30
0.0
 10
8.9084237439
 20
11.4487614589
 30
0.0
 10
8.9065803107
 20
11.4490330416
 30
0.0
 10
8.9052840206
 20
11.4491678127
 30
0.0
 10
8.9044594834
 20
11.4492249056
 30
0.0
 10
8.9037388462
 20
11.4492432252
 30
0.0
 10
8.9031253989
 20
11.4492225341
 30
0.0
 10
8.9026845426
 20
11.449171631
 30
0.0
 10
8.9023885815
 20
11.4491062633
 30
0.0
 10
8.902097727
 20
11.449016702
 30
0.0
 10
8.9018576483
 20
11.4488835137
 30
0.0
 10
8.9017858459
 20
11.4487230708
 30
0.0
  0
SPLINE
  5
3B2
100
AcDbEntity
  8
0
100
AcDbSpline
 62
7
  6
CONTINUOUS
 70
0
 71
3
 72
20
 73
16
 74
0
 42
0.0000001
 43
0.0000001
 44
0.0000000001
 40
0.0
 40
0.0
 40
0.0
 40
0.0
 40
0.0355553195
 40
0.0800077338
 40
0.1325263334
 40
0.1921150602
 40
0.2576404698
 40
0.3278700971
 40
0.4771863051
 40
0.6293113733
 40
0.7735973782
 40
0.839650254
 40
0.9000898508
 40
0.9538577111
 40
1.0
 40
1.0
 40
1.0
 40
1.0
 10
9.0408516707
 20
11.3940209182
 30
0.0
 10
9.0404081074
 20
11.3942194554
 30
0.0
 10
9.0393966053
 20
11.3946361274
 30
0.0
 10
9.0377009689
 20
11.3952735298
 30
0.0
 10
9.0356815711
 20
11.3959818188
 30
0.0
 10
9.0333772595
 20
11.3967467552
 30
0.0
 10
9.0308318653
 20
11.3975529891
 30
0.0
 10
9.0271035804
 20
11.398685207
 30
0.0
 10
9.0222190859
 20
11.4000823311
 30
0.0
 10
9.0163300976
 20
11.4016439574
 30
0.0
 10
9.0115161238
 20
11.4028161255
 30
0.0
 10
9.0079040445
 20
11.403622927
 30
0.0
 10
9.0054918121
 20
11.4041248855
 30
0.0
 10
9.003338454
 20
11.4045334108
 30
0.0
 10
9.0019911999
 20
11.404757596
 30
0.0
 10
9.0013673707
 20
11.4048502398
 30
0.0
  0
SPLINE
  5
3B3
100
AcDbEntity
  8
0
100
AcDbSpline
 62
7
  6
CONTINUOUS
 70
0
 71
3
 72
17
 73
13
 74
0
 42
0.0000001
 43
0.0000001
 44
0.0000000001
 40
0.0
 40
0.0
 40
0.0
 40
0.0
 40
0.2159985549
 40
0.4069812964
 40
0.572021799
 40
0.7104094069
 40
0.8216497283
 40
0.8670762608
 40
0.9057676975
 40
0.9378818583
 40
0.9637692101
 40
1.0
 40
1.0
 40
1.0
 40
1.0
 10
9.0013673707
 20
11.4048502398
 30
0.0
 10
9.0010865255
 20
11.4048919477
 30
0.0
 10
9.0005567062
 20
11.4049662655
 30
0.0
 10
8.9998099707
 20
11.4050548739
 30
0.0
 10
8.9991626252
 20
11.4051137078
 30
0.0
 10
8.9986181795
 20
11.405142586
 30
0.0
 10
8.9982299894
 20
11.4051424313
 30
0.0
 10
8.9979736554
 20
11.4051239898
 30
0.0
 10
8.997822287
 20
11.4051037659
 30
0.0
 10
8.9976974978
 20
11.4050756409
 30
0.0
 10
8.9975822942
 20
11.4050345566
 30
0.0
 10
8.9975086401
 20
11.4049825779
 30
0.0
 10
8.9974891946
 20
11.4049391041
 30
0.0
  0
SPLINE
  5
3B4
100
AcDbEntity
  8
0
100
AcDbSpline
 62
7
  6
CONTINUOUS
 70
0
 71
3
 72
49
 73
45
 74
0
 42
0.0000001
 43
0.0000001
 44
0.0000000001
 40
0.0
 40
0.0
 40
0.0
 40
0.0
 40
0.0017698082
 40
0.0047139294
 40
0.0088269344
 40
0.0141001015
 40
0.0205187486
 40
0.0280668448
 40
0.0464738238
 40
0.0691319152
 40
0.0958107838
 40
0.1262434131
 40
0.1601272722
 40
0.1971305436
 40
0.2368969177
 40
0.3231902838
 40
0.4158046897
 40
0.511381348
 40
0.6065029175
 40
0.6528302142
 40
0.6977784936
 40
0.7409412498
 40
0.7819231148
 40
0.8203435649
 40
0.855840299
 40
0.8880716165
 40
0.9167210657
 40
0.9296122467
 40
0.9415027019
 40
0.9523621746
 40
0.9621632389
 40
0.9708789875
 40
0.9784870987
 40
0.984968109
 40
0.9903033937
 40
0.9925371286
 40
0.9944798316
 40
0.9961302447
 40
0.997487202
 40
0.9985498323
 40
0.9993185273
 40
0.9997957318
 40
0.9999284466
 40
1.0
 40
1.0
 40
1.0
 40
1.0
 10
9.0818859543
 20
11.3756541361
 30
0.0
 10
9.0818608134
 20
11.375665389
 30
0.0
 10
9.0817915797
 20
11.3756900103
 30
0.0
 10
9.0816611522
 20
11.3757329698
 30
0.0
 10
9.0814777044
 20
11.3757894304
 30
0.0
 10
9.0812419808
 20
11.3758596765
 30
0.0
 10
9.080954428
 20
11.3759432331
 30
0.0
 10
9.0804699461
 20
11.3760815797
 30
0.0
 10
9.0797412948
 20
11.3762853122
 30
0.0
 10
9.0787246876
 20
11.3765648304
 30
0.0
 10
9.0775265541
 20
11.3768900837
 30
0.0
 10
9.0761588703
 20
11.377257623
 30
0.0
 10
9.0746351295
 20
11.3776635804
 30
0.0
 10
9.0729701808
 20
11.3781037748
 30
0.0
 10
9.0705155251
 20
11.3787481828
 30
0.0
 10
9.0672215758
 20
11.3796041244
 30
0.0
 10
9.0630837029
 20
11.3806659761
 30
0.0
 10
9.0588094726
 20
11.3817491519
 30
0.0
 10
9.0552308135
 20
11.3826444633
 30
0.0
 10
9.0524148692
 20
11.3833417603
 30
0.0
 10
9.0503830545
 20
11.3838413448
 30
0.0
 10
9.0484312129
 20
11.3843177412
 30
0.0
 10
9.0465772639
 20
11.3847667329
 30
0.0
 10
9.0448384759
 20
11.3851843376
 30
0.0
 10
9.0432313196
 20
11.3855668265
 30
0.0
 10
9.0417713073
 20
11.3859107499
 30
0.0
 10
9.0406530507
 20
11.3861710476
 30
0.0
 10
9.0398426553
 20
11.3863575329
 30
0.0
 10
9.039301852
 20
11.3864809223
 30
0.0
 10
9.0388076965
 20
11.3865925552
 30
0.0
 10
9.0383614823
 20
11.3866921714
 30
0.0
 10
9.0379643833
 20
11.3867795377
 30
0.0
 10
9.0376174559
 20
11.3868544575
 30
0.0
 10
9.0373216316
 20
11.3869167591
 30
0.0
 10
9.0371073451
 20
11.3869603243
 30
0.0
 10
9.0369620252
 20
11.3869885643
 30
0.0
 10
9.0368728849
 20
11.3870052208
 30
0.0
 10
9.0367970094
 20
11.3870186465
 30
0.0
 10
9.0367345221
 20
11.3870288355
 30
0.0
 10
9.0366853041
 20
11.3870358344
 30
0.0
 10
9.0366497694
 20
11.3870396535
 30
0.0
 10
9.036627952
 20
11.3870406008
 30
0.0
 10
9.0366177104
 20
11.3870394173
 30
0.0
 10
9.0366144235
 20
11.3870379296
 30
0.0
 10
9.0366139639
 20
11.3870369152
 30
0.0
  0
LINE
  5
3B5
100
AcDbEntity
  8
0
100
AcDbLine
 62
7
  6
CONTINUOUS
 10
8.2522482049
 20
11.6860064552
 11
8.2517555593
 21
11.6861360534
  0
SPLINE
  5
3B6
100
AcDbEntity
  8
0
100
AcDbSpline
 62
7
  6
CONTINUOUS
 70
0
 71
3
 72
19
 73
15
 74
0
 42
0.0000001
 43
0.0000001
 44
0.0000000001
 40
0.0
 40
0.0
 40
0.0
 40
0.0
 40
0.2160891924
 40
0.4076815364
 40
0.5730486793
 40
0.7110595002
 40
0.7695905655
 40
0.8210836773
 40
0.865604357
 40
0.9033194755
 40
0.934571038
 40
0.9600554723
 40
0.9810948552
 40
1.0
 40
1.0
 40
1.0
 40
1.0
 10
8.3366984415
 20
11.6482068652
 30
0.0
 10
8.3362547585
 20
11.6484054559
 30
0.0
 10
8.3354136381
 20
11.6487711949
 30
0.0
 10
8.3342174219
 20
11.6492522489
 30
0.0
 10
8.3331697606
 20
11.6496300608
 30
0.0
 10
8.3323907151
 20
11.6498685711
 30
0.0
 10
8.3318483744
 20
11.6500003751
 30
0.0
 10
8.3315068023
 20
11.6500660385
 30
0.0
 10
8.3312081412
 20
11.6501041806
 30
0.0
 10
8.3309526524
 20
11.6501148649
 30
0.0
 10
8.3307401167
 20
11.6500980192
 30
0.0
 10
8.3305696424
 20
11.6500531047
 30
0.0
 10
8.3304403356
 20
11.6499772349
 30
0.0
 10
8.3303850838
 20
11.6499024534
 30
0.0
 10
8.3303677171
 20
11.6498636332
 30
0.0
  0
SPLINE
  5
3B7
100
AcDbEntity
  8
0
100
AcDbSpline
 62
7
  6
CONTINUOUS
 70
0
 71
3
 72
22
 73
18
 74
0
 42
0.0000001
 43
0.0000001
 44
0.0000000001
 40
0.0
 40
0.0
 40
0.0
 40
0.0
 40
0.199683962
 40
0.3853670472
 40
0.552084255
 40
0.6269666228
 40
0.6955729659
 40
0.7575240147
 40
0.8125108399
 40
0.8603236927
 40
0.9008789808
 40
0.9342804523
 40
0.9609684632
 40
0.9721245193
 40
0.982104623
 40
0.9912492316
 40
1.0
 40
1.0
 40
1.0
 40
1.0
 10
8.4924822122
 20
11.5784786692
 30
0.0
 10
8.4913785024
 20
11.5789726853
 30
0.0
 10
8.48923526
 20
11.5798970424
 30
0.0
 10
8.486124914
 20
11.5811245377
 30
0.0
 10
8.4836836653
 20
11.581984858
 30
0.0
 10
8.4818895661
 20
11.582542348
 30
0.0
 10
8.480691145
 20
11.5828770779
 30
0.0
 10
8.4795988697
 20
11.5831416809
 30
0.0
 10
8.4786195939
 20
11.5833345551
 30
0.0
 10
8.4777593194
 20
11.5834547994
 30
0.0
 10
8.4770223476
 20
11.583502177
 30
0.0
 10
8.4764122605
 20
11.5834767944
 30
0.0
 10
8.4759857011
 20
11.583390499
 30
0.0
 10
8.4757185857
 20
11.5832758691
 30
0.0
 10
8.4755637457
 20
11.5831756053
 30
0.0
 10
8.4754430857
 20
11.5830555932
 30
0.0
 10
8.4753861776
 20
11.5829618373
 30
0.0
 10
8.475364534
 20
11.5829134667
 30
0.0
  0
SPLINE
  5
3B8
100
AcDbEntity
  8
0
100
AcDbSpline
 62
7
  6
CONTINUOUS
 70
0
 71
3
 72
25
 73
21
 74
0
 42
0.0000001
 43
0.0000001
 44
0.0000000001
 40
0.0
 40
0.0
 40
0.0
 40
0.0
 40
0.171573432
 40
0.3463155715
 40
0.4318289028
 40
0.5145262223
 40
0.5932985036
 40
0.6671147301
 40
0.7350396253
 40
0.7962475821
 40
0.8500385532
 40
0.8958654746
 40
0.9156793603
 40
0.9333925523
 40
0.9490132076
 40
0.9625811497
 40
0.9741950555
 40
0.9840420069
 40
0.9924583298
 40
1.0
 40
1.0
 40
1.0
 40
1.0
 10
8.6722562358
 20
11.4980125314
 30
0.0
 10
8.6706287731
 20
11.4987409772
 30
0.0
 10
8.6673129122
 20
11.5001429426
 30
0.0
 10
8.6631172251
 20
11.5017383645
 30
0.0
 10
8.6597505884
 20
11.5029087958
 30
0.0
 10
8.6573093246
 20
11.5037021147
 30
0.0
 10
8.6549674602
 20
11.5044061119
 30
0.0
 10
8.6527568008
 20
11.5050110219
 30
0.0
 10
8.6507068863
 20
11.505508655
 30
0.0
 10
8.6488445437
 20
11.5058926477
 30
0.0
 10
8.6471938323
 20
11.5061581397
 30
0.0
 10
8.6459579098
 20
11.506284614
 30
0.0
 10
8.6450919451
 20
11.506316453
 30
0.0
 10
8.6445393719
 20
11.5063078033
 30
0.0
 10
8.6440531204
 20
11.5062681579
 30
0.0
 10
8.6436343265
 20
11.5061975077
 30
0.0
 10
8.643283642
 20
11.5060959661
 30
0.0
 10
8.6430011718
 20
11.5059627505
 30
0.0
 10
8.6427875799
 20
11.505795825
 30
0.0
 10
8.6426917663
 20
11.5056560827
 30
0.0
 10
8.642659744
 20
11.5055845473
 30
0.0
  0
SPLINE
  5
3B9
100
AcDbEntity
  8
0
100
AcDbSpline
 62
7
  6
CONTINUOUS
 70
0
 71
3
 72
28
 73
24
 74
0
 42
0.0000001
 43
0.0000001
 44
0.0000000001
 40
0.0
 40
0.0
 40
0.0
 40
0.0
 40
0.059465699
 40
0.1275604082
 40
0.202660701
 40
0.2829646903
 40
0.4514888677
 40
0.617581935
 40
0.6950358916
 40
0.7664677571
 40
0.8303411286
 40
0.8590135641
 40
0.885303358
 40
0.9090765343
 40
0.9302142247
 40
0.9486203648
 40
0.9642258206
 40
0.9770034899
 40
0.9870017197
 40
0.9910205804
 40
0.9944514421
 40
0.997392075
 40
1.0
 40
1.0
 40
1.0
 40
1.0
 10
8.821386502
 20
11.4312624174
 30
0.0
 10
8.8206323862
 20
11.4315999567
 30
0.0
 10
8.8189996966
 20
11.4322904869
 30
0.0
 10
8.8163765704
 20
11.4333146811
 30
0.0
 10
8.8134590146
 20
11.4343786784
 30
0.0
 10
8.8092013561
 20
11.4358381325
 30
0.0
 10
8.8036989738
 20
11.4375617674
 30
0.0
 10
8.7981803676
 20
11.4390912171
 30
0.0
 10
8.7939295682
 20
11.4401330021
 30
0.0
 10
8.7910428357
 20
11.4407707125
 30
0.0
 10
8.7888051027
 20
11.4412009955
 30
0.0
 10
8.7871755705
 20
11.4414675472
 30
0.0
 10
8.7860923554
 20
11.4416210784
 30
0.0
 10
8.785109546
 20
11.4417349137
 30
0.0
 10
8.7842327153
 20
11.4418085325
 30
0.0
 10
8.7834669695
 20
11.4418417656
 30
0.0
 10
8.7828163778
 20
11.4418349006
 30
0.0
 10
8.782284722
 20
11.44178823
 30
0.0
 10
8.7819181514
 20
11.4417129729
 30
0.0
 10
8.7816912124
 20
11.4416260721
 30
0.0
 10
8.7815646501
 20
11.4415552103
 30
0.0
 10
8.7814690942
 20
11.4414733891
 30
0.0
 10
8.781425445
 20
11.4414081664
 30
0.0
 10
8.7814106424
 20
11.4413750938
 30
0.0
  0
LINE
  5
3BA
100
AcDbEntity
  8
0
100
AcDbLine
 62
7
  6
CONTINUOUS
 10
8.8945517552
 20
11.3985139411
 11
8.8927903774
 21
11.3991294133
  0
SPLINE
  5
3BB
100
AcDbEntity
  8
0
100
AcDbSpline
 62
7
  6
CONTINUOUS
 70
0
 71
3
 72
18
 73
14
 74
0
 42
0.0000001
 43
0.0000001
 44
0.0000000001
 40
0.0
 40
0.0
 40
0.0
 40
0.0
 40
0.0377440893
 40
0.0850053457
 40
0.2037725517
 40
0.346219087
 40
0.5006820444
 40
0.654898342
 40
0.7967826052
 40
0.8595318098
 40
0.9150734898
 40
0.9622379932
 40
1.0
 40
1.0
 40
1.0
 40
1.0
 10
8.8927903774
 20
11.3991294133
 30
0.0
 10
8.8922802531
 20
11.3992916328
 30
0.0
 10
8.8911276687
 20
11.3996452859
 30
0.0
 10
8.8883558127
 20
11.4004630804
 30
0.0
 10
8.8841446775
 20
11.4016493241
 30
0.0
 10
8.8784539025
 20
11.403188701
 30
0.0
 10
8.8722620242
 20
11.4047999629
 30
0.0
 10
8.8660626551
 20
11.4063495437
 30
0.0
 10
8.8611124361
 20
11.4075317764
 30
0.0
 10
8.857514986
 20
11.4083525591
 30
0.0
 10
8.8552232432
 20
11.4088568163
 30
0.0
 10
8.8532735666
 20
11.409266138
 30
0.0
 10
8.8520916584
 20
11.4094984508
 30
0.0
 10
8.8515649689
 20
11.4095954674
 30
0.0
  0
LINE
  5
3BC
100
AcDbEntity
  8
0
100
AcDbLine
 62
7
  6
CONTINUOUS
 10
8.8515649689
 20
11.4095954674
 11
8.8494736133
 21
11.4098506875
  0
SPLINE
  5
3BD
100
AcDbEntity
  8
0
100
AcDbSpline
 62
9
  6
CONTINUOUS
 70
0
 71
3
 72
11
 73
7
 74
0
 42
0.0000001
 43
0.0000001
 44
0.0000000001
 40
0.0
 40
0.0
 40
0.0
 40
0.0
 40
0.2492216667
 40
0.4991530113
 40
0.7495256313
 40
1.0
 40
1.0
 40
1.0
 40
1.0
 10
7.4399271952
 20
9.9299990832
 30
0.0
 10
7.3960857231
 20
9.8974211521
 30
0.0
 10
7.3102392134
 20
9.8294896627
 30
0.0
 10
7.1875137854
 20
9.7201689472
 30
0.0
 10
7.0709404048
 20
9.6039269172
 30
0.0
 10
6.9975251866
 20
9.5222387122
 30
0.0
 10
6.9619375345
 20
9.4804417926
 30
0.0
  0
SPLINE
  5
3BE
100
AcDbEntity
  8
0
100
AcDbSpline
 62
9
  6
CONTINUOUS
 70
0
 71
3
 72
33
 73
29
 74
0
 42
0.0000001
 43
0.0000001
 44
0.0000000001
 40
0.0
 40
0.0
 40
0.0
 40
0.0
 40
0.0040509996
 40
0.0159180716
 40
0.0351723286
 40
0.0613848874
 40
0.0769747076
 40
0.0941925148
 40
0.1334951303
 40
0.1792852834
 40
0.2316577139
 40
0.290788356
 40
0.3570658846
 40
0.3930429536
 40
0.431080462
 40
0.5139866863
 40
0.5592154653
 40
0.6073408468
 40
0.6587658215
 40
0.7141205821
 40
0.7434987374
 40
0.7741864185
 40
0.8063385712
 40
0.8401105364
 40
0.8757434799
 40
0.9138214904
 40
0.9550159829
 40
1.0
 40
1.0
 40
1.0
 40
1.0
 10
6.5300473463
 20
9.6996688544
 30
0.0
 10
6.5305981379
 20
9.6993130605
 30
0.0
 10
6.53276259
 20
9.6979152478
 30
0.0
 10
6.5375463238
 20
9.6948285104
 30
0.0
 10
6.5453460439
 20
9.6897996986
 30
0.0
 10
6.5536544061
 20
9.684447773
 30
0.0
 10
6.5616875183
 20
9.6792772414
 30
0.0
 10
6.5715129268
 20
9.6729764904
 30
0.0
 10
6.5854916605
 20
9.6640968166
 30
0.0
 10
6.6043727038
 20
9.6523231885
 30
0.0
 10
6.6261232151
 20
9.6390880843
 30
0.0
 10
6.650894866
 20
9.6244422426
 30
0.0
 10
6.6735901248
 20
9.6115045091
 30
0.0
 10
6.6934617825
 20
9.6005136401
 30
0.0
 10
6.7158087836
 20
9.5884394366
 30
0.0
 10
6.7396818779
 20
9.5760423011
 30
0.0
 10
6.7652181924
 20
9.563318088
 30
0.0
 10
6.7863216318
 20
9.5531270135
 30
0.0
 10
6.8090408464
 20
9.5425174121
 30
0.0
 10
6.829142357
 20
9.5334790558
 30
0.0
 10
6.8462644867
 20
9.5260041246
 30
0.0
 10
6.8599908457
 20
9.5201387629
 30
0.0
 10
6.8744200784
 20
9.5141095964
 30
0.0
 10
6.8896386928
 20
9.5078947877
 30
0.0
 10
6.9057982903
 20
9.5014484784
 30
0.0
 10
6.9231405736
 20
9.4947264565
 30
0.0
 10
6.9419701289
 20
9.4876564355
 30
0.0
 10
6.9550814642
 20
9.4828937282
 30
0.0
 10
6.9619375345
 20
9.4804417926
 30
0.0
  0
SPLINE
  5
3BF
100
AcDbEntity
  8
0
100
AcDbSpline
 62
9
  6
CONTINUOUS
 70
0
 71
3
 72
32
 73
28
 74
0
 42
0.0000001
 43
0.0000001
 44
0.0000000001
 40
0.0
 40
0.0
 40
0.0
 40
0.0
 40
0.01500606
 40
0.0332177331
 40
0.0580832591
 40
0.0729065305
 40
0.0893110596
 40
0.1268994168
 40
0.1709473837
 40
0.2216629795
 40
0.279341067
 40
0.3445071454
 40
0.380101059
 40
0.4178998873
 40
0.4580901052
 40
0.5008592627
 40
0.546427568
 40
0.5951431883
 40
0.6474474634
 40
0.7040230529
 40
0.7657116523
 40
0.7988518712
 40
0.8337441996
 40
0.8706461112
 40
0.9101796642
 40
0.9530591577
 40
1.0
 40
1.0
 40
1.0
 40
1.0
 10
6.4479656074
 20
9.5683106135
 30
0.0
 10
6.4500076723
 20
9.5671431041
 30
0.0
 10
6.4545287268
 20
9.5645598994
 30
0.0
 10
6.4624360899
 20
9.5600465427
 30
0.0
 10
6.4703201186
 20
9.5555501078
 30
0.0
 10
6.4779595181
 20
9.5511965361
 30
0.0
 10
6.4873399824
 20
9.5458701479
 30
0.0
 10
6.5007343181
 20
9.5383349865
 30
0.0
 10
6.5188938323
 20
9.5283016883
 30
0.0
 10
6.5399235596
 20
9.5169535148
 30
0.0
 10
6.5640123436
 20
9.5043066706
 30
0.0
 10
6.5861623977
 20
9.4930710273
 30
0.0
 10
6.6056417718
 20
9.4834635438
 30
0.0
 10
6.6216766426
 20
9.4757244469
 30
0.0
 10
6.6387986828
 20
9.4676520076
 30
0.0
 10
6.6571027389
 20
9.4592327996
 30
0.0
 10
6.6767067583
 20
9.4504440528
 30
0.0
 10
6.6977714592
 20
9.4412626715
 30
0.0
 10
6.7205235593
 20
9.4316377074
 30
0.0
 10
6.7452704821
 20
9.4215132965
 30
0.0
 10
6.7673457838
 20
9.4127967112
 30
0.0
 10
6.7863304099
 20
9.4055116868
 30
0.0
 10
6.8017259692
 20
9.3997198085
 30
0.0
 10
6.8180997423
 20
9.3936829492
 30
0.0
 10
6.8356991508
 20
9.3873525701
 30
0.0
 10
6.8548374842
 20
9.3806534129
 30
0.0
 10
6.8681666128
 20
9.3761172026
 30
0.0
 10
6.8751418461
 20
9.3737744456
 30
0.0
  0
SPLINE
  5
3C0
100
AcDbEntity
  8
0
100
AcDbSpline
 62
7
  6
CONTINUOUS
 70
0
 71
3
 72
29
 73
25
 74
0
 42
0.0000001
 43
0.0000001
 44
0.0000000001
 40
0.0
 40
0.0
 40
0.0
 40
0.0
 40
0.002867554
 40
0.0059910742
 40
0.0095063073
 40
0.0135077761
 40
0.0231828618
 40
0.0352968326
 40
0.0499440577
 40
0.0671348801
 40
0.0868375198
 40
0.1089874745
 40
0.1602781888
 40
0.2201605294
 40
0.2875839977
 40
0.3613391867
 40
0.4400821233
 40
0.522352595
 40
0.6065967731
 40
0.6911889107
 40
0.7744653913
 40
0.8547592095
 40
0.9304476804
 40
1.0
 40
1.0
 40
1.0
 40
1.0
 10
8.279558905
 20
11.7331741442
 30
0.0
 10
8.2795438734
 20
11.7331405458
 30
0.0
 10
8.2795220525
 20
11.7330657864
 30
0.0
 10
8.2795162505
 20
11.7329430515
 30
0.0
 10
8.2795354123
 20
11.7328071901
 30
0.0
 10
8.2795977867
 20
11.7325949171
 30
0.0
 10
8.279744977
 20
11.7322961721
 30
0.0
 10
8.280004496
 20
11.7319063997
 30
0.0
 10
8.2803574406
 20
11.7314655246
 30
0.0
 10
8.2808022919
 20
11.7309754782
 30
0.0
 10
8.2813373626
 20
11.730438442
 30
0.0
 10
8.282211536
 20
11.7296225398
 30
0.0
 10
8.2835144026
 20
11.7285117475
 30
0.0
 10
8.2853167259
 20
11.7270944718
 30
0.0
 10
8.2873940776
 20
11.7255624895
 30
0.0
 10
8.2897079937
 20
11.7239451062
 30
0.0
 10
8.2922156745
 20
11.7222736199
 30
0.0
 10
8.2948700805
 20
11.7205807111
 30
0.0
 10
8.2976206387
 20
11.718900059
 30
0.0
 10
8.3004139353
 20
11.7172657066
 30
0.0
 10
8.3031945969
 20
11.715711361
 30
0.0
 10
8.3059064696
 20
11.7142694878
 30
0.0
 10
8.308493886
 20
11.7129704452
 30
0.0
 10
8.3101822979
 20
11.7121791557
 30
0.0
 10
8.3109971624
 20
11.7118144256
 30
0.0
  0
SPLINE
  5
3C1
100
AcDbEntity
  8
0
100
AcDbSpline
 62
9
  6
CONTINUOUS
 70
0
 71
3
 72
17
 73
13
 74
0
 42
0.0000001
 43
0.0000001
 44
0.0000000001
 40
0.0
 40
0.0
 40
0.0
 40
0.0
 40
0.2231843578
 40
0.4216280474
 40
0.5935418947
 40
0.6689837004
 40
0.7371117994
 40
0.8506331478
 40
0.932951213
 40
0.9620983844
 40
0.9830718547
 40
1.0
 40
1.0
 40
1.0
 40
1.0
 10
10.7616502481
 20
10.0805993786
 30
0.0
 10
10.7640663282
 20
10.0671788743
 30
0.0
 10
10.7686000556
 20
10.0418200547
 30
0.0
 10
10.7749227536
 20
10.006110902
 30
0.0
 10
10.7796573342
 20
9.979287834
 30
0.0
 10
10.7830190064
 20
9.9603076183
 30
0.0
 10
10.7857712249
 20
9.94484269
 30
0.0
 10
10.7886311543
 20
9.928970213
 30
0.0
 10
10.7911094101
 20
9.9154490639
 30
0.0
 10
10.7925876627
 20
9.9074934147
 30
0.0
 10
10.7933415803
 20
9.9034667968
 30
0.0
 10
10.7937718232
 20
9.9011913793
 30
0.0
 10
10.7939650689
 20
9.9001753058
 30
0.0
  0
SPLINE
  5
3C2
100
AcDbEntity
  8
0
100
AcDbSpline
 62
9
  6
CONTINUOUS
 70
0
 71
3
 72
32
 73
28
 74
0
 42
0.0000001
 43
0.0000001
 44
0.0000000001
 40
0.0
 40
0.0
 40
0.0
 40
0.0
 40
0.0272185905
 40
0.0537869088
 40
0.0798251138
 40
0.105444816
 40
0.1557305913
 40
0.2048911444
 40
0.2530266843
 40
0.3001702967
 40
0.3463261282
 40
0.3914606616
 40
0.4784660445
 40
0.5607142154
 40
0.6376797036
 40
0.7087520357
 40
0.773317948
 40
0.8308411457
 40
0.8808011582
 40
0.9027781996
 40
0.9226636762
 40
0.9559165972
 40
0.9801485384
 40
0.9887606987
 40
0.9949723585
 40
0.9987349863
 40
1.0
 40
1.0
 40
1.0
 40
1.0
 10
9.9832030066
 20
10.5058721777
 30
0.0
 10
9.9860667434
 20
10.5007746451
 30
0.0
 10
9.9915754765
 20
10.4906162119
 30
0.0
 10
9.9993421618
 20
10.475326795
 30
0.0
 10
10.0066093305
 20
10.4601742223
 30
0.0
 10
10.0157186691
 20
10.4402592987
 30
0.0
 10
10.0264157659
 20
10.4156120812
 30
0.0
 10
10.0384058903
 20
10.3862627183
 30
0.0
 10
10.0496623025
 20
10.3573480405
 30
0.0
 10
10.0602973326
 20
10.3288875976
 30
0.0
 10
10.0704137417
 20
10.3009235813
 30
0.0
 10
10.0831260678
 20
10.2647944843
 30
0.0
 10
10.0979597444
 20
10.2211944515
 30
0.0
 10
10.1144689585
 20
10.1709457999
 30
0.0
 10
10.1296058919
 20
10.1238503119
 30
0.0
 10
10.1433914193
 20
10.0803108106
 30
0.0
 10
10.1558453798
 20
10.0407306122
 30
0.0
 10
10.1669162918
 20
10.0054696238
 30
0.0
 10
10.175271026
 20
9.9789447274
 30
0.0
 10
10.1812355582
 20
9.960143615
 30
0.0
 10
10.1861452917
 20
9.9447730492
 30
0.0
 10
10.1912664538
 20
9.928961587
 30
0.0
 10
10.1957149748
 20
9.9154779941
 30
0.0
 10
10.1983780593
 20
9.9075222447
 30
0.0
 10
10.1996553867
 20
9.9037394985
 30
0.0
 10
10.200432996
 20
9.9014538184
 30
0.0
 10
10.2007834686
 20
9.9004322714
 30
0.0
 10
10.2008718489
 20
9.9001753058
 30
0.0
  0
SPLINE
  5
3C3
100
AcDbEntity
  8
0
100
AcDbSpline
 62
7
  6
CONTINUOUS
 70
0
 71
3
 72
17
 73
13
 74
0
 42
0.0000001
 43
0.0000001
 44
0.0000000001
 40
0.0
 40
0.0
 40
0.0
 40
0.0
 40
0.0372276858
 40
0.0634517019
 40
0.0958387506
 40
0.1347560929
 40
0.1803806331
 40
0.291909488
 40
0.4303717131
 40
0.5951630792
 40
0.7854105556
 40
1.0
 40
1.0
 40
1.0
 40
1.0
 10
8.1689379833
 20
11.7837083857
 30
0.0
 10
8.168913508
 20
11.7836537334
 30
0.0
 10
8.1689245998
 20
11.7835418825
 30
0.0
 10
8.1689814577
 20
11.7834004417
 30
0.0
 10
8.1690579424
 20
11.7832623655
 30
0.0
 10
8.1691637535
 20
11.7831069295
 30
0.0
 10
8.1693575032
 20
11.7828577541
 30
0.0
 10
8.1696766072
 20
11.7825045854
 30
0.0
 10
8.1701506372
 20
11.7820348164
 30
0.0
 10
8.1707358279
 20
11.781498203
 30
0.0
 10
8.1714283746
 20
11.78089813
 30
0.0
 10
8.1719296941
 20
11.780482434
 30
0.0
 10
8.1721972045
 20
11.7802642925
 30
0.0
  0
SPLINE
  5
3C4
100
AcDbEntity
  8
0
100
AcDbSpline
 62
7
  6
CONTINUOUS
 70
0
 71
3
 72
18
 73
14
 74
0
 42
0.0000001
 43
0.0000001
 44
0.0000000001
 40
0.0
 40
0.0
 40
0.0
 40
0.0
 40
0.0478943368
 40
0.1022510453
 40
0.2270430104
 40
0.3670737651
 40
0.5141656238
 40
0.6596037791
 40
0.7945250249
 40
0.8553614638
 40
0.9104541525
 40
0.9589239279
 40
1.0
 40
1.0
 40
1.0
 40
1.0
 10
8.1721972045
 20
11.7802642925
 30
0.0
 10
8.1726796678
 20
11.7798708673
 30
0.0
 10
8.1737219412
 20
11.7790459322
 30
0.0
 10
8.1760726388
 20
11.7772614961
 30
0.0
 10
8.1794384546
 20
11.7748348907
 30
0.0
 10
8.1838519956
 20
11.7718032306
 30
0.0
 10
8.188549928
 20
11.7687135093
 30
0.0
 10
8.1932526671
 20
11.7657540727
 30
0.0
 10
8.1970589274
 20
11.76347678
 30
0.0
 10
8.199894702
 20
11.7618672115
 30
0.0
 10
8.201772075
 20
11.7608462163
 30
0.0
 10
8.2034438659
 20
11.7599858359
 30
0.0
 10
8.2044946746
 20
11.7594845155
 30
0.0
 10
8.2049819993
 20
11.7592663909
 30
0.0
  0
SPLINE
  5
3C5
100
AcDbEntity
  8
0
100
AcDbSpline
 62
9
  6
CONTINUOUS
 70
0
 71
3
 72
35
 73
31
 74
0
 42
0.0000001
 43
0.0000001
 44
0.0000000001
 40
0.0
 40
0.0
 40
0.0
 40
0.0
 40
0.0282218077
 40
0.0554884533
 40
0.0819867905
 40
0.1078935576
 40
0.1333550004
 40
0.1584253634
 40
0.207514167
 40
0.2553706232
 40
0.3021017945
 40
0.3477710383
 40
0.3923831617
 40
0.4783427557
 40
0.5196008652
 40
0.55964592
 40
0.6358658656
 40
0.7064425463
 40
0.7707895656
 40
0.8283514539
 40
0.8785751014
 40
0.9007555933
 40
0.920885085
 40
0.9547109093
 40
0.9682756884
 40
0.9795212352
 40
0.9883820704
 40
0.9947926119
 40
0.9986871795
 40
1.0
 40
1.0
 40
1.0
 40
1.0
 10
9.2808012587
 20
10.4929397675
 30
0.0
 10
9.2847386944
 20
10.4879743316
 30
0.0
 10
9.2923281159
 20
10.4780898291
 30
0.0
 10
9.3031148369
 20
10.4631685094
 30
0.0
 10
9.3132327494
 20
10.4484126208
 30
0.0
 10
9.3228301499
 20
10.4337964816
 30
0.0
 10
9.3320439263
 20
10.4193145146
 30
0.0
 10
9.3438022123
 20
10.4002839983
 30
0.0
 10
9.3577866091
 20
10.3767208599
 30
0.0
 10
9.3737413904
 20
10.3486785379
 30
0.0
 10
9.3889040819
 20
10.3210735579
 30
0.0
 10
9.4034084436
 20
10.2939408503
 30
0.0
 10
9.4217366809
 20
10.2588661651
 30
0.0
 10
9.439233532
 20
10.2244763021
 30
0.0
 10
9.4559956661
 20
10.1908659011
 30
0.0
 10
9.4716511934
 20
10.1591478126
 30
0.0
 10
9.490058849
 20
10.1214468181
 30
0.0
 10
9.5107131777
 20
10.078770621
 30
0.0
 10
9.5295229151
 20
10.0398561969
 30
0.0
 10
9.5463714771
 20
10.0050699081
 30
0.0
 10
9.5591589355
 20
9.9788371599
 30
0.0
 10
9.5683279999
 20
9.9601915423
 30
0.0
 10
9.575917714
 20
9.9448725588
 30
0.0
 10
9.5827242181
 20
9.9313246679
 30
0.0
 10
9.5887061153
 20
9.919595411
 30
0.0
 10
9.5921659165
 20
9.9128726989
 30
0.0
 10
9.5949092673
 20
9.9075880346
 30
0.0
 10
9.5969054713
 20
9.903775346
 30
0.0
 10
9.5981225067
 20
9.9014678537
 30
0.0
 10
9.5986715016
 20
9.900435444
 30
0.0
 10
9.5988101703
 20
9.9001753058
 30
0.0
  0
SPLINE
  5
3C6
100
AcDbEntity
  8
0
100
AcDbSpline
 62
9
  6
CONTINUOUS
 70
0
 71
3
 72
37
 73
33
 74
0
 42
0.0000001
 43
0.0000001
 44
0.0000000001
 40
0.0
 40
0.0
 40
0.0
 40
0.0
 40
0.0321094236
 40
0.0624605693
 40
0.0913910974
 40
0.1192300527
 40
0.1462572686
 40
0.1725839219
 40
0.1982785718
 40
0.2234083358
 40
0.2721921649
 40
0.3192397815
 40
0.3647756777
 40
0.408914012
 40
0.4517258718
 40
0.4932281168
 40
0.5334229463
 40
0.5723109434
 40
0.6461005424
 40
0.6809137677
 40
0.7142742196
 40
0.7764268471
 40
0.832098285
 40
0.8808031443
 40
0.9023782766
 40
0.9220118212
 40
0.9551674153
 40
0.9796455772
 40
0.988429977
 40
0.9948041255
 40
0.9986876171
 40
1.0
 40
1.0
 40
1.0
 40
1.0
 10
8.0646568117
 20
10.2701941222
 30
0.0
 10
8.070363043
 20
10.2660454006
 30
0.0
 10
8.0813563009
 20
10.2578270332
 30
0.0
 10
8.0971201389
 20
10.2453853232
 30
0.0
 10
8.1118608493
 20
10.2331711745
 30
0.0
 10
8.1257991225
 20
10.2211401888
 30
0.0
 10
8.139124898
 20
10.2092788184
 30
0.0
 10
8.1519316103
 20
10.1975456791
 30
0.0
 10
8.1642762407
 20
10.1859277145
 30
0.0
 10
8.1800291853
 20
10.170734131
 30
0.0
 10
8.1988581228
 20
10.1519742852
 30
0.0
 10
8.2204449015
 20
10.1296387746
 30
0.0
 10
8.2409919293
 20
10.1077232518
 30
0.0
 10
8.2606213783
 20
10.0862270416
 30
0.0
 10
8.2794255185
 20
10.0651799044
 30
0.0
 10
8.29745296
 20
10.0446026124
 30
0.0
 10
8.3147419403
 20
10.0245259824
 30
0.0
 10
8.3364772468
 20
9.9989175503
 30
0.0
 10
8.3572398252
 20
9.9740353671
 30
0.0
 10
8.3770704467
 20
9.9499589012
 30
0.0
 10
8.3952026912
 20
9.9277962265
 30
0.0
 10
8.4161487576
 20
9.9020145651
 30
0.0
 10
8.4391368092
 20
9.8735483351
 30
0.0
 10
8.456509437
 20
9.852007072
 30
0.0
 10
8.4689319817
 20
9.836645993
 30
0.0
 10
8.4792283148
 20
9.8239592819
 30
0.0
 10
8.4899806476
 20
9.8108212496
 30
0.0
 10
8.4992838086
 20
9.7995777923
 30
0.0
 10
8.5048635216
 20
9.792891134
 30
0.0
 10
8.5075521105
 20
9.7896854754
 30
0.0
 10
8.5091898707
 20
9.7877412004
 30
0.0
 10
8.5099274291
 20
9.7868698153
 30
0.0
 10
8.5101138793
 20
9.7866498516
 30
0.0
  0
SPLINE
  5
3C7
100
AcDbEntity
  8
0
100
AcDbSpline
 62
9
  6
CONTINUOUS
 70
0
 71
3
 72
36
 73
32
 74
0
 42
0.0000001
 43
0.0000001
 44
0.0000000001
 40
0.0
 40
0.0
 40
0.0
 40
0.0
 40
0.0393828542
 40
0.0759339454
 40
0.1101614636
 40
0.1425688408
 40
0.1735910892
 40
0.2034060494
 40
0.2321270444
 40
0.2598665427
 40
0.3127797034
 40
0.3626985983
 40
0.4100607358
 40
0.4551342423
 40
0.4981216434
 40
0.5391379982
 40
0.5782756822
 40
0.6156258211
 40
0.6852223445
 40
0.7481394586
 40
0.8044497994
 40
0.8540922779
 40
0.8969541891
 40
0.915785789
 40
0.9328507551
 40
0.9615372231
 40
0.9825977678
 40
0.9901246376
 40
0.9955724354
 40
0.9988834746
 40
1.0
 40
1.0
 40
1.0
 40
1.0
 10
7.4399271952
 20
9.9299990832
 30
0.0
 10
7.4463571022
 20
9.9267409806
 30
0.0
 10
7.4587005465
 20
9.9203515898
 30
0.0
 10
7.4764403383
 20
9.9107661863
 30
0.0
 10
7.4929057656
 20
9.9015138113
 30
0.0
 10
7.5083613009
 20
9.8925343754
 30
0.0
 10
7.5230235334
 20
9.8837995216
 30
0.0
 10
7.5370170226
 20
9.8752622492
 30
0.0
 10
7.550414346
 20
9.8669030535
 30
0.0
 10
7.5672987567
 20
9.8561478938
 30
0.0
 10
7.5872943201
 20
9.843056958
 30
0.0
 10
7.610063938
 20
9.8276525806
 30
0.0
 10
7.6314614633
 20
9.8127848356
 30
0.0
 10
7.6516592625
 20
9.7984167662
 30
0.0
 10
7.6707820974
 20
9.7845432491
 30
0.0
 10
7.688911827
 20
9.7711524648
 30
0.0
 10
7.706113641
 20
9.7582432078
 30
0.0
 10
7.7273944998
 20
9.7420553981
 30
0.0
 10
7.7519963361
 20
9.7230453646
 30
0.0
 10
7.7791785145
 20
9.7017012768
 30
0.0
 10
7.8034087125
 20
9.6825121122
 30
0.0
 10
7.8247214167
 20
9.6655516965
 30
0.0
 10
7.8406676558
 20
9.6528641091
 30
0.0
 10
7.8519672442
 20
9.6439132902
 30
0.0
 10
7.8612505184
 20
9.6365955764
 30
0.0
 10
7.8708937526
 20
9.6290756128
 30
0.0
 10
7.8792048253
 20
9.6226867029
 30
0.0
 10
7.88416422
 20
9.6189169682
 30
0.0
 10
7.8865431706
 20
9.6171209585
 30
0.0
 10
7.8879887875
 20
9.6160359569
 30
0.0
 10
7.8886384505
 20
9.6155515488
 30
0.0
 10
7.888802395
 20
9.6154295469
 30
0.0
  0
SPLINE
  5
3C8
100
AcDbEntity
  8
0
100
AcDbSpline
 62
9
  6
CONTINUOUS
 70
0
 71
3
 72
34
 73
30
 74
0
 42
0.0000001
 43
0.0000001
 44
0.0000000001
 40
0.0
 40
0.0
 40
0.0
 40
0.0
 40
0.0448777487
 40
0.085989231
 40
0.1240036914
 40
0.159589113
 40
0.1933268282
 40
0.2254560547
 40
0.2855032303
 40
0.34086692
 40
0.3923189059
 40
0.4404825871
 40
0.4857555289
 40
0.568753003
 40
0.6068302074
 40
0.6428410681
 40
0.7091672572
 40
0.7683195805
 40
0.8206929726
 40
0.866470237
 40
0.9057561407
 40
0.9229676769
 40
0.9385547855
 40
0.9647758807
 40
0.984050558
 40
0.9909455956
 40
0.9959389779
 40
0.9989755282
 40
1.0
 40
1.0
 40
1.0
 40
1.0
 10
6.9619375345
 20
9.4804417926
 30
0.0
 10
6.9687947737
 20
9.4779894388
 30
0.0
 10
6.9819149665
 20
9.4732377003
 30
0.0
 10
7.0007769443
 20
9.4662262232
 30
0.0
 10
7.0181732984
 20
9.4596015227
 30
0.0
 10
7.0344080224
 20
9.4532901292
 30
0.0
 10
7.0497214979
 20
9.4472454416
 30
0.0
 10
7.0686896949
 20
9.439648755
 30
0.0
 10
7.0908525671
 20
9.4305905751
 30
0.0
 10
7.1158347076
 20
9.4201449013
 30
0.0
 10
7.138968116
 20
9.4102785346
 30
0.0
 10
7.1605425041
 20
9.4009318737
 30
0.0
 10
7.1867575835
 20
9.3894207456
 30
0.0
 10
7.2114104761
 20
9.3784237305
 30
0.0
 10
7.2346408914
 20
9.3679285937
 30
0.0
 10
7.2553834336
 20
9.3584977359
 30
0.0
 10
7.2792138522
 20
9.3475956143
 30
0.0
 10
7.3054388665
 20
9.3355453923
 30
0.0
 10
7.3286409379
 20
9.3249028581
 30
0.0
 10
7.3489291083
 20
9.3156401791
 30
0.0
 10
7.3640492269
 20
9.3087966328
 30
0.0
 10
7.3747246954
 20
9.3040146015
 30
0.0
 10
7.3834774949
 20
9.3001265848
 30
0.0
 10
7.3925586365
 20
9.2961531857
 30
0.0
 10
7.4003723166
 20
9.2928024289
 30
0.0
 10
7.4050313647
 20
9.2908360243
 30
0.0
 10
7.407265968
 20
9.2899019733
 30
0.0
 10
7.4086232931
 20
9.2893393456
 30
0.0
 10
7.4092329034
 20
9.2890890199
 30
0.0
 10
7.4093867521
 20
9.2890260227
 30
0.0
  0
SPLINE
  5
3C9
100
AcDbEntity
  8
0
100
AcDbSpline
 62
9
  6
CONTINUOUS
 70
0
 71
3
 72
31
 73
27
 74
0
 42
0.0000001
 43
0.0000001
 44
0.0000000001
 40
0.0
 40
0.0
 40
0.0
 40
0.0
 40
0.0446281233
 40
0.0854758832
 40
0.1232193806
 40
0.1585338581
 40
0.1920071973
 40
0.2238809276
 40
0.2834489169
 40
0.3383836967
 40
0.3894624613
 40
0.4373124594
 40
0.482332189
 40
0.5650020875
 40
0.6389856879
 40
0.7054092747
 40
0.7648311913
 40
0.8176129786
 40
0.8638975041
 40
0.9037474712
 40
0.937123189
 40
0.9638881667
 40
0.9836195519
 40
0.9906929314
 40
0.9958221495
 40
1.0
 40
1.0
 40
1.0
 40
1.0
 10
6.8751418461
 20
9.3737744456
 30
0.0
 10
6.8821233262
 20
9.3714295905
 30
0.0
 10
6.8954799498
 20
9.3668938123
 30
0.0
 10
6.9146879133
 20
9.3602198642
 30
0.0
 10
6.9324023721
 20
9.35393181
 30
0.0
 10
6.9489351953
 20
9.3479539268
 30
0.0
 10
6.9645318979
 20
9.3422363182
 30
0.0
 10
6.9838559871
 20
9.3350584694
 30
0.0
 10
7.0064487428
 20
9.3265098327
 30
0.0
 10
7.0319373255
 20
9.3166609644
 30
0.0
 10
7.0555645382
 20
9.30736157
 30
0.0
 10
7.0776249188
 20
9.298549857
 30
0.0
 10
7.1044787191
 20
9.2876850678
 30
0.0
 10
7.1352638682
 20
9.2750390671
 30
0.0
 10
7.1692341405
 20
9.2608530716
 30
0.0
 10
7.1996217139
 20
9.2480443921
 30
0.0
 10
7.2267628214
 20
9.2365418857
 30
0.0
 10
7.2508438205
 20
9.2263359319
 30
0.0
 10
7.2719591215
 20
9.2174094312
 30
0.0
 10
7.2901416598
 20
9.2097701576
 30
0.0
 10
7.3053765225
 20
9.2034312507
 30
0.0
 10
7.3175756196
 20
9.1984393374
 30
0.0
 10
7.3257760259
 20
9.1951369697
 30
0.0
 10
7.3306729783
 20
9.1931897424
 30
0.0
 10
7.3331872815
 20
9.1921970325
 30
0.0
 10
7.3346175996
 20
9.1916374175
 30
0.0
 10
7.3352601179
 20
9.1913873948
 30
0.0
  0
SPLINE
  5
3CA
100
AcDbEntity
  8
0
100
AcDbSpline
 62
7
  6
CONTINUOUS
 70
0
 71
3
 72
21
 73
17
 74
0
 42
0.0000001
 43
0.0000001
 44
0.0000000001
 40
0.0
 40
0.0
 40
0.0
 40
0.0
 40
0.009212982
 40
0.0187932675
 40
0.0291470632
 40
0.0405969421
 40
0.0676169432
 40
0.1010421574
 40
0.1413654925
 40
0.1887498071
 40
0.243166902
 40
0.3044689005
 40
0.4466556385
 40
0.6125607024
 40
0.7984757042
 40
1.0
 40
1.0
 40
1.0
 40
1.0
 10
8.642659744
 20
11.5055845473
 30
0.0
 10
8.6426388534
 20
11.5055378795
 30
0.0
 10
8.6426072094
 20
11.5054373596
 30
0.0
 10
8.6425942709
 20
11.5052749547
 30
0.0
 10
8.6426148594
 20
11.5051010333
 30
0.0
 10
8.6426905582
 20
11.5048398612
 30
0.0
 10
8.642878594
 20
11.5044839661
 30
0.0
 10
8.643217439
 20
11.5040375369
 30
0.0
 10
8.6436813467
 20
11.5035494967
 30
0.0
 10
8.6442688681
 20
11.5030223834
 30
0.0
 10
8.6449778325
 20
11.5024588917
 30
0.0
 10
8.6461393647
 20
11.5016218206
 30
0.0
 10
8.6478713419
 20
11.5005219553
 30
0.0
 10
8.6502607319
 20
11.4991758503
 30
0.0
 10
8.6529978434
 20
11.4977816881
 30
0.0
 10
8.6549473182
 20
11.4968734669
 30
0.0
 10
8.6559681467
 20
11.4964165481
 30
0.0
  0
LINE
  5
3CB
100
AcDbEntity
  8
0
100
AcDbLine
 62
7
  6
CONTINUOUS
 10
8.1118010302
 20
11.8098059321
 11
8.1146220549
 21
11.807539524
  0
SPLINE
  5
3CC
100
AcDbEntity
  8
0
100
AcDbSpline
 62
7
  6
CONTINUOUS
 70
0
 71
3
 72
17
 73
13
 74
0
 42
0.0000001
 43
0.0000001
 44
0.0000000001
 40
0.0
 40
0.0
 40
0.0
 40
0.0
 40
0.0451244097
 40
0.0979945112
 40
0.2229591856
 40
0.365980542
 40
0.5171562271
 40
0.6661290406
 40
0.8025666302
 40
0.9166958486
 40
0.9626615832
 40
1.0
 40
1.0
 40
1.0
 40
1.0
 10
8.1146220549
 20
11.807539524
 30
0.0
 10
8.115119153
 20
11.8071774485
 30
0.0
 10
8.1162034826
 20
11.806397745
 30
0.0
 10
8.1186837242
 20
11.8046422519
 30
0.0
 10
8.1222740479
 20
11.8021458945
 30
0.0
 10
8.1269855409
 20
11.7989154308
 30
0.0
 10
8.1319849782
 20
11.7955264615
 30
0.0
 10
8.1369271913
 20
11.7922131078
 30
0.0
 10
8.1414688674
 20
11.7892092137
 30
0.0
 10
8.144858653
 20
11.7870085789
 30
0.0
 10
8.147133814
 20
11.7855719503
 30
0.0
 10
8.1481009454
 20
11.7849771817
 30
0.0
 10
8.1485373367
 20
11.7847154321
 30
0.0
  0
LINE
  5
3CD
100
AcDbEntity
  8
0
100
AcDbLine
 62
7
  6
CONTINUOUS
 10
8.1485373367
 20
11.7847154321
 11
8.1502254101
 21
11.7837752224
  0
SPLINE
  5
3CE
100
AcDbEntity
  8
0
100
AcDbSpline
 62
7
  6
CONTINUOUS
 70
0
 71
3
 72
23
 73
19
 74
0
 42
0.0000001
 43
0.0000001
 44
0.0000000001
 40
0.0
 40
0.0
 40
0.0
 40
0.0
 40
0.036084877
 40
0.0495129682
 40
0.0649495119
 40
0.0824355564
 40
0.1019813888
 40
0.1235720761
 40
0.1471742991
 40
0.2002189416
 40
0.2606302655
 40
0.327777887
 40
0.4009172366
 40
0.47920288
 40
0.5616993229
 40
0.6473942919
 40
0.8240103059
 40
1.0
 40
1.0
 40
1.0
 40
1.0
 10
8.475364534
 20
11.5829134667
 30
0.0
 10
8.4752190972
 20
11.582588434
 30
0.0
 10
8.4754127486
 20
11.582034015
 30
0.0
 10
8.475739815
 20
11.5814992048
 30
0.0
 10
8.476011191
 20
11.5811267359
 30
0.0
 10
8.4763432134
 20
11.5807303285
 30
0.0
 10
8.4767373183
 20
11.5803061565
 30
0.0
 10
8.4771917349
 20
11.5798570306
 30
0.0
 10
8.4779049485
 20
11.5792001686
 30
0.0
 10
8.4789414097
 20
11.578330211
 30
0.0
 10
8.4803561527
 20
11.5772456673
 30
0.0
 10
8.4819703559
 20
11.5760975509
 30
0.0
 10
8.4837650145
 20
11.5749006609
 30
0.0
 10
8.4857186811
 20
11.573670719
 30
0.0
 10
8.4878074004
 20
11.5724240687
 30
0.0
 10
8.4907672809
 20
11.5707453125
 30
0.0
 10
8.4945965239
 20
11.5687316053
 30
0.0
 10
8.4977407517
 20
11.5672385006
 30
0.0
 10
8.4993258856
 20
11.566529001
 30
0.0
  0
SPLINE
  5
3CF
100
AcDbEntity
  8
0
100
AcDbSpline
 62
7
  6
CONTINUOUS
 70
0
 71
3
 72
18
 73
14
 74
0
 42
0.0000001
 43
0.0000001
 44
0.0000000001
 40
0.0
 40
0.0
 40
0.0
 40
0.0
 40
0.0200279068
 40
0.0433402971
 40
0.0714791758
 40
0.1052912527
 40
0.1452189334
 40
0.1914947221
 40
0.3033824785
 40
0.4409953001
 40
0.6036886374
 40
0.7904547786
 40
1.0
 40
1.0
 40
1.0
 40
1.0
 10
8.3303677171
 20
11.6498636332
 30
0.0
 10
8.3303508135
 20
11.6498258483
 30
0.0
 10
8.3303310606
 20
11.6497362098
 30
0.0
 10
8.3303451718
 20
11.6495876831
 30
0.0
 10
8.3303978529
 20
11.649418634
 30
0.0
 10
8.3304885531
 20
11.6492280849
 30
0.0
 10
8.3306170438
 20
11.6490155677
 30
0.0
 10
8.3308542516
 20
11.6486815429
 30
0.0
 10
8.3312502976
 20
11.6482146492
 30
0.0
 10
8.331843409
 20
11.6476026874
 30
0.0
 10
8.3325774103
 20
11.6469132923
 30
0.0
 10
8.3334465091
 20
11.6461518099
 30
0.0
 10
8.3340769773
 20
11.6456287573
 30
0.0
 10
8.3344131408
 20
11.6453557028
 30
0.0
  0
SPLINE
  5
3D0
100
AcDbEntity
  8
0
100
AcDbSpline
 62
7
  6
CONTINUOUS
 70
0
 71
3
 72
17
 73
13
 74
0
 42
0.0000001
 43
0.0000001
 44
0.0000000001
 40
0.0
 40
0.0
 40
0.0
 40
0.0
 40
0.0491495456
 40
0.1030842597
 40
0.2231015121
 40
0.355236148
 40
0.4941070843
 40
0.6339344466
 40
0.7687327679
 40
0.8925814311
 40
0.9486679642
 40
1.0
 40
1.0
 40
1.0
 40
1.0
 10
8.3344131408
 20
11.6453557028
 30
0.0
 10
8.3348504045
 20
11.645000528
 30
0.0
 10
8.3357775358
 20
11.6442679127
 30
0.0
 10
8.3378165131
 20
11.6427245062
 30
0.0
 10
8.3406702297
 20
11.640682735
 30
0.0
 10
8.3443852539
 20
11.6381749571
 30
0.0
 10
8.3483520999
 20
11.6356369007
 30
0.0
 10
8.3524053013
 20
11.633179673
 30
0.0
 10
8.3563715466
 20
11.6309140762
 30
0.0
 10
8.3595570058
 20
11.6292193681
 30
0.0
 10
8.3619336736
 20
11.6280452166
 30
0.0
 10
8.3630500066
 20
11.6275255423
 30
0.0
 10
8.3635870197
 20
11.6272851774
 30
0.0
  0
LINE
  5
3D1
100
AcDbEntity
  8
0
100
AcDbLine
 62
7
  6
CONTINUOUS
 10
8.2517555593
 20
11.6861360534
 11
8.2541179829
 21
11.6841181387
  0
SPLINE
  5
3D2
100
AcDbEntity
  8
0
100
AcDbSpline
 62
7
  6
CONTINUOUS
 70
0
 71
3
 72
18
 73
14
 74
0
 42
0.0000001
 43
0.0000001
 44
0.0000000001
 40
0.0
 40
0.0
 40
0.0
 40
0.0
 40
0.0423057794
 40
0.0925961115
 40
0.2133152123
 40
0.3535693778
 40
0.5036748389
 40
0.6533957227
 40
0.7924210851
 40
0.8548037958
 40
0.9108774662
 40
0.9595871202
 40
1.0
 40
1.0
 40
1.0
 40
1.0
 10
8.2541179829
 20
11.6841181387
 30
0.0
 10
8.2545797098
 20
11.6837724943
 30
0.0
 10
8.2555971106
 20
11.6830250642
 30
0.0
 10
8.2579588037
 20
11.6813279615
 30
0.0
 10
8.2614331693
 20
11.6788912494
 30
0.0
 10
8.2660485791
 20
11.6757120545
 30
0.0
 10
8.2710120265
 20
11.6723413178
 30
0.0
 10
8.275982508
 20
11.669010989
 30
0.0
 10
8.2799789648
 20
11.666375656
 30
0.0
 10
8.2829257877
 20
11.6644680908
 30
0.0
 10
8.2848478516
 20
11.6632434362
 30
0.0
 10
8.2865275324
 20
11.6621959481
 30
0.0
 10
8.2875672676
 20
11.6615670905
 30
0.0
 10
8.288042137
 20
11.661287702
 30
0.0
  0
LINE
  5
3D3
100
AcDbEntity
  8
0
100
AcDbLine
 62
7
  6
CONTINUOUS
 10
8.288042137
 20
11.661287702
 11
8.2900031072
 21
11.6602210439
  0
SPLINE
  5
3D4
100
AcDbEntity
  8
0
100
AcDbSpline
 62
7
  6
CONTINUOUS
 70
0
 71
3
 72
36
 73
32
 74
0
 42
0.0000001
 43
0.0000001
 44
0.0000000001
 40
0.0
 40
0.0
 40
0.0
 40
0.0
 40
0.1051606112
 40
0.2072564667
 40
0.3056128303
 40
0.3995760945
 40
0.4885238457
 40
0.5718666225
 40
0.6490525776
 40
0.7195711802
 40
0.7829568033
 40
0.8387922975
 40
0.8637626244
 40
0.8867126088
 40
0.9076056392
 40
0.9264083191
 40
0.943091977
 40
0.9576318824
 40
0.9700089263
 40
0.9802105627
 40
0.9844946015
 40
0.9882351308
 40
0.9914352509
 40
0.9941008155
 40
0.9962431983
 40
0.997125487
 40
0.9978880177
 40
0.9985389917
 40
0.9990916477
 40
0.9995675579
 40
1.0
 40
1.0
 40
1.0
 40
1.0
 10
13.3840005095
 20
7.8671543424
 30
0.0
 10
13.3910903339
 20
7.8735017262
 30
0.0
 10
13.4050589806
 20
7.8860164016
 30
0.0
 10
13.4256388049
 20
7.9044899739
 30
0.0
 10
13.4454421715
 20
7.9223116584
 30
0.0
 10
13.4643337874
 20
7.939367823
 30
0.0
 10
13.4821842713
 20
7.955549746
 30
0.0
 10
13.4988712899
 20
7.9707545633
 30
0.0
 10
13.5142802417
 20
7.9848858417
 30
0.0
 10
13.528305168
 20
7.9978541591
 30
0.0
 10
13.5408492534
 20
8.0095778723
 30
0.0
 10
13.550319176
 20
8.0185541918
 30
0.0
 10
13.5570838259
 20
8.0250651062
 30
0.0
 10
13.5615444298
 20
8.0294100457
 30
0.0
 10
13.5655765448
 20
8.0333948228
 30
0.0
 10
13.5691731153
 20
8.0370133709
 30
0.0
 10
13.5723278613
 20
8.0402601254
 30
0.0
 10
13.575035556
 20
8.0431300658
 30
0.0
 10
13.5772914953
 20
8.0456189057
 30
0.0
 10
13.5788736271
 20
8.0474651831
 30
0.0
 10
13.5799029199
 20
8.04875411
 30
0.0
 10
13.5805135549
 20
8.0495659965
 30
0.0
 10
13.5810092905
 20
8.0502804664
 30
0.0
 10
13.5813900709
 20
8.0508973995
 30
0.0
 10
13.5816262965
 20
8.0513561606
 30
0.0
 10
13.5817514686
 20
8.051675528
 30
0.0
 10
13.5818102524
 20
8.0518751441
 30
0.0
 10
13.5818403205
 20
8.0520510539
 30
0.0
 10
13.5818413025
 20
8.0522039634
 30
0.0
 10
13.5818120402
 20
8.0523344062
 30
0.0
 10
13.5817698978
 20
8.0524069571
 30
0.0
 10
13.581744742
 20
8.052436932
 30
0.0
  0
SPLINE
  5
3D5
100
AcDbEntity
  8
0
100
AcDbSpline
 62
7
  6
CONTINUOUS
 70
0
 71
3
 72
34
 73
30
 74
0
 42
0.0000001
 43
0.0000001
 44
0.0000000001
 40
0.0
 40
0.0
 40
0.0
 40
0.0
 40
0.0058702316
 40
0.0125138635
 40
0.0199206219
 40
0.028079818
 40
0.0466063048
 40
0.0679812078
 40
0.0920737866
 40
0.11873584
 40
0.1478029004
 40
0.1790953756
 40
0.2475696426
 40
0.3224658049
 40
0.4019309818
 40
0.4839986539
 40
0.5666376271
 40
0.6478025143
 40
0.7254845504
 40
0.797761552
 40
0.8313080336
 40
0.8628459
 40
0.8921800715
 40
0.9191292768
 40
0.943527224
 40
0.9652238337
 40
0.984086083
 40
0.9924184124
 40
1.0
 40
1.0
 40
1.0
 40
1.0
 10
13.0383996866
 20
7.5771608194
 30
0.0
 10
13.0393383875
 20
7.5781571624
 30
0.0
 10
13.0413581009
 20
7.580263573
 30
0.0
 10
13.0446145794
 20
7.5835764455
 30
0.0
 10
13.0482811946
 20
7.587234267
 30
0.0
 10
13.0539537181
 20
7.5928044728
 30
0.0
 10
13.0620281198
 20
7.6005771213
 30
0.0
 10
13.0728703376
 20
7.6108309872
 30
0.0
 10
13.0851668315
 20
7.6223075885
 30
0.0
 10
13.0988381004
 20
7.634939715
 30
0.0
 10
13.1137961487
 20
7.648652951
 30
0.0
 10
13.1360040015
 20
7.6688864424
 30
0.0
 10
13.1662143409
 20
7.6962044667
 30
0.0
 10
13.2048633204
 20
7.730938572
 30
0.0
 10
13.2459401221
 20
7.7677132788
 30
0.0
 10
13.2883997316
 20
7.8056502675
 30
0.0
 10
13.3311629196
 20
7.8438423677
 30
0.0
 10
13.373142856
 20
7.8813761654
 30
0.0
 10
13.4132720686
 20
7.9173546096
 30
0.0
 10
13.4450658085
 20
7.9459958045
 30
0.0
 10
13.4688020368
 20
7.9675042263
 30
0.0
 10
13.4850820476
 20
7.9823277891
 30
0.0
 10
13.5001830419
 20
7.9961610389
 30
0.0
 10
13.5140079434
 20
8.0089222699
 30
0.0
 10
13.5264678401
 20
8.0205362343
 30
0.0
 10
13.5374821553
 20
8.0309348744
 30
0.0
 10
13.5457054205
 20
8.0388321357
 30
0.0
 10
13.5515008028
 20
8.0445047595
 30
0.0
 10
13.5541332272
 20
8.0471205229
 30
0.0
 10
13.5553812185
 20
8.0483728063
 30
0.0
  0
SPLINE
  5
3D6
100
AcDbEntity
  8
0
100
AcDbSpline
 62
7
  6
CONTINUOUS
 70
0
 71
3
 72
18
 73
14
 74
0
 42
0.0000001
 43
0.0000001
 44
0.0000000001
 40
0.0
 40
0.0
 40
0.0
 40
0.0
 40
0.1631897995
 40
0.3222075687
 40
0.4734181139
 40
0.6133341177
 40
0.738698546
 40
0.7949887532
 40
0.8465642009
 40
0.8931170685
 40
0.9343680086
 40
0.9700677106
 40
1.0
 40
1.0
 40
1.0
 40
1.0
 10
13.297090415
 20
7.8201951653
 30
0.0
 10
13.311218734
 20
7.8325191351
 30
0.0
 10
13.3391128817
 20
7.8568534892
 30
0.0
 10
13.3800779884
 20
7.8926303478
 30
0.0
 10
13.418993404
 20
7.9266893395
 30
0.0
 10
13.4549458325
 20
7.9582632184
 30
0.0
 10
13.4826417379
 20
7.9827126556
 30
0.0
 10
13.5026734009
 20
8.0005083309
 30
0.0
 10
13.515905428
 20
8.0123250591
 30
0.0
 10
13.5278132897
 20
8.0230305134
 30
0.0
 10
13.538323461
 20
8.0325624268
 30
0.0
 10
13.5473703847
 20
8.0408651196
 30
0.0
 10
13.552883449
 20
8.0460092729
 30
0.0
 10
13.5553812185
 20
8.0483728063
 30
0.0
  0
SPLINE
  5
3D7
100
AcDbEntity
  8
0
100
AcDbSpline
 62
7
  6
CONTINUOUS
 70
0
 71
3
 72
26
 73
22
 74
0
 42
0.0000001
 43
0.0000001
 44
0.0000000001
 40
0.0
 40
0.0
 40
0.0
 40
0.0
 40
0.0014855086
 40
0.0058746117
 40
0.0130668109
 40
0.0229617864
 40
0.0354594101
 40
0.0504597593
 40
0.0875699344
 40
0.133497737
 40
0.1874529442
 40
0.2486505156
 40
0.3163115001
 40
0.3896641441
 40
0.4679452544
 40
0.5504018867
 40
0.6362934537
 40
0.7248943757
 40
0.8154974418
 40
0.907418103
 40
1.0
 40
1.0
 40
1.0
 40
1.0
 10
10.1445552493
 20
11.9109336174
 30
0.0
 10
10.1444876327
 20
11.9107568832
 30
0.0
 10
10.1442175613
 20
11.9100589938
 30
0.0
 10
10.1436122067
 20
11.9085084961
 30
0.0
 10
10.1426058226
 20
11.9059646255
 30
0.0
 10
10.1412040214
 20
11.9024664534
 30
0.0
 10
10.1394113262
 20
11.8980534661
 30
0.0
 10
10.1362764753
 20
11.8904439404
 30
0.0
 10
10.1314255177
 20
11.8789359795
 30
0.0
 10
10.1244718598
 20
11.8629303843
 30
0.0
 10
10.1160724358
 20
11.8442089433
 30
0.0
 10
10.1062662732
 20
11.8230862948
 30
0.0
 10
10.095092229
 20
11.7998770664
 30
0.0
 10
10.0825892188
 20
11.7748958026
 30
0.0
 10
10.068796139
 20
11.7484569636
 30
0.0
 10
10.0537518847
 20
11.7208749006
 30
0.0
 10
10.0374953198
 20
11.6924638156
 30
0.0
 10
10.0200652921
 20
11.663537777
 30
0.0
 10
10.0015004533
 20
11.6344104768
 30
0.0
 10
9.9818397511
 20
11.6053959444
 30
0.0
 10
9.9680452287
 20
11.5863612045
 30
0.0
 10
9.9609557561
 20
11.5769367209
 30
0.0
  0
LINE
  5
3D8
100
AcDbEntity
  8
0
100
AcDbLine
 62
7
  6
CONTINUOUS
 10
9.2186700038
 20
11.3703607938
 11
9.2193270108
 21
11.3699103333
  0
SPLINE
  5
3D9
100
AcDbEntity
  8
0
100
AcDbSpline
 62
9
  6
CONTINUOUS
 70
0
 71
3
 72
46
 73
42
 74
0
 42
0.0000001
 43
0.0000001
 44
0.0000000001
 40
0.0
 40
0.0
 40
0.0
 40
0.0
 40
0.0001004726
 40
0.0001989856
 40
0.0003160994
 40
0.0004646637
 40
0.0006509866
 40
0.0008781317
 40
0.0014602611
 40
0.0022170995
 40
0.0031501264
 40
0.0042593411
 40
0.0055440793
 40
0.0070033381
 40
0.0086359239
 40
0.0104405288
 40
0.0124157716
 40
0.0168724062
 40
0.0219940712
 40
0.0277687004
 40
0.0341840775
 40
0.0412279046
 40
0.0488878398
 40
0.0660065774
 40
0.0854413701
 40
0.1070934576
 40
0.1308643981
 40
0.1566561691
 40
0.1843712448
 40
0.2139126632
 40
0.2451840904
 40
0.2780898853
 40
0.3125351671
 40
0.3856680556
 40
0.4638424003
 40
0.5463347761
 40
0.632442848
 40
0.7214897407
 40
0.8128294608
 40
0.9058536483
 40
1.0
 40
1.0
 40
1.0
 40
1.0
 10
9.9653440098
 20
12.0465345727
 30
0.0
 10
9.9653327662
 20
12.0465430757
 30
0.0
 10
9.9653067264
 20
12.0465562173
 30
0.0
 10
9.9652607356
 20
12.0465533976
 30
0.0
 10
9.9652146186
 20
12.0465293407
 30
0.0
 10
9.9651668886
 20
12.0464871062
 30
0.0
 10
9.9651162918
 20
12.0464263536
 30
0.0
 10
9.9650380087
 20
12.0463104896
 30
0.0
 10
9.9649349467
 20
12.0461158879
 30
0.0
 10
9.964805639
 20
12.0458244466
 30
0.0
 10
9.9646628494
 20
12.0454584691
 30
0.0
 10
9.9645064911
 20
12.0450186028
 30
0.0
 10
9.9643366258
 20
12.0445053187
 30
0.0
 10
9.9641531976
 20
12.0439192779
 30
0.0
 10
9.9639561531
 20
12.0432611301
 30
0.0
 10
9.9637454084
 20
12.0425315561
 30
0.0
 10
9.9634332851
 20
12.041418874
 30
0.0
 10
9.9630102476
 20
12.0398539914
 30
0.0
 10
9.9624644541
 20
12.0377701749
 30
0.0
 10
9.9618614091
 20
12.0354172997
 30
0.0
 10
9.9612003315
 20
12.0328009134
 30
0.0
 10
9.9604804452
 20
12.0299265632
 30
0.0
 10
9.9594004722
 20
12.0255942805
 30
0.0
 10
9.9579025242
 20
12.0195744713
 30
0.0
 10
9.9559169906
 20
12.011652956
 30
0.0
 10
9.953676302
 20
12.0028332178
 30
0.0
 10
9.9511738804
 20
11.9931598029
 30
0.0
 10
9.9484031603
 20
11.9826772577
 30
0.0
 10
9.9453575127
 20
11.9714301459
 30
0.0
 10
9.9420302918
 20
11.9594630341
 30
0.0
 10
9.9384148348
 20
11.946820497
 30
0.0
 10
9.9345044645
 20
11.9335470912
 30
0.0
 10
9.9287731472
 20
11.9146878965
 30
0.0
 10
9.9208480559
 20
11.8898581797
 30
0.0
 10
9.9102344252
 20
11.8588166825
 30
0.0
 10
9.8982828021
 20
11.8263174226
 30
0.0
 10
9.8849397514
 20
11.7927160529
 30
0.0
 10
9.8701516778
 20
11.7583679746
 30
0.0
 10
9.85386458
 20
11.7236280443
 30
0.0
 10
9.8360247624
 20
11.6888519054
 30
0.0
 10
9.8231127516
 20
11.6659736553
 30
0.0
 10
9.8163659634
 20
11.6546173981
 30
0.0
  0
SPLINE
  5
3DA
100
AcDbEntity
  8
0
100
AcDbSpline
 62
7
  6
CONTINUOUS
 70
0
 71
3
 72
29
 73
25
 74
0
 42
0.0000001
 43
0.0000001
 44
0.0000000001
 40
0.0
 40
0.0
 40
0.0
 40
0.0
 40
0.0411382316
 40
0.0629111648
 40
0.0855317037
 40
0.1090226359
 40
0.1333954017
 40
0.1586520018
 40
0.184786611
 40
0.211786925
 40
0.2396352745
 40
0.2683095454
 40
0.2977839359
 40
0.3280295829
 40
0.3590150794
 40
0.4230651914
 40
0.4896520416
 40
0.5584687281
 40
0.6291957758
 40
0.7015062535
 40
0.7750699017
 40
0.8495566766
 40
0.9246400064
 40
1.0
 40
1.0
 40
1.0
 40
1.0
 10
9.5469801733
 20
11.288705176
 30
0.0
 10
9.5540879135
 20
11.2882912546
 30
0.0
 10
9.5650215266
 20
11.2885389183
 30
0.0
 10
9.5797260052
 20
11.2902767206
 30
0.0
 10
9.5912999107
 20
11.2923379092
 30
0.0
 10
9.6031835366
 20
11.2951140486
 30
0.0
 10
9.6153571599
 20
11.2985876955
 30
0.0
 10
9.6277984464
 20
11.3027413387
 30
0.0
 10
9.6404856624
 20
11.3075576108
 30
0.0
 10
9.6533967802
 20
11.3130191769
 30
0.0
 10
9.6665097478
 20
11.3191087327
 30
0.0
 10
9.6798024426
 20
11.3258089821
 30
0.0
 10
9.6932526594
 20
11.3331026328
 30
0.0
 10
9.7068382903
 20
11.3409723785
 30
0.0
 10
9.7253068005
 20
11.352335996
 30
0.0
 10
9.7485653178
 20
11.3678967345
 30
0.0
 10
9.776359292
 20
11.3883861252
 30
0.0
 10
9.804161242
 20
11.4107574847
 30
0.0
 10
9.8317927544
 20
11.4348727063
 30
0.0
 10
9.8590758303
 20
11.4605940914
 30
0.0
 10
9.8858321316
 20
11.4877834688
 30
0.0
 10
9.9118834917
 20
11.5163027956
 30
0.0
 10
9.9370511296
 20
11.5460131394
 30
0.0
 10
9.9531153006
 20
11.5665139083
 30
0.0
 10
9.960955754
 20
11.5769367181
 30
0.0
  0
SPLINE
  5
3DB
100
AcDbEntity
  8
0
100
AcDbSpline
 62
9
  6
CONTINUOUS
 70
0
 71
3
 72
30
 73
26
 74
0
 42
0.0000001
 43
0.0000001
 44
0.0000000001
 40
0.0
 40
0.0
 40
0.0
 40
0.0
 40
0.0171679528
 40
0.0353033768
 40
0.0544748956
 40
0.0747294983
 40
0.0960968108
 40
0.1185926361
 40
0.1422196073
 40
0.1669669277
 40
0.1928161011
 40
0.2197429645
 40
0.2477188316
 40
0.276711383
 40
0.3066853639
 40
0.3376031361
 40
0.4021036167
 40
0.4698496992
 40
0.5404412549
 40
0.6134664638
 40
0.6885061033
 40
0.7651270662
 40
0.8428810993
 40
0.9213202006
 40
1.0
 40
1.0
 40
1.0
 40
1.0
 10
9.6490067919
 20
11.2825309329
 30
0.0
 10
9.6516304577
 20
11.2823652276
 30
0.0
 10
9.6570440166
 20
11.2822818735
 30
0.0
 10
9.6653747694
 20
11.2828357643
 30
0.0
 10
9.6741118296
 20
11.2840502705
 30
0.0
 10
9.6832385359
 20
11.2859113767
 30
0.0
 10
9.692739327
 20
11.2884053832
 30
0.0
 10
9.7025976682
 20
11.2915188673
 30
0.0
 10
9.7127960445
 20
11.2952377595
 30
0.0
 10
9.7233160689
 20
11.2995466787
 30
0.0
 10
9.7341384308
 20
11.3044302507
 30
0.0
 10
9.7452436399
 20
11.3098730076
 30
0.0
 10
9.7566121268
 20
11.3158594785
 30
0.0
 10
9.7682242389
 20
11.3223741762
 30
0.0
 10
9.7800603784
 20
11.329401554
 30
0.0
 10
9.7963442823
 20
11.3395783858
 30
0.0
 10
9.8171002194
 20
11.3535000573
 30
0.0
 10
9.8422344087
 20
11.3717591636
 30
0.0
 10
9.8677628257
 20
11.3916640915
 30
0.0
 10
9.8935102465
 20
11.4130764359
 30
0.0
 10
9.9193005434
 20
11.4358568598
 30
0.0
 10
9.9449547559
 20
11.4598629901
 30
0.0
 10
9.9702908925
 20
11.4849502244
 30
0.0
 10
9.9951249289
 20
11.5109718838
 30
0.0
 10
10.0112297148
 20
11.5288515705
 30
0.0
 10
10.019158267
 20
11.537923186
 30
0.0
  0
SPLINE
  5
3DC
100
AcDbEntity
  8
0
100
AcDbSpline
 62
7
  6
CONTINUOUS
 70
0
 71
3
 72
17
 73
13
 74
0
 42
0.0000001
 43
0.0000001
 44
0.0000000001
 40
0.0
 40
0.0
 40
0.0
 40
0.0
 40
0.020737814
 40
0.0430310493
 40
0.0691063374
 40
0.1003940188
 40
0.1814139179
 40
0.2893988028
 40
0.425328628
 40
0.5893514267
 40
0.7811704279
 40
1.0
 40
1.0
 40
1.0
 40
1.0
 10
9.1542373061
 20
11.3996580598
 30
0.0
 10
9.1542281447
 20
11.39963758
 30
0.0
 10
9.1542170001
 20
11.3995910558
 30
0.0
 10
9.154227152
 20
11.3995157024
 30
0.0
 10
9.1542617567
 20
11.3994359627
 30
0.0
 10
9.1543467475
 20
11.3993119902
 30
0.0
 10
9.1545198958
 20
11.3991456053
 30
0.0
 10
9.1548025527
 20
11.3989362522
 30
0.0
 10
9.1551778767
 20
11.3987032219
 30
0.0
 10
9.1556445922
 20
11.3984475405
 30
0.0
 10
9.1562013373
 20
11.3981705352
 30
0.0
 10
9.1566048473
 20
11.3979845242
 30
0.0
 10
9.1568209332
 20
11.397887805
 30
0.0
  0
SPLINE
  5
3DD
100
AcDbEntity
  8
0
100
AcDbSpline
 62
7
  6
CONTINUOUS
 70
0
 71
3
 72
13
 73
9
 74
0
 42
0.0000001
 43
0.0000001
 44
0.0000000001
 40
0.0
 40
0.0
 40
0.0
 40
0.0
 40
0.250405362
 40
0.3754446068
 40
0.5004187205
 40
0.6253493776
 40
0.7502495882
 40
1.0
 40
1.0
 40
1.0
 40
1.0
 10
13.0962092379
 20
7.9780778101
 30
0.0
 10
13.0870353523
 20
7.9872240072
 30
0.0
 10
13.0735164278
 20
8.0011755043
 30
0.0
 10
13.0558752942
 20
8.0201229012
 30
0.0
 10
13.0428169193
 20
8.034466552
 30
0.0
 10
13.0298993666
 20
8.0489273271
 30
0.0
 10
13.0128609843
 20
8.0683610131
 30
0.0
 10
13.0002789151
 20
8.0831054249
 30
0.0
 10
12.9919738505
 20
8.0930030155
 30
0.0
  0
SPLINE
  5
3DE
100
AcDbEntity
  8
0
100
AcDbSpline
 62
7
  6
CONTINUOUS
 70
0
 71
3
 72
13
 73
9
 74
0
 42
0.0000001
 43
0.0000001
 44
0.0000000001
 40
0.0
 40
0.0
 40
0.0
 40
0.0
 40
0.250405362
 40
0.3754446068
 40
0.5004187205
 40
0.6253493776
 40
0.7502495882
 40
1.0
 40
1.0
 40
1.0
 40
1.0
 10
13.1764890129
 20
8.0454405397
 30
0.0
 10
13.1690747956
 20
8.0560632738
 30
0.0
 10
13.1576827897
 20
8.0717994675
 30
0.0
 10
13.142086597
 20
8.0924627736
 30
0.0
 10
13.1302284215
 20
8.1078135112
 30
0.0
 10
13.1182304475
 20
8.1230459045
 30
0.0
 10
13.1020506869
 20
8.1432000596
 30
0.0
 10
13.0897151292
 20
8.1581513192
 30
0.0
 10
13.0814100647
 20
8.1680489098
 30
0.0
  0
SPLINE
  5
3DF
100
AcDbEntity
  8
0
100
AcDbSpline
 62
7
  6
CONTINUOUS
 70
0
 71
3
 72
15
 73
11
 74
0
 42
0.0000001
 43
0.0000001
 44
0.0000000001
 40
0.0
 40
0.0
 40
0.0
 40
0.0
 40
0.1273223362
 40
0.253473587
 40
0.3788028176
 40
0.4412480455
 40
0.5035825623
 40
0.6279887467
 40
0.7521350338
 40
1.0
 40
1.0
 40
1.0
 40
1.0
 10
13.2542466511
 20
8.1106869452
 30
0.0
 10
13.2514044702
 20
8.1166865041
 30
0.0
 10
13.2454607961
 20
8.1284971657
 30
0.0
 10
13.2358252181
 20
8.1457442806
 30
0.0
 10
13.2273023893
 20
8.1597231084
 30
0.0
 10
13.2202433007
 20
8.1706887797
 30
0.0
 10
13.2130500435
 20
8.1815091515
 30
0.0
 10
13.2037966728
 20
8.1948213681
 30
0.0
 10
13.1884525972
 20
8.2156693498
 30
0.0
 10
13.1763438325
 20
8.2308367769
 30
0.0
 10
13.1680364757
 20
8.2407370993
 30
0.0
  0
SPLINE
  5
3E0
100
AcDbEntity
  8
0
100
AcDbSpline
 62
7
  6
CONTINUOUS
 70
0
 71
3
 72
17
 73
13
 74
0
 42
0.0000001
 43
0.0000001
 44
0.0000000001
 40
0.0
 40
0.0
 40
0.0
 40
0.0
 40
0.1306987847
 40
0.2585478323
 40
0.3216753618
 40
0.3843858091
 40
0.4467551826
 40
0.5088490578
 40
0.6323808123
 40
0.7552618665
 40
0.877729366
 40
1.0
 40
1.0
 40
1.0
 40
1.0
 10
13.3245963542
 20
8.1697173551
 30
0.0
 10
13.322537663
 20
8.1763099822
 30
0.0
 10
13.3180150403
 20
8.1892152089
 30
0.0
 10
13.3113614241
 20
8.204869142
 30
0.0
 10
13.3055809213
 20
8.2169661525
 30
0.0
 10
13.3010498534
 20
8.225820934
 30
0.0
 10
13.2963224212
 20
8.2345100703
 30
0.0
 10
13.2897955209
 20
8.2458750234
 30
0.0
 10
13.2812182203
 20
8.2597452746
 30
0.0
 10
13.2702622037
 20
8.2758748693
 30
0.0
 10
13.2586843667
 20
8.2914805895
 30
0.0
 10
13.2505632155
 20
8.3015507412
 30
0.0
 10
13.2464100276
 20
8.3065003178
 30
0.0
  0
SPLINE
  5
3E1
100
AcDbEntity
  8
0
100
AcDbSpline
 62
7
  6
CONTINUOUS
 70
0
 71
3
 72
19
 73
15
 74
0
 42
0.0000001
 43
0.0000001
 44
0.0000000001
 40
0.0
 40
0.0
 40
0.0
 40
0.0
 40
0.0201239447
 40
0.0421820178
 40
0.0684167665
 40
0.100174082
 40
0.1381961413
 40
0.1828730568
 40
0.23439196
 40
0.2928368982
 40
0.4303999252
 40
0.5949715134
 40
0.7854193881
 40
1.0
 40
1.0
 40
1.0
 40
1.0
 10
9.0517384635
 20
11.4462605986
 30
0.0
 10
9.051719055
 20
11.4462172297
 30
0.0
 10
9.0516965257
 20
11.446117109
 30
0.0
 10
9.05172268
 20
11.4459548672
 30
0.0
 10
9.0518023971
 20
11.4457818292
 30
0.0
 10
9.0519335618
 20
11.445595921
 30
0.0
 10
9.052116252
 20
11.4453961174
 30
0.0
 10
9.0523505471
 20
11.4451822851
 30
0.0
 10
9.0526362872
 20
11.4449546584
 30
0.0
 10
9.0531119166
 20
11.4446147133
 30
0.0
 10
9.0538352175
 20
11.4441642506
 30
0.0
 10
9.0548542213
 20
11.4436030211
 30
0.0
 10
9.0560574292
 20
11.4430015991
 30
0.0
 10
9.0569256951
 20
11.4426005162
 30
0.0
 10
9.0573881228
 20
11.4423935354
 30
0.0
  0
SPLINE
  5
3E2
100
AcDbEntity
  8
0
100
AcDbSpline
 62
9
  6
CONTINUOUS
 70
0
 71
3
 72
37
 73
33
 74
0
 42
0.0000001
 43
0.0000001
 44
0.0000000001
 40
0.0
 40
0.0
 40
0.0
 40
0.0
 40
0.002054642
 40
0.0045056781
 40
0.0073732257
 40
0.0106730519
 40
0.0144183933
 40
0.0186209326
 40
0.023291353
 40
0.0284396678
 40
0.0340746573
 40
0.0402017162
 40
0.053949228
 40
0.0697157699
 40
0.0875329238
 40
0.1074236938
 40
0.1293801738
 40
0.1533863828
 40
0.1794259713
 40
0.2074745721
 40
0.2374766092
 40
0.2693685706
 40
0.3030867904
 40
0.3385602952
 40
0.3756892584
 40
0.4544847274
 40
0.5385756604
 40
0.6269064922
 40
0.7183679291
 40
0.8117960745
 40
0.9060329149
 40
1.0
 40
1.0
 40
1.0
 40
1.0
 10
8.2682497755
 20
12.6409714729
 30
0.0
 10
8.2687450202
 20
12.6410181946
 30
0.0
 10
8.2698376193
 20
12.6410510552
 30
0.0
 10
8.2716214778
 20
12.640958608
 30
0.0
 10
8.2736959669
 20
12.6407248512
 30
0.0
 10
8.2760665099
 20
12.6403464028
 30
0.0
 10
8.2787387662
 20
12.6398198851
 30
0.0
 10
8.2817179604
 20
12.6391420653
 30
0.0
 10
8.2850092823
 20
12.6383097833
 30
0.0
 10
8.2886176553
 20
12.6373199737
 30
0.0
 10
8.2925471169
 20
12.6361699508
 30
0.0
 10
8.2984486719
 20
12.6343485619
 30
0.0
 10
8.3066432246
 20
12.6316425029
 30
0.0
 10
8.3174526178
 20
12.6278368404
 30
0.0
 10
8.329594596
 20
12.6233426327
 30
0.0
 10
8.3430738894
 20
12.6181482067
 30
0.0
 10
8.3578864655
 20
12.6122494867
 30
0.0
 10
8.3740196188
 20
12.6056454352
 30
0.0
 10
8.3914572341
 20
12.5983365445
 30
0.0
 10
8.4101746412
 20
12.5903272869
 30
0.0
 10
8.430138534
 20
12.5816306011
 30
0.0
 10
8.4513068957
 20
12.5722628512
 30
0.0
 10
8.4736344095
 20
12.5622419053
 30
0.0
 10
8.4970679355
 20
12.5515894936
 30
0.0
 10
8.5303728495
 20
12.5362811945
 30
0.0
 10
8.5742588495
 20
12.5158103673
 30
0.0
 10
8.6292284925
 20
12.4897791762
 30
0.0
 10
8.6868510961
 20
12.4621868658
 30
0.0
 10
8.7464220498
 20
12.4334300989
 30
0.0
 10
8.8072361256
 20
12.4039596786
 30
0.0
 10
8.8685949563
 20
12.374222328
 30
0.0
 10
8.909613508
 20
12.3543805207
 30
0.0
 10
8.930101186
 20
12.3444899893
 30
0.0
  0
SPLINE
  5
3E3
100
AcDbEntity
  8
0
100
AcDbSpline
 62
7
  6
CONTINUOUS
 70
0
 71
3
 72
17
 73
13
 74
0
 42
0.0000001
 43
0.0000001
 44
0.0000000001
 40
0.0
 40
0.0
 40
0.0
 40
0.0
 40
0.0211426789
 40
0.0436934211
 40
0.0698578324
 40
0.1010817109
 40
0.1816828819
 40
0.2890793688
 40
0.4244421503
 40
0.5881836558
 40
0.7801739912
 40
1.0
 40
1.0
 40
1.0
 40
1.0
 10
8.9974891946
 20
11.4049391041
 30
0.0
 10
8.9974832426
 20
11.4049257975
 30
0.0
 10
8.9974758638
 20
11.4048957721
 30
0.0
 10
8.9974817867
 20
11.4048471639
 30
0.0
 10
8.9975032782
 20
11.4047958835
 30
0.0
 10
8.9975564697
 20
11.4047165304
 30
0.0
 10
8.9976656819
 20
11.4046103139
 30
0.0
 10
8.9978445785
 20
11.4044770367
 30
0.0
 10
8.9980827403
 20
11.4043287307
 30
0.0
 10
8.9983797188
 20
11.4041659204
 30
0.0
 10
8.9987350693
 20
11.4039890989
 30
0.0
 10
8.9989929657
 20
11.4038702409
 30
0.0
 10
8.9991313029
 20
11.4038083217
 30
0.0
  0
SPLINE
  5
3E4
100
AcDbEntity
  8
0
100
AcDbSpline
 62
9
  6
CONTINUOUS
 70
0
 71
3
 72
28
 73
24
 74
0
 42
0.0000001
 43
0.0000001
 44
0.0000000001
 40
0.0
 40
0.0
 40
0.0
 40
0.0
 40
0.0010798224
 40
0.0043444035
 40
0.0098379975
 40
0.017605193
 40
0.0276847561
 40
0.0400912683
 40
0.0719204574
 40
0.0913539309
 40
0.1131038958
 40
0.1634030656
 40
0.1918701227
 40
0.2224573422
 40
0.2896555771
 40
0.3642663313
 40
0.4453191759
 40
0.5317445764
 40
0.6223148743
 40
0.7157493631
 40
0.8107124032
 40
0.9058760545
 40
1.0
 40
1.0
 40
1.0
 40
1.0
 10
8.343608447
 20
12.6424005708
 30
0.0
 10
8.3438352312
 20
12.6423328251
 30
0.0
 10
8.3447457678
 20
12.6420540308
 30
0.0
 10
8.3468044844
 20
12.6414123521
 30
0.0
 10
8.3502546789
 20
12.6403092787
 30
0.0
 10
8.3551171185
 20
12.6387185946
 30
0.0
 10
8.3614054174
 20
12.6366135625
 30
0.0
 10
8.3726690787
 20
12.6327574176
 30
0.0
 10
8.3858226671
 20
12.6280928429
 30
0.0
 10
8.4008554109
 20
12.6226032265
 30
0.0
 10
8.4196462191
 20
12.6156034115
 30
0.0
 10
8.4402170364
 20
12.6077111817
 30
0.0
 10
8.4625205671
 20
12.5989316523
 30
0.0
 10
8.4882115265
 20
12.5886459564
 30
0.0
 10
8.5231696592
 20
12.5742969263
 30
0.0
 10
8.5681567864
 20
12.5552579858
 30
0.0
 10
8.6168176946
 20
12.5340932478
 30
0.0
 10
8.6684689225
 20
12.5110395742
 30
0.0
 10
8.7223789592
 20
12.4863939466
 30
0.0
 10
8.7777625888
 20
12.4604766176
 30
0.0
 10
8.8338345904
 20
12.4336601765
 30
0.0
 10
8.8898174821
 20
12.4063121263
 30
0.0
 10
8.9269279103
 20
12.3877566824
 30
0.0
 10
8.9453312551
 20
12.3784315915
 30
0.0
  0
SPLINE
  5
3E5
100
AcDbEntity
  8
0
100
AcDbSpline
 62
9
  6
CONTINUOUS
 70
0
 71
3
 72
11
 73
7
 74
0
 42
0.0000001
 43
0.0000001
 44
0.0000000001
 40
0.0
 40
0.0
 40
0.0
 40
0.0
 40
0.2521224973
 40
0.5031414453
 40
0.7525903437
 40
1.0
 40
1.0
 40
1.0
 40
1.0
 10
6.8751418461
 20
9.3737744456
 30
0.0
 10
6.8420780615
 20
9.3312453644
 30
0.0
 10
6.7782900739
 20
9.2446410117
 30
0.0
 10
6.6897064065
 20
9.1103564658
 30
0.0
 10
6.6086930011
 20
8.9725403614
 30
0.0
 10
6.5597158649
 20
8.8782869333
 30
0.0
 10
6.5366017138
 20
8.8307454067
 30
0.0
  0
SPLINE
  5
3E6
100
AcDbEntity
  8
0
100
AcDbSpline
 62
7
  6
CONTINUOUS
 70
0
 71
3
 72
19
 73
15
 74
0
 42
0.0000001
 43
0.0000001
 44
0.0000000001
 40
0.0
 40
0.0
 40
0.0
 40
0.0
 40
0.0202909764
 40
0.0424852417
 40
0.0688139683
 40
0.1006270494
 40
0.1386740862
 40
0.1833513459
 40
0.2348515527
 40
0.2932631355
 40
0.4307279882
 40
0.5951816728
 40
0.7855138939
 40
1.0
 40
1.0
 40
1.0
 40
1.0
 10
8.9017858459
 20
11.4487230708
 30
0.0
 10
8.9017664005
 20
11.4486796198
 30
0.0
 10
8.9017436472
 20
11.4485795236
 30
0.0
 10
8.9017689365
 20
11.44841727
 30
0.0
 10
8.9018474776
 20
11.4482442728
 30
0.0
 10
8.9019771394
 20
11.4480585636
 30
0.0
 10
8.9021579763
 20
11.4478591311
 30
0.0
 10
8.9023900635
 20
11.4476458412
 30
0.0
 10
8.9026732524
 20
11.4474189278
 30
0.0
 10
8.9031447904
 20
11.447080248
 30
0.0
 10
8.9038622728
 20
11.4466317621
 30
0.0
 10
8.9048735595
 20
11.4460734393
 30
0.0
 10
8.906068124
 20
11.4454755464
 30
0.0
 10
8.9069303711
 20
11.445077092
 30
0.0
 10
8.9073896586
 20
11.4448715168
 30
0.0
  0
SPLINE
  5
3E7
100
AcDbEntity
  8
0
100
AcDbSpline
 62
7
  6
CONTINUOUS
 70
0
 71
3
 72
19
 73
15
 74
0
 42
0.0000001
 43
0.0000001
 44
0.0000000001
 40
0.0
 40
0.0
 40
0.0
 40
0.0
 40
0.0193040685
 40
0.0410890689
 40
0.0676084442
 40
0.1001112781
 40
0.1392087204
 40
0.1851829803
 40
0.2381143827
 40
0.2979696812
 40
0.437881035
 40
0.6032490346
 40
0.7916418322
 40
1.0
 40
1.0
 40
1.0
 40
1.0
 10
8.9181571808
 20
11.5069893411
 30
0.0
 10
8.9181254727
 20
11.5069185085
 30
0.0
 10
8.9180916632
 20
11.5067509392
 30
0.0
 10
8.918146208
 20
11.5064798161
 30
0.0
 10
8.9182921276
 20
11.5061869864
 30
0.0
 10
8.9185272233
 20
11.5058686235
 30
0.0
 10
8.9188513387
 20
11.5055235541
 30
0.0
 10
8.9192643594
 20
11.5051524114
 30
0.0
 10
8.9197652778
 20
11.5047563676
 30
0.0
 10
8.9205924979
 20
11.5041661323
 30
0.0
 10
8.9218379082
 20
11.5033868676
 30
0.0
 10
8.9235737959
 20
11.5024236739
 30
0.0
 10
8.9255928277
 20
11.5014075184
 30
0.0
 10
8.9270402167
 20
11.5007367396
 30
0.0
 10
8.9278047616
 20
11.5003945324
 30
0.0
  0
SPLINE
  5
3E8
100
AcDbEntity
  8
0
100
AcDbSpline
 62
7
  6
CONTINUOUS
 70
0
 71
3
 72
17
 73
13
 74
0
 42
0.0000001
 43
0.0000001
 44
0.0000000001
 40
0.0
 40
0.0
 40
0.0
 40
0.0
 40
0.1306987847
 40
0.2585478323
 40
0.3216753618
 40
0.3843858091
 40
0.4467551826
 40
0.5088490578
 40
0.6323808123
 40
0.7552618665
 40
0.877729366
 40
1.0
 40
1.0
 40
1.0
 40
1.0
 10
12.9481018966
 20
7.8538009946
 30
0.0
 10
12.9419669143
 20
7.8569732073
 30
0.0
 10
12.9300430922
 20
7.8636680903
 30
0.0
 10
12.9157823658
 20
7.8729389001
 30
0.0
 10
12.9048729099
 20
7.8807322079
 30
0.0
 10
12.8969394641
 20
7.8867320553
 30
0.0
 10
12.8892032452
 20
7.8928965199
 30
0.0
 10
12.8791443357
 20
7.9012977654
 30
0.0
 10
12.8669742374
 20
7.9121533013
 30
0.0
 10
12.8529921798
 20
7.9257437461
 30
0.0
 10
12.8396340159
 20
7.9398555947
 30
0.0
 10
12.8311270755
 20
7.9496020308
 30
0.0
 10
12.8269738876
 20
7.9545516074
 30
0.0
  0
SPLINE
  5
3E9
100
AcDbEntity
  8
0
100
AcDbSpline
 62
7
  6
CONTINUOUS
 70
0
 71
3
 72
15
 73
11
 74
0
 42
0.0000001
 43
0.0000001
 44
0.0000000001
 40
0.0
 40
0.0
 40
0.0
 40
0.0
 40
0.1273223362
 40
0.253473587
 40
0.3788028176
 40
0.4412480455
 40
0.5035825623
 40
0.6279887467
 40
0.7521350338
 40
1.0
 40
1.0
 40
1.0
 40
1.0
 10
13.0184515997
 20
7.9128314045
 30
0.0
 10
13.0130367271
 20
7.9166722188
 30
0.0
 10
13.0024376042
 20
7.924576495
 30
0.0
 10
12.9871257122
 20
7.937060617
 30
0.0
 10
12.9748392279
 20
7.9478813628
 30
0.0
 10
12.9652659477
 20
7.9567373768
 30
0.0
 10
12.9558590577
 20
7.9657002901
 30
0.0
 10
12.9443559145
 20
7.9771247235
 30
0.0
 10
12.9264891313
 20
7.9958559022
 30
0.0
 10
12.9136547964
 20
8.0104145036
 30
0.0
 10
12.9053474395
 20
8.0203148259
 30
0.0
  0
SPLINE
  5
3EA
100
AcDbEntity
  8
0
100
AcDbSpline
 62
7
  6
CONTINUOUS
 70
0
 71
3
 72
22
 73
18
 74
0
 42
0.0000001
 43
0.0000001
 44
0.0000000001
 40
0.0
 40
0.0
 40
0.0
 40
0.0
 40
0.0090078065
 40
0.0184112258
 40
0.0286317738
 40
0.039996858
 40
0.0669930994
 40
0.1005606666
 40
0.1411574742
 40
0.1889064636
 40
0.243747602
 40
0.3054910145
 40
0.3738528191
 40
0.4484760519
 40
0.6147264345
 40
0.8001666734
 40
1.0
 40
1.0
 40
1.0
 40
1.0
 10
8.7625954301
 20
11.5777026547
 30
0.0
 10
8.7625735605
 20
11.5776538093
 30
0.0
 10
8.7625407944
 20
11.577548167
 30
0.0
 10
8.7625292643
 20
11.5773771549
 30
0.0
 10
8.7625540551
 20
11.5771936644
 30
0.0
 10
8.7626396206
 20
11.5769169258
 30
0.0
 10
8.7628476463
 20
11.5765393898
 30
0.0
 10
8.763218584
 20
11.576064955
 30
0.0
 10
8.7637245028
 20
11.5755450475
 30
0.0
 10
8.7643634228
 20
11.5749825142
 30
0.0
 10
8.7651326959
 20
11.5743805804
 30
0.0
 10
8.7660281356
 20
11.5737432225
 30
0.0
 10
8.7670445349
 20
11.5730746504
 30
0.0
 10
8.7686100903
 20
11.5721126917
 30
0.0
 10
8.7708208213
 20
11.5708744509
 30
0.0
 10
8.7737425957
 20
11.5693896877
 30
0.0
 10
8.7758180791
 20
11.5684231668
 30
0.0
 10
8.7769017412
 20
11.567938124
 30
0.0
  0
SPLINE
  5
3EB
100
AcDbEntity
  8
0
100
AcDbSpline
 62
7
  6
CONTINUOUS
 70
0
 71
3
 72
13
 73
9
 74
0
 42
0.0000001
 43
0.0000001
 44
0.0000000001
 40
0.0
 40
0.0
 40
0.0
 40
0.0
 40
0.2498106825
 40
0.3747362011
 40
0.4996857844
 40
0.6246689445
 40
0.7497006555
 40
1.0
 40
1.0
 40
1.0
 40
1.0
 10
10.8707747386
 20
10.6209496777
 30
0.0
 10
10.8632753269
 20
10.6298871285
 30
0.0
 10
10.8521270415
 20
10.6433797007
 30
0.0
 10
10.8374779631
 20
10.6615464387
 30
0.0
 10
10.8266001992
 20
10.6752643752
 30
0.0
 10
10.8158325247
 20
10.6890752735
 30
0.0
 10
10.8016396514
 20
10.7076375302
 30
0.0
 10
10.7912236266
 20
10.7217395339
 30
0.0
 10
10.7844119032
 20
10.7312396749
 30
0.0
  0
SPLINE
  5
3EC
100
AcDbEntity
  8
0
100
AcDbSpline
 62
7
  6
CONTINUOUS
 70
0
 71
3
 72
13
 73
9
 74
0
 42
0.0000001
 43
0.0000001
 44
0.0000000001
 40
0.0
 40
0.0
 40
0.0
 40
0.0
 40
0.2498106825
 40
0.3747362011
 40
0.4996857844
 40
0.6246689445
 40
0.7497006555
 40
1.0
 40
1.0
 40
1.0
 40
1.0
 10
10.9602109527
 20
10.6959955721
 30
0.0
 10
10.9527115411
 20
10.7049330228
 30
0.0
 10
10.9413598308
 20
10.7182549013
 30
0.0
 10
10.9260128722
 20
10.7358360483
 30
0.0
 10
10.9143922458
 20
10.7489306491
 30
0.0
 10
10.9026609531
 20
10.7619329758
 30
0.0
 10
10.8868452655
 20
10.7791335295
 30
0.0
 10
10.8747662266
 20
10.7918400988
 30
0.0
 10
10.8665932574
 20
10.800198019
 30
0.0
  0
SPLINE
  5
3ED
100
AcDbEntity
  8
0
100
AcDbSpline
 62
7
  6
CONTINUOUS
 70
0
 71
3
 72
16
 73
12
 74
0
 42
0.0000001
 43
0.0000001
 44
0.0000000001
 40
0.0
 40
0.0
 40
0.0
 40
0.0
 40
0.2483747812
 40
0.3727350551
 40
0.4349887709
 40
0.497303498
 40
0.5596891751
 40
0.6221590076
 40
0.747425684
 40
0.8732929316
 40
1.0
 40
1.0
 40
1.0
 40
1.0
 10
11.0468373637
 20
10.7686837616
 30
0.0
 10
11.0393362526
 20
10.7776232377
 30
0.0
 10
11.0277778461
 20
10.790790438
 30
0.0
 10
11.0137646146
 20
10.8056693383
 30
0.0
 10
11.0055948972
 20
10.81403902
 30
0.0
 10
10.9993838434
 20
10.8202505173
 30
0.0
 10
10.9930909202
 20
10.82639365
 30
0.0
 10
10.9845788832
 20
10.8344964047
 30
0.0
 10
10.973696919
 20
10.8444339305
 30
0.0
 10
10.9602110798
 20
10.8559835868
 30
0.0
 10
10.9509232975
 20
10.8633757002
 30
0.0
 10
10.9461927333
 20
10.8669899098
 30
0.0
  0
SPLINE
  5
3EE
100
AcDbEntity
  8
0
100
AcDbSpline
 62
7
  6
CONTINUOUS
 70
0
 71
3
 72
16
 73
12
 74
0
 42
0.0000001
 43
0.0000001
 44
0.0000000001
 40
0.0
 40
0.0
 40
0.0
 40
0.0
 40
0.2459417946
 40
0.3693483186
 40
0.4312366164
 40
0.4932780916
 40
0.555497411
 40
0.6179272792
 40
0.743602743
 40
0.8707681696
 40
1.0
 40
1.0
 40
1.0
 40
1.0
 10
11.1252109156
 20
10.8344469801
 30
0.0
 10
11.1177068269
 20
10.8433900047
 30
0.0
 10
11.1059522426
 20
10.8564253407
 30
0.0
 10
11.0914155327
 20
10.8708422173
 30
0.0
 10
11.0828483825
 20
10.8788709259
 30
0.0
 10
11.0762866819
 20
10.8847894804
 30
0.0
 10
11.0695940447
 20
10.8905989686
 30
0.0
 10
11.060468231
 20
10.8982097306
 30
0.0
 10
11.0486660666
 20
10.9074205507
 30
0.0
 10
11.0338304351
 20
10.9178655011
 30
0.0
 10
11.0235035991
 20
10.9243209517
 30
0.0
 10
11.018208803
 20
10.9274185673
 30
0.0
  0
SPLINE
  5
3EF
100
AcDbEntity
  8
0
100
AcDbSpline
 62
9
  6
CONTINUOUS
 70
0
 71
3
 72
28
 73
24
 74
0
 42
0.0000001
 43
0.0000001
 44
0.0000000001
 40
0.0
 40
0.0
 40
0.0
 40
0.0
 40
0.0158393185
 40
0.031671539
 40
0.0474795501
 40
0.0632589382
 40
0.0790075646
 40
0.0947269973
 40
0.1260696068
 40
0.1573316543
 40
0.1885360784
 40
0.2197026493
 40
0.2508410896
 40
0.2819641981
 40
0.3130814735
 40
0.3753018171
 40
0.4375466712
 40
0.4998279585
 40
0.5621577587
 40
0.6245410913
 40
0.7494669977
 40
0.8746233862
 40
1.0
 40
1.0
 40
1.0
 40
1.0
 10
14.1209569356
 20
6.588884619
 30
0.0
 10
14.1209574849
 20
6.5893649572
 30
0.0
 10
14.1208987058
 20
6.5903265273
 30
0.0
 10
14.1206362634
 20
6.5917455224
 30
0.0
 10
14.1202153329
 20
6.5931235033
 30
0.0
 10
14.1196584362
 20
6.5944489883
 30
0.0
 10
14.1189815904
 20
6.5957140645
 30
0.0
 10
14.1179437166
 20
6.5973133845
 30
0.0
 10
14.116438889
 20
6.5991603744
 30
0.0
 10
14.1144065098
 20
6.6011569669
 30
0.0
 10
14.1122107598
 20
6.6029621503
 30
0.0
 10
14.1098965361
 20
6.6046041246
 30
0.0
 10
14.1074964673
 20
6.6061121861
 30
0.0
 10
14.1050269867
 20
6.6075000801
 30
0.0
 10
14.1016621983
 20
6.6092117839
 30
0.0
 10
14.0973498389
 20
6.6111343424
 30
0.0
 10
14.0920564297
 20
6.6131529513
 30
0.0
 10
14.0866801691
 20
6.6149477686
 30
0.0
 10
14.0812393517
 20
6.6165497484
 30
0.0
 10
14.0739161266
 20
6.6184720937
 30
0.0
 10
14.0646631715
 20
6.6205309595
 30
0.0
 10
14.0534604616
 20
6.6225766379
 30
0.0
 10
14.0459476864
 20
6.6237160814
 30
0.0
 10
14.0421818162
 20
6.6242399581
 30
0.0
  0
SPLINE
  5
3F0
100
AcDbEntity
  8
0
100
AcDbSpline
 62
9
  6
CONTINUOUS
 70
0
 71
3
 72
25
 73
21
 74
0
 42
0.0000001
 43
0.0000001
 44
0.0000000001
 40
0.0
 40
0.0
 40
0.0
 40
0.0
 40
0.032450161
 40
0.064846901
 40
0.0971339746
 40
0.1292770868
 40
0.1612521743
 40
0.1930524766
 40
0.2246766446
 40
0.2561396334
 40
0.287458058
 40
0.3186500265
 40
0.3497324434
 40
0.3807295619
 40
0.4425187261
 40
0.5041623026
 40
0.6273402827
 40
0.7508782626
 40
0.875056812
 40
1.0
 40
1.0
 40
1.0
 40
1.0
 10
14.1422782185
 20
6.588884619
 30
0.0
 10
14.1422798198
 20
6.5901817798
 30
0.0
 10
14.1421562039
 20
6.5927754246
 30
0.0
 10
14.1416299845
 20
6.5966270463
 30
0.0
 10
14.1407736045
 20
6.6004067363
 30
0.0
 10
14.1396026492
 20
6.6040829781
 30
0.0
 10
14.1381443443
 20
6.6076332393
 30
0.0
 10
14.1364360598
 20
6.6110464465
 30
0.0
 10
14.1344989959
 20
6.6143111393
 30
0.0
 10
14.1323595145
 20
6.6174228631
 30
0.0
 10
14.1300488559
 20
6.6203872531
 30
0.0
 10
14.1275858143
 20
6.6232058318
 30
0.0
 10
14.1249866716
 20
6.6258812566
 30
0.0
 10
14.1213673124
 20
6.629262539
 30
0.0
 10
14.1165819075
 20
6.6331746247
 30
0.0
 10
14.1084919974
 20
6.6388205944
 30
0.0
 10
14.0977118145
 20
6.6448610982
 30
0.0
 10
14.0841080161
 20
6.6507987125
 30
0.0
 10
14.0700244189
 20
6.6556887754
 30
0.0
 10
14.0604282078
 20
6.6583714417
 30
0.0
 10
14.0555860017
 20
6.6595952972
 30
0.0
  0
SPLINE
  5
3F1
100
AcDbEntity
  8
0
100
AcDbSpline
 62
9
  6
CONTINUOUS
 70
0
 71
3
 72
13
 73
9
 74
0
 42
0.0000001
 43
0.0000001
 44
0.0000000001
 40
0.0
 40
0.0
 40
0.0
 40
0.0
 40
0.1061317547
 40
0.2199346651
 40
0.3403592593
 40
0.4662823001
 40
0.7297033671
 40
1.0
 40
1.0
 40
1.0
 40
1.0
 10
14.0421818162
 20
6.6242399581
 30
0.0
 10
14.0428338596
 20
6.6254115736
 30
0.0
 10
14.0441265095
 20
6.6278723456
 30
0.0
 10
14.0459735281
 20
6.6317564511
 30
0.0
 10
14.0477821933
 20
6.635932527
 30
0.0
 10
14.0501524269
 20
6.641921732
 30
0.0
 10
14.0528725689
 20
6.6498038727
 30
0.0
 10
14.0547319803
 20
6.6562889423
 30
0.0
 10
14.0555859104
 20
6.6595952971
 30
0.0
  0
SPLINE
  5
3F2
100
AcDbEntity
  8
0
100
AcDbSpline
 62
9
  6
CONTINUOUS
 70
0
 71
3
 72
28
 73
24
 74
0
 42
0.0000001
 43
0.0000001
 44
0.0000000001
 40
0.0
 40
0.0
 40
0.0
 40
0.0
 40
0.1253766128
 40
0.2505330008
 40
0.3754589077
 40
0.4378422408
 40
0.5001720378
 40
0.5624533275
 40
0.6246981787
 40
0.6869185237
 40
0.7180357972
 40
0.7491589055
 40
0.7802973461
 40
0.8114639171
 40
0.8426683373
 40
0.8739303895
 40
0.9052729938
 40
0.9209924238
 40
0.9367410559
 40
0.9525204416
 40
0.9683284524
 40
0.9841606798
 40
1.0
 40
1.0
 40
1.0
 40
1.0
 10
13.7754385244
 20
6.6242399581
 30
0.0
 10
13.7716726539
 20
6.6237160836
 30
0.0
 10
13.7641598793
 20
6.6225766361
 30
0.0
 10
13.7529571686
 20
6.6205309616
 30
0.0
 10
13.7437042146
 20
6.6184720913
 30
0.0
 10
13.7363809879
 20
6.6165497519
 30
0.0
 10
13.7309401726
 20
6.6149477649
 30
0.0
 10
13.7255639097
 20
6.6131529546
 30
0.0
 10
13.7202705028
 20
6.6111343396
 30
0.0
 10
13.7159581414
 20
6.6092117859
 30
0.0
 10
13.7125933541
 20
6.6075000797
 30
0.0
 10
13.7101238742
 20
6.6061121848
 30
0.0
 10
13.7077238041
 20
6.6046041253
 30
0.0
 10
13.7054095799
 20
6.6029621515
 30
0.0
 10
13.703213833
 20
6.6011569643
 30
0.0
 10
13.7011814518
 20
6.5991603748
 30
0.0
 10
13.6996766188
 20
6.5973133884
 30
0.0
 10
13.6986387543
 20
6.5957140624
 30
0.0
 10
13.6979619085
 20
6.5944489866
 30
0.0
 10
13.6974050048
 20
6.5931235044
 30
0.0
 10
13.6969840734
 20
6.5917455233
 30
0.0
 10
13.6967216323
 20
6.5903265278
 30
0.0
 10
13.696662854
 20
6.5893649573
 30
0.0
 10
13.6966634051
 20
6.588884619
 30
0.0
  0
SPLINE
  5
3F3
100
AcDbEntity
  8
0
100
AcDbSpline
 62
9
  6
CONTINUOUS
 70
0
 71
3
 72
25
 73
21
 74
0
 42
0.0000001
 43
0.0000001
 44
0.0000000001
 40
0.0
 40
0.0
 40
0.0
 40
0.0
 40
0.1249431885
 40
0.2491217358
 40
0.3726597155
 40
0.4958377021
 40
0.5574812768
 40
0.6192704386
 40
0.6502675575
 40
0.6813499759
 40
0.7125419439
 40
0.743860367
 40
0.7753233576
 40
0.8069475251
 40
0.8387478269
 40
0.8707229142
 40
0.902866023
 40
0.9351531058
 40
0.9675498363
 40
1.0
 40
1.0
 40
1.0
 40
1.0
 10
13.7620343389
 20
6.6595952972
 30
0.0
 10
13.7571921329
 20
6.6583714417
 30
0.0
 10
13.7475959252
 20
6.6556887641
 30
0.0
 10
13.7335123224
 20
6.6507987194
 30
0.0
 10
13.7199085228
 20
6.6448611047
 30
0.0
 10
13.7091283496
 20
6.6388205843
 30
0.0
 10
13.7010384357
 20
6.6331746208
 30
0.0
 10
13.6962530277
 20
6.6292625387
 30
0.0
 10
13.6926336705
 20
6.6258812542
 30
0.0
 10
13.6900345288
 20
6.6232058285
 30
0.0
 10
13.6875714851
 20
6.6203872518
 30
0.0
 10
13.6852608249
 20
6.617422863
 30
0.0
 10
13.6831213453
 20
6.6143111379
 30
0.0
 10
13.6811842833
 20
6.6110464439
 30
0.0
 10
13.6794759981
 20
6.6076332377
 30
0.0
 10
13.6780176801
 20
6.6040829817
 30
0.0
 10
13.6768467418
 20
6.6004067336
 30
0.0
 10
13.6759903662
 20
6.5966270441
 30
0.0
 10
13.6754641185
 20
6.5927754259
 30
0.0
 10
13.6753405148
 20
6.5901817799
 30
0.0
 10
13.6753421221
 20
6.588884619
 30
0.0
  0
SPLINE
  5
3F4
100
AcDbEntity
  8
0
100
AcDbSpline
 62
9
  6
CONTINUOUS
 70
0
 71
3
 72
13
 73
9
 74
0
 42
0.0000001
 43
0.0000001
 44
0.0000000001
 40
0.0
 40
0.0
 40
0.0
 40
0.0
 40
0.1061313405
 40
0.2199339144
 40
0.3403582736
 40
0.4662812027
 40
0.7297024891
 40
1.0
 40
1.0
 40
1.0
 40
1.0
 10
13.7754385244
 20
6.624239998
 30
0.0
 10
13.7747864779
 20
6.6254116061
 30
0.0
 10
13.7734938214
 20
6.6278723645
 30
0.0
 10
13.7716467921
 20
6.6317564521
 30
0.0
 10
13.7698381141
 20
6.635932514
 30
0.0
 10
13.7674678593
 20
6.6419217102
 30
0.0
 10
13.7647476866
 20
6.6498038552
 30
0.0
 10
13.7628882506
 20
6.6562889335
 30
0.0
 10
13.7620343073
 20
6.6595952972
 30
0.0
  0
SPLINE
  5
3F5
100
AcDbEntity
  8
0
100
AcDbSpline
 62
7
  6
CONTINUOUS
 70
0
 71
3
 72
16
 73
12
 74
0
 42
0.0000001
 43
0.0000001
 44
0.0000000001
 40
0.0
 40
0.0
 40
0.0
 40
0.0
 40
0.2459417946
 40
0.3693483186
 40
0.4312366164
 40
0.4932780916
 40
0.555497411
 40
0.6179272792
 40
0.743602743
 40
0.8707681696
 40
1.0
 40
1.0
 40
1.0
 40
1.0
 10
10.7057747756
 20
10.4824982697
 30
0.0
 10
10.698270687
 20
10.4914412944
 30
0.0
 10
10.6874745491
 20
10.5052808625
 30
0.0
 10
10.6758009706
 20
10.5221001914
 30
0.0
 10
10.6693819061
 20
10.531931358
 30
0.0
 10
10.6646926951
 20
10.5394211178
 30
0.0
 10
10.6601336303
 20
10.5470208859
 30
0.0
 10
10.6542231737
 20
10.5573296529
 30
0.0
 10
10.6472017111
 20
10.5705519581
 30
0.0
 10
10.6394916233
 20
10.5869759496
 30
0.0
 10
10.6349274818
 20
10.598266875
 30
0.0
 10
10.6327963576
 20
10.6040191265
 30
0.0
  0
SPLINE
  5
3F6
100
AcDbEntity
  8
0
100
AcDbSpline
 62
7
  6
CONTINUOUS
 70
0
 71
3
 72
16
 73
12
 74
0
 42
0.0000001
 43
0.0000001
 44
0.0000000001
 40
0.0
 40
0.0
 40
0.0
 40
0.0
 40
0.2483747812
 40
0.3727350551
 40
0.4349887709
 40
0.497303498
 40
0.5596891751
 40
0.6221590076
 40
0.747425684
 40
0.8732929316
 40
1.0
 40
1.0
 40
1.0
 40
1.0
 10
10.7841483275
 20
10.5482614882
 30
0.0
 10
10.7766472164
 20
10.5572009643
 30
0.0
 10
10.7656871517
 20
10.570870233
 30
0.0
 10
10.7534676675
 20
10.587254266
 30
0.0
 10
10.7466437966
 20
10.596753247
 30
0.0
 10
10.7416052041
 20
10.6039485561
 30
0.0
 10
10.736648154
 20
10.6112126195
 30
0.0
 10
10.730146598
 20
10.6210023681
 30
0.0
 10
10.7222496789
 20
10.633444644
 30
0.0
 10
10.7132172792
 20
10.6487311798
 30
0.0
 10
10.707550275
 20
10.6591614868
 30
0.0
 10
10.7048124273
 20
10.6644477841
 30
0.0
  0
SPLINE
  5
3F7
100
AcDbEntity
  8
0
100
AcDbSpline
 62
7
  6
CONTINUOUS
 70
0
 71
3
 72
24
 73
20
 74
0
 42
0.0000001
 43
0.0000001
 44
0.0000000001
 40
0.0
 40
0.0
 40
0.0
 40
0.0
 40
0.0083260018
 40
0.0172472953
 40
0.0272376522
 40
0.0386325361
 40
0.0516478
 40
0.0664165623
 40
0.1014823481
 40
0.1441058226
 40
0.1942183961
 40
0.2515654879
 40
0.3157577669
 40
0.3863008392
 40
0.4626114827
 40
0.5440251835
 40
0.6298080901
 40
0.8112307383
 40
1.0
 40
1.0
 40
1.0
 40
1.0
 10
8.5956535425
 20
11.6535794315
 30
0.0
 10
8.5956263742
 20
11.6535187481
 30
0.0
 10
8.5955879856
 20
11.6533843526
 30
0.0
 10
8.595584526
 20
11.6531649311
 30
0.0
 10
8.5956320017
 20
11.6529261745
 30
0.0
 10
8.5957291183
 20
11.6526682381
 30
0.0
 10
8.5958751336
 20
11.652390841
 30
0.0
 10
8.5961509452
 20
11.6519708266
 30
0.0
 10
8.5966268808
 20
11.6514035419
 30
0.0
 10
8.5973546203
 20
11.6506868782
 30
0.0
 10
8.5982647366
 20
11.6499059033
 30
0.0
 10
8.599349966
 20
11.6490678176
 30
0.0
 10
8.6006015691
 20
11.6481804823
 30
0.0
 10
8.6020086555
 20
11.6472524311
 30
0.0
 10
8.6035586458
 20
11.6462927192
 30
0.0
 10
8.6052372468
 20
11.6453107675
 30
0.0
 10
8.6076715105
 20
11.6439596202
 30
0.0
 10
8.6109099817
 20
11.6422929453
 30
0.0
 10
8.6135869681
 20
11.6410371668
 30
0.0
 10
8.6149628533
 20
11.640421326
 30
0.0
  0
SPLINE
  5
3F8
100
AcDbEntity
  8
0
100
AcDbSpline
 62
9
  6
CONTINUOUS
 70
0
 71
3
 72
34
 73
30
 74
0
 42
0.0000001
 43
0.0000001
 44
0.0000000001
 40
0.0
 40
0.0
 40
0.0
 40
0.0
 40
0.0432198598
 40
0.0660183603
 40
0.0895876289
 40
0.1139139499
 40
0.1389837119
 40
0.1647820986
 40
0.1912934756
 40
0.2185025961
 40
0.2463955742
 40
0.2749587911
 40
0.3041779686
 40
0.3340377334
 40
0.3645227358
 40
0.3956183462
 40
0.4273102617
 40
0.4595832486
 40
0.4924182267
 40
0.5257951312
 40
0.5596939707
 40
0.6289774381
 40
0.7001096623
 40
0.7729334735
 40
0.8099307148
 40
0.8472924613
 40
0.8850002133
 40
0.9230354887
 40
1.0
 40
1.0
 40
1.0
 40
1.0
 10
8.930101186
 20
12.3444899893
 30
0.0
 10
8.9282329573
 20
12.3403064997
 30
0.0
 10
8.9253796932
 20
12.3339160121
 30
0.0
 10
8.9214987488
 20
12.3252480909
 30
0.0
 10
8.9184325066
 20
12.3184098761
 30
0.0
 10
8.9152715553
 20
12.3113502562
 30
0.0
 10
8.9120260161
 20
12.3040696091
 30
0.0
 10
8.9086923451
 20
12.2965746482
 30
0.0
 10
8.9052607047
 20
12.2888750476
 30
0.0
 10
8.9017231562
 20
12.2809795671
 30
0.0
 10
8.8980907618
 20
12.2728882415
 30
0.0
 10
8.8943763291
 20
12.2646001736
 30
0.0
 10
8.8905847108
 20
12.2561182265
 30
0.0
 10
8.8867045356
 20
12.2474527091
 30
0.0
 10
8.8827245293
 20
12.2386139627
 30
0.0
 10
8.8786498448
 20
12.229604864
 30
0.0
 10
8.874494574
 20
12.2204241878
 30
0.0
 10
8.8702708927
 20
12.2110720808
 30
0.0
 10
8.8659860863
 20
12.201551591
 30
0.0
 10
8.8616480862
 20
12.1918660515
 30
0.0
 10
8.855757449
 20
12.1786422364
 30
0.0
 10
8.8482814451
 20
12.1617431397
 30
0.0
 10
8.8391731746
 20
12.1410540666
 30
0.0
 10
8.8314297136
 20
12.1235037591
 30
0.0
 10
8.8251041603
 20
12.1092408282
 30
0.0
 10
8.8202682857
 20
12.0983895379
 30
0.0
 10
8.8153599375
 20
12.0874501018
 30
0.0
 10
8.8086837198
 20
12.0727025032
 30
0.0
 10
8.8035994615
 20
12.0616221926
 30
0.0
 10
8.8001758541
 20
12.0542163243
 30
0.0
  0
SPLINE
  5
3F9
100
AcDbEntity
  8
0
100
AcDbSpline
 62
9
  6
CONTINUOUS
 70
0
 71
3
 72
15
 73
11
 74
0
 42
0.0000001
 43
0.0000001
 44
0.0000000001
 40
0.0
 40
0.0
 40
0.0
 40
0.0
 40
0.1327634162
 40
0.2651397126
 40
0.3960737829
 40
0.5243719656
 40
0.6495978918
 40
0.7712918871
 40
0.8883749886
 40
1.0
 40
1.0
 40
1.0
 40
1.0
 10
8.930101186
 20
12.3444899893
 30
0.0
 10
8.9571009212
 20
12.3314751928
 30
0.0
 10
9.0110294265
 20
12.305499654
 30
0.0
 10
9.0915960849
 20
12.2667103475
 30
0.0
 10
9.1712449751
 20
12.2283386384
 30
0.0
 10
9.2493889435
 20
12.1905625751
 30
0.0
 10
9.3255726425
 20
12.1535248807
 30
0.0
 10
9.3993664123
 20
12.1173626825
 30
0.0
 10
9.4702215325
 20
12.0821835597
 30
0.0
 10
9.5162974836
 20
12.0588790122
 30
0.0
 10
9.5387255444
 20
12.0473876112
 30
0.0
  0
SPLINE
  5
3FA
100
AcDbEntity
  8
0
100
AcDbSpline
 62
9
  6
CONTINUOUS
 70
0
 71
3
 72
14
 73
10
 74
0
 42
0.0000001
 43
0.0000001
 44
0.0000000001
 40
0.0
 40
0.0
 40
0.0
 40
0.0
 40
0.1143532878
 40
0.2326490063
 40
0.3544146354
 40
0.4791972769
 40
0.60656255
 40
0.7360856909
 40
1.0
 40
1.0
 40
1.0
 40
1.0
 10
9.5387255444
 20
12.0473876112
 30
0.0
 10
9.5377841691
 20
12.0368776492
 30
0.0
 10
9.5356044334
 20
12.0155181423
 30
0.0
 10
9.5314644485
 20
11.98307388
 30
0.0
 10
9.5263222195
 20
11.9497983966
 30
0.0
 10
9.5201061182
 20
11.9158552349
 30
0.0
 10
9.5127446479
 20
11.8814079297
 30
0.0
 10
9.5012392734
 20
11.8347433647
 30
0.0
 10
9.4907838675
 20
11.7999345138
 30
0.0
 10
9.4829071334
 20
11.7768906306
 30
0.0
  0
LINE
  5
3FB
100
AcDbEntity
  8
0
100
AcDbLine
 62
9
  6
CONTINUOUS
 10
9.5387255444
 20
12.0473876112
 11
9.5767366131
 21
12.0278647014
  0
SPLINE
  5
3FC
100
AcDbEntity
  8
0
100
AcDbSpline
 62
9
  6
CONTINUOUS
 70
0
 71
3
 72
38
 73
34
 74
0
 42
0.0000001
 43
0.0000001
 44
0.0000000001
 40
0.0
 40
0.0
 40
0.0
 40
0.0
 40
0.1041741673
 40
0.2046422976
 40
0.3010321729
 40
0.3929618652
 40
0.4800407803
 40
0.5618705784
 40
0.6380459856
 40
0.7081555138
 40
0.7717826235
 40
0.8010345135
 40
0.8285081839
 40
0.8541505629
 40
0.8779083268
 40
0.8997279159
 40
0.9195555524
 40
0.9373372603
 40
0.9530188922
 40
0.9665461684
 40
0.9724849644
 40
0.9778647983
 40
0.9826788935
 40
0.9869204999
 40
0.9905829184
 40
0.9936595508
 40
0.9961440086
 40
0.9971623258
 40
0.9980304785
 40
0.9987479728
 40
0.9993146172
 40
0.9997309662
 40
1.0
 40
1.0
 40
1.0
 40
1.0
 10
9.5387255444
 20
12.0473876112
 30
0.0
 10
9.5395625665
 20
12.0567325255
 30
0.0
 10
9.5410197776
 20
12.0751071927
 30
0.0
 10
9.5426342129
 20
12.1021727397
 30
0.0
 10
9.5437021465
 20
12.1281615678
 30
0.0
 10
9.5442853996
 20
12.1529593587
 30
0.0
 10
9.5444458138
 20
12.1764519608
 30
0.0
 10
9.54424523
 20
12.1985251562
 30
0.0
 10
9.5437455175
 20
12.2190647375
 30
0.0
 10
9.5430085263
 20
12.2379564908
 30
0.0
 10
9.5422278615
 20
12.2526156239
 30
0.0
 10
9.5415351557
 20
12.2634329651
 30
0.0
 10
9.5410096211
 20
12.2708327616
 30
0.0
 10
9.5404711665
 20
12.277735398
 30
0.0
 10
9.5399275783
 20
12.2841266988
 30
0.0
 10
9.5393866629
 20
12.2899924866
 30
0.0
 10
9.5388562295
 20
12.2953185855
 30
0.0
 10
9.5383441229
 20
12.3000908278
 30
0.0
 10
9.5378581656
 20
12.3042950386
 30
0.0
 10
9.5374663732
 20
12.3074362946
 30
0.0
 10
9.5371710497
 20
12.30965445
 30
0.0
 10
9.5369707306
 20
12.3110935598
 30
0.0
 10
9.5367828069
 20
12.3123800382
 30
0.0
 10
9.5366082718
 20
12.3135121187
 30
0.0
 10
9.5364481853
 20
12.3144880588
 30
0.0
 10
9.5363035482
 20
12.315306093
 30
0.0
 10
9.5361906536
 20
12.3158878679
 30
0.0
 10
9.5361075707
 20
12.3162726691
 30
0.0
 10
9.5360540148
 20
12.3165010331
 30
0.0
 10
9.5360051217
 20
12.3166885777
 30
0.0
 10
9.5359612718
 20
12.3168355218
 30
0.0
 10
9.5359224478
 20
12.3169411527
 30
0.0
 10
9.5358952732
 20
12.316997361
 30
0.0
 10
9.5358805981
 20
12.3170166418
 30
0.0
  0
LINE
  5
3FD
100
AcDbEntity
  8
0
100
AcDbLine
 62
9
  6
CONTINUOUS
 10
8.9301011865
 20
12.344489989
 11
8.9453290664
 21
12.3784261937
  0
SPLINE
  5
3FE
100
AcDbEntity
  8
0
100
AcDbSpline
 62
9
  6
CONTINUOUS
 70
0
 71
3
 72
55
 73
51
 74
0
 42
0.0000001
 43
0.0000001
 44
0.0000000001
 40
0.0
 40
0.0
 40
0.0
 40
0.0
 40
0.11719729
 40
0.1731676566
 40
0.2273653083
 40
0.2797778605
 40
0.3303948436
 40
0.3792059365
 40
0.4262015851
 40
0.471372536
 40
0.514709076
 40
0.556200169
 40
0.5958248747
 40
0.6335576956
 40
0.6517077696
 40
0.6693775404
 40
0.7032790572
 40
0.735269504
 40
0.7505493242
 40
0.7653533394
 40
0.7935374897
 40
0.8198253635
 40
0.8442156999
 40
0.8667025056
 40
0.887276045
 40
0.8968391577
 40
0.9059047112
 40
0.914460541
 40
0.922503835
 40
0.9300483208
 40
0.9371229446
 40
0.9437553012
 40
0.9499684485
 40
0.9557770589
 40
0.9611597517
 40
0.9660627985
 40
0.9704204899
 40
0.974184535
 40
0.9773537741
 40
0.9787399905
 40
0.9800238383
 40
0.9812476698
 40
0.9824724243
 40
0.9837716025
 40
0.9852198341
 40
0.9868835483
 40
0.9888173679
 40
0.9910637213
 40
0.9936572354
 40
1.0
 40
1.0
 40
1.0
 40
1.0
 10
8.9453290664
 20
12.3784261937
 30
0.0
 10
8.9479810677
 20
12.3843083179
 30
0.0
 10
8.9518952147
 20
12.3930015774
 30
0.0
 10
8.9570043706
 20
12.4044291063
 30
0.0
 10
8.9606353637
 20
12.4126104817
 30
0.0
 10
8.9641312297
 20
12.420529345
 30
0.0
 10
8.9675089333
 20
12.4281762007
 30
0.0
 10
8.9707841309
 20
12.4355423029
 30
0.0
 10
8.9739697904
 20
12.4426199987
 30
0.0
 10
8.9770555009
 20
12.4494120889
 30
0.0
 10
8.9800320464
 20
12.4559208817
 30
0.0
 10
8.9828920889
 20
12.4621471712
 30
0.0
 10
8.9856131805
 20
12.4680977793
 30
0.0
 10
8.9877674596
 20
12.4728945138
 30
0.0
 10
8.9893920376
 20
12.4766038477
 30
0.0
 10
8.9909032909
 20
12.4801324084
 30
0.0
 10
8.9926695665
 20
12.4843804354
 30
0.0
 10
8.9943658526
 20
12.4885149097
 30
0.0
 10
8.9956782546
 20
12.4916704012
 30
0.0
 10
8.9969305242
 20
12.4946238743
 30
0.0
 10
8.9984626221
 20
12.4981168157
 30
0.0
 10
9.000262325
 20
12.5020681612
 30
0.0
 10
9.0019734733
 20
12.5057148362
 30
0.0
 10
9.003579518
 20
12.5090631249
 30
0.0
 10
9.0048482464
 20
12.5116677626
 30
0.0
 10
9.0057970962
 20
12.513606286
 30
0.0
 10
9.0064408978
 20
12.514957469
 30
0.0
 10
9.0070172134
 20
12.5162477997
 30
0.0
 10
9.0075098903
 20
12.51748301
 30
0.0
 10
9.0078985174
 20
12.5186696668
 30
0.0
 10
9.0081834537
 20
12.5198054701
 30
0.0
 10
9.0083743299
 20
12.5208863616
 30
0.0
 10
9.0084795607
 20
12.5219089622
 30
0.0
 10
9.0085055338
 20
12.5228675507
 30
0.0
 10
9.0084811873
 20
12.5237535325
 30
0.0
 10
9.0084381203
 20
12.5245585199
 30
0.0
 10
9.0084072864
 20
12.5252751481
 30
0.0
 10
9.0084159864
 20
12.525896995
 30
0.0
 10
9.008476416
 20
12.5263537898
 30
0.0
 10
9.0085744646
 20
12.5266609474
 30
0.0
 10
9.0086703531
 20
12.5268538566
 30
0.0
 10
9.008796242
 20
12.5270181848
 30
0.0
 10
9.0089563897
 20
12.5271511352
 30
0.0
 10
9.0091532218
 20
12.5272502468
 30
0.0
 10
9.0093887095
 20
12.5273147142
 30
0.0
 10
9.0096657929
 20
12.5273446143
 30
0.0
 10
9.0099880851
 20
12.5273398168
 30
0.0
 10
9.0103592782
 20
12.5273000114
 30
0.0
 10
9.0109656855
 20
12.5271916719
 30
0.0
 10
9.0114419653
 20
12.5270650362
 30
0.0
 10
9.0117770162
 20
12.5269666328
 30
0.0
  0
SPLINE
  5
3FF
100
AcDbEntity
  8
0
100
AcDbSpline
 62
7
  6
CONTINUOUS
 70
0
 71
3
 72
15
 73
11
 74
0
 42
0.0000001
 43
0.0000001
 44
0.0000000001
 40
0.0
 40
0.0
 40
0.0
 40
0.0
 40
0.1555066489
 40
0.3041931053
 40
0.4451436183
 40
0.5774137402
 40
0.7000342376
 40
0.8120144038
 40
0.9123448703
 40
1.0
 40
1.0
 40
1.0
 40
1.0
 10
9.5767366131
 20
12.0278647014
 30
0.0
 10
9.5776630042
 20
12.0394045191
 30
0.0
 10
9.5791838617
 20
12.0620024434
 30
0.0
 10
9.5806047587
 20
12.0951142388
 30
0.0
 10
9.5812447372
 20
12.1265197771
 30
0.0
 10
9.5812298627
 20
12.1559907835
 30
0.0
 10
9.5806862154
 20
12.183299253
 30
0.0
 10
9.5797398713
 20
12.2082170537
 30
0.0
 10
9.5785168859
 20
12.2305159192
 30
0.0
 10
9.577531116
 20
12.2444766827
 30
0.0
 10
9.5770196831
 20
12.2509822376
 30
0.0
  0
SPLINE
  5
400
100
AcDbEntity
  8
0
100
AcDbSpline
 62
9
  6
CONTINUOUS
 70
0
 71
3
 72
48
 73
44
 74
0
 42
0.0000001
 43
0.0000001
 44
0.0000000001
 40
0.0
 40
0.0
 40
0.0
 40
0.0
 40
0.0256933817
 40
0.0387429848
 40
0.0519222749
 40
0.0652268023
 40
0.0786531719
 40
0.1058639697
 40
0.1335402342
 40
0.1616671044
 40
0.1902290113
 40
0.2192105728
 40
0.2485971818
 40
0.2634379029
 40
0.2783751687
 40
0.293408383
 40
0.3085370348
 40
0.323760711
 40
0.3390783801
 40
0.3544857933
 40
0.3699776628
 40
0.385548639
 40
0.3933621397
 40
0.4011935116
 40
0.4169095847
 40
0.4326972892
 40
0.4485571636
 40
0.464489745
 40
0.480495393
 40
0.4965724495
 40
0.5289301266
 40
0.5615412216
 40
0.5943850423
 40
0.6274417236
 40
0.6606914483
 40
0.6941146301
 40
0.7276925345
 40
0.7614103935
 40
0.7952544614
 40
0.8292085976
 40
0.8632551906
 40
0.9315546312
 40
1.0
 40
1.0
 40
1.0
 40
1.0
 10
9.4829071334
 20
11.7768906306
 30
0.0
 10
9.4769464552
 20
11.7789689047
 30
0.0
 10
9.4679868635
 20
11.7821845734
 30
0.0
 10
9.4560142266
 20
11.7865880554
 30
0.0
 10
9.4469102065
 20
11.7899731281
 30
0.0
 10
9.4377251502
 20
11.7934057589
 30
0.0
 10
9.4253137918
 20
11.7980531324
 30
0.0
 10
9.4096027095
 20
11.8039575074
 30
0.0
 10
9.3905217521
 20
11.811161717
 30
0.0
 10
9.3711408668
 20
11.8185112631
 30
0.0
 10
9.3514688698
 20
11.8259975459
 30
0.0
 10
9.3315149798
 20
11.8336132597
 30
0.0
 10
9.3147182092
 20
11.840046686
 30
0.0
 10
9.3011484478
 20
11.8452582814
 30
0.0
 10
9.2908749791
 20
11.8492166052
 30
0.0
 10
9.2805432953
 20
11.8532205564
 30
0.0
 10
9.2701569919
 20
11.857278206
 30
0.0
 10
9.2597198803
 20
11.861397715
 30
0.0
 10
9.2492368883
 20
11.8655872317
 30
0.0
 10
9.2387034032
 20
11.8698278027
 30
0.0
 10
9.2281154445
 20
11.8740996894
 30
0.0
 10
9.2192542515
 20
11.8776649194
 30
0.0
 10
9.2121334922
 20
11.8805135552
 30
0.0
 10
9.2049744649
 20
11.8833624774
 30
0.0
 10
9.1959867542
 20
11.8869147737
 30
0.0
 10
9.1851581134
 20
11.8911756121
 30
0.0
 10
9.1742799604
 20
11.8954558963
 30
0.0
 10
9.1633582664
 20
11.8997717615
 30
0.0
 10
9.1524004309
 20
11.9041412327
 30
0.0
 10
9.1377122237
 20
11.9100505576
 30
0.0
 10
9.1192691366
 20
11.9175571282
 30
0.0
 10
9.0970478252
 20
11.9267075776
 30
0.0
 10
9.0746964384
 20
11.9359928328
 30
0.0
 10
9.0522225282
 20
11.9453919243
 30
0.0
 10
9.0296314647
 20
11.9548797069
 30
0.0
 10
9.0069247495
 20
11.9644228299
 30
0.0
 10
8.9841023624
 20
11.973987544
 30
0.0
 10
8.9611885211
 20
11.9836015768
 30
0.0
 10
8.9382087377
 20
11.9932972882
 30
0.0
 10
8.9151852158
 20
12.0030968717
 30
0.0
 10
8.8844270397
 20
12.0163390892
 30
0.0
 10
8.8460108817
 20
12.0332226232
 30
0.0
 10
8.8154277533
 20
12.0471333817
 30
0.0
 10
8.8001758494
 20
12.0542163264
 30
0.0
  0
SPLINE
  5
401
100
AcDbEntity
  8
0
100
AcDbSpline
 62
9
  6
CONTINUOUS
 70
0
 71
3
 72
14
 73
10
 74
0
 42
0.0000001
 43
0.0000001
 44
0.0000000001
 40
0.0
 40
0.0
 40
0.0
 40
0.0
 40
0.1247303801
 40
0.2506232104
 40
0.5035014933
 40
0.6293532502
 40
0.7542127403
 40
0.8777894225
 40
1.0
 40
1.0
 40
1.0
 40
1.0
 10
9.3017755208
 20
11.3914617888
 30
0.0
 10
9.3092549307
 20
11.4075247641
 30
0.0
 10
9.324746774
 20
11.4395850558
 30
0.0
 10
9.3569987449
 20
11.5034283241
 30
0.0
 10
9.3900309112
 20
11.5670524049
 30
0.0
 10
9.421803765
 20
11.6311523125
 30
0.0
 10
9.444327769
 20
11.6793243243
 30
0.0
 10
9.465018269
 20
11.7277549867
 30
0.0
 10
9.4772810637
 20
11.7604665339
 30
0.0
 10
9.4829071334
 20
11.7768906306
 30
0.0
  0
LINE
  5
402
100
AcDbEntity
  8
0
100
AcDbLine
 62
9
  6
CONTINUOUS
 10
9.4829071336
 20
11.7768906312
 11
9.5238671776
 21
11.7619921824
  0
SPLINE
  5
403
100
AcDbEntity
  8
0
100
AcDbSpline
 62
9
  6
CONTINUOUS
 70
0
 71
3
 72
15
 73
11
 74
0
 42
0.0000001
 43
0.0000001
 44
0.0000000001
 40
0.0
 40
0.0
 40
0.0
 40
0.0
 40
0.1253354213
 40
0.2513420865
 40
0.3776285907
 40
0.5037743882
 40
0.6293734625
 40
0.7540786973
 40
0.8776489189
 40
1.0
 40
1.0
 40
1.0
 40
1.0
 10
9.3365470664
 20
11.3758981833
 30
0.0
 10
9.3443798916
 20
11.3920428245
 30
0.0
 10
9.3605600995
 20
11.4241896414
 30
0.0
 10
9.3857288616
 20
11.4720405353
 30
0.0
 10
9.411291543
 20
11.5198127939
 30
0.0
 10
9.4366573626
 20
11.5676244867
 30
0.0
 10
9.4612356662
 20
11.6155944925
 30
0.0
 10
9.4844351881
 20
11.6638436436
 30
0.0
 10
9.5056619392
 20
11.7124916316
 30
0.0
 10
9.5181598509
 20
11.7454308637
 30
0.0
 10
9.5238671776
 20
11.7619921824
 30
0.0
  0
SPLINE
  5
404
100
AcDbEntity
  8
0
100
AcDbSpline
 62
9
  6
CONTINUOUS
 70
0
 71
3
 72
108
 73
104
 74
0
 42
0.0000001
 43
0.0000001
 44
0.0000000001
 40
0.0
 40
0.0
 40
0.0
 40
0.0
 40
0.0122240375
 40
0.0244634762
 40
0.0305981734
 40
0.0367408578
 40
0.0428878252
 40
0.0490343892
 40
0.0551757287
 40
0.0582431318
 40
0.0613080799
 40
0.067431469
 40
0.0735475288
 40
0.0796574799
 40
0.0857622154
 40
0.0979583639
 40
0.1040505565
 40
0.1101391941
 40
0.1162245452
 40
0.1223066129
 40
0.1344595531
 40
0.1465950738
 40
0.158709965
 40
0.1708009054
 40
0.1828650374
 40
0.1949006586
 40
0.2188801615
 40
0.2308209217
 40
0.2427267744
 40
0.2664262791
 40
0.2899636946
 40
0.3133248676
 40
0.3364964797
 40
0.3594653302
 40
0.3822183992
 40
0.4270239353
 40
0.4708028526
 40
0.4922734967
 40
0.5134475737
 40
0.5343126457
 40
0.5548563489
 40
0.5750664361
 40
0.5949305999
 40
0.6144359932
 40
0.6335696822
 40
0.652321168
 40
0.6706820682
 40
0.7061837931
 40
0.7232946292
 40
0.7399680202
 40
0.748139464
 40
0.7561996291
 40
0.7719797381
 40
0.7872953703
 40
0.8021355644
 40
0.8164920178
 40
0.8303566315
 40
0.8437214052
 40
0.8565783827
 40
0.8807378902
 40
0.9027745067
 40
0.9129790136
 40
0.9226330834
 40
0.9317312957
 40
0.9402687797
 40
0.9482408311
 40
0.9556430184
 40
0.9624710347
 40
0.9687193893
 40
0.9743811549
 40
0.9794527844
 40
0.9817689924
 40
0.9839400636
 40
0.9859667542
 40
0.987846393
 40
0.9895740287
 40
0.9911450602
 40
0.9925562106
 40
0.9938098625
 40
0.9943808139
 40
0.994916178
 40
0.9954176161
 40
0.9958878306
 40
0.9963313692
 40
0.9967555497
 40
0.9971712539
 40
0.9975870809
 40
0.9979904267
 40
0.9981805363
 40
0.9983587636
 40
0.9985218701
 40
0.9986666629
 40
0.9987902081
 40
0.9988903156
 40
0.998966927
 40
0.9990264637
 40
0.9990888566
 40
0.9991290425
 40
0.9991778421
 40
0.9993064052
 40
0.9994826013
 40
0.9997121514
 40
1.0
 40
1.0
 40
1.0
 40
1.0
 10
8.8001758546
 20
12.0542163253
 30
0.0
 10
8.7964131286
 20
12.0553771394
 30
0.0
 10
8.7889946802
 20
12.0580695324
 30
0.0
 10
8.779986431
 20
12.0620806996
 30
0.0
 10
8.7728786112
 20
12.0655236926
 30
0.0
 10
8.7675755838
 20
12.0681890494
 30
0.0
 10
8.7622903678
 20
12.0708976124
 30
0.0
 10
8.7570084359
 20
12.073611602
 30
0.0
 10
8.7525961281
 20
12.0758474696
 30
0.0
 10
8.7490524875
 20
12.0776009521
 30
0.0
 10
8.7455015205
 20
12.0793263453
 30
0.0
 10
8.741046359
 20
12.0814376553
 30
0.0
 10
8.7356768607
 20
12.0839090994
 30
0.0
 10
8.7302902524
 20
12.0863283217
 30
0.0
 10
8.7230936038
 20
12.0894973415
 30
0.0
 10
8.7158767916
 20
12.0926058058
 30
0.0
 10
8.7086578688
 20
12.0956959771
 30
0.0
 10
8.7032494798
 20
12.0980136431
 30
0.0
 10
8.6978500927
 20
12.1003439999
 30
0.0
 10
8.6906675543
 20
12.1034724825
 30
0.0
 10
8.6817138314
 20
12.1074149425
 30
0.0
 10
8.6709983259
 20
12.1121784074
 30
0.0
 10
8.6603090144
 20
12.1169515629
 30
0.0
 10
8.6496393383
 20
12.1217122979
 30
0.0
 10
8.6389841869
 20
12.1264428743
 30
0.0
 10
8.6248225591
 20
12.1327132462
 30
0.0
 10
8.6106934051
 20
12.1389588003
 30
0.0
 10
8.5966118844
 20
12.1452086771
 30
0.0
 10
8.5826201834
 20
12.151438561
 30
0.0
 10
8.5652268172
 20
12.1592125072
 30
0.0
 10
8.5444751617
 20
12.1685158868
 30
0.0
 10
8.5238847574
 20
12.1777632538
 30
0.0
 10
8.5034659321
 20
12.1869456056
 30
0.0
 10
8.4832272178
 20
12.1960508521
 30
0.0
 10
8.4566277387
 20
12.2080033066
 30
0.0
 10
8.423889124
 20
12.2226485776
 30
0.0
 10
8.3915249119
 20
12.237119099
 30
0.0
 10
8.3661151087
 20
12.2484937258
 30
0.0
 10
8.3474443281
 20
12.2568570605
 30
0.0
 10
8.3290451599
 20
12.2650963393
 30
0.0
 10
8.3109262231
 20
12.2732016036
 30
0.0
 10
8.2930987275
 20
12.2811687816
 30
0.0
 10
8.2755735056
 20
12.2889925738
 30
0.0
 10
8.2583654918
 20
12.2966763371
 30
0.0
 10
8.241491538
 20
12.30422913
 30
0.0
 10
8.2249590617
 20
12.3116424022
 30
0.0
 10
8.203608664
 20
12.3211977138
 30
0.0
 10
8.1827236936
 20
12.3304992211
 30
0.0
 10
8.1623680628
 20
12.3396527355
 30
0.0
 10
8.1500452379
 20
12.345203114
 30
0.0
 10
8.1403755341
 20
12.3495447059
 30
0.0
 10
8.1309639687
 20
12.3537586915
 30
0.0
 10
8.1194469419
 20
12.3589018492
 30
0.0
 10
8.1059369882
 20
12.3649384802
 30
0.0
 10
8.0928513818
 20
12.3708006388
 30
0.0
 10
8.0801934418
 20
12.3764741523
 30
0.0
 10
8.0679674792
 20
12.3819494229
 30
0.0
 10
8.0561804226
 20
12.3872229584
 30
0.0
 10
8.0413629319
 20
12.3938434333
 30
0.0
 10
8.0239929016
 20
12.4015987782
 30
0.0
 10
8.0074112808
 20
12.4090241436
 30
0.0
 10
7.995100283
 20
12.4145533273
 30
0.0
 10
7.9865913548
 20
12.4183751454
 30
0.0
 10
7.9785697908
 20
12.4219713986
 30
0.0
 10
7.9710406649
 20
12.4253415849
 30
0.0
 10
7.9640089397
 20
12.4284857432
 30
0.0
 10
7.9574790332
 20
12.4314031438
 30
0.0
 10
7.9514549894
 20
12.4340915989
 30
0.0
 10
7.9459432371
 20
12.4365522918
 30
0.0
 10
7.9409530225
 20
12.4387933157
 30
0.0
 10
7.9371254558
 20
12.4405312763
 30
0.0
 10
7.9343168214
 20
12.441793443
 30
0.0
 10
7.9323984979
 20
12.4426438267
 30
0.0
 10
7.9306010601
 20
12.4434196716
 30
0.0
 10
7.9289309307
 20
12.4441298524
 30
0.0
 10
7.9273994058
 20
12.4447909728
 30
0.0
 10
7.9260174296
 20
12.4454172479
 30
0.0
 10
7.9247949046
 20
12.4460247784
 30
0.0
 10
7.9238897367
 20
12.4465421948
 30
0.0
 10
7.9232318146
 20
12.4469230028
 30
0.0
 10
7.9227800629
 20
12.4471763609
 30
0.0
 10
7.9223489194
 20
12.4473997976
 30
0.0
 10
7.9219326292
 20
12.4475864883
 30
0.0
 10
7.9215252662
 20
12.4477293261
 30
0.0
 10
7.921120962
 20
12.4478210104
 30
0.0
 10
7.9207159419
 20
12.4478524688
 30
0.0
 10
7.9203182699
 20
12.447820577
 30
0.0
 10
7.9199978203
 20
12.4477645868
 30
0.0
 10
7.9197546358
 20
12.4477130427
 30
0.0
 10
7.9195875539
 20
12.4476757545
 30
0.0
 10
7.9194345956
 20
12.447642167
 30
0.0
 10
7.9192981993
 20
12.4476154453
 30
0.0
 10
7.9191806231
 20
12.4475983319
 30
0.0
 10
7.9190837918
 20
12.4475942796
 30
0.0
 10
7.9190075325
 20
12.4476046583
 30
0.0
 10
7.9189507362
 20
12.4476426372
 30
0.0
 10
7.918938264
 20
12.4476974494
 30
0.0
 10
7.9189434963
 20
12.4477458221
 30
0.0
 10
7.9189614299
 20
12.4478139024
 30
0.0
 10
7.9190093345
 20
12.4479178172
 30
0.0
 10
7.9190974355
 20
12.4480657779
 30
0.0
 10
7.9192242536
 20
12.4482498896
 30
0.0
 10
7.9193243696
 20
12.4483831667
 30
0.0
 10
7.9193809794
 20
12.4484566046
 30
0.0
  0
SPLINE
  5
405
100
AcDbEntity
  8
0
100
AcDbSpline
 62
7
  6
CONTINUOUS
 70
0
 71
3
 72
25
 73
21
 74
0
 42
0.0000001
 43
0.0000001
 44
0.0000000001
 40
0.0
 40
0.0
 40
0.0
 40
0.0
 40
0.0075284794
 40
0.0159221469
 40
0.0257212672
 40
0.0372542716
 40
0.0507054822
 40
0.0661734117
 40
0.0836989394
 40
0.1032920386
 40
0.1485915987
 40
0.2017685747
 40
0.2623188025
 40
0.3295959843
 40
0.4028367423
 40
0.4811744582
 40
0.5636507603
 40
0.6492300568
 40
0.8252409225
 40
1.0
 40
1.0
 40
1.0
 40
1.0
 10
8.4287080685
 20
11.729448166
 30
0.0
 10
8.4286772924
 20
11.729379389
 30
0.0
 10
8.4286380753
 20
11.7292214867
 30
0.0
 10
8.4286531263
 20
11.7289617827
 30
0.0
 10
8.4287352107
 20
11.7286740458
 30
0.0
 10
8.4288824694
 20
11.7283574939
 30
0.0
 10
8.4290942738
 20
11.728011697
 30
0.0
 10
8.4293702955
 20
11.7276371527
 30
0.0
 10
8.4297098514
 20
11.7272346364
 30
0.0
 10
8.4302742444
 20
11.7266326611
 30
0.0
 10
8.4311379551
 20
11.7258244871
 30
0.0
 10
8.4323615638
 20
11.7248057637
 30
0.0
 10
8.4338043245
 20
11.7237093634
 30
0.0
 10
8.435449116
 20
11.7225493042
 30
0.0
 10
8.4372762293
 20
11.7213406577
 30
0.0
 10
8.4392630904
 20
11.7200993067
 30
0.0
 10
8.441384632
 20
11.7188417681
 30
0.0
 10
8.4443845166
 20
11.7171504505
 30
0.0
 10
8.4482544148
 20
11.7151238936
 30
0.0
 10
8.4514275121
 20
11.7136190942
 30
0.0
 10
8.4530239654
 20
11.7129045281
 30
0.0
  0
SPLINE
  5
406
100
AcDbEntity
  8
0
100
AcDbSpline
 62
9
  6
CONTINUOUS
 70
0
 71
3
 72
23
 73
19
 74
0
 42
0.0000001
 43
0.0000001
 44
0.0000000001
 40
0.0
 40
0.0
 40
0.0
 40
0.0
 40
0.0413680067
 40
0.0873899058
 40
0.1375666885
 40
0.1913963573
 40
0.2483981141
 40
0.3081791356
 40
0.3703647715
 40
0.4345784446
 40
0.5004864708
 40
0.567927369
 40
0.6367874905
 40
0.7069610216
 40
0.7783653719
 40
0.8509863597
 40
0.9248471257
 40
1.0
 40
1.0
 40
1.0
 40
1.0
 10
9.462671523
 20
11.3194453782
 30
0.0
 10
9.4658723409
 20
11.3247799097
 30
0.0
 10
9.4727738667
 20
11.33596539
 30
0.0
 10
9.4839549141
 20
11.3533725641
 30
0.0
 10
9.4964323563
 20
11.3721712904
 30
0.0
 10
9.5100837267
 20
11.3921700634
 30
0.0
 10
9.5247942805
 20
11.4131921902
 30
0.0
 10
9.5403720077
 20
11.4351400982
 30
0.0
 10
9.556636724
 20
11.4579301908
 30
0.0
 10
9.5734130162
 20
11.4814871941
 30
0.0
 10
9.5905434812
 20
11.5057620591
 30
0.0
 10
9.6078824457
 20
11.5307442133
 30
0.0
 10
9.6253028465
 20
11.5564488193
 30
0.0
 10
9.6426823408
 20
11.5828978199
 30
0.0
 10
9.6599036115
 20
11.610122649
 30
0.0
 10
9.6768023155
 20
11.6381996741
 30
0.0
 10
9.6932191043
 20
11.667211799
 30
0.0
 10
9.7036429157
 20
11.6870549441
 30
0.0
 10
9.7087227682
 20
11.6971508518
 30
0.0
  0
SPLINE
  5
407
100
AcDbEntity
  8
0
100
AcDbSpline
 62
9
  6
CONTINUOUS
 70
0
 71
3
 72
19
 73
15
 74
0
 42
0.0000001
 43
0.0000001
 44
0.0000000001
 40
0.0
 40
0.0
 40
0.0
 40
0.0
 40
0.0575408776
 40
0.116402816
 40
0.1764053341
 40
0.2373618051
 40
0.2990917483
 40
0.3614540643
 40
0.4875375336
 40
0.614662432
 40
0.7424501564
 40
0.8707999854
 40
0.9352641434
 40
1.0
 40
1.0
 40
1.0
 40
1.0
 10
9.3723792419
 20
11.3598598441
 30
0.0
 10
9.3757850437
 20
11.3674314792
 30
0.0
 10
9.3828344212
 20
11.3826771442
 30
0.0
 10
9.3939183532
 20
11.4055910106
 30
0.0
 10
9.4055586258
 20
11.4287798898
 30
0.0
 10
9.4176716485
 20
11.452191994
 30
0.0
 10
9.4301773859
 20
11.4757825024
 30
0.0
 10
9.4472914883
 20
11.5075646657
 30
0.0
 10
9.4690680271
 20
11.5475519265
 30
0.0
 10
9.4950407369
 20
11.5960035256
 30
0.0
 10
9.5202335625
 20
11.6452364581
 30
0.0
 10
9.5400001021
 20
11.6870742858
 30
0.0
 10
9.5546813008
 20
11.7212160472
 30
0.0
 10
9.5615767899
 20
11.7385390803
 30
0.0
 10
9.5648969789
 20
11.7472695544
 30
0.0
  0
LINE
  5
408
100
AcDbEntity
  8
0
100
AcDbLine
 62
7
  6
CONTINUOUS
 10
9.8627188811
 20
11.1644333662
 11
10.0073175943
 21
11.2857646868
  0
SPLINE
  5
409
100
AcDbEntity
  8
0
100
AcDbSpline
 62
9
  6
CONTINUOUS
 70
0
 71
3
 72
46
 73
42
 74
0
 42
0.0000001
 43
0.0000001
 44
0.0000000001
 40
0.0
 40
0.0
 40
0.0
 40
0.0
 40
0.0001584725
 40
0.0002927176
 40
0.0004696456
 40
0.0006907325
 40
0.0009566101
 40
0.0012675435
 40
0.0016236158
 40
0.0024710256
 40
0.0034981529
 40
0.0047038348
 40
0.0060867084
 40
0.0093780791
 40
0.0133599438
 40
0.0180195257
 40
0.0233438726
 40
0.0293199552
 40
0.0359347152
 40
0.0431750903
 40
0.0510280297
 40
0.0594805037
 40
0.0685195102
 40
0.0883052595
 40
0.1102819957
 40
0.134347114
 40
0.160398785
 40
0.1883360386
 40
0.2180588483
 40
0.2494682206
 40
0.2824662917
 40
0.3169564324
 40
0.3528433631
 40
0.3900332812
 40
0.4679531224
 40
0.5500021722
 40
0.6354994249
 40
0.7238053193
 40
0.814330541
 40
0.9065468099
 40
1.0
 40
1.0
 40
1.0
 40
1.0
 10
9.6358774441
 20
12.2629667671
 30
0.0
 10
9.6358499389
 20
12.2629636571
 30
0.0
 10
9.6358142489
 20
12.2629128794
 30
0.0
 10
9.6357869467
 20
12.2628390501
 30
0.0
 10
9.6357629869
 20
12.2627478542
 30
0.0
 10
9.6357421138
 20
12.2626341726
 30
0.0
 10
9.635723045
 20
12.262495926
 30
0.0
 10
9.635706256
 20
12.2623338746
 30
0.0
 10
9.635685472
 20
12.2620701275
 30
0.0
 10
9.6356662689
 20
12.2616809217
 30
0.0
 10
9.6356520629
 20
12.2611430579
 30
0.0
 10
9.635645458
 20
12.2605115191
 30
0.0
 10
9.6356464018
 20
12.2594844543
 30
0.0
 10
9.6356671583
 20
12.2579725804
 30
0.0
 10
9.6357141983
 20
12.2558887909
 30
0.0
 10
9.635781995
 20
12.2534503115
 30
0.0
 10
9.6358672591
 20
12.2506638703
 30
0.0
 10
9.6359667738
 20
12.2475361958
 30
0.0
 10
9.6360772232
 20
12.2440740264
 30
0.0
 10
9.6361952822
 20
12.2402841016
 30
0.0
 10
9.6363176059
 20
12.2361731622
 30
0.0
 10
9.6364408371
 20
12.2317479489
 30
0.0
 10
9.6366069686
 20
12.2252388274
 30
0.0
 10
9.6367965144
 20
12.2163672687
 30
0.0
 10
9.63696718
 20
12.2048702953
 30
0.0
 10
9.6370606413
 20
12.1922778936
 30
0.0
 10
9.6370499744
 20
12.1786439842
 30
0.0
 10
9.6369082506
 20
12.1640224834
 30
0.0
 10
9.6366085143
 20
12.1484673046
 30
0.0
 10
9.6361237994
 20
12.1320323589
 30
0.0
 10
9.6354271312
 20
12.1147715501
 30
0.0
 10
9.6344915276
 20
12.0967387935
 30
0.0
 10
9.6332900081
 20
12.0779879391
 30
0.0
 10
9.6312657793
 20
12.0516904489
 30
0.0
 10
9.6279155717
 20
12.017410897
 30
0.0
 10
9.6224650803
 20
11.9748759491
 30
0.0
 10
9.615308081
 20
11.9307535182
 30
0.0
 10
9.6062284274
 20
11.8854728058
 30
0.0
 10
9.5950091252
 20
11.8394616036
 30
0.0
 10
9.581433315
 20
11.7931496794
 30
0.0
 10
9.5707213588
 20
11.7625186222
 30
0.0
 10
9.5648969789
 20
11.7472695544
 30
0.0
  0
SPLINE
  5
40A
100
AcDbEntity
  8
0
100
AcDbSpline
 62
7
  6
CONTINUOUS
 70
0
 71
3
 72
12
 73
8
 74
0
 42
0.0000001
 43
0.0000001
 44
0.0000000001
 40
0.0
 40
0.0
 40
0.0
 40
0.0
 40
0.2609272042
 40
0.3895553231
 40
0.5165230663
 40
0.7639634079
 40
1.0
 40
1.0
 40
1.0
 40
1.0
 10
9.5238685711
 20
11.7619962258
 30
0.0
 10
9.5315691899
 20
11.7843419727
 30
0.0
 10
9.5416862482
 20
11.8181961737
 30
0.0
 10
9.5526403072
 20
11.8636889476
 30
0.0
 10
9.5618268168
 20
11.9083276716
 30
0.0
 10
9.5704813595
 20
11.9629744539
 30
0.0
 10
9.5750257179
 20
12.0065525185
 30
0.0
 10
9.5767366131
 20
12.0278647014
 30
0.0
  0
SPLINE
  5
40B
100
AcDbEntity
  8
0
100
AcDbSpline
 62
9
  6
CONTINUOUS
 70
0
 71
3
 72
40
 73
36
 74
0
 42
0.0000001
 43
0.0000001
 44
0.0000000001
 40
0.0
 40
0.0
 40
0.0
 40
0.0
 40
0.2245314563
 40
0.3271039919
 40
0.4230168855
 40
0.512121538
 40
0.5942688881
 40
0.6693094303
 40
0.7370932314
 40
0.7974699467
 40
0.8248335681
 40
0.8502888589
 40
0.873816917
 40
0.8953988171
 40
0.9150156118
 40
0.932648331
 40
0.9482779833
 40
0.9618855558
 40
0.9734520146
 40
0.9784638731
 40
0.9829583061
 40
0.9869329287
 40
0.9903853547
 40
0.9933131965
 40
0.9957140656
 40
0.9967161387
 40
0.9975855722
 40
0.9983220674
 40
0.9989253252
 40
0.9993950465
 40
0.9997309322
 40
0.9998485933
 40
0.9999326832
 40
0.9999831646
 40
1.0
 40
1.0
 40
1.0
 40
1.0
 10
9.5770196831
 20
12.2509822376
 30
0.0
 10
9.5767427825
 20
12.254504483
 30
0.0
 10
9.5763172171
 20
12.2596340949
 30
0.0
 10
9.5757219197
 20
12.266263815
 30
0.0
 10
9.575297794
 20
12.2707692826
 30
0.0
 10
9.5748861284
 20
12.2749530613
 30
0.0
 10
9.5744906648
 20
12.278808377
 30
0.0
 10
9.5741151481
 20
12.2823284537
 30
0.0
 10
9.573763321
 20
12.2855065151
 30
0.0
 10
9.5734845585
 20
12.2879378421
 30
0.0
 10
9.5732764156
 20
12.2897068287
 30
0.0
 10
9.5731337614
 20
12.2908996869
 30
0.0
 10
9.5729998357
 20
12.2920019602
 30
0.0
 10
9.5728751061
 20
12.2930128019
 30
0.0
 10
9.5727600408
 20
12.2939313647
 30
0.0
 10
9.5726551078
 20
12.2947568019
 30
0.0
 10
9.5725607752
 20
12.2954882662
 30
0.0
 10
9.5724775108
 20
12.2961249107
 30
0.0
 10
9.5724150791
 20
12.29659578
 30
0.0
 10
9.5723710415
 20
12.2969244329
 30
0.0
 10
9.5723426847
 20
12.2971346578
 30
0.0
 10
9.5723174458
 20
12.2973205426
 30
0.0
 10
9.5722953836
 20
12.2974819814
 30
0.0
 10
9.572276556
 20
12.297618868
 30
0.0
 10
9.5722628988
 20
12.2977175459
 30
0.0
 10
9.5722536352
 20
12.2977841317
 30
0.0
 10
9.5722479667
 20
12.2978247785
 30
0.0
 10
9.5722431393
 20
12.2978591986
 30
0.0
 10
9.5722392043
 20
12.2978874144
 30
0.0
 10
9.5722360513
 20
12.2979093171
 30
0.0
 10
9.5722341467
 20
12.2979238058
 30
0.0
 10
9.5722327893
 20
12.297932043
 30
0.0
 10
9.5722325137
 20
12.2979362018
 30
0.0
 10
9.572231681
 20
12.2979381558
 30
0.0
 10
9.5722320475
 20
12.2979396239
 30
0.0
 10
9.5722317984
 20
12.2979397139
 30
0.0
  0
SPLINE
  5
40C
100
AcDbEntity
  8
0
100
AcDbSpline
 62
7
  6
CONTINUOUS
 70
0
 71
3
 72
26
 73
22
 74
0
 42
0.0000001
 43
0.0000001
 44
0.0000000001
 40
0.0
 40
0.0
 40
0.0
 40
0.0
 40
0.0066023504
 40
0.0144471165
 40
0.0241399741
 40
0.0359794074
 40
0.0501013061
 40
0.0665511845
 40
0.0853291985
 40
0.1064000195
 40
0.1551807075
 40
0.2122731777
 40
0.2768561004
 40
0.347956212
 40
0.4244692497
 40
0.5051780308
 40
0.5887685404
 40
0.6738487951
 40
0.8426661736
 40
0.9234847298
 40
1.0
 40
1.0
 40
1.0
 40
1.0
 10
8.273136505
 20
11.8001395043
 30
0.0
 10
8.2731045006
 20
11.8000679741
 30
0.0
 10
8.2730717578
 20
11.7998940933
 30
0.0
 10
8.2731190554
 20
11.7996081048
 30
0.0
 10
8.2732494197
 20
11.7992828652
 30
0.0
 10
8.2734622535
 20
11.7989159775
 30
0.0
 10
8.2737570155
 20
11.7985072234
 30
0.0
 10
8.2741330553
 20
11.7980576531
 30
0.0
 10
8.2745891533
 20
11.7975689611
 30
0.0
 10
8.2753392716
 20
11.7968311047
 30
0.0
 10
8.276468727
 20
11.795832405
 30
0.0
 10
8.2780458397
 20
11.7945644438
 30
0.0
 10
8.279880338
 20
11.7931963045
 30
0.0
 10
8.2819430836
 20
11.7917507113
 30
0.0
 10
8.2842012048
 20
11.7902519827
 30
0.0
 10
8.2866179827
 20
11.788725615
 30
0.0
 10
8.2891534167
 20
11.7871979036
 30
0.0
 10
8.2926258105
 20
11.7852006095
 30
0.0
 10
8.2961281396
 20
11.7833223926
 30
0.0
 10
8.2995983747
 20
11.7816063465
 30
0.0
 10
8.3012920282
 20
11.7808191396
 30
0.0
 10
8.3021209451
 20
11.7804481197
 30
0.0
  0
SPLINE
  5
40D
100
AcDbEntity
  8
0
100
AcDbSpline
 62
9
  6
CONTINUOUS
 70
0
 71
3
 72
44
 73
40
 74
0
 42
0.0000001
 43
0.0000001
 44
0.0000000001
 40
0.0
 40
0.0
 40
0.0
 40
0.0
 40
0.000143029
 40
0.0002937148
 40
0.0004649029
 40
0.0006653985
 40
0.001173173
 40
0.0018404648
 40
0.0026755839
 40
0.0036818253
 40
0.0048603153
 40
0.0062111153
 40
0.0077337083
 40
0.0094272388
 40
0.0133226502
 40
0.0178875132
 40
0.0231107675
 40
0.0289807838
 40
0.035485616
 40
0.0426131348
 40
0.0503511024
 40
0.0676091479
 40
0.0871610624
 40
0.1089081172
 40
0.132751853
 40
0.1585942605
 40
0.1863379076
 40
0.2158860432
 40
0.247142691
 40
0.2800127392
 40
0.3144020331
 40
0.3873660703
 40
0.4653052053
 40
0.5475114513
 40
0.6333037003
 40
0.7220332734
 40
0.8130907351
 40
0.9059142759
 40
1.0
 40
1.0
 40
1.0
 40
1.0
 10
9.8335722383
 20
12.1406931574
 30
0.0
 10
9.8335505856
 20
12.1406974431
 30
0.0
 10
9.8335042927
 20
12.140698933
 30
0.0
 10
9.8334347316
 20
12.1406775412
 30
0.0
 10
9.8333658806
 20
12.1406343227
 30
0.0
 10
9.8332663288
 20
12.1405412468
 30
0.0
 10
9.8331440065
 20
12.1403656189
 30
0.0
 10
9.8330029058
 20
12.1400890721
 30
0.0
 10
9.8328570601
 20
12.1397299995
 30
0.0
 10
9.8327063478
 20
12.139288876
 30
0.0
 10
9.8325506662
 20
12.1387658178
 30
0.0
 10
9.8323899026
 20
12.1381614714
 30
0.0
 10
9.832223885
 20
12.1374764709
 30
0.0
 10
9.8319839392
 20
12.1364054997
 30
0.0
 10
9.8316737089
 20
12.1348693857
 30
0.0
 10
9.8312917559
 20
12.1327924638
 30
0.0
 10
9.8308834082
 20
12.1304107467
 30
0.0
 10
9.8304469036
 20
12.1277302271
 30
0.0
 10
9.829980539
 20
12.1247568854
 30
0.0
 10
9.8294824983
 20
12.1214967512
 30
0.0
 10
9.8287466657
 20
12.1165942323
 30
0.0
 10
9.8277416287
 20
12.1097932788
 30
0.0
 10
9.8264185027
 20
12.1008539184
 30
0.0
 10
9.8249238289
 20
12.0909125577
 30
0.0
 10
9.8232427627
 20
12.0800175987
 30
0.0
 10
9.8213604818
 20
12.068217448
 30
0.0
 10
9.819262063
 20
12.055560533
 30
0.0
 10
9.8169325555
 20
12.042095284
 30
0.0
 10
9.8143569819
 20
12.0278701419
 30
0.0
 10
9.8115203412
 20
12.0129335222
 30
0.0
 10
9.8072858221
 20
11.991711789
 30
0.0
 10
9.8012629253
 20
11.9637558406
 30
0.0
 10
9.7928894909
 20
11.9287660271
 30
0.0
 10
9.7831140731
 20
11.8920876295
 30
0.0
 10
9.7718165539
 20
11.8541069154
 30
0.0
 10
9.7588765756
 20
11.8152098302
 30
0.0
 10
9.7441731931
 20
11.7757815963
 30
0.0
 10
9.7275857252
 20
11.7362086331
 30
0.0
 10
9.7152525842
 20
11.7101193735
 30
0.0
 10
9.7087227682
 20
11.6971508518
 30
0.0
  0
SPLINE
  5
40E
100
AcDbEntity
  8
0
100
AcDbSpline
 62
7
  6
CONTINUOUS
 70
0
 71
3
 72
16
 73
12
 74
0
 42
0.0000001
 43
0.0000001
 44
0.0000000001
 40
0.0
 40
0.0
 40
0.0
 40
0.0
 40
0.1286475415
 40
0.2563416803
 40
0.3198143601
 40
0.3830289422
 40
0.5086672403
 40
0.6332253457
 40
0.7566649717
 40
0.8789391375
 40
1.0
 40
1.0
 40
1.0
 40
1.0
 10
9.8163659634
 20
11.6546173981
 30
0.0
 10
9.8118427069
 20
11.6566652427
 30
0.0
 10
9.8028067759
 20
11.6606953334
 30
0.0
 10
9.7914724684
 20
11.665584368
 30
0.0
 10
9.7824187096
 20
11.6693822763
 30
0.0
 10
9.7734119089
 20
11.6730863806
 30
0.0
 10
9.7621784305
 20
11.6775739407
 30
0.0
 10
9.7487221253
 20
11.6827598094
 30
0.0
 10
9.7353331106
 20
11.6877569052
 30
0.0
 10
9.7220174831
 20
11.6925622593
 30
0.0
 10
9.7131459813
 20
11.6956453026
 30
0.0
 10
9.7087227682
 20
11.6971508518
 30
0.0
  0
SPLINE
  5
40F
100
AcDbEntity
  8
0
100
AcDbSpline
 62
7
  6
CONTINUOUS
 70
0
 71
3
 72
12
 73
8
 74
0
 42
0.0000001
 43
0.0000001
 44
0.0000000001
 40
0.0
 40
0.0
 40
0.0
 40
0.0
 40
0.2547744324
 40
0.5068091249
 40
0.6315907813
 40
0.7554301324
 40
1.0
 40
1.0
 40
1.0
 40
1.0
 10
9.9609557575
 20
11.5769367198
 30
0.0
 10
9.949138459
 20
11.5843501166
 30
0.0
 10
9.9253965914
 20
11.5987280641
 30
0.0
 10
9.8952231977
 20
11.6156392254
 30
0.0
 10
9.8709886896
 20
11.628454969
 30
0.0
 10
9.8468735183
 20
11.6406134791
 30
0.0
 10
9.8285653531
 20
11.6490942857
 30
0.0
 10
9.8163659634
 20
11.6546173981
 30
0.0
  0
SPLINE
  5
410
100
AcDbEntity
  8
0
100
AcDbSpline
 62
9
  6
CONTINUOUS
 70
0
 71
3
 72
13
 73
9
 74
0
 42
0.0000001
 43
0.0000001
 44
0.0000000001
 40
0.0
 40
0.0
 40
0.0
 40
0.0
 40
0.2508702975
 40
0.3761213818
 40
0.5012293829
 40
0.626185049
 40
0.7509764267
 40
1.0
 40
1.0
 40
1.0
 40
1.0
 10
10.0191577594
 20
11.5379235486
 30
0.0
 10
10.0143906346
 20
11.5413314931
 30
0.0
 10
10.0071980819
 20
11.5463778393
 30
0.0
 10
9.9975309784
 20
11.5529829405
 30
0.0
 10
9.9902549406
 20
11.5578735902
 30
0.0
 10
9.9829562665
 20
11.5627109261
 30
0.0
 10
9.9732106498
 20
11.5690953265
 30
0.0
 10
9.9658671659
 20
11.5738200017
 30
0.0
 10
9.9609557603
 20
11.5769367236
 30
0.0
  0
SPLINE
  5
411
100
AcDbEntity
  8
0
100
AcDbSpline
 62
7
  6
CONTINUOUS
 70
0
 71
3
 72
33
 73
29
 74
0
 42
0.0000001
 43
0.0000001
 44
0.0000000001
 40
0.0
 40
0.0
 40
0.0
 40
0.0
 40
0.124999873
 40
0.2499996904
 40
0.3124996726
 40
0.3749996595
 40
0.4374996264
 40
0.4999995146
 40
0.5624991887
 40
0.6249983682
 40
0.6562486914
 40
0.6874989917
 40
0.7187492442
 40
0.7499994244
 40
0.7812494513
 40
0.8124991541
 40
0.8437481644
 40
0.8749953964
 40
0.8906213459
 40
0.9062472024
 40
0.9218728325
 40
0.9374978468
 40
0.9531209517
 40
0.9687372036
 40
0.9765543336
 40
0.9843700415
 40
0.9921861101
 40
1.0
 40
1.0
 40
1.0
 40
1.0
 10
13.3098763366
 20
7.8049567784
 30
0.0
 10
13.3144892589
 20
7.8088274799
 30
0.0
 10
13.3237138244
 20
7.8165703817
 30
0.0
 10
13.3352605154
 20
7.8262300696
 30
0.0
 10
13.3445425489
 20
7.8339040929
 30
0.0
 10
13.3515399227
 20
7.8396160544
 30
0.0
 10
13.358588772
 20
7.845264492
 30
0.0
 10
13.3657081451
 20
7.8508240177
 30
0.0
 10
13.372920727
 20
7.8562623202
 30
0.0
 10
13.3790319563
 20
7.8606583902
 30
0.0
 10
13.3839982333
 20
7.8640643186
 30
0.0
 10
13.3877670385
 20
7.8665534923
 30
0.0
 10
13.3915857372
 20
7.8689655838
 30
0.0
 10
13.3954612458
 20
7.8712855708
 30
0.0
 10
13.3994017263
 20
7.8734937797
 30
0.0
 10
13.4034170924
 20
7.8755635388
 30
0.0
 10
13.4075191274
 20
7.8774564662
 30
0.0
 10
13.411022822
 20
7.8788391155
 30
0.0
 10
13.4138841466
 20
7.8797788424
 30
0.0
 10
13.4160618304
 20
7.8803807506
 30
0.0
 10
13.4182717383
 20
7.8808530639
 30
0.0
 10
13.4205124613
 20
7.8811560803
 30
0.0
 10
13.4227734994
 20
7.881228748
 30
0.0
 10
13.4246546766
 20
7.8810147334
 30
0.0
 10
13.4261057067
 20
7.8806005555
 30
0.0
 10
13.4271435553
 20
7.8801435356
 30
0.0
 10
13.4280929082
 20
7.8795210584
 30
0.0
 10
13.4286367135
 20
7.8789918085
 30
0.0
 10
13.4288786756
 20
7.8787034493
 30
0.0
  0
SPLINE
  5
412
100
AcDbEntity
  8
0
100
AcDbSpline
 62
7
  6
CONTINUOUS
 70
0
 71
3
 72
33
 73
29
 74
0
 42
0.0000001
 43
0.0000001
 44
0.0000000001
 40
0.0
 40
0.0
 40
0.0
 40
0.0
 40
0.007813882
 40
0.0156299407
 40
0.0234456464
 40
0.0312627749
 40
0.0468790312
 40
0.0625021421
 40
0.0781271575
 40
0.0937527897
 40
0.1093786476
 40
0.125004598
 40
0.1562518303
 40
0.1875008407
 40
0.2187505435
 40
0.2500005704
 40
0.2812507506
 40
0.3125010032
 40
0.3437513036
 40
0.3750016269
 40
0.4375008068
 40
0.5000004812
 40
0.56250037
 40
0.6250003374
 40
0.6875003248
 40
0.7500003076
 40
0.8750001259
 40
1.0
 40
1.0
 40
1.0
 40
1.0
 10
13.2165862122
 20
7.7005689215
 30
0.0
 10
13.2163442519
 20
7.7008572786
 30
0.0
 10
13.2159174759
 20
7.7014847204
 30
0.0
 10
13.2154693099
 20
7.702527734
 30
0.0
 10
13.2151994531
 20
7.7036291676
 30
0.0
 10
13.2150435319
 20
7.7051300643
 30
0.0
 10
13.2151594252
 20
7.7070198143
 30
0.0
 10
13.215623605
 20
7.7092338712
 30
0.0
 10
13.2163111054
 20
7.7113879228
 30
0.0
 10
13.2171599792
 20
7.7134822298
 30
0.0
 10
13.2181308833
 20
7.7155222988
 30
0.0
 10
13.219553183
 20
7.7181769575
 30
0.0
 10
13.221523218
 20
7.7213873121
 30
0.0
 10
13.2240996755
 20
7.7250983054
 30
0.0
 10
13.226835228
 20
7.7286932406
 30
0.0
 10
13.2296941229
 20
7.7321903868
 30
0.0
 10
13.2326518153
 20
7.7356041386
 30
0.0
 10
13.2356903479
 20
7.7389459502
 30
0.0
 10
13.2387961276
 20
7.7422252412
 30
0.0
 10
13.243012665
 20
7.7465246137
 30
0.0
 10
13.2484031126
 20
7.7517796024
 30
0.0
 10
13.2550111987
 20
7.7579382245
 30
0.0
 10
13.2617224812
 20
7.7639840036
 30
0.0
 10
13.2685090789
 20
7.7699448905
 30
0.0
 10
13.2753492974
 20
7.7758440527
 30
0.0
 10
13.2845184817
 20
7.7836524446
 30
0.0
 10
13.2960364039
 20
7.7933462683
 30
0.0
 10
13.3052634437
 20
7.8010861017
 30
0.0
 10
13.3098763366
 20
7.8049567784
 30
0.0
  0
LINE
  5
413
100
AcDbEntity
  8
0
100
AcDbLine
 62
7
  6
CONTINUOUS
 10
8.0105986959
 20
11.9109323188
 11
8.0113723331
 21
11.9107424286
  0
SPLINE
  5
414
100
AcDbEntity
  8
0
100
AcDbSpline
 62
7
  6
CONTINUOUS
 70
0
 71
3
 72
17
 73
13
 74
0
 42
0.0000001
 43
0.0000001
 44
0.0000000001
 40
0.0
 40
0.0
 40
0.0
 40
0.0
 40
0.2188295981
 40
0.4106485865
 40
0.574671359
 40
0.7106011837
 40
0.818586072
 40
0.8996059891
 40
0.930893665
 40
0.9569689498
 40
0.9792621869
 40
1.0
 40
1.0
 40
1.0
 40
1.0
 10
8.0731047735
 20
11.8829548471
 30
0.0
 10
8.0733208593
 20
11.8828581279
 30
0.0
 10
8.0737283978
 20
11.8826811169
 30
0.0
 10
8.0743058818
 20
11.8824504457
 30
0.0
 10
8.0748074859
 20
11.8822727111
 30
0.0
 10
8.075231313
 20
11.8821480445
 30
0.0
 10
8.0755757482
 20
11.8820767138
 30
0.0
 10
8.0758151848
 20
11.8820584272
 30
0.0
 10
8.0759642613
 20
11.8820776321
 30
0.0
 10
8.076046783
 20
11.8821049466
 30
0.0
 10
8.0761097432
 20
11.8821475752
 30
0.0
 10
8.0761370157
 20
11.8821868807
 30
0.0
 10
8.0761461858
 20
11.8822073566
 30
0.0
  0
SPLINE
  5
415
100
AcDbEntity
  8
0
100
AcDbSpline
 62
7
  6
CONTINUOUS
 70
0
 71
3
 72
19
 73
15
 74
0
 42
0.0000001
 43
0.0000001
 44
0.0000000001
 40
0.0
 40
0.0
 40
0.0
 40
0.0
 40
0.2145806217
 40
0.4050284664
 40
0.5696000507
 40
0.7071630947
 40
0.7656080279
 40
0.8171269328
 40
0.8618038494
 40
0.8998259022
 40
0.9315832261
 40
0.9578179813
 40
0.9798760535
 40
1.0
 40
1.0
 40
1.0
 40
1.0
 10
8.1725375838
 20
11.8384491167
 30
0.0
 10
8.1730000116
 20
11.8382421359
 30
0.0
 10
8.1738775628
 20
11.8378617979
 30
0.0
 10
8.1751276586
 20
11.837365131
 30
0.0
 10
8.1762250644
 20
11.836979064
 30
0.0
 10
8.1770428676
 20
11.8367397346
 30
0.0
 10
8.1776132525
 20
11.8366114879
 30
0.0
 10
8.1779733697
 20
11.8365500314
 30
0.0
 10
8.1782889271
 20
11.8365177519
 30
0.0
 10
8.1785596435
 20
11.8365146126
 30
0.0
 10
8.178785671
 20
11.8365406428
 30
0.0
 10
8.1789678263
 20
11.8365964678
 30
0.0
 10
8.1791062469
 20
11.8366850467
 30
0.0
 10
8.1791659061
 20
11.8367685481
 30
0.0
 10
8.1791853201
 20
11.8368119146
 30
0.0
  0
SPLINE
  5
416
100
AcDbEntity
  8
0
100
AcDbSpline
 62
7
  6
CONTINUOUS
 70
0
 71
3
 72
19
 73
15
 74
0
 42
0.0000001
 43
0.0000001
 44
0.0000000001
 40
0.0
 40
0.0
 40
0.0
 40
0.0
 40
0.2083581624
 40
0.3967509362
 40
0.5621189454
 40
0.7020302936
 40
0.7618855873
 40
0.8148170005
 40
0.8607912634
 40
0.8998887125
 40
0.9323915459
 40
0.9589109247
 40
0.980695927
 40
1.0
 40
1.0
 40
1.0
 40
1.0
 10
8.3021209451
 20
11.7804481197
 30
0.0
 10
8.3028854899
 20
11.7801059125
 30
0.0
 10
8.3043499819
 20
11.7794733448
 30
0.0
 10
8.3064528729
 20
11.7786445441
 30
0.0
 10
8.3083276378
 20
11.7779916241
 30
0.0
 10
8.3097384801
 20
11.7775819606
 30
0.0
 10
8.3107297533
 20
11.7773582456
 30
0.0
 10
8.3113588226
 20
11.7772485112
 30
0.0
 10
8.3119107648
 20
11.7771877405
 30
0.0
 10
8.3123840337
 20
11.7771759038
 30
0.0
 10
8.3127780815
 20
11.7772126647
 30
0.0
 10
8.3130936787
 20
11.7772989212
 30
0.0
 10
8.3133322144
 20
11.7774388626
 30
0.0
 10
8.3134346607
 20
11.7775757105
 30
0.0
 10
8.3134663626
 20
11.7776465458
 30
0.0
  0
SPLINE
  5
417
100
AcDbEntity
  8
0
100
AcDbSpline
 62
7
  6
CONTINUOUS
 70
0
 71
3
 72
22
 73
18
 74
0
 42
0.0000001
 43
0.0000001
 44
0.0000000001
 40
0.0
 40
0.0
 40
0.0
 40
0.0
 40
0.1998333068
 40
0.3852735311
 40
0.5515239077
 40
0.626147134
 40
0.6945089462
 40
0.7562523628
 40
0.8110935074
 40
0.8588424968
 40
0.8994393098
 40
0.9330068865
 40
0.9600031344
 40
0.9713682204
 40
0.9815887696
 40
0.9909921892
 40
1.0
 40
1.0
 40
1.0
 40
1.0
 10
8.4530239654
 20
11.7129045281
 30
0.0
 10
8.4541076274
 20
11.7124194853
 30
0.0
 10
8.4562111093
 20
11.7115155179
 30
0.0
 10
8.4592648781
 20
11.7103256517
 30
0.0
 10
8.4616611043
 20
11.7095018367
 30
0.0
 10
8.4634214743
 20
11.7089751245
 30
0.0
 10
8.4645971991
 20
11.7086625105
 30
0.0
 10
8.4656690627
 20
11.7084193112
 30
0.0
 10
8.4666304566
 20
11.7082466053
 30
0.0
 10
8.4674756262
 20
11.708144866
 30
0.0
 10
8.4682004021
 20
11.7081139194
 30
0.0
 10
8.4688013421
 20
11.7081533457
 30
0.0
 10
8.4692214862
 20
11.7082497154
 30
0.0
 10
8.4694848756
 20
11.7083702632
 30
0.0
 10
8.4696382348
 20
11.7084740144
 30
0.0
 10
8.469758091
 20
11.7085965403
 30
0.0
 10
8.4698150485
 20
11.7086913547
 30
0.0
 10
8.4698369071
 20
11.708740205
 30
0.0
  0
SPLINE
  5
418
100
AcDbEntity
  8
0
100
AcDbSpline
 62
7
  6
CONTINUOUS
 70
0
 71
3
 72
24
 73
20
 74
0
 42
0.0000001
 43
0.0000001
 44
0.0000000001
 40
0.0
 40
0.0
 40
0.0
 40
0.0
 40
0.1887692318
 40
0.370191867
 40
0.4559747623
 40
0.5373884541
 40
0.6136991034
 40
0.6842421786
 40
0.7484344557
 40
0.8057815528
 40
0.8558941418
 40
0.8985176231
 40
0.9335834127
 40
0.9483521827
 40
0.961367458
 40
0.9727623484
 40
0.9827527063
 40
0.9916739982
 40
1.0
 40
1.0
 40
1.0
 40
1.0
 10
8.6149628533
 20
11.640421326
 30
0.0
 10
8.6163387383
 20
11.6398054854
 30
0.0
 10
8.619058659
 20
11.6386456297
 30
0.0
 10
8.6224590747
 20
11.6373407652
 30
0.0
 10
8.6250884198
 20
11.6364254612
 30
0.0
 10
8.6269390101
 20
11.635827761
 30
0.0
 10
8.628687335
 20
11.63531116
 30
0.0
 10
8.6303168469
 20
11.6348800419
 30
0.0
 10
8.6318124118
 20
11.6345377557
 30
0.0
 10
8.6331604108
 20
11.6342867381
 30
0.0
 10
8.6343491587
 20
11.6341282697
 30
0.0
 10
8.6353684468
 20
11.6340629708
 30
0.0
 10
8.6361085811
 20
11.6340859474
 30
0.0
 10
8.6366055633
 20
11.6341600625
 30
0.0
 10
8.6369097151
 20
11.6342359668
 30
0.0
 10
8.6371667775
 20
11.6343353741
 30
0.0
 10
8.6373764655
 20
11.6344590253
 30
0.0
 10
8.6375378012
 20
11.634607782
 30
0.0
 10
8.6376124564
 20
11.6347259447
 30
0.0
 10
8.6376396136
 20
11.6347866331
 30
0.0
  0
SPLINE
  5
419
100
AcDbEntity
  8
0
100
AcDbSpline
 62
7
  6
CONTINUOUS
 70
0
 71
3
 72
25
 73
21
 74
0
 42
0.0000001
 43
0.0000001
 44
0.0000000001
 40
0.0
 40
0.0
 40
0.0
 40
0.0
 40
0.1747590425
 40
0.3507698878
 40
0.4363491695
 40
0.5188254717
 40
0.597163187
 40
0.6704039408
 40
0.7376811301
 40
0.7982313708
 40
0.8514083506
 40
0.8967079392
 40
0.916301048
 40
0.9338265766
 40
0.9492945039
 40
0.9627457166
 40
0.9742787293
 40
0.9840778552
 40
0.9924715225
 40
1.0
 40
1.0
 40
1.0
 40
1.0
 10
8.7769017412
 20
11.567938124
 30
0.0
 10
8.7784981943
 20
11.567223558
 30
0.0
 10
8.7817343346
 20
11.5658596081
 30
0.0
 10
8.7858237943
 20
11.5643235879
 30
0.0
 10
8.7890836437
 20
11.5632130734
 30
0.0
 10
8.7914348446
 20
11.5624686302
 30
0.0
 10
8.7936842501
 20
11.561813845
 30
0.0
 10
8.7958028427
 20
11.5612564092
 30
0.0
 10
8.7977637388
 20
11.5608025769
 30
0.0
 10
8.7995425682
 20
11.5604570063
 30
0.0
 10
8.8011174707
 20
11.5602231273
 30
0.0
 10
8.8022955884
 20
11.5601173871
 30
0.0
 10
8.8031205242
 20
11.5600975045
 30
0.0
 10
8.8036469224
 20
11.5601124231
 30
0.0
 10
8.8041101336
 20
11.5601560897
 30
0.0
 10
8.8045091247
 20
11.5602284972
 30
0.0
 10
8.8048433056
 20
11.5603295587
 30
0.0
 10
8.8051125784
 20
11.5604600296
 30
0.0
 10
8.8053162875
 20
11.5606218173
 30
0.0
 10
8.8054079218
 20
11.5607562579
 30
0.0
 10
8.8054387116
 20
11.5608250287
 30
0.0
  0
SPLINE
  5
41A
100
AcDbEntity
  8
0
100
AcDbSpline
 62
7
  6
CONTINUOUS
 70
0
 71
3
 72
18
 73
14
 74
0
 42
0.0000001
 43
0.0000001
 44
0.0000000001
 40
0.0
 40
0.0
 40
0.0
 40
0.0
 40
0.0208671787
 40
0.0434398631
 40
0.0699169411
 40
0.1016930445
 40
0.139553017
 40
0.1839308976
 40
0.2930430281
 40
0.4297375359
 40
0.5937432947
 40
0.7842894147
 40
1.0
 40
1.0
 40
1.0
 40
1.0
 10
8.7814106424
 20
11.4413750938
 30
0.0
 10
8.7813945146
 20
11.4413390604
 30
0.0
 10
8.7813750599
 20
11.441256863
 30
0.0
 10
8.7813931556
 20
11.4411236102
 30
0.0
 10
8.7814541743
 20
11.4409820079
 30
0.0
 10
8.7815563878
 20
11.4408307725
 30
0.0
 10
8.7816996286
 20
11.4406689303
 30
0.0
 10
8.7819643395
 20
11.4404214289
 30
0.0
 10
8.7824047788
 20
11.4400915093
 30
0.0
 10
8.783061112
 20
11.4396780981
 30
0.0
 10
8.7838746023
 20
11.4392278268
 30
0.0
 10
8.78483933
 20
11.4387444385
 30
0.0
 10
8.7855371376
 20
11.4384219832
 30
0.0
 10
8.7859096234
 20
11.43825526
 30
0.0
  0
SPLINE
  5
41B
100
AcDbEntity
  8
0
100
AcDbSpline
 62
7
  6
CONTINUOUS
 70
0
 71
3
 72
26
 73
22
 74
0
 42
0.0000001
 43
0.0000001
 44
0.0000000001
 40
0.0
 40
0.0
 40
0.0
 40
0.0
 40
0.0765152583
 40
0.1573337936
 40
0.3261511464
 40
0.4112313936
 40
0.4948219005
 40
0.5755306739
 40
0.6520437198
 40
0.7231438377
 40
0.7877267721
 40
0.844819274
 40
0.8935999587
 40
0.9146707907
 40
0.9334488165
 40
0.9498986964
 40
0.9640205911
 40
0.975860023
 40
0.9855528827
 40
0.9933976499
 40
1.0
 40
1.0
 40
1.0
 40
1.0
 10
8.9278047616
 20
11.5003945324
 30
0.0
 10
8.9286336783
 20
11.5000235126
 30
0.0
 10
8.9303490593
 20
11.4992848492
 30
0.0
 10
8.9339406939
 20
11.4978400304
 30
0.0
 10
8.9376746532
 20
11.4964793134
 30
0.0
 10
8.9414774754
 20
11.4952202496
 30
0.0
 10
8.9443058975
 20
11.4943471202
 30
0.0
 10
8.9470542701
 20
11.4935615871
 30
0.0
 10
8.9496763342
 20
11.4928759642
 30
0.0
 10
8.9521286136
 20
11.4923006501
 30
0.0
 10
8.9543710733
 20
11.4918439593
 30
0.0
 10
8.9563673539
 20
11.4915124839
 30
0.0
 10
8.9578645989
 20
11.4913354831
 30
0.0
 10
8.9589146006
 20
11.491267613
 30
0.0
 10
8.9595829066
 20
11.4912530263
 30
0.0
 10
8.9601687021
 20
11.491272083
 30
0.0
 10
8.9606699109
 20
11.4913245637
 30
0.0
 10
8.9610853167
 20
11.4914102539
 30
0.0
 10
8.9614147217
 20
11.4915297025
 30
0.0
 10
8.9616595158
 20
11.491684952
 30
0.0
 10
8.9617673798
 20
11.4918252089
 30
0.0
 10
8.9617994045
 20
11.49189673
 30
0.0
  0
SPLINE
  5
41C
100
AcDbEntity
  8
0
100
AcDbSpline
 62
7
  6
CONTINUOUS
 70
0
 71
3
 72
28
 73
24
 74
0
 42
0.0000001
 43
0.0000001
 44
0.0000000001
 40
0.0
 40
0.0
 40
0.0
 40
0.0
 40
0.0641862497
 40
0.1358667103
 40
0.2134503814
 40
0.2952078487
 40
0.4640031669
 40
0.6278416046
 40
0.703627433
 40
0.7732426443
 40
0.8352958167
 40
0.8630981505
 40
0.8885647635
 40
0.9115762979
 40
0.9320264674
 40
0.9498335823
 40
0.9649399697
 40
0.9773342813
 40
0.9870771021
 40
0.9910226741
 40
0.9944183363
 40
0.9973602907
 40
1.0
 40
1.0
 40
1.0
 40
1.0
 10
9.0573881228
 20
11.4423935354
 30
0.0
 10
9.0581755598
 20
11.4420410817
 30
0.0
 10
9.0598573197
 20
11.4413283054
 30
0.0
 10
9.0625302286
 20
11.4402852143
 30
0.0
 10
9.0654492994
 20
11.4392257265
 30
0.0
 10
9.0696258258
 20
11.4378077216
 30
0.0
 10
9.0749498123
 20
11.4361671424
 30
0.0
 10
9.0802499501
 20
11.4347325988
 30
0.0
 10
9.0842934148
 20
11.433768829
 30
0.0
 10
9.0870201556
 20
11.4331846374
 30
0.0
 10
9.0891279379
 20
11.4327931386
 30
0.0
 10
9.0906593074
 20
11.4325527617
 30
0.0
 10
9.0916754612
 20
11.4324156006
 30
0.0
 10
9.0925966049
 20
11.4323154133
 30
0.0
 10
9.0934179124
 20
11.4322527506
 30
0.0
 10
9.0941349594
 20
11.432227798
 30
0.0
 10
9.0947443348
 20
11.4322405081
 30
0.0
 10
9.0952428582
 20
11.4322906278
 30
0.0
 10
9.0955869025
 20
11.4323673
 30
0.0
 10
9.0958001961
 20
11.4324538799
 30
0.0
 10
9.0959199325
 20
11.4325242359
 30
0.0
 10
9.0960107488
 20
11.4326051562
 30
0.0
 10
9.0960525034
 20
11.4326689577
 30
0.0
 10
9.0960669993
 20
11.4327013412
 30
0.0
  0
SPLINE
  5
41D
100
AcDbEntity
  8
0
100
AcDbSpline
 62
7
  6
CONTINUOUS
 70
0
 71
3
 72
20
 73
16
 74
0
 42
0.0000001
 43
0.0000001
 44
0.0000000001
 40
0.0
 40
0.0
 40
0.0
 40
0.0
 40
0.0094121389
 40
0.0191237352
 40
0.0408733783
 40
0.0676101249
 40
0.1005217099
 40
0.1401715143
 40
0.1867818075
 40
0.2403903314
 40
0.3009043956
 40
0.4418629263
 40
0.6074931606
 40
0.7947652128
 40
1.0
 40
1.0
 40
1.0
 40
1.0
 10
8.7622118218
 20
11.5125610993
 30
0.0
 10
8.7621935688
 20
11.5125203326
 30
0.0
 10
8.7621655454
 20
11.5124331037
 30
0.0
 10
8.7621474785
 20
11.5122386201
 30
0.0
 10
8.762206283
 20
11.5119629175
 30
0.0
 10
8.762383959
 20
11.5116172826
 30
0.0
 10
8.7626671283
 20
11.5112387006
 30
0.0
 10
8.7630563486
 20
11.5108272538
 30
0.0
 10
8.7635508587
 20
11.5103836664
 30
0.0
 10
8.7641492539
 20
11.5099100447
 30
0.0
 10
8.7651337994
 20
11.5092051338
 30
0.0
 10
8.7666094964
 20
11.5082765513
 30
0.0
 10
8.7686565028
 20
11.5071338373
 30
0.0
 10
8.7710206882
 20
11.5059381821
 30
0.0
 10
8.7727103728
 20
11.5051534293
 30
0.0
 10
8.7735993538
 20
11.5047555249
 30
0.0
  0
SPLINE
  5
41E
100
AcDbEntity
  8
0
100
AcDbSpline
 62
7
  6
CONTINUOUS
 70
0
 71
3
 72
18
 73
14
 74
0
 42
0.0000001
 43
0.0000001
 44
0.0000000001
 40
0.0
 40
0.0
 40
0.0
 40
0.0
 40
0.0409332265
 40
0.0892959457
 40
0.1443162289
 40
0.2051127266
 40
0.3400385632
 40
0.4855624119
 40
0.6327745641
 40
0.7729136727
 40
0.8977647216
 40
0.9521240793
 40
1.0
 40
1.0
 40
1.0
 40
1.0
 10
9.1568209332
 20
11.397887805
 30
0.0
 10
9.1573071892
 20
11.3976701587
 30
0.0
 10
9.1583794218
 20
11.3972209929
 30
0.0
 10
9.1601328763
 20
11.3965472965
 30
0.0
 10
9.1621444567
 20
11.395826142
 30
0.0
 10
9.1652358492
 20
11.3947802525
 30
0.0
 10
9.169474779
 20
11.3934529601
 30
0.0
 10
9.1748229734
 20
11.391909888
 30
0.0
 10
9.1802669686
 20
11.3904581093
 30
0.0
 10
9.1854781632
 20
11.3891821567
 30
0.0
 10
9.1895377242
 20
11.3882876585
 30
0.0
 10
9.1924392028
 20
11.3877244101
 30
0.0
 10
9.1937505019
 20
11.3874977526
 30
0.0
 10
9.1943660038
 20
11.3874007327
 30
0.0
  0
SPLINE
  5
41F
100
AcDbEntity
  8
0
100
AcDbSpline
 62
7
  6
CONTINUOUS
 70
0
 71
3
 72
17
 73
13
 74
0
 42
0.0000001
 43
0.0000001
 44
0.0000000001
 40
0.0
 40
0.0
 40
0.0
 40
0.0
 40
0.2144544094
 40
0.4045915213
 40
0.5693042959
 40
0.7077255598
 40
0.8192577313
 40
0.864902716
 40
0.9038546683
 40
0.9362922029
 40
0.9625841726
 40
1.0
 40
1.0
 40
1.0
 40
1.0
 10
9.1943660038
 20
11.3874007327
 30
0.0
 10
9.1947058431
 20
11.3873471648
 30
0.0
 10
9.1953478536
 20
11.3872514274
 30
0.0
 10
9.1962539821
 20
11.3871365551
 30
0.0
 10
9.1970416931
 20
11.3870593675
 30
0.0
 10
9.1977059512
 20
11.3870204041
 30
0.0
 10
9.1981806308
 20
11.3870189578
 30
0.0
 10
9.198494718
 20
11.3870413608
 30
0.0
 10
9.19868072
 20
11.3870665736
 30
0.0
 10
9.198834341
 20
11.3871020253
 30
0.0
 10
9.1989776112
 20
11.387154442
 30
0.0
 10
9.1990681875
 20
11.3872210595
 30
0.0
 10
9.1990926991
 20
11.3872758504
 30
0.0
  0
LINE
  5
420
100
AcDbEntity
  8
0
100
AcDbLine
 62
7
  6
CONTINUOUS
 10
9.2193270108
 20
11.3699103333
 11
9.2203134724
 21
11.3695147189
  0
SPLINE
  5
421
100
AcDbEntity
  8
0
100
AcDbSpline
 62
7
  6
CONTINUOUS
 70
0
 71
3
 72
20
 73
16
 74
0
 42
0.0000001
 43
0.0000001
 44
0.0000000001
 40
0.0
 40
0.0
 40
0.0
 40
0.0
 40
0.0358195542
 40
0.0813031727
 40
0.1354650652
 40
0.1971342731
 40
0.2649988806
 40
0.3376430221
 40
0.4913015412
 40
0.6459448978
 40
0.7895395047
 40
0.8536268677
 40
0.9108255353
 40
0.9599602096
 40
1.0
 40
1.0
 40
1.0
 40
1.0
 10
9.2203134724
 20
11.3695147189
 30
0.0
 10
9.2207885378
 20
11.3693383531
 30
0.0
 10
9.2218760634
 20
11.3689630517
 30
0.0
 10
9.2237013013
 20
11.3683786793
 30
0.0
 10
9.2258854136
 20
11.3677166714
 30
0.0
 10
9.2283808568
 20
11.3669909931
 30
0.0
 10
9.2311343685
 20
11.3662167768
 30
0.0
 10
9.2351488957
 20
11.3651199243
 30
0.0
 10
9.2403612283
 20
11.3637495615
 30
0.0
 10
9.2465615065
 20
11.362190962
 30
0.0
 10
9.2515466414
 20
11.360997265
 30
0.0
 10
9.2552007092
 20
11.3601663212
 30
0.0
 10
9.2575565779
 20
11.3596535377
 30
0.0
 10
9.2595852451
 20
11.3592378712
 30
0.0
 10
9.2608254333
 20
11.3590058249
 30
0.0
 10
9.2613838172
 20
11.3589105662
 30
0.0
  0
SPLINE
  5
422
100
AcDbEntity
  8
0
100
AcDbSpline
 62
7
  6
CONTINUOUS
 70
0
 71
3
 72
15
 73
11
 74
0
 42
0.0000001
 43
0.0000001
 44
0.0000000001
 40
0.0
 40
0.0
 40
0.0
 40
0.0
 40
0.4174235749
 40
0.5848284525
 40
0.7239669251
 40
0.8345234324
 40
0.9164155889
 40
0.9468017471
 40
0.9704239194
 40
1.0
 40
1.0
 40
1.0
 40
1.0
 10
9.2613838172
 20
11.3589105662
 30
0.0
 10
9.2617277152
 20
11.3588518982
 30
0.0
 10
9.2622103726
 20
11.3587741558
 30
0.0
 10
9.2628105236
 20
11.3586965837
 30
0.0
 10
9.2631573337
 20
11.3586613948
 30
0.0
 10
9.2634342857
 20
11.3586450529
 30
0.0
 10
9.2636202891
 20
11.3586457339
 30
0.0
 10
9.2637341545
 20
11.35865904
 30
0.0
 10
9.2638004386
 20
11.3586741033
 30
0.0
 10
9.2638466422
 20
11.358696194
 30
0.0
 10
9.2638567378
 20
11.3587187569
 30
0.0
  0
LINE
  5
423
100
AcDbEntity
  8
0
100
AcDbLine
 62
7
  6
CONTINUOUS
 10
8.1502254101
 20
11.7837752224
 11
8.1505158737
 21
11.7837046482
  0
SPLINE
  5
424
100
AcDbEntity
  8
0
100
AcDbSpline
 62
7
  6
CONTINUOUS
 70
0
 71
3
 72
16
 73
12
 74
0
 42
0.0000001
 43
0.0000001
 44
0.0000000001
 40
0.0
 40
0.0
 40
0.0
 40
0.0
 40
0.4102110006
 40
0.5741123724
 40
0.7099719606
 40
0.8179464404
 40
0.8990389853
 40
0.9304074607
 40
0.9566039036
 40
0.9790630867
 40
1.0
 40
1.0
 40
1.0
 40
1.0
 10
8.2049819993
 20
11.7592663909
 30
0.0
 10
8.2053919137
 20
11.7590829148
 30
0.0
 10
8.2059709004
 20
11.7588366805
 30
0.0
 10
8.2067039287
 20
11.7585775925
 30
0.0
 10
8.2071328511
 20
11.7584522599
 30
0.0
 10
8.2074815946
 20
11.7583809862
 30
0.0
 10
8.2077241533
 20
11.7583634303
 30
0.0
 10
8.2078752141
 20
11.7583837044
 30
0.0
 10
8.2079589457
 20
11.7584119708
 30
0.0
 10
8.2080228604
 20
11.7584557493
 30
0.0
 10
8.2080505928
 20
11.7584959004
 30
0.0
 10
8.2080599619
 20
11.7585168201
 30
0.0
  0
SPLINE
  5
425
100
AcDbEntity
  8
0
100
AcDbSpline
 62
7
  6
CONTINUOUS
 70
0
 71
3
 72
19
 73
15
 74
0
 42
0.0000001
 43
0.0000001
 44
0.0000000001
 40
0.0
 40
0.0
 40
0.0
 40
0.0
 40
0.2121433401
 40
0.4017187327
 40
0.5664973101
 40
0.7048772741
 40
0.7638263013
 40
0.8158684957
 40
0.8610331182
 40
0.8994840129
 40
0.9315698418
 40
0.9579868342
 40
0.9800526814
 40
1.0
 40
1.0
 40
1.0
 40
1.0
 10
8.3109971624
 20
11.7118144256
 30
0.0
 10
8.3115791991
 20
11.7115539082
 30
0.0
 10
8.3126875996
 20
11.7110743218
 30
0.0
 10
8.3142714517
 20
11.7104479464
 30
0.0
 10
8.3156701176
 20
11.7099594244
 30
0.0
 10
8.3167164183
 20
11.7096559647
 30
0.0
 10
8.3174483194
 20
11.7094929564
 30
0.0
 10
8.3179113727
 20
11.7094145267
 30
0.0
 10
8.3183174294
 20
11.7093731528
 30
0.0
 10
8.3186657957
 20
11.7093686591
 30
0.0
 10
8.3189564701
 20
11.7094009954
 30
0.0
 10
8.3191902652
 20
11.7094709861
 30
0.0
 10
8.3193676331
 20
11.7095819983
 30
0.0
 10
8.3194440241
 20
11.7096875266
 30
0.0
 10
8.3194685149
 20
11.7097422564
 30
0.0
  0
SPLINE
  5
426
100
AcDbEntity
  8
0
100
AcDbSpline
 62
7
  6
CONTINUOUS
 70
0
 71
3
 72
21
 73
17
 74
0
 42
0.0000001
 43
0.0000001
 44
0.0000000001
 40
0.0
 40
0.0
 40
0.0
 40
0.0
 40
0.2015541694
 40
0.3875580626
 40
0.5535788904
 40
0.6958714343
 40
0.7572105445
 40
0.8116479716
 40
0.8590320856
 40
0.8993299167
 40
0.9327016161
 40
0.9596369147
 40
0.9710336616
 40
0.9813283527
 40
0.990846854
 40
1.0
 40
1.0
 40
1.0
 40
1.0
 10
8.4541879356
 20
11.6477228051
 30
0.0
 10
8.4552121761
 20
11.6472643591
 30
0.0
 10
8.4571948263
 20
11.6464118521
 30
0.0
 10
8.460067006
 20
11.6452919148
 30
0.0
 10
8.4626707334
 20
11.6443979216
 30
0.0
 10
8.4646507611
 20
11.6438308187
 30
0.0
 10
8.4660529911
 20
11.6435157074
 30
0.0
 10
8.4669480234
 20
11.6433579675
 30
0.0
 10
8.4677345702
 20
11.6432668804
 30
0.0
 10
8.4684091698
 20
11.6432423729
 30
0.0
 10
8.4689689543
 20
11.6432838803
 30
0.0
 10
8.4693604347
 20
11.6433784313
 30
0.0
 10
8.4696060742
 20
11.6434945393
 30
0.0
 10
8.4697496112
 20
11.6435941848
 30
0.0
 10
8.4698621211
 20
11.6437113612
 30
0.0
 10
8.4699159199
 20
11.6438015935
 30
0.0
 10
8.4699367403
 20
11.6438481067
 30
0.0
  0
SPLINE
  5
427
100
AcDbEntity
  8
0
100
AcDbSpline
 62
7
  6
CONTINUOUS
 70
0
 71
3
 72
24
 73
20
 74
0
 42
0.0000001
 43
0.0000001
 44
0.0000000001
 40
0.0
 40
0.0
 40
0.0
 40
0.0
 40
0.1860496571
 40
0.3664372472
 40
0.4521865186
 40
0.5338097746
 40
0.6105156723
 40
0.6815829556
 40
0.746373115
 40
0.8043420795
 40
0.8550521432
 40
0.8981973926
 40
0.9336606279
 40
0.9485658241
 40
0.9616641962
 40
0.9730815509
 40
0.9830295752
 40
0.9918401075
 40
1.0
 40
1.0
 40
1.0
 40
1.0
 10
8.6155329787
 20
11.5755054056
 30
0.0
 10
8.616963032
 20
11.5748653195
 30
0.0
 10
8.6198035269
 20
11.5736573712
 30
0.0
 10
8.6233624783
 20
11.5722999539
 30
0.0
 10
8.6261306439
 20
11.5713433965
 30
0.0
 10
8.628088234
 20
11.5707161115
 30
0.0
 10
8.6299422277
 20
11.5701725747
 30
0.0
 10
8.6316737866
 20
11.5697176654
 30
0.0
 10
8.6332656471
 20
11.5693551378
 30
0.0
 10
8.6347022383
 20
11.5690877169
 30
0.0
 10
8.6359701006
 20
11.5689168559
 30
0.0
 10
8.6370574511
 20
11.5688433418
 30
0.0
 10
8.6378468896
 20
11.5688626972
 30
0.0
 10
8.6383768517
 20
11.5689364006
 30
0.0
 10
8.638700506
 20
11.5690130309
 30
0.0
 10
8.6389735121
 20
11.5691142248
 30
0.0
 10
8.6391956779
 20
11.5692406144
 30
0.0
 10
8.6393659783
 20
11.5693933948
 30
0.0
 10
8.6394442592
 20
11.5695156613
 30
0.0
 10
8.6394723335
 20
11.5695783811
 30
0.0
  0
SPLINE
  5
428
100
AcDbEntity
  8
0
100
AcDbSpline
 62
7
  6
CONTINUOUS
 70
0
 71
3
 72
25
 73
21
 74
0
 42
0.0000001
 43
0.0000001
 44
0.0000000001
 40
0.0
 40
0.0
 40
0.0
 40
0.0
 40
0.1645516996
 40
0.3364152794
 40
0.4217378557
 40
0.5048986967
 40
0.5846516827
 40
0.6598291272
 40
0.729359426
 40
0.7922790328
 40
0.8477501854
 40
0.8950816295
 40
0.9155333743
 40
0.9337807784
 40
0.9498090588
 40
0.9636318228
 40
0.9753175742
 40
0.9850205488
 40
0.9930540615
 40
1.0
 40
1.0
 40
1.0
 40
1.0
 10
8.7735993538
 20
11.5047555249
 30
0.0
 10
8.7752775508
 20
11.5040043707
 30
0.0
 10
8.7787487013
 20
11.5025577578
 30
0.0
 10
8.7831718752
 20
11.5009286421
 30
0.0
 10
8.7867792107
 20
11.4997240753
 30
0.0
 10
8.7894281882
 20
11.4989009604
 30
0.0
 10
8.7919857223
 20
11.4981677266
 30
0.0
 10
8.7944127912
 20
11.4975345301
 30
0.0
 10
8.7966729433
 20
11.4970098161
 30
0.0
 10
8.7987328191
 20
11.4966001606
 30
0.0
 10
8.8005622651
 20
11.4963106344
 30
0.0
 10
8.8019327622
 20
11.4961647871
 30
0.0
 10
8.8028931726
 20
11.4961182599
 30
0.0
 10
8.8035049448
 20
11.4961170297
 30
0.0
 10
8.8040419131
 20
11.4961473956
 30
0.0
 10
8.8045024882
 20
11.4962093231
 30
0.0
 10
8.8048857347
 20
11.4963025659
 30
0.0
 10
8.8051915724
 20
11.496427842
 30
0.0
 10
8.8054203857
 20
11.496587354
 30
0.0
 10
8.8055218189
 20
11.4967261557
 30
0.0
 10
8.805553522
 20
11.4967969964
 30
0.0
  0
SPLINE
  5
429
100
AcDbEntity
  8
0
100
AcDbSpline
 62
7
  6
CONTINUOUS
 70
0
 71
3
 72
28
 73
24
 74
0
 42
0.0000001
 43
0.0000001
 44
0.0000000001
 40
0.0
 40
0.0
 40
0.0
 40
0.0
 40
0.064040557
 40
0.1356149076
 40
0.2131299274
 40
0.2948526376
 40
0.4636643774
 40
0.6276069172
 40
0.7034657224
 40
0.7731595317
 40
0.8352891681
 40
0.86312622
 40
0.8886237064
 40
0.9116611278
 40
0.9321309316
 40
0.9499501977
 40
0.9650597816
 40
0.9774465095
 40
0.9871685277
 40
0.9910977117
 40
0.9944723652
 40
0.9973889026
 40
1.0
 40
1.0
 40
1.0
 40
1.0
 10
8.9073896586
 20
11.4448715168
 30
0.0
 10
8.9081761466
 20
11.4445194878
 30
0.0
 10
8.9098568443
 20
11.4438078595
 30
0.0
 10
8.9125294021
 20
11.4427672908
 30
0.0
 10
8.9154500554
 20
11.441710702
 30
0.0
 10
8.9196316463
 20
11.4402966127
 30
0.0
 10
8.9249645327
 20
11.4386608237
 30
0.0
 10
8.9302742965
 20
11.4372295925
 30
0.0
 10
8.9343259819
 20
11.4362663858
 30
0.0
 10
8.9370587455
 20
11.4356814941
 30
0.0
 10
8.9391711671
 20
11.4352885369
 30
0.0
 10
8.9407058752
 20
11.4350464569
 30
0.0
 10
8.9417241781
 20
11.4349078614
 30
0.0
 10
8.9426471704
 20
11.4348060631
 30
0.0
 10
8.943469997
 20
11.4347416404
 30
0.0
 10
8.9441882066
 20
11.4347148115
 30
0.0
 10
8.9447983651
 20
11.4347255532
 30
0.0
 10
8.9452972695
 20
11.4347736476
 30
0.0
 10
8.9456414607
 20
11.4348484857
 30
0.0
 10
8.9458547513
 20
11.4349336221
 30
0.0
 10
8.9459742882
 20
11.4350029337
 30
0.0
 10
8.9460648494
 20
11.4350828226
 30
0.0
 10
8.9461064077
 20
11.4351460018
 30
0.0
 10
8.9461207631
 20
11.4351780679
 30
0.0
  0
SPLINE
  5
42A
100
AcDbEntity
  8
0
100
AcDbSpline
 62
7
  6
CONTINUOUS
 70
0
 71
3
 72
20
 73
16
 74
0
 42
0.0000001
 43
0.0000001
 44
0.0000000001
 40
0.0
 40
0.0
 40
0.0
 40
0.0
 40
0.0353553055
 40
0.0794769881
 40
0.1315597337
 40
0.1906352344
 40
0.2556024042
 40
0.3252665527
 40
0.4736041424
 40
0.6252536097
 40
0.7698762918
 40
0.8364657188
 40
0.8977044093
 40
0.9525354246
 40
1.0
 40
1.0
 40
1.0
 40
1.0
 10
8.9991313029
 20
11.4038083217
 30
0.0
 10
8.9995686261
 20
11.4036125776
 30
0.0
 10
9.0005659479
 20
11.4032045809
 30
0.0
 10
9.0022380965
 20
11.402585646
 30
0.0
 10
9.004228616
 20
11.401902405
 30
0.0
 10
9.0064996157
 20
11.4011675905
 30
0.0
 10
9.0090084272
 20
11.400394674
 30
0.0
 10
9.012686284
 20
11.3993087033
 30
0.0
 10
9.0175121769
 20
11.3979637577
 30
0.0
 10
9.0233427741
 20
11.3964434602
 30
0.0
 10
9.0281212736
 20
11.3952813825
 30
0.0
 10
9.0317217117
 20
11.3944629427
 30
0.0
 10
9.0341417513
 20
11.3939421043
 30
0.0
 10
9.0363147515
 20
11.3935062772
 30
0.0
 10
9.0376788325
 20
11.3932582948
 30
0.0
 10
9.0383132396
 20
11.3931520884
 30
0.0
  0
SPLINE
  5
42B
100
AcDbEntity
  8
0
100
AcDbSpline
 62
7
  6
CONTINUOUS
 70
0
 71
3
 72
16
 73
12
 74
0
 42
0.0000001
 43
0.0000001
 44
0.0000000001
 40
0.0
 40
0.0
 40
0.0
 40
0.0
 40
0.4102208392
 40
0.5764251779
 40
0.7155082905
 40
0.8268517425
 40
0.8720611433
 40
0.9103239071
 40
0.9417654199
 40
0.9666920813
 40
1.0
 40
1.0
 40
1.0
 40
1.0
 10
9.0383132396
 20
11.3931520884
 30
0.0
 10
9.0388875802
 20
11.3930559377
 30
0.0
 10
9.0396964133
 20
11.3929302137
 30
0.0
 10
9.0407053072
 20
11.3928116493
 30
0.0
 10
9.0412948021
 20
11.3927622268
 30
0.0
 10
9.0417144723
 20
11.392747015
 30
0.0
 10
9.0419911432
 20
11.3927549441
 30
0.0
 10
9.0421535148
 20
11.3927686941
 30
0.0
 10
9.0422870022
 20
11.3927913007
 30
0.0
 10
9.042407048
 20
11.392826143
 30
0.0
 10
9.0424866447
 20
11.3928741596
 30
0.0
 10
9.0425059439
 20
11.3929173242
 30
0.0
  0
SPLINE
  5
42C
100
AcDbEntity
  8
0
100
AcDbSpline
 62
7
  6
CONTINUOUS
 70
0
 71
3
 72
49
 73
45
 74
0
 42
0.0000001
 43
0.0000001
 44
0.0000000001
 40
0.0
 40
0.0
 40
0.0
 40
0.0
 40
0.0017704956
 40
0.0047176746
 40
0.0088364972
 40
0.014118102
 40
0.0205475619
 40
0.0281086792
 40
0.0465459864
 40
0.0692375501
 40
0.0959490425
 40
0.1264099453
 40
0.1603159795
 40
0.1973337477
 40
0.2371068869
 40
0.3233976288
 40
0.4160027321
 40
0.5115817065
 40
0.6067242401
 40
0.6530672216
 40
0.6980311371
 40
0.7412069873
 40
0.7821969218
 40
0.8206170356
 40
0.8561038766
 40
0.8883155482
 40
0.9169355378
 40
0.9298092179
 40
0.9416804026
 40
0.9525198549
 40
0.9623002309
 40
0.9709949952
 40
0.9785827653
 40
0.985044263
 40
0.9903612673
 40
0.9925865392
 40
0.9945212513
 40
0.99616415
 40
0.9975140605
 40
0.9985701048
 40
0.9993326139
 40
0.9998036758
 40
0.9999329059
 40
1.0
 40
1.0
 40
1.0
 40
1.0
 10
9.0366374051
 20
11.3870207396
 30
0.0
 10
9.0366625531
 20
11.3870094834
 30
0.0
 10
9.0367320381
 20
11.3869853549
 30
0.0
 10
9.0368629872
 20
11.3869436054
 30
0.0
 10
9.0370473066
 20
11.3868891447
 30
0.0
 10
9.0372842053
 20
11.3868216341
 30
0.0
 10
9.0375732334
 20
11.3867415445
 30
0.0
 10
9.0380601987
 20
11.3866091628
 30
0.0
 10
9.0387924938
 20
11.3864145431
 30
0.0
 10
9.039813914
 20
11.3861476007
 30
0.0
 10
9.0410172486
 20
11.3858367471
 30
0.0
 10
9.0423902385
 20
11.3854849053
 30
0.0
 10
9.0439191339
 20
11.3850953652
 30
0.0
 10
9.0455888793
 20
11.3846716987
 30
0.0
 10
9.0480492373
 20
11.3840492998
 30
0.0
 10
9.0513488536
 20
11.3832172497
 30
0.0
 10
9.0554910209
 20
11.3821747068
 30
0.0
 10
9.0597669887
 20
11.3810994001
 30
0.0
 10
9.0633448844
 20
11.380200134
 30
0.0
 10
9.0661590012
 20
11.3794933807
 30
0.0
 10
9.0681888693
 20
11.3789839877
 30
0.0
 10
9.0701380723
 20
11.3784954024
 30
0.0
 10
9.0719886787
 20
11.3780323011
 30
0.0
 10
9.0737234481
 20
11.3775992048
 30
0.0
 10
9.0753259856
 20
11.3772004275
 30
0.0
 10
9.0767809122
 20
11.3768400252
 30
0.0
 10
9.0778946646
 20
11.3765658788
 30
0.0
 10
9.0787013799
 20
11.3763687167
 30
0.0
 10
9.0792394789
 20
11.3762379511
 30
0.0
 10
9.0797309912
 20
11.3761193358
 30
0.0
 10
9.0801746629
 20
11.3760131945
 30
0.0
 10
9.0805693583
 20
11.3759198237
 30
0.0
 10
9.0809140584
 20
11.3758394723
 30
0.0
 10
9.0812078686
 20
11.3757723605
 30
0.0
 10
9.0814206221
 20
11.3757251573
 30
0.0
 10
9.0815648487
 20
11.3756943372
 30
0.0
 10
9.0816532767
 20
11.375676046
 30
0.0
 10
9.0817285174
 20
11.3756611702
 30
0.0
 10
9.0817904384
 20
11.3756497214
 30
0.0
 10
9.0818391902
 20
11.3756416565
 30
0.0
 10
9.0818742838
 20
11.3756369769
 30
0.0
 10
9.0818958732
 20
11.3756353999
 30
0.0
 10
9.0819058616
 20
11.3756361543
 30
0.0
 10
9.0819091454
 20
11.3756374176
 30
0.0
 10
9.0819095769
 20
11.3756383684
 30
0.0
  0
SPLINE
  5
42D
100
AcDbEntity
  8
0
100
AcDbSpline
 62
7
  6
CONTINUOUS
 70
0
 71
3
 72
18
 73
14
 74
0
 42
0.0000001
 43
0.0000001
 44
0.0000000001
 40
0.0
 40
0.0
 40
0.0
 40
0.0
 40
0.020525931
 40
0.0442658937
 40
0.0727448797
 40
0.1068122517
 40
0.1469274229
 40
0.1933304213
 40
0.3052884889
 40
0.4427631376
 40
0.6051010718
 40
0.7912803176
 40
1.0
 40
1.0
 40
1.0
 40
1.0
 10
8.1395417928
 20
11.8608382186
 30
0.0
 10
8.1395238662
 20
11.8607981647
 30
0.0
 10
8.1395024145
 20
11.8607037019
 30
0.0
 10
8.1395154616
 20
11.8605472034
 30
0.0
 10
8.1395684995
 20
11.8603695895
 30
0.0
 10
8.1396608656
 20
11.8601699354
 30
0.0
 10
8.1397923564
 20
11.85994782
 30
0.0
 10
8.1400355024
 20
11.8595997154
 30
0.0
 10
8.1404424731
 20
11.8591142463
 30
0.0
 10
8.1410530722
 20
11.8584796322
 30
0.0
 10
8.1418092502
 20
11.8577665873
 30
0.0
 10
8.1427049799
 20
11.8569808849
 30
0.0
 10
8.1433551979
 20
11.856442211
 30
0.0
 10
8.1437018967
 20
11.8561612928
 30
0.0
  0
SPLINE
  5
42E
100
AcDbEntity
  8
0
100
AcDbSpline
 62
7
  6
CONTINUOUS
 70
0
 71
3
 72
15
 73
11
 74
0
 42
0.0000001
 43
0.0000001
 44
0.0000000001
 40
0.0
 40
0.0
 40
0.0
 40
0.0
 40
0.1035679014
 40
0.2235316128
 40
0.3552589143
 40
0.4935728499
 40
0.6329051034
 40
0.7674892002
 40
0.8916207606
 40
1.0
 40
1.0
 40
1.0
 40
1.0
 10
8.1437018967
 20
11.8561612928
 30
0.0
 10
8.1446114148
 20
11.855424341
 30
0.0
 10
8.1466182847
 20
11.8538878861
 30
0.0
 10
8.1498906332
 20
11.8515599092
 30
0.0
 10
8.1535544748
 20
11.8491077749
 30
0.0
 10
8.1574640991
 20
11.8466321215
 30
0.0
 10
8.161461076
 20
11.8442366674
 30
0.0
 10
8.1653789905
 20
11.8420237908
 30
0.0
 10
8.1690506261
 20
11.84008995
 30
0.0
 10
8.1714194865
 20
11.8389495726
 30
0.0
 10
8.1725375838
 20
11.8384491167
 30
0.0
  0
SPLINE
  5
42F
100
AcDbEntity
  8
0
100
AcDbSpline
 62
7
  6
CONTINUOUS
 70
0
 71
3
 72
17
 73
13
 74
0
 42
0.0000001
 43
0.0000001
 44
0.0000000001
 40
0.0
 40
0.0
 40
0.0
 40
0.0
 40
0.0374160798
 40
0.0637081256
 40
0.0961457047
 40
0.135097674
 40
0.1807426528
 40
0.2922747644
 40
0.4306959315
 40
0.5954086031
 40
0.7855456414
 40
1.0
 40
1.0
 40
1.0
 40
1.0
 10
8.0370294902
 20
11.90741072
 30
0.0
 10
8.037004958
 20
11.9073559392
 30
0.0
 10
8.0370156163
 20
11.9072440109
 30
0.0
 10
8.0370719688
 20
11.9071022452
 30
0.0
 10
8.0371478686
 20
11.9069640623
 30
0.0
 10
8.0372529757
 20
11.9068085516
 30
0.0
 10
8.0374455054
 20
11.9065593911
 30
0.0
 10
8.037762804
 20
11.9062063541
 30
0.0
 10
8.0382343744
 20
11.9057369289
 30
0.0
 10
8.0388166927
 20
11.9052009009
 30
0.0
 10
8.0395060022
 20
11.9046016657
 30
0.0
 10
8.0400050924
 20
11.9041866537
 30
0.0
 10
8.0402714346
 20
11.9039688985
 30
0.0
  0
SPLINE
  5
430
100
AcDbEntity
  8
0
100
AcDbSpline
 62
7
  6
CONTINUOUS
 70
0
 71
3
 72
18
 73
14
 74
0
 42
0.0000001
 43
0.0000001
 44
0.0000000001
 40
0.0
 40
0.0
 40
0.0
 40
0.0
 40
0.0478755921
 40
0.102234706
 40
0.227085411
 40
0.3672243991
 40
0.5144366518
 40
0.659960736
 40
0.7948868542
 40
0.8556834922
 40
0.910703893
 40
0.959066712
 40
1.0
 40
1.0
 40
1.0
 40
1.0
 10
8.0402714346
 20
11.9039688985
 30
0.0
 10
8.0407538296
 20
11.9035745039
 30
0.0
 10
8.0417964384
 20
11.902747561
 30
0.0
 10
8.0441494334
 20
11.9009589262
 30
0.0
 10
8.0475209775
 20
11.8985272885
 30
0.0
 10
8.0519442178
 20
11.8954909023
 30
0.0
 10
8.0566536828
 20
11.8923980277
 30
0.0
 10
8.0613674157
 20
11.8894374162
 30
0.0
 10
8.0651812401
 20
11.8871603242
 30
0.0
 10
8.0680207166
 20
11.885551578
 30
0.0
 10
8.069898646
 20
11.884531802
 30
0.0
 10
8.0715692196
 20
11.8836729163
 30
0.0
 10
8.0726185155
 20
11.8831724942
 30
0.0
 10
8.0731047735
 20
11.8829548471
 30
0.0
  0
SPLINE
  5
431
100
AcDbEntity
  8
0
100
AcDbSpline
 62
7
  6
CONTINUOUS
 70
0
 71
3
 72
24
 73
20
 74
0
 42
0.0000001
 43
0.0000001
 44
0.0000000001
 40
0.0
 40
0.0
 40
0.0
 40
0.0
 40
0.0084820507
 40
0.0175157305
 40
0.0275629375
 40
0.0389555056
 40
0.0519127256
 40
0.0665761385
 40
0.1013052003
 40
0.1434681981
 40
0.1930382757
 40
0.249805585
 40
0.3134299325
 40
0.3834649247
 40
0.4593799097
 40
0.5405680682
 40
0.6263526409
 40
0.8086954706
 40
1.0
 40
1.0
 40
1.0
 40
1.0
 10
8.5973032316
 20
11.5879621875
 30
0.0
 10
8.5972770677
 20
11.5879037143
 30
0.0
 10
8.5972395153
 20
11.5877749643
 30
0.0
 10
8.5972334633
 20
11.5875650948
 30
0.0
 10
8.5972751599
 20
11.5873373939
 30
0.0
 10
8.5973632907
 20
11.5870920987
 30
0.0
 10
8.597497182
 20
11.5868289611
 30
0.0
 10
8.5977512473
 20
11.5864318077
 30
0.0
 10
8.5981919887
 20
11.58589626
 30
0.0
 10
8.5988685942
 20
11.58522101
 30
0.0
 10
8.5997168356
 20
11.5844861435
 30
0.0
 10
8.6007305679
 20
11.5836980154
 30
0.0
 10
8.6019023381
 20
11.5828635596
 30
0.0
 10
8.6032227378
 20
11.581990297
 30
0.0
 10
8.6046808541
 20
11.5810862234
 30
0.0
 10
8.6062642531
 20
11.5801596834
 30
0.0
 10
8.6085713504
 20
11.5788797407
 30
0.0
 10
8.611658295
 20
11.5772932438
 30
0.0
 10
8.6142142439
 20
11.5760956661
 30
0.0
 10
8.6155329787
 20
11.5755054056
 30
0.0
  0
LINE
  5
432
100
AcDbEntity
  8
0
100
AcDbLine
 62
7
  6
CONTINUOUS
 10
8.2900031072
 20
11.6602210439
 11
8.2905006998
 21
11.6601024992
  0
SPLINE
  5
433
100
AcDbEntity
  8
0
100
AcDbSpline
 62
7
  6
CONTINUOUS
 70
0
 71
3
 72
37
 73
33
 74
0
 42
0.0000001
 43
0.0000001
 44
0.0000000001
 40
0.0
 40
0.0
 40
0.0
 40
0.0
 40
0.0003731629
 40
0.0008708906
 40
0.0015024587
 40
0.0022722712
 40
0.0042348116
 40
0.0067685495
 40
0.009876672
 40
0.0135599145
 40
0.0178179665
 40
0.0226493973
 40
0.0280521812
 40
0.0340240104
 40
0.0476621658
 40
0.0635356744
 40
0.0816099661
 40
0.1018449039
 40
0.1241950119
 40
0.1486092874
 40
0.1750316078
 40
0.2034009918
 40
0.2336514257
 40
0.2995078506
 40
0.3719814574
 40
0.4503849484
 40
0.5339695563
 40
0.6219318742
 40
0.713420986
 40
0.8075467013
 40
0.9033868147
 40
1.0
 40
1.0
 40
1.0
 40
1.0
 10
13.0075794953
 20
7.5624878784
 30
0.0
 10
13.0075836955
 20
7.562535925
 30
0.0
 10
13.0076131009
 20
7.5626459332
 30
0.0
 10
13.0076923953
 20
7.5628233721
 30
0.0
 10
13.0078138623
 20
7.5630370623
 30
0.0
 10
13.0080527123
 20
7.5634005277
 30
0.0
 10
13.0084656345
 20
7.5639424155
 30
0.0
 10
13.0090974349
 20
7.5646954106
 30
0.0
 10
13.0099010251
 20
7.5655938887
 30
0.0
 10
13.0108760157
 20
7.5666374526
 30
0.0
 10
13.0120223318
 20
7.5678254666
 30
0.0
 10
13.0133394026
 20
7.5691573227
 30
0.0
 10
13.0148265656
 20
7.5706323395
 30
0.0
 10
13.0171396905
 20
7.5728907981
 30
0.0
 10
13.020452843
 20
7.5760619691
 30
0.0
 10
13.0249336983
 20
7.5802748946
 30
0.0
 10
13.0300678826
 20
7.5850374018
 30
0.0
 10
13.03584338
 20
7.5903392302
 30
0.0
 10
13.042246665
 20
7.596168769
 30
0.0
 10
13.0492625845
 20
7.6025131882
 30
0.0
 10
13.0568744699
 20
7.6093583992
 30
0.0
 10
13.065064156
 20
7.6166891111
 30
0.0
 10
13.077072341
 20
7.6273956396
 30
0.0
 10
13.0933719788
 20
7.6418544198
 30
0.0
 10
13.1143722257
 20
7.6603925099
 30
0.0
 10
13.1371268475
 20
7.6804053993
 30
0.0
 10
13.1614141038
 20
7.7017068161
 30
0.0
 10
13.1869960998
 20
7.7240969016
 30
0.0
 10
13.2136209041
 20
7.7473641184
 30
0.0
 10
13.2410248261
 20
7.7712870789
 30
0.0
 10
13.2689352129
 20
7.795636911
 30
0.0
 10
13.2876804477
 20
7.8119869594
 30
0.0
 10
13.297090415
 20
7.8201951653
 30
0.0
  0
SPLINE
  5
434
100
AcDbEntity
  8
0
100
AcDbSpline
 62
7
  6
CONTINUOUS
 70
0
 71
3
 72
19
 73
15
 74
0
 42
0.0000001
 43
0.0000001
 44
0.0000000001
 40
0.0
 40
0.0
 40
0.0
 40
0.0
 40
0.2144605628
 40
0.4046142081
 40
0.5688096979
 40
0.7060144083
 40
0.7643227981
 40
0.8157488528
 40
0.8603930253
 40
0.8984635914
 40
0.9303697768
 40
0.9568798423
 40
0.9793544207
 40
1.0
 40
1.0
 40
1.0
 40
1.0
 10
8.3635870197
 20
11.6272851774
 30
0.0
 10
8.3640309885
 20
11.6270864587
 30
0.0
 10
8.364873274
 20
11.6267218055
 30
0.0
 10
8.3660732092
 20
11.6262471578
 30
0.0
 10
8.3671263073
 20
11.6258801654
 30
0.0
 10
8.3679111644
 20
11.6256546257
 30
0.0
 10
8.3684586392
 20
11.6255355195
 30
0.0
 10
8.3688044935
 20
11.6254795443
 30
0.0
 10
8.369107775
 20
11.625451738
 30
0.0
 10
8.3693682444
 20
11.6254520262
 30
0.0
 10
8.3695860588
 20
11.6254804712
 30
0.0
 10
8.3697619392
 20
11.6255377132
 30
0.0
 10
8.369895775
 20
11.6256264535
 30
0.0
 10
8.369953689
 20
11.6257087204
 30
0.0
 10
8.3699728191
 20
11.6257514602
 30
0.0
  0
SPLINE
  5
435
100
AcDbEntity
  8
0
100
AcDbSpline
 62
7
  6
CONTINUOUS
 70
0
 71
3
 72
18
 73
14
 74
0
 42
0.0000001
 43
0.0000001
 44
0.0000000001
 40
0.0
 40
0.0
 40
0.0
 40
0.0
 40
0.0104133425
 40
0.0262896616
 40
0.0489786431
 40
0.0788928829
 40
0.1161815387
 40
0.1608780165
 40
0.2723555329
 40
0.4128799181
 40
0.5816650806
 40
0.7777594826
 40
1.0
 40
1.0
 40
1.0
 40
1.0
 10
7.9725869074
 20
11.9366859963
 30
0.0
 10
7.9725809148
 20
11.9366726126
 30
0.0
 10
7.9725833568
 20
11.9366327072
 30
0.0
 10
7.9726135476
 20
11.9365707782
 30
0.0
 10
7.9726680367
 20
11.9364907214
 30
0.0
 10
7.9727492429
 20
11.9363935594
 30
0.0
 10
7.9728569271
 20
11.9362784157
 30
0.0
 10
7.9730509185
 20
11.9360870772
 30
0.0
 10
7.9733611205
 20
11.9358069395
 30
0.0
 10
7.973813277
 20
11.9354239027
 30
0.0
 10
7.974366278
 20
11.9349758082
 30
0.0
 10
7.9750167231
 20
11.9344653935
 30
0.0
 10
7.9754844713
 20
11.9341072531
 30
0.0
 10
7.9757338
 20
11.9339181015
 30
0.0
  0
SPLINE
  5
436
100
AcDbEntity
  8
0
100
AcDbSpline
 62
7
  6
CONTINUOUS
 70
0
 71
3
 72
18
 73
14
 74
0
 42
0.0000001
 43
0.0000001
 44
0.0000000001
 40
0.0
 40
0.0
 40
0.0
 40
0.0
 40
0.047790868
 40
0.1030152437
 40
0.2316767041
 40
0.3769819773
 40
0.5289792496
 40
0.6772556299
 40
0.8114293862
 40
0.870140061
 40
0.9217678693
 40
0.9653305514
 40
1.0
 40
1.0
 40
1.0
 40
1.0
 10
7.9757338
 20
11.9339181015
 30
0.0
 10
7.9762506597
 20
11.9335259892
 30
0.0
 10
7.977372371
 20
11.9326907878
 30
0.0
 10
7.9799167358
 20
11.9308420896
 30
0.0
 10
7.9835678396
 20
11.928265013
 30
0.0
 10
7.9883315042
 20
11.9249869336
 30
0.0
 10
7.9933497287
 20
11.921609588
 30
0.0
 10
7.9982765321
 20
11.9183676541
 30
0.0
 10
8.0021759753
 20
11.9158686555
 30
0.0
 10
8.0049945698
 20
11.9141155439
 30
0.0
 10
8.0067810108
 20
11.9130321336
 30
0.0
 10
8.0083021724
 20
11.9121411119
 30
0.0
 10
8.0092302658
 20
11.9116244441
 30
0.0
 10
8.0096463583
 20
11.9114045132
 30
0.0
  0
LINE
  5
437
100
AcDbEntity
  8
0
100
AcDbLine
 62
7
  6
CONTINUOUS
 10
8.0096463583
 20
11.9114045132
 11
8.0105986959
 21
11.9109323188
  0
SPLINE
  5
438
100
AcDbEntity
  8
0
100
AcDbSpline
 62
7
  6
CONTINUOUS
 70
0
 71
3
 72
22
 73
18
 74
0
 42
0.0000001
 43
0.0000001
 44
0.0000000001
 40
0.0
 40
0.0
 40
0.0
 40
0.0
 40
0.1990082255
 40
0.3840560553
 40
0.5502325722
 40
0.6249066943
 40
0.6933644898
 40
0.7552371792
 40
0.8102341541
 40
0.8581546669
 40
0.8989302247
 40
0.9326745249
 40
0.9598283275
 40
0.9712603424
 40
0.9815345514
 40
0.9909743348
 40
1.0
 40
1.0
 40
1.0
 40
1.0
 10
8.4993258856
 20
11.566529001
 30
0.0
 10
8.5004306715
 20
11.5660345032
 30
0.0
 10
8.5025779787
 20
11.5651136153
 30
0.0
 10
8.5056995809
 20
11.5639052254
 30
0.0
 10
8.5081532827
 20
11.5630713693
 30
0.0
 10
8.5099582233
 20
11.5625400569
 30
0.0
 10
8.5111650401
 20
11.5622255719
 30
0.0
 10
8.5122659288
 20
11.5619820415
 30
0.0
 10
8.5132538629
 20
11.5618103936
 30
0.0
 10
8.5141227432
 20
11.5617109958
 30
0.0
 10
8.5148680823
 20
11.5616835443
 30
0.0
 10
8.515486163
 20
11.5617274215
 30
0.0
 10
8.5159181724
 20
11.5618285186
 30
0.0
 10
8.5161890136
 20
11.5619533224
 30
0.0
 10
8.5163466617
 20
11.5620602641
 30
0.0
 10
8.5164697639
 20
11.56218621
 30
0.0
 10
8.5165282861
 20
11.5622835304
 30
0.0
 10
8.516550714
 20
11.5623336357
 30
0.0
  0
SPLINE
  5
439
100
AcDbEntity
  8
0
100
AcDbSpline
 62
7
  6
CONTINUOUS
 70
0
 71
3
 72
25
 73
21
 74
0
 42
0.0000001
 43
0.0000001
 44
0.0000000001
 40
0.0
 40
0.0
 40
0.0
 40
0.0
 40
0.1715739775
 40
0.346311141
 40
0.431822578
 40
0.5145261196
 40
0.5933217105
 40
0.6671867905
 40
0.73519177
 40
0.7965101651
 40
0.8504335864
 40
0.8963941218
 40
0.9162632449
 40
0.9340190471
 40
0.9496578499
 40
0.9632137117
 40
0.9747704689
 40
0.9845001645
 40
0.9927260196
 40
1.0
 40
1.0
 40
1.0
 40
1.0
 10
8.6559681467
 20
11.4964165481
 30
0.0
 10
8.6575966621
 20
11.495687631
 30
0.0
 10
8.6609193009
 20
11.4942950578
 30
0.0
 10
8.6651306853
 20
11.4927326828
 30
0.0
 10
8.6685120573
 20
11.4915982141
 30
0.0
 10
8.6709647747
 20
11.4908344154
 30
0.0
 10
8.6733180991
 20
11.4901609419
 30
0.0
 10
8.6755398495
 20
11.4895857827
 30
0.0
 10
8.6776001365
 20
11.4891154394
 30
0.0
 10
8.6794717788
 20
11.48875479
 30
0.0
 10
8.681130319
 20
11.4885075024
 30
0.0
 10
8.6823713342
 20
11.4883916381
 30
0.0
 10
8.6832404024
 20
11.4883647264
 30
0.0
 10
8.6837944796
 20
11.4883751305
 30
0.0
 10
8.6842815024
 20
11.4884149291
 30
0.0
 10
8.6847002439
 20
11.4884839562
 30
0.0
 10
8.6850500361
 20
11.48858216
 30
0.0
 10
8.685330755
 20
11.4887103404
 30
0.0
 10
8.6855422343
 20
11.4888703853
 30
0.0
 10
8.6856367037
 20
11.4890055692
 30
0.0
 10
8.6856676001
 20
11.489074614
 30
0.0
  0
SPLINE
  5
43A
100
AcDbEntity
  8
0
100
AcDbSpline
 62
7
  6
CONTINUOUS
 70
0
 71
3
 72
29
 73
25
 74
0
 42
0.0000001
 43
0.0000001
 44
0.0000000001
 40
0.0
 40
0.0
 40
0.0
 40
0.0
 40
0.0595471054
 40
0.1277401381
 40
0.2029488566
 40
0.2833617678
 40
0.4520987974
 40
0.5365278532
 40
0.6184525346
 40
0.6960625414
 40
0.7676586248
 40
0.8316786219
 40
0.8604051158
 40
0.8867309676
 40
0.910512782
 40
0.9316279173
 40
0.9499704243
 40
0.9654645591
 40
0.978069991
 40
0.9878191865
 40
0.9916758768
 40
0.9949158176
 40
0.9976352459
 40
1.0
 40
1.0
 40
1.0
 40
1.0
 10
8.7859096234
 20
11.43825526
 30
0.0
 10
8.786663868
 20
11.4379176631
 30
0.0
 10
8.788299137
 20
11.4372319705
 30
0.0
 10
8.7909300326
 20
11.4362259591
 30
0.0
 10
8.7938584507
 20
11.4351900678
 30
0.0
 10
8.7981329598
 20
11.4337788374
 30
0.0
 10
8.8025681932
 20
11.432449152
 30
0.0
 10
8.8070531529
 20
11.4312202706
 30
0.0
 10
8.810332748
 20
11.430379218
 30
0.0
 10
8.8134531705
 20
11.4296362857
 30
0.0
 10
8.8163447236
 20
11.4290072065
 30
0.0
 10
8.8185841949
 20
11.4285742308
 30
0.0
 10
8.8202135979
 20
11.4282990818
 30
0.0
 10
8.821295548
 20
11.4281366336
 30
0.0
 10
8.8222760625
 20
11.428011469
 30
0.0
 10
8.8231494683
 20
11.4279242994
 30
0.0
 10
8.8239106702
 20
11.4278757204
 30
0.0
 10
8.8245555396
 20
11.4278656728
 30
0.0
 10
8.8250803035
 20
11.4278943732
 30
0.0
 10
8.8254410551
 20
11.4279528048
 30
0.0
 10
8.8256636097
 20
11.4280261035
 30
0.0
 10
8.8257861581
 20
11.4280870549
 30
0.0
 10
8.8258779404
 20
11.4281589428
 30
0.0
 10
8.8259192518
 20
11.4282180335
 30
0.0
 10
8.8259326515
 20
11.4282479895
 30
0.0
  0
LINE
  5
43B
100
AcDbEntity
  8
0
100
AcDbLine
 62
7
  6
CONTINUOUS
 10
8.8496606063
 20
11.4097205737
 11
8.8513696762
 21
11.409144459
  0
SPLINE
  5
43C
100
AcDbEntity
  8
0
100
AcDbSpline
 62
7
  6
CONTINUOUS
 70
0
 71
3
 72
18
 73
14
 74
0
 42
0.0000001
 43
0.0000001
 44
0.0000000001
 40
0.0
 40
0.0
 40
0.0
 40
0.0
 40
0.0372308324
 40
0.0839629245
 40
0.1391674969
 40
0.2016554555
 40
0.3431378578
 40
0.4969934225
 40
0.6511811359
 40
0.7937012621
 40
0.9132508878
 40
0.961258077
 40
1.0
 40
1.0
 40
1.0
 40
1.0
 10
8.8513696762
 20
11.409144459
 30
0.0
 10
8.8518738443
 20
11.4089922939
 30
0.0
 10
8.8530147563
 20
11.4086621458
 30
0.0
 10
8.8549116683
 20
11.4081359659
 30
0.0
 10
8.8571573693
 20
11.4075308187
 30
0.0
 10
8.8607019356
 20
11.406594921
 30
0.0
 10
8.8656027849
 20
11.4053298914
 30
0.0
 10
8.8717660282
 20
11.4037660419
 30
0.0
 10
8.8779486307
 20
11.4022189046
 30
0.0
 10
8.8836657893
 20
11.400810969
 30
0.0
 10
8.8879302458
 20
11.3997851151
 30
0.0
 10
8.8907733689
 20
11.3991278315
 30
0.0
 10
8.8919713214
 20
11.3988619387
 30
0.0
 10
8.8925073196
 20
11.3987478544
 30
0.0
  0
LINE
  5
43D
100
AcDbEntity
  8
0
100
AcDbLine
 62
7
  6
CONTINUOUS
 10
8.8925073196
 20
11.3987478544
 11
8.8947409624
 21
11.3983887808
  0
SPLINE
  5
43E
100
AcDbEntity
  8
0
100
AcDbSpline
 62
7
  6
CONTINUOUS
 70
0
 71
3
 72
25
 73
21
 74
0
 42
0.0000001
 43
0.0000001
 44
0.0000000001
 40
0.0
 40
0.0
 40
0.0
 40
0.0
 40
0.0073372687
 40
0.0156091148
 40
0.0253665857
 40
0.0369359153
 40
0.0504912578
 40
0.0661202689
 40
0.0838582416
 40
0.1037036743
 40
0.1496055817
 40
0.2034635293
 40
0.2647172853
 40
0.3326641488
 40
0.4064819592
 40
0.4852442094
 40
0.5679306689
 40
0.6534434362
 40
0.8282490287
 40
1.0
 40
1.0
 40
1.0
 40
1.0
 10
8.4289643779
 20
11.6649056679
 30
0.0
 10
8.4289332652
 20
11.6648361801
 30
0.0
 10
8.4288948433
 20
11.6646750399
 30
0.0
 10
8.4289152908
 20
11.6644097631
 30
0.0
 10
8.4290056163
 20
11.6641144175
 30
0.0
 10
8.4291642654
 20
11.6637879698
 30
0.0
 10
8.4293905082
 20
11.6634299567
 30
0.0
 10
8.4296839892
 20
11.6630409396
 30
0.0
 10
8.4300439966
 20
11.6626219021
 30
0.0
 10
8.4306410657
 20
11.6619938512
 30
0.0
 10
8.4315518642
 20
11.6611491538
 30
0.0
 10
8.4328385356
 20
11.6600825263
 30
0.0
 10
8.4343518379
 20
11.6589336561
 30
0.0
 10
8.4360727697
 20
11.6577180752
 30
0.0
 10
8.4379795718
 20
11.6564524951
 30
0.0
 10
8.4400474365
 20
11.6551545226
 30
0.0
 10
8.4422489066
 20
11.6538424516
 30
0.0
 10
8.4453451146
 20
11.6520866176
 30
0.0
 10
8.4493129782
 20
11.6499966442
 30
0.0
 10
8.4525612742
 20
11.6484508923
 30
0.0
 10
8.4541879356
 20
11.6477228051
 30
0.0
  0
SPLINE
  5
43F
100
AcDbEntity
  8
0
100
AcDbSpline
 62
9
  6
CONTINUOUS
 70
0
 71
3
 72
9
 73
5
 74
0
 42
0.0000001
 43
0.0000001
 44
0.0000000001
 40
0.0
 40
0.0
 40
0.0
 40
0.0
 40
0.4983845534
 40
1.0
 40
1.0
 40
1.0
 40
1.0
 10
10.3781261722
 20
10.5019775629
 30
0.0
 10
10.3125186347
 20
10.5026615265
 30
0.0
 10
10.1808805239
 20
10.5042280697
 30
0.0
 10
10.0492383304
 20
10.5054879269
 30
0.0
 10
9.9832030066
 20
10.5058721777
 30
0.0
  0
SPLINE
  5
440
100
AcDbEntity
  8
0
100
AcDbSpline
 62
9
  6
CONTINUOUS
 70
0
 71
3
 72
30
 73
26
 74
0
 42
0.0000001
 43
0.0000001
 44
0.0000000001
 40
0.0
 40
0.0
 40
0.0
 40
0.0
 40
0.0048485428
 40
0.0191875591
 40
0.0427072024
 40
0.0750977255
 40
0.0945193469
 40
0.1160218391
 40
0.1650316961
 40
0.2216555052
 40
0.2854358478
 40
0.3558995423
 40
0.4324931233
 40
0.5146680044
 40
0.6019646307
 40
0.6474045129
 40
0.6939850539
 40
0.7416836322
 40
0.7905168874
 40
0.8405326427
 40
0.8918492777
 40
0.9180574342
 40
0.9447386078
 40
0.9720104508
 40
1.0
 40
1.0
 40
1.0
 40
1.0
 10
9.7908101703
 20
11.1001753058
 30
0.0
 10
9.7910648387
 20
11.0991959652
 30
0.0
 10
9.7920705708
 20
11.0953197943
 30
0.0
 10
9.7942935592
 20
11.0866882819
 30
0.0
 10
9.7979271038
 20
11.0724843739
 30
0.0
 10
9.8017945489
 20
11.0572454051
 30
0.0
 10
9.8055387562
 20
11.0424095197
 30
0.0
 10
9.8101314154
 20
11.0242104847
 30
0.0
 10
9.8166512848
 20
10.9984901261
 30
0.0
 10
9.8254507939
 20
10.9642451036
 30
0.0
 10
9.8355589034
 20
10.9257137955
 30
0.0
 10
9.8469988542
 20
10.8832237779
 30
0.0
 10
9.8598634294
 20
10.8371432923
 30
0.0
 10
9.8742467583
 20
10.7878422971
 30
0.0
 10
9.8874983445
 20
10.7449888181
 30
0.0
 10
9.8990796201
 20
10.7094009908
 30
0.0
 10
9.9084304878
 20
10.6817801994
 30
0.0
 10
9.9183924928
 20
10.6536211584
 30
0.0
 10
9.9290780392
 20
10.6249616039
 30
0.0
 10
9.9406086741
 20
10.595817031
 30
0.0
 10
9.9510170658
 20
10.5713142031
 30
0.0
 10
9.9599574681
 20
10.5514876322
 30
0.0
 10
9.967136302
 20
10.5363745897
 30
0.0
 10
9.974849613
 20
10.5211090144
 30
0.0
 10
9.9803418811
 20
10.5109650623
 30
0.0
 10
9.9832030066
 20
10.5058721777
 30
0.0
  0
SPLINE
  5
441
100
AcDbEntity
  8
0
100
AcDbSpline
 62
9
  6
CONTINUOUS
 70
0
 71
3
 72
11
 73
7
 74
0
 42
0.0000001
 43
0.0000001
 44
0.0000000001
 40
0.0
 40
0.0
 40
0.0
 40
0.0
 40
0.2502194911
 40
0.5006376526
 40
0.750725341
 40
1.0
 40
1.0
 40
1.0
 40
1.0
 10
9.9832030066
 20
10.5058721777
 30
0.0
 10
9.9246009543
 20
10.5062131753
 30
0.0
 10
9.8073471552
 20
10.5065053668
 30
0.0
 10
9.6315234599
 20
10.5050602319
 30
0.0
 10
9.455959108
 20
10.5010115731
 30
0.0
 10
9.3390982387
 20
10.4960848997
 30
0.0
 10
9.2808012587
 20
10.4929397675
 30
0.0
  0
SPLINE
  5
442
100
AcDbEntity
  8
0
100
AcDbSpline
 62
9
  6
CONTINUOUS
 70
0
 71
3
 72
33
 73
29
 74
0
 42
0.0000001
 43
0.0000001
 44
0.0000000001
 40
0.0
 40
0.0
 40
0.0
 40
0.0
 40
0.0045970567
 40
0.0182091736
 40
0.0405677774
 40
0.0714043039
 40
0.0899158506
 40
0.1104341144
 40
0.1573088246
 40
0.2116717984
 40
0.2731918894
 40
0.3415377642
 40
0.4163418359
 40
0.4560558768
 40
0.4972738665
 40
0.584153521
 40
0.6297966214
 40
0.6769272008
 40
0.7255926344
 40
0.7759064044
 40
0.8017286172
 40
0.8280354873
 40
0.8548661581
 40
0.8822616845
 40
0.9102891278
 40
0.9391170009
 40
0.9689487132
 40
1.0
 40
1.0
 40
1.0
 40
1.0
 10
9.0329036715
 20
11.0477048136
 30
0.0
 10
9.0331878192
 20
11.0468134202
 30
0.0
 10
9.0343139374
 20
11.0432827556
 30
0.0
 10
9.0368272261
 20
11.0354182895
 30
0.0
 10
9.0409727377
 20
11.0224691574
 30
0.0
 10
9.0454302641
 20
11.0085729406
 30
0.0
 10
9.0497796687
 20
10.9950353812
 30
0.0
 10
9.0551544059
 20
10.9783988676
 30
0.0
 10
9.0628666659
 20
10.9548498117
 30
0.0
 10
9.0734191913
 20
10.9234509432
 30
0.0
 10
9.0857271586
 20
10.8880338148
 30
0.0
 10
9.0998796821
 20
10.8488562405
 30
0.0
 10
9.1130802711
 20
10.81405758
 30
0.0
 10
9.1247331784
 20
10.7845816839
 30
0.0
 10
9.1376359703
 20
10.7529594403
 30
0.0
 10
9.151608832
 20
10.7204723459
 30
0.0
 10
9.1667779599
 20
10.687203343
 30
0.0
 10
9.1791609724
 20
10.6612157237
 30
0.0
 10
9.1924590889
 20
10.6346166071
 30
0.0
 10
9.2043315295
 20
10.6121595984
 30
0.0
 10
9.2144296002
 20
10.5939186025
 30
0.0
 10
9.2224143393
 20
10.579972215
 30
0.0
 10
9.230780315
 20
10.5658773328
 30
0.0
 10
9.2395660424
 20
10.5516270696
 30
0.0
 10
9.2488251931
 20
10.5371939735
 30
0.0
 10
9.258698734
 20
10.5225707141
 30
0.0
 10
9.2693380381
 20
10.5077299804
 30
0.0
 10
9.2768747554
 20
10.4978914168
 30
0.0
 10
9.2808012587
 20
10.4929397675
 30
0.0
  0
SPLINE
  5
443
100
AcDbEntity
  8
0
100
AcDbSpline
 62
9
  6
CONTINUOUS
 70
0
 71
3
 72
15
 73
11
 74
0
 42
0.0000001
 43
0.0000001
 44
0.0000000001
 40
0.0
 40
0.0
 40
0.0
 40
0.0
 40
0.1279174388
 40
0.2551057919
 40
0.3814520061
 40
0.5068857642
 40
0.6313866981
 40
0.7549920362
 40
0.8778044845
 40
1.0
 40
1.0
 40
1.0
 40
1.0
 10
9.2808012587
 20
10.4929397675
 30
0.0
 10
9.2279600659
 20
10.490088976
 30
0.0
 10
9.1226345358
 20
10.4832794562
 30
0.0
 10
8.9654483405
 20
10.4691363189
 30
0.0
 10
8.8097542536
 20
10.4505422316
 30
0.0
 10
8.6558565426
 20
10.4269488902
 30
0.0
 10
8.5040588402
 20
10.3978067318
 30
0.0
 10
8.3546635141
 20
10.3625637725
 30
0.0
 10
8.2079811692
 20
10.3206690735
 30
0.0
 10
8.1120169048
 20
10.2878695054
 30
0.0
 10
8.0646568117
 20
10.2701941222
 30
0.0
  0
SPLINE
  5
444
100
AcDbEntity
  8
0
100
AcDbSpline
 62
9
  6
CONTINUOUS
 70
0
 71
3
 72
34
 73
30
 74
0
 42
0.0000001
 43
0.0000001
 44
0.0000000001
 40
0.0
 40
0.0
 40
0.0
 40
0.0
 40
0.0040943041
 40
0.0162314747
 40
0.0637605266
 40
0.080330432
 40
0.098732371
 40
0.1409729003
 40
0.190377217
 40
0.2468940311
 40
0.2778110711
 40
0.3105050736
 40
0.381256701
 40
0.4193437654
 40
0.4593013136
 40
0.5011977528
 40
0.5451044747
 40
0.5911109392
 40
0.6393710379
 40
0.6900905564
 40
0.7436065059
 40
0.7715385512
 40
0.8003517391
 40
0.8301346367
 40
0.8609775239
 40
0.8930210534
 40
0.9266054301
 40
0.9621290122
 40
1.0
 40
1.0
 40
1.0
 40
1.0
 10
7.6996321003
 20
10.6871168505
 30
0.0
 10
7.700067665
 20
10.6864940417
 30
0.0
 10
7.7017925993
 20
10.6840237063
 30
0.0
 10
7.7085446219
 20
10.6743030868
 30
0.0
 10
7.7165711701
 20
10.6626482013
 30
0.0
 10
7.7252257573
 20
10.6500139974
 30
0.0
 10
7.7333319736
 20
10.6381940684
 30
0.0
 10
7.7449351727
 20
10.6213818976
 30
0.0
 10
7.7607219754
 20
10.5988611798
 30
0.0
 10
7.7755204866
 20
10.5782159716
 30
0.0
 10
7.7886787148
 20
10.5602131644
 30
0.0
 10
7.8035474571
 20
10.5401885419
 30
0.0
 10
7.8194878327
 20
10.5193027259
 30
0.0
 10
7.8365701729
 20
10.4975979376
 30
0.0
 10
7.8505451486
 20
10.4802654795
 30
0.0
 10
7.8654359419
 20
10.4622861829
 30
0.0
 10
7.8813100969
 20
10.44366645
 30
0.0
 10
7.8982455425
 20
10.4244028014
 30
0.0
 10
7.916364525
 20
10.4045007291
 30
0.0
 10
7.9358185788
 20
10.3839353661
 30
0.0
 10
7.95307743
 20
10.3664953592
 30
0.0
 10
7.9677402852
 20
10.3522150511
 30
0.0
 10
7.979398969
 20
10.3411663723
 30
0.0
 10
7.991615547
 20
10.3299233515
 30
0.0
 10
8.0044506065
 20
10.3184698221
 30
0.0
 10
8.0180013959
 20
10.3067615134
 30
0.0
 10
8.0324616582
 20
10.2947819968
 30
0.0
 10
8.0480555099
 20
10.2824836674
 30
0.0
 10
8.0589709636
 20
10.2743280242
 30
0.0
 10
8.0646568117
 20
10.2701941222
 30
0.0
  0
SPLINE
  5
445
100
AcDbEntity
  8
0
100
AcDbSpline
 62
9
  6
CONTINUOUS
 70
0
 71
3
 72
14
 73
10
 74
0
 42
0.0000001
 43
0.0000001
 44
0.0000000001
 40
0.0
 40
0.0
 40
0.0
 40
0.0
 40
0.1246486634
 40
0.2491997829
 40
0.3737664441
 40
0.4984755146
 40
0.6234445899
 40
0.7487016632
 40
1.0
 40
1.0
 40
1.0
 40
1.0
 10
8.0646568117
 20
10.2701941222
 30
0.0
 10
8.0368738507
 20
10.2598251713
 30
0.0
 10
7.981668903
 20
10.2381718409
 30
0.0
 10
7.9000346838
 20
10.2028732858
 30
0.0
 10
7.8196857246
 20
10.1647010489
 30
0.0
 10
7.7406906924
 20
10.123583293
 30
0.0
 10
7.6631411006
 20
10.0794635957
 30
0.0
 10
7.5616196223
 20
10.0167416838
 30
0.0
 10
7.4879145563
 20
9.9656577613
 30
0.0
 10
7.4399271952
 20
9.9299990832
 30
0.0
  0
SPLINE
  5
446
100
AcDbEntity
  8
0
100
AcDbSpline
 62
9
  6
CONTINUOUS
 70
0
 71
3
 72
35
 73
31
 74
0
 42
0.0000001
 43
0.0000001
 44
0.0000000001
 40
0.0
 40
0.0
 40
0.0
 40
0.0
 40
0.0043883867
 40
0.017260893
 40
0.0381786036
 40
0.0667026973
 40
0.0836849618
 40
0.1024338531
 40
0.1451305948
 40
0.1946099731
 40
0.2507624877
 40
0.2813179671
 40
0.3135333288
 40
0.3830007046
 40
0.4202971914
 40
0.459391033
 40
0.5003763852
 40
0.5433498722
 40
0.5884318104
 40
0.635830803
 40
0.6858227344
 40
0.7388549682
 40
0.76667531
 40
0.7954937814
 40
0.825425087
 40
0.8565850135
 40
0.889154381
 40
0.9235729479
 40
0.9603499689
 40
1.0
 40
1.0
 40
1.0
 40
1.0
 10
7.0096436823
 20
10.2613174381
 30
0.0
 10
7.0102230467
 20
10.2607693147
 30
0.0
 10
7.0125007039
 20
10.2586121461
 30
0.0
 10
7.0175299706
 20
10.2538317479
 30
0.0
 10
7.0257256612
 20
10.2460156635
 30
0.0
 10
7.0344453425
 20
10.2376667848
 30
0.0
 10
7.0428690334
 20
10.2295787517
 30
0.0
 10
7.0531565874
 20
10.2197128734
 30
0.0
 10
7.0677459574
 20
10.2057997602
 30
0.0
 10
7.0873816383
 20
10.1873288017
 30
0.0
 10
7.1055772349
 20
10.1705488468
 30
0.0
 10
7.1215940725
 20
10.1560363714
 30
0.0
 10
7.1395187546
 20
10.1400264205
 30
0.0
 10
7.1585666517
 20
10.123435722
 30
0.0
 10
7.1787994531
 20
10.1063078661
 30
0.0
 10
7.1952332962
 20
10.0927058313
 30
0.0
 10
7.2126363368
 20
10.0786591139
 30
0.0
 10
7.2310803928
 20
10.0641725311
 30
0.0
 10
7.2506535755
 20
10.0492400663
 30
0.0
 10
7.2714882486
 20
10.0338631131
 30
0.0
 10
7.2937629977
 20
10.0180104454
 30
0.0
 10
7.3134106979
 20
10.0046107254
 30
0.0
 10
7.3300552055
 20
9.9936445026
 30
0.0
 10
7.3432939046
 20
9.9851419377
 30
0.0
 10
7.357151011
 20
9.9764813213
 30
0.0
 10
7.3716998491
 20
9.9676438148
 30
0.0
 10
7.3870656517
 20
9.9585829877
 30
0.0
 10
7.4034664374
 20
9.9492717918
 30
0.0
 10
7.4211674241
 20
9.9396509141
 30
0.0
 10
7.4334991842
 20
9.9332562251
 30
0.0
 10
7.4399271952
 20
9.9299990832
 30
0.0
  0
ENDSEC
  0
SECTION
  2
OBJECTS
  0
DICTIONARY
  5
C
100
AcDbDictionary
280
0
281
1
  3
ACAD_GROUP
350
D
  3
ACAD_MLINESTYLE
350
17
  3
ACAD_LAYOUT
350
1A
  3
ACAD_PLOTSETTINGS
350
19
  3
ACAD_PLOTSTYLENAME
350
E
  0
DICTIONARY
  5
D
102
{ACAD_REACTORS
330
C
102
}
100
AcDbDictionary
280
0
281
1
  0
ACDBDICTIONARYWDFLT
  5
E
102
{ACAD_REACTORS
330
C
102
}
100
AcDbDictionary
281
1
  3
Normal
350
F
100
AcDbDictionaryWithDefault
340
F
  0
DICTIONARY
  5
17
102
{ACAD_REACTORS
330
C
102
}
100
AcDbDictionary
280
0
281
1
  3
Standard
350
18
  0
DICTIONARY
  5
19
102
{ACAD_REACTORS
330
C
102
}
100
AcDbDictionary
281
1
  0
DICTIONARY
  5
1A
102
{ACAD_REACTORS
330
C
102
}
100
AcDbDictionary
281
1
  3
Model
350
447
  3
Layout1
350
448
  0
ACDBPLACEHOLDER
  5
F
102
{ACAD_REACTORS
330
E
102
}
  0
MLINESTYLE
  5
18
102
{ACAD_REACTORS
330
17
102
}
100
AcDbMlineStyle
  2
STANDARD
 70
0
  3

 62
256
 51
90.0
 52
90.0
 71
2
 49
0.5
 62
256
  6
BYLAYER
 49
-0.5
 62
256
  6
BYLAYER
  0
LAYOUT
  5
447
102
{ACAD_REACTORS
330
1A
102
}
100
AcDbPlotSettings
  1

  2
none_device
  4
ANSI_C_(22.00_x_17.00_Inches)
  6

 40
0.0
 41
0.0
 42
0.0
 43
0.0
 44
558.8
 45
431.8
 46
0.0
 47
0.0
 48
0.0
 49
0.0
140
0.0
141
0.0
142
1.0
143
1.0
 70
1024
 72
0
 73
0
 74
0
  7

 75
0
147
1.0
148
0.0
149
0.0
100
AcDbLayout
  1
Model
 70
0
 71
0
 10
0.0
 20
0.0
 11
22.0
 21
17.0
 12
0.0
 22
0.0
 32
0.0
 14
0.0
 24
0.0
 34
0.0
 15
0.0
 25
0.0
 35
0.0
146
0.0
 13
0.0
 23
0.0
 33
0.0
 16
1.0
 26
0.0
 36
0.0
 17
0.0
 27
1.0
 37
0.0
 76
0
330
205
345
0
346
0
  0
LAYOUT
  5
448
102
{ACAD_REACTORS
330
1A
102
}
100
AcDbPlotSettings
  1

  2
none_device
  4
ANSI_C_(22.00_x_17.00_Inches)
  6

 40
0.0
 41
0.0
 42
0.0
 43
0.0
 44
558.8
 45
431.8
 46
0.0
 47
0.0
 48
0.0
 49
0.0
140
0.0
141
0.0
142
1.0
143
1.0
 70
0
 72
0
 73
0
 74
0
  7

 75
0
147
1.0
148
0.0
149
0.0
100
AcDbLayout
  1
Layout1
 70
0
 71
1
 10
0.0
 20
0.0
 11
22.0
 21
17.0
 12
0.0
 22
0.0
 32
0.0
 14
0.0
 24
0.0
 34
0.0
 15
0.0
 25
0.0
 35
0.0
146
0.0
 13
0.0
 23
0.0
 33
0.0
 16
1.0
 26
0.0
 36
0.0
 17
0.0
 27
1.0
 37
0.0
 76
0
330
206
345
0
346
0
  0
ENDSEC
  0
EOF
