999
DXF file: E:\BT Custom\CADOUTPUT\_TOP.dxf
999
Pro/ENGINEER 2018400 by Parametric Technology Corporation
  0
SECTION
  2
HEADER
  9
$ACADVER
  1
AC1018
  9
$DWGCODEPAGE
  3
ANSI_1252
  9
$EXTMAX
 10
22.0
 20
17.0
 30
0.0
  9
$EXTMIN
 10
0.0
 20
0.0
 30
0.0
  9
$LIMMIN
 10
0.0
 20
0.0
  9
$LIMMAX
 10
22.0
 20
17.0
  9
$VIEWCTR
 10
11.0
 20
8.5
  9
$VIEWSIZE
 40
17.0
  9
$CLAYER
  8
0
  9
$LTSCALE
 40
1.21
  9
$CELTYPE
  6
BYLAYER
  9
$DIMSCALE
 40
1.0
  9
$DIMASZ
 40
0.1
  9
$DIMEXO
 40
0.0625
  9
$DIMDLI
 40
0.836
  9
$DIMEXE
 40
0.125
  9
$DIMCEN
 40
0.198
  9
$DIMLFAC
 40
1.0
  9
$DIMBLK
  1
_FILLED
  9
$DIMALT
 70
1
  9
$DIMALTD
 70
2
  9
$DIMALTTD
 70
2
  9
$DIMALTF
 40
25.4
  9
$DIMTXT
 40
0.08
  9
$DIMTOL
 70
1
  9
$DIMLIM
 70
0
  9
$DIMTFAC
 40
1.0
  9
$DIMTP
 40
0.001
  9
$DIMTM
 40
0.001
  9
$DIMGAP
 40
0.09
  9
$DIMDSEP
 70
46
  9
$AUNITS
 70
0
  9
$PDMODE
 70
3
  9
$PDSIZE
 40
0.06
  9
$HANDSEED
  5
439
  9
$TILEMODE
 70
1
  9
$MEASUREMENT
 70
0
  9
$INSUNITS
 70
1
  0
ENDSEC
  0
SECTION
  2
CLASSES
  0
CLASS
  1
ACDBDICTIONARYWDFLT
  2
AcDbDictionaryWithDefault
  3
AutoCAD 2000
 90
0
 91
1
280
0
281
0
  0
CLASS
  1
ACDBPLACEHOLDER
  2
AcDbPlaceHolder
  3
AutoCAD 2000
 90
0
 91
1
280
0
281
0
  0
CLASS
  1
LAYOUT
  2
AcDbLayout
  3
AutoCAD 2000
 90
0
 91
0
280
0
281
0
  0
ENDSEC
  0
SECTION
  2
TABLES
  0
TABLE
  2
VPORT
  5
8
100
AcDbSymbolTable
 70
2
  0
VPORT
  5
1F4
100
AcDbSymbolTableRecord
100
AcDbViewportTableRecord
  2
*ACTIVE
 70
0
 10
0.0
 20
0.0
 11
1.0
 21
1.0
 12
11.0
 22
8.5
 13
0.0
 23
0.0
 14
1.0
 24
1.0
 15
0.0
 25
0.0
 16
0.0
 26
0.0
 36
1.0
 17
0.0
 27
0.0
 37
0.0
 40
17.0
 41
1.2941176471
 42
50.0
 43
0.0
 44
0.0
 50
0.0
 51
0.0
 71
0
 72
100
 73
1
 74
1
 75
0
 76
0
 77
0
 78
0
  0
ENDTAB
  0
TABLE
  2
LTYPE
  5
5
100
AcDbSymbolTable
 70
6
  0
LTYPE
  5
14
100
AcDbSymbolTableRecord
100
AcDbLinetypeTableRecord
  2
BYBLOCK
 70
0
  3

 72
65
 73
0
 40
0.0
  0
LTYPE
  5
15
100
AcDbSymbolTableRecord
100
AcDbLinetypeTableRecord
  2
BYLAYER
 70
0
  3

 72
65
 73
0
 40
0.0
  0
LTYPE
  5
16
100
AcDbSymbolTableRecord
100
AcDbLinetypeTableRecord
  2
CONTINUOUS
 70
64
  3
Solid line
 72
65
 73
0
 40
0.0
  0
LTYPE
  5
1F5
100
AcDbSymbolTableRecord
100
AcDbLinetypeTableRecord
  2
CENTER
 70
64
  3
____ _ ____ _ ____ _ ____ _ ____ _ ____ _ ____
 72
65
 73
4
 40
0.6
 49
0.375
 74
0
 49
-0.075
 74
0
 49
0.075
 74
0
 49
-0.075
 74
0
  0
LTYPE
  5
1F6
100
AcDbSymbolTableRecord
100
AcDbLinetypeTableRecord
  2
HIDDEN
 70
64
  3
- - - - - - - - - - - - - - - - - - - -
 72
65
 73
2
 40
0.2
 49
0.1
 74
0
 49
-0.1
 74
0
  0
LTYPE
  5
1F7
100
AcDbSymbolTableRecord
100
AcDbLinetypeTableRecord
  2
PHANTOM
 70
64
  3
_____ _ _ _____ _ _ _____ _ _ _____
 72
65
 73
6
 40
0.8
 49
0.45
 74
0
 49
-0.05
 74
0
 49
0.1
 74
0
 49
-0.05
 74
0
 49
0.1
 74
0
 49
-0.05
 74
0
  0
LTYPE
  5
1F8
100
AcDbSymbolTableRecord
100
AcDbLinetypeTableRecord
  2
DOT
 70
64
  3
. . . . . . . . . . . . . . . . . . . .
 72
65
 73
2
 40
0.2
 49
0.1
 74
0
 49
-0.1
 74
0
  0
LTYPE
  5
1F9
100
AcDbSymbolTableRecord
100
AcDbLinetypeTableRecord
  2
DASHED
 70
64
  3
- - - - - - - - - - - - - - - - - - - -
 72
65
 73
2
 40
0.2
 49
0.1
 74
0
 49
-0.1
 74
0
  0
ENDTAB
  0
TABLE
  2
LAYER
  5
2
100
AcDbSymbolTable
 70
36
  0
LAYER
  5
10
100
AcDbSymbolTableRecord
100
AcDbLayerTableRecord
  2
0
 70
0
 62
7
  6
CONTINUOUS
370
-3
390
F
  0
LAYER
  5
1FA
100
AcDbSymbolTableRecord
100
AcDbLayerTableRecord
  2
DEFAULT_1
 70
0
 62
7
  6
CENTER
370
-3
390
F
  0
LAYER
  5
1FB
100
AcDbSymbolTableRecord
100
AcDbLayerTableRecord
  2
DEFAULT_2
 70
0
 62
8
  6
HIDDEN
370
-3
390
F
  0
LAYER
  5
1FC
100
AcDbSymbolTableRecord
100
AcDbLayerTableRecord
  2
DEFAULT_3
 70
0
 62
7
  6
PHANTOM
370
-3
390
F
  0
LAYER
  5
1FD
100
AcDbSymbolTableRecord
100
AcDbLayerTableRecord
  2
ALL_FEATURES
 70
0
 62
7
  6
CONTINUOUS
370
-3
390
F
  0
LAYER
  5
1FE
100
AcDbSymbolTableRecord
100
AcDbLayerTableRecord
  2
AXES_FEATURES
 70
0
 62
7
  6
CONTINUOUS
370
-3
390
F
  0
LAYER
  5
1FF
100
AcDbSymbolTableRecord
100
AcDbLayerTableRecord
  2
DEFAULT_COORDINATE_SYSTEM
 70
0
 62
7
  6
CONTINUOUS
370
-3
390
F
  0
LAYER
  5
200
100
AcDbSymbolTableRecord
100
AcDbLayerTableRecord
  2
DEFAULT_DATUM_AXES
 70
0
 62
7
  6
CONTINUOUS
370
-3
390
F
  0
LAYER
  5
201
100
AcDbSymbolTableRecord
100
AcDbLayerTableRecord
  2
DEFAULT_DATUM_PLANES
 70
0
 62
7
  6
CONTINUOUS
370
-3
390
F
  0
LAYER
  5
202
100
AcDbSymbolTableRecord
100
AcDbLayerTableRecord
  2
DIMENSIONS
 70
0
 62
7
  6
CONTINUOUS
370
-3
390
F
  0
ENDTAB
  0
TABLE
  2
STYLE
  5
3
100
AcDbSymbolTable
 70
1
  0
STYLE
  5
11
100
AcDbSymbolTableRecord
100
AcDbTextStyleTableRecord
  2
STANDARD
 70
0
 40
0.0
 41
0.8
 50
0.0
 71
0
 42
0.2
  3
txt
  4

  0
STYLE
  5
203
100
AcDbSymbolTableRecord
100
AcDbTextStyleTableRecord
  2
TEXTSTYLE_1
 70
0
 40
0.0
 41
0.8
 50
0.0
 71
0
 42
0.2
  3
gdt
  4

  0
ENDTAB
  0
TABLE
  2
VIEW
  5
6
100
AcDbSymbolTable
 70
0
  0
ENDTAB
  0
TABLE
  2
UCS
  5
7
100
AcDbSymbolTable
 70
0
  0
ENDTAB
  0
TABLE
  2
APPID
  5
9
100
AcDbSymbolTable
 70
1
  0
APPID
  5
204
100
AcDbSymbolTableRecord
100
AcDbRegAppTableRecord
  2
ACAD
 70
0
  0
ENDTAB
  0
TABLE
  2
BLOCK_RECORD
  5
1
100
AcDbSymbolTable
 70
0
  0
BLOCK_RECORD
  5
205
100
AcDbSymbolTableRecord
100
AcDbBlockTableRecord
  2
*Model_Space
  0
BLOCK_RECORD
  5
206
100
AcDbSymbolTableRecord
100
AcDbBlockTableRecord
  2
*Paper_Space
  0
BLOCK_RECORD
  5
207
100
AcDbSymbolTableRecord
100
AcDbBlockTableRecord
  2
_FILLED
  0
ENDTAB
  0
TABLE
  2
DIMSTYLE
  5
A
100
AcDbSymbolTable
 70
1
100
AcDbDimStyleTable
 71
0
  0
DIMSTYLE
105
208
100
AcDbSymbolTableRecord
100
AcDbDimStyleTableRecord
  2
STANDARD
 70
0
  3

  4

 40
1.0
 41
0.1
 42
0.0625
 43
0.38
 44
0.125
 45
0.0
 46
0.0
 47
0.001
 48
0.001
140
0.08
141
0.09
142
0.0
143
25.4
144
1.0
145
0.0
146
1.0
147
0.09
 71
1.0
 72
0.0
 73
1
 74
1
 75
0
 76
0
 77
0
 78
4
 79
1
170
1
171
2
172
0
173
0
174
0
175
0
176
0
177
0
178
0
270
2
179
3
271
3
272
3
273
2
274
2
275
0
280
0
281
0
282
0
283
1
284
4
285
0
286
0
287
3
288
0
340
11
278
46
341
207
342
207
343
207
344
207
  0
ENDTAB
  0
ENDSEC
  0
SECTION
  2
BLOCKS
  0
BLOCK
  5
20
100
AcDbEntity
  8
0
100
AcDbBlockBegin
  2
*Model_Space
 70
0
 10
0.0
 20
0.0
 30
0.0
  3
*Model_Space
  1

  0
ENDBLK
  5
21
100
AcDbEntity
  8
0
100
AcDbBlockEnd
  0
BLOCK
  5
1C
100
AcDbEntity
  8
0
100
AcDbBlockBegin
  2
*Paper_Space
 70
0
 10
0.0
 20
0.0
 30
0.0
  3
*Paper_Space
  1

  0
ENDBLK
  5
1D
100
AcDbEntity
  8
0
100
AcDbBlockEnd
  0
BLOCK
  5
209
100
AcDbEntity
  8
0
100
AcDbBlockBegin
  2
_FILLED
 70
64
 10
0.0
 20
0.0
  3
_FILLED
  1

  0
SOLID
  5
20A
100
AcDbEntity
  8
0
  6
BYBLOCK
 62
0
100
AcDbTrace
 10
0.0
 20
0.0
 11
-1.0
 21
0.2
 12
-1.0
 22
-0.2
 13
-1.0
 23
-0.2
  0
ENDBLK
  5
20B
100
AcDbEntity
  8
0
  6
BYBLOCK
 62
0
100
AcDbBlockEnd
  0
ENDSEC
  0
SECTION
  2
ENTITIES
  0
LINE
  5
20C
100
AcDbEntity
  8
0
100
AcDbLine
 62
7
  6
CONTINUOUS
 10
-0.2901816617
 20
10.431654221
 11
-0.2901816617
 21
10.9306628622
  0
LINE
  5
20D
100
AcDbEntity
  8
0
100
AcDbLine
 62
9
  6
CONTINUOUS
 10
-0.2676943523
 20
10.3848268994
 11
-0.2676943523
 21
10.9774901838
  0
LINE
  5
20E
100
AcDbEntity
  8
0
100
AcDbLine
 62
9
  6
CONTINUOUS
 10
-0.1701358549
 20
10.2344413382
 11
-0.1701358549
 21
11.127875745
  0
LINE
  5
20F
100
AcDbEntity
  8
0
100
AcDbLine
 62
9
  6
CONTINUOUS
 10
-0.1120845333
 20
10.1896085416
 11
-0.1120845333
 21
11.1727085416
  0
LINE
  5
210
100
AcDbEntity
  8
0
100
AcDbLine
 62
9
  6
CONTINUOUS
 10
-0.0901816617
 20
10.1896085416
 11
-0.0901816617
 21
11.1727085416
  0
LINE
  5
211
100
AcDbEntity
  8
0
100
AcDbLine
 62
7
  6
CONTINUOUS
 10
-0.0501816617
 20
10.2296085416
 11
-0.0501816617
 21
11.1327085416
  0
LINE
  5
212
100
AcDbEntity
  8
0
100
AcDbLine
 62
7
  6
CONTINUOUS
 10
2.1248183383
 20
10.4021585416
 11
2.1248183383
 21
10.9601585416
  0
LINE
  5
213
100
AcDbEntity
  8
0
100
AcDbLine
 62
9
  6
CONTINUOUS
 10
2.2051937267
 20
10.3544545665
 11
2.2051937267
 21
11.0078625166
  0
LINE
  5
214
100
AcDbEntity
  8
0
100
AcDbLine
 62
9
  6
CONTINUOUS
 10
2.472816113
 20
10.3787788244
 11
2.472816113
 21
10.9835382588
  0
LINE
  5
215
100
AcDbEntity
  8
0
100
AcDbLine
 62
7
  6
CONTINUOUS
 10
2.5198183383
 20
10.4181611661
 11
2.5198183383
 21
10.944155917
  0
LINE
  5
216
100
AcDbEntity
  8
0
100
AcDbLine
 62
7
  6
CONTINUOUS
 10
2.6218183383
 20
10.9118085416
 11
2.6218183383
 21
10.4505085416
  0
LINE
  5
217
100
AcDbEntity
  8
0
100
AcDbLine
 62
7
  6
CONTINUOUS
 10
6.4109152868
 20
6.9960702162
 11
6.4115301835
 21
6.7554401409
  0
LINE
  5
218
100
AcDbEntity
  8
0
100
AcDbLine
 62
7
  6
CONTINUOUS
 10
6.4098183383
 20
7.4391584091
 11
6.4101575098
 21
7.2274616706
  0
LINE
  5
219
100
AcDbEntity
  8
0
100
AcDbLine
 62
7
  6
CONTINUOUS
 10
6.4101575098
 20
7.2274616706
 11
6.4109152868
 21
6.9960702162
  0
LINE
  5
21A
100
AcDbEntity
  8
0
100
AcDbLine
 62
7
  6
CONTINUOUS
 10
6.4115301101
 20
6.7555513779
 11
6.4115881049
 21
6.6714031557
  0
LINE
  5
21B
100
AcDbEntity
  8
0
100
AcDbLine
 62
7
  6
CONTINUOUS
 10
6.3078183383
 20
9.7161585416
 11
6.3078183383
 21
9.8311585416
  0
LINE
  5
21C
100
AcDbEntity
  8
0
100
AcDbLine
 62
7
  6
CONTINUOUS
 10
6.3578183383
 20
8.5531585416
 11
6.3578183383
 21
8.5591491079
  0
LINE
  5
21D
100
AcDbEntity
  8
0
100
AcDbLine
 62
7
  6
CONTINUOUS
 10
6.4098183383
 20
8.5331585416
 11
6.4098183383
 21
7.4391585416
  0
LINE
  5
21E
100
AcDbEntity
  8
0
100
AcDbLine
 62
9
  6
CONTINUOUS
 10
7.0098183383
 20
8.5331585416
 11
7.0098183383
 21
2.8335051792
  0
LWPOLYLINE
  5
21F
100
AcDbEntity
  8
0
100
AcDbPolyline
 62
7
  6
CONTINUOUS
 90
4
 70
0
 10
6.4115849868
 20
6.671403161
 10
6.4112959628
 20
6.5010735585
 10
6.4096373421
 20
6.2661014563
 10
6.4064569736
 20
6.0556969258
  0
LINE
  5
220
100
AcDbEntity
  8
0
100
AcDbLine
 62
9
  6
CONTINUOUS
 10
6.4064569736
 20
6.0556969258
 11
6.4064319581
 21
6.05314963
  0
LWPOLYLINE
  5
221
100
AcDbEntity
  8
0
100
AcDbPolyline
 62
7
  6
CONTINUOUS
 90
10
 70
0
 10
6.4064569799
 20
6.0556972497
 10
6.4027038516
 20
5.8973062762
 10
6.397657431
 20
5.7422187095
 10
6.3913262963
 20
5.5935480139
 10
6.3837075203
 20
5.4517183311
 10
6.3748422206
 20
5.3171482337
 10
6.3648230714
 20
5.1903032366
 10
6.3537885687
 20
5.0715722518
 10
6.3419247075
 20
4.961304921
 10
6.3297348755
 20
4.8618919651
  0
LWPOLYLINE
  5
222
100
AcDbEntity
  8
0
100
AcDbPolyline
 62
7
  6
CONTINUOUS
 90
8
 70
0
 10
6.3297348848
 20
4.8618920369
 10
6.3186765362
 20
4.7811998278
 10
6.3058428006
 20
4.6965230659
 10
6.2914260396
 20
4.6105550784
 10
6.2753183885
 20
4.5236787931
 10
6.2574443096
 20
4.4360947009
 10
6.2378405035
 20
4.3479695674
 10
6.2170421674
 20
4.2613645328
  0
LWPOLYLINE
  5
223
100
AcDbEntity
  8
0
100
AcDbPolyline
 62
7
  6
CONTINUOUS
 90
6
 70
0
 10
8.0941193071
 20
3.3926060069
 10
8.0710936373
 20
3.4481817845
 10
8.0464658902
 20
3.509076983
 10
8.0208590734
 20
3.5742442239
 10
7.9944721499
 20
3.6436533023
 10
7.9680525054
 20
3.7157579868
  0
LWPOLYLINE
  5
224
100
AcDbEntity
  8
0
100
AcDbPolyline
 62
7
  6
CONTINUOUS
 90
4
 70
0
 10
7.9680525679
 20
3.715757813
 10
7.9587005509
 20
3.7420013172
 10
7.9486829903
 20
3.7706031484
 10
7.9390490294
 20
3.7986051058
  0
LWPOLYLINE
  5
225
100
AcDbEntity
  8
0
100
AcDbPolyline
 62
7
  6
CONTINUOUS
 90
7
 70
0
 10
7.9390488504
 20
3.7986056307
 10
7.9156316226
 20
3.868725533
 10
7.8919134396
 20
3.9429534593
 10
7.8685537726
 20
4.019659198
 10
7.845701214
 20
4.0987098163
 10
7.8235024989
 20
4.1799782124
 10
7.8025944713
 20
4.2613646849
  0
LINE
  5
226
100
AcDbEntity
  8
0
100
AcDbLine
 62
7
  6
CONTINUOUS
 10
6.4826397986
 20
9.4886618912
 11
6.4987921613
 21
9.3465614544
  0
LINE
  5
227
100
AcDbEntity
  8
0
100
AcDbLine
 62
7
  6
CONTINUOUS
 10
7.616932825
 20
5.8973062762
 11
7.6131796966
 21
6.0556972497
  0
LWPOLYLINE
  5
228
100
AcDbEntity
  8
0
100
AcDbPolyline
 62
7
  6
CONTINUOUS
 90
3
 70
0
 10
7.613179703
 20
6.0556969258
 10
7.6099993344
 20
6.2661014563
 10
7.6083407138
 20
6.5010735585
  0
LINE
  5
229
100
AcDbEntity
  8
0
100
AcDbLine
 62
9
  6
CONTINUOUS
 10
7.6132047185
 20
6.05314963
 11
7.613179703
 21
6.0556969258
  0
LINE
  5
22A
100
AcDbEntity
  8
0
100
AcDbLine
 62
7
  6
CONTINUOUS
 10
7.6083407138
 20
6.5010735585
 11
7.6080486049
 21
6.6732211564
  0
LINE
  5
22B
100
AcDbEntity
  8
0
100
AcDbLine
 62
7
  6
CONTINUOUS
 10
7.6098183383
 20
8.5331585416
 11
7.6098183383
 21
7.4391585416
  0
LINE
  5
22C
100
AcDbEntity
  8
0
100
AcDbLine
 62
7
  6
CONTINUOUS
 10
7.6618183383
 20
8.5531585416
 11
7.6618183383
 21
8.5591491079
  0
LINE
  5
22D
100
AcDbEntity
  8
0
100
AcDbLine
 62
7
  6
CONTINUOUS
 10
7.7118183383
 20
9.7161585416
 11
7.7118183383
 21
9.8311585416
  0
LINE
  5
22E
100
AcDbEntity
  8
0
100
AcDbLine
 62
7
  6
CONTINUOUS
 10
7.6094758301
 20
7.2253790114
 11
7.6098183383
 21
7.4391584091
  0
LINE
  5
22F
100
AcDbEntity
  8
0
100
AcDbLine
 62
7
  6
CONTINUOUS
 10
7.6080498591
 20
6.6732211555
 11
7.6081270402
 21
6.763480951
  0
LINE
  5
230
100
AcDbEntity
  8
0
100
AcDbLine
 62
7
  6
CONTINUOUS
 10
7.6081270402
 20
6.763480951
 11
7.6087957187
 21
7.0186621704
  0
LINE
  5
231
100
AcDbEntity
  8
0
100
AcDbLine
 62
7
  6
CONTINUOUS
 10
7.6087957187
 20
7.0186621704
 11
7.6094758301
 21
7.2253790114
  0
LINE
  5
232
100
AcDbEntity
  8
0
100
AcDbLine
 62
7
  6
CONTINUOUS
 10
7.536996878
 20
9.4886618912
 11
7.5208445152
 21
9.3465614544
  0
LWPOLYLINE
  5
233
100
AcDbEntity
  8
0
100
AcDbPolyline
 62
7
  6
CONTINUOUS
 90
7
 70
0
 10
6.2170422053
 20
4.2613646849
 10
6.1961341777
 20
4.1799782124
 10
6.1739354626
 20
4.0987098163
 10
6.151082904
 20
4.019659198
 10
6.127723237
 20
3.9429534593
 10
6.1040050539
 20
3.868725533
 10
6.0805878262
 20
3.7986056307
  0
LWPOLYLINE
  5
234
100
AcDbEntity
  8
0
100
AcDbPolyline
 62
7
  6
CONTINUOUS
 90
4
 70
0
 10
6.0805876472
 20
3.7986051058
 10
6.0709536862
 20
3.7706031484
 10
6.0609361257
 20
3.7420013172
 10
6.0515841087
 20
3.715757813
  0
LWPOLYLINE
  5
235
100
AcDbEntity
  8
0
100
AcDbPolyline
 62
7
  6
CONTINUOUS
 90
6
 70
0
 10
6.0515841712
 20
3.7157579868
 10
6.0251645267
 20
3.6436533023
 10
5.9987776032
 20
3.5742442239
 10
5.9731707863
 20
3.509076983
 10
5.9485430392
 20
3.4481817845
 10
5.9255173694
 20
3.3926060069
  0
LWPOLYLINE
  5
236
100
AcDbEntity
  8
0
100
AcDbPolyline
 62
7
  6
CONTINUOUS
 90
7
 70
0
 10
7.8025945091
 20
4.2613645328
 10
7.781796173
 20
4.3479695674
 10
7.7621923669
 20
4.4360947009
 10
7.7443182881
 20
4.5236787931
 10
7.7282106369
 20
4.6105550784
 10
7.713793876
 20
4.6965230659
 10
7.7009601403
 20
4.7811998278
  0
LINE
  5
237
100
AcDbEntity
  8
0
100
AcDbLine
 62
7
  6
CONTINUOUS
 10
7.7009601403
 20
4.7811998278
 11
7.6899017918
 21
4.8618920369
  0
LWPOLYLINE
  5
238
100
AcDbEntity
  8
0
100
AcDbPolyline
 62
7
  6
CONTINUOUS
 90
9
 70
0
 10
7.6899018011
 20
4.8618919651
 10
7.6777119691
 20
4.961304921
 10
7.6658481078
 20
5.0715722518
 10
7.6548136052
 20
5.1903032366
 10
7.644794456
 20
5.3171482337
 10
7.6359291563
 20
5.4517183311
 10
7.6283103802
 20
5.5935480139
 10
7.6219792455
 20
5.7422187095
 10
7.616932825
 20
5.8973062762
  0
LINE
  5
239
100
AcDbEntity
  8
0
100
AcDbLine
 62
7
  6
CONTINUOUS
 10
11.3978183383
 20
10.4505085416
 11
11.3978183383
 21
10.9118085416
  0
LINE
  5
23A
100
AcDbEntity
  8
0
100
AcDbLine
 62
7
  6
CONTINUOUS
 10
11.4998183383
 20
10.944155917
 11
11.4998183383
 21
10.4181611661
  0
LINE
  5
23B
100
AcDbEntity
  8
0
100
AcDbLine
 62
9
  6
CONTINUOUS
 10
11.5468205636
 20
10.9835382588
 11
11.5468205636
 21
10.3787788244
  0
LINE
  5
23C
100
AcDbEntity
  8
0
100
AcDbLine
 62
9
  6
CONTINUOUS
 10
11.8144429499
 20
11.0078625166
 11
11.8144429499
 21
10.3544545665
  0
LINE
  5
23D
100
AcDbEntity
  8
0
100
AcDbLine
 62
7
  6
CONTINUOUS
 10
11.8948183383
 20
10.9601585416
 11
11.8948183383
 21
10.4021585416
  0
LWPOLYLINE
  5
23E
100
AcDbEntity
  8
0
100
AcDbPolyline
 62
7
  6
CONTINUOUS
 90
8
 70
0
 10
20.9121285122
 20
10.2330805313
 10
20.9053334236
 20
10.2305049612
 10
20.8990706481
 20
10.2275286026
 10
20.8933436523
 20
10.2242163215
 10
20.8881446625
 20
10.2206195222
 10
20.8834619647
 20
10.2167788057
 10
20.8793233207
 20
10.2127694915
 10
20.8770856559
 20
10.2102920752
  0
LINE
  5
23F
100
AcDbEntity
  8
0
100
AcDbLine
 62
7
  6
CONTINUOUS
 10
20.7508129926
 20
10.1749015665
 11
20.7423067624
 21
10.1717809307
  0
LINE
  5
240
100
AcDbEntity
  8
0
100
AcDbLine
 62
7
  6
CONTINUOUS
 10
20.7508129927
 20
10.1749015666
 11
20.750804295
 21
10.1748987065
  0
LINE
  5
241
100
AcDbEntity
  8
0
100
AcDbLine
 62
7
  6
CONTINUOUS
 10
20.7693099056
 20
10.1809847996
 11
20.750804295
 21
10.1748987065
  0
LWPOLYLINE
  5
242
100
AcDbEntity
  8
0
100
AcDbPolyline
 62
7
  6
CONTINUOUS
 90
12
 70
0
 10
20.8303137119
 20
10.2129554846
 10
20.8278055528
 20
10.2122195694
 10
20.8181204062
 20
10.2087446306
 10
20.8089304611
 20
10.2043936743
 10
20.8005774899
 20
10.1993406474
 10
20.7932665988
 20
10.1938148445
 10
20.7869654914
 20
10.1879732722
 10
20.7815340778
 20
10.1818577929
 10
20.776837479
 20
10.1754462898
 10
20.7727829549
 20
10.1687045178
 10
20.7692914964
 20
10.1615659843
 10
20.7667109419
 20
10.1551008207
  0
LINE
  5
243
100
AcDbEntity
  8
0
100
AcDbLine
 62
7
  6
CONTINUOUS
 10
20.9142770147
 20
10.2337093552
 11
20.9121285122
 21
10.2330805313
  0
LINE
  5
244
100
AcDbEntity
  8
0
100
AcDbLine
 62
7
  6
CONTINUOUS
 10
20.8456796022
 20
10.2168563916
 11
20.8405619423
 21
10.2155721256
  0
LWPOLYLINE
  5
245
100
AcDbEntity
  8
0
100
AcDbPolyline
 62
7
  6
CONTINUOUS
 90
8
 70
0
 10
20.7423067624
 20
10.1717809307
 10
20.7315022894
 20
10.1667880749
 10
20.7216243458
 20
10.1610264266
 10
20.7126605194
 20
10.1545579534
 10
20.704618583
 20
10.1474412984
 10
20.6974848004
 20
10.1397052396
 10
20.6911945859
 20
10.1313085374
 10
20.6857416121
 20
10.1222788056
  0
LINE
  5
246
100
AcDbEntity
  8
0
100
AcDbLine
 62
7
  6
CONTINUOUS
 10
20.6867120492
 20
10.1238857795
 11
20.6817654968
 21
10.1217477779
  0
LINE
  5
247
100
AcDbEntity
  8
0
100
AcDbLine
 62
7
  6
CONTINUOUS
 10
7.6418175739
 20
8.5331585416
 11
6.3778191027
 21
8.5331585416
  0
LINE
  5
248
100
AcDbEntity
  8
0
100
AcDbLine
 62
9
  6
CONTINUOUS
 10
7.6618183383
 20
8.5531585416
 11
6.3578183383
 21
8.5531585416
  0
LINE
  5
249
100
AcDbEntity
  8
0
100
AcDbLine
 62
9
  6
CONTINUOUS
 10
6.3578183383
 20
8.5591491079
 11
7.6618183383
 21
8.5591491079
  0
LINE
  5
24A
100
AcDbEntity
  8
0
100
AcDbLine
 62
9
  6
CONTINUOUS
 10
6.3137733945
 20
8.6306140219
 11
7.7058632821
 21
8.6306140219
  0
LINE
  5
24B
100
AcDbEntity
  8
0
100
AcDbLine
 62
9
  6
CONTINUOUS
 10
6.3036873452
 20
8.7998520884
 11
7.7159493313
 21
8.7998520884
  0
LINE
  5
24C
100
AcDbEntity
  8
0
100
AcDbLine
 62
9
  6
CONTINUOUS
 10
6.4443424753
 20
8.9699460453
 11
7.5752942013
 21
8.9699460453
  0
LINE
  5
24D
100
AcDbEntity
  8
0
100
AcDbLine
 62
7
  6
CONTINUOUS
 10
20.6817570005
 20
10.1217441051
 11
20.6707358136
 21
10.1164938702
  0
LINE
  5
24E
100
AcDbEntity
  8
0
100
AcDbLine
 62
9
  6
CONTINUOUS
 10
6.4987921613
 20
9.3465614544
 11
7.5208445152
 21
9.3465614544
  0
LINE
  5
24F
100
AcDbEntity
  8
0
100
AcDbLine
 62
9
  6
CONTINUOUS
 10
6.4826397986
 20
9.4886618912
 11
7.536996878
 21
9.4886618912
  0
LINE
  5
250
100
AcDbEntity
  8
0
100
AcDbLine
 62
9
  6
CONTINUOUS
 10
6.340472385
 20
9.6692637881
 11
7.6791642916
 21
9.6692637881
  0
LINE
  5
251
100
AcDbEntity
  8
0
100
AcDbLine
 62
9
  6
CONTINUOUS
 10
7.7118183383
 20
9.7161585416
 11
6.3078183383
 21
9.7161585416
  0
LINE
  5
252
100
AcDbEntity
  8
0
100
AcDbLine
 62
9
  6
CONTINUOUS
 10
7.7118183383
 20
9.8311585416
 11
6.3078183383
 21
9.8311585416
  0
LINE
  5
253
100
AcDbEntity
  8
0
100
AcDbLine
 62
7
  6
CONTINUOUS
 10
6.3525512693
 20
9.8811585416
 11
7.6670854073
 21
9.8811585416
  0
LINE
  5
254
100
AcDbEntity
  8
0
100
AcDbLine
 62
9
  6
CONTINUOUS
 10
6.3396630953
 20
9.8858649164
 11
7.6799735814
 21
9.8858649165
  0
LINE
  5
255
100
AcDbEntity
  8
0
100
AcDbLine
 62
7
  6
CONTINUOUS
 10
14.0698183383
 20
11.1327085416
 11
14.0698183383
 21
10.2296085416
  0
LINE
  5
256
100
AcDbEntity
  8
0
100
AcDbLine
 62
9
  6
CONTINUOUS
 10
14.1098183383
 20
11.1727085416
 11
14.1098183383
 21
10.1896085416
  0
LINE
  5
257
100
AcDbEntity
  8
0
100
AcDbLine
 62
9
  6
CONTINUOUS
 10
14.1317212098
 20
11.1727085416
 11
14.1317212098
 21
10.1896085416
  0
LINE
  5
258
100
AcDbEntity
  8
0
100
AcDbLine
 62
9
  6
CONTINUOUS
 10
14.1897725315
 20
11.127875745
 11
14.1897725315
 21
10.2344413382
  0
LINE
  5
259
100
AcDbEntity
  8
0
100
AcDbLine
 62
9
  6
CONTINUOUS
 10
14.2873310289
 20
10.9774901838
 11
14.2873310289
 21
10.3848268994
  0
LINE
  5
25A
100
AcDbEntity
  8
0
100
AcDbLine
 62
7
  6
CONTINUOUS
 10
14.3098183383
 20
10.9306628622
 11
14.3098183383
 21
10.431654221
  0
LWPOLYLINE
  5
25B
100
AcDbEntity
  8
0
100
AcDbPolyline
 62
7
  6
CONTINUOUS
 90
12
 70
0
 10
20.6707358136
 20
10.1164938702
 10
20.6583034047
 20
10.1092158629
 10
20.6472660548
 20
10.1012140932
 10
20.6375562134
 20
10.0925934305
 10
20.6291073566
 20
10.0834485405
 10
20.6217624522
 20
10.0737330294
 10
20.6153629779
 20
10.0632778544
 10
20.6097784849
 20
10.0517155304
 10
20.6051491651
 20
10.038869975
 10
20.6017248769
 20
10.0248572126
 10
20.5996844255
 20
10.0098662065
 10
20.5991005989
 20
9.9958743102
  0
LINE
  5
25C
100
AcDbEntity
  8
0
100
AcDbLine
 62
7
  6
CONTINUOUS
 10
-0.0901816617
 20
10.1896085416
 11
-0.1120845333
 21
10.1896085416
  0
LINE
  5
25D
100
AcDbEntity
  8
0
100
AcDbLine
 62
7
  6
CONTINUOUS
 10
14.1098183383
 20
10.1896085416
 11
14.1317212098
 21
10.1896085416
  0
LINE
  5
25E
100
AcDbEntity
  8
0
100
AcDbLine
 62
7
  6
CONTINUOUS
 10
18.1098183383
 20
10.1896085416
 11
18.1317212098
 21
10.1896085416
  0
LINE
  5
25F
100
AcDbEntity
  8
0
100
AcDbLine
 62
7
  6
CONTINUOUS
 10
2.6218183383
 20
10.4505085416
 11
2.5198183383
 21
10.4505085416
  0
LINE
  5
260
100
AcDbEntity
  8
0
100
AcDbLine
 62
7
  6
CONTINUOUS
 10
11.3978183383
 20
10.4505085416
 11
11.4998183383
 21
10.4505085416
  0
LINE
  5
261
100
AcDbEntity
  8
0
100
AcDbLine
 62
7
  6
CONTINUOUS
 10
15.3978183383
 20
10.4505085416
 11
15.4998183383
 21
10.4505085416
  0
LINE
  5
262
100
AcDbEntity
  8
0
100
AcDbLine
 62
7
  6
CONTINUOUS
 10
2.6218183383
 20
10.9118085416
 11
2.5198183383
 21
10.9118085416
  0
LINE
  5
263
100
AcDbEntity
  8
0
100
AcDbLine
 62
7
  6
CONTINUOUS
 10
11.3978183383
 20
10.9118085416
 11
11.4998183383
 21
10.9118085416
  0
LINE
  5
264
100
AcDbEntity
  8
0
100
AcDbLine
 62
7
  6
CONTINUOUS
 10
15.3978183383
 20
10.9118085416
 11
15.4998183383
 21
10.9118085416
  0
LINE
  5
265
100
AcDbEntity
  8
0
100
AcDbLine
 62
7
  6
CONTINUOUS
 10
-0.0901816617
 20
11.1727085416
 11
-0.1120845333
 21
11.1727085416
  0
LINE
  5
266
100
AcDbEntity
  8
0
100
AcDbLine
 62
7
  6
CONTINUOUS
 10
14.1098183383
 20
11.1727085416
 11
14.1317212098
 21
11.1727085416
  0
LINE
  5
267
100
AcDbEntity
  8
0
100
AcDbLine
 62
7
  6
CONTINUOUS
 10
18.1098183383
 20
11.1727085416
 11
18.1317212098
 21
11.1727085416
  0
LINE
  5
268
100
AcDbEntity
  8
0
100
AcDbLine
 62
7
  6
CONTINUOUS
 10
15.3978183383
 20
10.4505085416
 11
15.3978183383
 21
10.9118085416
  0
LINE
  5
269
100
AcDbEntity
  8
0
100
AcDbLine
 62
7
  6
CONTINUOUS
 10
15.4998183383
 20
10.944155917
 11
15.4998183383
 21
10.4181611661
  0
LINE
  5
26A
100
AcDbEntity
  8
0
100
AcDbLine
 62
9
  6
CONTINUOUS
 10
15.5468205636
 20
10.9835382588
 11
15.5468205636
 21
10.3787788244
  0
LINE
  5
26B
100
AcDbEntity
  8
0
100
AcDbLine
 62
9
  6
CONTINUOUS
 10
15.8144429499
 20
11.0078625166
 11
15.8144429499
 21
10.3544545665
  0
LINE
  5
26C
100
AcDbEntity
  8
0
100
AcDbLine
 62
7
  6
CONTINUOUS
 10
15.8948183383
 20
10.9601585416
 11
15.8948183383
 21
10.4021585416
  0
LWPOLYLINE
  5
26D
100
AcDbEntity
  8
0
100
AcDbPolyline
 62
7
  6
CONTINUOUS
 90
11
 70
0
 10
20.6058668351
 20
10.0408613843
 10
20.5955827208
 20
10.032128581
 10
20.5857767725
 20
10.0221555166
 10
20.5771875848
 20
10.0116486304
 10
20.5697258734
 20
10.0005867334
 10
20.5633124914
 20
9.9889054682
 10
20.5580651912
 20
9.9768101183
 10
20.5540104702
 20
9.9643719382
 10
20.5511327472
 20
9.9515358593
 10
20.5494430148
 20
9.9382308585
 10
20.5489657937
 20
9.9261528908
  0
LINE
  5
26E
100
AcDbEntity
  8
0
100
AcDbLine
 62
7
  6
CONTINUOUS
 10
21.2288057431
 20
10.1963102393
 11
21.2132648983
 21
10.2007520291
  0
LINE
  5
26F
100
AcDbEntity
  8
0
100
AcDbLine
 62
7
  6
CONTINUOUS
 10
21.2311150514
 20
10.1956255174
 11
21.2288213798
 21
10.1963057682
  0
LINE
  5
270
100
AcDbEntity
  8
0
100
AcDbLine
 62
7
  6
CONTINUOUS
 10
21.2306648949
 20
10.1957621132
 11
21.2311152208
 21
10.1956252213
  0
LINE
  5
271
100
AcDbEntity
  8
0
100
AcDbLine
 62
7
  6
CONTINUOUS
 10
20.5492389758
 20
9.9330668455
 11
20.5460059644
 21
9.9282527737
  0
LINE
  5
272
100
AcDbEntity
  8
0
100
AcDbLine
 62
7
  6
CONTINUOUS
 10
21.3054103556
 20
10.1499099079
 11
21.2856937799
 21
10.1573613709
  0
LINE
  5
273
100
AcDbEntity
  8
0
100
AcDbLine
 62
7
  6
CONTINUOUS
 10
21.3150351091
 20
10.1458833735
 11
21.3054076345
 21
10.1499109362
  0
LINE
  5
274
100
AcDbEntity
  8
0
100
AcDbLine
 62
7
  6
CONTINUOUS
 10
18.0698183383
 20
11.1327085416
 11
18.0698183383
 21
10.2296085416
  0
LINE
  5
275
100
AcDbEntity
  8
0
100
AcDbLine
 62
9
  6
CONTINUOUS
 10
18.1098183383
 20
11.1727085416
 11
18.1098183383
 21
10.1896085416
  0
LINE
  5
276
100
AcDbEntity
  8
0
100
AcDbLine
 62
9
  6
CONTINUOUS
 10
18.1317212098
 20
11.1727085416
 11
18.1317212098
 21
10.1896085416
  0
LINE
  5
277
100
AcDbEntity
  8
0
100
AcDbLine
 62
9
  6
CONTINUOUS
 10
18.1897725315
 20
11.127875745
 11
18.1897725315
 21
10.2344413382
  0
LINE
  5
278
100
AcDbEntity
  8
0
100
AcDbLine
 62
9
  6
CONTINUOUS
 10
18.2873310289
 20
10.9774901838
 11
18.2873310289
 21
10.3848268994
  0
LINE
  5
279
100
AcDbEntity
  8
0
100
AcDbLine
 62
7
  6
CONTINUOUS
 10
18.3098183383
 20
10.9306628622
 11
18.3098183383
 21
10.431654221
  0
LINE
  5
27A
100
AcDbEntity
  8
0
100
AcDbLine
 62
7
  6
CONTINUOUS
 10
20.5460059644
 20
9.9282527737
 11
20.5389579
 21
9.9154757803
  0
LINE
  5
27B
100
AcDbEntity
  8
0
100
AcDbLine
 62
7
  6
CONTINUOUS
 10
21.326486273
 20
10.1399413805
 11
21.3150351091
 21
10.1458833735
  0
LINE
  5
27C
100
AcDbEntity
  8
0
100
AcDbLine
 62
7
  6
CONTINUOUS
 10
21.0770398653
 20
10.231002543
 11
21.0751967483
 21
10.2320461777
  0
LINE
  5
27D
100
AcDbEntity
  8
0
100
AcDbLine
 62
7
  6
CONTINUOUS
 10
21.6839951281
 20
6.2659406309
 11
21.6567851819
 21
6.2952382657
  0
LINE
  5
27E
100
AcDbEntity
  8
0
100
AcDbLine
 62
7
  6
CONTINUOUS
 10
21.6567851819
 20
6.2952382657
 11
21.6440379713
 21
6.30902354
  0
LWPOLYLINE
  5
27F
100
AcDbEntity
  8
0
100
AcDbPolyline
 62
7
  6
CONTINUOUS
 90
4
 70
0
 10
21.6442130628
 20
6.30883419
 10
21.630757668
 20
6.3236992829
 10
21.6159633203
 20
6.340152084
 10
21.6029025217
 20
6.3547742576
  0
LWPOLYLINE
  5
280
100
AcDbEntity
  8
0
100
AcDbPolyline
 62
7
  6
CONTINUOUS
 90
6
 70
0
 10
21.6029020501
 20
6.3547747872
 10
21.5798859197
 20
6.3817262295
 10
21.5567347244
 20
6.411281483
 10
21.5349208091
 20
6.4417566024
 10
21.5144999217
 20
6.4730501186
 10
21.4964374031
 20
6.5034483798
  0
LWPOLYLINE
  5
281
100
AcDbEntity
  8
0
100
AcDbPolyline
 62
7
  6
CONTINUOUS
 90
6
 70
0
 10
20.5389579
 20
9.9154757803
 10
20.5331035739
 20
9.9021788101
 10
20.5285494763
 20
9.8884781818
 10
20.5253719175
 20
9.8745599829
 10
20.5235816819
 20
9.8606275166
 10
20.5231101828
 20
9.848783907
  0
LWPOLYLINE
  5
282
100
AcDbEntity
  8
0
100
AcDbPolyline
 62
7
  6
CONTINUOUS
 90
7
 70
0
 10
20.6857416121
 20
10.1222788056
 10
20.6810991327
 20
10.1126227202
 10
20.6772023758
 20
10.102146052
 10
20.6741267033
 20
10.0908573064
 10
20.6719319841
 20
10.0787892309
 10
20.6706492154
 20
10.0659428479
 10
20.6702875416
 20
10.0539717378
  0
LWPOLYLINE
  5
283
100
AcDbEntity
  8
0
100
AcDbPolyline
 62
7
  6
CONTINUOUS
 90
14
 70
0
 10
20.2454580154
 20
6.158394086
 10
20.2150366791
 20
6.1161057694
 10
20.1812140234
 20
6.0641916546
 10
20.1505022481
 20
6.0113628189
 10
20.1229820602
 20
5.9579004637
 10
20.0986865754
 20
5.9040968352
 10
20.0776093207
 20
5.8502376819
 10
20.0596958668
 20
5.7964729918
 10
20.0448907968
 20
5.7429541067
 10
20.0331431793
 20
5.6898630876
 10
20.0243764497
 20
5.6372557585
 10
20.0185033887
 20
5.5851402634
 10
20.0154519586
 20
5.5334941199
 10
20.0151213882
 20
5.484775539
  0
LINE
  5
284
100
AcDbEntity
  8
0
100
AcDbLine
 62
7
  6
CONTINUOUS
 10
20.2455936795
 20
6.1585746148
 11
20.245465966
 21
6.1584046627
  0
LWPOLYLINE
  5
285
100
AcDbEntity
  8
0
100
AcDbPolyline
 62
7
  6
CONTINUOUS
 90
3
 70
0
 10
20.4167341549
 20
6.3547742576
 10
20.4036733562
 20
6.340152084
 10
20.3888790085
 20
6.3236992829
  0
LWPOLYLINE
  5
286
100
AcDbEntity
  8
0
100
AcDbPolyline
 62
7
  6
CONTINUOUS
 90
4
 70
0
 10
20.3356420241
 20
6.2659411415
 10
20.3027788063
 20
6.229364204
 10
20.2702655379
 20
6.1903549227
 10
20.2455936973
 20
6.1585746385
  0
LINE
  5
287
100
AcDbEntity
  8
0
100
AcDbLine
 62
7
  6
CONTINUOUS
 10
20.3888790085
 20
6.3236992829
 11
20.3754236137
 21
6.30883419
  0
LWPOLYLINE
  5
288
100
AcDbEntity
  8
0
100
AcDbPolyline
 62
7
  6
CONTINUOUS
 90
3
 70
0
 10
20.3755987053
 20
6.30902354
 10
20.3484184862
 20
6.2796763679
 10
20.3356415485
 20
6.2659406309
  0
LWPOLYLINE
  5
289
100
AcDbEntity
  8
0
100
AcDbPolyline
 62
7
  6
CONTINUOUS
 90
3
 70
0
 10
21.3896185933
 20
10.0766838908
 10
21.3770104485
 20
10.0847901885
 10
21.375601888
 20
10.085544298
  0
LWPOLYLINE
  5
28A
100
AcDbEntity
  8
0
100
AcDbPolyline
 62
7
  6
CONTINUOUS
 90
4
 70
0
 10
21.7740429793
 20
6.1585746385
 10
21.7493711387
 20
6.1903549227
 10
21.7168578703
 20
6.229364204
 10
21.6839946524
 20
6.2659411415
  0
LINE
  5
28B
100
AcDbEntity
  8
0
100
AcDbLine
 62
7
  6
CONTINUOUS
 10
21.7740429971
 20
6.1585746148
 11
21.7741707105
 21
6.1584046627
  0
LWPOLYLINE
  5
28C
100
AcDbEntity
  8
0
100
AcDbPolyline
 62
7
  6
CONTINUOUS
 90
11
 70
0
 10
20.0151215339
 20
5.4848012547
 10
20.0172383655
 20
5.4362463201
 10
20.0220914176
 20
5.3848210396
 10
20.0296807493
 20
5.3331043274
 10
20.0400226564
 20
5.2813696329
 10
20.0531125807
 20
5.2298839352
 10
20.0689258801
 20
5.1789132844
 10
20.0874191426
 20
5.1287200251
 10
20.1085312492
 20
5.0795604314
 10
20.1321689964
 20
5.031690064
 10
20.1550882676
 20
4.9905735952
  0
LINE
  5
28D
100
AcDbEntity
  8
0
100
AcDbLine
 62
7
  6
CONTINUOUS
 10
20.01512202
 20
5.4847755444
 11
20.0151215339
 21
5.4848012547
  0
LWPOLYLINE
  5
28E
100
AcDbEntity
  8
0
100
AcDbPolyline
 62
7
  6
CONTINUOUS
 90
6
 70
0
 10
20.5231992735
 20
6.5034483798
 10
20.5051367549
 20
6.4730501186
 10
20.4847158675
 20
6.4417566024
 10
20.4629019521
 20
6.411281483
 10
20.4397507568
 20
6.3817262295
 10
20.4167346264
 20
6.3547747872
  0
LWPOLYLINE
  5
28F
100
AcDbEntity
  8
0
100
AcDbPolyline
 62
7
  6
CONTINUOUS
 90
4
 70
0
 10
21.0882568345
 20
10.2232078233
 10
21.0843918751
 20
10.2262590487
 10
21.0785767429
 20
10.2301086599
 10
21.077050214
 20
10.2309966795
  0
LWPOLYLINE
  5
290
100
AcDbEntity
  8
0
100
AcDbPolyline
 62
7
  6
CONTINUOUS
 90
5
 70
0
 10
21.4964366471
 20
6.5034497138
 10
21.4816725527
 20
6.5304971958
 10
21.4676082593
 20
6.5583782336
 10
21.4551570488
 20
6.585206069
 10
21.4448482159
 20
6.6093585783
  0
LWPOLYLINE
  5
291
100
AcDbEntity
  8
0
100
AcDbPolyline
 62
7
  6
CONTINUOUS
 90
3
 70
0
 10
20.5489657937
 20
7.8049541004
 10
20.5495752948
 20
7.7910838501
 10
20.5513980868
 20
7.7777421825
  0
LWPOLYLINE
  5
292
100
AcDbEntity
  8
0
100
AcDbPolyline
 62
7
  6
CONTINUOUS
 90
4
 70
0
 10
20.5991005989
 20
7.8746760365
 10
20.5995784214
 20
7.8616393001
 10
20.601273138
 20
7.8464746809
 10
20.6025815939
 20
7.8394548069
  0
LINE
  5
293
100
AcDbEntity
  8
0
100
AcDbLine
 62
7
  6
CONTINUOUS
 10
20.6703049897
 20
7.9300806276
 11
20.6703146236
 21
7.9294149771
  0
LINE
  5
294
100
AcDbEntity
  8
0
100
AcDbLine
 62
7
  6
CONTINUOUS
 10
20.6702875416
 20
7.93277465
 11
20.6703049897
 21
7.9300806276
  0
LINE
  5
295
100
AcDbEntity
  8
0
100
AcDbLine
 62
7
  6
CONTINUOUS
 10
20.5198183383
 20
10.3007728503
 11
20.5198183383
 21
10.3843352395
  0
LINE
  5
296
100
AcDbEntity
  8
0
100
AcDbLine
 62
7
  6
CONTINUOUS
 10
20.5223183383
 20
10.6811585416
 11
20.5223183383
 21
10.420588588
  0
LINE
  5
297
100
AcDbEntity
  8
0
100
AcDbLine
 62
7
  6
CONTINUOUS
 10
20.5231101828
 20
9.8487830072
 11
20.5231101828
 21
7.7275822707
  0
LINE
  5
298
100
AcDbEntity
  8
0
100
AcDbLine
 62
7
  6
CONTINUOUS
 10
20.5398183383
 20
10.406919082
 11
20.5398183383
 21
9.9874394598
  0
LINE
  5
299
100
AcDbEntity
  8
0
100
AcDbLine
 62
7
  6
CONTINUOUS
 10
20.5489657937
 20
9.9261541947
 11
20.5489657937
 21
7.8049550827
  0
LINE
  5
29A
100
AcDbEntity
  8
0
100
AcDbLine
 62
7
  6
CONTINUOUS
 10
20.5991005989
 20
9.9958743507
 11
20.5991005989
 21
7.8746752388
  0
LINE
  5
29B
100
AcDbEntity
  8
0
100
AcDbLine
 62
7
  6
CONTINUOUS
 10
20.6702875416
 20
10.0539736702
 11
20.6702875416
 21
7.9327745582
  0
LINE
  5
29C
100
AcDbEntity
  8
0
100
AcDbLine
 62
7
  6
CONTINUOUS
 10
20.7602510685
 20
10.1102912063
 11
20.7602510685
 21
7.9890920943
  0
LINE
  5
29D
100
AcDbEntity
  8
0
100
AcDbLine
 62
7
  6
CONTINUOUS
 10
20.8658902475
 20
10.1483712942
 11
20.8658902475
 21
8.0271721822
  0
LINE
  5
29E
100
AcDbEntity
  8
0
100
AcDbLine
 62
7
  6
CONTINUOUS
 10
20.6238223359
 20
6.8227356931
 11
20.6229101717
 21
6.8049388624
  0
LINE
  5
29F
100
AcDbEntity
  8
0
100
AcDbLine
 62
7
  6
CONTINUOUS
 10
20.6233926596
 20
6.809521334
 11
20.6228687655
 21
6.802425771
  0
LINE
  5
2A0
100
AcDbEntity
  8
0
100
AcDbLine
 62
7
  6
CONTINUOUS
 10
20.6229101717
 20
6.8049388624
 11
20.6214492745
 21
6.7876044854
  0
LINE
  5
2A1
100
AcDbEntity
  8
0
100
AcDbLine
 62
7
  6
CONTINUOUS
 10
20.6228687655
 20
6.802425771
 11
20.6208566271
 21
6.7818383026
  0
LINE
  5
2A2
100
AcDbEntity
  8
0
100
AcDbLine
 62
7
  6
CONTINUOUS
 10
20.6214492723
 20
6.787604463
 11
20.6206050137
 21
6.7799520016
  0
LINE
  5
2A3
100
AcDbEntity
  8
0
100
AcDbLine
 62
9
  6
CONTINUOUS
 10
20.6214492745
 20
6.7876044854
 11
20.6219008492
 21
6.7915066383
  0
LINE
  5
2A4
100
AcDbEntity
  8
0
100
AcDbLine
 62
7
  6
CONTINUOUS
 10
20.6208566271
 20
6.7818383026
 11
20.6178385028
 21
6.7592119551
  0
LINE
  5
2A5
100
AcDbEntity
  8
0
100
AcDbLine
 62
7
  6
CONTINUOUS
 10
20.6178385028
 20
6.7592119551
 11
20.6139694191
 21
6.7364118512
  0
LWPOLYLINE
  5
2A6
100
AcDbEntity
  8
0
100
AcDbPolyline
 62
7
  6
CONTINUOUS
 90
7
 70
0
 10
20.6140421879
 20
6.7367569677
 10
20.610634439
 20
6.7205952292
 10
20.6059385764
 20
6.7014348079
 10
20.6000531351
 20
6.6804877765
 10
20.5928599906
 20
6.6578267539
 10
20.5842484937
 20
6.6335384337
 10
20.5747888888
 20
6.6093596249
  0
LWPOLYLINE
  5
2A7
100
AcDbEntity
  8
0
100
AcDbPolyline
 62
7
  6
CONTINUOUS
 90
5
 70
0
 10
20.5747884607
 20
6.6093585783
 10
20.5644796278
 20
6.585206069
 10
20.5520284173
 20
6.5583782336
 10
20.5379641238
 20
6.5304971958
 10
20.5232000295
 20
6.5034497138
  0
LWPOLYLINE
  5
2A8
100
AcDbEntity
  8
0
100
AcDbPolyline
 62
7
  6
CONTINUOUS
 90
6
 70
0
 10
21.4448477877
 20
6.6093596249
 10
21.4353881829
 20
6.6335384337
 10
21.426776686
 20
6.6578267539
 10
21.4195835415
 20
6.6804877765
 10
21.4136981002
 20
6.7014348079
 10
21.4090022375
 20
6.7205952292
  0
LINE
  5
2A9
100
AcDbEntity
  8
0
100
AcDbLine
 62
7
  6
CONTINUOUS
 10
20.4996969028
 20
7.5419240754
 11
20.6202635091
 21
6.898388368
  0
LWPOLYLINE
  5
2AA
100
AcDbEntity
  8
0
100
AcDbPolyline
 62
7
  6
CONTINUOUS
 90
7
 70
0
 10
20.6198663102
 20
6.9012731821
 10
20.6210078096
 20
6.8929825929
 10
20.6222204864
 20
6.8818645595
 10
20.6232182872
 20
6.8691238235
 10
20.6238855039
 20
6.8549282207
 10
20.6241181574
 20
6.8394316494
 10
20.6238223359
 20
6.8227356931
  0
LWPOLYLINE
  5
2AB
100
AcDbEntity
  8
0
100
AcDbPolyline
 62
7
  6
CONTINUOUS
 90
3
 70
0
 10
21.3987800495
 20
6.7818383026
 10
21.3967679111
 20
6.802425771
 10
21.396244017
 20
6.809521334
  0
LINE
  5
2AC
100
AcDbEntity
  8
0
100
AcDbLine
 62
7
  6
CONTINUOUS
 10
21.398187402
 20
6.7876044854
 11
21.3967265048
 21
6.8049388624
  0
LWPOLYLINE
  5
2AD
100
AcDbEntity
  8
0
100
AcDbPolyline
 62
7
  6
CONTINUOUS
 90
8
 70
0
 10
21.3967265048
 20
6.8049388624
 10
21.3958143407
 20
6.8227356931
 10
21.3955185192
 20
6.8394316494
 10
21.3957511726
 20
6.8549282207
 10
21.3964183894
 20
6.8691238235
 10
21.3974161901
 20
6.8818645595
 10
21.398628867
 20
6.8929825929
 10
21.3997703664
 20
6.9012731821
  0
LWPOLYLINE
  5
2AE
100
AcDbEntity
  8
0
100
AcDbPolyline
 62
7
  6
CONTINUOUS
 90
9
 70
0
 10
21.4867777591
 20
9.8880290804
 10
21.4862651608
 20
9.9004014708
 10
21.4843716436
 20
9.9145809512
 10
21.4810589645
 20
9.9285537434
 10
21.4763546237
 20
9.9421600679
 10
21.4703366622
 20
9.9552563689
 10
21.4630877345
 20
9.9677773424
 10
21.4544658452
 20
9.9799007832
 10
21.4459976503
 20
9.9896965201
  0
LWPOLYLINE
  5
2AF
100
AcDbEntity
  8
0
100
AcDbPolyline
 62
7
  6
CONTINUOUS
 90
6
 70
0
 10
21.4997895925
 20
9.8090413866
 10
21.4993005475
 20
9.8211131382
 10
21.4973377786
 20
9.8359655006
 10
21.4937187476
 20
9.8512086473
 10
21.4884558557
 20
9.8663482468
 10
21.4867777591
 20
9.869995476
  0
LWPOLYLINE
  5
2B0
100
AcDbEntity
  8
0
100
AcDbPolyline
 62
7
  6
CONTINUOUS
 90
11
 70
0
 10
21.4484656914
 20
9.9622701367
 10
21.4479463091
 20
9.9751344167
 10
21.4460738997
 20
9.9893731415
 10
21.4428723698
 20
10.0029510335
 10
21.4384356862
 20
10.0157425589
 10
21.4329372893
 20
10.0276128466
 10
21.4265768981
 20
10.0384975549
 10
21.4191952186
 20
10.0487924572
 10
21.4106190039
 20
10.0586335346
 10
21.4007781544
 20
10.0679580154
 10
21.3896185933
 20
10.0766838908
  0
LWPOLYLINE
  5
2B1
100
AcDbEntity
  8
0
100
AcDbPolyline
 62
7
  6
CONTINUOUS
 90
12
 70
0
 10
21.3873277398
 20
10.0265636999
 10
21.3868512121
 20
10.0396650855
 10
21.3851871768
 20
10.0536272467
 10
21.3823807273
 20
10.0666802835
 10
21.3785243329
 20
10.078767151
 10
21.3737567908
 20
10.0898230767
 10
21.3682086929
 20
10.0998734956
 10
21.3617973704
 20
10.1091870194
 10
21.3544441841
 20
10.1178625003
 10
21.346128638
 20
10.125893756
 10
21.336824782
 20
10.133262982
 10
21.326486273
 20
10.1399413805
  0
LINE
  5
2B2
100
AcDbEntity
  8
0
100
AcDbLine
 62
7
  6
CONTINUOUS
 10
20.9805729577
 20
10.1651299695
 11
20.9805729577
 21
8.0439308576
  0
LINE
  5
2B3
100
AcDbEntity
  8
0
100
AcDbLine
 62
7
  6
CONTINUOUS
 10
21.0098183383
 20
6.3082289694
 11
21.0098183383
 21
5.7841253875
  0
LINE
  5
2B4
100
AcDbEntity
  8
0
100
AcDbLine
 62
9
  6
CONTINUOUS
 10
21.0098183383
 20
4.5237499867
 11
21.0098183383
 21
5.7841253784
  0
LINE
  5
2B5
100
AcDbEntity
  8
0
100
AcDbLine
 62
9
  6
CONTINUOUS
 10
21.0098183383
 20
6.3082289694
 11
21.0098183383
 21
7.9926324073
  0
LINE
  5
2B6
100
AcDbEntity
  8
0
100
AcDbLine
 62
7
  6
CONTINUOUS
 10
21.0970932628
 20
10.1595142232
 11
21.0970932628
 21
8.0383151112
  0
LINE
  5
2B7
100
AcDbEntity
  8
0
100
AcDbLine
 62
7
  6
CONTINUOUS
 10
21.2081297634
 20
10.1318769131
 11
21.2081297634
 21
8.0106778011
  0
LINE
  5
2B8
100
AcDbEntity
  8
0
100
AcDbLine
 62
7
  6
CONTINUOUS
 10
21.3067056278
 20
10.0839545931
 11
21.3067056278
 21
7.9627554812
  0
LINE
  5
2B9
100
AcDbEntity
  8
0
100
AcDbLine
 62
7
  6
CONTINUOUS
 10
21.3873277399
 20
7.9053655125
 11
21.3873277399
 21
10.0265646244
  0
LINE
  5
2BA
100
AcDbEntity
  8
0
100
AcDbLine
 62
7
  6
CONTINUOUS
 10
21.4484656914
 20
7.8410706804
 11
21.4484656914
 21
9.9622697924
  0
LINE
  5
2BB
100
AcDbEntity
  8
0
100
AcDbLine
 62
7
  6
CONTINUOUS
 10
21.4798183383
 20
9.9874394477
 11
21.4798183383
 21
10.406919082
  0
LINE
  5
2BC
100
AcDbEntity
  8
0
100
AcDbLine
 62
7
  6
CONTINUOUS
 10
21.4867777591
 20
7.766829451
 11
21.4867777591
 21
9.888028563
  0
LINE
  5
2BD
100
AcDbEntity
  8
0
100
AcDbLine
 62
7
  6
CONTINUOUS
 10
21.4973183383
 20
10.6811585416
 11
21.4973183383
 21
10.4205868795
  0
LINE
  5
2BE
100
AcDbEntity
  8
0
100
AcDbLine
 62
7
  6
CONTINUOUS
 10
21.4997895925
 20
7.7197062231
 11
21.4997895925
 21
9.8090403289
  0
LINE
  5
2BF
100
AcDbEntity
  8
0
100
AcDbLine
 62
7
  6
CONTINUOUS
 10
21.4998183383
 20
10.3007728503
 11
21.4998183383
 21
10.3843352395
  0
LWPOLYLINE
  5
2C0
100
AcDbEntity
  8
0
100
AcDbPolyline
 62
7
  6
CONTINUOUS
 90
3
 70
0
 10
21.4855669858
 20
7.7490639693
 10
21.486238939
 20
7.7540543553
 10
21.4867777587
 20
7.766835344
  0
LWPOLYLINE
  5
2C1
100
AcDbEntity
  8
0
100
AcDbPolyline
 62
7
  6
CONTINUOUS
 90
4
 70
0
 10
21.3841126503
 20
7.8691735765
 10
21.3852402385
 20
7.8764449398
 10
21.3868874378
 20
7.8923294331
 10
21.3873277398
 20
7.9053663721
  0
LINE
  5
2C2
100
AcDbEntity
  8
0
100
AcDbLine
 62
7
  6
CONTINUOUS
 10
21.3993731674
 20
6.898388368
 11
21.5199397737
 21
7.5419240754
  0
LWPOLYLINE
  5
2C3
100
AcDbEntity
  8
0
100
AcDbPolyline
 62
7
  6
CONTINUOUS
 90
4
 70
0
 10
21.4453618867
 20
7.8087745614
 10
21.4456906519
 20
7.810270884
 10
21.4478552709
 20
7.8268005783
 10
21.4484656914
 20
7.8410704678
  0
LWPOLYLINE
  5
2C4
100
AcDbEntity
  8
0
100
AcDbPolyline
 62
7
  6
CONTINUOUS
 90
11
 70
0
 10
21.864548409
 20
4.9905735953
 10
21.8874676966
 20
5.0316900953
 10
21.9111054406
 20
5.0795604599
 10
21.9322175441
 20
5.1287200507
 10
21.950710804
 20
5.1789133067
 10
21.9665241012
 20
5.229883954
 10
21.9796140236
 20
5.2813696481
 10
21.9899559292
 20
5.3331043388
 10
21.9975452599
 20
5.3848210473
 10
22.0023983113
 20
5.4362463239
 10
22.0045151427
 20
5.4848012547
  0
LWPOLYLINE
  5
2C5
100
AcDbEntity
  8
0
100
AcDbPolyline
 62
7
  6
CONTINUOUS
 90
11
 70
0
 10
21.1977572869
 20
10.1886773228
 10
21.1968292633
 20
10.1901975911
 10
21.1937360591
 20
10.1947563894
 10
21.190003269
 20
10.1994446924
 10
21.1855972088
 20
10.2041368535
 10
21.1805232448
 20
10.2086967666
 10
21.1747868019
 20
10.2130191596
 10
21.168418768
 20
10.2169996235
 10
21.1614677363
 20
10.2205419992
 10
21.1539188229
 20
10.2235992175
 10
21.1465333316
 20
10.2259140467
  0
LINE
  5
2C6
100
AcDbEntity
  8
0
100
AcDbLine
 62
7
  6
CONTINUOUS
 10
21.4090022375
 20
6.7205952292
 11
21.4055944887
 21
6.7367569677
  0
LINE
  5
2C7
100
AcDbEntity
  8
0
100
AcDbLine
 62
7
  6
CONTINUOUS
 10
21.4056672575
 20
6.7364118512
 11
21.4017981738
 21
6.7592119551
  0
LWPOLYLINE
  5
2C8
100
AcDbEntity
  8
0
100
AcDbPolyline
 62
7
  6
CONTINUOUS
 90
15
 70
0
 10
21.3049905848
 20
10.1075566686
 10
21.3046103518
 20
10.1098506343
 10
21.3026525325
 20
10.1192761131
 10
21.3001749968
 20
10.1280909621
 10
21.2971691
 20
10.136406629
 10
21.2935738797
 20
10.1443776748
 10
21.2892306684
 20
10.1521861847
 10
21.2840443427
 20
10.1597748326
 10
21.2779462282
 20
10.1670507469
 10
21.2709285814
 20
10.1738733695
 10
21.2630278622
 20
10.180107251
 10
21.2543251899
 20
10.1856506547
 10
21.2449988512
 20
10.190394872
 10
21.2352308966
 20
10.1942798751
 10
21.231347749
 20
10.1955537628
  0
LINE
  5
2C9
100
AcDbEntity
  8
0
100
AcDbLine
 62
7
  6
CONTINUOUS
 10
21.4017981738
 20
6.7592119551
 11
21.3987800495
 21
6.7818383026
  0
LINE
  5
2CA
100
AcDbEntity
  8
0
100
AcDbLine
 62
9
  6
CONTINUOUS
 10
21.398187402
 20
6.7876044854
 11
21.3977358273
 21
6.7915066383
  0
LINE
  5
2CB
100
AcDbEntity
  8
0
100
AcDbLine
 62
7
  6
CONTINUOUS
 10
21.3990316628
 20
6.7799520016
 11
21.3981874043
 21
6.787604463
  0
LWPOLYLINE
  5
2CC
100
AcDbEntity
  8
0
100
AcDbPolyline
 62
7
  6
CONTINUOUS
 90
14
 70
0
 10
22.0045152884
 20
5.484775539
 10
22.004184718
 20
5.5334941199
 10
22.0011332879
 20
5.5851402634
 10
21.9952602268
 20
5.6372557585
 10
21.9864934973
 20
5.6898630876
 10
21.9747458798
 20
5.7429541067
 10
21.9599408097
 20
5.7964729918
 10
21.9420273559
 20
5.8502376819
 10
21.9209501012
 20
5.9040968352
 10
21.8966546163
 20
5.9579004637
 10
21.8691344285
 20
6.0113628189
 10
21.8384226532
 20
6.0641916546
 10
21.8045999975
 20
6.1161057694
 10
21.7741786611
 20
6.158394086
  0
LINE
  5
2CD
100
AcDbEntity
  8
0
100
AcDbLine
 62
7
  6
CONTINUOUS
 10
22.0045146566
 20
5.4847755444
 11
22.0045151427
 21
5.4848012547
  0
ARC
  5
2CE
100
AcDbEntity
  8
0
100
AcDbCircle
 62
7
  6
CONTINUOUS
 10
-63.2182924991
 20
7.4460191173
 40
70.8281111697
100
AcDbArc
 50
359.8231995253
 51
359.9944501975
  0
ARC
  5
2CF
100
AcDbEntity
  8
0
100
AcDbCircle
 62
7
  6
CONTINUOUS
 10
-2.063076478
 20
-30.8305286627
 40
42.0
100
AcDbArc
 50
84.2774261872
 51
87.2529863377
  0
ARC
  5
2D0
100
AcDbEntity
  8
0
100
AcDbCircle
 62
9
  6
CONTINUOUS
 10
-21.5790562351
 20
6.5809162369
 40
27.9904663133
100
AcDbArc
 50
358.9248216936
 51
359.8354421156
  0
ARC
  5
2D1
100
AcDbEntity
  8
0
100
AcDbCircle
 62
9
  6
CONTINUOUS
 10
-0.3780248276
 20
5.708083198
 40
6.7625000187
100
AcDbArc
 50
352.5991645007
 51
352.8086662262
  0
ARC
  5
2D2
100
AcDbEntity
  8
0
100
AcDbCircle
 62
9
  6
CONTINUOUS
 10
0.0766046887
 20
5.7780694037
 40
6.3321761599
100
AcDbArc
 50
340.3381253827
 51
341.1699809659
  0
ARC
  5
2D3
100
AcDbEntity
  8
0
100
AcDbCircle
 62
9
  6
CONTINUOUS
 10
0.4813907395
 20
5.6447972841
 40
5.9060407386
100
AcDbArc
 50
341.1262287494
 51
345.9627921943
  0
ARC
  5
2D4
100
AcDbEntity
  8
0
100
AcDbCircle
 62
7
  6
CONTINUOUS
 10
5.7423183383
 20
9.2636859151
 40
0.761
100
AcDbArc
 50
337.2946647958
 51
6.2521091861
  0
ARC
  5
2D5
100
AcDbEntity
  8
0
100
AcDbCircle
 62
7
  6
CONTINUOUS
 10
2.3835377405
 20
9.8766539672
 40
0.51
100
AcDbArc
 50
79.9181044226
 51
110.4686087921
  0
ARC
  5
2D6
100
AcDbEntity
  8
0
100
AcDbCircle
 62
7
  6
CONTINUOUS
 10
6.0937916578
 20
9.1166229842
 40
0.38
100
AcDbArc
 50
303.5288687144
 51
337.2946647958
  0
ARC
  5
2D7
100
AcDbEntity
  8
0
100
AcDbCircle
 62
7
  6
CONTINUOUS
 10
-0.4458796325
 20
10.1623971219
 40
0.285
100
AcDbArc
 50
14.6424776248
 51
51.3022866218
  0
ARC
  5
2D8
100
AcDbEntity
  8
0
100
AcDbCircle
 62
7
  6
CONTINUOUS
 10
6.2641501905
 20
9.4629268728
 40
0.22
100
AcDbArc
 50
6.717689132
 51
69.701013227
  0
ARC
  5
2D9
100
AcDbEntity
  8
0
100
AcDbCircle
 62
9
  6
CONTINUOUS
 10
6.5200818783
 20
4.8371892028
 40
0.1919432415
100
AcDbArc
 50
172.6056234419
 51
180.0549306343
  0
ARC
  5
2DA
100
AcDbEntity
  8
0
100
AcDbCircle
 62
7
  6
CONTINUOUS
 10
6.3578183383
 20
8.7181585416
 40
0.098
100
AcDbArc
 50
123.5288687144
 51
243.2923546979
  0
ARC
  5
2DB
100
AcDbEntity
  8
0
100
AcDbCircle
 62
7
  6
CONTINUOUS
 10
6.2778183383
 20
8.5591491079
 40
0.08
100
AcDbArc
 50
0.0
 51
63.2923546979
  0
ARC
  5
2DC
100
AcDbEntity
  8
0
100
AcDbCircle
 62
7
  6
CONTINUOUS
 10
-0.1120845333
 20
10.2496085416
 40
0.06
100
AcDbArc
 50
194.6424776246
 51
270.0
  0
ARC
  5
2DD
100
AcDbEntity
  8
0
100
AcDbCircle
 62
7
  6
CONTINUOUS
 10
-0.2301816617
 20
10.431654221
 40
0.06
100
AcDbArc
 50
180.0
 51
231.3022866217
  0
ARC
  5
2DE
100
AcDbEntity
  8
0
100
AcDbCircle
 62
7
  6
CONTINUOUS
 10
2.1842120777
 20
10.4106664017
 40
0.06
100
AcDbArc
 50
188.1518829448
 51
290.4686090761
  0
ARC
  5
2DF
100
AcDbEntity
  8
0
100
AcDbCircle
 62
7
  6
CONTINUOUS
 10
6.3578183383
 20
9.8311585416
 40
0.05
100
AcDbArc
 50
90.0
 51
180.0
  0
ARC
  5
2E0
100
AcDbEntity
  8
0
100
AcDbCircle
 62
7
  6
CONTINUOUS
 10
6.3578183383
 20
9.7161585416
 40
0.05
100
AcDbArc
 50
180.0
 51
249.701013227
  0
ARC
  5
2E1
100
AcDbEntity
  8
0
100
AcDbCircle
 62
7
  6
CONTINUOUS
 10
2.4798183383
 20
10.4181611661
 40
0.04
100
AcDbArc
 50
259.9181044225
 51
360.0
  0
ARC
  5
2E2
100
AcDbEntity
  8
0
100
AcDbCircle
 62
7
  6
CONTINUOUS
 10
-0.0901816617
 20
10.2296085416
 40
0.04
100
AcDbArc
 50
270.0
 51
360.0
  0
ARC
  5
2E3
100
AcDbEntity
  8
0
100
AcDbCircle
 62
7
  6
CONTINUOUS
 10
6.3778183383
 20
8.5531585416
 40
0.02
100
AcDbArc
 50
180.0
 51
270.0
  0
ARC
  5
2E4
100
AcDbEntity
  8
0
100
AcDbCircle
 62
7
  6
CONTINUOUS
 10
6.3525512693
 20
9.9011585416
 40
0.02
100
AcDbArc
 50
229.8808331016
 51
270.0
  0
ARC
  5
2E5
100
AcDbEntity
  8
0
100
AcDbCircle
 62
7
  6
CONTINUOUS
 10
-0.4458796325
 20
11.1999199613
 40
0.285
100
AcDbArc
 50
308.6977133782
 51
345.3575223752
  0
ARC
  5
2E6
100
AcDbEntity
  8
0
100
AcDbCircle
 62
7
  6
CONTINUOUS
 10
-0.1120845333
 20
11.1127085416
 40
0.06
100
AcDbArc
 50
90.0
 51
165.3575223754
  0
ARC
  5
2E7
100
AcDbEntity
  8
0
100
AcDbCircle
 62
7
  6
CONTINUOUS
 10
-0.2301816617
 20
10.9306628622
 40
0.06
100
AcDbArc
 50
128.6977133783
 51
180.0
  0
ARC
  5
2E8
100
AcDbEntity
  8
0
100
AcDbCircle
 62
7
  6
CONTINUOUS
 10
-0.0901816617
 20
11.1327085416
 40
0.04
100
AcDbArc
 50
0.0
 51
90.0
  0
ARC
  5
2E9
100
AcDbEntity
  8
0
100
AcDbCircle
 62
7
  6
CONTINUOUS
 10
-2.063076478
 20
52.1928457459
 40
42.0
100
AcDbArc
 50
272.7470136623
 51
275.7225738128
  0
ARC
  5
2EA
100
AcDbEntity
  8
0
100
AcDbCircle
 62
7
  6
CONTINUOUS
 10
2.1842120777
 20
10.9516506815
 40
0.06
100
AcDbArc
 50
69.5313909201
 51
171.848117056
  0
ARC
  5
2EB
100
AcDbEntity
  8
0
100
AcDbCircle
 62
7
  6
CONTINUOUS
 10
2.4798183383
 20
10.944155917
 40
0.04
100
AcDbArc
 50
0.0
 51
100.0818955775
  0
ARC
  5
2EC
100
AcDbEntity
  8
0
100
AcDbCircle
 62
7
  6
CONTINUOUS
 10
2.3835377405
 20
11.485663116
 40
0.51
100
AcDbArc
 50
249.5313912079
 51
280.0818955774
  0
ARC
  5
2ED
100
AcDbEntity
  8
0
100
AcDbCircle
 62
7
  6
CONTINUOUS
 10
3.0098183383
 20
10.6811585416
 40
1.1
100
AcDbArc
 50
195.5783406634
 51
164.4216592717
  0
ARC
  5
2EE
100
AcDbEntity
  8
0
100
AcDbCircle
 62
9
  6
CONTINUOUS
 10
3.0098183383
 20
10.6811585416
 40
1.0192765548
100
AcDbArc
 50
196.3987448535
 51
163.601255094
  0
ARC
  5
2EF
100
AcDbEntity
  8
0
100
AcDbCircle
 62
9
  6
CONTINUOUS
 10
3.0098183383
 20
10.6811585416
 40
0.835574485
100
AcDbArc
 50
202.2495986179
 51
157.7504014062
  0
ARC
  5
2F0
100
AcDbEntity
  8
0
100
AcDbCircle
 62
9
  6
CONTINUOUS
 10
3.0098183383
 20
10.6811585416
 40
0.8181730746
100
AcDbArc
 50
202.3972412963
 51
157.6027583644
  0
ARC
  5
2F1
100
AcDbEntity
  8
0
100
AcDbCircle
 62
7
  6
CONTINUOUS
 10
3.0098183383
 20
10.6811585416
 40
0.745
100
AcDbArc
 50
203.5797594687
 51
156.4202405313
  0
ARC
  5
2F2
100
AcDbEntity
  8
0
100
AcDbCircle
 62
7
  6
CONTINUOUS
 10
3.0098183383
 20
10.6811585416
 40
0.71
100
AcDbArc
 50
204.5754882023
 51
155.4245117977
  0
ARC
  5
2F3
100
AcDbEntity
  8
0
100
AcDbCircle
 62
7
  6
CONTINUOUS
 10
3.0098183383
 20
10.6811585416
 40
0.5877311806
100
AcDbArc
 50
210.2509685415
 51
149.7490314585
  0
ARC
  5
2F4
100
AcDbEntity
  8
0
100
AcDbCircle
 62
9
  6
CONTINUOUS
 10
3.0098183383
 20
10.6811585416
 40
0.5277311806
100
AcDbArc
 50
205.9319833053
 51
154.0680162995
  0
ARC
  5
2F5
100
AcDbEntity
  8
0
100
AcDbCircle
 62
7
  6
CONTINUOUS
 10
3.0098183383
 20
10.6811585416
 40
0.451
100
AcDbArc
 50
210.6485451413
 51
149.3514548587
  0
CIRCLE
  5
2F6
100
AcDbEntity
  8
0
100
AcDbCircle
 62
9
  6
CONTINUOUS
 10
3.0098183383
 20
10.6811585416
 40
0.2988618956
  0
CIRCLE
  5
2F7
100
AcDbEntity
  8
0
100
AcDbCircle
 62
9
  6
CONTINUOUS
 10
3.0098183383
 20
10.6811585416
 40
0.292235246
  0
CIRCLE
  5
2F8
100
AcDbEntity
  8
0
100
AcDbCircle
 62
7
  6
CONTINUOUS
 10
3.0098183383
 20
10.6811585416
 40
0.28
  0
CIRCLE
  5
2F9
100
AcDbEntity
  8
0
100
AcDbCircle
 62
9
  6
CONTINUOUS
 10
3.0098183383
 20
10.6811585416
 40
0.2258064516
  0
ARC
  5
2FA
100
AcDbEntity
  8
0
100
AcDbCircle
 62
7
  6
CONTINUOUS
 10
16.0827131546
 20
-30.8305286627
 40
42.0
100
AcDbArc
 50
92.7470136623
 51
95.7225738128
  0
ARC
  5
2FB
100
AcDbEntity
  8
0
100
AcDbCircle
 62
7
  6
CONTINUOUS
 10
20.0827131546
 20
-30.8305286627
 40
42.0
100
AcDbArc
 50
92.7470136623
 51
95.7225738128
  0
ARC
  5
2FC
100
AcDbEntity
  8
0
100
AcDbCircle
 62
9
  6
CONTINUOUS
 10
14.3976615041
 20
5.708083198
 40
6.7625000187
100
AcDbArc
 50
187.1913337738
 51
187.4008354993
  0
ARC
  5
2FD
100
AcDbEntity
  8
0
100
AcDbCircle
 62
9
  6
CONTINUOUS
 10
13.9430319878
 20
5.7780694037
 40
6.3321761599
100
AcDbArc
 50
198.8300190341
 51
199.6618746173
  0
ARC
  5
2FE
100
AcDbEntity
  8
0
100
AcDbCircle
 62
9
  6
CONTINUOUS
 10
13.5382459371
 20
5.6447972841
 40
5.9060407386
100
AcDbArc
 50
194.0372078057
 51
198.8737712506
  0
ARC
  5
2FF
100
AcDbEntity
  8
0
100
AcDbCircle
 62
7
  6
CONTINUOUS
 10
20.1400946271
 20
6.8523267879
 40
0.4844046578
100
AcDbArc
 50
5.8294309035
 51
9.9213399415
  0
ARC
  5
300
100
AcDbEntity
  8
0
100
AcDbCircle
 62
7
  6
CONTINUOUS
 10
20.8477128655
 20
6.9358638349
 40
0.2304573137
100
AcDbArc
 50
180.0195416389
 51
188.6324719515
  0
ARC
  5
301
100
AcDbEntity
  8
0
100
AcDbCircle
 62
7
  6
CONTINUOUS
 10
21.171923811
 20
6.9358638349
 40
0.2304573137
100
AcDbArc
 50
351.3675280485
 51
359.9804583611
  0
ARC
  5
302
100
AcDbEntity
  8
0
100
AcDbCircle
 62
9
  6
CONTINUOUS
 10
7.4995547983
 20
4.8371892028
 40
0.1919432415
100
AcDbArc
 50
359.9450693657
 51
7.3943765581
  0
ARC
  5
303
100
AcDbEntity
  8
0
100
AcDbCircle
 62
7
  6
CONTINUOUS
 10
8.2773183383
 20
9.2636859151
 40
0.761
100
AcDbArc
 50
173.7478908139
 51
202.7053352042
  0
ARC
  5
304
100
AcDbEntity
  8
0
100
AcDbCircle
 62
7
  6
CONTINUOUS
 10
7.9258450187
 20
9.1166229842
 40
0.38
100
AcDbArc
 50
202.7053352042
 51
236.4711312856
  0
ARC
  5
305
100
AcDbEntity
  8
0
100
AcDbCircle
 62
7
  6
CONTINUOUS
 10
7.755486486
 20
9.4629268728
 40
0.22
100
AcDbArc
 50
110.298986773
 51
173.282310868
  0
ARC
  5
306
100
AcDbEntity
  8
0
100
AcDbCircle
 62
7
  6
CONTINUOUS
 10
7.6618183383
 20
8.7181585416
 40
0.098
100
AcDbArc
 50
296.7076453021
 51
56.4711312856
  0
ARC
  5
307
100
AcDbEntity
  8
0
100
AcDbCircle
 62
7
  6
CONTINUOUS
 10
7.7418183383
 20
8.5591491079
 40
0.08
100
AcDbArc
 50
116.7076453021
 51
180.0
  0
ARC
  5
308
100
AcDbEntity
  8
0
100
AcDbCircle
 62
7
  6
CONTINUOUS
 10
7.6418183383
 20
8.5531585416
 40
0.02
100
AcDbArc
 50
270.0
 51
360.0
  0
ARC
  5
309
100
AcDbEntity
  8
0
100
AcDbCircle
 62
7
  6
CONTINUOUS
 10
11.636098936
 20
9.8766539672
 40
0.51
100
AcDbArc
 50
69.5313912079
 51
100.0818955774
  0
ARC
  5
30A
100
AcDbEntity
  8
0
100
AcDbCircle
 62
7
  6
CONTINUOUS
 10
14.1317212098
 20
10.2496085416
 40
0.06
100
AcDbArc
 50
270.0
 51
345.3575223754
  0
ARC
  5
30B
100
AcDbEntity
  8
0
100
AcDbCircle
 62
7
  6
CONTINUOUS
 10
14.2498183383
 20
10.431654221
 40
0.06
100
AcDbArc
 50
308.6977133783
 51
360.0
  0
ARC
  5
30C
100
AcDbEntity
  8
0
100
AcDbCircle
 62
7
  6
CONTINUOUS
 10
11.8354245989
 20
10.4106664017
 40
0.06
100
AcDbArc
 50
249.5313909201
 51
351.848117056
  0
ARC
  5
30D
100
AcDbEntity
  8
0
100
AcDbCircle
 62
7
  6
CONTINUOUS
 10
7.6618183383
 20
9.8311585416
 40
0.05
100
AcDbArc
 50
0.0
 51
90.0
  0
ARC
  5
30E
100
AcDbEntity
  8
0
100
AcDbCircle
 62
7
  6
CONTINUOUS
 10
7.6618183383
 20
9.7161585416
 40
0.05
100
AcDbArc
 50
290.298986773
 51
360.0
  0
ARC
  5
30F
100
AcDbEntity
  8
0
100
AcDbCircle
 62
7
  6
CONTINUOUS
 10
11.5398183383
 20
10.4181611661
 40
0.04
100
AcDbArc
 50
180.0
 51
280.0818955775
  0
ARC
  5
310
100
AcDbEntity
  8
0
100
AcDbCircle
 62
7
  6
CONTINUOUS
 10
14.1098183383
 20
10.2296085416
 40
0.04
100
AcDbArc
 50
180.0
 51
270.0
  0
ARC
  5
311
100
AcDbEntity
  8
0
100
AcDbCircle
 62
7
  6
CONTINUOUS
 10
7.6670854073
 20
9.9011585416
 40
0.02
100
AcDbArc
 50
270.0
 51
310.1191668984
  0
ARC
  5
312
100
AcDbEntity
  8
0
100
AcDbCircle
 62
7
  6
CONTINUOUS
 10
15.636098936
 20
9.8766539672
 40
0.51
100
AcDbArc
 50
69.5313912079
 51
100.0818955774
  0
ARC
  5
313
100
AcDbEntity
  8
0
100
AcDbCircle
 62
7
  6
CONTINUOUS
 10
14.4655163091
 20
10.1623971219
 40
0.285
100
AcDbArc
 50
128.6977133782
 51
165.3575223752
  0
ARC
  5
314
100
AcDbEntity
  8
0
100
AcDbCircle
 62
7
  6
CONTINUOUS
 10
15.8354245989
 20
10.4106664017
 40
0.06
100
AcDbArc
 50
249.5313909201
 51
351.848117056
  0
ARC
  5
315
100
AcDbEntity
  8
0
100
AcDbCircle
 62
7
  6
CONTINUOUS
 10
15.5398183383
 20
10.4181611661
 40
0.04
100
AcDbArc
 50
180.0
 51
280.0818955775
  0
ARC
  5
316
100
AcDbEntity
  8
0
100
AcDbCircle
 62
7
  6
CONTINUOUS
 10
21.009797824
 20
9.6759431877
 40
0.5659595074
100
AcDbArc
 50
88.6834561222
 51
96.8350633201
  0
ARC
  5
317
100
AcDbEntity
  8
0
100
AcDbCircle
 62
7
  6
CONTINUOUS
 10
21.010929276
 20
9.6867968842
 40
0.5550562979
100
AcDbArc
 50
77.5571004357
 51
85.8152345208
  0
ARC
  5
318
100
AcDbEntity
  8
0
100
AcDbCircle
 62
7
  6
CONTINUOUS
 10
21.005070619
 20
9.7053328076
 40
0.5361753608
100
AcDbArc
 50
99.7508747772
 51
107.3097064778
  0
ARC
  5
319
100
AcDbEntity
  8
0
100
AcDbCircle
 62
7
  6
CONTINUOUS
 10
20.9995266198
 20
9.724347148
 40
0.516372758
100
AcDbArc
 50
107.3501561505
 51
108.2655548195
  0
ARC
  5
31A
100
AcDbEntity
  8
0
100
AcDbCircle
 62
7
  6
CONTINUOUS
 10
21.0097761427
 20
9.7230322094
 40
0.5098586702
100
AcDbArc
 50
92.7103771008
 51
92.9059018942
  0
ARC
  5
31B
100
AcDbEntity
  8
0
100
AcDbCircle
 62
7
  6
CONTINUOUS
 10
21.022740437
 20
9.7327668751
 40
0.507559521
100
AcDbArc
 50
67.8417558237
 51
74.5667505795
  0
ARC
  5
31C
100
AcDbEntity
  8
0
100
AcDbCircle
 62
7
  6
CONTINUOUS
 10
21.0108885459
 20
9.7328051917
 40
0.5000282745
100
AcDbArc
 50
81.5376085981
 51
81.8035106492
  0
ARC
  5
31D
100
AcDbEntity
  8
0
100
AcDbCircle
 62
7
  6
CONTINUOUS
 10
21.0308860575
 20
9.7531121879
 40
0.4856445638
100
AcDbArc
 50
65.9331880801
 51
67.8264743212
  0
ARC
  5
31E
100
AcDbEntity
  8
0
100
AcDbCircle
 62
7
  6
CONTINUOUS
 10
21.0331732893
 20
9.7582713744
 40
0.4800011258
100
AcDbArc
 50
65.7046820433
 51
65.9313354351
  0
ARC
  5
31F
100
AcDbEntity
  8
0
100
AcDbCircle
 62
7
  6
CONTINUOUS
 10
20.9828197697
 20
9.7667085336
 40
0.4708177682
100
AcDbArc
 50
111.8460577815
 51
119.6159925782
  0
ARC
  5
320
100
AcDbEntity
  8
0
100
AcDbCircle
 62
7
  6
CONTINUOUS
 10
20.9703589029
 20
9.7896560327
 40
0.4447105202
100
AcDbArc
 50
119.6813596793
 51
120.636022981
  0
ARC
  5
321
100
AcDbEntity
  8
0
100
AcDbCircle
 62
7
  6
CONTINUOUS
 10
21.0579596709
 20
9.8041970626
 40
0.4277825356
100
AcDbArc
 50
54.3996081878
 51
60.8993226314
  0
ARC
  5
322
100
AcDbEntity
  8
0
100
AcDbCircle
 62
7
  6
CONTINUOUS
 10
21.0701534189
 20
9.8214749405
 40
0.4066356453
100
AcDbArc
 50
52.8367852922
 51
54.3794241903
  0
ARC
  5
323
100
AcDbEntity
  8
0
100
AcDbCircle
 62
7
  6
CONTINUOUS
 10
20.9391269768
 20
9.8348270909
 40
0.3897374966
100
AcDbArc
 50
127.8160399057
 51
131.9074462604
  0
ARC
  5
324
100
AcDbEntity
  8
0
100
AcDbCircle
 62
7
  6
CONTINUOUS
 10
20.9275536501
 20
9.8479856931
 40
0.372214417
100
AcDbArc
 50
131.9345167147
 51
134.1003583092
  0
ARC
  5
325
100
AcDbEntity
  8
0
100
AcDbCircle
 62
7
  6
CONTINUOUS
 10
21.1181690115
 20
9.8727422208
 40
0.3362275598
100
AcDbArc
 50
38.5477184598
 51
40.9837651697
  0
ARC
  5
326
100
AcDbEntity
  8
0
100
AcDbCircle
 62
9
  6
CONTINUOUS
 10
20.7160426262
 20
10.042371076
 40
0.0864614503
100
AcDbArc
 50
109.9766494755
 51
113.3560675206
  0
ARC
  5
327
100
AcDbEntity
  8
0
100
AcDbCircle
 62
7
  6
CONTINUOUS
 10
21.1781646696
 20
10.1020038645
 40
0.3226762108
100
AcDbArc
 50
336.4720371046
 51
339.2038088797
  0
ARC
  5
328
100
AcDbEntity
  8
0
100
AcDbCircle
 62
7
  6
CONTINUOUS
 10
20.8404483563
 20
10.1015869337
 40
0.3215712238
100
AcDbArc
 50
200.7915006713
 51
203.5321216078
  0
ARC
  5
329
100
AcDbEntity
  8
0
100
AcDbCircle
 62
7
  6
CONTINUOUS
 10
21.1896085081
 20
10.3063179745
 40
0.3109609373
100
AcDbArc
 50
338.9500741827
 51
340.1039331553
  0
ARC
  5
32A
100
AcDbEntity
  8
0
100
AcDbCircle
 62
7
  6
CONTINUOUS
 10
20.8296412807
 20
10.3061735309
 40
0.310547986
100
AcDbArc
 50
199.8952996465
 51
201.0506930155
  0
ARC
  5
32B
100
AcDbEntity
  8
0
100
AcDbCircle
 62
7
  6
CONTINUOUS
 10
20.8295702045
 20
10.2954013653
 40
0.3104711663
100
AcDbArc
 50
158.9496238776
 51
160.6519891692
  0
ARC
  5
32C
100
AcDbEntity
  8
0
100
AcDbCircle
 62
7
  6
CONTINUOUS
 10
21.1906375611
 20
10.2956114761
 40
0.3098627196
100
AcDbArc
 50
19.3463393246
 51
21.0520476287
  0
ARC
  5
32D
100
AcDbEntity
  8
0
100
AcDbCircle
 62
7
  6
CONTINUOUS
 10
20.8157825754
 20
10.3843318023
 40
0.2959642371
100
AcDbArc
 50
177.491811928
 51
179.9993345852
  0
ARC
  5
32E
100
AcDbEntity
  8
0
100
AcDbCircle
 62
7
  6
CONTINUOUS
 10
21.2039596841
 20
10.3843341146
 40
0.2958586542
100
AcDbArc
 50
0.000217848
 51
2.5086381184
  0
ARC
  5
32F
100
AcDbEntity
  8
0
100
AcDbCircle
 62
7
  6
CONTINUOUS
 10
18.4655163091
 20
10.1623971219
 40
0.285
100
AcDbArc
 50
128.6977133782
 51
165.3575223752
  0
ARC
  5
330
100
AcDbEntity
  8
0
100
AcDbCircle
 62
9
  6
CONTINUOUS
 10
20.7805098047
 20
10.0815538625
 40
0.098012875
100
AcDbArc
 50
90.3941708651
 51
96.4109987737
  0
ARC
  5
331
100
AcDbEntity
  8
0
100
AcDbCircle
 62
7
  6
CONTINUOUS
 10
20.9422326804
 20
10.1401184463
 40
0.0977621209
100
AcDbArc
 50
89.8772816458
 51
100.6133095754
  0
ARC
  5
332
100
AcDbEntity
  8
0
100
AcDbCircle
 62
7
  6
CONTINUOUS
 10
21.1214640285
 20
10.1329603673
 40
0.0962825572
100
AcDbArc
 50
82.7317793924
 51
84.5998099004
  0
ARC
  5
333
100
AcDbEntity
  8
0
100
AcDbCircle
 62
7
  6
CONTINUOUS
 10
21.0695123358
 20
10.1858647063
 40
0.0958675664
100
AcDbArc
 50
151.5454108435
 51
153.6072973473
  0
ARC
  5
334
100
AcDbEntity
  8
0
100
AcDbCircle
 62
7
  6
CONTINUOUS
 10
21.1216021959
 20
10.133869019
 40
0.095363729
100
AcDbArc
 50
77.271648446
 51
82.7450571484
  0
ARC
  5
335
100
AcDbEntity
  8
0
100
AcDbCircle
 62
7
  6
CONTINUOUS
 10
20.9417501575
 20
10.1429899199
 40
0.0948509156
100
AcDbArc
 50
100.6462906694
 51
102.5768556874
  0
ARC
  5
336
100
AcDbEntity
  8
0
100
AcDbCircle
 62
7
  6
CONTINUOUS
 10
20.9414086196
 20
10.1445451436
 40
0.0932586404
100
AcDbArc
 50
102.5801154298
 51
104.0796416153
  0
ARC
  5
337
100
AcDbEntity
  8
0
100
AcDbCircle
 62
7
  6
CONTINUOUS
 10
20.8554614319
 20
10.1232153352
 40
0.0931978328
100
AcDbArc
 50
100.9963767038
 51
103.761451359
  0
ARC
  5
338
100
AcDbEntity
  8
0
100
AcDbCircle
 62
7
  6
CONTINUOUS
 10
21.1220932007
 20
10.1360436543
 40
0.0931343515
100
AcDbArc
 50
74.786413388
 51
77.2715276687
  0
ARC
  5
339
100
AcDbEntity
  8
0
100
AcDbCircle
 62
7
  6
CONTINUOUS
 10
20.8552952477
 20
10.1239182263
 40
0.0924755868
100
AcDbArc
 50
103.7650386716
 51
104.1949133059
  0
ARC
  5
33A
100
AcDbEntity
  8
0
100
AcDbCircle
 62
7
  6
CONTINUOUS
 10
20.8551864639
 20
10.1243452582
 40
0.0920349174
100
AcDbArc
 50
104.1944495246
 51
105.6793478652
  0
ARC
  5
33B
100
AcDbEntity
  8
0
100
AcDbCircle
 62
7
  6
CONTINUOUS
 10
20.941015844
 20
10.146122717
 40
0.0916329091
100
AcDbArc
 50
104.0813929215
 51
105.6986292909
  0
ARC
  5
33C
100
AcDbEntity
  8
0
100
AcDbCircle
 62
7
  6
CONTINUOUS
 10
20.9405547063
 20
10.1477814242
 40
0.0899113013
100
AcDbArc
 50
105.7017341084
 51
107.0037757367
  0
ARC
  5
33D
100
AcDbEntity
  8
0
100
AcDbCircle
 62
7
  6
CONTINUOUS
 10
21.2049932111
 20
10.1104015577
 40
0.0891373087
100
AcDbArc
 50
72.9591534128
 51
73.2616499704
  0
ARC
  5
33E
100
AcDbEntity
  8
0
100
AcDbCircle
 62
7
  6
CONTINUOUS
 10
21.2050262223
 20
10.1105094178
 40
0.08902451
100
AcDbArc
 50
72.8025183744
 51
72.9591232583
  0
ARC
  5
33F
100
AcDbEntity
  8
0
100
AcDbCircle
 62
9
  6
CONTINUOUS
 10
21.1177450449
 20
10.1442993601
 40
0.0845756167
100
AcDbArc
 50
110.483453548
 51
110.6282003156
  0
ARC
  5
340
100
AcDbEntity
  8
0
100
AcDbCircle
 62
7
  6
CONTINUOUS
 10
21.0218871564
 20
10.1738985028
 40
0.0683198557
100
AcDbArc
 50
121.1610447057
 51
122.4474705386
  0
ARC
  5
341
100
AcDbEntity
  8
0
100
AcDbCircle
 62
7
  6
CONTINUOUS
 10
20.9562764493
 20
10.1778646764
 40
0.0609983152
100
AcDbArc
 50
61.6608025978
 51
63.0428590484
  0
ARC
  5
342
100
AcDbEntity
  8
0
100
AcDbCircle
 62
7
  6
CONTINUOUS
 10
18.2498183383
 20
10.431654221
 40
0.06
100
AcDbArc
 50
308.6977133783
 51
360.0
  0
ARC
  5
343
100
AcDbEntity
  8
0
100
AcDbCircle
 62
7
  6
CONTINUOUS
 10
18.1317212098
 20
10.2496085416
 40
0.06
100
AcDbArc
 50
270.0
 51
345.3575223754
  0
ARC
  5
344
100
AcDbEntity
  8
0
100
AcDbCircle
 62
7
  6
CONTINUOUS
 10
21.1051841042
 20
10.1780448995
 40
0.0535149226
100
AcDbArc
 50
112.769148747
 51
114.0307738643
  0
ARC
  5
345
100
AcDbEntity
  8
0
100
AcDbCircle
 62
7
  6
CONTINUOUS
 10
18.1098183383
 20
10.2296085416
 40
0.04
100
AcDbArc
 50
180.0
 51
270.0
  0
ARC
  5
346
100
AcDbEntity
  8
0
100
AcDbCircle
 62
9
  6
CONTINUOUS
 10
35.5986952808
 20
6.5809162688
 40
27.9904686826
100
AcDbArc
 50
180.1645576761
 51
181.0751782807
  0
ARC
  5
347
100
AcDbEntity
  8
0
100
AcDbCircle
 62
7
  6
CONTINUOUS
 10
21.8795420494
 20
6.8523267879
 40
0.4844046578
100
AcDbArc
 50
170.0786600585
 51
174.1705690965
  0
ARC
  5
348
100
AcDbEntity
  8
0
100
AcDbCircle
 62
7
  6
CONTINUOUS
 10
23.7206020271
 20
8.0472073258
 40
2.7400310283
100
AcDbArc
 50
180.0685130357
 51
181.1547351796
  0
ARC
  5
349
100
AcDbEntity
  8
0
100
AcDbCircle
 62
7
  6
CONTINUOUS
 10
77.2379291741
 20
7.4460191173
 40
70.8281111681
100
AcDbArc
 50
180.0055498025
 51
180.1768004747
  0
ARC
  5
34A
100
AcDbEntity
  8
0
100
AcDbCircle
 62
7
  6
CONTINUOUS
 10
7.0098183383
 20
10.6811585416
 40
1.45
100
AcDbArc
 50
290.5677136499
 51
249.4322864589
  0
ARC
  5
34B
100
AcDbEntity
  8
0
100
AcDbCircle
 62
9
  6
CONTINUOUS
 10
7.0098183383
 20
10.6811585416
 40
1.3917919205
100
AcDbArc
 50
291.7548427759
 51
248.2451568756
  0
ARC
  5
34C
100
AcDbEntity
  8
0
100
AcDbCircle
 62
9
  6
CONTINUOUS
 10
7.0098183383
 20
10.6811585416
 40
1.2438960743
100
AcDbArc
 50
296.3266366557
 51
243.6733639346
  0
ARC
  5
34D
100
AcDbEntity
  8
0
100
AcDbCircle
 62
7
  6
CONTINUOUS
 10
7.0098183383
 20
10.6811585416
 40
1.18
100
AcDbArc
 50
306.5361473954
 51
233.4638526044
  0
ARC
  5
34E
100
AcDbEntity
  8
0
100
AcDbCircle
 62
9
  6
CONTINUOUS
 10
7.0098183383
 20
10.6811585416
 40
1.13
100
AcDbArc
 50
308.4104957519
 51
231.5895040673
  0
ARC
  5
34F
100
AcDbEntity
  8
0
100
AcDbCircle
 62
7
  6
CONTINUOUS
 10
7.0098183383
 20
10.6811585416
 40
1.07
100
AcDbArc
 50
310.1637510376
 51
229.8362489467
  0
ARC
  5
350
100
AcDbEntity
  8
0
100
AcDbCircle
 62
7
  6
CONTINUOUS
 10
7.0098183383
 20
10.6811585416
 40
1.04
100
AcDbArc
 50
310.1191668984
 51
229.8808331016
  0
CIRCLE
  5
351
100
AcDbEntity
  8
0
100
AcDbCircle
 62
7
  6
CONTINUOUS
 10
7.0098183383
 20
10.6811585416
 40
0.55
  0
ARC
  5
352
100
AcDbEntity
  8
0
100
AcDbCircle
 62
7
  6
CONTINUOUS
 10
7.0098183383
 20
10.6811585416
 40
0.55
100
AcDbArc
 50
265.0000007303
 51
270.0
  0
CIRCLE
  5
353
100
AcDbEntity
  8
0
100
AcDbCircle
 62
9
  6
CONTINUOUS
 10
7.0098183383
 20
10.6811585416
 40
0.53
  0
CIRCLE
  5
354
100
AcDbEntity
  8
0
100
AcDbCircle
 62
7
  6
CONTINUOUS
 10
7.0098183383
 20
10.6811585416
 40
0.4824935233
  0
ARC
  5
355
100
AcDbEntity
  8
0
100
AcDbCircle
 62
7
  6
CONTINUOUS
 10
11.0098183383
 20
10.6811585416
 40
1.1
100
AcDbArc
 50
15.5766167692
 51
344.4233832078
  0
ARC
  5
356
100
AcDbEntity
  8
0
100
AcDbCircle
 62
9
  6
CONTINUOUS
 10
11.0098183383
 20
10.6811585416
 40
1.0192765548
100
AcDbArc
 50
16.4001454893
 51
343.5998544412
  0
ARC
  5
357
100
AcDbEntity
  8
0
100
AcDbCircle
 62
9
  6
CONTINUOUS
 10
11.0098183383
 20
10.6811585416
 40
0.835574485
100
AcDbArc
 50
22.2384591042
 51
337.7615408842
  0
ARC
  5
358
100
AcDbEntity
  8
0
100
AcDbCircle
 62
9
  6
CONTINUOUS
 10
11.0098183383
 20
10.6811585416
 40
0.8181730746
100
AcDbArc
 50
22.3973610942
 51
337.6026387713
  0
ARC
  5
359
100
AcDbEntity
  8
0
100
AcDbCircle
 62
7
  6
CONTINUOUS
 10
11.0098183383
 20
10.6811585416
 40
0.745
100
AcDbArc
 50
23.5702693361
 51
336.4297306639
  0
ARC
  5
35A
100
AcDbEntity
  8
0
100
AcDbCircle
 62
7
  6
CONTINUOUS
 10
11.0098183383
 20
10.6811585416
 40
0.71
100
AcDbArc
 50
24.5672267267
 51
335.4327732733
  0
ARC
  5
35B
100
AcDbEntity
  8
0
100
AcDbCircle
 62
7
  6
CONTINUOUS
 10
11.0098183383
 20
10.6811585416
 40
0.5877311806
100
AcDbArc
 50
30.2527597622
 51
329.7472402378
  0
ARC
  5
35C
100
AcDbEntity
  8
0
100
AcDbCircle
 62
9
  6
CONTINUOUS
 10
11.0098183383
 20
10.6811585416
 40
0.5277311806
100
AcDbArc
 50
25.9321919542
 51
334.0678078413
  0
ARC
  5
35D
100
AcDbEntity
  8
0
100
AcDbCircle
 62
7
  6
CONTINUOUS
 10
11.0098183383
 20
10.6811585416
 40
0.451
100
AcDbArc
 50
30.6485451413
 51
329.3514548587
  0
CIRCLE
  5
35E
100
AcDbEntity
  8
0
100
AcDbCircle
 62
9
  6
CONTINUOUS
 10
11.0098183383
 20
10.6811585416
 40
0.2988618956
  0
CIRCLE
  5
35F
100
AcDbEntity
  8
0
100
AcDbCircle
 62
9
  6
CONTINUOUS
 10
11.0098183383
 20
10.6811585416
 40
0.292235246
  0
CIRCLE
  5
360
100
AcDbEntity
  8
0
100
AcDbCircle
 62
7
  6
CONTINUOUS
 10
11.0098183383
 20
10.6811585416
 40
0.28
  0
CIRCLE
  5
361
100
AcDbEntity
  8
0
100
AcDbCircle
 62
9
  6
CONTINUOUS
 10
11.0098183383
 20
10.6811585416
 40
0.2258064516
  0
ARC
  5
362
100
AcDbEntity
  8
0
100
AcDbCircle
 62
7
  6
CONTINUOUS
 10
11.8354245989
 20
10.9516506815
 40
0.06
100
AcDbArc
 50
8.1518829448
 51
110.4686090761
  0
ARC
  5
363
100
AcDbEntity
  8
0
100
AcDbCircle
 62
7
  6
CONTINUOUS
 10
11.5398183383
 20
10.944155917
 40
0.04
100
AcDbArc
 50
79.9181044225
 51
180.0
  0
ARC
  5
364
100
AcDbEntity
  8
0
100
AcDbCircle
 62
7
  6
CONTINUOUS
 10
11.636098936
 20
11.485663116
 40
0.51
100
AcDbArc
 50
259.9181044226
 51
290.4686087921
  0
ARC
  5
365
100
AcDbEntity
  8
0
100
AcDbCircle
 62
7
  6
CONTINUOUS
 10
15.0098183383
 20
10.6811585416
 40
1.1
100
AcDbArc
 50
15.577175844
 51
156.6259010481
  0
ARC
  5
366
100
AcDbEntity
  8
0
100
AcDbCircle
 62
7
  6
CONTINUOUS
 10
15.0098183383
 20
10.6811585416
 40
1.1
100
AcDbArc
 50
203.3740989907
 51
344.4228241197
  0
ARC
  5
367
100
AcDbEntity
  8
0
100
AcDbCircle
 62
9
  6
CONTINUOUS
 10
15.0098183383
 20
10.6811585416
 40
1.0192765548
100
AcDbArc
 50
16.3993084561
 51
151.1560761796
  0
ARC
  5
368
100
AcDbEntity
  8
0
100
AcDbCircle
 62
9
  6
CONTINUOUS
 10
15.0098183383
 20
10.6811585416
 40
1.0192765548
100
AcDbArc
 50
208.8439237534
 51
343.6006914799
  0
ARC
  5
369
100
AcDbEntity
  8
0
100
AcDbCircle
 62
9
  6
CONTINUOUS
 10
15.0098183383
 20
10.6811585416
 40
0.835574485
100
AcDbArc
 50
22.238474453
 51
156.1636093736
  0
ARC
  5
36A
100
AcDbEntity
  8
0
100
AcDbCircle
 62
9
  6
CONTINUOUS
 10
15.0098183383
 20
10.6811585416
 40
0.835574485
100
AcDbArc
 50
203.8363906308
 51
337.7615255664
  0
ARC
  5
36B
100
AcDbEntity
  8
0
100
AcDbCircle
 62
9
  6
CONTINUOUS
 10
15.0098183383
 20
10.6811585416
 40
0.8181730746
100
AcDbArc
 50
203.2728819736
 51
337.6030397689
  0
ARC
  5
36C
100
AcDbEntity
  8
0
100
AcDbCircle
 62
9
  6
CONTINUOUS
 10
15.0098183383
 20
10.6811585416
 40
0.8181730746
100
AcDbArc
 50
22.3969601867
 51
156.7271175731
  0
ARC
  5
36D
100
AcDbEntity
  8
0
100
AcDbCircle
 62
7
  6
CONTINUOUS
 10
15.0098183383
 20
10.6811585416
 40
0.745
100
AcDbArc
 50
199.9242496736
 51
336.4258169263
  0
ARC
  5
36E
100
AcDbEntity
  8
0
100
AcDbCircle
 62
7
  6
CONTINUOUS
 10
15.0098183383
 20
10.6811585416
 40
0.745
100
AcDbArc
 50
23.5741830737
 51
160.0757503264
  0
ARC
  5
36F
100
AcDbEntity
  8
0
100
AcDbCircle
 62
7
  6
CONTINUOUS
 10
15.0098183383
 20
10.6811585416
 40
0.71
100
AcDbArc
 50
189.5250759008
 51
335.4329992735
  0
ARC
  5
370
100
AcDbEntity
  8
0
100
AcDbCircle
 62
7
  6
CONTINUOUS
 10
15.0098183383
 20
10.6811585416
 40
0.71
100
AcDbArc
 50
24.5670007265
 51
170.4749240992
  0
ARC
  5
371
100
AcDbEntity
  8
0
100
AcDbCircle
 62
7
  6
CONTINUOUS
 10
15.0098183383
 20
10.6811585416
 40
0.5877311806
100
AcDbArc
 50
30.2551312355
 51
329.7448687645
  0
ARC
  5
372
100
AcDbEntity
  8
0
100
AcDbCircle
 62
9
  6
CONTINUOUS
 10
15.0098183383
 20
10.6811585416
 40
0.5277311806
100
AcDbArc
 50
25.9286968627
 51
334.0713037596
  0
ARC
  5
373
100
AcDbEntity
  8
0
100
AcDbCircle
 62
7
  6
CONTINUOUS
 10
15.0098183383
 20
10.6811585416
 40
0.451
100
AcDbArc
 50
30.6485451413
 51
329.3514548587
  0
CIRCLE
  5
374
100
AcDbEntity
  8
0
100
AcDbCircle
 62
9
  6
CONTINUOUS
 10
15.0098183383
 20
10.6811585416
 40
0.2988618956
  0
CIRCLE
  5
375
100
AcDbEntity
  8
0
100
AcDbCircle
 62
9
  6
CONTINUOUS
 10
15.0098183383
 20
10.6811585416
 40
0.292235246
  0
CIRCLE
  5
376
100
AcDbEntity
  8
0
100
AcDbCircle
 62
7
  6
CONTINUOUS
 10
15.0098183383
 20
10.6811585416
 40
0.28
  0
CIRCLE
  5
377
100
AcDbEntity
  8
0
100
AcDbCircle
 62
9
  6
CONTINUOUS
 10
15.0098183383
 20
10.6811585416
 40
0.2258064516
  0
ARC
  5
378
100
AcDbEntity
  8
0
100
AcDbCircle
 62
7
  6
CONTINUOUS
 10
14.2498183383
 20
10.9306628622
 40
0.06
100
AcDbArc
 50
0.0
 51
51.3022866217
  0
ARC
  5
379
100
AcDbEntity
  8
0
100
AcDbCircle
 62
7
  6
CONTINUOUS
 10
15.8354245989
 20
10.9516506815
 40
0.06
100
AcDbArc
 50
8.1518829448
 51
110.4686090761
  0
ARC
  5
37A
100
AcDbEntity
  8
0
100
AcDbCircle
 62
7
  6
CONTINUOUS
 10
15.5398183383
 20
10.944155917
 40
0.04
100
AcDbArc
 50
79.9181044225
 51
180.0
  0
ARC
  5
37B
100
AcDbEntity
  8
0
100
AcDbCircle
 62
7
  6
CONTINUOUS
 10
15.636098936
 20
11.485663116
 40
0.51
100
AcDbArc
 50
259.9181044226
 51
290.4686087921
  0
ARC
  5
37C
100
AcDbEntity
  8
0
100
AcDbCircle
 62
7
  6
CONTINUOUS
 10
14.4655163091
 20
11.1999199613
 40
0.285
100
AcDbArc
 50
194.6424776248
 51
231.3022866218
  0
ARC
  5
37D
100
AcDbEntity
  8
0
100
AcDbCircle
 62
7
  6
CONTINUOUS
 10
14.1317212098
 20
11.1127085416
 40
0.06
100
AcDbArc
 50
14.6424776246
 51
90.0
  0
ARC
  5
37E
100
AcDbEntity
  8
0
100
AcDbCircle
 62
7
  6
CONTINUOUS
 10
14.1098183383
 20
11.1327085416
 40
0.04
100
AcDbArc
 50
90.0
 51
180.0
  0
ARC
  5
37F
100
AcDbEntity
  8
0
100
AcDbCircle
 62
7
  6
CONTINUOUS
 10
18.2498183383
 20
10.9306628622
 40
0.06
100
AcDbArc
 50
0.0
 51
51.3022866217
  0
ARC
  5
380
100
AcDbEntity
  8
0
100
AcDbCircle
 62
7
  6
CONTINUOUS
 10
21.0098183383
 20
10.6811585416
 40
1.375
100
AcDbArc
 50
290.8768888329
 51
249.2673733521
  0
ARC
  5
381
100
AcDbEntity
  8
0
100
AcDbCircle
 62
9
  6
CONTINUOUS
 10
21.0098183383
 20
10.6811585416
 40
1.2800143237
100
AcDbArc
 50
292.514357328
 51
247.6441984706
  0
ARC
  5
382
100
AcDbEntity
  8
0
100
AcDbCircle
 62
9
  6
CONTINUOUS
 10
21.0098183383
 20
10.6811585416
 40
1.0074456083
100
AcDbArc
 50
299.1057838932
 51
241.1040740042
  0
ARC
  5
383
100
AcDbEntity
  8
0
100
AcDbCircle
 62
9
  6
CONTINUOUS
 10
21.0098183383
 20
10.6811585416
 40
0.9588220876
100
AcDbArc
 50
300.2698539206
 51
239.5011003307
  0
ARC
  5
384
100
AcDbEntity
  8
0
100
AcDbCircle
 62
7
  6
CONTINUOUS
 10
21.0098183383
 20
10.6811585416
 40
0.5475
100
AcDbArc
 50
332.9401378731
 51
207.0598621269
  0
ARC
  5
385
100
AcDbEntity
  8
0
100
AcDbCircle
 62
9
  6
CONTINUOUS
 10
21.0098183383
 20
10.6811585416
 40
0.5175
100
AcDbArc
 50
340.4301071549
 51
199.5698928451
  0
ARC
  5
386
100
AcDbEntity
  8
0
100
AcDbCircle
 62
7
  6
CONTINUOUS
 10
21.0098183383
 20
10.6811585416
 40
0.4875
100
AcDbArc
 50
0.0
 51
180.0
  0
ARC
  5
387
100
AcDbEntity
  8
0
100
AcDbCircle
 62
7
  6
CONTINUOUS
 10
18.4655163091
 20
11.1999199613
 40
0.285
100
AcDbArc
 50
194.6424776248
 51
231.3022866218
  0
ARC
  5
388
100
AcDbEntity
  8
0
100
AcDbCircle
 62
7
  6
CONTINUOUS
 10
18.1317212098
 20
11.1127085416
 40
0.06
100
AcDbArc
 50
14.6424776246
 51
90.0
  0
ARC
  5
389
100
AcDbEntity
  8
0
100
AcDbCircle
 62
7
  6
CONTINUOUS
 10
18.1098183383
 20
11.1327085416
 40
0.04
100
AcDbArc
 50
90.0
 51
180.0
  0
ARC
  5
38A
100
AcDbEntity
  8
0
100
AcDbCircle
 62
7
  6
CONTINUOUS
 10
16.0827131546
 20
52.1928457459
 40
42.0
100
AcDbArc
 50
264.2774261872
 51
267.2529863377
  0
ARC
  5
38B
100
AcDbEntity
  8
0
100
AcDbCircle
 62
7
  6
CONTINUOUS
 10
20.0827131546
 20
52.1928457459
 40
42.0
100
AcDbArc
 50
264.2774261872
 51
267.2529863377
  0
LINE
  5
38C
100
AcDbEntity
  8
0
100
AcDbLine
 62
7
  6
CONTINUOUS
 10
7.6094814633
 20
7.2274615915
 11
7.6087974207
 21
7.0186620609
  0
LINE
  5
38D
100
AcDbEntity
  8
0
100
AcDbLine
 62
7
  6
CONTINUOUS
 10
7.6087974207
 20
7.0186620609
 11
7.6081174918
 21
6.7634811201
  0
LINE
  5
38E
100
AcDbEntity
  8
0
100
AcDbLine
 62
7
  6
CONTINUOUS
 10
7.6081174918
 20
6.7634811201
 11
7.6081065665
 21
6.7555513779
  0
LINE
  5
38F
100
AcDbEntity
  8
0
100
AcDbLine
 62
7
  6
CONTINUOUS
 10
6.4101552133
 20
7.2274615915
 11
6.4108392559
 21
7.0186620609
  0
LINE
  5
390
100
AcDbEntity
  8
0
100
AcDbLine
 62
7
  6
CONTINUOUS
 10
6.4108392559
 20
7.0186620609
 11
6.4115191848
 21
6.7634811201
  0
LINE
  5
391
100
AcDbEntity
  8
0
100
AcDbLine
 62
7
  6
CONTINUOUS
 10
6.4115191848
 20
6.7634811201
 11
6.4115301101
 21
6.7555513779
  0
SPLINE
  5
392
100
AcDbEntity
  8
0
100
AcDbSpline
 62
7
  6
CONTINUOUS
 70
0
 71
3
 72
40
 73
36
 74
0
 42
0.0000001
 43
0.0000001
 44
0.0000000001
 40
0.0
 40
0.0
 40
0.0
 40
0.0
 40
0.0091406996
 40
0.0178677206
 40
0.0262383796
 40
0.0343065948
 40
0.0421222018
 40
0.0497304093
 40
0.0571714579
 40
0.0644805174
 40
0.0787995835
 40
0.092810369
 40
0.1065974734
 40
0.1202310111
 40
0.1337659122
 40
0.1472425561
 40
0.1606929764
 40
0.1741423186
 40
0.2011057752
 40
0.2282479698
 40
0.2556382747
 40
0.28332845
 40
0.3113547613
 40
0.3397373739
 40
0.3976080834
 40
0.4271324547
 40
0.4570596346
 40
0.5181460581
 40
0.5809516082
 40
0.6455478199
 40
0.7120183954
 40
0.7804689758
 40
0.8511137708
 40
0.9242041099
 40
1.0
 40
1.0
 40
1.0
 40
1.0
 10
8.1113183383
 20
3.3089500851
 30
0.0
 10
8.1113183383
 20
3.3050264069
 30
0.0
 10
8.1111231976
 20
3.2973549074
 30
0.0
 10
8.1102381878
 20
3.2861216884
 30
0.0
 10
8.1088156923
 20
3.2754080136
 30
0.0
 10
8.1069033583
 20
3.2651690862
 30
0.0
 10
8.1045490071
 20
3.2553594625
 30
0.0
 10
8.1018006157
 20
3.2459336616
 30
0.0
 10
8.0987060921
 20
3.2368457135
 30
0.0
 10
8.0942149132
 20
3.2252014121
 30
0.0
 10
8.0879752885
 20
3.2112195919
 30
0.0
 10
8.0795219199
 20
3.1952249707
 30
0.0
 10
8.0702431192
 20
3.1800402176
 30
0.0
 10
8.060229425
 20
3.1655801949
 30
0.0
 10
8.0495708182
 20
3.1517584762
 30
0.0
 10
8.0383151367
 20
3.1385227395
 30
0.0
 10
8.0265118721
 20
3.1258241386
 30
0.0
 10
8.010098966
 20
3.1095323588
 30
0.0
 10
7.9884195828
 20
3.0902360039
 30
0.0
 10
7.9608465886
 20
3.0686756752
 30
0.0
 10
7.9318835557
 20
3.0484775873
 30
0.0
 10
7.9016327655
 20
3.0295446332
 30
0.0
 10
7.8701949338
 20
3.011777611
 30
0.0
 10
7.8265475165
 20
2.9893667906
 30
0.0
 10
7.7811457047
 20
2.969046767
 30
0.0
 10
7.7342754325
 20
2.9506106779
 30
0.0
 10
7.6855937796
 20
2.933062565
 30
0.0
 10
7.6225960731
 20
2.9131864315
 30
0.0
 10
7.5443178654
 20
2.89261179
 30
0.0
 10
7.4629520214
 20
2.8750207585
 30
0.0
 10
7.3785478182
 20
2.8603738937
 30
0.0
 10
7.2910721925
 20
2.8486237477
 30
0.0
 10
7.2003777039
 20
2.8399901543
 30
0.0
 10
7.1062711365
 20
2.8346764707
 30
0.0
 10
7.0423539966
 20
2.8335051792
 30
0.0
 10
7.0098183383
 20
2.8335051792
 30
0.0
  0
SPLINE
  5
393
100
AcDbEntity
  8
0
100
AcDbSpline
 62
7
  6
CONTINUOUS
 70
0
 71
3
 72
14
 73
10
 74
0
 42
0.0000001
 43
0.0000001
 44
0.0000000001
 40
0.0
 40
0.0
 40
0.0
 40
0.0
 40
0.1421859906
 40
0.277712855
 40
0.407542102
 40
0.5325747778
 40
0.6536392326
 40
0.771481694
 40
1.0
 40
1.0
 40
1.0
 40
1.0
 10
5.9083183383
 20
3.3089500851
 30
0.0
 10
5.9083183383
 20
3.313025599
 30
0.0
 10
5.9085287275
 20
3.32098769
 30
0.0
 10
5.9094831471
 20
3.3326358684
 30
0.0
 10
5.9110148142
 20
3.343726177
 30
0.0
 10
5.9130700778
 20
3.3543088355
 30
0.0
 10
5.9155952921
 20
3.364435159
 30
0.0
 10
5.9194760036
 20
3.3772630411
 30
0.0
 10
5.9229877511
 20
3.3865641156
 30
0.0
 10
5.925517373
 20
3.3926060155
 30
0.0
  0
SPLINE
  5
394
100
AcDbEntity
  8
0
100
AcDbSpline
 62
7
  6
CONTINUOUS
 70
0
 71
3
 72
40
 73
36
 74
0
 42
0.0000001
 43
0.0000001
 44
0.0000000001
 40
0.0
 40
0.0
 40
0.0
 40
0.0
 40
0.0757958901
 40
0.1488862292
 40
0.2195310242
 40
0.2879816046
 40
0.3544521801
 40
0.4190483918
 40
0.4818539419
 40
0.5429403654
 40
0.5728675453
 40
0.6023919166
 40
0.6602626261
 40
0.6886452387
 40
0.71667155
 40
0.7443617253
 40
0.7717520302
 40
0.7988942248
 40
0.8258576814
 40
0.8393070236
 40
0.8527574439
 40
0.8662340878
 40
0.8797689889
 40
0.8934025266
 40
0.907189631
 40
0.9212004165
 40
0.9355194826
 40
0.9428285421
 40
0.9502695907
 40
0.9578777982
 40
0.9656934052
 40
0.9737616204
 40
0.9821322794
 40
0.9908593004
 40
1.0
 40
1.0
 40
1.0
 40
1.0
 10
7.0098183383
 20
2.8335051792
 30
0.0
 10
6.97728268
 20
2.8335051792
 30
0.0
 10
6.9133655401
 20
2.8346764707
 30
0.0
 10
6.8192589726
 20
2.8399901543
 30
0.0
 10
6.728564484
 20
2.8486237477
 30
0.0
 10
6.6410888584
 20
2.8603738937
 30
0.0
 10
6.5566846551
 20
2.8750207585
 30
0.0
 10
6.4753188112
 20
2.89261179
 30
0.0
 10
6.3970406035
 20
2.9131864315
 30
0.0
 10
6.334042897
 20
2.933062565
 30
0.0
 10
6.2853612441
 20
2.9506106779
 30
0.0
 10
6.2384909719
 20
2.969046767
 30
0.0
 10
6.1930891601
 20
2.9893667906
 30
0.0
 10
6.1494417427
 20
3.011777611
 30
0.0
 10
6.1180039111
 20
3.0295446332
 30
0.0
 10
6.0877531209
 20
3.0484775873
 30
0.0
 10
6.0587900879
 20
3.0686756752
 30
0.0
 10
6.0312170938
 20
3.0902360039
 30
0.0
 10
6.0095377106
 20
3.1095323588
 30
0.0
 10
5.9931248044
 20
3.1258241386
 30
0.0
 10
5.9813215399
 20
3.1385227395
 30
0.0
 10
5.9700658583
 20
3.1517584762
 30
0.0
 10
5.9594072516
 20
3.1655801949
 30
0.0
 10
5.9493935574
 20
3.1800402176
 30
0.0
 10
5.9401147566
 20
3.1952249707
 30
0.0
 10
5.9316613881
 20
3.2112195919
 30
0.0
 10
5.9254217634
 20
3.2252014121
 30
0.0
 10
5.9209305845
 20
3.2368457135
 30
0.0
 10
5.9178360608
 20
3.2459336616
 30
0.0
 10
5.9150876694
 20
3.2553594625
 30
0.0
 10
5.9127333183
 20
3.2651690862
 30
0.0
 10
5.9108209843
 20
3.2754080136
 30
0.0
 10
5.9093984887
 20
3.2861216884
 30
0.0
 10
5.908513479
 20
3.2973549074
 30
0.0
 10
5.9083183383
 20
3.3050264069
 30
0.0
 10
5.9083183383
 20
3.3089500851
 30
0.0
  0
SPLINE
  5
395
100
AcDbEntity
  8
0
100
AcDbSpline
 62
7
  6
CONTINUOUS
 70
0
 71
3
 72
18
 73
14
 74
0
 42
0.0000001
 43
0.0000001
 44
0.0000000001
 40
0.0
 40
0.0
 40
0.0
 40
0.0
 40
0.1243655531
 40
0.24828856
 40
0.3101935217
 40
0.3721078375
 40
0.4340725264
 40
0.4961270159
 40
0.6206326642
 40
0.7459346495
 40
0.8089792361
 40
0.8723214379
 40
1.0
 40
1.0
 40
1.0
 40
1.0
 10
20.4996969028
 20
7.5419240754
 30
0.0
 10
20.4982461679
 20
7.5496675105
 30
0.0
 10
20.4959377006
 20
7.5652434968
 30
0.0
 10
20.4945699407
 20
7.5848665039
 30
0.0
 10
20.4944028759
 20
7.6005627889
 30
0.0
 10
20.4947416804
 20
7.6123298511
 30
0.0
 10
20.4955414099
 20
7.6240840507
 30
0.0
 10
20.4972202437
 20
7.6397408795
 30
0.0
 10
20.5004648928
 20
7.6592491266
 30
0.0
 10
20.5051986385
 20
7.6785140756
 30
0.0
 10
20.5098654964
 20
7.6937629277
 30
0.0
 10
20.5151442528
 20
7.7089696775
 30
0.0
 10
20.5197449049
 20
7.7201768874
 30
0.0
 10
20.5230839237
 20
7.7275435131
 30
0.0
  0
SPLINE
  5
396
100
AcDbEntity
  8
0
100
AcDbSpline
 62
7
  6
CONTINUOUS
 70
0
 71
3
 72
29
 73
25
 74
0
 42
0.0000001
 43
0.0000001
 44
0.0000000001
 40
0.0
 40
0.0
 40
0.0
 40
0.0
 40
0.027190428
 40
0.0546132202
 40
0.0822859974
 40
0.1102222759
 40
0.1669148056
 40
0.2247701885
 40
0.2838294661
 40
0.3138242258
 40
0.3441280842
 40
0.3747407278
 40
0.4056573659
 40
0.4683622814
 40
0.5321736178
 40
0.5969897206
 40
0.6626945522
 40
0.7291646324
 40
0.7626516102
 40
0.7962831544
 40
0.8300413607
 40
0.863906378
 40
0.9318662858
 40
1.0
 40
1.0
 40
1.0
 40
1.0
 10
20.5230839237
 20
7.7275435131
 30
0.0
 10
20.5252690728
 20
7.732364443
 30
0.0
 10
20.5298869412
 20
7.741945563
 30
0.0
 10
20.5375079041
 20
7.7560408279
 30
0.0
 10
20.5458401596
 20
7.7698978561
 30
0.0
 10
20.5579324713
 20
7.7881173367
 30
0.0
 10
20.5747763826
 20
7.8102006842
 30
0.0
 10
20.5974639114
 20
7.8352968414
 30
0.0
 10
20.6183057881
 20
7.8549267017
 30
0.0
 10
20.6361184147
 20
7.8698525469
 30
0.0
 10
20.6501129627
 20
7.8806925553
 30
0.0
 10
20.664651998
 20
7.8911014291
 30
0.0
 10
20.6848214494
 20
7.904453594
 30
0.0
 10
20.7112696807
 20
7.9199900334
 30
0.0
 10
20.7446136732
 20
7.9366456051
 30
0.0
 10
20.7795125277
 20
7.9513142212
 30
0.0
 10
20.8157597861
 20
7.9639057402
 30
0.0
 10
20.8468455539
 20
7.972572327
 30
0.0
 10
20.8721953279
 20
7.9783886773
 30
0.0
 10
20.8914654187
 20
7.9821849464
 30
0.0
 10
20.9109152732
 20
7.9854008011
 30
0.0
 10
20.937076782
 20
7.9889172853
 30
0.0
 10
20.9700521048
 20
7.9918490665
 30
0.0
 10
20.9965510066
 20
7.9926322152
 30
0.0
 10
21.0098142873
 20
7.9926322951
 30
0.0
  0
SPLINE
  5
397
100
AcDbEntity
  8
0
100
AcDbSpline
 62
7
  6
CONTINUOUS
 70
0
 71
3
 72
23
 73
19
 74
0
 42
0.0000001
 43
0.0000001
 44
0.0000000001
 40
0.0
 40
0.0
 40
0.0
 40
0.0
 40
0.0598863194
 40
0.1195637995
 40
0.1493708423
 40
0.1791767752
 40
0.2388456448
 40
0.2987153985
 40
0.3589111628
 40
0.4195496851
 40
0.4807406806
 40
0.5425882585
 40
0.5737940799
 40
0.6052008431
 40
0.6686454021
 40
0.7329912187
 40
0.8644943897
 40
1.0
 40
1.0
 40
1.0
 40
1.0
 10
21.5199397737
 20
7.5419240754
 30
0.0
 10
21.521308747
 20
7.5492310996
 30
0.0
 10
21.5235184762
 20
7.5639232362
 30
0.0
 10
21.524930999
 20
7.5824293683
 30
0.0
 10
21.5252369975
 20
7.597237728
 30
0.0
 10
21.5249919267
 20
7.6120460236
 30
0.0
 10
21.5236547643
 20
7.63055534
 30
0.0
 10
21.5204222613
 20
7.6526511213
 30
0.0
 10
21.515580155
 20
7.6745742235
 30
0.0
 10
21.5091472085
 20
7.6962550015
 30
0.0
 10
21.5011424998
 20
7.7176241691
 30
0.0
 10
21.4932003162
 20
7.7350646308
 30
0.0
 10
21.4860912292
 20
7.7487849518
 30
0.0
 10
21.4784273818
 20
7.7624311619
 30
0.0
 10
21.4678965131
 20
7.7791724858
 30
0.0
 10
21.4490420371
 20
7.8052829306
 30
0.0
 10
21.4218872039
 20
7.8363193313
 30
0.0
 10
21.3972418944
 20
7.8586055678
 30
0.0
 10
21.3841645915
 20
7.8691858638
 30
0.0
  0
SPLINE
  5
398
100
AcDbEntity
  8
0
100
AcDbSpline
 62
7
  6
CONTINUOUS
 70
0
 71
3
 72
20
 73
16
 74
0
 42
0.0000001
 43
0.0000001
 44
0.0000000001
 40
0.0
 40
0.0
 40
0.0
 40
0.0
 40
0.0580384453
 40
0.1168512466
 40
0.1764190324
 40
0.2367130976
 40
0.3593014574
 40
0.48429794
 40
0.5475885571
 40
0.611329483
 40
0.6754692631
 40
0.7399543875
 40
0.804721572
 40
0.8697028125
 40
1.0
 40
1.0
 40
1.0
 40
1.0
 10
21.3841645915
 20
7.8691858638
 30
0.0
 10
21.3781247444
 20
7.8740724502
 30
0.0
 10
21.3657113753
 20
7.8836022452
 30
0.0
 10
21.3462873713
 20
7.8970488259
 30
0.0
 10
21.3259923686
 20
7.9097214085
 30
0.0
 10
21.2976970491
 20
7.9256364582
 30
0.0
 10
21.2604537487
 20
7.9434140702
 30
0.0
 10
21.2214680395
 20
7.958113551
 30
0.0
 10
21.1892208611
 20
7.9680537301
 30
0.0
 10
21.164470841
 20
7.9745869805
 30
0.0
 10
21.1393191629
 20
7.9801398022
 30
0.0
 10
21.1138273872
 20
7.9846889811
 30
0.0
 10
21.0880624133
 20
7.9882333341
 30
0.0
 10
21.0534113236
 20
7.991616846
 30
0.0
 10
21.0272559713
 20
7.9926324001
 30
0.0
 10
21.0098142873
 20
7.9926322951
 30
0.0
  0
SPLINE
  5
399
100
AcDbEntity
  8
0
100
AcDbSpline
 62
7
  6
CONTINUOUS
 70
0
 71
3
 72
11
 73
7
 74
0
 42
0.0000001
 43
0.0000001
 44
0.0000000001
 40
0.0
 40
0.0
 40
0.0
 40
0.0
 40
0.248048877
 40
0.4968891318
 40
0.7472941467
 40
1.0
 40
1.0
 40
1.0
 40
1.0
 10
20.5198183383
 20
10.3007728503
 30
0.0
 10
20.5198183383
 20
10.2923116991
 30
0.0
 10
20.5205679797
 20
10.2753530107
 30
0.0
 10
20.5239345763
 20
10.2500537087
 30
0.0
 10
20.5295266672
 20
10.2249892132
 30
0.0
 10
20.534694672
 20
10.2085988508
 30
0.0
 10
20.537628026
 20
10.2004933026
 30
0.0
  0
SPLINE
  5
39A
100
AcDbEntity
  8
0
100
AcDbSpline
 62
7
  6
CONTINUOUS
 70
0
 71
3
 72
11
 73
7
 74
0
 42
0.0000001
 43
0.0000001
 44
0.0000000001
 40
0.0
 40
0.0
 40
0.0
 40
0.0
 40
0.2527058533
 40
0.5031108682
 40
0.751951123
 40
1.0
 40
1.0
 40
1.0
 40
1.0
 10
21.4820086506
 20
10.2004933026
 30
0.0
 10
21.4849420045
 20
10.2085988508
 30
0.0
 10
21.4901100094
 20
10.2249892132
 30
0.0
 10
21.4957021002
 20
10.2500537087
 30
0.0
 10
21.4990686969
 20
10.2753530107
 30
0.0
 10
21.4998183383
 20
10.2923116991
 30
0.0
 10
21.4998183383
 20
10.3007728503
 30
0.0
  0
SPLINE
  5
39B
100
AcDbEntity
  8
0
100
AcDbSpline
 62
7
  6
CONTINUOUS
 70
0
 71
3
 72
9
 73
5
 74
0
 42
0.0000001
 43
0.0000001
 44
0.0000000001
 40
0.0
 40
0.0
 40
0.0
 40
0.0
 40
0.2449127017
 40
1.0
 40
1.0
 40
1.0
 40
1.0
 10
21.0751967483
 20
10.2320461777
 30
0.0
 10
21.0737022584
 20
10.2328918683
 30
0.0
 10
21.0674867394
 20
10.236142034
 30
0.0
 10
21.0608593065
 20
10.2385920968
 30
0.0
 10
21.0557523962
 20
10.2399878243
 30
0.0
  0
SPLINE
  5
39C
100
AcDbEntity
  8
0
100
AcDbSpline
 62
7
  6
CONTINUOUS
 70
0
 71
3
 72
11
 73
7
 74
0
 42
0.0000001
 43
0.0000001
 44
0.0000000001
 40
0.0
 40
0.0
 40
0.0
 40
0.0
 40
0.2557563684
 40
0.508240105
 40
0.7565806576
 40
1.0
 40
1.0
 40
1.0
 40
1.0
 10
21.0135043099
 20
10.2418060488
 30
0.0
 10
21.0110966197
 20
10.2413731398
 30
0.0
 10
21.0063434404
 20
10.2403258805
 30
0.0
 10
20.9994141305
 20
10.2382135282
 30
0.0
 10
20.9927881416
 20
10.2355902295
 30
0.0
 10
20.9885706023
 20
10.2334917457
 30
0.0
 10
20.9865353662
 20
10.2323609148
 30
0.0
  0
SPLINE
  5
39D
100
AcDbEntity
  8
0
100
AcDbSpline
 62
7
  6
CONTINUOUS
 70
0
 71
3
 72
11
 73
7
 74
0
 42
0.0000001
 43
0.0000001
 44
0.0000000001
 40
0.0
 40
0.0
 40
0.0
 40
0.0
 40
0.251792438
 40
0.5033315427
 40
0.7531975867
 40
1.0
 40
1.0
 40
1.0
 40
1.0
 10
21.1188854455
 20
10.2311752951
 30
0.0
 10
21.1159720991
 20
10.2313802303
 30
0.0
 10
21.1101262942
 20
10.2315228471
 30
0.0
 10
21.101397289
 20
10.2309549538
 30
0.0
 10
21.0928106065
 20
10.2296210463
 30
0.0
 10
21.0872127815
 20
10.2282185795
 30
0.0
 10
21.0844728044
 20
10.227389494
 30
0.0
  0
SPLINE
  5
39E
100
AcDbEntity
  8
0
100
AcDbSpline
 62
7
  6
CONTINUOUS
 70
0
 71
3
 72
10
 73
6
 74
0
 42
0.0000001
 43
0.0000001
 44
0.0000000001
 40
0.0
 40
0.0
 40
0.0
 40
0.0
 40
0.496529317
 40
0.7479083259
 40
1.0
 40
1.0
 40
1.0
 40
1.0
 10
21.2132648983
 20
10.2007520291
 30
0.0
 10
21.20877617
 20
10.2020348696
 30
0.0
 10
21.2018497715
 20
10.2034377479
 30
0.0
 10
21.1924822879
 20
10.2042951671
 30
0.0
 10
21.1877440655
 20
10.2043868092
 30
0.0
 10
21.1853741978
 20
10.2043468968
 30
0.0
  0
SPLINE
  5
39F
100
AcDbEntity
  8
0
100
AcDbSpline
 62
7
  6
CONTINUOUS
 70
0
 71
3
 72
50
 73
46
 74
0
 42
0.0000001
 43
0.0000001
 44
0.0000000001
 40
0.0
 40
0.0
 40
0.0
 40
0.0
 40
0.0152895768
 40
0.0305811934
 40
0.0458757908
 40
0.061174655
 40
0.07647947
 40
0.091791861
 40
0.1071137583
 40
0.1224474097
 40
0.1377953003
 40
0.1531601178
 40
0.1685447147
 40
0.1839520858
 40
0.2148385484
 40
0.2458549421
 40
0.2770243235
 40
0.292676237
 40
0.3083722194
 40
0.3398916984
 40
0.37158927
 40
0.4034513623
 40
0.435452554
 40
0.4996685078
 40
0.5639256089
 40
0.5959748701
 40
0.6278989641
 40
0.65966767
 40
0.691262549
 40
0.7226768996
 40
0.7539157989
 40
0.7849933656
 40
0.8159310074
 40
0.8313597572
 40
0.8467630412
 40
0.8621440491
 40
0.8775057508
 40
0.8928509601
 40
0.908182373
 40
0.9235024333
 40
0.9388133219
 40
0.9541169344
 40
0.9694148932
 40
0.9847088632
 40
1.0
 40
1.0
 40
1.0
 40
1.0
 10
20.5399279808
 20
9.9176604699
 30
0.0
 10
20.5400962246
 20
9.9245563261
 30
0.0
 10
20.5408201627
 20
9.9383426402
 30
0.0
 10
20.5430636704
 20
9.958927954
 30
0.0
 10
20.5464550075
 20
9.9793604167
 30
0.0
 10
20.5509796604
 20
9.9995779646
 30
0.0
 10
20.5566185027
 20
10.019521749
 30
0.0
 10
20.5633484516
 20
10.0391350801
 30
0.0
 10
20.5711422807
 20
10.0583643191
 30
0.0
 10
20.5799696128
 20
10.0771590501
 30
0.0
 10
20.5897973545
 20
10.0954723329
 30
0.0
 10
20.6005897695
 20
10.1132606798
 30
0.0
 10
20.61230969
 20
10.130484897
 30
0.0
 10
20.6291309249
 20
10.15266389
 30
0.0
 10
20.6523013758
 20
10.1788193493
 30
0.0
 10
20.6831401729
 20
10.2074084314
 30
0.0
 10
20.7110879348
 20
10.228762989
 30
0.0
 10
20.734632302
 20
10.2443074383
 30
0.0
 10
20.7589916907
 20
10.2588519081
 30
0.0
 10
20.7907563914
 20
10.2750399956
 30
0.0
 10
20.8305614597
 20
10.2911599618
 30
0.0
 10
20.8717917502
 20
10.3039366296
 30
0.0
 10
20.9282595663
 20
10.3164489493
 30
0.0
 10
21.0006511111
 20
10.3234560442
 30
0.0
 10
21.0732561964
 20
10.3188778782
 30
0.0
 10
21.1301852259
 20
10.3082913315
 30
0.0
 10
21.1719132419
 20
10.2969370245
 30
0.0
 10
21.2123562225
 20
10.2822134821
 30
0.0
 10
21.2511879239
 20
10.2641844522
 30
0.0
 10
21.2880801817
 20
10.2429306037
 30
0.0
 10
21.3227061944
 20
10.2185517787
 30
0.0
 10
21.3547349362
 20
10.1911764412
 30
0.0
 10
21.3790150839
 20
10.1659664809
 30
0.0
 10
21.3967922776
 20
10.1444928715
 30
0.0
 10
21.409260972
 20
10.1277713096
 30
0.0
 10
21.420834763
 20
10.1104549818
 30
0.0
 10
21.4314754275
 20
10.0925801756
 30
0.0
 10
21.4411454978
 20
10.0741872459
 30
0.0
 10
21.4498097615
 20
10.0553200939
 30
0.0
 10
21.4574354777
 20
10.0360262494
 30
0.0
 10
21.4639927903
 20
10.0163566474
 30
0.0
 10
21.4694550807
 20
9.996365502
 30
0.0
 10
21.4737998437
 20
9.9761095935
 30
0.0
 10
21.4770086006
 20
9.9556492491
 30
0.0
 10
21.4783815938
 20
9.9419106357
 30
0.0
 10
21.4788747802
 20
9.9350296753
 30
0.0
  0
SPLINE
  5
3A0
100
AcDbEntity
  8
0
100
AcDbSpline
 62
7
  6
CONTINUOUS
 70
0
 71
3
 72
49
 73
45
 74
0
 42
0.0000001
 43
0.0000001
 44
0.0000000001
 40
0.0
 40
0.0
 40
0.0
 40
0.0
 40
0.013713841
 40
0.0274585977
 40
0.0412527409
 40
0.0551137267
 40
0.0690581547
 40
0.0831017806
 40
0.0972592183
 40
0.1115438296
 40
0.1259675772
 40
0.1405409121
 40
0.1701600959
 40
0.2004632482
 40
0.2314741642
 40
0.2631898944
 40
0.2955820814
 40
0.3285991848
 40
0.3621691954
 40
0.3962027193
 40
0.4305962923
 40
0.4652358341
 40
0.5000001358
 40
0.5347644353
 40
0.5694039703
 40
0.6037975329
 40
0.6378310417
 40
0.6714010343
 40
0.7044181166
 40
0.7368102796
 40
0.768525985
 40
0.7995368748
 40
0.8298400012
 40
0.8594591602
 40
0.8740324835
 40
0.8884562202
 40
0.9027408213
 40
0.9168982497
 40
0.9309418675
 40
0.9448862883
 40
0.9587472681
 40
0.9725414069
 40
0.9862861601
 40
1.0
 40
1.0
 40
1.0
 40
1.0
 10
21.4995347974
 20
10.39728385
 30
0.0
 10
21.4992655297
 20
10.4034314929
 30
0.0
 10
21.4983422562
 20
10.4157272364
 30
0.0
 10
21.4958114689
 20
10.4340752854
 30
0.0
 10
21.4921413431
 20
10.4522977377
 30
0.0
 10
21.4873428121
 20
10.4703483755
 30
0.0
 10
21.4814297086
 20
10.4881829977
 30
0.0
 10
21.4744187838
 20
10.5057582746
 30
0.0
 10
21.4663295561
 20
10.5230324511
 30
0.0
 10
21.4571841552
 20
10.5399650459
 30
0.0
 10
21.4470063844
 20
10.5565175863
 30
0.0
 10
21.4320172855
 20
10.5781435471
 30
0.0
 10
21.4107799025
 20
10.6040437653
 30
0.0
 10
21.3817875667
 20
10.6328466959
 30
0.0
 10
21.3494221469
 20
10.6593082047
 30
0.0
 10
21.3139886869
 20
10.683204038
 30
0.0
 10
21.27581256
 20
10.704335916
 30
0.0
 10
21.2352409885
 20
10.7225273868
 30
0.0
 10
21.1926403537
 20
10.7376258995
 30
0.0
 10
21.1483944069
 20
10.7495043507
 30
0.0
 10
21.1029012176
 20
10.7580619917
 30
0.0
 10
21.0565701295
 20
10.7632259588
 30
0.0
 10
21.0098181494
 20
10.7649522524
 30
0.0
 10
20.963066173
 20
10.7632259334
 30
0.0
 10
20.9167350976
 20
10.7580619332
 30
0.0
 10
20.8712419261
 20
10.7495042763
 30
0.0
 10
20.8269960064
 20
10.7376257988
 30
0.0
 10
20.7843954029
 20
10.7225272716
 30
0.0
 10
20.7438238658
 20
10.7043357926
 30
0.0
 10
20.7056477802
 20
10.6832039052
 30
0.0
 10
20.6702143565
 20
10.6593080785
 30
0.0
 10
20.6378489776
 20
10.632846574
 30
0.0
 10
20.6088566771
 20
10.6040436572
 30
0.0
 10
20.5876193204
 20
10.5781434539
 30
0.0
 10
20.5726302393
 20
10.5565175065
 30
0.0
 10
20.5624524819
 20
10.5399649752
 30
0.0
 10
20.5533070902
 20
10.523032391
 30
0.0
 10
20.5452178705
 20
10.5057582244
 30
0.0
 10
20.5382069535
 20
10.4881829564
 30
0.0
 10
20.5322938549
 20
10.4703483426
 30
0.0
 10
20.5274953273
 20
10.452297712
 30
0.0
 10
20.5238252045
 20
10.4340752655
 30
0.0
 10
20.5212944186
 20
10.4157272204
 30
0.0
 10
20.520371146
 20
10.403431479
 30
0.0
 10
20.5201018786
 20
10.3972838365
 30
0.0
  0
SPLINE
  5
3A1
100
AcDbEntity
  8
0
100
AcDbSpline
 62
7
  6
CONTINUOUS
 70
0
 71
3
 72
14
 73
10
 74
0
 42
0.0000001
 43
0.0000001
 44
0.0000000001
 40
0.0
 40
0.0
 40
0.0
 40
0.0
 40
0.1154808636
 40
0.2337817667
 40
0.3549517668
 40
0.4789578968
 40
0.6056907306
 40
0.7349723629
 40
1.0
 40
1.0
 40
1.0
 40
1.0
 10
21.3310019645
 20
10.2111920269
 30
0.0
 10
21.3254126298
 20
10.2180501756
 30
0.0
 10
21.3134286033
 20
10.2314014748
 30
0.0
 10
21.2934929467
 20
10.2499453446
 30
0.0
 10
21.2715235357
 20
10.2671111382
 30
0.0
 10
21.2476813228
 20
10.2827672927
 30
0.0
 10
21.2221349535
 20
10.2967971283
 30
0.0
 10
21.1857675823
 20
10.3133207132
 30
0.0
 10
21.1569246653
 20
10.3227494241
 30
0.0
 10
21.1372403903
 20
10.3277295897
 30
0.0
  0
SPLINE
  5
3A2
100
AcDbEntity
  8
0
100
AcDbSpline
 62
7
  6
CONTINUOUS
 70
0
 71
3
 72
14
 73
10
 74
0
 42
0.0000001
 43
0.0000001
 44
0.0000000001
 40
0.0
 40
0.0
 40
0.0
 40
0.0
 40
0.228518306
 40
0.3463607674
 40
0.4674252222
 40
0.592457898
 40
0.722287145
 40
0.8578140094
 40
1.0
 40
1.0
 40
1.0
 40
1.0
 10
8.0941193035
 20
3.3926060155
 30
0.0
 10
8.0966489255
 20
3.3865641156
 30
0.0
 10
8.100160673
 20
3.3772630411
 30
0.0
 10
8.1040413845
 20
3.364435159
 30
0.0
 10
8.1065665988
 20
3.3543088355
 30
0.0
 10
8.1086218623
 20
3.343726177
 30
0.0
 10
8.1101535295
 20
3.3326358684
 30
0.0
 10
8.111107949
 20
3.32098769
 30
0.0
 10
8.1113183383
 20
3.313025599
 30
0.0
 10
8.1113183383
 20
3.3089500851
 30
0.0
  0
SPLINE
  5
3A3
100
AcDbEntity
  8
0
100
AcDbSpline
 62
7
  6
CONTINUOUS
 70
0
 71
3
 72
11
 73
7
 74
0
 42
0.0000001
 43
0.0000001
 44
0.0000000001
 40
0.0
 40
0.0
 40
0.0
 40
0.0
 40
0.2449710264
 40
0.4939540401
 40
0.7459766674
 40
1.0
 40
1.0
 40
1.0
 40
1.0
 10
20.9839284417
 20
10.2322352729
 30
0.0
 10
20.9816561847
 20
10.2331903874
 30
0.0
 10
20.9769866618
 20
10.2349133527
 30
0.0
 10
20.9697451064
 20
10.2369176321
 30
0.0
 10
20.9622764794
 20
10.2383497221
 30
0.0
 10
20.9572093522
 20
10.2389099001
 30
0.0
 10
20.9546597713
 20
10.2390897089
 30
0.0
  0
SPLINE
  5
3A4
100
AcDbEntity
  8
0
100
AcDbSpline
 62
7
  6
CONTINUOUS
 70
0
 71
3
 72
11
 73
7
 74
0
 42
0.0000001
 43
0.0000001
 44
0.0000000001
 40
0.0
 40
0.0
 40
0.0
 40
0.0
 40
0.2501083528
 40
0.5013940741
 40
0.7519532242
 40
1.0
 40
1.0
 40
1.0
 40
1.0
 10
20.8852802949
 20
10.2183204191
 30
0.0
 10
20.8820017869
 20
10.2188786037
 30
0.0
 10
20.875365622
 20
10.219651418
 30
0.0
 10
20.8653516897
 20
10.2197957339
 30
0.0
 10
20.8554010351
 20
10.2189285113
 30
0.0
 10
20.8488786949
 20
10.2176591429
 30
0.0
 10
20.8456796022
 20
10.2168563916
 30
0.0
  0
SPLINE
  5
3A5
100
AcDbEntity
  8
0
100
AcDbSpline
 62
7
  6
CONTINUOUS
 70
0
 71
3
 72
9
 73
5
 74
0
 42
0.0000001
 43
0.0000001
 44
0.0000000001
 40
0.0
 40
0.0
 40
0.0
 40
0.0
 40
0.2523398817
 40
1.0
 40
1.0
 40
1.0
 40
1.0
 10
20.7838263652
 20
10.1844731399
 30
0.0
 10
20.7825851656
 20
10.184277373
 30
0.0
 10
20.7776821946
 20
10.1834054931
 30
0.0
 10
20.7728465751
 20
10.1821479303
 30
0.0
 10
20.7693099056
 20
10.1809847996
 30
0.0
  0
LINE
  5
3A6
100
AcDbEntity
  8
0
100
AcDbLine
 62
7
  6
CONTINUOUS
 10
20.9856662705
 20
10.2323205144
 11
20.9865353662
 21
10.2323609148
  0
SPLINE
  5
3A7
100
AcDbEntity
  8
0
100
AcDbSpline
 62
7
  6
CONTINUOUS
 70
0
 71
3
 72
27
 73
23
 74
0
 42
0.0000001
 43
0.0000001
 44
0.0000000001
 40
0.0
 40
0.0
 40
0.0
 40
0.0
 40
0.0641713272
 40
0.1282955195
 40
0.1923252741
 40
0.2562113044
 40
0.3199062109
 40
0.3516726203
 40
0.383376403
 40
0.446574425
 40
0.5094816048
 40
0.5720695297
 40
0.6343111595
 40
0.6652992164
 40
0.6961932706
 40
0.726992125
 40
0.7576955002
 40
0.7883044347
 40
0.8188202569
 40
0.8795682528
 40
0.9399575031
 40
1.0
 40
1.0
 40
1.0
 40
1.0
 10
21.0098130318
 20
4.5237499867
 30
0.0
 10
21.0315988197
 20
4.5237498765
 30
0.0
 10
21.0751662934
 20
4.525106453
 30
0.0
 10
21.1402175774
 20
4.5311592377
 30
0.0
 10
21.2046821506
 20
4.5411763761
 30
0.0
 10
21.2682653376
 20
4.5551043855
 30
0.0
 10
21.3203281515
 20
4.5699416293
 30
0.0
 10
21.3612486185
 20
4.5837206173
 30
0.0
 10
21.4015530494
 20
4.5987326206
 30
0.0
 10
21.4508434154
 20
4.619827319
 30
0.0
 10
21.5080511119
 20
4.6487490243
 30
0.0
 10
21.5630134556
 20
4.6811038358
 30
0.0
 10
21.6068068892
 20
4.7108489717
 30
0.0
 10
21.6404628516
 20
4.7362168277
 30
0.0
 10
21.664953377
 20
4.7559809124
 30
0.0
 10
21.6886958132
 20
4.7764898731
 30
0.0
 10
21.7116584192
 20
4.797726152
 30
0.0
 10
21.7338173156
 20
4.8196639138
 30
0.0
 10
21.7622175871
 20
4.8497612987
 30
0.0
 10
21.7956238456
 20
4.8889955689
 30
0.0
 10
21.8322203281
 20
4.9384896559
 30
0.0
 10
21.8542102531
 20
4.973005641
 30
0.0
 10
21.864548409
 20
4.9905735953
 30
0.0
  0
SPLINE
  5
3A8
100
AcDbEntity
  8
0
100
AcDbSpline
 62
7
  6
CONTINUOUS
 70
0
 71
3
 72
27
 73
23
 74
0
 42
0.0000001
 43
0.0000001
 44
0.0000000001
 40
0.0
 40
0.0
 40
0.0
 40
0.0
 40
0.0641713409
 40
0.1282955404
 40
0.1923252962
 40
0.2562113227
 40
0.3199062218
 40
0.3516726266
 40
0.3833764045
 40
0.446574417
 40
0.5094815878
 40
0.5720695045
 40
0.6343111278
 40
0.6652991821
 40
0.6961932346
 40
0.7269920882
 40
0.7576954636
 40
0.7883043992
 40
0.8188202236
 40
0.8795682269
 40
0.9399574884
 40
1.0
 40
1.0
 40
1.0
 40
1.0
 10
21.0098130318
 20
4.5237499867
 30
0.0
 10
20.9880274662
 20
4.5237500969
 30
0.0
 10
20.9444604532
 20
4.5251070835
 30
0.0
 10
20.8794098949
 20
4.5311603938
 30
0.0
 10
20.8149460767
 20
4.5411779699
 30
0.0
 10
20.751363665
 20
4.5551063308
 30
0.0
 10
20.6993015071
 20
4.5699437973
 30
0.0
 10
20.6583815667
 20
4.5837229217
 30
0.0
 10
20.6180776614
 20
4.598735034
 30
0.0
 10
20.5687879464
 20
4.619829812
 30
0.0
 10
20.5115810138
 20
4.6487515264
 30
0.0
 10
20.4566194085
 20
4.6811062651
 30
0.0
 10
20.4128265641
 20
4.7108512754
 30
0.0
 10
20.3791710529
 20
4.7362189943
 30
0.0
 10
20.354680854
 20
4.7559829589
 30
0.0
 10
20.3309387325
 20
4.7764917824
 30
0.0
 10
20.307976428
 20
4.7977279076
 30
0.0
 10
20.2858178184
 20
4.8196654989
 30
0.0
 10
20.2574179079
 20
4.8497626367
 30
0.0
 10
20.2240120615
 20
4.888996561
 30
0.0
 10
20.1874160062
 20
4.9384901794
 30
0.0
 10
20.1654263183
 20
4.9730058197
 30
0.0
 10
20.1550882676
 20
4.9905735952
 30
0.0
  0
SPLINE
  5
3A9
100
AcDbEntity
  8
0
100
AcDbSpline
 62
9
  6
CONTINUOUS
 70
0
 71
3
 72
28
 73
24
 74
0
 42
0.0000001
 43
0.0000001
 44
0.0000000001
 40
0.0
 40
0.0
 40
0.0
 40
0.0
 40
0.0640067385
 40
0.1278293359
 40
0.1596736993
 40
0.1914649293
 40
0.2231809493
 40
0.2548000179
 40
0.3178388305
 40
0.3493563596
 40
0.380871421
 40
0.4123398649
 40
0.4437270877
 40
0.5062648872
 40
0.5685490267
 40
0.6306451065
 40
0.661650759
 40
0.6926420232
 40
0.7545556656
 40
0.8163088936
 40
0.8778331107
 40
0.9390794423
 40
1.0
 40
1.0
 40
1.0
 40
1.0
 10
20.2454661239
 20
6.1584048616
 30
0.0
 10
20.2373906496
 20
6.1476564208
 30
0.0
 10
20.2216720758
 20
6.1258796637
 30
0.0
 10
20.2031023945
 20
6.0979413618
 30
0.0
 10
20.1889346371
 20
6.0752243758
 30
0.0
 10
20.178666844
 20
6.0580274224
 30
0.0
 10
20.168762806
 20
6.0406727983
 30
0.0
 10
20.1560715103
 20
6.017358104
 30
0.0
 10
20.1441060056
 20
5.9937019435
 30
0.0
 10
20.1328323605
 20
5.9697402287
 30
0.0
 10
20.1247270907
 20
5.9516199748
 30
0.0
 10
20.1169912974
 20
5.9333685953
 30
0.0
 10
20.1072068443
 20
5.9089141279
 30
0.0
 10
20.0959506549
 20
5.8780843847
 30
0.0
 10
20.0840019577
 20
5.8406754325
 30
0.0
 10
20.0753406722
 20
5.8091982177
 30
0.0
 10
20.0691842651
 20
5.7838695834
 30
0.0
 10
20.0635383451
 20
5.7584615758
 30
0.0
 10
20.0574405398
 20
5.7265446666
 30
0.0
 10
20.0517182756
 20
5.6880590311
 30
0.0
 10
20.0476362579
 20
5.6495050002
 30
0.0
 10
20.0452302287
 20
5.6109858399
 30
0.0
 10
20.0447613915
 20
5.5853199113
 30
0.0
 10
20.0448183388
 20
5.5725242207
 30
0.0
  0
SPLINE
  5
3AA
100
AcDbEntity
  8
0
100
AcDbSpline
 62
7
  6
CONTINUOUS
 70
0
 71
3
 72
11
 73
7
 74
0
 42
0.0000001
 43
0.0000001
 44
0.0000000001
 40
0.0
 40
0.0
 40
0.0
 40
0.0
 40
0.2525601698
 40
0.5029421399
 40
0.7518448428
 40
1.0
 40
1.0
 40
1.0
 40
1.0
 10
20.5366333113
 20
10.398262056
 30
0.0
 10
20.5338620028
 20
10.3903685422
 30
0.0
 10
20.5289812319
 20
10.374416587
 30
0.0
 10
20.523702824
 20
10.3500489053
 30
0.0
 10
20.5205257051
 20
10.325466084
 30
0.0
 10
20.5198183383
 20
10.3089928034
 30
0.0
 10
20.5198183383
 20
10.3007728503
 30
0.0
  0
SPLINE
  5
3AB
100
AcDbEntity
  8
0
100
AcDbSpline
 62
7
  6
CONTINUOUS
 70
0
 71
3
 72
22
 73
18
 74
0
 42
0.0000001
 43
0.0000001
 44
0.0000000001
 40
0.0
 40
0.0
 40
0.0
 40
0.0
 40
0.0438295651
 40
0.0894697302
 40
0.1372182471
 40
0.1873073119
 40
0.2399121587
 40
0.295159977
 40
0.3531381843
 40
0.4139016299
 40
0.4774786334
 40
0.5438759358
 40
0.6130827063
 40
0.6850737643
 40
0.7598121637
 40
0.8372512685
 40
1.0
 40
1.0
 40
1.0
 40
1.0
 10
20.3755987053
 20
6.30902354
 30
0.0
 10
20.3769237151
 20
6.3104584717
 30
0.0
 10
20.3797800909
 20
6.3132504566
 30
0.0
 10
20.3845293652
 20
6.3171131079
 30
0.0
 10
20.3898065154
 20
6.3207341326
 30
0.0
 10
20.3955979612
 20
6.3241209674
 30
0.0
 10
20.4018912357
 20
6.3272815708
 30
0.0
 10
20.4086738687
 20
6.330223353
 30
0.0
 10
20.4159335203
 20
6.3329535276
 30
0.0
 10
20.4236578302
 20
6.3354790861
 30
0.0
 10
20.4318344046
 20
6.3378068798
 30
0.0
 10
20.4404507954
 20
6.3399436573
 30
0.0
 10
20.4494945055
 20
6.341896106
 30
0.0
 10
20.4589529754
 20
6.3436708487
 30
0.0
 10
20.4688136584
 20
6.3452745661
 30
0.0
 10
20.4827118248
 20
6.3472257443
 30
0.0
 10
20.4933534658
 20
6.348399469
 30
0.0
 10
20.5005733571
 20
6.3490849843
 30
0.0
  0
SPLINE
  5
3AC
100
AcDbEntity
  8
0
100
AcDbSpline
 62
7
  6
CONTINUOUS
 70
0
 71
3
 72
11
 73
7
 74
0
 42
0.0000001
 43
0.0000001
 44
0.0000000001
 40
0.0
 40
0.0
 40
0.0
 40
0.0
 40
0.2481551572
 40
0.4970578601
 40
0.7474398302
 40
1.0
 40
1.0
 40
1.0
 40
1.0
 10
21.4998183383
 20
10.3007728503
 30
0.0
 10
21.4998183383
 20
10.3089928034
 30
0.0
 10
21.4991109715
 20
10.325466084
 30
0.0
 10
21.4959338525
 20
10.3500489053
 30
0.0
 10
21.4906554447
 20
10.374416587
 30
0.0
 10
21.4857746738
 20
10.3903685422
 30
0.0
 10
21.4830033653
 20
10.398262056
 30
0.0
  0
SPLINE
  5
3AD
100
AcDbEntity
  8
0
100
AcDbSpline
 62
9
  6
CONTINUOUS
 70
0
 71
3
 72
49
 73
45
 74
0
 42
0.0000001
 43
0.0000001
 44
0.0000000001
 40
0.0
 40
0.0
 40
0.0
 40
0.0
 40
0.0135006369
 40
0.0270249517
 40
0.0405939168
 40
0.0542302647
 40
0.067954654
 40
0.081786689
 40
0.0957445761
 40
0.1098447856
 40
0.1241019543
 40
0.1385287566
 40
0.1679209768
 40
0.1980928507
 40
0.2290709533
 40
0.2608500097
 40
0.2933955041
 40
0.3266468012
 40
0.3605207386
 40
0.3949153203
 40
0.4297135018
 40
0.4647869913
 40
0.5
 40
0.5352130087
 40
0.5702864982
 40
0.6050846797
 40
0.6394792614
 40
0.6733531988
 40
0.7066044959
 40
0.7391499903
 40
0.7709290467
 40
0.8019071493
 40
0.8320790232
 40
0.8614712434
 40
0.8758980456
 40
0.8901552144
 40
0.9042554239
 40
0.918213311
 40
0.932045346
 40
0.9457697353
 40
0.9594060832
 40
0.9729750483
 40
0.9864993631
 40
1.0
 40
1.0
 40
1.0
 40
1.0
 10
20.5398183383
 20
10.082225063
 30
0.0
 10
20.5398183383
 20
10.0881167153
 30
0.0
 10
20.540196738
 20
10.0999138322
 30
0.0
 10
20.5418971735
 20
10.1175586545
 30
0.0
 10
20.5447268514
 20
10.1351185425
 30
0.0
 10
20.5486784143
 20
10.1525496032
 30
0.0
 10
20.5537423216
 20
10.169810093
 30
0.0
 10
20.5599059787
 20
10.1868580876
 30
0.0
 10
20.5671542457
 20
10.2036524561
 30
0.0
 10
20.575469341
 20
10.2201525232
 30
0.0
 10
20.5848312815
 20
10.2363190227
 30
0.0
 10
20.5987621707
 20
10.2575048832
 30
0.0
 10
20.618737334
 20
10.2829624358
 30
0.0
 10
20.6463068787
 20
10.3113606195
 30
0.0
 10
20.6773623333
 20
10.3375411217
 30
0.0
 10
20.7116009817
 20
10.361254824
 30
0.0
 10
20.7486937856
 20
10.3822793809
 30
0.0
 10
20.7882845598
 20
10.4004168343
 30
0.0
 10
20.8299942104
 20
10.4154961751
 30
0.0
 10
20.8734235971
 20
10.4273750764
 30
0.0
 10
20.9181573385
 20
10.4359412857
 30
0.0
 10
20.9637676474
 20
10.4411136184
 30
0.0
 10
21.0098183383
 20
10.4428432614
 30
0.0
 10
21.0558690292
 20
10.4411136184
 30
0.0
 10
21.1014793381
 20
10.4359412857
 30
0.0
 10
21.1462130795
 20
10.4273750764
 30
0.0
 10
21.1896424662
 20
10.4154961751
 30
0.0
 10
21.2313521168
 20
10.4004168343
 30
0.0
 10
21.2709428909
 20
10.3822793809
 30
0.0
 10
21.3080356949
 20
10.361254824
 30
0.0
 10
21.3422743433
 20
10.3375411217
 30
0.0
 10
21.3733297979
 20
10.3113606195
 30
0.0
 10
21.4008993426
 20
10.2829624358
 30
0.0
 10
21.4208745058
 20
10.2575048832
 30
0.0
 10
21.434805395
 20
10.2363190227
 30
0.0
 10
21.4441673355
 20
10.2201525232
 30
0.0
 10
21.4524824308
 20
10.2036524561
 30
0.0
 10
21.4597306979
 20
10.1868580876
 30
0.0
 10
21.465894355
 20
10.169810093
 30
0.0
 10
21.4709582622
 20
10.1525496032
 30
0.0
 10
21.4749098252
 20
10.1351185425
 30
0.0
 10
21.477739503
 20
10.1175586545
 30
0.0
 10
21.4794399385
 20
10.0999138322
 30
0.0
 10
21.4798183383
 20
10.0881167153
 30
0.0
 10
21.4798183383
 20
10.082225063
 30
0.0
  0
SPLINE
  5
3AE
100
AcDbEntity
  8
0
100
AcDbSpline
 62
9
  6
CONTINUOUS
 70
0
 71
3
 72
39
 73
35
 74
0
 42
0.0000001
 43
0.0000001
 44
0.0000000001
 40
0.0
 40
0.0
 40
0.0
 40
0.0
 40
0.0271755822
 40
0.0548256121
 40
0.0830186631
 40
0.1118049749
 40
0.1412173916
 40
0.1712710241
 40
0.2019640844
 40
0.2332789489
 40
0.2651834958
 40
0.2976325912
 40
0.3305696669
 40
0.3639283403
 40
0.3976340587
 40
0.4316057502
 40
0.4657574637
 40
0.5
 40
0.5342425363
 40
0.5683942498
 40
0.6023659413
 40
0.6360716597
 40
0.6694303331
 40
0.7023674088
 40
0.7348165042
 40
0.7667210511
 40
0.7980359156
 40
0.8287289759
 40
0.8587826084
 40
0.8881950251
 40
0.9169813369
 40
0.9451743879
 40
0.9728244178
 40
1.0
 40
1.0
 40
1.0
 40
1.0
 10
20.5398183383
 20
10.2012270469
 30
0.0
 10
20.543552664
 20
10.2109302116
 30
0.0
 10
20.5520713532
 20
10.2301412962
 30
0.0
 10
20.5676967256
 20
10.2578448816
 30
0.0
 10
20.5861680179
 20
10.2844919147
 30
0.0
 10
20.6073622284
 20
10.30990841
 30
0.0
 10
20.6311410642
 20
10.3339337664
 30
0.0
 10
20.6573500318
 20
10.3564152298
 30
0.0
 10
20.6858197234
 20
10.3772104124
 30
0.0
 10
20.7163667109
 20
10.3961875492
 30
0.0
 10
20.7487946467
 20
10.4132263738
 30
0.0
 10
20.7828953947
 20
10.4282188194
 30
0.0
 10
20.8184502758
 20
10.4410697076
 30
0.0
 10
20.8552313865
 20
10.4516973932
 30
0.0
 10
20.893003012
 20
10.4600343331
 30
0.0
 10
20.931523124
 20
10.466027497
 30
0.0
 10
20.9705449085
 20
10.4696387383
 30
0.0
 10
21.0098183383
 20
10.470845053
 30
0.0
 10
21.049091768
 20
10.4696387383
 30
0.0
 10
21.0881135526
 20
10.466027497
 30
0.0
 10
21.1266336645
 20
10.4600343331
 30
0.0
 10
21.1644052901
 20
10.4516973932
 30
0.0
 10
21.2011864007
 20
10.4410697076
 30
0.0
 10
21.2367412819
 20
10.4282188194
 30
0.0
 10
21.2708420299
 20
10.4132263738
 30
0.0
 10
21.3032699656
 20
10.3961875492
 30
0.0
 10
21.3338169532
 20
10.3772104124
 30
0.0
 10
21.3622866448
 20
10.3564152298
 30
0.0
 10
21.3884956124
 20
10.3339337664
 30
0.0
 10
21.4122744482
 20
10.30990841
 30
0.0
 10
21.4334686587
 20
10.2844919147
 30
0.0
 10
21.451939951
 20
10.2578448816
 30
0.0
 10
21.4675653233
 20
10.2301412962
 30
0.0
 10
21.4760840126
 20
10.2109302116
 30
0.0
 10
21.4798183383
 20
10.2012270469
 30
0.0
  0
SPLINE
  5
3AF
100
AcDbEntity
  8
0
100
AcDbSpline
 62
9
  6
CONTINUOUS
 70
0
 71
3
 72
11
 73
7
 74
0
 42
0.0000001
 43
0.0000001
 44
0.0000000001
 40
0.0
 40
0.0
 40
0.0
 40
0.0
 40
0.2486247253
 40
0.4978129123
 40
0.7480933811
 40
1.0
 40
1.0
 40
1.0
 40
1.0
 10
21.4798183383
 20
10.082225063
 30
0.0
 10
21.4798183383
 20
10.0754514796
 30
0.0
 10
21.479317938
 20
10.0618837243
 30
0.0
 10
21.4770696482
 20
10.0416091732
 30
0.0
 10
21.4733308118
 20
10.0214651378
 30
0.0
 10
21.4698655927
 20
10.0082152774
 30
0.0
 10
21.4678948406
 20
10.001641325
 30
0.0
  0
SPLINE
  5
3B0
100
AcDbEntity
  8
0
100
AcDbSpline
 62
9
  6
CONTINUOUS
 70
0
 71
3
 72
11
 73
7
 74
0
 42
0.0000001
 43
0.0000001
 44
0.0000000001
 40
0.0
 40
0.0
 40
0.0
 40
0.0
 40
0.2519066512
 40
0.5021871251
 40
0.751375298
 40
1.0
 40
1.0
 40
1.0
 40
1.0
 10
20.5517420437
 20
10.0016406321
 30
0.0
 10
20.5497712575
 20
10.0082146386
 30
0.0
 10
20.5463059783
 20
10.0214646098
 30
0.0
 10
20.5425670765
 20
10.0416088183
 30
0.0
 10
20.5403187473
 20
10.061883546
 30
0.0
 10
20.5398183383
 20
10.0754514203
 30
0.0
 10
20.5398183383
 20
10.082225063
 30
0.0
  0
SPLINE
  5
3B1
100
AcDbEntity
  8
0
100
AcDbSpline
 62
9
  6
CONTINUOUS
 70
0
 71
3
 72
49
 73
45
 74
0
 42
0.0000001
 43
0.0000001
 44
0.0000000001
 40
0.0
 40
0.0
 40
0.0
 40
0.0
 40
0.0135006553
 40
0.0270249995
 40
0.0405939671
 40
0.054230312
 40
0.0679546978
 40
0.0817867297
 40
0.0957446167
 40
0.1098448272
 40
0.1241019955
 40
0.138528796
 40
0.1679210126
 40
0.1980928842
 40
0.2290709838
 40
0.2608500371
 40
0.2933955281
 40
0.3266468217
 40
0.3605207552
 40
0.3949153329
 40
0.4297135102
 40
0.4647869956
 40
0.5
 40
0.5352130044
 40
0.5702864898
 40
0.6050846671
 40
0.6394792448
 40
0.6733531784
 40
0.7066044719
 40
0.7391499629
 40
0.7709290162
 40
0.8019071158
 40
0.8320789874
 40
0.861471204
 40
0.8758980045
 40
0.8901551728
 40
0.9042553833
 40
0.9182132703
 40
0.9320453022
 40
0.945769688
 40
0.9594060329
 40
0.9729750005
 40
0.9864993447
 40
1.0
 40
1.0
 40
1.0
 40
1.0
 10
20.5198183383
 20
10.3843352395
 30
0.0
 10
20.5198183383
 20
10.3904776088
 30
0.0
 10
20.5202128448
 20
10.4027767524
 30
0.0
 10
20.5219856395
 20
10.421172441
 30
0.0
 10
20.5249357359
 20
10.4394795708
 30
0.0
 10
20.5290554565
 20
10.4576523753
 30
0.0
 10
20.5343348501
 20
10.4756473492
 30
0.0
 10
20.5407607926
 20
10.4934207864
 30
0.0
 10
20.5483174993
 20
10.5109298067
 30
0.0
 10
20.5569864325
 20
10.5281320025
 30
0.0
 10
20.566746755
 20
10.5449864365
 30
0.0
 10
20.5812704497
 20
10.5670738188
 30
0.0
 10
20.6020956224
 20
10.5936146651
 30
0.0
 10
20.6308383391
 20
10.6232212765
 30
0.0
 10
20.6632153025
 20
10.6505158366
 30
0.0
 10
20.6989109132
 20
10.6752386269
 30
0.0
 10
20.7375821316
 20
10.6971578414
 30
0.0
 10
20.7788576164
 20
10.7160670963
 30
0.0
 10
20.8223421413
 20
10.7317881081
 30
0.0
 10
20.8676195824
 20
10.7441724911
 30
0.0
 10
20.9142568818
 20
10.7531032181
 30
0.0
 10
20.9618080493
 20
10.7584956487
 30
0.0
 10
21.0098183383
 20
10.760298893
 30
0.0
 10
21.0578286272
 20
10.7584956487
 30
0.0
 10
21.1053797947
 20
10.7531032181
 30
0.0
 10
21.1520170942
 20
10.7441724911
 30
0.0
 10
21.1972945352
 20
10.7317881081
 30
0.0
 10
21.2407790602
 20
10.7160670963
 30
0.0
 10
21.282054545
 20
10.6971578414
 30
0.0
 10
21.3207257633
 20
10.6752386269
 30
0.0
 10
21.3564213741
 20
10.6505158366
 30
0.0
 10
21.3887983374
 20
10.6232212765
 30
0.0
 10
21.4175410542
 20
10.5936146651
 30
0.0
 10
21.4383662268
 20
10.5670738188
 30
0.0
 10
21.4528899215
 20
10.5449864365
 30
0.0
 10
21.4626502441
 20
10.5281320025
 30
0.0
 10
21.4713191773
 20
10.5109298067
 30
0.0
 10
21.4788758839
 20
10.4934207864
 30
0.0
 10
21.4853018265
 20
10.4756473492
 30
0.0
 10
21.4905812201
 20
10.4576523753
 30
0.0
 10
21.4947009407
 20
10.4394795708
 30
0.0
 10
21.4976510371
 20
10.421172441
 30
0.0
 10
21.4994238318
 20
10.4027767524
 30
0.0
 10
21.4998183383
 20
10.3904776088
 30
0.0
 10
21.4998183383
 20
10.3843352395
 30
0.0
  0
SPLINE
  5
3B2
100
AcDbEntity
  8
0
100
AcDbSpline
 62
7
  6
CONTINUOUS
 70
0
 71
3
 72
22
 73
18
 74
0
 42
0.0000001
 43
0.0000001
 44
0.0000000001
 40
0.0
 40
0.0
 40
0.0
 40
0.0
 40
0.0543379022
 40
0.1097943889
 40
0.1664775383
 40
0.2244531605
 40
0.2837467024
 40
0.3443457824
 40
0.4062038171
 40
0.4692438251
 40
0.5333626036
 40
0.5984347633
 40
0.6643168189
 40
0.7308510606
 40
0.797869247
 40
0.8651965782
 40
1.0
 40
1.0
 40
1.0
 40
1.0
 10
21.3495246569
 20
10.1948008964
 30
0.0
 10
21.3458408865
 20
10.2024098565
 30
0.0
 10
21.3375959629
 20
10.2174088598
 30
0.0
 10
21.3229317083
 20
10.2388034566
 30
0.0
 10
21.3059686927
 20
10.2591676245
 30
0.0
 10
21.2868406176
 20
10.2783605901
 30
0.0
 10
21.2656919176
 20
10.296255986
 30
0.0
 10
21.2426790415
 20
10.312736915
 30
0.0
 10
21.2179686214
 20
10.3276978869
 30
0.0
 10
21.1917364022
 20
10.3410447822
 30
0.0
 10
21.1641659299
 20
10.3526953398
 30
0.0
 10
21.1354473384
 20
10.362579446
 30
0.0
 10
21.105775709
 20
10.370639378
 30
0.0
 10
21.0753509158
 20
10.3768299839
 30
0.0
 10
21.0443717423
 20
10.381118759
 30
0.0
 10
21.0025992749
 20
10.3842756082
 30
0.0
 10
20.9710523805
 20
10.3837472571
 30
0.0
 10
20.9501435858
 20
10.3821145111
 30
0.0
  0
SPLINE
  5
3B3
100
AcDbEntity
  8
0
100
AcDbSpline
 62
7
  6
CONTINUOUS
 70
0
 71
3
 72
23
 73
19
 74
0
 42
0.0000001
 43
0.0000001
 44
0.0000000001
 40
0.0
 40
0.0
 40
0.0
 40
0.0
 40
0.054703756
 40
0.0823288017
 40
0.1101588914
 40
0.1664944644
 40
0.2238569153
 40
0.2529626164
 40
0.282360419
 40
0.3420496252
 40
0.4029765259
 40
0.4651501574
 40
0.5285509836
 40
0.5931329444
 40
0.7254671177
 40
0.7930872113
 40
0.8614886667
 40
1.0
 40
1.0
 40
1.0
 40
1.0
 10
20.621757473
 20
10.1426637566
 30
0.0
 10
20.6237716064
 20
10.1502528422
 30
0.0
 10
20.6273623781
 20
10.1615358883
 30
0.0
 10
20.6332112621
 20
10.1762300233
 30
0.0
 10
20.6398348081
 20
10.1908507668
 30
0.0
 10
20.6494893817
 20
10.2087574034
 30
0.0
 10
20.6607920484
 20
10.2258891569
 30
0.0
 10
20.6708182932
 20
10.2391628635
 30
0.0
 10
20.6816032303
 20
10.2522636287
 30
0.0
 10
20.696306604
 20
10.2680285155
 30
0.0
 10
20.7156734235
 20
10.2857656548
 30
0.0
 10
20.7367415877
 20
10.3023193796
 30
0.0
 10
20.7593894474
 20
10.3175948618
 30
0.0
 10
20.7917691126
 20
10.3362873158
 30
0.0
 10
20.8265292286
 20
10.351883987
 30
0.0
 10
20.8630180456
 20
10.3642799562
 30
0.0
 10
20.9010582793
 20
10.3746326136
 30
0.0
 10
20.9303967675
 20
10.3798086428
 30
0.0
 10
20.9501435858
 20
10.3821145111
 30
0.0
  0
SPLINE
  5
3B4
100
AcDbEntity
  8
0
100
AcDbSpline
 62
7
  6
CONTINUOUS
 70
0
 71
3
 72
13
 73
9
 74
0
 42
0.0000001
 43
0.0000001
 44
0.0000000001
 40
0.0
 40
0.0
 40
0.0
 40
0.0
 40
0.1177947133
 40
0.237802457
 40
0.3599968815
 40
0.4843116819
 40
0.7387380699
 40
1.0
 40
1.0
 40
1.0
 40
1.0
 10
21.299447404
 20
10.2343557616
 30
0.0
 10
21.2941886752
 20
10.239569913
 30
0.0
 10
21.2831852393
 20
10.2497127459
 30
0.0
 10
21.2655062
 20
10.2638696016
 30
0.0
 10
21.2465821366
 20
10.2770461754
 30
0.0
 10
21.2196125323
 20
10.2933437783
 30
0.0
 10
21.1832740982
 20
10.3108614096
 30
0.0
 10
21.1525425185
 20
10.3214398945
 30
0.0
 10
21.1367391336
 20
10.3259157953
 30
0.0
  0
SPLINE
  5
3B5
100
AcDbEntity
  8
0
100
AcDbSpline
 62
7
  6
CONTINUOUS
 70
0
 71
3
 72
21
 73
17
 74
0
 42
0.0000001
 43
0.0000001
 44
0.0000000001
 40
0.0
 40
0.0
 40
0.0
 40
0.0
 40
0.1279313386
 40
0.1926180384
 40
0.2575517225
 40
0.3225666711
 40
0.3874956675
 40
0.4521730725
 40
0.5164375272
 40
0.5801350028
 40
0.6431215852
 40
0.7663852872
 40
0.8265213697
 40
0.8855310188
 40
0.943364716
 40
1.0
 40
1.0
 40
1.0
 40
1.0
 10
21.1367391336
 20
10.3259157953
 30
0.0
 10
21.1185099317
 20
10.3310787461
 30
0.0
 10
21.0905265399
 20
10.3370998658
 30
0.0
 10
21.0526449236
 20
10.3416803905
 30
0.0
 10
21.023851865
 20
10.3433986669
 30
0.0
 10
20.9949739991
 20
10.3433740801
 30
0.0
 10
20.9661876177
 20
10.3416073619
 30
0.0
 10
20.9376717852
 20
10.33810918
 30
0.0
 10
20.9096037916
 20
10.3329014048
 30
0.0
 10
20.8821552034
 20
10.3260150862
 30
0.0
 10
20.8468797095
 20
10.314739082
 30
0.0
 10
20.8132406607
 20
10.3002640822
 30
0.0
 10
20.7819077225
 20
10.2826920132
 30
0.0
 10
20.7600068567
 20
10.2682478679
 30
0.0
 10
20.7396586252
 20
10.25252503
 30
0.0
 10
20.7270766541
 20
10.2411317158
 30
0.0
 10
20.721096002
 20
10.235251058
 30
0.0
  0
SPLINE
  5
3B6
100
AcDbEntity
  8
0
100
AcDbSpline
 62
7
  6
CONTINUOUS
 70
0
 71
3
 72
13
 73
9
 74
0
 42
0.0000001
 43
0.0000001
 44
0.0000000001
 40
0.0
 40
0.0
 40
0.0
 40
0.0
 40
0.1180661436
 40
0.238269419
 40
0.3605774583
 40
0.4849221567
 40
0.739177018
 40
1.0
 40
1.0
 40
1.0
 40
1.0
 10
21.2947724946
 20
10.237670309
 30
0.0
 10
21.2895822594
 20
10.242637405
 30
0.0
 10
21.2787542135
 20
10.2522984497
 30
0.0
 10
21.261432932
 20
10.2657891092
 30
0.0
 10
21.242962173
 20
10.2783515382
 30
0.0
 10
21.2167269775
 20
10.2938985616
 30
0.0
 10
21.1815055308
 20
10.3106494335
 30
0.0
 10
21.151786916
 20
10.3208322606
 30
0.0
 10
21.1365183566
 20
10.3251615793
 30
0.0
  0
SPLINE
  5
3B7
100
AcDbEntity
  8
0
100
AcDbSpline
 62
7
  6
CONTINUOUS
 70
0
 71
3
 72
21
 73
17
 74
0
 42
0.0000001
 43
0.0000001
 44
0.0000000001
 40
0.0
 40
0.0
 40
0.0
 40
0.0
 40
0.1277634497
 40
0.1923623542
 40
0.2572113942
 40
0.3221488625
 40
0.3870114653
 40
0.4516372674
 40
0.5158682597
 40
0.5795532811
 40
0.6425506733
 40
0.7659129401
 40
0.8261349704
 40
0.8852540555
 40
0.9432179028
 40
1.0
 40
1.0
 40
1.0
 40
1.0
 10
21.1365183566
 20
10.3251615793
 30
0.0
 10
21.1185466273
 20
10.3302573675
 30
0.0
 10
21.0909646355
 20
10.3362212708
 30
0.0
 10
21.0536246881
 20
10.3408121228
 30
0.0
 10
21.0252401459
 20
10.3425818832
 30
0.0
 10
20.9967642329
 20
10.3426525339
 30
0.0
 10
20.9683669254
 20
10.34102421
 30
0.0
 10
20.9402209453
 20
10.3377065122
 30
0.0
 10
20.912497391
 20
10.3327197286
 30
0.0
 10
20.8853619811
 20
10.3260929402
 30
0.0
 10
20.8504443498
 20
10.3152055813
 30
0.0
 10
20.8170909058
 20
10.3011884645
 30
0.0
 10
20.7859450607
 20
10.2841363602
 30
0.0
 10
20.7641227698
 20
10.2700984734
 30
0.0
 10
20.7437935156
 20
10.2547993544
 30
0.0
 10
20.7311841022
 20
10.2437019293
 30
0.0
 10
20.7251780632
 20
10.2379702728
 30
0.0
  0
SPLINE
  5
3B8
100
AcDbEntity
  8
0
100
AcDbSpline
 62
7
  6
CONTINUOUS
 70
0
 71
3
 72
11
 73
7
 74
0
 42
0.0000001
 43
0.0000001
 44
0.0000000001
 40
0.0
 40
0.0
 40
0.0
 40
0.0
 40
0.2221060194
 40
0.4619642798
 40
0.7209953189
 40
1.0
 40
1.0
 40
1.0
 40
1.0
 10
20.7667109419
 20
10.1551008207
 30
0.0
 10
20.7655651351
 20
10.1519346551
 30
0.0
 10
20.7636014061
 20
10.1451936228
 30
0.0
 10
20.7616265628
 20
10.1344288846
 30
0.0
 10
20.7604785255
 20
10.1226805399
 30
0.0
 10
20.7602510685
 20
10.1145209046
 30
0.0
 10
20.7602510685
 20
10.1102912063
 30
0.0
  0
SPLINE
  5
3B9
100
AcDbEntity
  8
0
100
AcDbSpline
 62
7
  6
CONTINUOUS
 70
0
 71
3
 72
19
 73
15
 74
0
 42
0.0000001
 43
0.0000001
 44
0.0000000001
 40
0.0
 40
0.0
 40
0.0
 40
0.0
 40
0.0390565666
 40
0.0811508317
 40
0.1265199107
 40
0.1752446554
 40
0.2272953642
 40
0.2825645863
 40
0.3408942953
 40
0.402200223
 40
0.533778258
 40
0.6773430279
 40
0.8328070159
 40
1.0
 40
1.0
 40
1.0
 40
1.0
 10
20.8770856559
 20
10.2102920752
 30
0.0
 10
20.8765444971
 20
10.2096616975
 30
0.0
 10
20.8755135065
 20
10.2082703278
 30
0.0
 10
20.8741623023
 20
10.2059380995
 30
0.0
 10
20.8729410863
 20
10.2033075113
 30
0.0
 10
20.8718403926
 20
10.2003978284
 30
0.0
 10
20.8708508044
 20
10.1972277879
 30
0.0
 10
20.8699638328
 20
10.1938164705
 30
0.0
 10
20.8691693663
 20
10.1901809303
 30
0.0
 10
20.8682048066
 20
10.1849241051
 30
0.0
 10
20.8672398238
 20
10.1778285619
 30
0.0
 10
20.8664466539
 20
10.1687004982
 30
0.0
 10
20.8659830872
 20
10.1587918281
 30
0.0
 10
20.8658902475
 20
10.1519277759
 30
0.0
 10
20.8658902475
 20
10.1483712942
 30
0.0
  0
SPLINE
  5
3BA
100
AcDbEntity
  8
0
100
AcDbSpline
 62
9
  6
CONTINUOUS
 70
0
 71
3
 72
14
 73
10
 74
0
 42
0.0000001
 43
0.0000001
 44
0.0000000001
 40
0.0
 40
0.0
 40
0.0
 40
0.0
 40
0.1179627457
 40
0.23653976
 40
0.3564885364
 40
0.4785277158
 40
0.6033275139
 40
0.7315034805
 40
1.0
 40
1.0
 40
1.0
 40
1.0
 10
20.0151215339
 20
5.4848012548
 30
0.0
 10
20.0150519035
 20
5.4885041536
 30
0.0
 10
20.0152442025
 20
5.4959397346
 30
0.0
 10
20.0165288766
 20
5.5070719479
 30
0.0
 10
20.0188029838
 20
5.5181758886
 30
0.0
 10
20.022060233
 20
5.529234767
 30
0.0
 10
20.02629461
 20
5.5402347867
 30
0.0
 10
20.0333402496
 20
5.5550265755
 30
0.0
 10
20.0399365197
 20
5.5656519748
 30
0.0
 10
20.0448183391
 20
5.5725242213
 30
0.0
  0
SPLINE
  5
3BB
100
AcDbEntity
  8
0
100
AcDbSpline
 62
7
  6
CONTINUOUS
 70
0
 71
3
 72
24
 73
20
 74
0
 42
0.0000001
 43
0.0000001
 44
0.0000000001
 40
0.0
 40
0.0
 40
0.0
 40
0.0
 40
0.0276067296
 40
0.043147301
 40
0.0599520877
 40
0.0780668098
 40
0.0975123684
 40
0.1403855814
 40
0.1884654244
 40
0.2415084774
 40
0.2697958014
 40
0.299201653
 40
0.3611871226
 40
0.4272483905
 40
0.4973419524
 40
0.5714276414
 40
0.6494598007
 40
0.8171566379
 40
1.0
 40
1.0
 40
1.0
 40
1.0
 10
21.0882568345
 20
10.2232078233
 30
0.0
 10
21.0887134964
 20
10.222819255
 30
0.0
 10
21.0893390428
 20
10.222106852
 30
0.0
 10
21.0900575907
 20
10.2210208842
 30
0.0
 10
21.0905894044
 20
10.2200611186
 30
0.0
 10
21.0910934592
 20
10.2189926766
 30
0.0
 10
21.0917518141
 20
10.2173737089
 30
0.0
 10
21.0924978527
 20
10.2150919757
 30
0.0
 10
21.0932741675
 20
10.2120608729
 30
0.0
 10
21.0938372127
 20
10.2093061494
 30
0.0
 10
21.0942534142
 20
10.206937227
 30
0.0
 10
21.0946599897
 20
10.2043697445
 30
0.0
 10
21.0951193226
 20
10.2009804921
 30
0.0
 10
21.095594552
 20
10.1967029614
 30
0.0
 10
21.0960024842
 20
10.1921545949
 30
0.0
 10
21.0963445411
 20
10.1873401669
 30
0.0
 10
21.0967230777
 20
10.180404013
 30
0.0
 10
21.0970236754
 20
10.1710993192
 30
0.0
 10
21.0970932628
 20
10.1634854895
 30
0.0
 10
21.0970932628
 20
10.1595142232
 30
0.0
  0
SPLINE
  5
3BC
100
AcDbEntity
  8
0
100
AcDbSpline
 62
7
  6
CONTINUOUS
 70
0
 71
3
 72
16
 73
12
 74
0
 42
0.0000001
 43
0.0000001
 44
0.0000000001
 40
0.0
 40
0.0
 40
0.0
 40
0.0
 40
0.0970563913
 40
0.2019467136
 40
0.2573312779
 40
0.31464146
 40
0.435189548
 40
0.5638806764
 40
0.7008756405
 40
0.8462470907
 40
1.0
 40
1.0
 40
1.0
 40
1.0
 10
21.1977572869
 20
10.1886773228
 30
0.0
 10
21.198721579
 20
10.1870556269
 30
0.0
 10
21.2004732071
 20
10.1835278149
 30
0.0
 10
21.2021956762
 20
10.1788241902
 30
0.0
 10
21.2034081485
 20
10.1747711315
 30
0.0
 10
21.204547963
 20
10.1703816488
 30
0.0
 10
21.2057468891
 20
10.1645398731
 30
0.0
 10
21.2068307527
 20
10.1571069101
 30
0.0
 10
21.207591715
 20
10.149149581
 30
0.0
 10
21.2080384132
 20
10.14068127
 30
0.0
 10
21.2081297634
 20
10.1348657991
 30
0.0
 10
21.2081297634
 20
10.1318769131
 30
0.0
  0
SPLINE
  5
3BD
100
AcDbEntity
  8
0
100
AcDbSpline
 62
7
  6
CONTINUOUS
 70
0
 71
3
 72
9
 73
5
 74
0
 42
0.0000001
 43
0.0000001
 44
0.0000000001
 40
0.0
 40
0.0
 40
0.0
 40
0.0
 40
0.4844097158
 40
1.0
 40
1.0
 40
1.0
 40
1.0
 10
21.3049905848
 20
10.1075566686
 30
0.0
 10
21.3055875908
 20
10.1037795692
 30
0.0
 10
21.3064530631
 20
10.0959219251
 30
0.0
 10
21.3067056278
 20
10.0880247258
 30
0.0
 10
21.3067056278
 20
10.0839545931
 30
0.0
  0
SPLINE
  5
3BE
100
AcDbEntity
  8
0
100
AcDbSpline
 62
9
  6
CONTINUOUS
 70
0
 71
3
 72
9
 73
5
 74
0
 42
0.0000001
 43
0.0000001
 44
0.0000000001
 40
0.0
 40
0.0
 40
0.0
 40
0.0
 40
0.2468140662
 40
1.0
 40
1.0
 40
1.0
 40
1.0
 10
21.3054076342
 20
10.1499109363
 30
0.0
 10
21.3039900633
 20
10.1504466035
 30
0.0
 10
21.2981900482
 20
10.1524651178
 30
0.0
 10
21.2921851087
 20
10.1538875433
 30
0.0
 10
21.2876202906
 20
10.1546278215
 30
0.0
  0
SPLINE
  5
3BF
100
AcDbEntity
  8
0
100
AcDbSpline
 62
9
  6
CONTINUOUS
 70
0
 71
3
 72
23
 73
19
 74
0
 42
0.0000001
 43
0.0000001
 44
0.0000000001
 40
0.0
 40
0.0
 40
0.0
 40
0.0
 40
0.0549320188
 40
0.1101281671
 40
0.1379309249
 40
0.1659140667
 40
0.2225269541
 40
0.2801956067
 40
0.3390672372
 40
0.399243183
 40
0.4607920294
 40
0.52376185
 40
0.5881858203
 40
0.6540333742
 40
0.7212051312
 40
0.7895635298
 40
0.8589464041
 40
1.0
 40
1.0
 40
1.0
 40
1.0
 10
21.4484656914
 20
9.9622701367
 30
0.0
 10
21.4484656786
 20
9.9639265401
 30
0.0
 10
21.4482796263
 20
9.9672501561
 30
0.0
 10
21.4475797039
 20
9.9713592796
 30
0.0
 10
21.4467403751
 20
9.9746004669
 30
0.0
 10
21.4457072632
 20
9.9778300378
 30
0.0
 10
21.4440650244
 20
9.9818027185
 30
0.0
 10
21.4415759571
 20
9.9864023207
 30
0.0
 10
21.4385847034
 20
9.9908222833
 30
0.0
 10
21.4351153552
 20
9.9950298373
 30
0.0
 10
21.4311915566
 20
9.9989924698
 30
0.0
 10
21.4268372892
 20
10.0026778653
 30
0.0
 10
21.4220769057
 20
10.0060500757
 30
0.0
 10
21.4169504619
 20
10.009089599
 30
0.0
 10
21.4115012426
 20
10.0117813609
 30
0.0
 10
21.4057712472
 20
10.0141086699
 30
0.0
 10
21.3977744171
 20
10.0167166247
 30
0.0
 10
21.3915439879
 20
10.0180524278
 30
0.0
 10
21.387334207
 20
10.0186592201
 30
0.0
  0
SPLINE
  5
3C0
100
AcDbEntity
  8
0
100
AcDbSpline
 62
9
  6
CONTINUOUS
 70
0
 71
3
 72
15
 73
11
 74
0
 42
0.0000001
 43
0.0000001
 44
0.0000000001
 40
0.0
 40
0.0
 40
0.0
 40
0.0
 40
0.1140920803
 40
0.2296257927
 40
0.3477166321
 40
0.4692930607
 40
0.5951570188
 40
0.7256810848
 40
0.8607535154
 40
1.0
 40
1.0
 40
1.0
 40
1.0
 10
21.4867777591
 20
9.8880290804
 30
0.0
 10
21.4867777287
 20
9.8905686142
 30
0.0
 10
21.4863240589
 20
9.8956900658
 30
0.0
 10
21.4843374545
 20
9.9032054554
 30
0.0
 10
21.4810922705
 20
9.9104520355
 30
0.0
 10
21.4766360716
 20
9.9172977965
 30
0.0
 10
21.4710190601
 20
9.9236003524
 30
0.0
 10
21.4643700313
 20
9.9292700589
 30
0.0
 10
21.4568200424
 20
9.9342277832
 30
0.0
 10
21.4513438916
 20
9.936964426
 30
0.0
 10
21.4484983178
 20
9.9381929275
 30
0.0
  0
SPLINE
  5
3C1
100
AcDbEntity
  8
0
100
AcDbSpline
 62
9
  6
CONTINUOUS
 70
0
 71
3
 72
13
 73
9
 74
0
 42
0.0000001
 43
0.0000001
 44
0.0000000001
 40
0.0
 40
0.0
 40
0.0
 40
0.0
 40
0.1206487779
 40
0.2417234598
 40
0.3636568743
 40
0.4868955388
 40
0.7387418631
 40
1.0
 40
1.0
 40
1.0
 40
1.0
 10
21.4997895925
 20
9.8090413866
 30
0.0
 10
21.4997895587
 20
9.8104711493
 30
0.0
 10
21.4996519583
 20
9.8133376183
 30
0.0
 10
21.4990333558
 20
9.8176088391
 30
0.0
 10
21.4980022843
 20
9.8218318822
 30
0.0
 10
21.4960647127
 20
9.8274025195
 30
0.0
 10
21.4925778198
 20
9.8341384873
 30
0.0
 10
21.4888838742
 20
9.8390066605
 30
0.0
 10
21.4868292204
 20
9.8413227026
 30
0.0
  0
SPLINE
  5
3C2
100
AcDbEntity
  8
0
100
AcDbSpline
 62
9
  6
CONTINUOUS
 70
0
 71
3
 72
38
 73
34
 74
0
 42
0.0000001
 43
0.0000001
 44
0.0000000001
 40
0.0
 40
0.0
 40
0.0
 40
0.0
 40
0.0900288863
 40
0.1784166493
 40
0.2646478897
 40
0.3482048605
 40
0.4285750083
 40
0.5052730193
 40
0.5420972258
 40
0.5778242345
 40
0.6123940066
 40
0.6457476105
 40
0.6778306884
 40
0.7086034788
 40
0.738031748
 40
0.7660841733
 40
0.7927310793
 40
0.8179401602
 40
0.8416854172
 40
0.8639520477
 40
0.884742821
 40
0.9040928708
 40
0.9132497517
 40
0.9220747846
 40
0.9387904418
 40
0.9467361039
 40
0.9544492356
 40
0.9619763876
 40
0.9693763527
 40
0.9767266264
 40
0.9841553645
 40
0.9918408377
 40
1.0
 40
1.0
 40
1.0
 40
1.0
 10
7.0098183383
 20
7.3121584395
 30
0.0
 10
7.0289146371
 20
7.3121584395
 30
0.0
 10
7.066760155
 20
7.3125293894
 30
0.0
 10
7.1228749892
 20
7.3141593039
 30
0.0
 10
7.1775774984
 20
7.3167927378
 30
0.0
 10
7.2305224058
 20
7.3203637474
 30
0.0
 10
7.2813718531
 20
7.3248065124
 30
0.0
 10
7.3222596073
 20
7.329274627
 30
0.0
 10
7.3536615121
 20
7.3332968401
 30
0.0
 10
7.3761598322
 20
7.3364806932
 30
0.0
 10
7.3978831283
 20
7.3398719097
 30
0.0
 10
7.4187893728
 20
7.3434699847
 30
0.0
 10
7.4388399037
 20
7.3472750207
 30
0.0
 10
7.4579997158
 20
7.3512900686
 30
0.0
 10
7.4762372081
 20
7.3555186433
 30
0.0
 10
7.4935210626
 20
7.3599643764
 30
0.0
 10
7.509818377
 20
7.3646299991
 30
0.0
 10
7.5250905644
 20
7.369530471
 30
0.0
 10
7.5392968315
 20
7.374680592
 30
0.0
 10
7.5523970327
 20
7.3800955977
 30
0.0
 10
7.5643537302
 20
7.385792247
 30
0.0
 10
7.5734933899
 20
7.3908928836
 30
0.0
 10
7.5801650915
 20
7.3951628835
 30
0.0
 10
7.5861808804
 20
7.3994051344
 30
0.0
 10
7.5916802151
 20
7.4039295492
 30
0.0
 10
7.5965421112
 20
7.4087857227
 30
0.0
 10
7.5997651911
 20
7.4125068825
 30
0.0
 10
7.6026083727
 20
7.416384341
 30
0.0
 10
7.6050542274
 20
7.4204351422
 30
0.0
 10
7.607088837
 20
7.4246865598
 30
0.0
 10
7.6086332357
 20
7.4292077127
 30
0.0
 10
7.6096076301
 20
7.4340617163
 30
0.0
 10
7.6098183328
 20
7.4374277445
 30
0.0
 10
7.6098183383
 20
7.4391584091
 30
0.0
  0
SPLINE
  5
3C3
100
AcDbEntity
  8
0
100
AcDbSpline
 62
9
  6
CONTINUOUS
 70
0
 71
3
 72
11
 73
7
 74
0
 42
0.0000001
 43
0.0000001
 44
0.0000000001
 40
0.0
 40
0.0
 40
0.0
 40
0.0
 40
0.2435663396
 40
0.491847393
 40
0.7442119606
 40
1.0
 40
1.0
 40
1.0
 40
1.0
 10
21.0770398653
 20
10.231002543
 30
0.0
 10
21.0751060176
 20
10.2320980466
 30
0.0
 10
21.0711046844
 20
10.2341444429
 30
0.0
 10
21.0648218397
 20
10.2367401169
 30
0.0
 10
21.0582483831
 20
10.238868527
 30
0.0
 10
21.0537337814
 20
10.2399502118
 30
0.0
 10
21.0514450396
 20
10.2404081892
 30
0.0
  0
SPLINE
  5
3C4
100
AcDbEntity
  8
0
100
AcDbSpline
 62
9
  6
CONTINUOUS
 70
0
 71
3
 72
37
 73
33
 74
0
 42
0.0000001
 43
0.0000001
 44
0.0000000001
 40
0.0
 40
0.0
 40
0.0
 40
0.0
 40
0.0842829984
 40
0.1665712306
 40
0.2465986477
 40
0.3240972426
 40
0.3987964363
 40
0.4704225949
 40
0.5050018317
 40
0.5387127506
 40
0.5715225762
 40
0.6034007304
 40
0.6343212793
 40
0.6642698652
 40
0.6932384917
 40
0.7212242539
 40
0.7482278624
 40
0.774249065
 40
0.799298278
 40
0.8234021704
 40
0.8466086276
 40
0.8689992564
 40
0.8906944269
 40
0.9118684728
 40
0.9223421231
 40
0.9327948559
 40
0.9432825865
 40
0.9538714026
 40
0.964648866
 40
0.9757760078
 40
0.9874723641
 40
1.0
 40
1.0
 40
1.0
 40
1.0
 10
7.0098183383
 20
6.5631585416
 30
0.0
 10
7.028547075
 20
6.5631585416
 30
0.0
 10
7.0655633359
 20
6.5636568938
 30
0.0
 10
7.1203217867
 20
6.5658858515
 30
0.0
 10
7.1734945306
 20
6.5695182831
 30
0.0
 10
7.2248654101
 20
6.5744845897
 30
0.0
 10
7.2742176697
 20
6.5807137483
 30
0.0
 10
7.3139263546
 20
6.5870307244
 30
0.0
 10
7.3444873939
 20
6.5927563698
 30
0.0
 10
7.3664856865
 20
6.5973228017
 30
0.0
 10
7.3877985396
 20
6.6022152593
 30
0.0
 10
7.4083941373
 20
6.6074375788
 30
0.0
 10
7.4282429196
 20
6.6129941795
 30
0.0
 10
7.4473167065
 20
6.6188951915
 30
0.0
 10
7.4655895141
 20
6.6251512697
 30
0.0
 10
7.4830352337
 20
6.631773181
 30
0.0
 10
7.4996260942
 20
6.6387704101
 30
0.0
 10
7.5153229618
 20
6.6461727052
 30
0.0
 10
7.5300833795
 20
6.6540094576
 30
0.0
 10
7.5438644225
 20
6.6623104326
 30
0.0
 10
7.5566258957
 20
6.6711073294
 30
0.0
 10
7.568310584
 20
6.680461661
 30
0.0
 10
7.5788626166
 20
6.6904360882
 30
0.0
 10
7.5866484347
 20
6.6994071631
 30
0.0
 10
7.5921537154
 20
6.7069771579
 30
0.0
 10
7.5959004868
 20
6.7128730432
 30
0.0
 10
7.5992517113
 20
6.719032333
 30
0.0
 10
7.6021817223
 20
6.7254825081
 30
0.0
 10
7.6046696535
 20
6.7322693716
 30
0.0
 10
7.606591682
 20
6.7394968328
 30
0.0
 10
7.6078269062
 20
6.747268581
 30
0.0
 10
7.6081028109
 20
6.7526562269
 30
0.0
 10
7.6081064929
 20
6.7554400219
 30
0.0
  0
SPLINE
  5
3C5
100
AcDbEntity
  8
0
100
AcDbSpline
 62
9
  6
CONTINUOUS
 70
0
 71
3
 72
37
 73
33
 74
0
 42
0.0000001
 43
0.0000001
 44
0.0000000001
 40
0.0
 40
0.0
 40
0.0
 40
0.0
 40
0.079190714
 40
0.1560600725
 40
0.2305589365
 40
0.3026404494
 40
0.3722514195
 40
0.4393116566
 40
0.4718653475
 40
0.5037552168
 40
0.5349743732
 40
0.5655191991
 40
0.5953908671
 40
0.6245995582
 40
0.6810928306
 40
0.7084406881
 40
0.7352246273
 40
0.7614871851
 40
0.7872892441
 40
0.812713336
 40
0.837874952
 40
0.8629301554
 40
0.8754862824
 40
0.8881043437
 40
0.9008257209
 40
0.9137035452
 40
0.9268018557
 40
0.9401943654
 40
0.9539815169
 40
0.9683603608
 40
0.9835956836
 40
1.0
 40
1.0
 40
1.0
 40
1.0
 10
7.0098183383
 20
5.8052520428
 30
0.0
 10
7.0283943753
 20
5.8052520428
 30
0.0
 10
7.0650046765
 20
5.805800634
 30
0.0
 10
7.1190382557
 20
5.8083101006
 30
0.0
 10
7.1712997278
 20
5.8124498967
 30
0.0
 10
7.221698458
 20
5.818176151
 30
0.0
 10
7.2701354732
 20
5.8254413677
 30
0.0
 10
7.3091380433
 20
5.8328985849
 30
0.0
 10
7.3392231699
 20
5.8397245939
 30
0.0
 10
7.3609822786
 20
5.845220061
 30
0.0
 10
7.3821373139
 20
5.8511535954
 30
0.0
 10
7.4026659116
 20
5.8575370131
 30
0.0
 10
7.422547956
 20
5.8643828246
 30
0.0
 10
7.4478806792
 20
5.8740469674
 30
0.0
 10
7.4721523256
 20
5.8848085607
 30
0.0
 10
7.4951659511
 20
5.8968143367
 30
0.0
 10
7.5114642202
 20
5.9063172422
 30
0.0
 10
7.5269404807
 20
5.9164624223
 30
0.0
 10
7.5415487575
 20
5.9272972177
 30
0.0
 10
7.5552454185
 20
5.9388716959
 30
0.0
 10
7.5679551364
 20
5.9512754588
 30
0.0
 10
7.5776581942
 20
5.9623776515
 30
0.0
 10
7.5847842491
 20
5.9717658954
 30
0.0
 10
7.5898093884
 20
5.9791030937
 30
0.0
 10
7.5944915902
 20
5.9867528976
 30
0.0
 10
7.5987945506
 20
5.9947513393
 30
0.0
 10
7.602681825
 20
6.0031345349
 30
0.0
 10
7.6061192353
 20
6.0119415915
 30
0.0
 10
7.6090768497
 20
6.0212391249
 30
0.0
 10
7.6113833709
 20
6.0311682159
 30
0.0
 10
7.6128750039
 20
6.0418742396
 30
0.0
 10
7.6132047185
 20
6.0493016133
 30
0.0
 10
7.6132047185
 20
6.05314963
 30
0.0
  0
LINE
  5
3C6
100
AcDbEntity
  8
0
100
AcDbLine
 62
9
  6
CONTINUOUS
 10
7.6132047185
 20
6.05314963
 11
7.61355366
 21
6.0357958348
  0
SPLINE
  5
3C7
100
AcDbEntity
  8
0
100
AcDbSpline
 62
9
  6
CONTINUOUS
 70
0
 71
3
 72
15
 73
11
 74
0
 42
0.0000001
 43
0.0000001
 44
0.0000000001
 40
0.0
 40
0.0
 40
0.0
 40
0.0
 40
0.1297926843
 40
0.2586402364
 40
0.3863235475
 40
0.5126283281
 40
0.6373460098
 40
0.7602747969
 40
0.8812209007
 40
1.0
 40
1.0
 40
1.0
 40
1.0
 10
7.61355366
 20
6.0357958348
 30
0.0
 10
7.6145985333
 20
5.9848773223
 30
0.0
 10
7.6170513649
 20
5.8834181324
 30
0.0
 10
7.6220126526
 20
5.731908132
 30
0.0
 10
7.6284109683
 20
5.5818211296
 30
0.0
 10
7.6364126401
 20
5.4334331407
 30
0.0
 10
7.6461839793
 20
5.287020001
 30
0.0
 10
7.6578913311
 20
5.1428571613
 30
0.0
 10
7.671700954
 20
5.0012208896
 30
0.0
 10
7.6825230422
 20
4.9077729731
 30
0.0
 10
7.6883576968
 20
4.8615320043
 30
0.0
  0
SPLINE
  5
3C8
100
AcDbEntity
  8
0
100
AcDbSpline
 62
9
  6
CONTINUOUS
 70
0
 71
3
 72
12
 73
8
 74
0
 42
0.0000001
 43
0.0000001
 44
0.0000000001
 40
0.0
 40
0.0
 40
0.0
 40
0.0
 40
0.1231267129
 40
0.2472180179
 40
0.4974202808
 40
0.7489549065
 40
1.0
 40
1.0
 40
1.0
 40
1.0
 10
21.2288057431
 20
10.1963102393
 30
0.0
 10
21.2272720111
 20
10.1967486386
 30
0.0
 10
21.2241682561
 20
10.1975465566
 30
0.0
 10
21.2178487947
 20
10.1988203321
 30
0.0
 10
21.2097861832
 20
10.1998095087
 30
0.0
 10
21.2000217963
 20
10.2000364152
 30
0.0
 10
21.1935162357
 20
10.1995436831
 30
0.0
 10
21.1902899395
 20
10.1991324961
 30
0.0
  0
SPLINE
  5
3C9
100
AcDbEntity
  8
0
100
AcDbSpline
 62
9
  6
CONTINUOUS
 70
0
 71
3
 72
40
 73
36
 74
0
 42
0.0000001
 43
0.0000001
 44
0.0000000001
 40
0.0
 40
0.0
 40
0.0
 40
0.0
 40
0.0728490076
 40
0.1430865395
 40
0.2109582708
 40
0.2767090741
 40
0.3405627299
 40
0.4026769819
 40
0.4632099295
 40
0.5223269707
 40
0.5802322732
 40
0.6088154882
 40
0.6372023481
 40
0.6654378169
 40
0.6935672152
 40
0.7216480634
 40
0.749753661
 40
0.7779748431
 40
0.8064307193
 40
0.8207962427
 40
0.8352850661
 40
0.8499284402
 40
0.864762758
 40
0.8798313459
 40
0.8951918259
 40
0.9109136834
 40
0.9270765306
 40
0.9353544911
 40
0.9437950649
 40
0.9524319508
 40
0.9613026378
 40
0.9704483741
 40
0.9799139826
 40
0.9897475473
 40
1.0
 40
1.0
 40
1.0
 40
1.0
 10
7.0098183383
 20
4.4719804716
 30
0.0
 10
7.0302648253
 20
4.4719804716
 30
0.0
 10
7.0704308883
 20
4.4728126359
 30
0.0
 10
7.1295352832
 20
4.4766447753
 30
0.0
 10
7.186425068
 20
4.4829495801
 30
0.0
 10
7.2411858385
 20
4.4916397378
 30
0.0
 10
7.2938861085
 20
4.5026191596
 30
0.0
 10
7.3445293975
 20
4.515958229
 30
0.0
 10
7.3930796547
 20
4.531723522
 30
0.0
 10
7.4394619087
 20
4.5500395927
 30
0.0
 10
7.4764013208
 20
4.5676123012
 30
0.0
 10
7.5046791926
 20
4.5831164644
 30
0.0
 10
7.5251755902
 20
4.5954507375
 30
0.0
 10
7.5450280781
 20
4.6085683728
 30
0.0
 10
7.5641854719
 20
4.622539163
 30
0.0
 10
7.5825913928
 20
4.6374305682
 30
0.0
 10
7.6001889228
 20
4.6533097962
 30
0.0
 10
7.6169234554
 20
4.670246813
 30
0.0
 10
7.6300160651
 20
4.6853072215
 30
0.0
 10
7.6399281327
 20
4.6979792482
 30
0.0
 10
7.6470857838
 20
4.7078733232
 30
0.0
 10
7.6539129905
 20
4.7181569432
 30
0.0
 10
7.6603808737
 20
4.7288613388
 30
0.0
 10
7.6664616208
 20
4.7400207857
 30
0.0
 10
7.6721001649
 20
4.7516884861
 30
0.0
 10
7.6772421371
 20
4.763917926
 30
0.0
 10
7.681038339
 20
4.7745385972
 30
0.0
 10
7.6837774289
 20
4.7833527425
 30
0.0
 10
7.6856683406
 20
4.7902149256
 30
0.0
 10
7.6873491305
 20
4.7973029191
 30
0.0
 10
7.6887901023
 20
4.8046456626
 30
0.0
 10
7.6899615405
 20
4.812271869
 30
0.0
 10
7.6908337858
 20
4.8202102618
 30
0.0
 10
7.6913772401
 20
4.8284892428
 30
0.0
 10
7.6914979516
 20
4.8341276332
 30
0.0
 10
7.6914979516
 20
4.837005183
 30
0.0
  0
SPLINE
  5
3CA
100
AcDbEntity
  8
0
100
AcDbSpline
 62
9
  6
CONTINUOUS
 70
0
 71
3
 72
13
 73
9
 74
0
 42
0.0000001
 43
0.0000001
 44
0.0000000001
 40
0.0
 40
0.0
 40
0.0
 40
0.0
 40
0.1314301168
 40
0.2611642641
 40
0.3891352231
 40
0.515278599
 40
0.7617910885
 40
1.0
 40
1.0
 40
1.0
 40
1.0
 10
7.6914979516
 20
4.837005183
 30
0.0
 10
7.6950870618
 20
4.809376044
 30
0.0
 10
7.7025717296
 20
4.754519346
 30
0.0
 10
7.7148308748
 20
4.6729417861
 30
0.0
 10
7.7280679603
 20
4.5926523123
 30
0.0
 10
7.7468975411
 20
4.4882067331
 30
0.0
 10
7.7728611299
 20
4.3613201781
 30
0.0
 10
7.7963632001
 20
4.2612750699
 30
0.0
 10
7.8085689187
 20
4.2122755665
 30
0.0
  0
SPLINE
  5
3CB
100
AcDbEntity
  8
0
100
AcDbSpline
 62
9
  6
CONTINUOUS
 70
0
 71
3
 72
39
 73
35
 74
0
 42
0.0000001
 43
0.0000001
 44
0.0000000001
 40
0.0
 40
0.0
 40
0.0
 40
0.0
 40
0.0725755754
 40
0.1425421054
 40
0.2102127565
 40
0.2758875355
 40
0.339829097
 40
0.4022102119
 40
0.4631875273
 40
0.5229092883
 40
0.5815397145
 40
0.6392657004
 40
0.6678680932
 40
0.6963338724
 40
0.7247034474
 40
0.7530314299
 40
0.7813878406
 40
0.8098668392
 40
0.8241936202
 40
0.838605754
 40
0.8531311623
 40
0.8678032039
 40
0.8826624815
 40
0.897764121
 40
0.9131759248
 40
0.9289769181
 40
0.9370547025
 40
0.9452824725
 40
0.9536944413
 40
0.9623289876
 40
0.9712286283
 40
0.9804398126
 40
0.9900125631
 40
1.0
 40
1.0
 40
1.0
 40
1.0
 10
7.0098183383
 20
3.7819920536
 30
0.0
 10
7.0335825245
 20
3.7819920536
 30
0.0
 10
7.0802655968
 20
3.7831065706
 30
0.0
 10
7.1489384512
 20
3.7881767572
 30
0.0
 10
7.2150270072
 20
3.7964268135
 30
0.0
 10
7.2786681948
 20
3.8076702896
 30
0.0
 10
7.3399767966
 20
3.8217085826
 30
0.0
 10
7.3989810372
 20
3.8385457853
 30
0.0
 10
7.4556573899
 20
3.858179283
 30
0.0
 10
7.509936244
 20
3.8806771369
 30
0.0
 10
7.5617288693
 20
3.9061009057
 30
0.0
 10
7.6028035462
 20
3.9299830529
 30
0.0
 10
7.6341555835
 20
3.9507336367
 30
0.0
 10
7.656817389
 20
3.9671535594
 30
0.0
 10
7.6786275455
 20
3.9845471606
 30
0.0
 10
7.6995170412
 20
4.0029848082
 30
0.0
 10
7.7194184282
 20
4.0225388706
 30
0.0
 10
7.7350343364
 20
4.039856788
 30
0.0
 10
7.7468723976
 20
4.0543826192
 30
0.0
 10
7.7554170023
 20
4.0656865695
 30
0.0
 10
7.7635727433
 20
4.07741273
 30
0.0
 10
7.7713041866
 20
4.0895972772
 30
0.0
 10
7.778577217
 20
4.1022798132
 30
0.0
 10
7.7853252165
 20
4.1155232335
 30
0.0
 10
7.7914821689
 20
4.1293905661
 30
0.0
 10
7.7960327219
 20
4.1414325111
 30
0.0
 10
7.7993160742
 20
4.1514211237
 30
0.0
 10
7.8015817871
 20
4.1591929285
 30
0.0
 10
7.8035960473
 20
4.1672220942
 30
0.0
 10
7.8053231423
 20
4.1755431375
 30
0.0
 10
7.8067273273
 20
4.1841902853
 30
0.0
 10
7.8077729328
 20
4.1931977638
 30
0.0
 10
7.8084243733
 20
4.2025993844
 30
0.0
 10
7.8085689187
 20
4.2090052747
 30
0.0
 10
7.8085689187
 20
4.2122755665
 30
0.0
  0
SPLINE
  5
3CC
100
AcDbEntity
  8
0
100
AcDbSpline
 62
9
  6
CONTINUOUS
 70
0
 71
3
 72
40
 73
36
 74
0
 42
0.0000001
 43
0.0000001
 44
0.0000000001
 40
0.0
 40
0.0
 40
0.0
 40
0.0
 40
0.075027492
 40
0.147354685
 40
0.2172479695
 40
0.2849653775
 40
0.3507299729
 40
0.4146651249
 40
0.4768761682
 40
0.5374592347
 40
0.5671781435
 40
0.5965302604
 40
0.6541903468
 40
0.6825491736
 40
0.7106166121
 40
0.7384216925
 40
0.7660094397
 40
0.7934409527
 40
0.820798008
 40
0.8344870303
 40
0.8482080382
 40
0.8619878049
 40
0.875859559
 40
0.8898645385
 40
0.9040585642
 40
0.9185118295
 40
0.933307898
 40
0.9408678006
 40
0.9485679488
 40
0.9564433817
 40
0.9645339109
 40
0.9728840413
 40
0.9815426734
 40
0.9905626213
 40
1.0
 40
1.0
 40
1.0
 40
1.0
 10
7.0098183383
 20
3.3023957176
 30
0.0
 10
7.0376791002
 20
3.3023957176
 30
0.0
 10
7.0924048352
 20
3.303455771
 30
0.0
 10
7.1729549735
 20
3.3082773204
 30
0.0
 10
7.2505399328
 20
3.3161259062
 30
0.0
 10
7.325320614
 20
3.326827666
 30
0.0
 10
7.3974228892
 20
3.3401947693
 30
0.0
 10
7.4668759233
 20
3.3562706166
 30
0.0
 10
7.5336413316
 20
3.375091483
 30
0.0
 10
7.5873090858
 20
3.3932762634
 30
0.0
 10
7.6287468919
 20
3.409329385
 30
0.0
 10
7.6686754029
 20
3.4262138289
 30
0.0
 10
7.7073149233
 20
3.4448136386
 30
0.0
 10
7.7444131961
 20
3.4652895657
 30
0.0
 10
7.7711577438
 20
3.4815289469
 30
0.0
 10
7.7968919318
 20
3.4988207788
 30
0.0
 10
7.8215319804
 20
3.517251186
 30
0.0
 10
7.844993915
 20
3.5369058338
 30
0.0
 10
7.863426285
 20
3.5544543402
 30
0.0
 10
7.8773861976
 20
3.5692493548
 30
0.0
 10
7.8874391092
 20
3.5807830609
 30
0.0
 10
7.8970289232
 20
3.5927923773
 30
0.0
 10
7.9061137243
 20
3.605319552
 30
0.0
 10
7.9146530621
 20
3.6184101495
 30
0.0
 10
7.9225696795
 20
3.6321383646
 30
0.0
 10
7.9297862629
 20
3.6465776434
 30
0.0
 10
7.9351150586
 20
3.6591761331
 30
0.0
 10
7.938954345
 20
3.6696580959
 30
0.0
 10
7.9416016241
 20
3.6778337331
 30
0.0
 10
7.9439537136
 20
3.6863042522
 30
0.0
 10
7.9459693245
 20
3.6951094252
 30
0.0
 10
7.9476071178
 20
3.704288632
 30
0.0
 10
7.9488258723
 20
3.7138812336
 30
0.0
 10
7.9495844972
 20
3.723926063
 30
0.0
 10
7.94975209
 20
3.7307814229
 30
0.0
 10
7.94975209
 20
3.7342859058
 30
0.0
  0
SPLINE
  5
3CD
100
AcDbEntity
  8
0
100
AcDbSpline
 62
9
  6
CONTINUOUS
 70
0
 71
3
 72
40
 73
36
 74
0
 42
0.0000001
 43
0.0000001
 44
0.0000000001
 40
0.0
 40
0.0
 40
0.0
 40
0.0
 40
0.075546126
 40
0.1483661728
 40
0.2187111421
 40
0.2868267161
 40
0.3529261077
 40
0.4171222311
 40
0.4795112485
 40
0.5401818072
 40
0.5699087312
 40
0.599243952
 40
0.6567925502
 40
0.6850559806
 40
0.7130008224
 40
0.7406558522
 40
0.768066669
 40
0.7952955364
 40
0.822425123
 40
0.8359918038
 40
0.8495849947
 40
0.8632318515
 40
0.8769662477
 40
0.8908302646
 40
0.904880621
 40
0.9191887794
 40
0.9338399952
 40
0.9413282034
 40
0.9489573873
 40
0.956762852
 40
0.964784778
 40
0.9730681253
 40
0.9816623128
 40
0.9906207104
 40
1.0
 40
1.0
 40
1.0
 40
1.0
 10
7.0098183383
 20
3.2203139787
 30
0.0
 10
7.0385597202
 20
3.2203139787
 30
0.0
 10
7.0950113616
 20
3.2213105156
 30
0.0
 10
7.1781138044
 20
3.2258582028
 30
0.0
 10
7.2581713788
 20
3.2332824301
 30
0.0
 10
7.3353495921
 20
3.2434357044
 30
0.0
 10
7.4097753107
 20
3.2561565085
 30
0.0
 10
7.481477652
 20
3.2715197207
 30
0.0
 10
7.5504148439
 20
3.2895935259
 30
0.0
 10
7.6058564906
 20
3.3071577404
 30
0.0
 10
7.6486691788
 20
3.3227345152
 30
0.0
 10
7.6898887353
 20
3.3391525577
 30
0.0
 10
7.7297962303
 20
3.3573234383
 30
0.0
 10
7.7681279988
 20
3.3774361256
 30
0.0
 10
7.7957470769
 20
3.3934310341
 30
0.0
 10
7.8223212521
 20
3.410518449
 30
0.0
 10
7.8477635209
 20
3.4287907863
 30
0.0
 10
7.8719861805
 20
3.4483394425
 30
0.0
 10
7.8910178287
 20
3.4658547784
 30
0.0
 10
7.9054281027
 20
3.4806577212
 30
0.0
 10
7.915802012
 20
3.4922141304
 30
0.0
 10
7.9256968125
 20
3.5042668869
 30
0.0
 10
7.9350692132
 20
3.5168598753
 30
0.0
 10
7.9438774
 20
3.5300402689
 30
0.0
 10
7.952041884
 20
3.5438850075
 30
0.0
 10
7.9594829555
 20
3.5584700616
 30
0.0
 10
7.9649756342
 20
3.571214178
 30
0.0
 10
7.9689319368
 20
3.5818282319
 30
0.0
 10
7.9716598376
 20
3.5901142443
 30
0.0
 10
7.9740832584
 20
3.5987059977
 30
0.0
 10
7.9761597458
 20
3.6076444039
 30
0.0
 10
7.9778467939
 20
3.6169699599
 30
0.0
 10
7.9791020252
 20
3.6267231424
 30
0.0
 10
7.9798832038
 20
3.6369438792
 30
0.0
 10
7.9800556126
 20
3.6439218843
 30
0.0
 10
7.9800556126
 20
3.6474902174
 30
0.0
  0
SPLINE
  5
3CE
100
AcDbEntity
  8
0
100
AcDbSpline
 62
7
  6
CONTINUOUS
 70
0
 71
3
 72
50
 73
46
 74
0
 42
0.0000001
 43
0.0000001
 44
0.0000000001
 40
0.0
 40
0.0
 40
0.0
 40
0.0
 40
0.0134843313
 40
0.027023935
 40
0.0406388904
 40
0.0543478944
 40
0.0681686723
 40
0.0821174771
 40
0.0962089742
 40
0.1104561338
 40
0.124870117
 40
0.1394602325
 40
0.1542339061
 40
0.1691966492
 40
0.1996932688
 40
0.2309669543
 40
0.2629975821
 40
0.295740107
 40
0.329127563
 40
0.363074199
 40
0.3974787777
 40
0.4322278853
 40
0.4671991925
 40
0.5022647627
 40
0.5372943092
 40
0.5721584253
 40
0.6067318829
 40
0.6408968677
 40
0.6745462661
 40
0.7075870102
 40
0.7399433061
 40
0.7715599161
 40
0.8024052246
 40
0.8324739715
 40
0.8617895431
 40
0.8761856084
 40
0.8904159337
 40
0.9044918709
 40
0.9184265697
 40
0.9322348686
 40
0.9459331856
 40
0.9595393717
 40
0.9730722136
 40
0.9865520165
 40
1.0
 40
1.0
 40
1.0
 40
1.0
 10
21.47839907
 20
9.9366315111
 30
0.0
 10
21.4778206597
 20
9.9423201335
 30
0.0
 10
21.4763085191
 20
9.9536879145
 30
0.0
 10
21.4729911713
 20
9.9706086585
 30
0.0
 10
21.4686287609
 20
9.987389528
 30
0.0
 10
21.4632312258
 20
10.0039916309
 30
0.0
 10
21.4568109918
 20
10.0203775842
 30
0.0
 10
21.4493828723
 20
10.0365103685
 30
0.0
 10
21.4409638401
 20
10.0523536113
 30
0.0
 10
21.4315730506
 20
10.0678715671
 30
0.0
 10
21.4212319521
 20
10.0830293926
 30
0.0
 10
21.4099641619
 20
10.0977929543
 30
0.0
 10
21.3977948016
 20
10.1121293665
 30
0.0
 10
21.3802959994
 20
10.1307471421
 30
0.0
 10
21.3562691154
 20
10.1527709584
 30
0.0
 10
21.3245185355
 20
10.1768184187
 30
0.0
 10
21.2899470503
 20
10.1984476978
 30
0.0
 10
21.2528674321
 20
10.2174660827
 30
0.0
 10
21.2136117215
 20
10.2337062083
 30
0.0
 10
21.1725318325
 20
10.2470245693
 30
0.0
 10
21.1299954951
 20
10.2573032555
 30
0.0
 10
21.0863834944
 20
10.2644512203
 30
0.0
 10
21.042086188
 20
10.2684051758
 30
0.0
 10
20.9975000565
 20
10.2691298878
 30
0.0
 10
20.9530241857
 20
10.2666190779
 30
0.0
 10
20.909056658
 20
10.2608949483
 30
0.0
 10
20.8659910246
 20
10.2520082353
 30
0.0
 10
20.8242127326
 20
10.2400378183
 30
0.0
 10
20.7840958371
 20
10.2250895078
 30
0.0
 10
20.7459996081
 20
10.2072956123
 30
0.0
 10
20.7102655238
 20
10.1868131523
 30
0.0
 10
20.6772146858
 20
10.1638228834
 30
0.0
 10
20.6471442855
 20
10.138526762
 30
0.0
 10
20.620328418
 20
10.1111502911
 30
0.0
 10
20.6007743697
 20
10.0866479112
 30
0.0
 10
20.5870367815
 20
10.0662650507
 30
0.0
 10
20.5777464097
 20
10.0507111693
 30
0.0
 10
20.5694302067
 20
10.0348360339
 30
0.0
 10
20.5621067428
 20
10.0186750283
 30
0.0
 10
20.5557928247
 20
10.0022647407
 30
0.0
 10
20.5505029832
 20
9.9856421433
 30
0.0
 10
20.5462494787
 20
9.9688449724
 30
0.0
 10
20.5430418694
 20
9.9519110374
 30
0.0
 10
20.5408877292
 20
9.9348792993
 30
0.0
 10
20.5401568682
 20
9.9234754963
 30
0.0
 10
20.5399686558
 20
9.9177760635
 30
0.0
  0
SPLINE
  5
3CF
100
AcDbEntity
  8
0
100
AcDbSpline
 62
9
  6
CONTINUOUS
 70
0
 71
3
 72
28
 73
24
 74
0
 42
0.0000001
 43
0.0000001
 44
0.0000000001
 40
0.0
 40
0.0
 40
0.0
 40
0.0
 40
0.0640067385
 40
0.1278293359
 40
0.1596736993
 40
0.1914649293
 40
0.2231809493
 40
0.2548000179
 40
0.3178388305
 40
0.3493563596
 40
0.380871421
 40
0.4123398649
 40
0.4437270877
 40
0.5062648872
 40
0.5685490267
 40
0.6306451065
 40
0.661650759
 40
0.6926420232
 40
0.7545556656
 40
0.8163088936
 40
0.8778331107
 40
0.9390794423
 40
1.0
 40
1.0
 40
1.0
 40
1.0
 10
21.7741705526
 20
6.1584048616
 30
0.0
 10
21.782246027
 20
6.1476564208
 30
0.0
 10
21.7979646008
 20
6.1258796637
 30
0.0
 10
21.8165342821
 20
6.0979413618
 30
0.0
 10
21.8307020394
 20
6.0752243758
 30
0.0
 10
21.8409698325
 20
6.0580274224
 30
0.0
 10
21.8508738705
 20
6.0406727983
 30
0.0
 10
21.8635651662
 20
6.017358104
 30
0.0
 10
21.875530671
 20
5.9937019435
 30
0.0
 10
21.8868043161
 20
5.9697402287
 30
0.0
 10
21.8949095859
 20
5.9516199748
 30
0.0
 10
21.9026453792
 20
5.9333685953
 30
0.0
 10
21.9124298322
 20
5.9089141279
 30
0.0
 10
21.9236860216
 20
5.8780843847
 30
0.0
 10
21.9356347188
 20
5.8406754325
 30
0.0
 10
21.9442960043
 20
5.8091982177
 30
0.0
 10
21.9504524115
 20
5.7838695834
 30
0.0
 10
21.9560983315
 20
5.7584615758
 30
0.0
 10
21.9621961368
 20
5.7265446666
 30
0.0
 10
21.967918401
 20
5.6880590311
 30
0.0
 10
21.9720004186
 20
5.6495050002
 30
0.0
 10
21.9744064479
 20
5.6109858399
 30
0.0
 10
21.9748752851
 20
5.5853199113
 30
0.0
 10
21.9748183378
 20
5.5725242207
 30
0.0
  0
SPLINE
  5
3D0
100
AcDbEntity
  8
0
100
AcDbSpline
 62
7
  6
CONTINUOUS
 70
0
 71
3
 72
9
 73
5
 74
0
 42
0.0000001
 43
0.0000001
 44
0.0000000001
 40
0.0
 40
0.0
 40
0.0
 40
0.0
 40
0.498766241
 40
1.0
 40
1.0
 40
1.0
 40
1.0
 10
21.0514334081
 20
10.240373355
 30
0.0
 10
21.0467467597
 20
10.2413062055
 30
0.0
 10
21.0371962761
 20
10.2424606489
 30
0.0
 10
21.0275801673
 20
10.2422264938
 30
0.0
 10
21.0228013116
 20
10.2417532913
 30
0.0
  0
SPLINE
  5
3D1
100
AcDbEntity
  8
0
100
AcDbSpline
 62
9
  6
CONTINUOUS
 70
0
 71
3
 72
11
 73
7
 74
0
 42
0.0000001
 43
0.0000001
 44
0.0000000001
 40
0.0
 40
0.0
 40
0.0
 40
0.0
 40
0.2691024313
 40
0.5237703138
 40
0.7666136853
 40
1.0
 40
1.0
 40
1.0
 40
1.0
 10
7.8085689187
 20
4.2122755665
 30
0.0
 10
7.8085689187
 20
4.2167219243
 30
0.0
 10
7.8083030358
 20
4.2253789668
 30
0.0
 10
7.8071062101
 20
4.2379972154
 30
0.0
 10
7.8052155479
 20
4.2499323026
 30
0.0
 10
7.8035252748
 20
4.2576223231
 30
0.0
 10
7.8025945091
 20
4.2613645328
 30
0.0
  0
SPLINE
  5
3D2
100
AcDbEntity
  8
0
100
AcDbSpline
 62
9
  6
CONTINUOUS
 70
0
 71
3
 72
11
 73
7
 74
0
 42
0.0000001
 43
0.0000001
 44
0.0000000001
 40
0.0
 40
0.0
 40
0.0
 40
0.0
 40
0.2740587086
 40
0.5290936837
 40
0.7697413101
 40
1.0
 40
1.0
 40
1.0
 40
1.0
 10
7.94975209
 20
3.7342859058
 30
0.0
 10
7.94975209
 20
3.7402687035
 30
0.0
 10
7.9492685162
 20
3.7518266144
 30
0.0
 10
7.947075782
 20
3.7685077478
 30
0.0
 10
7.9436639987
 20
3.7840019184
 30
0.0
 10
7.9406714375
 20
3.7938475034
 30
0.0
 10
7.9390490294
 20
3.7986051058
 30
0.0
  0
SPLINE
  5
3D3
100
AcDbEntity
  8
0
100
AcDbSpline
 62
7
  6
CONTINUOUS
 70
0
 71
3
 72
28
 73
24
 74
0
 42
0.0000001
 43
0.0000001
 44
0.0000000001
 40
0.0
 40
0.0
 40
0.0
 40
0.0
 40
0.0269298729
 40
0.0543538976
 40
0.0822981859
 40
0.1107789287
 40
0.1693377896
 40
0.1994327617
 40
0.2300391427
 40
0.2926512518
 40
0.3569195718
 40
0.422481403
 40
0.4889159994
 40
0.5557672994
 40
0.6225663335
 40
0.6888534033
 40
0.7542001438
 40
0.8182315509
 40
0.880647869
 40
0.9111967321
 40
0.9412750096
 40
0.9708756778
 40
1.0
 40
1.0
 40
1.0
 40
1.0
 10
21.3409861535
 20
10.2026689837
 30
0.0
 10
21.337498138
 20
10.2080754669
 30
0.0
 10
21.3300332759
 20
10.2187194368
 30
0.0
 10
21.3175730998
 20
10.2339506994
 30
0.0
 10
21.3038029202
 20
10.2485245896
 30
0.0
 10
21.2835959191
 20
10.2671604105
 30
0.0
 10
21.2611543601
 20
10.2840331944
 30
0.0
 10
21.2368975074
 20
10.2990055318
 30
0.0
 10
21.2109349388
 20
10.3129653476
 30
0.0
 10
21.1762877514
 20
10.3278597698
 30
0.0
 10
21.1322379618
 20
10.341327317
 30
0.0
 10
21.0861271131
 20
10.3502937015
 30
0.0
 10
21.0387336471
 20
10.354593177
 30
0.0
 10
20.9908528578
 20
10.3541390947
 30
0.0
 10
20.9432896236
 20
10.3489226273
 30
0.0
 10
20.8968436399
 20
10.3390140981
 30
0.0
 10
20.8522947019
 20
10.3245600813
 30
0.0
 10
20.8103963602
 20
10.3057853171
 30
0.0
 10
20.7780344286
 20
10.2866365504
 30
0.0
 10
20.7541792435
 20
10.2694308719
 30
0.0
 10
20.7374977714
 20
10.2557533355
 30
0.0
 10
20.7219746769
 20
10.241269809
 30
0.0
 10
20.7123629795
 20
10.2310315897
 30
0.0
 10
20.7077781563
 20
10.2257973603
 30
0.0
  0
SPLINE
  5
3D4
100
AcDbEntity
  8
0
100
AcDbSpline
 62
7
  6
CONTINUOUS
 70
0
 71
3
 72
22
 73
18
 74
0
 42
0.0000001
 43
0.0000001
 44
0.0000000001
 40
0.0
 40
0.0
 40
0.0
 40
0.0
 40
0.0438295651
 40
0.0894697302
 40
0.1372182471
 40
0.1873073119
 40
0.2399121587
 40
0.295159977
 40
0.3531381843
 40
0.4139016299
 40
0.4774786334
 40
0.5438759358
 40
0.6130827063
 40
0.6850737643
 40
0.7598121637
 40
0.8372512685
 40
1.0
 40
1.0
 40
1.0
 40
1.0
 10
21.6440379713
 20
6.30902354
 30
0.0
 10
21.6427129615
 20
6.3104584717
 30
0.0
 10
21.6398565857
 20
6.3132504566
 30
0.0
 10
21.6351073114
 20
6.3171131079
 30
0.0
 10
21.6298301612
 20
6.3207341326
 30
0.0
 10
21.6240387153
 20
6.3241209674
 30
0.0
 10
21.6177454409
 20
6.3272815708
 30
0.0
 10
21.6109628078
 20
6.330223353
 30
0.0
 10
21.6037031563
 20
6.3329535276
 30
0.0
 10
21.5959788464
 20
6.3354790861
 30
0.0
 10
21.587802272
 20
6.3378068798
 30
0.0
 10
21.5791858812
 20
6.3399436573
 30
0.0
 10
21.5701421711
 20
6.341896106
 30
0.0
 10
21.5606837012
 20
6.3436708487
 30
0.0
 10
21.5508230182
 20
6.3452745661
 30
0.0
 10
21.5369248517
 20
6.3472257443
 30
0.0
 10
21.5262832107
 20
6.348399469
 30
0.0
 10
21.5190633195
 20
6.3490849843
 30
0.0
  0
SPLINE
  5
3D5
100
AcDbEntity
  8
0
100
AcDbSpline
 62
7
  6
CONTINUOUS
 70
0
 71
3
 72
16
 73
12
 74
0
 42
0.0000001
 43
0.0000001
 44
0.0000000001
 40
0.0
 40
0.0
 40
0.0
 40
0.0
 40
0.0574440458
 40
0.1155834788
 40
0.2340045711
 40
0.355414516
 40
0.4797399755
 40
0.6067580096
 40
0.7361198212
 40
0.8673750825
 40
1.0
 40
1.0
 40
1.0
 40
1.0
 10
20.6892086595
 20
10.2116263694
 30
0.0
 10
20.6923871422
 20
10.2168677174
 30
0.0
 10
20.6991207278
 20
10.2272130188
 30
0.0
 10
20.714010758
 20
10.247273551
 30
0.0
 10
20.7352339646
 20
10.2710558018
 30
0.0
 10
20.7642454053
 20
10.2970191719
 30
0.0
 10
20.7965687586
 20
10.3203201398
 30
0.0
 10
20.8317744797
 20
10.3407176308
 30
0.0
 10
20.8694135657
 20
10.358014939
 30
0.0
 10
20.9090135176
 20
10.3720532092
 30
0.0
 10
20.9363080376
 20
10.3791371288
 30
0.0
 10
20.9501435858
 20
10.3821145111
 30
0.0
  0
SPLINE
  5
3D6
100
AcDbEntity
  8
0
100
AcDbSpline
 62
7
  6
CONTINUOUS
 70
0
 71
3
 72
21
 73
17
 74
0
 42
0.0000001
 43
0.0000001
 44
0.0000000001
 40
0.0
 40
0.0
 40
0.0
 40
0.0
 40
0.1283027288
 40
0.1931867398
 40
0.2583116806
 40
0.3235026065
 40
0.3885830133
 40
0.4533785223
 40
0.5177199001
 40
0.5814463981
 40
0.6444088934
 40
0.7674488188
 40
0.8273900661
 40
0.8861523381
 40
0.9436930951
 40
1.0
 40
1.0
 40
1.0
 40
1.0
 10
21.1372403903
 20
10.3277295897
 30
0.0
 10
21.1184657499
 20
10.3330487201
 30
0.0
 10
21.0896280586
 20
10.3392057993
 30
0.0
 10
21.05059135
 20
10.3437717878
 30
0.0
 10
21.0209259272
 20
10.3453803476
 30
0.0
 10
20.991190439
 20
10.3451471429
 30
0.0
 10
20.9615758999
 20
10.3430742886
 30
0.0
 10
20.9322761885
 20
10.3391749807
 30
0.0
 10
20.9034830392
 20
10.3334748515
 30
0.0
 10
20.8753816265
 20
10.3260096363
 30
0.0
 10
20.8393735619
 20
10.3138672834
 30
0.0
 10
20.8051691601
 20
10.2983713854
 30
0.0
 10
20.7734999285
 20
10.2796415953
 30
0.0
 10
20.7514888337
 20
10.264295425
 30
0.0
 10
20.7311678084
 20
10.2476342012
 30
0.0
 10
20.7186971884
 20
10.2355875225
 30
0.0
 10
20.7127990747
 20
10.2293786795
 30
0.0
  0
SPLINE
  5
3D7
100
AcDbEntity
  8
0
100
AcDbSpline
 62
9
  6
CONTINUOUS
 70
0
 71
3
 72
15
 73
11
 74
0
 42
0.0000001
 43
0.0000001
 44
0.0000000001
 40
0.0
 40
0.0
 40
0.0
 40
0.0
 40
0.1401914709
 40
0.2747435638
 40
0.404357556
 40
0.5296980561
 40
0.6513864021
 40
0.7699952016
 40
0.8860445096
 40
1.0
 40
1.0
 40
1.0
 40
1.0
 10
7.9800556126
 20
3.6474902174
 30
0.0
 10
7.9800556126
 20
3.6507459208
 30
0.0
 10
7.9799117708
 20
3.6571274552
 30
0.0
 10
7.9792611844
 20
3.6664986851
 30
0.0
 10
7.9782122398
 20
3.675486622
 30
0.0
 10
7.9767967138
 20
3.6841212855
 30
0.0
 10
7.9750464736
 20
3.6924330629
 30
0.0
 10
7.9729934406
 20
3.7004523954
 30
0.0
 10
7.9706696166
 20
3.7082097126
 30
0.0
 10
7.9689474649
 20
3.7132672931
 30
0.0
 10
7.9680525679
 20
3.715757813
 30
0.0
  0
LINE
  5
3D8
100
AcDbEntity
  8
0
100
AcDbLine
 62
9
  6
CONTINUOUS
 10
6.4115881049
 20
6.6714031557
 11
6.4115152051
 21
6.5834207589
  0
LINE
  5
3D9
100
AcDbEntity
  8
0
100
AcDbLine
 62
9
  6
CONTINUOUS
 10
6.4115152051
 20
6.5834207589
 11
6.411294634
 21
6.5005255759
  0
LINE
  5
3DA
100
AcDbEntity
  8
0
100
AcDbLine
 62
9
  6
CONTINUOUS
 10
6.4064819373
 20
6.0556947251
 11
6.4064319581
 21
6.05314963
  0
SPLINE
  5
3DB
100
AcDbEntity
  8
0
100
AcDbSpline
 62
9
  6
CONTINUOUS
 70
0
 71
3
 72
37
 73
33
 74
0
 42
0.0000001
 43
0.0000001
 44
0.0000000001
 40
0.0
 40
0.0
 40
0.0
 40
0.0
 40
0.0125276362
 40
0.0242239927
 40
0.0353511346
 40
0.0461285982
 40
0.0567174142
 40
0.0672051449
 40
0.0776578777
 40
0.088131528
 40
0.1093055739
 40
0.1310007443
 40
0.1533913731
 40
0.1765978301
 40
0.2007017225
 40
0.2257509354
 40
0.251772138
 40
0.2787757464
 40
0.3067615085
 40
0.3357301349
 40
0.3656787208
 40
0.3965992696
 40
0.4284774238
 40
0.4612872494
 40
0.4949981681
 40
0.5295774049
 40
0.6012035636
 40
0.6759027572
 40
0.7534013521
 40
0.8334287692
 40
0.9157170015
 40
1.0
 40
1.0
 40
1.0
 40
1.0
 10
6.4115301837
 20
6.7554400245
 30
0.0
 10
6.4115338655
 20
6.7526562295
 30
0.0
 10
6.4118097701
 20
6.7472685834
 30
0.0
 10
6.4130449941
 20
6.739496835
 30
0.0
 10
6.4149670225
 20
6.7322693736
 30
0.0
 10
6.4174549535
 20
6.72548251
 30
0.0
 10
6.4203849644
 20
6.7190323347
 30
0.0
 10
6.4237361888
 20
6.7128730448
 30
0.0
 10
6.4274829601
 20
6.7069771594
 30
0.0
 10
6.4329882407
 20
6.6994071645
 30
0.0
 10
6.4407740587
 20
6.6904360895
 30
0.0
 10
6.4513260912
 20
6.6804616622
 30
0.0
 10
6.4630107795
 20
6.6711073304
 30
0.0
 10
6.4757722526
 20
6.6623104335
 30
0.0
 10
6.4895532956
 20
6.6540094585
 30
0.0
 10
6.5043137132
 20
6.646172706
 30
0.0
 10
6.5200105808
 20
6.6387704108
 30
0.0
 10
6.5366014412
 20
6.6317731817
 30
0.0
 10
6.5540471609
 20
6.6251512703
 30
0.0
 10
6.5723199685
 20
6.618895192
 30
0.0
 10
6.5913937554
 20
6.6129941799
 30
0.0
 10
6.6112425377
 20
6.6074375792
 30
0.0
 10
6.6318381354
 20
6.6022152597
 30
0.0
 10
6.6531509886
 20
6.597322802
 30
0.0
 10
6.6751492813
 20
6.5927563701
 30
0.0
 10
6.7057103207
 20
6.5870307247
 30
0.0
 10
6.7454190057
 20
6.5807137485
 30
0.0
 10
6.7947712655
 20
6.5744845898
 30
0.0
 10
6.8461421452
 20
6.5695182832
 30
0.0
 10
6.8993148894
 20
6.5658858515
 30
0.0
 10
6.9540733404
 20
6.5636568938
 30
0.0
 10
6.9910896015
 20
6.5631585416
 30
0.0
 10
7.0098183383
 20
6.5631585416
 30
0.0
  0
SPLINE
  5
3DC
100
AcDbEntity
  8
0
100
AcDbSpline
 62
9
  6
CONTINUOUS
 70
0
 71
3
 72
38
 73
34
 74
0
 42
0.0000001
 43
0.0000001
 44
0.0000000001
 40
0.0
 40
0.0
 40
0.0
 40
0.0
 40
0.0081591623
 40
0.0158446355
 40
0.0232733736
 40
0.0306236473
 40
0.0380236124
 40
0.0455507644
 40
0.0532638961
 40
0.0612095582
 40
0.0779252154
 40
0.0867502483
 40
0.0959071292
 40
0.115257179
 40
0.1360479523
 40
0.1583145828
 40
0.1820598398
 40
0.2072689207
 40
0.2339158267
 40
0.261968252
 40
0.2913965212
 40
0.3221693116
 40
0.3542523895
 40
0.3876059934
 40
0.4221757655
 40
0.4579027742
 40
0.4947269807
 40
0.5714249917
 40
0.6517951395
 40
0.7353521103
 40
0.8215833507
 40
0.9099711137
 40
1.0
 40
1.0
 40
1.0
 40
1.0
 10
6.4098183383
 20
7.4391584091
 30
0.0
 10
6.4098183438
 20
7.4374277445
 30
0.0
 10
6.4100290464
 20
7.4340617163
 30
0.0
 10
6.4110034409
 20
7.4292077127
 30
0.0
 10
6.4125478396
 20
7.4246865598
 30
0.0
 10
6.4145824492
 20
7.4204351422
 30
0.0
 10
6.4170283038
 20
7.416384341
 30
0.0
 10
6.4198714855
 20
7.4125068825
 30
0.0
 10
6.4230945654
 20
7.4087857227
 30
0.0
 10
6.4279564614
 20
7.4039295492
 30
0.0
 10
6.4334557962
 20
7.3994051344
 30
0.0
 10
6.4394715851
 20
7.3951628835
 30
0.0
 10
6.4461432866
 20
7.3908928836
 30
0.0
 10
6.4552829464
 20
7.385792247
 30
0.0
 10
6.4672396439
 20
7.3800955977
 30
0.0
 10
6.4803398451
 20
7.374680592
 30
0.0
 10
6.4945461121
 20
7.369530471
 30
0.0
 10
6.5098182996
 20
7.3646299991
 30
0.0
 10
6.5261156139
 20
7.3599643764
 30
0.0
 10
6.5433994685
 20
7.3555186433
 30
0.0
 10
6.5616369608
 20
7.3512900686
 30
0.0
 10
6.5807967728
 20
7.3472750207
 30
0.0
 10
6.6008473038
 20
7.3434699847
 30
0.0
 10
6.6217535483
 20
7.3398719097
 30
0.0
 10
6.6434768443
 20
7.3364806932
 30
0.0
 10
6.6659751645
 20
7.3332968401
 30
0.0
 10
6.6973770693
 20
7.329274627
 30
0.0
 10
6.7382648235
 20
7.3248065124
 30
0.0
 10
6.7891142707
 20
7.3203637474
 30
0.0
 10
6.8420591782
 20
7.3167927378
 30
0.0
 10
6.8967616874
 20
7.3141593039
 30
0.0
 10
6.9528765216
 20
7.3125293894
 30
0.0
 10
6.9907220395
 20
7.3121584395
 30
0.0
 10
7.0098183383
 20
7.3121584395
 30
0.0
  0
SPLINE
  5
3DD
100
AcDbEntity
  8
0
100
AcDbSpline
 62
9
  6
CONTINUOUS
 70
0
 71
3
 72
15
 73
11
 74
0
 42
0.0000001
 43
0.0000001
 44
0.0000000001
 40
0.0
 40
0.0
 40
0.0
 40
0.0
 40
0.1139554904
 40
0.2300047984
 40
0.3486135979
 40
0.4703019439
 40
0.595642444
 40
0.7252564362
 40
0.8598085291
 40
1.0
 40
1.0
 40
1.0
 40
1.0
 10
6.0515841087
 20
3.715757813
 30
0.0
 10
6.0506892117
 20
3.7132672931
 30
0.0
 10
6.0489670599
 20
3.7082097126
 30
0.0
 10
6.0466432359
 20
3.7004523954
 30
0.0
 10
6.0445902029
 20
3.6924330629
 30
0.0
 10
6.0428399628
 20
3.6841212855
 30
0.0
 10
6.0414244368
 20
3.675486622
 30
0.0
 10
6.0403754922
 20
3.6664986851
 30
0.0
 10
6.0397249058
 20
3.6571274552
 30
0.0
 10
6.039581064
 20
3.6507459208
 30
0.0
 10
6.039581064
 20
3.6474902174
 30
0.0
  0
SPLINE
  5
3DE
100
AcDbEntity
  8
0
100
AcDbSpline
 62
9
  6
CONTINUOUS
 70
0
 71
3
 72
11
 73
7
 74
0
 42
0.0000001
 43
0.0000001
 44
0.0000000001
 40
0.0
 40
0.0
 40
0.0
 40
0.0
 40
0.2302586899
 40
0.4709063163
 40
0.7259412914
 40
1.0
 40
1.0
 40
1.0
 40
1.0
 10
6.0805876472
 20
3.7986051058
 30
0.0
 10
6.078965239
 20
3.7938475034
 30
0.0
 10
6.0759726779
 20
3.7840019184
 30
0.0
 10
6.0725608945
 20
3.7685077478
 30
0.0
 10
6.0703681604
 20
3.7518266144
 30
0.0
 10
6.0698845866
 20
3.7402687035
 30
0.0
 10
6.0698845866
 20
3.7342859058
 30
0.0
  0
LINE
  5
3DF
100
AcDbEntity
  8
0
100
AcDbLine
 62
9
  6
CONTINUOUS
 10
6.4064319581
 20
6.05314963
 11
6.4060830165
 21
6.0357958348
  0
SPLINE
  5
3E0
100
AcDbEntity
  8
0
100
AcDbSpline
 62
9
  6
CONTINUOUS
 70
0
 71
3
 72
15
 73
11
 74
0
 42
0.0000001
 43
0.0000001
 44
0.0000000001
 40
0.0
 40
0.0
 40
0.0
 40
0.0
 40
0.1297926843
 40
0.2586402364
 40
0.3863235475
 40
0.5126283281
 40
0.6373460098
 40
0.7602747969
 40
0.8812209007
 40
1.0
 40
1.0
 40
1.0
 40
1.0
 10
6.4060830165
 20
6.0357958348
 30
0.0
 10
6.4050381433
 20
5.9848773223
 30
0.0
 10
6.4025853117
 20
5.8834181324
 30
0.0
 10
6.397624024
 20
5.731908132
 30
0.0
 10
6.3912257083
 20
5.5818211296
 30
0.0
 10
6.3832240364
 20
5.4334331407
 30
0.0
 10
6.3734526973
 20
5.287020001
 30
0.0
 10
6.3617453454
 20
5.1428571613
 30
0.0
 10
6.3479357226
 20
5.0012208896
 30
0.0
 10
6.3371136344
 20
4.9077729731
 30
0.0
 10
6.3312789797
 20
4.8615320043
 30
0.0
  0
SPLINE
  5
3E1
100
AcDbEntity
  8
0
100
AcDbSpline
 62
9
  6
CONTINUOUS
 70
0
 71
3
 72
14
 73
10
 74
0
 42
0.0000001
 43
0.0000001
 44
0.0000000001
 40
0.0
 40
0.0
 40
0.0
 40
0.0
 40
0.1179627457
 40
0.23653976
 40
0.3564885364
 40
0.4785277158
 40
0.6033275139
 40
0.7315034805
 40
1.0
 40
1.0
 40
1.0
 40
1.0
 10
22.0045151427
 20
5.4848012548
 30
0.0
 10
22.0045847731
 20
5.4885041536
 30
0.0
 10
22.0043924741
 20
5.4959397346
 30
0.0
 10
22.0031078
 20
5.5070719479
 30
0.0
 10
22.0008336928
 20
5.5181758886
 30
0.0
 10
21.9975764435
 20
5.529234767
 30
0.0
 10
21.9933420665
 20
5.5402347867
 30
0.0
 10
21.9862964269
 20
5.5550265755
 30
0.0
 10
21.9797001569
 20
5.5656519748
 30
0.0
 10
21.9748183375
 20
5.5725242213
 30
0.0
  0
SPLINE
  5
3E2
100
AcDbEntity
  8
0
100
AcDbSpline
 62
9
  6
CONTINUOUS
 70
0
 71
3
 72
11
 73
7
 74
0
 42
0.0000001
 43
0.0000001
 44
0.0000000001
 40
0.0
 40
0.0
 40
0.0
 40
0.0
 40
0.2333863147
 40
0.4762296862
 40
0.7308975687
 40
1.0
 40
1.0
 40
1.0
 40
1.0
 10
6.2170421674
 20
4.2613645328
 30
0.0
 10
6.2161114017
 20
4.2576223231
 30
0.0
 10
6.2144211287
 20
4.2499323026
 30
0.0
 10
6.2125304664
 20
4.2379972154
 30
0.0
 10
6.2113336407
 20
4.2253789668
 30
0.0
 10
6.2110677578
 20
4.2167219243
 30
0.0
 10
6.2110677578
 20
4.2122755665
 30
0.0
  0
SPLINE
  5
3E3
100
AcDbEntity
  8
0
100
AcDbSpline
 62
9
  6
CONTINUOUS
 70
0
 71
3
 72
13
 73
9
 74
0
 42
0.0000001
 43
0.0000001
 44
0.0000000001
 40
0.0
 40
0.0
 40
0.0
 40
0.0
 40
0.1314301168
 40
0.2611642641
 40
0.3891352231
 40
0.515278599
 40
0.7617910885
 40
1.0
 40
1.0
 40
1.0
 40
1.0
 10
6.328138725
 20
4.837005183
 30
0.0
 10
6.3245496147
 20
4.809376044
 30
0.0
 10
6.317064947
 20
4.754519346
 30
0.0
 10
6.3048058018
 20
4.6729417861
 30
0.0
 10
6.2915687162
 20
4.5926523123
 30
0.0
 10
6.2727391355
 20
4.4882067331
 30
0.0
 10
6.2467755467
 20
4.3613201781
 30
0.0
 10
6.2232734765
 20
4.2612750699
 30
0.0
 10
6.2110677578
 20
4.2122755665
 30
0.0
  0
LINE
  5
3E4
100
AcDbEntity
  8
0
100
AcDbLine
 62
9
  6
CONTINUOUS
 10
7.6080485715
 20
6.6713519078
 11
7.6081235636
 21
6.5822116686
  0
LINE
  5
3E5
100
AcDbEntity
  8
0
100
AcDbLine
 62
9
  6
CONTINUOUS
 10
7.6081235636
 20
6.5822116686
 11
7.6083420421
 21
6.5005257027
  0
LINE
  5
3E6
100
AcDbEntity
  8
0
100
AcDbLine
 62
9
  6
CONTINUOUS
 10
7.6131547393
 20
6.0556947251
 11
7.6132047185
 21
6.05314963
  0
SPLINE
  5
3E7
100
AcDbEntity
  8
0
100
AcDbSpline
 62
9
  6
CONTINUOUS
 70
0
 71
3
 72
37
 73
33
 74
0
 42
0.0000001
 43
0.0000001
 44
0.0000000001
 40
0.0
 40
0.0
 40
0.0
 40
0.0
 40
0.0164043164
 40
0.0316396392
 40
0.0460184831
 40
0.0598056346
 40
0.0731981443
 40
0.0862964548
 40
0.0991742791
 40
0.1118956563
 40
0.1245137176
 40
0.1370698446
 40
0.162125048
 40
0.187286664
 40
0.2127107559
 40
0.2385128149
 40
0.2647753727
 40
0.2915593119
 40
0.3189071694
 40
0.3754004418
 40
0.4046091329
 40
0.4344808009
 40
0.4650256268
 40
0.4962447832
 40
0.5281346525
 40
0.5606883434
 40
0.6277485805
 40
0.6973595506
 40
0.7694410635
 40
0.8439399275
 40
0.920809286
 40
1.0
 40
1.0
 40
1.0
 40
1.0
 10
6.4064319581
 20
6.05314963
 30
0.0
 10
6.4064319581
 20
6.0493016133
 30
0.0
 10
6.4067616727
 20
6.0418742396
 30
0.0
 10
6.4082533057
 20
6.0311682159
 30
0.0
 10
6.4105598269
 20
6.0212391249
 30
0.0
 10
6.4135174412
 20
6.0119415915
 30
0.0
 10
6.4169548515
 20
6.0031345349
 30
0.0
 10
6.420842126
 20
5.9947513393
 30
0.0
 10
6.4251450863
 20
5.9867528976
 30
0.0
 10
6.4298272882
 20
5.9791030937
 30
0.0
 10
6.4348524275
 20
5.9717658954
 30
0.0
 10
6.4419784823
 20
5.9623776515
 30
0.0
 10
6.4516815401
 20
5.9512754588
 30
0.0
 10
6.4643912581
 20
5.9388716959
 30
0.0
 10
6.478087919
 20
5.9272972177
 30
0.0
 10
6.4926961958
 20
5.9164624223
 30
0.0
 10
6.5081724563
 20
5.9063172422
 30
0.0
 10
6.5244707255
 20
5.8968143367
 30
0.0
 10
6.547484351
 20
5.8848085607
 30
0.0
 10
6.5717559974
 20
5.8740469674
 30
0.0
 10
6.5970887206
 20
5.8643828246
 30
0.0
 10
6.616970765
 20
5.8575370131
 30
0.0
 10
6.6374993627
 20
5.8511535954
 30
0.0
 10
6.658654398
 20
5.845220061
 30
0.0
 10
6.6804135066
 20
5.8397245939
 30
0.0
 10
6.7104986333
 20
5.8328985849
 30
0.0
 10
6.7495012034
 20
5.8254413677
 30
0.0
 10
6.7979382186
 20
5.818176151
 30
0.0
 10
6.8483369487
 20
5.8124498967
 30
0.0
 10
6.9005984209
 20
5.8083101006
 30
0.0
 10
6.954632
 20
5.805800634
 30
0.0
 10
6.9912423012
 20
5.8052520428
 30
0.0
 10
7.0098183383
 20
5.8052520428
 30
0.0
  0
SPLINE
  5
3E8
100
AcDbEntity
  8
0
100
AcDbSpline
 62
9
  6
CONTINUOUS
 70
0
 71
3
 72
40
 73
36
 74
0
 42
0.0000001
 43
0.0000001
 44
0.0000000001
 40
0.0
 40
0.0
 40
0.0
 40
0.0
 40
0.0102524527
 40
0.0200860174
 40
0.0295516259
 40
0.0386973622
 40
0.0475680492
 40
0.0562049351
 40
0.0646455089
 40
0.0729234694
 40
0.0890863166
 40
0.1048081741
 40
0.1201686541
 40
0.135237242
 40
0.1500715598
 40
0.1647149339
 40
0.1792037573
 40
0.1935692807
 40
0.2220251569
 40
0.250246339
 40
0.2783519366
 40
0.3064327848
 40
0.3345621831
 40
0.3627976519
 40
0.3911845118
 40
0.4197677268
 40
0.4776730293
 40
0.5367900705
 40
0.5973230181
 40
0.6594372701
 40
0.7232909259
 40
0.7890417292
 40
0.8569134605
 40
0.9271509924
 40
1.0
 40
1.0
 40
1.0
 40
1.0
 10
6.328138725
 20
4.837005183
 30
0.0
 10
6.328138725
 20
4.8341276332
 30
0.0
 10
6.3282594365
 20
4.8284892428
 30
0.0
 10
6.3288028908
 20
4.8202102618
 30
0.0
 10
6.3296751361
 20
4.812271869
 30
0.0
 10
6.3308465743
 20
4.8046456626
 30
0.0
 10
6.3322875461
 20
4.7973029191
 30
0.0
 10
6.333968336
 20
4.7902149256
 30
0.0
 10
6.3358592476
 20
4.7833527425
 30
0.0
 10
6.3385983376
 20
4.7745385972
 30
0.0
 10
6.3423945395
 20
4.763917926
 30
0.0
 10
6.3475365117
 20
4.7516884861
 30
0.0
 10
6.3531750558
 20
4.7400207857
 30
0.0
 10
6.3592558029
 20
4.7288613388
 30
0.0
 10
6.3657236861
 20
4.7181569432
 30
0.0
 10
6.3725508927
 20
4.7078733232
 30
0.0
 10
6.3797085439
 20
4.6979792482
 30
0.0
 10
6.3896206114
 20
4.6853072215
 30
0.0
 10
6.4027132212
 20
4.670246813
 30
0.0
 10
6.4194477537
 20
4.6533097962
 30
0.0
 10
6.4370452838
 20
4.6374305682
 30
0.0
 10
6.4554512047
 20
4.622539163
 30
0.0
 10
6.4746085984
 20
4.6085683728
 30
0.0
 10
6.4944610864
 20
4.5954507375
 30
0.0
 10
6.5149574839
 20
4.5831164644
 30
0.0
 10
6.5432353558
 20
4.5676123012
 30
0.0
 10
6.5801747678
 20
4.5500395927
 30
0.0
 10
6.6265570219
 20
4.531723522
 30
0.0
 10
6.675107279
 20
4.515958229
 30
0.0
 10
6.7257505681
 20
4.5026191596
 30
0.0
 10
6.7784508381
 20
4.4916397378
 30
0.0
 10
6.8332116086
 20
4.4829495801
 30
0.0
 10
6.8901013934
 20
4.4766447753
 30
0.0
 10
6.9492057883
 20
4.4728126359
 30
0.0
 10
6.9893718513
 20
4.4719804716
 30
0.0
 10
7.0098183383
 20
4.4719804716
 30
0.0
  0
SPLINE
  5
3E9
100
AcDbEntity
  8
0
100
AcDbSpline
 62
9
  6
CONTINUOUS
 70
0
 71
3
 72
39
 73
35
 74
0
 42
0.0000001
 43
0.0000001
 44
0.0000000001
 40
0.0
 40
0.0
 40
0.0
 40
0.0
 40
0.0099874369
 40
0.0195601874
 40
0.0287713717
 40
0.0376710124
 40
0.0463055587
 40
0.0547175275
 40
0.0629452975
 40
0.0710230819
 40
0.0868240752
 40
0.102235879
 40
0.1173375185
 40
0.1321967961
 40
0.1468688377
 40
0.161394246
 40
0.1758063798
 40
0.1901331608
 40
0.2186121594
 40
0.2469685701
 40
0.2752965526
 40
0.3036661276
 40
0.3321319068
 40
0.3607342996
 40
0.4184602855
 40
0.4770907117
 40
0.5368124727
 40
0.5977897881
 40
0.660170903
 40
0.7241124645
 40
0.7897872435
 40
0.8574578946
 40
0.9274244246
 40
1.0
 40
1.0
 40
1.0
 40
1.0
 10
6.2110677578
 20
4.2122755665
 30
0.0
 10
6.2110677578
 20
4.2090052747
 30
0.0
 10
6.2112123033
 20
4.2025993844
 30
0.0
 10
6.2118637438
 20
4.1931977638
 30
0.0
 10
6.2129093493
 20
4.1841902853
 30
0.0
 10
6.2143135343
 20
4.1755431375
 30
0.0
 10
6.2160406292
 20
4.1672220942
 30
0.0
 10
6.2180548895
 20
4.1591929285
 30
0.0
 10
6.2203206023
 20
4.1514211237
 30
0.0
 10
6.2236039546
 20
4.1414325111
 30
0.0
 10
6.2281545077
 20
4.1293905661
 30
0.0
 10
6.2343114601
 20
4.1155232335
 30
0.0
 10
6.2410594596
 20
4.1022798132
 30
0.0
 10
6.2483324899
 20
4.0895972772
 30
0.0
 10
6.2560639333
 20
4.07741273
 30
0.0
 10
6.2642196743
 20
4.0656865695
 30
0.0
 10
6.272764279
 20
4.0543826192
 30
0.0
 10
6.2846023401
 20
4.039856788
 30
0.0
 10
6.3002182484
 20
4.0225388706
 30
0.0
 10
6.3201196353
 20
4.0029848082
 30
0.0
 10
6.3410091311
 20
3.9845471606
 30
0.0
 10
6.3628192875
 20
3.9671535594
 30
0.0
 10
6.3854810931
 20
3.9507336367
 30
0.0
 10
6.4168331304
 20
3.9299830529
 30
0.0
 10
6.4579078073
 20
3.9061009057
 30
0.0
 10
6.5097004325
 20
3.8806771369
 30
0.0
 10
6.5639792866
 20
3.858179283
 30
0.0
 10
6.6206556394
 20
3.8385457853
 30
0.0
 10
6.6796598799
 20
3.8217085826
 30
0.0
 10
6.7409684818
 20
3.8076702896
 30
0.0
 10
6.8046096694
 20
3.7964268135
 30
0.0
 10
6.8706982254
 20
3.7881767572
 30
0.0
 10
6.9393710797
 20
3.7831065706
 30
0.0
 10
6.9860541521
 20
3.7819920536
 30
0.0
 10
7.0098183383
 20
3.7819920536
 30
0.0
  0
SPLINE
  5
3EA
100
AcDbEntity
  8
0
100
AcDbSpline
 62
9
  6
CONTINUOUS
 70
0
 71
3
 72
40
 73
36
 74
0
 42
0.0000001
 43
0.0000001
 44
0.0000000001
 40
0.0
 40
0.0
 40
0.0
 40
0.0
 40
0.0094373787
 40
0.0184573266
 40
0.0271159587
 40
0.0354660891
 40
0.0435566183
 40
0.0514320512
 40
0.0591321994
 40
0.066692102
 40
0.0814881705
 40
0.0959414358
 40
0.1101354615
 40
0.124140441
 40
0.1380121951
 40
0.1517919618
 40
0.1655129697
 40
0.179201992
 40
0.2065590473
 40
0.2339905603
 40
0.2615783075
 40
0.2893833879
 40
0.3174508264
 40
0.3458096532
 40
0.4034697396
 40
0.4328218565
 40
0.4625407653
 40
0.5231238318
 40
0.5853348751
 40
0.6492700271
 40
0.7150346225
 40
0.7827520305
 40
0.852645315
 40
0.924972508
 40
1.0
 40
1.0
 40
1.0
 40
1.0
 10
6.0698845866
 20
3.7342859058
 30
0.0
 10
6.0698845866
 20
3.7307814229
 30
0.0
 10
6.0700521794
 20
3.723926063
 30
0.0
 10
6.0708108043
 20
3.7138812336
 30
0.0
 10
6.0720295587
 20
3.704288632
 30
0.0
 10
6.0736673521
 20
3.6951094252
 30
0.0
 10
6.075682963
 20
3.6863042522
 30
0.0
 10
6.0780350525
 20
3.6778337331
 30
0.0
 10
6.0806823316
 20
3.6696580959
 30
0.0
 10
6.0845216179
 20
3.6591761331
 30
0.0
 10
6.0898504137
 20
3.6465776434
 30
0.0
 10
6.0970669971
 20
3.6321383646
 30
0.0
 10
6.1049836144
 20
3.6184101495
 30
0.0
 10
6.1135229523
 20
3.605319552
 30
0.0
 10
6.1226077533
 20
3.5927923773
 30
0.0
 10
6.1321975673
 20
3.5807830609
 30
0.0
 10
6.142250479
 20
3.5692493548
 30
0.0
 10
6.1562103916
 20
3.5544543402
 30
0.0
 10
6.1746427616
 20
3.5369058338
 30
0.0
 10
6.1981046962
 20
3.517251186
 30
0.0
 10
6.2227447447
 20
3.4988207788
 30
0.0
 10
6.2484789328
 20
3.4815289469
 30
0.0
 10
6.2752234805
 20
3.4652895657
 30
0.0
 10
6.3123217533
 20
3.4448136386
 30
0.0
 10
6.3509612737
 20
3.4262138289
 30
0.0
 10
6.3908897846
 20
3.409329385
 30
0.0
 10
6.4323275908
 20
3.3932762634
 30
0.0
 10
6.4859953449
 20
3.375091483
 30
0.0
 10
6.5527607533
 20
3.3562706166
 30
0.0
 10
6.6222137874
 20
3.3401947693
 30
0.0
 10
6.6943160626
 20
3.326827666
 30
0.0
 10
6.7690967438
 20
3.3161259062
 30
0.0
 10
6.8466817031
 20
3.3082773204
 30
0.0
 10
6.9272318414
 20
3.303455771
 30
0.0
 10
6.9819575764
 20
3.3023957176
 30
0.0
 10
7.0098183383
 20
3.3023957176
 30
0.0
  0
SPLINE
  5
3EB
100
AcDbEntity
  8
0
100
AcDbSpline
 62
9
  6
CONTINUOUS
 70
0
 71
3
 72
40
 73
36
 74
0
 42
0.0000001
 43
0.0000001
 44
0.0000000001
 40
0.0
 40
0.0
 40
0.0
 40
0.0
 40
0.0093792896
 40
0.0183376872
 40
0.0269318747
 40
0.035215222
 40
0.043237148
 40
0.0510426127
 40
0.0586717966
 40
0.0661600048
 40
0.0808112206
 40
0.095119379
 40
0.1091697354
 40
0.1230337523
 40
0.1367681485
 40
0.1504150053
 40
0.1640081962
 40
0.177574877
 40
0.2047044636
 40
0.231933331
 40
0.2593441478
 40
0.2869991776
 40
0.3149440194
 40
0.3432074498
 40
0.400756048
 40
0.4300912688
 40
0.4598181928
 40
0.5204887515
 40
0.5828777689
 40
0.6470738923
 40
0.7131732839
 40
0.7812888579
 40
0.8516338272
 40
0.924453874
 40
1.0
 40
1.0
 40
1.0
 40
1.0
 10
6.039581064
 20
3.6474902174
 30
0.0
 10
6.039581064
 20
3.6439218843
 30
0.0
 10
6.0397534728
 20
3.6369438792
 30
0.0
 10
6.0405346514
 20
3.6267231424
 30
0.0
 10
6.0417898827
 20
3.6169699599
 30
0.0
 10
6.0434769308
 20
3.6076444039
 30
0.0
 10
6.0455534182
 20
3.5987059977
 30
0.0
 10
6.0479768389
 20
3.5901142443
 30
0.0
 10
6.0507047398
 20
3.5818282319
 30
0.0
 10
6.0546610424
 20
3.571214178
 30
0.0
 10
6.0601537211
 20
3.5584700616
 30
0.0
 10
6.0675947926
 20
3.5438850075
 30
0.0
 10
6.0757592765
 20
3.5300402689
 30
0.0
 10
6.0845674633
 20
3.5168598753
 30
0.0
 10
6.0939398641
 20
3.5042668869
 30
0.0
 10
6.1038346646
 20
3.4922141304
 30
0.0
 10
6.1142085739
 20
3.4806577212
 30
0.0
 10
6.1286188478
 20
3.4658547784
 30
0.0
 10
6.1476504961
 20
3.4483394425
 30
0.0
 10
6.1718731556
 20
3.4287907863
 30
0.0
 10
6.1973154245
 20
3.410518449
 30
0.0
 10
6.2238895997
 20
3.3934310341
 30
0.0
 10
6.2515086778
 20
3.3774361256
 30
0.0
 10
6.2898404463
 20
3.3573234383
 30
0.0
 10
6.3297479412
 20
3.3391525577
 30
0.0
 10
6.3709674978
 20
3.3227345152
 30
0.0
 10
6.413780186
 20
3.3071577404
 30
0.0
 10
6.4692218327
 20
3.2895935259
 30
0.0
 10
6.5381590246
 20
3.2715197207
 30
0.0
 10
6.6098613659
 20
3.2561565085
 30
0.0
 10
6.6842870845
 20
3.2434357044
 30
0.0
 10
6.7614652978
 20
3.2332824301
 30
0.0
 10
6.8415228721
 20
3.2258582028
 30
0.0
 10
6.9246253149
 20
3.2213105156
 30
0.0
 10
6.9810769563
 20
3.2203139787
 30
0.0
 10
7.0098183383
 20
3.2203139787
 30
0.0
  0
SPLINE
  5
3EC
100
AcDbEntity
  8
0
100
AcDbSpline
 62
9
  6
CONTINUOUS
 70
0
 71
3
 72
11
 73
7
 74
0
 42
0.0000001
 43
0.0000001
 44
0.0000000001
 40
0.0
 40
0.0
 40
0.0
 40
0.0
 40
0.2810723745
 40
0.5423203507
 40
0.7824154627
 40
1.0
 40
1.0
 40
1.0
 40
1.0
 10
7.9800556126
 20
3.6474902174
 30
0.0
 10
7.9915015757
 20
3.6154509928
 30
0.0
 10
8.0140774873
 20
3.5538066124
 30
0.0
 10
8.0479587223
 20
3.4653639949
 30
0.0
 10
8.0801453066
 20
3.3845103718
 30
0.0
 10
8.1011998521
 20
3.3332663339
 30
0.0
 10
8.1113183383
 20
3.3089500851
 30
0.0
  0
SPLINE
  5
3ED
100
AcDbEntity
  8
0
100
AcDbSpline
 62
9
  6
CONTINUOUS
 70
0
 71
3
 72
11
 73
7
 74
0
 42
0.0000001
 43
0.0000001
 44
0.0000000001
 40
0.0
 40
0.0
 40
0.0
 40
0.0
 40
0.2810723745
 40
0.5423203507
 40
0.7824154627
 40
1.0
 40
1.0
 40
1.0
 40
1.0
 10
6.039581064
 20
3.6474902174
 30
0.0
 10
6.0281351008
 20
3.6154509928
 30
0.0
 10
6.0055591893
 20
3.5538066124
 30
0.0
 10
5.9716779543
 20
3.4653639949
 30
0.0
 10
5.9394913699
 20
3.3845103718
 30
0.0
 10
5.9184368245
 20
3.3332663339
 30
0.0
 10
5.9083183383
 20
3.3089500851
 30
0.0
  0
SPLINE
  5
3EE
100
AcDbEntity
  8
0
100
AcDbSpline
 62
7
  6
CONTINUOUS
 70
0
 71
3
 72
9
 73
5
 74
0
 42
0.0000001
 43
0.0000001
 44
0.0000000001
 40
0.0
 40
0.0
 40
0.0
 40
0.0
 40
0.4820532601
 40
1.0
 40
1.0
 40
1.0
 40
1.0
 10
20.6703146236
 20
7.9294149771
 30
0.0
 10
20.6703989016
 20
7.924161099
 30
0.0
 10
20.6710821215
 20
7.9132666913
 30
0.0
 10
20.6726443353
 20
7.9024672625
 30
0.0
 10
20.6736459292
 20
7.8969110108
 30
0.0
  0
SPLINE
  5
3EF
100
AcDbEntity
  8
0
100
AcDbSpline
 62
9
  6
CONTINUOUS
 70
0
 71
3
 72
22
 73
18
 74
0
 42
0.0000001
 43
0.0000001
 44
0.0000000001
 40
0.0
 40
0.0
 40
0.0
 40
0.0
 40
0.0537563232
 40
0.1079022652
 40
0.1627805975
 40
0.2187097244
 40
0.2471778835
 40
0.2760209016
 40
0.3348913994
 40
0.3954360554
 40
0.4576527298
 40
0.5214802377
 40
0.5868245936
 40
0.7214284729
 40
0.7903796317
 40
0.860012936
 40
1.0
 40
1.0
 40
1.0
 40
1.0
 10
21.3873277398
 20
7.9053663721
 30
0.0
 10
21.3873277014
 20
7.9073397563
 30
0.0
 10
21.3870606162
 20
7.9113057025
 30
0.0
 10
21.3858746864
 20
7.917178999
 30
0.0
 10
21.3839174146
 20
7.9229266023
 30
0.0
 10
21.3816671779
 20
7.9275334371
 30
0.0
 10
21.3795066162
 20
7.9310874371
 30
0.0
 10
21.3770727378
 20
7.9345926202
 30
0.0
 10
21.3735801298
 20
7.9387830189
 30
0.0
 10
21.3687758946
 20
7.9434234202
 30
0.0
 10
21.3633854736
 20
7.9476675307
 30
0.0
 10
21.3574646744
 20
7.951469824
 30
0.0
 10
21.3488583719
 20
7.9559325776
 30
0.0
 10
21.3394999812
 20
7.9592525392
 30
0.0
 10
21.3297047644
 20
7.9614396871
 30
0.0
 10
21.3195714887
 20
7.9628728574
 30
0.0
 10
21.3118359879
 20
7.9630515821
 30
0.0
 10
21.3067056278
 20
7.9627554812
 30
0.0
  0
SPLINE
  5
3F0
100
AcDbEntity
  8
0
100
AcDbSpline
 62
9
  6
CONTINUOUS
 70
0
 71
3
 72
13
 73
9
 74
0
 42
0.0000001
 43
0.0000001
 44
0.0000000001
 40
0.0
 40
0.0
 40
0.0
 40
0.0
 40
0.1261741347
 40
0.2525384959
 40
0.3788428872
 40
0.5048233276
 40
0.7546383295
 40
1.0
 40
1.0
 40
1.0
 40
1.0
 10
21.1302069934
 20
10.2289074154
 30
0.0
 10
21.1284174456
 20
10.2290779817
 30
0.0
 10
21.1248252371
 20
10.2293190244
 30
0.0
 10
21.1194253446
 20
10.2293761357
 30
0.0
 10
21.1140331058
 20
10.229134174
 30
0.0
 10
21.1069121284
 20
10.2284203049
 30
0.0
 10
21.0981903309
 20
10.2268132644
 30
0.0
 10
21.0914236667
 20
10.2247508407
 30
0.0
 10
21.0881489187
 20
10.2235275385
 30
0.0
  0
SPLINE
  5
3F1
100
AcDbEntity
  8
0
100
AcDbSpline
 62
9
  6
CONTINUOUS
 70
0
 71
3
 72
12
 73
8
 74
0
 42
0.0000001
 43
0.0000001
 44
0.0000000001
 40
0.0
 40
0.0
 40
0.0
 40
0.0
 40
0.1293459945
 40
0.2579033812
 40
0.5116452929
 40
0.7595391919
 40
1.0
 40
1.0
 40
1.0
 40
1.0
 10
21.0225446911
 20
10.2417887722
 30
0.0
 10
21.0207649229
 20
10.2416091964
 30
0.0
 10
21.0172252479
 20
10.2411517947
 30
0.0
 10
21.010268332
 20
10.239844214
 30
0.0
 10
21.0018503408
 20
10.2375061946
 30
0.0
 10
20.9923277229
 20
10.2336197299
 30
0.0
 10
20.9864179365
 20
10.2303036834
 30
0.0
 10
20.9836372013
 20
10.2284798622
 30
0.0
  0
SPLINE
  5
3F2
100
AcDbEntity
  8
0
100
AcDbSpline
 62
9
  6
CONTINUOUS
 70
0
 71
3
 72
12
 73
8
 74
0
 42
0.0000001
 43
0.0000001
 44
0.0000000001
 40
0.0
 40
0.0
 40
0.0
 40
0.0
 40
0.2427718564
 40
0.491621242
 40
0.744665954
 40
0.8721821584
 40
1.0
 40
1.0
 40
1.0
 40
1.0
 10
20.9836372005
 20
10.2284798622
 30
0.0
 10
20.9805828588
 20
10.2300208765
 30
0.0
 10
20.9741882525
 20
10.2327403089
 30
0.0
 10
20.9640946869
 20
10.2356859913
 30
0.0
 10
20.9553347944
 20
10.2372016151
 30
0.0
 10
20.9481956041
 20
10.2378299091
 30
0.0
 10
20.9445968967
 20
10.2379423901
 30
0.0
 10
20.9427957349
 20
10.2379485233
 30
0.0
  0
SPLINE
  5
3F3
100
AcDbEntity
  8
0
100
AcDbSpline
 62
7
  6
CONTINUOUS
 70
0
 71
3
 72
22
 73
18
 74
0
 42
0.0000001
 43
0.0000001
 44
0.0000000001
 40
0.0
 40
0.0
 40
0.0
 40
0.0
 40
0.0087455236
 40
0.0193316423
 40
0.0317589147
 40
0.0460021982
 40
0.0620229379
 40
0.0797749753
 40
0.1202655842
 40
0.1670400966
 40
0.2196387999
 40
0.2775901501
 40
0.340418185
 40
0.4796181983
 40
0.6363406208
 40
0.8099990901
 40
1.0
 40
1.0
 40
1.0
 40
1.0
 10
20.9836372009
 20
10.2284798619
 30
0.0
 10
20.9835548
 20
10.2283139158
 30
0.0
 10
20.9833994585
 20
10.2279338872
 30
0.0
 10
20.9831976901
 20
10.2272916406
 30
0.0
 10
20.983005229
 20
10.2265257883
 30
0.0
 10
20.9828220071
 20
10.2256399218
 30
0.0
 10
20.9826478563
 20
10.2246375557
 30
0.0
 10
20.9824173659
 20
10.2230811008
 30
0.0
 10
20.9821587951
 20
10.220870871
 30
0.0
 10
20.9818910663
 20
10.217919719
 30
0.0
 10
20.9816525929
 20
10.2145951055
 30
0.0
 10
20.9814411663
 20
10.2109280106
 30
0.0
 10
20.9811830116
 20
10.2054261944
 30
0.0
 10
20.9809268888
 20
10.1978298861
 30
0.0
 10
20.9807183983
 20
10.1878835859
 30
0.0
 10
20.9805968328
 20
10.1768595694
 30
0.0
 10
20.9805729577
 20
10.1691552314
 30
0.0
 10
20.9805729577
 20
10.1651299695
 30
0.0
  0
SPLINE
  5
3F4
100
AcDbEntity
  8
0
100
AcDbSpline
 62
9
  6
CONTINUOUS
 70
0
 71
3
 72
13
 73
9
 74
0
 42
0.0000001
 43
0.0000001
 44
0.0000000001
 40
0.0
 40
0.0
 40
0.0
 40
0.0
 40
0.248197613
 40
0.4990045795
 40
0.6247569149
 40
0.7503454194
 40
0.8755071435
 40
1.0
 40
1.0
 40
1.0
 40
1.0
 10
20.8802352759
 20
10.2136674118
 30
0.0
 10
20.8768089277
 20
10.214538735
 30
0.0
 10
20.8698122194
 20
10.2158876501
 30
0.0
 10
20.860923746
 20
10.2166040095
 30
0.0
 10
20.8537680136
 20
10.2165988117
 30
0.0
 10
20.8484103778
 20
10.216301939
 30
0.0
 10
20.8430954357
 20
10.2157107039
 30
0.0
 10
20.8395868712
 20
10.2151170353
 30
0.0
 10
20.8378475324
 20
10.2147715755
 30
0.0
  0
SPLINE
  5
3F5
100
AcDbEntity
  8
0
100
AcDbSpline
 62
9
  6
CONTINUOUS
 70
0
 71
3
 72
9
 73
5
 74
0
 42
0.0000001
 43
0.0000001
 44
0.0000000001
 40
0.0
 40
0.0
 40
0.0
 40
0.0
 40
0.5036961366
 40
1.0
 40
1.0
 40
1.0
 40
1.0
 10
20.7695657166
 20
10.1789538142
 30
0.0
 10
20.7663604275
 20
10.1785936047
 30
0.0
 10
20.7600281527
 20
10.1775634985
 30
0.0
 10
20.7538321433
 20
10.1758941548
 30
0.0
 10
20.7508129927
 20
10.1749015666
 30
0.0
  0
SPLINE
  5
3F6
100
AcDbEntity
  8
0
100
AcDbSpline
 62
9
  6
CONTINUOUS
 70
0
 71
3
 72
18
 73
14
 74
0
 42
0.0000001
 43
0.0000001
 44
0.0000000001
 40
0.0
 40
0.0
 40
0.0
 40
0.0
 40
0.0567979292
 40
0.1138040198
 40
0.1711893333
 40
0.2291060445
 40
0.3469697667
 40
0.4684638136
 40
0.530886932
 40
0.5944890796
 40
0.725198039
 40
0.8605088766
 40
1.0
 40
1.0
 40
1.0
 40
1.0
 10
21.4867777587
 20
7.766835344
 30
0.0
 10
21.4867775813
 20
7.7681365289
 30
0.0
 10
21.4866592521
 20
7.7707451245
 30
0.0
 10
21.4861345177
 20
7.7746364195
 30
0.0
 10
21.4852684644
 20
7.7784928715
 30
0.0
 10
21.483658466
 20
7.7835917265
 30
0.0
 10
21.4807977609
 20
7.7898078666
 30
0.0
 10
21.4769286818
 20
7.7955730799
 30
0.0
 10
21.4732496406
 20
7.7998938345
 30
0.0
 10
21.4691171618
 20
7.8040853284
 30
0.0
 10
21.4632633737
 20
7.8088944565
 30
0.0
 10
21.4553786595
 20
7.813847386
 30
0.0
 10
21.4496709122
 20
7.8165439508
 30
0.0
 10
21.4467083653
 20
7.8177419518
 30
0.0
  0
SPLINE
  5
3F7
100
AcDbEntity
  8
0
100
AcDbSpline
 62
9
  6
CONTINUOUS
 70
0
 71
3
 72
25
 73
21
 74
0
 42
0.0000001
 43
0.0000001
 44
0.0000000001
 40
0.0
 40
0.0
 40
0.0
 40
0.0
 40
0.0529140895
 40
0.1067211776
 40
0.1617538704
 40
0.2182543611
 40
0.2764043328
 40
0.3061575633
 40
0.3363710622
 40
0.3981313213
 40
0.4615858823
 40
0.526533609
 40
0.5927319184
 40
0.6262289851
 40
0.6599439584
 40
0.7278691585
 40
0.7961992221
 40
0.8645730204
 40
0.932622658
 40
1.0
 40
1.0
 40
1.0
 40
1.0
 10
21.3067056278
 20
10.0839545931
 30
0.0
 10
21.3063889378
 20
10.0860867145
 30
0.0
 10
21.3054269668
 20
10.0903449391
 30
0.0
 10
21.3030775996
 20
10.0965219716
 30
0.0
 10
21.2998575115
 20
10.1024596968
 30
0.0
 10
21.2958105337
 20
10.1080845598
 30
0.0
 10
21.291813261
 20
10.1124205838
 30
0.0
 10
21.2882553511
 20
10.1156631237
 30
0.0
 10
21.2844041806
 20
10.1187905079
 30
0.0
 10
21.2791682155
 20
10.1223729035
 30
0.0
 10
21.2723575133
 20
10.1260886956
 30
0.0
 10
21.265059417
 20
10.1292126001
 30
0.0
 10
21.2586683425
 20
10.1312791731
 30
0.0
 10
21.25339482
 20
10.1325990807
 30
0.0
 10
21.2479978225
 20
10.1336923941
 30
0.0
 10
21.2411255445
 20
10.1346117295
 30
0.0
 10
21.2327896713
 20
10.1350093647
 30
0.0
 10
21.2244442804
 20
10.1347065659
 30
0.0
 10
21.2161932151
 20
10.1337056602
 30
0.0
 10
21.2107865093
 20
10.1325661277
 30
0.0
 10
21.2081297634
 20
10.1318769131
 30
0.0
  0
SPLINE
  5
3F8
100
AcDbEntity
  8
0
100
AcDbSpline
 62
9
  6
CONTINUOUS
 70
0
 71
3
 72
25
 73
21
 74
0
 42
0.0000001
 43
0.0000001
 44
0.0000000001
 40
0.0
 40
0.0
 40
0.0
 40
0.0
 40
0.0539155754
 40
0.1093670625
 40
0.1664775233
 40
0.2252796877
 40
0.2857513921
 40
0.3166090129
 40
0.3478601425
 40
0.4114218024
 40
0.4761978271
 40
0.541878444
 40
0.6081327041
 40
0.6413802223
 40
0.6746512397
 40
0.7410996813
 40
0.8071800857
 40
0.8725633769
 40
0.9369304783
 40
1.0
 40
1.0
 40
1.0
 40
1.0
 10
21.2081297634
 20
10.1318769131
 30
0.0
 10
21.2071235167
 20
10.1338964309
 30
0.0
 10
21.2047944258
 20
10.1378549071
 30
0.0
 10
21.2005193436
 20
10.1433765331
 30
0.0
 10
21.1954814156
 20
10.1485026972
 30
0.0
 10
21.1897456223
 20
10.1531711638
 30
0.0
 10
21.1844710467
 20
10.1566073845
 30
0.0
 10
21.1799698777
 20
10.1590719462
 30
0.0
 10
21.1752338755
 20
10.1613632339
 30
0.0
 10
21.1690165115
 20
10.1638312783
 30
0.0
 10
21.1612196852
 20
10.1661343641
 30
0.0
 10
21.1531418493
 20
10.1677723373
 30
0.0
 10
21.146264999
 20
10.1685614761
 30
0.0
 10
21.1407138608
 20
10.1688367001
 30
0.0
 10
21.1351478389
 20
10.168868125
 30
0.0
 10
21.1282122392
 20
10.1684539967
 30
0.0
 10
21.1200071603
 20
10.1672548781
 30
0.0
 10
21.1120194249
 20
10.1653751261
 30
0.0
 10
21.1043488645
 20
10.162836715
 30
0.0
 10
21.0994544508
 20
10.1606937378
 30
0.0
 10
21.0970932628
 20
10.1595142232
 30
0.0
  0
SPLINE
  5
3F9
100
AcDbEntity
  8
0
100
AcDbSpline
 62
9
  6
CONTINUOUS
 70
0
 71
3
 72
23
 73
19
 74
0
 42
0.0000001
 43
0.0000001
 44
0.0000000001
 40
0.0
 40
0.0
 40
0.0
 40
0.0
 40
0.1152285872
 40
0.175447509
 40
0.2371708452
 40
0.3002147903
 40
0.3321800535
 40
0.364399822
 40
0.4294408495
 40
0.4950272463
 40
0.5608005323
 40
0.6263981752
 40
0.659030987
 40
0.6914959604
 40
0.755779274
 40
0.8190157704
 40
0.8809603464
 40
1.0
 40
1.0
 40
1.0
 40
1.0
 10
21.0970932628
 20
10.1595142232
 30
0.0
 10
21.0937800722
 20
10.1630999887
 30
0.0
 10
21.0880388265
 20
10.1679477614
 30
0.0
 10
21.0794614965
 20
10.1731984591
 30
0.0
 10
21.0723983018
 20
10.176626559
 30
0.0
 10
21.0661684421
 20
10.1789544914
 30
0.0
 10
21.0609987686
 20
10.1804876714
 30
0.0
 10
21.0556819427
 20
10.1818018271
 30
0.0
 10
21.0488787747
 20
10.1830074719
 30
0.0
 10
21.0405815766
 20
10.1837564632
 30
0.0
 10
21.0322272775
 20
10.183808005
 30
0.0
 10
21.0252906653
 20
10.1832641513
 30
0.0
 10
21.019808654
 20
10.182471624
 30
0.0
 10
21.0144222123
 20
10.1814452603
 30
0.0
 10
21.0078544816
 20
10.1797305842
 30
0.0
 10
21.0002898524
 20
10.1770073916
 30
0.0
 10
20.9909124233
 20
10.1726151846
 30
0.0
 10
20.9844419952
 20
10.1683654294
 30
0.0
 10
20.9805729577
 20
10.1651299695
 30
0.0
  0
SPLINE
  5
3FA
100
AcDbEntity
  8
0
100
AcDbSpline
 62
9
  6
CONTINUOUS
 70
0
 71
3
 72
25
 73
21
 74
0
 42
0.0000001
 43
0.0000001
 44
0.0000000001
 40
0.0
 40
0.0
 40
0.0
 40
0.0
 40
0.0608611516
 40
0.123242725
 40
0.1869176106
 40
0.2516109595
 40
0.3170293632
 40
0.3499281517
 40
0.3829010785
 40
0.4488951866
 40
0.5146879923
 40
0.5799261178
 40
0.644268526
 40
0.6760161285
 40
0.7074328688
 40
0.7691773345
 40
0.829388951
 40
0.8879583526
 40
0.9448225854
 40
1.0
 40
1.0
 40
1.0
 40
1.0
 10
20.9805729577
 20
10.1651299695
 30
0.0
 10
20.9784193359
 20
10.1665295043
 30
0.0
 10
20.9739030868
 20
10.1691306578
 30
0.0
 10
20.9667053654
 20
10.1723849268
 30
0.0
 10
20.9590856552
 20
10.1750156825
 30
0.0
 10
20.9511394107
 20
10.1769916198
 30
0.0
 10
20.9443347909
 20
10.1780652743
 30
0.0
 10
20.9388154214
 20
10.1785674088
 30
0.0
 10
20.9332550346
 20
10.1788273385
 30
0.0
 10
20.9262939175
 20
10.1787028019
 30
0.0
 10
20.9180131187
 20
10.1778514883
 30
0.0
 10
20.9099027192
 20
10.1763135671
 30
0.0
 10
20.9033403826
 20
10.1744631212
 30
0.0
 10
20.8982733882
 20
10.17264665
 30
0.0
 10
20.8934005089
 20
10.1706317372
 30
0.0
 10
20.8876037806
 20
10.167727011
 30
0.0
 10
20.8811542755
 20
10.1636480957
 30
0.0
 10
20.8753223447
 20
10.1590495489
 30
0.0
 10
20.870182204
 20
10.1539869684
 30
0.0
 10
20.8672214432
 20
10.1502818195
 30
0.0
 10
20.8658902475
 20
10.1483712942
 30
0.0
  0
SPLINE
  5
3FB
100
AcDbEntity
  8
0
100
AcDbSpline
 62
9
  6
CONTINUOUS
 70
0
 71
3
 72
25
 73
21
 74
0
 42
0.0000001
 43
0.0000001
 44
0.0000000001
 40
0.0
 40
0.0
 40
0.0
 40
0.0
 40
0.0652755557
 40
0.1315621227
 40
0.198537945
 40
0.2658528259
 40
0.3331549093
 40
0.3667053383
 40
0.4001337515
 40
0.4664648365
 40
0.5318674706
 40
0.5960472915
 40
0.6587407784
 40
0.6894745316
 40
0.7197700846
 40
0.7790239555
 40
0.8365639921
 40
0.8924664319
 40
0.9468680286
 40
1.0
 40
1.0
 40
1.0
 40
1.0
 10
20.8658902475
 20
10.1483712942
 30
0.0
 10
20.8633605785
 20
10.1493126196
 30
0.0
 10
20.858168058
 20
10.1509656113
 30
0.0
 10
20.8501445544
 20
10.1527490519
 30
0.0
 10
20.8419136623
 20
10.1538488194
 30
0.0
 10
20.8335780312
 20
10.1542526554
 30
0.0
 10
20.8266195793
 20
10.1539990147
 30
0.0
 10
20.821094412
 20
10.1534329692
 30
0.0
 10
20.8156395459
 20
10.1526284089
 30
0.0
 10
20.808953881
 20
10.1511886499
 30
0.0
 10
20.8012053115
 20
10.1487892529
 30
0.0
 10
20.7938439534
 20
10.1457565028
 30
0.0
 10
20.7880708502
 20
10.1427079816
 30
0.0
 10
20.7837421606
 20
10.139977233
 30
0.0
 10
20.7796816159
 20
10.1371015707
 30
0.0
 10
20.7750097911
 20
10.1331861216
 30
0.0
 10
20.7700787309
 20
10.1279995941
 30
0.0
 10
20.7659156335
 20
10.1224244984
 30
0.0
 10
20.7625753721
 20
10.1165290355
 30
0.0
 10
20.7609168897
 20
10.1123848829
 30
0.0
 10
20.7602510685
 20
10.1102912063
 30
0.0
  0
SPLINE
  5
3FC
100
AcDbEntity
  8
0
100
AcDbSpline
 62
9
  6
CONTINUOUS
 70
0
 71
3
 72
25
 73
21
 74
0
 42
0.0000001
 43
0.0000001
 44
0.0000000001
 40
0.0
 40
0.0
 40
0.0
 40
0.0
 40
0.0691948989
 40
0.1386835327
 40
0.2081112046
 40
0.2771117763
 40
0.345333856
 40
0.3790629623
 40
0.4124893205
 40
0.4783181343
 40
0.5426455805
 40
0.6052977688
 40
0.6661505942
 40
0.6958988417
 40
0.7251936548
 40
0.7824913919
 40
0.8383152903
 40
0.8929443077
 40
0.9467060216
 40
1.0
 40
1.0
 40
1.0
 40
1.0
 10
20.7602510685
 20
10.1102912063
 30
0.0
 10
20.757528772
 20
10.1107158135
 30
0.0
 10
20.7520319933
 20
10.1113243888
 30
0.0
 10
20.7437388116
 20
10.1115329883
 30
0.0
 10
20.7354642376
 20
10.1110491616
 30
0.0
 10
20.7273095976
 20
10.1098804223
 30
0.0
 10
20.7206702211
 20
10.1083356788
 30
0.0
 10
20.7155140342
 20
10.1067578216
 30
0.0
 10
20.7105268846
 20
10.1049733102
 30
0.0
 10
20.7045522502
 20
10.1023530128
 30
0.0
 10
20.697837372
 20
10.098606643
 30
0.0
 10
20.6916906161
 20
10.0943234754
 30
0.0
 10
20.6870711134
 20
10.0903154925
 30
0.0
 10
20.6837476673
 20
10.0868846935
 30
0.0
 10
20.6807288804
 20
10.0833677662
 30
0.0
 10
20.677438314
 20
10.078729506
 30
0.0
 10
20.6742913357
 20
10.0728168863
 30
0.0
 10
20.672003436
 20
10.066669758
 30
0.0
 10
20.6706055262
 20
10.0603647101
 30
0.0
 10
20.6702875416
 20
10.0560957367
 30
0.0
 10
20.6702875416
 20
10.0539736702
 30
0.0
  0
SPLINE
  5
3FD
100
AcDbEntity
  8
0
100
AcDbSpline
 62
9
  6
CONTINUOUS
 70
0
 71
3
 72
22
 73
18
 74
0
 42
0.0000001
 43
0.0000001
 44
0.0000000001
 40
0.0
 40
0.0
 40
0.0
 40
0.0
 40
0.1408135675
 40
0.2104316854
 40
0.2791711276
 40
0.3468044812
 40
0.4131341386
 40
0.4780156132
 40
0.541392474
 40
0.6634207174
 40
0.7222453156
 40
0.7796652861
 40
0.8079099832
 40
0.8358764247
 40
0.8911099193
 40
0.9457123817
 40
1.0
 40
1.0
 40
1.0
 40
1.0
 10
20.6702931189
 20
10.0532824178
 30
0.0
 10
20.6655723693
 20
10.0530997709
 30
0.0
 10
20.6585233721
 20
10.052300674
 30
0.0
 10
20.6493847947
 20
10.0502225906
 30
0.0
 10
20.6427725134
 20
10.0481881406
 30
0.0
 10
20.636440205
 20
10.0456890544
 30
0.0
 10
20.6304464806
 20
10.0427424201
 30
0.0
 10
20.6248516661
 20
10.0393599469
 30
0.0
 10
20.6180776085
 20
10.0343851776
 30
0.0
 10
20.6121503371
 20
10.0286393096
 30
0.0
 10
20.607321596
 20
10.0222538479
 30
0.0
 10
20.6048239162
 20
10.0180859446
 30
0.0
 10
20.6031539483
 20
10.0146566991
 30
0.0
 10
20.6017187808
 20
10.0112021266
 30
0.0
 10
20.6003301298
 20
10.0067794869
 30
0.0
 10
20.5993248042
 20
10.0013528947
 30
0.0
 10
20.5991005989
 20
9.9976956951
 30
0.0
 10
20.5991005989
 20
9.9958743507
 30
0.0
  0
SPLINE
  5
3FE
100
AcDbEntity
  8
0
100
AcDbSpline
 62
9
  6
CONTINUOUS
 70
0
 71
3
 72
21
 73
17
 74
0
 42
0.0000001
 43
0.0000001
 44
0.0000000001
 40
0.0
 40
0.0
 40
0.0
 40
0.0
 40
0.1406056767
 40
0.2772267059
 40
0.3438151201
 40
0.4091197377
 40
0.4730917797
 40
0.5357254344
 40
0.5970810687
 40
0.6572441715
 40
0.7163096248
 40
0.774388232
 40
0.8316137293
 40
0.8881498994
 40
0.9441974094
 40
1.0
 40
1.0
 40
1.0
 40
1.0
 10
20.5990688764
 20
9.9802658073
 30
0.0
 10
20.5954866245
 20
9.9792975076
 30
0.0
 10
20.5885343462
 20
9.9769476138
 30
0.0
 10
20.5803550113
 20
9.9729552585
 30
0.0
 10
20.5743353836
 20
9.9692062333
 30
0.0
 10
20.5701497493
 20
9.9661648849
 30
0.0
 10
20.5662833403
 20
9.9628854502
 30
0.0
 10
20.5627652498
 20
9.9593803679
 30
0.0
 10
20.559613641
 20
9.9556732493
 30
0.0
 10
20.556840931
 20
9.9517897392
 30
0.0
 10
20.5544601297
 20
9.9477541648
 30
0.0
 10
20.5524841009
 20
9.9435910207
 30
0.0
 10
20.5509259043
 20
9.9393247804
 30
0.0
 10
20.5497987148
 20
9.9349798035
 30
0.0
 10
20.5491159267
 20
9.9305811548
 30
0.0
 10
20.5489657937
 20
9.927626916
 30
0.0
 10
20.5489657937
 20
9.9261541947
 30
0.0
  0
SPLINE
  5
3FF
100
AcDbEntity
  8
0
100
AcDbSpline
 62
9
  6
CONTINUOUS
 70
0
 71
3
 72
14
 73
10
 74
0
 42
0.0000001
 43
0.0000001
 44
0.0000000001
 40
0.0
 40
0.0
 40
0.0
 40
0.0
 40
0.2688747165
 40
0.3978256025
 40
0.5231540434
 40
0.6452999527
 40
0.7649781798
 40
0.8829478734
 40
1.0
 40
1.0
 40
1.0
 40
1.0
 10
20.5488988947
 20
9.8922377846
 30
0.0
 10
20.5449778406
 20
9.8896183458
 30
0.0
 10
20.5395212998
 20
9.8851625471
 30
0.0
 10
20.5334681739
 20
9.8782473237
 30
0.0
 10
20.5297263532
 20
9.8727868164
 30
0.0
 10
20.5267897618
 20
9.8670359662
 30
0.0
 10
20.5246761499
 20
9.8610704469
 30
0.0
 10
20.5233977036
 20
9.8549640444
 30
0.0
 10
20.5231102245
 20
9.850836765
 30
0.0
 10
20.5231101828
 20
9.848783907
 30
0.0
  0
SPLINE
  5
400
100
AcDbEntity
  8
0
100
AcDbSpline
 62
9
  6
CONTINUOUS
 70
0
 71
3
 72
25
 73
21
 74
0
 42
0.0000001
 43
0.0000001
 44
0.0000000001
 40
0.0
 40
0.0
 40
0.0
 40
0.0
 40
0.0529140895
 40
0.1067211776
 40
0.1617538704
 40
0.2182543611
 40
0.2764043328
 40
0.3061575633
 40
0.3363710622
 40
0.3981313213
 40
0.4615858823
 40
0.526533609
 40
0.5927319184
 40
0.6262289851
 40
0.6599439584
 40
0.7278691585
 40
0.7961992221
 40
0.8645730204
 40
0.932622658
 40
1.0
 40
1.0
 40
1.0
 40
1.0
 10
21.3067056278
 20
7.9627554812
 30
0.0
 10
21.3063889378
 20
7.9648876025
 30
0.0
 10
21.3054269668
 20
7.9691458271
 30
0.0
 10
21.3030775996
 20
7.9753228597
 30
0.0
 10
21.2998575115
 20
7.9812605848
 30
0.0
 10
21.2958105337
 20
7.9868854478
 30
0.0
 10
21.291813261
 20
7.9912214718
 30
0.0
 10
21.2882553511
 20
7.9944640117
 30
0.0
 10
21.2844041806
 20
7.997591396
 30
0.0
 10
21.2791682155
 20
8.0011737916
 30
0.0
 10
21.2723575133
 20
8.0048895837
 30
0.0
 10
21.265059417
 20
8.0080134882
 30
0.0
 10
21.2586683425
 20
8.0100800611
 30
0.0
 10
21.25339482
 20
8.0113999687
 30
0.0
 10
21.2479978225
 20
8.0124932821
 30
0.0
 10
21.2411255445
 20
8.0134126175
 30
0.0
 10
21.2327896713
 20
8.0138102528
 30
0.0
 10
21.2244442804
 20
8.0135074539
 30
0.0
 10
21.2161932151
 20
8.0125065483
 30
0.0
 10
21.2107865093
 20
8.0113670157
 30
0.0
 10
21.2081297634
 20
8.0106778011
 30
0.0
  0
SPLINE
  5
401
100
AcDbEntity
  8
0
100
AcDbSpline
 62
7
  6
CONTINUOUS
 70
0
 71
3
 72
10
 73
6
 74
0
 42
0.0000001
 43
0.0000001
 44
0.0000000001
 40
0.0
 40
0.0
 40
0.0
 40
0.0
 40
0.4763976906
 40
0.7319771036
 40
1.0
 40
1.0
 40
1.0
 40
1.0
 10
21.3067056278
 20
7.9627554812
 30
0.0
 10
21.3067056278
 20
7.9563292249
 30
0.0
 10
21.3062000995
 20
7.9464502918
 30
0.0
 10
21.3046772686
 20
7.9330456933
 30
0.0
 10
21.3036043284
 20
7.9260622795
 30
0.0
 10
21.3029918482
 20
7.9224991037
 30
0.0
  0
SPLINE
  5
402
100
AcDbEntity
  8
0
100
AcDbSpline
 62
9
  6
CONTINUOUS
 70
0
 71
3
 72
25
 73
21
 74
0
 42
0.0000001
 43
0.0000001
 44
0.0000000001
 40
0.0
 40
0.0
 40
0.0
 40
0.0
 40
0.0539155754
 40
0.1093670625
 40
0.1664775233
 40
0.2252796877
 40
0.2857513921
 40
0.3166090129
 40
0.3478601425
 40
0.4114218024
 40
0.4761978271
 40
0.541878444
 40
0.6081327041
 40
0.6413802223
 40
0.6746512397
 40
0.7410996813
 40
0.8071800857
 40
0.8725633769
 40
0.9369304783
 40
1.0
 40
1.0
 40
1.0
 40
1.0
 10
21.2081297634
 20
8.0106778011
 30
0.0
 10
21.2071235167
 20
8.012697319
 30
0.0
 10
21.2047944258
 20
8.0166557951
 30
0.0
 10
21.2005193436
 20
8.0221774211
 30
0.0
 10
21.1954814156
 20
8.0273035852
 30
0.0
 10
21.1897456223
 20
8.0319720518
 30
0.0
 10
21.1844710467
 20
8.0354082726
 30
0.0
 10
21.1799698777
 20
8.0378728342
 30
0.0
 10
21.1752338755
 20
8.040164122
 30
0.0
 10
21.1690165115
 20
8.0426321663
 30
0.0
 10
21.1612196852
 20
8.0449352521
 30
0.0
 10
21.1531418493
 20
8.0465732253
 30
0.0
 10
21.146264999
 20
8.0473623642
 30
0.0
 10
21.1407138608
 20
8.0476375882
 30
0.0
 10
21.1351478389
 20
8.0476690131
 30
0.0
 10
21.1282122392
 20
8.0472548847
 30
0.0
 10
21.1200071603
 20
8.0460557661
 30
0.0
 10
21.1120194249
 20
8.0441760141
 30
0.0
 10
21.1043488645
 20
8.041637603
 30
0.0
 10
21.0994544508
 20
8.0394946258
 30
0.0
 10
21.0970932628
 20
8.0383151112
 30
0.0
  0
SPLINE
  5
403
100
AcDbEntity
  8
0
100
AcDbSpline
 62
7
  6
CONTINUOUS
 70
0
 71
3
 72
11
 73
7
 74
0
 42
0.0000001
 43
0.0000001
 44
0.0000000001
 40
0.0
 40
0.0
 40
0.0
 40
0.0
 40
0.228154497
 40
0.4704862156
 40
0.7275814205
 40
1.0
 40
1.0
 40
1.0
 40
1.0
 10
21.2081297634
 20
8.0106778011
 30
0.0
 10
21.2081297634
 20
8.0070458841
 30
0.0
 10
21.2079848183
 20
7.9995558563
 30
0.0
 10
21.207366736
 20
7.9879883253
 30
0.0
 10
21.2063323193
 20
7.9757434347
 30
0.0
 10
21.2053868821
 20
7.9673662861
 30
0.0
 10
21.2048469619
 20
7.9630634862
 30
0.0
  0
SPLINE
  5
404
100
AcDbEntity
  8
0
100
AcDbSpline
 62
9
  6
CONTINUOUS
 70
0
 71
3
 72
23
 73
19
 74
0
 42
0.0000001
 43
0.0000001
 44
0.0000000001
 40
0.0
 40
0.0
 40
0.0
 40
0.0
 40
0.1152285872
 40
0.175447509
 40
0.2371708452
 40
0.3002147903
 40
0.3321800535
 40
0.364399822
 40
0.4294408495
 40
0.4950272463
 40
0.5608005323
 40
0.6263981752
 40
0.659030987
 40
0.6914959604
 40
0.755779274
 40
0.8190157704
 40
0.8809603464
 40
1.0
 40
1.0
 40
1.0
 40
1.0
 10
21.0970932628
 20
8.0383151112
 30
0.0
 10
21.0937800722
 20
8.0419008768
 30
0.0
 10
21.0880388265
 20
8.0467486495
 30
0.0
 10
21.0794614965
 20
8.0519993472
 30
0.0
 10
21.0723983018
 20
8.055427447
 30
0.0
 10
21.0661684421
 20
8.0577553795
 30
0.0
 10
21.0609987686
 20
8.0592885594
 30
0.0
 10
21.0556819427
 20
8.0606027151
 30
0.0
 10
21.0488787747
 20
8.0618083599
 30
0.0
 10
21.0405815766
 20
8.0625573513
 30
0.0
 10
21.0322272775
 20
8.0626088931
 30
0.0
 10
21.0252906653
 20
8.0620650393
 30
0.0
 10
21.019808654
 20
8.061272512
 30
0.0
 10
21.0144222123
 20
8.0602461483
 30
0.0
 10
21.0078544816
 20
8.0585314722
 30
0.0
 10
21.0002898524
 20
8.0558082796
 30
0.0
 10
20.9909124233
 20
8.0514160726
 30
0.0
 10
20.9844419952
 20
8.0471663175
 30
0.0
 10
20.9805729577
 20
8.0439308576
 30
0.0
  0
SPLINE
  5
405
100
AcDbEntity
  8
0
100
AcDbSpline
 62
7
  6
CONTINUOUS
 70
0
 71
3
 72
11
 73
7
 74
0
 42
0.0000001
 43
0.0000001
 44
0.0000000001
 40
0.0
 40
0.0
 40
0.0
 40
0.0
 40
0.2258346243
 40
0.4674873486
 40
0.725397935
 40
1.0
 40
1.0
 40
1.0
 40
1.0
 10
21.0970932628
 20
8.0383151112
 30
0.0
 10
21.0970932628
 20
8.0344505808
 30
0.0
 10
21.0970208756
 20
8.0264507269
 30
0.0
 10
21.0967148495
 20
8.014040914
 30
0.0
 10
21.0962028086
 20
8.0008027449
 30
0.0
 10
21.0957356942
 20
7.9917020009
 30
0.0
 10
21.0954688413
 20
7.9870105348
 30
0.0
  0
SPLINE
  5
406
100
AcDbEntity
  8
0
100
AcDbSpline
 62
9
  6
CONTINUOUS
 70
0
 71
3
 72
25
 73
21
 74
0
 42
0.0000001
 43
0.0000001
 44
0.0000000001
 40
0.0
 40
0.0
 40
0.0
 40
0.0
 40
0.0608611516
 40
0.123242725
 40
0.1869176106
 40
0.2516109595
 40
0.3170293632
 40
0.3499281517
 40
0.3829010785
 40
0.4488951866
 40
0.5146879923
 40
0.5799261178
 40
0.644268526
 40
0.6760161285
 40
0.7074328688
 40
0.7691773345
 40
0.829388951
 40
0.8879583526
 40
0.9448225854
 40
1.0
 40
1.0
 40
1.0
 40
1.0
 10
20.9805729577
 20
8.0439308576
 30
0.0
 10
20.9784193359
 20
8.0453303924
 30
0.0
 10
20.9739030868
 20
8.0479315459
 30
0.0
 10
20.9667053654
 20
8.0511858149
 30
0.0
 10
20.9590856552
 20
8.0538165705
 30
0.0
 10
20.9511394107
 20
8.0557925078
 30
0.0
 10
20.9443347909
 20
8.0568661623
 30
0.0
 10
20.9388154214
 20
8.0573682968
 30
0.0
 10
20.9332550346
 20
8.0576282265
 30
0.0
 10
20.9262939175
 20
8.0575036899
 30
0.0
 10
20.9180131187
 20
8.0566523763
 30
0.0
 10
20.9099027192
 20
8.0551144551
 30
0.0
 10
20.9033403826
 20
8.0532640093
 30
0.0
 10
20.8982733882
 20
8.0514475381
 30
0.0
 10
20.8934005089
 20
8.0494326252
 30
0.0
 10
20.8876037806
 20
8.046527899
 30
0.0
 10
20.8811542755
 20
8.0424489837
 30
0.0
 10
20.8753223447
 20
8.0378504369
 30
0.0
 10
20.870182204
 20
8.0327878564
 30
0.0
 10
20.8672214432
 20
8.0290827076
 30
0.0
 10
20.8658902475
 20
8.0271721822
 30
0.0
  0
SPLINE
  5
407
100
AcDbEntity
  8
0
100
AcDbSpline
 62
9
  6
CONTINUOUS
 70
0
 71
3
 72
25
 73
21
 74
0
 42
0.0000001
 43
0.0000001
 44
0.0000000001
 40
0.0
 40
0.0
 40
0.0
 40
0.0
 40
0.0652755557
 40
0.1315621227
 40
0.198537945
 40
0.2658528259
 40
0.3331549093
 40
0.3667053383
 40
0.4001337515
 40
0.4664648365
 40
0.5318674706
 40
0.5960472915
 40
0.6587407784
 40
0.6894745316
 40
0.7197700846
 40
0.7790239555
 40
0.8365639921
 40
0.8924664319
 40
0.9468680286
 40
1.0
 40
1.0
 40
1.0
 40
1.0
 10
20.8658902475
 20
8.0271721822
 30
0.0
 10
20.8633605785
 20
8.0281135076
 30
0.0
 10
20.858168058
 20
8.0297664994
 30
0.0
 10
20.8501445544
 20
8.0315499399
 30
0.0
 10
20.8419136623
 20
8.0326497074
 30
0.0
 10
20.8335780312
 20
8.0330535434
 30
0.0
 10
20.8266195793
 20
8.0327999027
 30
0.0
 10
20.821094412
 20
8.0322338572
 30
0.0
 10
20.8156395459
 20
8.0314292969
 30
0.0
 10
20.808953881
 20
8.029989538
 30
0.0
 10
20.8012053115
 20
8.0275901409
 30
0.0
 10
20.7938439534
 20
8.0245573909
 30
0.0
 10
20.7880708502
 20
8.0215088696
 30
0.0
 10
20.7837421606
 20
8.0187781211
 30
0.0
 10
20.7796816159
 20
8.0159024587
 30
0.0
 10
20.7750097911
 20
8.0119870097
 30
0.0
 10
20.7700787309
 20
8.0068004821
 30
0.0
 10
20.7659156335
 20
8.0012253864
 30
0.0
 10
20.7625753721
 20
7.9953299236
 30
0.0
 10
20.7609168897
 20
7.9911857709
 30
0.0
 10
20.7602510685
 20
7.9890920943
 30
0.0
  0
SPLINE
  5
408
100
AcDbEntity
  8
0
100
AcDbSpline
 62
7
  6
CONTINUOUS
 70
0
 71
3
 72
11
 73
7
 74
0
 42
0.0000001
 43
0.0000001
 44
0.0000000001
 40
0.0
 40
0.0
 40
0.0
 40
0.0
 40
0.2267816782
 40
0.4687090978
 40
0.7262858524
 40
1.0
 40
1.0
 40
1.0
 40
1.0
 10
20.8658902475
 20
8.0271721822
 30
0.0
 10
20.8658902475
 20
8.0234042201
 30
0.0
 10
20.866003629
 20
8.0156163631
 30
0.0
 10
20.8664846735
 20
8.0035576801
 30
0.0
 10
20.8672896267
 20
7.9907349582
 30
0.0
 10
20.8680245033
 20
7.9819375769
 30
0.0
 10
20.8684442589
 20
7.9774092481
 30
0.0
  0
SPLINE
  5
409
100
AcDbEntity
  8
0
100
AcDbSpline
 62
9
  6
CONTINUOUS
 70
0
 71
3
 72
25
 73
21
 74
0
 42
0.0000001
 43
0.0000001
 44
0.0000000001
 40
0.0
 40
0.0
 40
0.0
 40
0.0
 40
0.0691948894
 40
0.1386835138
 40
0.208111177
 40
0.2771117413
 40
0.3453338158
 40
0.3790629203
 40
0.4124892772
 40
0.4783180905
 40
0.5426455388
 40
0.6052977322
 40
0.6661505652
 40
0.6958988171
 40
0.7251936349
 40
0.7824913809
 40
0.838315287
 40
0.8929443098
 40
0.9467060254
 40
1.0
 40
1.0
 40
1.0
 40
1.0
 10
20.7602510685
 20
7.9890920943
 30
0.0
 10
20.7575287745
 20
7.9895167011
 30
0.0
 10
20.7520320008
 20
7.9901252762
 30
0.0
 10
20.7437388266
 20
7.9903338764
 30
0.0
 10
20.7354642599
 20
7.9898500516
 30
0.0
 10
20.7273096266
 20
7.9886813156
 30
0.0
 10
20.7206702552
 20
7.9871365758
 30
0.0
 10
20.7155140719
 20
7.9855587221
 30
0.0
 10
20.7105269254
 20
7.9837742145
 30
0.0
 10
20.7045522942
 20
7.9811539225
 30
0.0
 10
20.6978374185
 20
7.9774075598
 30
0.0
 10
20.6916906635
 20
7.9731244
 30
0.0
 10
20.6870711601
 20
7.9691164241
 30
0.0
 10
20.6837477124
 20
7.9656856308
 30
0.0
 10
20.6807289231
 20
7.9621687092
 30
0.0
 10
20.6774383527
 20
7.9575304562
 30
0.0
 10
20.6742913678
 20
7.951617845
 30
0.0
 10
20.6720034595
 20
7.9454707246
 30
0.0
 10
20.6706055392
 20
7.939165684
 30
0.0
 10
20.6702875461
 20
7.9348967146
 30
0.0
 10
20.6702875416
 20
7.93277465
 30
0.0
  0
SPLINE
  5
40A
100
AcDbEntity
  8
0
100
AcDbSpline
 62
7
  6
CONTINUOUS
 70
0
 71
3
 72
11
 73
7
 74
0
 42
0.0000001
 43
0.0000001
 44
0.0000000001
 40
0.0
 40
0.0
 40
0.0
 40
0.0
 40
0.23005725
 40
0.4729720794
 40
0.7294096359
 40
1.0
 40
1.0
 40
1.0
 40
1.0
 10
20.7602510685
 20
7.9890920943
 30
0.0
 10
20.7602510685
 20
7.9856557373
 30
0.0
 10
20.7604140277
 20
7.9785902437
 30
0.0
 10
20.7611135637
 20
7.9677148987
 30
0.0
 10
20.7622845109
 20
7.9562715865
 30
0.0
 10
20.763356538
 20
7.9484710345
 30
0.0
 10
20.7639686259
 20
7.9444758518
 30
0.0
  0
LINE
  5
40B
100
AcDbEntity
  8
0
100
AcDbLine
 62
9
  6
CONTINUOUS
 10
20.6702931189
 20
7.9320833058
 11
20.6701019378
 21
7.9320757161
  0
SPLINE
  5
40C
100
AcDbEntity
  8
0
100
AcDbSpline
 62
9
  6
CONTINUOUS
 70
0
 71
3
 72
22
 73
18
 74
0
 42
0.0000001
 43
0.0000001
 44
0.0000000001
 40
0.0
 40
0.0
 40
0.0
 40
0.0
 40
0.1408249049
 40
0.2104411131
 40
0.2791747864
 40
0.3467996732
 40
0.4131195291
 40
0.4779916302
 40
0.5413608988
 40
0.6633807612
 40
0.7222049754
 40
0.7796276639
 40
0.8078749051
 40
0.8358447181
 40
0.8910871612
 40
0.9457005286
 40
1.0
 40
1.0
 40
1.0
 40
1.0
 10
20.6701019378
 20
7.9320757161
 30
0.0
 10
20.665390184
 20
7.9318839089
 30
0.0
 10
20.6583559136
 20
7.9310733669
 30
0.0
 10
20.6492381404
 20
7.9289839065
 30
0.0
 10
20.6426422385
 20
7.9269429878
 30
0.0
 10
20.6363265695
 20
7.9244393316
 30
0.0
 10
20.6303494511
 20
7.9214899075
 30
0.0
 10
20.6247708835
 20
7.9181064359
 30
0.0
 10
20.6180168467
 20
7.9131329548
 30
0.0
 10
20.6121078663
 20
7.9073918234
 30
0.0
 10
20.6072945729
 20
7.9010141043
 30
0.0
 10
20.6048050477
 20
7.8968519543
 30
0.0
 10
20.6031406239
 20
7.8934277809
 30
0.0
 10
20.6017102108
 20
7.8899784223
 30
0.0
 10
20.600326158
 20
7.885562826
 30
0.0
 10
20.5993241411
 20
7.8801452803
 30
0.0
 10
20.5991006314
 20
7.8764943061
 30
0.0
 10
20.5991005989
 20
7.8746760365
 30
0.0
  0
SPLINE
  5
40D
100
AcDbEntity
  8
0
100
AcDbSpline
 62
9
  6
CONTINUOUS
 70
0
 71
3
 72
21
 73
17
 74
0
 42
0.0000001
 43
0.0000001
 44
0.0000000001
 40
0.0
 40
0.0
 40
0.0
 40
0.0
 40
0.1406626954
 40
0.277366657
 40
0.3439993903
 40
0.4093451431
 40
0.4733512477
 40
0.5360071912
 40
0.5973699512
 40
0.6575258497
 40
0.716570611
 40
0.7746159141
 40
0.8317966293
 40
0.8882781731
 40
0.9442635926
 40
1.0
 40
1.0
 40
1.0
 40
1.0
 10
20.5998246313
 20
7.8592674427
 30
0.0
 10
20.5961971657
 20
7.8583208244
 30
0.0
 10
20.589153197
 20
7.856004097
 30
0.0
 10
20.5808588492
 20
7.8520313455
 30
0.0
 10
20.5747498457
 20
7.8482852253
 30
0.0
 10
20.5704999677
 20
7.8452401559
 30
0.0
 10
20.5665723638
 20
7.8419516258
 30
0.0
 10
20.5629969447
 20
7.8384322967
 30
0.0
 10
20.5597935439
 20
7.8347053983
 30
0.0
 10
20.5569748049
 20
7.8307975541
 30
0.0
 10
20.5545541247
 20
7.8267336727
 30
0.0
 10
20.5525446888
 20
7.8225389018
 30
0.0
 10
20.5509598991
 20
7.8182383468
 30
0.0
 10
20.5498132854
 20
7.8138569992
 30
0.0
 10
20.5491185693
 20
7.8094205772
 30
0.0
 10
20.5489657937
 20
7.8064405708
 30
0.0
 10
20.5489657937
 20
7.8049550827
 30
0.0
  0
SPLINE
  5
40E
100
AcDbEntity
  8
0
100
AcDbSpline
 62
9
  6
CONTINUOUS
 70
0
 71
3
 72
16
 73
12
 74
0
 42
0.0000001
 43
0.0000001
 44
0.0000000001
 40
0.0
 40
0.0
 40
0.0
 40
0.0
 40
0.1353314516
 40
0.2671433363
 40
0.3954918871
 40
0.4584557139
 40
0.5206574769
 40
0.643014783
 40
0.7632527482
 40
0.8820213941
 40
1.0
 40
1.0
 40
1.0
 40
1.0
 10
20.54513149
 20
7.7683433414
 30
0.0
 10
20.5434120184
 20
7.7670265466
 30
0.0
 10
20.540135681
 20
7.7642679741
 30
0.0
 10
20.5357115776
 20
7.7597277562
 30
0.0
 10
20.5325029719
 20
7.7556581472
 30
0.0
 10
20.5302689709
 20
7.7522690981
 30
0.0
 10
20.5282850094
 20
7.7488382869
 30
0.0
 10
20.5262230422
 20
7.7444037227
 30
0.0
 10
20.5244342386
 20
7.7388891458
 30
0.0
 10
20.5233529955
 20
7.7332649755
 30
0.0
 10
20.5231101828
 20
7.7294719541
 30
0.0
 10
20.5231101828
 20
7.7275838952
 30
0.0
  0
SPLINE
  5
40F
100
AcDbEntity
  8
0
100
AcDbSpline
 62
9
  6
CONTINUOUS
 70
0
 71
3
 72
33
 73
29
 74
0
 42
0.0000001
 43
0.0000001
 44
0.0000000001
 40
0.0
 40
0.0
 40
0.0
 40
0.0
 40
0.0793441544
 40
0.1183177407
 40
0.1568037147
 40
0.1947831893
 40
0.2322373891
 40
0.3055446302
 40
0.3413982887
 40
0.3766990107
 40
0.4114234677
 40
0.4455584598
 40
0.4791094209
 40
0.5120842947
 40
0.5444729304
 40
0.5762509959
 40
0.6378887382
 40
0.6677263615
 40
0.6968988418
 40
0.7532601932
 40
0.807048734
 40
0.8330241978
 40
0.8584121171
 40
0.8832348739
 40
0.9075207919
 40
0.9313069728
 40
0.954634191
 40
1.0
 40
1.0
 40
1.0
 40
1.0
 10
21.7300923603
 20
5.7024495572
 30
0.0
 10
21.7373417353
 20
5.7006715797
 30
0.0
 10
21.7481205043
 20
5.6978886154
 30
0.0
 10
21.7623270633
 20
5.6939162133
 30
0.0
 10
21.7727455989
 20
5.6908507479
 30
0.0
 10
21.7829862649
 20
5.6876904843
 30
0.0
 10
21.7963032321
 20
5.6833941181
 30
0.0
 10
21.8093437774
 20
5.6788939847
 30
0.0
 10
21.8220772579
 20
5.6741439018
 30
0.0
 10
21.8313528057
 20
5.6705130245
 30
0.0
 10
21.8404210548
 20
5.6667995001
 30
0.0
 10
21.8492781477
 20
5.6630077467
 30
0.0
 10
21.8579168705
 20
5.6591275639
 30
0.0
 10
21.8663293661
 20
5.6551489192
 30
0.0
 10
21.874511001
 20
5.651076461
 30
0.0
 10
21.8850004046
 20
5.6455946067
 30
0.0
 10
21.895119299
 20
5.6399258357
 30
0.0
 10
21.9048483406
 20
5.6340795278
 30
0.0
 10
21.9140344493
 20
5.6282978854
 30
0.0
 10
21.9248996226
 20
5.6209593477
 30
0.0
 10
21.9351525342
 20
5.6132757976
 30
0.0
 10
21.9428067683
 20
5.607007535
 30
0.0
 10
21.9482126224
 20
5.6022999242
 30
0.0
 10
21.953347595
 20
5.5975286477
 30
0.0
 10
21.9582087541
 20
5.5926898809
 30
0.0
 10
21.962792541
 20
5.5877777188
 30
0.0
 10
21.9684733494
 20
5.5811867705
 30
0.0
 10
21.9723908569
 20
5.5760343505
 30
0.0
 10
21.9748183378
 20
5.5725242254
 30
0.0
  0
SPLINE
  5
410
100
AcDbEntity
  8
0
100
AcDbSpline
 62
9
  6
CONTINUOUS
 70
0
 71
3
 72
19
 73
15
 74
0
 42
0.0000001
 43
0.0000001
 44
0.0000000001
 40
0.0
 40
0.0
 40
0.0
 40
0.0
 40
0.1256183487
 40
0.2515899815
 40
0.3146262932
 40
0.3775815302
 40
0.4403752666
 40
0.5030294047
 40
0.5655902813
 40
0.628105267
 40
0.6905977872
 40
0.7529857344
 40
0.8770822004
 40
1.0
 40
1.0
 40
1.0
 40
1.0
 10
21.7300923603
 20
5.7024495572
 30
0.0
 10
21.7300043761
 20
5.7294737879
 30
0.0
 10
21.7278286165
 20
5.7836108909
 30
0.0
 10
21.7201620371
 20
5.8509247597
 30
0.0
 10
21.7110639255
 20
5.9043713611
 30
0.0
 10
21.7027857176
 20
5.9441419012
 30
0.0
 10
21.6930755465
 20
5.9835021251
 30
0.0
 10
21.6819578015
 20
6.0223998813
 30
0.0
 10
21.6694529061
 20
6.0608111037
 30
0.0
 10
21.6555563466
 20
6.0987041823
 30
0.0
 10
21.6402764756
 20
6.1360211972
 30
0.0
 10
21.6181623633
 20
6.1848169444
 30
0.0
 10
21.5873544188
 20
6.2438903617
 30
0.0
 10
21.5593587097
 20
6.2891238024
 30
0.0
 10
21.544612657
 20
6.3110739157
 30
0.0
  0
SPLINE
  5
411
100
AcDbEntity
  8
0
100
AcDbSpline
 62
9
  6
CONTINUOUS
 70
0
 71
3
 72
22
 73
18
 74
0
 42
0.0000001
 43
0.0000001
 44
0.0000000001
 40
0.0
 40
0.0
 40
0.0
 40
0.0
 40
0.16246077
 40
0.2398355702
 40
0.3145547733
 40
0.3865653307
 40
0.4558233944
 40
0.5222962831
 40
0.5859649385
 40
0.6468269987
 40
0.7049011913
 40
0.7602341563
 40
0.8129040377
 40
0.8630264535
 40
0.9107624912
 40
0.9563275172
 40
1.0
 40
1.0
 40
1.0
 40
1.0
 10
21.544612657
 20
6.3110739157
 30
0.0
 10
21.5526522414
 20
6.3102839846
 30
0.0
 10
21.5645045299
 20
6.3089313774
 30
0.0
 10
21.5799852045
 20
6.3066904125
 30
0.0
 10
21.5909770241
 20
6.3048517231
 30
0.0
 10
21.6015245478
 20
6.3028218006
 30
0.0
 10
21.6116128723
 20
6.3005944435
 30
0.0
 10
21.6212270743
 20
6.2981635163
 30
0.0
 10
21.6303522989
 20
6.2955228132
 30
0.0
 10
21.638973778
 20
6.292666069
 30
0.0
 10
21.647076932
 20
6.2895868127
 30
0.0
 10
21.6546475681
 20
6.2862788022
 30
0.0
 10
21.6616717342
 20
6.2827355549
 30
0.0
 10
21.6681353922
 20
6.2789503582
 30
0.0
 10
21.6740245437
 20
6.2749159085
 30
0.0
 10
21.679324017
 20
6.2706254509
 30
0.0
 10
21.6825144937
 20
6.2675301553
 30
0.0
 10
21.6839946524
 20
6.2659411415
 30
0.0
  0
LINE
  5
412
100
AcDbEntity
  8
0
100
AcDbLine
 62
9
  6
CONTINUOUS
 10
21.544612657
 20
6.3110739157
 11
21.5190633195
 21
6.3490849843
  0
SPLINE
  5
413
100
AcDbEntity
  8
0
100
AcDbSpline
 62
9
  6
CONTINUOUS
 70
0
 71
3
 72
21
 73
17
 74
0
 42
0.0000001
 43
0.0000001
 44
0.0000000001
 40
0.0
 40
0.0
 40
0.0
 40
0.0
 40
0.0501805192
 40
0.1030182376
 40
0.1583173346
 40
0.2158705949
 40
0.2754624262
 40
0.3368710365
 40
0.3998700451
 40
0.4642297075
 40
0.5297177882
 40
0.5961000796
 40
0.7306058288
 40
0.8658631504
 40
0.9331877738
 40
1.0
 40
1.0
 40
1.0
 40
1.0
 10
21.544612657
 20
6.3110739157
 30
0.0
 10
21.5357056361
 20
6.3119490769
 30
0.0
 10
21.5173903738
 20
6.3134511846
 30
0.0
 10
21.4891962792
 20
6.3150399082
 30
0.0
 10
21.4596614354
 20
6.3160857109
 30
0.0
 10
21.428909257
 20
6.3166495689
 30
0.0
 10
21.3970629388
 20
6.3167925769
 30
0.0
 10
21.3642460343
 20
6.316575951
 30
0.0
 10
21.3305821935
 20
6.3160610057
 30
0.0
 10
21.2961951871
 20
6.315309117
 30
0.0
 10
21.2612089256
 20
6.3143817815
 30
0.0
 10
21.2137200161
 20
6.312987605
 30
0.0
 10
21.1537960551
 20
6.311125378
 30
0.0
 10
21.0936961033
 20
6.3095074679
 30
0.0
 10
21.0456567912
 20
6.3085991555
 30
0.0
 10
21.0217342668
 20
6.308316354
 30
0.0
 10
21.0098183383
 20
6.3082289694
 30
0.0
  0
SPLINE
  5
414
100
AcDbEntity
  8
0
100
AcDbSpline
 62
9
  6
CONTINUOUS
 70
0
 71
3
 72
13
 73
9
 74
0
 42
0.0000001
 43
0.0000001
 44
0.0000000001
 40
0.0
 40
0.0
 40
0.0
 40
0.0
 40
0.2479188936
 40
0.3723779892
 40
0.4971708471
 40
0.6223193729
 40
0.7478434683
 40
1.0
 40
1.0
 40
1.0
 40
1.0
 10
21.7300923603
 20
5.7024495578
 30
0.0
 10
21.7246770221
 20
5.7038111922
 30
0.0
 10
21.7165328219
 20
5.7058159026
 30
0.0
 10
21.7056381964
 20
5.7084042021
 30
0.0
 10
21.6974238022
 20
5.7103105097
 30
0.0
 10
21.6891779959
 20
5.7121871624
 30
0.0
 10
21.6781268768
 20
5.7146639861
 30
0.0
 10
21.6698171661
 20
5.7164837224
 30
0.0
 10
21.6642646894
 20
5.7176774377
 30
0.0
  0
SPLINE
  5
415
100
AcDbEntity
  8
0
100
AcDbSpline
 62
9
  6
CONTINUOUS
 70
0
 71
3
 72
48
 73
44
 74
0
 42
0.0000001
 43
0.0000001
 44
0.0000000001
 40
0.0
 40
0.0
 40
0.0
 40
0.0
 40
0.0587811056
 40
0.0884354593
 40
0.1182557352
 40
0.1783825995
 40
0.2086874012
 40
0.2391492452
 40
0.269760682
 40
0.3005138041
 40
0.3314007236
 40
0.362411916
 40
0.3935375118
 40
0.4091404648
 40
0.424768894
 40
0.4404227724
 40
0.4561024819
 40
0.4718082768
 40
0.487540297
 40
0.5032985896
 40
0.5190831078
 40
0.5507277066
 40
0.5824650154
 40
0.6142855851
 40
0.6461812786
 40
0.6781453649
 40
0.7101692418
 40
0.726198971
 40
0.7422384216
 40
0.7582868154
 40
0.7743441848
 40
0.7904105429
 40
0.8064855706
 40
0.8225688964
 40
0.8386612155
 40
0.8547631959
 40
0.8708752391
 40
0.9031267504
 40
0.9192642975
 40
0.9354080953
 40
0.9515558959
 40
0.9677068217
 40
1.0
 40
1.0
 40
1.0
 40
1.0
 10
21.6642646894
 20
5.7176774377
 30
0.0
 10
21.6516467904
 20
5.7204251422
 30
0.0
 10
21.6326299601
 20
5.7244081498
 30
0.0
 10
21.6071386954
 20
5.729422641
 30
0.0
 10
21.5813153495
 20
5.7342762643
 30
0.0
 10
21.5552944284
 20
5.7388461267
 30
0.0
 10
21.529094947
 20
5.7432020964
 30
0.0
 10
21.5092744094
 20
5.7463879618
 30
0.0
 10
21.4893383668
 20
5.749473717
 30
0.0
 10
21.4692913029
 20
5.7524502768
 30
0.0
 10
21.4491385584
 20
5.7553103793
 30
0.0
 10
21.4288838931
 20
5.758031043
 30
0.0
 10
21.4119376233
 20
5.7601554296
 30
0.0
 10
21.3983323349
 20
5.7617571355
 30
0.0
 10
21.3880963206
 20
5.7629058
 30
0.0
 10
21.3778378865
 20
5.7640045823
 30
0.0
 10
21.3675579249
 20
5.765060978
 30
0.0
 10
21.3572571044
 20
5.7660815729
 30
0.0
 10
21.3469361262
 20
5.7670732823
 30
0.0
 10
21.3365956582
 20
5.7680426275
 30
0.0
 10
21.3227726128
 20
5.7693166221
 30
0.0
 10
21.3054507277
 20
5.7708776685
 30
0.0
 10
21.2846133592
 20
5.7726788227
 30
0.0
 10
21.2637131426
 20
5.7743912478
 30
0.0
 10
21.2427545538
 20
5.7759983609
 30
0.0
 10
21.2217424865
 20
5.7774869683
 30
0.0
 10
21.2041993829
 20
5.7786157982
 30
0.0
 10
21.1901395521
 20
5.779382385
 30
0.0
 10
21.1795798358
 20
5.7798725419
 30
0.0
 10
21.1690096576
 20
5.7802577095
 30
0.0
 10
21.1584303328
 20
5.78053947
 30
0.0
 10
21.1478431053
 20
5.7807275153
 30
0.0
 10
21.1372490146
 20
5.780830041
 30
0.0
 10
21.1266487921
 20
5.7808537696
 30
0.0
 10
21.116042712
 20
5.7808277638
 30
0.0
 10
21.1054303869
 20
5.7807839704
 30
0.0
 10
21.0912680503
 20
5.7807447306
 30
0.0
 10
21.0770974654
 20
5.780789999
 30
0.0
 10
21.062921725
 20
5.7810077225
 30
0.0
 10
21.0522856532
 20
5.7812820789
 30
0.0
 10
21.0416509858
 20
5.7816980324
 30
0.0
 10
21.0274821673
 20
5.7824814958
 30
0.0
 10
21.0168722586
 20
5.7833678484
 30
0.0
 10
21.0098183383
 20
5.7841253875
 30
0.0
  0
SPLINE
  5
416
100
AcDbEntity
  8
0
100
AcDbSpline
 62
7
  6
CONTINUOUS
 70
0
 71
3
 72
18
 73
14
 74
0
 42
0.0000001
 43
0.0000001
 44
0.0000000001
 40
0.0
 40
0.0
 40
0.0
 40
0.0
 40
0.0512021861
 40
0.1043395786
 40
0.1593296489
 40
0.2160855687
 40
0.2745170338
 40
0.3345309156
 40
0.458921324
 40
0.588474188
 40
0.7223848412
 40
0.8598353922
 40
1.0
 40
1.0
 40
1.0
 40
1.0
 10
21.5190633195
 20
6.3490849843
 30
0.0
 10
21.5139887095
 20
6.3495668092
 30
0.0
 10
21.5036369222
 20
6.3504374752
 30
0.0
 10
21.4878082004
 20
6.3514763332
 30
0.0
 10
21.4714127159
 20
6.3522885854
 30
0.0
 10
21.4544808999
 20
6.3528898772
 30
0.0
 10
21.4370430849
 20
6.3532959459
 30
0.0
 10
21.412869132
 20
6.3536013283
 30
0.0
 10
21.3816116371
 20
6.353560121
 30
0.0
 10
21.3430023581
 20
6.3529868613
 30
0.0
 10
21.3031008362
 20
6.3520129373
 30
0.0
 10
21.2621503311
 20
6.3507633109
 30
0.0
 10
21.2345278806
 20
6.3498368833
 30
0.0
 10
21.2205816731
 20
6.3493680544
 30
0.0
  0
SPLINE
  5
417
100
AcDbEntity
  8
0
100
AcDbSpline
 62
9
  6
CONTINUOUS
 70
0
 71
3
 72
29
 73
25
 74
0
 42
0.0000001
 43
0.0000001
 44
0.0000000001
 40
0.0
 40
0.0
 40
0.0
 40
0.0
 40
0.0633429054
 40
0.1276117873
 40
0.160022527
 40
0.1925666515
 40
0.2578973082
 40
0.2906327119
 40
0.3233646881
 40
0.3886686136
 40
0.4535862497
 40
0.4858393037
 40
0.5179170069
 40
0.5814533044
 40
0.6129007131
 40
0.6441112044
 40
0.7057740357
 40
0.7664393795
 40
0.8261211164
 40
0.8848937624
 40
0.9139677454
 40
0.9428385608
 40
0.9715143362
 40
1.0
 40
1.0
 40
1.0
 40
1.0
 10
21.0098183383
 20
5.0405942163
 30
0.0
 10
21.0324802046
 20
5.0424078624
 30
0.0
 10
21.0780288423
 20
5.0475675789
 30
0.0
 10
21.1345675991
 20
5.0579511491
 30
0.0
 10
21.1796656323
 20
5.0688214632
 30
0.0
 10
21.2246901728
 20
5.0814751494
 30
0.0
 10
21.2690697824
 20
5.0967515148
 30
0.0
 10
21.3124561945
 20
5.1147083462
 30
0.0
 10
21.35505485
 20
5.134440046
 30
0.0
 10
21.40653101
 20
5.1623649585
 30
0.0
 10
21.4551783639
 20
5.1946758268
 30
0.0
 10
21.4919556505
 20
5.2229735621
 30
0.0
 10
21.5269693617
 20
5.2526620423
 30
0.0
 10
21.5595733537
 20
5.284673921
 30
0.0
 10
21.5894155587
 20
5.3187661004
 30
0.0
 10
21.6170575906
 20
5.3538144102
 30
0.0
 10
21.6477537842
 20
5.3997124
 30
0.0
 10
21.6781503254
 20
5.4576770752
 30
0.0
 10
21.7016466512
 20
5.5176523545
 30
0.0
 10
21.7155424712
 20
5.5688619678
 30
0.0
 10
21.7231988373
 20
5.6100641558
 30
0.0
 10
21.7272377888
 20
5.6409052974
 30
0.0
 10
21.7296169014
 20
5.6717048308
 30
0.0
 10
21.7301146124
 20
5.6922258269
 30
0.0
 10
21.7300923603
 20
5.7024495572
 30
0.0
  0
SPLINE
  5
418
100
AcDbEntity
  8
0
100
AcDbSpline
 62
9
  6
CONTINUOUS
 70
0
 71
3
 72
79
 73
75
 74
0
 42
0.0000001
 43
0.0000001
 44
0.0000000001
 40
0.0
 40
0.0
 40
0.0
 40
0.0
 40
0.0076696497
 40
0.0151360414
 40
0.0224833336
 40
0.0261371768
 40
0.0297904765
 40
0.0334525097
 40
0.0371317
 40
0.0408293338
 40
0.0445427103
 40
0.0520058026
 40
0.0594995252
 40
0.0670029984
 40
0.0744978211
 40
0.0819813231
 40
0.0894585991
 40
0.1044136927
 40
0.1193905041
 40
0.1343831149
 40
0.149381696
 40
0.1643870011
 40
0.1794039502
 40
0.1944365605
 40
0.2094881372
 40
0.2396611598
 40
0.2699525736
 40
0.3003591992
 40
0.330880954
 40
0.36153017
 40
0.3769072829
 40
0.3923190284
 40
0.4077639523
 40
0.4232402394
 40
0.4387494124
 40
0.4542954539
 40
0.4854929428
 40
0.5011391111
 40
0.5168191063
 40
0.5325374289
 40
0.5482930134
 40
0.5640821585
 40
0.5799032907
 40
0.5957570258
 40
0.6116436686
 40
0.6435112642
 40
0.675500077
 40
0.7075995757
 40
0.7398024857
 40
0.7721029734
 40
0.7882874146
 40
0.8044921095
 40
0.8207158377
 40
0.8369566466
 40
0.8532118672
 40
0.8694804752
 40
0.8857648923
 40
0.8939136677
 40
0.9020654807
 40
0.9102183874
 40
0.9183707051
 40
0.9265210508
 40
0.9346698207
 40
0.9428214161
 40
0.9509801591
 40
0.955063383
 40
0.9591497477
 40
0.9632396695
 40
0.9673329964
 40
0.9714278069
 40
0.9755219439
 40
0.9837008008
 40
0.9918598131
 40
1.0
 40
1.0
 40
1.0
 40
1.0
 10
21.9748183375
 20
5.5725242258
 30
0.0
 10
21.9749548647
 20
5.568818688
 30
0.0
 10
21.9750755889
 20
5.5614996494
 30
0.0
 10
21.9748673483
 20
5.5506299115
 30
0.0
 10
21.9744454374
 20
5.5417104879
 30
0.0
 10
21.9740083576
 20
5.5346389556
 30
0.0
 10
21.9736430279
 20
5.5293482354
 30
0.0
 10
21.9732508913
 20
5.5240471808
 30
0.0
 10
21.9728456942
 20
5.5187256166
 30
0.0
 10
21.972427672
 20
5.5133801415
 30
0.0
 10
21.971846322
 20
5.5062124768
 30
0.0
 10
21.9710694419
 20
5.4972193687
 30
0.0
 10
21.9700306428
 20
5.4864100693
 30
0.0
 10
21.9688583824
 20
5.4755988472
 30
0.0
 10
21.9675213847
 20
5.4648116442
 30
0.0
 10
21.9660194781
 20
5.4540589783
 30
0.0
 10
21.9638090487
 20
5.4397649951
 30
0.0
 10
21.9606700688
 20
5.4219508666
 30
0.0
 10
21.9563588176
 20
5.4006610348
 30
0.0
 10
21.9514823538
 20
5.3794715112
 30
0.0
 10
21.9460222955
 20
5.3584105214
 30
0.0
 10
21.9399847968
 20
5.337495566
 30
0.0
 10
21.9333819375
 20
5.3167350109
 30
0.0
 10
21.9262206644
 20
5.2961365916
 30
0.0
 10
21.9159265069
 20
5.2688803229
 30
0.0
 10
21.9016788605
 20
5.2352457392
 30
0.0
 10
21.8824742566
 20
5.1957109928
 30
0.0
 10
21.8611679358
 20
5.1570741743
 30
0.0
 10
21.8378037507
 20
5.1194433129
 30
0.0
 10
21.8166949
 20
5.0890238741
 30
0.0
 10
21.7988505339
 20
5.0652746016
 30
0.0
 10
21.784977502
 20
5.0477448659
 30
0.0
 10
21.7706375534
 20
5.0305326601
 30
0.0
 10
21.7558352782
 20
5.0136536923
 30
0.0
 10
21.7405806935
 20
4.9971156452
 30
0.0
 10
21.7196384079
 20
4.97549627
 30
0.0
 10
21.6978678479
 20
4.9545968795
 30
0.0
 10
21.6752774461
 20
4.9345076362
 30
0.0
 10
21.657913056
 20
4.9198140328
 30
0.0
 10
21.6401666563
 20
4.9055001982
 30
0.0
 10
21.6220463696
 20
4.8915757291
 30
0.0
 10
21.6035558849
 20
4.8780621956
 30
0.0
 10
21.584704752
 20
4.8649732125
 30
0.0
 10
21.5655071447
 20
4.8523119484
 30
0.0
 10
21.5394398866
 20
4.8359912684
 30
0.0
 10
21.5060477986
 20
4.8166903451
 30
0.0
 10
21.4648269494
 20
4.7953695859
 30
0.0
 10
21.422506418
 20
4.7759312839
 30
0.0
 10
21.3791890114
 20
4.7584259605
 30
0.0
 10
21.3423767005
 20
4.7454722997
 30
0.0
 10
21.3125356355
 20
4.7361017058
 30
0.0
 10
21.2899562693
 20
4.7295704086
 30
0.0
 10
21.2672087196
 20
4.7235446014
 30
0.0
 10
21.2443065571
 20
4.7180304709
 30
0.0
 10
21.2212624619
 20
4.7130394113
 30
0.0
 10
21.198088746
 20
4.7085775791
 30
0.0
 10
21.178687015
 20
4.7052814275
 30
0.0
 10
21.1631163986
 20
4.7028838369
 30
0.0
 10
21.1514124402
 20
4.7012115947
 30
0.0
 10
21.1396876743
 20
4.6996785704
 30
0.0
 10
21.1279449031
 20
4.6982958406
 30
0.0
 10
21.1161860134
 20
4.6970761238
 30
0.0
 10
21.1044111318
 20
4.6960268645
 30
0.0
 10
21.0926218549
 20
4.6951031322
 30
0.0
 10
21.0827869719
 20
4.6944034595
 30
0.0
 10
21.0749111302
 20
4.6938643496
 30
0.0
 10
21.0689974841
 20
4.6934649778
 30
0.0
 10
21.063078981
 20
4.6930650245
 30
0.0
 10
21.0571566848
 20
4.692660729
 30
0.0
 10
21.0512311956
 20
4.6922731039
 30
0.0
 10
21.0433316951
 20
4.6918049413
 30
0.0
 10
21.0334622632
 20
4.6913607465
 30
0.0
 10
21.0216261352
 20
4.6912127281
 30
0.0
 10
21.0137458864
 20
4.6914786207
 30
0.0
 10
21.0098183383
 20
4.6917293507
 30
0.0
  0
SPLINE
  5
419
100
AcDbEntity
  8
0
100
AcDbSpline
 62
9
  6
CONTINUOUS
 70
0
 71
3
 72
25
 73
21
 74
0
 42
0.0000001
 43
0.0000001
 44
0.0000000001
 40
0.0
 40
0.0
 40
0.0
 40
0.0
 40
0.0627475527
 40
0.1258485305
 40
0.1893232313
 40
0.2531309506
 40
0.3172220568
 40
0.3814975341
 40
0.4458463946
 40
0.5101202416
 40
0.5741615125
 40
0.637798174
 40
0.700843172
 40
0.7320928851
 40
0.7631180625
 40
0.824374532
 40
0.8545765373
 40
0.8844506508
 40
0.9430734702
 40
1.0
 40
1.0
 40
1.0
 40
1.0
 10
21.0098183383
 20
5.1159568176
 30
0.0
 10
21.0302928273
 20
5.1159568176
 30
0.0
 10
21.0713809692
 20
5.117770268
 30
0.0
 10
21.1326826601
 20
5.1260543192
 30
0.0
 10
21.1932967836
 20
5.1400701258
 30
0.0
 10
21.2526387607
 20
5.1598090623
 30
0.0
 10
21.3100602442
 20
5.1852442842
 30
0.0
 10
21.3649378607
 20
5.216148126
 30
0.0
 10
21.4166026884
 20
5.2522727752
 30
0.0
 10
21.464474274
 20
5.2931752041
 30
0.0
 10
21.5079497701
 20
5.3384013242
 30
0.0
 10
21.5465990028
 20
5.3872999909
 30
0.0
 10
21.5745207818
 20
5.4307164852
 30
0.0
 10
21.5941234859
 20
5.4666186303
 30
0.0
 10
21.6117421361
 20
5.5028862769
 30
0.0
 10
21.6266333904
 20
5.5400491938
 30
0.0
 10
21.6388051173
 20
5.5777332589
 30
0.0
 10
21.6490475234
 20
5.6150981698
 30
0.0
 10
21.6585563911
 20
5.6616508527
 30
0.0
 10
21.6629190009
 20
5.6991538011
 30
0.0
 10
21.6642709879
 20
5.7176796264
 30
0.0
  0
SPLINE
  5
41A
100
AcDbEntity
  8
0
100
AcDbSpline
 62
9
  6
CONTINUOUS
 70
0
 71
3
 72
31
 73
27
 74
0
 42
0.0000001
 43
0.0000001
 44
0.0000000001
 40
0.0
 40
0.0
 40
0.0
 40
0.0
 40
0.0772383201
 40
0.1552049304
 40
0.310894059
 40
0.3873949047
 40
0.4621870273
 40
0.5346671589
 40
0.5698547281
 40
0.604243233
 40
0.6377612665
 40
0.6703390247
 40
0.7019087028
 40
0.7324049973
 40
0.7617657503
 40
0.7899327876
 40
0.8168530222
 40
0.8424799242
 40
0.8667754993
 40
0.8897129805
 40
0.9112805101
 40
0.9314861901
 40
0.9503649565
 40
0.9679877309
 40
0.9844730001
 40
1.0
 40
1.0
 40
1.0
 40
1.0
 10
21.0098183383
 20
6.4082258154
 30
0.0
 10
21.0253627376
 20
6.4080611156
 30
0.0
 10
21.0566002884
 20
6.4079280319
 30
0.0
 10
21.1191718047
 20
6.4081934079
 30
0.0
 10
21.1815912744
 20
6.4089061658
 30
0.0
 10
21.2433739501
 20
6.4093827703
 30
0.0
 10
21.2884117565
 20
6.4094441874
 30
0.0
 10
21.3251339522
 20
6.4091044474
 30
0.0
 10
21.3537186722
 20
6.4085007001
 30
0.0
 10
21.3744585155
 20
6.4078691217
 30
0.0
 10
21.3946655267
 20
6.4070328227
 30
0.0
 10
21.4142939049
 20
6.4059700262
 30
0.0
 10
21.4332978905
 20
6.4046590539
 30
0.0
 10
21.4516317857
 20
6.4030782253
 30
0.0
 10
21.4692499748
 20
6.4012058818
 30
0.0
 10
21.4861069548
 20
6.3990203737
 30
0.0
 10
21.5021573762
 20
6.3965000463
 30
0.0
 10
21.517356099
 20
6.3936232073
 30
0.0
 10
21.5316582633
 20
6.3903680679
 30
0.0
 10
21.545019384
 20
6.3867126202
 30
0.0
 10
21.5573954172
 20
6.3826344617
 30
0.0
 10
21.5687428814
 20
6.3781103457
 30
0.0
 10
21.5790184745
 20
6.3731159607
 30
0.0
 10
21.5881794139
 20
6.3676240168
 30
0.0
 10
21.5961790516
 20
6.3616073503
 30
0.0
 10
21.6008239368
 20
6.3571087122
 30
0.0
 10
21.6029020501
 20
6.3547747872
 30
0.0
  0
SPLINE
  5
41B
100
AcDbEntity
  8
0
100
AcDbSpline
 62
9
  6
CONTINUOUS
 70
0
 71
3
 72
11
 73
7
 74
0
 42
0.0000001
 43
0.0000001
 44
0.0000000001
 40
0.0
 40
0.0
 40
0.0
 40
0.0
 40
0.2494179985
 40
0.5006979264
 40
0.7516221138
 40
1.0
 40
1.0
 40
1.0
 40
1.0
 10
21.2205816731
 20
6.3493680544
 30
0.0
 10
21.203063527
 20
6.3487791478
 30
0.0
 10
21.1678965739
 20
6.3475934978
 30
0.0
 10
21.1150987074
 20
6.3460249751
 30
0.0
 10
21.0623623936
 20
6.3448911289
 30
0.0
 10
21.0272732855
 20
6.3445801696
 30
0.0
 10
21.0098183383
 20
6.3445801696
 30
0.0
  0
SPLINE
  5
41C
100
AcDbEntity
  8
0
100
AcDbSpline
 62
9
  6
CONTINUOUS
 70
0
 71
3
 72
31
 73
27
 74
0
 42
0.0000001
 43
0.0000001
 44
0.0000000001
 40
0.0
 40
0.0
 40
0.0
 40
0.0
 40
0.153573041
 40
0.2306103714
 40
0.307037933
 40
0.3822828172
 40
0.4557833068
 40
0.526993055
 40
0.5615747773
 40
0.5953892324
 40
0.628375599
 40
0.660475719
 40
0.6916346554
 40
0.7218013933
 40
0.7509297239
 40
0.7789793682
 40
0.8059174106
 40
0.8317201348
 40
0.8563753763
 40
0.8798855243
 40
0.9022713159
 40
0.9235765334
 40
0.9438736105
 40
0.9632698993
 40
0.9819138901
 40
1.0
 40
1.0
 40
1.0
 40
1.0
 10
21.0098183383
 20
6.6059206096
 30
0.0
 10
21.035934149
 20
6.6052657355
 30
0.0
 10
21.0751477939
 20
6.6041223593
 30
0.0
 10
21.1273303672
 20
6.6018836807
 30
0.0
 10
21.1661783382
 20
6.5997493315
 30
0.0
 10
21.2043899845
 20
6.5970680217
 30
0.0
 10
21.2416609103
 20
6.5937460355
 30
0.0
 10
21.2719723766
 20
6.5903342119
 30
0.0
 10
21.2955091135
 20
6.5871666188
 30
0.0
 10
21.3125628979
 20
6.5845934288
 30
0.0
 10
21.3291521914
 20
6.5817880165
 30
0.0
 10
21.3452390235
 20
6.5787385065
 30
0.0
 10
21.3607854561
 20
6.5754331065
 30
0.0
 10
21.3757536183
 20
6.5718599865
 30
0.0
 10
21.3901057173
 20
6.5680072936
 30
0.0
 10
21.403804058
 20
6.5638631216
 30
0.0
 10
21.416811063
 20
6.5594154762
 30
0.0
 10
21.4290892898
 20
6.5546522182
 30
0.0
 10
21.4406014367
 20
6.5495609813
 30
0.0
 10
21.4513103228
 20
6.5441290461
 30
0.0
 10
21.4611787955
 20
6.538343199
 30
0.0
 10
21.4701695717
 20
6.532189478
 30
0.0
 10
21.4782447387
 20
6.5256532622
 30
0.0
 10
21.4853655894
 20
6.5187184606
 30
0.0
 10
21.4914903271
 20
6.5113708976
 30
0.0
 10
21.4949197465
 20
6.5061263616
 30
0.0
 10
21.4964366471
 20
6.5034497138
 30
0.0
  0
SPLINE
  5
41D
100
AcDbEntity
  8
0
100
AcDbSpline
 62
9
  6
CONTINUOUS
 70
0
 71
3
 72
32
 73
28
 74
0
 42
0.0000001
 43
0.0000001
 44
0.0000000001
 40
0.0
 40
0.0
 40
0.0
 40
0.0
 40
0.0756852403
 40
0.1517804881
 40
0.2277373892
 40
0.3030162571
 40
0.3770888237
 40
0.4494419581
 40
0.5195828263
 40
0.5536787519
 40
0.5870501082
 40
0.6196448497
 40
0.6514142563
 40
0.6823135848
 40
0.7123028719
 40
0.741347926
 40
0.7694215564
 40
0.7965050922
 40
0.8225902592
 40
0.8476814763
 40
0.8717986335
 40
0.894980374
 40
0.9172878332
 40
0.9388086492
 40
0.9596608437
 40
0.9799958875
 40
1.0
 40
1.0
 40
1.0
 40
1.0
 10
21.0098183383
 20
6.7376965246
 30
0.0
 10
21.0216984188
 20
6.7375144816
 30
0.0
 10
21.0455200723
 20
6.7369154195
 30
0.0
 10
21.0812367319
 20
6.7352815045
 30
0.0
 10
21.116845603
 20
6.7328643089
 30
0.0
 10
21.1520704059
 20
6.729620659
 30
0.0
 10
21.1866355898
 20
6.7255075842
 30
0.0
 10
21.2202654012
 20
6.7204821388
 30
0.0
 10
21.2475344513
 20
6.7154523841
 30
0.0
 10
21.2686531761
 20
6.7108999168
 30
0.0
 10
21.2839354763
 20
6.7072608038
 30
0.0
 10
21.2987758094
 20
6.7033595772
 30
0.0
 10
21.3131398005
 20
6.6991906985
 30
0.0
 10
21.3269930757
 20
6.6947487018
 30
0.0
 10
21.3403013236
 20
6.6900280605
 30
0.0
 10
21.3530302885
 20
6.6850231991
 30
0.0
 10
21.3651457797
 20
6.6797284578
 30
0.0
 10
21.3766136694
 20
6.6741380572
 30
0.0
 10
21.3873998811
 20
6.6682460466
 30
0.0
 10
21.3974703555
 20
6.6620462405
 30
0.0
 10
21.4067909805
 20
6.6555321405
 30
0.0
 10
21.4153274589
 20
6.6486968822
 30
0.0
 10
21.4230451267
 20
6.64153315
 30
0.0
 10
21.4299085985
 20
6.6340334379
 30
0.0
 10
21.4358817184
 20
6.6261896164
 30
0.0
 10
21.4409263957
 20
6.6179958753
 30
0.0
 10
21.4436587134
 20
6.6122661553
 30
0.0
 10
21.4448477877
 20
6.6093596249
 30
0.0
  0
SPLINE
  5
41E
100
AcDbEntity
  8
0
100
AcDbSpline
 62
7
  6
CONTINUOUS
 70
0
 71
3
 72
31
 73
27
 74
0
 42
0.0000001
 43
0.0000001
 44
0.0000000001
 40
0.0
 40
0.0
 40
0.0
 40
0.0
 40
0.0737972566
 40
0.1477444113
 40
0.2214136765
 40
0.2943751916
 40
0.3662034544
 40
0.4364843393
 40
0.5048233911
 40
0.5708562815
 40
0.6029100349
 40
0.6342719772
 40
0.6649121191
 40
0.6948059805
 40
0.7239356306
 40
0.7522909126
 40
0.7798708757
 40
0.8066854302
 40
0.8327572273
 40
0.8581237356
 40
0.8828394428
 40
0.9069780483
 40
0.9306344267
 40
0.9539260596
 40
0.9769935705
 40
1.0
 40
1.0
 40
1.0
 40
1.0
 10
21.0098183383
 20
6.9169036206
 30
0.0
 10
21.0211901932
 20
6.9169036206
 30
0.0
 10
21.0439603426
 20
6.9163650816
 30
0.0
 10
21.0780082279
 20
6.9139985607
 30
0.0
 10
21.1117869348
 20
6.9101084106
 30
0.0
 10
21.1450306022
 20
6.9047321358
 30
0.0
 10
21.1774747462
 20
6.8979072742
 30
0.0
 10
21.2088553312
 20
6.8896712292
 30
0.0
 10
21.2389076716
 20
6.8800614633
 30
0.0
 10
21.2628604875
 20
6.8708493524
 30
0.0
 10
21.2811107392
 20
6.862789596
 30
0.0
 10
21.2941634441
 20
6.8564823094
 30
0.0
 10
21.3066829829
 20
6.8498578112
 30
0.0
 10
21.3186363232
 20
6.8429204705
 30
0.0
 10
21.3299903302
 20
6.8356747335
 30
0.0
 10
21.3407118986
 20
6.8281249108
 30
0.0
 10
21.3507678921
 20
6.8202752032
 30
0.0
 10
21.3601251155
 20
6.8121296675
 30
0.0
 10
21.3687502563
 20
6.8036922044
 30
0.0
 10
21.3766098093
 20
6.7949665574
 30
0.0
 10
21.3836699793
 20
6.7859563589
 30
0.0
 10
21.3898965875
 20
6.7766651729
 30
0.0
 10
21.395254962
 20
6.7670968038
 30
0.0
 10
21.3997100308
 20
6.7572549469
 30
0.0
 10
21.4032260363
 20
6.7471455219
 30
0.0
 10
21.4049185922
 20
6.7402371364
 30
0.0
 10
21.4055944889
 20
6.7367569666
 30
0.0
  0
SPLINE
  5
41F
100
AcDbEntity
  8
0
100
AcDbSpline
 62
9
  6
CONTINUOUS
 70
0
 71
3
 72
31
 73
27
 74
0
 42
0.0000001
 43
0.0000001
 44
0.0000000001
 40
0.0
 40
0.0
 40
0.0
 40
0.0
 40
0.026999305
 40
0.0540463897
 40
0.0811827748
 40
0.1084552954
 40
0.1359056517
 40
0.1635719211
 40
0.1914884737
 40
0.2196870304
 40
0.2770221105
 40
0.3062331394
 40
0.3358242843
 40
0.3658066264
 40
0.3961867346
 40
0.4581360902
 40
0.5216866173
 40
0.5540504849
 40
0.5867846378
 40
0.6532853676
 40
0.6870255152
 40
0.7210526259
 40
0.7898420197
 40
0.8594336896
 40
0.929576504
 40
1.0
 40
1.0
 40
1.0
 40
1.0
 10
21.4023815556
 20
6.9357877702
 30
0.0
 10
21.4023815323
 20
6.9407084733
 30
0.0
 10
21.4020653993
 20
6.9505614755
 30
0.0
 10
21.4006464936
 20
6.9652986788
 30
0.0
 10
21.3982832448
 20
6.9799652768
 30
0.0
 10
21.3949774229
 20
6.9945236414
 30
0.0
 10
21.3907387682
 20
7.0089387593
 30
0.0
 10
21.3855824175
 20
7.0231760098
 30
0.0
 10
21.3795254893
 20
7.0372030934
 30
0.0
 10
21.3702200896
 20
7.0556777746
 30
0.0
 10
21.3591943856
 20
7.0735110081
 30
0.0
 10
21.3466033969
 20
7.0905345899
 30
0.0
 10
21.3362842798
 20
7.1030092603
 30
0.0
 10
21.3251776901
 20
7.1150783041
 30
0.0
 10
21.3092574367
 20
7.1306933743
 30
0.0
 10
21.2875006314
 20
7.1490378356
 30
0.0
 10
21.263807036
 20
7.1654346893
 30
0.0
 10
21.2436715597
 20
7.1774601286
 30
0.0
 10
21.222554478
 20
7.1888451089
 30
0.0
 10
21.2004888234
 20
7.1989505271
 30
0.0
 10
21.1776473485
 20
7.207744546
 30
0.0
 10
21.1540729838
 20
7.215741881
 30
0.0
 10
21.1237333665
 20
7.2240507192
 30
0.0
 10
21.0863754969
 20
7.2312291959
 30
0.0
 10
21.0482825404
 20
7.2355532482
 30
0.0
 10
21.0226532284
 20
7.2365115193
 30
0.0
 10
21.0098183383
 20
7.2365091043
 30
0.0
  0
SPLINE
  5
420
100
AcDbEntity
  8
0
100
AcDbSpline
 62
7
  6
CONTINUOUS
 70
0
 71
3
 72
9
 73
5
 74
0
 42
0.0000001
 43
0.0000001
 44
0.0000000001
 40
0.0
 40
0.0
 40
0.0
 40
0.0
 40
0.4899867087
 40
1.0
 40
1.0
 40
1.0
 40
1.0
 10
21.3976424088
 20
6.901526471
 30
0.0
 10
21.3961062118
 20
6.8865627172
 30
0.0
 10
21.3943434021
 20
6.8558700375
 30
0.0
 10
21.3951893895
 20
6.8251427642
 30
0.0
 10
21.3962440897
 20
6.8095211186
 30
0.0
  0
SPLINE
  5
421
100
AcDbEntity
  8
0
100
AcDbSpline
 62
9
  6
CONTINUOUS
 70
0
 71
3
 72
22
 73
18
 74
0
 42
0.0000001
 43
0.0000001
 44
0.0000000001
 40
0.0
 40
0.0
 40
0.0
 40
0.0
 40
0.16246077
 40
0.2398355702
 40
0.3145547733
 40
0.3865653307
 40
0.4558233944
 40
0.5222962831
 40
0.5859649385
 40
0.6468269987
 40
0.7049011913
 40
0.7602341563
 40
0.8129040377
 40
0.8630264535
 40
0.9107624912
 40
0.9563275172
 40
1.0
 40
1.0
 40
1.0
 40
1.0
 10
20.4750240196
 20
6.3110739157
 30
0.0
 10
20.4669844352
 20
6.3102839846
 30
0.0
 10
20.4551321467
 20
6.3089313774
 30
0.0
 10
20.4396514721
 20
6.3066904125
 30
0.0
 10
20.4286596525
 20
6.3048517231
 30
0.0
 10
20.4181121288
 20
6.3028218006
 30
0.0
 10
20.4080238042
 20
6.3005944435
 30
0.0
 10
20.3984096023
 20
6.2981635163
 30
0.0
 10
20.3892843777
 20
6.2955228132
 30
0.0
 10
20.3806628985
 20
6.292666069
 30
0.0
 10
20.3725597446
 20
6.2895868127
 30
0.0
 10
20.3649891085
 20
6.2862788022
 30
0.0
 10
20.3579649424
 20
6.2827355549
 30
0.0
 10
20.3515012843
 20
6.2789503582
 30
0.0
 10
20.3456121329
 20
6.2749159085
 30
0.0
 10
20.3403126596
 20
6.2706254509
 30
0.0
 10
20.3371221828
 20
6.2675301553
 30
0.0
 10
20.3356420241
 20
6.2659411415
 30
0.0
  0
SPLINE
  5
422
100
AcDbEntity
  8
0
100
AcDbSpline
 62
9
  6
CONTINUOUS
 70
0
 71
3
 72
19
 73
15
 74
0
 42
0.0000001
 43
0.0000001
 44
0.0000000001
 40
0.0
 40
0.0
 40
0.0
 40
0.0
 40
0.1256183487
 40
0.2515899815
 40
0.3146262932
 40
0.3775815302
 40
0.4403752666
 40
0.5030294047
 40
0.5655902813
 40
0.628105267
 40
0.6905977872
 40
0.7529857344
 40
0.8770822004
 40
1.0
 40
1.0
 40
1.0
 40
1.0
 10
20.2895443162
 20
5.7024495572
 30
0.0
 10
20.2896323005
 20
5.7294737879
 30
0.0
 10
20.29180806
 20
5.7836108909
 30
0.0
 10
20.2994746395
 20
5.8509247597
 30
0.0
 10
20.3085727511
 20
5.9043713611
 30
0.0
 10
20.316850959
 20
5.9441419012
 30
0.0
 10
20.3265611301
 20
5.9835021251
 30
0.0
 10
20.337678875
 20
6.0223998813
 30
0.0
 10
20.3501837705
 20
6.0608111037
 30
0.0
 10
20.3640803299
 20
6.0987041823
 30
0.0
 10
20.379360201
 20
6.1360211972
 30
0.0
 10
20.4014743133
 20
6.1848169444
 30
0.0
 10
20.4322822577
 20
6.2438903617
 30
0.0
 10
20.4602779669
 20
6.2891238024
 30
0.0
 10
20.4750240196
 20
6.3110739157
 30
0.0
  0
SPLINE
  5
423
100
AcDbEntity
  8
0
100
AcDbSpline
 62
9
  6
CONTINUOUS
 70
0
 71
3
 72
33
 73
29
 74
0
 42
0.0000001
 43
0.0000001
 44
0.0000000001
 40
0.0
 40
0.0
 40
0.0
 40
0.0
 40
0.0793441544
 40
0.1183177407
 40
0.1568037147
 40
0.1947831893
 40
0.2322373891
 40
0.3055446302
 40
0.3413982887
 40
0.3766990107
 40
0.4114234677
 40
0.4455584598
 40
0.4791094209
 40
0.5120842947
 40
0.5444729304
 40
0.5762509959
 40
0.6378887382
 40
0.6677263615
 40
0.6968988418
 40
0.7532601932
 40
0.807048734
 40
0.8330241978
 40
0.8584121171
 40
0.8832348739
 40
0.9075207919
 40
0.9313069728
 40
0.954634191
 40
1.0
 40
1.0
 40
1.0
 40
1.0
 10
20.2895443162
 20
5.7024495572
 30
0.0
 10
20.2822949413
 20
5.7006715797
 30
0.0
 10
20.2715161722
 20
5.6978886154
 30
0.0
 10
20.2573096133
 20
5.6939162133
 30
0.0
 10
20.2468910777
 20
5.6908507479
 30
0.0
 10
20.2366504117
 20
5.6876904843
 30
0.0
 10
20.2233334445
 20
5.6833941181
 30
0.0
 10
20.2102928992
 20
5.6788939847
 30
0.0
 10
20.1975594186
 20
5.6741439018
 30
0.0
 10
20.1882838709
 20
5.6705130245
 30
0.0
 10
20.1792156218
 20
5.6667995001
 30
0.0
 10
20.1703585288
 20
5.6630077467
 30
0.0
 10
20.161719806
 20
5.6591275639
 30
0.0
 10
20.1533073105
 20
5.6551489192
 30
0.0
 10
20.1451256756
 20
5.651076461
 30
0.0
 10
20.134636272
 20
5.6455946067
 30
0.0
 10
20.1245173775
 20
5.6399258357
 30
0.0
 10
20.1147883359
 20
5.6340795278
 30
0.0
 10
20.1056022273
 20
5.6282978854
 30
0.0
 10
20.094737054
 20
5.6209593477
 30
0.0
 10
20.0844841423
 20
5.6132757976
 30
0.0
 10
20.0768299083
 20
5.607007535
 30
0.0
 10
20.0714240542
 20
5.6022999242
 30
0.0
 10
20.0662890816
 20
5.5975286477
 30
0.0
 10
20.0614279225
 20
5.5926898809
 30
0.0
 10
20.0568441356
 20
5.5877777188
 30
0.0
 10
20.0511633272
 20
5.5811867705
 30
0.0
 10
20.0472458196
 20
5.5760343505
 30
0.0
 10
20.0448183388
 20
5.5725242254
 30
0.0
  0
LINE
  5
424
100
AcDbEntity
  8
0
100
AcDbLine
 62
9
  6
CONTINUOUS
 10
20.4750240196
 20
6.3110739157
 11
20.5005733571
 21
6.3490849843
  0
SPLINE
  5
425
100
AcDbEntity
  8
0
100
AcDbSpline
 62
9
  6
CONTINUOUS
 70
0
 71
3
 72
48
 73
44
 74
0
 42
0.0000001
 43
0.0000001
 44
0.0000000001
 40
0.0
 40
0.0
 40
0.0
 40
0.0
 40
0.0587811056
 40
0.0884354593
 40
0.1182557352
 40
0.1783825995
 40
0.2086874012
 40
0.2391492452
 40
0.269760682
 40
0.3005138041
 40
0.3314007236
 40
0.362411916
 40
0.3935375118
 40
0.4091404648
 40
0.424768894
 40
0.4404227724
 40
0.4561024819
 40
0.4718082768
 40
0.487540297
 40
0.5032985896
 40
0.5190831078
 40
0.5507277066
 40
0.5824650154
 40
0.6142855851
 40
0.6461812786
 40
0.6781453649
 40
0.7101692418
 40
0.726198971
 40
0.7422384216
 40
0.7582868154
 40
0.7743441848
 40
0.7904105429
 40
0.8064855706
 40
0.8225688964
 40
0.8386612155
 40
0.8547631959
 40
0.8708752391
 40
0.9031267504
 40
0.9192642975
 40
0.9354080953
 40
0.9515558959
 40
0.9677068217
 40
1.0
 40
1.0
 40
1.0
 40
1.0
 10
20.3553719872
 20
5.7176774377
 30
0.0
 10
20.3679898862
 20
5.7204251422
 30
0.0
 10
20.3870067165
 20
5.7244081498
 30
0.0
 10
20.4124979811
 20
5.729422641
 30
0.0
 10
20.4383213271
 20
5.7342762643
 30
0.0
 10
20.4643422481
 20
5.7388461267
 30
0.0
 10
20.4905417296
 20
5.7432020964
 30
0.0
 10
20.5103622671
 20
5.7463879618
 30
0.0
 10
20.5302983098
 20
5.749473717
 30
0.0
 10
20.5503453736
 20
5.7524502768
 30
0.0
 10
20.5704981182
 20
5.7553103793
 30
0.0
 10
20.5907527835
 20
5.758031043
 30
0.0
 10
20.6076990533
 20
5.7601554296
 30
0.0
 10
20.6213043417
 20
5.7617571355
 30
0.0
 10
20.631540356
 20
5.7629058
 30
0.0
 10
20.6417987901
 20
5.7640045823
 30
0.0
 10
20.6520787517
 20
5.765060978
 30
0.0
 10
20.6623795721
 20
5.7660815729
 30
0.0
 10
20.6727005504
 20
5.7670732823
 30
0.0
 10
20.6830410183
 20
5.7680426275
 30
0.0
 10
20.6968640638
 20
5.7693166221
 30
0.0
 10
20.7141859488
 20
5.7708776685
 30
0.0
 10
20.7350233174
 20
5.7726788227
 30
0.0
 10
20.755923534
 20
5.7743912478
 30
0.0
 10
20.7768821227
 20
5.7759983609
 30
0.0
 10
20.7978941901
 20
5.7774869683
 30
0.0
 10
20.8154372936
 20
5.7786157982
 30
0.0
 10
20.8294971245
 20
5.779382385
 30
0.0
 10
20.8400568408
 20
5.7798725419
 30
0.0
 10
20.850627019
 20
5.7802577095
 30
0.0
 10
20.8612063438
 20
5.78053947
 30
0.0
 10
20.8717935713
 20
5.7807275153
 30
0.0
 10
20.882387662
 20
5.780830041
 30
0.0
 10
20.8929878845
 20
5.7808537696
 30
0.0
 10
20.9035939646
 20
5.7808277638
 30
0.0
 10
20.9142062897
 20
5.7807839704
 30
0.0
 10
20.9283686263
 20
5.7807447306
 30
0.0
 10
20.9425392112
 20
5.780789999
 30
0.0
 10
20.9567149516
 20
5.7810077225
 30
0.0
 10
20.9673510234
 20
5.7812820789
 30
0.0
 10
20.9779856907
 20
5.7816980324
 30
0.0
 10
20.9921545093
 20
5.7824814958
 30
0.0
 10
21.0027644179
 20
5.7833678484
 30
0.0
 10
21.0098183383
 20
5.7841253875
 30
0.0
  0
SPLINE
  5
426
100
AcDbEntity
  8
0
100
AcDbSpline
 62
9
  6
CONTINUOUS
 70
0
 71
3
 72
13
 73
9
 74
0
 42
0.0000001
 43
0.0000001
 44
0.0000000001
 40
0.0
 40
0.0
 40
0.0
 40
0.0
 40
0.2479188936
 40
0.3723779892
 40
0.4971708471
 40
0.6223193729
 40
0.7478434683
 40
1.0
 40
1.0
 40
1.0
 40
1.0
 10
20.2895443162
 20
5.7024495578
 30
0.0
 10
20.2949596545
 20
5.7038111922
 30
0.0
 10
20.3031038547
 20
5.7058159026
 30
0.0
 10
20.3139984801
 20
5.7084042021
 30
0.0
 10
20.3222128744
 20
5.7103105097
 30
0.0
 10
20.3304586807
 20
5.7121871624
 30
0.0
 10
20.3415097997
 20
5.7146639861
 30
0.0
 10
20.3498195105
 20
5.7164837224
 30
0.0
 10
20.3553719872
 20
5.7176774377
 30
0.0
  0
SPLINE
  5
427
100
AcDbEntity
  8
0
100
AcDbSpline
 62
9
  6
CONTINUOUS
 70
0
 71
3
 72
21
 73
17
 74
0
 42
0.0000001
 43
0.0000001
 44
0.0000000001
 40
0.0
 40
0.0
 40
0.0
 40
0.0
 40
0.0501805192
 40
0.1030182376
 40
0.1583173346
 40
0.2158705949
 40
0.2754624262
 40
0.3368710365
 40
0.3998700451
 40
0.4642297075
 40
0.5297177882
 40
0.5961000796
 40
0.7306058288
 40
0.8658631504
 40
0.9331877738
 40
1.0
 40
1.0
 40
1.0
 40
1.0
 10
20.4750240196
 20
6.3110739157
 30
0.0
 10
20.4839310404
 20
6.3119490769
 30
0.0
 10
20.5022463028
 20
6.3134511846
 30
0.0
 10
20.5304403974
 20
6.3150399082
 30
0.0
 10
20.5599752411
 20
6.3160857109
 30
0.0
 10
20.5907274195
 20
6.3166495689
 30
0.0
 10
20.6225737377
 20
6.3167925769
 30
0.0
 10
20.6553906423
 20
6.316575951
 30
0.0
 10
20.6890544831
 20
6.3160610057
 30
0.0
 10
20.7234414895
 20
6.315309117
 30
0.0
 10
20.7584277509
 20
6.3143817815
 30
0.0
 10
20.8059166605
 20
6.312987605
 30
0.0
 10
20.8658406214
 20
6.311125378
 30
0.0
 10
20.9259405733
 20
6.3095074679
 30
0.0
 10
20.9739798853
 20
6.3085991555
 30
0.0
 10
20.9979024098
 20
6.308316354
 30
0.0
 10
21.0098183383
 20
6.3082289694
 30
0.0
  0
SPLINE
  5
428
100
AcDbEntity
  8
0
100
AcDbSpline
 62
7
  6
CONTINUOUS
 70
0
 71
3
 72
18
 73
14
 74
0
 42
0.0000001
 43
0.0000001
 44
0.0000000001
 40
0.0
 40
0.0
 40
0.0
 40
0.0
 40
0.0512021861
 40
0.1043395786
 40
0.1593296489
 40
0.2160855687
 40
0.2745170338
 40
0.3345309156
 40
0.458921324
 40
0.588474188
 40
0.7223848412
 40
0.8598353922
 40
1.0
 40
1.0
 40
1.0
 40
1.0
 10
20.5005733571
 20
6.3490849843
 30
0.0
 10
20.5056479671
 20
6.3495668092
 30
0.0
 10
20.5159997543
 20
6.3504374752
 30
0.0
 10
20.5318284762
 20
6.3514763332
 30
0.0
 10
20.5482239607
 20
6.3522885854
 30
0.0
 10
20.5651557767
 20
6.3528898772
 30
0.0
 10
20.5825935917
 20
6.3532959459
 30
0.0
 10
20.6067675446
 20
6.3536013283
 30
0.0
 10
20.6380250395
 20
6.353560121
 30
0.0
 10
20.6766343185
 20
6.3529868613
 30
0.0
 10
20.7165358404
 20
6.3520129373
 30
0.0
 10
20.7574863454
 20
6.3507633109
 30
0.0
 10
20.785108796
 20
6.3498368833
 30
0.0
 10
20.7990550035
 20
6.3493680544
 30
0.0
  0
SPLINE
  5
429
100
AcDbEntity
  8
0
100
AcDbSpline
 62
9
  6
CONTINUOUS
 70
0
 71
3
 72
79
 73
75
 74
0
 42
0.0000001
 43
0.0000001
 44
0.0000000001
 40
0.0
 40
0.0
 40
0.0
 40
0.0
 40
0.0076696497
 40
0.0151360414
 40
0.0224833336
 40
0.0261371768
 40
0.0297904765
 40
0.0334525097
 40
0.0371317
 40
0.0408293338
 40
0.0445427103
 40
0.0520058026
 40
0.0594995252
 40
0.0670029984
 40
0.0744978211
 40
0.0819813231
 40
0.0894585991
 40
0.1044136927
 40
0.1193905041
 40
0.1343831149
 40
0.149381696
 40
0.1643870011
 40
0.1794039502
 40
0.1944365605
 40
0.2094881372
 40
0.2396611598
 40
0.2699525736
 40
0.3003591992
 40
0.330880954
 40
0.36153017
 40
0.3769072829
 40
0.3923190284
 40
0.4077639523
 40
0.4232402394
 40
0.4387494124
 40
0.4542954539
 40
0.4854929428
 40
0.5011391111
 40
0.5168191063
 40
0.5325374289
 40
0.5482930134
 40
0.5640821585
 40
0.5799032907
 40
0.5957570258
 40
0.6116436686
 40
0.6435112642
 40
0.675500077
 40
0.7075995757
 40
0.7398024857
 40
0.7721029734
 40
0.7882874146
 40
0.8044921095
 40
0.8207158377
 40
0.8369566466
 40
0.8532118672
 40
0.8694804752
 40
0.8857648923
 40
0.8939136677
 40
0.9020654807
 40
0.9102183874
 40
0.9183707051
 40
0.9265210508
 40
0.9346698207
 40
0.9428214161
 40
0.9509801591
 40
0.955063383
 40
0.9591497477
 40
0.9632396695
 40
0.9673329964
 40
0.9714278069
 40
0.9755219439
 40
0.9837008008
 40
0.9918598131
 40
1.0
 40
1.0
 40
1.0
 40
1.0
 10
20.0448183391
 20
5.5725242258
 30
0.0
 10
20.0446818119
 20
5.568818688
 30
0.0
 10
20.0445610877
 20
5.5614996494
 30
0.0
 10
20.0447693283
 20
5.5506299115
 30
0.0
 10
20.0451912391
 20
5.5417104879
 30
0.0
 10
20.0456283189
 20
5.5346389556
 30
0.0
 10
20.0459936486
 20
5.5293482354
 30
0.0
 10
20.0463857852
 20
5.5240471808
 30
0.0
 10
20.0467909823
 20
5.5187256166
 30
0.0
 10
20.0472090046
 20
5.5133801415
 30
0.0
 10
20.0477903545
 20
5.5062124768
 30
0.0
 10
20.0485672347
 20
5.4972193687
 30
0.0
 10
20.0496060338
 20
5.4864100693
 30
0.0
 10
20.0507782942
 20
5.4755988472
 30
0.0
 10
20.0521152919
 20
5.4648116442
 30
0.0
 10
20.0536171984
 20
5.4540589783
 30
0.0
 10
20.0558276278
 20
5.4397649951
 30
0.0
 10
20.0589666078
 20
5.4219508666
 30
0.0
 10
20.0632778589
 20
5.4006610348
 30
0.0
 10
20.0681543228
 20
5.3794715112
 30
0.0
 10
20.0736143811
 20
5.3584105214
 30
0.0
 10
20.0796518797
 20
5.337495566
 30
0.0
 10
20.086254739
 20
5.3167350109
 30
0.0
 10
20.0934160122
 20
5.2961365916
 30
0.0
 10
20.1037101696
 20
5.2688803229
 30
0.0
 10
20.1179578161
 20
5.2352457392
 30
0.0
 10
20.13716242
 20
5.1957109928
 30
0.0
 10
20.1584687407
 20
5.1570741743
 30
0.0
 10
20.1818329258
 20
5.1194433129
 30
0.0
 10
20.2029417766
 20
5.0890238741
 30
0.0
 10
20.2207861426
 20
5.0652746016
 30
0.0
 10
20.2346591746
 20
5.0477448659
 30
0.0
 10
20.2489991231
 20
5.0305326601
 30
0.0
 10
20.2638013984
 20
5.0136536923
 30
0.0
 10
20.2790559831
 20
4.9971156452
 30
0.0
 10
20.2999982687
 20
4.97549627
 30
0.0
 10
20.3217688287
 20
4.9545968795
 30
0.0
 10
20.3443592304
 20
4.9345076362
 30
0.0
 10
20.3617236206
 20
4.9198140328
 30
0.0
 10
20.3794700202
 20
4.9055001982
 30
0.0
 10
20.397590307
 20
4.8915757291
 30
0.0
 10
20.4160807917
 20
4.8780621956
 30
0.0
 10
20.4349319246
 20
4.8649732125
 30
0.0
 10
20.4541295319
 20
4.8523119484
 30
0.0
 10
20.48019679
 20
4.8359912684
 30
0.0
 10
20.513588878
 20
4.8166903451
 30
0.0
 10
20.5548097272
 20
4.7953695859
 30
0.0
 10
20.5971302585
 20
4.7759312839
 30
0.0
 10
20.6404476652
 20
4.7584259605
 30
0.0
 10
20.677259976
 20
4.7454722997
 30
0.0
 10
20.707101041
 20
4.7361017058
 30
0.0
 10
20.7296804073
 20
4.7295704086
 30
0.0
 10
20.752427957
 20
4.7235446014
 30
0.0
 10
20.7753301195
 20
4.7180304709
 30
0.0
 10
20.7983742147
 20
4.7130394113
 30
0.0
 10
20.8215479306
 20
4.7085775791
 30
0.0
 10
20.8409496616
 20
4.7052814275
 30
0.0
 10
20.856520278
 20
4.7028838369
 30
0.0
 10
20.8682242363
 20
4.7012115947
 30
0.0
 10
20.8799490023
 20
4.6996785704
 30
0.0
 10
20.8916917735
 20
4.6982958406
 30
0.0
 10
20.9034506632
 20
4.6970761238
 30
0.0
 10
20.9152255448
 20
4.6960268645
 30
0.0
 10
20.9270148216
 20
4.6951031322
 30
0.0
 10
20.9368497046
 20
4.6944034595
 30
0.0
 10
20.9447255464
 20
4.6938643496
 30
0.0
 10
20.9506391924
 20
4.6934649778
 30
0.0
 10
20.9565576956
 20
4.6930650245
 30
0.0
 10
20.9624799918
 20
4.692660729
 30
0.0
 10
20.968405481
 20
4.6922731039
 30
0.0
 10
20.9763049815
 20
4.6918049413
 30
0.0
 10
20.9861744133
 20
4.6913607465
 30
0.0
 10
20.9980105414
 20
4.6912127281
 30
0.0
 10
21.0058907902
 20
4.6914786207
 30
0.0
 10
21.0098183383
 20
4.6917293507
 30
0.0
  0
SPLINE
  5
42A
100
AcDbEntity
  8
0
100
AcDbSpline
 62
9
  6
CONTINUOUS
 70
0
 71
3
 72
29
 73
25
 74
0
 42
0.0000001
 43
0.0000001
 44
0.0000000001
 40
0.0
 40
0.0
 40
0.0
 40
0.0
 40
0.0633429054
 40
0.1276117873
 40
0.160022527
 40
0.1925666515
 40
0.2578973082
 40
0.2906327119
 40
0.3233646881
 40
0.3886686136
 40
0.4535862497
 40
0.4858393037
 40
0.5179170069
 40
0.5814533044
 40
0.6129007131
 40
0.6441112044
 40
0.7057740357
 40
0.7664393795
 40
0.8261211164
 40
0.8848937624
 40
0.9139677454
 40
0.9428385608
 40
0.9715143362
 40
1.0
 40
1.0
 40
1.0
 40
1.0
 10
21.0098183383
 20
5.0405942163
 30
0.0
 10
20.9871564719
 20
5.0424078624
 30
0.0
 10
20.9416078343
 20
5.0475675789
 30
0.0
 10
20.8850690774
 20
5.0579511491
 30
0.0
 10
20.8399710443
 20
5.0688214632
 30
0.0
 10
20.7949465038
 20
5.0814751494
 30
0.0
 10
20.7505668941
 20
5.0967515148
 30
0.0
 10
20.7071804821
 20
5.1147083462
 30
0.0
 10
20.6645818266
 20
5.134440046
 30
0.0
 10
20.6131056666
 20
5.1623649585
 30
0.0
 10
20.5644583127
 20
5.1946758268
 30
0.0
 10
20.5276810261
 20
5.2229735621
 30
0.0
 10
20.4926673148
 20
5.2526620423
 30
0.0
 10
20.4600633229
 20
5.284673921
 30
0.0
 10
20.4302211178
 20
5.3187661004
 30
0.0
 10
20.402579086
 20
5.3538144102
 30
0.0
 10
20.3718828923
 20
5.3997124
 30
0.0
 10
20.3414863512
 20
5.4576770752
 30
0.0
 10
20.3179900253
 20
5.5176523545
 30
0.0
 10
20.3040942053
 20
5.5688619678
 30
0.0
 10
20.2964378393
 20
5.6100641558
 30
0.0
 10
20.2923988877
 20
5.6409052974
 30
0.0
 10
20.2900197752
 20
5.6717048308
 30
0.0
 10
20.2895220642
 20
5.6922258269
 30
0.0
 10
20.2895443162
 20
5.7024495572
 30
0.0
  0
SPLINE
  5
42B
100
AcDbEntity
  8
0
100
AcDbSpline
 62
9
  6
CONTINUOUS
 70
0
 71
3
 72
25
 73
21
 74
0
 42
0.0000001
 43
0.0000001
 44
0.0000000001
 40
0.0
 40
0.0
 40
0.0
 40
0.0
 40
0.0627475527
 40
0.1258485305
 40
0.1893232313
 40
0.2531309506
 40
0.3172220568
 40
0.3814975341
 40
0.4458463946
 40
0.5101202416
 40
0.5741615125
 40
0.637798174
 40
0.700843172
 40
0.7320928851
 40
0.7631180625
 40
0.824374532
 40
0.8545765373
 40
0.8844506508
 40
0.9430734702
 40
1.0
 40
1.0
 40
1.0
 40
1.0
 10
21.0098183383
 20
5.1159568176
 30
0.0
 10
20.9893438492
 20
5.1159568176
 30
0.0
 10
20.9482557074
 20
5.117770268
 30
0.0
 10
20.8869540165
 20
5.1260543192
 30
0.0
 10
20.826339893
 20
5.1400701258
 30
0.0
 10
20.7669979159
 20
5.1598090623
 30
0.0
 10
20.7095764323
 20
5.1852442842
 30
0.0
 10
20.6546988158
 20
5.216148126
 30
0.0
 10
20.6030339882
 20
5.2522727752
 30
0.0
 10
20.5551624026
 20
5.2931752041
 30
0.0
 10
20.5116869065
 20
5.3384013242
 30
0.0
 10
20.4730376738
 20
5.3872999909
 30
0.0
 10
20.4451158948
 20
5.4307164852
 30
0.0
 10
20.4255131907
 20
5.4666186303
 30
0.0
 10
20.4078945404
 20
5.5028862769
 30
0.0
 10
20.3930032862
 20
5.5400491938
 30
0.0
 10
20.3808315592
 20
5.5777332589
 30
0.0
 10
20.3705891532
 20
5.6150981698
 30
0.0
 10
20.3610802855
 20
5.6616508527
 30
0.0
 10
20.3567176757
 20
5.6991538011
 30
0.0
 10
20.3553656886
 20
5.7176796264
 30
0.0
  0
SPLINE
  5
42C
100
AcDbEntity
  8
0
100
AcDbSpline
 62
9
  6
CONTINUOUS
 70
0
 71
3
 72
11
 73
7
 74
0
 42
0.0000001
 43
0.0000001
 44
0.0000000001
 40
0.0
 40
0.0
 40
0.0
 40
0.0
 40
0.2494179985
 40
0.5006979264
 40
0.7516221138
 40
1.0
 40
1.0
 40
1.0
 40
1.0
 10
20.7990550035
 20
6.3493680544
 30
0.0
 10
20.8165731496
 20
6.3487791478
 30
0.0
 10
20.8517401026
 20
6.3475934978
 30
0.0
 10
20.9045379691
 20
6.3460249751
 30
0.0
 10
20.9572742829
 20
6.3448911289
 30
0.0
 10
20.992363391
 20
6.3445801696
 30
0.0
 10
21.0098183383
 20
6.3445801696
 30
0.0
  0
SPLINE
  5
42D
100
AcDbEntity
  8
0
100
AcDbSpline
 62
9
  6
CONTINUOUS
 70
0
 71
3
 72
31
 73
27
 74
0
 42
0.0000001
 43
0.0000001
 44
0.0000000001
 40
0.0
 40
0.0
 40
0.0
 40
0.0
 40
0.0772383201
 40
0.1552049304
 40
0.310894059
 40
0.3873949047
 40
0.4621870273
 40
0.5346671589
 40
0.5698547281
 40
0.604243233
 40
0.6377612665
 40
0.6703390247
 40
0.7019087028
 40
0.7324049973
 40
0.7617657503
 40
0.7899327876
 40
0.8168530222
 40
0.8424799242
 40
0.8667754993
 40
0.8897129805
 40
0.9112805101
 40
0.9314861901
 40
0.9503649565
 40
0.9679877309
 40
0.9844730001
 40
1.0
 40
1.0
 40
1.0
 40
1.0
 10
21.0098183383
 20
6.4082258154
 30
0.0
 10
20.994273939
 20
6.4080611156
 30
0.0
 10
20.9630363881
 20
6.4079280319
 30
0.0
 10
20.9004648719
 20
6.4081934079
 30
0.0
 10
20.8380454022
 20
6.4089061658
 30
0.0
 10
20.7762627264
 20
6.4093827703
 30
0.0
 10
20.7312249201
 20
6.4094441874
 30
0.0
 10
20.6945027244
 20
6.4091044474
 30
0.0
 10
20.6659180043
 20
6.4085007001
 30
0.0
 10
20.6451781611
 20
6.4078691217
 30
0.0
 10
20.6249711498
 20
6.4070328227
 30
0.0
 10
20.6053427716
 20
6.4059700262
 30
0.0
 10
20.586338786
 20
6.4046590539
 30
0.0
 10
20.5680048909
 20
6.4030782253
 30
0.0
 10
20.5503867018
 20
6.4012058818
 30
0.0
 10
20.5335297218
 20
6.3990203737
 30
0.0
 10
20.5174793004
 20
6.3965000463
 30
0.0
 10
20.5022805776
 20
6.3936232073
 30
0.0
 10
20.4879784133
 20
6.3903680679
 30
0.0
 10
20.4746172926
 20
6.3867126202
 30
0.0
 10
20.4622412593
 20
6.3826344617
 30
0.0
 10
20.4508937951
 20
6.3781103457
 30
0.0
 10
20.4406182021
 20
6.3731159607
 30
0.0
 10
20.4314572627
 20
6.3676240168
 30
0.0
 10
20.4234576249
 20
6.3616073503
 30
0.0
 10
20.4188127398
 20
6.3571087122
 30
0.0
 10
20.4167346264
 20
6.3547747872
 30
0.0
  0
SPLINE
  5
42E
100
AcDbEntity
  8
0
100
AcDbSpline
 62
9
  6
CONTINUOUS
 70
0
 71
3
 72
31
 73
27
 74
0
 42
0.0000001
 43
0.0000001
 44
0.0000000001
 40
0.0
 40
0.0
 40
0.0
 40
0.0
 40
0.153573041
 40
0.2306103714
 40
0.307037933
 40
0.3822828172
 40
0.4557833068
 40
0.526993055
 40
0.5615747773
 40
0.5953892324
 40
0.628375599
 40
0.660475719
 40
0.6916346554
 40
0.7218013933
 40
0.7509297239
 40
0.7789793682
 40
0.8059174106
 40
0.8317201348
 40
0.8563753763
 40
0.8798855243
 40
0.9022713159
 40
0.9235765334
 40
0.9438736105
 40
0.9632698993
 40
0.9819138901
 40
1.0
 40
1.0
 40
1.0
 40
1.0
 10
21.0098183383
 20
6.6059206096
 30
0.0
 10
20.9837025276
 20
6.6052657355
 30
0.0
 10
20.9444888827
 20
6.6041223593
 30
0.0
 10
20.8923063094
 20
6.6018836807
 30
0.0
 10
20.8534583383
 20
6.5997493315
 30
0.0
 10
20.8152466921
 20
6.5970680217
 30
0.0
 10
20.7779757663
 20
6.5937460355
 30
0.0
 10
20.7476643
 20
6.5903342119
 30
0.0
 10
20.7241275631
 20
6.5871666188
 30
0.0
 10
20.7070737786
 20
6.5845934288
 30
0.0
 10
20.6904844852
 20
6.5817880165
 30
0.0
 10
20.674397653
 20
6.5787385065
 30
0.0
 10
20.6588512205
 20
6.5754331065
 30
0.0
 10
20.6438830583
 20
6.5718599865
 30
0.0
 10
20.6295309593
 20
6.5680072936
 30
0.0
 10
20.6158326186
 20
6.5638631216
 30
0.0
 10
20.6028256136
 20
6.5594154762
 30
0.0
 10
20.5905473867
 20
6.5546522182
 30
0.0
 10
20.5790352399
 20
6.5495609813
 30
0.0
 10
20.5683263537
 20
6.5441290461
 30
0.0
 10
20.5584578811
 20
6.538343199
 30
0.0
 10
20.5494671049
 20
6.532189478
 30
0.0
 10
20.5413919379
 20
6.5256532622
 30
0.0
 10
20.5342710872
 20
6.5187184606
 30
0.0
 10
20.5281463495
 20
6.5113708976
 30
0.0
 10
20.52471693
 20
6.5061263616
 30
0.0
 10
20.5232000295
 20
6.5034497138
 30
0.0
  0
SPLINE
  5
42F
100
AcDbEntity
  8
0
100
AcDbSpline
 62
9
  6
CONTINUOUS
 70
0
 71
3
 72
32
 73
28
 74
0
 42
0.0000001
 43
0.0000001
 44
0.0000000001
 40
0.0
 40
0.0
 40
0.0
 40
0.0
 40
0.0756852403
 40
0.1517804881
 40
0.2277373892
 40
0.3030162571
 40
0.3770888237
 40
0.4494419581
 40
0.5195828263
 40
0.5536787519
 40
0.5870501082
 40
0.6196448497
 40
0.6514142563
 40
0.6823135848
 40
0.7123028719
 40
0.741347926
 40
0.7694215564
 40
0.7965050922
 40
0.8225902592
 40
0.8476814763
 40
0.8717986335
 40
0.894980374
 40
0.9172878332
 40
0.9388086492
 40
0.9596608437
 40
0.9799958875
 40
1.0
 40
1.0
 40
1.0
 40
1.0
 10
21.0098183383
 20
6.7376965246
 30
0.0
 10
20.9979382578
 20
6.7375144816
 30
0.0
 10
20.9741166043
 20
6.7369154195
 30
0.0
 10
20.9383999446
 20
6.7352815045
 30
0.0
 10
20.9027910735
 20
6.7328643089
 30
0.0
 10
20.8675662707
 20
6.729620659
 30
0.0
 10
20.8330010868
 20
6.7255075842
 30
0.0
 10
20.7993712754
 20
6.7204821388
 30
0.0
 10
20.7721022252
 20
6.7154523841
 30
0.0
 10
20.7509835005
 20
6.7108999168
 30
0.0
 10
20.7357012002
 20
6.7072608038
 30
0.0
 10
20.7208608672
 20
6.7033595772
 30
0.0
 10
20.706496876
 20
6.6991906985
 30
0.0
 10
20.6926436008
 20
6.6947487018
 30
0.0
 10
20.679335353
 20
6.6900280605
 30
0.0
 10
20.666606388
 20
6.6850231991
 30
0.0
 10
20.6544908969
 20
6.6797284578
 30
0.0
 10
20.6430230072
 20
6.6741380572
 30
0.0
 10
20.6322367954
 20
6.6682460466
 30
0.0
 10
20.6221663211
 20
6.6620462405
 30
0.0
 10
20.6128456961
 20
6.6555321405
 30
0.0
 10
20.6043092177
 20
6.6486968822
 30
0.0
 10
20.5965915498
 20
6.64153315
 30
0.0
 10
20.5897280781
 20
6.6340334379
 30
0.0
 10
20.5837549582
 20
6.6261896164
 30
0.0
 10
20.5787102809
 20
6.6179958753
 30
0.0
 10
20.5759779631
 20
6.6122661553
 30
0.0
 10
20.5747888888
 20
6.6093596249
 30
0.0
  0
SPLINE
  5
430
100
AcDbEntity
  8
0
100
AcDbSpline
 62
7
  6
CONTINUOUS
 70
0
 71
3
 72
31
 73
27
 74
0
 42
0.0000001
 43
0.0000001
 44
0.0000000001
 40
0.0
 40
0.0
 40
0.0
 40
0.0
 40
0.0737972566
 40
0.1477444113
 40
0.2214136765
 40
0.2943751916
 40
0.3662034544
 40
0.4364843393
 40
0.5048233911
 40
0.5708562815
 40
0.6029100349
 40
0.6342719772
 40
0.6649121191
 40
0.6948059805
 40
0.7239356306
 40
0.7522909126
 40
0.7798708757
 40
0.8066854302
 40
0.8327572273
 40
0.8581237356
 40
0.8828394428
 40
0.9069780483
 40
0.9306344267
 40
0.9539260596
 40
0.9769935705
 40
1.0
 40
1.0
 40
1.0
 40
1.0
 10
21.0098183383
 20
6.9169036206
 30
0.0
 10
20.9984464834
 20
6.9169036206
 30
0.0
 10
20.9756763339
 20
6.9163650816
 30
0.0
 10
20.9416284486
 20
6.9139985607
 30
0.0
 10
20.9078497417
 20
6.9101084106
 30
0.0
 10
20.8746060744
 20
6.9047321358
 30
0.0
 10
20.8421619303
 20
6.8979072742
 30
0.0
 10
20.8107813454
 20
6.8896712292
 30
0.0
 10
20.7807290049
 20
6.8800614633
 30
0.0
 10
20.756776189
 20
6.8708493524
 30
0.0
 10
20.7385259374
 20
6.862789596
 30
0.0
 10
20.7254732325
 20
6.8564823094
 30
0.0
 10
20.7129536936
 20
6.8498578112
 30
0.0
 10
20.7010003533
 20
6.8429204705
 30
0.0
 10
20.6896463464
 20
6.8356747335
 30
0.0
 10
20.678924778
 20
6.8281249108
 30
0.0
 10
20.6688687844
 20
6.8202752032
 30
0.0
 10
20.659511561
 20
6.8121296675
 30
0.0
 10
20.6508864203
 20
6.8036922044
 30
0.0
 10
20.6430268673
 20
6.7949665574
 30
0.0
 10
20.6359666973
 20
6.7859563589
 30
0.0
 10
20.629740089
 20
6.7766651729
 30
0.0
 10
20.6243817146
 20
6.7670968038
 30
0.0
 10
20.6199266457
 20
6.7572549469
 30
0.0
 10
20.6164106403
 20
6.7471455219
 30
0.0
 10
20.6147180844
 20
6.7402371364
 30
0.0
 10
20.6140421876
 20
6.7367569666
 30
0.0
  0
SPLINE
  5
431
100
AcDbEntity
  8
0
100
AcDbSpline
 62
7
  6
CONTINUOUS
 70
0
 71
3
 72
9
 73
5
 74
0
 42
0.0000001
 43
0.0000001
 44
0.0000000001
 40
0.0
 40
0.0
 40
0.0
 40
0.0
 40
0.4899867087
 40
1.0
 40
1.0
 40
1.0
 40
1.0
 10
20.6219942678
 20
6.901526471
 30
0.0
 10
20.6235304648
 20
6.8865627172
 30
0.0
 10
20.6252932744
 20
6.8558700375
 30
0.0
 10
20.624447287
 20
6.8251427642
 30
0.0
 10
20.6233925869
 20
6.8095211186
 30
0.0
  0
SPLINE
  5
432
100
AcDbEntity
  8
0
100
AcDbSpline
 62
9
  6
CONTINUOUS
 70
0
 71
3
 72
31
 73
27
 74
0
 42
0.0000001
 43
0.0000001
 44
0.0000000001
 40
0.0
 40
0.0
 40
0.0
 40
0.0
 40
0.026999305
 40
0.0540463897
 40
0.0811827748
 40
0.1084552954
 40
0.1359056517
 40
0.1635719211
 40
0.1914884737
 40
0.2196870304
 40
0.2770221105
 40
0.3062331394
 40
0.3358242843
 40
0.3658066264
 40
0.3961867346
 40
0.4581360902
 40
0.5216866173
 40
0.5540504849
 40
0.5867846378
 40
0.6532853676
 40
0.6870255152
 40
0.7210526259
 40
0.7898420197
 40
0.8594336896
 40
0.929576504
 40
1.0
 40
1.0
 40
1.0
 40
1.0
 10
20.617255121
 20
6.9357877702
 30
0.0
 10
20.6172551442
 20
6.9407084733
 30
0.0
 10
20.6175712773
 20
6.9505614755
 30
0.0
 10
20.618990183
 20
6.9652986788
 30
0.0
 10
20.6213534318
 20
6.9799652768
 30
0.0
 10
20.6246592537
 20
6.9945236414
 30
0.0
 10
20.6288979083
 20
7.0089387593
 30
0.0
 10
20.634054259
 20
7.0231760098
 30
0.0
 10
20.6401111872
 20
7.0372030934
 30
0.0
 10
20.649416587
 20
7.0556777746
 30
0.0
 10
20.6604422909
 20
7.0735110081
 30
0.0
 10
20.6730332796
 20
7.0905345899
 30
0.0
 10
20.6833523968
 20
7.1030092603
 30
0.0
 10
20.6944589865
 20
7.1150783041
 30
0.0
 10
20.7103792399
 20
7.1306933743
 30
0.0
 10
20.7321360452
 20
7.1490378356
 30
0.0
 10
20.7558296406
 20
7.1654346893
 30
0.0
 10
20.7759651169
 20
7.1774601286
 30
0.0
 10
20.7970821986
 20
7.1888451089
 30
0.0
 10
20.8191478532
 20
7.1989505271
 30
0.0
 10
20.8419893281
 20
7.207744546
 30
0.0
 10
20.8655636928
 20
7.215741881
 30
0.0
 10
20.8959033101
 20
7.2240507192
 30
0.0
 10
20.9332611797
 20
7.2312291959
 30
0.0
 10
20.9713541361
 20
7.2355532482
 30
0.0
 10
20.9969834481
 20
7.2365115193
 30
0.0
 10
21.0098183383
 20
7.2365091043
 30
0.0
  0
SPLINE
  5
433
100
AcDbEntity
  8
0
100
AcDbSpline
 62
7
  6
CONTINUOUS
 70
0
 71
3
 72
51
 73
47
 74
0
 42
0.0000001
 43
0.0000001
 44
0.0000000001
 40
0.0
 40
0.0
 40
0.0
 40
0.0
 40
0.0134434418
 40
0.0269592356
 40
0.0405639842
 40
0.0542734689
 40
0.0681022233
 40
0.0820634546
 40
0.0961689435
 40
0.1104289592
 40
0.1248522318
 40
0.1394458896
 40
0.1542154482
 40
0.1691648571
 40
0.1996034526
 40
0.2307707927
 40
0.2626449268
 40
0.2951832553
 40
0.3283249115
 40
0.36199331
 40
0.396098765
 40
0.4305411541
 40
0.4652124927
 40
0.499999613
 40
0.534786739
 40
0.5694580943
 40
0.6039005109
 40
0.6380060036
 40
0.671674449
 40
0.7048161601
 40
0.7373545503
 40
0.7692287512
 40
0.8003961611
 40
0.8308348276
 40
0.8457842716
 40
0.8605538648
 40
0.8751475561
 40
0.8895708611
 40
0.9038309076
 40
0.9179364256
 40
0.9318976837
 40
0.9457264625
 40
0.959435969
 40
0.9730407364
 40
0.9865565458
 40
1.0
 40
1.0
 40
1.0
 40
1.0
 10
21.4930932531
 20
10.4462513959
 30
0.0
 10
21.4921312024
 20
10.4518125764
 30
0.0
 10
21.4898770417
 20
10.4629113713
 30
0.0
 10
21.4855321952
 20
10.4793863239
 30
0.0
 10
21.4802244464
 20
10.4956946705
 30
0.0
 10
21.4739648623
 20
10.5118025286
 30
0.0
 10
21.466766388
 20
10.527677537
 30
0.0
 10
21.4586437073
 20
10.5432874816
 30
0.0
 10
21.4496134076
 20
10.5586007956
 30
0.0
 10
21.439694053
 20
10.5735866202
 30
0.0
 10
21.4289057566
 20
10.5882146954
 30
0.0
 10
21.4172705492
 20
10.6024554399
 30
0.0
 10
21.404811847
 20
10.6162805284
 30
0.0
 10
21.3870320565
 20
10.6342275611
 30
0.0
 10
21.3628441361
 20
10.6554632608
 30
0.0
 10
21.3311563608
 20
10.6786943421
 30
0.0
 10
21.2968829728
 20
10.6996485291
 30
0.0
 10
21.2603020863
 20
10.7181579006
 30
0.0
 10
21.2217077512
 20
10.7340760377
 30
0.0
 10
21.1814105497
 20
10.7472764348
 30
0.0
 10
21.1397343619
 20
10.7576541111
 30
0.0
 10
21.0970141345
 20
10.7651263693
 30
0.0
 10
21.0535931899
 20
10.7696337685
 30
0.0
 10
21.0098204617
 20
10.771140366
 30
0.0
 10
20.9660477163
 20
10.7696340602
 30
0.0
 10
20.9226267207
 20
10.7651269504
 30
0.0
 10
20.8799064086
 20
10.7576549769
 30
0.0
 10
20.8382301033
 20
10.7472775785
 30
0.0
 10
20.7979327523
 20
10.7340774502
 30
0.0
 10
20.759338237
 20
10.7181595706
 30
0.0
 10
20.7227571409
 20
10.6996504434
 30
0.0
 10
20.6884835155
 20
10.6786964855
 30
0.0
 10
20.6567954771
 20
10.6554656162
 30
0.0
 10
20.6326073162
 20
10.634230079
 30
0.0
 10
20.6148273219
 20
10.6162831652
 30
0.0
 10
20.6023684626
 20
10.6024581601
 30
0.0
 10
20.5907330933
 20
10.5882174934
 30
0.0
 10
20.5799446306
 20
10.5735894904
 30
0.0
 10
20.5700251056
 20
10.5586037322
 30
0.0
 10
20.5609946318
 20
10.5432904787
 30
0.0
 10
20.5528717736
 20
10.5276805885
 30
0.0
 10
20.5456731187
 20
10.5118056284
 30
0.0
 10
20.5394133513
 20
10.4956978123
 30
0.0
 10
20.5341054169
 20
10.4793895013
 30
0.0
 10
20.5297603829
 20
10.4629145778
 30
0.0
 10
20.5275060957
 20
10.4518157967
 30
0.0
 10
20.5265439816
 20
10.4462546219
 30
0.0
  0
SPLINE
  5
434
100
AcDbEntity
  8
0
100
AcDbSpline
 62
9
  6
CONTINUOUS
 70
0
 71
3
 72
49
 73
45
 74
0
 42
0.0000001
 43
0.0000001
 44
0.0000000001
 40
0.0
 40
0.0
 40
0.0
 40
0.0
 40
0.0135006553
 40
0.0270249995
 40
0.040593967
 40
0.0542303119
 40
0.0679546978
 40
0.0817867296
 40
0.0957446166
 40
0.109844827
 40
0.1241019953
 40
0.1385287959
 40
0.1679210124
 40
0.1980928841
 40
0.2290709837
 40
0.260850037
 40
0.293395528
 40
0.3266468216
 40
0.3605207552
 40
0.3949153328
 40
0.4297135102
 40
0.4647869955
 40
0.5
 40
0.5352130045
 40
0.5702864898
 40
0.6050846672
 40
0.6394792448
 40
0.6733531784
 40
0.706604472
 40
0.739149963
 40
0.7709290163
 40
0.8019071159
 40
0.8320789876
 40
0.8614712041
 40
0.8758980047
 40
0.890155173
 40
0.9042553834
 40
0.9182132704
 40
0.9320453022
 40
0.9457696881
 40
0.959406033
 40
0.9729750005
 40
0.9864993447
 40
1.0
 40
1.0
 40
1.0
 40
1.0
 10
21.4973183383
 20
10.5290874296
 30
0.0
 10
21.4973183383
 20
10.5351984603
 30
0.0
 10
21.4969258446
 20
10.5474348531
 30
0.0
 10
21.4951620947
 20
10.5657366862
 30
0.0
 10
21.4922270498
 20
10.5839504122
 30
0.0
 10
21.4881283483
 20
10.6020304983
 30
0.0
 10
21.4828758903
 20
10.6199336611
 30
0.0
 10
21.4764827332
 20
10.6376164175
 30
0.0
 10
21.4689645812
 20
10.655036106
 30
0.0
 10
21.4603398773
 20
10.6721505355
 30
0.0
 10
21.4506293523
 20
10.6889189774
 30
0.0
 10
21.4361797581
 20
10.710893669
 30
0.0
 10
21.4154608364
 20
10.7372991028
 30
0.0
 10
21.3868647662
 20
10.7667546601
 30
0.0
 10
21.3546529914
 20
10.7939099623
 30
0.0
 10
21.3191395011
 20
10.8185066159
 30
0.0
 10
21.2806655849
 20
10.8403139977
 30
0.0
 10
21.2396006892
 20
10.8591267768
 30
0.0
 10
21.1963380241
 20
10.8747675795
 30
0.0
 10
21.1512915904
 20
10.8870887768
 30
0.0
 10
21.1048922363
 20
10.8959739389
 30
0.0
 10
21.0575836768
 20
10.9013388571
 30
0.0
 10
21.0098183383
 20
10.9031329012
 30
0.0
 10
20.9620529998
 20
10.9013388571
 30
0.0
 10
20.9147444402
 20
10.8959739389
 30
0.0
 10
20.8683450862
 20
10.8870887768
 30
0.0
 10
20.8232986524
 20
10.8747675795
 30
0.0
 10
20.7800359873
 20
10.8591267768
 30
0.0
 10
20.7389710917
 20
10.8403139977
 30
0.0
 10
20.7004971755
 20
10.8185066159
 30
0.0
 10
20.6649836852
 20
10.7939099623
 30
0.0
 10
20.6327719104
 20
10.7667546601
 30
0.0
 10
20.6041758402
 20
10.7372991028
 30
0.0
 10
20.5834569184
 20
10.710893669
 30
0.0
 10
20.5690073242
 20
10.6889189774
 30
0.0
 10
20.5592967993
 20
10.6721505355
 30
0.0
 10
20.5506720954
 20
10.655036106
 30
0.0
 10
20.5431539433
 20
10.6376164175
 30
0.0
 10
20.5367607862
 20
10.6199336611
 30
0.0
 10
20.5315083283
 20
10.6020304983
 30
0.0
 10
20.5274096267
 20
10.5839504122
 30
0.0
 10
20.5244745818
 20
10.5657366862
 30
0.0
 10
20.522710832
 20
10.5474348531
 30
0.0
 10
20.5223183383
 20
10.5351984603
 30
0.0
 10
20.5223183383
 20
10.5290874296
 30
0.0
  0
SPLINE
  5
435
100
AcDbEntity
  8
0
100
AcDbSpline
 62
9
  6
CONTINUOUS
 70
0
 71
3
 72
22
 73
18
 74
0
 42
0.0000001
 43
0.0000001
 44
0.0000000001
 40
0.0
 40
0.0
 40
0.0
 40
0.0
 40
0.0537563633
 40
0.1079023004
 40
0.1627805936
 40
0.2187096557
 40
0.2471777751
 40
0.2760207512
 40
0.3348911675
 40
0.395435756
 40
0.4576523832
 40
0.5214798664
 40
0.58682422
 40
0.7214281577
 40
0.7903793787
 40
0.8600127606
 40
1.0
 40
1.0
 40
1.0
 40
1.0
 10
21.3873277399
 20
10.0265646244
 30
0.0
 10
21.3873277399
 20
10.0285380254
 30
0.0
 10
21.3870607269
 20
10.0325040091
 30
0.0
 10
21.3858748886
 20
10.038377372
 30
0.0
 10
21.3839176926
 20
10.0441250472
 30
0.0
 10
21.3816675056
 20
10.0487319452
 30
0.0
 10
21.3795069763
 20
10.0522859966
 30
0.0
 10
21.377073125
 20
10.0557912317
 30
0.0
 10
21.3735805386
 20
10.0599816951
 30
0.0
 10
21.3687763125
 20
10.0646221708
 30
0.0
 10
21.3633858854
 20
10.0688663521
 30
0.0
 10
21.3574650665
 20
10.0726687114
 30
0.0
 10
21.3488587198
 20
10.077131547
 30
0.0
 10
21.3395002638
 20
10.0804515724
 30
0.0
 10
21.3297049689
 20
10.0826387637
 30
0.0
 10
21.3195716053
 20
10.0840719649
 30
0.0
 10
21.3118360342
 20
10.0842506967
 30
0.0
 10
21.3067056278
 20
10.0839545931
 30
0.0
  0
SPLINE
  5
436
100
AcDbEntity
  8
0
100
AcDbSpline
 62
9
  6
CONTINUOUS
 70
0
 71
3
 72
23
 73
19
 74
0
 42
0.0000001
 43
0.0000001
 44
0.0000000001
 40
0.0
 40
0.0
 40
0.0
 40
0.0
 40
0.0549121695
 40
0.1100898334
 40
0.1378844058
 40
0.1658602358
 40
0.2224613427
 40
0.2801224325
 40
0.338990826
 40
0.3991677985
 40
0.4607218265
 40
0.5237009357
 40
0.5881377868
 40
0.6539994786
 40
0.7211848514
 40
0.7895547368
 40
0.8589455725
 40
1.0
 40
1.0
 40
1.0
 40
1.0
 10
21.4484656914
 20
7.8410706804
 30
0.0
 10
21.4484656914
 20
7.8427314547
 30
0.0
 10
21.4482786761
 20
7.8460639015
 30
0.0
 10
21.4475750703
 20
7.8501837072
 30
0.0
 10
21.4467313131
 20
7.8534330727
 30
0.0
 10
21.4456927658
 20
7.8566707291
 30
0.0
 10
21.4440419763
 20
7.8606530013
 30
0.0
 10
21.4415402047
 20
7.8652628336
 30
0.0
 10
21.4385339156
 20
7.869691638
 30
0.0
 10
21.4350473874
 20
7.8739063864
 30
0.0
 10
21.4311044548
 20
7.8778743157
 30
0.0
 10
21.4267292738
 20
7.881562816
 30
0.0
 10
21.4219465669
 20
7.8849357112
 30
0.0
 10
21.416797071
 20
7.8879738296
 30
0.0
 10
21.4113243332
 20
7.8906618467
 30
0.0
 10
21.4055707077
 20
7.892982964
 30
0.0
 10
21.3975428231
 20
7.8955790511
 30
0.0
 10
21.3912897133
 20
7.8969021038
 30
0.0
 10
21.3870655209
 20
7.8974984374
 30
0.0
  0
ENDSEC
  0
SECTION
  2
OBJECTS
  0
DICTIONARY
  5
C
100
AcDbDictionary
280
0
281
1
  3
ACAD_GROUP
350
D
  3
ACAD_MLINESTYLE
350
17
  3
ACAD_LAYOUT
350
1A
  3
ACAD_PLOTSETTINGS
350
19
  3
ACAD_PLOTSTYLENAME
350
E
  0
DICTIONARY
  5
D
102
{ACAD_REACTORS
330
C
102
}
100
AcDbDictionary
280
0
281
1
  0
ACDBDICTIONARYWDFLT
  5
E
102
{ACAD_REACTORS
330
C
102
}
100
AcDbDictionary
281
1
  3
Normal
350
F
100
AcDbDictionaryWithDefault
340
F
  0
DICTIONARY
  5
17
102
{ACAD_REACTORS
330
C
102
}
100
AcDbDictionary
280
0
281
1
  3
Standard
350
18
  0
DICTIONARY
  5
19
102
{ACAD_REACTORS
330
C
102
}
100
AcDbDictionary
281
1
  0
DICTIONARY
  5
1A
102
{ACAD_REACTORS
330
C
102
}
100
AcDbDictionary
281
1
  3
Model
350
437
  3
Layout1
350
438
  0
ACDBPLACEHOLDER
  5
F
102
{ACAD_REACTORS
330
E
102
}
  0
MLINESTYLE
  5
18
102
{ACAD_REACTORS
330
17
102
}
100
AcDbMlineStyle
  2
STANDARD
 70
0
  3

 62
256
 51
90.0
 52
90.0
 71
2
 49
0.5
 62
256
  6
BYLAYER
 49
-0.5
 62
256
  6
BYLAYER
  0
LAYOUT
  5
437
102
{ACAD_REACTORS
330
1A
102
}
100
AcDbPlotSettings
  1

  2
none_device
  4
ANSI_C_(22.00_x_17.00_Inches)
  6

 40
0.0
 41
0.0
 42
0.0
 43
0.0
 44
558.8
 45
431.8
 46
0.0
 47
0.0
 48
0.0
 49
0.0
140
0.0
141
0.0
142
1.0
143
1.0
 70
1024
 72
0
 73
0
 74
0
  7

 75
0
147
1.0
148
0.0
149
0.0
100
AcDbLayout
  1
Model
 70
0
 71
0
 10
0.0
 20
0.0
 11
22.0
 21
17.0
 12
0.0
 22
0.0
 32
0.0
 14
0.0
 24
0.0
 34
0.0
 15
0.0
 25
0.0
 35
0.0
146
0.0
 13
0.0
 23
0.0
 33
0.0
 16
1.0
 26
0.0
 36
0.0
 17
0.0
 27
1.0
 37
0.0
 76
0
330
205
345
0
346
0
  0
LAYOUT
  5
438
102
{ACAD_REACTORS
330
1A
102
}
100
AcDbPlotSettings
  1

  2
none_device
  4
ANSI_C_(22.00_x_17.00_Inches)
  6

 40
0.0
 41
0.0
 42
0.0
 43
0.0
 44
558.8
 45
431.8
 46
0.0
 47
0.0
 48
0.0
 49
0.0
140
0.0
141
0.0
142
1.0
143
1.0
 70
0
 72
0
 73
0
 74
0
  7

 75
0
147
1.0
148
0.0
149
0.0
100
AcDbLayout
  1
Layout1
 70
0
 71
1
 10
0.0
 20
0.0
 11
22.0
 21
17.0
 12
0.0
 22
0.0
 32
0.0
 14
0.0
 24
0.0
 34
0.0
 15
0.0
 25
0.0
 35
0.0
146
0.0
 13
0.0
 23
0.0
 33
0.0
 16
1.0
 26
0.0
 36
0.0
 17
0.0
 27
1.0
 37
0.0
 76
0
330
206
345
0
346
0
  0
ENDSEC
  0
EOF
