999
DXF file: E:\BT Custom\CADOUTPUT\_RIGHT.dxf
999
Pro/ENGINEER 2018400 by Parametric Technology Corporation
  0
SECTION
  2
HEADER
  9
$ACADVER
  1
AC1018
  9
$DWGCODEPAGE
  3
ANSI_1252
  9
$EXTMAX
 10
22.0
 20
17.0
 30
0.0
  9
$EXTMIN
 10
0.0
 20
0.0
 30
0.0
  9
$LIMMIN
 10
0.0
 20
0.0
  9
$LIMMAX
 10
22.0
 20
17.0
  9
$VIEWCTR
 10
11.0
 20
8.5
  9
$VIEWSIZE
 40
17.0
  9
$CLAYER
  8
0
  9
$LTSCALE
 40
1.21
  9
$CELTYPE
  6
BYLAYER
  9
$DIMSCALE
 40
1.0
  9
$DIMASZ
 40
0.1
  9
$DIMEXO
 40
0.0625
  9
$DIMDLI
 40
0.836
  9
$DIMEXE
 40
0.125
  9
$DIMCEN
 40
0.198
  9
$DIMLFAC
 40
1.0
  9
$DIMBLK
  1
_FILLED
  9
$DIMALT
 70
1
  9
$DIMALTD
 70
2
  9
$DIMALTTD
 70
2
  9
$DIMALTF
 40
25.4
  9
$DIMTXT
 40
0.08
  9
$DIMTOL
 70
1
  9
$DIMLIM
 70
0
  9
$DIMTFAC
 40
1.0
  9
$DIMTP
 40
0.001
  9
$DIMTM
 40
0.001
  9
$DIMGAP
 40
0.09
  9
$DIMDSEP
 70
46
  9
$AUNITS
 70
0
  9
$PDMODE
 70
3
  9
$PDSIZE
 40
0.06
  9
$HANDSEED
  5
48D
  9
$TILEMODE
 70
1
  9
$MEASUREMENT
 70
0
  9
$INSUNITS
 70
1
  0
ENDSEC
  0
SECTION
  2
CLASSES
  0
CLASS
  1
ACDBDICTIONARYWDFLT
  2
AcDbDictionaryWithDefault
  3
AutoCAD 2000
 90
0
 91
1
280
0
281
0
  0
CLASS
  1
ACDBPLACEHOLDER
  2
AcDbPlaceHolder
  3
AutoCAD 2000
 90
0
 91
1
280
0
281
0
  0
CLASS
  1
LAYOUT
  2
AcDbLayout
  3
AutoCAD 2000
 90
0
 91
0
280
0
281
0
  0
ENDSEC
  0
SECTION
  2
TABLES
  0
TABLE
  2
VPORT
  5
8
100
AcDbSymbolTable
 70
2
  0
VPORT
  5
1F4
100
AcDbSymbolTableRecord
100
AcDbViewportTableRecord
  2
*ACTIVE
 70
0
 10
0.0
 20
0.0
 11
1.0
 21
1.0
 12
11.0
 22
8.5
 13
0.0
 23
0.0
 14
1.0
 24
1.0
 15
0.0
 25
0.0
 16
0.0
 26
0.0
 36
1.0
 17
0.0
 27
0.0
 37
0.0
 40
17.0
 41
1.2941176471
 42
50.0
 43
0.0
 44
0.0
 50
0.0
 51
0.0
 71
0
 72
100
 73
1
 74
1
 75
0
 76
0
 77
0
 78
0
  0
ENDTAB
  0
TABLE
  2
LTYPE
  5
5
100
AcDbSymbolTable
 70
6
  0
LTYPE
  5
14
100
AcDbSymbolTableRecord
100
AcDbLinetypeTableRecord
  2
BYBLOCK
 70
0
  3

 72
65
 73
0
 40
0.0
  0
LTYPE
  5
15
100
AcDbSymbolTableRecord
100
AcDbLinetypeTableRecord
  2
BYLAYER
 70
0
  3

 72
65
 73
0
 40
0.0
  0
LTYPE
  5
16
100
AcDbSymbolTableRecord
100
AcDbLinetypeTableRecord
  2
CONTINUOUS
 70
64
  3
Solid line
 72
65
 73
0
 40
0.0
  0
LTYPE
  5
1F5
100
AcDbSymbolTableRecord
100
AcDbLinetypeTableRecord
  2
CENTER
 70
64
  3
____ _ ____ _ ____ _ ____ _ ____ _ ____ _ ____
 72
65
 73
4
 40
0.6
 49
0.375
 74
0
 49
-0.075
 74
0
 49
0.075
 74
0
 49
-0.075
 74
0
  0
LTYPE
  5
1F6
100
AcDbSymbolTableRecord
100
AcDbLinetypeTableRecord
  2
HIDDEN
 70
64
  3
- - - - - - - - - - - - - - - - - - - -
 72
65
 73
2
 40
0.2
 49
0.1
 74
0
 49
-0.1
 74
0
  0
LTYPE
  5
1F7
100
AcDbSymbolTableRecord
100
AcDbLinetypeTableRecord
  2
PHANTOM
 70
64
  3
_____ _ _ _____ _ _ _____ _ _ _____
 72
65
 73
6
 40
0.8
 49
0.45
 74
0
 49
-0.05
 74
0
 49
0.1
 74
0
 49
-0.05
 74
0
 49
0.1
 74
0
 49
-0.05
 74
0
  0
LTYPE
  5
1F8
100
AcDbSymbolTableRecord
100
AcDbLinetypeTableRecord
  2
DOT
 70
64
  3
. . . . . . . . . . . . . . . . . . . .
 72
65
 73
2
 40
0.2
 49
0.1
 74
0
 49
-0.1
 74
0
  0
LTYPE
  5
1F9
100
AcDbSymbolTableRecord
100
AcDbLinetypeTableRecord
  2
DASHED
 70
64
  3
- - - - - - - - - - - - - - - - - - - -
 72
65
 73
2
 40
0.2
 49
0.1
 74
0
 49
-0.1
 74
0
  0
ENDTAB
  0
TABLE
  2
LAYER
  5
2
100
AcDbSymbolTable
 70
36
  0
LAYER
  5
10
100
AcDbSymbolTableRecord
100
AcDbLayerTableRecord
  2
0
 70
0
 62
7
  6
CONTINUOUS
370
-3
390
F
  0
LAYER
  5
1FA
100
AcDbSymbolTableRecord
100
AcDbLayerTableRecord
  2
DEFAULT_1
 70
0
 62
7
  6
CENTER
370
-3
390
F
  0
LAYER
  5
1FB
100
AcDbSymbolTableRecord
100
AcDbLayerTableRecord
  2
DEFAULT_2
 70
0
 62
8
  6
HIDDEN
370
-3
390
F
  0
LAYER
  5
1FC
100
AcDbSymbolTableRecord
100
AcDbLayerTableRecord
  2
DEFAULT_3
 70
0
 62
7
  6
PHANTOM
370
-3
390
F
  0
LAYER
  5
1FD
100
AcDbSymbolTableRecord
100
AcDbLayerTableRecord
  2
ALL_FEATURES
 70
0
 62
7
  6
CONTINUOUS
370
-3
390
F
  0
LAYER
  5
1FE
100
AcDbSymbolTableRecord
100
AcDbLayerTableRecord
  2
AXES_FEATURES
 70
0
 62
7
  6
CONTINUOUS
370
-3
390
F
  0
LAYER
  5
1FF
100
AcDbSymbolTableRecord
100
AcDbLayerTableRecord
  2
DEFAULT_COORDINATE_SYSTEM
 70
0
 62
7
  6
CONTINUOUS
370
-3
390
F
  0
LAYER
  5
200
100
AcDbSymbolTableRecord
100
AcDbLayerTableRecord
  2
DEFAULT_DATUM_AXES
 70
0
 62
7
  6
CONTINUOUS
370
-3
390
F
  0
LAYER
  5
201
100
AcDbSymbolTableRecord
100
AcDbLayerTableRecord
  2
DEFAULT_DATUM_PLANES
 70
0
 62
7
  6
CONTINUOUS
370
-3
390
F
  0
LAYER
  5
202
100
AcDbSymbolTableRecord
100
AcDbLayerTableRecord
  2
DIMENSIONS
 70
0
 62
7
  6
CONTINUOUS
370
-3
390
F
  0
ENDTAB
  0
TABLE
  2
STYLE
  5
3
100
AcDbSymbolTable
 70
1
  0
STYLE
  5
11
100
AcDbSymbolTableRecord
100
AcDbTextStyleTableRecord
  2
STANDARD
 70
0
 40
0.0
 41
0.8
 50
0.0
 71
0
 42
0.2
  3
txt
  4

  0
STYLE
  5
203
100
AcDbSymbolTableRecord
100
AcDbTextStyleTableRecord
  2
TEXTSTYLE_1
 70
0
 40
0.0
 41
0.8
 50
0.0
 71
0
 42
0.2
  3
gdt
  4

  0
ENDTAB
  0
TABLE
  2
VIEW
  5
6
100
AcDbSymbolTable
 70
0
  0
ENDTAB
  0
TABLE
  2
UCS
  5
7
100
AcDbSymbolTable
 70
0
  0
ENDTAB
  0
TABLE
  2
APPID
  5
9
100
AcDbSymbolTable
 70
1
  0
APPID
  5
204
100
AcDbSymbolTableRecord
100
AcDbRegAppTableRecord
  2
ACAD
 70
0
  0
ENDTAB
  0
TABLE
  2
BLOCK_RECORD
  5
1
100
AcDbSymbolTable
 70
0
  0
BLOCK_RECORD
  5
205
100
AcDbSymbolTableRecord
100
AcDbBlockTableRecord
  2
*Model_Space
  0
BLOCK_RECORD
  5
206
100
AcDbSymbolTableRecord
100
AcDbBlockTableRecord
  2
*Paper_Space
  0
BLOCK_RECORD
  5
207
100
AcDbSymbolTableRecord
100
AcDbBlockTableRecord
  2
_FILLED
  0
ENDTAB
  0
TABLE
  2
DIMSTYLE
  5
A
100
AcDbSymbolTable
 70
1
100
AcDbDimStyleTable
 71
0
  0
DIMSTYLE
105
208
100
AcDbSymbolTableRecord
100
AcDbDimStyleTableRecord
  2
STANDARD
 70
0
  3

  4

 40
1.0
 41
0.1
 42
0.0625
 43
0.38
 44
0.125
 45
0.0
 46
0.0
 47
0.001
 48
0.001
140
0.08
141
0.09
142
0.0
143
25.4
144
1.0
145
0.0
146
1.0
147
0.09
 71
1.0
 72
0.0
 73
1
 74
1
 75
0
 76
0
 77
0
 78
4
 79
1
170
1
171
2
172
0
173
0
174
0
175
0
176
0
177
0
178
0
270
2
179
3
271
3
272
3
273
2
274
2
275
0
280
0
281
0
282
0
283
1
284
4
285
0
286
0
287
3
288
0
340
11
278
46
341
207
342
207
343
207
344
207
  0
ENDTAB
  0
ENDSEC
  0
SECTION
  2
BLOCKS
  0
BLOCK
  5
20
100
AcDbEntity
  8
0
100
AcDbBlockBegin
  2
*Model_Space
 70
0
 10
0.0
 20
0.0
 30
0.0
  3
*Model_Space
  1

  0
ENDBLK
  5
21
100
AcDbEntity
  8
0
100
AcDbBlockEnd
  0
BLOCK
  5
1C
100
AcDbEntity
  8
0
100
AcDbBlockBegin
  2
*Paper_Space
 70
0
 10
0.0
 20
0.0
 30
0.0
  3
*Paper_Space
  1

  0
ENDBLK
  5
1D
100
AcDbEntity
  8
0
100
AcDbBlockEnd
  0
BLOCK
  5
209
100
AcDbEntity
  8
0
100
AcDbBlockBegin
  2
_FILLED
 70
64
 10
0.0
 20
0.0
  3
_FILLED
  1

  0
SOLID
  5
20A
100
AcDbEntity
  8
0
  6
BYBLOCK
 62
0
100
AcDbTrace
 10
0.0
 20
0.0
 11
-1.0
 21
0.2
 12
-1.0
 22
-0.2
 13
-1.0
 23
-0.2
  0
ENDBLK
  5
20B
100
AcDbEntity
  8
0
  6
BYBLOCK
 62
0
100
AcDbBlockEnd
  0
ENDSEC
  0
SECTION
  2
ENTITIES
  0
LINE
  5
20C
100
AcDbEntity
  8
0
100
AcDbLine
 62
7
  6
CONTINUOUS
 10
4.2483645139
 20
9.4304682991
 11
4.2724542937
 21
9.0656802059
  0
LINE
  5
20D
100
AcDbEntity
  8
0
100
AcDbLine
 62
7
  6
CONTINUOUS
 10
4.3020757415
 20
9.9405813756
 11
4.3020757415
 21
9.6856982818
  0
LINE
  5
20E
100
AcDbEntity
  8
0
100
AcDbLine
 62
7
  6
CONTINUOUS
 10
5.3020757415
 20
9.9405813756
 11
5.3020757415
 21
9.6856982818
  0
LINE
  5
20F
100
AcDbEntity
  8
0
100
AcDbLine
 62
7
  6
CONTINUOUS
 10
5.355786969
 20
9.4304682991
 11
5.3316971893
 21
9.0656802059
  0
LINE
  5
210
100
AcDbEntity
  8
0
100
AcDbLine
 62
9
  6
CONTINUOUS
 10
7.4358877694
 20
11.4346926426
 11
7.7779079127
 21
12.3743852634
  0
LINE
  5
211
100
AcDbEntity
  8
0
100
AcDbLine
 62
7
  6
CONTINUOUS
 10
14.3168180498
 20
5.489228168
 11
17.1978934331
 21
5.489228168
  0
LINE
  5
212
100
AcDbEntity
  8
0
100
AcDbLine
 62
9
  6
CONTINUOUS
 10
14.3896712416
 20
5.5394883151
 11
17.1250402414
 21
5.5394883151
  0
LINE
  5
213
100
AcDbEntity
  8
0
100
AcDbLine
 62
9
  6
CONTINUOUS
 10
14.284115925
 20
5.5522622956
 11
14.401102341
 21
5.5522622956
  0
LINE
  5
214
100
AcDbEntity
  8
0
100
AcDbLine
 62
9
  6
CONTINUOUS
 10
17.113609142
 20
5.5522622956
 11
17.230595558
 21
5.5522622956
  0
LINE
  5
215
100
AcDbEntity
  8
0
100
AcDbLine
 62
9
  6
CONTINUOUS
 10
17.0135142897
 20
5.6700096843
 11
14.5011971933
 21
5.6700096843
  0
LINE
  5
216
100
AcDbEntity
  8
0
100
AcDbLine
 62
9
  6
CONTINUOUS
 10
17.0062263202
 20
5.7055247726
 11
14.5084851627
 21
5.7055247726
  0
LINE
  5
217
100
AcDbEntity
  8
0
100
AcDbLine
 62
9
  6
CONTINUOUS
 10
17.1557230463
 20
5.7223819571
 11
17.0078396597
 21
5.7223819571
  0
LINE
  5
218
100
AcDbEntity
  8
0
100
AcDbLine
 62
9
  6
CONTINUOUS
 10
14.5068718233
 20
5.7223819571
 11
14.3589884367
 21
5.7223819571
  0
LINE
  5
219
100
AcDbEntity
  8
0
100
AcDbLine
 62
9
  6
CONTINUOUS
 10
16.99686773
 20
5.750228168
 11
14.5178437529
 21
5.750228168
  0
LINE
  5
21A
100
AcDbEntity
  8
0
100
AcDbLine
 62
9
  6
CONTINUOUS
 10
17.1598334537
 20
5.750367933
 11
16.9967545506
 21
5.750367933
  0
LINE
  5
21B
100
AcDbEntity
  8
0
100
AcDbLine
 62
9
  6
CONTINUOUS
 10
14.5179569324
 20
5.750367933
 11
14.3548780293
 21
5.750367933
  0
LINE
  5
21C
100
AcDbEntity
  8
0
100
AcDbLine
 62
9
  6
CONTINUOUS
 10
14.3470362763
 20
5.7704688131
 11
14.5342343041
 21
5.7704688131
  0
LINE
  5
21D
100
AcDbEntity
  8
0
100
AcDbLine
 62
9
  6
CONTINUOUS
 10
16.9804771789
 20
5.7704688131
 11
17.1676752067
 21
5.7704688131
  0
LINE
  5
21E
100
AcDbEntity
  8
0
100
AcDbLine
 62
9
  6
CONTINUOUS
 10
14.35195087
 20
5.7951667676
 11
14.5542343133
 21
5.7951667676
  0
LINE
  5
21F
100
AcDbEntity
  8
0
100
AcDbLine
 62
9
  6
CONTINUOUS
 10
16.9604771696
 20
5.7951667676
 11
17.162760613
 21
5.7951667676
  0
LINE
  5
220
100
AcDbEntity
  8
0
100
AcDbLine
 62
7
  6
CONTINUOUS
 10
17.0638386483
 20
5.9309719496
 11
16.8505043017
 21
5.9309719496
  0
LINE
  5
221
100
AcDbEntity
  8
0
100
AcDbLine
 62
7
  6
CONTINUOUS
 10
14.6642071813
 20
5.9309719496
 11
14.4508728346
 21
5.9309719496
  0
LINE
  5
222
100
AcDbEntity
  8
0
100
AcDbLine
 62
7
  6
CONTINUOUS
 10
17.0404353274
 20
5.9357244648
 11
16.8466557907
 21
5.9357244648
  0
LINE
  5
223
100
AcDbEntity
  8
0
100
AcDbLine
 62
7
  6
CONTINUOUS
 10
14.6680556923
 20
5.9357244648
 11
14.4742761556
 21
5.9357244648
  0
LINE
  5
224
100
AcDbEntity
  8
0
100
AcDbLine
 62
9
  6
CONTINUOUS
 10
16.7635252357
 20
6.0383821508
 11
14.7511862473
 21
6.0383821508
  0
LINE
  5
225
100
AcDbEntity
  8
0
100
AcDbLine
 62
7
  6
CONTINUOUS
 10
16.7091250184
 20
6.0643297235
 11
14.8055864646
 21
6.0643297235
  0
LINE
  5
226
100
AcDbEntity
  8
0
100
AcDbLine
 62
9
  6
CONTINUOUS
 10
14.9483998911
 20
6.2348408538
 11
16.5663115918
 21
6.2348408538
  0
LINE
  5
227
100
AcDbEntity
  8
0
100
AcDbLine
 62
7
  6
CONTINUOUS
 10
15.0192084259
 20
6.264228168
 11
16.495503057
 21
6.264228168
  0
LINE
  5
228
100
AcDbEntity
  8
0
100
AcDbLine
 62
9
  6
CONTINUOUS
 10
15.5238876933
 20
6.2885174899
 11
15.9908237897
 21
6.28851749
  0
LINE
  5
229
100
AcDbEntity
  8
0
100
AcDbLine
 62
9
  6
CONTINUOUS
 10
15.6239840956
 20
6.323872829
 11
15.8907273874
 21
6.323872829
  0
LINE
  5
22A
100
AcDbEntity
  8
0
100
AcDbLine
 62
9
  6
CONTINUOUS
 10
16.5800494001
 20
6.371564908
 11
16.3048557415
 21
6.371564908
  0
LINE
  5
22B
100
AcDbEntity
  8
0
100
AcDbLine
 62
9
  6
CONTINUOUS
 10
15.2098557415
 20
6.371564908
 11
14.9346620828
 21
6.371564908
  0
LINE
  5
22C
100
AcDbEntity
  8
0
100
AcDbLine
 62
9
  6
CONTINUOUS
 10
15.2098557415
 20
6.4113995995
 11
16.3048557415
 21
6.4113995995
  0
LINE
  5
22D
100
AcDbEntity
  8
0
100
AcDbLine
 62
9
  6
CONTINUOUS
 10
16.5814710246
 20
6.4193434688
 11
16.3044605068
 21
6.4193434688
  0
LINE
  5
22E
100
AcDbEntity
  8
0
100
AcDbLine
 62
9
  6
CONTINUOUS
 10
15.2102509761
 20
6.4193434688
 11
14.9332404583
 21
6.4193434688
  0
LINE
  5
22F
100
AcDbEntity
  8
0
100
AcDbLine
 62
9
  6
CONTINUOUS
 10
15.2398557415
 20
6.4828138837
 11
16.2748557415
 21
6.4828138837
  0
LINE
  5
230
100
AcDbEntity
  8
0
100
AcDbLine
 62
9
  6
CONTINUOUS
 10
16.5590080269
 20
6.554079569
 11
16.2448557415
 21
6.554079569
  0
LINE
  5
231
100
AcDbEntity
  8
0
100
AcDbLine
 62
9
  6
CONTINUOUS
 10
15.2698557415
 20
6.554079569
 11
14.9557034561
 21
6.554079569
  0
LINE
  5
232
100
AcDbEntity
  8
0
100
AcDbLine
 62
7
  6
CONTINUOUS
 10
16.2448557415
 20
6.554228168
 11
15.2698557415
 21
6.554228168
  0
LINE
  5
233
100
AcDbEntity
  8
0
100
AcDbLine
 62
9
  6
CONTINUOUS
 10
16.5375558071
 20
6.5830588467
 11
16.2440814165
 21
6.5830588467
  0
LINE
  5
234
100
AcDbEntity
  8
0
100
AcDbLine
 62
9
  6
CONTINUOUS
 10
15.2672511358
 20
6.5830588467
 11
14.9771556759
 21
6.5830588467
  0
LINE
  5
235
100
AcDbEntity
  8
0
100
AcDbLine
 62
7
  6
CONTINUOUS
 10
9.8783181866
 20
11.493020757
 11
9.8762754909
 21
11.488457053
  0
LINE
  5
236
100
AcDbEntity
  8
0
100
AcDbLine
 62
7
  6
CONTINUOUS
 10
9.9511421783
 20
11.4439910085
 11
9.9489500689
 21
11.4390934908
  0
LINE
  5
237
100
AcDbEntity
  8
0
100
AcDbLine
 62
7
  6
CONTINUOUS
 10
10.1060313107
 20
11.3127272856
 11
10.1029312152
 21
11.3058011839
  0
LINE
  5
238
100
AcDbEntity
  8
0
100
AcDbLine
 62
9
  6
CONTINUOUS
 10
16.1335103362
 20
7.1679023232
 11
16.5375560876
 21
7.1679023232
  0
LINE
  5
239
100
AcDbEntity
  8
0
100
AcDbLine
 62
9
  6
CONTINUOUS
 10
16.1348318461
 20
7.1968818591
 11
16.5590082265
 21
7.1968818591
  0
LINE
  5
23A
100
AcDbEntity
  8
0
100
AcDbLine
 62
9
  6
CONTINUOUS
 10
16.5560942077
 20
7.3433859004
 11
16.1430471788
 21
7.3433859004
  0
LINE
  5
23B
100
AcDbEntity
  8
0
100
AcDbLine
 62
9
  6
CONTINUOUS
 10
16.5338539396
 20
7.3678071678
 11
16.1450849757
 21
7.3678071678
  0
LINE
  5
23C
100
AcDbEntity
  8
0
100
AcDbLine
 62
9
  6
CONTINUOUS
 10
15.826876697
 20
7.470261647
 11
16.1536341398
 21
7.470261647
  0
LINE
  5
23D
100
AcDbEntity
  8
0
100
AcDbLine
 62
9
  6
CONTINUOUS
 10
15.7899510731
 20
7.5142678919
 11
16.1803387376
 21
7.5142678919
  0
LINE
  5
23E
100
AcDbEntity
  8
0
100
AcDbLine
 62
9
  6
CONTINUOUS
 10
15.7478944992
 20
7.564388965
 11
16.2073557415
 21
7.5643889659
  0
LINE
  5
23F
100
AcDbEntity
  8
0
100
AcDbLine
 62
9
  6
CONTINUOUS
 10
15.7438339257
 20
7.569228168
 11
16.2073557415
 21
7.569228168
  0
LINE
  5
240
100
AcDbEntity
  8
0
100
AcDbLine
 62
7
  6
CONTINUOUS
 10
10.2431983706
 20
11.1908245782
 11
10.240098275
 21
11.1838984765
  0
LINE
  5
241
100
AcDbEntity
  8
0
100
AcDbLine
 62
7
  6
CONTINUOUS
 10
10.3929759952
 20
11.0603796712
 11
10.3898758996
 21
11.0534535694
  0
LINE
  5
242
100
AcDbEntity
  8
0
100
AcDbLine
 62
7
  6
CONTINUOUS
 10
15.6934879478
 20
7.629228168
 11
16.1473557415
 21
7.629228168
  0
LINE
  5
243
100
AcDbEntity
  8
0
100
AcDbLine
 62
7
  6
CONTINUOUS
 10
16.0818557415
 20
7.709228168
 11
15.6263599773
 21
7.709228168
  0
LINE
  5
244
100
AcDbEntity
  8
0
100
AcDbLine
 62
7
  6
CONTINUOUS
 10
16.0283557415
 20
7.959228168
 11
15.4863557415
 21
7.959228168
  0
LINE
  5
245
100
AcDbEntity
  8
0
100
AcDbLine
 62
7
  6
CONTINUOUS
 10
16.8987426206
 20
7.9597278213
 11
16.8837736442
 21
7.9597278213
  0
LINE
  5
246
100
AcDbEntity
  8
0
100
AcDbLine
 62
7
  6
CONTINUOUS
 10
10.5983714834
 20
10.9318065384
 11
10.6013465641
 21
10.9384533371
  0
LINE
  5
247
100
AcDbEntity
  8
0
100
AcDbLine
 62
9
  6
CONTINUOUS
 10
10.7102814233
 20
11.1206373218
 11
10.8736970844
 21
11.4857336432
  0
LINE
  5
248
100
AcDbEntity
  8
0
100
AcDbLine
 62
7
  6
CONTINUOUS
 10
10.6440085233
 20
10.9113795809
 11
10.6469836039
 21
10.9180263796
  0
LINE
  5
249
100
AcDbEntity
  8
0
100
AcDbLine
 62
7
  6
CONTINUOUS
 10
10.8767286178
 20
10.8438539217
 11
10.8736285222
 21
10.8369278199
  0
LINE
  5
24A
100
AcDbEntity
  8
0
100
AcDbLine
 62
7
  6
CONTINUOUS
 10
16.2713557415
 20
8.1397278213
 11
16.1813557415
 21
8.1397278213
  0
LINE
  5
24B
100
AcDbEntity
  8
0
100
AcDbLine
 62
7
  6
CONTINUOUS
 10
15.2640246133
 20
8.1397278213
 11
15.3333557415
 21
8.1397278213
  0
LINE
  5
24C
100
AcDbEntity
  8
0
100
AcDbLine
 62
7
  6
CONTINUOUS
 10
16.2713557415
 20
8.4997278213
 11
16.1813557415
 21
8.4997278213
  0
LINE
  5
24D
100
AcDbEntity
  8
0
100
AcDbLine
 62
7
  6
CONTINUOUS
 10
15.2433557415
 20
8.4997278213
 11
15.3333557415
 21
8.4997278213
  0
LINE
  5
24E
100
AcDbEntity
  8
0
100
AcDbLine
 62
7
  6
CONTINUOUS
 10
11.0737924961
 20
10.8190539518
 11
11.0706924005
 21
10.81212785
  0
LINE
  5
24F
100
AcDbEntity
  8
0
100
AcDbLine
 62
7
  6
CONTINUOUS
 10
11.2560847153
 20
10.7979679567
 11
11.2529846197
 21
10.7910418549
  0
LINE
  5
250
100
AcDbEntity
  8
0
100
AcDbLine
 62
7
  6
CONTINUOUS
 10
11.4571644938
 20
10.7699014111
 11
11.4549723843
 21
10.7650038934
  0
LINE
  5
251
100
AcDbEntity
  8
0
100
AcDbLine
 62
7
  6
CONTINUOUS
 10
11.54224466
 20
10.7482538866
 11
11.5402019642
 21
10.7436901826
  0
LINE
  5
252
100
AcDbEntity
  8
0
100
AcDbLine
 62
9
  6
CONTINUOUS
 10
12.2369606335
 20
10.8482859015
 11
12.5376819679
 21
11.1006203178
  0
LINE
  5
253
100
AcDbEntity
  8
0
100
AcDbLine
 62
7
  6
CONTINUOUS
 10
12.0808388288
 20
10.7172820026
 11
12.236958097
 21
10.8482883956
  0
LINE
  5
254
100
AcDbEntity
  8
0
100
AcDbLine
 62
9
  6
CONTINUOUS
 10
15.4584938459
 20
8.6574889312
 11
15.6330661576
 21
8.6574889312
  0
LINE
  5
255
100
AcDbEntity
  8
0
100
AcDbLine
 62
9
  6
CONTINUOUS
 10
15.8816452884
 20
8.6574889312
 11
16.056217637
 21
8.6574889312
  0
LINE
  5
256
100
AcDbEntity
  8
0
100
AcDbLine
 62
7
  6
CONTINUOUS
 10
15.4651204955
 20
8.6599997714
 11
15.6402879107
 21
8.6599997714
  0
LINE
  5
257
100
AcDbEntity
  8
0
100
AcDbLine
 62
7
  6
CONTINUOUS
 10
15.8744236096
 20
8.6599997714
 11
16.0495909875
 21
8.6599997714
  0
LINE
  5
258
100
AcDbEntity
  8
0
100
AcDbLine
 62
7
  6
CONTINUOUS
 10
16.8987426206
 20
8.6797278213
 11
16.8837736442
 21
8.6797278213
  0
LINE
  5
259
100
AcDbEntity
  8
0
100
AcDbLine
 62
9
  6
CONTINUOUS
 10
16.0373557415
 20
8.6799997714
 11
15.4773557415
 21
8.6799997714
  0
LINE
  5
25A
100
AcDbEntity
  8
0
100
AcDbLine
 62
9
  6
CONTINUOUS
 10
16.0373557415
 20
8.6868558014
 11
15.4773557415
 21
8.6868558014
  0
LINE
  5
25B
100
AcDbEntity
  8
0
100
AcDbLine
 62
9
  6
CONTINUOUS
 10
15.9831621931
 20
8.7625791601
 11
15.5315492899
 21
8.7625791601
  0
LINE
  5
25C
100
AcDbEntity
  8
0
100
AcDbLine
 62
7
  6
CONTINUOUS
 10
4.3020757637
 20
8.8356982818
 11
5.3020757193
 21
8.8356982818
  0
LINE
  5
25D
100
AcDbEntity
  8
0
100
AcDbLine
 62
9
  6
CONTINUOUS
 10
4.2536740301
 20
8.8886522024
 11
5.3504774528
 21
8.8886522024
  0
LINE
  5
25E
100
AcDbEntity
  8
0
100
AcDbLine
 62
9
  6
CONTINUOUS
 10
5.3540871265
 20
8.959717299
 11
4.2500643565
 21
8.959717299
  0
LINE
  5
25F
100
AcDbEntity
  8
0
100
AcDbLine
 62
9
  6
CONTINUOUS
 10
5.3316971893
 20
9.0656802059
 11
4.2724542937
 21
9.0656802059
  0
LINE
  5
260
100
AcDbEntity
  8
0
100
AcDbLine
 62
9
  6
CONTINUOUS
 10
11.3625138434
 20
10.0055176306
 11
11.62260996
 21
10.7201258379
  0
LINE
  5
261
100
AcDbEntity
  8
0
100
AcDbLine
 62
7
  6
CONTINUOUS
 10
12.5042422302
 20
9.8659750806
 11
13.2938053994
 21
10.5284972448
  0
LINE
  5
262
100
AcDbEntity
  8
0
100
AcDbLine
 62
9
  6
CONTINUOUS
 10
5.355786969
 20
9.4304682991
 11
4.2483645139
 21
9.4304682991
  0
LINE
  5
263
100
AcDbEntity
  8
0
100
AcDbLine
 62
9
  6
CONTINUOUS
 10
14.9808776395
 20
9.4715291796
 11
16.5338338434
 21
9.4715291796
  0
LINE
  5
264
100
AcDbEntity
  8
0
100
AcDbLine
 62
9
  6
CONTINUOUS
 10
14.9583628544
 20
9.4960194426
 11
16.5563486286
 21
9.4960194426
  0
LINE
  5
265
100
AcDbEntity
  8
0
100
AcDbLine
 62
9
  6
CONTINUOUS
 10
5.4047674706
 20
9.5489109277
 11
4.1993840124
 21
9.5489109277
  0
LINE
  5
266
100
AcDbEntity
  8
0
100
AcDbLine
 62
9
  6
CONTINUOUS
 10
12.6142997248
 20
9.7755672633
 11
13.3637284356
 21
10.4044126181
  0
LINE
  5
267
100
AcDbEntity
  8
0
100
AcDbLine
 62
9
  6
CONTINUOUS
 10
4.1821340543
 20
9.5924590049
 11
5.4220174286
 21
9.5924590049
  0
LINE
  5
268
100
AcDbEntity
  8
0
100
AcDbLine
 62
9
  6
CONTINUOUS
 10
14.9417841925
 20
9.6453887605
 11
16.5729272905
 21
9.6453887605
  0
LINE
  5
269
100
AcDbEntity
  8
0
100
AcDbLine
 62
7
  6
CONTINUOUS
 10
14.8173557415
 20
9.6700782818
 11
14.7944377809
 21
9.6700782818
  0
LINE
  5
26A
100
AcDbEntity
  8
0
100
AcDbLine
 62
7
  6
CONTINUOUS
 10
5.3320757415
 20
9.6856982818
 11
4.272076095
 21
9.6856982818
  0
LINE
  5
26B
100
AcDbEntity
  8
0
100
AcDbLine
 62
9
  6
CONTINUOUS
 10
14.9512589225
 20
9.6917412143
 11
16.5634525604
 21
9.6917412143
  0
LINE
  5
26C
100
AcDbEntity
  8
0
100
AcDbLine
 62
7
  6
CONTINUOUS
 10
12.3205537566
 20
9.7200782818
 11
12.3147157415
 21
9.7200782818
  0
LINE
  5
26D
100
AcDbEntity
  8
0
100
AcDbLine
 62
7
  6
CONTINUOUS
 10
12.2347157415
 20
9.8800782818
 11
12.0739157415
 21
9.8800782818
  0
LINE
  5
26E
100
AcDbEntity
  8
0
100
AcDbLine
 62
9
  6
CONTINUOUS
 10
5.3020757415
 20
9.9405813756
 11
4.3020757415
 21
9.9405813756
  0
LINE
  5
26F
100
AcDbEntity
  8
0
100
AcDbLine
 62
9
  6
CONTINUOUS
 10
12.0739157415
 20
9.8800782818
 11
12.0739157415
 21
10.4190151132
  0
LINE
  5
270
100
AcDbEntity
  8
0
100
AcDbLine
 62
7
  6
CONTINUOUS
 10
12.2347157415
 20
9.8000782818
 11
12.2347157415
 21
10.2123609629
  0
LINE
  5
271
100
AcDbEntity
  8
0
100
AcDbLine
 62
7
  6
CONTINUOUS
 10
11.3625138434
 20
10.0055176306
 11
7.4358877694
 21
11.4346926426
  0
LINE
  5
272
100
AcDbEntity
  8
0
100
AcDbLine
 62
7
  6
CONTINUOUS
 10
10.3933950246
 20
11.0410888566
 11
10.4342621561
 21
11.0134060999
  0
LINE
  5
273
100
AcDbEntity
  8
0
100
AcDbLine
 62
7
  6
CONTINUOUS
 10
10.2436174
 20
11.1715337636
 11
10.3894568703
 21
11.072744384
  0
LINE
  5
274
100
AcDbEntity
  8
0
100
AcDbLine
 62
9
  6
CONTINUOUS
 10
12.3147157415
 20
9.7200782818
 11
12.3147157415
 21
10.1095479528
  0
LINE
  5
275
100
AcDbEntity
  8
0
100
AcDbLine
 62
9
  6
CONTINUOUS
 10
12.3205537566
 20
9.7200782818
 11
12.3205537571
 21
10.1020451533
  0
LINE
  5
276
100
AcDbEntity
  8
0
100
AcDbLine
 62
9
  6
CONTINUOUS
 10
12.3851063668
 20
9.7528240695
 11
12.3851063669
 21
10.0190845518
  0
LINE
  5
277
100
AcDbEntity
  8
0
100
AcDbLine
 62
9
  6
CONTINUOUS
 10
12.4197999576
 20
9.7729697326
 11
12.4197999576
 21
9.9744976457
  0
LWPOLYLINE
  5
278
100
AcDbEntity
  8
0
100
AcDbPolyline
 62
7
  6
CONTINUOUS
 90
4
 70
0
 10
11.6205014079
 20
10.7202224918
 10
11.656232158
 20
10.7181157837
 10
11.6924750062
 20
10.7159206015
 10
11.7225256335
 20
10.7140483999
  0
LWPOLYLINE
  5
279
100
AcDbEntity
  8
0
100
AcDbPolyline
 62
7
  6
CONTINUOUS
 90
12
 70
0
 10
11.7225280264
 20
10.7140482487
 10
11.7333377393
 20
10.7131162059
 10
11.7471992089
 20
10.7112150543
 10
11.7617754039
 20
10.7083881959
 10
11.7770013087
 20
10.7045422618
 10
11.7928311156
 20
10.6995699516
 10
11.8092050993
 20
10.693353112
 10
11.8260600172
 20
10.6857556401
 10
11.8433245042
 20
10.676618872
 10
11.8607580377
 20
10.6658799674
 10
11.8779800111
 20
10.6536240904
 10
11.8947845259
 20
10.6398722785
  0
LINE
  5
27A
100
AcDbEntity
  8
0
100
AcDbLine
 62
7
  6
CONTINUOUS
 10
10.8620627467
 20
10.8313150485
 11
10.8141921445
 21
10.8433509485
  0
LINE
  5
27B
100
AcDbEntity
  8
0
100
AcDbLine
 62
7
  6
CONTINUOUS
 10
11.059126625
 20
10.8065150786
 11
10.8882943932
 21
10.8494666931
  0
LINE
  5
27C
100
AcDbEntity
  8
0
100
AcDbLine
 62
7
  6
CONTINUOUS
 10
11.2414188442
 20
10.7854290835
 11
11.1554055467
 21
10.8070550376
  0
LINE
  5
27D
100
AcDbEntity
  8
0
100
AcDbLine
 62
7
  6
CONTINUOUS
 10
11.1101074943
 20
10.8184441324
 11
11.0853582715
 21
10.8246667232
  0
LINE
  5
27E
100
AcDbEntity
  8
0
100
AcDbLine
 62
7
  6
CONTINUOUS
 10
11.4434066089
 20
10.759391122
 11
11.3594676589
 21
10.7804955318
  0
LINE
  5
27F
100
AcDbEntity
  8
0
100
AcDbLine
 62
7
  6
CONTINUOUS
 10
11.3141679044
 20
10.7918850545
 11
11.2676504907
 21
10.8035807281
  0
LINE
  5
280
100
AcDbEntity
  8
0
100
AcDbLine
 62
7
  6
CONTINUOUS
 10
10.8125451204
 20
10.8439217034
 11
10.8141921445
 21
10.8433509485
  0
LINE
  5
281
100
AcDbEntity
  8
0
100
AcDbLine
 62
7
  6
CONTINUOUS
 10
10.4357850476
 20
11.0125580133
 11
10.8125451204
 21
10.8439217034
  0
LINE
  5
282
100
AcDbEntity
  8
0
100
AcDbLine
 62
9
  6
CONTINUOUS
 10
10.8141921445
 20
10.8433509485
 11
10.4342621561
 21
11.0134060999
  0
LINE
  5
283
100
AcDbEntity
  8
0
100
AcDbLine
 62
9
  6
CONTINUOUS
 10
10.8620627467
 20
10.8313150485
 11
10.3933950246
 21
11.0410888566
  0
LINE
  5
284
100
AcDbEntity
  8
0
100
AcDbLine
 62
9
  6
CONTINUOUS
 10
10.8736285222
 20
10.8369278199
 11
10.3898758996
 21
11.0534535694
  0
LINE
  5
285
100
AcDbEntity
  8
0
100
AcDbLine
 62
9
  6
CONTINUOUS
 10
10.3929759952
 20
11.0603796712
 11
10.8767286178
 21
10.8438539217
  0
LINE
  5
286
100
AcDbEntity
  8
0
100
AcDbLine
 62
9
  6
CONTINUOUS
 10
10.3894568703
 20
11.072744384
 11
10.8882943932
 21
10.8494666931
  0
LINE
  5
287
100
AcDbEntity
  8
0
100
AcDbLine
 62
9
  6
CONTINUOUS
 10
11.059126625
 20
10.8065150786
 11
10.2436174
 21
11.1715337636
  0
LINE
  5
288
100
AcDbEntity
  8
0
100
AcDbLine
 62
9
  6
CONTINUOUS
 10
11.0706924005
 20
10.81212785
 11
10.240098275
 21
11.1838984765
  0
LINE
  5
289
100
AcDbEntity
  8
0
100
AcDbLine
 62
9
  6
CONTINUOUS
 10
10.2431983706
 20
11.1908245782
 11
11.0737924961
 21
10.8190539518
  0
LINE
  5
28A
100
AcDbEntity
  8
0
100
AcDbLine
 62
9
  6
CONTINUOUS
 10
10.2396792456
 20
11.2031892911
 11
11.0853582715
 21
10.8246667232
  0
LINE
  5
28B
100
AcDbEntity
  8
0
100
AcDbLine
 62
9
  6
CONTINUOUS
 10
11.2414188442
 20
10.7854290835
 11
10.1064503401
 21
11.293436471
  0
LINE
  5
28C
100
AcDbEntity
  8
0
100
AcDbLine
 62
9
  6
CONTINUOUS
 10
11.2529846197
 20
10.7910418549
 11
10.1029312152
 21
11.3058011839
  0
LINE
  5
28D
100
AcDbEntity
  8
0
100
AcDbLine
 62
9
  6
CONTINUOUS
 10
10.1060313107
 20
11.3127272856
 11
11.2560847153
 21
10.7979679567
  0
LINE
  5
28E
100
AcDbEntity
  8
0
100
AcDbLine
 62
9
  6
CONTINUOUS
 10
10.1025121858
 20
11.3250919985
 11
11.2676504907
 21
10.8035807281
  0
LINE
  5
28F
100
AcDbEntity
  8
0
100
AcDbLine
 62
9
  6
CONTINUOUS
 10
11.4434066089
 20
10.759391122
 11
9.9524691939
 21
11.426728778
  0
LINE
  5
290
100
AcDbEntity
  8
0
100
AcDbLine
 62
9
  6
CONTINUOUS
 10
11.4549723843
 20
10.7650038934
 11
9.9489500689
 21
11.4390934908
  0
LINE
  5
291
100
AcDbEntity
  8
0
100
AcDbLine
 62
9
  6
CONTINUOUS
 10
9.9511421783
 20
11.4439910085
 11
11.4571644938
 21
10.7699014111
  0
LINE
  5
292
100
AcDbEntity
  8
0
100
AcDbLine
 62
7
  6
CONTINUOUS
 10
9.8762754909
 20
11.488457053
 11
11.5402019642
 21
10.7436901826
  0
LINE
  5
293
100
AcDbEntity
  8
0
100
AcDbLine
 62
7
  6
CONTINUOUS
 10
9.8249225344
 20
11.5169204385
 11
11.5956407652
 21
10.7243540023
  0
LINE
  5
294
100
AcDbEntity
  8
0
100
AcDbLine
 62
7
  6
CONTINUOUS
 10
10.4357850476
 20
11.0125580133
 11
10.4342621561
 21
11.0134060999
  0
LINE
  5
295
100
AcDbEntity
  8
0
100
AcDbLine
 62
7
  6
CONTINUOUS
 10
10.968262199
 20
10.8299060904
 11
10.9680729897
 21
10.8300312569
  0
LINE
  5
296
100
AcDbEntity
  8
0
100
AcDbLine
 62
7
  6
CONTINUOUS
 10
11.1554308372
 20
10.8071556262
 11
11.1554071888
 21
10.8071714519
  0
LINE
  5
297
100
AcDbEntity
  8
0
100
AcDbLine
 62
7
  6
CONTINUOUS
 10
10.1064503401
 20
11.293436471
 11
10.2396792456
 21
11.2031892911
  0
LINE
  5
298
100
AcDbEntity
  8
0
100
AcDbLine
 62
7
  6
CONTINUOUS
 10
9.9524691939
 20
11.426728778
 11
10.0241278725
 21
11.3781883082
  0
LINE
  5
299
100
AcDbEntity
  8
0
100
AcDbLine
 62
7
  6
CONTINUOUS
 10
10.0628002714
 20
11.3519922291
 11
10.1025121858
 21
11.3250919985
  0
LINE
  5
29A
100
AcDbEntity
  8
0
100
AcDbLine
 62
7
  6
CONTINUOUS
 10
10.9229948497
 20
10.8413680116
 11
10.9231818408
 21
10.8412378895
  0
LINE
  5
29B
100
AcDbEntity
  8
0
100
AcDbLine
 62
7
  6
CONTINUOUS
 10
11.110135212
 20
10.8185543743
 11
11.1101586396
 21
10.8185380554
  0
LWPOLYLINE
  5
29C
100
AcDbEntity
  8
0
100
AcDbPolyline
 62
7
  6
CONTINUOUS
 90
6
 70
0
 10
14.7354988368
 20
7.247620601
 10
14.7449351046
 20
7.2369956624
 10
14.7565817782
 20
7.2253973182
 10
14.7690223009
 20
7.2145530097
 10
14.7822067658
 20
7.2045157525
 10
14.793925759
 20
7.1966634796
  0
LWPOLYLINE
  5
29D
100
AcDbEntity
  8
0
100
AcDbPolyline
 62
7
  6
CONTINUOUS
 90
6
 70
0
 10
14.7504110516
 20
7.2601334349
 10
14.7598342049
 20
7.2494951609
 10
14.7714290679
 20
7.237852117
 10
14.7837781713
 20
7.2269309435
 10
14.7968316165
 20
7.2167846328
 10
14.8076092354
 20
7.2093371283
  0
LWPOLYLINE
  5
29E
100
AcDbEntity
  8
0
100
AcDbPolyline
 62
7
  6
CONTINUOUS
 90
6
 70
0
 10
14.7843594975
 20
7.2886195634
 10
14.7937472751
 20
7.2779563779
 10
14.8052201029
 20
7.2662132317
 10
14.8173588403
 20
7.2551155446
 10
14.8301139853
 20
7.244716853
 10
14.8400215612
 20
7.2374200339
  0
LWPOLYLINE
  5
29F
100
AcDbEntity
  8
0
100
AcDbPolyline
 62
7
  6
CONTINUOUS
 90
6
 70
0
 10
14.8351402061
 20
7.3312296373
 10
14.8444802471
 20
7.3205236599
 10
14.8557734028
 20
7.3086288903
 10
14.8675980834
 20
7.2972680191
 10
14.8799055399
 20
7.2864945742
 10
14.8893914494
 20
7.2788462888
  0
LINE
  5
2A0
100
AcDbEntity
  8
0
100
AcDbLine
 62
7
  6
CONTINUOUS
 10
15.0851706623
 20
6.8295831281
 11
14.7959162379
 21
7.1743031276
  0
LINE
  5
2A1
100
AcDbEntity
  8
0
100
AcDbLine
 62
7
  6
CONTINUOUS
 10
12.6142997248
 20
9.7755672633
 11
14.7354988368
 21
7.247620601
  0
LINE
  5
2A2
100
AcDbEntity
  8
0
100
AcDbLine
 62
7
  6
CONTINUOUS
 10
15.2318379635
 20
6.6586811546
 11
15.0999415256
 21
6.8158692083
  0
LINE
  5
2A3
100
AcDbEntity
  8
0
100
AcDbLine
 62
7
  6
CONTINUOUS
 10
12.6292119396
 20
9.7880800972
 11
14.7504110516
 21
7.2601334349
  0
LINE
  5
2A4
100
AcDbEntity
  8
0
100
AcDbLine
 62
7
  6
CONTINUOUS
 10
12.6631603855
 20
9.8165662257
 11
14.7843594975
 21
7.2886195634
  0
LINE
  5
2A5
100
AcDbEntity
  8
0
100
AcDbLine
 62
7
  6
CONTINUOUS
 10
11.9362401157
 20
10.595950682
 11
12.5042424856
 21
9.8659752646
  0
LWPOLYLINE
  5
2A6
100
AcDbEntity
  8
0
100
AcDbPolyline
 62
7
  6
CONTINUOUS
 90
9
 70
0
 10
12.6008567052
 20
9.947044251
 10
12.60414855
 20
9.9314063242
 10
12.6091996882
 20
9.913516303
 10
12.6155702566
 20
9.8958963086
 10
12.6231783751
 20
9.8786269679
 10
12.6319260249
 20
9.8617732832
 10
12.6417814576
 20
9.8454508292
 10
12.6527062933
 20
9.8297693508
 10
12.6631603855
 20
9.8165662257
  0
LWPOLYLINE
  5
2A7
100
AcDbEntity
  8
0
100
AcDbPolyline
 62
7
  6
CONTINUOUS
 90
9
 70
0
 10
12.5704178312
 20
9.921503003
 10
12.5729775096
 20
9.905263685
 10
12.5772852568
 20
9.8867590995
 10
12.5830263389
 20
9.8686163379
 10
12.5901195115
 20
9.850916841
 10
12.5984651105
 20
9.8337244682
 10
12.6080360725
 20
9.8171581923
 10
12.6187981162
 20
9.801330776
 10
12.6292119396
 20
9.7880800972
  0
LWPOLYLINE
  5
2A8
100
AcDbEntity
  8
0
100
AcDbPolyline
 62
7
  6
CONTINUOUS
 90
9
 70
0
 10
12.5570376237
 20
9.9102756759
 10
12.5592793364
 20
9.8937643884
 10
12.5632649345
 20
9.8749854153
 10
12.5687336613
 20
9.8566114097
 10
12.5756038646
 20
9.838723744
 10
12.583774688
 20
9.821385427
 10
12.5932206769
 20
9.804716712
 10
12.6039088255
 20
9.788831411
 10
12.6142997248
 20
9.7755672633
  0
LINE
  5
2A9
100
AcDbEntity
  8
0
100
AcDbLine
 62
7
  6
CONTINUOUS
 10
14.8173557415
 20
11.0900782818
 11
14.7944377809
 21
11.0900782818
  0
LINE
  5
2AA
100
AcDbEntity
  8
0
100
AcDbLine
 62
7
  6
CONTINUOUS
 10
16.1523557415
 20
11.3637321844
 11
15.3623557415
 21
11.3637321844
  0
LINE
  5
2AB
100
AcDbEntity
  8
0
100
AcDbLine
 62
9
  6
CONTINUOUS
 10
15.3623557415
 20
11.4187321844
 11
16.1523557415
 21
11.4187321844
  0
LINE
  5
2AC
100
AcDbEntity
  8
0
100
AcDbLine
 62
7
  6
CONTINUOUS
 10
15.4323557415
 20
11.4887321844
 11
16.0823557415
 21
11.4887321844
  0
LINE
  5
2AD
100
AcDbEntity
  8
0
100
AcDbLine
 62
7
  6
CONTINUOUS
 10
9.8531876307
 20
11.6190452183
 11
7.7779079127
 21
12.3743852634
  0
LINE
  5
2AE
100
AcDbEntity
  8
0
100
AcDbLine
 62
7
  6
CONTINUOUS
 10
13.1661668284
 20
10.4019255227
 11
13.1516376665
 21
10.4092043525
  0
LINE
  5
2AF
100
AcDbEntity
  8
0
100
AcDbLine
 62
7
  6
CONTINUOUS
 10
12.7139410941
 20
9.8591762995
 11
14.8351402061
 21
7.3312296373
  0
LINE
  5
2B0
100
AcDbEntity
  8
0
100
AcDbLine
 62
7
  6
CONTINUOUS
 10
14.9004951222
 20
7.3860689232
 11
12.7792960102
 21
9.9140155855
  0
LINE
  5
2B1
100
AcDbEntity
  8
0
100
AcDbLine
 62
7
  6
CONTINUOUS
 10
14.9788686741
 20
7.4518321417
 11
12.8576695621
 21
9.979778804
  0
LINE
  5
2B2
100
AcDbEntity
  8
0
100
AcDbLine
 62
7
  6
CONTINUOUS
 10
15.2708238185
 20
7.1550675706
 11
15.0651317834
 21
7.4002017924
  0
LINE
  5
2B3
100
AcDbEntity
  8
0
100
AcDbLine
 62
7
  6
CONTINUOUS
 10
15.0654950851
 20
7.5245203312
 11
12.9442959731
 21
10.0524669935
  0
LINE
  5
2B4
100
AcDbEntity
  8
0
100
AcDbLine
 62
7
  6
CONTINUOUS
 10
15.1549312992
 20
7.5995662255
 11
13.0337321872
 21
10.1275128878
  0
LWPOLYLINE
  5
2B5
100
AcDbEntity
  8
0
100
AcDbPolyline
 62
7
  6
CONTINUOUS
 90
9
 70
0
 10
12.651054976
 20
9.96969641
 10
12.6525164926
 20
9.9653971314
 10
12.6586790068
 20
9.9492921244
 10
12.6658836757
 20
9.9332901398
 10
12.6740553777
 20
9.9174575981
 10
12.6831237954
 20
9.9018596475
 10
12.6930662471
 20
9.8865951845
 10
12.703848294
 20
9.8717577346
 10
12.7139410941
 20
9.8591762995
  0
LINE
  5
2B6
100
AcDbEntity
  8
0
100
AcDbLine
 62
7
  6
CONTINUOUS
 10
12.651054976
 20
9.96969641
 11
12.6464099631
 21
9.9852679729
  0
LINE
  5
2B7
100
AcDbEntity
  8
0
100
AcDbLine
 62
7
  6
CONTINUOUS
 10
15.2323557415
 20
11.7237321844
 11
16.2823557415
 21
11.7237321844
  0
LINE
  5
2B8
100
AcDbEntity
  8
0
100
AcDbLine
 62
9
  6
CONTINUOUS
 10
15.2123557415
 20
11.7437321844
 11
16.3023557415
 21
11.7437321844
  0
LINE
  5
2B9
100
AcDbEntity
  8
0
100
AcDbLine
 62
9
  6
CONTINUOUS
 10
15.2123557415
 20
11.8337321844
 11
16.3023557415
 21
11.8337321844
  0
LINE
  5
2BA
100
AcDbEntity
  8
0
100
AcDbLine
 62
7
  6
CONTINUOUS
 10
15.2323557415
 20
11.8537321844
 11
16.2823557415
 21
11.8537321844
  0
LINE
  5
2BB
100
AcDbEntity
  8
0
100
AcDbLine
 62
7
  6
CONTINUOUS
 10
10.7887464709
 20
12.0292231537
 11
10.754520881
 21
12.0353424374
  0
LINE
  5
2BC
100
AcDbEntity
  8
0
100
AcDbLine
 62
7
  6
CONTINUOUS
 10
10.8885640477
 20
12.0089978524
 11
10.8919204908
 21
12.0082555878
  0
LINE
  5
2BD
100
AcDbEntity
  8
0
100
AcDbLine
 62
7
  6
CONTINUOUS
 10
10.9837399111
 20
11.9863560184
 11
10.8885640477
 21
12.0089978524
  0
LINE
  5
2BE
100
AcDbEntity
  8
0
100
AcDbLine
 62
7
  6
CONTINUOUS
 10
10.9479708589
 20
11.9948652865
 11
10.8919204908
 21
12.0082555878
  0
LINE
  5
2BF
100
AcDbEntity
  8
0
100
AcDbLine
 62
7
  6
CONTINUOUS
 10
11.0852276039
 20
11.9585046964
 11
10.9837399111
 21
11.9863560184
  0
LINE
  5
2C0
100
AcDbEntity
  8
0
100
AcDbLine
 62
7
  6
CONTINUOUS
 10
13.2938052706
 20
10.5284969576
 11
12.0290319723
 21
11.4854600427
  0
LINE
  5
2C1
100
AcDbEntity
  8
0
100
AcDbLine
 62
7
  6
CONTINUOUS
 10
12.0388693878
 20
11.4780486136
 11
12.0388652681
 21
11.4780518706
  0
LWPOLYLINE
  5
2C2
100
AcDbEntity
  8
0
100
AcDbPolyline
 62
7
  6
CONTINUOUS
 90
9
 70
0
 10
13.3637284356
 20
10.4044126181
 10
13.3524701608
 20
10.4169489514
 10
13.3386821707
 20
10.4302331765
 10
13.3239069697
 20
10.4424301517
 10
13.3082509093
 20
10.453487609
 10
13.2918279957
 20
10.463359599
 10
13.274682767
 20
10.4719358561
 10
13.2568811806
 20
10.4791218385
 10
13.241010006
 20
10.4841966496
  0
LWPOLYLINE
  5
2C3
100
AcDbEntity
  8
0
100
AcDbPolyline
 62
7
  6
CONTINUOUS
 90
9
 70
0
 10
13.3488162208
 20
10.3918997842
 10
13.337575191
 20
10.4044563544
 10
13.323857038
 20
10.4178033004
 10
13.3092044212
 20
10.4301055616
 10
13.2937224372
 20
10.4413097964
 10
13.2775235519
 20
10.4513686932
 10
13.2606533481
 20
10.4601730129
 10
13.2431779213
 20
10.4676286032
 10
13.2276297985
 20
10.4729693224
  0
LWPOLYLINE
  5
2C4
100
AcDbEntity
  8
0
100
AcDbPolyline
 62
7
  6
CONTINUOUS
 90
9
 70
0
 10
13.3148677749
 20
10.3634136557
 10
13.3036805689
 20
10.3760016253
 10
13.2901344052
 20
10.3894835484
 10
13.2757713039
 20
10.4020236194
 10
13.260692678
 20
10.4135649843
 10
13.2450068333
 20
10.4240563079
 10
13.2287607638
 20
10.433389773
 10
13.2120196532
 20
10.4414707427
 10
13.1971909244
 20
10.4474280744
  0
LWPOLYLINE
  5
2C5
100
AcDbEntity
  8
0
100
AcDbPolyline
 62
7
  6
CONTINUOUS
 90
9
 70
0
 10
13.2640870662
 20
10.3208035818
 10
13.2535265662
 20
10.3328436214
 10
13.240875208
 20
10.3459594742
 10
13.2276677531
 20
10.3583296356
 10
13.2139887913
 20
10.3699053732
 10
13.1999304192
 20
10.3806491511
 10
13.1855449661
 20
10.3904841621
 10
13.1708831879
 20
10.3993262023
 10
13.1661668284
 20
10.4019255227
  0
LINE
  5
2C6
100
AcDbEntity
  8
0
100
AcDbLine
 62
7
  6
CONTINUOUS
 10
15.4831162819
 20
7.3332020984
 11
15.2774242468
 21
7.5783363202
  0
LINE
  5
2C7
100
AcDbEntity
  8
0
100
AcDbLine
 62
7
  6
CONTINUOUS
 10
15.2415577102
 20
7.6722544151
 11
13.1203585983
 21
10.2002010774
  0
LINE
  5
2C8
100
AcDbEntity
  8
0
100
AcDbLine
 62
7
  6
CONTINUOUS
 10
15.3199312621
 20
7.7380176336
 11
13.1987321502
 21
10.2659642959
  0
LINE
  5
2C9
100
AcDbEntity
  8
0
100
AcDbLine
 62
7
  6
CONTINUOUS
 10
15.3852861782
 20
7.7928569195
 11
13.2640870662
 21
10.3208035818
  0
LINE
  5
2CA
100
AcDbEntity
  8
0
100
AcDbLine
 62
7
  6
CONTINUOUS
 10
15.4360668868
 20
7.8354669934
 11
13.3148677749
 21
10.3634136557
  0
LINE
  5
2CB
100
AcDbEntity
  8
0
100
AcDbLine
 62
7
  6
CONTINUOUS
 10
15.4700153327
 20
7.8639531219
 11
13.3488162208
 21
10.3918997842
  0
LINE
  5
2CC
100
AcDbEntity
  8
0
100
AcDbLine
 62
7
  6
CONTINUOUS
 10
15.9787312955
 20
7.2853990741
 11
15.8468348576
 21
7.4425871278
  0
LINE
  5
2CD
100
AcDbEntity
  8
0
100
AcDbLine
 62
7
  6
CONTINUOUS
 10
15.4849275475
 20
7.8764659558
 11
13.3637284356
 21
10.4044126181
  0
LINE
  5
2CE
100
AcDbEntity
  8
0
100
AcDbLine
 62
7
  6
CONTINUOUS
 10
15.8358942166
 20
7.4595149856
 11
15.5466397922
 21
7.804234985
  0
LINE
  5
2CF
100
AcDbEntity
  8
0
100
AcDbLine
 62
7
  6
CONTINUOUS
 10
16.99686773
 20
5.750228168
 11
16.7635252357
 21
6.0383821508
  0
LINE
  5
2D0
100
AcDbEntity
  8
0
100
AcDbLine
 62
7
  6
CONTINUOUS
 10
10.3417670796
 20
12.0724884172
 11
10.34177101
 21
12.0724887887
  0
LINE
  5
2D1
100
AcDbEntity
  8
0
100
AcDbLine
 62
7
  6
CONTINUOUS
 10
10.3649368857
 20
12.0741404709
 11
10.34177101
 21
12.0724887887
  0
LINE
  5
2D2
100
AcDbEntity
  8
0
100
AcDbLine
 62
7
  6
CONTINUOUS
 10
10.3916224551
 20
12.074707812
 11
10.3649368857
 21
12.0741404709
  0
LINE
  5
2D3
100
AcDbEntity
  8
0
100
AcDbLine
 62
7
  6
CONTINUOUS
 10
10.4171296815
 20
12.0739178866
 11
10.3916224551
 21
12.074707812
  0
LINE
  5
2D4
100
AcDbEntity
  8
0
100
AcDbLine
 62
7
  6
CONTINUOUS
 10
17.162760613
 20
5.7951667676
 11
17.0638386483
 21
5.9309719496
  0
LWPOLYLINE
  5
2D5
100
AcDbEntity
  8
0
100
AcDbPolyline
 62
7
  6
CONTINUOUS
 90
6
 70
0
 10
15.4274530764
 20
7.7303336015
 10
15.4215681965
 20
7.7410035095
 10
15.4130955918
 20
7.7549947773
 10
15.403960652
 20
7.7686126089
 10
15.3942076266
 20
7.7817997013
 10
15.3852861782
 20
7.7928569195
  0
LINE
  5
2D6
100
AcDbEntity
  8
0
100
AcDbLine
 62
9
  6
CONTINUOUS
 10
14.701522822
 20
11.0359736779
 11
14.701522822
 21
9.7241828857
  0
LINE
  5
2D7
100
AcDbEntity
  8
0
100
AcDbLine
 62
9
  6
CONTINUOUS
 10
14.7354988368
 20
7.247620601
 11
15.4849275475
 21
7.8764659558
  0
LINE
  5
2D8
100
AcDbEntity
  8
0
100
AcDbLine
 62
7
  6
CONTINUOUS
 10
15.5148251061
 20
7.8036474395
 11
15.5098141584
 21
7.7994427551
  0
LINE
  5
2D9
100
AcDbEntity
  8
0
100
AcDbLine
 62
7
  6
CONTINUOUS
 10
15.4909315791
 20
7.7835983898
 11
15.4767666838
 21
7.7717126313
  0
LINE
  5
2DA
100
AcDbEntity
  8
0
100
AcDbLine
 62
7
  6
CONTINUOUS
 10
15.446145269
 20
7.7460182135
 11
15.424939343
 21
7.7282243288
  0
LINE
  5
2DB
100
AcDbEntity
  8
0
100
AcDbLine
 62
7
  6
CONTINUOUS
 10
15.3832802642
 20
7.6932682111
 11
15.3563657539
 21
7.6706842555
  0
LINE
  5
2DC
100
AcDbEntity
  8
0
100
AcDbLine
 62
7
  6
CONTINUOUS
 10
15.3062866041
 20
7.6286628594
 11
15.2753546473
 21
7.6027078658
  0
LINE
  5
2DD
100
AcDbEntity
  8
0
100
AcDbLine
 62
7
  6
CONTINUOUS
 10
15.2200020838
 20
7.5562615502
 11
15.186996249
 21
7.5285663664
  0
LINE
  5
2DE
100
AcDbEntity
  8
0
100
AcDbLine
 62
7
  6
CONTINUOUS
 10
15.1298482768
 20
7.480613524
 11
15.096842442
 21
7.4529183402
  0
LINE
  5
2DF
100
AcDbEntity
  8
0
100
AcDbLine
 62
7
  6
CONTINUOUS
 10
15.0414898784
 20
7.4064720245
 11
15.0105579216
 21
7.3805170309
  0
LINE
  5
2E0
100
AcDbEntity
  8
0
100
AcDbLine
 62
7
  6
CONTINUOUS
 10
14.9604787718
 20
7.3384956348
 11
14.9335642616
 21
7.3159116792
  0
LINE
  5
2E1
100
AcDbEntity
  8
0
100
AcDbLine
 62
7
  6
CONTINUOUS
 10
14.8919051827
 20
7.2809555615
 11
14.8706992568
 21
7.2631616769
  0
LINE
  5
2E2
100
AcDbEntity
  8
0
100
AcDbLine
 62
7
  6
CONTINUOUS
 10
14.840077842
 20
7.237467259
 11
14.8259129466
 21
7.2255815005
  0
LINE
  5
2E3
100
AcDbEntity
  8
0
100
AcDbLine
 62
7
  6
CONTINUOUS
 10
14.8071730961
 20
7.2098568988
 11
14.8020194196
 21
7.2055324509
  0
LWPOLYLINE
  5
2E4
100
AcDbEntity
  8
0
100
AcDbPolyline
 62
7
  6
CONTINUOUS
 90
6
 70
0
 10
15.4768229645
 20
7.7717598565
 10
15.4713574308
 20
7.7827839975
 10
15.4633316268
 20
7.7971510759
 10
15.4545104086
 20
7.8110324906
 10
15.4449379034
 20
7.8243701953
 10
15.4360668868
 20
7.8354669934
  0
LWPOLYLINE
  5
2E5
100
AcDbEntity
  8
0
100
AcDbPolyline
 62
7
  6
CONTINUOUS
 90
6
 70
0
 10
15.510107569
 20
7.7988032209
 10
15.504644718
 20
7.8107103586
 10
15.4969192604
 20
7.8253273783
 10
15.4883084044
 20
7.8393853104
 10
15.4788556725
 20
7.8528258125
 10
15.4700153327
 20
7.8639531219
  0
LWPOLYLINE
  5
2E6
100
AcDbEntity
  8
0
100
AcDbPolyline
 62
7
  6
CONTINUOUS
 90
6
 70
0
 10
15.5249647872
 20
7.8100780585
 10
15.5192667851
 20
7.8229825566
 10
15.5116714754
 20
7.8377096684
 10
15.5031521915
 20
7.8518442834
 10
15.4937524772
 20
7.8653280469
 10
15.4849275475
 20
7.8764659558
  0
LINE
  5
2E7
100
AcDbEntity
  8
0
100
AcDbLine
 62
9
  6
CONTINUOUS
 10
14.7357048234
 20
11.0581629254
 11
14.7357048234
 21
9.7019936383
  0
LINE
  5
2E8
100
AcDbEntity
  8
0
100
AcDbLine
 62
9
  6
CONTINUOUS
 10
14.7944377809
 20
9.6700782818
 11
14.7944377809
 21
11.0900782818
  0
LINE
  5
2E9
100
AcDbEntity
  8
0
100
AcDbLine
 62
9
  6
CONTINUOUS
 10
14.8173557415
 20
9.6700782818
 11
14.8173557415
 21
11.0900782818
  0
LINE
  5
2EA
100
AcDbEntity
  8
0
100
AcDbLine
 62
7
  6
CONTINUOUS
 10
14.8873557415
 20
9.7400782818
 11
14.8873557415
 21
11.0200782818
  0
LINE
  5
2EB
100
AcDbEntity
  8
0
100
AcDbLine
 62
7
  6
CONTINUOUS
 10
15.2098557415
 20
6.4113995995
 11
15.2098557415
 21
6.264228168
  0
LINE
  5
2EC
100
AcDbEntity
  8
0
100
AcDbLine
 62
7
  6
CONTINUOUS
 10
15.2123557415
 20
11.7437321844
 11
15.2123557415
 21
11.8337321844
  0
LINE
  5
2ED
100
AcDbEntity
  8
0
100
AcDbLine
 62
9
  6
CONTINUOUS
 10
15.2129945986
 20
8.2005430246
 11
15.2129945986
 21
8.5373874238
  0
LINE
  5
2EE
100
AcDbEntity
  8
0
100
AcDbLine
 62
9
  6
CONTINUOUS
 10
15.5466397922
 20
7.804234985
 11
15.2774242468
 21
7.5783363202
  0
LINE
  5
2EF
100
AcDbEntity
  8
0
100
AcDbLine
 62
9
  6
CONTINUOUS
 10
15.0651317834
 20
7.4002017924
 11
14.7959162379
 21
7.1743031276
  0
LINE
  5
2F0
100
AcDbEntity
  8
0
100
AcDbLine
 62
7
  6
CONTINUOUS
 10
15.2708238185
 20
7.1550675706
 11
15.4831162819
 21
7.3332020984
  0
LINE
  5
2F1
100
AcDbEntity
  8
0
100
AcDbLine
 62
9
  6
CONTINUOUS
 10
15.8358942166
 20
7.4595149856
 11
15.0851706623
 21
6.8295831281
  0
LINE
  5
2F2
100
AcDbEntity
  8
0
100
AcDbLine
 62
7
  6
CONTINUOUS
 10
15.0999415256
 20
6.8158692083
 11
15.8468348576
 21
7.4425871278
  0
LINE
  5
2F3
100
AcDbEntity
  8
0
100
AcDbLine
 62
7
  6
CONTINUOUS
 10
15.2433557415
 20
8.1643600235
 11
15.2433557415
 21
8.4997278213
  0
LINE
  5
2F4
100
AcDbEntity
  8
0
100
AcDbLine
 62
9
  6
CONTINUOUS
 10
15.3333557415
 20
8.1397278213
 11
15.3333557415
 21
8.4997278213
  0
LINE
  5
2F5
100
AcDbEntity
  8
0
100
AcDbLine
 62
7
  6
CONTINUOUS
 10
15.3433557415
 20
8.4986272344
 11
15.3433557415
 21
8.1408284082
  0
LINE
  5
2F6
100
AcDbEntity
  8
0
100
AcDbLine
 62
7
  6
CONTINUOUS
 10
15.3623557415
 20
11.3637321844
 11
15.3623557415
 21
11.4187321844
  0
LINE
  5
2F7
100
AcDbEntity
  8
0
100
AcDbLine
 62
7
  6
CONTINUOUS
 10
15.4773557415
 20
8.6868558014
 11
15.4773557415
 21
8.6799997714
  0
LINE
  5
2F8
100
AcDbEntity
  8
0
100
AcDbLine
 62
7
  6
CONTINUOUS
 10
15.4988557415
 20
7.8580074831
 11
15.4988557415
 21
7.959228168
  0
LINE
  5
2F9
100
AcDbEntity
  8
0
100
AcDbLine
 62
9
  6
CONTINUOUS
 10
15.5238876933
 20
6.2885174899
 11
15.5238876933
 21
6.264228168
  0
LINE
  5
2FA
100
AcDbEntity
  8
0
100
AcDbLine
 62
9
  6
CONTINUOUS
 10
15.5452089762
 20
6.2885174899
 11
15.5452089762
 21
6.264228168
  0
LINE
  5
2FB
100
AcDbEntity
  8
0
100
AcDbLine
 62
7
  6
CONTINUOUS
 10
14.35195087
 20
5.7951667676
 11
14.4508728346
 21
5.9309719496
  0
LINE
  5
2FC
100
AcDbEntity
  8
0
100
AcDbLine
 62
7
  6
CONTINUOUS
 10
14.5178437529
 20
5.750228168
 11
14.7511862473
 21
6.0383821508
  0
LINE
  5
2FD
100
AcDbEntity
  8
0
100
AcDbLine
 62
9
  6
CONTINUOUS
 10
15.2318379635
 20
6.6586811546
 11
15.9787312955
 21
7.2853990741
  0
LINE
  5
2FE
100
AcDbEntity
  8
0
100
AcDbLine
 62
9
  6
CONTINUOUS
 10
15.9695025067
 20
6.264228168
 11
15.9695025067
 21
6.2885174899
  0
LINE
  5
2FF
100
AcDbEntity
  8
0
100
AcDbLine
 62
9
  6
CONTINUOUS
 10
15.9908237897
 20
6.264228168
 11
15.9908237897
 21
6.28851749
  0
LINE
  5
300
100
AcDbEntity
  8
0
100
AcDbLine
 62
7
  6
CONTINUOUS
 10
16.0158557415
 20
7.709228168
 11
16.0158557415
 21
7.959228168
  0
LINE
  5
301
100
AcDbEntity
  8
0
100
AcDbLine
 62
7
  6
CONTINUOUS
 10
16.0373557415
 20
8.6868558014
 11
16.0373557415
 21
8.6799997714
  0
LINE
  5
302
100
AcDbEntity
  8
0
100
AcDbLine
 62
7
  6
CONTINUOUS
 10
16.0818557415
 20
7.629228168
 11
16.0818557415
 21
7.709228168
  0
LINE
  5
303
100
AcDbEntity
  8
0
100
AcDbLine
 62
7
  6
CONTINUOUS
 10
16.1523557415
 20
11.3637321844
 11
16.1523557415
 21
11.4187321844
  0
LINE
  5
304
100
AcDbEntity
  8
0
100
AcDbLine
 62
7
  6
CONTINUOUS
 10
16.1713557415
 20
8.1408284082
 11
16.1713557415
 21
8.4986272344
  0
LINE
  5
305
100
AcDbEntity
  8
0
100
AcDbLine
 62
9
  6
CONTINUOUS
 10
16.1813557415
 20
8.4997278213
 11
16.1813557415
 21
8.1397278213
  0
LINE
  5
306
100
AcDbEntity
  8
0
100
AcDbLine
 62
7
  6
CONTINUOUS
 10
16.2073557415
 20
7.5643889659
 11
16.2073557415
 21
7.569228168
  0
LINE
  5
307
100
AcDbEntity
  8
0
100
AcDbLine
 62
7
  6
CONTINUOUS
 10
16.2713557415
 20
8.4997278213
 11
16.2713557415
 21
8.1397278213
  0
LINE
  5
308
100
AcDbEntity
  8
0
100
AcDbLine
 62
9
  6
CONTINUOUS
 10
16.3017168844
 20
8.5373874238
 11
16.3017168844
 21
8.1020682188
  0
LINE
  5
309
100
AcDbEntity
  8
0
100
AcDbLine
 62
7
  6
CONTINUOUS
 10
16.3023557415
 20
11.7437321844
 11
16.3023557415
 21
11.8337321844
  0
LINE
  5
30A
100
AcDbEntity
  8
0
100
AcDbLine
 62
7
  6
CONTINUOUS
 10
16.3048557415
 20
6.4113995995
 11
16.3048557415
 21
6.264228168
  0
LINE
  5
30B
100
AcDbEntity
  8
0
100
AcDbLine
 62
9
  6
CONTINUOUS
 10
16.8055743066
 20
8.0133482896
 11
16.8055743066
 21
8.626107353
  0
LINE
  5
30C
100
AcDbEntity
  8
0
100
AcDbLine
 62
9
  6
CONTINUOUS
 10
16.8379859205
 20
8.6498147413
 11
16.8379859205
 21
7.9896409013
  0
LINE
  5
30D
100
AcDbEntity
  8
0
100
AcDbLine
 62
9
  6
CONTINUOUS
 10
16.8837736442
 20
8.6797278213
 11
16.8837736442
 21
7.9597278213
  0
LINE
  5
30E
100
AcDbEntity
  8
0
100
AcDbLine
 62
9
  6
CONTINUOUS
 10
16.8987426206
 20
8.6797278213
 11
16.8987426206
 21
7.9597278213
  0
LINE
  5
30F
100
AcDbEntity
  8
0
100
AcDbLine
 62
9
  6
CONTINUOUS
 10
16.948664626
 20
8.6325194833
 11
16.948664626
 21
8.0069361593
  0
LINE
  5
310
100
AcDbEntity
  8
0
100
AcDbLine
 62
9
  6
CONTINUOUS
 10
16.972095086
 20
8.0994804477
 11
16.972095086
 21
8.5399751949
  0
ARC
  5
311
100
AcDbEntity
  8
0
100
AcDbCircle
 62
7
  6
CONTINUOUS
 10
-22.8690939444
 20
6.8754994868
 40
39.407734852
100
AcDbArc
 50
359.5748101664
 51
0.4251348685
  0
ARC
  5
312
100
AcDbEntity
  8
0
100
AcDbCircle
 62
7
  6
CONTINUOUS
 10
13.3806043134
 20
1.3274469548
 40
8.5
100
AcDbArc
 50
81.0598780347
 51
86.7712567777
  0
ARC
  5
313
100
AcDbEntity
  8
0
100
AcDbCircle
 62
7
  6
CONTINUOUS
 10
13.3806043134
 20
1.3274469548
 40
8.5
100
AcDbArc
 50
95.2518172946
 51
96.4903463107
  0
ARC
  5
314
100
AcDbEntity
  8
0
100
AcDbCircle
 62
7
  6
CONTINUOUS
 10
14.3157559764
 20
4.9169091605
 40
3.73
100
AcDbArc
 50
76.0811997271
 51
81.3898485381
  0
ARC
  5
315
100
AcDbEntity
  8
0
100
AcDbCircle
 62
7
  6
CONTINUOUS
 10
15.0418126471
 20
4.4646491543
 40
2.45
100
AcDbArc
 50
36.9049486426
 51
51.1081952499
  0
ARC
  5
316
100
AcDbEntity
  8
0
100
AcDbCircle
 62
7
  6
CONTINUOUS
 10
13.5075495647
 20
6.215598507
 40
2.1515652966
100
AcDbArc
 50
38.0360452783
 51
40.0336657531
  0
ARC
  5
317
100
AcDbEntity
  8
0
100
AcDbCircle
 62
7
  6
CONTINUOUS
 10
15.7272937743
 20
5.4581013102
 40
1.1
100
AcDbArc
 50
135.0793467699
 51
146.5626793777
  0
ARC
  5
318
100
AcDbEntity
  8
0
100
AcDbCircle
 62
9
  6
CONTINUOUS
 10
15.7575071601
 20
5.7778222757
 40
0.5996147766
100
AcDbArc
 50
75.8457522408
 51
90.014468663
  0
ARC
  5
319
100
AcDbEntity
  8
0
100
AcDbCircle
 62
9
  6
CONTINUOUS
 10
15.7571576408
 20
5.7782067498
 40
0.5992286534
100
AcDbArc
 50
89.9810585348
 51
104.1589092384
  0
ARC
  5
31A
100
AcDbEntity
  8
0
100
AcDbCircle
 62
9
  6
CONTINUOUS
 10
15.7573567932
 20
5.8445830054
 40
0.4975001246
100
AcDbArc
 50
74.4498639587
 51
105.5497021285
  0
ARC
  5
31B
100
AcDbEntity
  8
0
100
AcDbCircle
 62
7
  6
CONTINUOUS
 10
13.8998659582
 20
5.8229132941
 40
0.47
100
AcDbArc
 50
324.8405965889
 51
347.6492068003
  0
ARC
  5
31C
100
AcDbEntity
  8
0
100
AcDbCircle
 62
7
  6
CONTINUOUS
 10
15.0192084259
 20
6.164228168
 40
0.1
100
AcDbArc
 50
90.0
 51
135.0793467699
  0
ARC
  5
31D
100
AcDbEntity
  8
0
100
AcDbCircle
 62
7
  6
CONTINUOUS
 10
14.4248057215
 20
5.789228168
 40
0.08
100
AcDbArc
 50
193.561676092
 51
209.0618146147
  0
ARC
  5
31E
100
AcDbEntity
  8
0
100
AcDbCircle
 62
7
  6
CONTINUOUS
 10
14.8055864646
 20
5.9943297235
 40
0.07
100
AcDbArc
 50
90.0
 51
141.0
  0
ARC
  5
31F
100
AcDbEntity
  8
0
100
AcDbCircle
 62
7
  6
CONTINUOUS
 10
14.4742761556
 20
5.8757244648
 40
0.06
100
AcDbArc
 50
90.0
 51
112.9579434027
  0
ARC
  5
320
100
AcDbEntity
  8
0
100
AcDbCircle
 62
7
  6
CONTINUOUS
 10
14.556701051
 20
5.7187621485
 40
0.05
100
AcDbArc
 50
141.0
 51
195.3519508339
  0
ARC
  5
321
100
AcDbEntity
  8
0
100
AcDbCircle
 62
7
  6
CONTINUOUS
 10
14.3168180498
 20
5.529228168
 40
0.04
100
AcDbArc
 50
144.8405965888
 51
270.0
  0
ARC
  5
322
100
AcDbEntity
  8
0
100
AcDbCircle
 62
7
  6
CONTINUOUS
 10
14.3199141832
 20
5.7309378155
 40
0.04
100
AcDbArc
 50
347.6492068002
 51
29.061814615
  0
ARC
  5
323
100
AcDbEntity
  8
0
100
AcDbCircle
 62
7
  6
CONTINUOUS
 10
14.4699124521
 20
5.6949348718
 40
0.04
100
AcDbArc
 50
321.4549572015
 51
15.351950834
  0
ARC
  5
324
100
AcDbEntity
  8
0
100
AcDbCircle
 62
7
  6
CONTINUOUS
 10
14.3761998182
 20
5.7775035712
 40
0.03
100
AcDbArc
 50
143.9299999994
 51
193.5616760922
  0
ARC
  5
325
100
AcDbEntity
  8
0
100
AcDbCircle
 62
7
  6
CONTINUOUS
 10
14.411796486
 20
5.519228168
 40
0.03
100
AcDbArc
 50
137.5195783576
 51
270.0
  0
ARC
  5
326
100
AcDbEntity
  8
0
100
AcDbCircle
 62
7
  6
CONTINUOUS
 10
7.6835627261
 20
7.8811369807
 40
4.2080411583
100
AcDbArc
 50
55.5697412961
 51
56.2057327159
  0
ARC
  5
327
100
AcDbEntity
  8
0
100
AcDbCircle
 62
7
  6
CONTINUOUS
 10
6.8920757415
 20
9.9405813756
 40
2.59
100
AcDbArc
 50
70.0
 51
180.0
  0
ARC
  5
328
100
AcDbEntity
  8
0
100
AcDbCircle
 62
7
  6
CONTINUOUS
 10
6.8920757415
 20
9.9405813756
 40
1.59
100
AcDbArc
 50
70.0
 51
180.0
  0
ARC
  5
329
100
AcDbEntity
  8
0
100
AcDbCircle
 62
7
  6
CONTINUOUS
 10
5.1585861155
 20
9.0154501309
 40
0.23
100
AcDbArc
 50
308.5991453359
 51
326.544075754
  0
ARC
  5
32A
100
AcDbEntity
  8
0
100
AcDbCircle
 62
7
  6
CONTINUOUS
 10
4.4455653674
 20
9.0154501309
 40
0.23
100
AcDbArc
 50
213.455924246
 51
231.4008546641
  0
ARC
  5
32B
100
AcDbEntity
  8
0
100
AcDbCircle
 62
7
  6
CONTINUOUS
 10
4.0728889707
 20
9.0525013638
 40
0.2
100
AcDbArc
 50
332.359630363
 51
3.7781977072
  0
ARC
  5
32C
100
AcDbEntity
  8
0
100
AcDbCircle
 62
7
  6
CONTINUOUS
 10
5.5312625122
 20
9.0525013638
 40
0.2
100
AcDbArc
 50
176.2218022928
 51
207.640369637
  0
ARC
  5
32D
100
AcDbEntity
  8
0
100
AcDbCircle
 62
7
  6
CONTINUOUS
 10
4.048799191
 20
9.417289457
 40
0.2
100
AcDbArc
 50
3.7781977072
 51
41.1556880677
  0
ARC
  5
32E
100
AcDbEntity
  8
0
100
AcDbCircle
 62
7
  6
CONTINUOUS
 10
5.555352292
 20
9.417289457
 40
0.2
100
AcDbArc
 50
138.8443119323
 51
176.2218022928
  0
ARC
  5
32F
100
AcDbEntity
  8
0
100
AcDbCircle
 62
7
  6
CONTINUOUS
 10
5.3320757415
 20
9.5956982818
 40
0.09
100
AcDbArc
 50
357.9373667573
 51
90.0
  0
ARC
  5
330
100
AcDbEntity
  8
0
100
AcDbCircle
 62
7
  6
CONTINUOUS
 10
4.2720757415
 20
9.5956982818
 40
0.09
100
AcDbArc
 50
90.0
 51
182.0626332427
  0
ARC
  5
331
100
AcDbEntity
  8
0
100
AcDbCircle
 62
7
  6
CONTINUOUS
 10
5.3520627831
 20
9.5949784425
 40
0.07
100
AcDbArc
 50
318.8443119323
 51
357.9373667573
  0
ARC
  5
332
100
AcDbEntity
  8
0
100
AcDbCircle
 62
7
  6
CONTINUOUS
 10
5.2920757415
 20
8.9272428763
 40
0.07
100
AcDbArc
 50
326.544075754
 51
27.640369637
  0
ARC
  5
333
100
AcDbEntity
  8
0
100
AcDbCircle
 62
7
  6
CONTINUOUS
 10
4.2520886999
 20
9.5949784425
 40
0.07
100
AcDbArc
 50
182.0626332427
 51
221.1556880677
  0
ARC
  5
334
100
AcDbEntity
  8
0
100
AcDbCircle
 62
7
  6
CONTINUOUS
 10
4.3120757415
 20
8.9272428763
 40
0.07
100
AcDbArc
 50
152.359630363
 51
213.455924246
  0
ARC
  5
335
100
AcDbEntity
  8
0
100
AcDbCircle
 62
7
  6
CONTINUOUS
 10
10.3106989274
 20
6.7052413097
 40
4.2080411148
100
AcDbArc
 50
75.5680679832
 51
76.2040594096
  0
ARC
  5
336
100
AcDbEntity
  8
0
100
AcDbCircle
 62
7
  6
CONTINUOUS
 10
12.5459008727
 20
7.2278339038
 40
2.5
100
AcDbArc
 50
317.5195783577
 51
321.4549572017
  0
ARC
  5
337
100
AcDbEntity
  8
0
100
AcDbCircle
 62
7
  6
CONTINUOUS
 10
15.1073557415
 20
6.554228168
 40
1.1375
100
AcDbArc
 50
0.0
 51
40.0
  0
ARC
  5
338
100
AcDbEntity
  8
0
100
AcDbCircle
 62
7
  6
CONTINUOUS
 10
14.6724033002
 20
7.1936388294
 40
0.7436461668
100
AcDbArc
 50
34.2732208646
 51
40.0612838167
  0
ARC
  5
339
100
AcDbEntity
  8
0
100
AcDbCircle
 62
7
  6
CONTINUOUS
 10
15.1073557415
 20
6.554228168
 40
0.1625
100
AcDbArc
 50
0.0
 51
40.0
  0
ARC
  5
33A
100
AcDbEntity
  8
0
100
AcDbCircle
 62
7
  6
CONTINUOUS
 10
15.2522448558
 20
7.4510114845
 40
0.1013515683
100
AcDbArc
 50
130.0746306884
 51
131.6183802034
  0
ARC
  5
33B
100
AcDbEntity
  8
0
100
AcDbCircle
 62
7
  6
CONTINUOUS
 10
15.1698557415
 20
6.554228168
 40
0.1
100
AcDbArc
 50
314.4270040008
 51
360.0
  0
ARC
  5
33C
100
AcDbEntity
  8
0
100
AcDbCircle
 62
7
  6
CONTINUOUS
 10
15.3098557415
 20
6.4113995995
 40
0.1
100
AcDbArc
 50
134.4270040008
 51
180.0
  0
ARC
  5
33D
100
AcDbEntity
  8
0
100
AcDbCircle
 62
7
  6
CONTINUOUS
 10
15.19107361
 20
7.407581724
 40
0.0953004997
100
AcDbArc
 50
128.3326066521
 51
129.9743824561
  0
ARC
  5
33E
100
AcDbEntity
  8
0
100
AcDbCircle
 62
7
  6
CONTINUOUS
 10
14.9773557415
 20
6.4812291844
 40
0.076
100
AcDbArc
 50
106.5527810609
 51
234.5167977112
  0
ARC
  5
33F
100
AcDbEntity
  8
0
100
AcDbCircle
 62
7
  6
CONTINUOUS
 10
14.9158265307
 20
6.3949148969
 40
0.03
100
AcDbArc
 50
308.8918047501
 51
54.5167977112
  0
ARC
  5
340
100
AcDbEntity
  8
0
100
AcDbCircle
 62
7
  6
CONTINUOUS
 10
14.9471565013
 20
6.5828362997
 40
0.03
100
AcDbArc
 50
286.5527810609
 51
0.4250373634
  0
ARC
  5
341
100
AcDbEntity
  8
0
100
AcDbCircle
 62
7
  6
CONTINUOUS
 10
14.8112371268
 20
7.1871588797
 40
0.02
100
AcDbArc
 50
151.1791024328
 51
220.0
  0
ARC
  5
342
100
AcDbEntity
  8
0
100
AcDbCircle
 62
7
  6
CONTINUOUS
 10
15.1004915512
 20
6.8424388803
 40
0.02
100
AcDbArc
 50
220.0
 51
310.0
  0
ARC
  5
343
100
AcDbEntity
  8
0
100
AcDbCircle
 62
7
  6
CONTINUOUS
 10
15.5490456397
 20
7.9292290931
 40
0.7436461668
100
AcDbArc
 50
219.9387161834
 51
225.7267791353
  0
ARC
  5
344
100
AcDbEntity
  8
0
100
AcDbCircle
 62
7
  6
CONTINUOUS
 10
15.7573557415
 20
8.0999997714
 40
0.7
100
AcDbArc
 50
71.180936631
 51
108.819063369
  0
ARC
  5
345
100
AcDbEntity
  8
0
100
AcDbCircle
 62
7
  6
CONTINUOUS
 10
15.7573557415
 20
8.3197278213
 40
0.451
100
AcDbArc
 50
203.3703404989
 51
233.066555091
  0
ARC
  5
346
100
AcDbEntity
  8
0
100
AcDbCircle
 62
7
  6
CONTINUOUS
 10
15.7573557415
 20
8.3197278213
 40
0.451
100
AcDbArc
 50
306.933444909
 51
336.6296595011
  0
ARC
  5
347
100
AcDbEntity
  8
0
100
AcDbCircle
 62
7
  6
CONTINUOUS
 10
15.7573557415
 20
8.3197278213
 40
0.451
100
AcDbArc
 50
23.3703404989
 51
48.4965643543
  0
ARC
  5
348
100
AcDbEntity
  8
0
100
AcDbCircle
 62
7
  6
CONTINUOUS
 10
15.7573557415
 20
8.3197278213
 40
0.451
100
AcDbArc
 50
131.5034356457
 51
156.6296595011
  0
CIRCLE
  5
349
100
AcDbEntity
  8
0
100
AcDbCircle
 62
7
  6
CONTINUOUS
 10
15.7573557415
 20
8.3197278213
 40
0.36
  0
ARC
  5
34A
100
AcDbEntity
  8
0
100
AcDbCircle
 62
7
  6
CONTINUOUS
 10
15.7573557415
 20
8.3197278213
 40
0.36
100
AcDbArc
 50
180.0
 51
360.0
  0
CIRCLE
  5
34B
100
AcDbEntity
  8
0
100
AcDbCircle
 62
9
  6
CONTINUOUS
 10
15.7573557415
 20
8.3197278213
 40
0.312791662
  0
CIRCLE
  5
34C
100
AcDbEntity
  8
0
100
AcDbCircle
 62
9
  6
CONTINUOUS
 10
15.7573557415
 20
8.3197278213
 40
0.2202473736
  0
ARC
  5
34D
100
AcDbEntity
  8
0
100
AcDbCircle
 62
7
  6
CONTINUOUS
 10
15.5573557415
 20
8.6868558014
 40
0.08
100
AcDbArc
 50
108.819063369
 51
180.0
  0
ARC
  5
34E
100
AcDbEntity
  8
0
100
AcDbCircle
 62
7
  6
CONTINUOUS
 10
15.2033727367
 20
8.4985619196
 40
0.04
100
AcDbArc
 50
1.6702677144
 51
76.0811997271
  0
ARC
  5
34F
100
AcDbEntity
  8
0
100
AcDbCircle
 62
7
  6
CONTINUOUS
 10
15.5313189033
 20
7.7913792329
 40
0.02
100
AcDbArc
 50
40.0
 51
108.8208975796
  0
ARC
  5
350
100
AcDbEntity
  8
0
100
AcDbCircle
 62
7
  6
CONTINUOUS
 10
15.4973557415
 20
8.6799997714
 40
0.02
100
AcDbArc
 50
180.0
 51
270.0
  0
ARC
  5
351
100
AcDbEntity
  8
0
100
AcDbCircle
 62
7
  6
CONTINUOUS
 10
15.4651204955
 20
8.6499997714
 40
0.01
100
AcDbArc
 50
90.0
 51
131.5034356405
  0
ARC
  5
352
100
AcDbEntity
  8
0
100
AcDbCircle
 62
7
  6
CONTINUOUS
 10
15.3333557415
 20
8.1497278213
 40
0.01
100
AcDbArc
 50
270.0
 51
360.0
  0
ARC
  5
353
100
AcDbEntity
  8
0
100
AcDbCircle
 62
7
  6
CONTINUOUS
 10
15.3333557415
 20
8.4897278213
 40
0.01
100
AcDbArc
 50
0.0
 51
90.0
  0
ARC
  5
354
100
AcDbEntity
  8
0
100
AcDbCircle
 62
7
  6
CONTINUOUS
 10
10.2486381169
 20
9.1071309522
 40
2.9715887793
100
AcDbArc
 50
79.6800484061
 51
80.1982364792
  0
ARC
  5
355
100
AcDbEntity
  8
0
100
AcDbCircle
 62
7
  6
CONTINUOUS
 10
10.2488349693
 20
9.1081807173
 40
2.9705207195
100
AcDbArc
 50
77.5633961483
 51
79.5279112663
  0
ARC
  5
356
100
AcDbEntity
  8
0
100
AcDbCircle
 62
7
  6
CONTINUOUS
 10
10.2497605194
 20
9.1123991068
 40
2.9662019802
100
AcDbArc
 50
75.7542841932
 51
77.496906369
  0
ARC
  5
357
100
AcDbEntity
  8
0
100
AcDbCircle
 62
7
  6
CONTINUOUS
 10
10.2494664423
 20
9.1127457701
 40
2.9659149121
100
AcDbArc
 50
80.1955390642
 51
86.7593406943
  0
ARC
  5
358
100
AcDbEntity
  8
0
100
AcDbCircle
 62
7
  6
CONTINUOUS
 10
10.249542452
 20
9.1131992855
 40
2.9655035674
100
AcDbArc
 50
56.0171864141
 51
60.5094916604
  0
ARC
  5
359
100
AcDbEntity
  8
0
100
AcDbCircle
 62
7
  6
CONTINUOUS
 10
10.2496311846
 20
9.1133664006
 40
2.9653153981
100
AcDbArc
 50
53.125057472
 51
56.0168032494
  0
ARC
  5
35A
100
AcDbEntity
  8
0
100
AcDbCircle
 62
7
  6
CONTINUOUS
 10
10.2496887485
 20
9.1134249511
 40
2.9652351209
100
AcDbArc
 50
60.5098056784
 51
61.913069333
  0
ARC
  5
35B
100
AcDbEntity
  8
0
100
AcDbCircle
 62
7
  6
CONTINUOUS
 10
10.2497422871
 20
9.1135223835
 40
2.9651239562
100
AcDbArc
 50
61.913100391
 51
73.6326578193
  0
ARC
  5
35C
100
AcDbEntity
  8
0
100
AcDbCircle
 62
7
  6
CONTINUOUS
 10
10.2500889026
 20
9.1139802844
 40
2.9645496605
100
AcDbArc
 50
52.8869027367
 51
53.1249497672
  0
ARC
  5
35D
100
AcDbEntity
  8
0
100
AcDbCircle
 62
7
  6
CONTINUOUS
 10
10.2515996255
 20
9.1196717868
 40
2.9587003714
100
AcDbArc
 50
73.6336107805
 51
75.7541464147
  0
ARC
  5
35E
100
AcDbEntity
  8
0
100
AcDbCircle
 62
7
  6
CONTINUOUS
 10
11.3930918022
 20
9.9897448934
 40
1.2038326631
100
AcDbArc
 50
45.4937900229
 51
54.4698993365
  0
ARC
  5
35F
100
AcDbEntity
  8
0
100
AcDbCircle
 62
7
  6
CONTINUOUS
 10
12.3205537571
 20
9.8000782818
 40
0.08
100
AcDbArc
 50
269.9999996128
 51
323.7948886736
  0
ARC
  5
360
100
AcDbEntity
  8
0
100
AcDbCircle
 62
7
  6
CONTINUOUS
 10
12.3147157415
 20
9.8000782818
 40
0.08
100
AcDbArc
 50
180.0
 51
270.0
  0
ARC
  5
361
100
AcDbEntity
  8
0
100
AcDbCircle
 62
7
  6
CONTINUOUS
 10
12.4254517479
 20
9.7232901868
 40
0.05
100
AcDbArc
 50
96.4903463108
 51
143.7948886801
  0
ARC
  5
362
100
AcDbEntity
  8
0
100
AcDbCircle
 62
7
  6
CONTINUOUS
 10
10.7533117378
 20
11.2167738207
 40
0.3243652792
100
AcDbArc
 50
232.9862478469
 51
241.4665246898
  0
ARC
  5
363
100
AcDbEntity
  8
0
100
AcDbCircle
 62
7
  6
CONTINUOUS
 10
10.7533117378
 20
11.2167738207
 40
0.3243652792
100
AcDbArc
 50
250.307276371
 51
258.785966333
  0
ARC
  5
364
100
AcDbEntity
  8
0
100
AcDbCircle
 62
7
  6
CONTINUOUS
 10
11.6846395474
 20
10.4000012081
 40
0.3189028728
100
AcDbArc
 50
37.9118769244
 51
48.7791145228
  0
ARC
  5
365
100
AcDbEntity
  8
0
100
AcDbCircle
 62
7
  6
CONTINUOUS
 10
11.4662919017
 20
10.7658160196
 40
0.01
100
AcDbArc
 50
65.8869005305
 51
155.8869005304
  0
ARC
  5
366
100
AcDbEntity
  8
0
100
AcDbCircle
 62
7
  6
CONTINUOUS
 10
11.4458449764
 20
10.7690892849
 40
0.01
100
AcDbArc
 50
255.8869005295
 51
335.8869005304
  0
ARC
  5
367
100
AcDbEntity
  8
0
100
AcDbCircle
 62
7
  6
CONTINUOUS
 10
11.2652121232
 20
10.7938825652
 40
0.01
100
AcDbArc
 50
75.8869005295
 51
155.8869005304
  0
ARC
  5
368
100
AcDbEntity
  8
0
100
AcDbCircle
 62
7
  6
CONTINUOUS
 10
11.2438572117
 20
10.7951272464
 40
0.01
100
AcDbArc
 50
255.8869005287
 51
335.8869005304
  0
ARC
  5
369
100
AcDbEntity
  8
0
100
AcDbCircle
 62
7
  6
CONTINUOUS
 10
10.2340709626
 20
11.1949099697
 40
0.01
100
AcDbArc
 50
335.8869005304
 51
55.8869005304
  0
ARC
  5
36A
100
AcDbEntity
  8
0
100
AcDbCircle
 62
7
  6
CONTINUOUS
 10
11.082919904
 20
10.8149685603
 40
0.01
100
AcDbArc
 50
75.8869005304
 51
155.8869005304
  0
ARC
  5
36B
100
AcDbEntity
  8
0
100
AcDbCircle
 62
7
  6
CONTINUOUS
 10
11.0615649925
 20
10.8162132415
 40
0.01
100
AcDbArc
 50
255.8869005271
 51
335.8869005304
  0
ARC
  5
36C
100
AcDbEntity
  8
0
100
AcDbCircle
 62
7
  6
CONTINUOUS
 10
10.249225683
 20
11.179813085
 40
0.01
100
AcDbArc
 50
155.8869005304
 51
235.8869005337
  0
ARC
  5
36D
100
AcDbEntity
  8
0
100
AcDbCircle
 62
7
  6
CONTINUOUS
 10
10.3838485873
 20
11.0644650627
 40
0.01
100
AcDbArc
 50
335.8869005304
 51
55.8869005305
  0
ARC
  5
36E
100
AcDbEntity
  8
0
100
AcDbCircle
 62
7
  6
CONTINUOUS
 10
10.8858560258
 20
10.8397685302
 40
0.01
100
AcDbArc
 50
75.8869005304
 51
155.8869005304
  0
ARC
  5
36F
100
AcDbEntity
  8
0
100
AcDbCircle
 62
7
  6
CONTINUOUS
 10
10.8645011142
 20
10.8410132114
 40
0.01
100
AcDbArc
 50
255.8869005303
 51
335.8869005304
  0
ARC
  5
370
100
AcDbEntity
  8
0
100
AcDbCircle
 62
7
  6
CONTINUOUS
 10
10.3990033076
 20
11.0493681779
 40
0.01
100
AcDbArc
 50
155.8869005304
 51
235.8869005305
  0
ARC
  5
371
100
AcDbEntity
  8
0
100
AcDbCircle
 62
7
  6
CONTINUOUS
 10
14.9773557415
 20
9.5737321844
 40
0.08
100
AcDbArc
 50
116.4005874121
 51
256.2662090435
  0
ARC
  5
372
100
AcDbEntity
  8
0
100
AcDbCircle
 62
7
  6
CONTINUOUS
 10
14.8173557415
 20
9.7400782818
 40
0.07
100
AcDbArc
 50
270.0
 51
360.0
  0
ARC
  5
373
100
AcDbEntity
  8
0
100
AcDbCircle
 62
7
  6
CONTINUOUS
 10
14.7944377777
 20
9.7400782818
 40
0.07
100
AcDbArc
 50
212.9608834104
 51
270.0
  0
ARC
  5
374
100
AcDbEntity
  8
0
100
AcDbCircle
 62
7
  6
CONTINUOUS
 10
14.6937527132
 20
9.6747903214
 40
0.05
100
AcDbArc
 50
32.9608834173
 51
81.0598780342
  0
ARC
  5
375
100
AcDbEntity
  8
0
100
AcDbCircle
 62
7
  6
CONTINUOUS
 10
14.9284448616
 20
9.6722599765
 40
0.03
100
AcDbArc
 50
296.4005874084
 51
40.4944653761
  0
ARC
  5
376
100
AcDbEntity
  8
0
100
AcDbCircle
 62
7
  6
CONTINUOUS
 10
14.9512405217
 20
9.4668771644
 40
0.03
100
AcDbArc
 50
8.9206921814
 51
76.2662090435
  0
ARC
  5
377
100
AcDbEntity
  8
0
100
AcDbCircle
 62
7
  6
CONTINUOUS
 10
15.7573557415
 20
10.3800782818
 40
1.06
100
AcDbArc
 50
214.8395846707
 51
220.4944653712
  0
ARC
  5
378
100
AcDbEntity
  8
0
100
AcDbCircle
 62
7
  6
CONTINUOUS
 10
15.7573557415
 20
10.3800782818
 40
1.06
100
AcDbArc
 50
319.5055346288
 51
68.1213814689
  0
ARC
  5
379
100
AcDbEntity
  8
0
100
AcDbCircle
 62
7
  6
CONTINUOUS
 10
15.7573557415
 20
10.3800782818
 40
1.06
100
AcDbArc
 50
111.8786185311
 51
145.1604153293
  0
ARC
  5
37A
100
AcDbEntity
  8
0
100
AcDbCircle
 62
7
  6
CONTINUOUS
 10
15.7573557415
 20
10.9952706459
 40
0.9884615385
100
AcDbArc
 50
60.2827711042
 51
119.7172288958
  0
ARC
  5
37B
100
AcDbEntity
  8
0
100
AcDbCircle
 62
7
  6
CONTINUOUS
 10
14.8173557415
 20
11.0200782818
 40
0.07
100
AcDbArc
 50
0.0
 51
90.0
  0
ARC
  5
37C
100
AcDbEntity
  8
0
100
AcDbCircle
 62
7
  6
CONTINUOUS
 10
14.7944377777
 20
11.0200782818
 40
0.07
100
AcDbArc
 50
90.0
 51
147.0391166018
  0
ARC
  5
37D
100
AcDbEntity
  8
0
100
AcDbCircle
 62
7
  6
CONTINUOUS
 10
14.6937527131
 20
11.0853662422
 40
0.05
100
AcDbArc
 50
278.9401219655
 51
327.0391166094
  0
ARC
  5
37E
100
AcDbEntity
  8
0
100
AcDbCircle
 62
7
  6
CONTINUOUS
 10
15.1816815473
 20
21.1154721342
 40
10.5495226943
100
AcDbArc
 50
250.3745771135
 51
251.2017883993
  0
ARC
  5
37F
100
AcDbEntity
  8
0
100
AcDbCircle
 62
9
  6
CONTINUOUS
 10
15.1737822356
 20
21.0928031498
 40
10.5255174486
100
AcDbArc
 50
250.1363430914
 51
250.3736332501
  0
ARC
  5
380
100
AcDbEntity
  8
0
100
AcDbCircle
 62
7
  6
CONTINUOUS
 10
13.3806043134
 20
19.4327096088
 40
8.5
100
AcDbArc
 50
265.5814443304
 51
278.9401219653
  0
ARC
  5
381
100
AcDbEntity
  8
0
100
AcDbCircle
 62
7
  6
CONTINUOUS
 10
12.0739157415
 20
11.9600782818
 40
2.08
100
AcDbArc
 50
250.0
 51
270.0
  0
ARC
  5
382
100
AcDbEntity
  8
0
100
AcDbCircle
 62
7
  6
CONTINUOUS
 10
10.708059103
 20
11.3286942014
 40
0.9029695368
100
AcDbArc
 50
142.3731155407
 51
167.9683656294
  0
ARC
  5
383
100
AcDbEntity
  8
0
100
AcDbCircle
 62
7
  6
CONTINUOUS
 10
15.6855870809
 20
12.0619233808
 40
0.66
100
AcDbArc
 50
299.7184980025
 51
329.1754473177
  0
ARC
  5
384
100
AcDbEntity
  8
0
100
AcDbCircle
 62
7
  6
CONTINUOUS
 10
10.3889009605
 20
11.5746082503
 40
0.5001069622
100
AcDbArc
 50
86.7641989597
 51
89.6668702777
  0
ARC
  5
385
100
AcDbEntity
  8
0
100
AcDbCircle
 62
7
  6
CONTINUOUS
 10
10.3889097091
 20
11.5746184806
 40
0.5000968919
100
AcDbArc
 50
92.6413394949
 51
95.4091321971
  0
ARC
  5
386
100
AcDbEntity
  8
0
100
AcDbCircle
 62
7
  6
CONTINUOUS
 10
10.3889019817
 20
11.5746697469
 40
0.5000454607
100
AcDbArc
 50
89.6669463164
 51
90.1530513125
  0
ARC
  5
387
100
AcDbEntity
  8
0
100
AcDbCircle
 62
7
  6
CONTINUOUS
 10
10.3889041648
 20
11.5747142886
 40
0.5
100
AcDbArc
 50
95.4095346333
 51
142.373028687
  0
ARC
  5
388
100
AcDbEntity
  8
0
100
AcDbCircle
 62
7
  6
CONTINUOUS
 10
10.3889038426
 20
11.5747226652
 40
0.4999925477
100
AcDbArc
 50
90.1532807577
 51
92.6412181269
  0
ARC
  5
389
100
AcDbEntity
  8
0
100
AcDbCircle
 62
7
  6
CONTINUOUS
 10
15.4323557415
 20
11.4187321844
 40
0.07
100
AcDbArc
 50
90.0
 51
180.0
  0
ARC
  5
38A
100
AcDbEntity
  8
0
100
AcDbCircle
 62
7
  6
CONTINUOUS
 10
15.2323557415
 20
11.8337321844
 40
0.02
100
AcDbArc
 50
90.0
 51
180.0
  0
ARC
  5
38B
100
AcDbEntity
  8
0
100
AcDbCircle
 62
7
  6
CONTINUOUS
 10
15.2323557415
 20
11.7437321844
 40
0.02
100
AcDbArc
 50
180.0
 51
270.0
  0
ARC
  5
38C
100
AcDbEntity
  8
0
100
AcDbCircle
 62
7
  6
CONTINUOUS
 10
9.9420147703
 20
11.4480764
 40
0.01
100
AcDbArc
 50
335.8869005304
 51
65.8869005304
  0
ARC
  5
38D
100
AcDbEntity
  8
0
100
AcDbCircle
 62
7
  6
CONTINUOUS
 10
9.9580774768
 20
11.4350080993
 40
0.01
100
AcDbArc
 50
155.8869005304
 51
235.8869005313
  0
ARC
  5
38E
100
AcDbEntity
  8
0
100
AcDbCircle
 62
7
  6
CONTINUOUS
 10
10.0969039028
 20
11.3168126771
 40
0.01
100
AcDbArc
 50
335.8869005304
 51
55.8869005313
  0
ARC
  5
38F
100
AcDbEntity
  8
0
100
AcDbCircle
 62
7
  6
CONTINUOUS
 10
10.1120586231
 20
11.3017157924
 40
0.01
100
AcDbArc
 50
155.8869005304
 51
235.8869005321
  0
ARC
  5
390
100
AcDbEntity
  8
0
100
AcDbCircle
 62
7
  6
CONTINUOUS
 10
20.5894171666
 20
7.0158280005
 40
4.459
100
AcDbArc
 50
174.150613569
 51
179.5774539241
  0
ARC
  5
391
100
AcDbEntity
  8
0
100
AcDbCircle
 62
7
  6
CONTINUOUS
 10
17.1989555065
 20
4.9169091605
 40
3.73
100
AcDbArc
 50
96.0539076486
 51
103.9188002729
  0
ARC
  5
392
100
AcDbEntity
  8
0
100
AcDbCircle
 62
7
  6
CONTINUOUS
 10
16.4728988358
 20
4.4646491543
 40
2.45
100
AcDbArc
 50
128.8918047501
 51
143.0950513574
  0
ARC
  5
393
100
AcDbEntity
  8
0
100
AcDbCircle
 62
7
  6
CONTINUOUS
 10
15.7874177086
 20
5.4581013102
 40
1.1
100
AcDbArc
 50
33.4373206223
 51
44.9206532301
  0
ARC
  5
394
100
AcDbEntity
  8
0
100
AcDbCircle
 62
7
  6
CONTINUOUS
 10
17.6148455248
 20
5.8229132941
 40
0.47
100
AcDbArc
 50
192.3507931997
 51
215.1594034111
  0
ARC
  5
395
100
AcDbEntity
  8
0
100
AcDbCircle
 62
7
  6
CONTINUOUS
 10
16.3448557415
 20
6.554228168
 40
0.1
100
AcDbArc
 50
180.0
 51
225.5729959992
  0
ARC
  5
396
100
AcDbEntity
  8
0
100
AcDbCircle
 62
7
  6
CONTINUOUS
 10
16.2048557415
 20
6.4113995995
 40
0.1
100
AcDbArc
 50
0.0
 51
45.5729959992
  0
ARC
  5
397
100
AcDbEntity
  8
0
100
AcDbCircle
 62
7
  6
CONTINUOUS
 10
16.495503057
 20
6.164228168
 40
0.1
100
AcDbArc
 50
44.9206532301
 51
90.0
  0
ARC
  5
398
100
AcDbEntity
  8
0
100
AcDbCircle
 62
7
  6
CONTINUOUS
 10
17.0899057615
 20
5.789228168
 40
0.08
100
AcDbArc
 50
330.9381853853
 51
346.438323908
  0
ARC
  5
399
100
AcDbEntity
  8
0
100
AcDbCircle
 62
7
  6
CONTINUOUS
 10
16.5373557415
 20
6.4812291844
 40
0.076
100
AcDbArc
 50
305.4832022888
 51
73.4472189391
  0
ARC
  5
39A
100
AcDbEntity
  8
0
100
AcDbCircle
 62
7
  6
CONTINUOUS
 10
16.7091250184
 20
5.9943297235
 40
0.07
100
AcDbArc
 50
39.0
 51
90.0
  0
ARC
  5
39B
100
AcDbEntity
  8
0
100
AcDbCircle
 62
7
  6
CONTINUOUS
 10
17.0404353274
 20
5.8757244648
 40
0.06
100
AcDbArc
 50
67.0420565973
 51
90.0
  0
ARC
  5
39C
100
AcDbEntity
  8
0
100
AcDbCircle
 62
7
  6
CONTINUOUS
 10
16.958010432
 20
5.7187621485
 40
0.05
100
AcDbArc
 50
344.6480491661
 51
39.0
  0
ARC
  5
39D
100
AcDbEntity
  8
0
100
AcDbCircle
 62
7
  6
CONTINUOUS
 10
17.1978934331
 20
5.529228168
 40
0.04
100
AcDbArc
 50
270.0
 51
35.1594034112
  0
ARC
  5
39E
100
AcDbEntity
  8
0
100
AcDbCircle
 62
7
  6
CONTINUOUS
 10
17.1947972998
 20
5.7309378155
 40
0.04
100
AcDbArc
 50
150.938185385
 51
192.3507931998
  0
ARC
  5
39F
100
AcDbEntity
  8
0
100
AcDbCircle
 62
7
  6
CONTINUOUS
 10
17.0447990308
 20
5.6949348718
 40
0.04
100
AcDbArc
 50
164.648049166
 51
218.5450427985
  0
ARC
  5
3A0
100
AcDbEntity
  8
0
100
AcDbCircle
 62
7
  6
CONTINUOUS
 10
17.1385116647
 20
5.7775035712
 40
0.03
100
AcDbArc
 50
346.4383239078
 51
36.0700000006
  0
ARC
  5
3A1
100
AcDbEntity
  8
0
100
AcDbCircle
 62
7
  6
CONTINUOUS
 10
17.102914997
 20
5.519228168
 40
0.03
100
AcDbArc
 50
270.0
 51
42.4804216424
  0
ARC
  5
3A2
100
AcDbEntity
  8
0
100
AcDbCircle
 62
7
  6
CONTINUOUS
 10
16.5988849522
 20
6.3949148969
 40
0.03
100
AcDbArc
 50
125.4832022888
 51
231.1081952499
  0
ARC
  5
3A3
100
AcDbEntity
  8
0
100
AcDbCircle
 62
7
  6
CONTINUOUS
 10
16.5675549816
 20
6.5828362997
 40
0.03
100
AcDbArc
 50
179.5749626366
 51
253.4472189391
  0
ARC
  5
3A4
100
AcDbEntity
  8
0
100
AcDbCircle
 62
7
  6
CONTINUOUS
 10
18.9688106102
 20
7.2278339038
 40
2.5
100
AcDbArc
 50
218.5450427983
 51
222.4804216423
  0
ARC
  5
3A5
100
AcDbEntity
  8
0
100
AcDbCircle
 62
7
  6
CONTINUOUS
 10
16.7145020603
 20
8.9065511633
 40
2.1515652965
100
AcDbArc
 50
219.9663342468
 51
221.9639547217
  0
ARC
  5
3A6
100
AcDbEntity
  8
0
100
AcDbCircle
 62
7
  6
CONTINUOUS
 10
16.5043557415
 20
8.3197278213
 40
0.517
100
AcDbArc
 50
334.7853651812
 51
25.2146348188
  0
ARC
  5
3A7
100
AcDbEntity
  8
0
100
AcDbCircle
 62
7
  6
CONTINUOUS
 10
17.198274653
 20
7.9929778492
 40
0.25
100
AcDbArc
 50
154.7853651812
 51
176.7993265714
  0
ARC
  5
3A8
100
AcDbEntity
  8
0
100
AcDbCircle
 62
7
  6
CONTINUOUS
 10
17.198274653
 20
8.6464777934
 40
0.25
100
AcDbArc
 50
183.2006734286
 51
205.2146348188
  0
ARC
  5
3A9
100
AcDbEntity
  8
0
100
AcDbCircle
 62
7
  6
CONTINUOUS
 10
15.9573557415
 20
8.6868558014
 40
0.08
100
AcDbArc
 50
0.0
 51
71.180936631
  0
ARC
  5
3AA
100
AcDbEntity
  8
0
100
AcDbCircle
 62
7
  6
CONTINUOUS
 10
16.5373557415
 20
9.5737321844
 40
0.08
100
AcDbArc
 50
283.7337909565
 51
63.5994125879
  0
ARC
  5
3AB
100
AcDbEntity
  8
0
100
AcDbCircle
 62
7
  6
CONTINUOUS
 10
16.5373557415
 20
7.2697321844
 40
0.076
100
AcDbArc
 50
286.5529380701
 51
75.7260292945
  0
ARC
  5
3AC
100
AcDbEntity
  8
0
100
AcDbCircle
 62
7
  6
CONTINUOUS
 10
16.1473557415
 20
7.569228168
 40
0.06
100
AcDbArc
 50
0.0
 51
90.0
  0
ARC
  5
3AD
100
AcDbEntity
  8
0
100
AcDbCircle
 62
7
  6
CONTINUOUS
 10
16.1473557415
 20
7.5643889649
 40
0.06
100
AcDbArc
 50
303.3475728931
 51
0.0000008876
  0
ARC
  5
3AE
100
AcDbEntity
  8
0
100
AcDbCircle
 62
7
  6
CONTINUOUS
 10
16.2133217338
 20
7.4641468188
 40
0.06
100
AcDbArc
 50
123.3475728854
 51
174.150613569
  0
ARC
  5
3AF
100
AcDbEntity
  8
0
100
AcDbCircle
 62
7
  6
CONTINUOUS
 10
16.8987426206
 20
8.6297278213
 40
0.05
100
AcDbArc
 50
3.2006734286
 51
90.0
  0
ARC
  5
3B0
100
AcDbEntity
  8
0
100
AcDbCircle
 62
7
  6
CONTINUOUS
 10
16.8987426206
 20
8.0097278213
 40
0.05
100
AcDbArc
 50
270.0
 51
356.7993265714
  0
ARC
  5
3B1
100
AcDbEntity
  8
0
100
AcDbCircle
 62
7
  6
CONTINUOUS
 10
16.8837736442
 20
8.0097278213
 40
0.05
100
AcDbArc
 50
203.6868993629
 51
270.0
  0
ARC
  5
3B2
100
AcDbEntity
  8
0
100
AcDbCircle
 62
7
  6
CONTINUOUS
 10
16.8837736442
 20
8.6297278213
 40
0.05
100
AcDbArc
 50
90.0
 51
156.3131006371
  0
ARC
  5
3B3
100
AcDbEntity
  8
0
100
AcDbCircle
 62
7
  6
CONTINUOUS
 10
16.3113387463
 20
8.140893723
 40
0.04
100
AcDbArc
 50
181.6702677146
 51
256.0811997271
  0
ARC
  5
3B4
100
AcDbEntity
  8
0
100
AcDbCircle
 62
7
  6
CONTINUOUS
 10
16.3113387463
 20
8.4985619196
 40
0.04
100
AcDbArc
 50
103.9188002729
 51
178.3297322856
  0
ARC
  5
3B5
100
AcDbEntity
  8
0
100
AcDbCircle
 62
7
  6
CONTINUOUS
 10
16.8013557415
 20
7.9735713652
 40
0.04
100
AcDbArc
 50
23.6868993629
 51
83.9460923514
  0
ARC
  5
3B6
100
AcDbEntity
  8
0
100
AcDbCircle
 62
7
  6
CONTINUOUS
 10
16.8013557415
 20
8.6658842773
 40
0.04
100
AcDbArc
 50
276.0539076486
 51
336.3131006371
  0
ARC
  5
3B7
100
AcDbEntity
  8
0
100
AcDbCircle
 62
7
  6
CONTINUOUS
 10
16.5862666213
 20
9.6722599765
 40
0.03
100
AcDbArc
 50
139.5055346288
 51
243.5994125879
  0
ARC
  5
3B8
100
AcDbEntity
  8
0
100
AcDbCircle
 62
7
  6
CONTINUOUS
 10
16.5675552601
 20
7.1681251517
 40
0.03
100
AcDbArc
 50
106.5529380701
 51
180.4255751798
  0
ARC
  5
3B9
100
AcDbEntity
  8
0
100
AcDbCircle
 62
7
  6
CONTINUOUS
 10
16.5634909707
 20
7.3724597356
 40
0.03
100
AcDbArc
 50
188.9217605135
 51
255.7260292945
  0
ARC
  5
3BA
100
AcDbEntity
  8
0
100
AcDbCircle
 62
7
  6
CONTINUOUS
 10
16.5634709613
 20
9.4668771644
 40
0.03
100
AcDbArc
 50
103.7337909565
 51
171.0793078186
  0
ARC
  5
3BB
100
AcDbEntity
  8
0
100
AcDbCircle
 62
7
  6
CONTINUOUS
 10
15.8205733277
 20
7.4466592334
 40
0.02
100
AcDbArc
 50
310.0
 51
40.0
  0
ARC
  5
3BC
100
AcDbEntity
  8
0
100
AcDbCircle
 62
7
  6
CONTINUOUS
 10
16.0173557415
 20
8.6799997714
 40
0.02
100
AcDbArc
 50
270.0
 51
360.0
  0
ARC
  5
3BD
100
AcDbEntity
  8
0
100
AcDbCircle
 62
7
  6
CONTINUOUS
 10
16.0495909875
 20
8.6499997714
 40
0.01
100
AcDbArc
 50
48.4965643596
 51
90.0
  0
ARC
  5
3BE
100
AcDbEntity
  8
0
100
AcDbCircle
 62
7
  6
CONTINUOUS
 10
16.1813557415
 20
8.1497278213
 40
0.01
100
AcDbArc
 50
180.0
 51
270.0
  0
ARC
  5
3BF
100
AcDbEntity
  8
0
100
AcDbCircle
 62
7
  6
CONTINUOUS
 10
16.1813557415
 20
8.4897278213
 40
0.01
100
AcDbArc
 50
90.0
 51
180.0
  0
ARC
  5
3C0
100
AcDbEntity
  8
0
100
AcDbCircle
 62
7
  6
CONTINUOUS
 10
54.408557475
 20
6.8756224039
 40
39.4324871303
100
AcDbArc
 50
179.8781825006
 51
180.4251015363
  0
ARC
  5
3C1
100
AcDbEntity
  8
0
100
AcDbCircle
 62
7
  6
CONTINUOUS
 10
17.1989555065
 20
11.7225464821
 40
3.73
100
AcDbArc
 50
256.0811997271
 51
263.9460923514
  0
ARC
  5
3C2
100
AcDbEntity
  8
0
100
AcDbCircle
 62
7
  6
CONTINUOUS
 10
15.8291244021
 20
12.0619233808
 40
0.66
100
AcDbArc
 50
210.8245526823
 51
240.2815019975
  0
ARC
  5
3C3
100
AcDbEntity
  8
0
100
AcDbCircle
 62
7
  6
CONTINUOUS
 10
16.0823557415
 20
11.4187321844
 40
0.07
100
AcDbArc
 50
0.0
 51
90.0
  0
ARC
  5
3C4
100
AcDbEntity
  8
0
100
AcDbCircle
 62
7
  6
CONTINUOUS
 10
16.2823557415
 20
11.8337321844
 40
0.02
100
AcDbArc
 50
0.0
 51
90.0
  0
ARC
  5
3C5
100
AcDbEntity
  8
0
100
AcDbCircle
 62
7
  6
CONTINUOUS
 10
16.2823557415
 20
11.7437321844
 40
0.02
100
AcDbArc
 50
270.0
 51
360.0
  0
SPLINE
  5
3C6
100
AcDbEntity
  8
0
100
AcDbSpline
 62
7
  6
CONTINUOUS
 70
0
 71
3
 72
19
 73
15
 74
0
 42
0.0000001
 43
0.0000001
 44
0.0000000001
 40
0.0
 40
0.0
 40
0.0
 40
0.0
 40
0.0189998375
 40
0.0400394188
 40
0.0654303595
 40
0.0965168169
 40
0.1339996416
 40
0.1782501338
 40
0.2294637277
 40
0.2877083623
 40
0.4252504768
 40
0.5904899699
 40
0.7825572749
 40
1.0
 40
1.0
 40
1.0
 40
1.0
 10
10.899453886
 20
10.8597653053
 30
0.0
 10
10.8994684381
 20
10.8597978375
 30
0.0
 10
10.8994845121
 20
10.8598738067
 30
0.0
 10
10.8994606808
 20
10.8599965175
 30
0.0
 10
10.8993947357
 20
10.8601273825
 30
0.0
 10
10.8992881142
 20
10.8602684877
 30
0.0
 10
10.8991407202
 20
10.8604208289
 30
0.0
 10
10.8989523609
 20
10.8605845896
 30
0.0
 10
10.8987230741
 20
10.8607596263
 30
0.0
 10
10.8983414294
 20
10.8610225484
 30
0.0
 10
10.8977615851
 20
10.8613733524
 30
0.0
 10
10.8969446033
 20
10.8618143615
 30
0.0
 10
10.8959778651
 20
10.8622919311
 30
0.0
 10
10.8952800108
 20
10.8626131047
 30
0.0
 10
10.8949077366
 20
10.8627797332
 30
0.0
  0
SPLINE
  5
3C7
100
AcDbEntity
  8
0
100
AcDbSpline
 62
7
  6
CONTINUOUS
 70
0
 71
3
 72
22
 73
18
 74
0
 42
0.0000001
 43
0.0000001
 44
0.0000000001
 40
0.0
 40
0.0
 40
0.0
 40
0.0
 40
0.008859301
 40
0.0180725574
 40
0.028072547
 40
0.0391978287
 40
0.0656783443
 40
0.0987243467
 40
0.1388096563
 40
0.1860860125
 40
0.2405044782
 40
0.3019028401
 40
0.3700183297
 40
0.4445220688
 40
0.6110451863
 40
0.7976908713
 40
1.0
 40
1.0
 40
1.0
 40
1.0
 10
10.7591888346
 20
10.9205919298
 30
0.0
 10
10.7592088199
 20
10.9206365913
 30
0.0
 10
10.7592386639
 20
10.9207330282
 30
0.0
 10
10.7592485422
 20
10.9208889841
 30
0.0
 10
10.7592244827
 20
10.9210558137
 30
0.0
 10
10.7591433038
 20
10.921306914
 30
0.0
 10
10.7589476992
 20
10.9216485737
 30
0.0
 10
10.758600336
 20
10.922076614
 30
0.0
 10
10.758127421
 20
10.9225455811
 30
0.0
 10
10.7575305208
 20
10.9230531666
 30
0.0
 10
10.7568120751
 20
10.9235971065
 30
0.0
 10
10.7559757569
 20
10.9241741857
 30
0.0
 10
10.75502622
 20
10.92478117
 30
0.0
 10
10.7535612234
 20
10.9256584046
 30
0.0
 10
10.7514895406
 20
10.9267946811
 30
0.0
 10
10.7487466548
 20
10.9281699292
 30
0.0
 10
10.7467973084
 20
10.9290733717
 30
0.0
 10
10.7457774703
 20
10.9295298471
 30
0.0
  0
SPLINE
  5
3C8
100
AcDbEntity
  8
0
100
AcDbSpline
 62
7
  6
CONTINUOUS
 70
0
 71
3
 72
25
 73
21
 74
0
 42
0.0000001
 43
0.0000001
 44
0.0000000001
 40
0.0
 40
0.0
 40
0.0
 40
0.0
 40
0.0077312556
 40
0.0162564458
 40
0.0261137644
 40
0.0376436813
 40
0.0510453656
 40
0.0664250112
 40
0.0838366304
 40
0.1032953886
 40
0.1482899186
 40
0.2011455489
 40
0.2613891608
 40
0.3283981373
 40
0.4014272032
 40
0.4796245446
 40
0.5620466911
 40
0.6476737554
 40
0.8241528086
 40
1.0
 40
1.0
 40
1.0
 40
1.0
 10
10.5900719486
 20
10.9938509514
 30
0.0
 10
10.5901031211
 20
10.9939205929
 30
0.0
 10
10.5901438248
 20
10.9940790608
 30
0.0
 10
10.5901320401
 20
10.99433922
 30
0.0
 10
10.5900537642
 20
10.9946256704
 30
0.0
 10
10.5899108327
 20
10.9949389895
 30
0.0
 10
10.5897038817
 20
10.9952795481
 30
0.0
 10
10.5894333637
 20
10.995647044
 30
0.0
 10
10.5890997755
 20
10.9960406761
 30
0.0
 10
10.5885444335
 20
10.9966279048
 30
0.0
 10
10.5876927105
 20
10.9974138511
 30
0.0
 10
10.5864843487
 20
10.9984017585
 30
0.0
 10
10.5850579582
 20
10.9994632225
 30
0.0
 10
10.5834304778
 20
11.000585498
 30
0.0
 10
10.5816214978
 20
11.0017548909
 30
0.0
 10
10.5796534778
 20
11.0029569612
 30
0.0
 10
10.5775513078
 20
11.0041766844
 30
0.0
 10
10.5745756659
 20
11.0058222647
 30
0.0
 10
10.5707335968
 20
11.0078042935
 30
0.0
 10
10.5675874505
 20
11.0092869912
 30
0.0
 10
10.5660034467
 20
11.009995985
 30
0.0
  0
SPLINE
  5
3C9
100
AcDbEntity
  8
0
100
AcDbSpline
 62
7
  6
CONTINUOUS
 70
0
 71
3
 72
27
 73
23
 74
0
 42
0.0000001
 43
0.0000001
 44
0.0000000001
 40
0.0
 40
0.0
 40
0.0
 40
0.0
 40
0.0131157479
 40
0.0177738812
 40
0.0230687235
 40
0.0356405251
 40
0.0509101327
 40
0.0688702486
 40
0.0894681542
 40
0.1126229625
 40
0.1661716143
 40
0.2285064188
 40
0.2983984949
 40
0.3744409847
 40
0.4550785469
 40
0.5386300907
 40
0.6233205689
 40
0.7073128968
 40
0.7887530715
 40
0.865817177
 40
0.9367648557
 40
1.0
 40
1.0
 40
1.0
 40
1.0
 10
10.4434940537
 20
11.057268776
 30
0.0
 10
10.4435666025
 20
11.057430862
 30
0.0
 10
10.4435049162
 20
11.0577014572
 30
0.0
 10
10.4433763923
 20
11.0579808842
 30
0.0
 10
10.4432260993
 20
11.0582480702
 30
0.0
 10
10.4429672188
 20
11.0586147484
 30
0.0
 10
10.442569196
 20
11.0590911697
 30
0.0
 10
10.4420694907
 20
11.0596220181
 30
0.0
 10
10.4414705136
 20
11.0602049187
 30
0.0
 10
10.4404950302
 20
11.0610906569
 30
0.0
 10
10.4390477632
 20
11.062295768
 30
0.0
 10
10.4370545276
 20
11.0638306292
 30
0.0
 10
10.4347695731
 20
11.0654837278
 30
0.0
 10
10.43224059
 20
11.0672205393
 30
0.0
 10
10.4295207035
 20
11.0690047098
 30
0.0
 10
10.426668036
 20
11.0707987565
 30
0.0
 10
10.4237445949
 20
11.0725645226
 30
0.0
 10
10.4208150787
 20
11.0742639118
 30
0.0
 10
10.4179454408
 20
11.0758596762
 30
0.0
 10
10.4152011988
 20
11.0773163959
 30
0.0
 10
10.4126456481
 20
11.0786013877
 30
0.0
 10
10.4110011432
 20
11.0793743994
 30
0.0
 10
10.4102196761
 20
11.079724181
 30
0.0
  0
SPLINE
  5
3CA
100
AcDbEntity
  8
0
100
AcDbSpline
 62
7
  6
CONTINUOUS
 70
0
 71
3
 72
18
 73
14
 74
0
 42
0.0000001
 43
0.0000001
 44
0.0000000001
 40
0.0
 40
0.0
 40
0.0
 40
0.0
 40
0.0092873458
 40
0.0160619063
 40
0.0245292905
 40
0.0468544578
 40
0.0765979366
 40
0.1585922979
 40
0.2704430972
 40
0.4115085878
 40
0.5808872319
 40
0.7774800916
 40
1.0
 40
1.0
 40
1.0
 40
1.0
 10
10.3640219344
 20
11.091619815
 30
0.0
 10
10.3640277414
 20
11.0916327938
 30
0.0
 10
10.3640240296
 20
11.0916597934
 30
0.0
 10
10.3640097797
 20
11.0916939563
 30
0.0
 10
10.3639813598
 20
11.0917443744
 30
0.0
 10
10.3639257369
 20
11.0918186254
 30
0.0
 10
10.3637902484
 20
11.0919729999
 30
0.0
 10
10.3635445565
 20
11.0922118487
 30
0.0
 10
10.3631618912
 20
11.0925531424
 30
0.0
 10
10.3626670066
 20
11.0929693156
 30
0.0
 10
10.362063445
 20
11.0934575013
 30
0.0
 10
10.3613548489
 20
11.0940139895
 30
0.0
 10
10.3608458308
 20
11.0944046687
 30
0.0
 10
10.3605746914
 20
11.0946109234
 30
0.0
  0
SPLINE
  5
3CB
100
AcDbEntity
  8
0
100
AcDbSpline
 62
7
  6
CONTINUOUS
 70
0
 71
3
 72
17
 73
13
 74
0
 42
0.0000001
 43
0.0000001
 44
0.0000000001
 40
0.0
 40
0.0
 40
0.0
 40
0.0
 40
0.0479693281
 40
0.1026313574
 40
0.2284571926
 40
0.3696775626
 40
0.51770714
 40
0.6635285811
 40
0.7980841937
 40
0.9127626116
 40
0.9602254974
 40
1.0
 40
1.0
 40
1.0
 40
1.0
 10
10.3605746914
 20
11.0946109234
 30
0.0
 10
10.3600733636
 20
11.0949922815
 30
0.0
 10
10.3589943783
 20
11.0957998203
 30
0.0
 10
10.3565727254
 20
11.0975704868
 30
0.0
 10
10.3531277268
 20
11.1000157378
 30
0.0
 10
10.3486405633
 20
11.1031098924
 30
0.0
 10
10.3438989393
 20
11.1062968388
 30
0.0
 10
10.3391953157
 20
11.1093828051
 30
0.0
 10
10.3348255701
 20
11.1121786594
 30
0.0
 10
10.3315169691
 20
11.1142361438
 30
0.0
 10
10.3292451308
 20
11.1156031803
 30
0.0
 10
10.3282562911
 20
11.1161815884
 30
0.0
 10
10.3278028288
 20
11.1164407272
 30
0.0
  0
LINE
  5
3CC
100
AcDbEntity
  8
0
100
AcDbLine
 62
7
  6
CONTINUOUS
 10
10.3278028288
 20
11.1164407272
 11
10.3257694395
 21
11.1175237709
  0
SPLINE
  5
3CD
100
AcDbEntity
  8
0
100
AcDbSpline
 62
7
  6
CONTINUOUS
 70
0
 71
3
 72
17
 73
13
 74
0
 42
0.0000001
 43
0.0000001
 44
0.0000000001
 40
0.0
 40
0.0
 40
0.0
 40
0.0
 40
0.0196516612
 40
0.0410006136
 40
0.0663223793
 40
0.0970176536
 40
0.1772591166
 40
0.2849010819
 40
0.4209180842
 40
0.5856157642
 40
0.7787937358
 40
1.0
 40
1.0
 40
1.0
 40
1.0
 10
11.1160271784
 20
10.82443464
 30
0.0
 10
11.1160326733
 20
10.8244469298
 30
0.0
 10
11.1160390858
 20
10.8244751605
 30
0.0
 10
11.116031569
 20
10.8245207993
 30
0.0
 10
11.1160087514
 20
10.8245691308
 30
0.0
 10
11.1159536148
 20
10.8246448871
 30
0.0
 10
11.1158425974
 20
10.8247469321
 30
0.0
 10
11.115662236
 20
10.8248763398
 30
0.0
 10
11.1154228596
 20
10.8250215961
 30
0.0
 10
11.115125009
 20
10.8251822333
 30
0.0
 10
11.1147691668
 20
10.8253577412
 30
0.0
 10
11.1145112186
 20
10.8254763254
 30
0.0
 10
11.1143729053
 20
10.8255382339
 30
0.0
  0
SPLINE
  5
3CE
100
AcDbEntity
  8
0
100
AcDbSpline
 62
7
  6
CONTINUOUS
 70
0
 71
3
 72
19
 73
15
 74
0
 42
0.0000001
 43
0.0000001
 44
0.0000000001
 40
0.0
 40
0.0
 40
0.0
 40
0.0
 40
0.0191705803
 40
0.0404401644
 40
0.0661080836
 40
0.0974982577
 40
0.1353162287
 40
0.1799140623
 40
0.2314570887
 40
0.2900127326
 40
0.4279979532
 40
0.5932071528
 40
0.7844660905
 40
1.0
 40
1.0
 40
1.0
 40
1.0
 10
11.0196419977
 20
10.8666953837
 30
0.0
 10
11.0196602776
 20
10.866736216
 30
0.0
 10
11.0196805019
 20
10.8668316583
 30
0.0
 10
11.019650798
 20
10.8669859263
 30
0.0
 10
11.019568509
 20
10.8671507215
 30
0.0
 10
11.0194354058
 20
10.8673286149
 30
0.0
 10
11.0192512917
 20
10.8675206408
 30
0.0
 10
11.0190160855
 20
10.8677269837
 30
0.0
 10
11.0187299487
 20
10.867947404
 30
0.0
 10
11.0182543279
 20
10.8682777987
 30
0.0
 10
11.017532928
 20
10.8687175294
 30
0.0
 10
11.0165186359
 20
10.8692682381
 30
0.0
 10
11.015322522
 20
10.8698613643
 30
0.0
 10
11.014460258
 20
10.8702587374
 30
0.0
 10
11.0140011676
 20
10.8704642244
 30
0.0
  0
SPLINE
  5
3CF
100
AcDbEntity
  8
0
100
AcDbSpline
 62
7
  6
CONTINUOUS
 70
0
 71
3
 72
20
 73
16
 74
0
 42
0.0000001
 43
0.0000001
 44
0.0000000001
 40
0.0
 40
0.0
 40
0.0
 40
0.0
 40
0.0091007618
 40
0.0185002841
 40
0.0396896458
 40
0.0660034938
 40
0.0986257463
 40
0.1381056258
 40
0.184644159
 40
0.2382666495
 40
0.2988640854
 40
0.4401578431
 40
0.6062761989
 40
0.7941307972
 40
1.0
 40
1.0
 40
1.0
 40
1.0
 10
10.8790747565
 20
10.9283143122
 30
0.0
 10
10.8790923334
 20
10.9283535879
 30
0.0
 10
10.8791189895
 20
10.9284378437
 30
0.0
 10
10.8791339999
 20
10.9286263194
 30
0.0
 10
10.8790702607
 20
10.9288937249
 30
0.0
 10
10.878887223
 20
10.9292279515
 30
0.0
 10
10.8785987136
 20
10.9295949139
 30
0.0
 10
10.8782039837
 20
10.9299945566
 30
0.0
 10
10.8777039148
 20
10.9304264243
 30
0.0
 10
10.8771000121
 20
10.9308885239
 30
0.0
 10
10.8761076718
 20
10.9315781114
 30
0.0
 10
10.8746239949
 20
10.9324894786
 30
0.0
 10
10.8725706454
 20
10.9336163631
 30
0.0
 10
10.8702032665
 20
10.9348016269
 30
0.0
 10
10.8685137065
 20
10.9355838333
 30
0.0
 10
10.8676252719
 20
10.9359814931
 30
0.0
  0
SPLINE
  5
3D0
100
AcDbEntity
  8
0
100
AcDbSpline
 62
7
  6
CONTINUOUS
 70
0
 71
3
 72
24
 73
20
 74
0
 42
0.0000001
 43
0.0000001
 44
0.0000000001
 40
0.0
 40
0.0
 40
0.0
 40
0.0
 40
0.0084362168
 40
0.0173977461
 40
0.027356334
 40
0.0386521984
 40
0.0515136236
 40
0.0660854848
 40
0.1006531743
 40
0.1426963247
 40
0.1921933666
 40
0.2489322137
 40
0.3125710152
 40
0.3826571406
 40
0.4586515028
 40
0.5399407777
 40
0.6258409068
 40
0.8084357825
 40
1.0
 40
1.0
 40
1.0
 40
1.0
 10
10.712993568
 20
11.0010956969
 30
0.0
 10
10.7130195473
 20
11.0011537365
 30
0.0
 10
10.7130567601
 20
11.0012814081
 30
0.0
 10
10.7130619441
 20
11.0014893794
 30
0.0
 10
10.7130190445
 20
11.0017144477
 30
0.0
 10
10.7129294466
 20
11.0019564294
 30
0.0
 10
10.712793743
 20
11.0022155841
 30
0.0
 10
10.7125365789
 20
11.0026064997
 30
0.0
 10
10.7120912116
 20
11.003132776
 30
0.0
 10
10.7114085988
 20
11.0037954235
 30
0.0
 10
10.7105535233
 20
11.004516317
 30
0.0
 10
10.7095324072
 20
11.0052895766
 30
0.0
 10
10.7083529923
 20
11.006108712
 30
0.0
 10
10.7070250398
 20
11.0069667069
 30
0.0
 10
10.7055598281
 20
11.0078560806
 30
0.0
 10
10.7039701252
 20
11.0087689794
 30
0.0
 10
10.7016558803
 20
11.0100324787
 30
0.0
 10
10.6985637337
 20
11.011603924
 30
0.0
 10
10.6960076013
 20
11.0127968797
 30
0.0
 10
10.6946896672
 20
11.0133867818
 30
0.0
  0
SPLINE
  5
3D1
100
AcDbEntity
  8
0
100
AcDbSpline
 62
7
  6
CONTINUOUS
 70
0
 71
3
 72
22
 73
18
 74
0
 42
0.0000001
 43
0.0000001
 44
0.0000000001
 40
0.0
 40
0.0
 40
0.0
 40
0.0
 40
0.0362063389
 40
0.0497850352
 40
0.0654202866
 40
0.0831508264
 40
0.1029834657
 40
0.1248989898
 40
0.1488589626
 40
0.2026940211
 40
0.263948429
 40
0.3319239447
 40
0.4057979081
 40
0.4846389133
 40
0.6530269221
 40
0.8280443779
 40
1.0
 40
1.0
 40
1.0
 40
1.0
 10
10.5434579748
 20
11.0753654225
 30
0.0
 10
10.5436112205
 20
11.0757077773
 30
0.0
 10
10.5433955193
 20
11.0762930782
 30
0.0
 10
10.5430413295
 20
11.076852515
 30
0.0
 10
10.5427466237
 20
11.077244189
 30
0.0
 10
10.5423868496
 20
11.0776606579
 30
0.0
 10
10.5419603365
 20
11.0781061407
 30
0.0
 10
10.5414691545
 20
11.0785775272
 30
0.0
 10
10.5406991778
 20
11.0792664414
 30
0.0
 10
10.5395825009
 20
11.0801775599
 30
0.0
 10
10.538061978
 20
11.081311732
 30
0.0
 10
10.5363321958
 20
11.0825103267
 30
0.0
 10
10.5344157451
 20
11.0837575728
 30
0.0
 10
10.5315826662
 20
11.0855015332
 30
0.0
 10
10.5277806029
 20
11.0876675764
 30
0.0
 10
10.5230429138
 20
11.0901314939
 30
0.0
 10
10.5197929418
 20
11.0916698603
 30
0.0
 10
10.5181669717
 20
11.0923976381
 30
0.0
  0
SPLINE
  5
3D2
100
AcDbEntity
  8
0
100
AcDbSpline
 62
7
  6
CONTINUOUS
 70
0
 71
3
 72
28
 73
24
 74
0
 42
0.0000001
 43
0.0000001
 44
0.0000000001
 40
0.0
 40
0.0
 40
0.0
 40
0.0
 40
0.0062472319
 40
0.0098861138
 40
0.0139926943
 40
0.0238270048
 40
0.0360475659
 40
0.0507585691
 40
0.0679820859
 40
0.087690544
 40
0.1098280804
 40
0.161051727
 40
0.220838716
 40
0.2881614004
 40
0.3618240115
 40
0.4404882115
 40
0.5226924397
 40
0.6068778994
 40
0.6914131034
 40
0.7746313874
 40
0.8548659514
 40
0.9304982677
 40
1.0
 40
1.0
 40
1.0
 40
1.0
 10
10.3929897494
 20
11.1412595722
 30
0.0
 10
10.39302252
 20
11.1413328051
 30
0.0
 10
10.3930423766
 20
11.1414635704
 30
0.0
 10
10.3930210029
 20
11.1416421117
 30
0.0
 10
10.3929625865
 20
11.141861015
 30
0.0
 10
10.3928199949
 20
11.1421674416
 30
0.0
 10
10.392564899
 20
11.1425656019
 30
0.0
 10
10.3922161137
 20
11.1430135114
 30
0.0
 10
10.3917749622
 20
11.1435091752
 30
0.0
 10
10.3912430987
 20
11.1440504506
 30
0.0
 10
10.3903727096
 20
11.1448699643
 30
0.0
 10
10.3890720218
 20
11.1459814112
 30
0.0
 10
10.3872685824
 20
11.1473938289
 30
0.0
 10
10.3851865653
 20
11.1489155546
 30
0.0
 10
10.3828646948
 20
11.1505179964
 30
0.0
 10
10.380346447
 20
11.1521708626
 30
0.0
 10
10.3776798694
 20
11.1538427182
 30
0.0
 10
10.3749167344
 20
11.1555013392
 30
0.0
 10
10.3721116623
 20
11.1571142846
 30
0.0
 10
10.3693210774
 20
11.1586495037
 30
0.0
 10
10.366601893
 20
11.1600761191
 30
0.0
 10
10.3640101973
 20
11.1613651182
 30
0.0
 10
10.3623210067
 20
11.1621536721
 30
0.0
 10
10.3615063098
 20
11.1625183272
 30
0.0
  0
SPLINE
  5
3D3
100
AcDbEntity
  8
0
100
AcDbSpline
 62
7
  6
CONTINUOUS
 70
0
 71
3
 72
17
 73
13
 74
0
 42
0.0000001
 43
0.0000001
 44
0.0000000001
 40
0.0
 40
0.0
 40
0.0
 40
0.0
 40
0.0406310818
 40
0.0680088097
 40
0.1012082929
 40
0.1406435594
 40
0.1865275759
 40
0.2979193087
 40
0.435537483
 40
0.5989400998
 40
0.7874113528
 40
1.0
 40
1.0
 40
1.0
 40
1.0
 10
10.2815811964
 20
11.1900341359
 30
0.0
 10
10.2816056964
 20
11.1900888405
 30
0.0
 10
10.2816020207
 20
11.1901975336
 30
0.0
 10
10.2815553384
 20
11.1903382338
 30
0.0
 10
10.2814908785
 20
11.1904718033
 30
0.0
 10
10.2813999813
 20
11.1906212001
 30
0.0
 10
10.2812323704
 20
11.1908583772
 30
0.0
 10
10.2809530602
 20
11.1911926218
 30
0.0
 10
10.2805346679
 20
11.1916346011
 30
0.0
 10
10.2800155846
 20
11.1921368688
 30
0.0
 10
10.2793987233
 20
11.192696383
 30
0.0
 10
10.2789506197
 20
11.1930828161
 30
0.0
 10
10.2787111707
 20
11.1932853505
 30
0.0
  0
SPLINE
  5
3D4
100
AcDbEntity
  8
0
100
AcDbSpline
 62
7
  6
CONTINUOUS
 70
0
 71
3
 72
19
 73
15
 74
0
 42
0.0000001
 43
0.0000001
 44
0.0000000001
 40
0.0
 40
0.0
 40
0.0
 40
0.0
 40
0.0463988584
 40
0.0995538367
 40
0.1586622831
 40
0.2228354402
 40
0.3624619603
 40
0.5100462255
 40
0.6565485513
 40
0.7927335587
 40
0.8541655443
 40
0.9097775435
 40
0.9586563275
 40
1.0
 40
1.0
 40
1.0
 40
1.0
 10
10.2787111707
 20
11.1932853505
 30
0.0
 10
10.2782455552
 20
11.1936791845
 30
0.0
 10
10.2772310781
 20
11.1945059567
 30
0.0
 10
10.2755821858
 20
11.195782854
 30
0.0
 10
10.2737207926
 20
11.1971661442
 30
0.0
 10
10.2709133844
 20
11.1991810429
 30
0.0
 10
10.2671028906
 20
11.2017915891
 30
0.0
 10
10.2623257168
 20
11.2049027169
 30
0.0
 10
10.2575191756
 20
11.2078832869
 30
0.0
 10
10.253620624
 20
11.2101774325
 30
0.0
 10
10.2507153203
 20
11.2118014766
 30
0.0
 10
10.2487936528
 20
11.2128328171
 30
0.0
 10
10.2470857466
 20
11.2137031995
 30
0.0
 10
10.2460143301
 20
11.2142120779
 30
0.0
 10
10.2455183502
 20
11.2144340765
 30
0.0
  0
LINE
  5
3D5
100
AcDbEntity
  8
0
100
AcDbLine
 62
7
  6
CONTINUOUS
 10
10.2240371083
 20
11.215221964
 11
10.2214103822
 21
11.2174331788
  0
SPLINE
  5
3D6
100
AcDbEntity
  8
0
100
AcDbSpline
 62
7
  6
CONTINUOUS
 70
0
 71
3
 72
17
 73
13
 74
0
 42
0.0000001
 43
0.0000001
 44
0.0000000001
 40
0.0
 40
0.0
 40
0.0
 40
0.0
 40
0.0442812306
 40
0.096444544
 40
0.2204154106
 40
0.3630153775
 40
0.5143096408
 40
0.6638215737
 40
0.8010294272
 40
0.9159698842
 40
0.9623141165
 40
1.0
 40
1.0
 40
1.0
 40
1.0
 10
10.2214103822
 20
11.2174331788
 30
0.0
 10
10.2209264435
 20
11.2177975952
 30
0.0
 10
10.2198661894
 20
11.2185830141
 30
0.0
 10
10.2174251257
 20
11.2203534268
 30
0.0
 10
10.2138641819
 20
11.2228704217
 30
0.0
 10
10.2091599123
 20
11.2261187568
 30
0.0
 10
10.2041354361
 20
11.2295178446
 30
0.0
 10
10.1991423287
 20
11.2328312247
 30
0.0
 10
10.1945354876
 20
11.2358267296
 30
0.0
 10
10.1910883166
 20
11.2380162894
 30
0.0
 10
10.1887717525
 20
11.2394457532
 30
0.0
 10
10.1877865126
 20
11.2400382077
 30
0.0
 10
10.1873419631
 20
11.240299341
 30
0.0
  0
LINE
  5
3D7
100
AcDbEntity
  8
0
100
AcDbLine
 62
7
  6
CONTINUOUS
 10
10.1873419631
 20
11.240299341
 11
10.1856108344
 21
11.2412484422
  0
LINE
  5
3D8
100
AcDbEntity
  8
0
100
AcDbLine
 62
7
  6
CONTINUOUS
 10
11.3373779723
 20
10.7902360727
 11
11.336717359
 21
10.7906784755
  0
SPLINE
  5
3D9
100
AcDbEntity
  8
0
100
AcDbSpline
 62
7
  6
CONTINUOUS
 70
0
 71
3
 72
17
 73
13
 74
0
 42
0.0000001
 43
0.0000001
 44
0.0000000001
 40
0.0
 40
0.0
 40
0.0
 40
0.0
 40
0.0197256049
 40
0.0411986107
 40
0.0666987012
 40
0.0976255756
 40
0.1783950138
 40
0.2865477252
 40
0.4229260592
 40
0.5876037877
 40
0.7802341003
 40
1.0
 40
1.0
 40
1.0
 40
1.0
 10
11.2726139337
 20
10.8187931661
 30
0.0
 10
11.2726226097
 20
10.8188125597
 30
0.0
 10
11.2726327223
 20
10.8188571645
 30
0.0
 10
11.2726208435
 20
10.8189293226
 30
0.0
 10
11.2725847824
 20
10.8190058618
 30
0.0
 10
11.2724976466
 20
10.819125893
 30
0.0
 10
11.272322484
 20
10.819287676
 30
0.0
 10
11.2720381553
 20
10.8194926901
 30
0.0
 10
11.2716614529
 20
10.819722278
 30
0.0
 10
11.2711937447
 20
10.8199754725
 30
0.0
 10
11.2706364563
 20
10.8202509663
 30
0.0
 10
11.2702329023
 20
10.8204366538
 30
0.0
 10
11.2700168545
 20
10.820533356
 30
0.0
  0
SPLINE
  5
3DA
100
AcDbEntity
  8
0
100
AcDbSpline
 62
7
  6
CONTINUOUS
 70
0
 71
3
 72
19
 73
15
 74
0
 42
0.0000001
 43
0.0000001
 44
0.0000000001
 40
0.0
 40
0.0
 40
0.0
 40
0.0
 40
0.0193166594
 40
0.0407083394
 40
0.0664669664
 40
0.0979194413
 40
0.1357764488
 40
0.1803962272
 40
0.2319459762
 40
0.290494821
 40
0.4284329938
 40
0.593549053
 40
0.78466463
 40
1.0
 40
1.0
 40
1.0
 40
1.0
 10
11.1695882338
 20
10.864218657
 30
0.0
 10
11.1696067964
 20
10.8642601257
 30
0.0
 10
11.1696274917
 20
10.8643568686
 30
0.0
 10
11.1695981313
 20
10.8645133137
 30
0.0
 10
11.1695156911
 20
10.8646803943
 30
0.0
 10
11.169382027
 20
10.8648606258
 30
0.0
 10
11.1691969543
 20
10.8650550475
 30
0.0
 10
11.1689603916
 20
10.865263831
 30
0.0
 10
11.1686725082
 20
10.8654867381
 30
0.0
 10
11.1681939098
 20
10.8658206591
 30
0.0
 10
11.16746776
 20
10.8662647552
 30
0.0
 10
11.1664465703
 20
10.8668204463
 30
0.0
 10
11.1652422361
 20
10.8674184001
 30
0.0
 10
11.1643739586
 20
10.8678186959
 30
0.0
 10
11.1639116748
 20
10.8680256123
 30
0.0
  0
SPLINE
  5
3DB
100
AcDbEntity
  8
0
100
AcDbSpline
 62
7
  6
CONTINUOUS
 70
0
 71
3
 72
20
 73
16
 74
0
 42
0.0000001
 43
0.0000001
 44
0.0000000001
 40
0.0
 40
0.0
 40
0.0
 40
0.0
 40
0.0093011704
 40
0.0188527471
 40
0.0401538008
 40
0.0663148994
 40
0.0985786828
 40
0.1375361173
 40
0.1834541157
 40
0.2363958678
 40
0.2963192112
 40
0.4364981965
 40
0.6022569763
 40
0.791121794
 40
1.0
 40
1.0
 40
1.0
 40
1.0
 10
11.035320639
 20
10.9234140458
 30
0.0
 10
11.0353358757
 20
10.9234480739
 30
0.0
 10
11.0353592839
 20
10.9235206838
 30
0.0
 10
11.0353742618
 20
10.9236820951
 30
0.0
 10
11.0353244943
 20
10.9239101595
 30
0.0
 10
11.0351745937
 20
10.9241946954
 30
0.0
 10
11.0349360012
 20
10.9245052834
 30
0.0
 10
11.0346082597
 20
10.9248424992
 30
0.0
 10
11.034191678
 20
10.9252060199
 30
0.0
 10
11.033687288
 20
10.9255947044
 30
0.0
 10
11.0328551904
 20
10.9261752662
 30
0.0
 10
11.031604904
 20
10.9269438852
 30
0.0
 10
11.0298651983
 20
10.9278974566
 30
0.0
 10
11.0278442553
 20
10.9289073807
 30
0.0
 10
11.0263969369
 20
10.929576662
 30
0.0
 10
11.0256327123
 20
10.9299187259
 30
0.0
  0
SPLINE
  5
3DC
100
AcDbEntity
  8
0
100
AcDbSpline
 62
7
  6
CONTINUOUS
 70
0
 71
3
 72
22
 73
18
 74
0
 42
0.0000001
 43
0.0000001
 44
0.0000000001
 40
0.0
 40
0.0
 40
0.0
 40
0.0
 40
0.0088682199
 40
0.0181230509
 40
0.0281968191
 40
0.0394255067
 40
0.066192383
 40
0.0995936594
 40
0.1400840274
 40
0.1877826938
 40
0.2426206206
 40
0.3044038779
 40
0.37283952
 40
0.447565298
 40
0.6140812115
 40
0.7998336581
 40
1.0
 40
1.0
 40
1.0
 40
1.0
 10
10.8789599461
 20
10.9923423445
 30
0.0
 10
10.8789814304
 20
10.9923903311
 30
0.0
 10
10.8790133952
 20
10.9924942165
 30
0.0
 10
10.879023577
 20
10.9926623959
 30
0.0
 10
10.8789972739
 20
10.9928427128
 30
0.0
 10
10.8789092236
 20
10.9931148474
 30
0.0
 10
10.8786976643
 20
10.9934857418
 30
0.0
 10
10.8783226934
 20
10.993951488
 30
0.0
 10
10.8778124114
 20
10.9944622082
 30
0.0
 10
10.8771688921
 20
10.9950152155
 30
0.0
 10
10.8763949339
 20
10.9956075405
 30
0.0
 10
10.8754948659
 20
10.9962353847
 30
0.0
 10
10.8744740739
 20
10.9968948053
 30
0.0
 10
10.8729028496
 20
10.9978449671
 30
0.0
 10
10.8706868739
 20
10.9990708148
 30
0.0
 10
10.8677620264
 20
11.000545887
 30
0.0
 10
10.865686613
 20
11.0015099637
 30
0.0
 10
10.8646034499
 20
11.0019947831
 30
0.0
  0
SPLINE
  5
3DD
100
AcDbEntity
  8
0
100
AcDbSpline
 62
7
  6
CONTINUOUS
 70
0
 71
3
 72
24
 73
20
 74
0
 42
0.0000001
 43
0.0000001
 44
0.0000000001
 40
0.0
 40
0.0
 40
0.0
 40
0.0
 40
0.0083200289
 40
0.0172128714
 40
0.0271598239
 40
0.0385023413
 40
0.0514604957
 40
0.0661730662
 40
0.1011343311
 40
0.1436763987
 40
0.1937344459
 40
0.2510560455
 40
0.3152515631
 40
0.3858215899
 40
0.4621781834
 40
0.5436522192
 40
0.6295043962
 40
0.8110775078
 40
1.0
 40
1.0
 40
1.0
 40
1.0
 10
10.7111608481
 20
11.0663039489
 30
0.0
 10
10.7111879523
 20
11.0663645187
 30
0.0
 10
10.711226246
 20
11.0664984791
 30
0.0
 10
10.7112294221
 20
11.066717045
 30
0.0
 10
10.7111813112
 20
11.066954386
 30
0.0
 10
10.7110833262
 20
11.0672103388
 30
0.0
 10
10.7109362391
 20
11.0674852446
 30
0.0
 10
10.7106584429
 20
11.0679011275
 30
0.0
 10
10.7101794032
 20
11.0684620834
 30
0.0
 10
10.7094474219
 20
11.0691698432
 30
0.0
 10
10.7085323788
 20
11.0699407387
 30
0.0
 10
10.7074417038
 20
11.0707678965
 30
0.0
 10
10.7061843722
 20
11.0716438274
 30
0.0
 10
10.7047715602
 20
11.0725604053
 30
0.0
 10
10.7032161379
 20
11.0735089769
 30
0.0
 10
10.7015326689
 20
11.0744805234
 30
0.0
 10
10.6990928603
 20
11.0758190863
 30
0.0
 10
10.6958502774
 20
11.0774741624
 30
0.0
 10
10.6931730653
 20
11.0787263413
 30
0.0
 10
10.6917977657
 20
11.07934192
 30
0.0
  0
SPLINE
  5
3DE
100
AcDbEntity
  8
0
100
AcDbSpline
 62
7
  6
CONTINUOUS
 70
0
 71
3
 72
25
 73
21
 74
0
 42
0.0000001
 43
0.0000001
 44
0.0000000001
 40
0.0
 40
0.0
 40
0.0
 40
0.0
 40
0.0076360189
 40
0.0161034986
 40
0.0259443323
 40
0.0374927765
 40
0.0509419555
 40
0.0663936179
 40
0.0838945458
 40
0.1034583747
 40
0.1486922999
 40
0.2018075653
 40
0.262309626
 40
0.3295552551
 40
0.4027805632
 40
0.4811156248
 40
0.5635978855
 40
0.6491876364
 40
0.8252211399
 40
1.0
 40
1.0
 40
1.0
 40
1.0
 10
10.5433581416
 20
11.1402575208
 30
0.0
 10
10.5433893426
 20
11.1403272497
 30
0.0
 10
10.5434295615
 20
11.1404866474
 30
0.0
 10
10.5434158373
 20
11.1407485791
 30
0.0
 10
10.5433346528
 20
11.1410378363
 30
0.0
 10
10.543187982
 20
11.1413551351
 30
0.0
 10
10.5429763729
 20
11.1417008374
 30
0.0
 10
10.5427002624
 20
11.1420745457
 30
0.0
 10
10.5423602489
 20
11.1424754678
 30
0.0
 10
10.5417946867
 20
11.1430742151
 30
0.0
 10
10.5409284327
 20
11.1438766531
 30
0.0
 10
10.5397005878
 20
11.144886421
 30
0.0
 10
10.538252396
 20
11.1459719611
 30
0.0
 10
10.5366012746
 20
11.1471197678
 30
0.0
 10
10.534767332
 20
11.1483153351
 30
0.0
 10
10.5327735977
 20
11.149543393
 30
0.0
 10
10.5306456031
 20
11.150788068
 30
0.0
 10
10.5276381495
 20
11.1524635288
 30
0.0
 10
10.523762066
 20
11.1544749274
 30
0.0
 10
10.5205880089
 20
11.155974726
 30
0.0
 10
10.5189920815
 20
11.1566890568
 30
0.0
  0
SPLINE
  5
3DF
100
AcDbEntity
  8
0
100
AcDbSpline
 62
7
  6
CONTINUOUS
 70
0
 71
3
 72
26
 73
22
 74
0
 42
0.0000001
 43
0.0000001
 44
0.0000000001
 40
0.0
 40
0.0
 40
0.0
 40
0.0
 40
0.0067901871
 40
0.0147789181
 40
0.0245697238
 40
0.0364714978
 40
0.0506265537
 40
0.067089114
 40
0.0858630105
 40
0.1069179399
 40
0.1556434087
 40
0.2126676958
 40
0.2771831933
 40
0.3482247274
 40
0.4246902252
 40
0.5053612527
 40
0.5889198842
 40
0.6739702532
 40
0.8427263273
 40
0.9235140266
 40
1.0
 40
1.0
 40
1.0
 40
1.0
 10
10.3869875971
 20
11.2091638616
 30
0.0
 10
10.3870205248
 20
11.2092374357
 30
0.0
 10
10.3870555257
 20
11.2094147676
 30
0.0
 10
10.3870114376
 20
11.2097065414
 30
0.0
 10
10.3868837146
 20
11.210036848
 30
0.0
 10
10.3866731239
 20
11.2104078115
 30
0.0
 10
10.3863803327
 20
11.2108197029
 30
0.0
 10
10.3860058775
 20
11.2112713986
 30
0.0
 10
10.3855509841
 20
11.2117612692
 30
0.0
 10
10.3848020156
 20
11.2124992966
 30
0.0
 10
10.3836723595
 20
11.2134957634
 30
0.0
 10
10.3820928471
 20
11.2147577008
 30
0.0
 10
10.3802539023
 20
11.2161166662
 30
0.0
 10
10.3781849394
 20
11.2175504884
 30
0.0
 10
10.3759193033
 20
11.2190355476
 30
0.0
 10
10.373494349
 20
11.220547157
 30
0.0
 10
10.3709507844
 20
11.2220599232
 30
0.0
 10
10.3674685469
 20
11.2240383793
 30
0.0
 10
10.3639590918
 20
11.2259012823
 30
0.0
 10
10.3604855227
 20
11.2276086799
 30
0.0
 10
10.3587915556
 20
11.2283941749
 30
0.0
 10
10.3579628191
 20
11.2287651141
 30
0.0
  0
SPLINE
  5
3E0
100
AcDbEntity
  8
0
100
AcDbSpline
 62
7
  6
CONTINUOUS
 70
0
 71
3
 72
27
 73
23
 74
0
 42
0.0000001
 43
0.0000001
 44
0.0000000001
 40
0.0
 40
0.0
 40
0.0
 40
0.0
 40
0.0130001425
 40
0.017620602
 40
0.0228742912
 40
0.0353528932
 40
0.050515173
 40
0.068354669
 40
0.0888196563
 40
0.1118307924
 40
0.1650660341
 40
0.2270668787
 40
0.296625353
 40
0.3723607003
 40
0.4527474149
 40
0.5361367696
 40
0.620786553
 40
0.704890827
 40
0.7866226589
 40
0.8641793441
 40
0.9358347434
 40
1.0
 40
1.0
 40
1.0
 40
1.0
 10
10.2527065547
 20
11.2683292304
 30
0.0
 10
10.2527779657
 20
11.2684887467
 30
0.0
 10
10.2527168441
 20
11.2687551527
 30
0.0
 10
10.2525899651
 20
11.2690300813
 30
0.0
 10
10.252441564
 20
11.2692931822
 30
0.0
 10
10.2521860646
 20
11.2696543691
 30
0.0
 10
10.2517933826
 20
11.2701238936
 30
0.0
 10
10.2513004722
 20
11.2706473836
 30
0.0
 10
10.2507097078
 20
11.2712225824
 30
0.0
 10
10.2497475338
 20
11.2720973062
 30
0.0
 10
10.2483200387
 20
11.2732886837
 30
0.0
 10
10.2463538886
 20
11.2748079096
 30
0.0
 10
10.2440991151
 20
11.2764463079
 30
0.0
 10
10.241601946
 20
11.2781699135
 30
0.0
 10
10.2389137962
 20
11.279942842
 30
0.0
 10
10.2360909064
 20
11.2817279872
 30
0.0
 10
10.2331933356
 20
11.2834874826
 30
0.0
 10
10.230283883
 20
11.2851834382
 30
0.0
 10
10.22742677
 20
11.2867787361
 30
0.0
 10
10.22468605
 20
11.2882380197
 30
0.0
 10
10.2221238992
 20
11.2895286335
 30
0.0
 10
10.2204712093
 20
11.2903058117
 30
0.0
 10
10.2196838566
 20
11.2906582276
 30
0.0
  0
SPLINE
  5
3E1
100
AcDbEntity
  8
0
100
AcDbSpline
 62
7
  6
CONTINUOUS
 70
0
 71
3
 72
17
 73
13
 74
0
 42
0.0000001
 43
0.0000001
 44
0.0000000001
 40
0.0
 40
0.0
 40
0.0
 40
0.0
 40
0.03984854
 40
0.0669623119
 40
0.0999772488
 40
0.1392962694
 40
0.1851240614
 40
0.2965542747
 40
0.4343707145
 40
0.5980923093
 40
0.7869652227
 40
1.0
 40
1.0
 40
1.0
 40
1.0
 10
10.1496674203
 20
11.3137246724
 30
0.0
 10
10.1496919762
 20
11.313779503
 30
0.0
 10
10.1496867455
 20
11.313889173
 30
0.0
 10
10.1496377563
 20
11.3140304578
 30
0.0
 10
10.1495705861
 20
11.3141654073
 30
0.0
 10
10.1494762996
 20
11.3143165787
 30
0.0
 10
10.1493027353
 20
11.3145571
 30
0.0
 10
10.1490142962
 20
11.314896494
 30
0.0
 10
10.1485830638
 20
11.3153458635
 30
0.0
 10
10.148048657
 20
11.3158570915
 30
0.0
 10
10.1474141792
 20
11.316427031
 30
0.0
 10
10.1469536319
 20
11.3168208978
 30
0.0
 10
10.1467076097
 20
11.3170273748
 30
0.0
  0
SPLINE
  5
3E2
100
AcDbEntity
  8
0
100
AcDbSpline
 62
7
  6
CONTINUOUS
 70
0
 71
3
 72
19
 73
15
 74
0
 42
0.0000001
 43
0.0000001
 44
0.0000000001
 40
0.0
 40
0.0
 40
0.0
 40
0.0
 40
0.0467993897
 40
0.1002941961
 40
0.1596781161
 40
0.2240607931
 40
0.3639110356
 40
0.5114792083
 40
0.6577693763
 40
0.7936036546
 40
0.8548277059
 40
0.9102203879
 40
0.9588759109
 40
1.0
 40
1.0
 40
1.0
 40
1.0
 10
10.1467076097
 20
11.3170273748
 30
0.0
 10
10.1462372857
 20
11.3174220995
 30
0.0
 10
10.1452145711
 20
11.3182504328
 30
0.0
 10
10.1435554484
 20
11.3195298311
 30
0.0
 10
10.1416868695
 20
11.3209146888
 30
0.0
 10
10.1388754377
 20
11.3229294149
 30
0.0
 10
10.1350672026
 20
11.3255384043
 30
0.0
 10
10.1303003825
 20
11.3286467828
 30
0.0
 10
10.1255116431
 20
11.3316226071
 30
0.0
 10
10.1216312219
 20
11.3339118143
 30
0.0
 10
10.1187416261
 20
11.3355309545
 30
0.0
 10
10.1168318046
 20
11.3365581519
 30
0.0
 10
10.1151352547
 20
11.33742421
 30
0.0
 10
10.1140711486
 20
11.3379300556
 30
0.0
 10
10.1135786769
 20
11.338150484
 30
0.0
  0
SPLINE
  5
3E3
100
AcDbEntity
  8
0
100
AcDbSpline
 62
7
  6
CONTINUOUS
 70
0
 71
3
 72
18
 73
14
 74
0
 42
0.0000001
 43
0.0000001
 44
0.0000000001
 40
0.0
 40
0.0
 40
0.0
 40
0.0
 40
0.0111466784
 40
0.0275588847
 40
0.0506208054
 40
0.0807870332
 40
0.1182305103
 40
0.1629986759
 40
0.2744084758
 40
0.4146325565
 40
0.5829380156
 40
0.7784270437
 40
1.0
 40
1.0
 40
1.0
 40
1.0
 10
10.0848935676
 20
11.3422597443
 30
0.0
 10
10.0848996991
 20
11.3422734395
 30
0.0
 10
10.0848989595
 20
11.3423131397
 30
0.0
 10
10.0848719001
 20
11.3423758228
 30
0.0
 10
10.0848217903
 20
11.3424554697
 30
0.0
 10
10.084746504
 20
11.3425516427
 30
0.0
 10
10.0846462235
 20
11.3426650019
 30
0.0
 10
10.0844652196
 20
11.3428526162
 30
0.0
 10
10.0841746908
 20
11.3431263672
 30
0.0
 10
10.083750038
 20
11.3434995782
 30
0.0
 10
10.0832297044
 20
11.3439350873
 30
0.0
 10
10.0826166769
 20
11.3444302298
 30
0.0
 10
10.0821751996
 20
11.3447770958
 30
0.0
 10
10.0819397258
 20
11.3449601718
 30
0.0
  0
SPLINE
  5
3E4
100
AcDbEntity
  8
0
100
AcDbSpline
 62
7
  6
CONTINUOUS
 70
0
 71
3
 72
19
 73
15
 74
0
 42
0.0000001
 43
0.0000001
 44
0.0000000001
 40
0.0
 40
0.0
 40
0.0
 40
0.0
 40
0.0470179544
 40
0.10161409
 40
0.22945801
 40
0.374511868
 40
0.5267385131
 40
0.6755640297
 40
0.7453776672
 40
0.8104064661
 40
0.8694365488
 40
0.9213497329
 40
0.965150464
 40
1.0
 40
1.0
 40
1.0
 40
1.0
 10
10.0819397258
 20
11.3449601718
 30
0.0
 10
10.081433465
 20
11.3453537792
 30
0.0
 10
10.0803302562
 20
11.3461927471
 30
0.0
 10
10.0778127139
 20
11.3480518806
 30
0.0
 10
10.074174782
 20
11.3506439819
 30
0.0
 10
10.0694014505
 20
11.3539358328
 30
0.0
 10
10.0643468393
 20
11.3573229322
 30
0.0
 10
10.060109188
 20
11.3600850174
 30
0.0
 10
10.056845373
 20
11.3621625453
 30
0.0
 10
10.0546035537
 20
11.3635647511
 30
0.0
 10
10.0525571632
 20
11.3648188262
 30
0.0
 10
10.0507453864
 20
11.3659014524
 30
0.0
 10
10.0492033726
 20
11.3667921679
 30
0.0
 10
10.0482633783
 20
11.3673093638
 30
0.0
 10
10.0478423463
 20
11.367529928
 30
0.0
  0
LINE
  5
3E5
100
AcDbEntity
  8
0
100
AcDbLine
 62
7
  6
CONTINUOUS
 10
10.0478423463
 20
11.367529928
 11
10.0468781724
 21
11.3680053644
  0
LINE
  5
3E6
100
AcDbEntity
  8
0
100
AcDbLine
 62
7
  6
CONTINUOUS
 10
10.7809828352
 20
12.0306474947
 11
10.7835682219
 21
12.0301755388
  0
SPLINE
  5
3E7
100
AcDbEntity
  8
0
100
AcDbSpline
 62
7
  6
CONTINUOUS
 70
0
 71
3
 72
11
 73
7
 74
0
 42
0.0000001
 43
0.0000001
 44
0.0000000001
 40
0.0
 40
0.0
 40
0.0
 40
0.0
 40
0.2490188559
 40
0.4985066294
 40
0.7487417091
 40
1.0
 40
1.0
 40
1.0
 40
1.0
 10
15.0617116686
 20
8.571295124
 30
0.0
 10
15.0600139472
 20
8.6463536727
 30
0.0
 10
15.0540904973
 20
8.7965670275
 30
0.0
 10
15.0376430961
 20
9.0217489545
 30
0.0
 10
15.0136289008
 20
9.2469287985
 30
0.0
 10
14.9926244313
 20
9.3966925695
 30
0.0
 10
14.9808776395
 20
9.4715291796
 30
0.0
  0
SPLINE
  5
3E8
100
AcDbEntity
  8
0
100
AcDbSpline
 62
7
  6
CONTINUOUS
 70
0
 71
3
 72
11
 73
7
 74
0
 42
0.0000001
 43
0.0000001
 44
0.0000000001
 40
0.0
 40
0.0
 40
0.0
 40
0.0
 40
0.2510959403
 40
0.5013506714
 40
0.7509297301
 40
1.0
 40
1.0
 40
1.0
 40
1.0
 10
16.5338539396
 20
7.3678071678
 30
0.0
 10
16.5247272748
 20
7.4259443639
 30
0.0
 10
16.5079783772
 20
7.5422609992
 30
0.0
 10
16.4873679771
 20
7.7170638604
 30
0.0
 10
16.471317478
 20
7.8918675961
 30
0.0
 10
16.4636509882
 20
8.0084995468
 30
0.0
 10
16.4605805941
 20
8.0667931976
 30
0.0
  0
SPLINE
  5
3E9
100
AcDbEntity
  8
0
100
AcDbSpline
 62
7
  6
CONTINUOUS
 70
0
 71
3
 72
11
 73
7
 74
0
 42
0.0000001
 43
0.0000001
 44
0.0000000001
 40
0.0
 40
0.0
 40
0.0
 40
0.0
 40
0.2490188559
 40
0.4985066294
 40
0.7487417091
 40
1.0
 40
1.0
 40
1.0
 40
1.0
 10
16.4529998143
 20
8.571295124
 30
0.0
 10
16.4546975357
 20
8.6463536727
 30
0.0
 10
16.4606209857
 20
8.7965670275
 30
0.0
 10
16.4770683869
 20
9.0217489545
 30
0.0
 10
16.5010825822
 20
9.2469287985
 30
0.0
 10
16.5220870517
 20
9.3966925695
 30
0.0
 10
16.5338338434
 20
9.4715291796
 30
0.0
  0
SPLINE
  5
3EA
100
AcDbEntity
  8
0
100
AcDbSpline
 62
7
  6
CONTINUOUS
 70
0
 71
3
 72
9
 73
5
 74
0
 42
0.0000001
 43
0.0000001
 44
0.0000000001
 40
0.0
 40
0.0
 40
0.0
 40
0.0
 40
0.4905404525
 40
1.0
 40
1.0
 40
1.0
 40
1.0
 10
11.5956399966
 20
10.7243543463
 30
0.0
 10
11.599604478
 20
10.7232061801
 30
0.0
 10
11.6078392463
 20
10.7213720008
 30
0.0
 10
11.6162220772
 20
10.7204716998
 30
0.0
 10
11.6205014079
 20
10.7202224918
 30
0.0
  0
LINE
  5
3EB
100
AcDbEntity
  8
0
100
AcDbLine
 62
7
  6
CONTINUOUS
 10
10.0468781724
 20
11.3680053644
 11
10.0461081419
 21
11.3682033121
  0
SPLINE
  5
3EC
100
AcDbEntity
  8
0
100
AcDbSpline
 62
7
  6
CONTINUOUS
 70
0
 71
3
 72
17
 73
13
 74
0
 42
0.0000001
 43
0.0000001
 44
0.0000000001
 40
0.0
 40
0.0
 40
0.0
 40
0.0
 40
0.2197659024
 40
0.4123962195
 40
0.5770739499
 40
0.7134522798
 40
0.8216049876
 40
0.9023744258
 40
0.9333013015
 40
0.9588013926
 40
0.9802743972
 40
1.0
 40
1.0
 40
1.0
 40
1.0
 10
10.1135786769
 20
11.338150484
 30
0.0
 10
10.1133626291
 20
11.3382471861
 30
0.0
 10
10.1129553026
 20
11.3384244454
 30
0.0
 10
10.1123785839
 20
11.3386565288
 30
0.0
 10
10.111878173
 20
11.3388366604
 30
0.0
 10
10.1114559949
 20
11.3389646483
 30
0.0
 10
10.111113682
 20
11.3390401165
 30
0.0
 10
10.1108763355
 20
11.3390629709
 30
0.0
 10
10.1107287694
 20
11.3390479913
 30
0.0
 10
10.1106476643
 20
11.3390238953
 30
0.0
 10
10.1105859367
 20
11.3389846831
 30
0.0
 10
10.1105594082
 20
11.338947426
 30
0.0
 10
10.1105507248
 20
11.3389280358
 30
0.0
  0
SPLINE
  5
3ED
100
AcDbEntity
  8
0
100
AcDbSpline
 62
7
  6
CONTINUOUS
 70
0
 71
3
 72
19
 73
15
 74
0
 42
0.0000001
 43
0.0000001
 44
0.0000000001
 40
0.0
 40
0.0
 40
0.0
 40
0.0
 40
0.2153353747
 40
0.4064509547
 40
0.5715670116
 40
0.7095051875
 40
0.7680540329
 40
0.8196037789
 40
0.8642235523
 40
0.9020805557
 40
0.9335330312
 40
0.9592916609
 40
0.980683342
 40
1.0
 40
1.0
 40
1.0
 40
1.0
 10
10.2196838566
 20
11.2906582276
 30
0.0
 10
10.2192215728
 20
11.290865144
 30
0.0
 10
10.2183446008
 20
11.291246015
 30
0.0
 10
10.2170963412
 20
11.2917458324
 30
0.0
 10
10.2160016095
 20
11.2921372192
 30
0.0
 10
10.2151866564
 20
11.2923829146
 30
0.0
 10
10.2146187863
 20
11.2925173888
 30
0.0
 10
10.214260761
 20
11.2925835878
 30
0.0
 10
10.2139474583
 20
11.2926209219
 30
0.0
 10
10.2136791685
 20
11.2926294234
 30
0.0
 10
10.2134557094
 20
11.2926090389
 30
0.0
 10
10.213276183
 20
11.2925592135
 30
0.0
 10
10.2131399495
 20
11.2924768875
 30
0.0
 10
10.2130815876
 20
11.2923970041
 30
0.0
 10
10.2130630273
 20
11.2923555344
 30
0.0
  0
SPLINE
  5
3EE
100
AcDbEntity
  8
0
100
AcDbSpline
 62
7
  6
CONTINUOUS
 70
0
 71
3
 72
20
 73
16
 74
0
 42
0.0000001
 43
0.0000001
 44
0.0000000001
 40
0.0
 40
0.0
 40
0.0
 40
0.0
 40
0.2088782119
 40
0.3977430296
 40
0.5635018139
 40
0.7036807923
 40
0.7636041311
 40
0.8165458859
 40
0.8624638874
 40
0.9014213203
 40
0.9336850994
 40
0.9598461968
 40
0.9811472518
 40
0.9906988288
 40
1.0
 40
1.0
 40
1.0
 40
1.0
 10
10.3579628191
 20
11.2287651141
 30
0.0
 10
10.3571985945
 20
11.229107178
 30
0.0
 10
10.3557352661
 20
11.2297406906
 30
0.0
 10
10.3536357491
 20
11.230575068
 30
0.0
 10
10.3517656168
 20
11.2312372457
 30
0.0
 10
10.3503594654
 20
11.2316576377
 30
0.0
 10
10.3493721573
 20
11.2318914348
 30
0.0
 10
10.3487462636
 20
11.2320086607
 30
0.0
 10
10.3481976336
 20
11.232077165
 30
0.0
 10
10.3477278059
 20
11.2320969379
 30
0.0
 10
10.3473372272
 20
11.2320679644
 30
0.0
 10
10.3470251633
 20
11.231990202
 30
0.0
 10
10.3468219226
 20
11.2318753831
 30
0.0
 10
10.3467115233
 20
11.231756682
 30
0.0
 10
10.3466729665
 20
11.2316908525
 30
0.0
 10
10.3466577395
 20
11.2316568201
 30
0.0
  0
SPLINE
  5
3EF
100
AcDbEntity
  8
0
100
AcDbSpline
 62
7
  6
CONTINUOUS
 70
0
 71
3
 72
22
 73
18
 74
0
 42
0.0000001
 43
0.0000001
 44
0.0000000001
 40
0.0
 40
0.0
 40
0.0
 40
0.0
 40
0.200166348
 40
0.3859187963
 40
0.5524347089
 40
0.6271604808
 40
0.6955961259
 40
0.757379386
 40
0.812217308
 40
0.8599159701
 40
0.9004063397
 40
0.9338076173
 40
0.9605744945
 40
0.9718031819
 40
0.9818769493
 40
0.9911317796
 40
1.0
 40
1.0
 40
1.0
 40
1.0
 10
10.5189920815
 20
11.1566890568
 30
0.0
 10
10.5179089184
 20
11.1571738763
 30
0.0
 10
10.5158073058
 20
11.1580794199
 30
0.0
 10
10.5127587167
 20
11.1592780341
 30
0.0
 10
10.510368239
 20
11.1601140167
 30
0.0
 10
10.5086128903
 20
11.1606528156
 30
0.0
 10
10.5074410642
 20
11.1609748021
 30
0.0
 10
10.5063732125
 20
11.1612277911
 30
0.0
 10
10.5054158635
 20
11.1614103922
 30
0.0
 10
10.5045747343
 20
11.1615219077
 30
0.0
 10
10.5038539035
 20
11.1615622287
 30
0.0
 10
10.5032567565
 20
11.1615315986
 30
0.0
 10
10.5028392115
 20
11.1614422887
 30
0.0
 10
10.5025776005
 20
11.1613266612
 30
0.0
 10
10.5024256007
 20
11.1612261519
 30
0.0
 10
10.5023069588
 20
11.1611065189
 30
0.0
 10
10.5022507778
 20
11.1610134726
 30
0.0
 10
10.502229303
 20
11.1609654817
 30
0.0
  0
SPLINE
  5
3F0
100
AcDbEntity
  8
0
100
AcDbSpline
 62
7
  6
CONTINUOUS
 70
0
 71
3
 72
24
 73
20
 74
0
 42
0.0000001
 43
0.0000001
 44
0.0000000001
 40
0.0
 40
0.0
 40
0.0
 40
0.0
 40
0.1889225023
 40
0.3704956231
 40
0.4563477984
 40
0.5378218307
 40
0.6141784305
 40
0.6847484559
 40
0.7489439674
 40
0.8062655679
 40
0.856323617
 40
0.8988656835
 40
0.9338269438
 40
0.9485395128
 40
0.961497668
 40
0.9728401862
 40
0.9827871368
 40
0.991679975
 40
1.0
 40
1.0
 40
1.0
 40
1.0
 10
10.6917977657
 20
11.07934192
 30
0.0
 10
10.690422466
 20
11.0799574986
 30
0.0
 10
10.687705079
 20
11.0811199208
 30
0.0
 10
10.6843105738
 20
11.0824355789
 30
0.0
 10
10.6816869196
 20
11.0833634018
 30
0.0
 10
10.6798408461
 20
11.0839716645
 30
0.0
 10
10.6780972106
 20
11.084499738
 30
0.0
 10
10.6764724411
 20
11.0849427694
 30
0.0
 10
10.6749815651
 20
11.0852969254
 30
0.0
 10
10.6736380884
 20
11.0855592842
 30
0.0
 10
10.6724535754
 20
11.0857281416
 30
0.0
 10
10.6714381021
 20
11.0858025355
 30
0.0
 10
10.6707006198
 20
11.08578609
 30
0.0
 10
10.670205397
 20
11.0857162073
 30
0.0
 10
10.6699023894
 20
11.0856427621
 30
0.0
 10
10.669646228
 20
11.0855453238
 30
0.0
 10
10.6694371726
 20
11.0854230894
 30
0.0
 10
10.6692762863
 20
11.0852751141
 30
0.0
 10
10.6692018922
 20
11.0851573121
 30
0.0
 10
10.669174777
 20
11.0850967473
 30
0.0
  0
SPLINE
  5
3F1
100
AcDbEntity
  8
0
100
AcDbSpline
 62
7
  6
CONTINUOUS
 70
0
 71
3
 72
25
 73
21
 74
0
 42
0.0000001
 43
0.0000001
 44
0.0000000001
 40
0.0
 40
0.0
 40
0.0
 40
0.0
 40
0.1747788718
 40
0.3508123864
 40
0.4364021344
 40
0.518884403
 40
0.5972194634
 40
0.670444768
 40
0.7376904007
 40
0.7981924635
 40
0.8513077234
 40
0.89654165
 40
0.9161054794
 40
0.9336064017
 40
0.9490580549
 40
0.9625072261
 40
0.974055671
 40
0.9838965073
 40
0.9923639853
 40
1.0
 40
1.0
 40
1.0
 40
1.0
 10
10.8646034499
 20
11.0019947831
 30
0.0
 10
10.8630075224
 20
11.0027091139
 30
0.0
 10
10.8597744714
 20
11.0040771114
 30
0.0
 10
10.8556921949
 20
11.005627843
 30
0.0
 10
10.8524391283
 20
11.0067545661
 30
0.0
 10
10.8500932218
 20
11.0075123915
 30
0.0
 10
10.8478491509
 20
11.0081811582
 30
0.0
 10
10.8457357629
 20
11.0087524005
 30
0.0
 10
10.8437797877
 20
11.0092191158
 30
0.0
 10
10.8420054397
 20
11.0095759716
 30
0.0
 10
10.8404343944
 20
11.0098189758
 30
0.0
 10
10.8392588607
 20
11.0099304338
 30
0.0
 10
10.8384355537
 20
11.0099533388
 30
0.0
 10
10.8379100398
 20
11.0099398234
 30
0.0
 10
10.8374473931
 20
11.0098967801
 30
0.0
 10
10.837048603
 20
11.0098242899
 30
0.0
 10
10.836714257
 20
11.0097222924
 30
0.0
 10
10.8364444501
 20
11.0095901375
 30
0.0
 10
10.8362399635
 20
11.0094258761
 30
0.0
 10
10.8361478812
 20
11.0092896924
 30
0.0
 10
10.8361166646
 20
11.0092199705
 30
0.0
  0
SPLINE
  5
3F2
100
AcDbEntity
  8
0
100
AcDbSpline
 62
7
  6
CONTINUOUS
 70
0
 71
3
 72
26
 73
22
 74
0
 42
0.0000001
 43
0.0000001
 44
0.0000000001
 40
0.0
 40
0.0
 40
0.0
 40
0.0
 40
0.0764859796
 40
0.1572736832
 40
0.3260297643
 40
0.4110801389
 40
0.494638773
 40
0.5753097975
 40
0.6517753009
 40
0.7228168366
 40
0.7873323308
 40
0.8443566234
 40
0.8930820691
 40
0.9141369956
 40
0.9329108971
 40
0.9493734557
 40
0.9635285044
 40
0.975430271
 40
0.9852210797
 40
0.9932098128
 40
1.0
 40
1.0
 40
1.0
 40
1.0
 10
11.0256327123
 20
10.9299187259
 30
0.0
 10
11.0248039757
 20
10.9302896651
 30
0.0
 10
11.0230896621
 20
10.9310297029
 30
0.0
 10
11.0195022554
 20
10.93248277
 30
0.0
 10
11.0157749689
 20
10.9338590038
 30
0.0
 10
11.0119796372
 20
10.9351379586
 30
0.0
 10
11.0091569441
 20
10.936027108
 30
0.0
 10
11.006414131
 20
10.9368285708
 30
0.0
 10
11.0037972548
 20
10.9375289045
 30
0.0
 10
11.0013496123
 20
10.9381166969
 30
0.0
 10
10.9991110327
 20
10.9385828152
 30
0.0
 10
10.9971176465
 20
10.938920093
 30
0.0
 10
10.9956219338
 20
10.9390987309
 30
0.0
 10
10.9945725709
 20
10.9391656294
 30
0.0
 10
10.9939041887
 20
10.9391785326
 30
0.0
 10
10.993317864
 20
10.9391568782
 30
0.0
 10
10.9928156285
 20
10.9391008377
 30
0.0
 10
10.9923986775
 20
10.9390107593
 30
0.0
 10
10.9920672532
 20
10.9388859652
 30
0.0
 10
10.9918202828
 20
10.9387244681
 30
0.0
 10
10.9917113494
 20
10.9385802281
 30
0.0
 10
10.9916784153
 20
10.9385066569
 30
0.0
  0
SPLINE
  5
3F3
100
AcDbEntity
  8
0
100
AcDbSpline
 62
7
  6
CONTINUOUS
 70
0
 71
3
 72
27
 73
23
 74
0
 42
0.0000001
 43
0.0000001
 44
0.0000000001
 40
0.0
 40
0.0
 40
0.0
 40
0.0
 40
0.0641652612
 40
0.1358206639
 40
0.2133773547
 40
0.2951091851
 40
0.3792134664
 40
0.4638632457
 40
0.5472526056
 40
0.627639323
 40
0.70337467
 40
0.7729331454
 40
0.8349339668
 40
0.8881692136
 40
0.9111803379
 40
0.9316453186
 40
0.9494848216
 40
0.9646471038
 40
0.977125706
 40
0.9823793937
 40
0.9869998539
 40
1.0
 40
1.0
 40
1.0
 40
1.0
 10
11.1639116748
 20
10.8680256123
 30
0.0
 10
11.1631243221
 20
10.8683780283
 30
0.0
 10
11.1614437095
 20
10.869092823
 30
0.0
 10
11.1587743112
 20
10.8701438297
 30
0.0
 10
11.1558601612
 20
10.8712156434
 30
0.0
 10
11.1527670342
 20
10.8722836493
 30
0.0
 10
11.1495639706
 20
10.8733236316
 30
0.0
 10
11.1463214356
 20
10.8743124231
 30
0.0
 10
11.1431095235
 20
10.8752284312
 30
0.0
 10
11.139996485
 20
10.8760520915
 30
0.0
 10
11.1370474602
 20
10.8767661805
 30
0.0
 10
11.1343234636
 20
10.8773562601
 30
0.0
 10
11.131880622
 20
10.8778104813
 30
0.0
 10
11.1300411309
 20
10.8780813939
 30
0.0
 10
11.1287477868
 20
10.8782162312
 30
0.0
 10
11.1279252526
 20
10.8782736192
 30
0.0
 10
11.1272064711
 20
10.8782924778
 30
0.0
 10
11.1265947072
 20
10.8782725392
 30
0.0
 10
11.1261551294
 20
10.8782224661
 30
0.0
 10
11.1258600503
 20
10.8781578652
 30
0.0
 10
11.1255704881
 20
10.878069334
 30
0.0
 10
11.1253310889
 20
10.8779374398
 30
0.0
 10
11.1252596981
 20
10.8777779144
 30
0.0
  0
SPLINE
  5
3F4
100
AcDbEntity
  8
0
100
AcDbSpline
 62
7
  6
CONTINUOUS
 70
0
 71
3
 72
19
 73
15
 74
0
 42
0.0000001
 43
0.0000001
 44
0.0000000001
 40
0.0
 40
0.0
 40
0.0
 40
0.0
 40
0.0411235134
 40
0.0897781429
 40
0.1451696862
 40
0.2063924283
 40
0.342223971
 40
0.4885118733
 40
0.636079002
 40
0.7759300701
 40
0.8403140188
 40
0.8996998781
 40
0.9531972779
 40
1.0
 40
1.0
 40
1.0
 40
1.0
 10
11.2700168545
 20
10.820533356
 30
0.0
 10
11.2695244016
 20
10.8207537759
 30
0.0
 10
11.2684382976
 20
10.821210358
 30
0.0
 10
11.2666622568
 20
10.8218986252
 30
0.0
 10
11.2646239776
 20
10.8226385937
 30
0.0
 10
11.2614915719
 20
10.823714899
 30
0.0
 10
11.2571994072
 20
10.8250837433
 30
0.0
 10
11.2517900884
 20
10.8266725778
 30
0.0
 10
11.2462964737
 20
10.8281567793
 30
0.0
 10
11.2418138258
 20
10.829258798
 30
0.0
 10
11.2384383646
 20
10.8300133312
 30
0.0
 10
11.2361607173
 20
10.8304843233
 30
0.0
 10
11.2341012256
 20
10.8308693722
 30
0.0
 10
11.2328021046
 20
10.8310802907
 30
0.0
 10
11.2321943737
 20
10.8311681024
 30
0.0
  0
SPLINE
  5
3F5
100
AcDbEntity
  8
0
100
AcDbSpline
 62
7
  6
CONTINUOUS
 70
0
 71
3
 72
17
 73
13
 74
0
 42
0.0000001
 43
0.0000001
 44
0.0000000001
 40
0.0
 40
0.0
 40
0.0
 40
0.0
 40
0.2130356306
 40
0.4019096688
 40
0.5656324643
 40
0.7034498743
 40
0.8148805577
 40
0.8607083036
 40
0.9000270407
 40
0.9330414258
 40
0.960154317
 40
1.0
 40
1.0
 40
1.0
 40
1.0
 10
11.2321943737
 20
10.8311681024
 30
0.0
 10
11.2318764221
 20
10.8312140436
 30
0.0
 10
11.2312757437
 20
10.8312951491
 30
0.0
 10
11.2304278293
 20
10.8313886797
 30
0.0
 10
11.2296903898
 20
10.8314466843
 30
0.0
 10
11.2290678413
 20
10.8314689449
 30
0.0
 10
11.2286224763
 20
10.831457968
 30
0.0
 10
11.2283274098
 20
10.8314271804
 30
0.0
 10
11.2281518194
 20
10.8313967897
 30
0.0
 10
11.2280063985
 20
10.831356981
 30
0.0
 10
11.2278683692
 20
10.8312993913
 30
0.0
 10
11.2277830768
 20
10.8312302241
 30
0.0
 10
11.2277585407
 20
10.8311753755
 30
0.0
  0
LINE
  5
3F6
100
AcDbEntity
  8
0
100
AcDbLine
 62
7
  6
CONTINUOUS
 10
11.336717359
 20
10.7906784755
 11
11.3357204496
 21
10.7910808112
  0
SPLINE
  5
3F7
100
AcDbEntity
  8
0
100
AcDbSpline
 62
7
  6
CONTINUOUS
 70
0
 71
3
 72
20
 73
16
 74
0
 42
0.0000001
 43
0.0000001
 44
0.0000000001
 40
0.0
 40
0.0
 40
0.0
 40
0.0
 40
0.0359961917
 40
0.0817000234
 40
0.1361179563
 40
0.1980687251
 40
0.2662257886
 40
0.339153911
 40
0.4932640898
 40
0.6480597393
 40
0.7913914218
 40
0.8551791242
 40
0.9119669695
 40
0.9605830217
 40
1.0
 40
1.0
 40
1.0
 40
1.0
 10
11.3357204496
 20
10.7910808112
 30
0.0
 10
11.3352424742
 20
10.7912602578
 30
0.0
 10
11.3341488067
 20
10.7916439226
 30
0.0
 10
11.3323137664
 20
10.7922440258
 30
0.0
 10
11.3301182692
 20
10.7929254979
 30
0.0
 10
11.3276100225
 20
10.7936729615
 30
0.0
 10
11.3248426347
 20
10.7944696747
 30
0.0
 10
11.3208098803
 20
10.795595384
 30
0.0
 10
11.3155775277
 20
10.7969935075
 30
0.0
 10
11.3093586093
 20
10.7985652625
 30
0.0
 10
11.304363856
 20
10.7997506122
 30
0.0
 10
11.3007097369
 20
10.8005622465
 30
0.0
 10
11.2983612497
 20
10.8010558443
 30
0.0
 10
11.2963450858
 20
10.8014489073
 30
0.0
 10
11.2951148296
 20
10.8016633072
 30
0.0
 10
11.294562384
 20
10.8017491079
 30
0.0
  0
SPLINE
  5
3F8
100
AcDbEntity
  8
0
100
AcDbSpline
 62
7
  6
CONTINUOUS
 70
0
 71
3
 72
15
 73
11
 74
0
 42
0.0000001
 43
0.0000001
 44
0.0000000001
 40
0.0
 40
0.0
 40
0.0
 40
0.0
 40
0.4154164087
 40
0.5821814342
 40
0.720973965
 40
0.8315220673
 40
0.9138081884
 40
0.9445787162
 40
0.9687425414
 40
1.0
 40
1.0
 40
1.0
 40
1.0
 10
11.294562384
 20
10.8017491079
 30
0.0
 10
11.2942335112
 20
10.8018001854
 30
0.0
 10
11.2937717703
 20
10.8018669801
 30
0.0
 10
11.2931975342
 20
10.801930072
 30
0.0
 10
11.2928651907
 20
10.801956544
 30
0.0
 10
11.2925994042
 20
10.8019655706
 30
0.0
 10
11.2924204299
 20
10.8019595538
 30
0.0
 10
11.2923108914
 20
10.8019427191
 30
0.0
 10
11.2922456794
 20
10.8019251379
 30
0.0
 10
11.2922014669
 20
10.8019009677
 30
0.0
 10
11.2921912383
 20
10.8018781096
 30
0.0
  0
LINE
  5
3F9
100
AcDbEntity
  8
0
100
AcDbLine
 62
7
  6
CONTINUOUS
 10
10.1856108344
 20
11.2412484422
 11
10.1853222647
 21
11.2413232479
  0
SPLINE
  5
3FA
100
AcDbEntity
  8
0
100
AcDbSpline
 62
7
  6
CONTINUOUS
 70
0
 71
3
 72
17
 73
13
 74
0
 42
0.0000001
 43
0.0000001
 44
0.0000000001
 40
0.0
 40
0.0
 40
0.0
 40
0.0
 40
0.219893006
 40
0.4126554959
 40
0.5774542024
 40
0.7139270838
 40
0.8221279112
 40
0.9028698085
 40
0.9337378847
 40
0.9591377557
 40
0.9804623757
 40
1.0
 40
1.0
 40
1.0
 40
1.0
 10
10.2455183502
 20
11.2144340765
 30
0.0
 10
10.2452999523
 20
11.2145318305
 30
0.0
 10
10.2448881966
 20
11.2147110751
 30
0.0
 10
10.2443052635
 20
11.2149459584
 30
0.0
 10
10.2437995073
 20
11.215128511
 30
0.0
 10
10.2433729055
 20
11.2152585215
 30
0.0
 10
10.2430271293
 20
11.2153355826
 30
0.0
 10
10.2427874937
 20
11.2153595301
 30
0.0
 10
10.2426385437
 20
11.2153451661
 30
0.0
 10
10.242556792
 20
11.2153213978
 30
0.0
 10
10.2424946003
 20
11.2152823935
 30
0.0
 10
10.2424679073
 20
11.2152451045
 30
0.0
 10
10.2424592179
 20
11.2152257015
 30
0.0
  0
SPLINE
  5
3FB
100
AcDbEntity
  8
0
100
AcDbSpline
 62
7
  6
CONTINUOUS
 70
0
 71
3
 72
19
 73
15
 74
0
 42
0.0000001
 43
0.0000001
 44
0.0000000001
 40
0.0
 40
0.0
 40
0.0
 40
0.0
 40
0.2130691409
 40
0.4034716374
 40
0.5689289351
 40
0.7077792406
 40
0.7668545685
 40
0.8189324807
 40
0.8640221628
 40
0.9022592711
 40
0.9339635632
 40
0.9597875868
 40
0.9810321413
 40
1.0
 40
1.0
 40
1.0
 40
1.0
 10
10.3615063098
 20
11.1625183272
 30
0.0
 10
10.3609245647
 20
11.162778714
 30
0.0
 10
10.3598172678
 20
11.1632592466
 30
0.0
 10
10.3582367671
 20
11.1638912502
 30
0.0
 10
10.3568428512
 20
11.1643892231
 30
0.0
 10
10.3558015164
 20
11.1647038644
 30
0.0
 10
10.3550739163
 20
11.1648776397
 30
0.0
 10
10.3546143924
 20
11.1649641924
 30
0.0
 10
10.3542120947
 20
11.1650141529
 30
0.0
 10
10.3538677111
 20
11.1650275707
 30
0.0
 10
10.3535812034
 20
11.1650045405
 30
0.0
 10
10.3533516053
 20
11.1649442323
 30
0.0
 10
10.3531777263
 20
11.1648430998
 30
0.0
 10
10.3531033109
 20
11.1647432521
 30
0.0
 10
10.3530801396
 20
11.16469146
 30
0.0
  0
SPLINE
  5
3FC
100
AcDbEntity
  8
0
100
AcDbSpline
 62
7
  6
CONTINUOUS
 70
0
 71
3
 72
22
 73
18
 74
0
 42
0.0000001
 43
0.0000001
 44
0.0000000001
 40
0.0
 40
0.0
 40
0.0
 40
0.0
 40
0.2020634923
 40
0.3885416946
 40
0.5549639565
 40
0.6294404351
 40
0.6975433432
 40
0.758945041
 40
0.8133829463
 40
0.8606965758
 40
0.9008388415
 40
0.9339632966
 40
0.9605468424
 40
0.9717323444
 40
0.9817967385
 40
0.9910765571
 40
1.0
 40
1.0
 40
1.0
 40
1.0
 10
10.5181669717
 20
11.0923976381
 30
0.0
 10
10.5171433809
 20
11.0928557933
 30
0.0
 10
10.5151631191
 20
11.0937103394
 30
0.0
 10
10.5122976762
 20
11.094841273
 30
0.0
 10
10.5100593057
 20
11.0956286074
 30
0.0
 10
10.5084206201
 20
11.0961350169
 30
0.0
 10
10.5073293625
 20
11.0964370723
 30
0.0
 10
10.5063361382
 20
11.0966741912
 30
0.0
 10
10.5054465222
 20
11.09684511
 30
0.0
 10
10.5046654224
 20
11.0969493072
 30
0.0
 10
10.5039962078
 20
11.0969865363
 30
0.0
 10
10.5034416846
 20
11.0969572189
 30
0.0
 10
10.5030538528
 20
11.09687256
 30
0.0
 10
10.5028107343
 20
11.0967635199
 30
0.0
 10
10.5026691426
 20
11.0966686498
 30
0.0
 10
10.5025584443
 20
11.096555766
 30
0.0
 10
10.5025058509
 20
11.0964681845
 30
0.0
 10
10.5024856125
 20
11.0964229836
 30
0.0
  0
SPLINE
  5
3FD
100
AcDbEntity
  8
0
100
AcDbSpline
 62
7
  6
CONTINUOUS
 70
0
 71
3
 72
24
 73
20
 74
0
 42
0.0000001
 43
0.0000001
 44
0.0000000001
 40
0.0
 40
0.0
 40
0.0
 40
0.0
 40
0.1862166496
 40
0.3667705069
 40
0.4525965624
 40
0.534285945
 40
0.6110403248
 40
0.6821311187
 40
0.7469148672
 40
0.8048426333
 40
0.8554749963
 40
0.8985124631
 40
0.933848639
 40
0.9486879733
 40
0.9617261473
 40
0.9730933482
 40
0.9830077221
 40
0.9918122057
 40
1.0
 40
1.0
 40
1.0
 40
1.0
 10
10.6946896672
 20
11.0133867818
 30
0.0
 10
10.6932604231
 20
11.0140265058
 30
0.0
 10
10.6904236101
 20
11.015238381
 30
0.0
 10
10.6868732479
 20
11.0166118292
 30
0.0
 10
10.6841133171
 20
11.0175867824
 30
0.0
 10
10.6821622367
 20
11.0182295201
 30
0.0
 10
10.6803149646
 20
11.0187897161
 30
0.0
 10
10.6785901527
 20
11.0192617464
 30
0.0
 10
10.6770048999
 20
11.0196411269
 30
0.0
 10
10.6755746155
 20
11.0199244172
 30
0.0
 10
10.6743125663
 20
11.0201095076
 30
0.0
 10
10.6732303322
 20
11.0201950807
 30
0.0
 10
10.6724443634
 20
11.0201841104
 30
0.0
 10
10.6719166454
 20
11.0201154264
 30
0.0
 10
10.6715943409
 20
11.0200416111
 30
0.0
 10
10.6713223015
 20
11.0199424412
 30
0.0
 10
10.6711007652
 20
11.0198171538
 30
0.0
 10
10.6709307271
 20
11.0196646763
 30
0.0
 10
10.6708525867
 20
11.0195423493
 30
0.0
 10
10.6708244661
 20
11.0194795033
 30
0.0
  0
SPLINE
  5
3FE
100
AcDbEntity
  8
0
100
AcDbSpline
 62
7
  6
CONTINUOUS
 70
0
 71
3
 72
25
 73
21
 74
0
 42
0.0000001
 43
0.0000001
 44
0.0000000001
 40
0.0
 40
0.0
 40
0.0
 40
0.0
 40
0.1645034677
 40
0.3363196702
 40
0.421619223
 40
0.5047533603
 40
0.5844703956
 40
0.6595967981
 40
0.7290582951
 40
0.7918935727
 40
0.8472737585
 40
0.8945245332
 40
0.9149474534
 40
0.9331804159
 40
0.9492120212
 40
0.9630657514
 40
0.9748158334
 40
0.9846299604
 40
0.9928308107
 40
1.0
 40
1.0
 40
1.0
 40
1.0
 10
10.8676252719
 20
10.9359814931
 30
0.0
 10
10.8659476679
 20
10.936732382
 30
0.0
 10
10.8624812428
 20
10.9381862707
 30
0.0
 10
10.8580688767
 20
10.9398393943
 30
0.0
 10
10.8544715921
 20
10.9410695397
 30
0.0
 10
10.8518303627
 20
10.941913458
 30
0.0
 10
10.8492804711
 20
10.9426677975
 30
0.0
 10
10.8468606758
 20
10.9433210366
 30
0.0
 10
10.8446071871
 20
10.9438634651
 30
0.0
 10
10.842553097
 20
10.9442874546
 30
0.0
 10
10.8407282557
 20
10.9445871126
 30
0.0
 10
10.8393605178
 20
10.9447377222
 30
0.0
 10
10.8384015778
 20
10.9447852331
 30
0.0
 10
10.8377902633
 20
10.9447859579
 30
0.0
 10
10.8372531806
 20
10.9447537884
 30
0.0
 10
10.8367918757
 20
10.9446889376
 30
0.0
 10
10.836407266
 20
10.9445914626
 30
0.0
 10
10.8360994509
 20
10.9444608062
 30
0.0
 10
10.8358684166
 20
10.9442946459
 30
0.0
 10
10.8357657895
 20
10.9441515224
 30
0.0
 10
10.8357330563
 20
10.9440784151
 30
0.0
  0
SPLINE
  5
3FF
100
AcDbEntity
  8
0
100
AcDbSpline
 62
7
  6
CONTINUOUS
 70
0
 71
3
 72
27
 73
23
 74
0
 42
0.0000001
 43
0.0000001
 44
0.0000000001
 40
0.0
 40
0.0
 40
0.0
 40
0.0
 40
0.0640042041
 40
0.1355356684
 40
0.2130044388
 40
0.2946822873
 40
0.378762998
 40
0.4634148795
 40
0.5468263746
 40
0.6272494019
 40
0.7030296798
 40
0.7726370732
 40
0.8346873287
 40
0.8879706671
 40
0.9110050863
 40
0.9314930987
 40
0.9493553102
 40
0.9645404915
 40
0.9770425016
 40
0.9823084279
 40
0.9869416159
 40
1.0
 40
1.0
 40
1.0
 40
1.0
 10
11.0140011676
 20
10.8704642244
 30
0.0
 10
11.0132147951
 20
10.8708162016
 30
0.0
 10
11.0115356893
 20
10.8715306378
 30
0.0
 10
11.0088679992
 20
10.8725821974
 30
0.0
 10
11.0059541686
 20
10.8736559068
 30
0.0
 10
11.0028600516
 20
10.874726925
 30
0.0
 10
10.9996548128
 20
10.8757707401
 30
0.0
 10
10.9964090899
 20
10.8767638411
 30
0.0
 10
10.9931931876
 20
10.8776842721
 30
0.0
 10
10.9900755909
 20
10.8785121144
 30
0.0
 10
10.9871216793
 20
10.8792298282
 30
0.0
 10
10.9843926968
 20
10.8798227227
 30
0.0
 10
10.9819449784
 20
10.8802787747
 30
0.0
 10
10.9801015453
 20
10.8805503574
 30
0.0
 10
10.9788052551
 20
10.8806851285
 30
0.0
 10
10.9779807179
 20
10.8807422214
 30
0.0
 10
10.9772600808
 20
10.880760541
 30
0.0
 10
10.9766466334
 20
10.8807398499
 30
0.0
 10
10.9762057771
 20
10.8806889468
 30
0.0
 10
10.975909816
 20
10.8806235791
 30
0.0
 10
10.9756189616
 20
10.8805340178
 30
0.0
 10
10.9753788828
 20
10.8804008295
 30
0.0
 10
10.9753070805
 20
10.8802403866
 30
0.0
  0
SPLINE
  5
400
100
AcDbEntity
  8
0
100
AcDbSpline
 62
7
  6
CONTINUOUS
 70
0
 71
3
 72
20
 73
16
 74
0
 42
0.0000001
 43
0.0000001
 44
0.0000000001
 40
0.0
 40
0.0
 40
0.0
 40
0.0
 40
0.0355553195
 40
0.0800077338
 40
0.1325263334
 40
0.1921150602
 40
0.2576404698
 40
0.3278700971
 40
0.4771863051
 40
0.6293113733
 40
0.7735973782
 40
0.839650254
 40
0.9000898508
 40
0.9538577111
 40
1.0
 40
1.0
 40
1.0
 40
1.0
 10
11.1143729053
 20
10.8255382339
 30
0.0
 10
11.1139293419
 20
10.8257367711
 30
0.0
 10
11.1129178398
 20
10.8261534431
 30
0.0
 10
11.1112222035
 20
10.8267908456
 30
0.0
 10
11.1092028056
 20
10.8274991346
 30
0.0
 10
11.1068984941
 20
10.828264071
 30
0.0
 10
11.1043530999
 20
10.8290703049
 30
0.0
 10
11.100624815
 20
10.8302025228
 30
0.0
 10
11.0957403204
 20
10.8315996469
 30
0.0
 10
11.0898513321
 20
10.8331612732
 30
0.0
 10
11.0850373584
 20
10.8343334413
 30
0.0
 10
11.081425279
 20
10.8351402428
 30
0.0
 10
11.0790130467
 20
10.8356422013
 30
0.0
 10
11.0768596886
 20
10.8360507266
 30
0.0
 10
11.0755124345
 20
10.8362749118
 30
0.0
 10
11.0748886053
 20
10.8363675556
 30
0.0
  0
SPLINE
  5
401
100
AcDbEntity
  8
0
100
AcDbSpline
 62
7
  6
CONTINUOUS
 70
0
 71
3
 72
17
 73
13
 74
0
 42
0.0000001
 43
0.0000001
 44
0.0000000001
 40
0.0
 40
0.0
 40
0.0
 40
0.0
 40
0.2159985549
 40
0.4069812964
 40
0.572021799
 40
0.7104094069
 40
0.8216497283
 40
0.8670762608
 40
0.9057676975
 40
0.9378818583
 40
0.9637692101
 40
1.0
 40
1.0
 40
1.0
 40
1.0
 10
11.0748886053
 20
10.8363675556
 30
0.0
 10
11.0746077601
 20
10.8364092635
 30
0.0
 10
11.0740779408
 20
10.8364835812
 30
0.0
 10
11.0733312052
 20
10.8365721897
 30
0.0
 10
11.0726838598
 20
10.8366310236
 30
0.0
 10
11.0721394141
 20
10.8366599018
 30
0.0
 10
11.071751224
 20
10.8366597471
 30
0.0
 10
11.0714948899
 20
10.8366413056
 30
0.0
 10
11.0713435215
 20
10.8366210817
 30
0.0
 10
11.0712187323
 20
10.8365929567
 30
0.0
 10
11.0711035287
 20
10.8365518723
 30
0.0
 10
11.0710298747
 20
10.8364998937
 30
0.0
 10
11.0710104291
 20
10.8364564199
 30
0.0
  0
SPLINE
  5
402
100
AcDbEntity
  8
0
100
AcDbSpline
 62
7
  6
CONTINUOUS
 70
0
 71
3
 72
49
 73
45
 74
0
 42
0.0000001
 43
0.0000001
 44
0.0000000001
 40
0.0
 40
0.0
 40
0.0
 40
0.0
 40
0.0017698082
 40
0.0047139294
 40
0.0088269344
 40
0.0141001015
 40
0.0205187486
 40
0.0280668448
 40
0.0464738238
 40
0.0691319152
 40
0.0958107838
 40
0.1262434131
 40
0.1601272722
 40
0.1971305436
 40
0.2368969177
 40
0.3231902838
 40
0.4158046897
 40
0.511381348
 40
0.6065029175
 40
0.6528302142
 40
0.6977784936
 40
0.7409412498
 40
0.7819231148
 40
0.8203435649
 40
0.855840299
 40
0.8880716165
 40
0.9167210657
 40
0.9296122467
 40
0.9415027019
 40
0.9523621746
 40
0.9621632389
 40
0.9708789875
 40
0.9784870987
 40
0.984968109
 40
0.9903033937
 40
0.9925371286
 40
0.9944798316
 40
0.9961302447
 40
0.997487202
 40
0.9985498323
 40
0.9993185273
 40
0.9997957318
 40
0.9999284466
 40
1.0
 40
1.0
 40
1.0
 40
1.0
 10
11.1554071888
 20
10.8071714519
 30
0.0
 10
11.1553820479
 20
10.8071827048
 30
0.0
 10
11.1553128142
 20
10.8072073261
 30
0.0
 10
11.1551823867
 20
10.8072502855
 30
0.0
 10
11.1549989389
 20
10.8073067462
 30
0.0
 10
11.1547632154
 20
10.8073769923
 30
0.0
 10
11.1544756625
 20
10.8074605489
 30
0.0
 10
11.1539911806
 20
10.8075988955
 30
0.0
 10
11.1532625293
 20
10.807802628
 30
0.0
 10
11.1522459221
 20
10.8080821462
 30
0.0
 10
11.1510477887
 20
10.8084073995
 30
0.0
 10
11.1496801048
 20
10.8087749388
 30
0.0
 10
11.1481563641
 20
10.8091808961
 30
0.0
 10
11.1464914153
 20
10.8096210906
 30
0.0
 10
11.1440367597
 20
10.8102654986
 30
0.0
 10
11.1407428104
 20
10.8111214402
 30
0.0
 10
11.1366049374
 20
10.8121832919
 30
0.0
 10
11.1323307072
 20
10.8132664677
 30
0.0
 10
11.128752048
 20
10.8141617791
 30
0.0
 10
11.1259361037
 20
10.8148590761
 30
0.0
 10
11.1239042891
 20
10.8153586606
 30
0.0
 10
11.1219524475
 20
10.8158350569
 30
0.0
 10
11.1200984984
 20
10.8162840487
 30
0.0
 10
11.1183597105
 20
10.8167016534
 30
0.0
 10
11.1167525541
 20
10.8170841423
 30
0.0
 10
11.1152925419
 20
10.8174280657
 30
0.0
 10
11.1141742852
 20
10.8176883633
 30
0.0
 10
11.1133638898
 20
10.8178748487
 30
0.0
 10
11.1128230866
 20
10.8179982381
 30
0.0
 10
11.112328931
 20
10.818109871
 30
0.0
 10
11.1118827168
 20
10.8182094872
 30
0.0
 10
11.1114856179
 20
10.8182968535
 30
0.0
 10
11.1111386904
 20
10.8183717733
 30
0.0
 10
11.1108428661
 20
10.8184340748
 30
0.0
 10
11.1106285797
 20
10.8184776401
 30
0.0
 10
11.1104832597
 20
10.8185058801
 30
0.0
 10
11.1103941194
 20
10.8185225366
 30
0.0
 10
11.1103182439
 20
10.8185359623
 30
0.0
 10
11.1102557566
 20
10.8185461513
 30
0.0
 10
11.1102065386
 20
10.8185531502
 30
0.0
 10
11.1101710039
 20
10.8185569692
 30
0.0
 10
11.1101491865
 20
10.8185579166
 30
0.0
 10
11.110138945
 20
10.8185567331
 30
0.0
 10
11.1101356581
 20
10.8185552454
 30
0.0
 10
11.1101351985
 20
10.818554231
 30
0.0
  0
LINE
  5
403
100
AcDbEntity
  8
0
100
AcDbLine
 62
7
  6
CONTINUOUS
 10
10.3257694395
 20
11.1175237709
 11
10.3252767939
 21
11.1176533692
  0
SPLINE
  5
404
100
AcDbEntity
  8
0
100
AcDbSpline
 62
7
  6
CONTINUOUS
 70
0
 71
3
 72
19
 73
15
 74
0
 42
0.0000001
 43
0.0000001
 44
0.0000000001
 40
0.0
 40
0.0
 40
0.0
 40
0.0
 40
0.2160891924
 40
0.4076815364
 40
0.5730486793
 40
0.7110595002
 40
0.7695905655
 40
0.8210836773
 40
0.865604357
 40
0.9033194755
 40
0.934571038
 40
0.9600554723
 40
0.9810948552
 40
1.0
 40
1.0
 40
1.0
 40
1.0
 10
10.4102196761
 20
11.079724181
 30
0.0
 10
10.4097759931
 20
11.0799227717
 30
0.0
 10
10.4089348726
 20
11.0802885107
 30
0.0
 10
10.4077386565
 20
11.0807695647
 30
0.0
 10
10.4066909951
 20
11.0811473765
 30
0.0
 10
10.4059119497
 20
11.0813858869
 30
0.0
 10
10.4053696089
 20
11.0815176909
 30
0.0
 10
10.4050280369
 20
11.0815833543
 30
0.0
 10
10.4047293758
 20
11.0816214964
 30
0.0
 10
10.4044738869
 20
11.0816321807
 30
0.0
 10
10.4042613512
 20
11.081615335
 30
0.0
 10
10.4040908769
 20
11.0815704205
 30
0.0
 10
10.4039615701
 20
11.0814945507
 30
0.0
 10
10.4039063183
 20
11.0814197692
 30
0.0
 10
10.4038889516
 20
11.081380949
 30
0.0
  0
SPLINE
  5
405
100
AcDbEntity
  8
0
100
AcDbSpline
 62
7
  6
CONTINUOUS
 70
0
 71
3
 72
22
 73
18
 74
0
 42
0.0000001
 43
0.0000001
 44
0.0000000001
 40
0.0
 40
0.0
 40
0.0
 40
0.0
 40
0.199683962
 40
0.3853670472
 40
0.552084255
 40
0.6269666228
 40
0.6955729659
 40
0.7575240147
 40
0.8125108399
 40
0.8603236927
 40
0.9008789808
 40
0.9342804523
 40
0.9609684632
 40
0.9721245193
 40
0.982104623
 40
0.9912492316
 40
1.0
 40
1.0
 40
1.0
 40
1.0
 10
10.5660034467
 20
11.009995985
 30
0.0
 10
10.564899737
 20
11.010490001
 30
0.0
 10
10.5627564945
 20
11.0114143581
 30
0.0
 10
10.5596461486
 20
11.0126418534
 30
0.0
 10
10.5572048998
 20
11.0135021737
 30
0.0
 10
10.5554108006
 20
11.0140596638
 30
0.0
 10
10.5542123795
 20
11.0143943937
 30
0.0
 10
10.5531201043
 20
11.0146589967
 30
0.0
 10
10.5521408285
 20
11.0148518709
 30
0.0
 10
10.551280554
 20
11.0149721152
 30
0.0
 10
10.5505435821
 20
11.0150194928
 30
0.0
 10
10.549933495
 20
11.0149941102
 30
0.0
 10
10.5495069356
 20
11.0149078148
 30
0.0
 10
10.5492398202
 20
11.0147931849
 30
0.0
 10
10.5490849802
 20
11.0146929211
 30
0.0
 10
10.5489643203
 20
11.014572909
 30
0.0
 10
10.5489074121
 20
11.0144791531
 30
0.0
 10
10.5488857686
 20
11.0144307825
 30
0.0
  0
SPLINE
  5
406
100
AcDbEntity
  8
0
100
AcDbSpline
 62
7
  6
CONTINUOUS
 70
0
 71
3
 72
25
 73
21
 74
0
 42
0.0000001
 43
0.0000001
 44
0.0000000001
 40
0.0
 40
0.0
 40
0.0
 40
0.0
 40
0.171573432
 40
0.3463155715
 40
0.4318289028
 40
0.5145262223
 40
0.5932985036
 40
0.6671147301
 40
0.7350396253
 40
0.7962475821
 40
0.8500385532
 40
0.8958654746
 40
0.9156793603
 40
0.9333925523
 40
0.9490132076
 40
0.9625811497
 40
0.9741950555
 40
0.9840420069
 40
0.9924583298
 40
1.0
 40
1.0
 40
1.0
 40
1.0
 10
10.7457774703
 20
10.9295298471
 30
0.0
 10
10.7441500077
 20
10.9302582929
 30
0.0
 10
10.7408341467
 20
10.9316602584
 30
0.0
 10
10.7366384597
 20
10.9332556803
 30
0.0
 10
10.7332718229
 20
10.9344261116
 30
0.0
 10
10.7308305591
 20
10.9352194305
 30
0.0
 10
10.7284886947
 20
10.9359234277
 30
0.0
 10
10.7262780353
 20
10.9365283377
 30
0.0
 10
10.7242281208
 20
10.9370259708
 30
0.0
 10
10.7223657782
 20
10.9374099635
 30
0.0
 10
10.7207150668
 20
10.9376754555
 30
0.0
 10
10.7194791443
 20
10.9378019297
 30
0.0
 10
10.7186131797
 20
10.9378337688
 30
0.0
 10
10.7180606064
 20
10.9378251191
 30
0.0
 10
10.7175743549
 20
10.9377854737
 30
0.0
 10
10.7171555611
 20
10.9377148235
 30
0.0
 10
10.7168048765
 20
10.9376132819
 30
0.0
 10
10.7165224063
 20
10.9374800663
 30
0.0
 10
10.7163088144
 20
10.9373131408
 30
0.0
 10
10.7162130008
 20
10.9371733985
 30
0.0
 10
10.7161809785
 20
10.9371018631
 30
0.0
  0
SPLINE
  5
407
100
AcDbEntity
  8
0
100
AcDbSpline
 62
7
  6
CONTINUOUS
 70
0
 71
3
 72
28
 73
24
 74
0
 42
0.0000001
 43
0.0000001
 44
0.0000000001
 40
0.0
 40
0.0
 40
0.0
 40
0.0
 40
0.059465699
 40
0.1275604082
 40
0.202660701
 40
0.2829646903
 40
0.4514888677
 40
0.617581935
 40
0.6950358916
 40
0.7664677571
 40
0.8303411286
 40
0.8590135641
 40
0.885303358
 40
0.9090765343
 40
0.9302142247
 40
0.9486203648
 40
0.9642258206
 40
0.9770034899
 40
0.9870017197
 40
0.9910205804
 40
0.9944514421
 40
0.997392075
 40
1.0
 40
1.0
 40
1.0
 40
1.0
 10
10.8949077366
 20
10.8627797332
 30
0.0
 10
10.8941536207
 20
10.8631172724
 30
0.0
 10
10.8925209312
 20
10.8638078027
 30
0.0
 10
10.8898978049
 20
10.8648319968
 30
0.0
 10
10.8869802492
 20
10.8658959942
 30
0.0
 10
10.8827225907
 20
10.8673554483
 30
0.0
 10
10.8772202083
 20
10.8690790832
 30
0.0
 10
10.8717016022
 20
10.8706085329
 30
0.0
 10
10.8674508027
 20
10.8716503179
 30
0.0
 10
10.8645640702
 20
10.8722880283
 30
0.0
 10
10.8623263373
 20
10.8727183113
 30
0.0
 10
10.8606968051
 20
10.872984863
 30
0.0
 10
10.8596135899
 20
10.8731383941
 30
0.0
 10
10.8586307805
 20
10.8732522295
 30
0.0
 10
10.8577539499
 20
10.8733258483
 30
0.0
 10
10.856988204
 20
10.8733590814
 30
0.0
 10
10.8563376123
 20
10.8733522164
 30
0.0
 10
10.8558059566
 20
10.8733055458
 30
0.0
 10
10.855439386
 20
10.8732302887
 30
0.0
 10
10.8552124469
 20
10.8731433879
 30
0.0
 10
10.8550858847
 20
10.8730725261
 30
0.0
 10
10.8549903287
 20
10.8729907049
 30
0.0
 10
10.8549466796
 20
10.8729254822
 30
0.0
 10
10.8549318769
 20
10.8728924095
 30
0.0
  0
LINE
  5
408
100
AcDbEntity
  8
0
100
AcDbLine
 62
7
  6
CONTINUOUS
 10
10.9680729897
 20
10.8300312569
 11
10.966311612
 21
10.8306467291
  0
SPLINE
  5
409
100
AcDbEntity
  8
0
100
AcDbSpline
 62
7
  6
CONTINUOUS
 70
0
 71
3
 72
18
 73
14
 74
0
 42
0.0000001
 43
0.0000001
 44
0.0000000001
 40
0.0
 40
0.0
 40
0.0
 40
0.0
 40
0.0377440893
 40
0.0850053457
 40
0.2037725517
 40
0.346219087
 40
0.5006820444
 40
0.654898342
 40
0.7967826052
 40
0.8595318098
 40
0.9150734898
 40
0.9622379932
 40
1.0
 40
1.0
 40
1.0
 40
1.0
 10
10.966311612
 20
10.8306467291
 30
0.0
 10
10.9658014877
 20
10.8308089486
 30
0.0
 10
10.9646489032
 20
10.8311626017
 30
0.0
 10
10.9618770473
 20
10.8319803962
 30
0.0
 10
10.957665912
 20
10.8331666399
 30
0.0
 10
10.951975137
 20
10.8347060168
 30
0.0
 10
10.9457832587
 20
10.8363172787
 30
0.0
 10
10.9395838896
 20
10.8378668595
 30
0.0
 10
10.9346336706
 20
10.8390490922
 30
0.0
 10
10.9310362206
 20
10.8398698749
 30
0.0
 10
10.9287444778
 20
10.8403741321
 30
0.0
 10
10.9267948012
 20
10.8407834537
 30
0.0
 10
10.925612893
 20
10.8410157666
 30
0.0
 10
10.9250862034
 20
10.8411127832
 30
0.0
  0
LINE
  5
40A
100
AcDbEntity
  8
0
100
AcDbLine
 62
7
  6
CONTINUOUS
 10
10.9250862034
 20
10.8411127832
 11
10.9229948478
 21
10.8413680033
  0
LINE
  5
40B
100
AcDbEntity
  8
0
100
AcDbLine
 62
7
  6
CONTINUOUS
 10
10.1853222647
 20
11.2413232479
 11
10.1881432894
 21
11.2390568398
  0
SPLINE
  5
40C
100
AcDbEntity
  8
0
100
AcDbSpline
 62
7
  6
CONTINUOUS
 70
0
 71
3
 72
17
 73
13
 74
0
 42
0.0000001
 43
0.0000001
 44
0.0000000001
 40
0.0
 40
0.0
 40
0.0
 40
0.0
 40
0.0451244097
 40
0.0979945112
 40
0.2229591856
 40
0.365980542
 40
0.5171562271
 40
0.6661290406
 40
0.8025666302
 40
0.9166958486
 40
0.9626615832
 40
1.0
 40
1.0
 40
1.0
 40
1.0
 10
10.1881432894
 20
11.2390568398
 30
0.0
 10
10.1886403875
 20
11.2386947643
 30
0.0
 10
10.1897247172
 20
11.2379150608
 30
0.0
 10
10.1922049588
 20
11.2361595677
 30
0.0
 10
10.1957952824
 20
11.2336632103
 30
0.0
 10
10.2005067755
 20
11.2304327466
 30
0.0
 10
10.2055062127
 20
11.2270437773
 30
0.0
 10
10.2104484258
 20
11.2237304236
 30
0.0
 10
10.214990102
 20
11.2207265295
 30
0.0
 10
10.2183798876
 20
11.2185258946
 30
0.0
 10
10.2206550485
 20
11.2170892661
 30
0.0
 10
10.22162218
 20
11.2164944975
 30
0.0
 10
10.2220585713
 20
11.2162327479
 30
0.0
  0
LINE
  5
40D
100
AcDbEntity
  8
0
100
AcDbLine
 62
7
  6
CONTINUOUS
 10
10.2220585713
 20
11.2162327479
 11
10.2237466446
 21
11.2152925382
  0
SPLINE
  5
40E
100
AcDbEntity
  8
0
100
AcDbSpline
 62
7
  6
CONTINUOUS
 70
0
 71
3
 72
26
 73
22
 74
0
 42
0.0000001
 43
0.0000001
 44
0.0000000001
 40
0.0
 40
0.0
 40
0.0
 40
0.0
 40
0.0014855086
 40
0.0058746117
 40
0.0130668109
 40
0.0229617864
 40
0.0354594101
 40
0.0504597593
 40
0.0875699344
 40
0.133497737
 40
0.1874529442
 40
0.2486505156
 40
0.3163115001
 40
0.3896641441
 40
0.4679452544
 40
0.5504018867
 40
0.6362934537
 40
0.7248943757
 40
0.8154974418
 40
0.907418103
 40
1.0
 40
1.0
 40
1.0
 40
1.0
 10
12.2180764838
 20
11.3424509332
 30
0.0
 10
12.2180088672
 20
11.342274199
 30
0.0
 10
12.2177387958
 20
11.3415763096
 30
0.0
 10
12.2171334413
 20
11.3400258118
 30
0.0
 10
12.2161270571
 20
11.3374819413
 30
0.0
 10
12.214725256
 20
11.3339837692
 30
0.0
 10
12.2129325607
 20
11.3295707819
 30
0.0
 10
12.2097977098
 20
11.3219612562
 30
0.0
 10
12.2049467522
 20
11.3104532953
 30
0.0
 10
12.1979930943
 20
11.2944477001
 30
0.0
 10
12.1895936703
 20
11.2757262591
 30
0.0
 10
12.1797875077
 20
11.2546036106
 30
0.0
 10
12.1686134636
 20
11.2313943822
 30
0.0
 10
12.1561104534
 20
11.2064131184
 30
0.0
 10
12.1423173735
 20
11.1799742794
 30
0.0
 10
12.1272731193
 20
11.1523922163
 30
0.0
 10
12.1110165543
 20
11.1239811314
 30
0.0
 10
12.0935865267
 20
11.0950550927
 30
0.0
 10
12.0750216878
 20
11.0659277926
 30
0.0
 10
12.0553609857
 20
11.0369132601
 30
0.0
 10
12.0415664632
 20
11.0178785203
 30
0.0
 10
12.0344769907
 20
11.0084540367
 30
0.0
  0
SPLINE
  5
40F
100
AcDbEntity
  8
0
100
AcDbSpline
 62
9
  6
CONTINUOUS
 70
0
 71
3
 72
46
 73
42
 74
0
 42
0.0000001
 43
0.0000001
 44
0.0000000001
 40
0.0
 40
0.0
 40
0.0
 40
0.0
 40
0.0001004726
 40
0.0001989856
 40
0.0003160994
 40
0.0004646637
 40
0.0006509866
 40
0.0008781317
 40
0.0014602611
 40
0.0022170995
 40
0.0031501264
 40
0.0042593411
 40
0.0055440793
 40
0.0070033381
 40
0.0086359239
 40
0.0104405288
 40
0.0124157716
 40
0.0168724062
 40
0.0219940712
 40
0.0277687004
 40
0.0341840775
 40
0.0412279046
 40
0.0488878398
 40
0.0660065774
 40
0.0854413701
 40
0.1070934576
 40
0.1308643981
 40
0.1566561691
 40
0.1843712448
 40
0.2139126632
 40
0.2451840904
 40
0.2780898853
 40
0.3125351671
 40
0.3856680556
 40
0.4638424003
 40
0.5463347761
 40
0.632442848
 40
0.7214897407
 40
0.8128294608
 40
0.9058536483
 40
1.0
 40
1.0
 40
1.0
 40
1.0
 10
12.0388652444
 20
11.4780518885
 30
0.0
 10
12.0388540007
 20
11.4780603915
 30
0.0
 10
12.0388279609
 20
11.4780735331
 30
0.0
 10
12.0387819701
 20
11.4780707134
 30
0.0
 10
12.0387358532
 20
11.4780466565
 30
0.0
 10
12.0386881231
 20
11.478004422
 30
0.0
 10
12.0386375264
 20
11.4779436693
 30
0.0
 10
12.0385592433
 20
11.4778278053
 30
0.0
 10
12.0384561813
 20
11.4776332037
 30
0.0
 10
12.0383268735
 20
11.4773417624
 30
0.0
 10
12.0381840839
 20
11.4769757849
 30
0.0
 10
12.0380277256
 20
11.4765359186
 30
0.0
 10
12.0378578603
 20
11.4760226345
 30
0.0
 10
12.0376744321
 20
11.4754365937
 30
0.0
 10
12.0374773877
 20
11.4747784459
 30
0.0
 10
12.0372666429
 20
11.4740488719
 30
0.0
 10
12.0369545196
 20
11.4729361898
 30
0.0
 10
12.0365314821
 20
11.4713713071
 30
0.0
 10
12.0359856886
 20
11.4692874907
 30
0.0
 10
12.0353826437
 20
11.4669346155
 30
0.0
 10
12.0347215661
 20
11.4643182292
 30
0.0
 10
12.0340016798
 20
11.461443879
 30
0.0
 10
12.0329217068
 20
11.4571115963
 30
0.0
 10
12.0314237588
 20
11.4510917871
 30
0.0
 10
12.0294382251
 20
11.4431702718
 30
0.0
 10
12.0271975366
 20
11.4343505336
 30
0.0
 10
12.024695115
 20
11.4246771187
 30
0.0
 10
12.0219243948
 20
11.4141945735
 30
0.0
 10
12.0188787472
 20
11.4029474617
 30
0.0
 10
12.0155515263
 20
11.3909803499
 30
0.0
 10
12.0119360693
 20
11.3783378128
 30
0.0
 10
12.0080256991
 20
11.365064407
 30
0.0
 10
12.0022943817
 20
11.3462052123
 30
0.0
 10
11.9943692905
 20
11.3213754954
 30
0.0
 10
11.9837556597
 20
11.2903339983
 30
0.0
 10
11.9718040367
 20
11.2578347384
 30
0.0
 10
11.9584609859
 20
11.2242333687
 30
0.0
 10
11.9436729124
 20
11.1898852904
 30
0.0
 10
11.9273858145
 20
11.1551453601
 30
0.0
 10
11.9095459969
 20
11.1203692212
 30
0.0
 10
11.8966339862
 20
11.0974909711
 30
0.0
 10
11.8898871979
 20
11.0861347139
 30
0.0
  0
SPLINE
  5
410
100
AcDbEntity
  8
0
100
AcDbSpline
 62
7
  6
CONTINUOUS
 70
0
 71
3
 72
29
 73
25
 74
0
 42
0.0000001
 43
0.0000001
 44
0.0000000001
 40
0.0
 40
0.0
 40
0.0
 40
0.0
 40
0.0411382316
 40
0.0629111648
 40
0.0855317037
 40
0.1090226359
 40
0.1333954017
 40
0.1586520018
 40
0.184786611
 40
0.211786925
 40
0.2396352745
 40
0.2683095454
 40
0.2977839359
 40
0.3280295829
 40
0.3590150794
 40
0.4230651914
 40
0.4896520416
 40
0.5584687281
 40
0.6291957758
 40
0.7015062535
 40
0.7750699017
 40
0.8495566766
 40
0.9246400064
 40
1.0
 40
1.0
 40
1.0
 40
1.0
 10
11.6205014079
 20
10.7202224918
 30
0.0
 10
11.627609148
 20
10.7198085704
 30
0.0
 10
11.6385427612
 20
10.7200562341
 30
0.0
 10
11.6532472397
 20
10.7217940364
 30
0.0
 10
11.6648211452
 20
10.723855225
 30
0.0
 10
11.6767047712
 20
10.7266313644
 30
0.0
 10
11.6888783944
 20
10.7301050113
 30
0.0
 10
11.701319681
 20
10.7342586545
 30
0.0
 10
11.7140068969
 20
10.7390749266
 30
0.0
 10
11.7269180147
 20
10.7445364927
 30
0.0
 10
11.7400309824
 20
10.7506260485
 30
0.0
 10
11.7533236771
 20
10.7573262979
 30
0.0
 10
11.766773894
 20
10.7646199486
 30
0.0
 10
11.7803595248
 20
10.7724896943
 30
0.0
 10
11.7988280351
 20
10.7838533118
 30
0.0
 10
11.8220865523
 20
10.7994140503
 30
0.0
 10
11.8498805266
 20
10.819903441
 30
0.0
 10
11.8776824765
 20
10.8422748005
 30
0.0
 10
11.905313989
 20
10.8663900221
 30
0.0
 10
11.9325970648
 20
10.8921114072
 30
0.0
 10
11.9593533662
 20
10.9193007846
 30
0.0
 10
11.9854047262
 20
10.9478201114
 30
0.0
 10
12.0105723642
 20
10.9775304552
 30
0.0
 10
12.0266365352
 20
10.998031224
 30
0.0
 10
12.0344769886
 20
11.0084540339
 30
0.0
  0
SPLINE
  5
411
100
AcDbEntity
  8
0
100
AcDbSpline
 62
9
  6
CONTINUOUS
 70
0
 71
3
 72
30
 73
26
 74
0
 42
0.0000001
 43
0.0000001
 44
0.0000000001
 40
0.0
 40
0.0
 40
0.0
 40
0.0
 40
0.0171679528
 40
0.0353033768
 40
0.0544748956
 40
0.0747294983
 40
0.0960968108
 40
0.1185926361
 40
0.1422196073
 40
0.1669669277
 40
0.1928161011
 40
0.2197429645
 40
0.2477188316
 40
0.276711383
 40
0.3066853639
 40
0.3376031361
 40
0.4021036167
 40
0.4698496992
 40
0.5404412549
 40
0.6134664638
 40
0.6885061033
 40
0.7651270662
 40
0.8428810993
 40
0.9213202006
 40
1.0
 40
1.0
 40
1.0
 40
1.0
 10
11.7225280264
 20
10.7140482487
 30
0.0
 10
11.7251516923
 20
10.7138825434
 30
0.0
 10
11.7305652511
 20
10.7137991893
 30
0.0
 10
11.7388960039
 20
10.71435308
 30
0.0
 10
11.7476330642
 20
10.7155675863
 30
0.0
 10
11.7567597705
 20
10.7174286925
 30
0.0
 10
11.7662605616
 20
10.719922699
 30
0.0
 10
11.7761189028
 20
10.7230361831
 30
0.0
 10
11.786317279
 20
10.7267550753
 30
0.0
 10
11.7968373034
 20
10.7310639945
 30
0.0
 10
11.8076596653
 20
10.7359475665
 30
0.0
 10
11.8187648745
 20
10.7413903234
 30
0.0
 10
11.8301333614
 20
10.7473767943
 30
0.0
 10
11.8417454734
 20
10.753891492
 30
0.0
 10
11.853581613
 20
10.7609188697
 30
0.0
 10
11.8698655169
 20
10.7710957015
 30
0.0
 10
11.8906214539
 20
10.7850173731
 30
0.0
 10
11.9157556432
 20
10.8032764793
 30
0.0
 10
11.9412840603
 20
10.8231814072
 30
0.0
 10
11.967031481
 20
10.8445937517
 30
0.0
 10
11.9928217779
 20
10.8673741756
 30
0.0
 10
12.0184759905
 20
10.8913803059
 30
0.0
 10
12.043812127
 20
10.9164675402
 30
0.0
 10
12.0686461634
 20
10.9424891995
 30
0.0
 10
12.0847509493
 20
10.9603688863
 30
0.0
 10
12.0926795016
 20
10.9694405018
 30
0.0
  0
SPLINE
  5
412
100
AcDbEntity
  8
0
100
AcDbSpline
 62
7
  6
CONTINUOUS
 70
0
 71
3
 72
18
 73
14
 74
0
 42
0.0000001
 43
0.0000001
 44
0.0000000001
 40
0.0
 40
0.0
 40
0.0
 40
0.0
 40
0.0208671787
 40
0.0434398631
 40
0.0699169411
 40
0.1016930445
 40
0.139553017
 40
0.1839308976
 40
0.2930430281
 40
0.4297375359
 40
0.5937432947
 40
0.7842894147
 40
1.0
 40
1.0
 40
1.0
 40
1.0
 10
10.8549318769
 20
10.8728924095
 30
0.0
 10
10.8549157492
 20
10.8728563762
 30
0.0
 10
10.8548962945
 20
10.8727741788
 30
0.0
 10
10.8549143902
 20
10.8726409259
 30
0.0
 10
10.8549754088
 20
10.8724993237
 30
0.0
 10
10.8550776224
 20
10.8723480883
 30
0.0
 10
10.8552208631
 20
10.8721862461
 30
0.0
 10
10.855485574
 20
10.8719387447
 30
0.0
 10
10.8559260134
 20
10.8716088251
 30
0.0
 10
10.8565823465
 20
10.8711954139
 30
0.0
 10
10.8573958368
 20
10.8707451426
 30
0.0
 10
10.8583605646
 20
10.8702617543
 30
0.0
 10
10.8590583721
 20
10.869939299
 30
0.0
 10
10.859430858
 20
10.8697725758
 30
0.0
  0
SPLINE
  5
413
100
AcDbEntity
  8
0
100
AcDbSpline
 62
9
  6
CONTINUOUS
 70
0
 71
3
 72
28
 73
24
 74
0
 42
0.0000001
 43
0.0000001
 44
0.0000000001
 40
0.0
 40
0.0
 40
0.0
 40
0.0
 40
0.0158393229
 40
0.0316715539
 40
0.047479573
 40
0.0632589659
 40
0.0790076005
 40
0.0947270292
 40
0.1260696484
 40
0.1573316971
 40
0.1885361252
 40
0.2197026924
 40
0.2508411318
 40
0.2819642385
 40
0.3130815101
 40
0.3753018537
 40
0.4375467017
 40
0.4998279878
 40
0.5621577819
 40
0.6245411126
 40
0.7494670115
 40
0.874623393
 40
1.0
 40
1.0
 40
1.0
 40
1.0
 10
15.9695025067
 20
6.2885174899
 30
0.0
 10
15.9695030561
 20
6.2889978282
 30
0.0
 10
15.9694442767
 20
6.2899593988
 30
0.0
 10
15.9691818349
 20
6.2913783946
 30
0.0
 10
15.9687609024
 20
6.2927563758
 30
0.0
 10
15.968204005
 20
6.294081861
 30
0.0
 10
15.9675271614
 20
6.2953469388
 30
0.0
 10
15.9664892854
 20
6.2969462579
 30
0.0
 10
15.9649844586
 20
6.2987932486
 30
0.0
 10
15.9629520774
 20
6.3007898398
 30
0.0
 10
15.9607563292
 20
6.3025950253
 30
0.0
 10
15.9584421033
 20
6.3042369968
 30
0.0
 10
15.9560420344
 20
6.3057450575
 30
0.0
 10
15.9535725562
 20
6.3071329557
 30
0.0
 10
15.950207766
 20
6.3088446556
 30
0.0
 10
15.9458954074
 20
6.3107672147
 30
0.0
 10
15.9406019986
 20
6.3127858245
 30
0.0
 10
15.9352257374
 20
6.3145806384
 30
0.0
 10
15.9297849213
 20
6.316182622
 30
0.0
 10
15.9224616956
 20
6.3181049634
 30
0.0
 10
15.9132087417
 20
6.3201638313
 30
0.0
 10
15.9020060322
 20
6.3222095087
 30
0.0
 10
15.8944932574
 20
6.3233489523
 30
0.0
 10
15.8907273874
 20
6.323872829
 30
0.0
  0
SPLINE
  5
414
100
AcDbEntity
  8
0
100
AcDbSpline
 62
9
  6
CONTINUOUS
 70
0
 71
3
 72
24
 73
20
 74
0
 42
0.0000001
 43
0.0000001
 44
0.0000000001
 40
0.0
 40
0.0
 40
0.0
 40
0.0
 40
0.0324506782
 40
0.0648518077
 40
0.081015106
 40
0.097146152
 40
0.1292924404
 40
0.1612688237
 40
0.1930690545
 40
0.2561266086
 40
0.318611158
 40
0.3806762938
 40
0.4424684677
 40
0.5041126198
 40
0.565710368
 40
0.6273414477
 40
0.7508791699
 40
0.8750584353
 40
1.0
 40
1.0
 40
1.0
 40
1.0
 10
15.9908237897
 20
6.2885174899
 30
0.0
 10
15.990825391
 20
6.2898146474
 30
0.0
 10
15.9907016375
 20
6.2924083557
 30
0.0
 10
15.9902627589
 20
6.2956210578
 30
0.0
 10
15.9897469184
 20
6.2981559377
 30
0.0
 10
15.9891227431
 20
6.3006558099
 30
0.0
 10
15.9881471807
 20
6.3037160908
 30
0.0
 10
15.9866908806
 20
6.3072673236
 30
0.0
 10
15.9844170654
 20
6.3118032936
 30
0.0
 10
15.9810091712
 20
6.3171137305
 30
0.0
 10
15.9762084547
 20
6.3228946971
 30
0.0
 10
15.9708742943
 20
6.3281100329
 30
0.0
 10
15.9651285556
 20
6.3328104068
 30
0.0
 10
15.9590562091
 20
6.3370441815
 30
0.0
 10
15.9527264356
 20
6.3408670196
 30
0.0
 10
15.9440016171
 20
6.3454780406
 30
0.0
 10
15.9326521011
 20
6.3504324956
 30
0.0
 10
15.9185699604
 20
6.3553218867
 30
0.0
 10
15.9089736269
 20
6.358004351
 30
0.0
 10
15.9041315729
 20
6.359228168
 30
0.0
  0
SPLINE
  5
415
100
AcDbEntity
  8
0
100
AcDbSpline
 62
9
  6
CONTINUOUS
 70
0
 71
3
 72
13
 73
9
 74
0
 42
0.0000001
 43
0.0000001
 44
0.0000000001
 40
0.0
 40
0.0
 40
0.0
 40
0.0
 40
0.1061317547
 40
0.2199346651
 40
0.3403592593
 40
0.4662823001
 40
0.7297033671
 40
1.0
 40
1.0
 40
1.0
 40
1.0
 10
15.8907273874
 20
6.323872829
 30
0.0
 10
15.8913794308
 20
6.3250444445
 30
0.0
 10
15.8926720807
 20
6.3275052165
 30
0.0
 10
15.8945190992
 20
6.331389322
 30
0.0
 10
15.8963277645
 20
6.3355653979
 30
0.0
 10
15.898697998
 20
6.3415546028
 30
0.0
 10
15.9014181401
 20
6.3494367436
 30
0.0
 10
15.9032775515
 20
6.3559218131
 30
0.0
 10
15.9041314816
 20
6.359228168
 30
0.0
  0
SPLINE
  5
416
100
AcDbEntity
  8
0
100
AcDbSpline
 62
9
  6
CONTINUOUS
 70
0
 71
3
 72
28
 73
24
 74
0
 42
0.0000001
 43
0.0000001
 44
0.0000000001
 40
0.0
 40
0.0
 40
0.0
 40
0.0
 40
0.125376606
 40
0.250532987
 40
0.3754588863
 40
0.4378422176
 40
0.5001720086
 40
0.562453297
 40
0.6246981422
 40
0.686918487
 40
0.7180357568
 40
0.7491588633
 40
0.780297303
 40
0.8114638702
 40
0.8426682946
 40
0.8739303479
 40
0.9052729619
 40
0.9209923879
 40
0.9367410282
 40
0.9525204188
 40
0.9683284375
 40
0.9841606754
 40
1.0
 40
1.0
 40
1.0
 40
1.0
 10
15.6239840956
 20
6.323872829
 30
0.0
 10
15.6202182253
 20
6.3233489545
 30
0.0
 10
15.6127054511
 20
6.3222095069
 30
0.0
 10
15.6015027408
 20
6.3201638335
 30
0.0
 10
15.5922497879
 20
6.318104961
 30
0.0
 10
15.5849265606
 20
6.3161826254
 30
0.0
 10
15.5794857466
 20
6.3145806347
 30
0.0
 10
15.5741094831
 20
6.3127858278
 30
0.0
 10
15.5688160766
 20
6.3107672118
 30
0.0
 10
15.564503716
 20
6.3088446575
 30
0.0
 10
15.5611389269
 20
6.3071329553
 30
0.0
 10
15.5586694494
 20
6.3057450562
 30
0.0
 10
15.5562693792
 20
6.3042369975
 30
0.0
 10
15.5539551529
 20
6.3025950266
 30
0.0
 10
15.5517594078
 20
6.3007898371
 30
0.0
 10
15.5497270245
 20
6.2987932491
 30
0.0
 10
15.5482221923
 20
6.2969462619
 30
0.0
 10
15.5471843256
 20
6.2953469367
 30
0.0
 10
15.546507482
 20
6.2940818593
 30
0.0
 10
15.5459505777
 20
6.2927563768
 30
0.0
 10
15.5455296442
 20
6.2913783956
 30
0.0
 10
15.5452672038
 20
6.2899593992
 30
0.0
 10
15.5452084251
 20
6.2889978283
 30
0.0
 10
15.5452089762
 20
6.2885174899
 30
0.0
  0
SPLINE
  5
417
100
AcDbEntity
  8
0
100
AcDbSpline
 62
9
  6
CONTINUOUS
 70
0
 71
3
 72
24
 73
20
 74
0
 42
0.0000001
 43
0.0000001
 44
0.0000000001
 40
0.0
 40
0.0
 40
0.0
 40
0.0
 40
0.1249415659
 40
0.2491208315
 40
0.3726585507
 40
0.4342896312
 40
0.4958873815
 40
0.5575315364
 40
0.6193237107
 40
0.6813888422
 40
0.743873398
 40
0.8069309457
 40
0.8387311827
 40
0.8707075589
 40
0.9028538478
 40
0.9189849001
 40
0.9351481992
 40
0.9675493185
 40
1.0
 40
1.0
 40
1.0
 40
1.0
 10
15.6105799101
 20
6.359228168
 30
0.0
 10
15.6057378561
 20
6.3580043511
 30
0.0
 10
15.5961415251
 20
6.3553218776
 30
0.0
 10
15.5820593853
 20
6.3504324865
 30
0.0
 10
15.5707098638
 20
6.3454780445
 30
0.0
 10
15.561985045
 20
6.3408670241
 30
0.0
 10
15.555655274
 20
6.3370441812
 30
0.0
 10
15.5495829337
 20
6.332810398
 30
0.0
 10
15.5438371877
 20
6.3281100333
 30
0.0
 10
15.5385030316
 20
6.322894693
 30
0.0
 10
15.5337023092
 20
6.3171137316
 30
0.0
 10
15.5302944226
 20
6.3118032893
 30
0.0
 10
15.5280206036
 20
6.3072673223
 30
0.0
 10
15.5265642898
 20
6.3037160946
 30
0.0
 10
15.5255887456
 20
6.3006558076
 30
0.0
 10
15.5249645751
 20
6.2981559342
 30
0.0
 10
15.5244487247
 20
6.2956210566
 30
0.0
 10
15.52400983
 20
6.2924083566
 30
0.0
 10
15.523886086
 20
6.2898146476
 30
0.0
 10
15.5238876933
 20
6.2885174899
 30
0.0
  0
SPLINE
  5
418
100
AcDbEntity
  8
0
100
AcDbSpline
 62
9
  6
CONTINUOUS
 70
0
 71
3
 72
13
 73
9
 74
0
 42
0.0000001
 43
0.0000001
 44
0.0000000001
 40
0.0
 40
0.0
 40
0.0
 40
0.0
 40
0.1061313405
 40
0.2199339144
 40
0.3403582736
 40
0.4662812027
 40
0.7297024891
 40
1.0
 40
1.0
 40
1.0
 40
1.0
 10
15.6239840956
 20
6.3238728689
 30
0.0
 10
15.6233320491
 20
6.325044477
 30
0.0
 10
15.6220393925
 20
6.3275052354
 30
0.0
 10
15.6201923632
 20
6.3313893229
 30
0.0
 10
15.6183836853
 20
6.3355653849
 30
0.0
 10
15.6160134305
 20
6.3415545811
 30
0.0
 10
15.6132932577
 20
6.3494367261
 30
0.0
 10
15.6114338218
 20
6.3559218044
 30
0.0
 10
15.6105798784
 20
6.359228168
 30
0.0
  0
SPLINE
  5
419
100
AcDbEntity
  8
0
100
AcDbSpline
 62
9
  6
CONTINUOUS
 70
0
 71
3
 72
37
 73
33
 74
0
 42
0.0000001
 43
0.0000001
 44
0.0000000001
 40
0.0
 40
0.0
 40
0.0
 40
0.0
 40
0.002054642
 40
0.0045056781
 40
0.0073732257
 40
0.0106730519
 40
0.0144183933
 40
0.0186209326
 40
0.023291353
 40
0.0284396678
 40
0.0340746573
 40
0.0402017162
 40
0.053949228
 40
0.0697157699
 40
0.0875329238
 40
0.1074236938
 40
0.1293801738
 40
0.1533863828
 40
0.1794259713
 40
0.2074745721
 40
0.2374766092
 40
0.2693685706
 40
0.3030867904
 40
0.3385602952
 40
0.3756892584
 40
0.4544847274
 40
0.5385756604
 40
0.6269064922
 40
0.7183679291
 40
0.8117960745
 40
0.9060329149
 40
1.0
 40
1.0
 40
1.0
 40
1.0
 10
10.34177101
 20
12.0724887887
 30
0.0
 10
10.3422662547
 20
12.0725355103
 30
0.0
 10
10.3433588538
 20
12.072568371
 30
0.0
 10
10.3451427124
 20
12.0724759238
 30
0.0
 10
10.3472172015
 20
12.072242167
 30
0.0
 10
10.3495877444
 20
12.0718637186
 30
0.0
 10
10.3522600007
 20
12.0713372008
 30
0.0
 10
10.355239195
 20
12.0706593811
 30
0.0
 10
10.3585305169
 20
12.0698270991
 30
0.0
 10
10.3621388899
 20
12.0688372894
 30
0.0
 10
10.3660683514
 20
12.0676872666
 30
0.0
 10
10.3719699065
 20
12.0658658777
 30
0.0
 10
10.3801644592
 20
12.0631598187
 30
0.0
 10
10.3909738523
 20
12.0593541562
 30
0.0
 10
10.4031158306
 20
12.0548599484
 30
0.0
 10
10.4165951239
 20
12.0496655224
 30
0.0
 10
10.4314077001
 20
12.0437668025
 30
0.0
 10
10.4475408533
 20
12.037162751
 30
0.0
 10
10.4649784687
 20
12.0298538603
 30
0.0
 10
10.4836958757
 20
12.0218446027
 30
0.0
 10
10.5036597686
 20
12.0131479169
 30
0.0
 10
10.5248281302
 20
12.003780167
 30
0.0
 10
10.5471556441
 20
11.9937592211
 30
0.0
 10
10.57058917
 20
11.9831068094
 30
0.0
 10
10.603894084
 20
11.9677985103
 30
0.0
 10
10.6477800841
 20
11.9473276831
 30
0.0
 10
10.7027497271
 20
11.921296492
 30
0.0
 10
10.7603723306
 20
11.8937041816
 30
0.0
 10
10.8199432843
 20
11.8649474147
 30
0.0
 10
10.8807573601
 20
11.8354769944
 30
0.0
 10
10.9421161908
 20
11.8057396438
 30
0.0
 10
10.9831347426
 20
11.7858978365
 30
0.0
 10
11.0036224205
 20
11.7760073051
 30
0.0
  0
SPLINE
  5
41A
100
AcDbEntity
  8
0
100
AcDbSpline
 62
9
  6
CONTINUOUS
 70
0
 71
3
 72
28
 73
24
 74
0
 42
0.0000001
 43
0.0000001
 44
0.0000000001
 40
0.0
 40
0.0
 40
0.0
 40
0.0
 40
0.0010798224
 40
0.0043444035
 40
0.0098379975
 40
0.017605193
 40
0.0276847561
 40
0.0400912683
 40
0.0719204574
 40
0.0913539309
 40
0.1131038958
 40
0.1634030656
 40
0.1918701227
 40
0.2224573422
 40
0.2896555771
 40
0.3642663313
 40
0.4453191759
 40
0.5317445764
 40
0.6223148743
 40
0.7157493631
 40
0.8107124032
 40
0.9058760545
 40
1.0
 40
1.0
 40
1.0
 40
1.0
 10
10.4171296815
 20
12.0739178866
 30
0.0
 10
10.4173564657
 20
12.0738501409
 30
0.0
 10
10.4182670024
 20
12.0735713466
 30
0.0
 10
10.4203257189
 20
12.0729296679
 30
0.0
 10
10.4237759134
 20
12.0718265945
 30
0.0
 10
10.4286383531
 20
12.0702359104
 30
0.0
 10
10.434926652
 20
12.0681308783
 30
0.0
 10
10.4461903132
 20
12.0642747333
 30
0.0
 10
10.4593439017
 20
12.0596101587
 30
0.0
 10
10.4743766454
 20
12.0541205423
 30
0.0
 10
10.4931674537
 20
12.0471207273
 30
0.0
 10
10.5137382709
 20
12.0392284975
 30
0.0
 10
10.5360418017
 20
12.0304489681
 30
0.0
 10
10.561732761
 20
12.0201632722
 30
0.0
 10
10.5966908937
 20
12.0058142421
 30
0.0
 10
10.6416780209
 20
11.9867753016
 30
0.0
 10
10.6903389291
 20
11.9656105636
 30
0.0
 10
10.741990157
 20
11.9425568899
 30
0.0
 10
10.7959001937
 20
11.9179112624
 30
0.0
 10
10.8512838234
 20
11.8919939334
 30
0.0
 10
10.907355825
 20
11.8651774923
 30
0.0
 10
10.9633387166
 20
11.8378294421
 30
0.0
 10
11.0004491448
 20
11.8192739982
 30
0.0
 10
11.0188524897
 20
11.8099489073
 30
0.0
  0
SPLINE
  5
41B
100
AcDbEntity
  8
0
100
AcDbSpline
 62
7
  6
CONTINUOUS
 70
0
 71
3
 72
23
 73
19
 74
0
 42
0.0000001
 43
0.0000001
 44
0.0000000001
 40
0.0
 40
0.0
 40
0.0
 40
0.0
 40
0.0625208219
 40
0.1250433329
 40
0.1875560411
 40
0.2500614208
 40
0.3125571285
 40
0.3750442019
 40
0.4375232161
 40
0.4999979669
 40
0.5624737325
 40
0.6249552317
 40
0.687443594
 40
0.7499388358
 40
0.8124439721
 40
0.8749566561
 40
0.9374792299
 40
1.0
 40
1.0
 40
1.0
 40
1.0
 10
15.1319658059
 20
7.4823376785
 30
0.0
 10
15.1336791969
 20
7.4817491318
 30
0.0
 10
15.1371514189
 20
7.4806983039
 30
0.0
 10
15.1424753192
 20
7.4795702563
 30
0.0
 10
15.1478872135
 20
7.4789733313
 30
0.0
 10
15.1533347519
 20
7.4790052452
 30
0.0
 10
15.1587328076
 20
7.4797621983
 30
0.0
 10
15.1639630911
 20
7.481306763
 30
0.0
 10
15.1688839548
 20
7.483662785
 30
0.0
 10
15.1733461945
 20
7.486804064
 30
0.0
 10
15.177214691
 20
7.4906530559
 30
0.0
 10
15.1803895301
 20
7.4950901359
 30
0.0
 10
15.1828189002
 20
7.4999728367
 30
0.0
 10
15.1845017209
 20
7.5051574562
 30
0.0
 10
15.1854790926
 20
7.510516673
 30
0.0
 10
15.1858310058
 20
7.515949997
 30
0.0
 10
15.1856445789
 20
7.5213888984
 30
0.0
 10
15.185212661
 20
7.5249908442
 30
0.0
 10
15.1849305832
 20
7.5267804036
 30
0.0
  0
SPLINE
  5
41C
100
AcDbEntity
  8
0
100
AcDbSpline
 62
7
  6
CONTINUOUS
 70
0
 71
3
 72
23
 73
19
 74
0
 42
0.0000001
 43
0.0000001
 44
0.0000000001
 40
0.0
 40
0.0
 40
0.0
 40
0.0
 40
0.0654642861
 40
0.1318961101
 40
0.1989088129
 40
0.266176699
 40
0.3333967359
 40
0.4003092778
 40
0.4666840659
 40
0.5323086236
 40
0.5969713287
 40
0.6604513502
 40
0.7225039801
 40
0.7828393499
 40
0.8411255959
 40
0.8970028039
 40
0.9500980255
 40
1.0
 40
1.0
 40
1.0
 40
1.0
 10
15.2200020838
 20
7.5562615502
 30
0.0
 10
15.2212114612
 20
7.5572763383
 30
0.0
 10
15.2236951343
 20
7.5592649008
 30
0.0
 10
15.2275200141
 20
7.5621600712
 30
0.0
 10
15.2314180976
 20
7.5650296635
 30
0.0
 10
15.2353382683
 20
7.5679011808
 30
0.0
 10
15.2392383235
 20
7.5707960498
 30
0.0
 10
15.2430853341
 20
7.5737257992
 30
0.0
 10
15.2468523263
 20
7.5766961608
 30
0.0
 10
15.2505178009
 20
7.5797062326
 30
0.0
 10
15.2540661394
 20
7.5827473402
 30
0.0
 10
15.2574853741
 20
7.5858050974
 30
0.0
 10
15.2607688582
 20
7.5888567311
 30
0.0
 10
15.2639141853
 20
7.5918721104
 30
0.0
 10
15.2669232614
 20
7.5948139425
 30
0.0
 10
15.2698065093
 20
7.5976347811
 30
0.0
 10
15.2725800306
 20
7.6002782518
 30
0.0
 10
15.2744327657
 20
7.6019343153
 30
0.0
 10
15.2753546473
 20
7.6027078658
 30
0.0
  0
SPLINE
  5
41D
100
AcDbEntity
  8
0
100
AcDbSpline
 62
7
  6
CONTINUOUS
 70
0
 71
3
 72
22
 73
18
 74
0
 42
0.0000001
 43
0.0000001
 44
0.0000000001
 40
0.0
 40
0.0
 40
0.0
 40
0.0
 40
0.0743242374
 40
0.1483611857
 40
0.2217342194
 40
0.2941354977
 40
0.4349637204
 40
0.502975415
 40
0.5691291252
 40
0.6332243901
 40
0.6950414696
 40
0.7543222947
 40
0.8107447638
 40
0.8639325689
 40
0.9134839683
 40
0.9589844787
 40
1.0
 40
1.0
 40
1.0
 40
1.0
 10
15.3062866041
 20
7.6286628594
 30
0.0
 10
15.3075292304
 20
7.6297055467
 30
0.0
 10
15.310055631
 20
7.6317322436
 30
0.0
 10
15.3139126829
 20
7.6346553986
 30
0.0
 10
15.317777642
 20
7.6374975788
 30
0.0
 10
15.3228304288
 20
7.6411846599
 30
0.0
 10
15.327759228
 20
7.6448442326
 30
0.0
 10
15.3324817072
 20
7.6485488488
 30
0.0
 10
15.3358293203
 20
7.6512911117
 30
0.0
 10
15.3390097541
 20
7.654022393
 30
0.0
 10
15.3420120322
 20
7.65672906
 30
0.0
 10
15.3448298007
 20
7.6593886556
 30
0.0
 10
15.3474605045
 20
7.6619708738
 30
0.0
 10
15.349905537
 20
7.6644383954
 30
0.0
 10
15.352175302
 20
7.6667440474
 30
0.0
 10
15.3542863842
 20
7.6688326333
 30
0.0
 10
15.3556800158
 20
7.6701088529
 30
0.0
 10
15.3563657539
 20
7.6706842555
 30
0.0
  0
SPLINE
  5
41E
100
AcDbEntity
  8
0
100
AcDbSpline
 62
7
  6
CONTINUOUS
 70
0
 71
3
 72
25
 73
21
 74
0
 42
0.0000001
 43
0.0000001
 44
0.0000000001
 40
0.0
 40
0.0
 40
0.0
 40
0.0
 40
0.0860532735
 40
0.1701648459
 40
0.3311784784
 40
0.4075392322
 40
0.4808758076
 40
0.5510374459
 40
0.6178658638
 40
0.6811811958
 40
0.7407730925
 40
0.7963740531
 40
0.8476254758
 40
0.8940927065
 40
0.9153870566
 40
0.9353067576
 40
0.9537887511
 40
0.9707723411
 40
0.9861941239
 40
1.0
 40
1.0
 40
1.0
 40
1.0
 10
15.3832802642
 20
7.6932682111
 30
0.0
 10
15.3844780909
 20
7.6942733071
 30
0.0
 10
15.3868915557
 20
7.6962075541
 30
0.0
 10
15.3916975128
 20
7.6998298907
 30
0.0
 10
15.3964476606
 20
7.7032305813
 30
0.0
 10
15.401015228
 20
7.7065491711
 30
0.0
 10
15.4042183318
 20
7.7089369554
 30
0.0
 10
15.4072388689
 20
7.7112789073
 30
0.0
 10
15.4100605586
 20
7.7135785849
 30
0.0
 10
15.4126716926
 20
7.715830605
 30
0.0
 10
15.4150630411
 20
7.7180228418
 30
0.0
 10
15.4172294454
 20
7.7201338757
 30
0.0
 10
15.4191693389
 20
7.7221338935
 30
0.0
 10
15.4206382764
 20
7.7237211373
 30
0.0
 10
15.4217108576
 20
7.7248992486
 30
0.0
 10
15.4224405461
 20
7.7257018574
 30
0.0
 10
15.4231223501
 20
7.7264421201
 30
0.0
 10
15.4237589338
 20
7.7271128651
 30
0.0
 10
15.4243536919
 20
7.7277057856
 30
0.0
 10
15.4247471708
 20
7.7280630772
 30
0.0
 10
15.424939343
 20
7.7282243288
 30
0.0
  0
SPLINE
  5
41F
100
AcDbEntity
  8
0
100
AcDbSpline
 62
7
  6
CONTINUOUS
 70
0
 71
3
 72
28
 73
24
 74
0
 42
0.0000001
 43
0.0000001
 44
0.0000000001
 40
0.0
 40
0.0
 40
0.0
 40
0.0
 40
0.2053906036
 40
0.3008321557
 40
0.3910423391
 40
0.4758020659
 40
0.5550022178
 40
0.6285613098
 40
0.6963776743
 40
0.7583179439
 40
0.8142089007
 40
0.8637979608
 40
0.9066995498
 40
0.9254914601
 40
0.9424190003
 40
0.9574069222
 40
0.9703716971
 40
0.9812185672
 40
0.9898457009
 40
0.993291026
 40
0.9961374509
 40
0.9983738507
 40
1.0
 40
1.0
 40
1.0
 40
1.0
 10
15.446145269
 20
7.7460182135
 30
0.0
 10
15.4482531879
 20
7.7477869674
 30
0.0
 10
15.4514646618
 20
7.7502294758
 30
0.0
 10
15.455733711
 20
7.7532654224
 30
0.0
 10
15.4587039696
 20
7.7553397864
 30
0.0
 10
15.461489773
 20
7.75729804
 30
0.0
 10
15.4640692945
 20
7.759161652
 30
0.0
 10
15.46642606
 20
7.7609450428
 30
0.0
 10
15.4685471702
 20
7.762654837
 30
0.0
 10
15.4704239305
 20
7.7642880354
 30
0.0
 10
15.472049757
 20
7.7658344745
 30
0.0
 10
15.4734215441
 20
7.7672743807
 30
0.0
 10
15.4743924311
 20
7.7684069013
 30
0.0
 10
15.4750426379
 20
7.7692357266
 30
0.0
 10
15.475447743
 20
7.7697811665
 30
0.0
 10
15.4757940305
 20
7.7702727871
 30
0.0
 10
15.4760835629
 20
7.7707045433
 30
0.0
 10
15.4763199214
 20
7.7710692463
 30
0.0
 10
15.4764851247
 20
7.7713280942
 30
0.0
 10
15.4765950852
 20
7.7714949893
 30
0.0
 10
15.4766601994
 20
7.7715889418
 30
0.0
 10
15.4767148176
 20
7.771660278
 30
0.0
 10
15.4767499946
 20
7.7716986275
 30
0.0
 10
15.4767666838
 20
7.7717126313
 30
0.0
  0
SPLINE
  5
420
100
AcDbEntity
  8
0
100
AcDbSpline
 62
7
  6
CONTINUOUS
 70
0
 71
3
 72
22
 73
18
 74
0
 42
0.0000001
 43
0.0000001
 44
0.0000000001
 40
0.0
 40
0.0
 40
0.0
 40
0.0
 40
0.2204817409
 40
0.4143914488
 40
0.5807669491
 40
0.6534895042
 40
0.7192761081
 40
0.7781391751
 40
0.8301002476
 40
0.87516876
 40
0.9133764622
 40
0.9447481915
 40
0.9579060605
 40
0.9693924398
 40
0.979239912
 40
0.9875236947
 40
1.0
 40
1.0
 40
1.0
 40
1.0
 10
15.4909315791
 20
7.7835983898
 30
0.0
 10
15.4923271435
 20
7.7847694073
 30
0.0
 10
15.4950507829
 20
7.78685127
 30
0.0
 10
15.499023397
 20
7.7895442381
 30
0.0
 10
15.5020263532
 20
7.7914893157
 30
0.0
 10
15.5041241489
 20
7.7928842543
 30
0.0
 10
15.5054657092
 20
7.7938117457
 30
0.0
 10
15.5066433598
 20
7.794673983
 30
0.0
 10
15.507652083
 20
7.795475678
 30
0.0
 10
15.5084906129
 20
7.7962153544
 30
0.0
 10
15.5091562903
 20
7.796890478
 30
0.0
 10
15.5095917086
 20
7.7974195843
 30
0.0
 10
15.5098474235
 20
7.7978059692
 30
0.0
 10
15.5099850119
 20
7.7980557473
 30
0.0
 10
15.5100806861
 20
7.7982823297
 30
0.0
 10
15.5101464745
 20
7.7985250691
 30
0.0
 10
15.5101478155
 20
7.798708406
 30
0.0
 10
15.5101072579
 20
7.7988031808
 30
0.0
  0
SPLINE
  5
421
100
AcDbEntity
  8
0
100
AcDbSpline
 62
7
  6
CONTINUOUS
 70
0
 71
3
 72
22
 73
18
 74
0
 42
0.0000001
 43
0.0000001
 44
0.0000000001
 40
0.0
 40
0.0
 40
0.0
 40
0.0
 40
0.234137495
 40
0.4367924479
 40
0.6081100632
 40
0.7480278722
 40
0.8062166707
 40
0.8566309971
 40
0.8993277581
 40
0.9343396722
 40
0.94897601
 40
0.9617097891
 40
0.9725528771
 40
0.9815205661
 40
0.9886410211
 40
0.9939739294
 40
1.0
 40
1.0
 40
1.0
 40
1.0
 10
15.5148251061
 20
7.8036474395
 30
0.0
 10
15.5155456857
 20
7.8042520775
 30
0.0
 10
15.5169384949
 20
7.8053234355
 30
0.0
 10
15.5189788914
 20
7.8066697914
 30
0.0
 10
15.5207626291
 20
7.8077108778
 30
0.0
 10
15.5220717997
 20
7.8084103779
 30
0.0
 10
15.5229583762
 20
7.8088695602
 30
0.0
 10
15.5234988621
 20
7.8091476905
 30
0.0
 10
15.5239550162
 20
7.8093861933
 30
0.0
 10
15.5242812107
 20
7.8095629833
 30
0.0
 10
15.5244985928
 20
7.809687785
 30
0.0
 10
15.5246299453
 20
7.8097671761
 30
0.0
 10
15.5247397307
 20
7.8098385672
 30
0.0
 10
15.5248274822
 20
7.8099010737
 30
0.0
 10
15.5248948627
 20
7.8099569538
 30
0.0
 10
15.5249447737
 20
7.8100067495
 30
0.0
 10
15.5249739558
 20
7.8100556704
 30
0.0
 10
15.5249647729
 20
7.810078071
 30
0.0
  0
LINE
  5
422
100
AcDbEntity
  8
0
100
AcDbLine
 62
7
  6
CONTINUOUS
 10
10.3252767939
 20
11.1176533692
 11
10.3276392175
 21
11.1156354545
  0
SPLINE
  5
423
100
AcDbEntity
  8
0
100
AcDbSpline
 62
7
  6
CONTINUOUS
 70
0
 71
3
 72
18
 73
14
 74
0
 42
0.0000001
 43
0.0000001
 44
0.0000000001
 40
0.0
 40
0.0
 40
0.0
 40
0.0
 40
0.0423057794
 40
0.0925961115
 40
0.2133152123
 40
0.3535693778
 40
0.5036748389
 40
0.6533957227
 40
0.7924210851
 40
0.8548037958
 40
0.9108774662
 40
0.9595871202
 40
1.0
 40
1.0
 40
1.0
 40
1.0
 10
10.3276392175
 20
11.1156354545
 30
0.0
 10
10.3281009443
 20
11.1152898101
 30
0.0
 10
10.3291183452
 20
11.11454238
 30
0.0
 10
10.3314800382
 20
11.1128452773
 30
0.0
 10
10.3349544038
 20
11.1104085652
 30
0.0
 10
10.3395698136
 20
11.1072293702
 30
0.0
 10
10.344533261
 20
11.1038586335
 30
0.0
 10
10.3495037426
 20
11.1005283048
 30
0.0
 10
10.3535001993
 20
11.0978929718
 30
0.0
 10
10.3564470222
 20
11.0959854066
 30
0.0
 10
10.3583690862
 20
11.094760752
 30
0.0
 10
10.360048767
 20
11.0937132639
 30
0.0
 10
10.3610885021
 20
11.0930844063
 30
0.0
 10
10.3615633715
 20
11.0928050178
 30
0.0
  0
LINE
  5
424
100
AcDbEntity
  8
0
100
AcDbLine
 62
7
  6
CONTINUOUS
 10
10.3615633715
 20
11.0928050178
 11
10.3635243418
 21
11.0917383597
  0
LINE
  5
425
100
AcDbEntity
  8
0
100
AcDbLine
 62
7
  6
CONTINUOUS
 10
15.1849305832
 20
7.5267804036
 11
15.187031065
 21
7.528524232
  0
SPLINE
  5
426
100
AcDbEntity
  8
0
100
AcDbSpline
 62
7
  6
CONTINUOUS
 70
0
 71
3
 72
11
 73
7
 74
0
 42
0.0000001
 43
0.0000001
 44
0.0000000001
 40
0.0
 40
0.0
 40
0.0
 40
0.0
 40
0.2500009479
 40
0.5000016321
 40
0.7500016587
 40
1.0
 40
1.0
 40
1.0
 40
1.0
 10
15.187031065
 20
7.528524232
 30
0.0
 10
15.1897922968
 20
7.5308137698
 30
0.0
 10
15.1953262952
 20
7.5353789737
 30
0.0
 10
15.2036845056
 20
7.5421570114
 30
0.0
 10
15.2121288282
 20
7.5488276359
 30
0.0
 10
15.2178398372
 20
7.5531703919
 30
0.0
 10
15.2207229812
 20
7.5553043079
 30
0.0
  0
SPLINE
  5
427
100
AcDbEntity
  8
0
100
AcDbSpline
 62
7
  6
CONTINUOUS
 70
0
 71
3
 72
27
 73
23
 74
0
 42
0.0000001
 43
0.0000001
 44
0.0000000001
 40
0.0
 40
0.0
 40
0.0
 40
0.0
 40
0.1249970199
 40
0.2499929991
 40
0.3124925688
 40
0.3749921475
 40
0.437491742
 40
0.4999911795
 40
0.5624902578
 40
0.6249885883
 40
0.6874852766
 40
0.7499784913
 40
0.7812299656
 40
0.8124817935
 40
0.8437334353
 40
0.8749838921
 40
0.9062304145
 40
0.9374644729
 40
0.9531009351
 40
0.9687341649
 40
0.9843695166
 40
1.0
 40
1.0
 40
1.0
 40
1.0
 10
15.2207229812
 20
7.5553043079
 30
0.0
 10
15.2228723708
 20
7.5568951465
 30
0.0
 10
15.2272021743
 20
7.5600351979
 30
0.0
 10
15.2327110173
 20
7.5638243577
 30
0.0
 10
15.2371902447
 20
7.5667470347
 30
0.0
 10
15.240590309
 20
7.5688757105
 30
0.0
 10
15.2440358842
 20
7.5709300738
 30
0.0
 10
15.2475328051
 20
7.5728960485
 30
0.0
 10
15.2510878906
 20
7.5747551656
 30
0.0
 10
15.2547093477
 20
7.5764823117
 30
0.0
 10
15.2584067082
 20
7.5780411529
 30
0.0
 10
15.2615613807
 20
7.5791552633
 30
0.0
 10
15.2641337589
 20
7.5798887411
 30
0.0
 10
15.2660887095
 20
7.5803417197
 30
0.0
 10
15.2680684813
 20
7.5806726853
 30
0.0
 10
15.2700694894
 20
7.5808453691
 30
0.0
 10
15.272078709
 20
7.5808056339
 30
0.0
 10
15.2737366363
 20
7.5805249192
 30
0.0
 10
15.2750049022
 20
7.5800920387
 30
0.0
 10
15.2759075302
 20
7.5796458746
 30
0.0
 10
15.2767323837
 20
7.5790673152
 30
0.0
 10
15.277209309
 20
7.5785924731
 30
0.0
 10
15.2774242468
 20
7.5783363202
 30
0.0
  0
SPLINE
  5
428
100
AcDbEntity
  8
0
100
AcDbSpline
 62
7
  6
CONTINUOUS
 70
0
 71
3
 72
11
 73
7
 74
0
 42
0.0000001
 43
0.0000001
 44
0.0000000001
 40
0.0
 40
0.0
 40
0.0
 40
0.0
 40
0.2514125638
 40
0.5015903963
 40
0.7509824862
 40
1.0
 40
1.0
 40
1.0
 40
1.0
 10
15.3636011419
 20
7.6767554669
 30
0.0
 10
15.3603682631
 20
7.6821758425
 30
0.0
 10
15.353690385
 20
7.6928557856
 30
0.0
 10
15.3430417544
 20
7.7084184215
 30
0.0
 10
15.3318120954
 20
7.7234919423
 30
0.0
 10
15.323949414
 20
7.7332289867
 30
0.0
 10
15.3199312621
 20
7.7380176336
 30
0.0
  0
SPLINE
  5
429
100
AcDbEntity
  8
0
100
AcDbSpline
 62
7
  6
CONTINUOUS
 70
0
 71
3
 72
11
 73
7
 74
0
 42
0.0000001
 43
0.0000001
 44
0.0000000001
 40
0.0
 40
0.0
 40
0.0
 40
0.0
 40
0.2514125638
 40
0.5015903963
 40
0.7509824862
 40
1.0
 40
1.0
 40
1.0
 40
1.0
 10
14.9532433838
 20
7.3324244234
 30
0.0
 10
14.9484667395
 20
7.3365494259
 30
0.0
 10
14.93910865
 20
7.3449804046
 30
0.0
 10
14.9256315608
 20
7.358169682
 30
0.0
 10
14.9127370505
 20
7.3718462267
 30
0.0
 10
14.904513274
 20
7.3812802763
 30
0.0
 10
14.9004951222
 20
7.3860689232
 30
0.0
  0
SPLINE
  5
42A
100
AcDbEntity
  8
0
100
AcDbSpline
 62
7
  6
CONTINUOUS
 70
0
 71
3
 72
21
 73
17
 74
0
 42
0.0000001
 43
0.0000001
 44
0.0000000001
 40
0.0
 40
0.0
 40
0.0
 40
0.0
 40
0.009212982
 40
0.0187932675
 40
0.0291470632
 40
0.0405969421
 40
0.0676169432
 40
0.1010421574
 40
0.1413654925
 40
0.1887498071
 40
0.243166902
 40
0.3044689005
 40
0.4466556385
 40
0.6125607024
 40
0.7984757042
 40
1.0
 40
1.0
 40
1.0
 40
1.0
 10
10.7161809785
 20
10.9371018631
 30
0.0
 10
10.716160088
 20
10.9370551952
 30
0.0
 10
10.716128444
 20
10.9369546754
 30
0.0
 10
10.7161155055
 20
10.9367922705
 30
0.0
 10
10.7161360939
 20
10.9366183491
 30
0.0
 10
10.7162117927
 20
10.936357177
 30
0.0
 10
10.7163998285
 20
10.9360012819
 30
0.0
 10
10.7167386736
 20
10.9355548527
 30
0.0
 10
10.7172025813
 20
10.9350668125
 30
0.0
 10
10.7177901026
 20
10.9345396992
 30
0.0
 10
10.7184990671
 20
10.9339762075
 30
0.0
 10
10.7196605992
 20
10.9331391364
 30
0.0
 10
10.7213925764
 20
10.932039271
 30
0.0
 10
10.7237819664
 20
10.9306931661
 30
0.0
 10
10.726519078
 20
10.9292990039
 30
0.0
 10
10.7284685527
 20
10.9283907826
 30
0.0
 10
10.7294893812
 20
10.9279338639
 30
0.0
  0
LINE
  5
42B
100
AcDbEntity
  8
0
100
AcDbLine
 62
7
  6
CONTINUOUS
 10
11.2921912383
 20
10.8018781096
 11
11.2928482453
 21
10.8014276491
  0
SPLINE
  5
42C
100
AcDbEntity
  8
0
100
AcDbSpline
 62
7
  6
CONTINUOUS
 70
0
 71
3
 72
17
 73
13
 74
0
 42
0.0000001
 43
0.0000001
 44
0.0000000001
 40
0.0
 40
0.0
 40
0.0
 40
0.0
 40
0.020737814
 40
0.0430310493
 40
0.0691063374
 40
0.1003940188
 40
0.1814139179
 40
0.2893988028
 40
0.425328628
 40
0.5893514267
 40
0.7811704279
 40
1.0
 40
1.0
 40
1.0
 40
1.0
 10
11.2277585407
 20
10.8311753755
 30
0.0
 10
11.2277493792
 20
10.8311548958
 30
0.0
 10
11.2277382346
 20
10.8311083716
 30
0.0
 10
11.2277483865
 20
10.8310330182
 30
0.0
 10
11.2277829912
 20
10.8309532784
 30
0.0
 10
11.227867982
 20
10.830829306
 30
0.0
 10
11.2280411304
 20
10.8306629211
 30
0.0
 10
11.2283237873
 20
10.830453568
 30
0.0
 10
11.2286991113
 20
10.8302205376
 30
0.0
 10
11.2291658268
 20
10.8299648563
 30
0.0
 10
11.2297225718
 20
10.829687851
 30
0.0
 10
11.2301260819
 20
10.82950184
 30
0.0
 10
11.2303421677
 20
10.8294051208
 30
0.0
  0
SPLINE
  5
42D
100
AcDbEntity
  8
0
100
AcDbSpline
 62
7
  6
CONTINUOUS
 70
0
 71
3
 72
13
 73
9
 74
0
 42
0.0000001
 43
0.0000001
 44
0.0000000001
 40
0.0
 40
0.0
 40
0.0
 40
0.0
 40
0.2498106825
 40
0.3747362011
 40
0.4996857844
 40
0.6246689445
 40
0.7497006555
 40
1.0
 40
1.0
 40
1.0
 40
1.0
 10
12.9442959731
 20
10.0524669935
 30
0.0
 10
12.9367965615
 20
10.0614044443
 30
0.0
 10
12.925648276
 20
10.0748970165
 30
0.0
 10
12.9109991976
 20
10.0930637545
 30
0.0
 10
12.9001214338
 20
10.106781691
 30
0.0
 10
12.8893537592
 20
10.1205925893
 30
0.0
 10
12.8751608859
 20
10.1391548459
 30
0.0
 10
12.8647448611
 20
10.1532568497
 30
0.0
 10
12.8579331377
 20
10.1627569907
 30
0.0
  0
SPLINE
  5
42E
100
AcDbEntity
  8
0
100
AcDbSpline
 62
7
  6
CONTINUOUS
 70
0
 71
3
 72
13
 73
9
 74
0
 42
0.0000001
 43
0.0000001
 44
0.0000000001
 40
0.0
 40
0.0
 40
0.0
 40
0.0
 40
0.2498106825
 40
0.3747362011
 40
0.4996857844
 40
0.6246689445
 40
0.7497006555
 40
1.0
 40
1.0
 40
1.0
 40
1.0
 10
13.0337321872
 20
10.1275128878
 30
0.0
 10
13.0262327756
 20
10.1364503386
 30
0.0
 10
13.0148810654
 20
10.1497722171
 30
0.0
 10
12.9995341067
 20
10.1673533641
 30
0.0
 10
12.9879134803
 20
10.1804479649
 30
0.0
 10
12.9761821877
 20
10.1934502916
 30
0.0
 10
12.9603665
 20
10.2106508453
 30
0.0
 10
12.9482874611
 20
10.2233574146
 30
0.0
 10
12.9401144919
 20
10.2317153347
 30
0.0
  0
SPLINE
  5
42F
100
AcDbEntity
  8
0
100
AcDbSpline
 62
7
  6
CONTINUOUS
 70
0
 71
3
 72
16
 73
12
 74
0
 42
0.0000001
 43
0.0000001
 44
0.0000000001
 40
0.0
 40
0.0
 40
0.0
 40
0.0
 40
0.2483747812
 40
0.3727350551
 40
0.4349887709
 40
0.497303498
 40
0.5596891751
 40
0.6221590076
 40
0.747425684
 40
0.8732929316
 40
1.0
 40
1.0
 40
1.0
 40
1.0
 10
13.1203585983
 20
10.2002010774
 30
0.0
 10
13.1128574872
 20
10.2091405535
 30
0.0
 10
13.1012990806
 20
10.2223077538
 30
0.0
 10
13.0872858491
 20
10.2371866541
 30
0.0
 10
13.0791161317
 20
10.2455563358
 30
0.0
 10
13.0729050779
 20
10.2517678331
 30
0.0
 10
13.0666121547
 20
10.2579109657
 30
0.0
 10
13.0581001178
 20
10.2660137205
 30
0.0
 10
13.0472181536
 20
10.2759512463
 30
0.0
 10
13.0337323144
 20
10.2875009026
 30
0.0
 10
13.0244445321
 20
10.294893016
 30
0.0
 10
13.0197139678
 20
10.2985072256
 30
0.0
  0
SPLINE
  5
430
100
AcDbEntity
  8
0
100
AcDbSpline
 62
7
  6
CONTINUOUS
 70
0
 71
3
 72
16
 73
12
 74
0
 42
0.0000001
 43
0.0000001
 44
0.0000000001
 40
0.0
 40
0.0
 40
0.0
 40
0.0
 40
0.2459417946
 40
0.3693483186
 40
0.4312366164
 40
0.4932780916
 40
0.555497411
 40
0.6179272792
 40
0.743602743
 40
0.8707681696
 40
1.0
 40
1.0
 40
1.0
 40
1.0
 10
13.1987321502
 20
10.2659642959
 30
0.0
 10
13.1912280615
 20
10.2749073205
 30
0.0
 10
13.1794734772
 20
10.2879426565
 30
0.0
 10
13.1649367673
 20
10.302359533
 30
0.0
 10
13.1563696171
 20
10.3103882417
 30
0.0
 10
13.1498079165
 20
10.3163067962
 30
0.0
 10
13.1431152792
 20
10.3221162844
 30
0.0
 10
13.1339894656
 20
10.3297270464
 30
0.0
 10
13.1221873011
 20
10.3389378665
 30
0.0
 10
13.1073516696
 20
10.3493828169
 30
0.0
 10
13.0970248336
 20
10.3558382675
 30
0.0
 10
13.0917300375
 20
10.3589358831
 30
0.0
  0
SPLINE
  5
431
100
AcDbEntity
  8
0
100
AcDbSpline
 62
7
  6
CONTINUOUS
 70
0
 71
3
 72
16
 73
12
 74
0
 42
0.0000001
 43
0.0000001
 44
0.0000000001
 40
0.0
 40
0.0
 40
0.0
 40
0.0
 40
0.2459417946
 40
0.3693483186
 40
0.4312366164
 40
0.4932780916
 40
0.555497411
 40
0.6179272792
 40
0.743602743
 40
0.8707681696
 40
1.0
 40
1.0
 40
1.0
 40
1.0
 10
12.7792960102
 20
9.9140155855
 30
0.0
 10
12.7717919215
 20
9.9229586102
 30
0.0
 10
12.7609957837
 20
9.9367981783
 30
0.0
 10
12.7493222051
 20
9.9536175072
 30
0.0
 10
12.7429031406
 20
9.9634486738
 30
0.0
 10
12.7382139296
 20
9.9709384336
 30
0.0
 10
12.7336548648
 20
9.9785382017
 30
0.0
 10
12.7277444083
 20
9.9888469687
 30
0.0
 10
12.7207229456
 20
10.0020692739
 30
0.0
 10
12.7130128579
 20
10.0184932654
 30
0.0
 10
12.7084487163
 20
10.0297841908
 30
0.0
 10
12.7063175921
 20
10.0355364423
 30
0.0
  0
SPLINE
  5
432
100
AcDbEntity
  8
0
100
AcDbSpline
 62
7
  6
CONTINUOUS
 70
0
 71
3
 72
16
 73
12
 74
0
 42
0.0000001
 43
0.0000001
 44
0.0000000001
 40
0.0
 40
0.0
 40
0.0
 40
0.0
 40
0.2483747812
 40
0.3727350551
 40
0.4349887709
 40
0.497303498
 40
0.5596891751
 40
0.6221590076
 40
0.747425684
 40
0.8732929316
 40
1.0
 40
1.0
 40
1.0
 40
1.0
 10
12.8576695621
 20
9.979778804
 30
0.0
 10
12.850168451
 20
9.9887182801
 30
0.0
 10
12.8392083863
 20
10.0023875488
 30
0.0
 10
12.826988902
 20
10.0187715818
 30
0.0
 10
12.8201650311
 20
10.0282705628
 30
0.0
 10
12.8151264386
 20
10.0354658719
 30
0.0
 10
12.8101693886
 20
10.0427299352
 30
0.0
 10
12.8036678326
 20
10.0525196838
 30
0.0
 10
12.7957709134
 20
10.0649619598
 30
0.0
 10
12.7867385137
 20
10.0802484956
 30
0.0
 10
12.7810715096
 20
10.0906788026
 30
0.0
 10
12.7783336618
 20
10.0959650999
 30
0.0
  0
SPLINE
  5
433
100
AcDbEntity
  8
0
100
AcDbSpline
 62
7
  6
CONTINUOUS
 70
0
 71
3
 72
19
 73
15
 74
0
 42
0.0000001
 43
0.0000001
 44
0.0000000001
 40
0.0
 40
0.0
 40
0.0
 40
0.0
 40
0.0201239447
 40
0.0421820178
 40
0.0684167665
 40
0.100174082
 40
0.1381961413
 40
0.1828730568
 40
0.23439196
 40
0.2928368982
 40
0.4303999252
 40
0.5949715134
 40
0.7854193881
 40
1.0
 40
1.0
 40
1.0
 40
1.0
 10
11.1252596981
 20
10.8777779144
 30
0.0
 10
11.1252402896
 20
10.8777345455
 30
0.0
 10
11.1252177603
 20
10.8776344248
 30
0.0
 10
11.1252439145
 20
10.8774721829
 30
0.0
 10
11.1253236316
 20
10.8772991449
 30
0.0
 10
11.1254547964
 20
10.8771132368
 30
0.0
 10
11.1256374866
 20
10.8769134332
 30
0.0
 10
11.1258717817
 20
10.8766996009
 30
0.0
 10
11.1261575217
 20
10.8764719742
 30
0.0
 10
11.1266331512
 20
10.8761320291
 30
0.0
 10
11.127356452
 20
10.8756815664
 30
0.0
 10
11.1283754558
 20
10.8751203368
 30
0.0
 10
11.1295786637
 20
10.8745189149
 30
0.0
 10
11.1304469296
 20
10.874117832
 30
0.0
 10
11.1309093574
 20
10.8739108512
 30
0.0
  0
SPLINE
  5
434
100
AcDbEntity
  8
0
100
AcDbSpline
 62
9
  6
CONTINUOUS
 70
0
 71
3
 72
34
 73
30
 74
0
 42
0.0000001
 43
0.0000001
 44
0.0000000001
 40
0.0
 40
0.0
 40
0.0
 40
0.0
 40
0.0432198598
 40
0.0660183603
 40
0.0895876289
 40
0.1139139499
 40
0.1389837119
 40
0.1647820986
 40
0.1912934756
 40
0.2185025961
 40
0.2463955742
 40
0.2749587911
 40
0.3041779686
 40
0.3340377334
 40
0.3645227358
 40
0.3956183462
 40
0.4273102617
 40
0.4595832486
 40
0.4924182267
 40
0.5257951312
 40
0.5596939707
 40
0.6289774381
 40
0.7001096623
 40
0.7729334735
 40
0.8099307148
 40
0.8472924613
 40
0.8850002133
 40
0.9230354887
 40
1.0
 40
1.0
 40
1.0
 40
1.0
 10
11.0036224205
 20
11.7760073051
 30
0.0
 10
11.0017541918
 20
11.7718238155
 30
0.0
 10
10.9989009277
 20
11.7654333278
 30
0.0
 10
10.9950199834
 20
11.7567654067
 30
0.0
 10
10.9919537412
 20
11.7499271919
 30
0.0
 10
10.9887927898
 20
11.742867572
 30
0.0
 10
10.9855472507
 20
11.7355869249
 30
0.0
 10
10.9822135797
 20
11.7280919639
 30
0.0
 10
10.9787819393
 20
11.7203923634
 30
0.0
 10
10.9752443908
 20
11.7124968828
 30
0.0
 10
10.9716119963
 20
11.7044055573
 30
0.0
 10
10.9678975636
 20
11.6961174894
 30
0.0
 10
10.9641059453
 20
11.6876355422
 30
0.0
 10
10.9602257702
 20
11.6789700249
 30
0.0
 10
10.9562457638
 20
11.6701312785
 30
0.0
 10
10.9521710793
 20
11.6611221798
 30
0.0
 10
10.9480158086
 20
11.6519415036
 30
0.0
 10
10.9437921272
 20
11.6425893966
 30
0.0
 10
10.9395073209
 20
11.6330689068
 30
0.0
 10
10.9351693208
 20
11.6233833673
 30
0.0
 10
10.9292786836
 20
11.6101595522
 30
0.0
 10
10.9218026797
 20
11.5932604555
 30
0.0
 10
10.9126944091
 20
11.5725713824
 30
0.0
 10
10.9049509482
 20
11.5550210749
 30
0.0
 10
10.8986253949
 20
11.540758144
 30
0.0
 10
10.8937895203
 20
11.5299068537
 30
0.0
 10
10.8888811721
 20
11.5189674176
 30
0.0
 10
10.8822049544
 20
11.504219819
 30
0.0
 10
10.877120696
 20
11.4931395083
 30
0.0
 10
10.8736970887
 20
11.4857336401
 30
0.0
  0
SPLINE
  5
435
100
AcDbEntity
  8
0
100
AcDbSpline
 62
9
  6
CONTINUOUS
 70
0
 71
3
 72
15
 73
11
 74
0
 42
0.0000001
 43
0.0000001
 44
0.0000000001
 40
0.0
 40
0.0
 40
0.0
 40
0.0
 40
0.1327634162
 40
0.2651397126
 40
0.3960737829
 40
0.5243719656
 40
0.6495978918
 40
0.7712918871
 40
0.8883749886
 40
1.0
 40
1.0
 40
1.0
 40
1.0
 10
11.0036224205
 20
11.7760073051
 30
0.0
 10
11.0306221557
 20
11.7629925086
 30
0.0
 10
11.0845506611
 20
11.7370169698
 30
0.0
 10
11.1651173194
 20
11.6982276633
 30
0.0
 10
11.2447662096
 20
11.6598559542
 30
0.0
 10
11.3229101781
 20
11.6220798909
 30
0.0
 10
11.399093877
 20
11.5850421964
 30
0.0
 10
11.4728876468
 20
11.5488799983
 30
0.0
 10
11.543742767
 20
11.5137008755
 30
0.0
 10
11.5898187182
 20
11.490396328
 30
0.0
 10
11.6122467789
 20
11.478904927
 30
0.0
  0
SPLINE
  5
436
100
AcDbEntity
  8
0
100
AcDbSpline
 62
9
  6
CONTINUOUS
 70
0
 71
3
 72
14
 73
10
 74
0
 42
0.0000001
 43
0.0000001
 44
0.0000000001
 40
0.0
 40
0.0
 40
0.0
 40
0.0
 40
0.1143532878
 40
0.2326490063
 40
0.3544146354
 40
0.4791972769
 40
0.60656255
 40
0.7360856909
 40
1.0
 40
1.0
 40
1.0
 40
1.0
 10
11.6122467789
 20
11.478904927
 30
0.0
 10
11.6113054037
 20
11.468394965
 30
0.0
 10
11.609125668
 20
11.4470354581
 30
0.0
 10
11.604985683
 20
11.4145911958
 30
0.0
 10
11.599843454
 20
11.3813157124
 30
0.0
 10
11.5936273527
 20
11.3473725507
 30
0.0
 10
11.5862658825
 20
11.3129252454
 30
0.0
 10
11.5747605079
 20
11.2662606805
 30
0.0
 10
11.564305102
 20
11.2314518295
 30
0.0
 10
11.5564283679
 20
11.2084079464
 30
0.0
  0
LINE
  5
437
100
AcDbEntity
  8
0
100
AcDbLine
 62
9
  6
CONTINUOUS
 10
11.6122467789
 20
11.478904927
 11
11.6502578476
 21
11.4593820171
  0
SPLINE
  5
438
100
AcDbEntity
  8
0
100
AcDbSpline
 62
9
  6
CONTINUOUS
 70
0
 71
3
 72
38
 73
34
 74
0
 42
0.0000001
 43
0.0000001
 44
0.0000000001
 40
0.0
 40
0.0
 40
0.0
 40
0.0
 40
0.1041741673
 40
0.2046422976
 40
0.3010321729
 40
0.3929618652
 40
0.4800407803
 40
0.5618705784
 40
0.6380459856
 40
0.7081555138
 40
0.7717826235
 40
0.8010345135
 40
0.8285081839
 40
0.8541505629
 40
0.8779083268
 40
0.8997279159
 40
0.9195555524
 40
0.9373372603
 40
0.9530188922
 40
0.9665461684
 40
0.9724849644
 40
0.9778647983
 40
0.9826788935
 40
0.9869204999
 40
0.9905829184
 40
0.9936595508
 40
0.9961440086
 40
0.9971623258
 40
0.9980304785
 40
0.9987479728
 40
0.9993146172
 40
0.9997309662
 40
1.0
 40
1.0
 40
1.0
 40
1.0
 10
11.6122467789
 20
11.478904927
 30
0.0
 10
11.6130838011
 20
11.4882498413
 30
0.0
 10
11.6145410122
 20
11.5066245084
 30
0.0
 10
11.6161554475
 20
11.5336900555
 30
0.0
 10
11.617223381
 20
11.5596788835
 30
0.0
 10
11.6178066342
 20
11.5844766745
 30
0.0
 10
11.6179670484
 20
11.6079692766
 30
0.0
 10
11.6177664645
 20
11.630042472
 30
0.0
 10
11.6172667521
 20
11.6505820533
 30
0.0
 10
11.6165297609
 20
11.6694738066
 30
0.0
 10
11.6157490961
 20
11.6841329396
 30
0.0
 10
11.6150563902
 20
11.6949502809
 30
0.0
 10
11.6145308556
 20
11.7023500774
 30
0.0
 10
11.613992401
 20
11.7092527138
 30
0.0
 10
11.6134488129
 20
11.7156440146
 30
0.0
 10
11.6129078975
 20
11.7215098024
 30
0.0
 10
11.612377464
 20
11.7268359013
 30
0.0
 10
11.6118653574
 20
11.7316081436
 30
0.0
 10
11.6113794001
 20
11.7358123544
 30
0.0
 10
11.6109876077
 20
11.7389536104
 30
0.0
 10
11.6106922842
 20
11.7411717658
 30
0.0
 10
11.6104919652
 20
11.7426108756
 30
0.0
 10
11.6103040415
 20
11.7438973539
 30
0.0
 10
11.6101295063
 20
11.7450294345
 30
0.0
 10
11.6099694198
 20
11.7460053746
 30
0.0
 10
11.6098247827
 20
11.7468234088
 30
0.0
 10
11.6097118881
 20
11.7474051837
 30
0.0
 10
11.6096288053
 20
11.7477899849
 30
0.0
 10
11.6095752494
 20
11.7480183489
 30
0.0
 10
11.6095263563
 20
11.7482058935
 30
0.0
 10
11.6094825064
 20
11.7483528375
 30
0.0
 10
11.6094436823
 20
11.7484584685
 30
0.0
 10
11.6094165077
 20
11.7485146768
 30
0.0
 10
11.6094018327
 20
11.7485339576
 30
0.0
  0
LINE
  5
439
100
AcDbEntity
  8
0
100
AcDbLine
 62
9
  6
CONTINUOUS
 10
11.0036224211
 20
11.7760073048
 11
11.018850301
 21
11.8099435094
  0
SPLINE
  5
43A
100
AcDbEntity
  8
0
100
AcDbSpline
 62
9
  6
CONTINUOUS
 70
0
 71
3
 72
55
 73
51
 74
0
 42
0.0000001
 43
0.0000001
 44
0.0000000001
 40
0.0
 40
0.0
 40
0.0
 40
0.0
 40
0.1171972963
 40
0.1731676661
 40
0.2273653208
 40
0.2797778754
 40
0.330394861
 40
0.3792059572
 40
0.4262016102
 40
0.4713725646
 40
0.5147091049
 40
0.5562001952
 40
0.5958249024
 40
0.6335577305
 40
0.65170781
 40
0.6693775859
 40
0.7032791026
 40
0.7352695431
 40
0.7505493595
 40
0.7653533713
 40
0.7935375198
 40
0.819825399
 40
0.8442157445
 40
0.8667025582
 40
0.8872761002
 40
0.8968392059
 40
0.9059047458
 40
0.9144605634
 40
0.9225038526
 40
0.930048341
 40
0.9371229573
 40
0.9437552895
 40
0.9499684134
 40
0.9557770267
 40
0.9611597385
 40
0.9660628066
 40
0.970420507
 40
0.9741845523
 40
0.9773537894
 40
0.9787400061
 40
0.9800238563
 40
0.9812476932
 40
0.9824724542
 40
0.9837716346
 40
0.9852198568
 40
0.9868835433
 40
0.9888173159
 40
0.9910636219
 40
0.9936571126
 40
1.0
 40
1.0
 40
1.0
 40
1.0
 10
11.018850301
 20
11.8099435094
 30
0.0
 10
11.0215022992
 20
11.8158256351
 30
0.0
 10
11.0254164444
 20
11.8245188955
 30
0.0
 10
11.0305256019
 20
11.8359464237
 30
0.0
 10
11.0341565982
 20
11.8441277978
 30
0.0
 10
11.0376524646
 20
11.852046661
 30
0.0
 10
11.0410301679
 20
11.8596935169
 30
0.0
 10
11.0443053633
 20
11.8670596203
 30
0.0
 10
11.0474910264
 20
11.8741373147
 30
0.0
 10
11.0505767425
 20
11.8809294025
 30
0.0
 10
11.0535532885
 20
11.8874381948
 30
0.0
 10
11.0564133194
 20
11.8936644891
 30
0.0
 10
11.0591344035
 20
11.8996151007
 30
0.0
 10
11.0612886855
 20
11.9044118345
 30
0.0
 10
11.0629132765
 20
11.9081211635
 30
0.0
 10
11.0644245491
 20
11.9116497164
 30
0.0
 10
11.0661908263
 20
11.9158977425
 30
0.0
 10
11.0678870985
 20
11.9200322216
 30
0.0
 10
11.0691994845
 20
11.9231877189
 30
0.0
 10
11.0704517369
 20
11.9261411985
 30
0.0
 10
11.0719838312
 20
11.9296341414
 30
0.0
 10
11.0737835452
 20
11.9335854825
 30
0.0
 10
11.075494708
 20
11.9372321518
 30
0.0
 10
11.0771007608
 20
11.9405804376
 30
0.0
 10
11.0783694945
 20
11.9431850728
 30
0.0
 10
11.0793183353
 20
11.9451235994
 30
0.0
 10
11.0799621199
 20
11.9464747885
 30
0.0
 10
11.0805384166
 20
11.9477651257
 30
0.0
 10
11.0810310767
 20
11.9490003418
 30
0.0
 10
11.0814196994
 20
11.9501869988
 30
0.0
 10
11.0817046614
 20
11.9513227933
 30
0.0
 10
11.0818955693
 20
11.9524036761
 30
0.0
 10
11.0820008197
 20
11.9534262727
 30
0.0
 10
11.0820267868
 20
11.9543848616
 30
0.0
 10
11.0820024313
 20
11.9552708455
 30
0.0
 10
11.0819593538
 20
11.956075835
 30
0.0
 10
11.0819285161
 20
11.9567924647
 30
0.0
 10
11.0819372159
 20
11.957414312
 30
0.0
 10
11.0819976475
 20
11.9578711066
 30
0.0
 10
11.0820956986
 20
11.9581782635
 30
0.0
 10
11.0821915894
 20
11.9583711721
 30
0.0
 10
11.0823174808
 20
11.9585354994
 30
0.0
 10
11.0824776301
 20
11.9586684489
 30
0.0
 10
11.0826744621
 20
11.9587675602
 30
0.0
 10
11.0829099476
 20
11.9588320283
 30
0.0
 10
11.0831870261
 20
11.9588619301
 30
0.0
 10
11.0835093116
 20
11.9588571352
 30
0.0
 10
11.0838804984
 20
11.9588173318
 30
0.0
 10
11.0844869086
 20
11.9587089921
 30
0.0
 10
11.0849631934
 20
11.9585823539
 30
0.0
 10
11.0852982508
 20
11.9584839486
 30
0.0
  0
SPLINE
  5
43B
100
AcDbEntity
  8
0
100
AcDbSpline
 62
7
  6
CONTINUOUS
 70
0
 71
3
 72
15
 73
11
 74
0
 42
0.0000001
 43
0.0000001
 44
0.0000000001
 40
0.0
 40
0.0
 40
0.0
 40
0.0
 40
0.1555066489
 40
0.3041931053
 40
0.4451436183
 40
0.5774137402
 40
0.7000342376
 40
0.8120144038
 40
0.9123448703
 40
1.0
 40
1.0
 40
1.0
 40
1.0
 10
11.6502578476
 20
11.4593820171
 30
0.0
 10
11.6511842388
 20
11.4709218349
 30
0.0
 10
11.6527050962
 20
11.4935197591
 30
0.0
 10
11.6541259933
 20
11.5266315546
 30
0.0
 10
11.6547659717
 20
11.5580370929
 30
0.0
 10
11.6547510972
 20
11.5875080993
 30
0.0
 10
11.65420745
 20
11.6148165688
 30
0.0
 10
11.6532611059
 20
11.6397343695
 30
0.0
 10
11.6520381205
 20
11.662033235
 30
0.0
 10
11.6510523506
 20
11.6759939985
 30
0.0
 10
11.6505409177
 20
11.6824995534
 30
0.0
  0
SPLINE
  5
43C
100
AcDbEntity
  8
0
100
AcDbSpline
 62
9
  6
CONTINUOUS
 70
0
 71
3
 72
48
 73
44
 74
0
 42
0.0000001
 43
0.0000001
 44
0.0000000001
 40
0.0
 40
0.0
 40
0.0
 40
0.0
 40
0.0256933817
 40
0.0387429848
 40
0.0519222749
 40
0.0652268023
 40
0.0786531719
 40
0.1058639697
 40
0.1335402342
 40
0.1616671044
 40
0.1902290113
 40
0.2192105728
 40
0.2485971818
 40
0.2634379029
 40
0.2783751687
 40
0.293408383
 40
0.3085370348
 40
0.323760711
 40
0.3390783801
 40
0.3544857933
 40
0.3699776628
 40
0.385548639
 40
0.3933621397
 40
0.4011935116
 40
0.4169095847
 40
0.4326972892
 40
0.4485571636
 40
0.464489745
 40
0.480495393
 40
0.4965724495
 40
0.5289301266
 40
0.5615412216
 40
0.5943850423
 40
0.6274417236
 40
0.6606914483
 40
0.6941146301
 40
0.7276925345
 40
0.7614103935
 40
0.7952544614
 40
0.8292085976
 40
0.8632551906
 40
0.9315546312
 40
1.0
 40
1.0
 40
1.0
 40
1.0
 10
11.5564283679
 20
11.2084079464
 30
0.0
 10
11.5504676898
 20
11.2104862205
 30
0.0
 10
11.541508098
 20
11.2137018892
 30
0.0
 10
11.5295354612
 20
11.2181053711
 30
0.0
 10
11.5204314411
 20
11.2214904439
 30
0.0
 10
11.5112463848
 20
11.2249230747
 30
0.0
 10
11.4988350263
 20
11.2295704482
 30
0.0
 10
11.4831239441
 20
11.2354748232
 30
0.0
 10
11.4640429866
 20
11.2426790328
 30
0.0
 10
11.4446621013
 20
11.2500285788
 30
0.0
 10
11.4249901043
 20
11.2575148617
 30
0.0
 10
11.4050362144
 20
11.2651305755
 30
0.0
 10
11.3882394437
 20
11.2715640018
 30
0.0
 10
11.3746696824
 20
11.2767755972
 30
0.0
 10
11.3643962136
 20
11.2807339209
 30
0.0
 10
11.3540645299
 20
11.2847378721
 30
0.0
 10
11.3436782265
 20
11.2887955217
 30
0.0
 10
11.3332411148
 20
11.2929150308
 30
0.0
 10
11.3227581228
 20
11.2971045475
 30
0.0
 10
11.3122246378
 20
11.3013451185
 30
0.0
 10
11.3016366791
 20
11.3056170051
 30
0.0
 10
11.2927754861
 20
11.3091822352
 30
0.0
 10
11.2856547268
 20
11.312030871
 30
0.0
 10
11.2784956994
 20
11.3148797932
 30
0.0
 10
11.2695079888
 20
11.3184320895
 30
0.0
 10
11.258679348
 20
11.3226929279
 30
0.0
 10
11.2478011949
 20
11.3269732121
 30
0.0
 10
11.2368795009
 20
11.3312890773
 30
0.0
 10
11.2259216655
 20
11.3356585485
 30
0.0
 10
11.2112334583
 20
11.3415678734
 30
0.0
 10
11.1927903711
 20
11.349074444
 30
0.0
 10
11.1705690598
 20
11.3582248934
 30
0.0
 10
11.148217673
 20
11.3675101486
 30
0.0
 10
11.1257437627
 20
11.3769092401
 30
0.0
 10
11.1031526992
 20
11.3863970227
 30
0.0
 10
11.0804459841
 20
11.3959401456
 30
0.0
 10
11.057623597
 20
11.4055048598
 30
0.0
 10
11.0347097556
 20
11.4151188926
 30
0.0
 10
11.0117299722
 20
11.424814604
 30
0.0
 10
10.9887064504
 20
11.4346141875
 30
0.0
 10
10.9579482742
 20
11.447856405
 30
0.0
 10
10.9195321163
 20
11.464739939
 30
0.0
 10
10.8889489878
 20
11.4786506974
 30
0.0
 10
10.873697084
 20
11.4857336422
 30
0.0
  0
SPLINE
  5
43D
100
AcDbEntity
  8
0
100
AcDbSpline
 62
9
  6
CONTINUOUS
 70
0
 71
3
 72
14
 73
10
 74
0
 42
0.0000001
 43
0.0000001
 44
0.0000000001
 40
0.0
 40
0.0
 40
0.0
 40
0.0
 40
0.1247303801
 40
0.2506232104
 40
0.5035014933
 40
0.6293532502
 40
0.7542127403
 40
0.8777894225
 40
1.0
 40
1.0
 40
1.0
 40
1.0
 10
11.3752967553
 20
10.8229791046
 30
0.0
 10
11.3827761653
 20
10.8390420799
 30
0.0
 10
11.3982680086
 20
10.8711023716
 30
0.0
 10
11.4305199795
 20
10.9349456399
 30
0.0
 10
11.4635521457
 20
10.9985697207
 30
0.0
 10
11.4953249995
 20
11.0626696283
 30
0.0
 10
11.5178490036
 20
11.1108416401
 30
0.0
 10
11.5385395035
 20
11.1592723025
 30
0.0
 10
11.5508022982
 20
11.1919838497
 30
0.0
 10
11.5564283679
 20
11.2084079464
 30
0.0
  0
LINE
  5
43E
100
AcDbEntity
  8
0
100
AcDbLine
 62
9
  6
CONTINUOUS
 10
11.5564283681
 20
11.208407947
 11
11.5973884122
 21
11.1935094982
  0
SPLINE
  5
43F
100
AcDbEntity
  8
0
100
AcDbSpline
 62
9
  6
CONTINUOUS
 70
0
 71
3
 72
15
 73
11
 74
0
 42
0.0000001
 43
0.0000001
 44
0.0000000001
 40
0.0
 40
0.0
 40
0.0
 40
0.0
 40
0.1253354213
 40
0.2513420865
 40
0.3776285907
 40
0.5037743882
 40
0.6293734625
 40
0.7540786973
 40
0.8776489189
 40
1.0
 40
1.0
 40
1.0
 40
1.0
 10
11.4100683009
 20
10.8074154991
 30
0.0
 10
11.4179011261
 20
10.8235601403
 30
0.0
 10
11.4340813341
 20
10.8557069572
 30
0.0
 10
11.4592500961
 20
10.9035578511
 30
0.0
 10
11.4848127775
 20
10.9513301097
 30
0.0
 10
11.5101785971
 20
10.9991418025
 30
0.0
 10
11.5347569008
 20
11.0471118082
 30
0.0
 10
11.5579564227
 20
11.0953609593
 30
0.0
 10
11.5791831737
 20
11.1440089474
 30
0.0
 10
11.5916810855
 20
11.1769481795
 30
0.0
 10
11.5973884122
 20
11.1935094982
 30
0.0
  0
SPLINE
  5
440
100
AcDbEntity
  8
0
100
AcDbSpline
 62
9
  6
CONTINUOUS
 70
0
 71
3
 72
108
 73
104
 74
0
 42
0.0000001
 43
0.0000001
 44
0.0000000001
 40
0.0
 40
0.0
 40
0.0
 40
0.0
 40
0.0122240375
 40
0.0244634762
 40
0.0305981734
 40
0.0367408578
 40
0.0428878252
 40
0.0490343892
 40
0.0551757287
 40
0.0582431318
 40
0.0613080799
 40
0.067431469
 40
0.0735475288
 40
0.0796574799
 40
0.0857622154
 40
0.0979583639
 40
0.1040505565
 40
0.1101391941
 40
0.1162245452
 40
0.1223066129
 40
0.1344595531
 40
0.1465950738
 40
0.158709965
 40
0.1708009054
 40
0.1828650374
 40
0.1949006586
 40
0.2188801615
 40
0.2308209217
 40
0.2427267744
 40
0.2664262791
 40
0.2899636946
 40
0.3133248676
 40
0.3364964797
 40
0.3594653302
 40
0.3822183992
 40
0.4270239353
 40
0.4708028526
 40
0.4922734967
 40
0.5134475737
 40
0.5343126457
 40
0.5548563489
 40
0.5750664361
 40
0.5949305999
 40
0.6144359932
 40
0.6335696822
 40
0.652321168
 40
0.6706820682
 40
0.7061837931
 40
0.7232946292
 40
0.7399680202
 40
0.748139464
 40
0.7561996291
 40
0.7719797381
 40
0.7872953703
 40
0.8021355644
 40
0.8164920178
 40
0.8303566315
 40
0.8437214052
 40
0.8565783827
 40
0.8807378902
 40
0.9027745067
 40
0.9129790136
 40
0.9226330834
 40
0.9317312957
 40
0.9402687797
 40
0.9482408311
 40
0.9556430184
 40
0.9624710347
 40
0.9687193893
 40
0.9743811549
 40
0.9794527844
 40
0.9817689924
 40
0.9839400636
 40
0.9859667542
 40
0.987846393
 40
0.9895740287
 40
0.9911450602
 40
0.9925562106
 40
0.9938098625
 40
0.9943808139
 40
0.994916178
 40
0.9954176161
 40
0.9958878306
 40
0.9963313692
 40
0.9967555497
 40
0.9971712539
 40
0.9975870809
 40
0.9979904267
 40
0.9981805363
 40
0.9983587636
 40
0.9985218701
 40
0.9986666629
 40
0.9987902081
 40
0.9988903156
 40
0.998966927
 40
0.9990264637
 40
0.9990888566
 40
0.9991290425
 40
0.9991778421
 40
0.9993064052
 40
0.9994826013
 40
0.9997121514
 40
1.0
 40
1.0
 40
1.0
 40
1.0
 10
10.8736970891
 20
11.4857336411
 30
0.0
 10
10.8699343631
 20
11.4868944552
 30
0.0
 10
10.8625159148
 20
11.4895868482
 30
0.0
 10
10.8535076656
 20
11.4935980154
 30
0.0
 10
10.8463998457
 20
11.4970410083
 30
0.0
 10
10.8410968183
 20
11.4997063652
 30
0.0
 10
10.8358116024
 20
11.5024149282
 30
0.0
 10
10.8305296704
 20
11.5051289178
 30
0.0
 10
10.8261173627
 20
11.5073647854
 30
0.0
 10
10.822573722
 20
11.5091182679
 30
0.0
 10
10.819022755
 20
11.5108436611
 30
0.0
 10
10.8145675935
 20
11.5129549711
 30
0.0
 10
10.8091980953
 20
11.5154264152
 30
0.0
 10
10.8038114869
 20
11.5178456375
 30
0.0
 10
10.7966148384
 20
11.5210146573
 30
0.0
 10
10.7893980262
 20
11.5241231216
 30
0.0
 10
10.7821791033
 20
11.5272132929
 30
0.0
 10
10.7767707143
 20
11.5295309589
 30
0.0
 10
10.7713713273
 20
11.5318613157
 30
0.0
 10
10.7641887888
 20
11.5349897983
 30
0.0
 10
10.7552350659
 20
11.5389322583
 30
0.0
 10
10.7445195605
 20
11.5436957232
 30
0.0
 10
10.7338302489
 20
11.5484688787
 30
0.0
 10
10.7231605728
 20
11.5532296137
 30
0.0
 10
10.7125054214
 20
11.5579601901
 30
0.0
 10
10.6983437937
 20
11.5642305619
 30
0.0
 10
10.6842146396
 20
11.5704761161
 30
0.0
 10
10.670133119
 20
11.5767259929
 30
0.0
 10
10.656141418
 20
11.5829558768
 30
0.0
 10
10.6387480517
 20
11.590729823
 30
0.0
 10
10.6179963962
 20
11.6000332026
 30
0.0
 10
10.597405992
 20
11.6092805695
 30
0.0
 10
10.5769871666
 20
11.6184629214
 30
0.0
 10
10.5567484524
 20
11.6275681679
 30
0.0
 10
10.5301489733
 20
11.6395206224
 30
0.0
 10
10.4974103585
 20
11.6541658934
 30
0.0
 10
10.4650461465
 20
11.6686364148
 30
0.0
 10
10.4396363432
 20
11.6800110416
 30
0.0
 10
10.4209655626
 20
11.6883743763
 30
0.0
 10
10.4025663944
 20
11.6966136551
 30
0.0
 10
10.3844474576
 20
11.7047189194
 30
0.0
 10
10.3666199621
 20
11.7126860974
 30
0.0
 10
10.3490947401
 20
11.7205098896
 30
0.0
 10
10.3318867263
 20
11.7281936529
 30
0.0
 10
10.3150127726
 20
11.7357464458
 30
0.0
 10
10.2984802962
 20
11.743159718
 30
0.0
 10
10.2771298985
 20
11.7527150296
 30
0.0
 10
10.2562449281
 20
11.7620165368
 30
0.0
 10
10.2358892974
 20
11.7711700512
 30
0.0
 10
10.2235664724
 20
11.7767204298
 30
0.0
 10
10.2138967686
 20
11.7810620216
 30
0.0
 10
10.2044852032
 20
11.7852760073
 30
0.0
 10
10.1929681765
 20
11.790419165
 30
0.0
 10
10.1794582227
 20
11.796455796
 30
0.0
 10
10.1663726163
 20
11.8023179546
 30
0.0
 10
10.1537146764
 20
11.807991468
 30
0.0
 10
10.1414887137
 20
11.8134667387
 30
0.0
 10
10.1297016571
 20
11.8187402742
 30
0.0
 10
10.1148841664
 20
11.8253607491
 30
0.0
 10
10.0975141361
 20
11.833116094
 30
0.0
 10
10.0809325153
 20
11.8405414594
 30
0.0
 10
10.0686215176
 20
11.8460706431
 30
0.0
 10
10.0601125894
 20
11.8498924612
 30
0.0
 10
10.0520910254
 20
11.8534887143
 30
0.0
 10
10.0445618994
 20
11.8568589007
 30
0.0
 10
10.0375301742
 20
11.860003059
 30
0.0
 10
10.0310002677
 20
11.8629204595
 30
0.0
 10
10.0249762239
 20
11.8656089147
 30
0.0
 10
10.0194644717
 20
11.8680696076
 30
0.0
 10
10.014474257
 20
11.8703106314
 30
0.0
 10
10.0106466903
 20
11.8720485921
 30
0.0
 10
10.0078380559
 20
11.8733107588
 30
0.0
 10
10.0059197325
 20
11.8741611425
 30
0.0
 10
10.0041222947
 20
11.8749369874
 30
0.0
 10
10.0024521653
 20
11.8756471682
 30
0.0
 10
10.0009206404
 20
11.8763082886
 30
0.0
 10
9.9995386641
 20
11.8769345637
 30
0.0
 10
9.9983161391
 20
11.8775420942
 30
0.0
 10
9.9974109713
 20
11.8780595106
 30
0.0
 10
9.9967530491
 20
11.8784403186
 30
0.0
 10
9.9963012974
 20
11.8786936767
 30
0.0
 10
9.995870154
 20
11.8789171134
 30
0.0
 10
9.9954538637
 20
11.8791038041
 30
0.0
 10
9.9950465007
 20
11.8792466419
 30
0.0
 10
9.9946421965
 20
11.8793383262
 30
0.0
 10
9.9942371764
 20
11.8793697846
 30
0.0
 10
9.9938395045
 20
11.8793378928
 30
0.0
 10
9.9935190549
 20
11.8792819025
 30
0.0
 10
9.9932758703
 20
11.8792303585
 30
0.0
 10
9.9931087885
 20
11.8791930703
 30
0.0
 10
9.9929558301
 20
11.8791594828
 30
0.0
 10
9.9928194338
 20
11.8791327611
 30
0.0
 10
9.9927018577
 20
11.8791156477
 30
0.0
 10
9.9926050263
 20
11.8791115954
 30
0.0
 10
9.992528767
 20
11.8791219741
 30
0.0
 10
9.9924719707
 20
11.879159953
 30
0.0
 10
9.9924594985
 20
11.8792147652
 30
0.0
 10
9.9924647309
 20
11.8792631379
 30
0.0
 10
9.9924826644
 20
11.8793312182
 30
0.0
 10
9.9925305691
 20
11.879435133
 30
0.0
 10
9.99261867
 20
11.8795830937
 30
0.0
 10
9.9927454881
 20
11.8797672054
 30
0.0
 10
9.9928456041
 20
11.8799004825
 30
0.0
 10
9.9929022139
 20
11.8799739204
 30
0.0
  0
SPLINE
  5
441
100
AcDbEntity
  8
0
100
AcDbSpline
 62
9
  6
CONTINUOUS
 70
0
 71
3
 72
23
 73
19
 74
0
 42
0.0000001
 43
0.0000001
 44
0.0000000001
 40
0.0
 40
0.0
 40
0.0
 40
0.0
 40
0.0413680067
 40
0.0873899058
 40
0.1375666885
 40
0.1913963573
 40
0.2483981141
 40
0.3081791356
 40
0.3703647715
 40
0.4345784446
 40
0.5004864708
 40
0.567927369
 40
0.6367874905
 40
0.7069610216
 40
0.7783653719
 40
0.8509863597
 40
0.9248471257
 40
1.0
 40
1.0
 40
1.0
 40
1.0
 10
11.5361927576
 20
10.750962694
 30
0.0
 10
11.5393935754
 20
10.7562972254
 30
0.0
 10
11.5462951013
 20
10.7674827057
 30
0.0
 10
11.5574761487
 20
10.7848898799
 30
0.0
 10
11.5699535908
 20
10.8036886062
 30
0.0
 10
11.5836049613
 20
10.8236873791
 30
0.0
 10
11.598315515
 20
10.844709506
 30
0.0
 10
11.6138932423
 20
10.866657414
 30
0.0
 10
11.6301579585
 20
10.8894475066
 30
0.0
 10
11.6469342508
 20
10.9130045099
 30
0.0
 10
11.6640647158
 20
10.9372793749
 30
0.0
 10
11.6814036802
 20
10.9622615291
 30
0.0
 10
11.6988240811
 20
10.9879661351
 30
0.0
 10
11.7162035754
 20
11.0144151357
 30
0.0
 10
11.7334248461
 20
11.0416399647
 30
0.0
 10
11.75032355
 20
11.0697169899
 30
0.0
 10
11.7667403388
 20
11.0987291148
 30
0.0
 10
11.7771641503
 20
11.1185722599
 30
0.0
 10
11.7822440028
 20
11.1286681676
 30
0.0
  0
SPLINE
  5
442
100
AcDbEntity
  8
0
100
AcDbSpline
 62
9
  6
CONTINUOUS
 70
0
 71
3
 72
19
 73
15
 74
0
 42
0.0000001
 43
0.0000001
 44
0.0000000001
 40
0.0
 40
0.0
 40
0.0
 40
0.0
 40
0.0575408776
 40
0.116402816
 40
0.1764053341
 40
0.2373618051
 40
0.2990917483
 40
0.3614540643
 40
0.4875375336
 40
0.614662432
 40
0.7424501564
 40
0.8707999854
 40
0.9352641434
 40
1.0
 40
1.0
 40
1.0
 40
1.0
 10
11.4459004764
 20
10.7913771599
 30
0.0
 10
11.4493062783
 20
10.798948795
 30
0.0
 10
11.4563556557
 20
10.81419446
 30
0.0
 10
11.4674395877
 20
10.8371083264
 30
0.0
 10
11.4790798603
 20
10.8602972056
 30
0.0
 10
11.4911928831
 20
10.8837093098
 30
0.0
 10
11.5036986204
 20
10.9072998182
 30
0.0
 10
11.5208127229
 20
10.9390819814
 30
0.0
 10
11.5425892617
 20
10.9790692423
 30
0.0
 10
11.5685619714
 20
11.0275208413
 30
0.0
 10
11.5937547971
 20
11.0767537739
 30
0.0
 10
11.6135213367
 20
11.1185916016
 30
0.0
 10
11.6282025354
 20
11.152733363
 30
0.0
 10
11.6350980244
 20
11.1700563961
 30
0.0
 10
11.6384182134
 20
11.1787868702
 30
0.0
  0
LINE
  5
443
100
AcDbEntity
  8
0
100
AcDbLine
 62
7
  6
CONTINUOUS
 10
11.9362401157
 20
10.595950682
 11
12.0808388288
 21
10.7172820026
  0
SPLINE
  5
444
100
AcDbEntity
  8
0
100
AcDbSpline
 62
7
  6
CONTINUOUS
 70
0
 71
3
 72
22
 73
18
 74
0
 42
0.0000001
 43
0.0000001
 44
0.0000000001
 40
0.0
 40
0.0
 40
0.0
 40
0.0
 40
0.0124763896
 40
0.0207602179
 40
0.030607517
 40
0.0420937716
 40
0.0552517656
 40
0.0866237079
 40
0.1248314617
 40
0.1699000286
 40
0.2218611542
 40
0.2807243358
 40
0.3465111224
 40
0.4192337428
 40
0.5856088489
 40
0.7795183424
 40
1.0
 40
1.0
 40
1.0
 40
1.0
 10
14.8076093298
 20
7.2093374309
 30
0.0
 10
14.8076956252
 20
7.2092810355
 30
0.0
 10
14.807876409
 20
7.2092505265
 30
0.0
 10
14.8081268858
 20
7.2092731478
 30
0.0
 10
14.8083666376
 20
7.2093280248
 30
0.0
 10
14.8086365101
 20
7.2094201525
 30
0.0
 10
14.8090614322
 20
7.2096048851
 30
0.0
 10
14.8096581119
 20
7.2099418132
 30
0.0
 10
14.8104385734
 20
7.2104801464
 30
0.0
 10
14.8113126233
 20
7.2111774935
 30
0.0
 10
14.8122773023
 20
7.2120316811
 30
0.0
 10
14.8133309388
 20
7.2130417168
 30
0.0
 10
14.8144773015
 20
7.2142018401
 30
0.0
 10
14.816215323
 20
7.2160255381
 30
0.0
 10
14.8186523094
 20
7.2186451058
 30
0.0
 10
14.8219941947
 20
7.2220897367
 30
0.0
 10
14.824517383
 20
7.2244104836
 30
0.0
 10
14.8259129466
 20
7.2255815005
 30
0.0
  0
SPLINE
  5
445
100
AcDbEntity
  8
0
100
AcDbSpline
 62
9
  6
CONTINUOUS
 70
0
 71
3
 72
46
 73
42
 74
0
 42
0.0000001
 43
0.0000001
 44
0.0000000001
 40
0.0
 40
0.0
 40
0.0
 40
0.0
 40
0.0001584725
 40
0.0002927176
 40
0.0004696456
 40
0.0006907325
 40
0.0009566101
 40
0.0012675435
 40
0.0016236158
 40
0.0024710256
 40
0.0034981529
 40
0.0047038348
 40
0.0060867084
 40
0.0093780791
 40
0.0133599438
 40
0.0180195257
 40
0.0233438726
 40
0.0293199552
 40
0.0359347152
 40
0.0431750903
 40
0.0510280297
 40
0.0594805037
 40
0.0685195102
 40
0.0883052595
 40
0.1102819957
 40
0.134347114
 40
0.160398785
 40
0.1883360386
 40
0.2180588483
 40
0.2494682206
 40
0.2824662917
 40
0.3169564324
 40
0.3528433631
 40
0.3900332812
 40
0.4679531224
 40
0.5500021722
 40
0.6354994249
 40
0.7238053193
 40
0.814330541
 40
0.9065468099
 40
1.0
 40
1.0
 40
1.0
 40
1.0
 10
11.7093986786
 20
11.6944840829
 30
0.0
 10
11.7093711734
 20
11.6944809729
 30
0.0
 10
11.7093354835
 20
11.6944301952
 30
0.0
 10
11.7093081812
 20
11.6943563659
 30
0.0
 10
11.7092842214
 20
11.69426517
 30
0.0
 10
11.7092633484
 20
11.6941514883
 30
0.0
 10
11.7092442795
 20
11.6940132417
 30
0.0
 10
11.7092274905
 20
11.6938511904
 30
0.0
 10
11.7092067065
 20
11.6935874433
 30
0.0
 10
11.7091875034
 20
11.6931982375
 30
0.0
 10
11.7091732975
 20
11.6926603736
 30
0.0
 10
11.7091666925
 20
11.6920288349
 30
0.0
 10
11.7091676364
 20
11.6910017701
 30
0.0
 10
11.7091883928
 20
11.6894898962
 30
0.0
 10
11.7092354328
 20
11.6874061067
 30
0.0
 10
11.7093032296
 20
11.6849676273
 30
0.0
 10
11.7093884936
 20
11.6821811861
 30
0.0
 10
11.7094880083
 20
11.6790535116
 30
0.0
 10
11.7095984577
 20
11.6755913422
 30
0.0
 10
11.7097165167
 20
11.6718014173
 30
0.0
 10
11.7098388405
 20
11.667690478
 30
0.0
 10
11.7099620717
 20
11.6632652647
 30
0.0
 10
11.7101282031
 20
11.6567561432
 30
0.0
 10
11.7103177489
 20
11.6478845845
 30
0.0
 10
11.7104884145
 20
11.6363876111
 30
0.0
 10
11.7105818758
 20
11.6237952094
 30
0.0
 10
11.7105712089
 20
11.6101613
 30
0.0
 10
11.7104294852
 20
11.5955397992
 30
0.0
 10
11.7101297488
 20
11.5799846204
 30
0.0
 10
11.7096450339
 20
11.5635496747
 30
0.0
 10
11.7089483657
 20
11.5462888659
 30
0.0
 10
11.7080127621
 20
11.5282561092
 30
0.0
 10
11.7068112427
 20
11.5095052549
 30
0.0
 10
11.7047870138
 20
11.4832077647
 30
0.0
 10
11.7014368062
 20
11.4489282128
 30
0.0
 10
11.6959863149
 20
11.4063932648
 30
0.0
 10
11.6888293155
 20
11.362270834
 30
0.0
 10
11.679749662
 20
11.3169901216
 30
0.0
 10
11.6685303598
 20
11.2709789194
 30
0.0
 10
11.6549545495
 20
11.2246669952
 30
0.0
 10
11.6442425934
 20
11.194035938
 30
0.0
 10
11.6384182134
 20
11.1787868702
 30
0.0
  0
SPLINE
  5
446
100
AcDbEntity
  8
0
100
AcDbSpline
 62
7
  6
CONTINUOUS
 70
0
 71
3
 72
12
 73
8
 74
0
 42
0.0000001
 43
0.0000001
 44
0.0000000001
 40
0.0
 40
0.0
 40
0.0
 40
0.0
 40
0.2609272042
 40
0.3895553231
 40
0.5165230663
 40
0.7639634079
 40
1.0
 40
1.0
 40
1.0
 40
1.0
 10
11.5973898056
 20
11.1935135416
 30
0.0
 10
11.6050904244
 20
11.2158592884
 30
0.0
 10
11.6152074828
 20
11.2497134895
 30
0.0
 10
11.6261615418
 20
11.2952062634
 30
0.0
 10
11.6353480514
 20
11.3398449874
 30
0.0
 10
11.6440025941
 20
11.3944917696
 30
0.0
 10
11.6485469525
 20
11.4380698343
 30
0.0
 10
11.6502578476
 20
11.4593820171
 30
0.0
  0
SPLINE
  5
447
100
AcDbEntity
  8
0
100
AcDbSpline
 62
9
  6
CONTINUOUS
 70
0
 71
3
 72
40
 73
36
 74
0
 42
0.0000001
 43
0.0000001
 44
0.0000000001
 40
0.0
 40
0.0
 40
0.0
 40
0.0
 40
0.2245314563
 40
0.3271039919
 40
0.4230168855
 40
0.512121538
 40
0.5942688881
 40
0.6693094303
 40
0.7370932314
 40
0.7974699467
 40
0.8248335681
 40
0.8502888589
 40
0.873816917
 40
0.8953988171
 40
0.9150156118
 40
0.932648331
 40
0.9482779833
 40
0.9618855558
 40
0.9734520146
 40
0.9784638731
 40
0.9829583061
 40
0.9869329287
 40
0.9903853547
 40
0.9933131965
 40
0.9957140656
 40
0.9967161387
 40
0.9975855722
 40
0.9983220674
 40
0.9989253252
 40
0.9993950465
 40
0.9997309322
 40
0.9998485933
 40
0.9999326832
 40
0.9999831646
 40
1.0
 40
1.0
 40
1.0
 40
1.0
 10
11.6505409177
 20
11.6824995534
 30
0.0
 10
11.650264017
 20
11.6860217988
 30
0.0
 10
11.6498384517
 20
11.6911514107
 30
0.0
 10
11.6492431542
 20
11.6977811308
 30
0.0
 10
11.6488190285
 20
11.7022865984
 30
0.0
 10
11.648407363
 20
11.7064703771
 30
0.0
 10
11.6480118993
 20
11.7103256928
 30
0.0
 10
11.6476363827
 20
11.7138457695
 30
0.0
 10
11.6472845556
 20
11.7170238309
 30
0.0
 10
11.647005793
 20
11.7194551579
 30
0.0
 10
11.6467976502
 20
11.7212241445
 30
0.0
 10
11.646654996
 20
11.7224170026
 30
0.0
 10
11.6465210703
 20
11.723519276
 30
0.0
 10
11.6463963407
 20
11.7245301177
 30
0.0
 10
11.6462812753
 20
11.7254486805
 30
0.0
 10
11.6461763423
 20
11.7262741176
 30
0.0
 10
11.6460820097
 20
11.727005582
 30
0.0
 10
11.6459987453
 20
11.7276422265
 30
0.0
 10
11.6459363136
 20
11.7281130958
 30
0.0
 10
11.6458922761
 20
11.7284417486
 30
0.0
 10
11.6458639192
 20
11.7286519736
 30
0.0
 10
11.6458386803
 20
11.7288378584
 30
0.0
 10
11.6458166182
 20
11.7289992972
 30
0.0
 10
11.6457977905
 20
11.7291361838
 30
0.0
 10
11.6457841333
 20
11.7292348617
 30
0.0
 10
11.6457748697
 20
11.7293014475
 30
0.0
 10
11.6457692012
 20
11.7293420943
 30
0.0
 10
11.6457643738
 20
11.7293765143
 30
0.0
 10
11.6457604388
 20
11.7294047302
 30
0.0
 10
11.6457572859
 20
11.7294266328
 30
0.0
 10
11.6457553812
 20
11.7294411216
 30
0.0
 10
11.6457540239
 20
11.7294493588
 30
0.0
 10
11.6457537482
 20
11.7294535176
 30
0.0
 10
11.6457529155
 20
11.7294554715
 30
0.0
 10
11.6457532821
 20
11.7294569397
 30
0.0
 10
11.6457530329
 20
11.7294570296
 30
0.0
  0
SPLINE
  5
448
100
AcDbEntity
  8
0
100
AcDbSpline
 62
9
  6
CONTINUOUS
 70
0
 71
3
 72
44
 73
40
 74
0
 42
0.0000001
 43
0.0000001
 44
0.0000000001
 40
0.0
 40
0.0
 40
0.0
 40
0.0
 40
0.000143029
 40
0.0002937148
 40
0.0004649029
 40
0.0006653985
 40
0.001173173
 40
0.0018404648
 40
0.0026755839
 40
0.0036818253
 40
0.0048603153
 40
0.0062111153
 40
0.0077337083
 40
0.0094272388
 40
0.0133226502
 40
0.0178875132
 40
0.0231107675
 40
0.0289807838
 40
0.035485616
 40
0.0426131348
 40
0.0503511024
 40
0.0676091479
 40
0.0871610624
 40
0.1089081172
 40
0.132751853
 40
0.1585942605
 40
0.1863379076
 40
0.2158860432
 40
0.247142691
 40
0.2800127392
 40
0.3144020331
 40
0.3873660703
 40
0.4653052053
 40
0.5475114513
 40
0.6333037003
 40
0.7220332734
 40
0.8130907351
 40
0.9059142759
 40
1.0
 40
1.0
 40
1.0
 40
1.0
 10
11.9070934729
 20
11.5722104732
 30
0.0
 10
11.9070718201
 20
11.5722147589
 30
0.0
 10
11.9070255273
 20
11.5722162488
 30
0.0
 10
11.9069559661
 20
11.572194857
 30
0.0
 10
11.9068871151
 20
11.5721516384
 30
0.0
 10
11.9067875633
 20
11.5720585626
 30
0.0
 10
11.9066652411
 20
11.5718829347
 30
0.0
 10
11.9065241404
 20
11.5716063879
 30
0.0
 10
11.9063782946
 20
11.5712473153
 30
0.0
 10
11.9062275823
 20
11.5708061918
 30
0.0
 10
11.9060719007
 20
11.5702831336
 30
0.0
 10
11.9059111372
 20
11.5696787872
 30
0.0
 10
11.9057451195
 20
11.5689937866
 30
0.0
 10
11.9055051738
 20
11.5679228155
 30
0.0
 10
11.9051949434
 20
11.5663867015
 30
0.0
 10
11.9048129904
 20
11.5643097796
 30
0.0
 10
11.9044046427
 20
11.5619280625
 30
0.0
 10
11.9039681381
 20
11.5592475429
 30
0.0
 10
11.9035017736
 20
11.5562742011
 30
0.0
 10
11.9030037328
 20
11.553014067
 30
0.0
 10
11.9022679003
 20
11.5481115481
 30
0.0
 10
11.9012628633
 20
11.5413105946
 30
0.0
 10
11.8999397373
 20
11.5323712342
 30
0.0
 10
11.8984450634
 20
11.5224298735
 30
0.0
 10
11.8967639972
 20
11.5115349145
 30
0.0
 10
11.8948817163
 20
11.4997347638
 30
0.0
 10
11.8927832975
 20
11.4870778487
 30
0.0
 10
11.8904537901
 20
11.4736125998
 30
0.0
 10
11.8878782165
 20
11.4593874576
 30
0.0
 10
11.8850415757
 20
11.444450838
 30
0.0
 10
11.8808070567
 20
11.4232291048
 30
0.0
 10
11.8747841598
 20
11.3952731564
 30
0.0
 10
11.8664107254
 20
11.3602833429
 30
0.0
 10
11.8566353076
 20
11.3236049453
 30
0.0
 10
11.8453377884
 20
11.2856242312
 30
0.0
 10
11.8323978102
 20
11.2467271459
 30
0.0
 10
11.8176944276
 20
11.207298912
 30
0.0
 10
11.8011069597
 20
11.1677259489
 30
0.0
 10
11.7887738187
 20
11.1416366893
 30
0.0
 10
11.7822440028
 20
11.1286681676
 30
0.0
  0
SPLINE
  5
449
100
AcDbEntity
  8
0
100
AcDbSpline
 62
7
  6
CONTINUOUS
 70
0
 71
3
 72
16
 73
12
 74
0
 42
0.0000001
 43
0.0000001
 44
0.0000000001
 40
0.0
 40
0.0
 40
0.0
 40
0.0
 40
0.1286475415
 40
0.2563416803
 40
0.3198143601
 40
0.3830289422
 40
0.5086672403
 40
0.6332253457
 40
0.7566649717
 40
0.8789391375
 40
1.0
 40
1.0
 40
1.0
 40
1.0
 10
11.8898871979
 20
11.0861347139
 30
0.0
 10
11.8853639414
 20
11.0881825585
 30
0.0
 10
11.8763280104
 20
11.0922126492
 30
0.0
 10
11.8649937029
 20
11.0971016838
 30
0.0
 10
11.8559399441
 20
11.1008995921
 30
0.0
 10
11.8469331435
 20
11.1046036964
 30
0.0
 10
11.835699665
 20
11.1090912565
 30
0.0
 10
11.8222433599
 20
11.1142771251
 30
0.0
 10
11.8088543452
 20
11.119274221
 30
0.0
 10
11.7955387176
 20
11.1240795751
 30
0.0
 10
11.7866672159
 20
11.1271626184
 30
0.0
 10
11.7822440028
 20
11.1286681676
 30
0.0
  0
SPLINE
  5
44A
100
AcDbEntity
  8
0
100
AcDbSpline
 62
7
  6
CONTINUOUS
 70
0
 71
3
 72
12
 73
8
 74
0
 42
0.0000001
 43
0.0000001
 44
0.0000000001
 40
0.0
 40
0.0
 40
0.0
 40
0.0
 40
0.2547744324
 40
0.5068091249
 40
0.6315907813
 40
0.7554301324
 40
1.0
 40
1.0
 40
1.0
 40
1.0
 10
12.034476992
 20
11.0084540356
 30
0.0
 10
12.0226596936
 20
11.0158674323
 30
0.0
 10
11.9989178259
 20
11.0302453799
 30
0.0
 10
11.9687444323
 20
11.0471565412
 30
0.0
 10
11.9445099242
 20
11.0599722848
 30
0.0
 10
11.9203947528
 20
11.0721307949
 30
0.0
 10
11.9020865876
 20
11.0806116015
 30
0.0
 10
11.8898871979
 20
11.0861347139
 30
0.0
  0
SPLINE
  5
44B
100
AcDbEntity
  8
0
100
AcDbSpline
 62
9
  6
CONTINUOUS
 70
0
 71
3
 72
13
 73
9
 74
0
 42
0.0000001
 43
0.0000001
 44
0.0000000001
 40
0.0
 40
0.0
 40
0.0
 40
0.0
 40
0.2508702975
 40
0.3761213818
 40
0.5012293829
 40
0.626185049
 40
0.7509764267
 40
1.0
 40
1.0
 40
1.0
 40
1.0
 10
12.092678994
 20
10.9694408644
 30
0.0
 10
12.0879118691
 20
10.9728488089
 30
0.0
 10
12.0807193164
 20
10.9778951551
 30
0.0
 10
12.0710522129
 20
10.9845002563
 30
0.0
 10
12.0637761751
 20
10.9893909059
 30
0.0
 10
12.056477501
 20
10.9942282419
 30
0.0
 10
12.0467318843
 20
11.0006126423
 30
0.0
 10
12.0393884005
 20
11.0053373175
 30
0.0
 10
12.0344769949
 20
11.0084540394
 30
0.0
  0
SPLINE
  5
44C
100
AcDbEntity
  8
0
100
AcDbSpline
 62
7
  6
CONTINUOUS
 70
0
 71
3
 72
19
 73
15
 74
0
 42
0.0000001
 43
0.0000001
 44
0.0000000001
 40
0.0
 40
0.0
 40
0.0
 40
0.0
 40
0.0193040685
 40
0.0410890689
 40
0.0676084442
 40
0.1001112781
 40
0.1392087204
 40
0.1851829803
 40
0.2381143827
 40
0.2979696812
 40
0.437881035
 40
0.6032490346
 40
0.7916418322
 40
1.0
 40
1.0
 40
1.0
 40
1.0
 10
10.9916784153
 20
10.9385066569
 30
0.0
 10
10.9916467073
 20
10.9384358243
 30
0.0
 10
10.9916128977
 20
10.9382682549
 30
0.0
 10
10.9916674425
 20
10.9379971318
 30
0.0
 10
10.9918133622
 20
10.9377043022
 30
0.0
 10
10.9920484579
 20
10.9373859393
 30
0.0
 10
10.9923725732
 20
10.9370408699
 30
0.0
 10
10.992785594
 20
10.9366697271
 30
0.0
 10
10.9932865123
 20
10.9362736834
 30
0.0
 10
10.9941137324
 20
10.9356834481
 30
0.0
 10
10.9953591427
 20
10.9349041834
 30
0.0
 10
10.9970950305
 20
10.9339409897
 30
0.0
 10
10.9991140623
 20
10.9329248342
 30
0.0
 10
11.0005614513
 20
10.9322540554
 30
0.0
 10
11.0013259961
 20
10.9319118482
 30
0.0
  0
SPLINE
  5
44D
100
AcDbEntity
  8
0
100
AcDbSpline
 62
7
  6
CONTINUOUS
 70
0
 71
3
 72
22
 73
18
 74
0
 42
0.0000001
 43
0.0000001
 44
0.0000000001
 40
0.0
 40
0.0
 40
0.0
 40
0.0
 40
0.0090078065
 40
0.0184112258
 40
0.0286317738
 40
0.039996858
 40
0.0669930994
 40
0.1005606666
 40
0.1411574742
 40
0.1889064636
 40
0.243747602
 40
0.3054910145
 40
0.3738528191
 40
0.4484760519
 40
0.6147264345
 40
0.8001666734
 40
1.0
 40
1.0
 40
1.0
 40
1.0
 10
10.8361166646
 20
11.0092199705
 30
0.0
 10
10.8360947951
 20
11.0091711251
 30
0.0
 10
10.836062029
 20
11.0090654828
 30
0.0
 10
10.8360504988
 20
11.0088944707
 30
0.0
 10
10.8360752896
 20
11.0087109802
 30
0.0
 10
10.8361608552
 20
11.0084342416
 30
0.0
 10
10.8363688808
 20
11.0080567056
 30
0.0
 10
10.8367398186
 20
11.0075822707
 30
0.0
 10
10.8372457374
 20
11.0070623633
 30
0.0
 10
10.8378846574
 20
11.00649983
 30
0.0
 10
10.8386539304
 20
11.0058978962
 30
0.0
 10
10.8395493702
 20
11.0052605383
 30
0.0
 10
10.8405657695
 20
11.0045919662
 30
0.0
 10
10.8421313248
 20
11.0036300075
 30
0.0
 10
10.8443420559
 20
11.0023917667
 30
0.0
 10
10.8472638303
 20
11.0009070035
 30
0.0
 10
10.8493393137
 20
10.9999404826
 30
0.0
 10
10.8504229758
 20
10.9994554398
 30
0.0
  0
SPLINE
  5
44E
100
AcDbEntity
  8
0
100
AcDbSpline
 62
7
  6
CONTINUOUS
 70
0
 71
3
 72
24
 73
20
 74
0
 42
0.0000001
 43
0.0000001
 44
0.0000000001
 40
0.0
 40
0.0
 40
0.0
 40
0.0
 40
0.0083260018
 40
0.0172472953
 40
0.0272376522
 40
0.0386325361
 40
0.0516478
 40
0.0664165623
 40
0.1014823481
 40
0.1441058226
 40
0.1942183961
 40
0.2515654879
 40
0.3157577669
 40
0.3863008392
 40
0.4626114827
 40
0.5440251835
 40
0.6298080901
 40
0.8112307383
 40
1.0
 40
1.0
 40
1.0
 40
1.0
 10
10.669174777
 20
11.0850967473
 30
0.0
 10
10.6691476088
 20
11.0850360639
 30
0.0
 10
10.6691092201
 20
11.0849016684
 30
0.0
 10
10.6691057606
 20
11.0846822469
 30
0.0
 10
10.6691532362
 20
11.0844434903
 30
0.0
 10
10.6692503529
 20
11.0841855539
 30
0.0
 10
10.6693963681
 20
11.0839081567
 30
0.0
 10
10.6696721798
 20
11.0834881423
 30
0.0
 10
10.6701481153
 20
11.0829208577
 30
0.0
 10
10.6708758548
 20
11.0822041939
 30
0.0
 10
10.6717859711
 20
11.0814232191
 30
0.0
 10
10.6728712006
 20
11.0805851334
 30
0.0
 10
10.6741228036
 20
11.0796977981
 30
0.0
 10
10.6755298901
 20
11.0787697468
 30
0.0
 10
10.6770798803
 20
11.077810035
 30
0.0
 10
10.6787584813
 20
11.0768280832
 30
0.0
 10
10.681192745
 20
11.075476936
 30
0.0
 10
10.6844312162
 20
11.0738102611
 30
0.0
 10
10.6871082026
 20
11.0725544826
 30
0.0
 10
10.6884840879
 20
11.0719386418
 30
0.0
  0
SPLINE
  5
44F
100
AcDbEntity
  8
0
100
AcDbSpline
 62
7
  6
CONTINUOUS
 70
0
 71
3
 72
22
 73
18
 74
0
 42
0.0000001
 43
0.0000001
 44
0.0000000001
 40
0.0
 40
0.0
 40
0.0
 40
0.0
 40
0.0060260515
 40
0.011358954
 40
0.0184794085
 40
0.0274471046
 40
0.038290209
 40
0.0510240086
 40
0.0656603642
 40
0.1006723464
 40
0.1433692712
 40
0.1937837151
 40
0.2519724329
 40
0.3918899875
 40
0.5632076106
 40
0.7658624001
 40
1.0
 40
1.0
 40
1.0
 40
1.0
 10
14.7939257493
 20
7.1966634958
 30
0.0
 10
14.7939462149
 20
7.1966505626
 30
0.0
 10
14.7939994599
 20
7.1966708065
 30
0.0
 10
14.7940571659
 20
7.1967113123
 30
0.0
 10
14.7941238974
 20
7.1967679657
 30
0.0
 10
14.7942006924
 20
7.1968435299
 30
0.0
 10
14.7942900632
 20
7.1969392505
 30
0.0
 10
14.7943910576
 20
7.1970548214
 30
0.0
 10
14.7945517108
 20
7.1972472303
 30
0.0
 10
14.7947824572
 20
7.1975377719
 30
0.0
 10
14.7950965508
 20
7.1979455791
 30
0.0
 10
14.7954643102
 20
7.198429558
 30
0.0
 10
14.796070465
 20
7.1992229311
 30
0.0
 10
14.7969866784
 20
7.2003907396
 30
0.0
 10
14.7983216863
 20
7.2019665974
 30
0.0
 10
14.8000018994
 20
7.203742203
 30
0.0
 10
14.8012988397
 20
7.2049278125
 30
0.0
 10
14.8020194196
 20
7.2055324509
 30
0.0
  0
LINE
  5
450
100
AcDbEntity
  8
0
100
AcDbLine
 62
7
  6
CONTINUOUS
 10
10.0841199304
 20
11.3424496345
 11
10.0848935676
 21
11.3422597443
  0
SPLINE
  5
451
100
AcDbEntity
  8
0
100
AcDbSpline
 62
7
  6
CONTINUOUS
 70
0
 71
3
 72
17
 73
13
 74
0
 42
0.0000001
 43
0.0000001
 44
0.0000000001
 40
0.0
 40
0.0
 40
0.0
 40
0.0
 40
0.2188295981
 40
0.4106485865
 40
0.574671359
 40
0.7106011837
 40
0.818586072
 40
0.8996059891
 40
0.930893665
 40
0.9569689498
 40
0.9792621869
 40
1.0
 40
1.0
 40
1.0
 40
1.0
 10
10.146626008
 20
11.3144721628
 30
0.0
 10
10.1468420939
 20
11.3143754437
 30
0.0
 10
10.1472496323
 20
11.3141984326
 30
0.0
 10
10.1478271163
 20
11.3139677615
 30
0.0
 10
10.1483287204
 20
11.3137900269
 30
0.0
 10
10.1487525476
 20
11.3136653603
 30
0.0
 10
10.1490969828
 20
11.3135940296
 30
0.0
 10
10.1493364194
 20
11.313575743
 30
0.0
 10
10.1494854958
 20
11.3135949479
 30
0.0
 10
10.1495680175
 20
11.3136222624
 30
0.0
 10
10.1496309777
 20
11.313664891
 30
0.0
 10
10.1496582502
 20
11.3137041965
 30
0.0
 10
10.1496674203
 20
11.3137246724
 30
0.0
  0
SPLINE
  5
452
100
AcDbEntity
  8
0
100
AcDbSpline
 62
7
  6
CONTINUOUS
 70
0
 71
3
 72
19
 73
15
 74
0
 42
0.0000001
 43
0.0000001
 44
0.0000000001
 40
0.0
 40
0.0
 40
0.0
 40
0.0
 40
0.2145806217
 40
0.4050284664
 40
0.5696000507
 40
0.7071630947
 40
0.7656080279
 40
0.8171269328
 40
0.8618038494
 40
0.8998259022
 40
0.9315832261
 40
0.9578179813
 40
0.9798760535
 40
1.0
 40
1.0
 40
1.0
 40
1.0
 10
10.2460588183
 20
11.2699664325
 30
0.0
 10
10.2465212461
 20
11.2697594517
 30
0.0
 10
10.2473987973
 20
11.2693791137
 30
0.0
 10
10.2486488931
 20
11.2688824467
 30
0.0
 10
10.2497462989
 20
11.2684963798
 30
0.0
 10
10.2505641022
 20
11.2682570504
 30
0.0
 10
10.251134487
 20
11.2681288037
 30
0.0
 10
10.2514946042
 20
11.2680673472
 30
0.0
 10
10.2518101616
 20
11.2680350677
 30
0.0
 10
10.252080878
 20
11.2680319284
 30
0.0
 10
10.2523069056
 20
11.2680579586
 30
0.0
 10
10.2524890609
 20
11.2681137836
 30
0.0
 10
10.2526274814
 20
11.2682023625
 30
0.0
 10
10.2526871407
 20
11.2682858639
 30
0.0
 10
10.2527065547
 20
11.2683292304
 30
0.0
  0
SPLINE
  5
453
100
AcDbEntity
  8
0
100
AcDbSpline
 62
7
  6
CONTINUOUS
 70
0
 71
3
 72
19
 73
15
 74
0
 42
0.0000001
 43
0.0000001
 44
0.0000000001
 40
0.0
 40
0.0
 40
0.0
 40
0.0
 40
0.2083581624
 40
0.3967509362
 40
0.5621189454
 40
0.7020302936
 40
0.7618855873
 40
0.8148170005
 40
0.8607912634
 40
0.8998887125
 40
0.9323915459
 40
0.9589109247
 40
0.980695927
 40
1.0
 40
1.0
 40
1.0
 40
1.0
 10
10.3756421796
 20
11.2119654355
 30
0.0
 10
10.3764067244
 20
11.2116232283
 30
0.0
 10
10.3778712165
 20
11.2109906606
 30
0.0
 10
10.3799741074
 20
11.2101618599
 30
0.0
 10
10.3818488724
 20
11.2095089399
 30
0.0
 10
10.3832597147
 20
11.2090992763
 30
0.0
 10
10.3842509878
 20
11.2088755614
 30
0.0
 10
10.3848800572
 20
11.208765827
 30
0.0
 10
10.3854319993
 20
11.2087050563
 30
0.0
 10
10.3859052683
 20
11.2086932196
 30
0.0
 10
10.386299316
 20
11.2087299805
 30
0.0
 10
10.3866149132
 20
11.208816237
 30
0.0
 10
10.3868534489
 20
11.2089561784
 30
0.0
 10
10.3869558952
 20
11.2090930263
 30
0.0
 10
10.3869875971
 20
11.2091638616
 30
0.0
  0
SPLINE
  5
454
100
AcDbEntity
  8
0
100
AcDbSpline
 62
7
  6
CONTINUOUS
 70
0
 71
3
 72
22
 73
18
 74
0
 42
0.0000001
 43
0.0000001
 44
0.0000000001
 40
0.0
 40
0.0
 40
0.0
 40
0.0
 40
0.1998333068
 40
0.3852735311
 40
0.5515239077
 40
0.626147134
 40
0.6945089462
 40
0.7562523628
 40
0.8110935074
 40
0.8588424968
 40
0.8994393098
 40
0.9330068865
 40
0.9600031344
 40
0.9713682204
 40
0.9815887696
 40
0.9909921892
 40
1.0
 40
1.0
 40
1.0
 40
1.0
 10
10.5265451999
 20
11.1444218439
 30
0.0
 10
10.5276288619
 20
11.1439368011
 30
0.0
 10
10.5297323438
 20
11.1430328337
 30
0.0
 10
10.5327861126
 20
11.1418429675
 30
0.0
 10
10.5351823388
 20
11.1410191524
 30
0.0
 10
10.5369427088
 20
11.1404924402
 30
0.0
 10
10.5381184336
 20
11.1401798263
 30
0.0
 10
10.5391902973
 20
11.139936627
 30
0.0
 10
10.5401516911
 20
11.1397639211
 30
0.0
 10
10.5409968607
 20
11.1396621818
 30
0.0
 10
10.5417216366
 20
11.1396312352
 30
0.0
 10
10.5423225767
 20
11.1396706615
 30
0.0
 10
10.5427427208
 20
11.1397670312
 30
0.0
 10
10.5430061102
 20
11.139887579
 30
0.0
 10
10.5431594694
 20
11.1399913302
 30
0.0
 10
10.5432793256
 20
11.1401138561
 30
0.0
 10
10.543336283
 20
11.1402086705
 30
0.0
 10
10.5433581416
 20
11.1402575208
 30
0.0
  0
SPLINE
  5
455
100
AcDbEntity
  8
0
100
AcDbSpline
 62
7
  6
CONTINUOUS
 70
0
 71
3
 72
17
 73
13
 74
0
 42
0.0000001
 43
0.0000001
 44
0.0000000001
 40
0.0
 40
0.0
 40
0.0
 40
0.0
 40
0.0211426789
 40
0.0436934211
 40
0.0698578324
 40
0.1010817109
 40
0.1816828819
 40
0.2890793688
 40
0.4244421503
 40
0.5881836558
 40
0.7801739912
 40
1.0
 40
1.0
 40
1.0
 40
1.0
 10
11.0710104291
 20
10.8364564199
 30
0.0
 10
11.0710044771
 20
10.8364431132
 30
0.0
 10
11.0709970984
 20
10.8364130879
 30
0.0
 10
11.0710030212
 20
10.8363644797
 30
0.0
 10
11.0710245127
 20
10.8363131993
 30
0.0
 10
11.0710777042
 20
10.8362338462
 30
0.0
 10
11.0711869164
 20
10.8361276297
 30
0.0
 10
11.0713658131
 20
10.8359943525
 30
0.0
 10
11.0716039748
 20
10.8358460465
 30
0.0
 10
11.0719009533
 20
10.8356832362
 30
0.0
 10
11.0722563039
 20
10.8355064147
 30
0.0
 10
11.0725142002
 20
10.8353875567
 30
0.0
 10
11.0726525374
 20
10.8353256375
 30
0.0
  0
SPLINE
  5
456
100
AcDbEntity
  8
0
100
AcDbSpline
 62
7
  6
CONTINUOUS
 70
0
 71
3
 72
24
 73
20
 74
0
 42
0.0000001
 43
0.0000001
 44
0.0000000001
 40
0.0
 40
0.0
 40
0.0
 40
0.0
 40
0.1887692318
 40
0.370191867
 40
0.4559747623
 40
0.5373884541
 40
0.6136991034
 40
0.6842421786
 40
0.7484344557
 40
0.8057815528
 40
0.8558941418
 40
0.8985176231
 40
0.9335834127
 40
0.9483521827
 40
0.961367458
 40
0.9727623484
 40
0.9827527063
 40
0.9916739982
 40
1.0
 40
1.0
 40
1.0
 40
1.0
 10
10.6884840879
 20
11.0719386418
 30
0.0
 10
10.6898599729
 20
11.0713228012
 30
0.0
 10
10.6925798936
 20
11.0701629455
 30
0.0
 10
10.6959803093
 20
11.068858081
 30
0.0
 10
10.6986096544
 20
11.067942777
 30
0.0
 10
10.7004602447
 20
11.0673450767
 30
0.0
 10
10.7022085696
 20
11.0668284758
 30
0.0
 10
10.7038380814
 20
11.0663973577
 30
0.0
 10
10.7053336463
 20
11.0660550715
 30
0.0
 10
10.7066816453
 20
11.0658040539
 30
0.0
 10
10.7078703932
 20
11.0656455854
 30
0.0
 10
10.7088896813
 20
11.0655802866
 30
0.0
 10
10.7096298157
 20
11.0656032632
 30
0.0
 10
10.7101267978
 20
11.0656773783
 30
0.0
 10
10.7104309496
 20
11.0657532826
 30
0.0
 10
10.7106880121
 20
11.0658526899
 30
0.0
 10
10.7108977001
 20
11.065976341
 30
0.0
 10
10.7110590357
 20
11.0661250978
 30
0.0
 10
10.711133691
 20
11.0662432605
 30
0.0
 10
10.7111608481
 20
11.0663039489
 30
0.0
  0
SPLINE
  5
457
100
AcDbEntity
  8
0
100
AcDbSpline
 62
7
  6
CONTINUOUS
 70
0
 71
3
 72
25
 73
21
 74
0
 42
0.0000001
 43
0.0000001
 44
0.0000000001
 40
0.0
 40
0.0
 40
0.0
 40
0.0
 40
0.1747590425
 40
0.3507698878
 40
0.4363491695
 40
0.5188254717
 40
0.597163187
 40
0.6704039408
 40
0.7376811301
 40
0.7982313708
 40
0.8514083506
 40
0.8967079392
 40
0.916301048
 40
0.9338265766
 40
0.9492945039
 40
0.9627457166
 40
0.9742787293
 40
0.9840778552
 40
0.9924715225
 40
1.0
 40
1.0
 40
1.0
 40
1.0
 10
10.8504229758
 20
10.9994554398
 30
0.0
 10
10.8520194288
 20
10.9987408738
 30
0.0
 10
10.8552555691
 20
10.9973769239
 30
0.0
 10
10.8593450288
 20
10.9958409037
 30
0.0
 10
10.8626048782
 20
10.9947303891
 30
0.0
 10
10.8649560791
 20
10.993985946
 30
0.0
 10
10.8672054847
 20
10.9933311608
 30
0.0
 10
10.8693240773
 20
10.9927737249
 30
0.0
 10
10.8712849734
 20
10.9923198927
 30
0.0
 10
10.8730638028
 20
10.9919743221
 30
0.0
 10
10.8746387052
 20
10.9917404431
 30
0.0
 10
10.875816823
 20
10.9916347029
 30
0.0
 10
10.8766417587
 20
10.9916148203
 30
0.0
 10
10.8771681569
 20
10.9916297389
 30
0.0
 10
10.8776313681
 20
10.9916734055
 30
0.0
 10
10.8780303592
 20
10.9917458129
 30
0.0
 10
10.8783645401
 20
10.9918468745
 30
0.0
 10
10.8786338129
 20
10.9919773453
 30
0.0
 10
10.878837522
 20
10.9921391331
 30
0.0
 10
10.8789291564
 20
10.9922735737
 30
0.0
 10
10.8789599461
 20
10.9923423445
 30
0.0
  0
SPLINE
  5
458
100
AcDbEntity
  8
0
100
AcDbSpline
 62
7
  6
CONTINUOUS
 70
0
 71
3
 72
26
 73
22
 74
0
 42
0.0000001
 43
0.0000001
 44
0.0000000001
 40
0.0
 40
0.0
 40
0.0
 40
0.0
 40
0.0765152583
 40
0.1573337936
 40
0.3261511464
 40
0.4112313936
 40
0.4948219005
 40
0.5755306739
 40
0.6520437198
 40
0.7231438377
 40
0.7877267721
 40
0.844819274
 40
0.8935999587
 40
0.9146707907
 40
0.9334488165
 40
0.9498986964
 40
0.9640205911
 40
0.975860023
 40
0.9855528827
 40
0.9933976499
 40
1.0
 40
1.0
 40
1.0
 40
1.0
 10
11.0013259961
 20
10.9319118482
 30
0.0
 10
11.0021549129
 20
10.9315408283
 30
0.0
 10
11.0038702938
 20
10.930802165
 30
0.0
 10
11.0074619284
 20
10.9293573462
 30
0.0
 10
11.0111958877
 20
10.9279966291
 30
0.0
 10
11.01499871
 20
10.9267375653
 30
0.0
 10
11.0178271321
 20
10.925864436
 30
0.0
 10
11.0205755046
 20
10.9250789029
 30
0.0
 10
11.0231975688
 20
10.9243932799
 30
0.0
 10
11.0256498482
 20
10.9238179659
 30
0.0
 10
11.0278923079
 20
10.9233612751
 30
0.0
 10
11.0298885885
 20
10.9230297997
 30
0.0
 10
11.0313858334
 20
10.9228527989
 30
0.0
 10
11.0324358352
 20
10.9227849288
 30
0.0
 10
11.0331041411
 20
10.9227703421
 30
0.0
 10
11.0336899366
 20
10.9227893988
 30
0.0
 10
11.0341911455
 20
10.9228418795
 30
0.0
 10
11.0346065513
 20
10.9229275696
 30
0.0
 10
11.0349359563
 20
10.9230470183
 30
0.0
 10
11.0351807503
 20
10.9232022678
 30
0.0
 10
11.0352886143
 20
10.9233425247
 30
0.0
 10
11.035320639
 20
10.9234140458
 30
0.0
  0
SPLINE
  5
459
100
AcDbEntity
  8
0
100
AcDbSpline
 62
7
  6
CONTINUOUS
 70
0
 71
3
 72
28
 73
24
 74
0
 42
0.0000001
 43
0.0000001
 44
0.0000000001
 40
0.0
 40
0.0
 40
0.0
 40
0.0
 40
0.0641862497
 40
0.1358667103
 40
0.2134503814
 40
0.2952078487
 40
0.4640031669
 40
0.6278416046
 40
0.703627433
 40
0.7732426443
 40
0.8352958167
 40
0.8630981505
 40
0.8885647635
 40
0.9115762979
 40
0.9320264674
 40
0.9498335823
 40
0.9649399697
 40
0.9773342813
 40
0.9870771021
 40
0.9910226741
 40
0.9944183363
 40
0.9973602907
 40
1.0
 40
1.0
 40
1.0
 40
1.0
 10
11.1309093574
 20
10.8739108512
 30
0.0
 10
11.1316967943
 20
10.8735583975
 30
0.0
 10
11.1333785543
 20
10.8728456212
 30
0.0
 10
11.1360514631
 20
10.8718025301
 30
0.0
 10
11.1389705339
 20
10.8707430423
 30
0.0
 10
11.1431470604
 20
10.8693250374
 30
0.0
 10
11.1484710469
 20
10.8676844582
 30
0.0
 10
11.1537711846
 20
10.8662499146
 30
0.0
 10
11.1578146493
 20
10.8652861448
 30
0.0
 10
11.1605413902
 20
10.8647019532
 30
0.0
 10
11.1626491724
 20
10.8643104544
 30
0.0
 10
11.164180542
 20
10.8640700775
 30
0.0
 10
11.1651966957
 20
10.8639329164
 30
0.0
 10
11.1661178395
 20
10.863832729
 30
0.0
 10
11.1669391469
 20
10.8637700664
 30
0.0
 10
11.1676561939
 20
10.8637451138
 30
0.0
 10
11.1682655694
 20
10.8637578239
 30
0.0
 10
11.1687640927
 20
10.8638079436
 30
0.0
 10
11.169108137
 20
10.8638846158
 30
0.0
 10
11.1693214306
 20
10.8639711957
 30
0.0
 10
11.169441167
 20
10.8640415517
 30
0.0
 10
11.1695319834
 20
10.864122472
 30
0.0
 10
11.169573738
 20
10.8641862735
 30
0.0
 10
11.1695882338
 20
10.864218657
 30
0.0
  0
SPLINE
  5
45A
100
AcDbEntity
  8
0
100
AcDbSpline
 62
7
  6
CONTINUOUS
 70
0
 71
3
 72
18
 73
14
 74
0
 42
0.0000001
 43
0.0000001
 44
0.0000000001
 40
0.0
 40
0.0
 40
0.0
 40
0.0
 40
0.0409332265
 40
0.0892959457
 40
0.1443162289
 40
0.2051127266
 40
0.3400385632
 40
0.4855624119
 40
0.6327745641
 40
0.7729136727
 40
0.8977647216
 40
0.9521240793
 40
1.0
 40
1.0
 40
1.0
 40
1.0
 10
11.2303421677
 20
10.8294051208
 30
0.0
 10
11.2308284238
 20
10.8291874745
 30
0.0
 10
11.2319006563
 20
10.8287383087
 30
0.0
 10
11.2336541108
 20
10.8280646123
 30
0.0
 10
11.2356656912
 20
10.8273434578
 30
0.0
 10
11.2387570838
 20
10.8262975683
 30
0.0
 10
11.2429960135
 20
10.8249702759
 30
0.0
 10
11.2483442079
 20
10.8234272038
 30
0.0
 10
11.2537882031
 20
10.8219754251
 30
0.0
 10
11.2589993977
 20
10.8206994725
 30
0.0
 10
11.2630589587
 20
10.8198049743
 30
0.0
 10
11.2659604374
 20
10.8192417259
 30
0.0
 10
11.2672717364
 20
10.8190150684
 30
0.0
 10
11.2678872383
 20
10.8189180485
 30
0.0
  0
SPLINE
  5
45B
100
AcDbEntity
  8
0
100
AcDbSpline
 62
7
  6
CONTINUOUS
 70
0
 71
3
 72
17
 73
13
 74
0
 42
0.0000001
 43
0.0000001
 44
0.0000000001
 40
0.0
 40
0.0
 40
0.0
 40
0.0
 40
0.2144544094
 40
0.4045915213
 40
0.5693042959
 40
0.7077255598
 40
0.8192577313
 40
0.864902716
 40
0.9038546683
 40
0.9362922029
 40
0.9625841726
 40
1.0
 40
1.0
 40
1.0
 40
1.0
 10
11.2678872383
 20
10.8189180485
 30
0.0
 10
11.2682270776
 20
10.8188644805
 30
0.0
 10
11.2688690882
 20
10.8187687432
 30
0.0
 10
11.2697752167
 20
10.8186538709
 30
0.0
 10
11.2705629276
 20
10.8185766832
 30
0.0
 10
11.2712271857
 20
10.8185377199
 30
0.0
 10
11.2717018653
 20
10.8185362736
 30
0.0
 10
11.2720159525
 20
10.8185586766
 30
0.0
 10
11.2722019546
 20
10.8185838894
 30
0.0
 10
11.2723555756
 20
10.8186193411
 30
0.0
 10
11.2724988458
 20
10.8186717578
 30
0.0
 10
11.272589422
 20
10.8187383753
 30
0.0
 10
11.2726139337
 20
10.8187931661
 30
0.0
  0
LINE
  5
45C
100
AcDbEntity
  8
0
100
AcDbLine
 62
7
  6
CONTINUOUS
 10
11.2928482453
 20
10.8014276491
 11
11.2938347069
 21
10.8010320347
  0
SPLINE
  5
45D
100
AcDbEntity
  8
0
100
AcDbSpline
 62
7
  6
CONTINUOUS
 70
0
 71
3
 72
20
 73
16
 74
0
 42
0.0000001
 43
0.0000001
 44
0.0000000001
 40
0.0
 40
0.0
 40
0.0
 40
0.0
 40
0.0358195542
 40
0.0813031727
 40
0.1354650652
 40
0.1971342731
 40
0.2649988806
 40
0.3376430221
 40
0.4913015412
 40
0.6459448978
 40
0.7895395047
 40
0.8536268677
 40
0.9108255353
 40
0.9599602096
 40
1.0
 40
1.0
 40
1.0
 40
1.0
 10
11.2938347069
 20
10.8010320347
 30
0.0
 10
11.2943097723
 20
10.8008556688
 30
0.0
 10
11.295397298
 20
10.8004803675
 30
0.0
 10
11.2972225358
 20
10.7998959951
 30
0.0
 10
11.2994066482
 20
10.7992339872
 30
0.0
 10
11.3019020913
 20
10.7985083089
 30
0.0
 10
11.304655603
 20
10.7977340926
 30
0.0
 10
11.3086701303
 20
10.7966372401
 30
0.0
 10
11.3138824629
 20
10.7952668773
 30
0.0
 10
11.3200827411
 20
10.7937082778
 30
0.0
 10
11.3250678759
 20
10.7925145808
 30
0.0
 10
11.3287219438
 20
10.791683637
 30
0.0
 10
11.3310778125
 20
10.7911708534
 30
0.0
 10
11.3331064796
 20
10.790755187
 30
0.0
 10
11.3343466679
 20
10.7905231407
 30
0.0
 10
11.3349050518
 20
10.790427882
 30
0.0
  0
SPLINE
  5
45E
100
AcDbEntity
  8
0
100
AcDbSpline
 62
7
  6
CONTINUOUS
 70
0
 71
3
 72
15
 73
11
 74
0
 42
0.0000001
 43
0.0000001
 44
0.0000000001
 40
0.0
 40
0.0
 40
0.0
 40
0.0
 40
0.4174235749
 40
0.5848284525
 40
0.7239669251
 40
0.8345234324
 40
0.9164155889
 40
0.9468017471
 40
0.9704239194
 40
1.0
 40
1.0
 40
1.0
 40
1.0
 10
11.3349050518
 20
10.790427882
 30
0.0
 10
11.3352489498
 20
10.790369214
 30
0.0
 10
11.3357316072
 20
10.7902914716
 30
0.0
 10
11.3363317581
 20
10.7902138995
 30
0.0
 10
11.3366785682
 20
10.7901787105
 30
0.0
 10
11.3369555203
 20
10.7901623687
 30
0.0
 10
11.3371415237
 20
10.7901630497
 30
0.0
 10
11.3372553891
 20
10.7901763558
 30
0.0
 10
11.3373216731
 20
10.7901914191
 30
0.0
 10
11.3373678768
 20
10.7902135098
 30
0.0
 10
11.3373779723
 20
10.7902360727
 30
0.0
  0
LINE
  5
45F
100
AcDbEntity
  8
0
100
AcDbLine
 62
7
  6
CONTINUOUS
 10
10.2237466446
 20
11.2152925382
 11
10.2240371083
 21
11.215221964
  0
SPLINE
  5
460
100
AcDbEntity
  8
0
100
AcDbSpline
 62
7
  6
CONTINUOUS
 70
0
 71
3
 72
25
 73
21
 74
0
 42
0.0000001
 43
0.0000001
 44
0.0000000001
 40
0.0
 40
0.0
 40
0.0
 40
0.0
 40
0.0075284794
 40
0.0159221469
 40
0.0257212672
 40
0.0372542716
 40
0.0507054822
 40
0.0661734117
 40
0.0836989394
 40
0.1032920386
 40
0.1485915987
 40
0.2017685747
 40
0.2623188025
 40
0.3295959843
 40
0.4028367423
 40
0.4811744582
 40
0.5636507603
 40
0.6492300568
 40
0.8252409225
 40
1.0
 40
1.0
 40
1.0
 40
1.0
 10
10.502229303
 20
11.1609654817
 30
0.0
 10
10.5021985269
 20
11.1608967048
 30
0.0
 10
10.5021593098
 20
11.1607388025
 30
0.0
 10
10.5021743609
 20
11.1604790985
 30
0.0
 10
10.5022564453
 20
11.1601913616
 30
0.0
 10
10.5024037039
 20
11.1598748097
 30
0.0
 10
10.5026155084
 20
11.1595290127
 30
0.0
 10
10.5028915301
 20
11.1591544684
 30
0.0
 10
10.503231086
 20
11.1587519522
 30
0.0
 10
10.5037954789
 20
11.1581499769
 30
0.0
 10
10.5046591896
 20
11.1573418029
 30
0.0
 10
10.5058827983
 20
11.1563230795
 30
0.0
 10
10.507325559
 20
11.1552266791
 30
0.0
 10
10.5089703506
 20
11.1540666199
 30
0.0
 10
10.5107974639
 20
11.1528579735
 30
0.0
 10
10.5127843249
 20
11.1516166225
 30
0.0
 10
10.5149058665
 20
11.1503590838
 30
0.0
 10
10.5179057511
 20
11.1486677662
 30
0.0
 10
10.5217756493
 20
11.1466412094
 30
0.0
 10
10.5249487466
 20
11.14513641
 30
0.0
 10
10.5265451999
 20
11.1444218439
 30
0.0
  0
SPLINE
  5
461
100
AcDbEntity
  8
0
100
AcDbSpline
 62
7
  6
CONTINUOUS
 70
0
 71
3
 72
16
 73
12
 74
0
 42
0.0000001
 43
0.0000001
 44
0.0000000001
 40
0.0
 40
0.0
 40
0.0
 40
0.0
 40
0.4102110006
 40
0.5741123724
 40
0.7099719606
 40
0.8179464404
 40
0.8990389853
 40
0.9304074607
 40
0.9566039036
 40
0.9790630867
 40
1.0
 40
1.0
 40
1.0
 40
1.0
 10
10.2785032338
 20
11.1907837067
 30
0.0
 10
10.2789131483
 20
11.1906002306
 30
0.0
 10
10.2794921349
 20
11.1903539963
 30
0.0
 10
10.2802251633
 20
11.1900949083
 30
0.0
 10
10.2806540856
 20
11.1899695757
 30
0.0
 10
10.2810028292
 20
11.189898302
 30
0.0
 10
10.2812453879
 20
11.189880746
 30
0.0
 10
10.2813964487
 20
11.1899010202
 30
0.0
 10
10.2814801803
 20
11.1899292866
 30
0.0
 10
10.281544095
 20
11.1899730651
 30
0.0
 10
10.2815718273
 20
11.1900132162
 30
0.0
 10
10.2815811964
 20
11.1900341359
 30
0.0
  0
SPLINE
  5
462
100
AcDbEntity
  8
0
100
AcDbSpline
 62
7
  6
CONTINUOUS
 70
0
 71
3
 72
19
 73
15
 74
0
 42
0.0000001
 43
0.0000001
 44
0.0000000001
 40
0.0
 40
0.0
 40
0.0
 40
0.0
 40
0.2121433401
 40
0.4017187327
 40
0.5664973101
 40
0.7048772741
 40
0.7638263013
 40
0.8158684957
 40
0.8610331182
 40
0.8994840129
 40
0.9315698418
 40
0.9579868342
 40
0.9800526814
 40
1.0
 40
1.0
 40
1.0
 40
1.0
 10
10.3845183969
 20
11.1433317414
 30
0.0
 10
10.3851004337
 20
11.143071224
 30
0.0
 10
10.3862088341
 20
11.1425916375
 30
0.0
 10
10.3877926863
 20
11.1419652622
 30
0.0
 10
10.3891913522
 20
11.1414767402
 30
0.0
 10
10.3902376529
 20
11.1411732805
 30
0.0
 10
10.390969554
 20
11.1410102722
 30
0.0
 10
10.3914326073
 20
11.1409318425
 30
0.0
 10
10.3918386639
 20
11.1408904686
 30
0.0
 10
10.3921870302
 20
11.1408859749
 30
0.0
 10
10.3924777046
 20
11.1409183112
 30
0.0
 10
10.3927114998
 20
11.1409883019
 30
0.0
 10
10.3928888676
 20
11.1410993141
 30
0.0
 10
10.3929652587
 20
11.1412048424
 30
0.0
 10
10.3929897494
 20
11.1412595722
 30
0.0
  0
SPLINE
  5
463
100
AcDbEntity
  8
0
100
AcDbSpline
 62
7
  6
CONTINUOUS
 70
0
 71
3
 72
21
 73
17
 74
0
 42
0.0000001
 43
0.0000001
 44
0.0000000001
 40
0.0
 40
0.0
 40
0.0
 40
0.0
 40
0.2015541694
 40
0.3875580626
 40
0.5535788904
 40
0.6958714343
 40
0.7572105445
 40
0.8116479716
 40
0.8590320856
 40
0.8993299167
 40
0.9327016161
 40
0.9596369147
 40
0.9710336616
 40
0.9813283527
 40
0.990846854
 40
1.0
 40
1.0
 40
1.0
 40
1.0
 10
10.5277091701
 20
11.0792401209
 30
0.0
 10
10.5287334106
 20
11.0787816749
 30
0.0
 10
10.5307160608
 20
11.0779291679
 30
0.0
 10
10.5335882406
 20
11.0768092305
 30
0.0
 10
10.5361919679
 20
11.0759152374
 30
0.0
 10
10.5381719957
 20
11.0753481345
 30
0.0
 10
10.5395742256
 20
11.0750330232
 30
0.0
 10
10.540469258
 20
11.0748752833
 30
0.0
 10
10.5412558047
 20
11.0747841962
 30
0.0
 10
10.5419304043
 20
11.0747596887
 30
0.0
 10
10.5424901889
 20
11.0748011961
 30
0.0
 10
10.5428816692
 20
11.0748957471
 30
0.0
 10
10.5431273087
 20
11.0750118551
 30
0.0
 10
10.5432708458
 20
11.0751115006
 30
0.0
 10
10.5433833556
 20
11.075228677
 30
0.0
 10
10.5434371545
 20
11.0753189093
 30
0.0
 10
10.5434579748
 20
11.0753654225
 30
0.0
  0
SPLINE
  5
464
100
AcDbEntity
  8
0
100
AcDbSpline
 62
7
  6
CONTINUOUS
 70
0
 71
3
 72
19
 73
15
 74
0
 42
0.0000001
 43
0.0000001
 44
0.0000000001
 40
0.0
 40
0.0
 40
0.0
 40
0.0
 40
0.0202909764
 40
0.0424852417
 40
0.0688139683
 40
0.1006270494
 40
0.1386740862
 40
0.1833513459
 40
0.2348515527
 40
0.2932631355
 40
0.4307279882
 40
0.5951816728
 40
0.7855138939
 40
1.0
 40
1.0
 40
1.0
 40
1.0
 10
10.9753070805
 20
10.8802403866
 30
0.0
 10
10.975287635
 20
10.8801969356
 30
0.0
 10
10.9752648817
 20
10.8800968394
 30
0.0
 10
10.9752901711
 20
10.8799345858
 30
0.0
 10
10.9753687122
 20
10.8797615886
 30
0.0
 10
10.9754983739
 20
10.8795758794
 30
0.0
 10
10.9756792108
 20
10.8793764469
 30
0.0
 10
10.9759112981
 20
10.879163157
 30
0.0
 10
10.9761944869
 20
10.8789362435
 30
0.0
 10
10.976666025
 20
10.8785975638
 30
0.0
 10
10.9773835073
 20
10.8781490779
 30
0.0
 10
10.9783947941
 20
10.8775907551
 30
0.0
 10
10.9795893586
 20
10.8769928622
 30
0.0
 10
10.9804516057
 20
10.8765944078
 30
0.0
 10
10.9809108931
 20
10.8763888325
 30
0.0
  0
SPLINE
  5
465
100
AcDbEntity
  8
0
100
AcDbSpline
 62
7
  6
CONTINUOUS
 70
0
 71
3
 72
24
 73
20
 74
0
 42
0.0000001
 43
0.0000001
 44
0.0000000001
 40
0.0
 40
0.0
 40
0.0
 40
0.0
 40
0.1860496571
 40
0.3664372472
 40
0.4521865186
 40
0.5338097746
 40
0.6105156723
 40
0.6815829556
 40
0.746373115
 40
0.8043420795
 40
0.8550521432
 40
0.8981973926
 40
0.9336606279
 40
0.9485658241
 40
0.9616641962
 40
0.9730815509
 40
0.9830295752
 40
0.9918401075
 40
1.0
 40
1.0
 40
1.0
 40
1.0
 10
10.6890542132
 20
11.0070227214
 30
0.0
 10
10.6904842666
 20
11.0063826353
 30
0.0
 10
10.6933247614
 20
11.005174687
 30
0.0
 10
10.6968837128
 20
11.0038172696
 30
0.0
 10
10.6996518784
 20
11.0028607123
 30
0.0
 10
10.7016094685
 20
11.0022334273
 30
0.0
 10
10.7034634623
 20
11.0016898904
 30
0.0
 10
10.7051950212
 20
11.0012349812
 30
0.0
 10
10.7067868816
 20
11.0008724536
 30
0.0
 10
10.7082234728
 20
11.0006050327
 30
0.0
 10
10.7094913352
 20
11.0004341716
 30
0.0
 10
10.7105786857
 20
11.0003606576
 30
0.0
 10
10.7113681241
 20
11.000380013
 30
0.0
 10
10.7118980862
 20
11.0004537164
 30
0.0
 10
10.7122217406
 20
11.0005303466
 30
0.0
 10
10.7124947467
 20
11.0006315406
 30
0.0
 10
10.7127169124
 20
11.0007579302
 30
0.0
 10
10.7128872128
 20
11.0009107106
 30
0.0
 10
10.7129654938
 20
11.0010329771
 30
0.0
 10
10.712993568
 20
11.0010956969
 30
0.0
  0
SPLINE
  5
466
100
AcDbEntity
  8
0
100
AcDbSpline
 62
7
  6
CONTINUOUS
 70
0
 71
3
 72
25
 73
21
 74
0
 42
0.0000001
 43
0.0000001
 44
0.0000000001
 40
0.0
 40
0.0
 40
0.0
 40
0.0
 40
0.1645516996
 40
0.3364152794
 40
0.4217378557
 40
0.5048986967
 40
0.5846516827
 40
0.6598291272
 40
0.729359426
 40
0.7922790328
 40
0.8477501854
 40
0.8950816295
 40
0.9155333743
 40
0.9337807784
 40
0.9498090588
 40
0.9636318228
 40
0.9753175742
 40
0.9850205488
 40
0.9930540615
 40
1.0
 40
1.0
 40
1.0
 40
1.0
 10
10.8471205884
 20
10.9362728407
 30
0.0
 10
10.8487987853
 20
10.9355216864
 30
0.0
 10
10.8522699359
 20
10.9340750736
 30
0.0
 10
10.8566931097
 20
10.9324459579
 30
0.0
 10
10.8603004453
 20
10.931241391
 30
0.0
 10
10.8629494227
 20
10.9304182762
 30
0.0
 10
10.8655069568
 20
10.9296850424
 30
0.0
 10
10.8679340258
 20
10.9290518459
 30
0.0
 10
10.8701941779
 20
10.9285271319
 30
0.0
 10
10.8722540536
 20
10.9281174764
 30
0.0
 10
10.8740834996
 20
10.9278279502
 30
0.0
 10
10.8754539967
 20
10.9276821029
 30
0.0
 10
10.8764144072
 20
10.9276355757
 30
0.0
 10
10.8770261793
 20
10.9276343455
 30
0.0
 10
10.8775631476
 20
10.9276647114
 30
0.0
 10
10.8780237227
 20
10.9277266389
 30
0.0
 10
10.8784069693
 20
10.9278198817
 30
0.0
 10
10.878712807
 20
10.9279451578
 30
0.0
 10
10.8789416202
 20
10.9281046698
 30
0.0
 10
10.8790430535
 20
10.9282434715
 30
0.0
 10
10.8790747565
 20
10.9283143122
 30
0.0
  0
SPLINE
  5
467
100
AcDbEntity
  8
0
100
AcDbSpline
 62
7
  6
CONTINUOUS
 70
0
 71
3
 72
28
 73
24
 74
0
 42
0.0000001
 43
0.0000001
 44
0.0000000001
 40
0.0
 40
0.0
 40
0.0
 40
0.0
 40
0.064040557
 40
0.1356149076
 40
0.2131299274
 40
0.2948526376
 40
0.4636643774
 40
0.6276069172
 40
0.7034657224
 40
0.7731595317
 40
0.8352891681
 40
0.86312622
 40
0.8886237064
 40
0.9116611278
 40
0.9321309316
 40
0.9499501977
 40
0.9650597816
 40
0.9774465095
 40
0.9871685277
 40
0.9910977117
 40
0.9944723652
 40
0.9973889026
 40
1.0
 40
1.0
 40
1.0
 40
1.0
 10
10.9809108931
 20
10.8763888325
 30
0.0
 10
10.9816973812
 20
10.8760368036
 30
0.0
 10
10.9833780788
 20
10.8753251753
 30
0.0
 10
10.9860506367
 20
10.8742846066
 30
0.0
 10
10.98897129
 20
10.8732280178
 30
0.0
 10
10.9931528809
 20
10.8718139285
 30
0.0
 10
10.9984857672
 20
10.8701781395
 30
0.0
 10
11.0037955311
 20
10.8687469083
 30
0.0
 10
11.0078472164
 20
10.8677837016
 30
0.0
 10
11.01057998
 20
10.8671988099
 30
0.0
 10
11.0126924017
 20
10.8668058526
 30
0.0
 10
11.0142271098
 20
10.8665637726
 30
0.0
 10
11.0152454126
 20
10.8664251772
 30
0.0
 10
11.016168405
 20
10.8663233789
 30
0.0
 10
11.0169912315
 20
10.8662589562
 30
0.0
 10
11.0177094411
 20
10.8662321273
 30
0.0
 10
11.0183195996
 20
10.8662428689
 30
0.0
 10
11.018818504
 20
10.8662909634
 30
0.0
 10
11.0191626953
 20
10.8663658014
 30
0.0
 10
11.0193759859
 20
10.8664509379
 30
0.0
 10
11.0194955227
 20
10.8665202495
 30
0.0
 10
11.019586084
 20
10.8666001383
 30
0.0
 10
11.0196276423
 20
10.8666633176
 30
0.0
 10
11.0196419977
 20
10.8666953837
 30
0.0
  0
SPLINE
  5
468
100
AcDbEntity
  8
0
100
AcDbSpline
 62
7
  6
CONTINUOUS
 70
0
 71
3
 72
26
 73
22
 74
0
 42
0.0000001
 43
0.0000001
 44
0.0000000001
 40
0.0
 40
0.0
 40
0.0
 40
0.0
 40
0.0066023504
 40
0.0144471165
 40
0.0241399741
 40
0.0359794074
 40
0.0501013061
 40
0.0665511845
 40
0.0853291985
 40
0.1064000195
 40
0.1551807075
 40
0.2122731777
 40
0.2768561004
 40
0.347956212
 40
0.4244692497
 40
0.5051780308
 40
0.5887685404
 40
0.6738487951
 40
0.8426661736
 40
0.9234847298
 40
1.0
 40
1.0
 40
1.0
 40
1.0
 10
10.3466577395
 20
11.2316568201
 30
0.0
 10
10.3466257351
 20
11.2315852899
 30
0.0
 10
10.3465929923
 20
11.2314114091
 30
0.0
 10
10.3466402899
 20
11.2311254206
 30
0.0
 10
10.3467706542
 20
11.230800181
 30
0.0
 10
10.346983488
 20
11.2304332933
 30
0.0
 10
10.3472782501
 20
11.2300245392
 30
0.0
 10
10.3476542899
 20
11.2295749688
 30
0.0
 10
10.3481103879
 20
11.2290862769
 30
0.0
 10
10.3488605062
 20
11.2283484205
 30
0.0
 10
10.3499899615
 20
11.2273497208
 30
0.0
 10
10.3515670742
 20
11.2260817596
 30
0.0
 10
10.3534015726
 20
11.2247136203
 30
0.0
 10
10.3554643181
 20
11.2232680271
 30
0.0
 10
10.3577224394
 20
11.2217692985
 30
0.0
 10
10.3601392172
 20
11.2202429308
 30
0.0
 10
10.3626746513
 20
11.2187152193
 30
0.0
 10
10.366147045
 20
11.2167179253
 30
0.0
 10
10.3696493742
 20
11.2148397084
 30
0.0
 10
10.3731196093
 20
11.2131236623
 30
0.0
 10
10.3748132627
 20
11.2123364554
 30
0.0
 10
10.3756421796
 20
11.2119654355
 30
0.0
  0
SPLINE
  5
469
100
AcDbEntity
  8
0
100
AcDbSpline
 62
7
  6
CONTINUOUS
 70
0
 71
3
 72
20
 73
16
 74
0
 42
0.0000001
 43
0.0000001
 44
0.0000000001
 40
0.0
 40
0.0
 40
0.0
 40
0.0
 40
0.0353553055
 40
0.0794769881
 40
0.1315597337
 40
0.1906352344
 40
0.2556024042
 40
0.3252665527
 40
0.4736041424
 40
0.6252536097
 40
0.7698762918
 40
0.8364657188
 40
0.8977044093
 40
0.9525354246
 40
1.0
 40
1.0
 40
1.0
 40
1.0
 10
11.0726525374
 20
10.8353256375
 30
0.0
 10
11.0730898607
 20
10.8351298933
 30
0.0
 10
11.0740871824
 20
10.8347218966
 30
0.0
 10
11.0757593311
 20
10.8341029618
 30
0.0
 10
11.0777498505
 20
10.8334197207
 30
0.0
 10
11.0800208503
 20
10.8326849062
 30
0.0
 10
11.0825296617
 20
10.8319119898
 30
0.0
 10
11.0862075186
 20
10.830826019
 30
0.0
 10
11.0910334114
 20
10.8294810735
 30
0.0
 10
11.0968640087
 20
10.827960776
 30
0.0
 10
11.1016425081
 20
10.8267986983
 30
0.0
 10
11.1052429463
 20
10.8259802585
 30
0.0
 10
11.1076629858
 20
10.8254594201
 30
0.0
 10
11.109835986
 20
10.825023593
 30
0.0
 10
11.1112000671
 20
10.8247756106
 30
0.0
 10
11.1118344741
 20
10.8246694041
 30
0.0
  0
SPLINE
  5
46A
100
AcDbEntity
  8
0
100
AcDbSpline
 62
7
  6
CONTINUOUS
 70
0
 71
3
 72
16
 73
12
 74
0
 42
0.0000001
 43
0.0000001
 44
0.0000000001
 40
0.0
 40
0.0
 40
0.0
 40
0.0
 40
0.4102208392
 40
0.5764251779
 40
0.7155082905
 40
0.8268517425
 40
0.8720611433
 40
0.9103239071
 40
0.9417654199
 40
0.9666920813
 40
1.0
 40
1.0
 40
1.0
 40
1.0
 10
11.1118344741
 20
10.8246694041
 30
0.0
 10
11.1124088148
 20
10.8245732535
 30
0.0
 10
11.1132176478
 20
10.8244475295
 30
0.0
 10
11.1142265417
 20
10.824328965
 30
0.0
 10
11.1148160366
 20
10.8242795426
 30
0.0
 10
11.1152357069
 20
10.8242643308
 30
0.0
 10
11.1155123778
 20
10.8242722599
 30
0.0
 10
11.1156747494
 20
10.8242860099
 30
0.0
 10
11.1158082367
 20
10.8243086165
 30
0.0
 10
11.1159282826
 20
10.8243434587
 30
0.0
 10
11.1160078792
 20
10.8243914754
 30
0.0
 10
11.1160271784
 20
10.82443464
 30
0.0
  0
SPLINE
  5
46B
100
AcDbEntity
  8
0
100
AcDbSpline
 62
7
  6
CONTINUOUS
 70
0
 71
3
 72
49
 73
45
 74
0
 42
0.0000001
 43
0.0000001
 44
0.0000000001
 40
0.0
 40
0.0
 40
0.0
 40
0.0
 40
0.0017704956
 40
0.0047176746
 40
0.0088364972
 40
0.014118102
 40
0.0205475619
 40
0.0281086792
 40
0.0465459864
 40
0.0692375501
 40
0.0959490425
 40
0.1264099453
 40
0.1603159795
 40
0.1973337477
 40
0.2371068869
 40
0.3233976288
 40
0.4160027321
 40
0.5115817065
 40
0.6067242401
 40
0.6530672216
 40
0.6980311371
 40
0.7412069873
 40
0.7821969218
 40
0.8206170356
 40
0.8561038766
 40
0.8883155482
 40
0.9169355378
 40
0.9298092179
 40
0.9416804026
 40
0.9525198549
 40
0.9623002309
 40
0.9709949952
 40
0.9785827653
 40
0.985044263
 40
0.9903612673
 40
0.9925865392
 40
0.9945212513
 40
0.99616415
 40
0.9975140605
 40
0.9985701048
 40
0.9993326139
 40
0.9998036758
 40
0.9999329059
 40
1.0
 40
1.0
 40
1.0
 40
1.0
 10
11.1101586396
 20
10.8185380554
 30
0.0
 10
11.1101837877
 20
10.8185267992
 30
0.0
 10
11.1102532726
 20
10.8185026707
 30
0.0
 10
11.1103842217
 20
10.8184609212
 30
0.0
 10
11.1105685412
 20
10.8184064605
 30
0.0
 10
11.1108054398
 20
10.8183389499
 30
0.0
 10
11.111094468
 20
10.8182588603
 30
0.0
 10
11.1115814333
 20
10.8181264786
 30
0.0
 10
11.1123137283
 20
10.8179318588
 30
0.0
 10
11.1133351485
 20
10.8176649165
 30
0.0
 10
11.1145384831
 20
10.8173540629
 30
0.0
 10
11.115911473
 20
10.8170022211
 30
0.0
 10
11.1174403685
 20
10.816612681
 30
0.0
 10
11.1191101138
 20
10.8161890145
 30
0.0
 10
11.1215704719
 20
10.8155666156
 30
0.0
 10
11.1248700881
 20
10.8147345654
 30
0.0
 10
11.1290122555
 20
10.8136920226
 30
0.0
 10
11.1332882233
 20
10.8126167159
 30
0.0
 10
11.136866119
 20
10.8117174498
 30
0.0
 10
11.1396802357
 20
10.8110106965
 30
0.0
 10
11.1417101038
 20
10.8105013035
 30
0.0
 10
11.1436593069
 20
10.8100127182
 30
0.0
 10
11.1455099132
 20
10.8095496169
 30
0.0
 10
11.1472446826
 20
10.8091165206
 30
0.0
 10
11.1488472202
 20
10.8087177433
 30
0.0
 10
11.1503021467
 20
10.808357341
 30
0.0
 10
11.1514158992
 20
10.8080831946
 30
0.0
 10
11.1522226144
 20
10.8078860325
 30
0.0
 10
11.1527607134
 20
10.8077552669
 30
0.0
 10
11.1532522258
 20
10.8076366516
 30
0.0
 10
11.1536958975
 20
10.8075305103
 30
0.0
 10
11.1540905929
 20
10.8074371395
 30
0.0
 10
11.1544352929
 20
10.8073567881
 30
0.0
 10
11.1547291032
 20
10.8072896763
 30
0.0
 10
11.1549418566
 20
10.8072424731
 30
0.0
 10
11.1550860832
 20
10.8072116529
 30
0.0
 10
11.1551745112
 20
10.8071933618
 30
0.0
 10
11.155249752
 20
10.807178486
 30
0.0
 10
11.155311673
 20
10.8071670372
 30
0.0
 10
11.1553604248
 20
10.8071589723
 30
0.0
 10
11.1553955184
 20
10.8071542927
 30
0.0
 10
11.1554171077
 20
10.8071527157
 30
0.0
 10
11.1554270962
 20
10.8071534701
 30
0.0
 10
11.1554303799
 20
10.8071547334
 30
0.0
 10
11.1554308114
 20
10.8071556842
 30
0.0
  0
SPLINE
  5
46C
100
AcDbEntity
  8
0
100
AcDbSpline
 62
7
  6
CONTINUOUS
 70
0
 71
3
 72
18
 73
14
 74
0
 42
0.0000001
 43
0.0000001
 44
0.0000000001
 40
0.0
 40
0.0
 40
0.0
 40
0.0
 40
0.020525931
 40
0.0442658937
 40
0.0727448797
 40
0.1068122517
 40
0.1469274229
 40
0.1933304213
 40
0.3052884889
 40
0.4427631376
 40
0.6051010718
 40
0.7912803176
 40
1.0
 40
1.0
 40
1.0
 40
1.0
 10
10.2130630273
 20
11.2923555344
 30
0.0
 10
10.2130451007
 20
11.2923154805
 30
0.0
 10
10.213023649
 20
11.2922210177
 30
0.0
 10
10.2130366961
 20
11.2920645192
 30
0.0
 10
10.213089734
 20
11.2918869053
 30
0.0
 10
10.2131821002
 20
11.2916872512
 30
0.0
 10
10.2133135909
 20
11.2914651358
 30
0.0
 10
10.213556737
 20
11.2911170312
 30
0.0
 10
10.2139637076
 20
11.2906315621
 30
0.0
 10
10.2145743068
 20
11.289996948
 30
0.0
 10
10.2153304848
 20
11.2892839031
 30
0.0
 10
10.2162262144
 20
11.2884982007
 30
0.0
 10
10.2168764325
 20
11.2879595268
 30
0.0
 10
10.2172231312
 20
11.2876786086
 30
0.0
  0
SPLINE
  5
46D
100
AcDbEntity
  8
0
100
AcDbSpline
 62
7
  6
CONTINUOUS
 70
0
 71
3
 72
15
 73
11
 74
0
 42
0.0000001
 43
0.0000001
 44
0.0000000001
 40
0.0
 40
0.0
 40
0.0
 40
0.0
 40
0.1035679014
 40
0.2235316128
 40
0.3552589143
 40
0.4935728499
 40
0.6329051034
 40
0.7674892002
 40
0.8916207606
 40
1.0
 40
1.0
 40
1.0
 40
1.0
 10
10.2172231312
 20
11.2876786086
 30
0.0
 10
10.2181326494
 20
11.2869416568
 30
0.0
 10
10.2201395192
 20
11.2854052019
 30
0.0
 10
10.2234118678
 20
11.2830772249
 30
0.0
 10
10.2270757094
 20
11.2806250907
 30
0.0
 10
10.2309853336
 20
11.2781494373
 30
0.0
 10
10.2349823105
 20
11.2757539831
 30
0.0
 10
10.2389002251
 20
11.2735411065
 30
0.0
 10
10.2425718606
 20
11.2716072658
 30
0.0
 10
10.2449407211
 20
11.2704668884
 30
0.0
 10
10.2460588183
 20
11.2699664325
 30
0.0
  0
SPLINE
  5
46E
100
AcDbEntity
  8
0
100
AcDbSpline
 62
7
  6
CONTINUOUS
 70
0
 71
3
 72
20
 73
16
 74
0
 42
0.0000001
 43
0.0000001
 44
0.0000000001
 40
0.0
 40
0.0
 40
0.0
 40
0.0
 40
0.0094121389
 40
0.0191237352
 40
0.0408733783
 40
0.0676101249
 40
0.1005217099
 40
0.1401715143
 40
0.1867818075
 40
0.2403903314
 40
0.3009043956
 40
0.4418629263
 40
0.6074931606
 40
0.7947652128
 40
1.0
 40
1.0
 40
1.0
 40
1.0
 10
10.8357330563
 20
10.9440784151
 30
0.0
 10
10.8357148033
 20
10.9440376484
 30
0.0
 10
10.8356867799
 20
10.9439504194
 30
0.0
 10
10.835668713
 20
10.9437559359
 30
0.0
 10
10.8357275175
 20
10.9434802333
 30
0.0
 10
10.8359051936
 20
10.9431345983
 30
0.0
 10
10.8361883629
 20
10.9427560164
 30
0.0
 10
10.8365775832
 20
10.9423445696
 30
0.0
 10
10.8370720932
 20
10.9419009822
 30
0.0
 10
10.8376704885
 20
10.9414273605
 30
0.0
 10
10.8386550339
 20
10.9407224496
 30
0.0
 10
10.840130731
 20
10.9397938671
 30
0.0
 10
10.8421777373
 20
10.9386511531
 30
0.0
 10
10.8445419228
 20
10.9374554979
 30
0.0
 10
10.8462316073
 20
10.9366707451
 30
0.0
 10
10.8471205884
 20
10.9362728407
 30
0.0
  0
SPLINE
  5
46F
100
AcDbEntity
  8
0
100
AcDbSpline
 62
7
  6
CONTINUOUS
 70
0
 71
3
 72
17
 73
13
 74
0
 42
0.0000001
 43
0.0000001
 44
0.0000000001
 40
0.0
 40
0.0
 40
0.0
 40
0.0
 40
0.0374160798
 40
0.0637081256
 40
0.0961457047
 40
0.135097674
 40
0.1807426528
 40
0.2922747644
 40
0.4306959315
 40
0.5954086031
 40
0.7855456414
 40
1.0
 40
1.0
 40
1.0
 40
1.0
 10
10.1105507248
 20
11.3389280358
 30
0.0
 10
10.1105261926
 20
11.338873255
 30
0.0
 10
10.1105368509
 20
11.3387613267
 30
0.0
 10
10.1105932034
 20
11.338619561
 30
0.0
 10
10.1106691031
 20
11.3384813781
 30
0.0
 10
10.1107742102
 20
11.3383258674
 30
0.0
 10
10.11096674
 20
11.3380767069
 30
0.0
 10
10.1112840386
 20
11.3377236699
 30
0.0
 10
10.1117556089
 20
11.3372542446
 30
0.0
 10
10.1123379272
 20
11.3367182166
 30
0.0
 10
10.1130272367
 20
11.3361189815
 30
0.0
 10
10.1135263269
 20
11.3357039694
 30
0.0
 10
10.1137926692
 20
11.3354862143
 30
0.0
  0
SPLINE
  5
470
100
AcDbEntity
  8
0
100
AcDbSpline
 62
7
  6
CONTINUOUS
 70
0
 71
3
 72
18
 73
14
 74
0
 42
0.0000001
 43
0.0000001
 44
0.0000000001
 40
0.0
 40
0.0
 40
0.0
 40
0.0
 40
0.0478755921
 40
0.102234706
 40
0.227085411
 40
0.3672243991
 40
0.5144366518
 40
0.659960736
 40
0.7948868542
 40
0.8556834922
 40
0.910703893
 40
0.959066712
 40
1.0
 40
1.0
 40
1.0
 40
1.0
 10
10.1137926692
 20
11.3354862143
 30
0.0
 10
10.1142750641
 20
11.3350918197
 30
0.0
 10
10.115317673
 20
11.3342648768
 30
0.0
 10
10.1176706679
 20
11.3324762419
 30
0.0
 10
10.121042212
 20
11.3300446042
 30
0.0
 10
10.1254654523
 20
11.3270082181
 30
0.0
 10
10.1301749174
 20
11.3239153435
 30
0.0
 10
10.1348886502
 20
11.3209547319
 30
0.0
 10
10.1387024746
 20
11.31867764
 30
0.0
 10
10.1415419511
 20
11.3170688938
 30
0.0
 10
10.1434198806
 20
11.3160491178
 30
0.0
 10
10.1450904541
 20
11.3151902321
 30
0.0
 10
10.14613975
 20
11.31468981
 30
0.0
 10
10.146626008
 20
11.3144721628
 30
0.0
  0
LINE
  5
471
100
AcDbEntity
  8
0
100
AcDbLine
 62
7
  6
CONTINUOUS
 10
10.3635243418
 20
11.0917383597
 11
10.3640219344
 21
11.091619815
  0
SPLINE
  5
472
100
AcDbEntity
  8
0
100
AcDbSpline
 62
7
  6
CONTINUOUS
 70
0
 71
3
 72
19
 73
15
 74
0
 42
0.0000001
 43
0.0000001
 44
0.0000000001
 40
0.0
 40
0.0
 40
0.0
 40
0.0
 40
0.2144605628
 40
0.4046142081
 40
0.5688096979
 40
0.7060144083
 40
0.7643227981
 40
0.8157488528
 40
0.8603930253
 40
0.8984635914
 40
0.9303697768
 40
0.9568798423
 40
0.9793544207
 40
1.0
 40
1.0
 40
1.0
 40
1.0
 10
10.4371082542
 20
11.0588024932
 30
0.0
 10
10.4375522231
 20
11.0586037745
 30
0.0
 10
10.4383945085
 20
11.0582391213
 30
0.0
 10
10.4395944438
 20
11.0577644736
 30
0.0
 10
10.4406475419
 20
11.0573974812
 30
0.0
 10
10.441432399
 20
11.0571719415
 30
0.0
 10
10.4419798737
 20
11.0570528353
 30
0.0
 10
10.4423257281
 20
11.05699686
 30
0.0
 10
10.4426290095
 20
11.0569690538
 30
0.0
 10
10.4428894789
 20
11.056969342
 30
0.0
 10
10.4431072934
 20
11.0569977869
 30
0.0
 10
10.4432831738
 20
11.057055029
 30
0.0
 10
10.4434170095
 20
11.0571437692
 30
0.0
 10
10.4434749236
 20
11.0572260362
 30
0.0
 10
10.4434940537
 20
11.057268776
 30
0.0
  0
SPLINE
  5
473
100
AcDbEntity
  8
0
100
AcDbSpline
 62
7
  6
CONTINUOUS
 70
0
 71
3
 72
22
 73
18
 74
0
 42
0.0000001
 43
0.0000001
 44
0.0000000001
 40
0.0
 40
0.0
 40
0.0
 40
0.0
 40
0.1990082255
 40
0.3840560553
 40
0.5502325722
 40
0.6249066943
 40
0.6933644898
 40
0.7552371792
 40
0.8102341541
 40
0.8581546669
 40
0.8989302247
 40
0.9326745249
 40
0.9598283275
 40
0.9712603424
 40
0.9815345514
 40
0.9909743348
 40
1.0
 40
1.0
 40
1.0
 40
1.0
 10
10.5728471201
 20
10.9980463168
 30
0.0
 10
10.5739519061
 20
10.997551819
 30
0.0
 10
10.5760992132
 20
10.9966309311
 30
0.0
 10
10.5792208155
 20
10.9954225412
 30
0.0
 10
10.5816745172
 20
10.9945886851
 30
0.0
 10
10.5834794579
 20
10.9940573727
 30
0.0
 10
10.5846862747
 20
10.9937428877
 30
0.0
 10
10.5857871633
 20
10.9934993573
 30
0.0
 10
10.5867750974
 20
10.9933277094
 30
0.0
 10
10.5876439777
 20
10.9932283116
 30
0.0
 10
10.5883893169
 20
10.9932008601
 30
0.0
 10
10.5890073975
 20
10.9932447373
 30
0.0
 10
10.589439407
 20
10.9933458344
 30
0.0
 10
10.5897102482
 20
10.9934706382
 30
0.0
 10
10.5898678963
 20
10.9935775799
 30
0.0
 10
10.5899909984
 20
10.9937035258
 30
0.0
 10
10.5900495207
 20
10.9938008462
 30
0.0
 10
10.5900719486
 20
10.9938509514
 30
0.0
  0
SPLINE
  5
474
100
AcDbEntity
  8
0
100
AcDbSpline
 62
7
  6
CONTINUOUS
 70
0
 71
3
 72
25
 73
21
 74
0
 42
0.0000001
 43
0.0000001
 44
0.0000000001
 40
0.0
 40
0.0
 40
0.0
 40
0.0
 40
0.1715739775
 40
0.346311141
 40
0.431822578
 40
0.5145261196
 40
0.5933217105
 40
0.6671867905
 40
0.73519177
 40
0.7965101651
 40
0.8504335864
 40
0.8963941218
 40
0.9162632449
 40
0.9340190471
 40
0.9496578499
 40
0.9632137117
 40
0.9747704689
 40
0.9845001645
 40
0.9927260196
 40
1.0
 40
1.0
 40
1.0
 40
1.0
 10
10.7294893812
 20
10.9279338639
 30
0.0
 10
10.7311178967
 20
10.9272049468
 30
0.0
 10
10.7344405355
 20
10.9258123736
 30
0.0
 10
10.7386519199
 20
10.9242499986
 30
0.0
 10
10.7420332919
 20
10.9231155298
 30
0.0
 10
10.7444860092
 20
10.9223517312
 30
0.0
 10
10.7468393337
 20
10.9216782577
 30
0.0
 10
10.749061084
 20
10.9211030985
 30
0.0
 10
10.7511213711
 20
10.9206327552
 30
0.0
 10
10.7529930133
 20
10.9202721058
 30
0.0
 10
10.7546515536
 20
10.9200248182
 30
0.0
 10
10.7558925688
 20
10.9199089539
 30
0.0
 10
10.756761637
 20
10.9198820422
 30
0.0
 10
10.7573157141
 20
10.9198924463
 30
0.0
 10
10.757802737
 20
10.9199322449
 30
0.0
 10
10.7582214785
 20
10.9200012719
 30
0.0
 10
10.7585712707
 20
10.9200994758
 30
0.0
 10
10.7588519895
 20
10.9202276562
 30
0.0
 10
10.7590634688
 20
10.9203877011
 30
0.0
 10
10.7591579383
 20
10.920522885
 30
0.0
 10
10.7591888346
 20
10.9205919298
 30
0.0
  0
SPLINE
  5
475
100
AcDbEntity
  8
0
100
AcDbSpline
 62
7
  6
CONTINUOUS
 70
0
 71
3
 72
29
 73
25
 74
0
 42
0.0000001
 43
0.0000001
 44
0.0000000001
 40
0.0
 40
0.0
 40
0.0
 40
0.0
 40
0.0595471054
 40
0.1277401381
 40
0.2029488566
 40
0.2833617678
 40
0.4520987974
 40
0.5365278532
 40
0.6184525346
 40
0.6960625414
 40
0.7676586248
 40
0.8316786219
 40
0.8604051158
 40
0.8867309676
 40
0.910512782
 40
0.9316279173
 40
0.9499704243
 40
0.9654645591
 40
0.978069991
 40
0.9878191865
 40
0.9916758768
 40
0.9949158176
 40
0.9976352459
 40
1.0
 40
1.0
 40
1.0
 40
1.0
 10
10.859430858
 20
10.8697725758
 30
0.0
 10
10.8601851025
 20
10.8694349789
 30
0.0
 10
10.8618203715
 20
10.8687492863
 30
0.0
 10
10.8644512671
 20
10.8677432749
 30
0.0
 10
10.8673796852
 20
10.8667073836
 30
0.0
 10
10.8716541944
 20
10.8652961532
 30
0.0
 10
10.8760894277
 20
10.8639664678
 30
0.0
 10
10.8805743874
 20
10.8627375863
 30
0.0
 10
10.8838539825
 20
10.8618965338
 30
0.0
 10
10.8869744051
 20
10.8611536015
 30
0.0
 10
10.8898659582
 20
10.8605245223
 30
0.0
 10
10.8921054295
 20
10.8600915466
 30
0.0
 10
10.8937348324
 20
10.8598163976
 30
0.0
 10
10.8948167825
 20
10.8596539494
 30
0.0
 10
10.8957972971
 20
10.8595287848
 30
0.0
 10
10.8966707029
 20
10.8594416152
 30
0.0
 10
10.8974319047
 20
10.8593930362
 30
0.0
 10
10.8980767741
 20
10.8593829886
 30
0.0
 10
10.898601538
 20
10.8594116889
 30
0.0
 10
10.8989622896
 20
10.8594701206
 30
0.0
 10
10.8991848443
 20
10.8595434193
 30
0.0
 10
10.8993073926
 20
10.8596043707
 30
0.0
 10
10.8993991749
 20
10.8596762586
 30
0.0
 10
10.8994404864
 20
10.8597353493
 30
0.0
 10
10.899453886
 20
10.8597653053
 30
0.0
  0
LINE
  5
476
100
AcDbEntity
  8
0
100
AcDbLine
 62
7
  6
CONTINUOUS
 10
10.9231818408
 20
10.8412378895
 11
10.9248909107
 21
10.8406617748
  0
SPLINE
  5
477
100
AcDbEntity
  8
0
100
AcDbSpline
 62
7
  6
CONTINUOUS
 70
0
 71
3
 72
18
 73
14
 74
0
 42
0.0000001
 43
0.0000001
 44
0.0000000001
 40
0.0
 40
0.0
 40
0.0
 40
0.0
 40
0.0372308324
 40
0.0839629245
 40
0.1391674969
 40
0.2016554555
 40
0.3431378578
 40
0.4969934225
 40
0.6511811359
 40
0.7937012621
 40
0.9132508878
 40
0.961258077
 40
1.0
 40
1.0
 40
1.0
 40
1.0
 10
10.9248909107
 20
10.8406617748
 30
0.0
 10
10.9253950788
 20
10.8405096097
 30
0.0
 10
10.9265359909
 20
10.8401794616
 30
0.0
 10
10.9284329029
 20
10.8396532817
 30
0.0
 10
10.9306786039
 20
10.8390481345
 30
0.0
 10
10.9342231702
 20
10.8381122368
 30
0.0
 10
10.9391240195
 20
10.8368472072
 30
0.0
 10
10.9452872628
 20
10.8352833577
 30
0.0
 10
10.9514698652
 20
10.8337362204
 30
0.0
 10
10.9571870239
 20
10.8323282848
 30
0.0
 10
10.9614514803
 20
10.8313024309
 30
0.0
 10
10.9642946034
 20
10.8306451473
 30
0.0
 10
10.9654925559
 20
10.8303792545
 30
0.0
 10
10.9660285542
 20
10.8302651702
 30
0.0
  0
LINE
  5
478
100
AcDbEntity
  8
0
100
AcDbLine
 62
7
  6
CONTINUOUS
 10
10.9660285542
 20
10.8302651702
 11
10.9682621969
 21
10.8299060966
  0
SPLINE
  5
479
100
AcDbEntity
  8
0
100
AcDbSpline
 62
7
  6
CONTINUOUS
 70
0
 71
3
 72
18
 73
14
 74
0
 42
0.0000001
 43
0.0000001
 44
0.0000000001
 40
0.0
 40
0.0
 40
0.0
 40
0.0
 40
0.0104133425
 40
0.0262896616
 40
0.0489786431
 40
0.0788928829
 40
0.1161815387
 40
0.1608780165
 40
0.2723555329
 40
0.4128799181
 40
0.5816650806
 40
0.7777594826
 40
1.0
 40
1.0
 40
1.0
 40
1.0
 10
10.0461081419
 20
11.3682033121
 30
0.0
 10
10.0461021493
 20
11.3681899284
 30
0.0
 10
10.0461045914
 20
11.368150023
 30
0.0
 10
10.0461347821
 20
11.368088094
 30
0.0
 10
10.0461892712
 20
11.3680080372
 30
0.0
 10
10.0462704774
 20
11.3679108751
 30
0.0
 10
10.0463781616
 20
11.3677957315
 30
0.0
 10
10.046572153
 20
11.367604393
 30
0.0
 10
10.046882355
 20
11.3673242553
 30
0.0
 10
10.0473345115
 20
11.3669412185
 30
0.0
 10
10.0478875126
 20
11.3664931239
 30
0.0
 10
10.0485379576
 20
11.3659827092
 30
0.0
 10
10.0490057058
 20
11.3656245689
 30
0.0
 10
10.0492550345
 20
11.3654354173
 30
0.0
  0
SPLINE
  5
47A
100
AcDbEntity
  8
0
100
AcDbSpline
 62
7
  6
CONTINUOUS
 70
0
 71
3
 72
18
 73
14
 74
0
 42
0.0000001
 43
0.0000001
 44
0.0000000001
 40
0.0
 40
0.0
 40
0.0
 40
0.0
 40
0.047790868
 40
0.1030152437
 40
0.2316767041
 40
0.3769819773
 40
0.5289792496
 40
0.6772556299
 40
0.8114293862
 40
0.870140061
 40
0.9217678693
 40
0.9653305514
 40
1.0
 40
1.0
 40
1.0
 40
1.0
 10
10.0492550345
 20
11.3654354173
 30
0.0
 10
10.0497718942
 20
11.365043305
 30
0.0
 10
10.0508936056
 20
11.3642081036
 30
0.0
 10
10.0534379704
 20
11.3623594054
 30
0.0
 10
10.0570890741
 20
11.3597823288
 30
0.0
 10
10.0618527387
 20
11.3565042494
 30
0.0
 10
10.0668709632
 20
11.3531269038
 30
0.0
 10
10.0717977666
 20
11.3498849699
 30
0.0
 10
10.0756972098
 20
11.3473859713
 30
0.0
 10
10.0785158044
 20
11.3456328597
 30
0.0
 10
10.0803022454
 20
11.3445494494
 30
0.0
 10
10.0818234069
 20
11.3436584277
 30
0.0
 10
10.0827515003
 20
11.3431417599
 30
0.0
 10
10.0831675928
 20
11.342921829
 30
0.0
  0
LINE
  5
47B
100
AcDbEntity
  8
0
100
AcDbLine
 62
7
  6
CONTINUOUS
 10
10.0831675928
 20
11.342921829
 11
10.0841199304
 21
11.3424496345
  0
SPLINE
  5
47C
100
AcDbEntity
  8
0
100
AcDbSpline
 62
7
  6
CONTINUOUS
 70
0
 71
3
 72
23
 73
19
 74
0
 42
0.0000001
 43
0.0000001
 44
0.0000000001
 40
0.0
 40
0.0
 40
0.0
 40
0.0
 40
0.036084877
 40
0.0495129682
 40
0.0649495119
 40
0.0824355564
 40
0.1019813888
 40
0.1235720761
 40
0.1471742991
 40
0.2002189416
 40
0.2606302655
 40
0.327777887
 40
0.4009172366
 40
0.47920288
 40
0.5616993229
 40
0.6473942919
 40
0.8240103059
 40
1.0
 40
1.0
 40
1.0
 40
1.0
 10
10.5488857686
 20
11.0144307825
 30
0.0
 10
10.5487403317
 20
11.0141057498
 30
0.0
 10
10.5489339831
 20
11.0135513308
 30
0.0
 10
10.5492610496
 20
11.0130165206
 30
0.0
 10
10.5495324256
 20
11.0126440517
 30
0.0
 10
10.5498644479
 20
11.0122476443
 30
0.0
 10
10.5502585528
 20
11.0118234722
 30
0.0
 10
10.5507129694
 20
11.0113743464
 30
0.0
 10
10.5514261831
 20
11.0107174844
 30
0.0
 10
10.5524626442
 20
11.0098475268
 30
0.0
 10
10.5538773873
 20
11.0087629831
 30
0.0
 10
10.5554915905
 20
11.0076148667
 30
0.0
 10
10.5572862491
 20
11.0064179767
 30
0.0
 10
10.5592399156
 20
11.0051880348
 30
0.0
 10
10.561328635
 20
11.0039413845
 30
0.0
 10
10.5642885154
 20
11.0022626283
 30
0.0
 10
10.5681177585
 20
11.0002489211
 30
0.0
 10
10.5712619862
 20
10.9987558164
 30
0.0
 10
10.5728471201
 20
10.9980463168
 30
0.0
  0
SPLINE
  5
47D
100
AcDbEntity
  8
0
100
AcDbSpline
 62
7
  6
CONTINUOUS
 70
0
 71
3
 72
24
 73
20
 74
0
 42
0.0000001
 43
0.0000001
 44
0.0000000001
 40
0.0
 40
0.0
 40
0.0
 40
0.0
 40
0.0084820507
 40
0.0175157305
 40
0.0275629375
 40
0.0389555056
 40
0.0519127256
 40
0.0665761385
 40
0.1013052003
 40
0.1434681981
 40
0.1930382757
 40
0.249805585
 40
0.3134299325
 40
0.3834649247
 40
0.4593799097
 40
0.5405680682
 40
0.6263526409
 40
0.8086954706
 40
1.0
 40
1.0
 40
1.0
 40
1.0
 10
10.6708244661
 20
11.0194795033
 30
0.0
 10
10.6707983023
 20
11.0194210301
 30
0.0
 10
10.6707607499
 20
11.0192922801
 30
0.0
 10
10.6707546979
 20
11.0190824106
 30
0.0
 10
10.6707963944
 20
11.0188547097
 30
0.0
 10
10.6708845253
 20
11.0186094145
 30
0.0
 10
10.6710184165
 20
11.0183462769
 30
0.0
 10
10.6712724819
 20
11.0179491234
 30
0.0
 10
10.6717132233
 20
11.0174135758
 30
0.0
 10
10.6723898288
 20
11.0167383257
 30
0.0
 10
10.6732380702
 20
11.0160034593
 30
0.0
 10
10.6742518025
 20
11.0152153312
 30
0.0
 10
10.6754235727
 20
11.0143808754
 30
0.0
 10
10.6767439723
 20
11.0135076128
 30
0.0
 10
10.6782020886
 20
11.0126035391
 30
0.0
 10
10.6797854876
 20
11.0116769991
 30
0.0
 10
10.682092585
 20
11.0103970565
 30
0.0
 10
10.6851795295
 20
11.0088105596
 30
0.0
 10
10.6877354785
 20
11.0076129819
 30
0.0
 10
10.6890542132
 20
11.0070227214
 30
0.0
  0
SPLINE
  5
47E
100
AcDbEntity
  8
0
100
AcDbSpline
 62
7
  6
CONTINUOUS
 70
0
 71
3
 72
25
 73
21
 74
0
 42
0.0000001
 43
0.0000001
 44
0.0000000001
 40
0.0
 40
0.0
 40
0.0
 40
0.0
 40
0.0073372687
 40
0.0156091148
 40
0.0253665857
 40
0.0369359153
 40
0.0504912578
 40
0.0661202689
 40
0.0838582416
 40
0.1037036743
 40
0.1496055817
 40
0.2034635293
 40
0.2647172853
 40
0.3326641488
 40
0.4064819592
 40
0.4852442094
 40
0.5679306689
 40
0.6534434362
 40
0.8282490287
 40
1.0
 40
1.0
 40
1.0
 40
1.0
 10
10.5024856125
 20
11.0964229836
 30
0.0
 10
10.5024544997
 20
11.0963534959
 30
0.0
 10
10.5024160778
 20
11.0961923557
 30
0.0
 10
10.5024365253
 20
11.0959270789
 30
0.0
 10
10.5025268509
 20
11.0956317332
 30
0.0
 10
10.5026855
 20
11.0953052856
 30
0.0
 10
10.5029117427
 20
11.0949472725
 30
0.0
 10
10.5032052238
 20
11.0945582554
 30
0.0
 10
10.5035652312
 20
11.0941392179
 30
0.0
 10
10.5041623002
 20
11.093511167
 30
0.0
 10
10.5050730987
 20
11.0926664696
 30
0.0
 10
10.5063597702
 20
11.0915998421
 30
0.0
 10
10.5078730725
 20
11.0904509719
 30
0.0
 10
10.5095940042
 20
11.089235391
 30
0.0
 10
10.5115008063
 20
11.0879698109
 30
0.0
 10
10.513568671
 20
11.0866718384
 30
0.0
 10
10.5157701411
 20
11.0853597674
 30
0.0
 10
10.5188663492
 20
11.0836039334
 30
0.0
 10
10.5228342127
 20
11.08151396
 30
0.0
 10
10.5260825087
 20
11.0799682081
 30
0.0
 10
10.5277091701
 20
11.0792401209
 30
0.0
  0
SPLINE
  5
47F
100
AcDbEntity
  8
0
100
AcDbSpline
 62
7
  6
CONTINUOUS
 70
0
 71
3
 72
18
 73
14
 74
0
 42
0.0000001
 43
0.0000001
 44
0.0000000001
 40
0.0
 40
0.0
 40
0.0
 40
0.0
 40
0.0200279068
 40
0.0433402971
 40
0.0714791758
 40
0.1052912527
 40
0.1452189334
 40
0.1914947221
 40
0.3033824785
 40
0.4409953001
 40
0.6036886374
 40
0.7904547786
 40
1.0
 40
1.0
 40
1.0
 40
1.0
 10
10.4038889516
 20
11.081380949
 30
0.0
 10
10.403872048
 20
11.0813431641
 30
0.0
 10
10.4038522952
 20
11.0812535256
 30
0.0
 10
10.4038664063
 20
11.0811049989
 30
0.0
 10
10.4039190874
 20
11.0809359498
 30
0.0
 10
10.4040097876
 20
11.0807454007
 30
0.0
 10
10.4041382783
 20
11.0805328835
 30
0.0
 10
10.4043754861
 20
11.0801988586
 30
0.0
 10
10.4047715321
 20
11.079731965
 30
0.0
 10
10.4053646435
 20
11.0791200032
 30
0.0
 10
10.4060986448
 20
11.0784306081
 30
0.0
 10
10.4069677436
 20
11.0776691257
 30
0.0
 10
10.4075982118
 20
11.0771460731
 30
0.0
 10
10.4079343753
 20
11.0768730186
 30
0.0
  0
SPLINE
  5
480
100
AcDbEntity
  8
0
100
AcDbSpline
 62
7
  6
CONTINUOUS
 70
0
 71
3
 72
17
 73
13
 74
0
 42
0.0000001
 43
0.0000001
 44
0.0000000001
 40
0.0
 40
0.0
 40
0.0
 40
0.0
 40
0.0491495456
 40
0.1030842597
 40
0.2231015121
 40
0.355236148
 40
0.4941070843
 40
0.6339344466
 40
0.7687327679
 40
0.8925814311
 40
0.9486679642
 40
1.0
 40
1.0
 40
1.0
 40
1.0
 10
10.4079343753
 20
11.0768730186
 30
0.0
 10
10.4083716391
 20
11.0765178438
 30
0.0
 10
10.4092987703
 20
11.0757852285
 30
0.0
 10
10.4113377476
 20
11.0742418219
 30
0.0
 10
10.4141914642
 20
11.0722000508
 30
0.0
 10
10.4179064884
 20
11.0696922729
 30
0.0
 10
10.4218733345
 20
11.0671542165
 30
0.0
 10
10.4259265359
 20
11.0646969888
 30
0.0
 10
10.4298927811
 20
11.062431392
 30
0.0
 10
10.4330782403
 20
11.0607366838
 30
0.0
 10
10.4354549082
 20
11.0595625324
 30
0.0
 10
10.4365712412
 20
11.0590428581
 30
0.0
 10
10.4371082542
 20
11.0588024932
 30
0.0
  0
SPLINE
  5
481
100
AcDbEntity
  8
0
100
AcDbSpline
 62
7
  6
CONTINUOUS
 70
0
 71
3
 72
29
 73
25
 74
0
 42
0.0000001
 43
0.0000001
 44
0.0000000001
 40
0.0
 40
0.0
 40
0.0
 40
0.0
 40
0.002867554
 40
0.0059910742
 40
0.0095063073
 40
0.0135077761
 40
0.0231828618
 40
0.0352968326
 40
0.0499440577
 40
0.0671348801
 40
0.0868375198
 40
0.1089874745
 40
0.1602781888
 40
0.2201605294
 40
0.2875839977
 40
0.3613391867
 40
0.4400821233
 40
0.522352595
 40
0.6065967731
 40
0.6911889107
 40
0.7744653913
 40
0.8547592095
 40
0.9304476804
 40
1.0
 40
1.0
 40
1.0
 40
1.0
 10
10.3530801396
 20
11.16469146
 30
0.0
 10
10.353065108
 20
11.1646578616
 30
0.0
 10
10.353043287
 20
11.1645831022
 30
0.0
 10
10.353037485
 20
11.1644603673
 30
0.0
 10
10.3530566469
 20
11.1643245059
 30
0.0
 10
10.3531190213
 20
11.1641122329
 30
0.0
 10
10.3532662116
 20
11.1638134878
 30
0.0
 10
10.3535257306
 20
11.1634237155
 30
0.0
 10
10.3538786752
 20
11.1629828404
 30
0.0
 10
10.3543235264
 20
11.162492794
 30
0.0
 10
10.3548585972
 20
11.1619557578
 30
0.0
 10
10.3557327706
 20
11.1611398556
 30
0.0
 10
10.3570356371
 20
11.1600290633
 30
0.0
 10
10.3588379605
 20
11.1586117876
 30
0.0
 10
10.3609153122
 20
11.1570798053
 30
0.0
 10
10.3632292283
 20
11.155462422
 30
0.0
 10
10.365736909
 20
11.1537909357
 30
0.0
 10
10.3683913151
 20
11.1520980269
 30
0.0
 10
10.3711418732
 20
11.1504173748
 30
0.0
 10
10.3739351699
 20
11.1487830224
 30
0.0
 10
10.3767158314
 20
11.1472286767
 30
0.0
 10
10.3794277041
 20
11.1457868036
 30
0.0
 10
10.3820151205
 20
11.144487761
 30
0.0
 10
10.3837035324
 20
11.1436964715
 30
0.0
 10
10.3845183969
 20
11.1433317414
 30
0.0
  0
SPLINE
  5
482
100
AcDbEntity
  8
0
100
AcDbSpline
 62
7
  6
CONTINUOUS
 70
0
 71
3
 72
17
 73
13
 74
0
 42
0.0000001
 43
0.0000001
 44
0.0000000001
 40
0.0
 40
0.0
 40
0.0
 40
0.0
 40
0.0372276858
 40
0.0634517019
 40
0.0958387506
 40
0.1347560929
 40
0.1803806331
 40
0.291909488
 40
0.4303717131
 40
0.5951630792
 40
0.7854105556
 40
1.0
 40
1.0
 40
1.0
 40
1.0
 10
10.2424592179
 20
11.2152257015
 30
0.0
 10
10.2424347425
 20
11.2151710492
 30
0.0
 10
10.2424458343
 20
11.2150591983
 30
0.0
 10
10.2425026923
 20
11.2149177575
 30
0.0
 10
10.242579177
 20
11.2147796813
 30
0.0
 10
10.242684988
 20
11.2146242453
 30
0.0
 10
10.2428787378
 20
11.2143750698
 30
0.0
 10
10.2431978417
 20
11.2140219012
 30
0.0
 10
10.2436718717
 20
11.2135521322
 30
0.0
 10
10.2442570625
 20
11.2130155188
 30
0.0
 10
10.2449496091
 20
11.2124154458
 30
0.0
 10
10.2454509287
 20
11.2119997498
 30
0.0
 10
10.245718439
 20
11.2117816082
 30
0.0
  0
SPLINE
  5
483
100
AcDbEntity
  8
0
100
AcDbSpline
 62
7
  6
CONTINUOUS
 70
0
 71
3
 72
18
 73
14
 74
0
 42
0.0000001
 43
0.0000001
 44
0.0000000001
 40
0.0
 40
0.0
 40
0.0
 40
0.0
 40
0.0478943368
 40
0.1022510453
 40
0.2270430104
 40
0.3670737651
 40
0.5141656238
 40
0.6596037791
 40
0.7945250249
 40
0.8553614638
 40
0.9104541525
 40
0.9589239279
 40
1.0
 40
1.0
 40
1.0
 40
1.0
 10
10.245718439
 20
11.2117816082
 30
0.0
 10
10.2462009023
 20
11.2113881831
 30
0.0
 10
10.2472431758
 20
11.210563248
 30
0.0
 10
10.2495938733
 20
11.2087788119
 30
0.0
 10
10.2529596891
 20
11.2063522065
 30
0.0
 10
10.2573732301
 20
11.2033205464
 30
0.0
 10
10.2620711625
 20
11.2002308251
 30
0.0
 10
10.2667739017
 20
11.1972713885
 30
0.0
 10
10.2705801619
 20
11.1949940958
 30
0.0
 10
10.2734159366
 20
11.1933845272
 30
0.0
 10
10.2752933095
 20
11.1923635321
 30
0.0
 10
10.2769651005
 20
11.1915031517
 30
0.0
 10
10.2780159091
 20
11.1910018312
 30
0.0
 10
10.2785032338
 20
11.1907837067
 30
0.0
  0
SPLINE
  5
484
100
AcDbEntity
  8
0
100
AcDbSpline
 62
7
  6
CONTINUOUS
 70
0
 71
3
 72
23
 73
19
 74
0
 42
0.0000001
 43
0.0000001
 44
0.0000000001
 40
0.0
 40
0.0
 40
0.0
 40
0.0
 40
0.049901964
 40
0.102997257
 40
0.1588745936
 40
0.2171608963
 40
0.2774962294
 40
0.3395488136
 40
0.403028786
 40
0.4676914865
 40
0.5333160956
 40
0.5996909629
 40
0.6666035519
 40
0.7338235432
 40
0.801091321
 40
0.8681039009
 40
0.9345356926
 40
1.0
 40
1.0
 40
1.0
 40
1.0
 10
15.0414898784
 20
7.4064720245
 30
0.0
 10
15.0424117598
 20
7.4072455748
 30
0.0
 10
15.04436439
 20
7.4087825903
 30
0.0
 10
15.0474493185
 20
7.4110549478
 30
0.0
 10
15.0507279817
 20
7.4134045578
 30
0.0
 10
15.0541476399
 20
7.4158570835
 30
0.0
 10
15.0576633917
 20
7.4184310064
 30
0.0
 10
15.0612388329
 20
7.4211346942
 30
0.0
 10
15.0648438762
 20
7.4239710098
 30
0.0
 10
15.068454945
 20
7.4269373582
 30
0.0
 10
15.0720557938
 20
7.4300244527
 30
0.0
 10
15.0756351598
 20
7.433218425
 30
0.0
 10
15.0791884299
 20
7.4364982439
 30
0.0
 10
15.0827165566
 20
7.4398363563
 30
0.0
 10
15.0862251726
 20
7.4431983347
 30
0.0
 10
15.0897280607
 20
7.4465388928
 30
0.0
 10
15.0932434267
 20
7.4498029222
 30
0.0
 10
15.0956330642
 20
7.4519035517
 30
0.0
 10
15.096842442
 20
7.4529183402
 30
0.0
  0
SPLINE
  5
485
100
AcDbEntity
  8
0
100
AcDbSpline
 62
7
  6
CONTINUOUS
 70
0
 71
3
 72
22
 73
18
 74
0
 42
0.0000001
 43
0.0000001
 44
0.0000000001
 40
0.0
 40
0.0
 40
0.0
 40
0.0
 40
0.0410155365
 40
0.0865161166
 40
0.1360676886
 40
0.1892557098
 40
0.2456781818
 40
0.3049590972
 40
0.366776173
 40
0.4308714528
 40
0.4970251899
 40
0.565036909
 40
0.705864996
 40
0.7782661319
 40
0.8516389887
 40
0.9256757791
 40
1.0
 40
1.0
 40
1.0
 40
1.0
 10
14.9604787718
 20
7.3384956348
 30
0.0
 10
14.9611645102
 20
7.3390710377
 30
0.0
 10
14.9626633441
 20
7.3402218849
 30
0.0
 10
14.9650867893
 20
7.3419382199
 30
0.0
 10
14.9677515636
 20
7.3437731332
 30
0.0
 10
14.9706061759
 20
7.345752551
 30
0.0
 10
14.9736059896
 20
7.347894891
 30
0.0
 10
14.9767144863
 20
7.3502080127
 30
0.0
 10
14.9799013661
 20
7.3526946842
 30
0.0
 10
14.9831434338
 20
7.3553525141
 30
0.0
 10
14.9864253468
 20
7.3581730779
 30
0.0
 10
14.9908937182
 20
7.3621805241
 30
0.0
 10
14.9953535795
 20
7.3663989479
 30
0.0
 10
14.9998620385
 20
7.3707347174
 30
0.0
 10
15.0033321775
 20
7.3740474099
 30
0.0
 10
15.0068806867
 20
7.3773382598
 30
0.0
 10
15.0093152956
 20
7.3794743439
 30
0.0
 10
15.0105579216
 20
7.3805170309
 30
0.0
  0
SPLINE
  5
486
100
AcDbEntity
  8
0
100
AcDbSpline
 62
7
  6
CONTINUOUS
 70
0
 71
3
 72
25
 73
21
 74
0
 42
0.0000001
 43
0.0000001
 44
0.0000000001
 40
0.0
 40
0.0
 40
0.0
 40
0.0
 40
0.0138058794
 40
0.0292276736
 40
0.0462112832
 40
0.0646932955
 40
0.0846130497
 40
0.1059075183
 40
0.1523749877
 40
0.2036263637
 40
0.2592274528
 40
0.3188193513
 40
0.3821347131
 40
0.4489631726
 40
0.5191248443
 40
0.5924614685
 40
0.668822021
 40
0.8298353597
 40
0.9139467433
 40
1.0
 40
1.0
 40
1.0
 40
1.0
 10
14.8919051827
 20
7.2809555615
 30
0.0
 10
14.892097355
 20
7.2811168132
 30
0.0
 10
14.8925175455
 20
7.2814422716
 30
0.0
 10
14.8932047372
 20
7.281925035
 30
0.0
 10
14.893975835
 20
7.2824354736
 30
0.0
 10
14.8948232461
 20
7.2829783762
 30
0.0
 10
14.8957403742
 20
7.2835576084
 30
0.0
 10
14.8970868452
 20
7.2844093219
 30
0.0
 10
14.8989050543
 20
7.2855803302
 30
0.0
 10
14.9012115542
 20
7.2871434513
 30
0.0
 10
14.9036667141
 20
7.2889103615
 30
0.0
 10
14.906240893
 20
7.2908847152
 30
0.0
 10
14.9089121231
 20
7.2930651171
 30
0.0
 10
14.9116668495
 20
7.2954446018
 30
0.0
 10
14.9144977247
 20
7.2980125866
 30
0.0
 10
14.9174054512
 20
7.3007523851
 30
0.0
 10
14.921466769
 20
7.3046742873
 30
0.0
 10
14.9256406386
 20
7.3087617399
 30
0.0
 10
14.9300424829
 20
7.3128656653
 30
0.0
 10
14.9323664351
 20
7.3149065835
 30
0.0
 10
14.9335642616
 20
7.3159116792
 30
0.0
  0
SPLINE
  5
487
100
AcDbEntity
  8
0
100
AcDbSpline
 62
7
  6
CONTINUOUS
 70
0
 71
3
 72
28
 73
24
 74
0
 42
0.0000001
 43
0.0000001
 44
0.0000000001
 40
0.0
 40
0.0
 40
0.0
 40
0.0
 40
0.0016261493
 40
0.0038625491
 40
0.0067089725
 40
0.0101542927
 40
0.0187814044
 40
0.0296282724
 40
0.0425930731
 40
0.0575810465
 40
0.074508646
 40
0.0933005982
 40
0.1362021473
 40
0.1857912102
 40
0.2416820857
 40
0.3036222964
 40
0.371438659
 40
0.4449978162
 40
0.5241980659
 40
0.6089578206
 40
0.6991680724
 40
0.7946095173
 40
1.0
 40
1.0
 40
1.0
 40
1.0
 10
14.840077842
 20
7.237467259
 30
0.0
 10
14.8400945311
 20
7.2374812628
 30
0.0
 10
14.8401384065
 20
7.2375092461
 30
0.0
 10
14.8402181433
 20
7.2375506468
 30
0.0
 10
14.8403219754
 20
7.2375984569
 30
0.0
 10
14.8405054292
 20
7.2376777657
 30
0.0
 10
14.840789031
 20
7.2377955118
 30
0.0
 10
14.8411892367
 20
7.2379649489
 30
0.0
 10
14.8416647115
 20
7.2381751088
 30
0.0
 10
14.8422089968
 20
7.2384307681
 30
0.0
 10
14.8428164964
 20
7.2387350077
 30
0.0
 10
14.843745639
 20
7.2392314109
 30
0.0
 10
14.8450295475
 20
7.2399908867
 30
0.0
 10
14.8466857861
 20
7.2410917942
 30
0.0
 10
14.8484910502
 20
7.2424243853
 30
0.0
 10
14.8504253317
 20
7.2439890296
 30
0.0
 10
14.8524774766
 20
7.2457810135
 30
0.0
 10
14.8546430232
 20
7.2477922934
 30
0.0
 10
14.8569262534
 20
7.2500090155
 30
0.0
 10
14.8593385105
 20
7.2524124487
 30
0.0
 10
14.8618971371
 20
7.2549773758
 30
0.0
 10
14.8656282757
 20
7.2586543765
 30
0.0
 10
14.8685913391
 20
7.2613929239
 30
0.0
 10
14.8706992568
 20
7.2631616769
 30
0.0
  0
SPLINE
  5
488
100
AcDbEntity
  8
0
100
AcDbSpline
 62
7
  6
CONTINUOUS
 70
0
 71
3
 72
27
 73
23
 74
0
 42
0.0000001
 43
0.0000001
 44
0.0000000001
 40
0.0
 40
0.0
 40
0.0
 40
0.0
 40
0.0156305081
 40
0.0312658959
 40
0.0468991553
 40
0.0625356491
 40
0.0937697596
 40
0.1250163145
 40
0.1562667819
 40
0.1875184336
 40
0.2187702584
 40
0.2500217231
 40
0.3125149346
 40
0.3750116052
 40
0.4375099169
 40
0.5000089778
 40
0.562508398
 40
0.6250079725
 40
0.6875075289
 40
0.7500070842
 40
0.8750030184
 40
1.0
 40
1.0
 40
1.0
 40
1.0
 10
15.0651317834
 20
7.4002017924
 30
0.0
 10
15.0649171751
 20
7.4004575525
 30
0.0
 10
15.0645328851
 20
7.401008778
 30
0.0
 10
15.064106657
 20
7.4019199926
 30
0.0
 10
15.0638239123
 20
7.4028847398
 30
0.0
 10
15.0636173029
 20
7.4042067402
 30
0.0
 10
15.0636275495
 20
7.4058856515
 30
0.0
 10
15.0639354915
 20
7.407868415
 30
0.0
 10
15.0644509932
 20
7.4098063911
 30
0.0
 10
15.0651185628
 20
7.4116961094
 30
0.0
 10
15.0659018993
 20
7.413540305
 30
0.0
 10
15.0670678632
 20
7.4159431581
 30
0.0
 10
15.0687089241
 20
7.4188527643
 30
0.0
 10
15.070881288
 20
7.4222190554
 30
0.0
 10
15.073206136
 20
7.4254815223
 30
0.0
 10
15.0756493612
 20
7.4286558295
 30
0.0
 10
15.0781876721
 20
7.4317543968
 30
0.0
 10
15.0808040755
 20
7.4347871282
 30
0.0
 10
15.0834857308
 20
7.4377622004
 30
0.0
 10
15.0871349979
 20
7.4416609958
 30
0.0
 10
15.0918146363
 20
7.446422186
 30
0.0
 10
15.0956519957
 20
7.4501362183
 30
0.0
 10
15.0975884859
 20
7.451974345
 30
0.0
  0
SPLINE
  5
489
100
AcDbEntity
  8
0
100
AcDbSpline
 62
7
  6
CONTINUOUS
 70
0
 71
3
 72
11
 73
7
 74
0
 42
0.0000001
 43
0.0000001
 44
0.0000000001
 40
0.0
 40
0.0
 40
0.0
 40
0.0
 40
0.2499983177
 40
0.4999983418
 40
0.7499990368
 40
1.0
 40
1.0
 40
1.0
 40
1.0
 10
15.0975884859
 20
7.451974345
 30
0.0
 10
15.1001960002
 20
7.4544494112
 30
0.0
 10
15.1054757146
 20
7.4593316031
 30
0.0
 10
15.1135291262
 20
7.4665063647
 30
0.0
 10
15.1216739462
 20
7.473577021
 30
0.0
 10
15.1271432289
 20
7.4782448973
 30
0.0
 10
15.1298837253
 20
7.4805719204
 30
0.0
  0
LINE
  5
48A
100
AcDbEntity
  8
0
100
AcDbLine
 62
7
  6
CONTINUOUS
 10
15.1298837253
 20
7.4805719204
 11
15.1319658059
 21
7.4823376785
  0
ENDSEC
  0
SECTION
  2
OBJECTS
  0
DICTIONARY
  5
C
100
AcDbDictionary
280
0
281
1
  3
ACAD_GROUP
350
D
  3
ACAD_MLINESTYLE
350
17
  3
ACAD_LAYOUT
350
1A
  3
ACAD_PLOTSETTINGS
350
19
  3
ACAD_PLOTSTYLENAME
350
E
  0
DICTIONARY
  5
D
102
{ACAD_REACTORS
330
C
102
}
100
AcDbDictionary
280
0
281
1
  0
ACDBDICTIONARYWDFLT
  5
E
102
{ACAD_REACTORS
330
C
102
}
100
AcDbDictionary
281
1
  3
Normal
350
F
100
AcDbDictionaryWithDefault
340
F
  0
DICTIONARY
  5
17
102
{ACAD_REACTORS
330
C
102
}
100
AcDbDictionary
280
0
281
1
  3
Standard
350
18
  0
DICTIONARY
  5
19
102
{ACAD_REACTORS
330
C
102
}
100
AcDbDictionary
281
1
  0
DICTIONARY
  5
1A
102
{ACAD_REACTORS
330
C
102
}
100
AcDbDictionary
281
1
  3
Model
350
48B
  3
Layout1
350
48C
  0
ACDBPLACEHOLDER
  5
F
102
{ACAD_REACTORS
330
E
102
}
  0
MLINESTYLE
  5
18
102
{ACAD_REACTORS
330
17
102
}
100
AcDbMlineStyle
  2
STANDARD
 70
0
  3

 62
256
 51
90.0
 52
90.0
 71
2
 49
0.5
 62
256
  6
BYLAYER
 49
-0.5
 62
256
  6
BYLAYER
  0
LAYOUT
  5
48B
102
{ACAD_REACTORS
330
1A
102
}
100
AcDbPlotSettings
  1

  2
none_device
  4
ANSI_C_(22.00_x_17.00_Inches)
  6

 40
0.0
 41
0.0
 42
0.0
 43
0.0
 44
558.8
 45
431.8
 46
0.0
 47
0.0
 48
0.0
 49
0.0
140
0.0
141
0.0
142
1.0
143
1.0
 70
1024
 72
0
 73
0
 74
0
  7

 75
0
147
1.0
148
0.0
149
0.0
100
AcDbLayout
  1
Model
 70
0
 71
0
 10
0.0
 20
0.0
 11
22.0
 21
17.0
 12
0.0
 22
0.0
 32
0.0
 14
0.0
 24
0.0
 34
0.0
 15
0.0
 25
0.0
 35
0.0
146
0.0
 13
0.0
 23
0.0
 33
0.0
 16
1.0
 26
0.0
 36
0.0
 17
0.0
 27
1.0
 37
0.0
 76
0
330
205
345
0
346
0
  0
LAYOUT
  5
48C
102
{ACAD_REACTORS
330
1A
102
}
100
AcDbPlotSettings
  1

  2
none_device
  4
ANSI_C_(22.00_x_17.00_Inches)
  6

 40
0.0
 41
0.0
 42
0.0
 43
0.0
 44
558.8
 45
431.8
 46
0.0
 47
0.0
 48
0.0
 49
0.0
140
0.0
141
0.0
142
1.0
143
1.0
 70
0
 72
0
 73
0
 74
0
  7

 75
0
147
1.0
148
0.0
149
0.0
100
AcDbLayout
  1
Layout1
 70
0
 71
1
 10
0.0
 20
0.0
 11
22.0
 21
17.0
 12
0.0
 22
0.0
 32
0.0
 14
0.0
 24
0.0
 34
0.0
 15
0.0
 25
0.0
 35
0.0
146
0.0
 13
0.0
 23
0.0
 33
0.0
 16
1.0
 26
0.0
 36
0.0
 17
0.0
 27
1.0
 37
0.0
 76
0
330
206
345
0
346
0
  0
ENDSEC
  0
EOF
