999
DXF file: E:\BT Custom\CADOUTPUT\_TOP.dxf
999
Pro/ENGINEER 2018400 by Parametric Technology Corporation
  0
SECTION
  2
HEADER
  9
$ACADVER
  1
AC1018
  9
$DWGCODEPAGE
  3
ANSI_1252
  9
$EXTMAX
 10
22.0
 20
17.0
 30
0.0
  9
$EXTMIN
 10
0.0
 20
0.0
 30
0.0
  9
$LIMMIN
 10
0.0
 20
0.0
  9
$LIMMAX
 10
22.0
 20
17.0
  9
$VIEWCTR
 10
11.0
 20
8.5
  9
$VIEWSIZE
 40
17.0
  9
$CLAYER
  8
0
  9
$LTSCALE
 40
1.21
  9
$CELTYPE
  6
BYLAYER
  9
$DIMSCALE
 40
1.0
  9
$DIMASZ
 40
0.1
  9
$DIMEXO
 40
0.0625
  9
$DIMDLI
 40
0.836
  9
$DIMEXE
 40
0.125
  9
$DIMCEN
 40
0.198
  9
$DIMLFAC
 40
1.0
  9
$DIMBLK
  1
_FILLED
  9
$DIMALT
 70
1
  9
$DIMALTD
 70
2
  9
$DIMALTTD
 70
2
  9
$DIMALTF
 40
25.4
  9
$DIMTXT
 40
0.08
  9
$DIMTOL
 70
1
  9
$DIMLIM
 70
0
  9
$DIMTFAC
 40
1.0
  9
$DIMTP
 40
0.001
  9
$DIMTM
 40
0.001
  9
$DIMGAP
 40
0.09
  9
$DIMDSEP
 70
46
  9
$AUNITS
 70
0
  9
$PDMODE
 70
3
  9
$PDSIZE
 40
0.06
  9
$HANDSEED
  5
523
  9
$TILEMODE
 70
1
  9
$MEASUREMENT
 70
0
  9
$INSUNITS
 70
1
  0
ENDSEC
  0
SECTION
  2
CLASSES
  0
CLASS
  1
ACDBDICTIONARYWDFLT
  2
AcDbDictionaryWithDefault
  3
AutoCAD 2000
 90
0
 91
1
280
0
281
0
  0
CLASS
  1
ACDBPLACEHOLDER
  2
AcDbPlaceHolder
  3
AutoCAD 2000
 90
0
 91
1
280
0
281
0
  0
CLASS
  1
LAYOUT
  2
AcDbLayout
  3
AutoCAD 2000
 90
0
 91
0
280
0
281
0
  0
ENDSEC
  0
SECTION
  2
TABLES
  0
TABLE
  2
VPORT
  5
8
100
AcDbSymbolTable
 70
2
  0
VPORT
  5
1F4
100
AcDbSymbolTableRecord
100
AcDbViewportTableRecord
  2
*ACTIVE
 70
0
 10
0.0
 20
0.0
 11
1.0
 21
1.0
 12
11.0
 22
8.5
 13
0.0
 23
0.0
 14
1.0
 24
1.0
 15
0.0
 25
0.0
 16
0.0
 26
0.0
 36
1.0
 17
0.0
 27
0.0
 37
0.0
 40
17.0
 41
1.2941176471
 42
50.0
 43
0.0
 44
0.0
 50
0.0
 51
0.0
 71
0
 72
100
 73
1
 74
1
 75
0
 76
0
 77
0
 78
0
  0
ENDTAB
  0
TABLE
  2
LTYPE
  5
5
100
AcDbSymbolTable
 70
6
  0
LTYPE
  5
14
100
AcDbSymbolTableRecord
100
AcDbLinetypeTableRecord
  2
BYBLOCK
 70
0
  3

 72
65
 73
0
 40
0.0
  0
LTYPE
  5
15
100
AcDbSymbolTableRecord
100
AcDbLinetypeTableRecord
  2
BYLAYER
 70
0
  3

 72
65
 73
0
 40
0.0
  0
LTYPE
  5
16
100
AcDbSymbolTableRecord
100
AcDbLinetypeTableRecord
  2
CONTINUOUS
 70
64
  3
Solid line
 72
65
 73
0
 40
0.0
  0
LTYPE
  5
1F5
100
AcDbSymbolTableRecord
100
AcDbLinetypeTableRecord
  2
CENTER
 70
64
  3
____ _ ____ _ ____ _ ____ _ ____ _ ____ _ ____
 72
65
 73
4
 40
0.6
 49
0.375
 74
0
 49
-0.075
 74
0
 49
0.075
 74
0
 49
-0.075
 74
0
  0
LTYPE
  5
1F6
100
AcDbSymbolTableRecord
100
AcDbLinetypeTableRecord
  2
HIDDEN
 70
64
  3
- - - - - - - - - - - - - - - - - - - -
 72
65
 73
2
 40
0.2
 49
0.1
 74
0
 49
-0.1
 74
0
  0
LTYPE
  5
1F7
100
AcDbSymbolTableRecord
100
AcDbLinetypeTableRecord
  2
PHANTOM
 70
64
  3
_____ _ _ _____ _ _ _____ _ _ _____
 72
65
 73
6
 40
0.8
 49
0.45
 74
0
 49
-0.05
 74
0
 49
0.1
 74
0
 49
-0.05
 74
0
 49
0.1
 74
0
 49
-0.05
 74
0
  0
LTYPE
  5
1F8
100
AcDbSymbolTableRecord
100
AcDbLinetypeTableRecord
  2
DOT
 70
64
  3
. . . . . . . . . . . . . . . . . . . .
 72
65
 73
2
 40
0.2
 49
0.1
 74
0
 49
-0.1
 74
0
  0
LTYPE
  5
1F9
100
AcDbSymbolTableRecord
100
AcDbLinetypeTableRecord
  2
DASHED
 70
64
  3
- - - - - - - - - - - - - - - - - - - -
 72
65
 73
2
 40
0.2
 49
0.1
 74
0
 49
-0.1
 74
0
  0
ENDTAB
  0
TABLE
  2
LAYER
  5
2
100
AcDbSymbolTable
 70
36
  0
LAYER
  5
10
100
AcDbSymbolTableRecord
100
AcDbLayerTableRecord
  2
0
 70
0
 62
7
  6
CONTINUOUS
370
-3
390
F
  0
LAYER
  5
1FA
100
AcDbSymbolTableRecord
100
AcDbLayerTableRecord
  2
DEFAULT_1
 70
0
 62
7
  6
CENTER
370
-3
390
F
  0
LAYER
  5
1FB
100
AcDbSymbolTableRecord
100
AcDbLayerTableRecord
  2
DEFAULT_2
 70
0
 62
8
  6
HIDDEN
370
-3
390
F
  0
LAYER
  5
1FC
100
AcDbSymbolTableRecord
100
AcDbLayerTableRecord
  2
DEFAULT_3
 70
0
 62
7
  6
PHANTOM
370
-3
390
F
  0
LAYER
  5
1FD
100
AcDbSymbolTableRecord
100
AcDbLayerTableRecord
  2
ALL_FEATURES
 70
0
 62
7
  6
CONTINUOUS
370
-3
390
F
  0
LAYER
  5
1FE
100
AcDbSymbolTableRecord
100
AcDbLayerTableRecord
  2
AXES_FEATURES
 70
0
 62
7
  6
CONTINUOUS
370
-3
390
F
  0
LAYER
  5
1FF
100
AcDbSymbolTableRecord
100
AcDbLayerTableRecord
  2
DEFAULT_COORDINATE_SYSTEM
 70
0
 62
7
  6
CONTINUOUS
370
-3
390
F
  0
LAYER
  5
200
100
AcDbSymbolTableRecord
100
AcDbLayerTableRecord
  2
DEFAULT_DATUM_AXES
 70
0
 62
7
  6
CONTINUOUS
370
-3
390
F
  0
LAYER
  5
201
100
AcDbSymbolTableRecord
100
AcDbLayerTableRecord
  2
DEFAULT_DATUM_PLANES
 70
0
 62
7
  6
CONTINUOUS
370
-3
390
F
  0
LAYER
  5
202
100
AcDbSymbolTableRecord
100
AcDbLayerTableRecord
  2
DIMENSIONS
 70
0
 62
7
  6
CONTINUOUS
370
-3
390
F
  0
ENDTAB
  0
TABLE
  2
STYLE
  5
3
100
AcDbSymbolTable
 70
1
  0
STYLE
  5
11
100
AcDbSymbolTableRecord
100
AcDbTextStyleTableRecord
  2
STANDARD
 70
0
 40
0.0
 41
0.8
 50
0.0
 71
0
 42
0.2
  3
txt
  4

  0
STYLE
  5
203
100
AcDbSymbolTableRecord
100
AcDbTextStyleTableRecord
  2
TEXTSTYLE_1
 70
0
 40
0.0
 41
0.8
 50
0.0
 71
0
 42
0.2
  3
gdt
  4

  0
ENDTAB
  0
TABLE
  2
VIEW
  5
6
100
AcDbSymbolTable
 70
0
  0
ENDTAB
  0
TABLE
  2
UCS
  5
7
100
AcDbSymbolTable
 70
0
  0
ENDTAB
  0
TABLE
  2
APPID
  5
9
100
AcDbSymbolTable
 70
1
  0
APPID
  5
204
100
AcDbSymbolTableRecord
100
AcDbRegAppTableRecord
  2
ACAD
 70
0
  0
ENDTAB
  0
TABLE
  2
BLOCK_RECORD
  5
1
100
AcDbSymbolTable
 70
0
  0
BLOCK_RECORD
  5
205
100
AcDbSymbolTableRecord
100
AcDbBlockTableRecord
  2
*Model_Space
  0
BLOCK_RECORD
  5
206
100
AcDbSymbolTableRecord
100
AcDbBlockTableRecord
  2
*Paper_Space
  0
BLOCK_RECORD
  5
207
100
AcDbSymbolTableRecord
100
AcDbBlockTableRecord
  2
_FILLED
  0
ENDTAB
  0
TABLE
  2
DIMSTYLE
  5
A
100
AcDbSymbolTable
 70
1
100
AcDbDimStyleTable
 71
0
  0
DIMSTYLE
105
208
100
AcDbSymbolTableRecord
100
AcDbDimStyleTableRecord
  2
STANDARD
 70
0
  3

  4

 40
1.0
 41
0.1
 42
0.0625
 43
0.38
 44
0.125
 45
0.0
 46
0.0
 47
0.001
 48
0.001
140
0.08
141
0.09
142
0.0
143
25.4
144
1.0
145
0.0
146
1.0
147
0.09
 71
1.0
 72
0.0
 73
1
 74
1
 75
0
 76
0
 77
0
 78
4
 79
1
170
1
171
2
172
0
173
0
174
0
175
0
176
0
177
0
178
0
270
2
179
3
271
3
272
3
273
2
274
2
275
0
280
0
281
0
282
0
283
1
284
4
285
0
286
0
287
3
288
0
340
11
278
46
341
207
342
207
343
207
344
207
  0
ENDTAB
  0
ENDSEC
  0
SECTION
  2
BLOCKS
  0
BLOCK
  5
20
100
AcDbEntity
  8
0
100
AcDbBlockBegin
  2
*Model_Space
 70
0
 10
0.0
 20
0.0
 30
0.0
  3
*Model_Space
  1

  0
ENDBLK
  5
21
100
AcDbEntity
  8
0
100
AcDbBlockEnd
  0
BLOCK
  5
1C
100
AcDbEntity
  8
0
100
AcDbBlockBegin
  2
*Paper_Space
 70
0
 10
0.0
 20
0.0
 30
0.0
  3
*Paper_Space
  1

  0
ENDBLK
  5
1D
100
AcDbEntity
  8
0
100
AcDbBlockEnd
  0
BLOCK
  5
209
100
AcDbEntity
  8
0
100
AcDbBlockBegin
  2
_FILLED
 70
64
 10
0.0
 20
0.0
  3
_FILLED
  1

  0
SOLID
  5
20A
100
AcDbEntity
  8
0
  6
BYBLOCK
 62
0
100
AcDbTrace
 10
0.0
 20
0.0
 11
-1.0
 21
0.2
 12
-1.0
 22
-0.2
 13
-1.0
 23
-0.2
  0
ENDBLK
  5
20B
100
AcDbEntity
  8
0
  6
BYBLOCK
 62
0
100
AcDbBlockEnd
  0
ENDSEC
  0
SECTION
  2
ENTITIES
  0
LINE
  5
20C
100
AcDbEntity
  8
0
100
AcDbLine
 62
9
  6
CONTINUOUS
 10
0.776799366
 20
12.7499514864
 11
0.776799366
 21
12.3094567391
  0
LINE
  5
20D
100
AcDbEntity
  8
0
100
AcDbLine
 62
9
  6
CONTINUOUS
 10
0.800229826
 20
12.2169124507
 11
0.800229826
 21
12.8424957748
  0
LINE
  5
20E
100
AcDbEntity
  8
0
100
AcDbLine
 62
9
  6
CONTINUOUS
 10
0.8501518314
 20
12.1697041127
 11
0.8501518314
 21
12.8897041127
  0
LINE
  5
20F
100
AcDbEntity
  8
0
100
AcDbLine
 62
9
  6
CONTINUOUS
 10
0.8651208078
 20
12.1697041127
 11
0.8651208078
 21
12.8897041127
  0
LINE
  5
210
100
AcDbEntity
  8
0
100
AcDbLine
 62
9
  6
CONTINUOUS
 10
0.9109085316
 20
12.1996171927
 11
0.9109085316
 21
12.8597910328
  0
LINE
  5
211
100
AcDbEntity
  8
0
100
AcDbLine
 62
9
  6
CONTINUOUS
 10
0.9433201454
 20
12.8360836445
 11
0.9433201454
 21
12.223324581
  0
LINE
  5
212
100
AcDbEntity
  8
0
100
AcDbLine
 62
9
  6
CONTINUOUS
 10
1.4471775676
 20
12.3120445103
 11
1.4471775676
 21
12.7473637152
  0
LINE
  5
213
100
AcDbEntity
  8
0
100
AcDbLine
 62
7
  6
CONTINUOUS
 10
1.4775387105
 20
12.3497041127
 11
1.4775387105
 21
12.7097041127
  0
LINE
  5
214
100
AcDbEntity
  8
0
100
AcDbLine
 62
9
  6
CONTINUOUS
 10
1.5675387105
 20
12.3497041127
 11
1.5675387105
 21
12.7097041127
  0
LINE
  5
215
100
AcDbEntity
  8
0
100
AcDbLine
 62
7
  6
CONTINUOUS
 10
1.5775387105
 20
12.7086035258
 11
1.5775387105
 21
12.3508046997
  0
LINE
  5
216
100
AcDbEntity
  8
0
100
AcDbLine
 62
7
  6
CONTINUOUS
 10
1.6315387105
 20
11.40328621
 11
1.6315387105
 21
11.3883172336
  0
LINE
  5
217
100
AcDbEntity
  8
0
100
AcDbLine
 62
7
  6
CONTINUOUS
 10
1.6315387105
 20
13.6561220154
 11
1.6315387105
 21
13.6710909919
  0
LINE
  5
218
100
AcDbEntity
  8
0
100
AcDbLine
 62
7
  6
CONTINUOUS
 10
1.8115387105
 20
12.1057041127
 11
1.8115387105
 21
12.0157041127
  0
LINE
  5
219
100
AcDbEntity
  8
0
100
AcDbLine
 62
7
  6
CONTINUOUS
 10
1.8115387105
 20
12.9537041127
 11
1.8115387105
 21
13.0437041127
  0
LINE
  5
21A
100
AcDbEntity
  8
0
100
AcDbLine
 62
7
  6
CONTINUOUS
 10
2.1715387105
 20
12.1057041127
 11
2.1715387105
 21
12.0157041127
  0
LINE
  5
21B
100
AcDbEntity
  8
0
100
AcDbLine
 62
7
  6
CONTINUOUS
 10
2.1715387105
 20
12.9537041127
 11
2.1715387105
 21
13.0437041127
  0
LINE
  5
21C
100
AcDbEntity
  8
0
100
AcDbLine
 62
7
  6
CONTINUOUS
 10
2.3515387105
 20
11.40328621
 11
2.3515387105
 21
11.3883172336
  0
LINE
  5
21D
100
AcDbEntity
  8
0
100
AcDbLine
 62
7
  6
CONTINUOUS
 10
2.3515387105
 20
13.6561220154
 11
2.3515387105
 21
13.6710909919
  0
LINE
  5
21E
100
AcDbEntity
  8
0
100
AcDbLine
 62
7
  6
CONTINUOUS
 10
2.4055387105
 20
12.3508046997
 11
2.4055387105
 21
12.7086035258
  0
LINE
  5
21F
100
AcDbEntity
  8
0
100
AcDbLine
 62
9
  6
CONTINUOUS
 10
2.4155387105
 20
12.7097041127
 11
2.4155387105
 21
12.3497041127
  0
LINE
  5
220
100
AcDbEntity
  8
0
100
AcDbLine
 62
7
  6
CONTINUOUS
 10
2.5055387105
 20
12.7097041127
 11
2.5055387105
 21
12.3497041127
  0
LINE
  5
221
100
AcDbEntity
  8
0
100
AcDbLine
 62
9
  6
CONTINUOUS
 10
2.5358998534
 20
12.7473637152
 11
2.5358998534
 21
12.3120445103
  0
LINE
  5
222
100
AcDbEntity
  8
0
100
AcDbLine
 62
9
  6
CONTINUOUS
 10
3.0397572757
 20
12.223324581
 11
3.0397572757
 21
12.8360836445
  0
LINE
  5
223
100
AcDbEntity
  8
0
100
AcDbLine
 62
9
  6
CONTINUOUS
 10
3.0721688895
 20
12.8597910328
 11
3.0721688895
 21
12.1996171927
  0
LINE
  5
224
100
AcDbEntity
  8
0
100
AcDbLine
 62
9
  6
CONTINUOUS
 10
3.1179566132
 20
12.8897041127
 11
3.1179566132
 21
12.1697041127
  0
LINE
  5
225
100
AcDbEntity
  8
0
100
AcDbLine
 62
9
  6
CONTINUOUS
 10
3.1329255897
 20
12.8897041127
 11
3.1329255897
 21
12.1697041127
  0
LINE
  5
226
100
AcDbEntity
  8
0
100
AcDbLine
 62
9
  6
CONTINUOUS
 10
3.1828475951
 20
12.8424957748
 11
3.1828475951
 21
12.2169124507
  0
LINE
  5
227
100
AcDbEntity
  8
0
100
AcDbLine
 62
9
  6
CONTINUOUS
 10
3.2062780551
 20
12.3094567391
 11
3.2062780551
 21
12.7499514864
  0
LINE
  5
228
100
AcDbEntity
  8
0
100
AcDbLine
 62
7
  6
CONTINUOUS
 10
5.2190387105
 20
11.566786149
 11
5.2190387105
 21
11.5897041127
  0
LINE
  5
229
100
AcDbEntity
  8
0
100
AcDbLine
 62
7
  6
CONTINUOUS
 10
5.2690387105
 20
9.0870641127
 11
5.2690387105
 21
9.0929021284
  0
LINE
  5
22A
100
AcDbEntity
  8
0
100
AcDbLine
 62
7
  6
CONTINUOUS
 10
5.4290387105
 20
9.0070641127
 11
5.4290387105
 21
1.5744241127
  0
LINE
  5
22B
100
AcDbEntity
  8
0
100
AcDbLine
 62
7
  6
CONTINUOUS
 10
6.4290387105
 20
9.0070641127
 11
6.4290387105
 21
1.5744241127
  0
LINE
  5
22C
100
AcDbEntity
  8
0
100
AcDbLine
 62
7
  6
CONTINUOUS
 10
6.5890387105
 20
9.0870641127
 11
6.5890387105
 21
9.0929021284
  0
LINE
  5
22D
100
AcDbEntity
  8
0
100
AcDbLine
 62
7
  6
CONTINUOUS
 10
6.6390387105
 20
11.566786149
 11
6.6390387105
 21
11.5897041127
  0
LINE
  5
22E
100
AcDbEntity
  8
0
100
AcDbLine
 62
9
  6
CONTINUOUS
 10
8.776799366
 20
12.7499514864
 11
8.776799366
 21
12.3094567391
  0
LINE
  5
22F
100
AcDbEntity
  8
0
100
AcDbLine
 62
9
  6
CONTINUOUS
 10
8.800229826
 20
12.2169124507
 11
8.800229826
 21
12.8424957748
  0
LINE
  5
230
100
AcDbEntity
  8
0
100
AcDbLine
 62
9
  6
CONTINUOUS
 10
8.8501518314
 20
12.1697041127
 11
8.8501518314
 21
12.8897041127
  0
LINE
  5
231
100
AcDbEntity
  8
0
100
AcDbLine
 62
9
  6
CONTINUOUS
 10
8.8651208078
 20
12.1697041127
 11
8.8651208078
 21
12.8897041127
  0
LINE
  5
232
100
AcDbEntity
  8
0
100
AcDbLine
 62
9
  6
CONTINUOUS
 10
8.9109085316
 20
12.1996171927
 11
8.9109085316
 21
12.8597910328
  0
LINE
  5
233
100
AcDbEntity
  8
0
100
AcDbLine
 62
9
  6
CONTINUOUS
 10
8.9433201454
 20
12.8360836445
 11
8.9433201454
 21
12.223324581
  0
LINE
  5
234
100
AcDbEntity
  8
0
100
AcDbLine
 62
9
  6
CONTINUOUS
 10
9.4471775676
 20
12.3120445103
 11
9.4471775676
 21
12.7473637152
  0
LINE
  5
235
100
AcDbEntity
  8
0
100
AcDbLine
 62
7
  6
CONTINUOUS
 10
9.4775387105
 20
12.3497041127
 11
9.4775387105
 21
12.7097041127
  0
LINE
  5
236
100
AcDbEntity
  8
0
100
AcDbLine
 62
9
  6
CONTINUOUS
 10
9.5675387105
 20
12.3497041127
 11
9.5675387105
 21
12.7097041127
  0
LINE
  5
237
100
AcDbEntity
  8
0
100
AcDbLine
 62
7
  6
CONTINUOUS
 10
9.5775387105
 20
12.7086035258
 11
9.5775387105
 21
12.3508046997
  0
LINE
  5
238
100
AcDbEntity
  8
0
100
AcDbLine
 62
7
  6
CONTINUOUS
 10
9.6315387105
 20
11.40328621
 11
9.6315387105
 21
11.3883172336
  0
LINE
  5
239
100
AcDbEntity
  8
0
100
AcDbLine
 62
7
  6
CONTINUOUS
 10
9.6315387105
 20
13.6561220154
 11
9.6315387105
 21
13.6710909919
  0
LINE
  5
23A
100
AcDbEntity
  8
0
100
AcDbLine
 62
7
  6
CONTINUOUS
 10
9.8115387105
 20
12.1057041127
 11
9.8115387105
 21
12.0157041127
  0
LINE
  5
23B
100
AcDbEntity
  8
0
100
AcDbLine
 62
7
  6
CONTINUOUS
 10
9.8115387105
 20
12.9537041127
 11
9.8115387105
 21
13.0437041127
  0
LINE
  5
23C
100
AcDbEntity
  8
0
100
AcDbLine
 62
7
  6
CONTINUOUS
 10
10.1715387105
 20
12.1057041127
 11
10.1715387105
 21
12.0157041127
  0
LINE
  5
23D
100
AcDbEntity
  8
0
100
AcDbLine
 62
7
  6
CONTINUOUS
 10
10.1715387105
 20
12.9537041127
 11
10.1715387105
 21
13.0437041127
  0
LINE
  5
23E
100
AcDbEntity
  8
0
100
AcDbLine
 62
7
  6
CONTINUOUS
 10
10.3515387105
 20
11.40328621
 11
10.3515387105
 21
11.3883172336
  0
LINE
  5
23F
100
AcDbEntity
  8
0
100
AcDbLine
 62
7
  6
CONTINUOUS
 10
10.3515387105
 20
13.6561220154
 11
10.3515387105
 21
13.6710909919
  0
LINE
  5
240
100
AcDbEntity
  8
0
100
AcDbLine
 62
7
  6
CONTINUOUS
 10
10.4055387105
 20
12.3508046997
 11
10.4055387105
 21
12.7086035258
  0
LINE
  5
241
100
AcDbEntity
  8
0
100
AcDbLine
 62
9
  6
CONTINUOUS
 10
10.4155387105
 20
12.7097041127
 11
10.4155387105
 21
12.3497041127
  0
LINE
  5
242
100
AcDbEntity
  8
0
100
AcDbLine
 62
7
  6
CONTINUOUS
 10
10.5055387105
 20
12.7097041127
 11
10.5055387105
 21
12.3497041127
  0
LINE
  5
243
100
AcDbEntity
  8
0
100
AcDbLine
 62
9
  6
CONTINUOUS
 10
10.5358998534
 20
12.7473637152
 11
10.5358998534
 21
12.3120445103
  0
LINE
  5
244
100
AcDbEntity
  8
0
100
AcDbLine
 62
9
  6
CONTINUOUS
 10
11.0397572757
 20
12.223324581
 11
11.0397572757
 21
12.8360836445
  0
LINE
  5
245
100
AcDbEntity
  8
0
100
AcDbLine
 62
9
  6
CONTINUOUS
 10
11.0721688895
 20
12.8597910328
 11
11.0721688895
 21
12.1996171927
  0
LINE
  5
246
100
AcDbEntity
  8
0
100
AcDbLine
 62
9
  6
CONTINUOUS
 10
11.1179566132
 20
12.8897041127
 11
11.1179566132
 21
12.1697041127
  0
LINE
  5
247
100
AcDbEntity
  8
0
100
AcDbLine
 62
9
  6
CONTINUOUS
 10
11.1329255897
 20
12.8897041127
 11
11.1329255897
 21
12.1697041127
  0
LINE
  5
248
100
AcDbEntity
  8
0
100
AcDbLine
 62
9
  6
CONTINUOUS
 10
11.1828475951
 20
12.8424957748
 11
11.1828475951
 21
12.2169124507
  0
LINE
  5
249
100
AcDbEntity
  8
0
100
AcDbLine
 62
9
  6
CONTINUOUS
 10
11.2062780551
 20
12.3094567391
 11
11.2062780551
 21
12.7499514864
  0
LINE
  5
24A
100
AcDbEntity
  8
0
100
AcDbLine
 62
9
  6
CONTINUOUS
 10
12.776799366
 20
12.7499514864
 11
12.776799366
 21
12.3094567391
  0
LINE
  5
24B
100
AcDbEntity
  8
0
100
AcDbLine
 62
9
  6
CONTINUOUS
 10
6.4290387105
 20
8.8462641127
 11
5.4290387105
 21
8.8462641127
  0
LINE
  5
24C
100
AcDbEntity
  8
0
100
AcDbLine
 62
7
  6
CONTINUOUS
 10
6.5090382392
 20
9.0070641127
 11
5.3490391819
 21
9.0070641127
  0
LINE
  5
24D
100
AcDbEntity
  8
0
100
AcDbLine
 62
9
  6
CONTINUOUS
 10
6.5890387105
 20
9.0870641127
 11
5.2690387105
 21
9.0870641127
  0
LINE
  5
24E
100
AcDbEntity
  8
0
100
AcDbLine
 62
9
  6
CONTINUOUS
 10
6.5890387105
 20
9.0929021284
 11
5.2690387105
 21
9.0929021284
  0
LINE
  5
24F
100
AcDbEntity
  8
0
100
AcDbLine
 62
9
  6
CONTINUOUS
 10
6.5562929228
 20
9.1574547381
 11
5.3017844982
 21
9.1574547381
  0
LINE
  5
250
100
AcDbEntity
  8
0
100
AcDbLine
 62
9
  6
CONTINUOUS
 10
6.5361472598
 20
9.1921483289
 11
5.3219301613
 21
9.1921483288
  0
LINE
  5
251
100
AcDbEntity
  8
0
100
AcDbLine
 62
9
  6
CONTINUOUS
 10
12.800229826
 20
12.2169124507
 11
12.800229826
 21
12.8424957748
  0
LINE
  5
252
100
AcDbEntity
  8
0
100
AcDbLine
 62
9
  6
CONTINUOUS
 10
12.8501518314
 20
12.1697041127
 11
12.8501518314
 21
12.8897041127
  0
LINE
  5
253
100
AcDbEntity
  8
0
100
AcDbLine
 62
9
  6
CONTINUOUS
 10
12.8651208078
 20
12.1697041127
 11
12.8651208078
 21
12.8897041127
  0
LINE
  5
254
100
AcDbEntity
  8
0
100
AcDbLine
 62
9
  6
CONTINUOUS
 10
12.9109085316
 20
12.1996171927
 11
12.9109085316
 21
12.8597910328
  0
LINE
  5
255
100
AcDbEntity
  8
0
100
AcDbLine
 62
9
  6
CONTINUOUS
 10
12.9433201454
 20
12.8360836445
 11
12.9433201454
 21
12.223324581
  0
LINE
  5
256
100
AcDbEntity
  8
0
100
AcDbLine
 62
9
  6
CONTINUOUS
 10
13.4471775676
 20
12.3120445103
 11
13.4471775676
 21
12.7473637152
  0
LINE
  5
257
100
AcDbEntity
  8
0
100
AcDbLine
 62
7
  6
CONTINUOUS
 10
13.4775387105
 20
12.3497041127
 11
13.4775387105
 21
12.7097041127
  0
LINE
  5
258
100
AcDbEntity
  8
0
100
AcDbLine
 62
9
  6
CONTINUOUS
 10
13.5675387105
 20
12.3497041127
 11
13.5675387105
 21
12.7097041127
  0
LINE
  5
259
100
AcDbEntity
  8
0
100
AcDbLine
 62
7
  6
CONTINUOUS
 10
13.5775387105
 20
12.7086028552
 11
13.5775387105
 21
12.3508053703
  0
LINE
  5
25A
100
AcDbEntity
  8
0
100
AcDbLine
 62
7
  6
CONTINUOUS
 10
13.6315387105
 20
11.40328621
 11
13.6315387105
 21
11.3883172336
  0
LINE
  5
25B
100
AcDbEntity
  8
0
100
AcDbLine
 62
7
  6
CONTINUOUS
 10
13.6315387105
 20
13.6561220154
 11
13.6315387105
 21
13.6710909919
  0
LINE
  5
25C
100
AcDbEntity
  8
0
100
AcDbLine
 62
7
  6
CONTINUOUS
 10
13.8115387105
 20
12.1057041127
 11
13.8115387105
 21
12.0157041127
  0
LINE
  5
25D
100
AcDbEntity
  8
0
100
AcDbLine
 62
7
  6
CONTINUOUS
 10
13.8115387105
 20
12.9537041127
 11
13.8115387105
 21
13.0437041127
  0
LINE
  5
25E
100
AcDbEntity
  8
0
100
AcDbLine
 62
7
  6
CONTINUOUS
 10
14.1715387105
 20
12.1057041127
 11
14.1715387105
 21
12.0157041127
  0
LINE
  5
25F
100
AcDbEntity
  8
0
100
AcDbLine
 62
7
  6
CONTINUOUS
 10
14.1715387105
 20
12.9537041127
 11
14.1715387105
 21
13.0437041127
  0
LINE
  5
260
100
AcDbEntity
  8
0
100
AcDbLine
 62
7
  6
CONTINUOUS
 10
14.3515387105
 20
11.40328621
 11
14.3515387105
 21
11.3883172336
  0
LINE
  5
261
100
AcDbEntity
  8
0
100
AcDbLine
 62
7
  6
CONTINUOUS
 10
14.3515387105
 20
13.6561220154
 11
14.3515387105
 21
13.6710909919
  0
LINE
  5
262
100
AcDbEntity
  8
0
100
AcDbLine
 62
7
  6
CONTINUOUS
 10
14.4055387105
 20
12.3508053703
 11
14.4055387105
 21
12.7086028552
  0
LINE
  5
263
100
AcDbEntity
  8
0
100
AcDbLine
 62
9
  6
CONTINUOUS
 10
14.4155387105
 20
12.7097041127
 11
14.4155387105
 21
12.3497041127
  0
LINE
  5
264
100
AcDbEntity
  8
0
100
AcDbLine
 62
7
  6
CONTINUOUS
 10
14.5055387105
 20
12.7097041127
 11
14.5055387105
 21
12.3497041127
  0
LINE
  5
265
100
AcDbEntity
  8
0
100
AcDbLine
 62
9
  6
CONTINUOUS
 10
14.5358998534
 20
12.7473637152
 11
14.5358998534
 21
12.3120445103
  0
LINE
  5
266
100
AcDbEntity
  8
0
100
AcDbLine
 62
9
  6
CONTINUOUS
 10
15.0397572757
 20
12.223324581
 11
15.0397572757
 21
12.8360836445
  0
LINE
  5
267
100
AcDbEntity
  8
0
100
AcDbLine
 62
9
  6
CONTINUOUS
 10
15.0721688895
 20
12.8597910328
 11
15.0721688895
 21
12.1996171927
  0
LINE
  5
268
100
AcDbEntity
  8
0
100
AcDbLine
 62
9
  6
CONTINUOUS
 10
15.1179566132
 20
12.8897041127
 11
15.1179566132
 21
12.1697041127
  0
LINE
  5
269
100
AcDbEntity
  8
0
100
AcDbLine
 62
9
  6
CONTINUOUS
 10
15.1329255897
 20
12.8897041127
 11
15.1329255897
 21
12.1697041127
  0
LINE
  5
26A
100
AcDbEntity
  8
0
100
AcDbLine
 62
9
  6
CONTINUOUS
 10
15.1828475951
 20
12.8424957748
 11
15.1828475951
 21
12.2169124507
  0
LINE
  5
26B
100
AcDbEntity
  8
0
100
AcDbLine
 62
9
  6
CONTINUOUS
 10
15.2062780551
 20
12.3094567391
 11
15.2062780551
 21
12.7499514864
  0
LINE
  5
26C
100
AcDbEntity
  8
0
100
AcDbLine
 62
9
  6
CONTINUOUS
 10
1.7712913369
 20
11.3149647682
 11
2.2117860841
 21
11.3149647682
  0
LINE
  5
26D
100
AcDbEntity
  8
0
100
AcDbLine
 62
9
  6
CONTINUOUS
 10
9.7712913369
 20
11.3149647682
 11
10.2117860841
 21
11.3149647682
  0
LINE
  5
26E
100
AcDbEntity
  8
0
100
AcDbLine
 62
9
  6
CONTINUOUS
 10
13.7712913369
 20
11.3149647682
 11
14.2117860841
 21
11.3149647682
  0
LINE
  5
26F
100
AcDbEntity
  8
0
100
AcDbLine
 62
9
  6
CONTINUOUS
 10
14.3043303726
 20
11.3383952282
 11
13.6787470485
 21
11.3383952282
  0
LINE
  5
270
100
AcDbEntity
  8
0
100
AcDbLine
 62
9
  6
CONTINUOUS
 10
10.3043303726
 20
11.3383952282
 11
9.6787470485
 21
11.3383952282
  0
LINE
  5
271
100
AcDbEntity
  8
0
100
AcDbLine
 62
9
  6
CONTINUOUS
 10
2.3043303726
 20
11.3383952282
 11
1.6787470485
 21
11.3383952282
  0
LINE
  5
272
100
AcDbEntity
  8
0
100
AcDbLine
 62
9
  6
CONTINUOUS
 10
14.3515387105
 20
11.3883172336
 11
13.6315387105
 21
11.3883172336
  0
LINE
  5
273
100
AcDbEntity
  8
0
100
AcDbLine
 62
9
  6
CONTINUOUS
 10
10.3515387105
 20
11.3883172336
 11
9.6315387105
 21
11.3883172336
  0
LINE
  5
274
100
AcDbEntity
  8
0
100
AcDbLine
 62
9
  6
CONTINUOUS
 10
2.3515387105
 20
11.3883172336
 11
1.6315387105
 21
11.3883172336
  0
LINE
  5
275
100
AcDbEntity
  8
0
100
AcDbLine
 62
9
  6
CONTINUOUS
 10
14.3515387105
 20
11.40328621
 11
13.6315387105
 21
11.40328621
  0
LINE
  5
276
100
AcDbEntity
  8
0
100
AcDbLine
 62
9
  6
CONTINUOUS
 10
10.3515387105
 20
11.40328621
 11
9.6315387105
 21
11.40328621
  0
LINE
  5
277
100
AcDbEntity
  8
0
100
AcDbLine
 62
9
  6
CONTINUOUS
 10
2.3515387105
 20
11.40328621
 11
1.6315387105
 21
11.40328621
  0
LINE
  5
278
100
AcDbEntity
  8
0
100
AcDbLine
 62
9
  6
CONTINUOUS
 10
14.3216256306
 20
11.4490739338
 11
13.6614517905
 21
11.4490739338
  0
LINE
  5
279
100
AcDbEntity
  8
0
100
AcDbLine
 62
9
  6
CONTINUOUS
 10
10.3216256306
 20
11.4490739338
 11
9.6614517905
 21
11.4490739338
  0
LINE
  5
27A
100
AcDbEntity
  8
0
100
AcDbLine
 62
9
  6
CONTINUOUS
 10
2.3216256306
 20
11.4490739338
 11
1.6614517905
 21
11.4490739338
  0
LINE
  5
27B
100
AcDbEntity
  8
0
100
AcDbLine
 62
9
  6
CONTINUOUS
 10
5.2731433145
 20
11.4738711933
 11
6.5849341066
 21
11.4738711933
  0
LINE
  5
27C
100
AcDbEntity
  8
0
100
AcDbLine
 62
9
  6
CONTINUOUS
 10
1.6851591788
 20
11.4814855476
 11
2.2979182423
 21
11.4814855476
  0
LINE
  5
27D
100
AcDbEntity
  8
0
100
AcDbLine
 62
9
  6
CONTINUOUS
 10
9.6851591788
 20
11.4814855476
 11
10.2979182423
 21
11.4814855476
  0
LINE
  5
27E
100
AcDbEntity
  8
0
100
AcDbLine
 62
9
  6
CONTINUOUS
 10
13.6851591788
 20
11.4814855476
 11
14.2979182423
 21
11.4814855476
  0
LINE
  5
27F
100
AcDbEntity
  8
0
100
AcDbLine
 62
9
  6
CONTINUOUS
 10
5.250954067
 20
11.5080531947
 11
6.6071233541
 21
11.5080531946
  0
LINE
  5
280
100
AcDbEntity
  8
0
100
AcDbLine
 62
9
  6
CONTINUOUS
 10
6.6390387105
 20
11.566786149
 11
5.2190387105
 21
11.566786149
  0
LINE
  5
281
100
AcDbEntity
  8
0
100
AcDbLine
 62
9
  6
CONTINUOUS
 10
6.6390387105
 20
11.5897041127
 11
5.2190387105
 21
11.5897041127
  0
LINE
  5
282
100
AcDbEntity
  8
0
100
AcDbLine
 62
7
  6
CONTINUOUS
 10
6.5690387105
 20
11.6597041127
 11
5.2890387105
 21
11.6597041127
  0
LINE
  5
283
100
AcDbEntity
  8
0
100
AcDbLine
 62
9
  6
CONTINUOUS
 10
14.209198313
 20
11.9853429698
 11
13.7738791081
 21
11.9853429698
  0
LINE
  5
284
100
AcDbEntity
  8
0
100
AcDbLine
 62
9
  6
CONTINUOUS
 10
10.209198313
 20
11.9853429698
 11
9.7738791081
 21
11.9853429698
  0
LINE
  5
285
100
AcDbEntity
  8
0
100
AcDbLine
 62
9
  6
CONTINUOUS
 10
2.209198313
 20
11.9853429698
 11
1.7738791081
 21
11.9853429698
  0
LINE
  5
286
100
AcDbEntity
  8
0
100
AcDbLine
 62
7
  6
CONTINUOUS
 10
14.1715387105
 20
12.0157041127
 11
13.8115387105
 21
12.0157041127
  0
LINE
  5
287
100
AcDbEntity
  8
0
100
AcDbLine
 62
7
  6
CONTINUOUS
 10
10.1715387105
 20
12.0157041127
 11
9.8115387105
 21
12.0157041127
  0
LINE
  5
288
100
AcDbEntity
  8
0
100
AcDbLine
 62
7
  6
CONTINUOUS
 10
2.1715387105
 20
12.0157041127
 11
1.8115387105
 21
12.0157041127
  0
LINE
  5
289
100
AcDbEntity
  8
0
100
AcDbLine
 62
9
  6
CONTINUOUS
 10
14.1715387105
 20
12.1057041127
 11
13.8115387105
 21
12.1057041127
  0
LINE
  5
28A
100
AcDbEntity
  8
0
100
AcDbLine
 62
9
  6
CONTINUOUS
 10
10.1715387105
 20
12.1057041127
 11
9.8115387105
 21
12.1057041127
  0
LINE
  5
28B
100
AcDbEntity
  8
0
100
AcDbLine
 62
9
  6
CONTINUOUS
 10
2.1715387105
 20
12.1057041127
 11
1.8115387105
 21
12.1057041127
  0
LINE
  5
28C
100
AcDbEntity
  8
0
100
AcDbLine
 62
7
  6
CONTINUOUS
 10
1.8126392975
 20
12.1157041127
 11
2.1704381236
 21
12.1157041127
  0
LINE
  5
28D
100
AcDbEntity
  8
0
100
AcDbLine
 62
7
  6
CONTINUOUS
 10
9.8126392975
 20
12.1157041127
 11
10.1704381236
 21
12.1157041127
  0
LINE
  5
28E
100
AcDbEntity
  8
0
100
AcDbLine
 62
7
  6
CONTINUOUS
 10
13.8126399681
 20
12.1157041127
 11
14.170437453
 21
12.1157041127
  0
LINE
  5
28F
100
AcDbEntity
  8
0
100
AcDbLine
 62
7
  6
CONTINUOUS
 10
12.8651208078
 20
12.1697041127
 11
12.8501518314
 21
12.1697041127
  0
LINE
  5
290
100
AcDbEntity
  8
0
100
AcDbLine
 62
7
  6
CONTINUOUS
 10
8.8651208078
 20
12.1697041127
 11
8.8501518314
 21
12.1697041127
  0
LINE
  5
291
100
AcDbEntity
  8
0
100
AcDbLine
 62
7
  6
CONTINUOUS
 10
0.8651208078
 20
12.1697041127
 11
0.8501518314
 21
12.1697041127
  0
LINE
  5
292
100
AcDbEntity
  8
0
100
AcDbLine
 62
7
  6
CONTINUOUS
 10
3.1179566132
 20
12.1697041127
 11
3.1329255897
 21
12.1697041127
  0
LINE
  5
293
100
AcDbEntity
  8
0
100
AcDbLine
 62
7
  6
CONTINUOUS
 10
11.1179566132
 20
12.1697041127
 11
11.1329255897
 21
12.1697041127
  0
LINE
  5
294
100
AcDbEntity
  8
0
100
AcDbLine
 62
7
  6
CONTINUOUS
 10
15.1179566132
 20
12.1697041127
 11
15.1329255897
 21
12.1697041127
  0
LINE
  5
295
100
AcDbEntity
  8
0
100
AcDbLine
 62
7
  6
CONTINUOUS
 10
13.5675387105
 20
12.3497041127
 11
13.4775387105
 21
12.3497041127
  0
LINE
  5
296
100
AcDbEntity
  8
0
100
AcDbLine
 62
7
  6
CONTINUOUS
 10
9.5675387105
 20
12.3497041127
 11
9.4775387105
 21
12.3497041127
  0
LINE
  5
297
100
AcDbEntity
  8
0
100
AcDbLine
 62
7
  6
CONTINUOUS
 10
1.5675387105
 20
12.3497041127
 11
1.4775387105
 21
12.3497041127
  0
LINE
  5
298
100
AcDbEntity
  8
0
100
AcDbLine
 62
7
  6
CONTINUOUS
 10
2.4155387105
 20
12.3497041127
 11
2.5055387105
 21
12.3497041127
  0
LINE
  5
299
100
AcDbEntity
  8
0
100
AcDbLine
 62
7
  6
CONTINUOUS
 10
10.4155387105
 20
12.3497041127
 11
10.5055387105
 21
12.3497041127
  0
LINE
  5
29A
100
AcDbEntity
  8
0
100
AcDbLine
 62
7
  6
CONTINUOUS
 10
14.4155387105
 20
12.3497041127
 11
14.5055387105
 21
12.3497041127
  0
LWPOLYLINE
  5
29B
100
AcDbEntity
  8
0
100
AcDbPolyline
 62
7
  6
CONTINUOUS
 90
6
 70
0
 10
19.5955692663
 20
12.1339466184
 10
19.5913273824
 20
12.1248282408
 10
19.5867645768
 20
12.1120419302
 10
19.5834007469
 20
12.0981424773
 10
19.5813942816
 20
12.0832634485
 10
19.5808209711
 20
12.0693957276
  0
LWPOLYLINE
  5
29C
100
AcDbEntity
  8
0
100
AcDbPolyline
 62
7
  6
CONTINUOUS
 90
7
 70
0
 10
19.521809472
 20
11.9912356547
 10
19.5176481684
 20
11.982528554
 10
19.5129394811
 20
11.9705455882
 10
19.5092871802
 20
11.9583046856
 10
19.5067111209
 20
11.9458340992
 10
19.5052269338
 20
11.9331689214
 10
19.5048305551
 20
11.9223054619
  0
LWPOLYLINE
  5
29D
100
AcDbEntity
  8
0
100
AcDbPolyline
 62
7
  6
CONTINUOUS
 90
7
 70
0
 10
19.5476017842
 20
12.0674153794
 10
19.5431195426
 20
12.0583645733
 10
19.5385696658
 20
12.0469953893
 10
19.5350475489
 20
12.0353061824
 10
19.5325491024
 20
12.0232531837
 10
19.531088639
 20
12.0107771297
 10
19.530686166
 20
11.9996746637
  0
LWPOLYLINE
  5
29E
100
AcDbEntity
  8
0
100
AcDbPolyline
 62
7
  6
CONTINUOUS
 90
3
 70
0
 10
19.3984545272
 20
8.4282954921
 10
19.3853937285
 20
8.4136733186
 10
19.3705993808
 20
8.3972205174
  0
LWPOLYLINE
  5
29F
100
AcDbEntity
  8
0
100
AcDbPolyline
 62
7
  6
CONTINUOUS
 90
4
 70
0
 10
19.3173623964
 20
8.3394623761
 10
19.2844991786
 20
8.3028854386
 10
19.2519859102
 20
8.2638761573
 10
19.2273140695
 20
8.2320958731
  0
LINE
  5
2A0
100
AcDbEntity
  8
0
100
AcDbLine
 62
7
  6
CONTINUOUS
 10
19.3705993808
 20
8.3972205174
 11
19.357143986
 21
8.3823554245
  0
LWPOLYLINE
  5
2A1
100
AcDbEntity
  8
0
100
AcDbPolyline
 62
7
  6
CONTINUOUS
 90
3
 70
0
 10
19.3573190775
 20
8.3825447745
 10
19.3301388585
 20
8.3531976025
 10
19.3173619207
 20
8.3394618654
  0
LINE
  5
2A2
100
AcDbEntity
  8
0
100
AcDbLine
 62
7
  6
CONTINUOUS
 10
13.5675387105
 20
12.7097041127
 11
13.4775387105
 21
12.7097041127
  0
LINE
  5
2A3
100
AcDbEntity
  8
0
100
AcDbLine
 62
7
  6
CONTINUOUS
 10
9.5675387105
 20
12.7097041127
 11
9.4775387105
 21
12.7097041127
  0
LINE
  5
2A4
100
AcDbEntity
  8
0
100
AcDbLine
 62
7
  6
CONTINUOUS
 10
1.5675387105
 20
12.7097041127
 11
1.4775387105
 21
12.7097041127
  0
LINE
  5
2A5
100
AcDbEntity
  8
0
100
AcDbLine
 62
7
  6
CONTINUOUS
 10
2.4155387105
 20
12.7097041127
 11
2.5055387105
 21
12.7097041127
  0
LINE
  5
2A6
100
AcDbEntity
  8
0
100
AcDbLine
 62
7
  6
CONTINUOUS
 10
10.4155387105
 20
12.7097041127
 11
10.5055387105
 21
12.7097041127
  0
LINE
  5
2A7
100
AcDbEntity
  8
0
100
AcDbLine
 62
7
  6
CONTINUOUS
 10
14.4155387105
 20
12.7097041127
 11
14.5055387105
 21
12.7097041127
  0
LINE
  5
2A8
100
AcDbEntity
  8
0
100
AcDbLine
 62
7
  6
CONTINUOUS
 10
12.8651208078
 20
12.8897041127
 11
12.8501518314
 21
12.8897041127
  0
LINE
  5
2A9
100
AcDbEntity
  8
0
100
AcDbLine
 62
7
  6
CONTINUOUS
 10
8.8651208078
 20
12.8897041127
 11
8.8501518314
 21
12.8897041127
  0
LINE
  5
2AA
100
AcDbEntity
  8
0
100
AcDbLine
 62
7
  6
CONTINUOUS
 10
0.8651208078
 20
12.8897041127
 11
0.8501518314
 21
12.8897041127
  0
LINE
  5
2AB
100
AcDbEntity
  8
0
100
AcDbLine
 62
7
  6
CONTINUOUS
 10
3.1179566132
 20
12.8897041127
 11
3.1329255897
 21
12.8897041127
  0
LINE
  5
2AC
100
AcDbEntity
  8
0
100
AcDbLine
 62
7
  6
CONTINUOUS
 10
11.1179566132
 20
12.8897041127
 11
11.1329255897
 21
12.8897041127
  0
LINE
  5
2AD
100
AcDbEntity
  8
0
100
AcDbLine
 62
7
  6
CONTINUOUS
 10
15.1179566132
 20
12.8897041127
 11
15.1329255897
 21
12.8897041127
  0
LINE
  5
2AE
100
AcDbEntity
  8
0
100
AcDbLine
 62
7
  6
CONTINUOUS
 10
14.170437453
 20
12.9437041127
 11
13.8126399681
 21
12.9437041127
  0
LINE
  5
2AF
100
AcDbEntity
  8
0
100
AcDbLine
 62
7
  6
CONTINUOUS
 10
10.1704381236
 20
12.9437041127
 11
9.8126392975
 21
12.9437041127
  0
LINE
  5
2B0
100
AcDbEntity
  8
0
100
AcDbLine
 62
7
  6
CONTINUOUS
 10
2.1704381236
 20
12.9437041127
 11
1.8126392975
 21
12.9437041127
  0
LINE
  5
2B1
100
AcDbEntity
  8
0
100
AcDbLine
 62
9
  6
CONTINUOUS
 10
1.8115387105
 20
12.9537041127
 11
2.1715387105
 21
12.9537041127
  0
LINE
  5
2B2
100
AcDbEntity
  8
0
100
AcDbLine
 62
9
  6
CONTINUOUS
 10
9.8115387105
 20
12.9537041127
 11
10.1715387105
 21
12.9537041127
  0
LINE
  5
2B3
100
AcDbEntity
  8
0
100
AcDbLine
 62
9
  6
CONTINUOUS
 10
13.8115387105
 20
12.9537041127
 11
14.1715387105
 21
12.9537041127
  0
LINE
  5
2B4
100
AcDbEntity
  8
0
100
AcDbLine
 62
7
  6
CONTINUOUS
 10
1.8115387105
 20
13.0437041127
 11
2.1715387105
 21
13.0437041127
  0
LINE
  5
2B5
100
AcDbEntity
  8
0
100
AcDbLine
 62
7
  6
CONTINUOUS
 10
9.8115387105
 20
13.0437041127
 11
10.1715387105
 21
13.0437041127
  0
LINE
  5
2B6
100
AcDbEntity
  8
0
100
AcDbLine
 62
7
  6
CONTINUOUS
 10
13.8115387105
 20
13.0437041127
 11
14.1715387105
 21
13.0437041127
  0
LINE
  5
2B7
100
AcDbEntity
  8
0
100
AcDbLine
 62
9
  6
CONTINUOUS
 10
1.7738791081
 20
13.0740652557
 11
2.209198313
 21
13.0740652557
  0
LINE
  5
2B8
100
AcDbEntity
  8
0
100
AcDbLine
 62
9
  6
CONTINUOUS
 10
9.7738791081
 20
13.0740652557
 11
10.209198313
 21
13.0740652557
  0
LINE
  5
2B9
100
AcDbEntity
  8
0
100
AcDbLine
 62
9
  6
CONTINUOUS
 10
13.7738791081
 20
13.0740652557
 11
14.209198313
 21
13.0740652557
  0
LWPOLYLINE
  5
2BA
100
AcDbEntity
  8
0
100
AcDbPolyline
 62
7
  6
CONTINUOUS
 90
6
 70
0
 10
19.6632518378
 20
12.1871472104
 10
19.6601451877
 20
12.179282262
 10
19.6565344023
 20
12.1672716072
 10
19.65394832
 20
12.154329392
 10
19.652436141
 20
12.1404902767
 10
19.6520079139
 20
12.1274924605
  0
LINE
  5
2BB
100
AcDbEntity
  8
0
100
AcDbLine
 62
7
  6
CONTINUOUS
 10
19.6641537337
 20
12.1890981273
 11
19.6632521215
 21
12.1871471377
  0
LWPOLYLINE
  5
2BC
100
AcDbEntity
  8
0
100
AcDbPolyline
 62
7
  6
CONTINUOUS
 90
13
 70
0
 10
19.2271544093
 20
8.2318834054
 10
19.1938223174
 20
8.1853428692
 10
19.1575973915
 20
8.1289642582
 10
19.1250403879
 20
8.0715654651
 10
19.096245683
 20
8.013510864
 10
19.0712358707
 20
7.9551720338
 10
19.0499813876
 20
7.8968574073
 10
19.0324051543
 20
7.8387317052
 10
19.018444062
 20
7.7810292615
 10
19.0080139668
 20
7.7238824231
 10
19.0010049686
 20
7.6673138881
 10
18.9973202248
 20
7.6113022725
 10
18.9968417674
 20
7.5582964025
  0
LINE
  5
2BD
100
AcDbEntity
  8
0
100
AcDbLine
 62
7
  6
CONTINUOUS
 10
19.2273140517
 20
8.2320958494
 11
19.2271639743
 21
8.2318961294
  0
LINE
  5
2BE
100
AcDbEntity
  8
0
100
AcDbLine
 62
9
  6
CONTINUOUS
 10
14.2979182423
 20
13.5779226779
 11
13.6851591788
 21
13.5779226779
  0
LINE
  5
2BF
100
AcDbEntity
  8
0
100
AcDbLine
 62
9
  6
CONTINUOUS
 10
10.2979182423
 20
13.5779226779
 11
9.6851591788
 21
13.5779226779
  0
LINE
  5
2C0
100
AcDbEntity
  8
0
100
AcDbLine
 62
9
  6
CONTINUOUS
 10
2.2979182423
 20
13.5779226779
 11
1.6851591788
 21
13.5779226779
  0
LINE
  5
2C1
100
AcDbEntity
  8
0
100
AcDbLine
 62
9
  6
CONTINUOUS
 10
1.6614517905
 20
13.6103342917
 11
2.3216256306
 21
13.6103342917
  0
LINE
  5
2C2
100
AcDbEntity
  8
0
100
AcDbLine
 62
9
  6
CONTINUOUS
 10
9.6614517905
 20
13.6103342917
 11
10.3216256306
 21
13.6103342917
  0
LINE
  5
2C3
100
AcDbEntity
  8
0
100
AcDbLine
 62
9
  6
CONTINUOUS
 10
13.6614517905
 20
13.6103342917
 11
14.3216256306
 21
13.6103342917
  0
LINE
  5
2C4
100
AcDbEntity
  8
0
100
AcDbLine
 62
9
  6
CONTINUOUS
 10
1.6315387105
 20
13.6561220154
 11
2.3515387105
 21
13.6561220154
  0
LINE
  5
2C5
100
AcDbEntity
  8
0
100
AcDbLine
 62
9
  6
CONTINUOUS
 10
9.6315387105
 20
13.6561220154
 11
10.3515387105
 21
13.6561220154
  0
LINE
  5
2C6
100
AcDbEntity
  8
0
100
AcDbLine
 62
9
  6
CONTINUOUS
 10
13.6315387105
 20
13.6561220154
 11
14.3515387105
 21
13.6561220154
  0
LINE
  5
2C7
100
AcDbEntity
  8
0
100
AcDbLine
 62
9
  6
CONTINUOUS
 10
1.6315387105
 20
13.6710909919
 11
2.3515387105
 21
13.6710909919
  0
LINE
  5
2C8
100
AcDbEntity
  8
0
100
AcDbLine
 62
9
  6
CONTINUOUS
 10
9.6315387105
 20
13.6710909919
 11
10.3515387105
 21
13.6710909919
  0
LINE
  5
2C9
100
AcDbEntity
  8
0
100
AcDbLine
 62
9
  6
CONTINUOUS
 10
13.6315387105
 20
13.6710909919
 11
14.3515387105
 21
13.6710909919
  0
LINE
  5
2CA
100
AcDbEntity
  8
0
100
AcDbLine
 62
9
  6
CONTINUOUS
 10
1.6787470485
 20
13.7210129973
 11
2.3043303726
 21
13.7210129973
  0
LINE
  5
2CB
100
AcDbEntity
  8
0
100
AcDbLine
 62
9
  6
CONTINUOUS
 10
9.6787470485
 20
13.7210129973
 11
10.3043303726
 21
13.7210129973
  0
LINE
  5
2CC
100
AcDbEntity
  8
0
100
AcDbLine
 62
9
  6
CONTINUOUS
 10
13.6787470485
 20
13.7210129973
 11
14.3043303726
 21
13.7210129973
  0
LINE
  5
2CD
100
AcDbEntity
  8
0
100
AcDbLine
 62
9
  6
CONTINUOUS
 10
14.2117860841
 20
13.7444434573
 11
13.7712913369
 21
13.7444434573
  0
LINE
  5
2CE
100
AcDbEntity
  8
0
100
AcDbLine
 62
9
  6
CONTINUOUS
 10
10.2117860841
 20
13.7444434573
 11
9.7712913369
 21
13.7444434573
  0
LINE
  5
2CF
100
AcDbEntity
  8
0
100
AcDbLine
 62
9
  6
CONTINUOUS
 10
2.2117860841
 20
13.7444434573
 11
1.7712913369
 21
13.7444434573
  0
LWPOLYLINE
  5
2D0
100
AcDbEntity
  8
0
100
AcDbPolyline
 62
7
  6
CONTINUOUS
 90
5
 70
0
 10
19.5565088329
 20
8.6828798128
 10
19.5462
 20
8.6587273036
 10
19.5337487895
 20
8.6318994682
 10
19.5196844961
 20
8.6040184303
 10
19.5049204017
 20
8.5769709483
  0
LWPOLYLINE
  5
2D1
100
AcDbEntity
  8
0
100
AcDbPolyline
 62
7
  6
CONTINUOUS
 90
6
 70
0
 10
19.5049196457
 20
8.5769696144
 10
19.4868571272
 20
8.5465713531
 10
19.4664362398
 20
8.515277837
 10
19.4446223244
 20
8.4848027176
 10
19.4214711291
 20
8.4552474641
 10
19.3984549987
 20
8.4282960217
  0
LWPOLYLINE
  5
2D2
100
AcDbEntity
  8
0
100
AcDbPolyline
 62
7
  6
CONTINUOUS
 90
11
 70
0
 10
18.9968419061
 20
7.5583224892
 10
18.9989587378
 20
7.5097675547
 10
19.0038117898
 20
7.4583422742
 10
19.0114011216
 20
7.4066255619
 10
19.0217430286
 20
7.3548908675
 10
19.0348329529
 20
7.3034051697
 10
19.0506462523
 20
7.252434519
 10
19.0691395149
 20
7.2022412597
 10
19.0902516214
 20
7.1530816659
 10
19.1138893687
 20
7.1052112986
 10
19.1368086398
 20
7.0640948298
  0
LINE
  5
2D3
100
AcDbEntity
  8
0
100
AcDbLine
 62
7
  6
CONTINUOUS
 10
18.9968423993
 20
7.5582964079
 11
18.9968419061
 21
7.5583224892
  0
LINE
  5
2D4
100
AcDbEntity
  8
0
100
AcDbLine
 62
7
  6
CONTINUOUS
 10
19.599558875
 20
8.8327331896
 11
19.5956897913
 21
8.8099330857
  0
LWPOLYLINE
  5
2D5
100
AcDbEntity
  8
0
100
AcDbPolyline
 62
7
  6
CONTINUOUS
 90
7
 70
0
 10
19.5957625601
 20
8.8102782022
 10
19.5923548113
 20
8.7941164638
 10
19.5876589487
 20
8.7749560425
 10
19.5817735073
 20
8.754009011
 10
19.5745803628
 20
8.7313479885
 10
19.5659688659
 20
8.7070596682
 10
19.5565092611
 20
8.6828808595
  0
LINE
  5
2D6
100
AcDbEntity
  8
0
100
AcDbLine
 62
7
  6
CONTINUOUS
 10
20.6657155004
 20
8.3394618654
 11
20.6385055541
 21
8.3687595003
  0
LINE
  5
2D7
100
AcDbEntity
  8
0
100
AcDbLine
 62
7
  6
CONTINUOUS
 10
20.6385055541
 20
8.3687595003
 11
20.6257583435
 21
8.3825447745
  0
LWPOLYLINE
  5
2D8
100
AcDbEntity
  8
0
100
AcDbPolyline
 62
7
  6
CONTINUOUS
 90
4
 70
0
 10
20.6259334351
 20
8.3823554245
 10
20.6124780403
 20
8.3972205174
 10
20.5976836926
 20
8.4136733186
 10
20.5846228939
 20
8.4282954921
  0
LWPOLYLINE
  5
2D9
100
AcDbEntity
  8
0
100
AcDbPolyline
 62
7
  6
CONTINUOUS
 90
6
 70
0
 10
20.5846224224
 20
8.4282960217
 10
20.561606292
 20
8.4552474641
 10
20.5384550967
 20
8.4848027176
 10
20.5166411813
 20
8.515277837
 10
20.4962202939
 20
8.5465713531
 10
20.4781577753
 20
8.5769696144
  0
LWPOLYLINE
  5
2DA
100
AcDbEntity
  8
0
100
AcDbPolyline
 62
7
  6
CONTINUOUS
 90
4
 70
0
 10
20.7557633515
 20
8.2320958731
 10
20.7310915109
 20
8.2638761573
 10
20.6985782425
 20
8.3028854386
 10
20.6657150247
 20
8.3394623761
  0
LINE
  5
2DB
100
AcDbEntity
  8
0
100
AcDbLine
 62
7
  6
CONTINUOUS
 10
20.7557633694
 20
8.2320958494
 11
20.7559134468
 21
8.2318961294
  0
LWPOLYLINE
  5
2DC
100
AcDbEntity
  8
0
100
AcDbPolyline
 62
7
  6
CONTINUOUS
 90
3
 70
0
 10
19.530686166
 20
9.8784753349
 10
19.5312956671
 20
9.8646050847
 10
19.5331184591
 20
9.8512634171
  0
LWPOLYLINE
  5
2DD
100
AcDbEntity
  8
0
100
AcDbPolyline
 62
7
  6
CONTINUOUS
 90
4
 70
0
 10
19.5808209711
 20
9.948197271
 10
19.5812987936
 20
9.9351605347
 10
19.5829935102
 20
9.9199959154
 10
19.5843019661
 20
9.9129760414
  0
LINE
  5
2DE
100
AcDbEntity
  8
0
100
AcDbLine
 62
7
  6
CONTINUOUS
 10
19.652025362
 20
10.0036018622
 11
19.6520349958
 21
10.0029362117
  0
LINE
  5
2DF
100
AcDbEntity
  8
0
100
AcDbLine
 62
7
  6
CONTINUOUS
 10
19.6520079138
 20
10.0062958845
 11
19.652025362
 21
10.0036018622
  0
LINE
  5
2E0
100
AcDbEntity
  8
0
100
AcDbLine
 62
7
  6
CONTINUOUS
 10
19.5015387105
 20
12.1493184214
 11
19.5015387105
 21
12.2328808107
  0
LINE
  5
2E1
100
AcDbEntity
  8
0
100
AcDbLine
 62
7
  6
CONTINUOUS
 10
19.5040387105
 20
12.5297041127
 11
19.5040387105
 21
12.2691341592
  0
LINE
  5
2E2
100
AcDbEntity
  8
0
100
AcDbLine
 62
7
  6
CONTINUOUS
 10
19.504830555
 20
11.9223042417
 11
19.504830555
 21
9.8011035053
  0
LINE
  5
2E3
100
AcDbEntity
  8
0
100
AcDbLine
 62
7
  6
CONTINUOUS
 10
19.5215387105
 20
12.2554646531
 11
19.5215387105
 21
11.9907007003
  0
LINE
  5
2E4
100
AcDbEntity
  8
0
100
AcDbLine
 62
7
  6
CONTINUOUS
 10
19.530686166
 20
11.9996754292
 11
19.530686166
 21
9.8784763173
  0
LINE
  5
2E5
100
AcDbEntity
  8
0
100
AcDbLine
 62
7
  6
CONTINUOUS
 10
19.5808209711
 20
12.0693955853
 11
19.5808209711
 21
9.9481964733
  0
LINE
  5
2E6
100
AcDbEntity
  8
0
100
AcDbLine
 62
7
  6
CONTINUOUS
 10
19.6520079138
 20
12.1274949047
 11
19.6520079138
 21
10.0062957928
  0
LINE
  5
2E7
100
AcDbEntity
  8
0
100
AcDbLine
 62
7
  6
CONTINUOUS
 10
19.7419714408
 20
12.1838124408
 11
19.7419714408
 21
10.0626133288
  0
LINE
  5
2E8
100
AcDbEntity
  8
0
100
AcDbLine
 62
7
  6
CONTINUOUS
 10
19.8476106197
 20
12.2218925287
 11
19.8476106197
 21
10.1006934167
  0
LINE
  5
2E9
100
AcDbEntity
  8
0
100
AcDbLine
 62
7
  6
CONTINUOUS
 10
19.96229333
 20
12.2386512041
 11
19.96229333
 21
10.1174520921
  0
LINE
  5
2EA
100
AcDbEntity
  8
0
100
AcDbLine
 62
7
  6
CONTINUOUS
 10
19.9915387105
 20
8.381750204
 11
19.9915387105
 21
7.8576466221
  0
LINE
  5
2EB
100
AcDbEntity
  8
0
100
AcDbLine
 62
9
  6
CONTINUOUS
 10
19.9915387105
 20
6.5972712212
 11
19.9915387105
 21
7.857646613
  0
LINE
  5
2EC
100
AcDbEntity
  8
0
100
AcDbLine
 62
9
  6
CONTINUOUS
 10
19.9915387105
 20
8.381750204
 11
19.9915387105
 21
10.0661536418
  0
LINE
  5
2ED
100
AcDbEntity
  8
0
100
AcDbLine
 62
7
  6
CONTINUOUS
 10
20.0788136351
 20
12.2330354577
 11
20.0788136351
 21
10.1118363458
  0
LINE
  5
2EE
100
AcDbEntity
  8
0
100
AcDbLine
 62
7
  6
CONTINUOUS
 10
19.6055427082
 20
8.8962569276
 11
19.604630544
 21
8.8784600969
  0
LINE
  5
2EF
100
AcDbEntity
  8
0
100
AcDbLine
 62
7
  6
CONTINUOUS
 10
19.6051130318
 20
8.8830425686
 11
19.6045891377
 21
8.8759470055
  0
LINE
  5
2F0
100
AcDbEntity
  8
0
100
AcDbLine
 62
7
  6
CONTINUOUS
 10
19.604630544
 20
8.8784600969
 11
19.6031696468
 21
8.8611257199
  0
LINE
  5
2F1
100
AcDbEntity
  8
0
100
AcDbLine
 62
7
  6
CONTINUOUS
 10
19.6045891377
 20
8.8759470055
 11
19.6025769993
 21
8.8553595371
  0
LINE
  5
2F2
100
AcDbEntity
  8
0
100
AcDbLine
 62
7
  6
CONTINUOUS
 10
19.6031696446
 20
8.8611256975
 11
19.602325386
 21
8.8534732361
  0
LINE
  5
2F3
100
AcDbEntity
  8
0
100
AcDbLine
 62
9
  6
CONTINUOUS
 10
19.6031696468
 20
8.8611257199
 11
19.6036212215
 21
8.8650278729
  0
LINE
  5
2F4
100
AcDbEntity
  8
0
100
AcDbLine
 62
7
  6
CONTINUOUS
 10
19.6025769993
 20
8.8553595371
 11
19.599558875
 21
8.8327331896
  0
LWPOLYLINE
  5
2F5
100
AcDbEntity
  8
0
100
AcDbPolyline
 62
7
  6
CONTINUOUS
 90
3
 70
0
 10
20.4672873581
 20
9.8225852038
 10
20.4679593113
 20
9.8275755898
 10
20.468498131
 20
9.8403565786
  0
LWPOLYLINE
  5
2F6
100
AcDbEntity
  8
0
100
AcDbPolyline
 62
7
  6
CONTINUOUS
 90
4
 70
0
 10
20.3658330225
 20
9.9426948111
 10
20.3669606107
 20
9.9499661743
 10
20.3686078101
 20
9.9658506677
 10
20.3690481121
 20
9.9788876067
  0
LINE
  5
2F7
100
AcDbEntity
  8
0
100
AcDbLine
 62
7
  6
CONTINUOUS
 10
20.3810935397
 20
8.9719096026
 11
20.501660146
 21
9.6154453099
  0
LWPOLYLINE
  5
2F8
100
AcDbEntity
  8
0
100
AcDbPolyline
 62
7
  6
CONTINUOUS
 90
4
 70
0
 10
20.427082259
 20
9.882295796
 10
20.4274110241
 20
9.8837921186
 10
20.4295756431
 20
9.9003218128
 10
20.4301860637
 20
9.9145917023
  0
LWPOLYLINE
  5
2F9
100
AcDbEntity
  8
0
100
AcDbPolyline
 62
7
  6
CONTINUOUS
 90
11
 70
0
 10
20.8462687813
 20
7.0640948298
 10
20.8691880689
 20
7.1052113299
 10
20.8928258128
 20
7.1530816945
 10
20.9139379164
 20
7.2022412852
 10
20.9324311763
 20
7.2524345412
 10
20.9482444734
 20
7.3034051885
 10
20.9613343959
 20
7.3548908827
 10
20.9716763015
 20
7.4066255734
 10
20.9792656322
 20
7.4583422818
 10
20.9841186836
 20
7.5097675585
 10
20.9862355149
 20
7.5583224892
  0
LWPOLYLINE
  5
2FA
100
AcDbEntity
  8
0
100
AcDbPolyline
 62
7
  6
CONTINUOUS
 90
5
 70
0
 10
20.4781570194
 20
8.5769709483
 10
20.463392925
 20
8.6040184303
 10
20.4493286315
 20
8.6318994682
 10
20.4368774211
 20
8.6587273036
 10
20.4265685882
 20
8.6828798128
  0
LINE
  5
2FB
100
AcDbEntity
  8
0
100
AcDbLine
 62
7
  6
CONTINUOUS
 10
19.4814172751
 20
9.6154453099
 11
19.6019838814
 21
8.9719096026
  0
LWPOLYLINE
  5
2FC
100
AcDbEntity
  8
0
100
AcDbPolyline
 62
7
  6
CONTINUOUS
 90
7
 70
0
 10
19.6015866824
 20
8.9747944166
 10
19.6027281819
 20
8.9665038275
 10
19.6039408587
 20
8.955385794
 10
19.6049386594
 20
8.9426450581
 10
19.6056058762
 20
8.9284494553
 10
19.6058385296
 20
8.9129528839
 10
19.6055427082
 20
8.8962569276
  0
LWPOLYLINE
  5
2FD
100
AcDbEntity
  8
0
100
AcDbPolyline
 62
7
  6
CONTINUOUS
 90
3
 70
0
 10
20.3805004218
 20
8.8553595371
 10
20.3784882834
 20
8.8759470055
 10
20.3779643893
 20
8.8830425686
  0
LINE
  5
2FE
100
AcDbEntity
  8
0
100
AcDbLine
 62
7
  6
CONTINUOUS
 10
20.3799077743
 20
8.8611257199
 11
20.3784468771
 21
8.8784600969
  0
LWPOLYLINE
  5
2FF
100
AcDbEntity
  8
0
100
AcDbPolyline
 62
7
  6
CONTINUOUS
 90
8
 70
0
 10
20.3784468771
 20
8.8784600969
 10
20.3775347129
 20
8.8962569276
 10
20.3772388915
 20
8.9129528839
 10
20.3774715449
 20
8.9284494553
 10
20.3781387617
 20
8.9426450581
 10
20.3791365624
 20
8.955385794
 10
20.3803492392
 20
8.9665038275
 10
20.3814907387
 20
8.9747944166
  0
LWPOLYLINE
  5
300
100
AcDbEntity
  8
0
100
AcDbPolyline
 62
7
  6
CONTINUOUS
 90
6
 70
0
 10
20.4815099647
 20
11.882562818
 10
20.4810735028
 20
11.893968734
 10
20.4793897023
 20
11.9076135067
 10
20.4763928134
 20
11.921319535
 10
20.4721006699
 20
11.9348744532
 10
20.4684981314
 20
11.9435232324
  0
LWPOLYLINE
  5
301
100
AcDbEntity
  8
0
100
AcDbPolyline
 62
7
  6
CONTINUOUS
 90
6
 70
0
 10
20.3690481121
 20
12.1000847024
 10
20.3685355784
 20
12.1136606693
 10
20.3667383023
 20
12.1281452011
 10
20.3637031156
 20
12.1416624575
 10
20.3595444337
 20
12.154114059
 10
20.35593391
 20
12.162403792
  0
LWPOLYLINE
  5
302
100
AcDbEntity
  8
0
100
AcDbPolyline
 62
7
  6
CONTINUOUS
 90
7
 70
0
 10
20.4684981313
 20
11.9615510964
 10
20.4680918937
 20
11.9725741765
 10
20.4666194587
 20
11.9850613225
 10
20.4641070127
 20
11.9971889949
 10
20.4605498722
 20
12.0090704778
 10
20.4559013939
 20
12.0208053306
 10
20.4512876524
 20
12.0302418934
  0
LWPOLYLINE
  5
303
100
AcDbEntity
  8
0
100
AcDbPolyline
 62
7
  6
CONTINUOUS
 90
7
 70
0
 10
20.4301860637
 20
12.0357913904
 10
20.4298001474
 20
12.0469045949
 10
20.4283713161
 20
12.0595054999
 10
20.4259119663
 20
12.0715967659
 10
20.422472563
 20
12.0831103042
 10
20.41812089
 20
12.0940215155
 10
20.4141289679
 20
12.102133224
  0
LINE
  5
304
100
AcDbEntity
  8
0
100
AcDbLine
 62
7
  6
CONTINUOUS
 10
20.1898501356
 20
12.2053981476
 11
20.1898501356
 21
10.0841990357
  0
LINE
  5
305
100
AcDbEntity
  8
0
100
AcDbLine
 62
7
  6
CONTINUOUS
 10
20.2884260001
 20
12.1574758277
 11
20.2884260001
 21
10.0362767157
  0
LINE
  5
306
100
AcDbEntity
  8
0
100
AcDbLine
 62
7
  6
CONTINUOUS
 10
20.3690481121
 20
9.978886747
 11
20.3690481121
 21
12.100085859
  0
LINE
  5
307
100
AcDbEntity
  8
0
100
AcDbLine
 62
7
  6
CONTINUOUS
 10
20.4301860637
 20
9.914591915
 11
20.4301860637
 21
12.0357910269
  0
LINE
  5
308
100
AcDbEntity
  8
0
100
AcDbLine
 62
7
  6
CONTINUOUS
 10
20.4615387105
 20
12.0057675816
 11
20.4615387105
 21
12.2554646531
  0
LINE
  5
309
100
AcDbEntity
  8
0
100
AcDbLine
 62
7
  6
CONTINUOUS
 10
20.4684981314
 20
9.8403506856
 11
20.4684981314
 21
11.9615497975
  0
LINE
  5
30A
100
AcDbEntity
  8
0
100
AcDbLine
 62
7
  6
CONTINUOUS
 10
20.4684981314
 20
9.8403506856
 11
20.468498131
 21
9.8403565786
  0
LINE
  5
30B
100
AcDbEntity
  8
0
100
AcDbLine
 62
7
  6
CONTINUOUS
 10
20.4790387105
 20
12.5297041127
 11
20.4790387105
 21
12.2691324507
  0
LINE
  5
30C
100
AcDbEntity
  8
0
100
AcDbLine
 62
7
  6
CONTINUOUS
 10
20.4815099647
 20
9.7932274576
 11
20.4815099647
 21
11.8825615634
  0
LINE
  5
30D
100
AcDbEntity
  8
0
100
AcDbLine
 62
7
  6
CONTINUOUS
 10
20.4815387105
 20
12.1493184214
 11
20.4815387105
 21
12.2328808107
  0
LWPOLYLINE
  5
30E
100
AcDbEntity
  8
0
100
AcDbPolyline
 62
7
  6
CONTINUOUS
 90
6
 70
0
 10
20.42656816
 20
8.6828808595
 10
20.4171085551
 20
8.7070596682
 10
20.4084970582
 20
8.7313479885
 10
20.4013039137
 20
8.754009011
 10
20.3954184724
 20
8.7749560425
 10
20.3907226098
 20
8.7941164638
  0
LINE
  5
30F
100
AcDbEntity
  8
0
100
AcDbLine
 62
7
  6
CONTINUOUS
 10
20.3907226098
 20
8.7941164638
 11
20.387314861
 21
8.8102782022
  0
LINE
  5
310
100
AcDbEntity
  8
0
100
AcDbLine
 62
7
  6
CONTINUOUS
 10
20.3873876298
 20
8.8099330857
 11
20.383518546
 21
8.8327331896
  0
LINE
  5
311
100
AcDbEntity
  8
0
100
AcDbLine
 62
7
  6
CONTINUOUS
 10
20.383518546
 20
8.8327331896
 11
20.3805004218
 21
8.8553595371
  0
LINE
  5
312
100
AcDbEntity
  8
0
100
AcDbLine
 62
9
  6
CONTINUOUS
 10
20.3799077743
 20
8.8611257199
 11
20.3794561996
 21
8.8650278729
  0
LINE
  5
313
100
AcDbEntity
  8
0
100
AcDbLine
 62
7
  6
CONTINUOUS
 10
20.3807520351
 20
8.8534732361
 11
20.3799077765
 21
8.8611256975
  0
LWPOLYLINE
  5
314
100
AcDbEntity
  8
0
100
AcDbPolyline
 62
7
  6
CONTINUOUS
 90
13
 70
0
 10
20.9862356537
 20
7.5582964025
 10
20.9857571962
 20
7.6113022725
 10
20.9820724525
 20
7.6673138881
 10
20.9750634543
 20
7.7238824231
 10
20.9646333591
 20
7.7810292615
 10
20.9506722668
 20
7.8387317052
 10
20.9330960335
 20
7.8968574073
 10
20.9118415504
 20
7.9551720338
 10
20.8868317381
 20
8.013510864
 10
20.8580370332
 20
8.0715654651
 10
20.8254800295
 20
8.1289642582
 10
20.7892551037
 20
8.1853428692
 10
20.7559230117
 20
8.2318834054
  0
LINE
  5
315
100
AcDbEntity
  8
0
100
AcDbLine
 62
7
  6
CONTINUOUS
 10
20.9862350218
 20
7.5582964079
 11
20.9862355149
 21
7.5583224892
  0
LWPOLYLINE
  5
316
100
AcDbEntity
  8
0
100
AcDbPolyline
 62
7
  6
CONTINUOUS
 90
4
 70
0
 10
20.2867112735
 20
12.1810759008
 10
20.2845634646
 20
12.1920051467
 10
20.2817991408
 20
12.2019112431
 10
20.279741432
 20
12.207760172
  0
ARC
  5
317
100
AcDbEntity
  8
0
100
AcDbCircle
 62
7
  6
CONTINUOUS
 10
5.9290387105
 20
1.5744241127
 40
0.62
100
AcDbArc
 50
143.7699323453
 51
36.2300676547
  0
ARC
  5
318
100
AcDbEntity
  8
0
100
AcDbCircle
 62
9
  6
CONTINUOUS
 10
5.9290387105
 20
1.5744241127
 40
0.53
100
AcDbArc
 50
160.7337828861
 51
19.2662171139
  0
ARC
  5
319
100
AcDbEntity
  8
0
100
AcDbCircle
 62
7
  6
CONTINUOUS
 10
5.9290387105
 20
1.5744241127
 40
0.5
100
AcDbArc
 50
180.0
 51
360.0
  0
ARC
  5
31A
100
AcDbEntity
  8
0
100
AcDbCircle
 62
7
  6
CONTINUOUS
 10
-3.1235926165
 20
10.1529526847
 40
8.5
100
AcDbArc
 50
353.5096536892
 51
8.9401219656
  0
ARC
  5
31B
100
AcDbEntity
  8
0
100
AcDbCircle
 62
7
  6
CONTINUOUS
 10
-1.4112799503
 20
11.0881043477
 40
3.73
100
AcDbArc
 50
6.0539076486
 51
13.9188002726
  0
ARC
  5
31C
100
AcDbEntity
  8
0
100
AcDbCircle
 62
7
  6
CONTINUOUS
 10
0.5499389455
 20
9.1268854519
 40
3.73
100
AcDbArc
 50
76.0811997274
 51
83.9460923514
  0
ARC
  5
31D
100
AcDbEntity
  8
0
100
AcDbCircle
 62
7
  6
CONTINUOUS
 10
1.9915387105
 20
11.7827041127
 40
0.517
100
AcDbArc
 50
244.7853651812
 51
295.2146348188
  0
ARC
  5
31E
100
AcDbEntity
  8
0
100
AcDbCircle
 62
7
  6
CONTINUOUS
 10
1.6647887385
 20
11.0887852012
 40
0.25
100
AcDbArc
 50
64.7853651812
 51
86.7993265714
  0
ARC
  5
31F
100
AcDbEntity
  8
0
100
AcDbCircle
 62
7
  6
CONTINUOUS
 10
2.3182886826
 20
11.0887852012
 40
0.25
100
AcDbArc
 50
93.2006734286
 51
115.2146348188
  0
ARC
  5
320
100
AcDbEntity
  8
0
100
AcDbCircle
 62
7
  6
CONTINUOUS
 10
0.550619799
 20
12.2029541407
 40
0.25
100
AcDbArc
 50
3.2006734286
 51
25.2146348188
  0
ARC
  5
321
100
AcDbEntity
  8
0
100
AcDbCircle
 62
7
  6
CONTINUOUS
 10
2.3015387105
 20
11.40328621
 40
0.05
100
AcDbArc
 50
0.0
 51
66.3131006371
  0
ARC
  5
322
100
AcDbEntity
  8
0
100
AcDbCircle
 62
7
  6
CONTINUOUS
 10
1.6815387105
 20
11.40328621
 40
0.05
100
AcDbArc
 50
113.6868993629
 51
180.0
  0
ARC
  5
323
100
AcDbEntity
  8
0
100
AcDbCircle
 62
7
  6
CONTINUOUS
 10
1.6815387105
 20
11.3883172336
 40
0.05
100
AcDbArc
 50
180.0
 51
266.7993265714
  0
ARC
  5
324
100
AcDbEntity
  8
0
100
AcDbCircle
 62
7
  6
CONTINUOUS
 10
2.3015387105
 20
11.3883172336
 40
0.05
100
AcDbArc
 50
273.2006734286
 51
360.0
  0
ARC
  5
325
100
AcDbEntity
  8
0
100
AcDbCircle
 62
7
  6
CONTINUOUS
 10
3.1179566132
 20
12.2197041127
 40
0.05
100
AcDbArc
 50
203.6868993629
 51
270.0
  0
ARC
  5
326
100
AcDbEntity
  8
0
100
AcDbCircle
 62
7
  6
CONTINUOUS
 10
3.1329255897
 20
12.2197041127
 40
0.05
100
AcDbArc
 50
270.0
 51
356.7993265714
  0
ARC
  5
327
100
AcDbEntity
  8
0
100
AcDbCircle
 62
7
  6
CONTINUOUS
 10
0.8651208078
 20
12.2197041127
 40
0.05
100
AcDbArc
 50
270.0
 51
336.3131006371
  0
ARC
  5
328
100
AcDbEntity
  8
0
100
AcDbCircle
 62
7
  6
CONTINUOUS
 10
0.8501518314
 20
12.2197041127
 40
0.05
100
AcDbArc
 50
183.2006734286
 51
270.0
  0
ARC
  5
329
100
AcDbEntity
  8
0
100
AcDbCircle
 62
7
  6
CONTINUOUS
 10
1.6453822545
 20
11.4857041127
 40
0.04
100
AcDbArc
 50
293.6868993629
 51
353.9460923514
  0
ARC
  5
32A
100
AcDbEntity
  8
0
100
AcDbCircle
 62
7
  6
CONTINUOUS
 10
2.3376951666
 20
11.4857041127
 40
0.04
100
AcDbArc
 50
186.0539076486
 51
246.3131006371
  0
ARC
  5
32B
100
AcDbEntity
  8
0
100
AcDbCircle
 62
7
  6
CONTINUOUS
 10
2.1703728089
 20
11.975721108
 40
0.04
100
AcDbArc
 50
13.9188002437
 51
88.3297322848
  0
ARC
  5
32C
100
AcDbEntity
  8
0
100
AcDbCircle
 62
7
  6
CONTINUOUS
 10
1.8127046122
 20
11.975721108
 40
0.04
100
AcDbArc
 50
91.6702677154
 51
166.081199757
  0
ARC
  5
32D
100
AcDbEntity
  8
0
100
AcDbCircle
 62
7
  6
CONTINUOUS
 10
3.0355387105
 20
12.1835476567
 40
0.04
100
AcDbArc
 50
23.6868993629
 51
83.9460923514
  0
ARC
  5
32E
100
AcDbEntity
  8
0
100
AcDbCircle
 62
7
  6
CONTINUOUS
 10
2.5455217153
 20
12.3508700144
 40
0.04
100
AcDbArc
 50
181.6702677154
 51
256.081199757
  0
ARC
  5
32F
100
AcDbEntity
  8
0
100
AcDbCircle
 62
7
  6
CONTINUOUS
 10
0.9475387105
 20
12.1835476567
 40
0.04
100
AcDbArc
 50
96.0539076486
 51
156.3131006371
  0
ARC
  5
330
100
AcDbEntity
  8
0
100
AcDbCircle
 62
7
  6
CONTINUOUS
 10
1.4375557058
 20
12.3508700144
 40
0.04
100
AcDbArc
 50
283.9188002437
 51
358.3297322848
  0
ARC
  5
331
100
AcDbEntity
  8
0
100
AcDbCircle
 62
7
  6
CONTINUOUS
 10
2.1615387105
 20
12.1057041127
 40
0.01
100
AcDbArc
 50
0.0
 51
90.0
  0
ARC
  5
332
100
AcDbEntity
  8
0
100
AcDbCircle
 62
7
  6
CONTINUOUS
 10
1.8215387105
 20
12.1057041127
 40
0.01
100
AcDbArc
 50
90.0
 51
180.0
  0
ARC
  5
333
100
AcDbEntity
  8
0
100
AcDbCircle
 62
7
  6
CONTINUOUS
 10
2.4155387105
 20
12.3597041127
 40
0.01
100
AcDbArc
 50
180.0
 51
270.0
  0
ARC
  5
334
100
AcDbEntity
  8
0
100
AcDbCircle
 62
7
  6
CONTINUOUS
 10
1.5675387105
 20
12.3597041127
 40
0.01
100
AcDbArc
 50
270.0
 51
360.0
  0
ARC
  5
335
100
AcDbEntity
  8
0
100
AcDbCircle
 62
7
  6
CONTINUOUS
 10
-1.4112799503
 20
13.9713038778
 40
3.73
100
AcDbArc
 50
346.0811997274
 51
353.9460923514
  0
ARC
  5
336
100
AcDbEntity
  8
0
100
AcDbCircle
 62
7
  6
CONTINUOUS
 10
0.550619799
 20
12.8564540848
 40
0.25
100
AcDbArc
 50
334.7853651812
 51
356.7993265714
  0
ARC
  5
337
100
AcDbEntity
  8
0
100
AcDbCircle
 62
7
  6
CONTINUOUS
 10
0.8501518314
 20
12.8397041127
 40
0.05
100
AcDbArc
 50
90.0
 51
176.7993265714
  0
ARC
  5
338
100
AcDbEntity
  8
0
100
AcDbCircle
 62
7
  6
CONTINUOUS
 10
0.5499389455
 20
15.9325227736
 40
3.73
100
AcDbArc
 50
276.0539076486
 51
283.9188002726
  0
ARC
  5
339
100
AcDbEntity
  8
0
100
AcDbCircle
 62
7
  6
CONTINUOUS
 10
1.2445387105
 20
12.5297041127
 40
0.517
100
AcDbArc
 50
154.7853651812
 51
205.2146348188
  0
ARC
  5
33A
100
AcDbEntity
  8
0
100
AcDbCircle
 62
7
  6
CONTINUOUS
 10
0.8651208078
 20
12.8397041127
 40
0.05
100
AcDbArc
 50
23.6868993629
 51
90.0
  0
ARC
  5
33B
100
AcDbEntity
  8
0
100
AcDbCircle
 62
7
  6
CONTINUOUS
 10
0.9475387105
 20
12.8758605688
 40
0.04
100
AcDbArc
 50
203.6868993629
 51
263.9460923514
  0
ARC
  5
33C
100
AcDbEntity
  8
0
100
AcDbCircle
 62
7
  6
CONTINUOUS
 10
1.4375557058
 20
12.7085382111
 40
0.04
100
AcDbArc
 50
1.6702677154
 51
76.081199757
  0
ARC
  5
33D
100
AcDbEntity
  8
0
100
AcDbCircle
 62
7
  6
CONTINUOUS
 10
1.5675387105
 20
12.6997041127
 40
0.01
100
AcDbArc
 50
0.0
 51
90.0
  0
ARC
  5
33E
100
AcDbEntity
  8
0
100
AcDbCircle
 62
7
  6
CONTINUOUS
 10
1.9915387105
 20
12.5297041127
 40
1.1134351517
100
AcDbArc
 50
196.3894186917
 51
253.6079040924
  0
ARC
  5
33F
100
AcDbEntity
  8
0
100
AcDbCircle
 62
7
  6
CONTINUOUS
 10
1.9915387105
 20
12.5297041127
 40
1.1134351517
100
AcDbArc
 50
106.3920959076
 51
163.6105813083
  0
ARC
  5
340
100
AcDbEntity
  8
0
100
AcDbCircle
 62
7
  6
CONTINUOUS
 10
1.9915387105
 20
12.5297041127
 40
1.1134351517
100
AcDbArc
 50
16.3894186917
 51
73.6079040924
  0
ARC
  5
341
100
AcDbEntity
  8
0
100
AcDbCircle
 62
7
  6
CONTINUOUS
 10
1.9915387105
 20
12.5297041127
 40
1.1134351517
100
AcDbArc
 50
286.3920959076
 51
343.6105813083
  0
ARC
  5
342
100
AcDbEntity
  8
0
100
AcDbCircle
 62
9
  6
CONTINUOUS
 10
1.9915387105
 20
12.5297041127
 40
1.1032228352
100
AcDbArc
 50
286.2771376811
 51
343.7228616196
  0
ARC
  5
343
100
AcDbEntity
  8
0
100
AcDbCircle
 62
9
  6
CONTINUOUS
 10
1.9915387105
 20
12.5297041127
 40
1.1032228352
100
AcDbArc
 50
16.2771383941
 51
73.7228622997
  0
ARC
  5
344
100
AcDbEntity
  8
0
100
AcDbCircle
 62
9
  6
CONTINUOUS
 10
1.9915387105
 20
12.5297041127
 40
1.1032228352
100
AcDbArc
 50
106.2771376811
 51
163.7228616196
  0
ARC
  5
345
100
AcDbEntity
  8
0
100
AcDbCircle
 62
9
  6
CONTINUOUS
 10
1.9915387105
 20
12.5297041127
 40
1.1032228352
100
AcDbArc
 50
196.2771383941
 51
253.7228622997
  0
ARC
  5
346
100
AcDbEntity
  8
0
100
AcDbCircle
 62
9
  6
CONTINUOUS
 10
1.9915387105
 20
12.5297041127
 40
0.9347230301
100
AcDbArc
 50
197.8192858785
 51
252.1783568051
  0
ARC
  5
347
100
AcDbEntity
  8
0
100
AcDbCircle
 62
9
  6
CONTINUOUS
 10
1.9915387105
 20
12.5297041127
 40
0.9347230301
100
AcDbArc
 50
107.821643303
 51
162.180714106
  0
ARC
  5
348
100
AcDbEntity
  8
0
100
AcDbCircle
 62
9
  6
CONTINUOUS
 10
1.9915387105
 20
12.5297041127
 40
0.9347230301
100
AcDbArc
 50
17.8192858785
 51
72.1783568051
  0
ARC
  5
349
100
AcDbEntity
  8
0
100
AcDbCircle
 62
9
  6
CONTINUOUS
 10
1.9915387105
 20
12.5297041127
 40
0.9347230301
100
AcDbArc
 50
287.821643303
 51
342.180714106
  0
ARC
  5
34A
100
AcDbEntity
  8
0
100
AcDbCircle
 62
7
  6
CONTINUOUS
 10
1.9915387105
 20
12.5297041127
 40
0.928
100
AcDbArc
 50
197.8923572983
 51
252.1076427017
  0
ARC
  5
34B
100
AcDbEntity
  8
0
100
AcDbCircle
 62
7
  6
CONTINUOUS
 10
1.9915387105
 20
12.5297041127
 40
0.928
100
AcDbArc
 50
107.8923572983
 51
162.1076427017
  0
ARC
  5
34C
100
AcDbEntity
  8
0
100
AcDbCircle
 62
7
  6
CONTINUOUS
 10
1.9915387105
 20
12.5297041127
 40
0.928
100
AcDbArc
 50
17.8923572983
 51
72.1076427017
  0
ARC
  5
34D
100
AcDbEntity
  8
0
100
AcDbCircle
 62
7
  6
CONTINUOUS
 10
1.9915387105
 20
12.5297041127
 40
0.928
100
AcDbArc
 50
287.8923572983
 51
342.1076427017
  0
ARC
  5
34E
100
AcDbEntity
  8
0
100
AcDbCircle
 62
9
  6
CONTINUOUS
 10
1.9915387105
 20
12.5297041127
 40
0.9159658819
100
AcDbArc
 50
108.0118289057
 51
161.9881710943
  0
ARC
  5
34F
100
AcDbEntity
  8
0
100
AcDbCircle
 62
9
  6
CONTINUOUS
 10
1.9915387105
 20
12.5297041127
 40
0.9159658819
100
AcDbArc
 50
198.0118289057
 51
251.9881710943
  0
ARC
  5
350
100
AcDbEntity
  8
0
100
AcDbCircle
 62
9
  6
CONTINUOUS
 10
1.9915387105
 20
12.5297041127
 40
0.9159658819
100
AcDbArc
 50
18.0118289057
 51
71.9881710943
  0
ARC
  5
351
100
AcDbEntity
  8
0
100
AcDbCircle
 62
9
  6
CONTINUOUS
 10
1.9915387105
 20
12.5297041127
 40
0.9159658819
100
AcDbArc
 50
288.0118289057
 51
341.9881710943
  0
ARC
  5
352
100
AcDbEntity
  8
0
100
AcDbCircle
 62
9
  6
CONTINUOUS
 10
1.9915387105
 20
12.5297041127
 40
0.8160949729
100
AcDbArc
 50
109.0038062185
 51
160.99909903
  0
ARC
  5
353
100
AcDbEntity
  8
0
100
AcDbCircle
 62
9
  6
CONTINUOUS
 10
1.9915387105
 20
12.5297041127
 40
0.8160949729
100
AcDbArc
 50
199.00090097
 51
250.9961937815
  0
ARC
  5
354
100
AcDbEntity
  8
0
100
AcDbCircle
 62
9
  6
CONTINUOUS
 10
1.9915387105
 20
12.5297041127
 40
0.8160949729
100
AcDbArc
 50
19.00090097
 51
70.9961937815
  0
ARC
  5
355
100
AcDbEntity
  8
0
100
AcDbCircle
 62
9
  6
CONTINUOUS
 10
1.9915387105
 20
12.5297041127
 40
0.8160949729
100
AcDbArc
 50
289.0038062185
 51
340.99909903
  0
ARC
  5
356
100
AcDbEntity
  8
0
100
AcDbCircle
 62
7
  6
CONTINUOUS
 10
1.9915387105
 20
12.5297041127
 40
0.7554637704
100
AcDbArc
 50
109.7333953394
 51
160.2731356065
  0
ARC
  5
357
100
AcDbEntity
  8
0
100
AcDbCircle
 62
7
  6
CONTINUOUS
 10
1.9915387105
 20
12.5297041127
 40
0.7554637704
100
AcDbArc
 50
199.7268643935
 51
250.2666046606
  0
ARC
  5
358
100
AcDbEntity
  8
0
100
AcDbCircle
 62
7
  6
CONTINUOUS
 10
1.9915387105
 20
12.5297041127
 40
0.7554637704
100
AcDbArc
 50
19.7268643935
 51
70.2666046606
  0
ARC
  5
359
100
AcDbEntity
  8
0
100
AcDbCircle
 62
7
  6
CONTINUOUS
 10
1.9915387105
 20
12.5297041127
 40
0.7554637704
100
AcDbArc
 50
289.7333953394
 51
340.2731356065
  0
ARC
  5
35A
100
AcDbEntity
  8
0
100
AcDbCircle
 62
7
  6
CONTINUOUS
 10
1.9915387105
 20
12.5297041127
 40
0.5181047788
100
AcDbArc
 50
200.3366201186
 51
249.6600072943
  0
ARC
  5
35B
100
AcDbEntity
  8
0
100
AcDbCircle
 62
7
  6
CONTINUOUS
 10
1.9915387105
 20
12.5297041127
 40
0.5181047788
100
AcDbArc
 50
110.3399927057
 51
159.6633798814
  0
ARC
  5
35C
100
AcDbEntity
  8
0
100
AcDbCircle
 62
7
  6
CONTINUOUS
 10
1.9915387105
 20
12.5297041127
 40
0.5181047788
100
AcDbArc
 50
20.3366201186
 51
69.6600072943
  0
ARC
  5
35D
100
AcDbEntity
  8
0
100
AcDbCircle
 62
7
  6
CONTINUOUS
 10
1.9915387105
 20
12.5297041127
 40
0.5181047788
100
AcDbArc
 50
290.3399927057
 51
339.6633798814
  0
ARC
  5
35E
100
AcDbEntity
  8
0
100
AcDbCircle
 62
9
  6
CONTINUOUS
 10
1.9915387105
 20
12.5297041127
 40
0.4757780941
100
AcDbArc
 50
22.2413976299
 51
67.7370248101
  0
ARC
  5
35F
100
AcDbEntity
  8
0
100
AcDbCircle
 62
9
  6
CONTINUOUS
 10
1.9915387105
 20
12.5297041127
 40
0.4757780941
100
AcDbArc
 50
292.2629770672
 51
337.7586017564
  0
ARC
  5
360
100
AcDbEntity
  8
0
100
AcDbCircle
 62
9
  6
CONTINUOUS
 10
1.9915387105
 20
12.5297041127
 40
0.4757780941
100
AcDbArc
 50
202.2413976299
 51
247.7370248101
  0
ARC
  5
361
100
AcDbEntity
  8
0
100
AcDbCircle
 62
9
  6
CONTINUOUS
 10
1.9915387105
 20
12.5297041127
 40
0.4757780941
100
AcDbArc
 50
112.2629770672
 51
157.7586017564
  0
ARC
  5
362
100
AcDbEntity
  8
0
100
AcDbCircle
 62
7
  6
CONTINUOUS
 10
1.9915387105
 20
12.5297041127
 40
0.451
100
AcDbArc
 50
113.370340497
 51
156.629659503
  0
ARC
  5
363
100
AcDbEntity
  8
0
100
AcDbCircle
 62
7
  6
CONTINUOUS
 10
1.9915387105
 20
12.5297041127
 40
0.451
100
AcDbArc
 50
203.370340497
 51
246.629659503
  0
ARC
  5
364
100
AcDbEntity
  8
0
100
AcDbCircle
 62
7
  6
CONTINUOUS
 10
1.9915387105
 20
12.5297041127
 40
0.451
100
AcDbArc
 50
293.370340497
 51
336.629659503
  0
ARC
  5
365
100
AcDbEntity
  8
0
100
AcDbCircle
 62
7
  6
CONTINUOUS
 10
1.9915387105
 20
12.5297041127
 40
0.451
100
AcDbArc
 50
23.370340497
 51
66.629659503
  0
ARC
  5
366
100
AcDbEntity
  8
0
100
AcDbCircle
 62
7
  6
CONTINUOUS
 10
1.9915387105
 20
12.5297041127
 40
0.45
100
AcDbArc
 50
22.6699209529
 51
22.8634292049
  0
ARC
  5
367
100
AcDbEntity
  8
0
100
AcDbCircle
 62
7
  6
CONTINUOUS
 10
1.9915387105
 20
12.5297041127
 40
0.45
100
AcDbArc
 50
292.6699206893
 51
292.8634287581
  0
ARC
  5
368
100
AcDbEntity
  8
0
100
AcDbCircle
 62
7
  6
CONTINUOUS
 10
1.9915387105
 20
12.5297041127
 40
0.45
100
AcDbArc
 50
202.6699209529
 51
202.8634292049
  0
ARC
  5
369
100
AcDbEntity
  8
0
100
AcDbCircle
 62
7
  6
CONTINUOUS
 10
1.9915387105
 20
12.5297041127
 40
0.45
100
AcDbArc
 50
112.6699206893
 51
112.8634287581
  0
CIRCLE
  5
36A
100
AcDbEntity
  8
0
100
AcDbCircle
 62
9
  6
CONTINUOUS
 10
1.9915387105
 20
12.5297041127
 40
0.2988618956
  0
CIRCLE
  5
36B
100
AcDbEntity
  8
0
100
AcDbCircle
 62
9
  6
CONTINUOUS
 10
1.9915387105
 20
12.5297041127
 40
0.292235246
  0
CIRCLE
  5
36C
100
AcDbEntity
  8
0
100
AcDbCircle
 62
7
  6
CONTINUOUS
 10
1.9915387105
 20
12.5297041127
 40
0.28
  0
CIRCLE
  5
36D
100
AcDbEntity
  8
0
100
AcDbCircle
 62
9
  6
CONTINUOUS
 10
1.9915387105
 20
12.5297041127
 40
0.2258064516
  0
ARC
  5
36E
100
AcDbEntity
  8
0
100
AcDbCircle
 62
7
  6
CONTINUOUS
 10
1.8127046122
 20
13.0836871175
 40
0.04
100
AcDbArc
 50
193.9188002437
 51
268.3297322848
  0
ARC
  5
36F
100
AcDbEntity
  8
0
100
AcDbCircle
 62
7
  6
CONTINUOUS
 10
1.8215387105
 20
12.9537041127
 40
0.01
100
AcDbArc
 50
180.0
 51
270.0
  0
ARC
  5
370
100
AcDbEntity
  8
0
100
AcDbCircle
 62
7
  6
CONTINUOUS
 10
1.9915387105
 20
13.2767041127
 40
0.517
100
AcDbArc
 50
64.7853651812
 51
115.2146348188
  0
ARC
  5
371
100
AcDbEntity
  8
0
100
AcDbCircle
 62
7
  6
CONTINUOUS
 10
1.6647887385
 20
13.9706230243
 40
0.25
100
AcDbArc
 50
273.2006734286
 51
295.2146348188
  0
ARC
  5
372
100
AcDbEntity
  8
0
100
AcDbCircle
 62
7
  6
CONTINUOUS
 10
1.6815387105
 20
13.6561220154
 40
0.05
100
AcDbArc
 50
180.0
 51
246.3131006371
  0
ARC
  5
373
100
AcDbEntity
  8
0
100
AcDbCircle
 62
7
  6
CONTINUOUS
 10
1.6815387105
 20
13.6710909919
 40
0.05
100
AcDbArc
 50
93.2006734286
 51
180.0
  0
ARC
  5
374
100
AcDbEntity
  8
0
100
AcDbCircle
 62
7
  6
CONTINUOUS
 10
1.6453822545
 20
13.5737041127
 40
0.04
100
AcDbArc
 50
6.0539076486
 51
66.3131006371
  0
ARC
  5
375
100
AcDbEntity
  8
0
100
AcDbCircle
 62
7
  6
CONTINUOUS
 10
2.7385387105
 20
12.5297041127
 40
0.517
100
AcDbArc
 50
334.7853651812
 51
25.2146348188
  0
ARC
  5
376
100
AcDbEntity
  8
0
100
AcDbCircle
 62
7
  6
CONTINUOUS
 10
3.1179566132
 20
12.8397041127
 40
0.05
100
AcDbArc
 50
90.0
 51
156.3131006371
  0
ARC
  5
377
100
AcDbEntity
  8
0
100
AcDbCircle
 62
7
  6
CONTINUOUS
 10
3.1329255897
 20
12.8397041127
 40
0.05
100
AcDbArc
 50
3.2006734286
 51
90.0
  0
ARC
  5
378
100
AcDbEntity
  8
0
100
AcDbCircle
 62
7
  6
CONTINUOUS
 10
3.0355387105
 20
12.8758605688
 40
0.04
100
AcDbArc
 50
276.0539076486
 51
336.3131006371
  0
ARC
  5
379
100
AcDbEntity
  8
0
100
AcDbCircle
 62
7
  6
CONTINUOUS
 10
2.5455217153
 20
12.7085382111
 40
0.04
100
AcDbArc
 50
103.9188002437
 51
178.3297322848
  0
ARC
  5
37A
100
AcDbEntity
  8
0
100
AcDbCircle
 62
7
  6
CONTINUOUS
 10
2.1703728089
 20
13.0836871175
 40
0.04
100
AcDbArc
 50
271.6702677154
 51
346.081199757
  0
ARC
  5
37B
100
AcDbEntity
  8
0
100
AcDbCircle
 62
7
  6
CONTINUOUS
 10
2.4155387105
 20
12.6997041127
 40
0.01
100
AcDbArc
 50
90.0
 51
180.0
  0
ARC
  5
37C
100
AcDbEntity
  8
0
100
AcDbCircle
 62
7
  6
CONTINUOUS
 10
2.1615387105
 20
12.9537041127
 40
0.01
100
AcDbArc
 50
270.0
 51
360.0
  0
ARC
  5
37D
100
AcDbEntity
  8
0
100
AcDbCircle
 62
7
  6
CONTINUOUS
 10
2.3182886826
 20
13.9706230243
 40
0.25
100
AcDbArc
 50
244.7853651812
 51
266.7993265714
  0
ARC
  5
37E
100
AcDbEntity
  8
0
100
AcDbCircle
 62
7
  6
CONTINUOUS
 10
2.3015387105
 20
13.6561220154
 40
0.05
100
AcDbArc
 50
293.6868993629
 51
360.0
  0
ARC
  5
37F
100
AcDbEntity
  8
0
100
AcDbCircle
 62
7
  6
CONTINUOUS
 10
2.3015387105
 20
13.6710909919
 40
0.05
100
AcDbArc
 50
0.0
 51
86.7993265714
  0
ARC
  5
380
100
AcDbEntity
  8
0
100
AcDbCircle
 62
7
  6
CONTINUOUS
 10
2.3376951666
 20
13.5737041127
 40
0.04
100
AcDbArc
 50
113.6868993629
 51
173.9460923514
  0
ARC
  5
381
100
AcDbEntity
  8
0
100
AcDbCircle
 62
7
  6
CONTINUOUS
 10
5.3943573713
 20
11.0881043477
 40
3.73
100
AcDbArc
 50
166.0811997274
 51
173.9460923514
  0
ARC
  5
382
100
AcDbEntity
  8
0
100
AcDbCircle
 62
7
  6
CONTINUOUS
 10
3.4331384756
 20
9.1268854519
 40
3.73
100
AcDbArc
 50
96.0539076486
 51
103.9188002726
  0
ARC
  5
383
100
AcDbEntity
  8
0
100
AcDbCircle
 62
7
  6
CONTINUOUS
 10
6.5887200497
 20
11.0881043477
 40
3.73
100
AcDbArc
 50
6.0539076486
 51
13.9188002726
  0
ARC
  5
384
100
AcDbEntity
  8
0
100
AcDbCircle
 62
7
  6
CONTINUOUS
 10
8.5499389455
 20
9.1268854519
 40
3.73
100
AcDbArc
 50
76.0811997274
 51
83.9460923514
  0
ARC
  5
385
100
AcDbEntity
  8
0
100
AcDbCircle
 62
7
  6
CONTINUOUS
 10
3.4324576221
 20
12.2029541407
 40
0.25
100
AcDbArc
 50
154.7853651812
 51
176.7993265714
  0
ARC
  5
386
100
AcDbEntity
  8
0
100
AcDbCircle
 62
7
  6
CONTINUOUS
 10
9.6647887385
 20
11.0887852012
 40
0.25
100
AcDbArc
 50
64.7853651812
 51
86.7993265714
  0
ARC
  5
387
100
AcDbEntity
  8
0
100
AcDbCircle
 62
7
  6
CONTINUOUS
 10
8.550619799
 20
12.2029541407
 40
0.25
100
AcDbArc
 50
3.2006734286
 51
25.2146348188
  0
ARC
  5
388
100
AcDbEntity
  8
0
100
AcDbCircle
 62
7
  6
CONTINUOUS
 10
6.5090387105
 20
9.0870641127
 40
0.08
100
AcDbArc
 50
270.0
 51
360.0
  0
ARC
  5
389
100
AcDbEntity
  8
0
100
AcDbCircle
 62
7
  6
CONTINUOUS
 10
5.3490387105
 20
9.0870641127
 40
0.08
100
AcDbArc
 50
180.0
 51
270.0
  0
ARC
  5
38A
100
AcDbEntity
  8
0
100
AcDbCircle
 62
7
  6
CONTINUOUS
 10
6.5090387105
 20
9.0929021284
 40
0.08
100
AcDbArc
 50
0.0
 51
53.7948886759
  0
ARC
  5
38B
100
AcDbEntity
  8
0
100
AcDbCircle
 62
7
  6
CONTINUOUS
 10
5.3490387105
 20
9.0929021284
 40
0.08
100
AcDbArc
 50
126.2051113249
 51
180.0
  0
ARC
  5
38C
100
AcDbEntity
  8
0
100
AcDbCircle
 62
7
  6
CONTINUOUS
 10
6.5690387105
 20
11.566786149
 40
0.07
100
AcDbArc
 50
302.9608834023
 51
360.0
  0
ARC
  5
38D
100
AcDbEntity
  8
0
100
AcDbCircle
 62
7
  6
CONTINUOUS
 10
5.2890387105
 20
11.566786149
 40
0.07
100
AcDbArc
 50
180.0
 51
237.0391165937
  0
ARC
  5
38E
100
AcDbEntity
  8
0
100
AcDbCircle
 62
7
  6
CONTINUOUS
 10
6.5690387105
 20
11.5897041127
 40
0.07
100
AcDbArc
 50
0.0
 51
90.0
  0
ARC
  5
38F
100
AcDbEntity
  8
0
100
AcDbCircle
 62
7
  6
CONTINUOUS
 10
5.2890387105
 20
11.5897041127
 40
0.07
100
AcDbArc
 50
90.0
 51
180.0
  0
ARC
  5
390
100
AcDbEntity
  8
0
100
AcDbCircle
 62
7
  6
CONTINUOUS
 10
9.6815387105
 20
11.40328621
 40
0.05
100
AcDbArc
 50
113.6868993629
 51
180.0
  0
ARC
  5
391
100
AcDbEntity
  8
0
100
AcDbCircle
 62
7
  6
CONTINUOUS
 10
9.6815387105
 20
11.3883172336
 40
0.05
100
AcDbArc
 50
180.0
 51
266.7993265714
  0
ARC
  5
392
100
AcDbEntity
  8
0
100
AcDbCircle
 62
7
  6
CONTINUOUS
 10
8.8651208078
 20
12.2197041127
 40
0.05
100
AcDbArc
 50
270.0
 51
336.3131006371
  0
ARC
  5
393
100
AcDbEntity
  8
0
100
AcDbCircle
 62
7
  6
CONTINUOUS
 10
8.8501518314
 20
12.2197041127
 40
0.05
100
AcDbArc
 50
183.2006734286
 51
270.0
  0
ARC
  5
394
100
AcDbEntity
  8
0
100
AcDbCircle
 62
7
  6
CONTINUOUS
 10
6.6343266709
 20
11.4661010844
 40
0.05
100
AcDbArc
 50
122.9608834023
 51
171.0598780347
  0
ARC
  5
395
100
AcDbEntity
  8
0
100
AcDbCircle
 62
7
  6
CONTINUOUS
 10
5.2237507502
 20
11.4661010844
 40
0.05
100
AcDbArc
 50
8.9401219656
 51
57.0391165937
  0
ARC
  5
396
100
AcDbEntity
  8
0
100
AcDbCircle
 62
7
  6
CONTINUOUS
 10
6.5858268055
 20
9.1978001192
 40
0.05
100
AcDbArc
 50
186.4903463107
 51
233.7948886759
  0
ARC
  5
397
100
AcDbEntity
  8
0
100
AcDbCircle
 62
7
  6
CONTINUOUS
 10
5.2722506156
 20
9.1978001192
 40
0.05
100
AcDbArc
 50
306.2051113249
 51
353.5096536892
  0
ARC
  5
398
100
AcDbEntity
  8
0
100
AcDbCircle
 62
7
  6
CONTINUOUS
 10
9.6453822545
 20
11.4857041127
 40
0.04
100
AcDbArc
 50
293.6868993629
 51
353.9460923514
  0
ARC
  5
399
100
AcDbEntity
  8
0
100
AcDbCircle
 62
7
  6
CONTINUOUS
 10
8.9475387105
 20
12.1835476567
 40
0.04
100
AcDbArc
 50
96.0539076486
 51
156.3131006371
  0
ARC
  5
39A
100
AcDbEntity
  8
0
100
AcDbCircle
 62
7
  6
CONTINUOUS
 10
9.4375557058
 20
12.3508700144
 40
0.04
100
AcDbArc
 50
283.9188002437
 51
358.3297322848
  0
ARC
  5
39B
100
AcDbEntity
  8
0
100
AcDbCircle
 62
7
  6
CONTINUOUS
 10
9.5675387105
 20
12.3597041127
 40
0.01
100
AcDbArc
 50
270.0
 51
360.0
  0
ARC
  5
39C
100
AcDbEntity
  8
0
100
AcDbCircle
 62
7
  6
CONTINUOUS
 10
5.3943573713
 20
13.9713038778
 40
3.73
100
AcDbArc
 50
186.0539076486
 51
193.9188002726
  0
ARC
  5
39D
100
AcDbEntity
  8
0
100
AcDbCircle
 62
7
  6
CONTINUOUS
 10
5.9290387105
 20
12.5297041127
 40
1.4805376917
100
AcDbArc
 50
294.5713906109
 51
245.4286093891
  0
ARC
  5
39E
100
AcDbEntity
  8
0
100
AcDbCircle
 62
9
  6
CONTINUOUS
 10
5.9290387105
 20
12.5297041127
 40
1.4732398165
100
AcDbArc
 50
294.7390233062
 51
245.2609767256
  0
ARC
  5
39F
100
AcDbEntity
  8
0
100
AcDbCircle
 62
7
  6
CONTINUOUS
 10
5.9290387105
 20
12.5297041127
 40
1.4111559232
100
AcDbArc
 50
296.3737295395
 51
243.6262704605
  0
ARC
  5
3A0
100
AcDbEntity
  8
0
100
AcDbCircle
 62
9
  6
CONTINUOUS
 10
5.9290387105
 20
12.5297041127
 40
1.4054048715
100
AcDbArc
 50
296.5396778903
 51
243.4603221759
  0
ARC
  5
3A1
100
AcDbEntity
  8
0
100
AcDbCircle
 62
7
  6
CONTINUOUS
 10
5.9290387105
 20
12.5297041127
 40
1.3064829068
100
AcDbArc
 50
299.5731129683
 51
240.4268870317
  0
ARC
  5
3A2
100
AcDbEntity
  8
0
100
AcDbCircle
 62
7
  6
CONTINUOUS
 10
5.9290387105
 20
12.5297041127
 40
1.2523002331
100
AcDbArc
 50
301.5184676699
 51
238.4815323301
  0
ARC
  5
3A3
100
AcDbEntity
  8
0
100
AcDbCircle
 62
7
  6
CONTINUOUS
 10
5.9290387105
 20
12.5297041127
 40
1.2500007563
100
AcDbArc
 50
301.589630681
 51
238.4103693189
  0
ARC
  5
3A4
100
AcDbEntity
  8
0
100
AcDbCircle
 62
7
  6
CONTINUOUS
 10
5.9290387105
 20
12.5297041127
 40
1.06
100
AcDbArc
 50
304.8395846707
 51
235.1604153293
  0
CIRCLE
  5
3A5
100
AcDbEntity
  8
0
100
AcDbCircle
 62
7
  6
CONTINUOUS
 10
5.9290387105
 20
12.5297041127
 40
0.545
  0
CIRCLE
  5
3A6
100
AcDbEntity
  8
0
100
AcDbCircle
 62
9
  6
CONTINUOUS
 10
5.9290387105
 20
12.5297041127
 40
0.525
  0
CIRCLE
  5
3A7
100
AcDbEntity
  8
0
100
AcDbCircle
 62
7
  6
CONTINUOUS
 10
5.9290387105
 20
12.5297041127
 40
0.49
  0
ARC
  5
3A8
100
AcDbEntity
  8
0
100
AcDbCircle
 62
7
  6
CONTINUOUS
 10
3.4324576221
 20
12.8564540848
 40
0.25
100
AcDbArc
 50
183.2006734286
 51
205.2146348188
  0
ARC
  5
3A9
100
AcDbEntity
  8
0
100
AcDbCircle
 62
7
  6
CONTINUOUS
 10
3.4331384756
 20
15.9325227736
 40
3.73
100
AcDbArc
 50
256.0811997274
 51
263.9460923514
  0
ARC
  5
3AA
100
AcDbEntity
  8
0
100
AcDbCircle
 62
7
  6
CONTINUOUS
 10
6.5887200497
 20
13.9713038778
 40
3.73
100
AcDbArc
 50
346.0811997274
 51
353.9460923514
  0
ARC
  5
3AB
100
AcDbEntity
  8
0
100
AcDbCircle
 62
7
  6
CONTINUOUS
 10
9.2445387105
 20
12.5297041127
 40
0.517
100
AcDbArc
 50
154.7853651812
 51
205.2146348188
  0
ARC
  5
3AC
100
AcDbEntity
  8
0
100
AcDbCircle
 62
7
  6
CONTINUOUS
 10
9.6647887385
 20
13.9706230243
 40
0.25
100
AcDbArc
 50
273.2006734286
 51
295.2146348188
  0
ARC
  5
3AD
100
AcDbEntity
  8
0
100
AcDbCircle
 62
7
  6
CONTINUOUS
 10
8.550619799
 20
12.8564540848
 40
0.25
100
AcDbArc
 50
334.7853651812
 51
356.7993265714
  0
ARC
  5
3AE
100
AcDbEntity
  8
0
100
AcDbCircle
 62
7
  6
CONTINUOUS
 10
9.6815387105
 20
13.6561220154
 40
0.05
100
AcDbArc
 50
180.0
 51
246.3131006371
  0
ARC
  5
3AF
100
AcDbEntity
  8
0
100
AcDbCircle
 62
7
  6
CONTINUOUS
 10
9.6815387105
 20
13.6710909919
 40
0.05
100
AcDbArc
 50
93.2006734286
 51
180.0
  0
ARC
  5
3B0
100
AcDbEntity
  8
0
100
AcDbCircle
 62
7
  6
CONTINUOUS
 10
8.8651208078
 20
12.8397041127
 40
0.05
100
AcDbArc
 50
23.6868993629
 51
90.0
  0
ARC
  5
3B1
100
AcDbEntity
  8
0
100
AcDbCircle
 62
7
  6
CONTINUOUS
 10
8.8501518314
 20
12.8397041127
 40
0.05
100
AcDbArc
 50
90.0
 51
176.7993265714
  0
ARC
  5
3B2
100
AcDbEntity
  8
0
100
AcDbCircle
 62
7
  6
CONTINUOUS
 10
9.6453822545
 20
13.5737041127
 40
0.04
100
AcDbArc
 50
6.0539076486
 51
66.3131006371
  0
ARC
  5
3B3
100
AcDbEntity
  8
0
100
AcDbCircle
 62
7
  6
CONTINUOUS
 10
8.9475387105
 20
12.8758605688
 40
0.04
100
AcDbArc
 50
203.6868993629
 51
263.9460923514
  0
ARC
  5
3B4
100
AcDbEntity
  8
0
100
AcDbCircle
 62
7
  6
CONTINUOUS
 10
9.4375557058
 20
12.7085382111
 40
0.04
100
AcDbArc
 50
1.6702677154
 51
76.081199757
  0
ARC
  5
3B5
100
AcDbEntity
  8
0
100
AcDbCircle
 62
7
  6
CONTINUOUS
 10
9.5675387105
 20
12.6997041127
 40
0.01
100
AcDbArc
 50
0.0
 51
90.0
  0
ARC
  5
3B6
100
AcDbEntity
  8
0
100
AcDbCircle
 62
7
  6
CONTINUOUS
 10
8.5499389455
 20
15.9325227736
 40
3.73
100
AcDbArc
 50
276.0539076486
 51
283.9188002726
  0
ARC
  5
3B7
100
AcDbEntity
  8
0
100
AcDbCircle
 62
7
  6
CONTINUOUS
 10
11.4331384756
 20
9.1268854519
 40
3.73
100
AcDbArc
 50
96.0539076486
 51
103.9188002726
  0
ARC
  5
3B8
100
AcDbEntity
  8
0
100
AcDbCircle
 62
7
  6
CONTINUOUS
 10
12.5499389455
 20
9.1268854519
 40
3.73
100
AcDbArc
 50
76.0811997274
 51
83.9460923514
  0
ARC
  5
3B9
100
AcDbEntity
  8
0
100
AcDbCircle
 62
7
  6
CONTINUOUS
 10
10.5887200497
 20
11.0881043477
 40
3.73
100
AcDbArc
 50
6.0539076486
 51
13.9188002726
  0
ARC
  5
3BA
100
AcDbEntity
  8
0
100
AcDbCircle
 62
7
  6
CONTINUOUS
 10
9.9915387105
 20
11.7827041127
 40
0.517
100
AcDbArc
 50
244.7853651812
 51
295.2146348188
  0
ARC
  5
3BB
100
AcDbEntity
  8
0
100
AcDbCircle
 62
7
  6
CONTINUOUS
 10
10.3182886826
 20
11.0887852012
 40
0.25
100
AcDbArc
 50
93.2006734286
 51
115.2146348188
  0
ARC
  5
3BC
100
AcDbEntity
  8
0
100
AcDbCircle
 62
7
  6
CONTINUOUS
 10
11.4324576221
 20
12.2029541407
 40
0.25
100
AcDbArc
 50
154.7853651812
 51
176.7993265714
  0
ARC
  5
3BD
100
AcDbEntity
  8
0
100
AcDbCircle
 62
7
  6
CONTINUOUS
 10
12.550619799
 20
12.2029541407
 40
0.25
100
AcDbArc
 50
3.2006734286
 51
25.2146348188
  0
ARC
  5
3BE
100
AcDbEntity
  8
0
100
AcDbCircle
 62
7
  6
CONTINUOUS
 10
10.3015387105
 20
11.40328621
 40
0.05
100
AcDbArc
 50
0.0
 51
66.3131006371
  0
ARC
  5
3BF
100
AcDbEntity
  8
0
100
AcDbCircle
 62
7
  6
CONTINUOUS
 10
10.3015387105
 20
11.3883172336
 40
0.05
100
AcDbArc
 50
273.2006734286
 51
360.0
  0
ARC
  5
3C0
100
AcDbEntity
  8
0
100
AcDbCircle
 62
7
  6
CONTINUOUS
 10
11.1179566132
 20
12.2197041127
 40
0.05
100
AcDbArc
 50
203.6868993629
 51
270.0
  0
ARC
  5
3C1
100
AcDbEntity
  8
0
100
AcDbCircle
 62
7
  6
CONTINUOUS
 10
11.1329255897
 20
12.2197041127
 40
0.05
100
AcDbArc
 50
270.0
 51
356.7993265714
  0
ARC
  5
3C2
100
AcDbEntity
  8
0
100
AcDbCircle
 62
7
  6
CONTINUOUS
 10
10.3376951666
 20
11.4857041127
 40
0.04
100
AcDbArc
 50
186.0539076486
 51
246.3131006371
  0
ARC
  5
3C3
100
AcDbEntity
  8
0
100
AcDbCircle
 62
7
  6
CONTINUOUS
 10
10.1703728089
 20
11.975721108
 40
0.04
100
AcDbArc
 50
13.9188002437
 51
88.3297322848
  0
ARC
  5
3C4
100
AcDbEntity
  8
0
100
AcDbCircle
 62
7
  6
CONTINUOUS
 10
9.8127046122
 20
11.975721108
 40
0.04
100
AcDbArc
 50
91.6702677154
 51
166.081199757
  0
ARC
  5
3C5
100
AcDbEntity
  8
0
100
AcDbCircle
 62
7
  6
CONTINUOUS
 10
11.0355387105
 20
12.1835476567
 40
0.04
100
AcDbArc
 50
23.6868993629
 51
83.9460923514
  0
ARC
  5
3C6
100
AcDbEntity
  8
0
100
AcDbCircle
 62
7
  6
CONTINUOUS
 10
10.5455217153
 20
12.3508700144
 40
0.04
100
AcDbArc
 50
181.6702677154
 51
256.081199757
  0
ARC
  5
3C7
100
AcDbEntity
  8
0
100
AcDbCircle
 62
7
  6
CONTINUOUS
 10
10.1615387105
 20
12.1057041127
 40
0.01
100
AcDbArc
 50
0.0
 51
90.0
  0
ARC
  5
3C8
100
AcDbEntity
  8
0
100
AcDbCircle
 62
7
  6
CONTINUOUS
 10
9.8215387105
 20
12.1057041127
 40
0.01
100
AcDbArc
 50
90.0
 51
180.0
  0
ARC
  5
3C9
100
AcDbEntity
  8
0
100
AcDbCircle
 62
7
  6
CONTINUOUS
 10
10.4155387105
 20
12.3597041127
 40
0.01
100
AcDbArc
 50
180.0
 51
270.0
  0
ARC
  5
3CA
100
AcDbEntity
  8
0
100
AcDbCircle
 62
7
  6
CONTINUOUS
 10
14.9816700375
 20
10.1529526847
 40
8.5
100
AcDbArc
 50
171.0598780347
 51
186.4903463107
  0
ARC
  5
3CB
100
AcDbEntity
  8
0
100
AcDbCircle
 62
7
  6
CONTINUOUS
 10
15.4331384756
 20
9.1268854519
 40
3.73
100
AcDbArc
 50
96.0539076486
 51
103.9188002726
  0
ARC
  5
3CC
100
AcDbEntity
  8
0
100
AcDbCircle
 62
7
  6
CONTINUOUS
 10
13.3943573713
 20
11.0881043477
 40
3.73
100
AcDbArc
 50
166.0811997274
 51
173.9460923514
  0
ARC
  5
3CD
100
AcDbEntity
  8
0
100
AcDbCircle
 62
7
  6
CONTINUOUS
 10
13.9915387105
 20
11.7827041127
 40
0.517
100
AcDbArc
 50
244.7853651812
 51
295.2146348188
  0
ARC
  5
3CE
100
AcDbEntity
  8
0
100
AcDbCircle
 62
7
  6
CONTINUOUS
 10
13.6647887385
 20
11.0887852012
 40
0.25
100
AcDbArc
 50
64.7853651812
 51
86.7993265714
  0
ARC
  5
3CF
100
AcDbEntity
  8
0
100
AcDbCircle
 62
7
  6
CONTINUOUS
 10
14.3182886826
 20
11.0887852012
 40
0.25
100
AcDbArc
 50
93.2006734286
 51
115.2146348188
  0
ARC
  5
3D0
100
AcDbEntity
  8
0
100
AcDbCircle
 62
7
  6
CONTINUOUS
 10
15.4324576221
 20
12.2029541407
 40
0.25
100
AcDbArc
 50
154.7853651812
 51
176.7993265714
  0
ARC
  5
3D1
100
AcDbEntity
  8
0
100
AcDbCircle
 62
7
  6
CONTINUOUS
 10
14.3015387105
 20
11.40328621
 40
0.05
100
AcDbArc
 50
0.0
 51
66.3131006371
  0
ARC
  5
3D2
100
AcDbEntity
  8
0
100
AcDbCircle
 62
7
  6
CONTINUOUS
 10
13.6815387105
 20
11.40328621
 40
0.05
100
AcDbArc
 50
113.6868993629
 51
180.0
  0
ARC
  5
3D3
100
AcDbEntity
  8
0
100
AcDbCircle
 62
7
  6
CONTINUOUS
 10
13.6815387105
 20
11.3883172336
 40
0.05
100
AcDbArc
 50
180.0
 51
266.7993265714
  0
ARC
  5
3D4
100
AcDbEntity
  8
0
100
AcDbCircle
 62
7
  6
CONTINUOUS
 10
14.3015387105
 20
11.3883172336
 40
0.05
100
AcDbArc
 50
273.2006734286
 51
360.0
  0
ARC
  5
3D5
100
AcDbEntity
  8
0
100
AcDbCircle
 62
7
  6
CONTINUOUS
 10
15.1179566132
 20
12.2197041127
 40
0.05
100
AcDbArc
 50
203.6868993629
 51
270.0
  0
ARC
  5
3D6
100
AcDbEntity
  8
0
100
AcDbCircle
 62
7
  6
CONTINUOUS
 10
15.1329255897
 20
12.2197041127
 40
0.05
100
AcDbArc
 50
270.0
 51
356.7993265714
  0
ARC
  5
3D7
100
AcDbEntity
  8
0
100
AcDbCircle
 62
7
  6
CONTINUOUS
 10
12.8651208078
 20
12.2197041127
 40
0.05
100
AcDbArc
 50
270.0
 51
336.3131006371
  0
ARC
  5
3D8
100
AcDbEntity
  8
0
100
AcDbCircle
 62
7
  6
CONTINUOUS
 10
12.8501518314
 20
12.2197041127
 40
0.05
100
AcDbArc
 50
183.2006734286
 51
270.0
  0
ARC
  5
3D9
100
AcDbEntity
  8
0
100
AcDbCircle
 62
7
  6
CONTINUOUS
 10
13.6453822545
 20
11.4857041127
 40
0.04
100
AcDbArc
 50
293.6868993629
 51
353.9460923514
  0
ARC
  5
3DA
100
AcDbEntity
  8
0
100
AcDbCircle
 62
7
  6
CONTINUOUS
 10
14.3376951666
 20
11.4857041127
 40
0.04
100
AcDbArc
 50
186.0539076486
 51
246.3131006371
  0
ARC
  5
3DB
100
AcDbEntity
  8
0
100
AcDbCircle
 62
7
  6
CONTINUOUS
 10
14.1703728089
 20
11.975721108
 40
0.04
100
AcDbArc
 50
13.9188002437
 51
88.3297322848
  0
ARC
  5
3DC
100
AcDbEntity
  8
0
100
AcDbCircle
 62
7
  6
CONTINUOUS
 10
13.8127046122
 20
11.975721108
 40
0.04
100
AcDbArc
 50
91.6702677154
 51
166.081199757
  0
ARC
  5
3DD
100
AcDbEntity
  8
0
100
AcDbCircle
 62
7
  6
CONTINUOUS
 10
15.0355387105
 20
12.1835476567
 40
0.04
100
AcDbArc
 50
23.6868993629
 51
83.9460923514
  0
ARC
  5
3DE
100
AcDbEntity
  8
0
100
AcDbCircle
 62
7
  6
CONTINUOUS
 10
14.5455217153
 20
12.3508700144
 40
0.04
100
AcDbArc
 50
181.6702677154
 51
256.081199757
  0
ARC
  5
3DF
100
AcDbEntity
  8
0
100
AcDbCircle
 62
7
  6
CONTINUOUS
 10
12.9475387105
 20
12.1835476567
 40
0.04
100
AcDbArc
 50
96.0539076486
 51
156.3131006371
  0
ARC
  5
3E0
100
AcDbEntity
  8
0
100
AcDbCircle
 62
7
  6
CONTINUOUS
 10
13.4375557058
 20
12.3508700144
 40
0.04
100
AcDbArc
 50
283.9188002437
 51
358.3297322848
  0
ARC
  5
3E1
100
AcDbEntity
  8
0
100
AcDbCircle
 62
7
  6
CONTINUOUS
 10
14.1615387105
 20
12.1057041127
 40
0.01
100
AcDbArc
 50
0.0
 51
90.0
  0
ARC
  5
3E2
100
AcDbEntity
  8
0
100
AcDbCircle
 62
7
  6
CONTINUOUS
 10
13.8215387105
 20
12.1057041127
 40
0.01
100
AcDbArc
 50
90.0
 51
180.0
  0
ARC
  5
3E3
100
AcDbEntity
  8
0
100
AcDbCircle
 62
7
  6
CONTINUOUS
 10
14.4155387105
 20
12.3597041127
 40
0.01
100
AcDbArc
 50
180.0
 51
270.0
  0
ARC
  5
3E4
100
AcDbEntity
  8
0
100
AcDbCircle
 62
7
  6
CONTINUOUS
 10
13.5675387105
 20
12.3597041127
 40
0.01
100
AcDbArc
 50
270.0
 51
360.0
  0
ARC
  5
3E5
100
AcDbEntity
  8
0
100
AcDbCircle
 62
7
  6
CONTINUOUS
 10
9.9915387105
 20
12.5297041127
 40
1.1134351517
100
AcDbArc
 50
196.3941484435
 51
253.6037480809
  0
ARC
  5
3E6
100
AcDbEntity
  8
0
100
AcDbCircle
 62
7
  6
CONTINUOUS
 10
9.9915387105
 20
12.5297041127
 40
1.1134351517
100
AcDbArc
 50
106.3962519191
 51
163.6058515565
  0
ARC
  5
3E7
100
AcDbEntity
  8
0
100
AcDbCircle
 62
7
  6
CONTINUOUS
 10
9.9915387105
 20
12.5297041127
 40
1.1134351517
100
AcDbArc
 50
16.3941484435
 51
73.603748081
  0
ARC
  5
3E8
100
AcDbEntity
  8
0
100
AcDbCircle
 62
7
  6
CONTINUOUS
 10
9.9915387105
 20
12.5297041127
 40
1.1134351517
100
AcDbArc
 50
286.3962519191
 51
343.6058515565
  0
ARC
  5
3E9
100
AcDbEntity
  8
0
100
AcDbCircle
 62
9
  6
CONTINUOUS
 10
9.9915387105
 20
12.5297041127
 40
1.1032228352
100
AcDbArc
 50
286.2726442785
 51
343.7273551534
  0
ARC
  5
3EA
100
AcDbEntity
  8
0
100
AcDbCircle
 62
9
  6
CONTINUOUS
 10
9.9915387105
 20
12.5297041127
 40
1.1032228352
100
AcDbArc
 50
16.2726448514
 51
73.7273556879
  0
ARC
  5
3EB
100
AcDbEntity
  8
0
100
AcDbCircle
 62
9
  6
CONTINUOUS
 10
9.9915387105
 20
12.5297041127
 40
1.1032228352
100
AcDbArc
 50
106.2726442785
 51
163.7273551534
  0
ARC
  5
3EC
100
AcDbEntity
  8
0
100
AcDbCircle
 62
9
  6
CONTINUOUS
 10
9.9915387105
 20
12.5297041127
 40
1.1032228352
100
AcDbArc
 50
196.2726448514
 51
253.7273556879
  0
ARC
  5
3ED
100
AcDbEntity
  8
0
100
AcDbCircle
 62
9
  6
CONTINUOUS
 10
9.9915387105
 20
12.5297041127
 40
0.9347230301
100
AcDbArc
 50
17.8179125329
 51
72.1820870134
  0
ARC
  5
3EE
100
AcDbEntity
  8
0
100
AcDbCircle
 62
9
  6
CONTINUOUS
 10
9.9915387105
 20
12.5297041127
 40
0.9347230301
100
AcDbArc
 50
287.817913061
 51
342.1820874933
  0
ARC
  5
3EF
100
AcDbEntity
  8
0
100
AcDbCircle
 62
9
  6
CONTINUOUS
 10
9.9915387105
 20
12.5297041127
 40
0.9347230301
100
AcDbArc
 50
197.8179125329
 51
252.1820870134
  0
ARC
  5
3F0
100
AcDbEntity
  8
0
100
AcDbCircle
 62
9
  6
CONTINUOUS
 10
9.9915387105
 20
12.5297041127
 40
0.9347230301
100
AcDbArc
 50
107.817913061
 51
162.1820874933
  0
ARC
  5
3F1
100
AcDbEntity
  8
0
100
AcDbCircle
 62
7
  6
CONTINUOUS
 10
9.9915387105
 20
12.5297041127
 40
0.928
100
AcDbArc
 50
197.8923572983
 51
252.1076427017
  0
ARC
  5
3F2
100
AcDbEntity
  8
0
100
AcDbCircle
 62
7
  6
CONTINUOUS
 10
9.9915387105
 20
12.5297041127
 40
0.928
100
AcDbArc
 50
107.8923572983
 51
162.1076427017
  0
ARC
  5
3F3
100
AcDbEntity
  8
0
100
AcDbCircle
 62
7
  6
CONTINUOUS
 10
9.9915387105
 20
12.5297041127
 40
0.928
100
AcDbArc
 50
17.8923572983
 51
72.1076427017
  0
ARC
  5
3F4
100
AcDbEntity
  8
0
100
AcDbCircle
 62
7
  6
CONTINUOUS
 10
9.9915387105
 20
12.5297041127
 40
0.928
100
AcDbArc
 50
287.8923572983
 51
342.1076427017
  0
ARC
  5
3F5
100
AcDbEntity
  8
0
100
AcDbCircle
 62
9
  6
CONTINUOUS
 10
9.9915387105
 20
12.5297041127
 40
0.9159658819
100
AcDbArc
 50
18.0097988053
 51
71.9902011947
  0
ARC
  5
3F6
100
AcDbEntity
  8
0
100
AcDbCircle
 62
9
  6
CONTINUOUS
 10
9.9915387105
 20
12.5297041127
 40
0.9159658819
100
AcDbArc
 50
288.0097988053
 51
341.9902011947
  0
ARC
  5
3F7
100
AcDbEntity
  8
0
100
AcDbCircle
 62
9
  6
CONTINUOUS
 10
9.9915387105
 20
12.5297041127
 40
0.9159658819
100
AcDbArc
 50
108.0097988053
 51
161.9902011947
  0
ARC
  5
3F8
100
AcDbEntity
  8
0
100
AcDbCircle
 62
9
  6
CONTINUOUS
 10
9.9915387105
 20
12.5297041127
 40
0.9159658819
100
AcDbArc
 50
198.0097988053
 51
251.9902011947
  0
ARC
  5
3F9
100
AcDbEntity
  8
0
100
AcDbCircle
 62
9
  6
CONTINUOUS
 10
9.9915387105
 20
12.5297041127
 40
0.8160949729
100
AcDbArc
 50
18.9946515407
 51
71.0003952793
  0
ARC
  5
3FA
100
AcDbEntity
  8
0
100
AcDbCircle
 62
9
  6
CONTINUOUS
 10
9.9915387105
 20
12.5297041127
 40
0.8160949729
100
AcDbArc
 50
288.9996047207
 51
341.0053484593
  0
ARC
  5
3FB
100
AcDbEntity
  8
0
100
AcDbCircle
 62
9
  6
CONTINUOUS
 10
9.9915387105
 20
12.5297041127
 40
0.8160949729
100
AcDbArc
 50
108.9996047207
 51
161.0053484593
  0
ARC
  5
3FC
100
AcDbEntity
  8
0
100
AcDbCircle
 62
9
  6
CONTINUOUS
 10
9.9915387105
 20
12.5297041127
 40
0.8160949729
100
AcDbArc
 50
198.9946515407
 51
251.0003952793
  0
ARC
  5
3FD
100
AcDbEntity
  8
0
100
AcDbCircle
 62
7
  6
CONTINUOUS
 10
9.9915387105
 20
12.5297041127
 40
0.7554637704
100
AcDbArc
 50
19.7287987161
 51
70.2712012839
  0
ARC
  5
3FE
100
AcDbEntity
  8
0
100
AcDbCircle
 62
7
  6
CONTINUOUS
 10
9.9915387105
 20
12.5297041127
 40
0.7554637704
100
AcDbArc
 50
289.7287987161
 51
340.2712012839
  0
ARC
  5
3FF
100
AcDbEntity
  8
0
100
AcDbCircle
 62
7
  6
CONTINUOUS
 10
9.9915387105
 20
12.5297041127
 40
0.7554637704
100
AcDbArc
 50
109.7287987161
 51
160.2712012839
  0
ARC
  5
400
100
AcDbEntity
  8
0
100
AcDbCircle
 62
7
  6
CONTINUOUS
 10
9.9915387105
 20
12.5297041127
 40
0.7554637704
100
AcDbArc
 50
199.7287987161
 51
250.2712012839
  0
ARC
  5
401
100
AcDbEntity
  8
0
100
AcDbCircle
 62
7
  6
CONTINUOUS
 10
9.9915387105
 20
12.5297041127
 40
0.5181047788
100
AcDbArc
 50
200.3366201186
 51
249.6600072943
  0
ARC
  5
402
100
AcDbEntity
  8
0
100
AcDbCircle
 62
7
  6
CONTINUOUS
 10
9.9915387105
 20
12.5297041127
 40
0.5181047788
100
AcDbArc
 50
110.3399927057
 51
159.6633798814
  0
ARC
  5
403
100
AcDbEntity
  8
0
100
AcDbCircle
 62
7
  6
CONTINUOUS
 10
9.9915387105
 20
12.5297041127
 40
0.5181047788
100
AcDbArc
 50
20.3366201186
 51
69.6600072943
  0
ARC
  5
404
100
AcDbEntity
  8
0
100
AcDbCircle
 62
7
  6
CONTINUOUS
 10
9.9915387105
 20
12.5297041127
 40
0.5181047788
100
AcDbArc
 50
290.3399927057
 51
339.6633798814
  0
ARC
  5
405
100
AcDbEntity
  8
0
100
AcDbCircle
 62
9
  6
CONTINUOUS
 10
9.9915387105
 20
12.5297041127
 40
0.4757780941
100
AcDbArc
 50
22.2360080468
 51
67.7494214706
  0
ARC
  5
406
100
AcDbEntity
  8
0
100
AcDbCircle
 62
9
  6
CONTINUOUS
 10
9.9915387105
 20
12.5297041127
 40
0.4757780941
100
AcDbArc
 50
292.2505799503
 51
337.7639914804
  0
ARC
  5
407
100
AcDbEntity
  8
0
100
AcDbCircle
 62
9
  6
CONTINUOUS
 10
9.9915387105
 20
12.5297041127
 40
0.4757780941
100
AcDbArc
 50
202.2360080468
 51
247.7494214706
  0
ARC
  5
408
100
AcDbEntity
  8
0
100
AcDbCircle
 62
9
  6
CONTINUOUS
 10
9.9915387105
 20
12.5297041127
 40
0.4757780941
100
AcDbArc
 50
112.2505799503
 51
157.7639914804
  0
ARC
  5
409
100
AcDbEntity
  8
0
100
AcDbCircle
 62
7
  6
CONTINUOUS
 10
9.9915387105
 20
12.5297041127
 40
0.451
100
AcDbArc
 50
113.370340497
 51
156.629659503
  0
ARC
  5
40A
100
AcDbEntity
  8
0
100
AcDbCircle
 62
7
  6
CONTINUOUS
 10
9.9915387105
 20
12.5297041127
 40
0.451
100
AcDbArc
 50
203.370340497
 51
246.629659503
  0
ARC
  5
40B
100
AcDbEntity
  8
0
100
AcDbCircle
 62
7
  6
CONTINUOUS
 10
9.9915387105
 20
12.5297041127
 40
0.451
100
AcDbArc
 50
293.370340497
 51
336.629659503
  0
ARC
  5
40C
100
AcDbEntity
  8
0
100
AcDbCircle
 62
7
  6
CONTINUOUS
 10
9.9915387105
 20
12.5297041127
 40
0.451
100
AcDbArc
 50
23.370340497
 51
66.629659503
  0
ARC
  5
40D
100
AcDbEntity
  8
0
100
AcDbCircle
 62
7
  6
CONTINUOUS
 10
9.9915387105
 20
12.5297041127
 40
0.45
100
AcDbArc
 50
22.744512254
 51
22.9895921243
  0
ARC
  5
40E
100
AcDbEntity
  8
0
100
AcDbCircle
 62
7
  6
CONTINUOUS
 10
9.9915387105
 20
12.5297041127
 40
0.45
100
AcDbArc
 50
67.0239726256
 51
67.2728570866
  0
ARC
  5
40F
100
AcDbEntity
  8
0
100
AcDbCircle
 62
7
  6
CONTINUOUS
 10
9.9915387105
 20
12.5297041127
 40
0.45
100
AcDbArc
 50
292.7271427413
 51
292.9760267268
  0
ARC
  5
410
100
AcDbEntity
  8
0
100
AcDbCircle
 62
7
  6
CONTINUOUS
 10
9.9915387105
 20
12.5297041127
 40
0.45
100
AcDbArc
 50
337.0104088025
 51
337.2554882047
  0
ARC
  5
411
100
AcDbEntity
  8
0
100
AcDbCircle
 62
7
  6
CONTINUOUS
 10
9.9915387105
 20
12.5297041127
 40
0.45
100
AcDbArc
 50
157.0104078368
 51
157.2554877182
  0
ARC
  5
412
100
AcDbEntity
  8
0
100
AcDbCircle
 62
7
  6
CONTINUOUS
 10
9.9915387105
 20
12.5297041127
 40
0.45
100
AcDbArc
 50
112.7271427413
 51
112.9760267268
  0
ARC
  5
413
100
AcDbEntity
  8
0
100
AcDbCircle
 62
7
  6
CONTINUOUS
 10
9.9915387105
 20
12.5297041127
 40
0.45
100
AcDbArc
 50
202.7445117948
 51
202.9895911967
  0
ARC
  5
414
100
AcDbEntity
  8
0
100
AcDbCircle
 62
7
  6
CONTINUOUS
 10
9.9915387105
 20
12.5297041127
 40
0.45
100
AcDbArc
 50
247.0239732744
 51
247.2728572597
  0
CIRCLE
  5
415
100
AcDbEntity
  8
0
100
AcDbCircle
 62
9
  6
CONTINUOUS
 10
9.9915387105
 20
12.5297041127
 40
0.2988618956
  0
CIRCLE
  5
416
100
AcDbEntity
  8
0
100
AcDbCircle
 62
9
  6
CONTINUOUS
 10
9.9915387105
 20
12.5297041127
 40
0.292235246
  0
CIRCLE
  5
417
100
AcDbEntity
  8
0
100
AcDbCircle
 62
7
  6
CONTINUOUS
 10
9.9915387105
 20
12.5297041127
 40
0.28
  0
CIRCLE
  5
418
100
AcDbEntity
  8
0
100
AcDbCircle
 62
9
  6
CONTINUOUS
 10
9.9915387105
 20
12.5297041127
 40
0.2258064516
  0
ARC
  5
419
100
AcDbEntity
  8
0
100
AcDbCircle
 62
7
  6
CONTINUOUS
 10
10.4155387105
 20
12.6997041127
 40
0.01
100
AcDbArc
 50
90.0
 51
180.0
  0
ARC
  5
41A
100
AcDbEntity
  8
0
100
AcDbCircle
 62
7
  6
CONTINUOUS
 10
9.8127046122
 20
13.0836871175
 40
0.04
100
AcDbArc
 50
193.9188002437
 51
268.3297322848
  0
ARC
  5
41B
100
AcDbEntity
  8
0
100
AcDbCircle
 62
7
  6
CONTINUOUS
 10
10.1703728089
 20
13.0836871175
 40
0.04
100
AcDbArc
 50
271.6702677154
 51
346.081199757
  0
ARC
  5
41C
100
AcDbEntity
  8
0
100
AcDbCircle
 62
7
  6
CONTINUOUS
 10
9.8215387105
 20
12.9537041127
 40
0.01
100
AcDbArc
 50
180.0
 51
270.0
  0
ARC
  5
41D
100
AcDbEntity
  8
0
100
AcDbCircle
 62
7
  6
CONTINUOUS
 10
10.1615387105
 20
12.9537041127
 40
0.01
100
AcDbArc
 50
270.0
 51
360.0
  0
ARC
  5
41E
100
AcDbEntity
  8
0
100
AcDbCircle
 62
7
  6
CONTINUOUS
 10
10.7385387105
 20
12.5297041127
 40
0.517
100
AcDbArc
 50
334.7853651812
 51
25.2146348188
  0
ARC
  5
41F
100
AcDbEntity
  8
0
100
AcDbCircle
 62
7
  6
CONTINUOUS
 10
10.5455217153
 20
12.7085382111
 40
0.04
100
AcDbArc
 50
103.9188002437
 51
178.3297322848
  0
ARC
  5
420
100
AcDbEntity
  8
0
100
AcDbCircle
 62
7
  6
CONTINUOUS
 10
11.1179566132
 20
12.8397041127
 40
0.05
100
AcDbArc
 50
90.0
 51
156.3131006371
  0
ARC
  5
421
100
AcDbEntity
  8
0
100
AcDbCircle
 62
7
  6
CONTINUOUS
 10
11.1329255897
 20
12.8397041127
 40
0.05
100
AcDbArc
 50
3.2006734286
 51
90.0
  0
ARC
  5
422
100
AcDbEntity
  8
0
100
AcDbCircle
 62
7
  6
CONTINUOUS
 10
11.0355387105
 20
12.8758605688
 40
0.04
100
AcDbArc
 50
276.0539076486
 51
336.3131006371
  0
ARC
  5
423
100
AcDbEntity
  8
0
100
AcDbCircle
 62
7
  6
CONTINUOUS
 10
10.5887200497
 20
13.9713038778
 40
3.73
100
AcDbArc
 50
346.0811997274
 51
353.9460923514
  0
ARC
  5
424
100
AcDbEntity
  8
0
100
AcDbCircle
 62
7
  6
CONTINUOUS
 10
9.9915387105
 20
13.2767041127
 40
0.517
100
AcDbArc
 50
64.7853651812
 51
115.2146348188
  0
ARC
  5
425
100
AcDbEntity
  8
0
100
AcDbCircle
 62
7
  6
CONTINUOUS
 10
10.3182886826
 20
13.9706230243
 40
0.25
100
AcDbArc
 50
244.7853651812
 51
266.7993265714
  0
ARC
  5
426
100
AcDbEntity
  8
0
100
AcDbCircle
 62
7
  6
CONTINUOUS
 10
10.3015387105
 20
13.6561220154
 40
0.05
100
AcDbArc
 50
293.6868993629
 51
360.0
  0
ARC
  5
427
100
AcDbEntity
  8
0
100
AcDbCircle
 62
7
  6
CONTINUOUS
 10
10.3015387105
 20
13.6710909919
 40
0.05
100
AcDbArc
 50
0.0
 51
86.7993265714
  0
ARC
  5
428
100
AcDbEntity
  8
0
100
AcDbCircle
 62
7
  6
CONTINUOUS
 10
10.3376951666
 20
13.5737041127
 40
0.04
100
AcDbArc
 50
113.6868993629
 51
173.9460923514
  0
ARC
  5
429
100
AcDbEntity
  8
0
100
AcDbCircle
 62
7
  6
CONTINUOUS
 10
11.4324576221
 20
12.8564540848
 40
0.25
100
AcDbArc
 50
183.2006734286
 51
205.2146348188
  0
ARC
  5
42A
100
AcDbEntity
  8
0
100
AcDbCircle
 62
7
  6
CONTINUOUS
 10
12.550619799
 20
12.8564540848
 40
0.25
100
AcDbArc
 50
334.7853651812
 51
356.7993265714
  0
ARC
  5
42B
100
AcDbEntity
  8
0
100
AcDbCircle
 62
7
  6
CONTINUOUS
 10
11.4331384756
 20
15.9325227736
 40
3.73
100
AcDbArc
 50
256.0811997274
 51
263.9460923514
  0
ARC
  5
42C
100
AcDbEntity
  8
0
100
AcDbCircle
 62
7
  6
CONTINUOUS
 10
12.5499389455
 20
15.9325227736
 40
3.73
100
AcDbArc
 50
276.0539076486
 51
283.9188002726
  0
ARC
  5
42D
100
AcDbEntity
  8
0
100
AcDbCircle
 62
7
  6
CONTINUOUS
 10
13.2445387105
 20
12.5297041127
 40
0.517
100
AcDbArc
 50
154.7853651812
 51
205.2146348188
  0
ARC
  5
42E
100
AcDbEntity
  8
0
100
AcDbCircle
 62
7
  6
CONTINUOUS
 10
12.8651208078
 20
12.8397041127
 40
0.05
100
AcDbArc
 50
23.6868993629
 51
90.0
  0
ARC
  5
42F
100
AcDbEntity
  8
0
100
AcDbCircle
 62
7
  6
CONTINUOUS
 10
12.8501518314
 20
12.8397041127
 40
0.05
100
AcDbArc
 50
90.0
 51
176.7993265714
  0
ARC
  5
430
100
AcDbEntity
  8
0
100
AcDbCircle
 62
7
  6
CONTINUOUS
 10
12.9475387105
 20
12.8758605688
 40
0.04
100
AcDbArc
 50
203.6868993629
 51
263.9460923514
  0
ARC
  5
431
100
AcDbEntity
  8
0
100
AcDbCircle
 62
7
  6
CONTINUOUS
 10
13.4375557058
 20
12.7085382111
 40
0.04
100
AcDbArc
 50
1.6702677154
 51
76.081199757
  0
ARC
  5
432
100
AcDbEntity
  8
0
100
AcDbCircle
 62
7
  6
CONTINUOUS
 10
13.5675387105
 20
12.6997041127
 40
0.01
100
AcDbArc
 50
0.0
 51
90.0
  0
ARC
  5
433
100
AcDbEntity
  8
0
100
AcDbCircle
 62
7
  6
CONTINUOUS
 10
13.9915387105
 20
12.5297041127
 40
1.1134351517
100
AcDbArc
 50
196.3890420891
 51
253.6084116017
  0
ARC
  5
434
100
AcDbEntity
  8
0
100
AcDbCircle
 62
7
  6
CONTINUOUS
 10
13.9915387105
 20
12.5297041127
 40
1.1134351517
100
AcDbArc
 50
106.3915883984
 51
163.6109579109
  0
ARC
  5
435
100
AcDbEntity
  8
0
100
AcDbCircle
 62
7
  6
CONTINUOUS
 10
13.9915387105
 20
12.5297041127
 40
1.1134351517
100
AcDbArc
 50
16.3890420891
 51
73.6084116017
  0
ARC
  5
436
100
AcDbEntity
  8
0
100
AcDbCircle
 62
7
  6
CONTINUOUS
 10
13.9915387105
 20
12.5297041127
 40
1.1134351517
100
AcDbArc
 50
286.3915883984
 51
343.6109579109
  0
ARC
  5
437
100
AcDbEntity
  8
0
100
AcDbCircle
 62
9
  6
CONTINUOUS
 10
13.9915387105
 20
12.5297041127
 40
1.1032228352
100
AcDbArc
 50
286.2707599957
 51
343.7292400925
  0
ARC
  5
438
100
AcDbEntity
  8
0
100
AcDbCircle
 62
9
  6
CONTINUOUS
 10
13.9915387105
 20
12.5297041127
 40
1.1032228352
100
AcDbArc
 50
16.2707598867
 51
73.7292399713
  0
ARC
  5
439
100
AcDbEntity
  8
0
100
AcDbCircle
 62
9
  6
CONTINUOUS
 10
13.9915387105
 20
12.5297041127
 40
1.1032228352
100
AcDbArc
 50
106.2707599957
 51
163.7292400925
  0
ARC
  5
43A
100
AcDbEntity
  8
0
100
AcDbCircle
 62
9
  6
CONTINUOUS
 10
13.9915387105
 20
12.5297041127
 40
1.1032228352
100
AcDbArc
 50
196.2707598867
 51
253.7292399713
  0
ARC
  5
43B
100
AcDbEntity
  8
0
100
AcDbCircle
 62
9
  6
CONTINUOUS
 10
13.9915387105
 20
12.5297041127
 40
0.9347230301
100
AcDbArc
 50
17.8049411528
 51
72.1983932807
  0
ARC
  5
43C
100
AcDbEntity
  8
0
100
AcDbCircle
 62
9
  6
CONTINUOUS
 10
13.9915387105
 20
12.5297041127
 40
0.9347230301
100
AcDbArc
 50
287.8016067601
 51
342.1950588568
  0
ARC
  5
43D
100
AcDbEntity
  8
0
100
AcDbCircle
 62
9
  6
CONTINUOUS
 10
13.9915387105
 20
12.5297041127
 40
0.9347230301
100
AcDbArc
 50
197.8049411528
 51
252.1983932807
  0
ARC
  5
43E
100
AcDbEntity
  8
0
100
AcDbCircle
 62
9
  6
CONTINUOUS
 10
13.9915387105
 20
12.5297041127
 40
0.9347230301
100
AcDbArc
 50
107.8016067601
 51
162.1950588568
  0
ARC
  5
43F
100
AcDbEntity
  8
0
100
AcDbCircle
 62
7
  6
CONTINUOUS
 10
13.9915387105
 20
12.5297041127
 40
0.928
100
AcDbArc
 50
197.8686709329
 51
252.1313290671
  0
ARC
  5
440
100
AcDbEntity
  8
0
100
AcDbCircle
 62
7
  6
CONTINUOUS
 10
13.9915387105
 20
12.5297041127
 40
0.928
100
AcDbArc
 50
107.8686709329
 51
162.1313290671
  0
ARC
  5
441
100
AcDbEntity
  8
0
100
AcDbCircle
 62
7
  6
CONTINUOUS
 10
13.9915387105
 20
12.5297041127
 40
0.928
100
AcDbArc
 50
17.8686709329
 51
72.1313290671
  0
ARC
  5
442
100
AcDbEntity
  8
0
100
AcDbCircle
 62
7
  6
CONTINUOUS
 10
13.9915387105
 20
12.5297041127
 40
0.928
100
AcDbArc
 50
287.8686709329
 51
342.1313290671
  0
ARC
  5
443
100
AcDbEntity
  8
0
100
AcDbCircle
 62
9
  6
CONTINUOUS
 10
13.9915387105
 20
12.5297041127
 40
0.9159658819
100
AcDbArc
 50
17.9864811184
 51
72.0159129019
  0
ARC
  5
444
100
AcDbEntity
  8
0
100
AcDbCircle
 62
9
  6
CONTINUOUS
 10
13.9915387105
 20
12.5297041127
 40
0.9159658819
100
AcDbArc
 50
287.9840870981
 51
342.0135188816
  0
ARC
  5
445
100
AcDbEntity
  8
0
100
AcDbCircle
 62
9
  6
CONTINUOUS
 10
13.9915387105
 20
12.5297041127
 40
0.9159658819
100
AcDbArc
 50
107.9840870981
 51
162.0135188816
  0
ARC
  5
446
100
AcDbEntity
  8
0
100
AcDbCircle
 62
9
  6
CONTINUOUS
 10
13.9915387105
 20
12.5297041127
 40
0.9159658819
100
AcDbArc
 50
197.9864811184
 51
252.0159129019
  0
ARC
  5
447
100
AcDbEntity
  8
0
100
AcDbCircle
 62
9
  6
CONTINUOUS
 10
13.9915387105
 20
12.5297041127
 40
0.8160949729
100
AcDbArc
 50
19.0375950606
 51
70.9624049394
  0
ARC
  5
448
100
AcDbEntity
  8
0
100
AcDbCircle
 62
9
  6
CONTINUOUS
 10
13.9915387105
 20
12.5297041127
 40
0.8160949729
100
AcDbArc
 50
289.0375950606
 51
340.9624049394
  0
ARC
  5
449
100
AcDbEntity
  8
0
100
AcDbCircle
 62
9
  6
CONTINUOUS
 10
13.9915387105
 20
12.5297041127
 40
0.8160949729
100
AcDbArc
 50
109.0375950606
 51
160.9624049394
  0
ARC
  5
44A
100
AcDbEntity
  8
0
100
AcDbCircle
 62
9
  6
CONTINUOUS
 10
13.9915387105
 20
12.5297041127
 40
0.8160949729
100
AcDbArc
 50
199.0375950606
 51
250.9624049394
  0
ARC
  5
44B
100
AcDbEntity
  8
0
100
AcDbCircle
 62
7
  6
CONTINUOUS
 10
13.9915387105
 20
12.5297041127
 40
0.7554637704
100
AcDbArc
 50
19.6882375442
 51
70.309500643
  0
ARC
  5
44C
100
AcDbEntity
  8
0
100
AcDbCircle
 62
7
  6
CONTINUOUS
 10
13.9915387105
 20
12.5297041127
 40
0.7554637704
100
AcDbArc
 50
289.690499357
 51
340.3117624558
  0
ARC
  5
44D
100
AcDbEntity
  8
0
100
AcDbCircle
 62
7
  6
CONTINUOUS
 10
13.9915387105
 20
12.5297041127
 40
0.7554637704
100
AcDbArc
 50
109.690499357
 51
160.3117624558
  0
ARC
  5
44E
100
AcDbEntity
  8
0
100
AcDbCircle
 62
7
  6
CONTINUOUS
 10
13.9915387105
 20
12.5297041127
 40
0.7554637704
100
AcDbArc
 50
199.6882375442
 51
250.309500643
  0
ARC
  5
44F
100
AcDbEntity
  8
0
100
AcDbCircle
 62
7
  6
CONTINUOUS
 10
13.9915387105
 20
12.5297041127
 40
0.5181047788
100
AcDbArc
 50
200.3366201186
 51
249.6600072943
  0
ARC
  5
450
100
AcDbEntity
  8
0
100
AcDbCircle
 62
7
  6
CONTINUOUS
 10
13.9915387105
 20
12.5297041127
 40
0.5181047788
100
AcDbArc
 50
110.3399927057
 51
159.6633798814
  0
ARC
  5
451
100
AcDbEntity
  8
0
100
AcDbCircle
 62
7
  6
CONTINUOUS
 10
13.9915387105
 20
12.5297041127
 40
0.5181047788
100
AcDbArc
 50
20.3366201186
 51
69.6600072943
  0
ARC
  5
452
100
AcDbEntity
  8
0
100
AcDbCircle
 62
7
  6
CONTINUOUS
 10
13.9915387105
 20
12.5297041127
 40
0.5181047788
100
AcDbArc
 50
290.3399927057
 51
339.6633798814
  0
ARC
  5
453
100
AcDbEntity
  8
0
100
AcDbCircle
 62
9
  6
CONTINUOUS
 10
13.9915387105
 20
12.5297041127
 40
0.4757780941
100
AcDbArc
 50
22.24493604
 51
67.7550648045
  0
ARC
  5
454
100
AcDbEntity
  8
0
100
AcDbCircle
 62
9
  6
CONTINUOUS
 10
13.9915387105
 20
12.5297041127
 40
0.4757780941
100
AcDbArc
 50
292.2449361167
 51
337.7550638184
  0
ARC
  5
455
100
AcDbEntity
  8
0
100
AcDbCircle
 62
9
  6
CONTINUOUS
 10
13.9915387105
 20
12.5297041127
 40
0.4757780941
100
AcDbArc
 50
202.24493604
 51
247.7550648045
  0
ARC
  5
456
100
AcDbEntity
  8
0
100
AcDbCircle
 62
9
  6
CONTINUOUS
 10
13.9915387105
 20
12.5297041127
 40
0.4757780941
100
AcDbArc
 50
112.2449361167
 51
157.7550638184
  0
ARC
  5
457
100
AcDbEntity
  8
0
100
AcDbCircle
 62
7
  6
CONTINUOUS
 10
13.9915387105
 20
12.5297041127
 40
0.451
100
AcDbArc
 50
113.370340497
 51
156.629659503
  0
ARC
  5
458
100
AcDbEntity
  8
0
100
AcDbCircle
 62
7
  6
CONTINUOUS
 10
13.9915387105
 20
12.5297041127
 40
0.451
100
AcDbArc
 50
203.370340497
 51
246.629659503
  0
ARC
  5
459
100
AcDbEntity
  8
0
100
AcDbCircle
 62
7
  6
CONTINUOUS
 10
13.9915387105
 20
12.5297041127
 40
0.451
100
AcDbArc
 50
293.370340497
 51
336.629659503
  0
ARC
  5
45A
100
AcDbEntity
  8
0
100
AcDbCircle
 62
7
  6
CONTINUOUS
 10
13.9915387105
 20
12.5297041127
 40
0.451
100
AcDbArc
 50
23.370340497
 51
66.629659503
  0
ARC
  5
45B
100
AcDbEntity
  8
0
100
AcDbCircle
 62
7
  6
CONTINUOUS
 10
13.9915387105
 20
12.5297041127
 40
0.45
100
AcDbArc
 50
292.7328508835
 51
292.9840111388
  0
ARC
  5
45C
100
AcDbEntity
  8
0
100
AcDbCircle
 62
7
  6
CONTINUOUS
 10
13.9915387105
 20
12.5297041127
 40
0.45
100
AcDbArc
 50
336.9300038581
 51
337.2416322249
  0
ARC
  5
45D
100
AcDbEntity
  8
0
100
AcDbCircle
 62
7
  6
CONTINUOUS
 10
13.9915387105
 20
12.5297041127
 40
0.45
100
AcDbArc
 50
22.7583680568
 51
23.0699969377
  0
ARC
  5
45E
100
AcDbEntity
  8
0
100
AcDbCircle
 62
7
  6
CONTINUOUS
 10
13.9915387105
 20
12.5297041127
 40
0.45
100
AcDbArc
 50
67.0159888623
 51
67.2671491174
  0
ARC
  5
45F
100
AcDbEntity
  8
0
100
AcDbCircle
 62
7
  6
CONTINUOUS
 10
13.9915387105
 20
12.5297041127
 40
0.45
100
AcDbArc
 50
112.7328508835
 51
112.9840111388
  0
ARC
  5
460
100
AcDbEntity
  8
0
100
AcDbCircle
 62
7
  6
CONTINUOUS
 10
13.9915387105
 20
12.5297041127
 40
0.45
100
AcDbArc
 50
156.9300038581
 51
157.2416319435
  0
ARC
  5
461
100
AcDbEntity
  8
0
100
AcDbCircle
 62
7
  6
CONTINUOUS
 10
13.9915387105
 20
12.5297041127
 40
0.45
100
AcDbArc
 50
202.7583680568
 51
203.069996141
  0
ARC
  5
462
100
AcDbEntity
  8
0
100
AcDbCircle
 62
7
  6
CONTINUOUS
 10
13.9915387105
 20
12.5297041127
 40
0.45
100
AcDbArc
 50
247.0159888623
 51
247.2671491174
  0
CIRCLE
  5
463
100
AcDbEntity
  8
0
100
AcDbCircle
 62
9
  6
CONTINUOUS
 10
13.9915387105
 20
12.5297041127
 40
0.2988618956
  0
CIRCLE
  5
464
100
AcDbEntity
  8
0
100
AcDbCircle
 62
9
  6
CONTINUOUS
 10
13.9915387105
 20
12.5297041127
 40
0.292235246
  0
CIRCLE
  5
465
100
AcDbEntity
  8
0
100
AcDbCircle
 62
7
  6
CONTINUOUS
 10
13.9915387105
 20
12.5297041127
 40
0.28
  0
CIRCLE
  5
466
100
AcDbEntity
  8
0
100
AcDbCircle
 62
9
  6
CONTINUOUS
 10
13.9915387105
 20
12.5297041127
 40
0.2258064516
  0
ARC
  5
467
100
AcDbEntity
  8
0
100
AcDbCircle
 62
7
  6
CONTINUOUS
 10
13.8127046122
 20
13.0836871175
 40
0.04
100
AcDbArc
 50
193.9188002437
 51
268.3297322848
  0
ARC
  5
468
100
AcDbEntity
  8
0
100
AcDbCircle
 62
7
  6
CONTINUOUS
 10
13.8215387105
 20
12.9537041127
 40
0.01
100
AcDbArc
 50
180.0
 51
270.0
  0
ARC
  5
469
100
AcDbEntity
  8
0
100
AcDbCircle
 62
7
  6
CONTINUOUS
 10
13.3943573713
 20
13.9713038778
 40
3.73
100
AcDbArc
 50
186.0539076486
 51
193.9188002726
  0
ARC
  5
46A
100
AcDbEntity
  8
0
100
AcDbCircle
 62
7
  6
CONTINUOUS
 10
13.9915387105
 20
13.2767041127
 40
0.517
100
AcDbArc
 50
64.7853651812
 51
115.2146348188
  0
ARC
  5
46B
100
AcDbEntity
  8
0
100
AcDbCircle
 62
7
  6
CONTINUOUS
 10
13.6647887385
 20
13.9706230243
 40
0.25
100
AcDbArc
 50
273.2006734286
 51
295.2146348188
  0
ARC
  5
46C
100
AcDbEntity
  8
0
100
AcDbCircle
 62
7
  6
CONTINUOUS
 10
13.6815387105
 20
13.6561220154
 40
0.05
100
AcDbArc
 50
180.0
 51
246.3131006371
  0
ARC
  5
46D
100
AcDbEntity
  8
0
100
AcDbCircle
 62
7
  6
CONTINUOUS
 10
13.6815387105
 20
13.6710909919
 40
0.05
100
AcDbArc
 50
93.2006734286
 51
180.0
  0
ARC
  5
46E
100
AcDbEntity
  8
0
100
AcDbCircle
 62
7
  6
CONTINUOUS
 10
13.6453822545
 20
13.5737041127
 40
0.04
100
AcDbArc
 50
6.0539076486
 51
66.3131006371
  0
ARC
  5
46F
100
AcDbEntity
  8
0
100
AcDbCircle
 62
7
  6
CONTINUOUS
 10
14.7385387105
 20
12.5297041127
 40
0.517
100
AcDbArc
 50
334.7853651812
 51
25.2146348188
  0
ARC
  5
470
100
AcDbEntity
  8
0
100
AcDbCircle
 62
7
  6
CONTINUOUS
 10
15.4324576221
 20
12.8564540848
 40
0.25
100
AcDbArc
 50
183.2006734286
 51
205.2146348188
  0
ARC
  5
471
100
AcDbEntity
  8
0
100
AcDbCircle
 62
7
  6
CONTINUOUS
 10
15.1179566132
 20
12.8397041127
 40
0.05
100
AcDbArc
 50
90.0
 51
156.3131006371
  0
ARC
  5
472
100
AcDbEntity
  8
0
100
AcDbCircle
 62
7
  6
CONTINUOUS
 10
15.1329255897
 20
12.8397041127
 40
0.05
100
AcDbArc
 50
3.2006734286
 51
90.0
  0
ARC
  5
473
100
AcDbEntity
  8
0
100
AcDbCircle
 62
7
  6
CONTINUOUS
 10
15.0355387105
 20
12.8758605688
 40
0.04
100
AcDbArc
 50
276.0539076486
 51
336.3131006371
  0
ARC
  5
474
100
AcDbEntity
  8
0
100
AcDbCircle
 62
7
  6
CONTINUOUS
 10
14.5455217153
 20
12.7085382111
 40
0.04
100
AcDbArc
 50
103.9188002437
 51
178.3297322848
  0
ARC
  5
475
100
AcDbEntity
  8
0
100
AcDbCircle
 62
7
  6
CONTINUOUS
 10
14.1703728089
 20
13.0836871175
 40
0.04
100
AcDbArc
 50
271.6702677154
 51
346.081199757
  0
ARC
  5
476
100
AcDbEntity
  8
0
100
AcDbCircle
 62
7
  6
CONTINUOUS
 10
14.4155387105
 20
12.6997041127
 40
0.01
100
AcDbArc
 50
90.0
 51
180.0
  0
ARC
  5
477
100
AcDbEntity
  8
0
100
AcDbCircle
 62
7
  6
CONTINUOUS
 10
14.1615387105
 20
12.9537041127
 40
0.01
100
AcDbArc
 50
270.0
 51
360.0
  0
ARC
  5
478
100
AcDbEntity
  8
0
100
AcDbCircle
 62
7
  6
CONTINUOUS
 10
14.3182886826
 20
13.9706230243
 40
0.25
100
AcDbArc
 50
244.7853651812
 51
266.7993265714
  0
ARC
  5
479
100
AcDbEntity
  8
0
100
AcDbCircle
 62
7
  6
CONTINUOUS
 10
14.3015387105
 20
13.6561220154
 40
0.05
100
AcDbArc
 50
293.6868993629
 51
360.0
  0
ARC
  5
47A
100
AcDbEntity
  8
0
100
AcDbCircle
 62
7
  6
CONTINUOUS
 10
14.3015387105
 20
13.6710909919
 40
0.05
100
AcDbArc
 50
0.0
 51
86.7993265714
  0
ARC
  5
47B
100
AcDbEntity
  8
0
100
AcDbCircle
 62
7
  6
CONTINUOUS
 10
14.3376951666
 20
13.5737041127
 40
0.04
100
AcDbArc
 50
113.6868993629
 51
173.9460923514
  0
ARC
  5
47C
100
AcDbEntity
  8
0
100
AcDbCircle
 62
7
  6
CONTINUOUS
 10
15.4331384756
 20
15.9325227736
 40
3.73
100
AcDbArc
 50
256.0811997274
 51
263.9460923514
  0
ARC
  5
47D
100
AcDbEntity
  8
0
100
AcDbCircle
 62
7
  6
CONTINUOUS
 10
17.3943573713
 20
11.0881043477
 40
3.73
100
AcDbArc
 50
166.0811997274
 51
173.9460923514
  0
ARC
  5
47E
100
AcDbEntity
  8
0
100
AcDbCircle
 62
7
  6
CONTINUOUS
 10
22.7023223994
 20
10.1207285603
 40
2.7400310283
100
AcDbArc
 50
180.0685130357
 51
181.1547351796
  0
ARC
  5
47F
100
AcDbEntity
  8
0
100
AcDbCircle
 62
9
  6
CONTINUOUS
 10
19.9914785298
 20
11.6792891616
 40
0.6115217579
100
AcDbArc
 50
90.7260006096
 51
94.7925188327
  0
ARC
  5
480
100
AcDbEntity
  8
0
100
AcDbCircle
 62
9
  6
CONTINUOUS
 10
19.9926447488
 20
11.6895950088
 40
0.6011617526
100
AcDbArc
 50
79.6312424872
 51
83.7410924693
  0
ARC
  5
481
100
AcDbEntity
  8
0
100
AcDbCircle
 62
9
  6
CONTINUOUS
 10
19.9854295159
 20
11.7144792256
 40
0.5757740325
100
AcDbArc
 50
101.8588373336
 51
106.0952988883
  0
ARC
  5
482
100
AcDbEntity
  8
0
100
AcDbCircle
 62
9
  6
CONTINUOUS
 10
20.0057508946
 20
11.7410678893
 40
0.5479741168
100
AcDbArc
 50
67.9928590229
 51
72.3613968253
  0
ARC
  5
483
100
AcDbEntity
  8
0
100
AcDbCircle
 62
9
  6
CONTINUOUS
 10
19.9606306451
 20
11.7805392698
 40
0.5051056583
100
AcDbArc
 50
113.613505819
 51
118.239585311
  0
ARC
  5
484
100
AcDbEntity
  8
0
100
AcDbCircle
 62
7
  6
CONTINUOUS
 10
20.8612624217
 20
8.9258480225
 40
0.4844046578
100
AcDbArc
 50
170.0786600585
 51
174.1705690966
  0
ARC
  5
485
100
AcDbEntity
  8
0
100
AcDbCircle
 62
7
  6
CONTINUOUS
 10
19.1218149994
 20
8.9258480225
 40
0.4844046578
100
AcDbArc
 50
5.8294309034
 51
9.9213399415
  0
ARC
  5
486
100
AcDbEntity
  8
0
100
AcDbCircle
 62
9
  6
CONTINUOUS
 10
20.0403595842
 20
11.8126913799
 40
0.4682940175
100
AcDbArc
 50
55.2122370921
 51
60.0606788274
  0
ARC
  5
487
100
AcDbEntity
  8
0
100
AcDbCircle
 62
9
  6
CONTINUOUS
 10
19.9253923434
 20
11.8378270115
 40
0.4377636439
100
AcDbArc
 50
126.6380010626
 51
126.8893471058
  0
ARC
  5
488
100
AcDbEntity
  8
0
100
AcDbCircle
 62
9
  6
CONTINUOUS
 10
19.9143507583
 20
11.8520164788
 40
0.4197871286
100
AcDbArc
 50
126.8465602064
 51
131.8227306605
  0
ARC
  5
489
100
AcDbEntity
  8
0
100
AcDbCircle
 62
9
  6
CONTINUOUS
 10
20.0927718561
 20
11.8779356434
 40
0.3844239076
100
AcDbArc
 50
40.7189276874
 51
46.1449351573
  0
ARC
  5
48A
100
AcDbEntity
  8
0
100
AcDbCircle
 62
9
  6
CONTINUOUS
 10
19.8582405772
 20
11.9043861636
 40
0.3428335091
100
AcDbArc
 50
142.0984166508
 51
147.3275543722
  0
ARC
  5
48B
100
AcDbEntity
  8
0
100
AcDbCircle
 62
9
  6
CONTINUOUS
 10
20.1502514077
 20
11.9194885879
 40
0.3132504147
100
AcDbArc
 50
24.1610771528
 51
27.8894176085
  0
ARC
  5
48C
100
AcDbEntity
  8
0
100
AcDbCircle
 62
7
  6
CONTINUOUS
 10
20.1713288804
 20
12.1548635457
 40
0.3109609373
100
AcDbArc
 50
338.9500741827
 51
340.1039331553
  0
ARC
  5
48D
100
AcDbEntity
  8
0
100
AcDbCircle
 62
7
  6
CONTINUOUS
 10
19.8113616529
 20
12.1547191021
 40
0.310547986
100
AcDbArc
 50
199.8952996464
 51
201.0506930156
  0
ARC
  5
48E
100
AcDbEntity
  8
0
100
AcDbCircle
 62
7
  6
CONTINUOUS
 10
19.8112905768
 20
12.1439469365
 40
0.3104711663
100
AcDbArc
 50
158.9496238775
 51
160.6519891693
  0
ARC
  5
48F
100
AcDbEntity
  8
0
100
AcDbCircle
 62
7
  6
CONTINUOUS
 10
20.1723579334
 20
12.1441570472
 40
0.3098627196
100
AcDbArc
 50
19.3463393246
 51
21.0520476287
  0
ARC
  5
490
100
AcDbEntity
  8
0
100
AcDbCircle
 62
7
  6
CONTINUOUS
 10
19.7975029476
 20
12.2328773735
 40
0.2959642371
100
AcDbArc
 50
177.4918119279
 51
179.9993345853
  0
ARC
  5
491
100
AcDbEntity
  8
0
100
AcDbCircle
 62
7
  6
CONTINUOUS
 10
20.1856800564
 20
12.2328796858
 40
0.2958586542
100
AcDbArc
 50
0.000217848
 51
2.5086381184
  0
ARC
  5
492
100
AcDbEntity
  8
0
100
AcDbCircle
 62
7
  6
CONTINUOUS
 10
19.8294332378
 20
9.0093850694
 40
0.2304573137
100
AcDbArc
 50
180.0195416389
 51
188.6324719515
  0
ARC
  5
493
100
AcDbEntity
  8
0
100
AcDbCircle
 62
7
  6
CONTINUOUS
 10
20.1536441833
 20
9.0093850694
 40
0.2304573137
100
AcDbArc
 50
351.3675280485
 51
359.9804583611
  0
ARC
  5
494
100
AcDbEntity
  8
0
100
AcDbCircle
 62
7
  6
CONTINUOUS
 10
20.2855853843
 20
12.1026580326
 40
0.0971429185
100
AcDbArc
 50
76.9386051152
 51
91.8759447616
  0
ARC
  5
495
100
AcDbEntity
  8
0
100
AcDbCircle
 62
7
  6
CONTINUOUS
 10
20.3914570431
 20
11.9908672291
 40
0.0722480611
100
AcDbArc
 50
51.8759208169
 51
58.4902151256
  0
ARC
  5
496
100
AcDbEntity
  8
0
100
AcDbCircle
 62
7
  6
CONTINUOUS
 10
19.5790283139
 20
11.956984104
 40
0.0670027504
100
AcDbArc
 50
136.0495021855
 51
138.5452773141
  0
ARC
  5
497
100
AcDbEntity
  8
0
100
AcDbCircle
 62
7
  6
CONTINUOUS
 10
17.3943573713
 20
13.9713038778
 40
3.73
100
AcDbArc
 50
186.0539076486
 51
193.9188002726
  0
ARC
  5
498
100
AcDbEntity
  8
0
100
AcDbCircle
 62
7
  6
CONTINUOUS
 10
19.9915387105
 20
12.5297041127
 40
1.3755592555
100
AcDbArc
 50
290.8680818217
 51
249.2761219425
  0
ARC
  5
499
100
AcDbEntity
  8
0
100
AcDbCircle
 62
9
  6
CONTINUOUS
 10
19.9915387105
 20
12.5297041127
 40
1.3676844999
100
AcDbArc
 50
290.9958135605
 51
249.1495203793
  0
ARC
  5
49A
100
AcDbEntity
  8
0
100
AcDbCircle
 62
9
  6
CONTINUOUS
 10
19.9915387105
 20
12.5297041127
 40
1.2561585482
100
AcDbArc
 50
292.9665613714
 51
247.1954811158
  0
ARC
  5
49B
100
AcDbEntity
  8
0
100
AcDbCircle
 62
7
  6
CONTINUOUS
 10
19.9915387105
 20
12.5297041127
 40
1.2506546905
100
AcDbArc
 50
293.07363858
 51
247.0891170269
  0
ARC
  5
49C
100
AcDbEntity
  8
0
100
AcDbCircle
 62
9
  6
CONTINUOUS
 10
19.9915387105
 20
12.5297041127
 40
1.2395119886
100
AcDbArc
 50
293.2933315364
 51
246.8708871763
  0
ARC
  5
49D
100
AcDbEntity
  8
0
100
AcDbCircle
 62
9
  6
CONTINUOUS
 10
19.9915387105
 20
12.5297041127
 40
1.0061694942
100
AcDbArc
 50
299.1457494163
 51
241.0643746671
  0
ARC
  5
49E
100
AcDbEntity
  8
0
100
AcDbCircle
 62
7
  6
CONTINUOUS
 10
19.9915387105
 20
12.5297041127
 40
0.948
100
AcDbArc
 50
301.1342935627
 51
239.0974547893
  0
ARC
  5
49F
100
AcDbEntity
  8
0
100
AcDbCircle
 62
9
  6
CONTINUOUS
 10
19.9915387105
 20
12.5297041127
 40
0.8089558504
100
AcDbArc
 50
307.2794464238
 51
232.9951760623
  0
ARC
  5
4A0
100
AcDbEntity
  8
0
100
AcDbCircle
 62
9
  6
CONTINUOUS
 10
19.9915387105
 20
12.5297041127
 40
0.7381473155
100
AcDbArc
 50
310.2558198481
 51
229.5003605712
  0
ARC
  5
4A1
100
AcDbEntity
  8
0
100
AcDbCircle
 62
7
  6
CONTINUOUS
 10
19.9915387105
 20
12.5297041127
 40
0.5475
100
AcDbArc
 50
332.9401378731
 51
207.0598621269
  0
ARC
  5
4A2
100
AcDbEntity
  8
0
100
AcDbCircle
 62
9
  6
CONTINUOUS
 10
19.9915387105
 20
12.5297041127
 40
0.5175
100
AcDbArc
 50
340.4301071549
 51
199.5698928451
  0
ARC
  5
4A3
100
AcDbEntity
  8
0
100
AcDbCircle
 62
7
  6
CONTINUOUS
 10
19.9915387105
 20
12.5297041127
 40
0.4875
100
AcDbArc
 50
0.0
 51
180.0
  0
SPLINE
  5
4A4
100
AcDbEntity
  8
0
100
AcDbSpline
 62
7
  6
CONTINUOUS
 70
0
 71
3
 72
18
 73
14
 74
0
 42
0.0000001
 43
0.0000001
 44
0.0000000001
 40
0.0
 40
0.0
 40
0.0
 40
0.0
 40
0.1243655531
 40
0.24828856
 40
0.3101935217
 40
0.3721078375
 40
0.4340725264
 40
0.4961270159
 40
0.6206326642
 40
0.7459346495
 40
0.8089792361
 40
0.8723214379
 40
1.0
 40
1.0
 40
1.0
 40
1.0
 10
19.4814172751
 20
9.6154453099
 30
0.0
 10
19.4799665401
 20
9.6231887451
 30
0.0
 10
19.4776580729
 20
9.6387647314
 30
0.0
 10
19.476290313
 20
9.6583877384
 30
0.0
 10
19.4761232482
 20
9.6740840234
 30
0.0
 10
19.4764620526
 20
9.6858510856
 30
0.0
 10
19.4772617821
 20
9.6976052852
 30
0.0
 10
19.4789406159
 20
9.713262114
 30
0.0
 10
19.4821852651
 20
9.7327703612
 30
0.0
 10
19.4869190108
 20
9.7520353101
 30
0.0
 10
19.4915858686
 20
9.7672841623
 30
0.0
 10
19.4968646251
 20
9.7824909121
 30
0.0
 10
19.5014652772
 20
9.7936981219
 30
0.0
 10
19.5048042959
 20
9.8010647476
 30
0.0
  0
SPLINE
  5
4A5
100
AcDbEntity
  8
0
100
AcDbSpline
 62
7
  6
CONTINUOUS
 70
0
 71
3
 72
29
 73
25
 74
0
 42
0.0000001
 43
0.0000001
 44
0.0000000001
 40
0.0
 40
0.0
 40
0.0
 40
0.0
 40
0.027190428
 40
0.0546132202
 40
0.0822859974
 40
0.1102222759
 40
0.1669148056
 40
0.2247701885
 40
0.2838294661
 40
0.3138242258
 40
0.3441280842
 40
0.3747407278
 40
0.4056573659
 40
0.4683622814
 40
0.5321736178
 40
0.5969897206
 40
0.6626945522
 40
0.7291646324
 40
0.7626516102
 40
0.7962831544
 40
0.8300413607
 40
0.863906378
 40
0.9318662858
 40
1.0
 40
1.0
 40
1.0
 40
1.0
 10
19.5048042959
 20
9.8010647476
 30
0.0
 10
19.506989445
 20
9.8058856776
 30
0.0
 10
19.5116073135
 20
9.8154667975
 30
0.0
 10
19.5192282764
 20
9.8295620625
 30
0.0
 10
19.5275605318
 20
9.8434190906
 30
0.0
 10
19.5396528435
 20
9.8616385713
 30
0.0
 10
19.5564967548
 20
9.8837219188
 30
0.0
 10
19.5791842837
 20
9.9088180759
 30
0.0
 10
19.6000261604
 20
9.9284479362
 30
0.0
 10
19.6178387869
 20
9.9433737815
 30
0.0
 10
19.631833335
 20
9.9542137898
 30
0.0
 10
19.6463723703
 20
9.9646226637
 30
0.0
 10
19.6665418217
 20
9.9779748286
 30
0.0
 10
19.6929900529
 20
9.9935112679
 30
0.0
 10
19.7263340454
 20
10.0101668397
 30
0.0
 10
19.7612328999
 20
10.0248354558
 30
0.0
 10
19.7974801584
 20
10.0374269748
 30
0.0
 10
19.8285659262
 20
10.0460935616
 30
0.0
 10
19.8539157002
 20
10.0519099118
 30
0.0
 10
19.873185791
 20
10.055706181
 30
0.0
 10
19.8926356454
 20
10.0589220357
 30
0.0
 10
19.9187971542
 20
10.0624385198
 30
0.0
 10
19.9517724771
 20
10.065370301
 30
0.0
 10
19.9782713789
 20
10.0661534497
 30
0.0
 10
19.9915346596
 20
10.0661535296
 30
0.0
  0
SPLINE
  5
4A6
100
AcDbEntity
  8
0
100
AcDbSpline
 62
7
  6
CONTINUOUS
 70
0
 71
3
 72
23
 73
19
 74
0
 42
0.0000001
 43
0.0000001
 44
0.0000000001
 40
0.0
 40
0.0
 40
0.0
 40
0.0
 40
0.0598863194
 40
0.1195637995
 40
0.1493708423
 40
0.1791767752
 40
0.2388456448
 40
0.2987153985
 40
0.3589111628
 40
0.4195496851
 40
0.4807406806
 40
0.5425882585
 40
0.5737940799
 40
0.6052008431
 40
0.6686454021
 40
0.7329912187
 40
0.8644943897
 40
1.0
 40
1.0
 40
1.0
 40
1.0
 10
20.501660146
 20
9.6154453099
 30
0.0
 10
20.5030291192
 20
9.6227523342
 30
0.0
 10
20.5052388484
 20
9.6374444708
 30
0.0
 10
20.5066513712
 20
9.6559506029
 30
0.0
 10
20.5069573698
 20
9.6707589626
 30
0.0
 10
20.5067122989
 20
9.6855672581
 30
0.0
 10
20.5053751366
 20
9.7040765745
 30
0.0
 10
20.5021426336
 20
9.7261723559
 30
0.0
 10
20.4973005273
 20
9.7480954581
 30
0.0
 10
20.4908675808
 20
9.7697762361
 30
0.0
 10
20.4828628721
 20
9.7911454037
 30
0.0
 10
20.4749206884
 20
9.8085858654
 30
0.0
 10
20.4678116014
 20
9.8223061864
 30
0.0
 10
20.4601477541
 20
9.8359523964
 30
0.0
 10
20.4496168853
 20
9.8526937204
 30
0.0
 10
20.4307624093
 20
9.8788041651
 30
0.0
 10
20.4036075762
 20
9.9098405659
 30
0.0
 10
20.3789622667
 20
9.9321268023
 30
0.0
 10
20.3658849637
 20
9.9427070984
 30
0.0
  0
SPLINE
  5
4A7
100
AcDbEntity
  8
0
100
AcDbSpline
 62
7
  6
CONTINUOUS
 70
0
 71
3
 72
20
 73
16
 74
0
 42
0.0000001
 43
0.0000001
 44
0.0000000001
 40
0.0
 40
0.0
 40
0.0
 40
0.0
 40
0.0580384453
 40
0.1168512466
 40
0.1764190324
 40
0.2367130976
 40
0.3593014574
 40
0.48429794
 40
0.5475885571
 40
0.611329483
 40
0.6754692631
 40
0.7399543875
 40
0.804721572
 40
0.8697028125
 40
1.0
 40
1.0
 40
1.0
 40
1.0
 10
20.3658849637
 20
9.9427070984
 30
0.0
 10
20.3598451166
 20
9.9475936847
 30
0.0
 10
20.3474317475
 20
9.9571234798
 30
0.0
 10
20.3280077436
 20
9.9705700604
 30
0.0
 10
20.3077127409
 20
9.9832426431
 30
0.0
 10
20.2794174214
 20
9.9991576927
 30
0.0
 10
20.2421741209
 20
10.0169353048
 30
0.0
 10
20.2031884118
 20
10.0316347856
 30
0.0
 10
20.1709412334
 20
10.0415749646
 30
0.0
 10
20.1461912132
 20
10.048108215
 30
0.0
 10
20.1210395352
 20
10.0536610367
 30
0.0
 10
20.0955477594
 20
10.0582102157
 30
0.0
 10
20.0697827856
 20
10.0617545687
 30
0.0
 10
20.0351316958
 20
10.0651380805
 30
0.0
 10
20.0089763436
 20
10.0661536346
 30
0.0
 10
19.9915346596
 20
10.0661535296
 30
0.0
  0
SPLINE
  5
4A8
100
AcDbEntity
  8
0
100
AcDbSpline
 62
7
  6
CONTINUOUS
 70
0
 71
3
 72
49
 73
45
 74
0
 42
0.0000001
 43
0.0000001
 44
0.0000000001
 40
0.0
 40
0.0
 40
0.0
 40
0.0
 40
0.013713841
 40
0.0274585977
 40
0.0412527409
 40
0.0551137267
 40
0.0690581547
 40
0.0831017806
 40
0.0972592183
 40
0.1115438296
 40
0.1259675772
 40
0.1405409121
 40
0.1701600959
 40
0.2004632482
 40
0.2314741642
 40
0.2631898944
 40
0.2955820814
 40
0.3285991848
 40
0.3621691954
 40
0.3962027193
 40
0.4305962923
 40
0.4652358341
 40
0.5000001358
 40
0.5347644353
 40
0.5694039703
 40
0.6037975329
 40
0.6378310417
 40
0.6714010343
 40
0.7044181166
 40
0.7368102796
 40
0.768525985
 40
0.7995368748
 40
0.8298400012
 40
0.8594591602
 40
0.8740324835
 40
0.8884562202
 40
0.9027408213
 40
0.9168982497
 40
0.9309418675
 40
0.9448862883
 40
0.9587472681
 40
0.9725414069
 40
0.9862861601
 40
1.0
 40
1.0
 40
1.0
 40
1.0
 10
20.4812551697
 20
12.2458294211
 30
0.0
 10
20.4809859019
 20
12.2519770641
 30
0.0
 10
20.4800626285
 20
12.2642728075
 30
0.0
 10
20.4775318411
 20
12.2826208565
 30
0.0
 10
20.4738617153
 20
12.3008433088
 30
0.0
 10
20.4690631843
 20
12.3188939466
 30
0.0
 10
20.4631500809
 20
12.3367285689
 30
0.0
 10
20.456139156
 20
12.3543038457
 30
0.0
 10
20.4480499283
 20
12.3715780222
 30
0.0
 10
20.4389045275
 20
12.3885106171
 30
0.0
 10
20.4287267567
 20
12.4050631574
 30
0.0
 10
20.4137376577
 20
12.4266891183
 30
0.0
 10
20.3925002748
 20
12.4525893364
 30
0.0
 10
20.363507939
 20
12.481392267
 30
0.0
 10
20.3311425192
 20
12.5078537758
 30
0.0
 10
20.2957090592
 20
12.5317496091
 30
0.0
 10
20.2575329323
 20
12.5528814871
 30
0.0
 10
20.2169613608
 20
12.5710729579
 30
0.0
 10
20.174360726
 20
12.5861714707
 30
0.0
 10
20.1301147792
 20
12.5980499219
 30
0.0
 10
20.0846215899
 20
12.6066075629
 30
0.0
 10
20.0382905018
 20
12.6117715299
 30
0.0
 10
19.9915385217
 20
12.6134978235
 30
0.0
 10
19.9447865453
 20
12.6117715046
 30
0.0
 10
19.8984554699
 20
12.6066075044
 30
0.0
 10
19.8529622983
 20
12.5980498475
 30
0.0
 10
19.8087163786
 20
12.58617137
 30
0.0
 10
19.7661157751
 20
12.5710728427
 30
0.0
 10
19.7255442381
 20
12.5528813637
 30
0.0
 10
19.6873681524
 20
12.5317494764
 30
0.0
 10
19.6519347287
 20
12.5078536496
 30
0.0
 10
19.6195693499
 20
12.4813921452
 30
0.0
 10
19.5905770494
 20
12.4525892284
 30
0.0
 10
19.5693396926
 20
12.4266890251
 30
0.0
 10
19.5543506115
 20
12.4050630777
 30
0.0
 10
19.5441728542
 20
12.3885105464
 30
0.0
 10
19.5350274624
 20
12.3715779622
 30
0.0
 10
19.5269382428
 20
12.3543037956
 30
0.0
 10
19.5199273257
 20
12.3367285275
 30
0.0
 10
19.5140142271
 20
12.3188939138
 30
0.0
 10
19.5092156996
 20
12.3008432832
 30
0.0
 10
19.5055455768
 20
12.2826208367
 30
0.0
 10
19.5030147909
 20
12.2642727916
 30
0.0
 10
19.5020915183
 20
12.2519770501
 30
0.0
 10
19.5018222508
 20
12.2458294077
 30
0.0
  0
SPLINE
  5
4A9
100
AcDbEntity
  8
0
100
AcDbSpline
 62
7
  6
CONTINUOUS
 70
0
 71
3
 72
11
 73
7
 74
0
 42
0.0000001
 43
0.0000001
 44
0.0000000001
 40
0.0
 40
0.0
 40
0.0
 40
0.0
 40
0.248048877
 40
0.4968891318
 40
0.7472941467
 40
1.0
 40
1.0
 40
1.0
 40
1.0
 10
19.5015387105
 20
12.1493184214
 30
0.0
 10
19.5015387105
 20
12.1408572703
 30
0.0
 10
19.5022883519
 20
12.1238985818
 30
0.0
 10
19.5056549486
 20
12.0985992799
 30
0.0
 10
19.5112470394
 20
12.0735347843
 30
0.0
 10
19.5164150443
 20
12.0571444219
 30
0.0
 10
19.5193483982
 20
12.0490388737
 30
0.0
  0
SPLINE
  5
4AA
100
AcDbEntity
  8
0
100
AcDbSpline
 62
7
  6
CONTINUOUS
 70
0
 71
3
 72
11
 73
7
 74
0
 42
0.0000001
 43
0.0000001
 44
0.0000000001
 40
0.0
 40
0.0
 40
0.0
 40
0.0
 40
0.2527058533
 40
0.5031108682
 40
0.751951123
 40
1.0
 40
1.0
 40
1.0
 40
1.0
 10
20.4637290229
 20
12.0490388737
 30
0.0
 10
20.4666623768
 20
12.0571444219
 30
0.0
 10
20.4718303816
 20
12.0735347843
 30
0.0
 10
20.4774224725
 20
12.0985992799
 30
0.0
 10
20.4807890691
 20
12.1238985818
 30
0.0
 10
20.4815387105
 20
12.1408572703
 30
0.0
 10
20.4815387105
 20
12.1493184214
 30
0.0
  0
SPLINE
  5
4AB
100
AcDbEntity
  8
0
100
AcDbSpline
 62
7
  6
CONTINUOUS
 70
0
 71
3
 72
27
 73
23
 74
0
 42
0.0000001
 43
0.0000001
 44
0.0000000001
 40
0.0
 40
0.0
 40
0.0
 40
0.0
 40
0.0641713272
 40
0.1282955195
 40
0.1923252741
 40
0.2562113044
 40
0.3199062109
 40
0.3516726203
 40
0.383376403
 40
0.446574425
 40
0.5094816048
 40
0.5720695297
 40
0.6343111595
 40
0.6652992164
 40
0.6961932706
 40
0.726992125
 40
0.7576955002
 40
0.7883044347
 40
0.8188202569
 40
0.8795682528
 40
0.9399575031
 40
1.0
 40
1.0
 40
1.0
 40
1.0
 10
19.9915334041
 20
6.5972712212
 30
0.0
 10
20.013319192
 20
6.5972711111
 30
0.0
 10
20.0568866657
 20
6.5986276875
 30
0.0
 10
20.1219379497
 20
6.6046804722
 30
0.0
 10
20.1864025228
 20
6.6146976107
 30
0.0
 10
20.2499857098
 20
6.6286256201
 30
0.0
 10
20.3020485238
 20
6.6434628639
 30
0.0
 10
20.3429689908
 20
6.6572418519
 30
0.0
 10
20.3832734217
 20
6.6722538551
 30
0.0
 10
20.4325637877
 20
6.6933485535
 30
0.0
 10
20.4897714841
 20
6.7222702589
 30
0.0
 10
20.5447338278
 20
6.7546250704
 30
0.0
 10
20.5885272615
 20
6.7843702062
 30
0.0
 10
20.6221832238
 20
6.8097380623
 30
0.0
 10
20.6466737493
 20
6.8295021469
 30
0.0
 10
20.6704161854
 20
6.8500111076
 30
0.0
 10
20.6933787914
 20
6.8712473866
 30
0.0
 10
20.7155376878
 20
6.8931851483
 30
0.0
 10
20.7439379594
 20
6.9232825332
 30
0.0
 10
20.7773442179
 20
6.9625168034
 30
0.0
 10
20.8139407004
 20
7.0120108904
 30
0.0
 10
20.8359306254
 20
7.0465268756
 30
0.0
 10
20.8462687813
 20
7.0640948298
 30
0.0
  0
SPLINE
  5
4AC
100
AcDbEntity
  8
0
100
AcDbSpline
 62
7
  6
CONTINUOUS
 70
0
 71
3
 72
27
 73
23
 74
0
 42
0.0000001
 43
0.0000001
 44
0.0000000001
 40
0.0
 40
0.0
 40
0.0
 40
0.0
 40
0.0641713409
 40
0.1282955404
 40
0.1923252962
 40
0.2562113227
 40
0.3199062218
 40
0.3516726266
 40
0.3833764045
 40
0.446574417
 40
0.5094815878
 40
0.5720695045
 40
0.6343111278
 40
0.6652991821
 40
0.6961932346
 40
0.7269920882
 40
0.7576954636
 40
0.7883043992
 40
0.8188202236
 40
0.8795682269
 40
0.9399574884
 40
1.0
 40
1.0
 40
1.0
 40
1.0
 10
19.9915334041
 20
6.5972712212
 30
0.0
 10
19.9697478385
 20
6.5972713314
 30
0.0
 10
19.9261808255
 20
6.598628318
 30
0.0
 10
19.8611302671
 20
6.6046816283
 30
0.0
 10
19.7966664489
 20
6.6146992045
 30
0.0
 10
19.7330840372
 20
6.6286275653
 30
0.0
 10
19.6810218793
 20
6.6434650319
 30
0.0
 10
19.640101939
 20
6.6572441563
 30
0.0
 10
19.5997980337
 20
6.6722562686
 30
0.0
 10
19.5505083187
 20
6.6933510465
 30
0.0
 10
19.4933013861
 20
6.722272761
 30
0.0
 10
19.4383397807
 20
6.7546274997
 30
0.0
 10
19.3945469364
 20
6.7843725099
 30
0.0
 10
19.3608914251
 20
6.8097402289
 30
0.0
 10
19.3364012263
 20
6.8295041934
 30
0.0
 10
19.3126591047
 20
6.8500130169
 30
0.0
 10
19.2896968003
 20
6.8712491422
 30
0.0
 10
19.2675381907
 20
6.8931867335
 30
0.0
 10
19.2391382801
 20
6.9232838713
 30
0.0
 10
19.2057324338
 20
6.9625177955
 30
0.0
 10
19.1691363784
 20
7.0120114139
 30
0.0
 10
19.1471466906
 20
7.0465270542
 30
0.0
 10
19.1368086398
 20
7.0640948298
 30
0.0
  0
SPLINE
  5
4AD
100
AcDbEntity
  8
0
100
AcDbSpline
 62
9
  6
CONTINUOUS
 70
0
 71
3
 72
22
 73
18
 74
0
 42
0.0000001
 43
0.0000001
 44
0.0000000001
 40
0.0
 40
0.0
 40
0.0
 40
0.0
 40
0.0537563633
 40
0.1079023004
 40
0.1627805936
 40
0.2187096557
 40
0.2471777751
 40
0.2760207512
 40
0.3348911675
 40
0.395435756
 40
0.4576523832
 40
0.5214798664
 40
0.58682422
 40
0.7214281577
 40
0.7903793787
 40
0.8600127606
 40
1.0
 40
1.0
 40
1.0
 40
1.0
 10
20.3690481121
 20
12.100085859
 30
0.0
 10
20.3690481121
 20
12.1020592599
 30
0.0
 10
20.3687810992
 20
12.1060252437
 30
0.0
 10
20.3675952608
 20
12.1118986066
 30
0.0
 10
20.3656380649
 20
12.1176462818
 30
0.0
 10
20.3633878778
 20
12.1222531797
 30
0.0
 10
20.3612273486
 20
12.1258072312
 30
0.0
 10
20.3587934972
 20
12.1293124663
 30
0.0
 10
20.3553009108
 20
12.1335029297
 30
0.0
 10
20.3504966848
 20
12.1381434054
 30
0.0
 10
20.3451062577
 20
12.1423875867
 30
0.0
 10
20.3391854388
 20
12.146189946
 30
0.0
 10
20.3305790921
 20
12.1506527815
 30
0.0
 10
20.321220636
 20
12.1539728069
 30
0.0
 10
20.3114253411
 20
12.1561599982
 30
0.0
 10
20.3012919776
 20
12.1575931995
 30
0.0
 10
20.2935564065
 20
12.1577719313
 30
0.0
 10
20.2884260001
 20
12.1574758277
 30
0.0
  0
SPLINE
  5
4AE
100
AcDbEntity
  8
0
100
AcDbSpline
 62
9
  6
CONTINUOUS
 70
0
 71
3
 72
23
 73
19
 74
0
 42
0.0000001
 43
0.0000001
 44
0.0000000001
 40
0.0
 40
0.0
 40
0.0
 40
0.0
 40
0.0549121695
 40
0.1100898334
 40
0.1378844058
 40
0.1658602358
 40
0.2224613427
 40
0.2801224325
 40
0.338990826
 40
0.3991677985
 40
0.4607218265
 40
0.5237009357
 40
0.5881377868
 40
0.6539994786
 40
0.7211848514
 40
0.7895547368
 40
0.8589455725
 40
1.0
 40
1.0
 40
1.0
 40
1.0
 10
20.4301860637
 20
9.914591915
 30
0.0
 10
20.4301860637
 20
9.9162526892
 30
0.0
 10
20.4299990484
 20
9.9195851361
 30
0.0
 10
20.4292954425
 20
9.9237049417
 30
0.0
 10
20.4284516854
 20
9.9269543073
 30
0.0
 10
20.427413138
 20
9.9301919637
 30
0.0
 10
20.4257623486
 20
9.9341742358
 30
0.0
 10
20.4232605769
 20
9.9387840681
 30
0.0
 10
20.4202542879
 20
9.9432128725
 30
0.0
 10
20.4167677597
 20
9.9474276209
 30
0.0
 10
20.4128248271
 20
9.9513955503
 30
0.0
 10
20.4084496461
 20
9.9550840505
 30
0.0
 10
20.4036669392
 20
9.9584569457
 30
0.0
 10
20.3985174433
 20
9.9614950642
 30
0.0
 10
20.3930447055
 20
9.9641830812
 30
0.0
 10
20.3872910799
 20
9.9665041985
 30
0.0
 10
20.3792631954
 20
9.9691002856
 30
0.0
 10
20.3730100856
 20
9.9704233384
 30
0.0
 10
20.3687858931
 20
9.971019672
 30
0.0
  0
SPLINE
  5
4AF
100
AcDbEntity
  8
0
100
AcDbSpline
 62
9
  6
CONTINUOUS
 70
0
 71
3
 72
28
 73
24
 74
0
 42
0.0000001
 43
0.0000001
 44
0.0000000001
 40
0.0
 40
0.0
 40
0.0
 40
0.0
 40
0.0640066661
 40
0.1278292053
 40
0.1596735423
 40
0.1914647224
 40
0.2231806615
 40
0.2547996345
 40
0.3178384542
 40
0.3493560513
 40
0.3808711303
 40
0.4123395437
 40
0.4437267218
 40
0.5062644727
 40
0.5685486082
 40
0.6306447234
 40
0.6616504089
 40
0.692641711
 40
0.7545554145
 40
0.8163086942
 40
0.8778329655
 40
0.9390793622
 40
1.0
 40
1.0
 40
1.0
 40
1.0
 10
19.227164132
 20
8.2318963284
 30
0.0
 10
19.2190895236
 20
8.2211482495
 30
0.0
 10
19.2033726433
 20
8.1993722616
 30
0.0
 10
19.1848049799
 20
8.1714350391
 30
0.0
 10
19.1706387688
 20
8.1487189863
 30
0.0
 10
19.1603721119
 20
8.1315227712
 30
0.0
 10
19.1504691885
 20
8.1141689251
 30
0.0
 10
19.137779328
 20
8.0908552758
 30
0.0
 10
19.1258151469
 20
8.0672002076
 30
0.0
 10
19.1145427188
 20
8.0432396277
 30
0.0
 10
19.1064383398
 20
8.0251202475
 30
0.0
 10
19.0987034192
 20
8.0068697833
 30
0.0
 10
19.0889200854
 20
7.9824165723
 30
0.0
 10
19.0776651855
 20
7.9515884455
 30
0.0
 10
19.0657178554
 20
7.9141814972
 30
0.0
 10
19.0570575549
 20
7.8827059991
 30
0.0
 10
19.0509018404
 20
7.8573787584
 30
0.0
 10
19.0452565515
 20
7.8319721576
 30
0.0
 10
19.0391594371
 20
7.8000570395
 30
0.0
 10
19.0334378299
 20
7.761573596
 30
0.0
 10
19.0293562872
 20
7.7230217832
 30
0.0
 10
19.0269505434
 20
7.684504849
 30
0.0
 10
19.026481767
 20
7.6588404068
 30
0.0
 10
19.026538711
 20
7.6460454552
 30
0.0
  0
SPLINE
  5
4B0
100
AcDbEntity
  8
0
100
AcDbSpline
 62
7
  6
CONTINUOUS
 70
0
 71
3
 72
22
 73
18
 74
0
 42
0.0000001
 43
0.0000001
 44
0.0000000001
 40
0.0
 40
0.0
 40
0.0
 40
0.0
 40
0.0438295651
 40
0.0894697302
 40
0.1372182471
 40
0.1873073119
 40
0.2399121587
 40
0.295159977
 40
0.3531381843
 40
0.4139016299
 40
0.4774786334
 40
0.5438759358
 40
0.6130827063
 40
0.6850737643
 40
0.7598121637
 40
0.8372512685
 40
1.0
 40
1.0
 40
1.0
 40
1.0
 10
19.3573190775
 20
8.3825447745
 30
0.0
 10
19.3586440873
 20
8.3839797062
 30
0.0
 10
19.3615004631
 20
8.3867716911
 30
0.0
 10
19.3662497375
 20
8.3906343425
 30
0.0
 10
19.3715268877
 20
8.3942553672
 30
0.0
 10
19.3773183335
 20
8.397642202
 30
0.0
 10
19.3836116079
 20
8.4008028053
 30
0.0
 10
19.390394241
 20
8.4037445875
 30
0.0
 10
19.3976538926
 20
8.4064747622
 30
0.0
 10
19.4053782025
 20
8.4090003206
 30
0.0
 10
19.4135547768
 20
8.4113281144
 30
0.0
 10
19.4221711676
 20
8.4134648919
 30
0.0
 10
19.4312148777
 20
8.4154173405
 30
0.0
 10
19.4406733476
 20
8.4171920832
 30
0.0
 10
19.4505340306
 20
8.4187958006
 30
0.0
 10
19.4644321971
 20
8.4207469789
 30
0.0
 10
19.4750738381
 20
8.4219207035
 30
0.0
 10
19.4822937293
 20
8.4226062189
 30
0.0
  0
SPLINE
  5
4B1
100
AcDbEntity
  8
0
100
AcDbSpline
 62
7
  6
CONTINUOUS
 70
0
 71
3
 72
9
 73
5
 74
0
 42
0.0000001
 43
0.0000001
 44
0.0000000001
 40
0.0
 40
0.0
 40
0.0
 40
0.0
 40
0.4944655649
 40
1.0
 40
1.0
 40
1.0
 40
1.0
 10
20.279741432
 20
12.2077601721
 30
0.0
 10
20.2790273331
 20
12.2096324772
 30
0.0
 10
20.2773437923
 20
12.2133313008
 30
0.0
 10
20.2752358094
 20
12.2168041661
 30
0.0
 10
20.2740769611
 20
12.2184936402
 30
0.0
  0
SPLINE
  5
4B2
100
AcDbEntity
  8
0
100
AcDbSpline
 62
7
  6
CONTINUOUS
 70
0
 71
3
 72
9
 73
5
 74
0
 42
0.0000001
 43
0.0000001
 44
0.0000000001
 40
0.0
 40
0.0
 40
0.0
 40
0.0
 40
0.4844111336
 40
1.0
 40
1.0
 40
1.0
 40
1.0
 10
20.2867112735
 20
12.1810759008
 30
0.0
 10
20.2873081671
 20
12.1772991035
 30
0.0
 10
20.2881734789
 20
12.1694421244
 30
0.0
 10
20.2884260001
 20
12.1615456011
 30
0.0
 10
20.2884260001
 20
12.1574758277
 30
0.0
  0
SPLINE
  5
4B3
100
AcDbEntity
  8
0
100
AcDbSpline
 62
7
  6
CONTINUOUS
 70
0
 71
3
 72
17
 73
13
 74
0
 42
0.0000001
 43
0.0000001
 44
0.0000000001
 40
0.0
 40
0.0
 40
0.0
 40
0.0
 40
0.1175887692
 40
0.2378774312
 40
0.359721951
 40
0.4827924541
 40
0.6074314897
 40
0.6706209373
 40
0.7345570212
 40
0.7993768341
 40
0.8651932178
 40
1.0
 40
1.0
 40
1.0
 40
1.0
 10
20.3559340168
 20
12.1624037729
 30
0.0
 10
20.3548857151
 20
12.1645868674
 30
0.0
 10
20.3524607659
 20
12.1688632226
 30
0.0
 10
20.3479942324
 20
12.1747972829
 30
0.0
 10
20.342750221
 20
12.1802156271
 30
0.0
 10
20.3368221756
 20
12.1850174535
 30
0.0
 10
20.3313905668
 20
12.1884376207
 30
0.0
 10
20.3267816186
 20
12.1908178188
 30
0.0
 10
20.3231720733
 20
12.192434752
 30
0.0
 10
20.3194328112
 20
12.193880203
 30
0.0
 10
20.3142436311
 20
12.1956054158
 30
0.0
 10
20.3102431035
 20
12.1966576296
 30
0.0
 10
20.3075391986
 20
12.1972877143
 30
0.0
  0
SPLINE
  5
4B4
100
AcDbEntity
  8
0
100
AcDbSpline
 62
7
  6
CONTINUOUS
 70
0
 71
3
 72
15
 73
11
 74
0
 42
0.0000001
 43
0.0000001
 44
0.0000000001
 40
0.0
 40
0.0
 40
0.0
 40
0.0
 40
0.1202836834
 40
0.2407404424
 40
0.3616885295
 40
0.4837150337
 40
0.607637103
 40
0.7344100258
 40
0.864963915
 40
1.0
 40
1.0
 40
1.0
 40
1.0
 10
20.414128969
 20
12.1021331463
 30
0.0
 10
20.413357502
 20
12.1035766279
 30
0.0
 10
20.4116809768
 20
12.1063970232
 30
0.0
 10
20.4087915844
 20
12.1103888866
 30
0.0
 10
20.4055395578
 20
12.1141232998
 30
0.0
 10
20.4019343676
 20
12.1175861555
 30
0.0
 10
20.3979783797
 20
12.120769739
 30
0.0
 10
20.3936759997
 20
12.1236779851
 30
0.0
 10
20.3890407168
 20
12.1263351588
 30
0.0
 10
20.3857993973
 20
12.1279378454
 30
0.0
 10
20.3841339912
 20
12.1287141252
 30
0.0
  0
SPLINE
  5
4B5
100
AcDbEntity
  8
0
100
AcDbSpline
 62
9
  6
CONTINUOUS
 70
0
 71
3
 72
23
 73
19
 74
0
 42
0.0000001
 43
0.0000001
 44
0.0000000001
 40
0.0
 40
0.0
 40
0.0
 40
0.0
 40
0.0549320176
 40
0.1101281657
 40
0.1379309238
 40
0.1659140661
 40
0.2225269547
 40
0.2801956088
 40
0.3390672407
 40
0.3992431878
 40
0.4607920353
 40
0.5237618567
 40
0.5881858273
 40
0.6540333811
 40
0.7212051375
 40
0.789563535
 40
0.8589464079
 40
1.0
 40
1.0
 40
1.0
 40
1.0
 10
20.4301860637
 20
12.0357913904
 30
0.0
 10
20.4301860502
 20
12.0374477934
 30
0.0
 10
20.4299999965
 20
12.0407714086
 30
0.0
 10
20.4293000726
 20
12.044880531
 30
0.0
 10
20.4284607427
 20
12.0481217172
 30
0.0
 10
20.42742763
 20
12.0513512872
 30
0.0
 10
20.4257853901
 20
12.0553239666
 30
0.0
 10
20.423296322
 20
12.0599235672
 30
0.0
 10
20.4203050678
 20
12.0643435282
 30
0.0
 10
20.4168357194
 20
12.0685510807
 30
0.0
 10
20.4129119208
 20
12.0725137117
 30
0.0
 10
20.4085576537
 20
12.0761991058
 30
0.0
 10
20.4037972708
 20
12.0795713149
 30
0.0
 10
20.3986708278
 20
12.082610837
 30
0.0
 10
20.3932216094
 20
12.0853025979
 30
0.0
 10
20.3874916152
 20
12.0876299059
 30
0.0
 10
20.3794947869
 20
12.0902378598
 30
0.0
 10
20.3732643592
 20
12.0915736625
 30
0.0
 10
20.3690545793
 20
12.0921804546
 30
0.0
  0
SPLINE
  5
4B6
100
AcDbEntity
  8
0
100
AcDbSpline
 62
9
  6
CONTINUOUS
 70
0
 71
3
 72
14
 73
10
 74
0
 42
0.0000001
 43
0.0000001
 44
0.0000000001
 40
0.0
 40
0.0
 40
0.0
 40
0.0
 40
0.1179627457
 40
0.23653976
 40
0.3564885364
 40
0.4785277158
 40
0.6033275139
 40
0.7315034805
 40
1.0
 40
1.0
 40
1.0
 40
1.0
 10
18.9968419061
 20
7.5583224894
 30
0.0
 10
18.9967722757
 20
7.5620253881
 30
0.0
 10
18.9969645747
 20
7.5694609692
 30
0.0
 10
18.9982492488
 20
7.5805931824
 30
0.0
 10
19.000523356
 20
7.5916971231
 30
0.0
 10
19.0037806053
 20
7.6027560015
 30
0.0
 10
19.0080149823
 20
7.6137560213
 30
0.0
 10
19.0150606219
 20
7.6285478101
 30
0.0
 10
19.0216568919
 20
7.6391732093
 30
0.0
 10
19.0265387114
 20
7.6460454558
 30
0.0
  0
SPLINE
  5
4B7
100
AcDbEntity
  8
0
100
AcDbSpline
 62
7
  6
CONTINUOUS
 70
0
 71
3
 72
11
 73
7
 74
0
 42
0.0000001
 43
0.0000001
 44
0.0000000001
 40
0.0
 40
0.0
 40
0.0
 40
0.0
 40
0.2393598224
 40
0.4829791788
 40
0.7351294035
 40
1.0
 40
1.0
 40
1.0
 40
1.0
 10
20.4512876397
 20
12.0302418598
 30
0.0
 10
20.4504129637
 20
12.0318852635
 30
0.0
 10
20.4484516535
 20
12.0351011497
 30
0.0
 10
20.4449114292
 20
12.0396065173
 30
0.0
 10
20.4407582916
 20
12.0438342353
 30
0.0
 10
20.4376806099
 20
12.0464304337
 30
0.0
 10
20.4360605785
 20
12.0477030186
 30
0.0
  0
SPLINE
  5
4B8
100
AcDbEntity
  8
0
100
AcDbSpline
 62
9
  6
CONTINUOUS
 70
0
 71
3
 72
15
 73
11
 74
0
 42
0.0000001
 43
0.0000001
 44
0.0000000001
 40
0.0
 40
0.0
 40
0.0
 40
0.0
 40
0.1140920255
 40
0.2296257749
 40
0.347716693
 40
0.4692932074
 40
0.5951572263
 40
0.7256812914
 40
0.8607536508
 40
1.0
 40
1.0
 40
1.0
 40
1.0
 10
20.4684981313
 20
11.9615510964
 30
0.0
 10
20.468498055
 20
11.9640905993
 30
0.0
 10
20.4680443052
 20
11.9692119823
 30
0.0
 10
20.46605762
 20
11.9767272569
 30
0.0
 10
20.4628123913
 20
11.9839737194
 30
0.0
 10
20.4583561818
 20
11.9908193646
 30
0.0
 10
20.4527391936
 20
11.9971218124
 30
0.0
 10
20.44609022
 20
12.0027914249
 30
0.0
 10
20.4385403123
 20
12.0077490712
 30
0.0
 10
20.4330642279
 20
12.010485676
 30
0.0
 10
20.43021869
 20
12.011714162
 30
0.0
  0
SPLINE
  5
4B9
100
AcDbEntity
  8
0
100
AcDbSpline
 62
9
  6
CONTINUOUS
 70
0
 71
3
 72
13
 73
9
 74
0
 42
0.0000001
 43
0.0000001
 44
0.0000000001
 40
0.0
 40
0.0
 40
0.0
 40
0.0
 40
0.1206487613
 40
0.2417234414
 40
0.363656864
 40
0.4868955419
 40
0.7387418875
 40
1.0
 40
1.0
 40
1.0
 40
1.0
 10
20.4815099647
 20
11.882562818
 30
0.0
 10
20.4815099246
 20
11.8839925726
 30
0.0
 10
20.4813723132
 20
11.886859025
 30
0.0
 10
20.4807536989
 20
11.8911302197
 30
0.0
 10
20.4797226204
 20
11.8953532365
 30
0.0
 10
20.4777850456
 20
11.9009238387
 30
0.0
 10
20.4742981619
 20
11.9076597636
 30
0.0
 10
20.4706042349
 20
11.912527908
 30
0.0
 10
20.4685495926
 20
11.9148439372
 30
0.0
  0
SPLINE
  5
4BA
100
AcDbEntity
  8
0
100
AcDbSpline
 62
9
  6
CONTINUOUS
 70
0
 71
3
 72
28
 73
24
 74
0
 42
0.0000001
 43
0.0000001
 44
0.0000000001
 40
0.0
 40
0.0
 40
0.0
 40
0.0
 40
0.0640066661
 40
0.1278292053
 40
0.1596735423
 40
0.1914647224
 40
0.2231806615
 40
0.2547996345
 40
0.3178384542
 40
0.3493560513
 40
0.3808711303
 40
0.4123395437
 40
0.4437267218
 40
0.5062644727
 40
0.5685486082
 40
0.6306447234
 40
0.6616504089
 40
0.692641711
 40
0.7545554145
 40
0.8163086942
 40
0.8778329655
 40
0.9390793622
 40
1.0
 40
1.0
 40
1.0
 40
1.0
 10
20.7559132891
 20
8.2318963284
 30
0.0
 10
20.7639878975
 20
8.2211482495
 30
0.0
 10
20.7797047778
 20
8.1993722616
 30
0.0
 10
20.7982724412
 20
8.1714350391
 30
0.0
 10
20.8124386523
 20
8.1487189863
 30
0.0
 10
20.8227053091
 20
8.1315227712
 30
0.0
 10
20.8326082326
 20
8.1141689251
 30
0.0
 10
20.8452980931
 20
8.0908552758
 30
0.0
 10
20.8572622742
 20
8.0672002076
 30
0.0
 10
20.8685347022
 20
8.0432396277
 30
0.0
 10
20.8766390813
 20
8.0251202475
 30
0.0
 10
20.8843740019
 20
8.0068697833
 30
0.0
 10
20.8941573357
 20
7.9824165723
 30
0.0
 10
20.9054122356
 20
7.9515884455
 30
0.0
 10
20.9173595657
 20
7.9141814972
 30
0.0
 10
20.9260198661
 20
7.8827059991
 30
0.0
 10
20.9321755807
 20
7.8573787584
 30
0.0
 10
20.9378208696
 20
7.8319721576
 30
0.0
 10
20.943917984
 20
7.8000570395
 30
0.0
 10
20.9496395911
 20
7.761573596
 30
0.0
 10
20.9537211339
 20
7.7230217832
 30
0.0
 10
20.9561268777
 20
7.684504849
 30
0.0
 10
20.956595654
 20
7.6588404068
 30
0.0
 10
20.9565387101
 20
7.6460454552
 30
0.0
  0
SPLINE
  5
4BB
100
AcDbEntity
  8
0
100
AcDbSpline
 62
7
  6
CONTINUOUS
 70
0
 71
3
 72
22
 73
18
 74
0
 42
0.0000001
 43
0.0000001
 44
0.0000000001
 40
0.0
 40
0.0
 40
0.0
 40
0.0
 40
0.0438295651
 40
0.0894697302
 40
0.1372182471
 40
0.1873073119
 40
0.2399121587
 40
0.295159977
 40
0.3531381843
 40
0.4139016299
 40
0.4774786334
 40
0.5438759358
 40
0.6130827063
 40
0.6850737643
 40
0.7598121637
 40
0.8372512685
 40
1.0
 40
1.0
 40
1.0
 40
1.0
 10
20.6257583435
 20
8.3825447745
 30
0.0
 10
20.6244333338
 20
8.3839797062
 30
0.0
 10
20.6215769579
 20
8.3867716911
 30
0.0
 10
20.6168276836
 20
8.3906343425
 30
0.0
 10
20.6115505334
 20
8.3942553672
 30
0.0
 10
20.6057590876
 20
8.397642202
 30
0.0
 10
20.5994658131
 20
8.4008028053
 30
0.0
 10
20.5926831801
 20
8.4037445875
 30
0.0
 10
20.5854235285
 20
8.4064747622
 30
0.0
 10
20.5776992186
 20
8.4090003206
 30
0.0
 10
20.5695226443
 20
8.4113281144
 30
0.0
 10
20.5609062535
 20
8.4134648919
 30
0.0
 10
20.5518625434
 20
8.4154173405
 30
0.0
 10
20.5424040735
 20
8.4171920832
 30
0.0
 10
20.5325433904
 20
8.4187958006
 30
0.0
 10
20.518645224
 20
8.4207469789
 30
0.0
 10
20.508003583
 20
8.4219207035
 30
0.0
 10
20.5007836918
 20
8.4226062189
 30
0.0
  0
SPLINE
  5
4BC
100
AcDbEntity
  8
0
100
AcDbSpline
 62
7
  6
CONTINUOUS
 70
0
 71
3
 72
51
 73
47
 74
0
 42
0.0000001
 43
0.0000001
 44
0.0000000001
 40
0.0
 40
0.0
 40
0.0
 40
0.0
 40
0.0134434418
 40
0.0269592356
 40
0.0405639842
 40
0.0542734689
 40
0.0681022233
 40
0.0820634546
 40
0.0961689435
 40
0.1104289592
 40
0.1248522318
 40
0.1394458896
 40
0.1542154482
 40
0.1691648571
 40
0.1996034526
 40
0.2307707927
 40
0.2626449268
 40
0.2951832553
 40
0.3283249115
 40
0.36199331
 40
0.396098765
 40
0.4305411541
 40
0.4652124927
 40
0.499999613
 40
0.534786739
 40
0.5694580943
 40
0.6039005109
 40
0.6380060036
 40
0.671674449
 40
0.7048161601
 40
0.7373545503
 40
0.7692287512
 40
0.8003961611
 40
0.8308348276
 40
0.8457842716
 40
0.8605538648
 40
0.8751475561
 40
0.8895708611
 40
0.9038309076
 40
0.9179364256
 40
0.9318976837
 40
0.9457264625
 40
0.959435969
 40
0.9730407364
 40
0.9865565458
 40
1.0
 40
1.0
 40
1.0
 40
1.0
 10
20.4748136253
 20
12.2947969671
 30
0.0
 10
20.4738515746
 20
12.3003581475
 30
0.0
 10
20.471597414
 20
12.3114569424
 30
0.0
 10
20.4672525675
 20
12.3279318951
 30
0.0
 10
20.4619448186
 20
12.3442402417
 30
0.0
 10
20.4556852345
 20
12.3603480998
 30
0.0
 10
20.4484867602
 20
12.3762231081
 30
0.0
 10
20.4403640795
 20
12.3918330527
 30
0.0
 10
20.4313337799
 20
12.4071463668
 30
0.0
 10
20.4214144252
 20
12.4221321913
 30
0.0
 10
20.4106261289
 20
12.4367602665
 30
0.0
 10
20.3989909215
 20
12.4510010111
 30
0.0
 10
20.3865322192
 20
12.4648260996
 30
0.0
 10
20.3687524288
 20
12.4827731323
 30
0.0
 10
20.3445645084
 20
12.5040088319
 30
0.0
 10
20.3128767331
 20
12.5272399133
 30
0.0
 10
20.278603345
 20
12.5481941003
 30
0.0
 10
20.2420224585
 20
12.5667034718
 30
0.0
 10
20.2034281235
 20
12.5826216089
 30
0.0
 10
20.163130922
 20
12.595822006
 30
0.0
 10
20.1214547342
 20
12.6061996822
 30
0.0
 10
20.0787345068
 20
12.6136719404
 30
0.0
 10
20.0353135622
 20
12.6181793397
 30
0.0
 10
19.9915408339
 20
12.6196859371
 30
0.0
 10
19.9477680886
 20
12.6181796314
 30
0.0
 10
19.9043470929
 20
12.6136725215
 30
0.0
 10
19.8616267809
 20
12.6062005481
 30
0.0
 10
19.8199504756
 20
12.5958231497
 30
0.0
 10
19.7796531246
 20
12.5826230214
 30
0.0
 10
19.7410586093
 20
12.5667051418
 30
0.0
 10
19.7044775131
 20
12.5481960146
 30
0.0
 10
19.6702038878
 20
12.5272420566
 30
0.0
 10
19.6385158493
 20
12.5040111874
 30
0.0
 10
19.6143276885
 20
12.4827756501
 30
0.0
 10
19.5965476942
 20
12.4648287363
 30
0.0
 10
19.5840888348
 20
12.4510037312
 30
0.0
 10
19.5724534655
 20
12.4367630645
 30
0.0
 10
19.5616650029
 20
12.4221350615
 30
0.0
 10
19.5517454778
 20
12.4071493034
 30
0.0
 10
19.542715004
 20
12.3918360498
 30
0.0
 10
19.5345921458
 20
12.3762261597
 30
0.0
 10
19.5273934909
 20
12.3603511996
 30
0.0
 10
19.5211337236
 20
12.3442433835
 30
0.0
 10
19.5158257892
 20
12.3279350725
 30
0.0
 10
19.5114807552
 20
12.311460149
 30
0.0
 10
19.5092264679
 20
12.3003613678
 30
0.0
 10
19.5082643539
 20
12.294800193
 30
0.0
  0
SPLINE
  5
4BD
100
AcDbEntity
  8
0
100
AcDbSpline
 62
9
  6
CONTINUOUS
 70
0
 71
3
 72
49
 73
45
 74
0
 42
0.0000001
 43
0.0000001
 44
0.0000000001
 40
0.0
 40
0.0
 40
0.0
 40
0.0
 40
0.0135006553
 40
0.0270249995
 40
0.040593967
 40
0.0542303119
 40
0.0679546978
 40
0.0817867296
 40
0.0957446166
 40
0.109844827
 40
0.1241019953
 40
0.1385287959
 40
0.1679210124
 40
0.1980928841
 40
0.2290709837
 40
0.260850037
 40
0.293395528
 40
0.3266468216
 40
0.3605207552
 40
0.3949153328
 40
0.4297135102
 40
0.4647869955
 40
0.5
 40
0.5352130045
 40
0.5702864898
 40
0.6050846672
 40
0.6394792448
 40
0.6733531784
 40
0.706604472
 40
0.739149963
 40
0.7709290163
 40
0.8019071159
 40
0.8320789876
 40
0.8614712041
 40
0.8758980047
 40
0.890155173
 40
0.9042553834
 40
0.9182132704
 40
0.9320453022
 40
0.9457696881
 40
0.959406033
 40
0.9729750005
 40
0.9864993447
 40
1.0
 40
1.0
 40
1.0
 40
1.0
 10
20.4790387105
 20
12.3776330008
 30
0.0
 10
20.4790387105
 20
12.3837440315
 30
0.0
 10
20.4786462168
 20
12.3959804243
 30
0.0
 10
20.476882467
 20
12.4142822573
 30
0.0
 10
20.4739474221
 20
12.4324959833
 30
0.0
 10
20.4698487205
 20
12.4505760695
 30
0.0
 10
20.4645962626
 20
12.4684792323
 30
0.0
 10
20.4582031055
 20
12.4861619887
 30
0.0
 10
20.4506849535
 20
12.5035816772
 30
0.0
 10
20.4420602496
 20
12.5206961066
 30
0.0
 10
20.4323497246
 20
12.5374645486
 30
0.0
 10
20.4179001304
 20
12.5594392401
 30
0.0
 10
20.3971812087
 20
12.585844674
 30
0.0
 10
20.3685851384
 20
12.6153002313
 30
0.0
 10
20.3363733636
 20
12.6424555334
 30
0.0
 10
20.3008598733
 20
12.6670521871
 30
0.0
 10
20.2623859571
 20
12.6888595689
 30
0.0
 10
20.2213210615
 20
12.707672348
 30
0.0
 10
20.1780583964
 20
12.7233131506
 30
0.0
 10
20.1330119627
 20
12.735634348
 30
0.0
 10
20.0866126086
 20
12.7445195101
 30
0.0
 10
20.0393040491
 20
12.7498844282
 30
0.0
 10
19.9915387105
 20
12.7516784724
 30
0.0
 10
19.943773372
 20
12.7498844282
 30
0.0
 10
19.8964648125
 20
12.7445195101
 30
0.0
 10
19.8500654584
 20
12.735634348
 30
0.0
 10
19.8050190247
 20
12.7233131506
 30
0.0
 10
19.7617563596
 20
12.707672348
 30
0.0
 10
19.720691464
 20
12.6888595689
 30
0.0
 10
19.6822175477
 20
12.6670521871
 30
0.0
 10
19.6467040575
 20
12.6424555334
 30
0.0
 10
19.6144922826
 20
12.6153002313
 30
0.0
 10
19.5858962124
 20
12.585844674
 30
0.0
 10
19.5651772907
 20
12.5594392401
 30
0.0
 10
19.5507276965
 20
12.5374645486
 30
0.0
 10
19.5410171715
 20
12.5206961066
 30
0.0
 10
19.5323924676
 20
12.5035816772
 30
0.0
 10
19.5248743156
 20
12.4861619887
 30
0.0
 10
19.5184811585
 20
12.4684792323
 30
0.0
 10
19.5132287006
 20
12.4505760695
 30
0.0
 10
19.509129999
 20
12.4324959833
 30
0.0
 10
19.5061949541
 20
12.4142822573
 30
0.0
 10
19.5044312042
 20
12.3959804243
 30
0.0
 10
19.5040387105
 20
12.3837440315
 30
0.0
 10
19.5040387105
 20
12.3776330008
 30
0.0
  0
SPLINE
  5
4BE
100
AcDbEntity
  8
0
100
AcDbSpline
 62
9
  6
CONTINUOUS
 70
0
 71
3
 72
14
 73
10
 74
0
 42
0.0000001
 43
0.0000001
 44
0.0000000001
 40
0.0
 40
0.0
 40
0.0
 40
0.0
 40
0.1179627457
 40
0.23653976
 40
0.3564885364
 40
0.4785277158
 40
0.6033275139
 40
0.7315034805
 40
1.0
 40
1.0
 40
1.0
 40
1.0
 10
20.9862355149
 20
7.5583224894
 30
0.0
 10
20.9863051453
 20
7.5620253881
 30
0.0
 10
20.9861128463
 20
7.5694609692
 30
0.0
 10
20.9848281723
 20
7.5805931824
 30
0.0
 10
20.9825540651
 20
7.5916971231
 30
0.0
 10
20.9792968158
 20
7.6027560015
 30
0.0
 10
20.9750624388
 20
7.6137560213
 30
0.0
 10
20.9680167992
 20
7.6285478101
 30
0.0
 10
20.9614205291
 20
7.6391732093
 30
0.0
 10
20.9565387097
 20
7.6460454558
 30
0.0
  0
SPLINE
  5
4BF
100
AcDbEntity
  8
0
100
AcDbSpline
 62
7
  6
CONTINUOUS
 70
0
 71
3
 72
11
 73
7
 74
0
 42
0.0000001
 43
0.0000001
 44
0.0000000001
 40
0.0
 40
0.0
 40
0.0
 40
0.0
 40
0.2525601698
 40
0.5029421399
 40
0.7518448428
 40
1.0
 40
1.0
 40
1.0
 40
1.0
 10
19.5183536835
 20
12.2468076272
 30
0.0
 10
19.515582375
 20
12.2389141134
 30
0.0
 10
19.5107016041
 20
12.2229621582
 30
0.0
 10
19.5054231963
 20
12.1985944765
 30
0.0
 10
19.5022460773
 20
12.1740116552
 30
0.0
 10
19.5015387105
 20
12.1575383745
 30
0.0
 10
19.5015387105
 20
12.1493184214
 30
0.0
  0
SPLINE
  5
4C0
100
AcDbEntity
  8
0
100
AcDbSpline
 62
9
  6
CONTINUOUS
 70
0
 71
3
 72
36
 73
32
 74
0
 42
0.0000001
 43
0.0000001
 44
0.0000000001
 40
0.0
 40
0.0
 40
0.0
 40
0.0
 40
0.0075107241
 40
0.0150554687
 40
0.0226677246
 40
0.0303799103
 40
0.0462179773
 40
0.062803312
 40
0.0803251911
 40
0.0989360661
 40
0.1187536345
 40
0.1398649871
 40
0.1623308054
 40
0.1861894157
 40
0.2114606703
 40
0.2381487288
 40
0.2662443742
 40
0.2957272694
 40
0.3265673394
 40
0.3587259213
 40
0.392157106
 40
0.4268084421
 40
0.462621537
 40
0.4995329588
 40
0.5374746527
 40
0.5763743069
 40
0.6567366079
 40
0.7399797459
 40
0.8254183683
 40
0.9123360481
 40
1.0
 40
1.0
 40
1.0
 40
1.0
 10
6.4290386734
 20
4.3792462123
 30
0.0
 10
6.4290386734
 20
4.3806460448
 30
0.0
 10
6.4289377673
 20
4.3834530917
 30
0.0
 10
6.4284840392
 20
4.3876568012
 30
0.0
 10
6.4277281175
 20
4.3918552278
 30
0.0
 10
6.4263064555
 20
4.3974905571
 30
0.0
 10
6.4237427931
 20
4.4045424652
 30
0.0
 10
6.4194963963
 20
4.4128494664
 30
0.0
 10
6.4140684937
 20
4.4210615232
 30
0.0
 10
6.4074762091
 20
4.4291606244
 30
0.0
 10
6.3997373755
 20
4.4371310451
 30
0.0
 10
6.3908711101
 20
4.4449563085
 30
0.0
 10
6.3808985221
 20
4.4526198186
 30
0.0
 10
6.369843089
 20
4.4601048143
 30
0.0
 10
6.3577306579
 20
4.4673943221
 30
0.0
 10
6.3445896705
 20
4.4744714956
 30
0.0
 10
6.3304511683
 20
4.481319849
 30
0.0
 10
6.3153486082
 20
4.4879231291
 30
0.0
 10
6.2993178749
 20
4.4942655695
 30
0.0
 10
6.2823972132
 20
4.5003320662
 30
0.0
 10
6.2646270305
 20
4.5061080069
 30
0.0
 10
6.2460498457
 20
4.5115794466
 30
0.0
 10
6.2267101979
 20
4.5167332754
 30
0.0
 10
6.2066544927
 20
4.5215570019
 30
0.0
 10
6.1859308006
 20
4.5260390198
 30
0.0
 10
6.1571631084
 20
4.531605055
 30
0.0
 10
6.1198891053
 20
4.5376038246
 30
0.0
 10
6.0738031916
 20
4.5432173099
 30
0.0
 10
6.0263273603
 20
4.5472664054
 30
0.0
 10
5.9779181634
 20
4.5497118676
 30
0.0
 10
5.9453773277
 20
4.550256284
 30
0.0
 10
5.9290387105
 20
4.550256284
 30
0.0
  0
SPLINE
  5
4C1
100
AcDbEntity
  8
0
100
AcDbSpline
 62
9
  6
CONTINUOUS
 70
0
 71
3
 72
36
 73
32
 74
0
 42
0.0000001
 43
0.0000001
 44
0.0000000001
 40
0.0
 40
0.0
 40
0.0
 40
0.0
 40
0.0075107241
 40
0.0150554687
 40
0.0226677246
 40
0.0303799103
 40
0.0462179773
 40
0.062803312
 40
0.0803251911
 40
0.0989360661
 40
0.1187536345
 40
0.1398649871
 40
0.1623308054
 40
0.1861894157
 40
0.2114606703
 40
0.2381487288
 40
0.2662443742
 40
0.2957272694
 40
0.3265673394
 40
0.3587259213
 40
0.392157106
 40
0.4268084421
 40
0.462621537
 40
0.4995329588
 40
0.5374746527
 40
0.5763743069
 40
0.6567366079
 40
0.7399797459
 40
0.8254183683
 40
0.9123360481
 40
1.0
 40
1.0
 40
1.0
 40
1.0
 10
6.4290386734
 20
8.3058722863
 30
0.0
 10
6.4290386734
 20
8.3072721188
 30
0.0
 10
6.4289377673
 20
8.3100791657
 30
0.0
 10
6.4284840392
 20
8.3142828752
 30
0.0
 10
6.4277281175
 20
8.3184813018
 30
0.0
 10
6.4263064555
 20
8.3241166311
 30
0.0
 10
6.4237427931
 20
8.3311685392
 30
0.0
 10
6.4194963963
 20
8.3394755404
 30
0.0
 10
6.4140684937
 20
8.3476875972
 30
0.0
 10
6.4074762091
 20
8.3557866984
 30
0.0
 10
6.3997373755
 20
8.3637571191
 30
0.0
 10
6.3908711101
 20
8.3715823825
 30
0.0
 10
6.3808985221
 20
8.3792458926
 30
0.0
 10
6.369843089
 20
8.3867308883
 30
0.0
 10
6.3577306579
 20
8.3940203961
 30
0.0
 10
6.3445896705
 20
8.4010975696
 30
0.0
 10
6.3304511683
 20
8.407945923
 30
0.0
 10
6.3153486082
 20
8.4145492031
 30
0.0
 10
6.2993178749
 20
8.4208916435
 30
0.0
 10
6.2823972132
 20
8.4269581402
 30
0.0
 10
6.2646270305
 20
8.4327340809
 30
0.0
 10
6.2460498457
 20
8.4382055206
 30
0.0
 10
6.2267101979
 20
8.4433593494
 30
0.0
 10
6.2066544927
 20
8.4481830759
 30
0.0
 10
6.1859308006
 20
8.4526650938
 30
0.0
 10
6.1571631084
 20
8.4582311289
 30
0.0
 10
6.1198891053
 20
8.4642298986
 30
0.0
 10
6.0738031916
 20
8.4698433839
 30
0.0
 10
6.0263273603
 20
8.4738924794
 30
0.0
 10
5.9779181634
 20
8.4763379416
 30
0.0
 10
5.9453773277
 20
8.476882358
 30
0.0
 10
5.9290387105
 20
8.476882358
 30
0.0
  0
SPLINE
  5
4C2
100
AcDbEntity
  8
0
100
AcDbSpline
 62
7
  6
CONTINUOUS
 70
0
 71
3
 72
11
 73
7
 74
0
 42
0.0000001
 43
0.0000001
 44
0.0000000001
 40
0.0
 40
0.0
 40
0.0
 40
0.0
 40
0.2481551572
 40
0.4970578601
 40
0.7474398302
 40
1.0
 40
1.0
 40
1.0
 40
1.0
 10
20.4815387105
 20
12.1493184214
 30
0.0
 10
20.4815387105
 20
12.1575383745
 30
0.0
 10
20.4808313438
 20
12.1740116552
 30
0.0
 10
20.4776542248
 20
12.1985944765
 30
0.0
 10
20.4723758169
 20
12.2229621582
 30
0.0
 10
20.467495046
 20
12.2389141134
 30
0.0
 10
20.4647237375
 20
12.2468076272
 30
0.0
  0
SPLINE
  5
4C3
100
AcDbEntity
  8
0
100
AcDbSpline
 62
7
  6
CONTINUOUS
 70
0
 71
3
 72
17
 73
13
 74
0
 42
0.0000001
 43
0.0000001
 44
0.0000000001
 40
0.0
 40
0.0
 40
0.0
 40
0.0
 40
0.0561817316
 40
0.114270766
 40
0.2341242801
 40
0.3570210601
 40
0.4817715927
 40
0.6081019518
 40
0.7363313916
 40
0.801355504
 40
0.8670194554
 40
1.0
 40
1.0
 40
1.0
 40
1.0
 10
20.2740769611
 20
12.2184936402
 30
0.0
 10
20.2733060317
 20
12.2196175709
 30
0.0
 10
20.2716597797
 20
12.221850989
 30
0.0
 10
20.2679987409
 20
12.2261972658
 30
0.0
 10
20.2627549428
 20
12.2313062327
 30
0.0
 10
20.2555933069
 20
12.2366563998
 30
0.0
 10
20.2476748993
 20
12.2411338736
 30
0.0
 10
20.2391413984
 20
12.2446374625
 30
0.0
 10
20.2316481969
 20
12.2467003809
 30
0.0
 10
20.2254710801
 20
12.2478519988
 30
0.0
 10
20.2191285489
 20
12.2486987881
 30
0.0
 10
20.2143130955
 20
12.2490063745
 30
0.0
 10
20.2110889331
 20
12.249115055
 30
0.0
  0
SPLINE
  5
4C4
100
AcDbEntity
  8
0
100
AcDbSpline
 62
7
  6
CONTINUOUS
 70
0
 71
3
 72
16
 73
12
 74
0
 42
0.0000001
 43
0.0000001
 44
0.0000000001
 40
0.0
 40
0.0
 40
0.0
 40
0.0
 40
0.1169323918
 40
0.2386763715
 40
0.3629046134
 40
0.4885499977
 40
0.6152414164
 40
0.7429307786
 40
0.8071508749
 40
0.8715238912
 40
1.0
 40
1.0
 40
1.0
 40
1.0
 10
20.1717936478
 20
12.2632799504
 30
0.0
 10
20.1695459317
 20
12.2651842532
 30
0.0
 10
20.1647509741
 20
12.2688346203
 30
0.0
 10
20.1568900215
 20
12.2735422263
 30
0.0
 10
20.1483237519
 20
12.2773755232
 30
0.0
 10
20.1392464897
 20
12.2802085896
 30
0.0
 10
20.1298144354
 20
12.2819724924
 30
0.0
 10
20.1217896448
 20
12.2825382667
 30
0.0
 10
20.1153309604
 20
12.2824692844
 30
0.0
 10
20.1088641078
 20
12.2820764252
 30
0.0
 10
20.104039062
 20
12.2814546318
 30
0.0
 10
20.1008435197
 20
12.280939645
 30
0.0
  0
SPLINE
  5
4C5
100
AcDbEntity
  8
0
100
AcDbSpline
 62
7
  6
CONTINUOUS
 70
0
 71
3
 72
15
 73
11
 74
0
 42
0.0000001
 43
0.0000001
 44
0.0000000001
 40
0.0
 40
0.0
 40
0.0
 40
0.0
 40
0.1211456294
 40
0.2455392708
 40
0.3712948836
 40
0.4976119024
 40
0.6241508174
 40
0.7506368614
 40
0.8764563219
 40
1.0
 40
1.0
 40
1.0
 40
1.0
 10
20.0581842538
 20
12.2871734774
 30
0.0
 10
20.0554145406
 20
12.2885767744
 30
0.0
 10
20.0496811411
 20
12.2911944668
 30
0.0
 10
20.0406612082
 20
12.2942819346
 30
0.0
 10
20.0312221438
 20
12.2963802928
 30
0.0
 10
20.0215512644
 20
12.2974027242
 30
0.0
 10
20.0118082539
 20
12.2973138449
 30
0.0
 10
20.0021502271
 20
12.2961321912
 30
0.0
 10
19.9927561586
 20
12.2939257383
 30
0.0
 10
19.9866916587
 20
12.2918821257
 30
0.0
 10
19.9837300831
 20
12.2907618282
 30
0.0
  0
SPLINE
  5
4C6
100
AcDbEntity
  8
0
100
AcDbSpline
 62
7
  6
CONTINUOUS
 70
0
 71
3
 72
15
 73
11
 74
0
 42
0.0000001
 43
0.0000001
 44
0.0000000001
 40
0.0
 40
0.0
 40
0.0
 40
0.0
 40
0.12601684
 40
0.2532476085
 40
0.3803957831
 40
0.5070673182
 40
0.6330840086
 40
0.7580747751
 40
0.8810885135
 40
1.0
 40
1.0
 40
1.0
 40
1.0
 10
19.9403872753
 20
12.2886729029
 30
0.0
 10
19.937283288
 20
12.2894953787
 30
0.0
 10
19.9309859214
 20
12.2909394678
 30
0.0
 10
19.9213632906
 20
12.2922351845
 30
0.0
 10
19.9116364675
 20
12.2924858325
 30
0.0
 10
19.9019732986
 20
12.2916412071
 30
0.0
 10
19.8925255324
 20
12.2896993227
 30
0.0
 10
19.883452342
 20
12.2867126429
 30
0.0
 10
19.8749462595
 20
12.2827872172
 30
0.0
 10
19.869638005
 20
12.2796307828
 30
0.0
 10
19.8671072914
 20
12.2779644408
 30
0.0
  0
SPLINE
  5
4C7
100
AcDbEntity
  8
0
100
AcDbSpline
 62
7
  6
CONTINUOUS
 70
0
 71
3
 72
18
 73
14
 74
0
 42
0.0000001
 43
0.0000001
 44
0.0000000001
 40
0.0
 40
0.0
 40
0.0
 40
0.0
 40
0.1308234555
 40
0.1958970695
 40
0.2605746986
 40
0.3886334815
 40
0.515208933
 40
0.640418867
 40
0.7024629929
 40
0.7639830576
 40
0.8846362483
 40
0.9432252607
 40
1.0
 40
1.0
 40
1.0
 40
1.0
 10
19.8258043296
 20
12.2676840126
 30
0.0
 10
19.8225687712
 20
12.2678869376
 30
0.0
 10
19.8177105505
 20
12.268043404
 30
0.0
 10
19.8112550123
 20
12.2678143373
 30
0.0
 10
19.8048874686
 20
12.2672659843
 30
0.0
 10
19.7970678841
 20
12.2659389546
 30
0.0
 10
19.7880146859
 20
12.2632845019
 30
0.0
 10
19.7808508136
 20
12.2602042864
 30
0.0
 10
19.7754321219
 20
12.2572572065
 30
0.0
 10
19.7703010918
 20
12.2540423
 30
0.0
 10
19.7655463984
 20
12.2504084429
 30
0.0
 10
19.7612395547
 20
12.2464478896
 30
0.0
 10
19.7592506566
 20
12.2443914722
 30
0.0
 10
19.7583029833
 20
12.2433515895
 30
0.0
  0
SPLINE
  5
4C8
100
AcDbEntity
  8
0
100
AcDbSpline
 62
7
  6
CONTINUOUS
 70
0
 71
3
 72
17
 73
13
 74
0
 42
0.0000001
 43
0.0000001
 44
0.0000000001
 40
0.0
 40
0.0
 40
0.0
 40
0.0
 40
0.1347901194
 40
0.200866217
 40
0.2660657317
 40
0.3941743515
 40
0.5200786456
 40
0.6443387796
 40
0.7667762353
 40
0.8861927939
 40
0.9440579245
 40
1.0
 40
1.0
 40
1.0
 40
1.0
 10
19.7216350845
 20
12.2255256157
 30
0.0
 10
19.7184728143
 20
12.2251106897
 30
0.0
 10
19.7137749231
 20
12.2243475345
 30
0.0
 10
19.7076460688
 20
12.2228969623
 30
0.0
 10
19.701755252
 20
12.2211653688
 30
0.0
 10
19.6947039041
 20
12.2184024664
 30
0.0
 10
19.6868249399
 20
12.2141048317
 30
0.0
 10
19.6796776073
 20
12.2088993726
 30
0.0
 10
19.6733916106
 20
12.2029012625
 30
0.0
 10
19.668966039
 20
12.1973270278
 30
0.0
 10
19.6660108716
 20
12.1926622151
 30
0.0
 10
19.6647348147
 20
12.1902874545
 30
0.0
 10
19.6641537337
 20
12.1890981273
 30
0.0
  0
SPLINE
  5
4C9
100
AcDbEntity
  8
0
100
AcDbSpline
 62
7
  6
CONTINUOUS
 70
0
 71
3
 72
15
 73
11
 74
0
 42
0.0000001
 43
0.0000001
 44
0.0000000001
 40
0.0
 40
0.0
 40
0.0
 40
0.0
 40
0.1348858076
 40
0.2652884251
 40
0.3919533865
 40
0.5159354911
 40
0.6382409539
 40
0.7595672275
 40
0.8802065278
 40
1.0
 40
1.0
 40
1.0
 40
1.0
 10
19.6344248769
 20
12.1648466793
 30
0.0
 10
19.6322581702
 20
12.1641035378
 30
0.0
 10
19.6280322957
 20
12.1625327898
 30
0.0
 10
19.6219705317
 20
12.1597662056
 30
0.0
 10
19.6163377921
 20
12.156561099
 30
0.0
 10
19.6111623092
 20
12.1528916442
 30
0.0
 10
19.606458746
 20
12.14876993
 30
0.0
 10
19.6022515015
 20
12.1442190646
 30
0.0
 10
19.5985759977
 20
12.1392828005
 30
0.0
 10
19.5964998958
 20
12.1357555825
 30
0.0
 10
19.5955692701
 20
12.1339466167
 30
0.0
  0
SPLINE
  5
4CA
100
AcDbEntity
  8
0
100
AcDbSpline
 62
7
  6
CONTINUOUS
 70
0
 71
3
 72
14
 73
10
 74
0
 42
0.0000001
 43
0.0000001
 44
0.0000000001
 40
0.0
 40
0.0
 40
0.0
 40
0.0
 40
0.265575512
 40
0.3927014721
 40
0.5169626673
 40
0.6391339282
 40
0.759956621
 40
0.8800797951
 40
1.0
 40
1.0
 40
1.0
 40
1.0
 10
19.5696534449
 20
12.089459884
 30
0.0
 10
19.5672678867
 20
12.0880052513
 30
0.0
 10
19.5638221421
 20
12.0857079395
 30
0.0
 10
19.5595869564
 20
12.0822904399
 30
0.0
 10
19.5566972828
 20
12.0796218448
 30
0.0
 10
19.5540512422
 20
12.0768015785
 30
0.0
 10
19.5516471757
 20
12.0738280184
 30
0.0
 10
19.5494830797
 20
12.0707045591
 30
0.0
 10
19.5482010274
 20
12.068525567
 30
0.0
 10
19.5476017245
 20
12.0674153327
 30
0.0
  0
SPLINE
  5
4CB
100
AcDbEntity
  8
0
100
AcDbSpline
 62
7
  6
CONTINUOUS
 70
0
 71
3
 72
9
 73
5
 74
0
 42
0.0000001
 43
0.0000001
 44
0.0000000001
 40
0.0
 40
0.0
 40
0.0
 40
0.0
 40
0.5103504951
 40
1.0
 40
1.0
 40
1.0
 40
1.0
 10
19.5288111518
 20
12.0013418001
 30
0.0
 10
19.5274250367
 20
11.9997701022
 30
0.0
 10
19.5248635699
 20
11.9965478036
 30
0.0
 10
19.52272978
 20
11.9930232418
 30
0.0
 10
19.5218094956
 20
11.9912356208
 30
0.0
  0
SPLINE
  5
4CC
100
AcDbEntity
  8
0
100
AcDbSpline
 62
9
  6
CONTINUOUS
 70
0
 71
3
 72
39
 73
35
 74
0
 42
0.0000001
 43
0.0000001
 44
0.0000000001
 40
0.0
 40
0.0
 40
0.0
 40
0.0
 40
0.0271755822
 40
0.0548256121
 40
0.0830186631
 40
0.1118049749
 40
0.1412173916
 40
0.1712710241
 40
0.2019640844
 40
0.2332789489
 40
0.2651834958
 40
0.2976325912
 40
0.3305696669
 40
0.3639283403
 40
0.3976340587
 40
0.4316057502
 40
0.4657574637
 40
0.5
 40
0.5342425363
 40
0.5683942498
 40
0.6023659413
 40
0.6360716597
 40
0.6694303331
 40
0.7023674088
 40
0.7348165042
 40
0.7667210511
 40
0.7980359156
 40
0.8287289759
 40
0.8587826084
 40
0.8881950251
 40
0.9169813369
 40
0.9451743879
 40
0.9728244178
 40
1.0
 40
1.0
 40
1.0
 40
1.0
 10
19.5215387105
 20
12.049772618
 30
0.0
 10
19.5252730362
 20
12.0594757827
 30
0.0
 10
19.5337917255
 20
12.0786868674
 30
0.0
 10
19.5494170979
 20
12.1063904528
 30
0.0
 10
19.5678883901
 20
12.1330374859
 30
0.0
 10
19.5890826007
 20
12.1584539811
 30
0.0
 10
19.6128614364
 20
12.1824793376
 30
0.0
 10
19.6390704041
 20
12.2049608009
 30
0.0
 10
19.6675400956
 20
12.2257559836
 30
0.0
 10
19.6980870832
 20
12.2447331203
 30
0.0
 10
19.730515019
 20
12.261771945
 30
0.0
 10
19.764615767
 20
12.2767643905
 30
0.0
 10
19.8001706481
 20
12.2896152787
 30
0.0
 10
19.8369517588
 20
12.3002429643
 30
0.0
 10
19.8747233843
 20
12.3085799042
 30
0.0
 10
19.9132434962
 20
12.3145730681
 30
0.0
 10
19.9522652808
 20
12.3181843095
 30
0.0
 10
19.9915387105
 20
12.3193906242
 30
0.0
 10
20.0308121403
 20
12.3181843095
 30
0.0
 10
20.0698339249
 20
12.3145730681
 30
0.0
 10
20.1083540368
 20
12.3085799042
 30
0.0
 10
20.1461256623
 20
12.3002429643
 30
0.0
 10
20.182906773
 20
12.2896152787
 30
0.0
 10
20.2184616541
 20
12.2767643905
 30
0.0
 10
20.2525624021
 20
12.261771945
 30
0.0
 10
20.2849903379
 20
12.2447331203
 30
0.0
 10
20.3155373254
 20
12.2257559836
 30
0.0
 10
20.344007017
 20
12.2049608009
 30
0.0
 10
20.3702159846
 20
12.1824793376
 30
0.0
 10
20.3939948204
 20
12.1584539811
 30
0.0
 10
20.415189031
 20
12.1330374859
 30
0.0
 10
20.4336603232
 20
12.1063904528
 30
0.0
 10
20.4492856956
 20
12.0786868674
 30
0.0
 10
20.4578043848
 20
12.0594757827
 30
0.0
 10
20.4615387105
 20
12.049772618
 30
0.0
  0
SPLINE
  5
4CD
100
AcDbEntity
  8
0
100
AcDbSpline
 62
9
  6
CONTINUOUS
 70
0
 71
3
 72
49
 73
45
 74
0
 42
0.0000001
 43
0.0000001
 44
0.0000000001
 40
0.0
 40
0.0
 40
0.0
 40
0.0
 40
0.0135006553
 40
0.0270249995
 40
0.0405939671
 40
0.054230312
 40
0.0679546978
 40
0.0817867297
 40
0.0957446167
 40
0.1098448272
 40
0.1241019955
 40
0.138528796
 40
0.1679210126
 40
0.1980928842
 40
0.2290709838
 40
0.2608500371
 40
0.2933955281
 40
0.3266468217
 40
0.3605207552
 40
0.3949153329
 40
0.4297135102
 40
0.4647869956
 40
0.5
 40
0.5352130044
 40
0.5702864898
 40
0.6050846671
 40
0.6394792448
 40
0.6733531784
 40
0.7066044719
 40
0.7391499629
 40
0.7709290162
 40
0.8019071158
 40
0.8320789874
 40
0.861471204
 40
0.8758980045
 40
0.8901551728
 40
0.9042553833
 40
0.9182132703
 40
0.9320453022
 40
0.945769688
 40
0.9594060329
 40
0.9729750005
 40
0.9864993447
 40
1.0
 40
1.0
 40
1.0
 40
1.0
 10
19.5015387105
 20
12.2328808107
 30
0.0
 10
19.5015387105
 20
12.23902318
 30
0.0
 10
19.501933217
 20
12.2513223235
 30
0.0
 10
19.5037060118
 20
12.2697180122
 30
0.0
 10
19.5066561082
 20
12.2880251419
 30
0.0
 10
19.5107758287
 20
12.3061979465
 30
0.0
 10
19.5160552223
 20
12.3241929204
 30
0.0
 10
19.5224811649
 20
12.3419663576
 30
0.0
 10
19.5300378716
 20
12.3594753779
 30
0.0
 10
19.5387068047
 20
12.3766775737
 30
0.0
 10
19.5484671273
 20
12.3935320077
 30
0.0
 10
19.562990822
 20
12.4156193899
 30
0.0
 10
19.5838159946
 20
12.4421602362
 30
0.0
 10
19.6125587114
 20
12.4717668476
 30
0.0
 10
19.6449356748
 20
12.4990614077
 30
0.0
 10
19.6806312855
 20
12.523784198
 30
0.0
 10
19.7193025038
 20
12.5457034126
 30
0.0
 10
19.7605779887
 20
12.5646126674
 30
0.0
 10
19.8040625136
 20
12.5803336793
 30
0.0
 10
19.8493399546
 20
12.5927180622
 30
0.0
 10
19.8959772541
 20
12.6016487893
 30
0.0
 10
19.9435284216
 20
12.6070412198
 30
0.0
 10
19.9915387105
 20
12.6088444642
 30
0.0
 10
20.0395489995
 20
12.6070412198
 30
0.0
 10
20.087100167
 20
12.6016487893
 30
0.0
 10
20.1337374665
 20
12.5927180622
 30
0.0
 10
20.1790149075
 20
12.5803336793
 30
0.0
 10
20.2224994324
 20
12.5646126674
 30
0.0
 10
20.2637749172
 20
12.5457034126
 30
0.0
 10
20.3024461356
 20
12.523784198
 30
0.0
 10
20.3381417463
 20
12.4990614077
 30
0.0
 10
20.3705187097
 20
12.4717668476
 30
0.0
 10
20.3992614264
 20
12.4421602362
 30
0.0
 10
20.4200865991
 20
12.4156193899
 30
0.0
 10
20.4346102938
 20
12.3935320077
 30
0.0
 10
20.4443706164
 20
12.3766775737
 30
0.0
 10
20.4530395495
 20
12.3594753779
 30
0.0
 10
20.4605962562
 20
12.3419663576
 30
0.0
 10
20.4670221987
 20
12.3241929204
 30
0.0
 10
20.4723015923
 20
12.3061979465
 30
0.0
 10
20.4764213129
 20
12.2880251419
 30
0.0
 10
20.4793714093
 20
12.2697180122
 30
0.0
 10
20.481144204
 20
12.2513223235
 30
0.0
 10
20.4815387105
 20
12.23902318
 30
0.0
 10
20.4815387105
 20
12.2328808107
 30
0.0
  0
SPLINE
  5
4CE
100
AcDbEntity
  8
0
100
AcDbSpline
 62
7
  6
CONTINUOUS
 70
0
 71
3
 72
11
 73
7
 74
0
 42
0.0000001
 43
0.0000001
 44
0.0000000001
 40
0.0
 40
0.0
 40
0.0
 40
0.0
 40
0.2202413427
 40
0.4600830949
 40
0.7199657664
 40
1.0
 40
1.0
 40
1.0
 40
1.0
 10
20.185557833
 20
12.2466196617
 30
0.0
 10
20.1863229406
 20
12.2436672638
 30
0.0
 10
20.1876268437
 20
12.2374217881
 30
0.0
 10
20.188935282
 20
12.227531098
 30
0.0
 10
20.1896982596
 20
12.2167543699
 30
0.0
 10
20.1898501356
 20
12.2092760909
 30
0.0
 10
20.1898501356
 20
12.2053981476
 30
0.0
  0
SPLINE
  5
4CF
100
AcDbEntity
  8
0
100
AcDbSpline
 62
7
  6
CONTINUOUS
 70
0
 71
3
 72
11
 73
7
 74
0
 42
0.0000001
 43
0.0000001
 44
0.0000000001
 40
0.0
 40
0.0
 40
0.0
 40
0.0
 40
0.2144070461
 40
0.4529347679
 40
0.7150146712
 40
1.0
 40
1.0
 40
1.0
 40
1.0
 10
20.0769246345
 20
12.2736587829
 30
0.0
 10
20.0772663212
 20
12.270771006
 30
0.0
 10
20.0778420607
 20
12.2646530461
 30
0.0
 10
20.0784139552
 20
12.2549711127
 30
0.0
 10
20.0787476568
 20
12.2443205244
 30
0.0
 10
20.0788136351
 20
12.2369006052
 30
0.0
 10
20.0788136351
 20
12.2330354577
 30
0.0
  0
SPLINE
  5
4D0
100
AcDbEntity
  8
0
100
AcDbSpline
 62
7
  6
CONTINUOUS
 70
0
 71
3
 72
11
 73
7
 74
0
 42
0.0000001
 43
0.0000001
 44
0.0000000001
 40
0.0
 40
0.0
 40
0.0
 40
0.0
 40
0.2131356546
 40
0.4513889584
 40
0.7139500737
 40
1.0
 40
1.0
 40
1.0
 40
1.0
 10
19.9629263244
 20
12.2791529806
 30
0.0
 10
19.9628114318
 20
12.276277299
 30
0.0
 10
19.9626183949
 20
12.2701850071
 30
0.0
 10
19.9624270509
 20
12.2605462705
 30
0.0
 10
19.9623153803
 20
12.2499216827
 30
0.0
 10
19.96229333
 20
12.2425137431
 30
0.0
 10
19.96229333
 20
12.2386512041
 30
0.0
  0
SPLINE
  5
4D1
100
AcDbEntity
  8
0
100
AcDbSpline
 62
7
  6
CONTINUOUS
 70
0
 71
3
 72
11
 73
7
 74
0
 42
0.0000001
 43
0.0000001
 44
0.0000000001
 40
0.0
 40
0.0
 40
0.0
 40
0.0
 40
0.2168406928
 40
0.4559055475
 40
0.7170666347
 40
1.0
 40
1.0
 40
1.0
 40
1.0
 10
19.8507258357
 20
12.2627570342
 30
0.0
 10
19.850165907
 20
12.2598441451
 30
0.0
 10
19.849217621
 20
12.2536750445
 30
0.0
 10
19.8482717445
 20
12.2439082089
 30
0.0
 10
19.84772
 20
12.233206412
 30
0.0
 10
19.8476106197
 20
12.2257628435
 30
0.0
 10
19.8476106197
 20
12.2218925287
 30
0.0
  0
SPLINE
  5
4D2
100
AcDbEntity
  8
0
100
AcDbSpline
 62
7
  6
CONTINUOUS
 70
0
 71
3
 72
11
 73
7
 74
0
 42
0.0000001
 43
0.0000001
 44
0.0000000001
 40
0.0
 40
0.0
 40
0.0
 40
0.0
 40
0.2243645743
 40
0.465190113
 40
0.7235323159
 40
1.0
 40
1.0
 40
1.0
 40
1.0
 10
19.7473731379
 20
12.2255011614
 30
0.0
 10
19.7464192109
 20
12.2224936422
 30
0.0
 10
19.7447830781
 20
12.2161467456
 30
0.0
 10
19.7431288894
 20
12.2060968594
 30
0.0
 10
19.742164479
 20
12.1952235019
 30
0.0
 10
19.7419714408
 20
12.1877003306
 30
0.0
 10
19.7419714408
 20
12.1838124408
 30
0.0
  0
SPLINE
  5
4D3
100
AcDbEntity
  8
0
100
AcDbSpline
 62
9
  6
CONTINUOUS
 70
0
 71
3
 72
25
 73
21
 74
0
 42
0.0000001
 43
0.0000001
 44
0.0000000001
 40
0.0
 40
0.0
 40
0.0
 40
0.0
 40
0.0529140895
 40
0.1067211776
 40
0.1617538704
 40
0.2182543611
 40
0.2764043328
 40
0.3061575633
 40
0.3363710622
 40
0.3981313213
 40
0.4615858823
 40
0.526533609
 40
0.5927319184
 40
0.6262289851
 40
0.6599439584
 40
0.7278691585
 40
0.7961992221
 40
0.8645730204
 40
0.932622658
 40
1.0
 40
1.0
 40
1.0
 40
1.0
 10
20.2884260001
 20
12.1574758277
 30
0.0
 10
20.2881093101
 20
12.159607949
 30
0.0
 10
20.2871473391
 20
12.1638661736
 30
0.0
 10
20.2847979719
 20
12.1700432062
 30
0.0
 10
20.2815778837
 20
12.1759809313
 30
0.0
 10
20.2775309059
 20
12.1816057944
 30
0.0
 10
20.2735336333
 20
12.1859418184
 30
0.0
 10
20.2699757234
 20
12.1891843582
 30
0.0
 10
20.2661245528
 20
12.1923117425
 30
0.0
 10
20.2608885877
 20
12.1958941381
 30
0.0
 10
20.2540778855
 20
12.1996099302
 30
0.0
 10
20.2467797893
 20
12.2027338347
 30
0.0
 10
20.2403887147
 20
12.2048004076
 30
0.0
 10
20.2351151923
 20
12.2061203153
 30
0.0
 10
20.2297181948
 20
12.2072136286
 30
0.0
 10
20.2228459168
 20
12.208132964
 30
0.0
 10
20.2145100436
 20
12.2085305993
 30
0.0
 10
20.2061646526
 20
12.2082278004
 30
0.0
 10
20.1979135873
 20
12.2072268948
 30
0.0
 10
20.1925068816
 20
12.2060873623
 30
0.0
 10
20.1898501356
 20
12.2053981476
 30
0.0
  0
SPLINE
  5
4D4
100
AcDbEntity
  8
0
100
AcDbSpline
 62
9
  6
CONTINUOUS
 70
0
 71
3
 72
25
 73
21
 74
0
 42
0.0000001
 43
0.0000001
 44
0.0000000001
 40
0.0
 40
0.0
 40
0.0
 40
0.0
 40
0.0539155754
 40
0.1093670625
 40
0.1664775233
 40
0.2252796877
 40
0.2857513921
 40
0.3166090129
 40
0.3478601425
 40
0.4114218024
 40
0.4761978271
 40
0.541878444
 40
0.6081327041
 40
0.6413802223
 40
0.6746512397
 40
0.7410996813
 40
0.8071800857
 40
0.8725633769
 40
0.9369304783
 40
1.0
 40
1.0
 40
1.0
 40
1.0
 10
20.1898501356
 20
12.2053981476
 30
0.0
 10
20.188843889
 20
12.2074176655
 30
0.0
 10
20.1865147981
 20
12.2113761417
 30
0.0
 10
20.1822397159
 20
12.2168977676
 30
0.0
 10
20.1772017879
 20
12.2220239317
 30
0.0
 10
20.1714659946
 20
12.2266923983
 30
0.0
 10
20.166191419
 20
12.2301286191
 30
0.0
 10
20.16169025
 20
12.2325931807
 30
0.0
 10
20.1569542477
 20
12.2348844685
 30
0.0
 10
20.1507368837
 20
12.2373525128
 30
0.0
 10
20.1429400575
 20
12.2396555987
 30
0.0
 10
20.1348622216
 20
12.2412935719
 30
0.0
 10
20.1279853712
 20
12.2420827107
 30
0.0
 10
20.122434233
 20
12.2423579347
 30
0.0
 10
20.1168682111
 20
12.2423893596
 30
0.0
 10
20.1099326115
 20
12.2419752312
 30
0.0
 10
20.1017275326
 20
12.2407761126
 30
0.0
 10
20.0937397972
 20
12.2388963606
 30
0.0
 10
20.0860692368
 20
12.2363579495
 30
0.0
 10
20.0811748231
 20
12.2342149723
 30
0.0
 10
20.0788136351
 20
12.2330354577
 30
0.0
  0
SPLINE
  5
4D5
100
AcDbEntity
  8
0
100
AcDbSpline
 62
9
  6
CONTINUOUS
 70
0
 71
3
 72
23
 73
19
 74
0
 42
0.0000001
 43
0.0000001
 44
0.0000000001
 40
0.0
 40
0.0
 40
0.0
 40
0.0
 40
0.1152285872
 40
0.175447509
 40
0.2371708452
 40
0.3002147903
 40
0.3321800535
 40
0.364399822
 40
0.4294408495
 40
0.4950272463
 40
0.5608005323
 40
0.6263981752
 40
0.659030987
 40
0.6914959604
 40
0.755779274
 40
0.8190157704
 40
0.8809603464
 40
1.0
 40
1.0
 40
1.0
 40
1.0
 10
20.0788136351
 20
12.2330354577
 30
0.0
 10
20.0755004445
 20
12.2366212233
 30
0.0
 10
20.0697591987
 20
12.241468996
 30
0.0
 10
20.0611818687
 20
12.2467196937
 30
0.0
 10
20.0541186741
 20
12.2501477935
 30
0.0
 10
20.0478888144
 20
12.252475726
 30
0.0
 10
20.0427191409
 20
12.254008906
 30
0.0
 10
20.037402315
 20
12.2553230616
 30
0.0
 10
20.030599147
 20
12.2565287065
 30
0.0
 10
20.0223019489
 20
12.2572776978
 30
0.0
 10
20.0139476498
 20
12.2573292396
 30
0.0
 10
20.0070110375
 20
12.2567853858
 30
0.0
 10
20.0015290263
 20
12.2559928585
 30
0.0
 10
19.9961425845
 20
12.2549664948
 30
0.0
 10
19.9895748539
 20
12.2532518188
 30
0.0
 10
19.9820102247
 20
12.2505286261
 30
0.0
 10
19.9726327956
 20
12.2461364191
 30
0.0
 10
19.9661623675
 20
12.241886664
 30
0.0
 10
19.96229333
 20
12.2386512041
 30
0.0
  0
SPLINE
  5
4D6
100
AcDbEntity
  8
0
100
AcDbSpline
 62
9
  6
CONTINUOUS
 70
0
 71
3
 72
25
 73
21
 74
0
 42
0.0000001
 43
0.0000001
 44
0.0000000001
 40
0.0
 40
0.0
 40
0.0
 40
0.0
 40
0.0608611516
 40
0.123242725
 40
0.1869176106
 40
0.2516109595
 40
0.3170293632
 40
0.3499281517
 40
0.3829010785
 40
0.4488951866
 40
0.5146879923
 40
0.5799261178
 40
0.644268526
 40
0.6760161285
 40
0.7074328688
 40
0.7691773345
 40
0.829388951
 40
0.8879583526
 40
0.9448225854
 40
1.0
 40
1.0
 40
1.0
 40
1.0
 10
19.96229333
 20
12.2386512041
 30
0.0
 10
19.9601397082
 20
12.2400507389
 30
0.0
 10
19.9556234591
 20
12.2426518924
 30
0.0
 10
19.9484257377
 20
12.2459061614
 30
0.0
 10
19.9408060275
 20
12.2485369171
 30
0.0
 10
19.932859783
 20
12.2505128544
 30
0.0
 10
19.9260551631
 20
12.2515865089
 30
0.0
 10
19.9205357937
 20
12.2520886433
 30
0.0
 10
19.9149754069
 20
12.252348573
 30
0.0
 10
19.9080142897
 20
12.2522240364
 30
0.0
 10
19.8997334909
 20
12.2513727228
 30
0.0
 10
19.8916230914
 20
12.2498348016
 30
0.0
 10
19.8850607549
 20
12.2479843558
 30
0.0
 10
19.8799937605
 20
12.2461678846
 30
0.0
 10
19.8751208812
 20
12.2441529717
 30
0.0
 10
19.8693241529
 20
12.2412482456
 30
0.0
 10
19.8628746478
 20
12.2371693302
 30
0.0
 10
19.857042717
 20
12.2325707834
 30
0.0
 10
19.8519025763
 20
12.2275082029
 30
0.0
 10
19.8489418154
 20
12.2238030541
 30
0.0
 10
19.8476106197
 20
12.2218925287
 30
0.0
  0
SPLINE
  5
4D7
100
AcDbEntity
  8
0
100
AcDbSpline
 62
9
  6
CONTINUOUS
 70
0
 71
3
 72
25
 73
21
 74
0
 42
0.0000001
 43
0.0000001
 44
0.0000000001
 40
0.0
 40
0.0
 40
0.0
 40
0.0
 40
0.0652755557
 40
0.1315621227
 40
0.198537945
 40
0.2658528259
 40
0.3331549093
 40
0.3667053383
 40
0.4001337515
 40
0.4664648365
 40
0.5318674706
 40
0.5960472915
 40
0.6587407784
 40
0.6894745316
 40
0.7197700846
 40
0.7790239555
 40
0.8365639921
 40
0.8924664319
 40
0.9468680286
 40
1.0
 40
1.0
 40
1.0
 40
1.0
 10
19.8476106197
 20
12.2218925287
 30
0.0
 10
19.8450809507
 20
12.2228338541
 30
0.0
 10
19.8398884302
 20
12.2244868459
 30
0.0
 10
19.8318649267
 20
12.2262702864
 30
0.0
 10
19.8236340345
 20
12.2273700539
 30
0.0
 10
19.8152984035
 20
12.22777389
 30
0.0
 10
19.8083399515
 20
12.2275202493
 30
0.0
 10
19.8028147843
 20
12.2269542037
 30
0.0
 10
19.7973599182
 20
12.2261496434
 30
0.0
 10
19.7906742533
 20
12.2247098845
 30
0.0
 10
19.7829256838
 20
12.2223104875
 30
0.0
 10
19.7755643257
 20
12.2192777374
 30
0.0
 10
19.7697912224
 20
12.2162292161
 30
0.0
 10
19.7654625329
 20
12.2134984676
 30
0.0
 10
19.7614019882
 20
12.2106228052
 30
0.0
 10
19.7567301633
 20
12.2067073562
 30
0.0
 10
19.7517991032
 20
12.2015208286
 30
0.0
 10
19.7476360057
 20
12.1959457329
 30
0.0
 10
19.7442957443
 20
12.1900502701
 30
0.0
 10
19.742637262
 20
12.1859061174
 30
0.0
 10
19.7419714408
 20
12.1838124408
 30
0.0
  0
SPLINE
  5
4D8
100
AcDbEntity
  8
0
100
AcDbSpline
 62
9
  6
CONTINUOUS
 70
0
 71
3
 72
25
 73
21
 74
0
 42
0.0000001
 43
0.0000001
 44
0.0000000001
 40
0.0
 40
0.0
 40
0.0
 40
0.0
 40
0.0691948989
 40
0.1386835327
 40
0.2081112046
 40
0.2771117763
 40
0.345333856
 40
0.3790629623
 40
0.4124893205
 40
0.4783181343
 40
0.5426455805
 40
0.6052977688
 40
0.6661505942
 40
0.6958988417
 40
0.7251936548
 40
0.7824913919
 40
0.8383152903
 40
0.8929443077
 40
0.9467060216
 40
1.0
 40
1.0
 40
1.0
 40
1.0
 10
19.7419714408
 20
12.1838124408
 30
0.0
 10
19.7392491443
 20
12.184237048
 30
0.0
 10
19.7337523656
 20
12.1848456234
 30
0.0
 10
19.7254591839
 20
12.1850542229
 30
0.0
 10
19.7171846099
 20
12.1845703961
 30
0.0
 10
19.7090299698
 20
12.1834016569
 30
0.0
 10
19.7023905933
 20
12.1818569134
 30
0.0
 10
19.6972344065
 20
12.1802790561
 30
0.0
 10
19.6922472569
 20
12.1784945447
 30
0.0
 10
19.6862726224
 20
12.1758742474
 30
0.0
 10
19.6795577443
 20
12.1721278775
 30
0.0
 10
19.6734109884
 20
12.16784471
 30
0.0
 10
19.6687914857
 20
12.1638367271
 30
0.0
 10
19.6654680396
 20
12.160405928
 30
0.0
 10
19.6624492527
 20
12.1568890007
 30
0.0
 10
19.6591586862
 20
12.1522507405
 30
0.0
 10
19.656011708
 20
12.1463381209
 30
0.0
 10
19.6537238083
 20
12.1401909926
 30
0.0
 10
19.6523258984
 20
12.1338859446
 30
0.0
 10
19.6520079138
 20
12.1296169712
 30
0.0
 10
19.6520079138
 20
12.1274949047
 30
0.0
  0
SPLINE
  5
4D9
100
AcDbEntity
  8
0
100
AcDbSpline
 62
9
  6
CONTINUOUS
 70
0
 71
3
 72
22
 73
18
 74
0
 42
0.0000001
 43
0.0000001
 44
0.0000000001
 40
0.0
 40
0.0
 40
0.0
 40
0.0
 40
0.1408135388
 40
0.2104316448
 40
0.2791710777
 40
0.3468044256
 40
0.413134081
 40
0.4780155574
 40
0.541392423
 40
0.6634206853
 40
0.7222452958
 40
0.7796652788
 40
0.8079099815
 40
0.8358764277
 40
0.8911099278
 40
0.9457123894
 40
1.0
 40
1.0
 40
1.0
 40
1.0
 10
19.6520134912
 20
12.1268036524
 30
0.0
 10
19.6472927492
 20
12.1266210057
 30
0.0
 10
19.6402437633
 20
12.125821911
 30
0.0
 10
19.6311051998
 20
12.1237438336
 30
0.0
 10
19.6244929278
 20
12.1217093897
 30
0.0
 10
19.6181606275
 20
12.1192103108
 30
0.0
 10
19.6121669095
 20
12.1162636852
 30
0.0
 10
19.6065720997
 20
12.112881222
 30
0.0
 10
19.5997980455
 20
12.1079064667
 30
0.0
 10
19.5938707738
 20
12.1021606144
 30
0.0
 10
19.5890420273
 20
12.0957751691
 30
0.0
 10
19.5865443419
 20
12.0916072761
 30
0.0
 10
19.584874368
 20
12.0881780386
 30
0.0
 10
19.5834391937
 20
12.0847234741
 30
0.0
 10
19.5820505329
 20
12.0803008441
 30
0.0
 10
19.5810451932
 20
12.0748742626
 30
0.0
 10
19.5808209769
 20
12.0712170691
 30
0.0
 10
19.5808209711
 20
12.0693957276
 30
0.0
  0
SPLINE
  5
4DA
100
AcDbEntity
  8
0
100
AcDbSpline
 62
9
  6
CONTINUOUS
 70
0
 71
3
 72
21
 73
17
 74
0
 42
0.0000001
 43
0.0000001
 44
0.0000000001
 40
0.0
 40
0.0
 40
0.0
 40
0.0
 40
0.1406056767
 40
0.2772267059
 40
0.3438151201
 40
0.4091197377
 40
0.4730917797
 40
0.5357254344
 40
0.5970810687
 40
0.6572441715
 40
0.7163096248
 40
0.774388232
 40
0.8316137293
 40
0.8881498994
 40
0.9441974094
 40
1.0
 40
1.0
 40
1.0
 40
1.0
 10
19.5807892486
 20
12.0537870419
 30
0.0
 10
19.5772069968
 20
12.0528187421
 30
0.0
 10
19.5702547185
 20
12.0504688483
 30
0.0
 10
19.5620753835
 20
12.046476493
 30
0.0
 10
19.5560557559
 20
12.0427274678
 30
0.0
 10
19.5518701215
 20
12.0396861194
 30
0.0
 10
19.5480037126
 20
12.0364066847
 30
0.0
 10
19.5444856221
 20
12.0329016025
 30
0.0
 10
19.5413340132
 20
12.0291944839
 30
0.0
 10
19.5385613033
 20
12.0253109737
 30
0.0
 10
19.536180502
 20
12.0212753994
 30
0.0
 10
19.5342044732
 20
12.0171122552
 30
0.0
 10
19.5326462766
 20
12.0128460149
 30
0.0
 10
19.5315190871
 20
12.008501038
 30
0.0
 10
19.5308362989
 20
12.0041023893
 30
0.0
 10
19.530686166
 20
12.0011481505
 30
0.0
 10
19.530686166
 20
11.9996754292
 30
0.0
  0
SPLINE
  5
4DB
100
AcDbEntity
  8
0
100
AcDbSpline
 62
9
  6
CONTINUOUS
 70
0
 71
3
 72
14
 73
10
 74
0
 42
0.0000001
 43
0.0000001
 44
0.0000000001
 40
0.0
 40
0.0
 40
0.0
 40
0.0
 40
0.2688746544
 40
0.3978255455
 40
0.5231540111
 40
0.6452999508
 40
0.764978201
 40
0.8829478994
 40
1.0
 40
1.0
 40
1.0
 40
1.0
 10
19.5306192669
 20
11.9657590192
 30
0.0
 10
19.5266982375
 20
11.9631395968
 30
0.0
 10
19.5212417287
 20
11.9586838297
 30
0.0
 10
19.5151886274
 20
11.9517686599
 30
0.0
 10
19.5114468138
 20
11.9463081956
 30
0.0
 10
19.5085102177
 20
11.9405573905
 30
0.0
 10
19.5063965901
 20
11.9345919167
 30
0.0
 10
19.5051181167
 20
11.9284855588
 30
0.0
 10
19.5048306116
 20
11.9243583069
 30
0.0
 10
19.5048305551
 20
11.9223054619
 30
0.0
  0
SPLINE
  5
4DC
100
AcDbEntity
  8
0
100
AcDbSpline
 62
9
  6
CONTINUOUS
 70
0
 71
3
 72
25
 73
21
 74
0
 42
0.0000001
 43
0.0000001
 44
0.0000000001
 40
0.0
 40
0.0
 40
0.0
 40
0.0
 40
0.0529140895
 40
0.1067211776
 40
0.1617538704
 40
0.2182543611
 40
0.2764043328
 40
0.3061575633
 40
0.3363710622
 40
0.3981313213
 40
0.4615858823
 40
0.526533609
 40
0.5927319184
 40
0.6262289851
 40
0.6599439584
 40
0.7278691585
 40
0.7961992221
 40
0.8645730204
 40
0.932622658
 40
1.0
 40
1.0
 40
1.0
 40
1.0
 10
20.2884260001
 20
10.0362767157
 30
0.0
 10
20.2881093101
 20
10.038408837
 30
0.0
 10
20.2871473391
 20
10.0426670616
 30
0.0
 10
20.2847979719
 20
10.0488440942
 30
0.0
 10
20.2815778837
 20
10.0547818193
 30
0.0
 10
20.2775309059
 20
10.0604066824
 30
0.0
 10
20.2735336333
 20
10.0647427064
 30
0.0
 10
20.2699757234
 20
10.0679852463
 30
0.0
 10
20.2661245528
 20
10.0711126305
 30
0.0
 10
20.2608885877
 20
10.0746950261
 30
0.0
 10
20.2540778855
 20
10.0784108182
 30
0.0
 10
20.2467797893
 20
10.0815347227
 30
0.0
 10
20.2403887147
 20
10.0836012957
 30
0.0
 10
20.2351151923
 20
10.0849212033
 30
0.0
 10
20.2297181948
 20
10.0860145167
 30
0.0
 10
20.2228459168
 20
10.0869338521
 30
0.0
 10
20.2145100436
 20
10.0873314873
 30
0.0
 10
20.2061646526
 20
10.0870286885
 30
0.0
 10
20.1979135873
 20
10.0860277828
 30
0.0
 10
20.1925068816
 20
10.0848882503
 30
0.0
 10
20.1898501356
 20
10.0841990357
 30
0.0
  0
SPLINE
  5
4DD
100
AcDbEntity
  8
0
100
AcDbSpline
 62
7
  6
CONTINUOUS
 70
0
 71
3
 72
10
 73
6
 74
0
 42
0.0000001
 43
0.0000001
 44
0.0000000001
 40
0.0
 40
0.0
 40
0.0
 40
0.0
 40
0.4763976906
 40
0.7319771036
 40
1.0
 40
1.0
 40
1.0
 40
1.0
 10
20.2884260001
 20
10.0362767157
 30
0.0
 10
20.2884260001
 20
10.0298504594
 30
0.0
 10
20.2879204717
 20
10.0199715263
 30
0.0
 10
20.2863976408
 20
10.0065669278
 30
0.0
 10
20.2853247007
 20
9.9995835141
 30
0.0
 10
20.2847122204
 20
9.9960203382
 30
0.0
  0
SPLINE
  5
4DE
100
AcDbEntity
  8
0
100
AcDbSpline
 62
9
  6
CONTINUOUS
 70
0
 71
3
 72
25
 73
21
 74
0
 42
0.0000001
 43
0.0000001
 44
0.0000000001
 40
0.0
 40
0.0
 40
0.0
 40
0.0
 40
0.0539155754
 40
0.1093670625
 40
0.1664775233
 40
0.2252796877
 40
0.2857513921
 40
0.3166090129
 40
0.3478601425
 40
0.4114218024
 40
0.4761978271
 40
0.541878444
 40
0.6081327041
 40
0.6413802223
 40
0.6746512397
 40
0.7410996813
 40
0.8071800857
 40
0.8725633769
 40
0.9369304783
 40
1.0
 40
1.0
 40
1.0
 40
1.0
 10
20.1898501356
 20
10.0841990357
 30
0.0
 10
20.188843889
 20
10.0862185535
 30
0.0
 10
20.1865147981
 20
10.0901770297
 30
0.0
 10
20.1822397159
 20
10.0956986557
 30
0.0
 10
20.1772017879
 20
10.1008248198
 30
0.0
 10
20.1714659946
 20
10.1054932864
 30
0.0
 10
20.166191419
 20
10.1089295071
 30
0.0
 10
20.16169025
 20
10.1113940687
 30
0.0
 10
20.1569542477
 20
10.1136853565
 30
0.0
 10
20.1507368837
 20
10.1161534008
 30
0.0
 10
20.1429400575
 20
10.1184564867
 30
0.0
 10
20.1348622216
 20
10.1200944599
 30
0.0
 10
20.1279853712
 20
10.1208835987
 30
0.0
 10
20.122434233
 20
10.1211588227
 30
0.0
 10
20.1168682111
 20
10.1211902476
 30
0.0
 10
20.1099326115
 20
10.1207761192
 30
0.0
 10
20.1017275326
 20
10.1195770007
 30
0.0
 10
20.0937397972
 20
10.1176972486
 30
0.0
 10
20.0860692368
 20
10.1151588376
 30
0.0
 10
20.0811748231
 20
10.1130158603
 30
0.0
 10
20.0788136351
 20
10.1118363458
 30
0.0
  0
SPLINE
  5
4DF
100
AcDbEntity
  8
0
100
AcDbSpline
 62
7
  6
CONTINUOUS
 70
0
 71
3
 72
11
 73
7
 74
0
 42
0.0000001
 43
0.0000001
 44
0.0000000001
 40
0.0
 40
0.0
 40
0.0
 40
0.0
 40
0.228154497
 40
0.4704862156
 40
0.7275814205
 40
1.0
 40
1.0
 40
1.0
 40
1.0
 10
20.1898501356
 20
10.0841990357
 30
0.0
 10
20.1898501356
 20
10.0805671187
 30
0.0
 10
20.1897051905
 20
10.0730770909
 30
0.0
 10
20.1890871082
 20
10.0615095598
 30
0.0
 10
20.1880526915
 20
10.0492646693
 30
0.0
 10
20.1871072544
 20
10.0408875206
 30
0.0
 10
20.1865673341
 20
10.0365847207
 30
0.0
  0
SPLINE
  5
4E0
100
AcDbEntity
  8
0
100
AcDbSpline
 62
9
  6
CONTINUOUS
 70
0
 71
3
 72
23
 73
19
 74
0
 42
0.0000001
 43
0.0000001
 44
0.0000000001
 40
0.0
 40
0.0
 40
0.0
 40
0.0
 40
0.1152285872
 40
0.175447509
 40
0.2371708452
 40
0.3002147903
 40
0.3321800535
 40
0.364399822
 40
0.4294408495
 40
0.4950272463
 40
0.5608005323
 40
0.6263981752
 40
0.659030987
 40
0.6914959604
 40
0.755779274
 40
0.8190157704
 40
0.8809603464
 40
1.0
 40
1.0
 40
1.0
 40
1.0
 10
20.0788136351
 20
10.1118363458
 30
0.0
 10
20.0755004445
 20
10.1154221113
 30
0.0
 10
20.0697591987
 20
10.120269884
 30
0.0
 10
20.0611818687
 20
10.1255205817
 30
0.0
 10
20.0541186741
 20
10.1289486815
 30
0.0
 10
20.0478888144
 20
10.131276614
 30
0.0
 10
20.0427191409
 20
10.132809794
 30
0.0
 10
20.037402315
 20
10.1341239497
 30
0.0
 10
20.030599147
 20
10.1353295945
 30
0.0
 10
20.0223019489
 20
10.1360785858
 30
0.0
 10
20.0139476498
 20
10.1361301276
 30
0.0
 10
20.0070110375
 20
10.1355862738
 30
0.0
 10
20.0015290263
 20
10.1347937466
 30
0.0
 10
19.9961425845
 20
10.1337673829
 30
0.0
 10
19.9895748539
 20
10.1320527068
 30
0.0
 10
19.9820102247
 20
10.1293295142
 30
0.0
 10
19.9726327956
 20
10.1249373071
 30
0.0
 10
19.9661623675
 20
10.120687552
 30
0.0
 10
19.96229333
 20
10.1174520921
 30
0.0
  0
SPLINE
  5
4E1
100
AcDbEntity
  8
0
100
AcDbSpline
 62
7
  6
CONTINUOUS
 70
0
 71
3
 72
11
 73
7
 74
0
 42
0.0000001
 43
0.0000001
 44
0.0000000001
 40
0.0
 40
0.0
 40
0.0
 40
0.0
 40
0.2258346243
 40
0.4674873486
 40
0.725397935
 40
1.0
 40
1.0
 40
1.0
 40
1.0
 10
20.0788136351
 20
10.1118363458
 30
0.0
 10
20.0788136351
 20
10.1079718153
 30
0.0
 10
20.0787412479
 20
10.0999719615
 30
0.0
 10
20.0784352217
 20
10.0875621486
 30
0.0
 10
20.0779231809
 20
10.0743239794
 30
0.0
 10
20.0774560665
 20
10.0652232354
 30
0.0
 10
20.0771892136
 20
10.0605317693
 30
0.0
  0
SPLINE
  5
4E2
100
AcDbEntity
  8
0
100
AcDbSpline
 62
9
  6
CONTINUOUS
 70
0
 71
3
 72
25
 73
21
 74
0
 42
0.0000001
 43
0.0000001
 44
0.0000000001
 40
0.0
 40
0.0
 40
0.0
 40
0.0
 40
0.0608611516
 40
0.123242725
 40
0.1869176106
 40
0.2516109595
 40
0.3170293632
 40
0.3499281517
 40
0.3829010785
 40
0.4488951866
 40
0.5146879923
 40
0.5799261178
 40
0.644268526
 40
0.6760161285
 40
0.7074328688
 40
0.7691773345
 40
0.829388951
 40
0.8879583526
 40
0.9448225854
 40
1.0
 40
1.0
 40
1.0
 40
1.0
 10
19.96229333
 20
10.1174520921
 30
0.0
 10
19.9601397082
 20
10.1188516269
 30
0.0
 10
19.9556234591
 20
10.1214527804
 30
0.0
 10
19.9484257377
 20
10.1247070494
 30
0.0
 10
19.9408060275
 20
10.1273378051
 30
0.0
 10
19.932859783
 20
10.1293137424
 30
0.0
 10
19.9260551631
 20
10.1303873969
 30
0.0
 10
19.9205357937
 20
10.1308895314
 30
0.0
 10
19.9149754069
 20
10.1311494611
 30
0.0
 10
19.9080142897
 20
10.1310249244
 30
0.0
 10
19.8997334909
 20
10.1301736109
 30
0.0
 10
19.8916230914
 20
10.1286356897
 30
0.0
 10
19.8850607549
 20
10.1267852438
 30
0.0
 10
19.8799937605
 20
10.1249687726
 30
0.0
 10
19.8751208812
 20
10.1229538598
 30
0.0
 10
19.8693241529
 20
10.1200491336
 30
0.0
 10
19.8628746478
 20
10.1159702183
 30
0.0
 10
19.857042717
 20
10.1113716715
 30
0.0
 10
19.8519025763
 20
10.106309091
 30
0.0
 10
19.8489418154
 20
10.1026039421
 30
0.0
 10
19.8476106197
 20
10.1006934167
 30
0.0
  0
SPLINE
  5
4E3
100
AcDbEntity
  8
0
100
AcDbSpline
 62
9
  6
CONTINUOUS
 70
0
 71
3
 72
25
 73
21
 74
0
 42
0.0000001
 43
0.0000001
 44
0.0000000001
 40
0.0
 40
0.0
 40
0.0
 40
0.0
 40
0.0652755557
 40
0.1315621227
 40
0.198537945
 40
0.2658528259
 40
0.3331549093
 40
0.3667053383
 40
0.4001337515
 40
0.4664648365
 40
0.5318674706
 40
0.5960472915
 40
0.6587407784
 40
0.6894745316
 40
0.7197700846
 40
0.7790239555
 40
0.8365639921
 40
0.8924664319
 40
0.9468680286
 40
1.0
 40
1.0
 40
1.0
 40
1.0
 10
19.8476106197
 20
10.1006934167
 30
0.0
 10
19.8450809507
 20
10.1016347422
 30
0.0
 10
19.8398884302
 20
10.1032877339
 30
0.0
 10
19.8318649267
 20
10.1050711745
 30
0.0
 10
19.8236340345
 20
10.106170942
 30
0.0
 10
19.8152984035
 20
10.106574778
 30
0.0
 10
19.8083399515
 20
10.1063211373
 30
0.0
 10
19.8028147843
 20
10.1057550918
 30
0.0
 10
19.7973599182
 20
10.1049505315
 30
0.0
 10
19.7906742533
 20
10.1035107725
 30
0.0
 10
19.7829256838
 20
10.1011113755
 30
0.0
 10
19.7755643257
 20
10.0980786254
 30
0.0
 10
19.7697912224
 20
10.0950301042
 30
0.0
 10
19.7654625329
 20
10.0922993556
 30
0.0
 10
19.7614019882
 20
10.0894236932
 30
0.0
 10
19.7567301633
 20
10.0855082442
 30
0.0
 10
19.7517991032
 20
10.0803217166
 30
0.0
 10
19.7476360057
 20
10.074746621
 30
0.0
 10
19.7442957443
 20
10.0688511581
 30
0.0
 10
19.742637262
 20
10.0647070055
 30
0.0
 10
19.7419714408
 20
10.0626133288
 30
0.0
  0
SPLINE
  5
4E4
100
AcDbEntity
  8
0
100
AcDbSpline
 62
7
  6
CONTINUOUS
 70
0
 71
3
 72
11
 73
7
 74
0
 42
0.0000001
 43
0.0000001
 44
0.0000000001
 40
0.0
 40
0.0
 40
0.0
 40
0.0
 40
0.2267816782
 40
0.4687090978
 40
0.7262858524
 40
1.0
 40
1.0
 40
1.0
 40
1.0
 10
19.8476106197
 20
10.1006934167
 30
0.0
 10
19.8476106197
 20
10.0969254546
 30
0.0
 10
19.8477240012
 20
10.0891375977
 30
0.0
 10
19.8482050458
 20
10.0770789147
 30
0.0
 10
19.8490099989
 20
10.0642561928
 30
0.0
 10
19.8497448756
 20
10.0554588114
 30
0.0
 10
19.8501646312
 20
10.0509304826
 30
0.0
  0
SPLINE
  5
4E5
100
AcDbEntity
  8
0
100
AcDbSpline
 62
9
  6
CONTINUOUS
 70
0
 71
3
 72
25
 73
21
 74
0
 42
0.0000001
 43
0.0000001
 44
0.0000000001
 40
0.0
 40
0.0
 40
0.0
 40
0.0
 40
0.0691948894
 40
0.1386835138
 40
0.208111177
 40
0.2771117413
 40
0.3453338158
 40
0.3790629203
 40
0.4124892772
 40
0.4783180905
 40
0.5426455388
 40
0.6052977322
 40
0.6661505652
 40
0.6958988171
 40
0.7251936349
 40
0.7824913809
 40
0.838315287
 40
0.8929443098
 40
0.9467060254
 40
1.0
 40
1.0
 40
1.0
 40
1.0
 10
19.7419714408
 20
10.0626133288
 30
0.0
 10
19.7392491467
 20
10.0630379356
 30
0.0
 10
19.7337523731
 20
10.0636465107
 30
0.0
 10
19.7254591988
 20
10.0638551109
 30
0.0
 10
19.7171846321
 20
10.0633712862
 30
0.0
 10
19.7090299989
 20
10.0622025501
 30
0.0
 10
19.7023906275
 20
10.0606578103
 30
0.0
 10
19.6972344442
 20
10.0590799566
 30
0.0
 10
19.6922472977
 20
10.0572954491
 30
0.0
 10
19.6862726664
 20
10.054675157
 30
0.0
 10
19.6795577908
 20
10.0509287943
 30
0.0
 10
19.6734110357
 20
10.0466456345
 30
0.0
 10
19.6687915324
 20
10.0426376586
 30
0.0
 10
19.6654680847
 20
10.0392068653
 30
0.0
 10
19.6624492954
 20
10.0356899438
 30
0.0
 10
19.659158725
 20
10.0310516908
 30
0.0
 10
19.6560117401
 20
10.0251390795
 30
0.0
 10
19.6537238318
 20
10.0189919592
 30
0.0
 10
19.6523259115
 20
10.0126869186
 30
0.0
 10
19.6520079184
 20
10.0084179492
 30
0.0
 10
19.6520079138
 20
10.0062958845
 30
0.0
  0
SPLINE
  5
4E6
100
AcDbEntity
  8
0
100
AcDbSpline
 62
7
  6
CONTINUOUS
 70
0
 71
3
 72
11
 73
7
 74
0
 42
0.0000001
 43
0.0000001
 44
0.0000000001
 40
0.0
 40
0.0
 40
0.0
 40
0.0
 40
0.23005725
 40
0.4729720794
 40
0.7294096359
 40
1.0
 40
1.0
 40
1.0
 40
1.0
 10
19.7419714408
 20
10.0626133288
 30
0.0
 10
19.7419714408
 20
10.0591769718
 30
0.0
 10
19.7421344
 20
10.0521114782
 30
0.0
 10
19.742833936
 20
10.0412361332
 30
0.0
 10
19.7440048831
 20
10.0297928211
 30
0.0
 10
19.7450769103
 20
10.0219922691
 30
0.0
 10
19.7456889981
 20
10.0179970863
 30
0.0
  0
LINE
  5
4E7
100
AcDbEntity
  8
0
100
AcDbLine
 62
9
  6
CONTINUOUS
 10
19.6520134912
 20
10.0056045404
 11
19.6518223101
 21
10.0055969506
  0
SPLINE
  5
4E8
100
AcDbEntity
  8
0
100
AcDbSpline
 62
9
  6
CONTINUOUS
 70
0
 71
3
 72
22
 73
18
 74
0
 42
0.0000001
 43
0.0000001
 44
0.0000000001
 40
0.0
 40
0.0
 40
0.0
 40
0.0
 40
0.1408249049
 40
0.2104411131
 40
0.2791747864
 40
0.3467996732
 40
0.4131195291
 40
0.4779916302
 40
0.5413608988
 40
0.6633807612
 40
0.7222049754
 40
0.7796276639
 40
0.8078749051
 40
0.8358447181
 40
0.8910871612
 40
0.9457005286
 40
1.0
 40
1.0
 40
1.0
 40
1.0
 10
19.6518223101
 20
10.0055969506
 30
0.0
 10
19.6471105563
 20
10.0054051435
 30
0.0
 10
19.6400762859
 20
10.0045946014
 30
0.0
 10
19.6309585126
 20
10.0025051411
 30
0.0
 10
19.6243626108
 20
10.0004642223
 30
0.0
 10
19.6180469418
 20
9.9979605661
 30
0.0
 10
19.6120698234
 20
9.995011142
 30
0.0
 10
19.6064912557
 20
9.9916276705
 30
0.0
 10
19.5997372189
 20
9.9866541894
 30
0.0
 10
19.5938282385
 20
9.9809130579
 30
0.0
 10
19.5890149452
 20
9.9745353389
 30
0.0
 10
19.58652542
 20
9.9703731888
 30
0.0
 10
19.5848609962
 20
9.9669490154
 30
0.0
 10
19.583430583
 20
9.9634996569
 30
0.0
 10
19.5820465302
 20
9.9590840606
 30
0.0
 10
19.5810445133
 20
9.9536665149
 30
0.0
 10
19.5808210036
 20
9.9500155406
 30
0.0
 10
19.5808209711
 20
9.948197271
 30
0.0
  0
SPLINE
  5
4E9
100
AcDbEntity
  8
0
100
AcDbSpline
 62
9
  6
CONTINUOUS
 70
0
 71
3
 72
21
 73
17
 74
0
 42
0.0000001
 43
0.0000001
 44
0.0000000001
 40
0.0
 40
0.0
 40
0.0
 40
0.0
 40
0.1406626954
 40
0.277366657
 40
0.3439993903
 40
0.4093451431
 40
0.4733512477
 40
0.5360071912
 40
0.5973699512
 40
0.6575258497
 40
0.716570611
 40
0.7746159141
 40
0.8317966293
 40
0.8882781731
 40
0.9442635926
 40
1.0
 40
1.0
 40
1.0
 40
1.0
 10
19.5815450035
 20
9.9327886773
 30
0.0
 10
19.577917538
 20
9.931842059
 30
0.0
 10
19.5708735692
 20
9.9295253316
 30
0.0
 10
19.5625792215
 20
9.92555258
 30
0.0
 10
19.5564702179
 20
9.9218064598
 30
0.0
 10
19.55222034
 20
9.9187613905
 30
0.0
 10
19.548292736
 20
9.9154728604
 30
0.0
 10
19.5447173169
 20
9.9119535312
 30
0.0
 10
19.5415139161
 20
9.9082266328
 30
0.0
 10
19.5386951772
 20
9.9043187886
 30
0.0
 10
19.536274497
 20
9.9002549072
 30
0.0
 10
19.5342650611
 20
9.8960601363
 30
0.0
 10
19.5326802714
 20
9.8917595813
 30
0.0
 10
19.5315336577
 20
9.8873782338
 30
0.0
 10
19.5308389416
 20
9.8829418117
 30
0.0
 10
19.530686166
 20
9.8799618053
 30
0.0
 10
19.530686166
 20
9.8784763173
 30
0.0
  0
SPLINE
  5
4EA
100
AcDbEntity
  8
0
100
AcDbSpline
 62
9
  6
CONTINUOUS
 70
0
 71
3
 72
16
 73
12
 74
0
 42
0.0000001
 43
0.0000001
 44
0.0000000001
 40
0.0
 40
0.0
 40
0.0
 40
0.0
 40
0.1353314516
 40
0.2671433363
 40
0.3954918871
 40
0.4584557139
 40
0.5206574769
 40
0.643014783
 40
0.7632527482
 40
0.8820213941
 40
1.0
 40
1.0
 40
1.0
 40
1.0
 10
19.5268518622
 20
9.841864576
 30
0.0
 10
19.5251323906
 20
9.8405477812
 30
0.0
 10
19.5218560532
 20
9.8377892087
 30
0.0
 10
19.5174319499
 20
9.8332489907
 30
0.0
 10
19.5142233441
 20
9.8291793818
 30
0.0
 10
19.5119893432
 20
9.8257903326
 30
0.0
 10
19.5100053817
 20
9.8223595214
 30
0.0
 10
19.5079434144
 20
9.8179249573
 30
0.0
 10
19.5061546108
 20
9.8124103803
 30
0.0
 10
19.5050733678
 20
9.80678621
 30
0.0
 10
19.504830555
 20
9.8029931886
 30
0.0
 10
19.504830555
 20
9.8011051297
 30
0.0
  0
SPLINE
  5
4EB
100
AcDbEntity
  8
0
100
AcDbSpline
 62
7
  6
CONTINUOUS
 70
0
 71
3
 72
9
 73
5
 74
0
 42
0.0000001
 43
0.0000001
 44
0.0000000001
 40
0.0
 40
0.0
 40
0.0
 40
0.0
 40
0.4820532601
 40
1.0
 40
1.0
 40
1.0
 40
1.0
 10
19.6520349958
 20
10.0029362117
 30
0.0
 10
19.6521192739
 20
9.9976823336
 30
0.0
 10
19.6528024937
 20
9.9867879258
 30
0.0
 10
19.6543647076
 20
9.975988497
 30
0.0
 10
19.6553663015
 20
9.9704322453
 30
0.0
  0
SPLINE
  5
4EC
100
AcDbEntity
  8
0
100
AcDbSpline
 62
9
  6
CONTINUOUS
 70
0
 71
3
 72
22
 73
18
 74
0
 42
0.0000001
 43
0.0000001
 44
0.0000000001
 40
0.0
 40
0.0
 40
0.0
 40
0.0
 40
0.0537563232
 40
0.1079022652
 40
0.1627805975
 40
0.2187097244
 40
0.2471778835
 40
0.2760209016
 40
0.3348913994
 40
0.3954360554
 40
0.4576527298
 40
0.5214802377
 40
0.5868245936
 40
0.7214284729
 40
0.7903796317
 40
0.860012936
 40
1.0
 40
1.0
 40
1.0
 40
1.0
 10
20.3690481121
 20
9.9788876067
 30
0.0
 10
20.3690480736
 20
9.9808609908
 30
0.0
 10
20.3687809885
 20
9.984826937
 30
0.0
 10
20.3675950586
 20
9.9907002336
 30
0.0
 10
20.3656377869
 20
9.9964478369
 30
0.0
 10
20.3633875502
 20
10.0010546717
 30
0.0
 10
20.3612269884
 20
10.0046086717
 30
0.0
 10
20.35879311
 20
10.0081138547
 30
0.0
 10
20.3553005021
 20
10.0123042535
 30
0.0
 10
20.3504962669
 20
10.0169446548
 30
0.0
 10
20.3451058459
 20
10.0211887652
 30
0.0
 10
20.3391850467
 20
10.0249910585
 30
0.0
 10
20.3305787441
 20
10.0294538121
 30
0.0
 10
20.3212203535
 20
10.0327737737
 30
0.0
 10
20.3114251366
 20
10.0349609216
 30
0.0
 10
20.301291861
 20
10.036394092
 30
0.0
 10
20.2935563601
 20
10.0365728166
 30
0.0
 10
20.2884260001
 20
10.0362767157
 30
0.0
  0
SPLINE
  5
4ED
100
AcDbEntity
  8
0
100
AcDbSpline
 62
9
  6
CONTINUOUS
 70
0
 71
3
 72
33
 73
29
 74
0
 42
0.0000001
 43
0.0000001
 44
0.0000000001
 40
0.0
 40
0.0
 40
0.0
 40
0.0
 40
0.0793441544
 40
0.1183177407
 40
0.1568037147
 40
0.1947831893
 40
0.2322373891
 40
0.3055446302
 40
0.3413982887
 40
0.3766990107
 40
0.4114234677
 40
0.4455584598
 40
0.4791094209
 40
0.5120842947
 40
0.5444729304
 40
0.5762509959
 40
0.6378887382
 40
0.6677263615
 40
0.6968988418
 40
0.7532601932
 40
0.807048734
 40
0.8330241978
 40
0.8584121171
 40
0.8832348739
 40
0.9075207919
 40
0.9313069728
 40
0.954634191
 40
1.0
 40
1.0
 40
1.0
 40
1.0
 10
20.7118127326
 20
7.7759707918
 30
0.0
 10
20.7190621075
 20
7.7741928143
 30
0.0
 10
20.7298408766
 20
7.7714098499
 30
0.0
 10
20.7440474355
 20
7.7674374479
 30
0.0
 10
20.7544659711
 20
7.7643719825
 30
0.0
 10
20.7647066371
 20
7.7612117188
 30
0.0
 10
20.7780236044
 20
7.7569153526
 30
0.0
 10
20.7910641497
 20
7.7524152192
 30
0.0
 10
20.8037976302
 20
7.7476651363
 30
0.0
 10
20.813073178
 20
7.7440342591
 30
0.0
 10
20.8221414271
 20
7.7403207346
 30
0.0
 10
20.83099852
 20
7.7365289812
 30
0.0
 10
20.8396372428
 20
7.7326487984
 30
0.0
 10
20.8480497384
 20
7.7286701538
 30
0.0
 10
20.8562313732
 20
7.7245976956
 30
0.0
 10
20.8667207769
 20
7.7191158413
 30
0.0
 10
20.8768396713
 20
7.7134470703
 30
0.0
 10
20.8865687129
 20
7.7076007623
 30
0.0
 10
20.8957548215
 20
7.70181912
 30
0.0
 10
20.9066199949
 20
7.6944805822
 30
0.0
 10
20.9168729065
 20
7.6867970322
 30
0.0
 10
20.9245271405
 20
7.6805287695
 30
0.0
 10
20.9299329946
 20
7.6758211588
 30
0.0
 10
20.9350679672
 20
7.6710498823
 30
0.0
 10
20.9399291264
 20
7.6662111154
 30
0.0
 10
20.9445129132
 20
7.6612989534
 30
0.0
 10
20.9501937216
 20
7.6547080051
 30
0.0
 10
20.9541112292
 20
7.649555585
 30
0.0
 10
20.9565387101
 20
7.6460454599
 30
0.0
  0
SPLINE
  5
4EE
100
AcDbEntity
  8
0
100
AcDbSpline
 62
9
  6
CONTINUOUS
 70
0
 71
3
 72
19
 73
15
 74
0
 42
0.0000001
 43
0.0000001
 44
0.0000000001
 40
0.0
 40
0.0
 40
0.0
 40
0.0
 40
0.1256183487
 40
0.2515899815
 40
0.3146262932
 40
0.3775815302
 40
0.4403752666
 40
0.5030294047
 40
0.5655902813
 40
0.628105267
 40
0.6905977872
 40
0.7529857344
 40
0.8770822004
 40
1.0
 40
1.0
 40
1.0
 40
1.0
 10
20.7118127326
 20
7.7759707918
 30
0.0
 10
20.7117247483
 20
7.8029950224
 30
0.0
 10
20.7095489888
 20
7.8571321254
 30
0.0
 10
20.7018824093
 20
7.9244459942
 30
0.0
 10
20.6927842977
 20
7.9778925957
 30
0.0
 10
20.6845060899
 20
8.0176631357
 30
0.0
 10
20.6747959187
 20
8.0570233597
 30
0.0
 10
20.6636781738
 20
8.0959211158
 30
0.0
 10
20.6511732783
 20
8.1343323382
 30
0.0
 10
20.6372767189
 20
8.1722254168
 30
0.0
 10
20.6219968478
 20
8.2095424318
 30
0.0
 10
20.5998827355
 20
8.258338179
 30
0.0
 10
20.5690747911
 20
8.3174115962
 30
0.0
 10
20.5410790819
 20
8.3626450369
 30
0.0
 10
20.5263330292
 20
8.3845951502
 30
0.0
  0
SPLINE
  5
4EF
100
AcDbEntity
  8
0
100
AcDbSpline
 62
9
  6
CONTINUOUS
 70
0
 71
3
 72
22
 73
18
 74
0
 42
0.0000001
 43
0.0000001
 44
0.0000000001
 40
0.0
 40
0.0
 40
0.0
 40
0.0
 40
0.16246077
 40
0.2398355702
 40
0.3145547733
 40
0.3865653307
 40
0.4558233944
 40
0.5222962831
 40
0.5859649385
 40
0.6468269987
 40
0.7049011913
 40
0.7602341563
 40
0.8129040377
 40
0.8630264535
 40
0.9107624912
 40
0.9563275172
 40
1.0
 40
1.0
 40
1.0
 40
1.0
 10
20.5263330292
 20
8.3845951502
 30
0.0
 10
20.5343726136
 20
8.3838052191
 30
0.0
 10
20.5462249022
 20
8.382452612
 30
0.0
 10
20.5617055767
 20
8.3802116471
 30
0.0
 10
20.5726973963
 20
8.3783729576
 30
0.0
 10
20.58324492
 20
8.3763430351
 30
0.0
 10
20.5933332446
 20
8.374115678
 30
0.0
 10
20.6029474466
 20
8.3716847508
 30
0.0
 10
20.6120726712
 20
8.3690440478
 30
0.0
 10
20.6206941503
 20
8.3661873035
 30
0.0
 10
20.6287973042
 20
8.3631080473
 30
0.0
 10
20.6363679404
 20
8.3598000368
 30
0.0
 10
20.6433921064
 20
8.3562567895
 30
0.0
 10
20.6498557645
 20
8.3524715927
 30
0.0
 10
20.6557449159
 20
8.348437143
 30
0.0
 10
20.6610443892
 20
8.3441466855
 30
0.0
 10
20.664234866
 20
8.3410513899
 30
0.0
 10
20.6657150247
 20
8.3394623761
 30
0.0
  0
LINE
  5
4F0
100
AcDbEntity
  8
0
100
AcDbLine
 62
9
  6
CONTINUOUS
 10
20.5263330292
 20
8.3845951502
 11
20.5007836918
 21
8.4226062189
  0
SPLINE
  5
4F1
100
AcDbEntity
  8
0
100
AcDbSpline
 62
9
  6
CONTINUOUS
 70
0
 71
3
 72
21
 73
17
 74
0
 42
0.0000001
 43
0.0000001
 44
0.0000000001
 40
0.0
 40
0.0
 40
0.0
 40
0.0
 40
0.0501805192
 40
0.1030182376
 40
0.1583173346
 40
0.2158705949
 40
0.2754624262
 40
0.3368710365
 40
0.3998700451
 40
0.4642297075
 40
0.5297177882
 40
0.5961000796
 40
0.7306058288
 40
0.8658631504
 40
0.9331877738
 40
1.0
 40
1.0
 40
1.0
 40
1.0
 10
20.5263330292
 20
8.3845951502
 30
0.0
 10
20.5174260084
 20
8.3854703114
 30
0.0
 10
20.4991107461
 20
8.3869724191
 30
0.0
 10
20.4709166515
 20
8.3885611427
 30
0.0
 10
20.4413818077
 20
8.3896069455
 30
0.0
 10
20.4106296293
 20
8.3901708035
 30
0.0
 10
20.3787833111
 20
8.3903138115
 30
0.0
 10
20.3459664066
 20
8.3900971855
 30
0.0
 10
20.3123025657
 20
8.3895822402
 30
0.0
 10
20.2779155593
 20
8.3888303516
 30
0.0
 10
20.2429292979
 20
8.387903016
 30
0.0
 10
20.1954403883
 20
8.3865088395
 30
0.0
 10
20.1355164274
 20
8.3846466126
 30
0.0
 10
20.0754164755
 20
8.3830287025
 30
0.0
 10
20.0273771635
 20
8.38212039
 30
0.0
 10
20.003454639
 20
8.3818375886
 30
0.0
 10
19.9915387105
 20
8.381750204
 30
0.0
  0
SPLINE
  5
4F2
100
AcDbEntity
  8
0
100
AcDbSpline
 62
9
  6
CONTINUOUS
 70
0
 71
3
 72
13
 73
9
 74
0
 42
0.0000001
 43
0.0000001
 44
0.0000000001
 40
0.0
 40
0.0
 40
0.0
 40
0.0
 40
0.2479188936
 40
0.3723779892
 40
0.4971708471
 40
0.6223193729
 40
0.7478434683
 40
1.0
 40
1.0
 40
1.0
 40
1.0
 10
20.7118127326
 20
7.7759707923
 30
0.0
 10
20.7063973943
 20
7.7773324267
 30
0.0
 10
20.6982531941
 20
7.7793371371
 30
0.0
 10
20.6873585687
 20
7.7819254366
 30
0.0
 10
20.6791441745
 20
7.7838317443
 30
0.0
 10
20.6708983681
 20
7.785708397
 30
0.0
 10
20.6598472491
 20
7.7881852206
 30
0.0
 10
20.6515375383
 20
7.7900049569
 30
0.0
 10
20.6459850616
 20
7.7911986722
 30
0.0
  0
SPLINE
  5
4F3
100
AcDbEntity
  8
0
100
AcDbSpline
 62
9
  6
CONTINUOUS
 70
0
 71
3
 72
48
 73
44
 74
0
 42
0.0000001
 43
0.0000001
 44
0.0000000001
 40
0.0
 40
0.0
 40
0.0
 40
0.0
 40
0.0587811046
 40
0.0884354591
 40
0.1182557362
 40
0.1783826014
 40
0.2086874031
 40
0.239149248
 40
0.269760686
 40
0.3005138085
 40
0.331400727
 40
0.3624119188
 40
0.3935375159
 40
0.4091404705
 40
0.4247689014
 40
0.4404227804
 40
0.4561024896
 40
0.4718082835
 40
0.4875403022
 40
0.5032985929
 40
0.5190831092
 40
0.5507277063
 40
0.5824650153
 40
0.6142855858
 40
0.6461812799
 40
0.6781453656
 40
0.7101692391
 40
0.7261989665
 40
0.7422384165
 40
0.7582868116
 40
0.774344183
 40
0.7904105426
 40
0.8064855701
 40
0.8225688949
 40
0.8386612135
 40
0.8547631939
 40
0.8708752378
 40
0.9031267494
 40
0.9192642964
 40
0.9354080939
 40
0.9515558949
 40
0.967706822
 40
1.0
 40
1.0
 40
1.0
 40
1.0
 10
20.6459850616
 20
7.7911986722
 30
0.0
 10
20.6333671622
 20
7.7939463737
 30
0.0
 10
20.6143503316
 20
7.7979293796
 30
0.0
 10
20.5888590672
 20
7.8029438724
 30
0.0
 10
20.5630357213
 20
7.8077974996
 30
0.0
 10
20.5370147998
 20
7.8123673617
 30
0.0
 10
20.5108153175
 20
7.8167233288
 30
0.0
 10
20.4909947802
 20
7.819909198
 30
0.0
 10
20.4710587378
 20
7.8229949588
 30
0.0
 10
20.4510116739
 20
7.8259715188
 30
0.0
 10
20.430858928
 20
7.8288316093
 30
0.0
 10
20.4106042618
 20
7.8315522658
 30
0.0
 10
20.393657992
 20
7.8336766556
 30
0.0
 10
20.3800527041
 20
7.8352783746
 30
0.0
 10
20.3698166906
 20
7.836427054
 30
0.0
 10
20.3595582566
 20
7.8375258409
 30
0.0
 10
20.349278295
 20
7.8385822356
 30
0.0
 10
20.3389774746
 20
7.8396028242
 30
0.0
 10
20.3286564964
 20
7.8405945239
 30
0.0
 10
20.3183160285
 20
7.8415638571
 30
0.0
 10
20.3044929827
 20
7.8428378343
 30
0.0
 10
20.2871710982
 20
7.8443988777
 30
0.0
 10
20.2663337308
 20
7.8462000433
 30
0.0
 10
20.2454335151
 20
7.847912483
 30
0.0
 10
20.2244749268
 20
7.8495196039
 30
0.0
 10
20.2034628607
 20
7.8510082189
 30
0.0
 10
20.1859197569
 20
7.8521370268
 30
0.0
 10
20.1718599259
 20
7.8529035873
 30
0.0
 10
20.1613002092
 20
7.8533937276
 30
0.0
 10
20.1507300304
 20
7.8537788922
 30
0.0
 10
20.1401507054
 20
7.854060679
 30
0.0
 10
20.1295634777
 20
7.8542487557
 30
0.0
 10
20.118969387
 20
7.8543513
 30
0.0
 10
20.1083691649
 20
7.8543750222
 30
0.0
 10
20.0977630851
 20
7.8543490073
 30
0.0
 10
20.08715076
 20
7.8543052033
 30
0.0
 10
20.0729884233
 20
7.854265959
 30
0.0
 10
20.0588178382
 20
7.8543112298
 30
0.0
 10
20.0446420979
 20
7.8545289586
 30
0.0
 10
20.0340060262
 20
7.8548033201
 30
0.0
 10
20.0233713586
 20
7.8552192741
 30
0.0
 10
20.009202539
 20
7.8560027176
 30
0.0
 10
19.9985926276
 20
7.8568890529
 30
0.0
 10
19.9915387105
 20
7.8576466221
 30
0.0
  0
SPLINE
  5
4F4
100
AcDbEntity
  8
0
100
AcDbSpline
 62
7
  6
CONTINUOUS
 70
0
 71
3
 72
18
 73
14
 74
0
 42
0.0000001
 43
0.0000001
 44
0.0000000001
 40
0.0
 40
0.0
 40
0.0
 40
0.0
 40
0.0512021861
 40
0.1043395786
 40
0.1593296489
 40
0.2160855687
 40
0.2745170338
 40
0.3345309156
 40
0.458921324
 40
0.588474188
 40
0.7223848412
 40
0.8598353922
 40
1.0
 40
1.0
 40
1.0
 40
1.0
 10
20.5007836918
 20
8.4226062189
 30
0.0
 10
20.4957090817
 20
8.4230880438
 30
0.0
 10
20.4853572945
 20
8.4239587097
 30
0.0
 10
20.4695285726
 20
8.4249975677
 30
0.0
 10
20.4531330881
 20
8.42580982
 30
0.0
 10
20.4362012721
 20
8.4264111117
 30
0.0
 10
20.4187634572
 20
8.4268171804
 30
0.0
 10
20.3945895042
 20
8.4271225628
 30
0.0
 10
20.3633320093
 20
8.4270813555
 30
0.0
 10
20.3247227303
 20
8.4265080958
 30
0.0
 10
20.2848212084
 20
8.4255341718
 30
0.0
 10
20.2438707034
 20
8.4242845454
 30
0.0
 10
20.2162482528
 20
8.4233581179
 30
0.0
 10
20.2023020453
 20
8.4228892889
 30
0.0
  0
SPLINE
  5
4F5
100
AcDbEntity
  8
0
100
AcDbSpline
 62
9
  6
CONTINUOUS
 70
0
 71
3
 72
18
 73
14
 74
0
 42
0.0000001
 43
0.0000001
 44
0.0000000001
 40
0.0
 40
0.0
 40
0.0
 40
0.0
 40
0.0567979292
 40
0.1138040198
 40
0.1711893333
 40
0.2291060445
 40
0.3469697667
 40
0.4684638136
 40
0.530886932
 40
0.5944890796
 40
0.725198039
 40
0.8605088766
 40
1.0
 40
1.0
 40
1.0
 40
1.0
 10
20.468498131
 20
9.8403565786
 30
0.0
 10
20.4684979535
 20
9.8416577634
 30
0.0
 10
20.4683796244
 20
9.8442663591
 30
0.0
 10
20.46785489
 20
9.848157654
 30
0.0
 10
20.4669888366
 20
9.852014106
 30
0.0
 10
20.4653788383
 20
9.857112961
 30
0.0
 10
20.4625181332
 20
9.8633291011
 30
0.0
 10
20.4586490541
 20
9.8690943144
 30
0.0
 10
20.4549700129
 20
9.873415069
 30
0.0
 10
20.4508375341
 20
9.8776065629
 30
0.0
 10
20.4449837459
 20
9.882415691
 30
0.0
 10
20.4370990317
 20
9.8873686205
 30
0.0
 10
20.4313912844
 20
9.8900651853
 30
0.0
 10
20.4284287376
 20
9.8912631864
 30
0.0
  0
SPLINE
  5
4F6
100
AcDbEntity
  8
0
100
AcDbSpline
 62
9
  6
CONTINUOUS
 70
0
 71
3
 72
29
 73
25
 74
0
 42
0.0000001
 43
0.0000001
 44
0.0000000001
 40
0.0
 40
0.0
 40
0.0
 40
0.0
 40
0.0633429054
 40
0.1276117873
 40
0.160022527
 40
0.1925666515
 40
0.2578973082
 40
0.2906327119
 40
0.3233646881
 40
0.3886686136
 40
0.4535862497
 40
0.4858393037
 40
0.5179170069
 40
0.5814533044
 40
0.6129007131
 40
0.6441112044
 40
0.7057740357
 40
0.7664393795
 40
0.8261211164
 40
0.8848937624
 40
0.9139677454
 40
0.9428385608
 40
0.9715143362
 40
1.0
 40
1.0
 40
1.0
 40
1.0
 10
19.9915387105
 20
7.1141154509
 30
0.0
 10
20.0142005769
 20
7.115929097
 30
0.0
 10
20.0597492145
 20
7.1210888134
 30
0.0
 10
20.1162879714
 20
7.1314723837
 30
0.0
 10
20.1613860045
 20
7.1423426978
 30
0.0
 10
20.206410545
 20
7.1549963839
 30
0.0
 10
20.2507901547
 20
7.1702727494
 30
0.0
 10
20.2941765668
 20
7.1882295807
 30
0.0
 10
20.3367752222
 20
7.2079612806
 30
0.0
 10
20.3882513822
 20
7.235886193
 30
0.0
 10
20.4368987362
 20
7.2681970614
 30
0.0
 10
20.4736760228
 20
7.2964947966
 30
0.0
 10
20.508689734
 20
7.3261832768
 30
0.0
 10
20.5412937259
 20
7.3581951555
 30
0.0
 10
20.571135931
 20
7.3922873349
 30
0.0
 10
20.5987779629
 20
7.4273356448
 30
0.0
 10
20.6294741565
 20
7.4732336346
 30
0.0
 10
20.6598706976
 20
7.5311983097
 30
0.0
 10
20.6833670235
 20
7.591173589
 30
0.0
 10
20.6972628435
 20
7.6423832024
 30
0.0
 10
20.7049192095
 20
7.6835853903
 30
0.0
 10
20.7089581611
 20
7.7144265319
 30
0.0
 10
20.7113372737
 20
7.7452260654
 30
0.0
 10
20.7118349846
 20
7.7657470615
 30
0.0
 10
20.7118127326
 20
7.7759707918
 30
0.0
  0
SPLINE
  5
4F7
100
AcDbEntity
  8
0
100
AcDbSpline
 62
9
  6
CONTINUOUS
 70
0
 71
3
 72
79
 73
75
 74
0
 42
0.0000001
 43
0.0000001
 44
0.0000000001
 40
0.0
 40
0.0
 40
0.0
 40
0.0
 40
0.0076696497
 40
0.0151360414
 40
0.0224833336
 40
0.0261371768
 40
0.0297904765
 40
0.0334525097
 40
0.0371317
 40
0.0408293338
 40
0.0445427103
 40
0.0520058026
 40
0.0594995252
 40
0.0670029984
 40
0.0744978211
 40
0.0819813231
 40
0.0894585991
 40
0.1044136927
 40
0.1193905041
 40
0.1343831149
 40
0.149381696
 40
0.1643870011
 40
0.1794039502
 40
0.1944365605
 40
0.2094881372
 40
0.2396611598
 40
0.2699525736
 40
0.3003591992
 40
0.330880954
 40
0.36153017
 40
0.3769072829
 40
0.3923190284
 40
0.4077639523
 40
0.4232402394
 40
0.4387494124
 40
0.4542954539
 40
0.4854929428
 40
0.5011391111
 40
0.5168191063
 40
0.5325374289
 40
0.5482930134
 40
0.5640821585
 40
0.5799032907
 40
0.5957570258
 40
0.6116436686
 40
0.6435112642
 40
0.675500077
 40
0.7075995757
 40
0.7398024857
 40
0.7721029734
 40
0.7882874146
 40
0.8044921095
 40
0.8207158377
 40
0.8369566466
 40
0.8532118672
 40
0.8694804752
 40
0.8857648923
 40
0.8939136677
 40
0.9020654807
 40
0.9102183874
 40
0.9183707051
 40
0.9265210508
 40
0.9346698207
 40
0.9428214161
 40
0.9509801591
 40
0.955063383
 40
0.9591497477
 40
0.9632396695
 40
0.9673329964
 40
0.9714278069
 40
0.9755219439
 40
0.9837008008
 40
0.9918598131
 40
1.0
 40
1.0
 40
1.0
 40
1.0
 10
20.9565387097
 20
7.6460454604
 30
0.0
 10
20.9566752369
 20
7.6423399226
 30
0.0
 10
20.9567959611
 20
7.6350208839
 30
0.0
 10
20.9565877206
 20
7.624151146
 30
0.0
 10
20.9561658097
 20
7.6152317225
 30
0.0
 10
20.9557287299
 20
7.6081601902
 30
0.0
 10
20.9553634002
 20
7.60286947
 30
0.0
 10
20.9549712636
 20
7.5975684154
 30
0.0
 10
20.9545660665
 20
7.5922468512
 30
0.0
 10
20.9541480442
 20
7.586901376
 30
0.0
 10
20.9535666943
 20
7.5797337113
 30
0.0
 10
20.9527898141
 20
7.5707406033
 30
0.0
 10
20.951751015
 20
7.5599313038
 30
0.0
 10
20.9505787546
 20
7.5491200817
 30
0.0
 10
20.9492417569
 20
7.5383328787
 30
0.0
 10
20.9477398504
 20
7.5275802129
 30
0.0
 10
20.945529421
 20
7.5132862296
 30
0.0
 10
20.942390441
 20
7.4954721011
 30
0.0
 10
20.9380791899
 20
7.4741822693
 30
0.0
 10
20.9332027261
 20
7.4529927457
 30
0.0
 10
20.9277426678
 20
7.431931756
 30
0.0
 10
20.9217051691
 20
7.4110168005
 30
0.0
 10
20.9151023098
 20
7.3902562455
 30
0.0
 10
20.9079410366
 20
7.3696578261
 30
0.0
 10
20.8976468792
 20
7.3424015575
 30
0.0
 10
20.8833992328
 20
7.3087669738
 30
0.0
 10
20.8641946289
 20
7.2692322274
 30
0.0
 10
20.8428883081
 20
7.2305954088
 30
0.0
 10
20.819524123
 20
7.1929645475
 30
0.0
 10
20.7984152722
 20
7.1625451087
 30
0.0
 10
20.7805709062
 20
7.1387958361
 30
0.0
 10
20.7666978742
 20
7.1212661005
 30
0.0
 10
20.7523579257
 20
7.1040538946
 30
0.0
 10
20.7375556505
 20
7.0871749268
 30
0.0
 10
20.7223010657
 20
7.0706368797
 30
0.0
 10
20.7013587802
 20
7.0490175046
 30
0.0
 10
20.6795882202
 20
7.028118114
 30
0.0
 10
20.6569978184
 20
7.0080288707
 30
0.0
 10
20.6396334282
 20
6.9933352674
 30
0.0
 10
20.6218870286
 20
6.9790214328
 30
0.0
 10
20.6037667419
 20
6.9650969637
 30
0.0
 10
20.5852762572
 20
6.9515834301
 30
0.0
 10
20.5664251242
 20
6.9384944471
 30
0.0
 10
20.547227517
 20
6.9258331829
 30
0.0
 10
20.5211602588
 20
6.9095125029
 30
0.0
 10
20.4877681709
 20
6.8902115797
 30
0.0
 10
20.4465473216
 20
6.8688908205
 30
0.0
 10
20.4042267903
 20
6.8494525185
 30
0.0
 10
20.3609093836
 20
6.831947195
 30
0.0
 10
20.3240970728
 20
6.8189935343
 30
0.0
 10
20.2942560078
 20
6.8096229404
 30
0.0
 10
20.2716766415
 20
6.8030916432
 30
0.0
 10
20.2489290918
 20
6.797065836
 30
0.0
 10
20.2260269294
 20
6.7915517055
 30
0.0
 10
20.2029828342
 20
6.7865606459
 30
0.0
 10
20.1798091182
 20
6.7820988137
 30
0.0
 10
20.1604073873
 20
6.7788026621
 30
0.0
 10
20.1448367708
 20
6.7764050714
 30
0.0
 10
20.1331328125
 20
6.7747328293
 30
0.0
 10
20.1214080466
 20
6.773199805
 30
0.0
 10
20.1096652753
 20
6.7718170752
 30
0.0
 10
20.0979063856
 20
6.7705973584
 30
0.0
 10
20.086131504
 20
6.769548099
 30
0.0
 10
20.0743422272
 20
6.7686243667
 30
0.0
 10
20.0645073442
 20
6.7679246941
 30
0.0
 10
20.0566315025
 20
6.7673855841
 30
0.0
 10
20.0507178564
 20
6.7669862123
 30
0.0
 10
20.0447993532
 20
6.766586259
 30
0.0
 10
20.038877057
 20
6.7661819635
 30
0.0
 10
20.0329515678
 20
6.7657943384
 30
0.0
 10
20.0250520674
 20
6.7653261758
 30
0.0
 10
20.0151826355
 20
6.7648819811
 30
0.0
 10
20.0033465075
 20
6.7647339627
 30
0.0
 10
19.9954662586
 20
6.7649998552
 30
0.0
 10
19.9915387105
 20
6.7652505852
 30
0.0
  0
SPLINE
  5
4F8
100
AcDbEntity
  8
0
100
AcDbSpline
 62
9
  6
CONTINUOUS
 70
0
 71
3
 72
25
 73
21
 74
0
 42
0.0000001
 43
0.0000001
 44
0.0000000001
 40
0.0
 40
0.0
 40
0.0
 40
0.0
 40
0.0627475527
 40
0.1258485305
 40
0.1893232313
 40
0.2531309506
 40
0.3172220568
 40
0.3814975341
 40
0.4458463946
 40
0.5101202416
 40
0.5741615125
 40
0.637798174
 40
0.700843172
 40
0.7320928851
 40
0.7631180625
 40
0.824374532
 40
0.8545765373
 40
0.8844506508
 40
0.9430734702
 40
1.0
 40
1.0
 40
1.0
 40
1.0
 10
19.9915387105
 20
7.1894780522
 30
0.0
 10
20.0120131996
 20
7.1894780522
 30
0.0
 10
20.0531013415
 20
7.1912915026
 30
0.0
 10
20.1144030324
 20
7.1995755538
 30
0.0
 10
20.1750171559
 20
7.2135913603
 30
0.0
 10
20.2343591329
 20
7.2333302969
 30
0.0
 10
20.2917806165
 20
7.2587655187
 30
0.0
 10
20.346658233
 20
7.2896693606
 30
0.0
 10
20.3983230606
 20
7.3257940097
 30
0.0
 10
20.4461946462
 20
7.3666964386
 30
0.0
 10
20.4896701423
 20
7.4119225587
 30
0.0
 10
20.528319375
 20
7.4608212255
 30
0.0
 10
20.556241154
 20
7.5042377197
 30
0.0
 10
20.5758438581
 20
7.5401398648
 30
0.0
 10
20.5934625084
 20
7.5764075115
 30
0.0
 10
20.6083537626
 20
7.6135704283
 30
0.0
 10
20.6205254896
 20
7.6512544935
 30
0.0
 10
20.6307678956
 20
7.6886194044
 30
0.0
 10
20.6402767633
 20
7.7351720872
 30
0.0
 10
20.6446393731
 20
7.7726750357
 30
0.0
 10
20.6459913602
 20
7.7912008609
 30
0.0
  0
SPLINE
  5
4F9
100
AcDbEntity
  8
0
100
AcDbSpline
 62
7
  6
CONTINUOUS
 70
0
 71
3
 72
9
 73
5
 74
0
 42
0.0000001
 43
0.0000001
 44
0.0000000001
 40
0.0
 40
0.0
 40
0.0
 40
0.0
 40
0.2458857041
 40
1.0
 40
1.0
 40
1.0
 40
1.0
 10
20.3841339912
 20
12.1287141252
 30
0.0
 10
20.3826507121
 20
12.129405512
 30
0.0
 10
20.3765362082
 20
12.1320386428
 30
0.0
 10
20.3701211158
 20
12.1339658687
 30
0.0
 10
20.3652134707
 20
12.1350173904
 30
0.0
  0
SPLINE
  5
4FA
100
AcDbEntity
  8
0
100
AcDbSpline
 62
7
  6
CONTINUOUS
 70
0
 71
3
 72
9
 73
5
 74
0
 42
0.0000001
 43
0.0000001
 44
0.0000000001
 40
0.0
 40
0.0
 40
0.0
 40
0.0
 40
0.4886560776
 40
1.0
 40
1.0
 40
1.0
 40
1.0
 10
20.185557833
 20
12.2466196617
 30
0.0
 10
20.1838825007
 20
12.2497329136
 30
0.0
 10
20.1797644205
 20
12.2557475395
 30
0.0
 10
20.1746163524
 20
12.2608885077
 30
0.0
 10
20.1717936478
 20
12.2632799504
 30
0.0
  0
SPLINE
  5
4FB
100
AcDbEntity
  8
0
100
AcDbSpline
 62
7
  6
CONTINUOUS
 70
0
 71
3
 72
9
 73
5
 74
0
 42
0.0000001
 43
0.0000001
 44
0.0000000001
 40
0.0
 40
0.0
 40
0.0
 40
0.0
 40
0.5022877432
 40
1.0
 40
1.0
 40
1.0
 40
1.0
 10
20.2110889331
 20
12.249115055
 30
0.0
 10
20.2067869139
 20
12.2492600681
 30
0.0
 10
20.1981945632
 20
12.2489926719
 30
0.0
 10
20.1897080378
 20
12.2476036203
 30
0.0
 10
20.185557833
 20
12.2466196617
 30
0.0
  0
SPLINE
  5
4FC
100
AcDbEntity
  8
0
100
AcDbSpline
 62
7
  6
CONTINUOUS
 70
0
 71
3
 72
9
 73
5
 74
0
 42
0.0000001
 43
0.0000001
 44
0.0000000001
 40
0.0
 40
0.0
 40
0.0
 40
0.0
 40
0.489015424
 40
1.0
 40
1.0
 40
1.0
 40
1.0
 10
20.0769246345
 20
12.2736587829
 30
0.0
 10
20.0742843061
 20
12.2763621673
 30
0.0
 10
20.0683569102
 20
12.2813888649
 30
0.0
 10
20.0617065624
 20
12.2853888719
 30
0.0
 10
20.0581842538
 20
12.2871734774
 30
0.0
  0
SPLINE
  5
4FD
100
AcDbEntity
  8
0
100
AcDbSpline
 62
7
  6
CONTINUOUS
 70
0
 71
3
 72
9
 73
5
 74
0
 42
0.0000001
 43
0.0000001
 44
0.0000000001
 40
0.0
 40
0.0
 40
0.0
 40
0.0
 40
0.506483128
 40
1.0
 40
1.0
 40
1.0
 40
1.0
 10
20.1008435197
 20
12.280939645
 30
0.0
 10
20.0966660274
 20
12.2802664092
 30
0.0
 10
20.0884954481
 20
12.2783955253
 30
0.0
 10
20.0806543562
 20
12.275416298
 30
0.0
 10
20.0769246345
 20
12.2736587829
 30
0.0
  0
SPLINE
  5
4FE
100
AcDbEntity
  8
0
100
AcDbSpline
 62
9
  6
CONTINUOUS
 70
0
 71
3
 72
31
 73
27
 74
0
 42
0.0000001
 43
0.0000001
 44
0.0000000001
 40
0.0
 40
0.0
 40
0.0
 40
0.0
 40
0.0772383201
 40
0.1552049304
 40
0.310894059
 40
0.3873949047
 40
0.4621870273
 40
0.5346671589
 40
0.5698547281
 40
0.604243233
 40
0.6377612665
 40
0.6703390247
 40
0.7019087028
 40
0.7324049973
 40
0.7617657503
 40
0.7899327876
 40
0.8168530222
 40
0.8424799242
 40
0.8667754993
 40
0.8897129805
 40
0.9112805101
 40
0.9314861901
 40
0.9503649565
 40
0.9679877309
 40
0.9844730001
 40
1.0
 40
1.0
 40
1.0
 40
1.0
 10
19.9915387105
 20
8.4817470499
 30
0.0
 10
20.0070831098
 20
8.4815823501
 30
0.0
 10
20.0383206607
 20
8.4814492665
 30
0.0
 10
20.1008921769
 20
8.4817146424
 30
0.0
 10
20.1633116466
 20
8.4824274004
 30
0.0
 10
20.2250943224
 20
8.4829040048
 30
0.0
 10
20.2701321287
 20
8.482965422
 30
0.0
 10
20.3068543244
 20
8.482625682
 30
0.0
 10
20.3354390445
 20
8.4820219346
 30
0.0
 10
20.3561788878
 20
8.4813903562
 30
0.0
 10
20.376385899
 20
8.4805540573
 30
0.0
 10
20.3960142772
 20
8.4794912608
 30
0.0
 10
20.4150182628
 20
8.4781802885
 30
0.0
 10
20.4333521579
 20
8.4765994598
 30
0.0
 10
20.450970347
 20
8.4747271164
 30
0.0
 10
20.4678273271
 20
8.4725416082
 30
0.0
 10
20.4838777485
 20
8.4700212808
 30
0.0
 10
20.4990764712
 20
8.4671444418
 30
0.0
 10
20.5133786356
 20
8.4638893025
 30
0.0
 10
20.5267397563
 20
8.4602338547
 30
0.0
 10
20.5391157895
 20
8.4561556962
 30
0.0
 10
20.5504632537
 20
8.4516315802
 30
0.0
 10
20.5607388467
 20
8.4466371952
 30
0.0
 10
20.5698997861
 20
8.4411452514
 30
0.0
 10
20.5778994239
 20
8.4351285848
 30
0.0
 10
20.582544309
 20
8.4306299467
 30
0.0
 10
20.5846224224
 20
8.4282960217
 30
0.0
  0
SPLINE
  5
4FF
100
AcDbEntity
  8
0
100
AcDbSpline
 62
7
  6
CONTINUOUS
 70
0
 71
3
 72
9
 73
5
 74
0
 42
0.0000001
 43
0.0000001
 44
0.0000000001
 40
0.0
 40
0.0
 40
0.0
 40
0.0
 40
0.4916771627
 40
1.0
 40
1.0
 40
1.0
 40
1.0
 10
19.9629263244
 20
12.2791529806
 30
0.0
 10
19.9595028432
 20
12.2812613316
 30
0.0
 10
19.9521796548
 20
12.2849812166
 30
0.0
 10
19.9444053466
 20
12.2876082187
 30
0.0
 10
19.9403872753
 20
12.2886729029
 30
0.0
  0
SPLINE
  5
500
100
AcDbEntity
  8
0
100
AcDbSpline
 62
7
  6
CONTINUOUS
 70
0
 71
3
 72
9
 73
5
 74
0
 42
0.0000001
 43
0.0000001
 44
0.0000000001
 40
0.0
 40
0.0
 40
0.0
 40
0.0
 40
0.5098651009
 40
1.0
 40
1.0
 40
1.0
 40
1.0
 10
19.9837300831
 20
12.2907618282
 30
0.0
 10
19.9799318554
 20
12.289325044
 30
0.0
 10
19.9726673527
 20
12.2859856189
 30
0.0
 10
19.9659847918
 20
12.2815788952
 30
0.0
 10
19.9629263244
 20
12.2791529806
 30
0.0
  0
SPLINE
  5
501
100
AcDbEntity
  8
0
100
AcDbSpline
 62
9
  6
CONTINUOUS
 70
0
 71
3
 72
11
 73
7
 74
0
 42
0.0000001
 43
0.0000001
 44
0.0000000001
 40
0.0
 40
0.0
 40
0.0
 40
0.0
 40
0.2494179985
 40
0.5006979264
 40
0.7516221138
 40
1.0
 40
1.0
 40
1.0
 40
1.0
 10
20.2023020453
 20
8.4228892889
 30
0.0
 10
20.1847838992
 20
8.4223003824
 30
0.0
 10
20.1496169462
 20
8.4211147324
 30
0.0
 10
20.0968190797
 20
8.4195462096
 30
0.0
 10
20.0440827659
 20
8.4184123634
 30
0.0
 10
20.0089936578
 20
8.4181014042
 30
0.0
 10
19.9915387105
 20
8.4181014042
 30
0.0
  0
SPLINE
  5
502
100
AcDbEntity
  8
0
100
AcDbSpline
 62
9
  6
CONTINUOUS
 70
0
 71
3
 72
31
 73
27
 74
0
 42
0.0000001
 43
0.0000001
 44
0.0000000001
 40
0.0
 40
0.0
 40
0.0
 40
0.0
 40
0.153573041
 40
0.2306103714
 40
0.307037933
 40
0.3822828172
 40
0.4557833068
 40
0.526993055
 40
0.5615747773
 40
0.5953892324
 40
0.628375599
 40
0.660475719
 40
0.6916346554
 40
0.7218013933
 40
0.7509297239
 40
0.7789793682
 40
0.8059174106
 40
0.8317201348
 40
0.8563753763
 40
0.8798855243
 40
0.9022713159
 40
0.9235765334
 40
0.9438736105
 40
0.9632698993
 40
0.9819138901
 40
1.0
 40
1.0
 40
1.0
 40
1.0
 10
19.9915387105
 20
8.6794418441
 30
0.0
 10
20.0176545212
 20
8.67878697
 30
0.0
 10
20.0568681661
 20
8.6776435939
 30
0.0
 10
20.1090507395
 20
8.6754049152
 30
0.0
 10
20.1478987105
 20
8.673270566
 30
0.0
 10
20.1861103568
 20
8.6705892562
 30
0.0
 10
20.2233812825
 20
8.66726727
 30
0.0
 10
20.2536927489
 20
8.6638554465
 30
0.0
 10
20.2772294858
 20
8.6606878534
 30
0.0
 10
20.2942832702
 20
8.6581146633
 30
0.0
 10
20.3108725636
 20
8.655309251
 30
0.0
 10
20.3269593958
 20
8.6522597411
 30
0.0
 10
20.3425058283
 20
8.648954341
 30
0.0
 10
20.3574739906
 20
8.645381221
 30
0.0
 10
20.3718260895
 20
8.6415285282
 30
0.0
 10
20.3855244302
 20
8.6373843562
 30
0.0
 10
20.3985314352
 20
8.6329367107
 30
0.0
 10
20.4108096621
 20
8.6281734527
 30
0.0
 10
20.4223218089
 20
8.6230822159
 30
0.0
 10
20.4330306951
 20
8.6176502806
 30
0.0
 10
20.4428991678
 20
8.6118644336
 30
0.0
 10
20.4518899439
 20
8.6057107126
 30
0.0
 10
20.4599651109
 20
8.5991744967
 30
0.0
 10
20.4670859617
 20
8.5922396951
 30
0.0
 10
20.4732106993
 20
8.5848921322
 30
0.0
 10
20.4766401188
 20
8.5796475961
 30
0.0
 10
20.4781570194
 20
8.5769709483
 30
0.0
  0
SPLINE
  5
503
100
AcDbEntity
  8
0
100
AcDbSpline
 62
7
  6
CONTINUOUS
 70
0
 71
3
 72
9
 73
5
 74
0
 42
0.0000001
 43
0.0000001
 44
0.0000000001
 40
0.0
 40
0.0
 40
0.0
 40
0.0
 40
0.4955545866
 40
1.0
 40
1.0
 40
1.0
 40
1.0
 10
19.8507258357
 20
12.2627570342
 30
0.0
 10
19.8467528836
 20
12.2641374173
 30
0.0
 10
19.8385226806
 20
12.2663353056
 30
0.0
 10
19.8300773184
 20
12.267416023
 30
0.0
 10
19.8258043296
 20
12.2676840126
 30
0.0
  0
SPLINE
  5
504
100
AcDbEntity
  8
0
100
AcDbSpline
 62
9
  6
CONTINUOUS
 70
0
 71
3
 72
32
 73
28
 74
0
 42
0.0000001
 43
0.0000001
 44
0.0000000001
 40
0.0
 40
0.0
 40
0.0
 40
0.0
 40
0.0756852403
 40
0.1517804881
 40
0.2277373892
 40
0.3030162571
 40
0.3770888237
 40
0.4494419581
 40
0.5195828263
 40
0.5536787519
 40
0.5870501082
 40
0.6196448497
 40
0.6514142563
 40
0.6823135848
 40
0.7123028719
 40
0.741347926
 40
0.7694215564
 40
0.7965050922
 40
0.8225902592
 40
0.8476814763
 40
0.8717986335
 40
0.894980374
 40
0.9172878332
 40
0.9388086492
 40
0.9596608437
 40
0.9799958875
 40
1.0
 40
1.0
 40
1.0
 40
1.0
 10
19.9915387105
 20
8.8112177591
 30
0.0
 10
20.003418791
 20
8.8110357161
 30
0.0
 10
20.0272404446
 20
8.810436654
 30
0.0
 10
20.0629571042
 20
8.8088027391
 30
0.0
 10
20.0985659753
 20
8.8063855435
 30
0.0
 10
20.1337907781
 20
8.8031418936
 30
0.0
 10
20.1683559621
 20
8.7990288187
 30
0.0
 10
20.2019857734
 20
8.7940033734
 30
0.0
 10
20.2292548236
 20
8.7889736186
 30
0.0
 10
20.2503735483
 20
8.7844211514
 30
0.0
 10
20.2656558486
 20
8.7807820384
 30
0.0
 10
20.2804961817
 20
8.7768808117
 30
0.0
 10
20.2948601728
 20
8.772711933
 30
0.0
 10
20.308713448
 20
8.7682699364
 30
0.0
 10
20.3220216958
 20
8.7635492951
 30
0.0
 10
20.3347506608
 20
8.7585444336
 30
0.0
 10
20.346866152
 20
8.7532496923
 30
0.0
 10
20.3583340416
 20
8.7476592918
 30
0.0
 10
20.3691202534
 20
8.7417672812
 30
0.0
 10
20.3791907277
 20
8.735567475
 30
0.0
 10
20.3885113527
 20
8.729053375
 30
0.0
 10
20.3970478311
 20
8.7222181168
 30
0.0
 10
20.404765499
 20
8.7150543845
 30
0.0
 10
20.4116289707
 20
8.7075546724
 30
0.0
 10
20.4176020906
 20
8.6997108509
 30
0.0
 10
20.422646768
 20
8.6915171098
 30
0.0
 10
20.4253790857
 20
8.6857873898
 30
0.0
 10
20.42656816
 20
8.6828808595
 30
0.0
  0
SPLINE
  5
505
100
AcDbEntity
  8
0
100
AcDbSpline
 62
7
  6
CONTINUOUS
 70
0
 71
3
 72
9
 73
5
 74
0
 42
0.0000001
 43
0.0000001
 44
0.0000000001
 40
0.0
 40
0.0
 40
0.0
 40
0.0
 40
0.5115313302
 40
1.0
 40
1.0
 40
1.0
 40
1.0
 10
19.8671072914
 20
12.2779644408
 30
0.0
 10
19.8639119649
 20
12.2758604861
 30
0.0
 10
19.8579703136
 20
12.2712582663
 30
0.0
 10
19.8529021363
 20
12.2656913816
 30
0.0
 10
19.8507258357
 20
12.2627570342
 30
0.0
  0
SPLINE
  5
506
100
AcDbEntity
  8
0
100
AcDbSpline
 62
7
  6
CONTINUOUS
 70
0
 71
3
 72
31
 73
27
 74
0
 42
0.0000001
 43
0.0000001
 44
0.0000000001
 40
0.0
 40
0.0
 40
0.0
 40
0.0
 40
0.0737972566
 40
0.1477444113
 40
0.2214136765
 40
0.2943751916
 40
0.3662034544
 40
0.4364843393
 40
0.5048233911
 40
0.5708562815
 40
0.6029100349
 40
0.6342719772
 40
0.6649121191
 40
0.6948059805
 40
0.7239356306
 40
0.7522909126
 40
0.7798708757
 40
0.8066854302
 40
0.8327572273
 40
0.8581237356
 40
0.8828394428
 40
0.9069780483
 40
0.9306344267
 40
0.9539260596
 40
0.9769935705
 40
1.0
 40
1.0
 40
1.0
 40
1.0
 10
19.9915387105
 20
8.9904248551
 30
0.0
 10
20.0029105654
 20
8.9904248551
 30
0.0
 10
20.0256807149
 20
8.9898863162
 30
0.0
 10
20.0597286002
 20
8.9875197953
 30
0.0
 10
20.0935073071
 20
8.9836296452
 30
0.0
 10
20.1267509744
 20
8.9782533703
 30
0.0
 10
20.1591951185
 20
8.9714285087
 30
0.0
 10
20.1905757035
 20
8.9631924637
 30
0.0
 10
20.2206280439
 20
8.9535826978
 30
0.0
 10
20.2445808598
 20
8.944370587
 30
0.0
 10
20.2628311114
 20
8.9363108305
 30
0.0
 10
20.2758838163
 20
8.930003544
 30
0.0
 10
20.2884033552
 20
8.9233790458
 30
0.0
 10
20.3003566955
 20
8.916441705
 30
0.0
 10
20.3117107024
 20
8.9091959681
 30
0.0
 10
20.3224322708
 20
8.9016461453
 30
0.0
 10
20.3324882644
 20
8.8937964378
 30
0.0
 10
20.3418454878
 20
8.885650902
 30
0.0
 10
20.3504706285
 20
8.877213439
 30
0.0
 10
20.3583301816
 20
8.868487792
 30
0.0
 10
20.3653903516
 20
8.8594775935
 30
0.0
 10
20.3716169598
 20
8.8501864074
 30
0.0
 10
20.3769753342
 20
8.8406180383
 30
0.0
 10
20.3814304031
 20
8.8307761814
 30
0.0
 10
20.3849464085
 20
8.8206667565
 30
0.0
 10
20.3866389644
 20
8.8137583709
 30
0.0
 10
20.3873148612
 20
8.8102782011
 30
0.0
  0
SPLINE
  5
507
100
AcDbEntity
  8
0
100
AcDbSpline
 62
7
  6
CONTINUOUS
 70
0
 71
3
 72
9
 73
5
 74
0
 42
0.0000001
 43
0.0000001
 44
0.0000000001
 40
0.0
 40
0.0
 40
0.0
 40
0.0
 40
0.4999264904
 40
1.0
 40
1.0
 40
1.0
 40
1.0
 10
19.7473731379
 20
12.2255011614
 30
0.0
 10
19.7431134483
 20
12.2260763612
 30
0.0
 10
19.7345053005
 20
12.2266422104
 30
0.0
 10
19.7258981574
 20
12.2260849797
 30
0.0
 10
19.7216350845
 20
12.2255256157
 30
0.0
  0
SPLINE
  5
508
100
AcDbEntity
  8
0
100
AcDbSpline
 62
9
  6
CONTINUOUS
 70
0
 71
3
 72
31
 73
27
 74
0
 42
0.0000001
 43
0.0000001
 44
0.0000000001
 40
0.0
 40
0.0
 40
0.0
 40
0.0
 40
0.026999305
 40
0.0540463897
 40
0.0811827748
 40
0.1084552954
 40
0.1359056517
 40
0.1635719211
 40
0.1914884737
 40
0.2196870304
 40
0.2770221105
 40
0.3062331394
 40
0.3358242843
 40
0.3658066264
 40
0.3961867346
 40
0.4581360902
 40
0.5216866173
 40
0.5540504849
 40
0.5867846378
 40
0.6532853676
 40
0.6870255152
 40
0.7210526259
 40
0.7898420197
 40
0.8594336896
 40
0.929576504
 40
1.0
 40
1.0
 40
1.0
 40
1.0
 10
20.3841019278
 20
9.0093090047
 30
0.0
 10
20.3841019046
 20
9.0142297079
 30
0.0
 10
20.3837857715
 20
9.02408271
 30
0.0
 10
20.3823668659
 20
9.0388199134
 30
0.0
 10
20.380003617
 20
9.0534865114
 30
0.0
 10
20.3766977952
 20
9.0680448759
 30
0.0
 10
20.3724591405
 20
9.0824599939
 30
0.0
 10
20.3673027898
 20
9.0966972443
 30
0.0
 10
20.3612458616
 20
9.1107243279
 30
0.0
 10
20.3519404618
 20
9.1291990091
 30
0.0
 10
20.3409147579
 20
9.1470322427
 30
0.0
 10
20.3283237692
 20
9.1640558244
 30
0.0
 10
20.318004652
 20
9.1765304949
 30
0.0
 10
20.3068980624
 20
9.1885995386
 30
0.0
 10
20.2909778089
 20
9.2042146088
 30
0.0
 10
20.2692210036
 20
9.2225590702
 30
0.0
 10
20.2455274082
 20
9.2389559239
 30
0.0
 10
20.2253919319
 20
9.2509813631
 30
0.0
 10
20.2042748502
 20
9.2623663435
 30
0.0
 10
20.1822091956
 20
9.2724717616
 30
0.0
 10
20.1593677207
 20
9.2812657806
 30
0.0
 10
20.135793356
 20
9.2892631155
 30
0.0
 10
20.1054537387
 20
9.2975719537
 30
0.0
 10
20.0680958691
 20
9.3047504304
 30
0.0
 10
20.0300029127
 20
9.3090744827
 30
0.0
 10
20.0043736007
 20
9.3100327538
 30
0.0
 10
19.9915387105
 20
9.3100303389
 30
0.0
  0
SPLINE
  5
509
100
AcDbEntity
  8
0
100
AcDbSpline
 62
7
  6
CONTINUOUS
 70
0
 71
3
 72
9
 73
5
 74
0
 42
0.0000001
 43
0.0000001
 44
0.0000000001
 40
0.0
 40
0.0
 40
0.0
 40
0.0
 40
0.4899867087
 40
1.0
 40
1.0
 40
1.0
 40
1.0
 10
20.3793627811
 20
8.9750477055
 30
0.0
 10
20.377826584
 20
8.9600839518
 30
0.0
 10
20.3760637744
 20
8.929391272
 30
0.0
 10
20.3769097618
 20
8.8986639987
 30
0.0
 10
20.3779644619
 20
8.8830423531
 30
0.0
  0
SPLINE
  5
50A
100
AcDbEntity
  8
0
100
AcDbSpline
 62
7
  6
CONTINUOUS
 70
0
 71
3
 72
10
 73
6
 74
0
 42
0.0000001
 43
0.0000001
 44
0.0000000001
 40
0.0
 40
0.0
 40
0.0
 40
0.0
 40
0.5099394118
 40
0.7572165323
 40
1.0
 40
1.0
 40
1.0
 40
1.0
 10
19.7583029833
 20
12.2433515895
 30
0.0
 10
19.7558930315
 20
12.2407071476
 30
0.0
 10
19.7526478087
 20
12.2364471842
 30
0.0
 10
19.7492738339
 20
12.2302858261
 30
0.0
 10
19.7479426431
 20
12.2271065585
 30
0.0
 10
19.7473731379
 20
12.2255011614
 30
0.0
  0
SPLINE
  5
50B
100
AcDbEntity
  8
0
100
AcDbSpline
 62
7
  6
CONTINUOUS
 70
0
 71
3
 72
9
 73
5
 74
0
 42
0.0000001
 43
0.0000001
 44
0.0000000001
 40
0.0
 40
0.0
 40
0.0
 40
0.0
 40
0.5041583794
 40
1.0
 40
1.0
 40
1.0
 40
1.0
 10
19.6572059917
 20
12.1695744761
 30
0.0
 10
19.6533015315
 20
12.1692549891
 30
0.0
 10
19.6455888515
 20
12.1681442526
 30
0.0
 10
19.6380693583
 20
12.1660966708
 30
0.0
 10
19.6344248769
 20
12.1648466793
 30
0.0
  0
SPLINE
  5
50C
100
AcDbEntity
  8
0
100
AcDbSpline
 62
9
  6
CONTINUOUS
 70
0
 71
3
 72
22
 73
18
 74
0
 42
0.0000001
 43
0.0000001
 44
0.0000000001
 40
0.0
 40
0.0
 40
0.0
 40
0.0
 40
0.16246077
 40
0.2398355702
 40
0.3145547733
 40
0.3865653307
 40
0.4558233944
 40
0.5222962831
 40
0.5859649385
 40
0.6468269987
 40
0.7049011913
 40
0.7602341563
 40
0.8129040377
 40
0.8630264535
 40
0.9107624912
 40
0.9563275172
 40
1.0
 40
1.0
 40
1.0
 40
1.0
 10
19.4567443918
 20
8.3845951502
 30
0.0
 10
19.4487048074
 20
8.3838052191
 30
0.0
 10
19.4368525189
 20
8.382452612
 30
0.0
 10
19.4213718444
 20
8.3802116471
 30
0.0
 10
19.4103800248
 20
8.3783729576
 30
0.0
 10
19.399832501
 20
8.3763430351
 30
0.0
 10
19.3897441765
 20
8.374115678
 30
0.0
 10
19.3801299745
 20
8.3716847508
 30
0.0
 10
19.3710047499
 20
8.3690440478
 30
0.0
 10
19.3623832708
 20
8.3661873035
 30
0.0
 10
19.3542801168
 20
8.3631080473
 30
0.0
 10
19.3467094807
 20
8.3598000368
 30
0.0
 10
19.3396853147
 20
8.3562567895
 30
0.0
 10
19.3332216566
 20
8.3524715927
 30
0.0
 10
19.3273325052
 20
8.348437143
 30
0.0
 10
19.3220330318
 20
8.3441466855
 30
0.0
 10
19.3188425551
 20
8.3410513899
 30
0.0
 10
19.3173623964
 20
8.3394623761
 30
0.0
  0
SPLINE
  5
50D
100
AcDbEntity
  8
0
100
AcDbSpline
 62
9
  6
CONTINUOUS
 70
0
 71
3
 72
19
 73
15
 74
0
 42
0.0000001
 43
0.0000001
 44
0.0000000001
 40
0.0
 40
0.0
 40
0.0
 40
0.0
 40
0.1256183487
 40
0.2515899815
 40
0.3146262932
 40
0.3775815302
 40
0.4403752666
 40
0.5030294047
 40
0.5655902813
 40
0.628105267
 40
0.6905977872
 40
0.7529857344
 40
0.8770822004
 40
1.0
 40
1.0
 40
1.0
 40
1.0
 10
19.2712646885
 20
7.7759707918
 30
0.0
 10
19.2713526728
 20
7.8029950224
 30
0.0
 10
19.2735284323
 20
7.8571321254
 30
0.0
 10
19.2811950118
 20
7.9244459942
 30
0.0
 10
19.2902931233
 20
7.9778925957
 30
0.0
 10
19.2985713312
 20
8.0176631357
 30
0.0
 10
19.3082815024
 20
8.0570233597
 30
0.0
 10
19.3193992473
 20
8.0959211158
 30
0.0
 10
19.3319041427
 20
8.1343323382
 30
0.0
 10
19.3458007022
 20
8.1722254168
 30
0.0
 10
19.3610805733
 20
8.2095424318
 30
0.0
 10
19.3831946856
 20
8.258338179
 30
0.0
 10
19.41400263
 20
8.3174115962
 30
0.0
 10
19.4419983392
 20
8.3626450369
 30
0.0
 10
19.4567443918
 20
8.3845951502
 30
0.0
  0
SPLINE
  5
50E
100
AcDbEntity
  8
0
100
AcDbSpline
 62
9
  6
CONTINUOUS
 70
0
 71
3
 72
33
 73
29
 74
0
 42
0.0000001
 43
0.0000001
 44
0.0000000001
 40
0.0
 40
0.0
 40
0.0
 40
0.0
 40
0.0793441544
 40
0.1183177407
 40
0.1568037147
 40
0.1947831893
 40
0.2322373891
 40
0.3055446302
 40
0.3413982887
 40
0.3766990107
 40
0.4114234677
 40
0.4455584598
 40
0.4791094209
 40
0.5120842947
 40
0.5444729304
 40
0.5762509959
 40
0.6378887382
 40
0.6677263615
 40
0.6968988418
 40
0.7532601932
 40
0.807048734
 40
0.8330241978
 40
0.8584121171
 40
0.8832348739
 40
0.9075207919
 40
0.9313069728
 40
0.954634191
 40
1.0
 40
1.0
 40
1.0
 40
1.0
 10
19.2712646885
 20
7.7759707918
 30
0.0
 10
19.2640153135
 20
7.7741928143
 30
0.0
 10
19.2532365445
 20
7.7714098499
 30
0.0
 10
19.2390299855
 20
7.7674374479
 30
0.0
 10
19.22861145
 20
7.7643719825
 30
0.0
 10
19.218370784
 20
7.7612117188
 30
0.0
 10
19.2050538167
 20
7.7569153526
 30
0.0
 10
19.1920132714
 20
7.7524152192
 30
0.0
 10
19.1792797909
 20
7.7476651363
 30
0.0
 10
19.1700042431
 20
7.7440342591
 30
0.0
 10
19.160935994
 20
7.7403207346
 30
0.0
 10
19.1520789011
 20
7.7365289812
 30
0.0
 10
19.1434401783
 20
7.7326487984
 30
0.0
 10
19.1350276827
 20
7.7286701538
 30
0.0
 10
19.1268460479
 20
7.7245976956
 30
0.0
 10
19.1163566442
 20
7.7191158413
 30
0.0
 10
19.1062377498
 20
7.7134470703
 30
0.0
 10
19.0965087082
 20
7.7076007623
 30
0.0
 10
19.0873225996
 20
7.70181912
 30
0.0
 10
19.0764574262
 20
7.6944805822
 30
0.0
 10
19.0662045146
 20
7.6867970322
 30
0.0
 10
19.0585502805
 20
7.6805287695
 30
0.0
 10
19.0531444265
 20
7.6758211588
 30
0.0
 10
19.0480094539
 20
7.6710498823
 30
0.0
 10
19.0431482947
 20
7.6662111154
 30
0.0
 10
19.0385645079
 20
7.6612989534
 30
0.0
 10
19.0328836994
 20
7.6547080051
 30
0.0
 10
19.0289661919
 20
7.649555585
 30
0.0
 10
19.026538711
 20
7.6460454599
 30
0.0
  0
LINE
  5
50F
100
AcDbEntity
  8
0
100
AcDbLine
 62
9
  6
CONTINUOUS
 10
19.4567443918
 20
8.3845951502
 11
19.4822937293
 21
8.4226062189
  0
SPLINE
  5
510
100
AcDbEntity
  8
0
100
AcDbSpline
 62
9
  6
CONTINUOUS
 70
0
 71
3
 72
48
 73
44
 74
0
 42
0.0000001
 43
0.0000001
 44
0.0000000001
 40
0.0
 40
0.0
 40
0.0
 40
0.0
 40
0.0587811046
 40
0.0884354591
 40
0.1182557362
 40
0.1783826014
 40
0.2086874031
 40
0.239149248
 40
0.269760686
 40
0.3005138085
 40
0.331400727
 40
0.3624119188
 40
0.3935375159
 40
0.4091404705
 40
0.4247689014
 40
0.4404227804
 40
0.4561024896
 40
0.4718082835
 40
0.4875403022
 40
0.5032985929
 40
0.5190831092
 40
0.5507277063
 40
0.5824650153
 40
0.6142855858
 40
0.6461812799
 40
0.6781453656
 40
0.7101692391
 40
0.7261989665
 40
0.7422384165
 40
0.7582868116
 40
0.774344183
 40
0.7904105426
 40
0.8064855701
 40
0.8225688949
 40
0.8386612135
 40
0.8547631939
 40
0.8708752378
 40
0.9031267494
 40
0.9192642964
 40
0.9354080939
 40
0.9515558949
 40
0.967706822
 40
1.0
 40
1.0
 40
1.0
 40
1.0
 10
19.3370923594
 20
7.7911986722
 30
0.0
 10
19.3497102589
 20
7.7939463737
 30
0.0
 10
19.3687270894
 20
7.7979293796
 30
0.0
 10
19.3942183539
 20
7.8029438724
 30
0.0
 10
19.4200416998
 20
7.8077974996
 30
0.0
 10
19.4460626213
 20
7.8123673617
 30
0.0
 10
19.4722621036
 20
7.8167233288
 30
0.0
 10
19.4920826409
 20
7.819909198
 30
0.0
 10
19.5120186832
 20
7.8229949588
 30
0.0
 10
19.5320657472
 20
7.8259715188
 30
0.0
 10
19.5522184931
 20
7.8288316093
 30
0.0
 10
19.5724731593
 20
7.8315522658
 30
0.0
 10
19.5894194291
 20
7.8336766556
 30
0.0
 10
19.603024717
 20
7.8352783746
 30
0.0
 10
19.6132607305
 20
7.836427054
 30
0.0
 10
19.6235191645
 20
7.8375258409
 30
0.0
 10
19.6337991261
 20
7.8385822356
 30
0.0
 10
19.6440999465
 20
7.8396028242
 30
0.0
 10
19.6544209247
 20
7.8405945239
 30
0.0
 10
19.6647613925
 20
7.8415638571
 30
0.0
 10
19.6785844384
 20
7.8428378343
 30
0.0
 10
19.6959063229
 20
7.8443988777
 30
0.0
 10
19.7167436903
 20
7.8462000433
 30
0.0
 10
19.737643906
 20
7.847912483
 30
0.0
 10
19.7586024943
 20
7.8495196039
 30
0.0
 10
19.7796145603
 20
7.8510082189
 30
0.0
 10
19.7971576641
 20
7.8521370268
 30
0.0
 10
19.8112174951
 20
7.8529035873
 30
0.0
 10
19.8217772119
 20
7.8533937276
 30
0.0
 10
19.8323473907
 20
7.8537788922
 30
0.0
 10
19.8429267157
 20
7.854060679
 30
0.0
 10
19.8535139434
 20
7.8542487557
 30
0.0
 10
19.8641080341
 20
7.8543513
 30
0.0
 10
19.8747082562
 20
7.8543750222
 30
0.0
 10
19.885314336
 20
7.8543490073
 30
0.0
 10
19.8959266611
 20
7.8543052033
 30
0.0
 10
19.9100889978
 20
7.854265959
 30
0.0
 10
19.9242595829
 20
7.8543112298
 30
0.0
 10
19.9384353232
 20
7.8545289586
 30
0.0
 10
19.9490713949
 20
7.8548033201
 30
0.0
 10
19.9597060625
 20
7.8552192741
 30
0.0
 10
19.9738748821
 20
7.8560027176
 30
0.0
 10
19.9844847935
 20
7.8568890529
 30
0.0
 10
19.9915387105
 20
7.8576466221
 30
0.0
  0
SPLINE
  5
511
100
AcDbEntity
  8
0
100
AcDbSpline
 62
9
  6
CONTINUOUS
 70
0
 71
3
 72
13
 73
9
 74
0
 42
0.0000001
 43
0.0000001
 44
0.0000000001
 40
0.0
 40
0.0
 40
0.0
 40
0.0
 40
0.2479188936
 40
0.3723779892
 40
0.4971708471
 40
0.6223193729
 40
0.7478434683
 40
1.0
 40
1.0
 40
1.0
 40
1.0
 10
19.2712646885
 20
7.7759707923
 30
0.0
 10
19.2766800268
 20
7.7773324267
 30
0.0
 10
19.284824227
 20
7.7793371371
 30
0.0
 10
19.2957188524
 20
7.7819254366
 30
0.0
 10
19.3039332466
 20
7.7838317443
 30
0.0
 10
19.312179053
 20
7.785708397
 30
0.0
 10
19.323230172
 20
7.7881852206
 30
0.0
 10
19.3315398827
 20
7.7900049569
 30
0.0
 10
19.3370923594
 20
7.7911986722
 30
0.0
  0
SPLINE
  5
512
100
AcDbEntity
  8
0
100
AcDbSpline
 62
9
  6
CONTINUOUS
 70
0
 71
3
 72
21
 73
17
 74
0
 42
0.0000001
 43
0.0000001
 44
0.0000000001
 40
0.0
 40
0.0
 40
0.0
 40
0.0
 40
0.0501805192
 40
0.1030182376
 40
0.1583173346
 40
0.2158705949
 40
0.2754624262
 40
0.3368710365
 40
0.3998700451
 40
0.4642297075
 40
0.5297177882
 40
0.5961000796
 40
0.7306058288
 40
0.8658631504
 40
0.9331877738
 40
1.0
 40
1.0
 40
1.0
 40
1.0
 10
19.4567443918
 20
8.3845951502
 30
0.0
 10
19.4656514127
 20
8.3854703114
 30
0.0
 10
19.483966675
 20
8.3869724191
 30
0.0
 10
19.5121607696
 20
8.3885611427
 30
0.0
 10
19.5416956134
 20
8.3896069455
 30
0.0
 10
19.5724477918
 20
8.3901708035
 30
0.0
 10
19.60429411
 20
8.3903138115
 30
0.0
 10
19.6371110145
 20
8.3900971855
 30
0.0
 10
19.6707748553
 20
8.3895822402
 30
0.0
 10
19.7051618618
 20
8.3888303516
 30
0.0
 10
19.7401481232
 20
8.387903016
 30
0.0
 10
19.7876370327
 20
8.3865088395
 30
0.0
 10
19.8475609937
 20
8.3846466126
 30
0.0
 10
19.9076609456
 20
8.3830287025
 30
0.0
 10
19.9557002576
 20
8.38212039
 30
0.0
 10
19.9796227821
 20
8.3818375886
 30
0.0
 10
19.9915387105
 20
8.381750204
 30
0.0
  0
SPLINE
  5
513
100
AcDbEntity
  8
0
100
AcDbSpline
 62
7
  6
CONTINUOUS
 70
0
 71
3
 72
18
 73
14
 74
0
 42
0.0000001
 43
0.0000001
 44
0.0000000001
 40
0.0
 40
0.0
 40
0.0
 40
0.0
 40
0.0512021861
 40
0.1043395786
 40
0.1593296489
 40
0.2160855687
 40
0.2745170338
 40
0.3345309156
 40
0.458921324
 40
0.588474188
 40
0.7223848412
 40
0.8598353922
 40
1.0
 40
1.0
 40
1.0
 40
1.0
 10
19.4822937293
 20
8.4226062189
 30
0.0
 10
19.4873683394
 20
8.4230880438
 30
0.0
 10
19.4977201266
 20
8.4239587097
 30
0.0
 10
19.5135488485
 20
8.4249975677
 30
0.0
 10
19.529944333
 20
8.42580982
 30
0.0
 10
19.5468761489
 20
8.4264111117
 30
0.0
 10
19.5643139639
 20
8.4268171804
 30
0.0
 10
19.5884879169
 20
8.4271225628
 30
0.0
 10
19.6197454118
 20
8.4270813555
 30
0.0
 10
19.6583546907
 20
8.4265080958
 30
0.0
 10
19.6982562126
 20
8.4255341718
 30
0.0
 10
19.7392067177
 20
8.4242845454
 30
0.0
 10
19.7668291683
 20
8.4233581179
 30
0.0
 10
19.7807753757
 20
8.4228892889
 30
0.0
  0
SPLINE
  5
514
100
AcDbEntity
  8
0
100
AcDbSpline
 62
7
  6
CONTINUOUS
 70
0
 71
3
 72
9
 73
5
 74
0
 42
0.0000001
 43
0.0000001
 44
0.0000000001
 40
0.0
 40
0.0
 40
0.0
 40
0.0
 40
0.2542179642
 40
1.0
 40
1.0
 40
1.0
 40
1.0
 10
19.5830763512
 20
12.0960122391
 30
0.0
 10
19.5818928183
 20
12.0955607728
 30
0.0
 10
19.577277128
 20
12.0936826707
 30
0.0
 10
19.572826207
 20
12.0913945271
 30
0.0
 10
19.5696534449
 20
12.089459884
 30
0.0
  0
SPLINE
  5
515
100
AcDbEntity
  8
0
100
AcDbSpline
 62
9
  6
CONTINUOUS
 70
0
 71
3
 72
79
 73
75
 74
0
 42
0.0000001
 43
0.0000001
 44
0.0000000001
 40
0.0
 40
0.0
 40
0.0
 40
0.0
 40
0.0076696497
 40
0.0151360414
 40
0.0224833336
 40
0.0261371768
 40
0.0297904765
 40
0.0334525097
 40
0.0371317
 40
0.0408293338
 40
0.0445427103
 40
0.0520058026
 40
0.0594995252
 40
0.0670029984
 40
0.0744978211
 40
0.0819813231
 40
0.0894585991
 40
0.1044136927
 40
0.1193905041
 40
0.1343831149
 40
0.149381696
 40
0.1643870011
 40
0.1794039502
 40
0.1944365605
 40
0.2094881372
 40
0.2396611598
 40
0.2699525736
 40
0.3003591992
 40
0.330880954
 40
0.36153017
 40
0.3769072829
 40
0.3923190284
 40
0.4077639523
 40
0.4232402394
 40
0.4387494124
 40
0.4542954539
 40
0.4854929428
 40
0.5011391111
 40
0.5168191063
 40
0.5325374289
 40
0.5482930134
 40
0.5640821585
 40
0.5799032907
 40
0.5957570258
 40
0.6116436686
 40
0.6435112642
 40
0.675500077
 40
0.7075995757
 40
0.7398024857
 40
0.7721029734
 40
0.7882874146
 40
0.8044921095
 40
0.8207158377
 40
0.8369566466
 40
0.8532118672
 40
0.8694804752
 40
0.8857648923
 40
0.8939136677
 40
0.9020654807
 40
0.9102183874
 40
0.9183707051
 40
0.9265210508
 40
0.9346698207
 40
0.9428214161
 40
0.9509801591
 40
0.955063383
 40
0.9591497477
 40
0.9632396695
 40
0.9673329964
 40
0.9714278069
 40
0.9755219439
 40
0.9837008008
 40
0.9918598131
 40
1.0
 40
1.0
 40
1.0
 40
1.0
 10
19.0265387113
 20
7.6460454604
 30
0.0
 10
19.0264021841
 20
7.6423399226
 30
0.0
 10
19.0262814599
 20
7.6350208839
 30
0.0
 10
19.0264897005
 20
7.624151146
 30
0.0
 10
19.0269116114
 20
7.6152317225
 30
0.0
 10
19.0273486912
 20
7.6081601902
 30
0.0
 10
19.0277140209
 20
7.60286947
 30
0.0
 10
19.0281061575
 20
7.5975684154
 30
0.0
 10
19.0285113546
 20
7.5922468512
 30
0.0
 10
19.0289293768
 20
7.586901376
 30
0.0
 10
19.0295107268
 20
7.5797337113
 30
0.0
 10
19.0302876069
 20
7.5707406033
 30
0.0
 10
19.031326406
 20
7.5599313038
 30
0.0
 10
19.0324986665
 20
7.5491200817
 30
0.0
 10
19.0338356641
 20
7.5383328787
 30
0.0
 10
19.0353375707
 20
7.5275802129
 30
0.0
 10
19.0375480001
 20
7.5132862296
 30
0.0
 10
19.0406869801
 20
7.4954721011
 30
0.0
 10
19.0449982312
 20
7.4741822693
 30
0.0
 10
19.049874695
 20
7.4529927457
 30
0.0
 10
19.0553347533
 20
7.431931756
 30
0.0
 10
19.061372252
 20
7.4110168005
 30
0.0
 10
19.0679751113
 20
7.3902562455
 30
0.0
 10
19.0751363845
 20
7.3696578261
 30
0.0
 10
19.0854305419
 20
7.3424015575
 30
0.0
 10
19.0996781883
 20
7.3087669738
 30
0.0
 10
19.1188827922
 20
7.2692322274
 30
0.0
 10
19.140189113
 20
7.2305954088
 30
0.0
 10
19.1635532981
 20
7.1929645475
 30
0.0
 10
19.1846621488
 20
7.1625451087
 30
0.0
 10
19.2025065149
 20
7.1387958361
 30
0.0
 10
19.2163795469
 20
7.1212661005
 30
0.0
 10
19.2307194954
 20
7.1040538946
 30
0.0
 10
19.2455217706
 20
7.0871749268
 30
0.0
 10
19.2607763554
 20
7.0706368797
 30
0.0
 10
19.2817186409
 20
7.0490175046
 30
0.0
 10
19.3034892009
 20
7.0281181141
 30
0.0
 10
19.3260796027
 20
7.0080288708
 30
0.0
 10
19.3434439929
 20
6.9933352674
 30
0.0
 10
19.3611903925
 20
6.9790214328
 30
0.0
 10
19.3793106792
 20
6.9650969637
 30
0.0
 10
19.3978011639
 20
6.9515834301
 30
0.0
 10
19.4166522969
 20
6.9384944471
 30
0.0
 10
19.4358499041
 20
6.9258331829
 30
0.0
 10
19.4619171623
 20
6.9095125029
 30
0.0
 10
19.4953092502
 20
6.8902115797
 30
0.0
 10
19.5365300995
 20
6.8688908205
 30
0.0
 10
19.5788506308
 20
6.8494525184
 30
0.0
 10
19.6221680374
 20
6.831947195
 30
0.0
 10
19.6589803483
 20
6.8189935343
 30
0.0
 10
19.6888214133
 20
6.8096229404
 30
0.0
 10
19.7114007795
 20
6.8030916432
 30
0.0
 10
19.7341483293
 20
6.797065836
 30
0.0
 10
19.7570504917
 20
6.7915517055
 30
0.0
 10
19.7800945869
 20
6.7865606459
 30
0.0
 10
19.8032683028
 20
6.7820988137
 30
0.0
 10
19.8226700338
 20
6.7788026621
 30
0.0
 10
19.8382406502
 20
6.7764050714
 30
0.0
 10
19.8499446086
 20
6.7747328293
 30
0.0
 10
19.8616693745
 20
6.773199805
 30
0.0
 10
19.8734121457
 20
6.7718170752
 30
0.0
 10
19.8851710354
 20
6.7705973584
 30
0.0
 10
19.8969459171
 20
6.769548099
 30
0.0
 10
19.9087351939
 20
6.7686243667
 30
0.0
 10
19.9185700769
 20
6.7679246941
 30
0.0
 10
19.9264459186
 20
6.7673855841
 30
0.0
 10
19.9323595647
 20
6.7669862123
 30
0.0
 10
19.9382780679
 20
6.766586259
 30
0.0
 10
19.9442003641
 20
6.7661819635
 30
0.0
 10
19.9501258533
 20
6.7657943384
 30
0.0
 10
19.9580253537
 20
6.7653261758
 30
0.0
 10
19.9678947856
 20
6.7648819811
 30
0.0
 10
19.9797309136
 20
6.7647339627
 30
0.0
 10
19.9876111625
 20
6.7649998552
 30
0.0
 10
19.9915387105
 20
6.7652505852
 30
0.0
  0
SPLINE
  5
516
100
AcDbEntity
  8
0
100
AcDbSpline
 62
9
  6
CONTINUOUS
 70
0
 71
3
 72
29
 73
25
 74
0
 42
0.0000001
 43
0.0000001
 44
0.0000000001
 40
0.0
 40
0.0
 40
0.0
 40
0.0
 40
0.0633429054
 40
0.1276117873
 40
0.160022527
 40
0.1925666515
 40
0.2578973082
 40
0.2906327119
 40
0.3233646881
 40
0.3886686136
 40
0.4535862497
 40
0.4858393037
 40
0.5179170069
 40
0.5814533044
 40
0.6129007131
 40
0.6441112044
 40
0.7057740357
 40
0.7664393795
 40
0.8261211164
 40
0.8848937624
 40
0.9139677454
 40
0.9428385608
 40
0.9715143362
 40
1.0
 40
1.0
 40
1.0
 40
1.0
 10
19.9915387105
 20
7.1141154509
 30
0.0
 10
19.9688768442
 20
7.115929097
 30
0.0
 10
19.9233282065
 20
7.1210888134
 30
0.0
 10
19.8667894497
 20
7.1314723837
 30
0.0
 10
19.8216914166
 20
7.1423426978
 30
0.0
 10
19.776666876
 20
7.1549963839
 30
0.0
 10
19.7322872664
 20
7.1702727494
 30
0.0
 10
19.6889008543
 20
7.1882295807
 30
0.0
 10
19.6463021988
 20
7.2079612806
 30
0.0
 10
19.5948260389
 20
7.235886193
 30
0.0
 10
19.5461786849
 20
7.2681970614
 30
0.0
 10
19.5094013983
 20
7.2964947966
 30
0.0
 10
19.4743876871
 20
7.3261832768
 30
0.0
 10
19.4417836952
 20
7.3581951555
 30
0.0
 10
19.4119414901
 20
7.3922873349
 30
0.0
 10
19.3842994582
 20
7.4273356448
 30
0.0
 10
19.3536032646
 20
7.4732336346
 30
0.0
 10
19.3232067234
 20
7.5311983097
 30
0.0
 10
19.2997103976
 20
7.591173589
 30
0.0
 10
19.2858145776
 20
7.6423832024
 30
0.0
 10
19.2781582115
 20
7.6835853903
 30
0.0
 10
19.27411926
 20
7.7144265319
 30
0.0
 10
19.2717401474
 20
7.7452260654
 30
0.0
 10
19.2712424364
 20
7.7657470615
 30
0.0
 10
19.2712646885
 20
7.7759707918
 30
0.0
  0
SPLINE
  5
517
100
AcDbEntity
  8
0
100
AcDbSpline
 62
9
  6
CONTINUOUS
 70
0
 71
3
 72
25
 73
21
 74
0
 42
0.0000001
 43
0.0000001
 44
0.0000000001
 40
0.0
 40
0.0
 40
0.0
 40
0.0
 40
0.0627475527
 40
0.1258485305
 40
0.1893232313
 40
0.2531309506
 40
0.3172220568
 40
0.3814975341
 40
0.4458463946
 40
0.5101202416
 40
0.5741615125
 40
0.637798174
 40
0.700843172
 40
0.7320928851
 40
0.7631180625
 40
0.824374532
 40
0.8545765373
 40
0.8844506508
 40
0.9430734702
 40
1.0
 40
1.0
 40
1.0
 40
1.0
 10
19.9915387105
 20
7.1894780522
 30
0.0
 10
19.9710642215
 20
7.1894780522
 30
0.0
 10
19.9299760796
 20
7.1912915026
 30
0.0
 10
19.8686743887
 20
7.1995755538
 30
0.0
 10
19.8080602652
 20
7.2135913603
 30
0.0
 10
19.7487182882
 20
7.2333302969
 30
0.0
 10
19.6912968046
 20
7.2587655187
 30
0.0
 10
19.6364191881
 20
7.2896693606
 30
0.0
 10
19.5847543604
 20
7.3257940097
 30
0.0
 10
19.5368827749
 20
7.3666964386
 30
0.0
 10
19.4934072787
 20
7.4119225587
 30
0.0
 10
19.4547580461
 20
7.4608212255
 30
0.0
 10
19.4268362671
 20
7.5042377197
 30
0.0
 10
19.4072335629
 20
7.5401398648
 30
0.0
 10
19.3896149127
 20
7.5764075115
 30
0.0
 10
19.3747236584
 20
7.6135704283
 30
0.0
 10
19.3625519315
 20
7.6512544935
 30
0.0
 10
19.3523095255
 20
7.6886194044
 30
0.0
 10
19.3428006578
 20
7.7351720872
 30
0.0
 10
19.338438048
 20
7.7726750357
 30
0.0
 10
19.3370860609
 20
7.7912008609
 30
0.0
  0
SPLINE
  5
518
100
AcDbEntity
  8
0
100
AcDbSpline
 62
9
  6
CONTINUOUS
 70
0
 71
3
 72
11
 73
7
 74
0
 42
0.0000001
 43
0.0000001
 44
0.0000000001
 40
0.0
 40
0.0
 40
0.0
 40
0.0
 40
0.2494179985
 40
0.5006979264
 40
0.7516221138
 40
1.0
 40
1.0
 40
1.0
 40
1.0
 10
19.7807753757
 20
8.4228892889
 30
0.0
 10
19.7982935219
 20
8.4223003824
 30
0.0
 10
19.8334604749
 20
8.4211147324
 30
0.0
 10
19.8862583414
 20
8.4195462096
 30
0.0
 10
19.9389946552
 20
8.4184123634
 30
0.0
 10
19.9740837633
 20
8.4181014042
 30
0.0
 10
19.9915387105
 20
8.4181014042
 30
0.0
  0
SPLINE
  5
519
100
AcDbEntity
  8
0
100
AcDbSpline
 62
9
  6
CONTINUOUS
 70
0
 71
3
 72
31
 73
27
 74
0
 42
0.0000001
 43
0.0000001
 44
0.0000000001
 40
0.0
 40
0.0
 40
0.0
 40
0.0
 40
0.0772383201
 40
0.1552049304
 40
0.310894059
 40
0.3873949047
 40
0.4621870273
 40
0.5346671589
 40
0.5698547281
 40
0.604243233
 40
0.6377612665
 40
0.6703390247
 40
0.7019087028
 40
0.7324049973
 40
0.7617657503
 40
0.7899327876
 40
0.8168530222
 40
0.8424799242
 40
0.8667754993
 40
0.8897129805
 40
0.9112805101
 40
0.9314861901
 40
0.9503649565
 40
0.9679877309
 40
0.9844730001
 40
1.0
 40
1.0
 40
1.0
 40
1.0
 10
19.9915387105
 20
8.4817470499
 30
0.0
 10
19.9759943113
 20
8.4815823501
 30
0.0
 10
19.9447567604
 20
8.4814492665
 30
0.0
 10
19.8821852442
 20
8.4817146424
 30
0.0
 10
19.8197657745
 20
8.4824274004
 30
0.0
 10
19.7579830987
 20
8.4829040048
 30
0.0
 10
19.7129452924
 20
8.482965422
 30
0.0
 10
19.6762230967
 20
8.482625682
 30
0.0
 10
19.6476383766
 20
8.4820219346
 30
0.0
 10
19.6268985333
 20
8.4813903562
 30
0.0
 10
19.6066915221
 20
8.4805540573
 30
0.0
 10
19.5870631439
 20
8.4794912608
 30
0.0
 10
19.5680591583
 20
8.4781802885
 30
0.0
 10
19.5497252631
 20
8.4765994598
 30
0.0
 10
19.532107074
 20
8.4747271164
 30
0.0
 10
19.515250094
 20
8.4725416082
 30
0.0
 10
19.4991996726
 20
8.4700212808
 30
0.0
 10
19.4840009498
 20
8.4671444418
 30
0.0
 10
19.4696987855
 20
8.4638893025
 30
0.0
 10
19.4563376648
 20
8.4602338547
 30
0.0
 10
19.4439616316
 20
8.4561556962
 30
0.0
 10
19.4326141674
 20
8.4516315802
 30
0.0
 10
19.4223385744
 20
8.4466371952
 30
0.0
 10
19.4131776349
 20
8.4411452514
 30
0.0
 10
19.4051779972
 20
8.4351285848
 30
0.0
 10
19.4005331121
 20
8.4306299467
 30
0.0
 10
19.3984549987
 20
8.4282960217
 30
0.0
  0
SPLINE
  5
51A
100
AcDbEntity
  8
0
100
AcDbSpline
 62
9
  6
CONTINUOUS
 70
0
 71
3
 72
31
 73
27
 74
0
 42
0.0000001
 43
0.0000001
 44
0.0000000001
 40
0.0
 40
0.0
 40
0.0
 40
0.0
 40
0.153573041
 40
0.2306103714
 40
0.307037933
 40
0.3822828172
 40
0.4557833068
 40
0.526993055
 40
0.5615747773
 40
0.5953892324
 40
0.628375599
 40
0.660475719
 40
0.6916346554
 40
0.7218013933
 40
0.7509297239
 40
0.7789793682
 40
0.8059174106
 40
0.8317201348
 40
0.8563753763
 40
0.8798855243
 40
0.9022713159
 40
0.9235765334
 40
0.9438736105
 40
0.9632698993
 40
0.9819138901
 40
1.0
 40
1.0
 40
1.0
 40
1.0
 10
19.9915387105
 20
8.6794418441
 30
0.0
 10
19.9654228998
 20
8.67878697
 30
0.0
 10
19.926209255
 20
8.6776435939
 30
0.0
 10
19.8740266816
 20
8.6754049152
 30
0.0
 10
19.8351787106
 20
8.673270566
 30
0.0
 10
19.7969670643
 20
8.6705892562
 30
0.0
 10
19.7596961385
 20
8.66726727
 30
0.0
 10
19.7293846722
 20
8.6638554465
 30
0.0
 10
19.7058479353
 20
8.6606878534
 30
0.0
 10
19.6887941509
 20
8.6581146633
 30
0.0
 10
19.6722048575
 20
8.655309251
 30
0.0
 10
19.6561180253
 20
8.6522597411
 30
0.0
 10
19.6405715927
 20
8.648954341
 30
0.0
 10
19.6256034305
 20
8.645381221
 30
0.0
 10
19.6112513316
 20
8.6415285282
 30
0.0
 10
19.5975529908
 20
8.6373843562
 30
0.0
 10
19.5845459859
 20
8.6329367107
 30
0.0
 10
19.572267759
 20
8.6281734527
 30
0.0
 10
19.5607556121
 20
8.6230822159
 30
0.0
 10
19.550046726
 20
8.6176502806
 30
0.0
 10
19.5401782533
 20
8.6118644336
 30
0.0
 10
19.5311874772
 20
8.6057107126
 30
0.0
 10
19.5231123101
 20
8.5991744967
 30
0.0
 10
19.5159914594
 20
8.5922396951
 30
0.0
 10
19.5098667218
 20
8.5848921322
 30
0.0
 10
19.5064373023
 20
8.5796475961
 30
0.0
 10
19.5049204017
 20
8.5769709483
 30
0.0
  0
SPLINE
  5
51B
100
AcDbEntity
  8
0
100
AcDbSpline
 62
9
  6
CONTINUOUS
 70
0
 71
3
 72
32
 73
28
 74
0
 42
0.0000001
 43
0.0000001
 44
0.0000000001
 40
0.0
 40
0.0
 40
0.0
 40
0.0
 40
0.0756852403
 40
0.1517804881
 40
0.2277373892
 40
0.3030162571
 40
0.3770888237
 40
0.4494419581
 40
0.5195828263
 40
0.5536787519
 40
0.5870501082
 40
0.6196448497
 40
0.6514142563
 40
0.6823135848
 40
0.7123028719
 40
0.741347926
 40
0.7694215564
 40
0.7965050922
 40
0.8225902592
 40
0.8476814763
 40
0.8717986335
 40
0.894980374
 40
0.9172878332
 40
0.9388086492
 40
0.9596608437
 40
0.9799958875
 40
1.0
 40
1.0
 40
1.0
 40
1.0
 10
19.9915387105
 20
8.8112177591
 30
0.0
 10
19.97965863
 20
8.8110357161
 30
0.0
 10
19.9558369765
 20
8.810436654
 30
0.0
 10
19.9201203169
 20
8.8088027391
 30
0.0
 10
19.8845114458
 20
8.8063855435
 30
0.0
 10
19.8492866429
 20
8.8031418936
 30
0.0
 10
19.814721459
 20
8.7990288187
 30
0.0
 10
19.7810916476
 20
8.7940033734
 30
0.0
 10
19.7538225975
 20
8.7889736186
 30
0.0
 10
19.7327038727
 20
8.7844211514
 30
0.0
 10
19.7174215725
 20
8.7807820384
 30
0.0
 10
19.7025812394
 20
8.7768808117
 30
0.0
 10
19.6882172483
 20
8.772711933
 30
0.0
 10
19.6743639731
 20
8.7682699364
 30
0.0
 10
19.6610557252
 20
8.7635492951
 30
0.0
 10
19.6483267603
 20
8.7585444336
 30
0.0
 10
19.6362112691
 20
8.7532496923
 30
0.0
 10
19.6247433795
 20
8.7476592918
 30
0.0
 10
19.6139571677
 20
8.7417672812
 30
0.0
 10
19.6038866934
 20
8.735567475
 30
0.0
 10
19.5945660684
 20
8.729053375
 30
0.0
 10
19.5860295899
 20
8.7222181168
 30
0.0
 10
19.5783119221
 20
8.7150543845
 30
0.0
 10
19.5714484504
 20
8.7075546724
 30
0.0
 10
19.5654753305
 20
8.6997108509
 30
0.0
 10
19.5604306531
 20
8.6915171098
 30
0.0
 10
19.5576983354
 20
8.6857873898
 30
0.0
 10
19.5565092611
 20
8.6828808595
 30
0.0
  0
SPLINE
  5
51C
100
AcDbEntity
  8
0
100
AcDbSpline
 62
7
  6
CONTINUOUS
 70
0
 71
3
 72
31
 73
27
 74
0
 42
0.0000001
 43
0.0000001
 44
0.0000000001
 40
0.0
 40
0.0
 40
0.0
 40
0.0
 40
0.0737972566
 40
0.1477444113
 40
0.2214136765
 40
0.2943751916
 40
0.3662034544
 40
0.4364843393
 40
0.5048233911
 40
0.5708562815
 40
0.6029100349
 40
0.6342719772
 40
0.6649121191
 40
0.6948059805
 40
0.7239356306
 40
0.7522909126
 40
0.7798708757
 40
0.8066854302
 40
0.8327572273
 40
0.8581237356
 40
0.8828394428
 40
0.9069780483
 40
0.9306344267
 40
0.9539260596
 40
0.9769935705
 40
1.0
 40
1.0
 40
1.0
 40
1.0
 10
19.9915387105
 20
8.9904248551
 30
0.0
 10
19.9801668557
 20
8.9904248551
 30
0.0
 10
19.9573967062
 20
8.9898863162
 30
0.0
 10
19.9233488209
 20
8.9875197953
 30
0.0
 10
19.889570114
 20
8.9836296452
 30
0.0
 10
19.8563264467
 20
8.9782533703
 30
0.0
 10
19.8238823026
 20
8.9714285087
 30
0.0
 10
19.7925017176
 20
8.9631924637
 30
0.0
 10
19.7624493772
 20
8.9535826978
 30
0.0
 10
19.7384965613
 20
8.944370587
 30
0.0
 10
19.7202463097
 20
8.9363108305
 30
0.0
 10
19.7071936048
 20
8.930003544
 30
0.0
 10
19.6946740659
 20
8.9233790458
 30
0.0
 10
19.6827207256
 20
8.916441705
 30
0.0
 10
19.6713667187
 20
8.9091959681
 30
0.0
 10
19.6606451502
 20
8.9016461453
 30
0.0
 10
19.6505891567
 20
8.8937964378
 30
0.0
 10
19.6412319333
 20
8.885650902
 30
0.0
 10
19.6326067925
 20
8.877213439
 30
0.0
 10
19.6247472395
 20
8.868487792
 30
0.0
 10
19.6176870695
 20
8.8594775935
 30
0.0
 10
19.6114604613
 20
8.8501864074
 30
0.0
 10
19.6061020869
 20
8.8406180383
 30
0.0
 10
19.601647018
 20
8.8307761814
 30
0.0
 10
19.5981310126
 20
8.8206667565
 30
0.0
 10
19.5964384567
 20
8.8137583709
 30
0.0
 10
19.5957625599
 20
8.8102782011
 30
0.0
  0
SPLINE
  5
51D
100
AcDbEntity
  8
0
100
AcDbSpline
 62
7
  6
CONTINUOUS
 70
0
 71
3
 72
9
 73
5
 74
0
 42
0.0000001
 43
0.0000001
 44
0.0000000001
 40
0.0
 40
0.0
 40
0.0
 40
0.0
 40
0.4899867087
 40
1.0
 40
1.0
 40
1.0
 40
1.0
 10
19.60371464
 20
8.9750477055
 30
0.0
 10
19.6052508371
 20
8.9600839518
 30
0.0
 10
19.6070136467
 20
8.929391272
 30
0.0
 10
19.6061676593
 20
8.8986639987
 30
0.0
 10
19.6051129591
 20
8.8830423531
 30
0.0
  0
SPLINE
  5
51E
100
AcDbEntity
  8
0
100
AcDbSpline
 62
9
  6
CONTINUOUS
 70
0
 71
3
 72
31
 73
27
 74
0
 42
0.0000001
 43
0.0000001
 44
0.0000000001
 40
0.0
 40
0.0
 40
0.0
 40
0.0
 40
0.026999305
 40
0.0540463897
 40
0.0811827748
 40
0.1084552954
 40
0.1359056517
 40
0.1635719211
 40
0.1914884737
 40
0.2196870304
 40
0.2770221105
 40
0.3062331394
 40
0.3358242843
 40
0.3658066264
 40
0.3961867346
 40
0.4581360902
 40
0.5216866173
 40
0.5540504849
 40
0.5867846378
 40
0.6532853676
 40
0.6870255152
 40
0.7210526259
 40
0.7898420197
 40
0.8594336896
 40
0.929576504
 40
1.0
 40
1.0
 40
1.0
 40
1.0
 10
19.5989754932
 20
9.0093090047
 30
0.0
 10
19.5989755165
 20
9.0142297079
 30
0.0
 10
19.5992916496
 20
9.02408271
 30
0.0
 10
19.6007105552
 20
9.0388199134
 30
0.0
 10
19.603073804
 20
9.0534865114
 30
0.0
 10
19.6063796259
 20
9.0680448759
 30
0.0
 10
19.6106182806
 20
9.0824599939
 30
0.0
 10
19.6157746313
 20
9.0966972443
 30
0.0
 10
19.6218315595
 20
9.1107243279
 30
0.0
 10
19.6311369593
 20
9.1291990091
 30
0.0
 10
19.6421626632
 20
9.1470322427
 30
0.0
 10
19.6547536519
 20
9.1640558244
 30
0.0
 10
19.665072769
 20
9.1765304949
 30
0.0
 10
19.6761793587
 20
9.1885995386
 30
0.0
 10
19.6920996122
 20
9.2042146088
 30
0.0
 10
19.7138564174
 20
9.2225590702
 30
0.0
 10
19.7375500128
 20
9.2389559239
 30
0.0
 10
19.7576854892
 20
9.2509813631
 30
0.0
 10
19.7788025709
 20
9.2623663435
 30
0.0
 10
19.8008682255
 20
9.2724717616
 30
0.0
 10
19.8237097003
 20
9.2812657806
 30
0.0
 10
19.8472840651
 20
9.2892631155
 30
0.0
 10
19.8776236823
 20
9.2975719537
 30
0.0
 10
19.9149815519
 20
9.3047504304
 30
0.0
 10
19.9530745084
 20
9.3090744827
 30
0.0
 10
19.9787038204
 20
9.3100327538
 30
0.0
 10
19.9915387105
 20
9.3100303389
 30
0.0
  0
SPLINE
  5
51F
100
AcDbEntity
  8
0
100
AcDbSpline
 62
9
  6
CONTINUOUS
 70
0
 71
3
 72
36
 73
32
 74
0
 42
0.0000001
 43
0.0000001
 44
0.0000000001
 40
0.0
 40
0.0
 40
0.0
 40
0.0
 40
0.0876639519
 40
0.1745816317
 40
0.2600202541
 40
0.3432633921
 40
0.4236256931
 40
0.4625253473
 40
0.5004670412
 40
0.537378463
 40
0.5731915579
 40
0.607842894
 40
0.6412740787
 40
0.6734326606
 40
0.7042727306
 40
0.7337556258
 40
0.7618512712
 40
0.7885393297
 40
0.8138105843
 40
0.8376691946
 40
0.8601350129
 40
0.8812463655
 40
0.9010639339
 40
0.9196748089
 40
0.937196688
 40
0.9537820227
 40
0.9696200897
 40
0.9773322754
 40
0.9849445313
 40
0.9924892759
 40
1.0
 40
1.0
 40
1.0
 40
1.0
 10
5.9290387105
 20
8.476882358
 30
0.0
 10
5.9127000934
 20
8.476882358
 30
0.0
 10
5.8801592576
 20
8.4763379416
 30
0.0
 10
5.8317500608
 20
8.4738924794
 30
0.0
 10
5.7842742295
 20
8.4698433839
 30
0.0
 10
5.7381883158
 20
8.4642298986
 30
0.0
 10
5.7009143127
 20
8.4582311289
 30
0.0
 10
5.6721466205
 20
8.4526650938
 30
0.0
 10
5.6514229284
 20
8.4481830759
 30
0.0
 10
5.6313672232
 20
8.4433593494
 30
0.0
 10
5.6120275754
 20
8.4382055206
 30
0.0
 10
5.5934503906
 20
8.4327340809
 30
0.0
 10
5.5756802079
 20
8.4269581402
 30
0.0
 10
5.5587595462
 20
8.4208916435
 30
0.0
 10
5.5427288129
 20
8.4145492031
 30
0.0
 10
5.5276262528
 20
8.407945923
 30
0.0
 10
5.5134877506
 20
8.4010975696
 30
0.0
 10
5.5003467632
 20
8.3940203961
 30
0.0
 10
5.4882343321
 20
8.3867308883
 30
0.0
 10
5.477178899
 20
8.3792458926
 30
0.0
 10
5.467206311
 20
8.3715823825
 30
0.0
 10
5.4583400456
 20
8.3637571191
 30
0.0
 10
5.450601212
 20
8.3557866984
 30
0.0
 10
5.4440089274
 20
8.3476875972
 30
0.0
 10
5.4385810248
 20
8.3394755404
 30
0.0
 10
5.434334628
 20
8.3311685392
 30
0.0
 10
5.4317709656
 20
8.3241166311
 30
0.0
 10
5.4303493036
 20
8.3184813018
 30
0.0
 10
5.4295933819
 20
8.3142828752
 30
0.0
 10
5.4291396538
 20
8.3100791657
 30
0.0
 10
5.4290387477
 20
8.3072721188
 30
0.0
 10
5.4290387477
 20
8.3058722863
 30
0.0
  0
SPLINE
  5
520
100
AcDbEntity
  8
0
100
AcDbSpline
 62
9
  6
CONTINUOUS
 70
0
 71
3
 72
36
 73
32
 74
0
 42
0.0000001
 43
0.0000001
 44
0.0000000001
 40
0.0
 40
0.0
 40
0.0
 40
0.0
 40
0.0876639519
 40
0.1745816317
 40
0.2600202541
 40
0.3432633921
 40
0.4236256931
 40
0.4625253473
 40
0.5004670412
 40
0.537378463
 40
0.5731915579
 40
0.607842894
 40
0.6412740787
 40
0.6734326606
 40
0.7042727306
 40
0.7337556258
 40
0.7618512712
 40
0.7885393297
 40
0.8138105843
 40
0.8376691946
 40
0.8601350129
 40
0.8812463655
 40
0.9010639339
 40
0.9196748089
 40
0.937196688
 40
0.9537820227
 40
0.9696200897
 40
0.9773322754
 40
0.9849445313
 40
0.9924892759
 40
1.0
 40
1.0
 40
1.0
 40
1.0
 10
5.9290387105
 20
4.550256284
 30
0.0
 10
5.9127000934
 20
4.550256284
 30
0.0
 10
5.8801592576
 20
4.5497118676
 30
0.0
 10
5.8317500608
 20
4.5472664054
 30
0.0
 10
5.7842742295
 20
4.5432173099
 30
0.0
 10
5.7381883158
 20
4.5376038246
 30
0.0
 10
5.7009143127
 20
4.531605055
 30
0.0
 10
5.6721466205
 20
4.5260390198
 30
0.0
 10
5.6514229284
 20
4.5215570019
 30
0.0
 10
5.6313672232
 20
4.5167332754
 30
0.0
 10
5.6120275754
 20
4.5115794466
 30
0.0
 10
5.5934503906
 20
4.5061080069
 30
0.0
 10
5.5756802079
 20
4.5003320662
 30
0.0
 10
5.5587595462
 20
4.4942655695
 30
0.0
 10
5.5427288129
 20
4.4879231291
 30
0.0
 10
5.5276262528
 20
4.481319849
 30
0.0
 10
5.5134877506
 20
4.4744714956
 30
0.0
 10
5.5003467632
 20
4.4673943221
 30
0.0
 10
5.4882343321
 20
4.4601048143
 30
0.0
 10
5.477178899
 20
4.4526198186
 30
0.0
 10
5.467206311
 20
4.4449563085
 30
0.0
 10
5.4583400456
 20
4.4371310451
 30
0.0
 10
5.450601212
 20
4.4291606244
 30
0.0
 10
5.4440089274
 20
4.4210615232
 30
0.0
 10
5.4385810248
 20
4.4128494664
 30
0.0
 10
5.434334628
 20
4.4045424652
 30
0.0
 10
5.4317709656
 20
4.3974905571
 30
0.0
 10
5.4303493036
 20
4.3918552278
 30
0.0
 10
5.4295933819
 20
4.3876568012
 30
0.0
 10
5.4291396538
 20
4.3834530917
 30
0.0
 10
5.4290387477
 20
4.3806460448
 30
0.0
 10
5.4290387477
 20
4.3792462123
 30
0.0
  0
ENDSEC
  0
SECTION
  2
OBJECTS
  0
DICTIONARY
  5
C
100
AcDbDictionary
280
0
281
1
  3
ACAD_GROUP
350
D
  3
ACAD_MLINESTYLE
350
17
  3
ACAD_LAYOUT
350
1A
  3
ACAD_PLOTSETTINGS
350
19
  3
ACAD_PLOTSTYLENAME
350
E
  0
DICTIONARY
  5
D
102
{ACAD_REACTORS
330
C
102
}
100
AcDbDictionary
280
0
281
1
  0
ACDBDICTIONARYWDFLT
  5
E
102
{ACAD_REACTORS
330
C
102
}
100
AcDbDictionary
281
1
  3
Normal
350
F
100
AcDbDictionaryWithDefault
340
F
  0
DICTIONARY
  5
17
102
{ACAD_REACTORS
330
C
102
}
100
AcDbDictionary
280
0
281
1
  3
Standard
350
18
  0
DICTIONARY
  5
19
102
{ACAD_REACTORS
330
C
102
}
100
AcDbDictionary
281
1
  0
DICTIONARY
  5
1A
102
{ACAD_REACTORS
330
C
102
}
100
AcDbDictionary
281
1
  3
Model
350
521
  3
Layout1
350
522
  0
ACDBPLACEHOLDER
  5
F
102
{ACAD_REACTORS
330
E
102
}
  0
MLINESTYLE
  5
18
102
{ACAD_REACTORS
330
17
102
}
100
AcDbMlineStyle
  2
STANDARD
 70
0
  3

 62
256
 51
90.0
 52
90.0
 71
2
 49
0.5
 62
256
  6
BYLAYER
 49
-0.5
 62
256
  6
BYLAYER
  0
LAYOUT
  5
521
102
{ACAD_REACTORS
330
1A
102
}
100
AcDbPlotSettings
  1

  2
none_device
  4
ANSI_C_(22.00_x_17.00_Inches)
  6

 40
0.0
 41
0.0
 42
0.0
 43
0.0
 44
558.8
 45
431.8
 46
0.0
 47
0.0
 48
0.0
 49
0.0
140
0.0
141
0.0
142
1.0
143
1.0
 70
1024
 72
0
 73
0
 74
0
  7

 75
0
147
1.0
148
0.0
149
0.0
100
AcDbLayout
  1
Model
 70
0
 71
0
 10
0.0
 20
0.0
 11
22.0
 21
17.0
 12
0.0
 22
0.0
 32
0.0
 14
0.0
 24
0.0
 34
0.0
 15
0.0
 25
0.0
 35
0.0
146
0.0
 13
0.0
 23
0.0
 33
0.0
 16
1.0
 26
0.0
 36
0.0
 17
0.0
 27
1.0
 37
0.0
 76
0
330
205
345
0
346
0
  0
LAYOUT
  5
522
102
{ACAD_REACTORS
330
1A
102
}
100
AcDbPlotSettings
  1

  2
none_device
  4
ANSI_C_(22.00_x_17.00_Inches)
  6

 40
0.0
 41
0.0
 42
0.0
 43
0.0
 44
558.8
 45
431.8
 46
0.0
 47
0.0
 48
0.0
 49
0.0
140
0.0
141
0.0
142
1.0
143
1.0
 70
0
 72
0
 73
0
 74
0
  7

 75
0
147
1.0
148
0.0
149
0.0
100
AcDbLayout
  1
Layout1
 70
0
 71
1
 10
0.0
 20
0.0
 11
22.0
 21
17.0
 12
0.0
 22
0.0
 32
0.0
 14
0.0
 24
0.0
 34
0.0
 15
0.0
 25
0.0
 35
0.0
146
0.0
 13
0.0
 23
0.0
 33
0.0
 16
1.0
 26
0.0
 36
0.0
 17
0.0
 27
1.0
 37
0.0
 76
0
330
206
345
0
346
0
  0
ENDSEC
  0
EOF
