999
DXF file: 3-2475_TOP.dxf
999
Pro/ENGINEER 2018400 by Parametric Technology Corporation
  0
SECTION
  2
HEADER
  9
$ACADVER
  1
AC1027
  9
$DWGCODEPAGE
  3
ANSI_1252
  9
$EXTMAX
 10
11.0
 20
8.5
 30
0.0
  9
$EXTMIN
 10
0.0
 20
0.0
 30
0.0
  9
$LIMMIN
 10
0.0
 20
0.0
  9
$LIMMAX
 10
11.0
 20
8.5
  9
$VIEWCTR
 10
5.5
 20
4.25
  9
$VIEWSIZE
 40
8.5
  9
$CLAYER
  8
0
  9
$LTSCALE
 40
0.605
  9
$CELTYPE
  6
BYLAYER
  9
$DIMSCALE
 40
1.0
  9
$DIMASZ
 40
0.1
  9
$DIMEXO
 40
0.0625
  9
$DIMDLI
 40
0.418
  9
$DIMEXE
 40
0.125
  9
$DIMCEN
 40
0.099
  9
$DIMLFAC
 40
1.0
  9
$DIMBLK
  1
_FILLED
  9
$DIMALT
 70
1
  9
$DIMALTD
 70
2
  9
$DIMALTTD
 70
2
  9
$DIMALTF
 40
25.4
  9
$DIMTXT
 40
0.08
  9
$DIMTOL
 70
1
  9
$DIMLIM
 70
0
  9
$DIMTFAC
 40
1.0
  9
$DIMTP
 40
0.001
  9
$DIMTM
 40
0.001
  9
$DIMGAP
 40
0.09
  9
$DIMDSEP
 70
46
  9
$AUNITS
 70
0
  9
$PDMODE
 70
3
  9
$PDSIZE
 40
0.3125
  9
$HANDSEED
  5
331
  9
$TILEMODE
 70
1
  9
$MEASUREMENT
 70
0
  9
$INSUNITS
 70
1
  0
ENDSEC
  0
SECTION
  2
CLASSES
  0
CLASS
  1
ACDBDICTIONARYWDFLT
  2
AcDbDictionaryWithDefault
  3
AutoCAD 2000
 90
0
 91
1
280
0
281
0
  0
CLASS
  1
ACDBPLACEHOLDER
  2
AcDbPlaceHolder
  3
AutoCAD 2000
 90
0
 91
1
280
0
281
0
  0
CLASS
  1
LAYOUT
  2
AcDbLayout
  3
AutoCAD 2000
 90
0
 91
0
280
0
281
0
  0
ENDSEC
  0
SECTION
  2
TABLES
  0
TABLE
  2
VPORT
  5
8
100
AcDbSymbolTable
 70
2
  0
VPORT
  5
1F4
100
AcDbSymbolTableRecord
100
AcDbViewportTableRecord
  2
*ACTIVE
 70
0
 10
0.0
 20
0.0
 11
1.0
 21
1.0
 12
5.5
 22
4.25
 13
0.0
 23
0.0
 14
1.0
 24
1.0
 15
0.0
 25
0.0
 16
0.0
 26
0.0
 36
1.0
 17
0.0
 27
0.0
 37
0.0
 40
8.5
 41
1.2941176471
 42
50.0
 43
0.0
 44
0.0
 50
0.0
 51
0.0
 71
0
 72
100
 73
1
 74
1
 75
0
 76
0
 77
0
 78
0
  0
ENDTAB
  0
TABLE
  2
LTYPE
  5
5
100
AcDbSymbolTable
 70
6
  0
LTYPE
  5
14
100
AcDbSymbolTableRecord
100
AcDbLinetypeTableRecord
  2
BYBLOCK
 70
0
  3

 72
65
 73
0
 40
0.0
  0
LTYPE
  5
15
100
AcDbSymbolTableRecord
100
AcDbLinetypeTableRecord
  2
BYLAYER
 70
0
  3

 72
65
 73
0
 40
0.0
  0
LTYPE
  5
16
100
AcDbSymbolTableRecord
100
AcDbLinetypeTableRecord
  2
CONTINUOUS
 70
64
  3
Solid line
 72
65
 73
0
 40
0.0
  0
LTYPE
  5
1F5
100
AcDbSymbolTableRecord
100
AcDbLinetypeTableRecord
  2
CENTER
 70
64
  3
____ _ ____ _ ____ _ ____ _ ____ _ ____ _ ____
 72
65
 73
4
 40
0.6
 49
0.375
 74
0
 49
-0.075
 74
0
 49
0.075
 74
0
 49
-0.075
 74
0
  0
LTYPE
  5
1F6
100
AcDbSymbolTableRecord
100
AcDbLinetypeTableRecord
  2
HIDDEN
 70
64
  3
- - - - - - - - - - - - - - - - - - - -
 72
65
 73
2
 40
0.2
 49
0.1
 74
0
 49
-0.1
 74
0
  0
LTYPE
  5
1F7
100
AcDbSymbolTableRecord
100
AcDbLinetypeTableRecord
  2
PHANTOM
 70
64
  3
_____ _ _ _____ _ _ _____ _ _ _____
 72
65
 73
6
 40
0.8
 49
0.45
 74
0
 49
-0.05
 74
0
 49
0.1
 74
0
 49
-0.05
 74
0
 49
0.1
 74
0
 49
-0.05
 74
0
  0
LTYPE
  5
1F8
100
AcDbSymbolTableRecord
100
AcDbLinetypeTableRecord
  2
DOT
 70
64
  3
. . . . . . . . . . . . . . . . . . . .
 72
65
 73
2
 40
0.2
 49
0.1
 74
0
 49
-0.1
 74
0
  0
LTYPE
  5
1F9
100
AcDbSymbolTableRecord
100
AcDbLinetypeTableRecord
  2
DASHED
 70
64
  3
- - - - - - - - - - - - - - - - - - - -
 72
65
 73
2
 40
0.2
 49
0.1
 74
0
 49
-0.1
 74
0
  0
ENDTAB
  0
TABLE
  2
LAYER
  5
2
100
AcDbSymbolTable
 70
36
  0
LAYER
  5
10
100
AcDbSymbolTableRecord
100
AcDbLayerTableRecord
  2
0
 70
0
 62
7
  6
CONTINUOUS
370
-3
390
F
  0
LAYER
  5
1FA
100
AcDbSymbolTableRecord
100
AcDbLayerTableRecord
  2
DEFAULT_1
 70
0
 62
7
  6
CENTER
370
-3
390
F
  0
LAYER
  5
1FB
100
AcDbSymbolTableRecord
100
AcDbLayerTableRecord
  2
DEFAULT_2
 70
0
 62
8
  6
HIDDEN
370
-3
390
F
  0
LAYER
  5
1FC
100
AcDbSymbolTableRecord
100
AcDbLayerTableRecord
  2
DEFAULT_3
 70
0
 62
7
  6
PHANTOM
370
-3
390
F
  0
LAYER
  5
1FD
100
AcDbSymbolTableRecord
100
AcDbLayerTableRecord
  2
3-985_ASSY_PLANES
 70
0
 62
7
  6
CONTINUOUS
370
-3
390
F
  0
LAYER
  5
1FE
100
AcDbSymbolTableRecord
100
AcDbLayerTableRecord
  2
ALL_ASSEMBLY_MEMBERS
 70
0
 62
7
  6
CONTINUOUS
370
-3
390
F
  0
LAYER
  5
1FF
100
AcDbSymbolTableRecord
100
AcDbLayerTableRecord
  2
ALL_FEATURES
 70
0
 62
7
  6
CONTINUOUS
370
-3
390
F
  0
LAYER
  5
200
100
AcDbSymbolTableRecord
100
AcDbLayerTableRecord
  2
AXES_FEATURES
 70
0
 62
7
  6
CONTINUOUS
370
-3
390
F
  0
LAYER
  5
201
100
AcDbSymbolTableRecord
100
AcDbLayerTableRecord
  2
CHAMFER_FEATURES
 70
0
 62
7
  6
CONTINUOUS
370
-3
390
F
  0
LAYER
  5
202
100
AcDbSymbolTableRecord
100
AcDbLayerTableRecord
  2
CUT_FEATURES
 70
0
 62
7
  6
CONTINUOUS
370
-3
390
F
  0
LAYER
  5
203
100
AcDbSymbolTableRecord
100
AcDbLayerTableRecord
  2
DATUM_CURVES
 70
0
 62
7
  6
CONTINUOUS
370
-3
390
F
  0
LAYER
  5
204
100
AcDbSymbolTableRecord
100
AcDbLayerTableRecord
  2
DATUM_PLANES
 70
0
 62
7
  6
CONTINUOUS
370
-3
390
F
  0
LAYER
  5
205
100
AcDbSymbolTableRecord
100
AcDbLayerTableRecord
  2
DATUM_POINTS
 70
0
 62
7
  6
CONTINUOUS
370
-3
390
F
  0
LAYER
  5
206
100
AcDbSymbolTableRecord
100
AcDbLayerTableRecord
  2
DEFAULT_COORDINATE_SYSTEM
 70
0
 62
7
  6
CONTINUOUS
370
-3
390
F
  0
LAYER
  5
207
100
AcDbSymbolTableRecord
100
AcDbLayerTableRecord
  2
DEFAULT_DATUM_AXES
 70
0
 62
7
  6
CONTINUOUS
370
-3
390
F
  0
LAYER
  5
208
100
AcDbSymbolTableRecord
100
AcDbLayerTableRecord
  2
DEFAULT_DATUM_CURVES
 70
0
 62
7
  6
CONTINUOUS
370
-3
390
F
  0
LAYER
  5
209
100
AcDbSymbolTableRecord
100
AcDbLayerTableRecord
  2
DEFAULT_DATUM_PLANES
 70
0
 62
7
  6
CONTINUOUS
370
-3
390
F
  0
LAYER
  5
20A
100
AcDbSymbolTableRecord
100
AcDbLayerTableRecord
  2
DEFAULT_SURFACES
 70
0
 62
7
  6
CONTINUOUS
370
-3
390
F
  0
LAYER
  5
20B
100
AcDbSymbolTableRecord
100
AcDbLayerTableRecord
  2
DIMENSIONS
 70
0
 62
7
  6
CONTINUOUS
370
-3
390
F
  0
LAYER
  5
20C
100
AcDbSymbolTableRecord
100
AcDbLayerTableRecord
  2
HOLE_FEATURES
 70
0
 62
7
  6
CONTINUOUS
370
-3
390
F
  0
LAYER
  5
20D
100
AcDbSymbolTableRecord
100
AcDbLayerTableRecord
  2
PART_REFERENCE_DIMENSIONS
 70
0
 62
7
  6
CONTINUOUS
370
-3
390
F
  0
LAYER
  5
20E
100
AcDbSymbolTableRecord
100
AcDbLayerTableRecord
  2
PLATED_SURFACE_AREA
 70
0
 62
7
  6
CONTINUOUS
370
-3
390
F
  0
LAYER
  5
20F
100
AcDbSymbolTableRecord
100
AcDbLayerTableRecord
  2
POINTS
 70
0
 62
7
  6
CONTINUOUS
370
-3
390
F
  0
LAYER
  5
210
100
AcDbSymbolTableRecord
100
AcDbLayerTableRecord
  2
PROTRUSION_FEATURES
 70
0
 62
7
  6
CONTINUOUS
370
-3
390
F
  0
LAYER
  5
211
100
AcDbSymbolTableRecord
100
AcDbLayerTableRecord
  2
QUILTS
 70
0
 62
7
  6
CONTINUOUS
370
-3
390
F
  0
LAYER
  5
212
100
AcDbSymbolTableRecord
100
AcDbLayerTableRecord
  2
REFERENCE_DIMENSIONS
 70
0
 62
7
  6
CONTINUOUS
370
-3
390
F
  0
LAYER
  5
213
100
AcDbSymbolTableRecord
100
AcDbLayerTableRecord
  2
ROUND_FEATURES
 70
0
 62
7
  6
CONTINUOUS
370
-3
390
F
  0
LAYER
  5
214
100
AcDbSymbolTableRecord
100
AcDbLayerTableRecord
  2
SHELL_FEATURES
 70
0
 62
7
  6
CONTINUOUS
370
-3
390
F
  0
LAYER
  5
215
100
AcDbSymbolTableRecord
100
AcDbLayerTableRecord
  2
SURFACE_FEATURES
 70
0
 62
7
  6
CONTINUOUS
370
-3
390
F
  0
LAYER
  5
216
100
AcDbSymbolTableRecord
100
AcDbLayerTableRecord
  2
WETTED_SURFACE_AREA
 70
0
 62
7
  6
CONTINUOUS
370
-3
390
F
  0
ENDTAB
  0
TABLE
  2
STYLE
  5
3
100
AcDbSymbolTable
 70
1
  0
STYLE
  5
11
100
AcDbSymbolTableRecord
100
AcDbTextStyleTableRecord
  2
STANDARD
 70
0
 40
0.0
 41
0.8
 50
0.0
 71
0
 42
0.2
  3
txt
  4

  0
STYLE
  5
217
100
AcDbSymbolTableRecord
100
AcDbTextStyleTableRecord
  2
TEXTSTYLE_1
 70
0
 40
0.0
 41
0.8
 50
0.0
 71
0
 42
0.2
  3
gdt
  4

  0
ENDTAB
  0
TABLE
  2
VIEW
  5
6
100
AcDbSymbolTable
 70
0
  0
ENDTAB
  0
TABLE
  2
UCS
  5
7
100
AcDbSymbolTable
 70
0
  0
ENDTAB
  0
TABLE
  2
APPID
  5
9
100
AcDbSymbolTable
 70
1
  0
APPID
  5
218
100
AcDbSymbolTableRecord
100
AcDbRegAppTableRecord
  2
ACAD
 70
0
  0
ENDTAB
  0
TABLE
  2
BLOCK_RECORD
  5
1
100
AcDbSymbolTable
 70
0
  0
BLOCK_RECORD
  5
219
100
AcDbSymbolTableRecord
100
AcDbBlockTableRecord
  2
*Model_Space
  0
BLOCK_RECORD
  5
21A
100
AcDbSymbolTableRecord
100
AcDbBlockTableRecord
  2
*Paper_Space
  0
BLOCK_RECORD
  5
21B
100
AcDbSymbolTableRecord
100
AcDbBlockTableRecord
  2
_FILLED
  0
ENDTAB
  0
TABLE
  2
DIMSTYLE
  5
A
100
AcDbSymbolTable
 70
1
100
AcDbDimStyleTable
 71
0
  0
DIMSTYLE
105
21C
100
AcDbSymbolTableRecord
100
AcDbDimStyleTableRecord
  2
STANDARD
 70
0
  3

  4

 40
1.0
 41
0.1
 42
0.0625
 43
0.38
 44
0.125
 45
0.0
 46
0.0
 47
0.001
 48
0.001
140
0.08
141
0.09
142
0.0
143
25.4
144
1.0
145
0.0
146
1.0
147
0.09
 71
1.0
 72
0.0
 73
1
 74
1
 75
0
 76
0
 77
0
 78
4
 79
1
170
1
171
2
172
0
173
0
174
0
175
0
176
0
177
0
178
0
270
2
179
3
271
3
272
3
273
2
274
2
275
0
280
0
281
0
282
0
283
1
284
4
285
0
286
0
287
3
288
0
340
11
278
46
341
21B
342
21B
343
21B
344
21B
  0
ENDTAB
  0
ENDSEC
  0
SECTION
  2
BLOCKS
  0
BLOCK
  5
20
100
AcDbEntity
  8
0
100
AcDbBlockBegin
  2
*Model_Space
 70
0
 10
0.0
 20
0.0
 30
0.0
  3
*Model_Space
  1

  0
ENDBLK
  5
21
100
AcDbEntity
  8
0
100
AcDbBlockEnd
  0
BLOCK
  5
1C
100
AcDbEntity
  8
0
100
AcDbBlockBegin
  2
*Paper_Space
 70
0
 10
0.0
 20
0.0
 30
0.0
  3
*Paper_Space
  1

  0
ENDBLK
  5
1D
100
AcDbEntity
  8
0
100
AcDbBlockEnd
  0
BLOCK
  5
21D
100
AcDbEntity
  8
0
100
AcDbBlockBegin
  2
_FILLED
 70
64
 10
0.0
 20
0.0
  3
_FILLED
  1

  0
SOLID
  5
21E
100
AcDbEntity
  8
0
  6
BYBLOCK
 62
0
100
AcDbTrace
 10
0.0
 20
0.0
 11
-1.0
 21
0.2
 12
-1.0
 22
-0.2
 13
-1.0
 23
-0.2
  0
ENDBLK
  5
21F
100
AcDbEntity
  8
0
  6
BYBLOCK
 62
0
100
AcDbBlockEnd
  0
ENDSEC
  0
SECTION
  2
ENTITIES
  0
MTEXT
  5
220
100
AcDbEntity
  8
0
100
AcDbMText
 62
2
  6
CONTINUOUS
  7
STANDARD
 71
3
 72
1
 10
3.4881017081
 20
1.4186917081
 30
0.0
 11
1.0
 21
0.0
 31
0.0
 73
2
 44
0.9
  1
SCALE  .500
 40
0.08
 41
0.704
  0
LINE
  5
221
100
AcDbEntity
  8
0
100
AcDbLine
 62
7
  6
CONTINUOUS
 10
0.0
 20
0.0
 11
0.0
 21
8.5
  0
LINE
  5
222
100
AcDbEntity
  8
0
100
AcDbLine
 62
7
  6
CONTINUOUS
 10
0.0
 20
0.0
 11
11.0
 21
0.0
  0
LINE
  5
223
100
AcDbEntity
  8
0
100
AcDbLine
 62
7
  6
CONTINUOUS
 10
0.0
 20
8.5
 11
11.0
 21
8.5
  0
LINE
  5
224
100
AcDbEntity
  8
0
100
AcDbLine
 62
7
  6
CONTINUOUS
 10
11.0
 20
0.0
 11
11.0
 21
8.5
  0
LINE
  5
225
100
AcDbEntity
  8
ALL_ASSEMBLY_MEMBERS
100
AcDbLine
 62
7
  6
CONTINUOUS
 10
1.8063082298
 20
5.6192489146
 11
1.8063082298
 21
5.8687531722
  0
LINE
  5
226
100
AcDbEntity
  8
ALL_ASSEMBLY_MEMBERS
100
AcDbLine
 62
7
  6
CONTINUOUS
 10
1.8175518825
 20
5.5958351924
 11
1.8175518825
 21
5.8921668314
  0
LINE
  5
227
100
AcDbEntity
  8
ALL_ASSEMBLY_MEMBERS
100
AcDbLine
 62
7
  6
CONTINUOUS
 10
1.866331133
 20
5.5206424109
 11
1.866331133
 21
5.9673596128
  0
LINE
  5
228
100
AcDbEntity
  8
ALL_ASSEMBLY_MEMBERS
100
AcDbLine
 62
7
  6
CONTINUOUS
 10
1.895356794
 20
5.4982260119
 11
1.895356794
 21
5.9897760119
  0
LINE
  5
229
100
AcDbEntity
  8
ALL_ASSEMBLY_MEMBERS
100
AcDbLine
 62
7
  6
CONTINUOUS
 10
1.9063082298
 20
5.4982260119
 11
1.9063082298
 21
5.9897760119
  0
LINE
  5
22A
100
AcDbEntity
  8
ALL_ASSEMBLY_MEMBERS
100
AcDbLine
 62
7
  6
CONTINUOUS
 10
1.9263082298
 20
5.5182260119
 11
1.9263082298
 21
5.9697760118
  0
LINE
  5
22B
100
AcDbEntity
  8
ALL_ASSEMBLY_MEMBERS
100
AcDbLine
 62
7
  6
CONTINUOUS
 10
3.8643557163
 20
6.9455856877
 11
3.9142911708
 21
7.0072508385
  0
LINE
  5
22C
100
AcDbEntity
  8
ALL_ASSEMBLY_MEMBERS
100
AcDbLine
 62
7
  6
CONTINUOUS
 10
4.0079196474
 20
7.1329764473
 11
3.9236697448
 21
7.052147166
  0
LINE
  5
22D
100
AcDbEntity
  8
ALL_ASSEMBLY_MEMBERS
100
AcDbLine
 62
7
  6
CONTINUOUS
 10
3.0138082297
 20
5.6045010119
 11
3.0138082297
 21
5.8835010119
  0
LINE
  5
22E
100
AcDbEntity
  8
ALL_ASSEMBLY_MEMBERS
100
AcDbLine
 62
7
  6
CONTINUOUS
 10
3.053995924
 20
5.5806490244
 11
3.053995924
 21
5.9073529994
  0
LINE
  5
22F
100
AcDbEntity
  8
ALL_ASSEMBLY_MEMBERS
100
AcDbLine
 62
7
  6
CONTINUOUS
 10
3.1878071171
 20
5.5928111533
 11
3.1878071171
 21
5.8951908705
  0
LINE
  5
230
100
AcDbEntity
  8
ALL_ASSEMBLY_MEMBERS
100
AcDbLine
 62
7
  6
CONTINUOUS
 10
3.2113082298
 20
5.6125023278
 11
3.2113082298
 21
5.875499696
  0
LINE
  5
231
100
AcDbEntity
  8
ALL_ASSEMBLY_MEMBERS
100
AcDbLine
 62
7
  6
CONTINUOUS
 10
3.2313082298
 20
6.1192508385
 11
3.2313082298
 21
6.1216704401
  0
LINE
  5
232
100
AcDbEntity
  8
ALL_ASSEMBLY_MEMBERS
100
AcDbLine
 62
7
  6
CONTINUOUS
 10
3.2623082298
 20
5.6286811937
 11
3.2623082298
 21
5.8593208301
  0
LINE
  5
233
100
AcDbEntity
  8
ALL_ASSEMBLY_MEMBERS
100
AcDbLine
 62
7
  6
CONTINUOUS
 10
3.2940582298
 20
6.0492508385
 11
3.2940582298
 21
6.0892508385
  0
LINE
  5
234
100
AcDbEntity
  8
ALL_ASSEMBLY_MEMBERS
100
AcDbLine
 62
7
  6
CONTINUOUS
 10
3.3163082298
 20
5.5604370218
 11
3.3163082298
 21
5.5638650368
  0
LINE
  5
235
100
AcDbEntity
  8
ALL_ASSEMBLY_MEMBERS
100
AcDbLine
 62
7
  6
CONTINUOUS
 10
3.3270582298
 20
6.0492508385
 11
3.3270582298
 21
5.9242508385
  0
LINE
  5
236
100
AcDbEntity
  8
ALL_ASSEMBLY_MEMBERS
100
AcDbLine
 62
7
  6
CONTINUOUS
 10
3.5855582298
 20
6.0492508385
 11
3.5855582298
 21
5.9242508385
  0
LINE
  5
237
100
AcDbEntity
  8
ALL_ASSEMBLY_MEMBERS
100
AcDbLine
 62
7
  6
CONTINUOUS
 10
3.5963082298
 20
5.5604370218
 11
3.5963082298
 21
5.5638650368
  0
LINE
  5
238
100
AcDbEntity
  8
ALL_ASSEMBLY_MEMBERS
100
AcDbLine
 62
7
  6
CONTINUOUS
 10
3.6185582298
 20
6.0492508385
 11
3.6185582298
 21
6.0892508385
  0
LINE
  5
239
100
AcDbEntity
  8
ALL_ASSEMBLY_MEMBERS
100
AcDbLine
 62
7
  6
CONTINUOUS
 10
3.6813082298
 20
6.1192508385
 11
3.6813082298
 21
6.12167044
  0
LINE
  5
23A
100
AcDbEntity
  8
ALL_ASSEMBLY_MEMBERS
100
AcDbLine
 62
7
  6
CONTINUOUS
 10
6.0168082298
 20
6.9329304238
 11
6.0687656201
 21
7.0042602126
  0
LINE
  5
23B
100
AcDbEntity
  8
ALL_ASSEMBLY_MEMBERS
100
AcDbLine
 62
7
  6
CONTINUOUS
 10
6.1139691127
 20
7.1314578951
 11
6.0992449206
 21
7.1042835824
  0
LINE
  5
23C
100
AcDbEntity
  8
ALL_ASSEMBLY_MEMBERS
100
AcDbLine
 62
7
  6
CONTINUOUS
 10
5.0488082298
 20
6.6147508385
 11
5.0488082298
 21
6.6372508385
  0
LINE
  5
23D
100
AcDbEntity
  8
ALL_ASSEMBLY_MEMBERS
100
AcDbLine
 62
7
  6
CONTINUOUS
 10
5.0938082298
 20
6.6572508385
 11
5.0938082298
 21
6.6967508385
  0
LINE
  5
23E
100
AcDbEntity
  8
ALL_ASSEMBLY_MEMBERS
100
AcDbLine
 62
7
  6
CONTINUOUS
 10
5.0988082298
 20
6.0967508385
 11
5.0988082298
 21
6.1033342649
  0
LINE
  5
23F
100
AcDbEntity
  8
ALL_ASSEMBLY_MEMBERS
100
AcDbLine
 62
7
  6
CONTINUOUS
 10
6.0992449206
 20
7.1042835824
 11
6.068854195
 21
7.0413286895
  0
LINE
  5
240
100
AcDbEntity
  8
ALL_ASSEMBLY_MEMBERS
100
AcDbLine
 62
7
  6
CONTINUOUS
 10
3.0482607434
 20
6.9455856877
 11
2.9983252889
 21
7.0072508385
  0
LINE
  5
241
100
AcDbEntity
  8
ALL_ASSEMBLY_MEMBERS
100
AcDbLine
 62
7
  6
CONTINUOUS
 10
5.1738082298
 20
6.0592508385
 11
5.1738082298
 21
2.3079308385
  0
LINE
  5
242
100
AcDbEntity
  8
ALL_ASSEMBLY_MEMBERS
100
AcDbLine
 62
7
  6
CONTINUOUS
 10
7.9454196474
 20
7.1329764473
 11
7.8611697448
 21
7.052147166
  0
LINE
  5
243
100
AcDbEntity
  8
ALL_ASSEMBLY_MEMBERS
100
AcDbLine
 62
7
  6
CONTINUOUS
 10
5.6738082298
 20
6.0592508385
 11
5.6738082298
 21
2.3079308385
  0
LINE
  5
244
100
AcDbEntity
  8
ALL_ASSEMBLY_MEMBERS
100
AcDbLine
 62
7
  6
CONTINUOUS
 10
5.7488082298
 20
6.0967508385
 11
5.7488082298
 21
6.1033342649
  0
LINE
  5
245
100
AcDbEntity
  8
ALL_ASSEMBLY_MEMBERS
100
AcDbLine
 62
7
  6
CONTINUOUS
 10
5.7538082298
 20
6.6572508385
 11
5.7538082298
 21
6.6967508385
  0
LINE
  5
246
100
AcDbEntity
  8
ALL_ASSEMBLY_MEMBERS
100
AcDbLine
 62
7
  6
CONTINUOUS
 10
2.9046968122
 20
7.1329764473
 11
2.9889467148
 21
7.052147166
  0
LINE
  5
247
100
AcDbEntity
  8
ALL_ASSEMBLY_MEMBERS
100
AcDbLine
 62
7
  6
CONTINUOUS
 10
5.7988082298
 20
6.6147508385
 11
5.7988082298
 21
6.6372508385
  0
LINE
  5
248
100
AcDbEntity
  8
ALL_ASSEMBLY_MEMBERS
100
AcDbLine
 62
7
  6
CONTINUOUS
 10
7.8018557163
 20
6.9455856877
 11
7.8517911708
 21
7.0072508385
  0
LINE
  5
249
100
AcDbEntity
  8
ALL_ASSEMBLY_MEMBERS
100
AcDbLine
 62
7
  6
CONTINUOUS
 10
4.7336473469
 20
7.1314578951
 11
4.7483715391
 21
7.1042835824
  0
LINE
  5
24A
100
AcDbEntity
  8
ALL_ASSEMBLY_MEMBERS
100
AcDbLine
 62
7
  6
CONTINUOUS
 10
4.7483715391
 20
7.1042835824
 11
4.7787622646
 21
7.0413286895
  0
LINE
  5
24B
100
AcDbEntity
  8
ALL_ASSEMBLY_MEMBERS
100
AcDbLine
 62
7
  6
CONTINUOUS
 10
1.9063082298
 20
5.4982260119
 11
1.895356794
 21
5.4982260119
  0
LINE
  5
24C
100
AcDbEntity
  8
ALL_ASSEMBLY_MEMBERS
100
AcDbLine
 62
7
  6
CONTINUOUS
 10
8.9438082298
 20
5.4982260119
 11
8.9547596656
 21
5.4982260119
  0
LINE
  5
24D
100
AcDbEntity
  8
ALL_ASSEMBLY_MEMBERS
100
AcDbLine
 62
7
  6
CONTINUOUS
 10
4.8308082298
 20
6.9329304238
 11
4.7788508395
 21
7.0042602126
  0
LINE
  5
24E
100
AcDbEntity
  8
ALL_ASSEMBLY_MEMBERS
100
AcDbLine
 62
7
  6
CONTINUOUS
 10
3.343405004
 20
5.5225753425
 11
3.5692114556
 21
5.5225753425
  0
LINE
  5
24F
100
AcDbEntity
  8
ALL_ASSEMBLY_MEMBERS
100
AcDbLine
 62
7
  6
CONTINUOUS
 10
7.280905004
 20
5.5225753425
 11
7.5067114556
 21
5.5225753425
  0
LINE
  5
250
100
AcDbEntity
  8
ALL_ASSEMBLY_MEMBERS
100
AcDbLine
 62
7
  6
CONTINUOUS
 10
3.3163082298
 20
5.5604370218
 11
3.5963082298
 21
5.5604370218
  0
LINE
  5
251
100
AcDbEntity
  8
ALL_ASSEMBLY_MEMBERS
100
AcDbLine
 62
7
  6
CONTINUOUS
 10
7.2538082298
 20
5.5604370218
 11
7.5338082298
 21
5.5604370218
  0
LINE
  5
252
100
AcDbEntity
  8
ALL_ASSEMBLY_MEMBERS
100
AcDbLine
 62
7
  6
CONTINUOUS
 10
3.3163082298
 20
5.5638650368
 11
3.5963082298
 21
5.5638650368
  0
LINE
  5
253
100
AcDbEntity
  8
ALL_ASSEMBLY_MEMBERS
100
AcDbLine
 62
7
  6
CONTINUOUS
 10
7.2538082298
 20
5.5638650368
 11
7.5338082298
 21
5.5638650368
  0
LINE
  5
254
100
AcDbEntity
  8
ALL_ASSEMBLY_MEMBERS
100
AcDbLine
 62
7
  6
CONTINUOUS
 10
7.5399258528
 20
5.5738650368
 11
7.2476906068
 21
5.5738650368
  0
LINE
  5
255
100
AcDbEntity
  8
ALL_ASSEMBLY_MEMBERS
100
AcDbLine
 62
7
  6
CONTINUOUS
 10
3.6024258528
 20
5.5738650368
 11
3.3101906068
 21
5.5738650368
  0
LINE
  5
256
100
AcDbEntity
  8
ALL_ASSEMBLY_MEMBERS
100
AcDbLine
 62
7
  6
CONTINUOUS
 10
7.5432391776
 20
5.5751204569
 11
7.244377282
 21
5.5751204569
  0
LINE
  5
257
100
AcDbEntity
  8
ALL_ASSEMBLY_MEMBERS
100
AcDbLine
 62
7
  6
CONTINUOUS
 10
3.6057391776
 20
5.5751204569
 11
3.306877282
 21
5.5751204569
  0
LINE
  5
258
100
AcDbEntity
  8
ALL_ASSEMBLY_MEMBERS
100
AcDbLine
 62
7
  6
CONTINUOUS
 10
3.2623082298
 20
5.6286760119
 11
3.2113082298
 21
5.6286760119
  0
LINE
  5
259
100
AcDbEntity
  8
ALL_ASSEMBLY_MEMBERS
100
AcDbLine
 62
7
  6
CONTINUOUS
 10
7.5878082298
 20
5.6286760119
 11
7.6388082298
 21
5.6286760119
  0
LINE
  5
25A
100
AcDbEntity
  8
ALL_ASSEMBLY_MEMBERS
100
AcDbLine
 62
7
  6
CONTINUOUS
 10
3.2623082298
 20
5.8593260119
 11
3.2113082298
 21
5.8593260119
  0
LINE
  5
25B
100
AcDbEntity
  8
ALL_ASSEMBLY_MEMBERS
100
AcDbLine
 62
7
  6
CONTINUOUS
 10
7.5878082298
 20
5.8593260119
 11
7.6388082298
 21
5.8593260119
  0
LINE
  5
25C
100
AcDbEntity
  8
ALL_ASSEMBLY_MEMBERS
100
AcDbLine
 62
7
  6
CONTINUOUS
 10
3.5918082298
 20
5.9242508385
 11
3.3208082298
 21
5.9242508385
  0
LINE
  5
25D
100
AcDbEntity
  8
ALL_ASSEMBLY_MEMBERS
100
AcDbLine
 62
7
  6
CONTINUOUS
 10
7.2583082298
 20
5.9242508385
 11
7.5293082298
 21
5.9242508385
  0
LINE
  5
25E
100
AcDbEntity
  8
ALL_ASSEMBLY_MEMBERS
100
AcDbLine
 62
7
  6
CONTINUOUS
 10
5.6738082298
 20
5.9438508385
 11
5.1738082298
 21
5.9438508385
  0
LINE
  5
25F
100
AcDbEntity
  8
ALL_ASSEMBLY_MEMBERS
100
AcDbLine
 62
7
  6
CONTINUOUS
 10
1.9063082298
 20
5.9897760119
 11
1.895356794
 21
5.9897760119
  0
LINE
  5
260
100
AcDbEntity
  8
ALL_ASSEMBLY_MEMBERS
100
AcDbLine
 62
7
  6
CONTINUOUS
 10
8.9438082298
 20
5.9897760119
 11
8.9547596656
 21
5.9897760119
  0
LINE
  5
261
100
AcDbEntity
  8
ALL_ASSEMBLY_MEMBERS
100
AcDbLine
 62
7
  6
CONTINUOUS
 10
3.2940582298
 20
6.0492508385
 11
3.6185582298
 21
6.0492508385
  0
LINE
  5
262
100
AcDbEntity
  8
ALL_ASSEMBLY_MEMBERS
100
AcDbLine
 62
7
  6
CONTINUOUS
 10
7.2315582298
 20
6.0492508385
 11
7.5560582298
 21
6.0492508385
  0
LINE
  5
263
100
AcDbEntity
  8
ALL_ASSEMBLY_MEMBERS
100
AcDbLine
 62
7
  6
CONTINUOUS
 10
5.7113082297
 20
6.0592508385
 11
5.1363082299
 21
6.0592508385
  0
LINE
  5
264
100
AcDbEntity
  8
ALL_ASSEMBLY_MEMBERS
100
AcDbLine
 62
7
  6
CONTINUOUS
 10
7.5888082297
 20
6.0892508385
 11
7.1988082299
 21
6.0892508385
  0
LINE
  5
265
100
AcDbEntity
  8
ALL_ASSEMBLY_MEMBERS
100
AcDbLine
 62
7
  6
CONTINUOUS
 10
3.6513082297
 20
6.0892508385
 11
3.2613082299
 21
6.0892508385
  0
LINE
  5
266
100
AcDbEntity
  8
ALL_ASSEMBLY_MEMBERS
100
AcDbLine
 62
7
  6
CONTINUOUS
 10
5.7488082298
 20
6.0967508385
 11
5.0988082298
 21
6.0967508385
  0
LINE
  5
267
100
AcDbEntity
  8
ALL_ASSEMBLY_MEMBERS
100
AcDbLine
 62
7
  6
CONTINUOUS
 10
7.1688082298
 20
6.1192508385
 11
7.1688082298
 21
6.12167044
  0
LINE
  5
268
100
AcDbEntity
  8
ALL_ASSEMBLY_MEMBERS
100
AcDbLine
 62
7
  6
CONTINUOUS
 10
7.2315582298
 20
6.0492508385
 11
7.2315582298
 21
6.0892508385
  0
LINE
  5
269
100
AcDbEntity
  8
ALL_ASSEMBLY_MEMBERS
100
AcDbLine
 62
7
  6
CONTINUOUS
 10
5.7488082298
 20
6.1033342646
 11
5.0988082298
 21
6.1033342646
  0
LINE
  5
26A
100
AcDbEntity
  8
ALL_ASSEMBLY_MEMBERS
100
AcDbLine
 62
7
  6
CONTINUOUS
 10
7.6188082298
 20
6.1192508385
 11
7.1688082298
 21
6.1192508385
  0
LINE
  5
26B
100
AcDbEntity
  8
ALL_ASSEMBLY_MEMBERS
100
AcDbLine
 62
7
  6
CONTINUOUS
 10
3.6813082298
 20
6.1192508385
 11
3.2313082298
 21
6.1192508385
  0
LINE
  5
26C
100
AcDbEntity
  8
ALL_ASSEMBLY_MEMBERS
100
AcDbLine
 62
7
  6
CONTINUOUS
 10
7.6188082298
 20
6.1216704558
 11
7.1688082298
 21
6.1216704558
  0
LINE
  5
26D
100
AcDbEntity
  8
ALL_ASSEMBLY_MEMBERS
100
AcDbLine
 62
7
  6
CONTINUOUS
 10
3.6813082298
 20
6.1216704558
 11
3.2313082298
 21
6.1216704558
  0
LINE
  5
26E
100
AcDbEntity
  8
ALL_ASSEMBLY_MEMBERS
100
AcDbLine
 62
7
  6
CONTINUOUS
 10
5.7278014432
 20
6.1370125058
 11
5.1198150164
 21
6.1370125058
  0
LINE
  5
26F
100
AcDbEntity
  8
ALL_ASSEMBLY_MEMBERS
100
AcDbLine
 62
7
  6
CONTINUOUS
 10
7.6052997277
 20
6.1467309767
 11
7.1823167319
 21
6.1467309767
  0
LINE
  5
270
100
AcDbEntity
  8
ALL_ASSEMBLY_MEMBERS
100
AcDbLine
 62
7
  6
CONTINUOUS
 10
3.6677997277
 20
6.1467309767
 11
3.2448167319
 21
6.1467309767
  0
LINE
  5
271
100
AcDbEntity
  8
ALL_ASSEMBLY_MEMBERS
100
AcDbLine
 62
7
  6
CONTINUOUS
 10
5.7137971688
 20
6.1595764945
 11
5.1338192908
 21
6.1595764944
  0
LINE
  5
272
100
AcDbEntity
  8
ALL_ASSEMBLY_MEMBERS
100
AcDbLine
 62
7
  6
CONTINUOUS
 10
7.591947429
 20
6.1687340991
 11
7.1956690307
 21
6.1687340991
  0
LINE
  5
273
100
AcDbEntity
  8
ALL_ASSEMBLY_MEMBERS
100
AcDbLine
 62
7
  6
CONTINUOUS
 10
3.654447429
 20
6.1687340991
 11
3.2581690307
 21
6.1687340991
  0
LINE
  5
274
100
AcDbEntity
  8
ALL_ASSEMBLY_MEMBERS
100
AcDbLine
 62
7
  6
CONTINUOUS
 10
7.2538082298
 20
5.5604370218
 11
7.2538082298
 21
5.5638650368
  0
LINE
  5
275
100
AcDbEntity
  8
ALL_ASSEMBLY_MEMBERS
100
AcDbLine
 62
7
  6
CONTINUOUS
 10
7.2645582298
 20
6.0492508385
 11
7.2645582298
 21
5.9242508385
  0
LINE
  5
276
100
AcDbEntity
  8
ALL_ASSEMBLY_MEMBERS
100
AcDbLine
 62
7
  6
CONTINUOUS
 10
7.5230582298
 20
6.0492508385
 11
7.5230582298
 21
5.9242508385
  0
LINE
  5
277
100
AcDbEntity
  8
ALL_ASSEMBLY_MEMBERS
100
AcDbLine
 62
7
  6
CONTINUOUS
 10
7.5338082298
 20
5.5604370218
 11
7.5338082298
 21
5.5638650368
  0
LINE
  5
278
100
AcDbEntity
  8
ALL_ASSEMBLY_MEMBERS
100
AcDbLine
 62
7
  6
CONTINUOUS
 10
5.0874674699
 20
6.5639885878
 11
5.7601489897
 21
6.5639885878
  0
LINE
  5
279
100
AcDbEntity
  8
ALL_ASSEMBLY_MEMBERS
100
AcDbLine
 62
7
  6
CONTINUOUS
 10
5.0717230208
 20
6.5819034989
 11
5.7758934388
 21
6.5819034989
  0
LINE
  5
27A
100
AcDbEntity
  8
ALL_ASSEMBLY_MEMBERS
100
AcDbLine
 62
7
  6
CONTINUOUS
 10
5.7988082298
 20
6.6147508385
 11
5.0488082298
 21
6.6147508385
  0
LINE
  5
27B
100
AcDbEntity
  8
ALL_ASSEMBLY_MEMBERS
100
AcDbLine
 62
7
  6
CONTINUOUS
 10
5.7988082298
 20
6.6372508385
 11
5.0488082298
 21
6.6372508385
  0
LINE
  5
27C
100
AcDbEntity
  8
ALL_ASSEMBLY_MEMBERS
100
AcDbLine
 62
7
  6
CONTINUOUS
 10
5.7788082298
 20
6.6572508385
 11
5.0688082298
 21
6.6572508385
  0
LINE
  5
27D
100
AcDbEntity
  8
ALL_ASSEMBLY_MEMBERS
100
AcDbLine
 62
7
  6
CONTINUOUS
 10
7.5560582298
 20
6.0492508385
 11
7.5560582298
 21
6.0892508385
  0
LINE
  5
27E
100
AcDbEntity
  8
ALL_ASSEMBLY_MEMBERS
100
AcDbLine
 62
7
  6
CONTINUOUS
 10
7.5878082298
 20
5.6286811937
 11
7.5878082298
 21
5.8593208301
  0
LINE
  5
27F
100
AcDbEntity
  8
ALL_ASSEMBLY_MEMBERS
100
AcDbLine
 62
7
  6
CONTINUOUS
 10
7.6188082298
 20
6.1192508385
 11
7.6188082298
 21
6.1216704401
  0
LINE
  5
280
100
AcDbEntity
  8
ALL_ASSEMBLY_MEMBERS
100
AcDbLine
 62
7
  6
CONTINUOUS
 10
7.6388082298
 20
5.875499696
 11
7.6388082298
 21
5.6125023278
  0
LINE
  5
281
100
AcDbEntity
  8
ALL_ASSEMBLY_MEMBERS
100
AcDbLine
 62
7
  6
CONTINUOUS
 10
7.6623093425
 20
5.8951908705
 11
7.6623093425
 21
5.5928111533
  0
LINE
  5
282
100
AcDbEntity
  8
ALL_ASSEMBLY_MEMBERS
100
AcDbLine
 62
7
  6
CONTINUOUS
 10
7.7961205356
 20
5.9073529994
 11
7.7961205356
 21
5.5806490244
  0
LINE
  5
283
100
AcDbEntity
  8
ALL_ASSEMBLY_MEMBERS
100
AcDbLine
 62
7
  6
CONTINUOUS
 10
5.7546145375
 20
6.6967508385
 11
5.0930019221
 21
6.6967508385
  0
LINE
  5
284
100
AcDbEntity
  8
ALL_ASSEMBLY_MEMBERS
100
AcDbLine
 62
7
  6
CONTINUOUS
 10
5.7883148042
 20
6.7098144698
 11
5.0593016554
 21
6.7098144698
  0
LINE
  5
285
100
AcDbEntity
  8
ALL_ASSEMBLY_MEMBERS
100
AcDbLine
 62
7
  6
CONTINUOUS
 10
3.2407029672
 20
6.7548354288
 11
3.6719134924
 21
6.7548354288
  0
LINE
  5
286
100
AcDbEntity
  8
ALL_ASSEMBLY_MEMBERS
100
AcDbLine
 62
7
  6
CONTINUOUS
 10
7.1782029672
 20
6.7548354288
 11
7.6094134924
 21
6.7548354288
  0
LINE
  5
287
100
AcDbEntity
  8
ALL_ASSEMBLY_MEMBERS
100
AcDbLine
 62
7
  6
CONTINUOUS
 10
3.218419183
 20
6.7790983043
 11
3.6941972766
 21
6.7790983043
  0
LINE
  5
288
100
AcDbEntity
  8
ALL_ASSEMBLY_MEMBERS
100
AcDbLine
 62
7
  6
CONTINUOUS
 10
7.155919183
 20
6.7790983043
 11
7.6316972766
 21
6.7790983043
  0
LINE
  5
289
100
AcDbEntity
  8
ALL_ASSEMBLY_MEMBERS
100
AcDbLine
 62
7
  6
CONTINUOUS
 10
3.2038143597
 20
6.8242508385
 11
3.7088021
 21
6.8242508385
  0
LINE
  5
28A
100
AcDbEntity
  8
ALL_ASSEMBLY_MEMBERS
100
AcDbLine
 62
7
  6
CONTINUOUS
 10
7.1413143597
 20
6.8242508385
 11
7.6463082298
 21
6.8242508385
  0
LINE
  5
28B
100
AcDbEntity
  8
ALL_ASSEMBLY_MEMBERS
100
AcDbLine
 62
7
  6
CONTINUOUS
 10
4.855162182
 20
6.9187508385
 11
5.9924542777
 21
6.9187508385
  0
LINE
  5
28C
100
AcDbEntity
  8
ALL_ASSEMBLY_MEMBERS
100
AcDbLine
 62
7
  6
CONTINUOUS
 10
3.075460852
 20
6.9326119014
 11
3.8371556076
 21
6.9326119014
  0
LINE
  5
28D
100
AcDbEntity
  8
ALL_ASSEMBLY_MEMBERS
100
AcDbLine
 62
7
  6
CONTINUOUS
 10
7.012960852
 20
6.9326119014
 11
7.7746556076
 21
6.9326119014
  0
LINE
  5
28E
100
AcDbEntity
  8
ALL_ASSEMBLY_MEMBERS
100
AcDbLine
 62
7
  6
CONTINUOUS
 10
4.8308082298
 20
6.9329304238
 11
6.0168082298
 21
6.9329304238
  0
LINE
  5
28F
100
AcDbEntity
  8
ALL_ASSEMBLY_MEMBERS
100
AcDbLine
 62
7
  6
CONTINUOUS
 10
3.0482607434
 20
6.9455856877
 11
3.8643557163
 21
6.9455856877
  0
LINE
  5
290
100
AcDbEntity
  8
ALL_ASSEMBLY_MEMBERS
100
AcDbLine
 62
7
  6
CONTINUOUS
 10
6.9857607434
 20
6.9455856877
 11
7.8018557163
 21
6.9455856877
  0
LINE
  5
291
100
AcDbEntity
  8
ALL_ASSEMBLY_MEMBERS
100
AcDbLine
 62
7
  6
CONTINUOUS
 10
7.83630823
 20
5.8835010119
 11
7.83630823
 21
5.6045010119
  0
LINE
  5
292
100
AcDbEntity
  8
ALL_ASSEMBLY_MEMBERS
100
AcDbLine
 62
7
  6
CONTINUOUS
 10
6.0687656201
 20
7.0042602125
 11
4.7788508396
 21
7.0042602125
  0
LINE
  5
293
100
AcDbEntity
  8
ALL_ASSEMBLY_MEMBERS
100
AcDbLine
 62
7
  6
CONTINUOUS
 10
2.9983252889
 20
7.0072508385
 11
3.9142911708
 21
7.0072508385
  0
LINE
  5
294
100
AcDbEntity
  8
ALL_ASSEMBLY_MEMBERS
100
AcDbLine
 62
7
  6
CONTINUOUS
 10
6.9358252889
 20
7.0072508385
 11
7.8517911708
 21
7.0072508385
  0
LINE
  5
295
100
AcDbEntity
  8
ALL_ASSEMBLY_MEMBERS
100
AcDbLine
 62
7
  6
CONTINUOUS
 10
6.0714172758
 20
7.0130451448
 11
4.7761991838
 21
7.0130451448
  0
LINE
  5
296
100
AcDbEntity
  8
ALL_ASSEMBLY_MEMBERS
100
AcDbLine
 62
7
  6
CONTINUOUS
 10
4.7791390517
 20
7.0266896718
 11
6.0684774079
 21
7.0266896718
  0
LINE
  5
297
100
AcDbEntity
  8
ALL_ASSEMBLY_MEMBERS
100
AcDbLine
 62
7
  6
CONTINUOUS
 10
2.993552142
 20
7.0323433496
 11
3.9190643176
 21
7.0323433496
  0
LINE
  5
298
100
AcDbEntity
  8
ALL_ASSEMBLY_MEMBERS
100
AcDbLine
 62
7
  6
CONTINUOUS
 10
6.931052142
 20
7.0323433496
 11
7.8565643176
 21
7.0323433496
  0
LINE
  5
299
100
AcDbEntity
  8
ALL_ASSEMBLY_MEMBERS
100
AcDbLine
 62
7
  6
CONTINUOUS
 10
4.7787622647
 20
7.0413286894
 11
6.068854195
 21
7.0413286894
  0
LINE
  5
29A
100
AcDbEntity
  8
ALL_ASSEMBLY_MEMBERS
100
AcDbLine
 62
7
  6
CONTINUOUS
 10
2.9889467148
 20
7.052147166
 11
3.9236697448
 21
7.052147166
  0
LINE
  5
29B
100
AcDbEntity
  8
ALL_ASSEMBLY_MEMBERS
100
AcDbLine
 62
7
  6
CONTINUOUS
 10
6.9264467148
 20
7.052147166
 11
7.8611697448
 21
7.052147166
  0
LINE
  5
29C
100
AcDbEntity
  8
ALL_ASSEMBLY_MEMBERS
100
AcDbLine
 62
7
  6
CONTINUOUS
 10
4.7483715391
 20
7.1042835824
 11
6.0992449206
 21
7.1042835824
  0
LINE
  5
29D
100
AcDbEntity
  8
ALL_ASSEMBLY_MEMBERS
100
AcDbLine
 62
7
  6
CONTINUOUS
 10
6.1139691127
 20
7.1314578951
 11
4.7336473469
 21
7.1314578951
  0
LINE
  5
29E
100
AcDbEntity
  8
ALL_ASSEMBLY_MEMBERS
100
AcDbLine
 62
7
  6
CONTINUOUS
 10
7.9454196474
 20
7.1329764473
 11
6.8421968122
 21
7.1329764473
  0
LINE
  5
29F
100
AcDbEntity
  8
ALL_ASSEMBLY_MEMBERS
100
AcDbLine
 62
7
  6
CONTINUOUS
 10
4.0079196474
 20
7.1329764473
 11
2.9046968122
 21
7.1329764473
  0
LINE
  5
2A0
100
AcDbEntity
  8
ALL_ASSEMBLY_MEMBERS
100
AcDbLine
 62
7
  6
CONTINUOUS
 10
7.9355258057
 20
7.1592508385
 11
6.852090654
 21
7.1592508385
  0
LINE
  5
2A1
100
AcDbEntity
  8
ALL_ASSEMBLY_MEMBERS
100
AcDbLine
 62
7
  6
CONTINUOUS
 10
6.0979725129
 20
7.1592508385
 11
4.7496439467
 21
7.1592508385
  0
LINE
  5
2A2
100
AcDbEntity
  8
ALL_ASSEMBLY_MEMBERS
100
AcDbLine
 62
7
  6
CONTINUOUS
 10
3.9980258057
 20
7.1592508385
 11
2.914590654
 21
7.1592508385
  0
LINE
  5
2A3
100
AcDbEntity
  8
ALL_ASSEMBLY_MEMBERS
100
AcDbLine
 62
7
  6
CONTINUOUS
 10
6.9857607434
 20
6.9455856877
 11
6.9358252889
 21
7.0072508385
  0
LINE
  5
2A4
100
AcDbEntity
  8
ALL_ASSEMBLY_MEMBERS
100
AcDbLine
 62
7
  6
CONTINUOUS
 10
6.8421968122
 20
7.1329764473
 11
6.9264467148
 21
7.052147166
  0
LINE
  5
2A5
100
AcDbEntity
  8
ALL_ASSEMBLY_MEMBERS
100
AcDbLine
 62
7
  6
CONTINUOUS
 10
8.9238082298
 20
5.9697760118
 11
8.9238082298
 21
5.5182260119
  0
LINE
  5
2A6
100
AcDbEntity
  8
ALL_ASSEMBLY_MEMBERS
100
AcDbLine
 62
7
  6
CONTINUOUS
 10
8.9438082298
 20
5.9897760119
 11
8.9438082298
 21
5.4982260119
  0
LINE
  5
2A7
100
AcDbEntity
  8
ALL_ASSEMBLY_MEMBERS
100
AcDbLine
 62
7
  6
CONTINUOUS
 10
8.9547596657
 20
5.9897760119
 11
8.9547596657
 21
5.4982260119
  0
LINE
  5
2A8
100
AcDbEntity
  8
ALL_ASSEMBLY_MEMBERS
100
AcDbLine
 62
7
  6
CONTINUOUS
 10
8.9837853266
 20
5.9673596128
 11
8.9837853266
 21
5.5206424109
  0
LINE
  5
2A9
100
AcDbEntity
  8
ALL_ASSEMBLY_MEMBERS
100
AcDbLine
 62
7
  6
CONTINUOUS
 10
9.0325645771
 20
5.8921668314
 11
9.0325645771
 21
5.5958351924
  0
LINE
  5
2AA
100
AcDbEntity
  8
ALL_ASSEMBLY_MEMBERS
100
AcDbLine
 62
7
  6
CONTINUOUS
 10
9.0438082298
 20
5.8687531091
 11
9.0438082298
 21
5.6192488516
  0
ARC
  5
2AB
100
AcDbEntity
  8
ALL_ASSEMBLY_MEMBERS
100
AcDbCircle
 62
7
  6
CONTINUOUS
 10
0.9198608217
 20
-15.0118425903
 40
21.0
100
AcDbArc
 50
84.2774261876
 51
87.2529863377
  0
ARC
  5
2AC
100
AcDbEntity
  8
ALL_ASSEMBLY_MEMBERS
100
AcDbCircle
 62
7
  6
CONTINUOUS
 10
5.4238082298
 20
2.3079308385
 40
0.31
100
AcDbArc
 50
143.7585141625
 51
36.2414858375
  0
ARC
  5
2AD
100
AcDbEntity
  8
ALL_ASSEMBLY_MEMBERS
100
AcDbCircle
 62
7
  6
CONTINUOUS
 10
5.4238082298
 20
2.3079308385
 40
0.265
100
AcDbArc
 50
160.6720138619
 51
19.3279861381
  0
ARC
  5
2AE
100
AcDbEntity
  8
ALL_ASSEMBLY_MEMBERS
100
AcDbCircle
 62
7
  6
CONTINUOUS
 10
5.4238082298
 20
2.3079308385
 40
0.2565
100
AcDbArc
 50
167.1333367499
 51
12.8666632501
  0
ARC
  5
2AF
100
AcDbEntity
  8
ALL_ASSEMBLY_MEMBERS
100
AcDbCircle
 62
7
  6
CONTINUOUS
 10
3.1431679309
 20
5.3417487247
 40
0.255
100
AcDbArc
 50
79.9181044226
 51
110.468608822
  0
ARC
  5
2B0
100
AcDbEntity
  8
ALL_ASSEMBLY_MEMBERS
100
AcDbCircle
 62
7
  6
CONTINUOUS
 10
5.4238082298
 20
2.3079308385
 40
0.25
100
AcDbArc
 50
180.0
 51
360.0
  0
ARC
  5
2B1
100
AcDbEntity
  8
ALL_ASSEMBLY_MEMBERS
100
AcDbCircle
 62
7
  6
CONTINUOUS
 10
1.7284592444
 20
5.484620302
 40
0.1425
100
AcDbArc
 50
14.6424776248
 51
51.3022866218
  0
ARC
  5
2B2
100
AcDbEntity
  8
ALL_ASSEMBLY_MEMBERS
100
AcDbCircle
 62
7
  6
CONTINUOUS
 10
3.5563082298
 20
5.5604370218
 40
0.04
100
AcDbArc
 50
288.819063369
 51
360.0
  0
ARC
  5
2B3
100
AcDbEntity
  8
ALL_ASSEMBLY_MEMBERS
100
AcDbCircle
 62
7
  6
CONTINUOUS
 10
3.3563082298
 20
5.5604370218
 40
0.04
100
AcDbArc
 50
180.0
 51
251.180936631
  0
ARC
  5
2B4
100
AcDbEntity
  8
ALL_ASSEMBLY_MEMBERS
100
AcDbCircle
 62
7
  6
CONTINUOUS
 10
1.8363082298
 20
5.6192488516
 40
0.03
100
AcDbArc
 50
180.0
 51
231.3022866218
  0
ARC
  5
2B5
100
AcDbEntity
  8
ALL_ASSEMBLY_MEMBERS
100
AcDbCircle
 62
7
  6
CONTINUOUS
 10
1.895356794
 20
5.5282260119
 40
0.03
100
AcDbArc
 50
194.6424776248
 51
270.0
  0
ARC
  5
2B6
100
AcDbEntity
  8
ALL_ASSEMBLY_MEMBERS
100
AcDbCircle
 62
7
  6
CONTINUOUS
 10
3.0435050995
 20
5.6087549419
 40
0.03
100
AcDbArc
 50
188.151882933
 51
290.468608822
  0
ARC
  5
2B7
100
AcDbEntity
  8
ALL_ASSEMBLY_MEMBERS
100
AcDbCircle
 62
7
  6
CONTINUOUS
 10
1.9063082298
 20
5.5182260119
 40
0.02
100
AcDbArc
 50
270.0
 51
360.0
  0
ARC
  5
2B8
100
AcDbEntity
  8
ALL_ASSEMBLY_MEMBERS
100
AcDbCircle
 62
7
  6
CONTINUOUS
 10
3.1913082298
 20
5.6125023242
 40
0.02
100
AcDbArc
 50
259.9181044226
 51
360.0
  0
ARC
  5
2B9
100
AcDbEntity
  8
ALL_ASSEMBLY_MEMBERS
100
AcDbCircle
 62
7
  6
CONTINUOUS
 10
3.5863082298
 20
5.5638650368
 40
0.01
100
AcDbArc
 50
0.0
 51
90.0
  0
ARC
  5
2BA
100
AcDbEntity
  8
ALL_ASSEMBLY_MEMBERS
100
AcDbCircle
 62
7
  6
CONTINUOUS
 10
3.3263082298
 20
5.5638650368
 40
0.01
100
AcDbArc
 50
90.0
 51
180.0
  0
ARC
  5
2BB
100
AcDbEntity
  8
ALL_ASSEMBLY_MEMBERS
100
AcDbCircle
 62
7
  6
CONTINUOUS
 10
3.3101906068
 20
5.5788650368
 40
0.005
100
AcDbArc
 50
228.4965643595
 51
270.0
  0
ARC
  5
2BC
100
AcDbEntity
  8
ALL_ASSEMBLY_MEMBERS
100
AcDbCircle
 62
7
  6
CONTINUOUS
 10
3.6024258528
 20
5.5788650368
 40
0.005
100
AcDbArc
 50
270.0
 51
311.5034356405
  0
ARC
  5
2BD
100
AcDbEntity
  8
ALL_ASSEMBLY_MEMBERS
100
AcDbCircle
 62
7
  6
CONTINUOUS
 10
1.0402775173
 20
6.3959509223
 40
2.2295
100
AcDbArc
 50
354.150613569
 51
9.2632522166
  0
ARC
  5
2BE
100
AcDbEntity
  8
ALL_ASSEMBLY_MEMBERS
100
AcDbCircle
 62
7
  6
CONTINUOUS
 10
1.7284592444
 20
6.0033817217
 40
0.1425
100
AcDbArc
 50
308.6977133782
 51
345.3575223752
  0
ARC
  5
2BF
100
AcDbEntity
  8
ALL_ASSEMBLY_MEMBERS
100
AcDbCircle
 62
7
  6
CONTINUOUS
 10
1.8363082298
 20
5.8687531722
 40
0.03
100
AcDbArc
 50
128.6977133782
 51
180.0
  0
ARC
  5
2C0
100
AcDbEntity
  8
ALL_ASSEMBLY_MEMBERS
100
AcDbCircle
 62
7
  6
CONTINUOUS
 10
1.895356794
 20
5.9597760119
 40
0.03
100
AcDbArc
 50
90.0
 51
165.3575223752
  0
ARC
  5
2C1
100
AcDbEntity
  8
ALL_ASSEMBLY_MEMBERS
100
AcDbCircle
 62
7
  6
CONTINUOUS
 10
3.0193082298
 20
7.0242424891
 40
0.027
100
AcDbArc
 50
162.5404824817
 51
219.0
  0
ARC
  5
2C2
100
AcDbEntity
  8
ALL_ASSEMBLY_MEMBERS
100
AcDbCircle
 62
7
  6
CONTINUOUS
 10
2.9744735585
 20
7.0383439871
 40
0.02
100
AcDbArc
 50
342.5404824817
 51
43.6426919198
  0
ARC
  5
2C3
100
AcDbEntity
  8
ALL_ASSEMBLY_MEMBERS
100
AcDbCircle
 62
7
  6
CONTINUOUS
 10
1.9063082298
 20
5.9697760119
 40
0.02
100
AcDbArc
 50
0.0
 51
90.0
  0
ARC
  5
2C4
100
AcDbEntity
  8
ALL_ASSEMBLY_MEMBERS
100
AcDbCircle
 62
7
  6
CONTINUOUS
 10
2.9145906539
 20
7.1442508385
 40
0.015
100
AcDbArc
 50
90.0
 51
228.7314307292
  0
ARC
  5
2C5
100
AcDbEntity
  8
ALL_ASSEMBLY_MEMBERS
100
AcDbCircle
 62
7
  6
CONTINUOUS
 10
0.9198608217
 20
26.499844614
 40
21.0
100
AcDbArc
 50
272.7470136623
 51
275.7225738125
  0
ARC
  5
2C6
100
AcDbEntity
  8
ALL_ASSEMBLY_MEMBERS
100
AcDbCircle
 62
7
  6
CONTINUOUS
 10
3.2738378991
 20
6.1512564956
 40
1.86
100
AcDbArc
 50
0.2562916178
 51
12.8205934159
  0
ARC
  5
2C7
100
AcDbEntity
  8
ALL_ASSEMBLY_MEMBERS
100
AcDbCircle
 62
7
  6
CONTINUOUS
 10
3.4563082298
 20
5.8538650368
 40
0.35
100
AcDbArc
 50
251.180936631
 51
288.819063369
  0
ARC
  5
2C8
100
AcDbEntity
  8
ALL_ASSEMBLY_MEMBERS
100
AcDbCircle
 62
7
  6
CONTINUOUS
 10
3.1431679309
 20
6.1462532991
 40
0.255
100
AcDbArc
 50
249.5313911776
 51
280.0818955774
  0
ARC
  5
2C9
100
AcDbEntity
  8
ALL_ASSEMBLY_MEMBERS
100
AcDbCircle
 62
7
  6
CONTINUOUS
 10
3.4563082298
 20
5.7440010119
 40
0.2255
100
AcDbArc
 50
311.5034356457
 51
53.066555091
  0
ARC
  5
2CA
100
AcDbEntity
  8
ALL_ASSEMBLY_MEMBERS
100
AcDbCircle
 62
7
  6
CONTINUOUS
 10
3.4563082298
 20
5.7440010119
 40
0.2255
100
AcDbArc
 50
210.7274226551
 51
228.4965643543
  0
ARC
  5
2CB
100
AcDbEntity
  8
ALL_ASSEMBLY_MEMBERS
100
AcDbCircle
 62
7
  6
CONTINUOUS
 10
3.4563082298
 20
5.7440010119
 40
0.2255
100
AcDbArc
 50
126.933444909
 51
149.2723715194
  0
ARC
  5
2CC
100
AcDbEntity
  8
ALL_ASSEMBLY_MEMBERS
100
AcDbCircle
 62
7
  6
CONTINUOUS
 10
3.2613082298
 20
6.1192508385
 40
0.03
100
AcDbArc
 50
180.0
 51
270.0
  0
ARC
  5
2CD
100
AcDbEntity
  8
ALL_ASSEMBLY_MEMBERS
100
AcDbCircle
 62
7
  6
CONTINUOUS
 10
3.6513082298
 20
6.1192508385
 40
0.03
100
AcDbArc
 50
270.0
 51
360.0
  0
ARC
  5
2CE
100
AcDbEntity
  8
ALL_ASSEMBLY_MEMBERS
100
AcDbCircle
 62
7
  6
CONTINUOUS
 10
3.2613082298
 20
6.1216704401
 40
0.03
100
AcDbArc
 50
123.3475728893
 51
180.0
  0
ARC
  5
2CF
100
AcDbEntity
  8
ALL_ASSEMBLY_MEMBERS
100
AcDbCircle
 62
7
  6
CONTINUOUS
 10
3.6513082298
 20
6.12167044
 40
0.03
100
AcDbArc
 50
0.0
 51
56.6524271095
  0
ARC
  5
2D0
100
AcDbEntity
  8
ALL_ASSEMBLY_MEMBERS
100
AcDbCircle
 62
7
  6
CONTINUOUS
 10
3.2110941924
 20
6.7500063034
 40
0.03
100
AcDbArc
 50
9.2632522166
 51
75.8674273336
  0
ARC
  5
2D1
100
AcDbEntity
  8
ALL_ASSEMBLY_MEMBERS
100
AcDbCircle
 62
7
  6
CONTINUOUS
 10
3.7015222672
 20
6.7500063034
 40
0.03
100
AcDbArc
 50
104.1325726664
 51
170.7367477834
  0
ARC
  5
2D2
100
AcDbEntity
  8
ALL_ASSEMBLY_MEMBERS
100
AcDbCircle
 62
7
  6
CONTINUOUS
 10
3.2283252337
 20
6.1717915131
 40
0.03
100
AcDbArc
 50
303.3475728893
 51
354.150613569
  0
ARC
  5
2D3
100
AcDbEntity
  8
ALL_ASSEMBLY_MEMBERS
100
AcDbCircle
 62
7
  6
CONTINUOUS
 10
3.684291226
 20
6.1717915131
 40
0.03
100
AcDbArc
 50
185.8493864313
 51
236.6524271095
  0
ARC
  5
2D4
100
AcDbEntity
  8
ALL_ASSEMBLY_MEMBERS
100
AcDbCircle
 62
7
  6
CONTINUOUS
 10
3.0435050995
 20
5.8792470818
 40
0.03
100
AcDbArc
 50
69.5313911776
 51
171.848117068
  0
ARC
  5
2D5
100
AcDbEntity
  8
ALL_ASSEMBLY_MEMBERS
100
AcDbCircle
 62
7
  6
CONTINUOUS
 10
3.1913082298
 20
5.8754996996
 40
0.02
100
AcDbArc
 50
0.0
 51
100.0818955774
  0
ARC
  5
2D6
100
AcDbEntity
  8
ALL_ASSEMBLY_MEMBERS
100
AcDbCircle
 62
7
  6
CONTINUOUS
 10
3.4408082298
 20
7.2243208324
 40
0.465
100
AcDbArc
 50
218.831504768
 51
239.3576548026
  0
ARC
  5
2D7
100
AcDbEntity
  8
ALL_ASSEMBLY_MEMBERS
100
AcDbCircle
 62
7
  6
CONTINUOUS
 10
3.4718082298
 20
7.2243208324
 40
0.465
100
AcDbArc
 50
300.6423451974
 51
321.168495232
  0
ARC
  5
2D8
100
AcDbEntity
  8
ALL_ASSEMBLY_MEMBERS
100
AcDbCircle
 62
7
  6
CONTINUOUS
 10
3.075460852
 20
6.9676119014
 40
0.035
100
AcDbArc
 50
219.0
 51
270.0
  0
ARC
  5
2D9
100
AcDbEntity
  8
ALL_ASSEMBLY_MEMBERS
100
AcDbCircle
 62
7
  6
CONTINUOUS
 10
3.8371556076
 20
6.9676119014
 40
0.035
100
AcDbArc
 50
270.0
 51
321.0
  0
ARC
  5
2DA
100
AcDbEntity
  8
ALL_ASSEMBLY_MEMBERS
100
AcDbCircle
 62
7
  6
CONTINUOUS
 10
3.6873606192
 20
6.8062508385
 40
0.028
100
AcDbArc
 50
284.1325726664
 51
40.0052008849
  0
ARC
  5
2DB
100
AcDbEntity
  8
ALL_ASSEMBLY_MEMBERS
100
AcDbCircle
 62
7
  6
CONTINUOUS
 10
3.2252558404
 20
6.8062508385
 40
0.028
100
AcDbArc
 50
139.9947991151
 51
255.8674273336
  0
ARC
  5
2DC
100
AcDbEntity
  8
ALL_ASSEMBLY_MEMBERS
100
AcDbCircle
 62
7
  6
CONTINUOUS
 10
3.8933082298
 20
7.0242424891
 40
0.027
100
AcDbArc
 50
321.0
 51
17.4595175183
  0
ARC
  5
2DD
100
AcDbEntity
  8
ALL_ASSEMBLY_MEMBERS
100
AcDbCircle
 62
7
  6
CONTINUOUS
 10
3.9381429011
 20
7.0383439871
 40
0.02
100
AcDbArc
 50
136.3573080802
 51
197.4595175183
  0
ARC
  5
2DE
100
AcDbEntity
  8
ALL_ASSEMBLY_MEMBERS
100
AcDbCircle
 62
7
  6
CONTINUOUS
 10
3.9980258057
 20
7.1442508385
 40
0.015
100
AcDbArc
 50
311.2685692708
 51
90.0
  0
ARC
  5
2DF
100
AcDbEntity
  8
ALL_ASSEMBLY_MEMBERS
100
AcDbCircle
 62
7
  6
CONTINUOUS
 10
4.9777775173
 20
6.3959509223
 40
2.2295
100
AcDbArc
 50
354.1506135687
 51
9.2632522166
  0
ARC
  5
2E0
100
AcDbEntity
  8
ALL_ASSEMBLY_MEMBERS
100
AcDbCircle
 62
7
  6
CONTINUOUS
 10
5.093001873
 20
6.7467508385
 40
0.05
100
AcDbArc
 50
227.6231174488
 51
270.0
  0
ARC
  5
2E1
100
AcDbEntity
  8
ALL_ASSEMBLY_MEMBERS
100
AcDbCircle
 62
7
  6
CONTINUOUS
 10
5.1363082298
 20
6.1033342649
 40
0.0375
100
AcDbArc
 50
116.0923345979
 51
180.0
  0
ARC
  5
2E2
100
AcDbEntity
  8
ALL_ASSEMBLY_MEMBERS
100
AcDbCircle
 62
7
  6
CONTINUOUS
 10
5.1363082298
 20
6.0967508385
 40
0.0375
100
AcDbArc
 50
180.0
 51
270.0
  0
ARC
  5
2E3
100
AcDbEntity
  8
ALL_ASSEMBLY_MEMBERS
100
AcDbCircle
 62
7
  6
CONTINUOUS
 10
5.0838082298
 20
6.6147508385
 40
0.035
100
AcDbArc
 50
180.0
 51
249.8003973001
  0
ARC
  5
2E4
100
AcDbEntity
  8
ALL_ASSEMBLY_MEMBERS
100
AcDbCircle
 62
7
  6
CONTINUOUS
 10
5.1088195409
 20
6.1594646665
 40
0.025
100
AcDbArc
 50
296.0923345979
 51
0.2562916178
  0
ARC
  5
2E5
100
AcDbEntity
  8
ALL_ASSEMBLY_MEMBERS
100
AcDbCircle
 62
7
  6
CONTINUOUS
 10
5.0630907283
 20
6.5584411135
 40
0.025
100
AcDbArc
 50
12.8205934159
 51
69.8003973001
  0
ARC
  5
2E6
100
AcDbEntity
  8
ALL_ASSEMBLY_MEMBERS
100
AcDbCircle
 62
7
  6
CONTINUOUS
 10
5.0688082298
 20
6.6372508385
 40
0.02
100
AcDbArc
 50
90.0
 51
180.0
  0
ARC
  5
2E7
100
AcDbEntity
  8
ALL_ASSEMBLY_MEMBERS
100
AcDbCircle
 62
7
  6
CONTINUOUS
 10
4.7773082298
 20
7.8179054889
 40
1.5
100
AcDbArc
 50
312.3768825512
 51
323.1704541732
  0
ARC
  5
2E8
100
AcDbEntity
  8
ALL_ASSEMBLY_MEMBERS
100
AcDbCircle
 62
7
  6
CONTINUOUS
 10
4.8176603761
 20
7.0112508385
 40
0.0415
100
AcDbArc
 50
158.1597452607
 51
177.5219702511
  0
ARC
  5
2E9
100
AcDbEntity
  8
ALL_ASSEMBLY_MEMBERS
100
AcDbCircle
 62
7
  6
CONTINUOUS
 10
4.8551597419
 20
6.9467508385
 40
0.028
100
AcDbArc
 50
209.5765684061
 51
270.0
  0
ARC
  5
2EA
100
AcDbEntity
  8
ALL_ASSEMBLY_MEMBERS
100
AcDbCircle
 62
7
  6
CONTINUOUS
 10
4.7619668951
 20
7.0335720431
 40
0.0185
100
AcDbArc
 50
338.1597452607
 51
24.7890243841
  0
ARC
  5
2EB
100
AcDbEntity
  8
ALL_ASSEMBLY_MEMBERS
100
AcDbCircle
 62
7
  6
CONTINUOUS
 10
4.7496439467
 20
7.1407508385
 40
0.0185
100
AcDbArc
 50
90.0
 51
210.1536927054
  0
ARC
  5
2EC
100
AcDbEntity
  8
ALL_ASSEMBLY_MEMBERS
100
AcDbCircle
 62
7
  6
CONTINUOUS
 10
4.7900861855
 20
7.0124441603
 40
0.0139
100
AcDbArc
 50
177.5219702511
 51
216.07
  0
ARC
  5
2ED
100
AcDbEntity
  8
ALL_ASSEMBLY_MEMBERS
100
AcDbCircle
 62
7
  6
CONTINUOUS
 10
9.930255638
 20
-15.0118425903
 40
21.0
100
AcDbArc
 50
92.7470136623
 51
95.7225738124
  0
ARC
  5
2EE
100
AcDbEntity
  8
ALL_ASSEMBLY_MEMBERS
100
AcDbCircle
 62
7
  6
CONTINUOUS
 10
7.7069485287
 20
5.3417487247
 40
0.255
100
AcDbArc
 50
69.531391178
 51
100.0818955774
  0
ARC
  5
2EF
100
AcDbEntity
  8
ALL_ASSEMBLY_MEMBERS
100
AcDbCircle
 62
7
  6
CONTINUOUS
 10
9.1216572152
 20
5.484620302
 40
0.1425
100
AcDbArc
 50
128.6977133782
 51
165.3575223752
  0
ARC
  5
2F0
100
AcDbEntity
  8
ALL_ASSEMBLY_MEMBERS
100
AcDbCircle
 62
7
  6
CONTINUOUS
 10
7.2938082298
 20
5.5604370218
 40
0.04
100
AcDbArc
 50
180.0
 51
251.180936631
  0
ARC
  5
2F1
100
AcDbEntity
  8
ALL_ASSEMBLY_MEMBERS
100
AcDbCircle
 62
7
  6
CONTINUOUS
 10
7.4938082298
 20
5.5604370218
 40
0.04
100
AcDbArc
 50
288.819063369
 51
360.0
  0
ARC
  5
2F2
100
AcDbEntity
  8
ALL_ASSEMBLY_MEMBERS
100
AcDbCircle
 62
7
  6
CONTINUOUS
 10
7.8066113601
 20
5.6087549419
 40
0.03
100
AcDbArc
 50
249.531391178
 51
351.848117067
  0
ARC
  5
2F3
100
AcDbEntity
  8
ALL_ASSEMBLY_MEMBERS
100
AcDbCircle
 62
7
  6
CONTINUOUS
 10
9.0138082298
 20
5.6192488516
 40
0.03
100
AcDbArc
 50
308.6977133782
 51
360.0
  0
ARC
  5
2F4
100
AcDbEntity
  8
ALL_ASSEMBLY_MEMBERS
100
AcDbCircle
 62
7
  6
CONTINUOUS
 10
8.9547596656
 20
5.5282260119
 40
0.03
100
AcDbArc
 50
270.0
 51
345.3575223752
  0
ARC
  5
2F5
100
AcDbEntity
  8
ALL_ASSEMBLY_MEMBERS
100
AcDbCircle
 62
7
  6
CONTINUOUS
 10
7.6588082298
 20
5.6125023242
 40
0.02
100
AcDbArc
 50
180.0
 51
280.0818955774
  0
ARC
  5
2F6
100
AcDbEntity
  8
ALL_ASSEMBLY_MEMBERS
100
AcDbCircle
 62
7
  6
CONTINUOUS
 10
8.9438082298
 20
5.5182260119
 40
0.02
100
AcDbArc
 50
180.0
 51
270.0
  0
ARC
  5
2F7
100
AcDbEntity
  8
ALL_ASSEMBLY_MEMBERS
100
AcDbCircle
 62
7
  6
CONTINUOUS
 10
7.2638082298
 20
5.5638650368
 40
0.01
100
AcDbArc
 50
90.0
 51
180.0
  0
ARC
  5
2F8
100
AcDbEntity
  8
ALL_ASSEMBLY_MEMBERS
100
AcDbCircle
 62
7
  6
CONTINUOUS
 10
7.5238082298
 20
5.5638650368
 40
0.01
100
AcDbArc
 50
0.0
 51
90.0
  0
ARC
  5
2F9
100
AcDbEntity
  8
ALL_ASSEMBLY_MEMBERS
100
AcDbCircle
 62
7
  6
CONTINUOUS
 10
7.5399258528
 20
5.5788650368
 40
0.005
100
AcDbArc
 50
270.0
 51
311.5034356405
  0
ARC
  5
2FA
100
AcDbEntity
  8
ALL_ASSEMBLY_MEMBERS
100
AcDbCircle
 62
7
  6
CONTINUOUS
 10
7.2476906068
 20
5.5788650368
 40
0.005
100
AcDbArc
 50
228.4965643595
 51
270.0
  0
ARC
  5
2FB
100
AcDbEntity
  8
ALL_ASSEMBLY_MEMBERS
100
AcDbCircle
 62
7
  6
CONTINUOUS
 10
5.8723389424
 20
6.3959509223
 40
2.2295
100
AcDbArc
 50
170.7367477834
 51
185.8493864313
  0
ARC
  5
2FC
100
AcDbEntity
  8
ALL_ASSEMBLY_MEMBERS
100
AcDbCircle
 62
7
  6
CONTINUOUS
 10
5.7546145866
 20
6.7467508385
 40
0.05
100
AcDbArc
 50
270.0
 51
312.3768825512
  0
ARC
  5
2FD
100
AcDbEntity
  8
ALL_ASSEMBLY_MEMBERS
100
AcDbCircle
 62
7
  6
CONTINUOUS
 10
5.7113082298
 20
6.1033342649
 40
0.0375
100
AcDbArc
 50
0.0
 51
63.9076654021
  0
ARC
  5
2FE
100
AcDbEntity
  8
ALL_ASSEMBLY_MEMBERS
100
AcDbCircle
 62
7
  6
CONTINUOUS
 10
5.7113082298
 20
6.0967508385
 40
0.0375
100
AcDbArc
 50
270.0
 51
360.0
  0
ARC
  5
2FF
100
AcDbEntity
  8
ALL_ASSEMBLY_MEMBERS
100
AcDbCircle
 62
7
  6
CONTINUOUS
 10
5.7638082298
 20
6.6147508385
 40
0.035
100
AcDbArc
 50
290.1996026999
 51
360.0
  0
ARC
  5
300
100
AcDbEntity
  8
ALL_ASSEMBLY_MEMBERS
100
AcDbCircle
 62
7
  6
CONTINUOUS
 10
5.7387969187
 20
6.1594646665
 40
0.025
100
AcDbArc
 50
179.743708382
 51
243.9076654021
  0
ARC
  5
301
100
AcDbEntity
  8
ALL_ASSEMBLY_MEMBERS
100
AcDbCircle
 62
7
  6
CONTINUOUS
 10
5.7845257313
 20
6.5584411135
 40
0.025
100
AcDbArc
 50
110.1996026999
 51
167.1794065841
  0
ARC
  5
302
100
AcDbEntity
  8
ALL_ASSEMBLY_MEMBERS
100
AcDbCircle
 62
7
  6
CONTINUOUS
 10
5.7788082298
 20
6.6372508385
 40
0.02
100
AcDbArc
 50
0.0
 51
90.0
  0
ARC
  5
303
100
AcDbEntity
  8
ALL_ASSEMBLY_MEMBERS
100
AcDbCircle
 62
7
  6
CONTINUOUS
 10
6.0703082298
 20
7.8179054889
 40
1.5
100
AcDbArc
 50
216.8295458268
 51
227.6231174488
  0
ARC
  5
304
100
AcDbEntity
  8
ALL_ASSEMBLY_MEMBERS
100
AcDbCircle
 62
7
  6
CONTINUOUS
 10
6.0299560836
 20
7.0112508385
 40
0.0415
100
AcDbArc
 50
2.4780297489
 51
21.8402547393
  0
ARC
  5
305
100
AcDbEntity
  8
ALL_ASSEMBLY_MEMBERS
100
AcDbCircle
 62
7
  6
CONTINUOUS
 10
5.9924567178
 20
6.9467508385
 40
0.028
100
AcDbArc
 50
270.0
 51
330.4234315939
  0
ARC
  5
306
100
AcDbEntity
  8
ALL_ASSEMBLY_MEMBERS
100
AcDbCircle
 62
7
  6
CONTINUOUS
 10
6.0856495645
 20
7.0335720431
 40
0.0185
100
AcDbArc
 50
155.2109756159
 51
201.8402547393
  0
ARC
  5
307
100
AcDbEntity
  8
ALL_ASSEMBLY_MEMBERS
100
AcDbCircle
 62
7
  6
CONTINUOUS
 10
6.097972513
 20
7.1407508385
 40
0.0185
100
AcDbArc
 50
329.8463072946
 51
90.0
  0
ARC
  5
308
100
AcDbEntity
  8
ALL_ASSEMBLY_MEMBERS
100
AcDbCircle
 62
7
  6
CONTINUOUS
 10
6.0575302741
 20
7.0124441603
 40
0.0139
100
AcDbArc
 50
323.93
 51
2.4780297489
  0
ARC
  5
309
100
AcDbEntity
  8
ALL_ASSEMBLY_MEMBERS
100
AcDbCircle
 62
7
  6
CONTINUOUS
 10
7.5737785605
 20
6.1512564956
 40
1.86
100
AcDbArc
 50
167.1794065841
 51
179.743708382
  0
ARC
  5
30A
100
AcDbEntity
  8
ALL_ASSEMBLY_MEMBERS
100
AcDbCircle
 62
7
  6
CONTINUOUS
 10
7.3938082298
 20
5.8538650368
 40
0.35
100
AcDbArc
 50
251.180936631
 51
288.819063369
  0
ARC
  5
30B
100
AcDbEntity
  8
ALL_ASSEMBLY_MEMBERS
100
AcDbCircle
 62
7
  6
CONTINUOUS
 10
7.7069485287
 20
6.1462532991
 40
0.255
100
AcDbArc
 50
259.9181044226
 51
290.4686088224
  0
ARC
  5
30C
100
AcDbEntity
  8
ALL_ASSEMBLY_MEMBERS
100
AcDbCircle
 62
7
  6
CONTINUOUS
 10
7.3938082298
 20
5.7440010119
 40
0.2255
100
AcDbArc
 50
126.933444909
 51
228.4965643543
  0
ARC
  5
30D
100
AcDbEntity
  8
ALL_ASSEMBLY_MEMBERS
100
AcDbCircle
 62
7
  6
CONTINUOUS
 10
7.3938082298
 20
5.7440010119
 40
0.2255
100
AcDbArc
 50
311.5034356457
 51
329.2714623274
  0
ARC
  5
30E
100
AcDbEntity
  8
ALL_ASSEMBLY_MEMBERS
100
AcDbCircle
 62
7
  6
CONTINUOUS
 10
7.3938082298
 20
5.7440010119
 40
0.2255
100
AcDbArc
 50
30.7287464076
 51
53.066555091
  0
ARC
  5
30F
100
AcDbEntity
  8
ALL_ASSEMBLY_MEMBERS
100
AcDbCircle
 62
7
  6
CONTINUOUS
 10
7.5888082298
 20
6.1192508385
 40
0.03
100
AcDbArc
 50
270.0
 51
360.0
  0
ARC
  5
310
100
AcDbEntity
  8
ALL_ASSEMBLY_MEMBERS
100
AcDbCircle
 62
7
  6
CONTINUOUS
 10
7.1988082298
 20
6.1192508385
 40
0.03
100
AcDbArc
 50
180.0
 51
270.0
  0
ARC
  5
311
100
AcDbEntity
  8
ALL_ASSEMBLY_MEMBERS
100
AcDbCircle
 62
7
  6
CONTINUOUS
 10
7.5888082298
 20
6.1216704401
 40
0.03
100
AcDbArc
 50
0.0
 51
56.6524271107
  0
ARC
  5
312
100
AcDbEntity
  8
ALL_ASSEMBLY_MEMBERS
100
AcDbCircle
 62
7
  6
CONTINUOUS
 10
7.1988082298
 20
6.12167044
 40
0.03
100
AcDbArc
 50
123.3475728905
 51
180.0
  0
ARC
  5
313
100
AcDbEntity
  8
ALL_ASSEMBLY_MEMBERS
100
AcDbCircle
 62
7
  6
CONTINUOUS
 10
7.6390222672
 20
6.7500063034
 40
0.03
100
AcDbArc
 50
104.1325726664
 51
170.7367477834
  0
ARC
  5
314
100
AcDbEntity
  8
ALL_ASSEMBLY_MEMBERS
100
AcDbCircle
 62
7
  6
CONTINUOUS
 10
7.1485941924
 20
6.7500063034
 40
0.03
100
AcDbArc
 50
9.2632522166
 51
75.8674273336
  0
ARC
  5
315
100
AcDbEntity
  8
ALL_ASSEMBLY_MEMBERS
100
AcDbCircle
 62
7
  6
CONTINUOUS
 10
7.621791226
 20
6.1717915131
 40
0.03
100
AcDbArc
 50
185.849386431
 51
236.6524271107
  0
ARC
  5
316
100
AcDbEntity
  8
ALL_ASSEMBLY_MEMBERS
100
AcDbCircle
 62
7
  6
CONTINUOUS
 10
7.1658252337
 20
6.1717915131
 40
0.03
100
AcDbArc
 50
303.3475728905
 51
354.1506135687
  0
ARC
  5
317
100
AcDbEntity
  8
ALL_ASSEMBLY_MEMBERS
100
AcDbCircle
 62
7
  6
CONTINUOUS
 10
7.8066113601
 20
5.8792470818
 40
0.03
100
AcDbArc
 50
8.151882932
 51
110.4686088224
  0
ARC
  5
318
100
AcDbEntity
  8
ALL_ASSEMBLY_MEMBERS
100
AcDbCircle
 62
7
  6
CONTINUOUS
 10
7.6588082298
 20
5.8754996996
 40
0.02
100
AcDbArc
 50
79.9181044226
 51
180.0
  0
ARC
  5
319
100
AcDbEntity
  8
ALL_ASSEMBLY_MEMBERS
100
AcDbCircle
 62
7
  6
CONTINUOUS
 10
7.4093082298
 20
7.2243208324
 40
0.465
100
AcDbArc
 50
300.6423451974
 51
321.168495232
  0
ARC
  5
31A
100
AcDbEntity
  8
ALL_ASSEMBLY_MEMBERS
100
AcDbCircle
 62
7
  6
CONTINUOUS
 10
7.3783082298
 20
7.2243208324
 40
0.465
100
AcDbArc
 50
218.831504768
 51
239.3576548026
  0
ARC
  5
31B
100
AcDbEntity
  8
ALL_ASSEMBLY_MEMBERS
100
AcDbCircle
 62
7
  6
CONTINUOUS
 10
7.7746556076
 20
6.9676119014
 40
0.035
100
AcDbArc
 50
270.0
 51
321.0
  0
ARC
  5
31C
100
AcDbEntity
  8
ALL_ASSEMBLY_MEMBERS
100
AcDbCircle
 62
7
  6
CONTINUOUS
 10
7.012960852
 20
6.9676119014
 40
0.035
100
AcDbArc
 50
219.0
 51
270.0
  0
ARC
  5
31D
100
AcDbEntity
  8
ALL_ASSEMBLY_MEMBERS
100
AcDbCircle
 62
7
  6
CONTINUOUS
 10
7.1627558404
 20
6.8062508385
 40
0.028
100
AcDbArc
 50
139.9947991151
 51
255.8674273336
  0
ARC
  5
31E
100
AcDbEntity
  8
ALL_ASSEMBLY_MEMBERS
100
AcDbCircle
 62
7
  6
CONTINUOUS
 10
7.6248606192
 20
6.8062508385
 40
0.028
100
AcDbArc
 50
284.1325726664
 51
40.0052008849
  0
ARC
  5
31F
100
AcDbEntity
  8
ALL_ASSEMBLY_MEMBERS
100
AcDbCircle
 62
7
  6
CONTINUOUS
 10
6.9568082298
 20
7.0242424891
 40
0.027
100
AcDbArc
 50
162.5404824817
 51
219.0
  0
ARC
  5
320
100
AcDbEntity
  8
ALL_ASSEMBLY_MEMBERS
100
AcDbCircle
 62
7
  6
CONTINUOUS
 10
6.9119735585
 20
7.0383439871
 40
0.02
100
AcDbArc
 50
342.5404824817
 51
43.6426919198
  0
ARC
  5
321
100
AcDbEntity
  8
ALL_ASSEMBLY_MEMBERS
100
AcDbCircle
 62
7
  6
CONTINUOUS
 10
6.8520906539
 20
7.1442508385
 40
0.015
100
AcDbArc
 50
90.0
 51
228.7314307292
  0
ARC
  5
322
100
AcDbEntity
  8
ALL_ASSEMBLY_MEMBERS
100
AcDbCircle
 62
7
  6
CONTINUOUS
 10
9.8098389424
 20
6.3959509223
 40
2.2295
100
AcDbArc
 50
170.7367477834
 51
185.849386431
  0
ARC
  5
323
100
AcDbEntity
  8
ALL_ASSEMBLY_MEMBERS
100
AcDbCircle
 62
7
  6
CONTINUOUS
 10
9.1216572152
 20
6.0033817217
 40
0.1425
100
AcDbArc
 50
194.6424776248
 51
231.3022866218
  0
ARC
  5
324
100
AcDbEntity
  8
ALL_ASSEMBLY_MEMBERS
100
AcDbCircle
 62
7
  6
CONTINUOUS
 10
9.0138082298
 20
5.8687531722
 40
0.03
100
AcDbArc
 50
0.0
 51
51.3022866218
  0
ARC
  5
325
100
AcDbEntity
  8
ALL_ASSEMBLY_MEMBERS
100
AcDbCircle
 62
7
  6
CONTINUOUS
 10
8.9547596656
 20
5.9597760119
 40
0.03
100
AcDbArc
 50
14.6424776248
 51
90.0
  0
ARC
  5
326
100
AcDbEntity
  8
ALL_ASSEMBLY_MEMBERS
100
AcDbCircle
 62
7
  6
CONTINUOUS
 10
7.8308082298
 20
7.0242424891
 40
0.027
100
AcDbArc
 50
321.0
 51
17.4595175183
  0
ARC
  5
327
100
AcDbEntity
  8
ALL_ASSEMBLY_MEMBERS
100
AcDbCircle
 62
7
  6
CONTINUOUS
 10
7.8756429011
 20
7.0383439871
 40
0.02
100
AcDbArc
 50
136.3573080802
 51
197.4595175183
  0
ARC
  5
328
100
AcDbEntity
  8
ALL_ASSEMBLY_MEMBERS
100
AcDbCircle
 62
7
  6
CONTINUOUS
 10
8.9438082298
 20
5.9697760119
 40
0.02
100
AcDbArc
 50
90.0
 51
180.0
  0
ARC
  5
329
100
AcDbEntity
  8
ALL_ASSEMBLY_MEMBERS
100
AcDbCircle
 62
7
  6
CONTINUOUS
 10
7.9355258057
 20
7.1442508385
 40
0.015
100
AcDbArc
 50
311.2685692708
 51
90.0
  0
ARC
  5
32A
100
AcDbEntity
  8
ALL_ASSEMBLY_MEMBERS
100
AcDbCircle
 62
7
  6
CONTINUOUS
 10
9.930255638
 20
26.499844614
 40
21.0
100
AcDbArc
 50
264.2774261875
 51
267.2529863377
  0
SPLINE
  5
32B
100
AcDbEntity
  8
ALL_ASSEMBLY_MEMBERS
100
AcDbSpline
 62
7
  6
CONTINUOUS
 70
0
 71
3
 72
29
 73
25
 74
0
 42
0.0000001
 43
0.0000001
 44
0.0000000001
 40
0.0
 40
0.0
 40
0.0
 40
0.0
 40
0.0150470148
 40
0.0303640845
 40
0.0462031357
 40
0.0627882035
 40
0.0803109308
 40
0.0989250248
 40
0.1187450515
 40
0.1398564751
 40
0.1861621649
 40
0.2381128066
 40
0.2662080948
 40
0.2956916155
 40
0.3265353654
 40
0.3586972631
 40
0.4267757359
 40
0.499506337
 40
0.5763478761
 40
0.6567023954
 40
0.7399434713
 40
0.8254216147
 40
0.9124007141
 40
1.0
 40
1.0
 40
1.0
 40
1.0
 10
5.6738082298
 20
5.6736549253
 30
0.0
 10
5.6738082298
 20
5.6750570351
 30
0.0
 10
5.6736022703
 20
5.6778904671
 30
0.0
 10
5.6726829823
 20
5.6821098416
 30
0.0
 10
5.6711588925
 20
5.6863025699
 30
0.0
 10
5.6690368823
 20
5.6904568062
 30
0.0
 10
5.6663229869
 20
5.6945628313
 30
0.0
 10
5.6630257743
 20
5.6986118026
 30
0.0
 10
5.6591561123
 20
5.7025969756
 30
0.0
 10
5.6530566272
 20
5.7079807199
 30
0.0
 10
5.6439712957
 20
5.7144502805
 30
0.0
 10
5.6337005481
 20
5.720240276
 30
0.0
 10
5.6245141074
 20
5.7246918409
 30
0.0
 10
5.6169629352
 20
5.7279935706
 30
0.0
 10
5.6089473203
 20
5.7311643037
 30
0.0
 10
5.5974473878
 20
5.7352866201
 30
0.0
 10
5.5820342452
 20
5.7400320865
 30
0.0
 10
5.5623606813
 20
5.7449899159
 30
0.0
 10
5.5413609838
 20
5.7492720534
 30
0.0
 10
5.5192354921
 20
5.7528335474
 30
0.0
 10
5.4961913292
 20
5.7556405799
 30
0.0
 10
5.4724460146
 20
5.7576654404
 30
0.0
 10
5.448239747
 20
5.758885962
 30
0.0
 10
5.4319709001
 20
5.7591599611
 30
0.0
 10
5.4238082298
 20
5.7591599611
 30
0.0
  0
SPLINE
  5
32C
100
AcDbEntity
  8
ALL_ASSEMBLY_MEMBERS
100
AcDbSpline
 62
7
  6
CONTINUOUS
 70
0
 71
3
 72
29
 73
25
 74
0
 42
0.0000001
 43
0.0000001
 44
0.0000000001
 40
0.0
 40
0.0
 40
0.0
 40
0.0
 40
0.0150470148
 40
0.0303640845
 40
0.0462031357
 40
0.0627882035
 40
0.0803109308
 40
0.0989250248
 40
0.1187450515
 40
0.1398564751
 40
0.1861621649
 40
0.2381128066
 40
0.2662080948
 40
0.2956916155
 40
0.3265353654
 40
0.3586972631
 40
0.4267757359
 40
0.499506337
 40
0.5763478761
 40
0.6567023954
 40
0.7399434713
 40
0.8254216147
 40
0.9124007141
 40
1.0
 40
1.0
 40
1.0
 40
1.0
 10
5.6738082298
 20
3.7103418883
 30
0.0
 10
5.6738082298
 20
3.7117439981
 30
0.0
 10
5.6736022703
 20
3.7145774301
 30
0.0
 10
5.6726829823
 20
3.7187968046
 30
0.0
 10
5.6711588925
 20
3.7229895329
 30
0.0
 10
5.6690368823
 20
3.7271437692
 30
0.0
 10
5.6663229869
 20
3.7312497943
 30
0.0
 10
5.6630257743
 20
3.7352987656
 30
0.0
 10
5.6591561123
 20
3.7392839386
 30
0.0
 10
5.6530566272
 20
3.7446676829
 30
0.0
 10
5.6439712957
 20
3.7511372435
 30
0.0
 10
5.6337005481
 20
3.756927239
 30
0.0
 10
5.6245141074
 20
3.7613788039
 30
0.0
 10
5.6169629352
 20
3.7646805336
 30
0.0
 10
5.6089473203
 20
3.7678512667
 30
0.0
 10
5.5974473878
 20
3.7719735831
 30
0.0
 10
5.5820342452
 20
3.7767190495
 30
0.0
 10
5.5623606813
 20
3.7816768789
 30
0.0
 10
5.5413609838
 20
3.7859590164
 30
0.0
 10
5.5192354921
 20
3.7895205104
 30
0.0
 10
5.4961913292
 20
3.7923275429
 30
0.0
 10
5.4724460146
 20
3.7943524034
 30
0.0
 10
5.448239747
 20
3.795572925
 30
0.0
 10
5.4319709001
 20
3.7958469241
 30
0.0
 10
5.4238082298
 20
3.7958469241
 30
0.0
  0
SPLINE
  5
32D
100
AcDbEntity
  8
ALL_ASSEMBLY_MEMBERS
100
AcDbSpline
 62
7
  6
CONTINUOUS
 70
0
 71
3
 72
29
 73
25
 74
0
 42
0.0000001
 43
0.0000001
 44
0.0000000001
 40
0.0
 40
0.0
 40
0.0
 40
0.0
 40
0.0875992859
 40
0.1745783853
 40
0.2600565287
 40
0.3432976046
 40
0.4236521239
 40
0.500493663
 40
0.5732242641
 40
0.6413027369
 40
0.6734646346
 40
0.7043083845
 40
0.7337919052
 40
0.7618871934
 40
0.8138378351
 40
0.8601435249
 40
0.8812549485
 40
0.9010749752
 40
0.9196890692
 40
0.9372117965
 40
0.9537968643
 40
0.9696359155
 40
0.9849529852
 40
1.0
 40
1.0
 40
1.0
 40
1.0
 10
5.4238082298
 20
5.7591599611
 30
0.0
 10
5.4156455595
 20
5.7591599611
 30
0.0
 10
5.3993767126
 20
5.758885962
 30
0.0
 10
5.3751704451
 20
5.7576654404
 30
0.0
 10
5.3514251304
 20
5.7556405799
 30
0.0
 10
5.3283809675
 20
5.7528335474
 30
0.0
 10
5.3062554758
 20
5.7492720534
 30
0.0
 10
5.2852557784
 20
5.7449899159
 30
0.0
 10
5.2655822145
 20
5.7400320865
 30
0.0
 10
5.2501690718
 20
5.7352866201
 30
0.0
 10
5.2386691394
 20
5.7311643037
 30
0.0
 10
5.2306535244
 20
5.7279935706
 30
0.0
 10
5.2231023522
 20
5.7246918409
 30
0.0
 10
5.2139159116
 20
5.720240276
 30
0.0
 10
5.2036451639
 20
5.7144502805
 30
0.0
 10
5.1945598325
 20
5.7079807199
 30
0.0
 10
5.1884603473
 20
5.7025969756
 30
0.0
 10
5.1845906853
 20
5.6986118026
 30
0.0
 10
5.1812934728
 20
5.6945628313
 30
0.0
 10
5.1785795774
 20
5.6904568062
 30
0.0
 10
5.1764575671
 20
5.6863025699
 30
0.0
 10
5.1749334773
 20
5.6821098416
 30
0.0
 10
5.1740141893
 20
5.6778904671
 30
0.0
 10
5.1738082298
 20
5.6750570351
 30
0.0
 10
5.1738082298
 20
5.6736549253
 30
0.0
  0
SPLINE
  5
32E
100
AcDbEntity
  8
ALL_ASSEMBLY_MEMBERS
100
AcDbSpline
 62
7
  6
CONTINUOUS
 70
0
 71
3
 72
29
 73
25
 74
0
 42
0.0000001
 43
0.0000001
 44
0.0000000001
 40
0.0
 40
0.0
 40
0.0
 40
0.0
 40
0.0875992859
 40
0.1745783853
 40
0.2600565287
 40
0.3432976046
 40
0.4236521239
 40
0.500493663
 40
0.5732242641
 40
0.6413027369
 40
0.6734646346
 40
0.7043083845
 40
0.7337919052
 40
0.7618871934
 40
0.8138378351
 40
0.8601435249
 40
0.8812549485
 40
0.9010749752
 40
0.9196890692
 40
0.9372117965
 40
0.9537968643
 40
0.9696359155
 40
0.9849529852
 40
1.0
 40
1.0
 40
1.0
 40
1.0
 10
5.4238082298
 20
3.7958469241
 30
0.0
 10
5.4156455595
 20
3.7958469241
 30
0.0
 10
5.3993767126
 20
3.795572925
 30
0.0
 10
5.3751704451
 20
3.7943524034
 30
0.0
 10
5.3514251304
 20
3.7923275429
 30
0.0
 10
5.3283809675
 20
3.7895205104
 30
0.0
 10
5.3062554758
 20
3.7859590164
 30
0.0
 10
5.2852557784
 20
3.7816768789
 30
0.0
 10
5.2655822145
 20
3.7767190495
 30
0.0
 10
5.2501690718
 20
3.7719735831
 30
0.0
 10
5.2386691394
 20
3.7678512667
 30
0.0
 10
5.2306535244
 20
3.7646805336
 30
0.0
 10
5.2231023522
 20
3.7613788039
 30
0.0
 10
5.2139159116
 20
3.756927239
 30
0.0
 10
5.2036451639
 20
3.7511372435
 30
0.0
 10
5.1945598325
 20
3.7446676829
 30
0.0
 10
5.1884603473
 20
3.7392839386
 30
0.0
 10
5.1845906853
 20
3.7352987656
 30
0.0
 10
5.1812934728
 20
3.7312497943
 30
0.0
 10
5.1785795774
 20
3.7271437692
 30
0.0
 10
5.1764575671
 20
3.7229895329
 30
0.0
 10
5.1749334773
 20
3.7187968046
 30
0.0
 10
5.1740141893
 20
3.7145774301
 30
0.0
 10
5.1738082298
 20
3.7117439981
 30
0.0
 10
5.1738082298
 20
3.7103418883
 30
0.0
  0
ENDSEC
  0
SECTION
  2
OBJECTS
  0
DICTIONARY
  5
C
100
AcDbDictionary
280
0
281
1
  3
ACAD_GROUP
350
D
  3
ACAD_MLINESTYLE
350
17
  3
ACAD_LAYOUT
350
1A
  3
ACAD_PLOTSETTINGS
350
19
  3
ACAD_PLOTSTYLENAME
350
E
  0
DICTIONARY
  5
D
102
{ACAD_REACTORS
330
C
102
}
100
AcDbDictionary
280
0
281
1
  0
ACDBDICTIONARYWDFLT
  5
E
102
{ACAD_REACTORS
330
C
102
}
100
AcDbDictionary
281
1
  3
Normal
350
F
100
AcDbDictionaryWithDefault
340
F
  0
DICTIONARY
  5
17
102
{ACAD_REACTORS
330
C
102
}
100
AcDbDictionary
280
0
281
1
  3
Standard
350
18
  0
DICTIONARY
  5
19
102
{ACAD_REACTORS
330
C
102
}
100
AcDbDictionary
281
1
  0
DICTIONARY
  5
1A
102
{ACAD_REACTORS
330
C
102
}
100
AcDbDictionary
281
1
  3
Model
350
32F
  3
Layout1
350
330
  0
ACDBPLACEHOLDER
  5
F
102
{ACAD_REACTORS
330
E
102
}
  0
MLINESTYLE
  5
18
102
{ACAD_REACTORS
330
17
102
}
100
AcDbMlineStyle
  2
STANDARD
 70
0
  3

 62
256
 51
90.0
 52
90.0
 71
2
 49
0.5
 62
256
  6
BYLAYER
 49
-0.5
 62
256
  6
BYLAYER
  0
LAYOUT
  5
32F
102
{ACAD_REACTORS
330
1A
102
}
100
AcDbPlotSettings
  1

  2
none_device
  4
ANSI_A_(11.00_x_8.50_Inches)
  6

 40
0.0
 41
0.0
 42
0.0
 43
0.0
 44
279.4
 45
215.9
 46
0.0
 47
0.0
 48
0.0
 49
0.0
140
0.0
141
0.0
142
1.0
143
1.0
 70
1024
 72
0
 73
0
 74
0
  7

 75
0
147
1.0
148
0.0
149
0.0
100
AcDbLayout
  1
Model
 70
0
 71
0
 10
0.0
 20
0.0
 11
11.0
 21
8.5
 12
0.0
 22
0.0
 32
0.0
 14
0.0
 24
0.0
 34
0.0
 15
0.0
 25
0.0
 35
0.0
146
0.0
 13
0.0
 23
0.0
 33
0.0
 16
1.0
 26
0.0
 36
0.0
 17
0.0
 27
1.0
 37
0.0
 76
0
330
219
345
0
346
0
  0
LAYOUT
  5
330
102
{ACAD_REACTORS
330
1A
102
}
100
AcDbPlotSettings
  1

  2
none_device
  4
ANSI_A_(11.00_x_8.50_Inches)
  6

 40
0.0
 41
0.0
 42
0.0
 43
0.0
 44
279.4
 45
215.9
 46
0.0
 47
0.0
 48
0.0
 49
0.0
140
0.0
141
0.0
142
1.0
143
1.0
 70
0
 72
0
 73
0
 74
0
  7

 75
0
147
1.0
148
0.0
149
0.0
100
AcDbLayout
  1
Layout1
 70
0
 71
1
 10
0.0
 20
0.0
 11
11.0
 21
8.5
 12
0.0
 22
0.0
 32
0.0
 14
0.0
 24
0.0
 34
0.0
 15
0.0
 25
0.0
 35
0.0
146
0.0
 13
0.0
 23
0.0
 33
0.0
 16
1.0
 26
0.0
 36
0.0
 17
0.0
 27
1.0
 37
0.0
 76
0
330
21A
345
0
346
0
  0
ENDSEC
  0
EOF
