999
DXF file: E:\BT Custom\CADOUTPUT\_RIGHT.dxf
999
Pro/ENGINEER 2018400 by Parametric Technology Corporation
  0
SECTION
  2
HEADER
  9
$ACADVER
  1
AC1018
  9
$DWGCODEPAGE
  3
ANSI_1252
  9
$EXTMAX
 10
22.0
 20
17.0
 30
0.0
  9
$EXTMIN
 10
0.0
 20
0.0
 30
0.0
  9
$LIMMIN
 10
0.0
 20
0.0
  9
$LIMMAX
 10
22.0
 20
17.0
  9
$VIEWCTR
 10
11.0
 20
8.5
  9
$VIEWSIZE
 40
17.0
  9
$CLAYER
  8
0
  9
$LTSCALE
 40
1.21
  9
$CELTYPE
  6
BYLAYER
  9
$DIMSCALE
 40
1.0
  9
$DIMASZ
 40
0.1
  9
$DIMEXO
 40
0.0625
  9
$DIMDLI
 40
0.836
  9
$DIMEXE
 40
0.125
  9
$DIMCEN
 40
0.198
  9
$DIMLFAC
 40
1.0
  9
$DIMBLK
  1
_FILLED
  9
$DIMALT
 70
1
  9
$DIMALTD
 70
2
  9
$DIMALTTD
 70
2
  9
$DIMALTF
 40
25.4
  9
$DIMTXT
 40
0.08
  9
$DIMTOL
 70
1
  9
$DIMLIM
 70
0
  9
$DIMTFAC
 40
1.0
  9
$DIMTP
 40
0.001
  9
$DIMTM
 40
0.001
  9
$DIMGAP
 40
0.09
  9
$DIMDSEP
 70
46
  9
$AUNITS
 70
0
  9
$PDMODE
 70
3
  9
$PDSIZE
 40
0.06
  9
$HANDSEED
  5
2E5
  9
$TILEMODE
 70
1
  9
$MEASUREMENT
 70
0
  9
$INSUNITS
 70
1
  0
ENDSEC
  0
SECTION
  2
CLASSES
  0
CLASS
  1
ACDBDICTIONARYWDFLT
  2
AcDbDictionaryWithDefault
  3
AutoCAD 2000
 90
0
 91
1
280
0
281
0
  0
CLASS
  1
ACDBPLACEHOLDER
  2
AcDbPlaceHolder
  3
AutoCAD 2000
 90
0
 91
1
280
0
281
0
  0
CLASS
  1
LAYOUT
  2
AcDbLayout
  3
AutoCAD 2000
 90
0
 91
0
280
0
281
0
  0
ENDSEC
  0
SECTION
  2
TABLES
  0
TABLE
  2
VPORT
  5
8
100
AcDbSymbolTable
 70
2
  0
VPORT
  5
1F4
100
AcDbSymbolTableRecord
100
AcDbViewportTableRecord
  2
*ACTIVE
 70
0
 10
0.0
 20
0.0
 11
1.0
 21
1.0
 12
11.0
 22
8.5
 13
0.0
 23
0.0
 14
1.0
 24
1.0
 15
0.0
 25
0.0
 16
0.0
 26
0.0
 36
1.0
 17
0.0
 27
0.0
 37
0.0
 40
17.0
 41
1.2941176471
 42
50.0
 43
0.0
 44
0.0
 50
0.0
 51
0.0
 71
0
 72
100
 73
1
 74
1
 75
0
 76
0
 77
0
 78
0
  0
ENDTAB
  0
TABLE
  2
LTYPE
  5
5
100
AcDbSymbolTable
 70
6
  0
LTYPE
  5
14
100
AcDbSymbolTableRecord
100
AcDbLinetypeTableRecord
  2
BYBLOCK
 70
0
  3

 72
65
 73
0
 40
0.0
  0
LTYPE
  5
15
100
AcDbSymbolTableRecord
100
AcDbLinetypeTableRecord
  2
BYLAYER
 70
0
  3

 72
65
 73
0
 40
0.0
  0
LTYPE
  5
16
100
AcDbSymbolTableRecord
100
AcDbLinetypeTableRecord
  2
CONTINUOUS
 70
64
  3
Solid line
 72
65
 73
0
 40
0.0
  0
LTYPE
  5
1F5
100
AcDbSymbolTableRecord
100
AcDbLinetypeTableRecord
  2
CENTER
 70
64
  3
____ _ ____ _ ____ _ ____ _ ____ _ ____ _ ____
 72
65
 73
4
 40
0.6
 49
0.375
 74
0
 49
-0.075
 74
0
 49
0.075
 74
0
 49
-0.075
 74
0
  0
LTYPE
  5
1F6
100
AcDbSymbolTableRecord
100
AcDbLinetypeTableRecord
  2
HIDDEN
 70
64
  3
- - - - - - - - - - - - - - - - - - - -
 72
65
 73
2
 40
0.2
 49
0.1
 74
0
 49
-0.1
 74
0
  0
LTYPE
  5
1F7
100
AcDbSymbolTableRecord
100
AcDbLinetypeTableRecord
  2
PHANTOM
 70
64
  3
_____ _ _ _____ _ _ _____ _ _ _____
 72
65
 73
6
 40
0.8
 49
0.45
 74
0
 49
-0.05
 74
0
 49
0.1
 74
0
 49
-0.05
 74
0
 49
0.1
 74
0
 49
-0.05
 74
0
  0
LTYPE
  5
1F8
100
AcDbSymbolTableRecord
100
AcDbLinetypeTableRecord
  2
DOT
 70
64
  3
. . . . . . . . . . . . . . . . . . . .
 72
65
 73
2
 40
0.2
 49
0.1
 74
0
 49
-0.1
 74
0
  0
LTYPE
  5
1F9
100
AcDbSymbolTableRecord
100
AcDbLinetypeTableRecord
  2
DASHED
 70
64
  3
- - - - - - - - - - - - - - - - - - - -
 72
65
 73
2
 40
0.2
 49
0.1
 74
0
 49
-0.1
 74
0
  0
ENDTAB
  0
TABLE
  2
LAYER
  5
2
100
AcDbSymbolTable
 70
36
  0
LAYER
  5
10
100
AcDbSymbolTableRecord
100
AcDbLayerTableRecord
  2
0
 70
0
 62
7
  6
CONTINUOUS
370
-3
390
F
  0
LAYER
  5
1FA
100
AcDbSymbolTableRecord
100
AcDbLayerTableRecord
  2
DEFAULT_1
 70
0
 62
7
  6
CENTER
370
-3
390
F
  0
LAYER
  5
1FB
100
AcDbSymbolTableRecord
100
AcDbLayerTableRecord
  2
DEFAULT_2
 70
0
 62
8
  6
HIDDEN
370
-3
390
F
  0
LAYER
  5
1FC
100
AcDbSymbolTableRecord
100
AcDbLayerTableRecord
  2
DEFAULT_3
 70
0
 62
7
  6
PHANTOM
370
-3
390
F
  0
LAYER
  5
1FD
100
AcDbSymbolTableRecord
100
AcDbLayerTableRecord
  2
ALL_FEATURES
 70
0
 62
7
  6
CONTINUOUS
370
-3
390
F
  0
LAYER
  5
1FE
100
AcDbSymbolTableRecord
100
AcDbLayerTableRecord
  2
AXES_FEATURES
 70
0
 62
7
  6
CONTINUOUS
370
-3
390
F
  0
LAYER
  5
1FF
100
AcDbSymbolTableRecord
100
AcDbLayerTableRecord
  2
DIMENSIONS
 70
0
 62
7
  6
CONTINUOUS
370
-3
390
F
  0
ENDTAB
  0
TABLE
  2
STYLE
  5
3
100
AcDbSymbolTable
 70
1
  0
STYLE
  5
11
100
AcDbSymbolTableRecord
100
AcDbTextStyleTableRecord
  2
STANDARD
 70
0
 40
0.0
 41
0.8
 50
0.0
 71
0
 42
0.2
  3
txt
  4

  0
STYLE
  5
200
100
AcDbSymbolTableRecord
100
AcDbTextStyleTableRecord
  2
TEXTSTYLE_1
 70
0
 40
0.0
 41
0.8
 50
0.0
 71
0
 42
0.2
  3
gdt
  4

  0
ENDTAB
  0
TABLE
  2
VIEW
  5
6
100
AcDbSymbolTable
 70
0
  0
ENDTAB
  0
TABLE
  2
UCS
  5
7
100
AcDbSymbolTable
 70
0
  0
ENDTAB
  0
TABLE
  2
APPID
  5
9
100
AcDbSymbolTable
 70
1
  0
APPID
  5
201
100
AcDbSymbolTableRecord
100
AcDbRegAppTableRecord
  2
ACAD
 70
0
  0
ENDTAB
  0
TABLE
  2
BLOCK_RECORD
  5
1
100
AcDbSymbolTable
 70
0
  0
BLOCK_RECORD
  5
202
100
AcDbSymbolTableRecord
100
AcDbBlockTableRecord
  2
*Model_Space
  0
BLOCK_RECORD
  5
203
100
AcDbSymbolTableRecord
100
AcDbBlockTableRecord
  2
*Paper_Space
  0
BLOCK_RECORD
  5
204
100
AcDbSymbolTableRecord
100
AcDbBlockTableRecord
  2
_FILLED
  0
ENDTAB
  0
TABLE
  2
DIMSTYLE
  5
A
100
AcDbSymbolTable
 70
1
100
AcDbDimStyleTable
 71
0
  0
DIMSTYLE
105
205
100
AcDbSymbolTableRecord
100
AcDbDimStyleTableRecord
  2
STANDARD
 70
0
  3

  4

 40
1.0
 41
0.1
 42
0.0625
 43
0.38
 44
0.125
 45
0.0
 46
0.0
 47
0.001
 48
0.001
140
0.08
141
0.09
142
0.0
143
25.4
144
1.0
145
0.0
146
1.0
147
0.09
 71
1.0
 72
0.0
 73
1
 74
1
 75
0
 76
0
 77
0
 78
4
 79
1
170
1
171
2
172
0
173
0
174
0
175
0
176
0
177
0
178
0
270
2
179
3
271
3
272
3
273
2
274
2
275
0
280
0
281
0
282
0
283
1
284
4
285
0
286
0
287
3
288
0
340
11
278
46
341
204
342
204
343
204
344
204
  0
ENDTAB
  0
ENDSEC
  0
SECTION
  2
BLOCKS
  0
BLOCK
  5
20
100
AcDbEntity
  8
0
100
AcDbBlockBegin
  2
*Model_Space
 70
0
 10
0.0
 20
0.0
 30
0.0
  3
*Model_Space
  1

  0
ENDBLK
  5
21
100
AcDbEntity
  8
0
100
AcDbBlockEnd
  0
BLOCK
  5
1C
100
AcDbEntity
  8
0
100
AcDbBlockBegin
  2
*Paper_Space
 70
0
 10
0.0
 20
0.0
 30
0.0
  3
*Paper_Space
  1

  0
ENDBLK
  5
1D
100
AcDbEntity
  8
0
100
AcDbBlockEnd
  0
BLOCK
  5
206
100
AcDbEntity
  8
0
100
AcDbBlockBegin
  2
_FILLED
 70
64
 10
0.0
 20
0.0
  3
_FILLED
  1

  0
SOLID
  5
207
100
AcDbEntity
  8
0
  6
BYBLOCK
 62
0
100
AcDbTrace
 10
0.0
 20
0.0
 11
-1.0
 21
0.2
 12
-1.0
 22
-0.2
 13
-1.0
 23
-0.2
  0
ENDBLK
  5
208
100
AcDbEntity
  8
0
  6
BYBLOCK
 62
0
100
AcDbBlockEnd
  0
ENDSEC
  0
SECTION
  2
ENTITIES
  0
LINE
  5
209
100
AcDbEntity
  8
0
100
AcDbLine
 62
7
  6
CONTINUOUS
 10
4.2724531955
 20
9.0662150878
 11
4.2483634158
 21
9.431003181
  0
LINE
  5
20A
100
AcDbEntity
  8
0
100
AcDbLine
 62
7
  6
CONTINUOUS
 10
4.3020746433
 20
9.6862331637
 11
4.3020746433
 21
9.9411162575
  0
LINE
  5
20B
100
AcDbEntity
  8
0
100
AcDbLine
 62
7
  6
CONTINUOUS
 10
5.3020746433
 20
9.6862331637
 11
5.3020746433
 21
9.9411162575
  0
LINE
  5
20C
100
AcDbEntity
  8
0
100
AcDbLine
 62
7
  6
CONTINUOUS
 10
5.3316960911
 20
9.0662150878
 11
5.3557858709
 21
9.431003181
  0
LINE
  5
20D
100
AcDbEntity
  8
0
100
AcDbLine
 62
9
  6
CONTINUOUS
 10
7.7779068145
 20
12.3749201453
 11
7.4358866712
 21
11.4352275245
  0
LINE
  5
20E
100
AcDbEntity
  8
0
100
AcDbLine
 62
7
  6
CONTINUOUS
 10
14.3168169517
 20
5.4897630499
 11
17.1978780553
 21
5.4897630499
  0
LINE
  5
20F
100
AcDbEntity
  8
0
100
AcDbLine
 62
9
  6
CONTINUOUS
 10
16.8605774785
 20
5.5423118322
 11
14.6541318081
 21
5.5423118322
  0
LINE
  5
210
100
AcDbEntity
  8
0
100
AcDbLine
 62
9
  6
CONTINUOUS
 10
17.2305944598
 20
5.5527971775
 11
16.8489799112
 21
5.5527971775
  0
LINE
  5
211
100
AcDbEntity
  8
0
100
AcDbLine
 62
9
  6
CONTINUOUS
 10
14.6657293754
 20
5.5527971775
 11
14.2841148268
 21
5.5527971775
  0
LINE
  5
212
100
AcDbEntity
  8
0
100
AcDbLine
 62
9
  6
CONTINUOUS
 10
14.8226433055
 20
5.703970395
 11
16.6920776734
 21
5.703970395
  0
LINE
  5
213
100
AcDbEntity
  8
0
100
AcDbLine
 62
9
  6
CONTINUOUS
 10
14.3589873385
 20
5.7229168389
 11
14.8336853007
 21
5.7229168389
  0
LINE
  5
214
100
AcDbEntity
  8
0
100
AcDbLine
 62
9
  6
CONTINUOUS
 10
16.681023986
 20
5.7229168389
 11
17.1557219481
 21
5.7229168389
  0
LINE
  5
215
100
AcDbEntity
  8
0
100
AcDbLine
 62
9
  6
CONTINUOUS
 10
14.8318424677
 20
5.7435780277
 11
16.6828668189
 21
5.7435780277
  0
LINE
  5
216
100
AcDbEntity
  8
0
100
AcDbLine
 62
9
  6
CONTINUOUS
 10
14.3548769311
 20
5.7509028149
 11
14.8318424677
 21
5.7509028149
  0
LINE
  5
217
100
AcDbEntity
  8
0
100
AcDbLine
 62
9
  6
CONTINUOUS
 10
16.6828668189
 20
5.7509028149
 11
17.1598323555
 21
5.7509028149
  0
LINE
  5
218
100
AcDbEntity
  8
0
100
AcDbLine
 62
9
  6
CONTINUOUS
 10
17.1676741085
 20
5.771003695
 11
16.6853546433
 21
5.771003695
  0
LINE
  5
219
100
AcDbEntity
  8
0
100
AcDbLine
 62
9
  6
CONTINUOUS
 10
14.8293546433
 20
5.771003695
 11
14.3470351781
 21
5.771003695
  0
LINE
  5
21A
100
AcDbEntity
  8
0
100
AcDbLine
 62
9
  6
CONTINUOUS
 10
14.8413887614
 20
5.7937630499
 11
16.6733205252
 21
5.7937630499
  0
LINE
  5
21B
100
AcDbEntity
  8
0
100
AcDbLine
 62
9
  6
CONTINUOUS
 10
14.3519497718
 20
5.7957016495
 11
14.8429586084
 21
5.7957016495
  0
LINE
  5
21C
100
AcDbEntity
  8
0
100
AcDbLine
 62
9
  6
CONTINUOUS
 10
16.6717506782
 20
5.7957016495
 11
17.162743851
 21
5.7957016495
  0
LINE
  5
21D
100
AcDbEntity
  8
0
100
AcDbLine
 62
9
  6
CONTINUOUS
 10
16.5734496162
 20
5.9170933515
 11
14.9412596704
 21
5.9170933515
  0
LINE
  5
21E
100
AcDbEntity
  8
0
100
AcDbLine
 62
7
  6
CONTINUOUS
 10
17.0638375501
 20
5.9315068315
 11
16.556740759
 21
5.9315068315
  0
LINE
  5
21F
100
AcDbEntity
  8
0
100
AcDbLine
 62
7
  6
CONTINUOUS
 10
14.9579685276
 20
5.9315068315
 11
14.4508717365
 21
5.9315068315
  0
LINE
  5
220
100
AcDbEntity
  8
0
100
AcDbLine
 62
7
  6
CONTINUOUS
 10
17.0404342292
 20
5.9362593467
 11
16.5484958457
 21
5.9362593467
  0
LINE
  5
221
100
AcDbEntity
  8
0
100
AcDbLine
 62
7
  6
CONTINUOUS
 10
14.9662134409
 20
5.9362593467
 11
14.4742750574
 21
5.9362593467
  0
LINE
  5
222
100
AcDbEntity
  8
0
100
AcDbLine
 62
7
  6
CONTINUOUS
 10
16.5190493989
 20
5.9430409241
 11
14.9956598877
 21
5.9430409241
  0
LINE
  5
223
100
AcDbEntity
  8
0
100
AcDbLine
 62
7
  6
CONTINUOUS
 10
15.2523546433
 20
6.1597630499
 11
16.2623546433
 21
6.1597630499
  0
LINE
  5
224
100
AcDbEntity
  8
0
100
AcDbLine
 62
9
  6
CONTINUOUS
 10
15.2815765492
 20
6.2500681183
 11
16.2331327374
 21
6.2500681183
  0
LINE
  5
225
100
AcDbEntity
  8
0
100
AcDbLine
 62
9
  6
CONTINUOUS
 10
15.3261441182
 20
6.2985938692
 11
16.1885651685
 21
6.2985938692
  0
LINE
  5
226
100
AcDbEntity
  8
0
100
AcDbLine
 62
9
  6
CONTINUOUS
 10
14.9346609847
 20
6.3720997899
 11
15.3361078231
 21
6.3720997899
  0
LINE
  5
227
100
AcDbEntity
  8
0
100
AcDbLine
 62
9
  6
CONTINUOUS
 10
16.1786014635
 20
6.3720997899
 11
16.580048302
 21
6.3720997899
  0
LINE
  5
228
100
AcDbEntity
  8
0
100
AcDbLine
 62
9
  6
CONTINUOUS
 10
14.9332393601
 20
6.4198783507
 11
15.3425841923
 21
6.4198783507
  0
LINE
  5
229
100
AcDbEntity
  8
0
100
AcDbLine
 62
9
  6
CONTINUOUS
 10
16.1721250943
 20
6.4198783507
 11
16.5814699265
 21
6.4198783507
  0
LINE
  5
22A
100
AcDbEntity
  8
0
100
AcDbLine
 62
9
  6
CONTINUOUS
 10
14.9557023579
 20
6.5546144509
 11
15.3598700588
 21
6.5546144509
  0
LINE
  5
22B
100
AcDbEntity
  8
0
100
AcDbLine
 62
9
  6
CONTINUOUS
 10
16.1548392278
 20
6.5546144509
 11
16.5590069287
 21
6.5546144509
  0
LINE
  5
22C
100
AcDbEntity
  8
0
100
AcDbLine
 62
9
  6
CONTINUOUS
 10
16.5375547089
 20
6.5835937286
 11
16.1524915103
 21
6.5835937286
  0
LINE
  5
22D
100
AcDbEntity
  8
0
100
AcDbLine
 62
9
  6
CONTINUOUS
 10
15.3622177763
 20
6.5835937286
 11
14.9771545777
 21
6.5835937286
  0
LINE
  5
22E
100
AcDbEntity
  8
0
100
AcDbLine
 62
9
  6
CONTINUOUS
 10
14.9771542972
 20
7.168437205
 11
15.3816930534
 21
7.168437205
  0
LINE
  5
22F
100
AcDbEntity
  8
0
100
AcDbLine
 62
9
  6
CONTINUOUS
 10
16.1330162332
 20
7.168437205
 11
16.5375549894
 21
7.168437205
  0
LINE
  5
230
100
AcDbEntity
  8
0
100
AcDbLine
 62
9
  6
CONTINUOUS
 10
16.5590071283
 20
7.197416741
 11
16.1344967951
 21
7.197416741
  0
LINE
  5
231
100
AcDbEntity
  8
0
100
AcDbLine
 62
9
  6
CONTINUOUS
 10
15.3802124915
 20
7.197416741
 11
14.9557021583
 21
7.197416741
  0
LINE
  5
232
100
AcDbEntity
  8
0
100
AcDbLine
 62
9
  6
CONTINUOUS
 10
14.9586161771
 20
7.3439207823
 11
15.3718964282
 21
7.3439207823
  0
LINE
  5
233
100
AcDbEntity
  8
0
100
AcDbLine
 62
9
  6
CONTINUOUS
 10
16.1428128584
 20
7.3439207823
 11
16.5560931096
 21
7.3439207823
  0
LINE
  5
234
100
AcDbEntity
  8
0
100
AcDbLine
 62
9
  6
CONTINUOUS
 10
16.5338528414
 20
7.3683420497
 11
16.1448955464
 21
7.3683420497
  0
LINE
  5
235
100
AcDbEntity
  8
0
100
AcDbLine
 62
9
  6
CONTINUOUS
 10
15.3698137402
 20
7.3683420497
 11
14.9808564452
 21
7.3683420497
  0
LINE
  5
236
100
AcDbEntity
  8
0
100
AcDbLine
 62
9
  6
CONTINUOUS
 10
16.1536330416
 20
7.4707965289
 11
15.361076245
 21
7.4707965289
  0
LINE
  5
237
100
AcDbEntity
  8
0
100
AcDbLine
 62
9
  6
CONTINUOUS
 10
16.1803376395
 20
7.5148027738
 11
15.3343716472
 21
7.5148027738
  0
LINE
  5
238
100
AcDbEntity
  8
0
100
AcDbLine
 62
9
  6
CONTINUOUS
 10
15.3073546433
 20
7.5649238468
 11
16.2073546433
 21
7.5649238468
  0
LINE
  5
239
100
AcDbEntity
  8
0
100
AcDbLine
 62
9
  6
CONTINUOUS
 10
16.2073546433
 20
7.5697630499
 11
15.3073546433
 21
7.5697630499
  0
LINE
  5
23A
100
AcDbEntity
  8
0
100
AcDbLine
 62
7
  6
CONTINUOUS
 10
16.1473546433
 20
7.6297630499
 11
15.3673546433
 21
7.6297630499
  0
LINE
  5
23B
100
AcDbEntity
  8
0
100
AcDbLine
 62
7
  6
CONTINUOUS
 10
16.0818546433
 20
7.7097630499
 11
15.4328546433
 21
7.7097630499
  0
LINE
  5
23C
100
AcDbEntity
  8
0
100
AcDbLine
 62
9
  6
CONTINUOUS
 10
15.5315481917
 20
8.763114042
 11
15.5481401281
 21
8.763114042
  0
LINE
  5
23D
100
AcDbEntity
  8
0
100
AcDbLine
 62
9
  6
CONTINUOUS
 10
15.9665691585
 20
8.763114042
 11
15.9831610949
 21
8.763114042
  0
LINE
  5
23E
100
AcDbEntity
  8
0
100
AcDbLine
 62
7
  6
CONTINUOUS
 10
4.3021065357
 20
8.8362331637
 11
5.3020427509
 21
8.8362331637
  0
LINE
  5
23F
100
AcDbEntity
  8
0
100
AcDbLine
 62
9
  6
CONTINUOUS
 10
4.253672932
 20
8.8891870843
 11
5.3504763547
 21
8.8891870843
  0
LINE
  5
240
100
AcDbEntity
  8
0
100
AcDbLine
 62
9
  6
CONTINUOUS
 10
4.2500632583
 20
8.9602521809
 11
5.3540860283
 21
8.9602521809
  0
LINE
  5
241
100
AcDbEntity
  8
0
100
AcDbLine
 62
9
  6
CONTINUOUS
 10
4.2724531955
 20
9.0662150878
 11
5.3316960911
 21
9.0662150878
  0
LINE
  5
242
100
AcDbEntity
  8
0
100
AcDbLine
 62
9
  6
CONTINUOUS
 10
11.3625127452
 20
10.0060525125
 11
11.7045328885
 21
10.9457451333
  0
LINE
  5
243
100
AcDbEntity
  8
0
100
AcDbLine
 62
9
  6
CONTINUOUS
 10
5.3557858709
 20
9.431003181
 11
4.2483634158
 21
9.431003181
  0
LINE
  5
244
100
AcDbEntity
  8
0
100
AcDbLine
 62
9
  6
CONTINUOUS
 10
14.9808765414
 20
9.4720640615
 11
16.5338327453
 21
9.4720640615
  0
LINE
  5
245
100
AcDbEntity
  8
0
100
AcDbLine
 62
9
  6
CONTINUOUS
 10
16.5563475304
 20
9.4965543245
 11
14.9583617562
 21
9.4965543245
  0
LINE
  5
246
100
AcDbEntity
  8
0
100
AcDbLine
 62
9
  6
CONTINUOUS
 10
4.1993829142
 20
9.5494458096
 11
5.4047663724
 21
9.5494458096
  0
LINE
  5
247
100
AcDbEntity
  8
0
100
AcDbLine
 62
9
  6
CONTINUOUS
 10
4.1821329562
 20
9.5929938868
 11
5.4220163304
 21
9.5929938868
  0
LINE
  5
248
100
AcDbEntity
  8
0
100
AcDbLine
 62
9
  6
CONTINUOUS
 10
14.9417830943
 20
9.6459236424
 11
16.5728380674
 21
9.6459236424
  0
LINE
  5
249
100
AcDbEntity
  8
0
100
AcDbLine
 62
7
  6
CONTINUOUS
 10
14.7944366796
 20
9.6706131637
 11
14.8173546433
 21
9.6706131637
  0
LINE
  5
24A
100
AcDbEntity
  8
0
100
AcDbLine
 62
7
  6
CONTINUOUS
 10
5.3320396838
 20
9.6862331637
 11
4.2721096028
 21
9.6862331637
  0
LINE
  5
24B
100
AcDbEntity
  8
0
100
AcDbLine
 62
9
  6
CONTINUOUS
 10
16.5634514622
 20
9.6922760962
 11
14.9512578244
 21
9.6922760962
  0
LINE
  5
24C
100
AcDbEntity
  8
0
100
AcDbLine
 62
7
  6
CONTINUOUS
 10
12.3147146433
 20
9.7206131637
 11
12.320552659
 21
9.7206131637
  0
LINE
  5
24D
100
AcDbEntity
  8
0
100
AcDbLine
 62
7
  6
CONTINUOUS
 10
12.0739146433
 20
9.8806131637
 11
12.2347146433
 21
9.8806131637
  0
LINE
  5
24E
100
AcDbEntity
  8
0
100
AcDbLine
 62
9
  6
CONTINUOUS
 10
5.3020746433
 20
9.9411162575
 11
4.3020746433
 21
9.9411162575
  0
LINE
  5
24F
100
AcDbEntity
  8
0
100
AcDbLine
 62
9
  6
CONTINUOUS
 10
12.0739146433
 20
10.8806131637
 11
12.0739146433
 21
9.8806131637
  0
LINE
  5
250
100
AcDbEntity
  8
0
100
AcDbLine
 62
7
  6
CONTINUOUS
 10
12.2347146433
 20
10.9606131637
 11
12.2347146433
 21
9.8006131637
  0
LINE
  5
251
100
AcDbEntity
  8
0
100
AcDbLine
 62
7
  6
CONTINUOUS
 10
7.4358866712
 20
11.4352275245
 11
11.3625127452
 21
10.0060525125
  0
LINE
  5
252
100
AcDbEntity
  8
0
100
AcDbLine
 62
9
  6
CONTINUOUS
 10
12.3147146433
 20
11.0406131637
 11
12.3147146433
 21
9.7206131637
  0
LINE
  5
253
100
AcDbEntity
  8
0
100
AcDbLine
 62
9
  6
CONTINUOUS
 10
12.320552659
 20
9.7206131637
 11
12.320552659
 21
11.0406131637
  0
LINE
  5
254
100
AcDbEntity
  8
0
100
AcDbLine
 62
9
  6
CONTINUOUS
 10
12.3851052687
 20
11.007867376
 11
12.3851052687
 21
9.7533589514
  0
LINE
  5
255
100
AcDbEntity
  8
0
100
AcDbLine
 62
9
  6
CONTINUOUS
 10
12.4197988594
 20
10.9877217129
 11
12.4197988594
 21
9.7735046145
  0
LINE
  5
256
100
AcDbEntity
  8
0
100
AcDbLine
 62
7
  6
CONTINUOUS
 10
12.0739146433
 20
10.8806131637
 11
12.2347146433
 21
10.8806131637
  0
LINE
  5
257
100
AcDbEntity
  8
0
100
AcDbLine
 62
7
  6
CONTINUOUS
 10
12.3147146433
 20
11.0406131637
 11
12.320552659
 21
11.0406131637
  0
LINE
  5
258
100
AcDbEntity
  8
0
100
AcDbLine
 62
7
  6
CONTINUOUS
 10
14.7944366795
 20
11.0906131637
 11
14.8173546433
 21
11.0906131637
  0
LINE
  5
259
100
AcDbEntity
  8
0
100
AcDbLine
 62
7
  6
CONTINUOUS
 10
15.3623546433
 20
11.3642670663
 11
16.1523546433
 21
11.3642670663
  0
LINE
  5
25A
100
AcDbEntity
  8
0
100
AcDbLine
 62
9
  6
CONTINUOUS
 10
16.1523546433
 20
11.4192670663
 11
15.3623546433
 21
11.4192670663
  0
LINE
  5
25B
100
AcDbEntity
  8
0
100
AcDbLine
 62
7
  6
CONTINUOUS
 10
16.0823546433
 20
11.4892670663
 11
15.4323546433
 21
11.4892670663
  0
LINE
  5
25C
100
AcDbEntity
  8
0
100
AcDbLine
 62
7
  6
CONTINUOUS
 10
7.7779068145
 20
12.3749201453
 11
11.7045328885
 21
10.9457451333
  0
LINE
  5
25D
100
AcDbEntity
  8
0
100
AcDbLine
 62
7
  6
CONTINUOUS
 10
15.2323546433
 20
11.7242670663
 11
16.2823485882
 21
11.7242670663
  0
LINE
  5
25E
100
AcDbEntity
  8
0
100
AcDbLine
 62
9
  6
CONTINUOUS
 10
15.2123546433
 20
11.7442670663
 11
16.3023546433
 21
11.7442670663
  0
LINE
  5
25F
100
AcDbEntity
  8
0
100
AcDbLine
 62
9
  6
CONTINUOUS
 10
16.3023546433
 20
11.8342670663
 11
15.2123546433
 21
11.8342670663
  0
LINE
  5
260
100
AcDbEntity
  8
0
100
AcDbLine
 62
7
  6
CONTINUOUS
 10
16.2823546433
 20
11.8542670663
 11
15.2323546433
 21
11.8542670663
  0
LINE
  5
261
100
AcDbEntity
  8
0
100
AcDbLine
 62
7
  6
CONTINUOUS
 10
16.5734496162
 20
5.9170933515
 11
16.6733205252
 21
5.7937630499
  0
LINE
  5
262
100
AcDbEntity
  8
0
100
AcDbLine
 62
7
  6
CONTINUOUS
 10
17.0638375501
 20
5.9315068315
 11
17.1627595148
 21
5.7957016495
  0
LINE
  5
263
100
AcDbEntity
  8
0
100
AcDbLine
 62
9
  6
CONTINUOUS
 10
14.7015217238
 20
9.7247177676
 11
14.7015217238
 21
11.0365085598
  0
LINE
  5
264
100
AcDbEntity
  8
0
100
AcDbLine
 62
9
  6
CONTINUOUS
 10
14.7357037252
 20
9.7025285202
 11
14.7357037252
 21
11.0586978073
  0
LINE
  5
265
100
AcDbEntity
  8
0
100
AcDbLine
 62
9
  6
CONTINUOUS
 10
14.7944366795
 20
11.0906131637
 11
14.7944366795
 21
9.6706131637
  0
LINE
  5
266
100
AcDbEntity
  8
0
100
AcDbLine
 62
9
  6
CONTINUOUS
 10
14.8173546433
 20
9.6706131637
 11
14.8173546433
 21
11.0905921379
  0
LINE
  5
267
100
AcDbEntity
  8
0
100
AcDbLine
 62
7
  6
CONTINUOUS
 10
14.8873546433
 20
9.7406131637
 11
14.8873546433
 21
11.0206131637
  0
LINE
  5
268
100
AcDbEntity
  8
0
100
AcDbLine
 62
7
  6
CONTINUOUS
 10
14.9771542972
 20
7.168437205
 11
14.9771545768
 21
6.5835938484
  0
LINE
  5
269
100
AcDbEntity
  8
0
100
AcDbLine
 62
7
  6
CONTINUOUS
 10
15.2123546433
 20
11.8342670663
 11
15.2123546433
 21
11.7442670663
  0
LINE
  5
26A
100
AcDbEntity
  8
0
100
AcDbLine
 62
7
  6
CONTINUOUS
 10
15.3073546433
 20
7.5697630499
 11
15.3073546433
 21
7.5649238469
  0
LINE
  5
26B
100
AcDbEntity
  8
0
100
AcDbLine
 62
7
  6
CONTINUOUS
 10
15.3623546433
 20
11.4192670663
 11
15.3623546433
 21
11.3642670663
  0
LINE
  5
26C
100
AcDbEntity
  8
0
100
AcDbLine
 62
7
  6
CONTINUOUS
 10
15.4328546433
 20
7.7097630499
 11
15.4328546433
 21
7.6297630499
  0
LINE
  5
26D
100
AcDbEntity
  8
0
100
AcDbLine
 62
7
  6
CONTINUOUS
 10
15.4988546433
 20
7.9037550049
 11
15.4988546433
 21
7.7097630499
  0
LINE
  5
26E
100
AcDbEntity
  8
0
100
AcDbLine
 62
7
  6
CONTINUOUS
 10
14.4508717365
 20
5.9315068315
 11
14.3519497718
 21
5.7957016495
  0
LINE
  5
26F
100
AcDbEntity
  8
0
100
AcDbLine
 62
7
  6
CONTINUOUS
 10
16.0158546433
 20
7.9037550049
 11
16.0158546433
 21
7.7097630499
  0
LINE
  5
270
100
AcDbEntity
  8
0
100
AcDbLine
 62
7
  6
CONTINUOUS
 10
16.0818546433
 20
7.7097630499
 11
16.0818546433
 21
7.6297630499
  0
LINE
  5
271
100
AcDbEntity
  8
0
100
AcDbLine
 62
7
  6
CONTINUOUS
 10
16.1523546433
 20
11.4192670663
 11
16.1523546433
 21
11.3642670663
  0
LINE
  5
272
100
AcDbEntity
  8
0
100
AcDbLine
 62
7
  6
CONTINUOUS
 10
16.2073546433
 20
7.5697630499
 11
16.2073546433
 21
7.5649238468
  0
LINE
  5
273
100
AcDbEntity
  8
0
100
AcDbLine
 62
7
  6
CONTINUOUS
 10
14.9412596704
 20
5.9170933515
 11
14.8413887614
 21
5.7937630499
  0
LINE
  5
274
100
AcDbEntity
  8
0
100
AcDbLine
 62
7
  6
CONTINUOUS
 10
16.3023546433
 20
11.8342670663
 11
16.3023546433
 21
11.7442670663
  0
LINE
  5
275
100
AcDbEntity
  8
0
100
AcDbLine
 62
7
  6
CONTINUOUS
 10
16.5375549894
 20
7.168437205
 11
16.5375547098
 21
6.5835938484
  0
ARC
  5
276
100
AcDbEntity
  8
0
100
AcDbCircle
 62
7
  6
CONTINUOUS
 10
13.3806032152
 20
1.3279818367
 40
8.5
100
AcDbArc
 50
81.0598780344
 51
96.4903463108
  0
ARC
  5
277
100
AcDbEntity
  8
0
100
AcDbCircle
 62
7
  6
CONTINUOUS
 10
8.3213438949
 20
8.4202666719
 40
6.7420807484
100
AcDbArc
 50
351.023825638
 51
8.9750797049
  0
ARC
  5
278
100
AcDbEntity
  8
0
100
AcDbCircle
 62
7
  6
CONTINUOUS
 10
10.9252932182
 20
7.0163628824
 40
4.459
100
AcDbArc
 50
350.7367477834
 51
5.8493864313
  0
ARC
  5
279
100
AcDbEntity
  8
0
100
AcDbCircle
 62
7
  6
CONTINUOUS
 10
12.9194115601
 20
7.5190884157
 40
2.63
100
AcDbArc
 50
311.2685692708
 51
316.3573080802
  0
ARC
  5
27A
100
AcDbEntity
  8
0
100
AcDbCircle
 62
7
  6
CONTINUOUS
 10
6.8920746433
 20
9.9411162575
 40
2.59
100
AcDbArc
 50
70.0
 51
180.0
  0
ARC
  5
27B
100
AcDbEntity
  8
0
100
AcDbCircle
 62
7
  6
CONTINUOUS
 10
6.8920746433
 20
9.9411162575
 40
1.59
100
AcDbArc
 50
70.0
 51
180.0
  0
ARC
  5
27C
100
AcDbEntity
  8
0
100
AcDbCircle
 62
7
  6
CONTINUOUS
 10
4.4455642693
 20
9.0159850128
 40
0.23
100
AcDbArc
 50
213.4559242459
 51
231.4008546639
  0
ARC
  5
27D
100
AcDbEntity
  8
0
100
AcDbCircle
 62
7
  6
CONTINUOUS
 10
5.1585850174
 20
9.0159850128
 40
0.23
100
AcDbArc
 50
308.5991453361
 51
326.5440757541
  0
ARC
  5
27E
100
AcDbEntity
  8
0
100
AcDbCircle
 62
7
  6
CONTINUOUS
 10
4.0728878725
 20
9.0530362457
 40
0.2
100
AcDbArc
 50
332.3596303631
 51
3.7781977071
  0
ARC
  5
27F
100
AcDbEntity
  8
0
100
AcDbCircle
 62
7
  6
CONTINUOUS
 10
5.5312614141
 20
9.0530362457
 40
0.2
100
AcDbArc
 50
176.2218022929
 51
207.6403696369
  0
ARC
  5
280
100
AcDbEntity
  8
0
100
AcDbCircle
 62
7
  6
CONTINUOUS
 10
4.0487980928
 20
9.4178243389
 40
0.2
100
AcDbArc
 50
3.7781977072
 51
41.1556880677
  0
ARC
  5
281
100
AcDbEntity
  8
0
100
AcDbCircle
 62
7
  6
CONTINUOUS
 10
5.5553511938
 20
9.4178243389
 40
0.2
100
AcDbArc
 50
138.8443119323
 51
176.2218022928
  0
ARC
  5
282
100
AcDbEntity
  8
0
100
AcDbCircle
 62
7
  6
CONTINUOUS
 10
5.3320746433
 20
9.5962331637
 40
0.09
100
AcDbArc
 50
357.9373667583
 51
90.0
  0
ARC
  5
283
100
AcDbEntity
  8
0
100
AcDbCircle
 62
7
  6
CONTINUOUS
 10
4.2720746433
 20
9.5962331637
 40
0.09
100
AcDbArc
 50
90.0
 51
182.0626332417
  0
ARC
  5
284
100
AcDbEntity
  8
0
100
AcDbCircle
 62
7
  6
CONTINUOUS
 10
12.3147146433
 20
9.8006131637
 40
0.08
100
AcDbArc
 50
180.0
 51
270.0
  0
ARC
  5
285
100
AcDbEntity
  8
0
100
AcDbCircle
 62
7
  6
CONTINUOUS
 10
12.320552659
 20
9.8006131637
 40
0.08
100
AcDbArc
 50
270.0
 51
323.7948886756
  0
ARC
  5
286
100
AcDbEntity
  8
0
100
AcDbCircle
 62
7
  6
CONTINUOUS
 10
5.2920746433
 20
8.9277777582
 40
0.07
100
AcDbArc
 50
326.5440757542
 51
27.6403696367
  0
ARC
  5
287
100
AcDbEntity
  8
0
100
AcDbCircle
 62
7
  6
CONTINUOUS
 10
4.3120746433
 20
8.9277777582
 40
0.07
100
AcDbArc
 50
152.3596303633
 51
213.4559242458
  0
ARC
  5
288
100
AcDbEntity
  8
0
100
AcDbCircle
 62
7
  6
CONTINUOUS
 10
4.2520876017
 20
9.5955133244
 40
0.07
100
AcDbArc
 50
182.0626332433
 51
221.1556880677
  0
ARC
  5
289
100
AcDbEntity
  8
0
100
AcDbCircle
 62
7
  6
CONTINUOUS
 10
5.3520616849
 20
9.5955133244
 40
0.07
100
AcDbArc
 50
318.8443119323
 51
357.9373667567
  0
ARC
  5
28A
100
AcDbEntity
  8
0
100
AcDbCircle
 62
7
  6
CONTINUOUS
 10
12.4254506497
 20
9.7238250687
 40
0.05
100
AcDbArc
 50
96.4903463102
 51
143.7948886749
  0
ARC
  5
28B
100
AcDbEntity
  8
0
100
AcDbCircle
 62
7
  6
CONTINUOUS
 10
13.3806032152
 20
19.4332444907
 40
8.5
100
AcDbArc
 50
263.5096536893
 51
278.9401219653
  0
ARC
  5
28C
100
AcDbEntity
  8
0
100
AcDbCircle
 62
7
  6
CONTINUOUS
 10
12.0739146433
 20
11.9606131637
 40
2.08
100
AcDbArc
 50
250.0
 51
270.0
  0
ARC
  5
28D
100
AcDbEntity
  8
0
100
AcDbCircle
 62
7
  6
CONTINUOUS
 10
12.0739146433
 20
11.9606131637
 40
1.08
100
AcDbArc
 50
250.0
 51
270.0
  0
ARC
  5
28E
100
AcDbEntity
  8
0
100
AcDbCircle
 62
7
  6
CONTINUOUS
 10
12.3147146433
 20
10.9606131637
 40
0.08
100
AcDbArc
 50
90.0
 51
180.0
  0
ARC
  5
28F
100
AcDbEntity
  8
0
100
AcDbCircle
 62
7
  6
CONTINUOUS
 10
12.320552659
 20
10.9606131637
 40
0.08
100
AcDbArc
 50
36.205111325
 51
90.0
  0
ARC
  5
290
100
AcDbEntity
  8
0
100
AcDbCircle
 62
7
  6
CONTINUOUS
 10
12.4254506497
 20
11.0374012587
 40
0.05
100
AcDbArc
 50
216.205111324
 51
263.5096536898
  0
ARC
  5
291
100
AcDbEntity
  8
0
100
AcDbCircle
 62
7
  6
CONTINUOUS
 10
15.0418115489
 20
4.4651840362
 40
2.45
100
AcDbArc
 50
36.9138412317
 51
51.1081952499
  0
ARC
  5
292
100
AcDbEntity
  8
0
100
AcDbCircle
 62
7
  6
CONTINUOUS
 10
15.7263546433
 20
5.3596230622
 40
0.93
100
AcDbArc
 50
120.6423451974
 51
141.168495232
  0
ARC
  5
293
100
AcDbEntity
  8
0
100
AcDbCircle
 62
7
  6
CONTINUOUS
 10
14.6739194916
 20
5.5197630499
 40
0.03
100
AcDbArc
 50
131.2685692711
 51
270.0
  0
ARC
  5
294
100
AcDbEntity
  8
0
100
AcDbCircle
 62
7
  6
CONTINUOUS
 10
13.89986486
 20
5.823448176
 40
0.47
100
AcDbArc
 50
324.8405965889
 51
347.6492068003
  0
ARC
  5
295
100
AcDbEntity
  8
0
100
AcDbCircle
 62
7
  6
CONTINUOUS
 10
14.4248046233
 20
5.7897630499
 40
0.08
100
AcDbArc
 50
193.561676092
 51
209.0618146148
  0
ARC
  5
296
100
AcDbEntity
  8
0
100
AcDbCircle
 62
7
  6
CONTINUOUS
 10
14.9773546433
 20
6.4817640663
 40
0.076
100
AcDbArc
 50
106.5527810609
 51
234.5167977112
  0
ARC
  5
297
100
AcDbEntity
  8
0
100
AcDbCircle
 62
7
  6
CONTINUOUS
 10
14.9956598877
 20
5.8730409241
 40
0.07
100
AcDbArc
 50
90.0
 51
141.0
  0
ARC
  5
298
100
AcDbEntity
  8
0
100
AcDbCircle
 62
7
  6
CONTINUOUS
 10
15.2669265685
 20
6.3082521201
 40
0.06
100
AcDbArc
 50
284.1325726664
 51
350.7367477834
  0
ARC
  5
299
100
AcDbEntity
  8
0
100
AcDbCircle
 62
7
  6
CONTINUOUS
 10
14.4742750574
 20
5.8762593467
 40
0.06
100
AcDbArc
 50
90.0
 51
112.9579434024
  0
ARC
  5
29A
100
AcDbEntity
  8
0
100
AcDbCircle
 62
7
  6
CONTINUOUS
 10
15.2952498645
 20
6.1957630499
 40
0.056
100
AcDbArc
 50
104.1325726664
 51
220.0052008848
  0
ARC
  5
29B
100
AcDbEntity
  8
0
100
AcDbCircle
 62
7
  6
CONTINUOUS
 10
14.8833546433
 20
5.7597797488
 40
0.054
100
AcDbArc
 50
141.0
 51
197.4595175183
  0
ARC
  5
29C
100
AcDbEntity
  8
0
100
AcDbCircle
 62
7
  6
CONTINUOUS
 10
14.7936853007
 20
5.7315767527
 40
0.04
100
AcDbArc
 50
316.3573080803
 51
17.4595175184
  0
ARC
  5
29D
100
AcDbEntity
  8
0
100
AcDbCircle
 62
7
  6
CONTINUOUS
 10
14.319913085
 20
5.7314726974
 40
0.04
100
AcDbArc
 50
347.6492068002
 51
29.0618146148
  0
ARC
  5
29E
100
AcDbEntity
  8
0
100
AcDbCircle
 62
7
  6
CONTINUOUS
 10
14.3168169517
 20
5.5297630499
 40
0.04
100
AcDbArc
 50
144.8405965889
 51
270.0
  0
ARC
  5
29F
100
AcDbEntity
  8
0
100
AcDbCircle
 62
7
  6
CONTINUOUS
 10
14.9158254326
 20
6.3954497788
 40
0.03
100
AcDbArc
 50
308.8918047501
 51
54.5167977112
  0
ARC
  5
2A0
100
AcDbEntity
  8
0
100
AcDbCircle
 62
7
  6
CONTINUOUS
 10
14.3761987201
 20
5.7780384531
 40
0.03
100
AcDbArc
 50
143.9299999994
 51
193.5616760922
  0
ARC
  5
2A1
100
AcDbEntity
  8
0
100
AcDbCircle
 62
7
  6
CONTINUOUS
 10
14.9471554032
 20
6.5833711816
 40
0.03
100
AcDbArc
 50
286.552781061
 51
0.4250373636
  0
ARC
  5
2A2
100
AcDbEntity
  8
0
100
AcDbCircle
 62
7
  6
CONTINUOUS
 10
16.4728977377
 20
4.4651840362
 40
2.45
100
AcDbArc
 50
128.8918047501
 51
143.0861587683
  0
ARC
  5
2A3
100
AcDbEntity
  8
0
100
AcDbCircle
 62
7
  6
CONTINUOUS
 10
15.7883546433
 20
5.3596230622
 40
0.93
100
AcDbArc
 50
38.831504768
 51
59.3576548026
  0
ARC
  5
2A4
100
AcDbEntity
  8
0
100
AcDbCircle
 62
7
  6
CONTINUOUS
 10
16.840789795
 20
5.5197630499
 40
0.03
100
AcDbArc
 50
270.0
 51
48.7314307289
  0
ARC
  5
2A5
100
AcDbEntity
  8
0
100
AcDbCircle
 62
7
  6
CONTINUOUS
 10
17.6148444266
 20
5.823448176
 40
0.47
100
AcDbArc
 50
192.3507931997
 51
215.1594034111
  0
ARC
  5
2A6
100
AcDbEntity
  8
0
100
AcDbCircle
 62
7
  6
CONTINUOUS
 10
17.0899046633
 20
5.7897630499
 40
0.08
100
AcDbArc
 50
330.9381853852
 51
346.438323908
  0
ARC
  5
2A7
100
AcDbEntity
  8
0
100
AcDbCircle
 62
7
  6
CONTINUOUS
 10
16.5373546433
 20
6.4817640663
 40
0.076
100
AcDbArc
 50
305.4832022888
 51
73.4472189391
  0
ARC
  5
2A8
100
AcDbEntity
  8
0
100
AcDbCircle
 62
7
  6
CONTINUOUS
 10
16.5190493989
 20
5.8730409241
 40
0.07
100
AcDbArc
 50
39.0
 51
90.0
  0
ARC
  5
2A9
100
AcDbEntity
  8
0
100
AcDbCircle
 62
7
  6
CONTINUOUS
 10
16.2477827181
 20
6.3082521201
 40
0.06
100
AcDbArc
 50
189.2632522166
 51
255.8674273336
  0
ARC
  5
2AA
100
AcDbEntity
  8
0
100
AcDbCircle
 62
7
  6
CONTINUOUS
 10
17.0404342292
 20
5.8762593467
 40
0.06
100
AcDbArc
 50
67.0420565976
 51
90.0
  0
ARC
  5
2AB
100
AcDbEntity
  8
0
100
AcDbCircle
 62
7
  6
CONTINUOUS
 10
16.2194594221
 20
6.1957630499
 40
0.056
100
AcDbArc
 50
319.9947991152
 51
75.8674273336
  0
ARC
  5
2AC
100
AcDbEntity
  8
0
100
AcDbCircle
 62
7
  6
CONTINUOUS
 10
16.6313546433
 20
5.7597797488
 40
0.054
100
AcDbArc
 50
342.5404824817
 51
39.0
  0
ARC
  5
2AD
100
AcDbEntity
  8
0
100
AcDbCircle
 62
7
  6
CONTINUOUS
 10
16.721023986
 20
5.7315767527
 40
0.04
100
AcDbArc
 50
162.5404824816
 51
223.6426919197
  0
ARC
  5
2AE
100
AcDbEntity
  8
0
100
AcDbCircle
 62
7
  6
CONTINUOUS
 10
17.1947962016
 20
5.7314726974
 40
0.04
100
AcDbArc
 50
150.9381853852
 51
192.3507931998
  0
ARC
  5
2AF
100
AcDbEntity
  8
0
100
AcDbCircle
 62
7
  6
CONTINUOUS
 10
17.197892335
 20
5.5297630499
 40
0.04
100
AcDbArc
 50
270.0
 51
35.1594034111
  0
ARC
  5
2B0
100
AcDbEntity
  8
0
100
AcDbCircle
 62
7
  6
CONTINUOUS
 10
16.598883854
 20
6.3954497788
 40
0.03
100
AcDbArc
 50
125.4832022888
 51
231.1081952499
  0
ARC
  5
2B1
100
AcDbEntity
  8
0
100
AcDbCircle
 62
7
  6
CONTINUOUS
 10
16.5675538835
 20
6.5833711816
 40
0.03
100
AcDbArc
 50
179.5749626364
 51
253.447218939
  0
ARC
  5
2B2
100
AcDbEntity
  8
0
100
AcDbCircle
 62
7
  6
CONTINUOUS
 10
17.1385105666
 20
5.7780384531
 40
0.03
100
AcDbArc
 50
346.4383239078
 51
36.0700000006
  0
ARC
  5
2B3
100
AcDbEntity
  8
0
100
AcDbCircle
 62
7
  6
CONTINUOUS
 10
14.9773546433
 20
7.2702670663
 40
0.076
100
AcDbArc
 50
104.2739707055
 51
253.4470619298
  0
ARC
  5
2B4
100
AcDbEntity
  8
0
100
AcDbCircle
 62
7
  6
CONTINUOUS
 10
15.3673546433
 20
7.5697630499
 40
0.06
100
AcDbArc
 50
90.0
 51
180.0
  0
ARC
  5
2B5
100
AcDbEntity
  8
0
100
AcDbCircle
 62
7
  6
CONTINUOUS
 10
15.3673546433
 20
7.5649238468
 40
0.06
100
AcDbArc
 50
180.0
 51
236.6524271112
  0
ARC
  5
2B6
100
AcDbEntity
  8
0
100
AcDbCircle
 62
7
  6
CONTINUOUS
 10
15.301388651
 20
7.4646817007
 40
0.06
100
AcDbArc
 50
5.8493864314
 51
56.6524271097
  0
ARC
  5
2B7
100
AcDbEntity
  8
0
100
AcDbCircle
 62
7
  6
CONTINUOUS
 10
14.9471551247
 20
7.1686600336
 40
0.03
100
AcDbArc
 50
359.5747883958
 51
73.4470619299
  0
ARC
  5
2B8
100
AcDbEntity
  8
0
100
AcDbCircle
 62
7
  6
CONTINUOUS
 10
14.9512194141
 20
7.3729946175
 40
0.03
100
AcDbArc
 50
284.2739707055
 51
351.0235824324
  0
ARC
  5
2B9
100
AcDbEntity
  8
0
100
AcDbCircle
 62
7
  6
CONTINUOUS
 10
15.5573546433
 20
8.6873906833
 40
0.08
100
AcDbArc
 50
108.8190633691
 51
145.161776761
  0
ARC
  5
2BA
100
AcDbEntity
  8
0
100
AcDbCircle
 62
7
  6
CONTINUOUS
 10
14.9773546433
 20
9.5742670663
 40
0.08
100
AcDbArc
 50
116.400587412
 51
256.2662090435
  0
ARC
  5
2BB
100
AcDbEntity
  8
0
100
AcDbCircle
 62
7
  6
CONTINUOUS
 10
14.7944366795
 20
9.7406131637
 40
0.07
100
AcDbArc
 50
212.9608834022
 51
270.0
  0
ARC
  5
2BC
100
AcDbEntity
  8
0
100
AcDbCircle
 62
7
  6
CONTINUOUS
 10
14.8173546433
 20
9.7406131637
 40
0.07
100
AcDbArc
 50
270.0
 51
360.0
  0
ARC
  5
2BD
100
AcDbEntity
  8
0
100
AcDbCircle
 62
7
  6
CONTINUOUS
 10
14.6937516149
 20
9.6753252033
 40
0.05
100
AcDbArc
 50
32.9608834025
 51
81.0598780346
  0
ARC
  5
2BE
100
AcDbEntity
  8
0
100
AcDbCircle
 62
7
  6
CONTINUOUS
 10
14.9284437635
 20
9.6727948584
 40
0.03
100
AcDbArc
 50
296.4005874121
 51
40.4944653703
  0
ARC
  5
2BF
100
AcDbEntity
  8
0
100
AcDbCircle
 62
7
  6
CONTINUOUS
 10
14.9512394235
 20
9.4674120463
 40
0.03
100
AcDbArc
 50
8.9753227927
 51
76.2662090435
  0
ARC
  5
2C0
100
AcDbEntity
  8
0
100
AcDbCircle
 62
7
  6
CONTINUOUS
 10
15.7573546433
 20
8.1005346533
 40
0.7
100
AcDbArc
 50
105.8462963309
 51
108.819063369
  0
ARC
  5
2C1
100
AcDbEntity
  8
0
100
AcDbCircle
 62
7
  6
CONTINUOUS
 10
15.7573546433
 20
8.1005346533
 40
0.7
100
AcDbArc
 50
71.180936631
 51
74.1537036691
  0
CIRCLE
  5
2C2
100
AcDbEntity
  8
0
100
AcDbCircle
 62
7
  6
CONTINUOUS
 10
15.7573546433
 20
8.3202627032
 40
0.49155
  0
ARC
  5
2C3
100
AcDbEntity
  8
0
100
AcDbCircle
 62
7
  6
CONTINUOUS
 10
15.7573546433
 20
8.3202627032
 40
0.49155
100
AcDbArc
 50
180.0
 51
359.9999999997
  0
CIRCLE
  5
2C4
100
AcDbEntity
  8
0
100
AcDbCircle
 62
9
  6
CONTINUOUS
 10
15.7573546433
 20
8.3202627032
 40
0.4467172034
  0
CIRCLE
  5
2C5
100
AcDbEntity
  8
0
100
AcDbCircle
 62
9
  6
CONTINUOUS
 10
15.7573546433
 20
8.3202627032
 40
0.2963316422
  0
CIRCLE
  5
2C6
100
AcDbEntity
  8
0
100
AcDbCircle
 62
9
  6
CONTINUOUS
 10
15.7573546433
 20
8.3202627032
 40
0.2495043206
  0
ARC
  5
2C7
100
AcDbEntity
  8
0
100
AcDbCircle
 62
7
  6
CONTINUOUS
 10
16.5373546433
 20
7.2702670663
 40
0.076
100
AcDbArc
 50
286.5529380702
 51
75.7260292945
  0
ARC
  5
2C8
100
AcDbEntity
  8
0
100
AcDbCircle
 62
7
  6
CONTINUOUS
 10
16.1473546433
 20
7.5697630499
 40
0.06
100
AcDbArc
 50
0.0
 51
90.0
  0
ARC
  5
2C9
100
AcDbEntity
  8
0
100
AcDbCircle
 62
7
  6
CONTINUOUS
 10
16.2133206356
 20
7.4646817007
 40
0.06
100
AcDbArc
 50
123.3475728894
 51
174.1506135686
  0
ARC
  5
2CA
100
AcDbEntity
  8
0
100
AcDbCircle
 62
7
  6
CONTINUOUS
 10
16.1473546433
 20
7.5649238469
 40
0.06
100
AcDbArc
 50
303.3475728908
 51
360.0
  0
ARC
  5
2CB
100
AcDbEntity
  8
0
100
AcDbCircle
 62
7
  6
CONTINUOUS
 10
16.5675541619
 20
7.1686600336
 40
0.03
100
AcDbArc
 50
106.5529380701
 51
180.4252116042
  0
ARC
  5
2CC
100
AcDbEntity
  8
0
100
AcDbCircle
 62
7
  6
CONTINUOUS
 10
16.5634898725
 20
7.3729946175
 40
0.03
100
AcDbArc
 50
188.9764175676
 51
255.7260292945
  0
ARC
  5
2CD
100
AcDbEntity
  8
0
100
AcDbCircle
 62
7
  6
CONTINUOUS
 10
15.9573546433
 20
8.6873906833
 40
0.08
100
AcDbArc
 50
34.838223239
 51
71.1809366309
  0
ARC
  5
2CE
100
AcDbEntity
  8
0
100
AcDbCircle
 62
7
  6
CONTINUOUS
 10
16.5373546433
 20
9.5742670663
 40
0.08
100
AcDbArc
 50
283.7337909565
 51
63.599412588
  0
ARC
  5
2CF
100
AcDbEntity
  8
0
100
AcDbCircle
 62
7
  6
CONTINUOUS
 10
16.5634698631
 20
9.4674120463
 40
0.03
100
AcDbArc
 50
103.7337909565
 51
171.0246772073
  0
ARC
  5
2D0
100
AcDbEntity
  8
0
100
AcDbCircle
 62
7
  6
CONTINUOUS
 10
16.5862655232
 20
9.6727948584
 40
0.03
100
AcDbArc
 50
139.5055346297
 51
243.5994125879
  0
ARC
  5
2D1
100
AcDbEntity
  8
0
100
AcDbCircle
 62
7
  6
CONTINUOUS
 10
20.5894160684
 20
7.0163628824
 40
4.459
100
AcDbArc
 50
174.150613569
 51
189.2632522166
  0
ARC
  5
2D2
100
AcDbEntity
  8
0
100
AcDbCircle
 62
7
  6
CONTINUOUS
 10
23.1933653917
 20
8.4202666719
 40
6.7420807484
100
AcDbArc
 50
171.0249202951
 51
188.976174362
  0
ARC
  5
2D3
100
AcDbEntity
  8
0
100
AcDbCircle
 62
7
  6
CONTINUOUS
 10
18.5952977265
 20
7.5190884157
 40
2.63
100
AcDbArc
 50
223.6426919198
 51
228.7314307292
  0
ARC
  5
2D4
100
AcDbEntity
  8
0
100
AcDbCircle
 62
7
  6
CONTINUOUS
 10
15.7573546433
 20
10.3806131637
 40
1.06
100
AcDbArc
 50
319.5055346288
 51
68.1213814689
  0
ARC
  5
2D5
100
AcDbEntity
  8
0
100
AcDbCircle
 62
7
  6
CONTINUOUS
 10
15.7573546433
 20
10.3806131637
 40
1.06
100
AcDbArc
 50
214.8395846707
 51
220.4944653712
  0
ARC
  5
2D6
100
AcDbEntity
  8
0
100
AcDbCircle
 62
7
  6
CONTINUOUS
 10
15.7573546433
 20
10.3806131637
 40
1.06
100
AcDbArc
 50
111.8786185311
 51
145.1604153293
  0
ARC
  5
2D7
100
AcDbEntity
  8
0
100
AcDbCircle
 62
7
  6
CONTINUOUS
 10
15.7573546433
 20
10.9958055278
 40
0.9884615385
100
AcDbArc
 50
60.2827711041
 51
119.7172288959
  0
ARC
  5
2D8
100
AcDbEntity
  8
0
100
AcDbCircle
 62
7
  6
CONTINUOUS
 10
15.6855859827
 20
12.0624582627
 40
0.66
100
AcDbArc
 50
299.7184980024
 51
329.1754473178
  0
ARC
  5
2D9
100
AcDbEntity
  8
0
100
AcDbCircle
 62
7
  6
CONTINUOUS
 10
15.8291233039
 20
12.0624582627
 40
0.66
100
AcDbArc
 50
210.8245526822
 51
240.2815019976
  0
ARC
  5
2DA
100
AcDbEntity
  8
0
100
AcDbCircle
 62
7
  6
CONTINUOUS
 10
14.7944366796
 20
11.0206131637
 40
0.07
100
AcDbArc
 50
90.0
 51
147.0391165936
  0
ARC
  5
2DB
100
AcDbEntity
  8
0
100
AcDbCircle
 62
7
  6
CONTINUOUS
 10
14.8173546433
 20
11.0206131637
 40
0.07
100
AcDbArc
 50
0.0
 51
90.0
  0
ARC
  5
2DC
100
AcDbEntity
  8
0
100
AcDbCircle
 62
7
  6
CONTINUOUS
 10
16.0823546433
 20
11.4192670663
 40
0.07
100
AcDbArc
 50
0.0
 51
90.0
  0
ARC
  5
2DD
100
AcDbEntity
  8
0
100
AcDbCircle
 62
7
  6
CONTINUOUS
 10
15.4323546433
 20
11.4192670663
 40
0.07
100
AcDbArc
 50
90.0
 51
180.0
  0
ARC
  5
2DE
100
AcDbEntity
  8
0
100
AcDbCircle
 62
7
  6
CONTINUOUS
 10
14.693751615
 20
11.0859011241
 40
0.05
100
AcDbArc
 50
278.9401219665
 51
327.0391165941
  0
ARC
  5
2DF
100
AcDbEntity
  8
0
100
AcDbCircle
 62
7
  6
CONTINUOUS
 10
16.2823546433
 20
11.7442670663
 40
0.02
100
AcDbArc
 50
270.0
 51
360.0
  0
ARC
  5
2E0
100
AcDbEntity
  8
0
100
AcDbCircle
 62
7
  6
CONTINUOUS
 10
16.2823546433
 20
11.8342670663
 40
0.02
100
AcDbArc
 50
0.0
 51
90.0
  0
ARC
  5
2E1
100
AcDbEntity
  8
0
100
AcDbCircle
 62
7
  6
CONTINUOUS
 10
15.2323546433
 20
11.8342670663
 40
0.02
100
AcDbArc
 50
90.0
 51
180.0
  0
ARC
  5
2E2
100
AcDbEntity
  8
0
100
AcDbCircle
 62
7
  6
CONTINUOUS
 10
15.2323546433
 20
11.7442670663
 40
0.02
100
AcDbArc
 50
180.0
 51
270.0
  0
ENDSEC
  0
SECTION
  2
OBJECTS
  0
DICTIONARY
  5
C
100
AcDbDictionary
280
0
281
1
  3
ACAD_GROUP
350
D
  3
ACAD_MLINESTYLE
350
17
  3
ACAD_LAYOUT
350
1A
  3
ACAD_PLOTSETTINGS
350
19
  3
ACAD_PLOTSTYLENAME
350
E
  0
DICTIONARY
  5
D
102
{ACAD_REACTORS
330
C
102
}
100
AcDbDictionary
280
0
281
1
  0
ACDBDICTIONARYWDFLT
  5
E
102
{ACAD_REACTORS
330
C
102
}
100
AcDbDictionary
281
1
  3
Normal
350
F
100
AcDbDictionaryWithDefault
340
F
  0
DICTIONARY
  5
17
102
{ACAD_REACTORS
330
C
102
}
100
AcDbDictionary
280
0
281
1
  3
Standard
350
18
  0
DICTIONARY
  5
19
102
{ACAD_REACTORS
330
C
102
}
100
AcDbDictionary
281
1
  0
DICTIONARY
  5
1A
102
{ACAD_REACTORS
330
C
102
}
100
AcDbDictionary
281
1
  3
Model
350
2E3
  3
Layout1
350
2E4
  0
ACDBPLACEHOLDER
  5
F
102
{ACAD_REACTORS
330
E
102
}
  0
MLINESTYLE
  5
18
102
{ACAD_REACTORS
330
17
102
}
100
AcDbMlineStyle
  2
STANDARD
 70
0
  3

 62
256
 51
90.0
 52
90.0
 71
2
 49
0.5
 62
256
  6
BYLAYER
 49
-0.5
 62
256
  6
BYLAYER
  0
LAYOUT
  5
2E3
102
{ACAD_REACTORS
330
1A
102
}
100
AcDbPlotSettings
  1

  2
none_device
  4
ANSI_C_(22.00_x_17.00_Inches)
  6

 40
0.0
 41
0.0
 42
0.0
 43
0.0
 44
558.8
 45
431.8
 46
0.0
 47
0.0
 48
0.0
 49
0.0
140
0.0
141
0.0
142
1.0
143
1.0
 70
1024
 72
0
 73
0
 74
0
  7

 75
0
147
1.0
148
0.0
149
0.0
100
AcDbLayout
  1
Model
 70
0
 71
0
 10
0.0
 20
0.0
 11
22.0
 21
17.0
 12
0.0
 22
0.0
 32
0.0
 14
0.0
 24
0.0
 34
0.0
 15
0.0
 25
0.0
 35
0.0
146
0.0
 13
0.0
 23
0.0
 33
0.0
 16
1.0
 26
0.0
 36
0.0
 17
0.0
 27
1.0
 37
0.0
 76
0
330
202
345
0
346
0
  0
LAYOUT
  5
2E4
102
{ACAD_REACTORS
330
1A
102
}
100
AcDbPlotSettings
  1

  2
none_device
  4
ANSI_C_(22.00_x_17.00_Inches)
  6

 40
0.0
 41
0.0
 42
0.0
 43
0.0
 44
558.8
 45
431.8
 46
0.0
 47
0.0
 48
0.0
 49
0.0
140
0.0
141
0.0
142
1.0
143
1.0
 70
0
 72
0
 73
0
 74
0
  7

 75
0
147
1.0
148
0.0
149
0.0
100
AcDbLayout
  1
Layout1
 70
0
 71
1
 10
0.0
 20
0.0
 11
22.0
 21
17.0
 12
0.0
 22
0.0
 32
0.0
 14
0.0
 24
0.0
 34
0.0
 15
0.0
 25
0.0
 35
0.0
146
0.0
 13
0.0
 23
0.0
 33
0.0
 16
1.0
 26
0.0
 36
0.0
 17
0.0
 27
1.0
 37
0.0
 76
0
330
203
345
0
346
0
  0
ENDSEC
  0
EOF
