999
DXF file: E:\BT Custom\CADOUTPUT\_RIGHT.dxf
999
Pro/ENGINEER 2018400 by Parametric Technology Corporation
  0
SECTION
  2
HEADER
  9
$ACADVER
  1
AC1018
  9
$DWGCODEPAGE
  3
ANSI_1252
  9
$EXTMAX
 10
22.0
 20
17.0
 30
0.0
  9
$EXTMIN
 10
0.0
 20
0.0
 30
0.0
  9
$LIMMIN
 10
0.0
 20
0.0
  9
$LIMMAX
 10
22.0
 20
17.0
  9
$VIEWCTR
 10
11.0
 20
8.5
  9
$VIEWSIZE
 40
17.0
  9
$CLAYER
  8
0
  9
$LTSCALE
 40
1.21
  9
$CELTYPE
  6
BYLAYER
  9
$DIMSCALE
 40
1.0
  9
$DIMASZ
 40
0.1
  9
$DIMEXO
 40
0.0625
  9
$DIMDLI
 40
0.836
  9
$DIMEXE
 40
0.125
  9
$DIMCEN
 40
0.198
  9
$DIMLFAC
 40
1.0
  9
$DIMBLK
  1
_FILLED
  9
$DIMALT
 70
1
  9
$DIMALTD
 70
2
  9
$DIMALTTD
 70
2
  9
$DIMALTF
 40
25.4
  9
$DIMTXT
 40
0.08
  9
$DIMTOL
 70
1
  9
$DIMLIM
 70
0
  9
$DIMTFAC
 40
1.0
  9
$DIMTP
 40
0.001
  9
$DIMTM
 40
0.001
  9
$DIMGAP
 40
0.09
  9
$DIMDSEP
 70
46
  9
$AUNITS
 70
0
  9
$PDMODE
 70
3
  9
$PDSIZE
 40
0.06
  9
$HANDSEED
  5
4C1
  9
$TILEMODE
 70
1
  9
$MEASUREMENT
 70
0
  9
$INSUNITS
 70
1
  0
ENDSEC
  0
SECTION
  2
CLASSES
  0
CLASS
  1
ACDBDICTIONARYWDFLT
  2
AcDbDictionaryWithDefault
  3
AutoCAD 2000
 90
0
 91
1
280
0
281
0
  0
CLASS
  1
ACDBPLACEHOLDER
  2
AcDbPlaceHolder
  3
AutoCAD 2000
 90
0
 91
1
280
0
281
0
  0
CLASS
  1
LAYOUT
  2
AcDbLayout
  3
AutoCAD 2000
 90
0
 91
0
280
0
281
0
  0
ENDSEC
  0
SECTION
  2
TABLES
  0
TABLE
  2
VPORT
  5
8
100
AcDbSymbolTable
 70
2
  0
VPORT
  5
1F4
100
AcDbSymbolTableRecord
100
AcDbViewportTableRecord
  2
*ACTIVE
 70
0
 10
0.0
 20
0.0
 11
1.0
 21
1.0
 12
11.0
 22
8.5
 13
0.0
 23
0.0
 14
1.0
 24
1.0
 15
0.0
 25
0.0
 16
0.0
 26
0.0
 36
1.0
 17
0.0
 27
0.0
 37
0.0
 40
17.0
 41
1.2941176471
 42
50.0
 43
0.0
 44
0.0
 50
0.0
 51
0.0
 71
0
 72
100
 73
1
 74
1
 75
0
 76
0
 77
0
 78
0
  0
ENDTAB
  0
TABLE
  2
LTYPE
  5
5
100
AcDbSymbolTable
 70
6
  0
LTYPE
  5
14
100
AcDbSymbolTableRecord
100
AcDbLinetypeTableRecord
  2
BYBLOCK
 70
0
  3

 72
65
 73
0
 40
0.0
  0
LTYPE
  5
15
100
AcDbSymbolTableRecord
100
AcDbLinetypeTableRecord
  2
BYLAYER
 70
0
  3

 72
65
 73
0
 40
0.0
  0
LTYPE
  5
16
100
AcDbSymbolTableRecord
100
AcDbLinetypeTableRecord
  2
CONTINUOUS
 70
64
  3
Solid line
 72
65
 73
0
 40
0.0
  0
LTYPE
  5
1F5
100
AcDbSymbolTableRecord
100
AcDbLinetypeTableRecord
  2
CENTER
 70
64
  3
____ _ ____ _ ____ _ ____ _ ____ _ ____ _ ____
 72
65
 73
4
 40
0.6
 49
0.375
 74
0
 49
-0.075
 74
0
 49
0.075
 74
0
 49
-0.075
 74
0
  0
LTYPE
  5
1F6
100
AcDbSymbolTableRecord
100
AcDbLinetypeTableRecord
  2
HIDDEN
 70
64
  3
- - - - - - - - - - - - - - - - - - - -
 72
65
 73
2
 40
0.2
 49
0.1
 74
0
 49
-0.1
 74
0
  0
LTYPE
  5
1F7
100
AcDbSymbolTableRecord
100
AcDbLinetypeTableRecord
  2
PHANTOM
 70
64
  3
_____ _ _ _____ _ _ _____ _ _ _____
 72
65
 73
6
 40
0.8
 49
0.45
 74
0
 49
-0.05
 74
0
 49
0.1
 74
0
 49
-0.05
 74
0
 49
0.1
 74
0
 49
-0.05
 74
0
  0
LTYPE
  5
1F8
100
AcDbSymbolTableRecord
100
AcDbLinetypeTableRecord
  2
DOT
 70
64
  3
. . . . . . . . . . . . . . . . . . . .
 72
65
 73
2
 40
0.2
 49
0.1
 74
0
 49
-0.1
 74
0
  0
LTYPE
  5
1F9
100
AcDbSymbolTableRecord
100
AcDbLinetypeTableRecord
  2
DASHED
 70
64
  3
- - - - - - - - - - - - - - - - - - - -
 72
65
 73
2
 40
0.2
 49
0.1
 74
0
 49
-0.1
 74
0
  0
ENDTAB
  0
TABLE
  2
LAYER
  5
2
100
AcDbSymbolTable
 70
36
  0
LAYER
  5
10
100
AcDbSymbolTableRecord
100
AcDbLayerTableRecord
  2
0
 70
0
 62
7
  6
CONTINUOUS
370
-3
390
F
  0
LAYER
  5
1FA
100
AcDbSymbolTableRecord
100
AcDbLayerTableRecord
  2
DEFAULT_1
 70
0
 62
7
  6
CENTER
370
-3
390
F
  0
LAYER
  5
1FB
100
AcDbSymbolTableRecord
100
AcDbLayerTableRecord
  2
DEFAULT_2
 70
0
 62
8
  6
HIDDEN
370
-3
390
F
  0
LAYER
  5
1FC
100
AcDbSymbolTableRecord
100
AcDbLayerTableRecord
  2
DEFAULT_3
 70
0
 62
7
  6
PHANTOM
370
-3
390
F
  0
LAYER
  5
1FD
100
AcDbSymbolTableRecord
100
AcDbLayerTableRecord
  2
ALL_FEATURES
 70
0
 62
7
  6
CONTINUOUS
370
-3
390
F
  0
LAYER
  5
1FE
100
AcDbSymbolTableRecord
100
AcDbLayerTableRecord
  2
AXES_FEATURES
 70
0
 62
7
  6
CONTINUOUS
370
-3
390
F
  0
LAYER
  5
1FF
100
AcDbSymbolTableRecord
100
AcDbLayerTableRecord
  2
DEFAULT_COORDINATE_SYSTEM
 70
0
 62
7
  6
CONTINUOUS
370
-3
390
F
  0
LAYER
  5
200
100
AcDbSymbolTableRecord
100
AcDbLayerTableRecord
  2
DEFAULT_DATUM_AXES
 70
0
 62
7
  6
CONTINUOUS
370
-3
390
F
  0
LAYER
  5
201
100
AcDbSymbolTableRecord
100
AcDbLayerTableRecord
  2
DEFAULT_DATUM_PLANES
 70
0
 62
7
  6
CONTINUOUS
370
-3
390
F
  0
LAYER
  5
202
100
AcDbSymbolTableRecord
100
AcDbLayerTableRecord
  2
DIMENSIONS
 70
0
 62
7
  6
CONTINUOUS
370
-3
390
F
  0
ENDTAB
  0
TABLE
  2
STYLE
  5
3
100
AcDbSymbolTable
 70
1
  0
STYLE
  5
11
100
AcDbSymbolTableRecord
100
AcDbTextStyleTableRecord
  2
STANDARD
 70
0
 40
0.0
 41
0.8
 50
0.0
 71
0
 42
0.2
  3
txt
  4

  0
STYLE
  5
203
100
AcDbSymbolTableRecord
100
AcDbTextStyleTableRecord
  2
TEXTSTYLE_1
 70
0
 40
0.0
 41
0.8
 50
0.0
 71
0
 42
0.2
  3
gdt
  4

  0
ENDTAB
  0
TABLE
  2
VIEW
  5
6
100
AcDbSymbolTable
 70
0
  0
ENDTAB
  0
TABLE
  2
UCS
  5
7
100
AcDbSymbolTable
 70
0
  0
ENDTAB
  0
TABLE
  2
APPID
  5
9
100
AcDbSymbolTable
 70
1
  0
APPID
  5
204
100
AcDbSymbolTableRecord
100
AcDbRegAppTableRecord
  2
ACAD
 70
0
  0
ENDTAB
  0
TABLE
  2
BLOCK_RECORD
  5
1
100
AcDbSymbolTable
 70
0
  0
BLOCK_RECORD
  5
205
100
AcDbSymbolTableRecord
100
AcDbBlockTableRecord
  2
*Model_Space
  0
BLOCK_RECORD
  5
206
100
AcDbSymbolTableRecord
100
AcDbBlockTableRecord
  2
*Paper_Space
  0
BLOCK_RECORD
  5
207
100
AcDbSymbolTableRecord
100
AcDbBlockTableRecord
  2
_FILLED
  0
ENDTAB
  0
TABLE
  2
DIMSTYLE
  5
A
100
AcDbSymbolTable
 70
1
100
AcDbDimStyleTable
 71
0
  0
DIMSTYLE
105
208
100
AcDbSymbolTableRecord
100
AcDbDimStyleTableRecord
  2
STANDARD
 70
0
  3

  4

 40
1.0
 41
0.1
 42
0.0625
 43
0.38
 44
0.125
 45
0.0
 46
0.0
 47
0.001
 48
0.001
140
0.08
141
0.09
142
0.0
143
25.4
144
1.0
145
0.0
146
1.0
147
0.09
 71
1.0
 72
0.0
 73
1
 74
1
 75
0
 76
0
 77
0
 78
4
 79
1
170
1
171
2
172
0
173
0
174
0
175
0
176
0
177
0
178
0
270
2
179
3
271
3
272
3
273
2
274
2
275
0
280
0
281
0
282
0
283
1
284
4
285
0
286
0
287
3
288
0
340
11
278
46
341
207
342
207
343
207
344
207
  0
ENDTAB
  0
ENDSEC
  0
SECTION
  2
BLOCKS
  0
BLOCK
  5
20
100
AcDbEntity
  8
0
100
AcDbBlockBegin
  2
*Model_Space
 70
0
 10
0.0
 20
0.0
 30
0.0
  3
*Model_Space
  1

  0
ENDBLK
  5
21
100
AcDbEntity
  8
0
100
AcDbBlockEnd
  0
BLOCK
  5
1C
100
AcDbEntity
  8
0
100
AcDbBlockBegin
  2
*Paper_Space
 70
0
 10
0.0
 20
0.0
 30
0.0
  3
*Paper_Space
  1

  0
ENDBLK
  5
1D
100
AcDbEntity
  8
0
100
AcDbBlockEnd
  0
BLOCK
  5
209
100
AcDbEntity
  8
0
100
AcDbBlockBegin
  2
_FILLED
 70
64
 10
0.0
 20
0.0
  3
_FILLED
  1

  0
SOLID
  5
20A
100
AcDbEntity
  8
0
  6
BYBLOCK
 62
0
100
AcDbTrace
 10
0.0
 20
0.0
 11
-1.0
 21
0.2
 12
-1.0
 22
-0.2
 13
-1.0
 23
-0.2
  0
ENDBLK
  5
20B
100
AcDbEntity
  8
0
  6
BYBLOCK
 62
0
100
AcDbBlockEnd
  0
ENDSEC
  0
SECTION
  2
ENTITIES
  0
LINE
  5
20C
100
AcDbEntity
  8
0
100
AcDbLine
 62
7
  6
CONTINUOUS
 10
9.8594834891
 20
-2.552608196
 11
8.8594834891
 21
-2.552608196
  0
LINE
  5
20D
100
AcDbEntity
  8
0
100
AcDbLine
 62
9
  6
CONTINUOUS
 10
9.8594834891
 20
-2.052608196
 11
8.8594834891
 21
-2.052608196
  0
LINE
  5
20E
100
AcDbEntity
  8
0
100
AcDbLine
 62
7
  6
CONTINUOUS
 10
17.3894834891
 20
-1.477608196
 11
17.6094834891
 21
-1.477608196
  0
LINE
  5
20F
100
AcDbEntity
  8
0
100
AcDbLine
 62
7
  6
CONTINUOUS
 10
17.3594834891
 20
-1.052608196
 11
10.8594834891
 21
-1.052608196
  0
LINE
  5
210
100
AcDbEntity
  8
0
100
AcDbLine
 62
7
  6
CONTINUOUS
 10
17.3594834891
 20
-0.052608196
 11
10.8594834891
 21
-0.052608196
  0
LINE
  5
211
100
AcDbEntity
  8
0
100
AcDbLine
 62
7
  6
CONTINUOUS
 10
17.3894834891
 20
0.372391804
 11
17.6094834891
 21
0.372391804
  0
LINE
  5
212
100
AcDbEntity
  8
0
100
AcDbLine
 62
7
  6
CONTINUOUS
 10
6.3800534936
 20
15.1446581024
 11
6.3611289373
 21
15.1336783038
  0
LINE
  5
213
100
AcDbEntity
  8
0
100
AcDbLine
 62
7
  6
CONTINUOUS
 10
7.1325472374
 20
15.1250430763
 11
7.1712571278
 21
15.1474212366
  0
LINE
  5
214
100
AcDbEntity
  8
0
100
AcDbLine
 62
7
  6
CONTINUOUS
 10
3.8104834891
 20
13.2708047238
 11
3.8104834891
 21
12.3921252319
  0
LINE
  5
215
100
AcDbEntity
  8
0
100
AcDbLine
 62
7
  6
CONTINUOUS
 10
4.6027602466
 20
12.1754288728
 11
4.6011292968
 21
12.1536828746
  0
LINE
  5
216
100
AcDbEntity
  8
0
100
AcDbLine
 62
7
  6
CONTINUOUS
 10
4.7494330551
 20
12.1757747877
 11
4.7477761616
 21
12.1536828746
  0
LINE
  5
217
100
AcDbEntity
  8
0
100
AcDbLine
 62
7
  6
CONTINUOUS
 10
7.1717334891
 20
15.1479718282
 11
7.1712571278
 21
15.1474212366
  0
LINE
  5
218
100
AcDbEntity
  8
0
100
AcDbLine
 62
7
  6
CONTINUOUS
 10
7.162919564
 20
14.6483278789
 11
7.1110772067
 21
14.5964855216
  0
LINE
  5
219
100
AcDbEntity
  8
0
100
AcDbLine
 62
7
  6
CONTINUOUS
 10
4.4370063697
 20
12.1861663167
 11
4.4394426278
 21
12.1536828746
  0
LINE
  5
21A
100
AcDbEntity
  8
0
100
AcDbLine
 62
7
  6
CONTINUOUS
 10
4.486620337
 20
12.1860460368
 11
4.4890475742
 21
12.1536828746
  0
LINE
  5
21B
100
AcDbEntity
  8
0
100
AcDbLine
 62
7
  6
CONTINUOUS
 10
4.633293854
 20
12.1856906745
 11
4.635694439
 21
12.1536828746
  0
LINE
  5
21C
100
AcDbEntity
  8
0
100
AcDbLine
 62
7
  6
CONTINUOUS
 10
4.8671866255
 20
12.1487629057
 11
4.8694426278
 21
12.1186828746
  0
LINE
  5
21D
100
AcDbEntity
  8
0
100
AcDbLine
 62
7
  6
CONTINUOUS
 10
4.8706165375
 20
12.1851163831
 11
4.8729740506
 21
12.1536828746
  0
LINE
  5
21E
100
AcDbEntity
  8
0
100
AcDbLine
 62
7
  6
CONTINUOUS
 10
4.9305549688
 20
12.1398047238
 11
4.9321391075
 21
12.1186828746
  0
LINE
  5
21F
100
AcDbEntity
  8
0
100
AcDbLine
 62
7
  6
CONTINUOUS
 10
5.113744418
 20
12.1481690988
 11
5.1159558849
 21
12.1186828746
  0
LINE
  5
220
100
AcDbEntity
  8
0
100
AcDbLine
 62
7
  6
CONTINUOUS
 10
5.1882161788
 20
12.1843491757
 11
5.1905161514
 21
12.1536828746
  0
LINE
  5
221
100
AcDbEntity
  8
0
100
AcDbLine
 62
7
  6
CONTINUOUS
 10
5.3054834891
 20
13.5618047238
 11
5.3054834891
 21
13.3308047238
  0
LINE
  5
222
100
AcDbEntity
  8
0
100
AcDbLine
 62
7
  6
CONTINUOUS
 10
4.9867546946
 20
12.1763351599
 11
4.9850557732
 21
12.1536828746
  0
LINE
  5
223
100
AcDbEntity
  8
0
100
AcDbLine
 62
7
  6
CONTINUOUS
 10
5.0458301868
 20
12.1401409637
 11
5.0442208301
 21
12.1186828746
  0
LINE
  5
224
100
AcDbEntity
  8
0
100
AcDbLine
 62
7
  6
CONTINUOUS
 10
5.2296217462
 20
12.1398047238
 11
5.2280376075
 21
12.1186828746
  0
LINE
  5
225
100
AcDbEntity
  8
0
100
AcDbLine
 62
7
  6
CONTINUOUS
 10
5.3043531372
 20
12.1770863832
 11
5.302597874
 21
12.1536828746
  0
LINE
  5
226
100
AcDbEntity
  8
0
100
AcDbLine
 62
7
  6
CONTINUOUS
 10
5.4977668938
 20
12.1048047238
 11
5.4965577551
 21
12.0886828746
  0
LINE
  5
227
100
AcDbEntity
  8
0
100
AcDbLine
 62
7
  6
CONTINUOUS
 10
5.5221415281
 20
12.1412649411
 11
5.5204478731
 21
12.1186828746
  0
LINE
  5
228
100
AcDbEntity
  8
0
100
AcDbLine
 62
7
  6
CONTINUOUS
 10
5.2971668847
 20
12.119026116
 11
5.2994426278
 21
12.0886828746
  0
LINE
  5
229
100
AcDbEntity
  8
0
100
AcDbLine
 62
7
  6
CONTINUOUS
 10
5.3822156254
 20
12.118821636
 11
5.3844760325
 21
12.0886828746
  0
LINE
  5
22A
100
AcDbEntity
  8
0
100
AcDbLine
 62
7
  6
CONTINUOUS
 10
5.4062074214
 20
12.1474659283
 11
5.4083661504
 21
12.1186828746
  0
LINE
  5
22B
100
AcDbEntity
  8
0
100
AcDbLine
 62
7
  6
CONTINUOUS
 10
5.5722120714
 20
12.1834236274
 11
5.5744426278
 21
12.1536828746
  0
LINE
  5
22C
100
AcDbEntity
  8
0
100
AcDbLine
 62
7
  6
CONTINUOUS
 10
5.6271036685
 20
12.1182334689
 11
5.629319963
 21
12.0886828746
  0
LINE
  5
22D
100
AcDbEntity
  8
0
100
AcDbLine
 62
7
  6
CONTINUOUS
 10
5.7285953806
 20
12.0749795038
 11
5.7294426278
 21
12.0636828746
  0
LINE
  5
22E
100
AcDbEntity
  8
0
100
AcDbLine
 62
7
  6
CONTINUOUS
 10
5.7873524826
 20
12.146551478
 11
5.7894426278
 21
12.1186828746
  0
LINE
  5
22F
100
AcDbEntity
  8
0
100
AcDbLine
 62
7
  6
CONTINUOUS
 10
5.8582688698
 20
12.0966010384
 11
5.8607377321
 21
12.0636828746
  0
LINE
  5
230
100
AcDbEntity
  8
0
100
AcDbLine
 62
7
  6
CONTINUOUS
 10
6.0022937862
 20
12.1173340968
 11
6.0044426278
 21
12.0886828746
  0
LINE
  5
231
100
AcDbEntity
  8
0
100
AcDbLine
 62
7
  6
CONTINUOUS
 10
6.0058216776
 20
12.1823811811
 11
6.0079740506
 21
12.1536828746
  0
LINE
  5
232
100
AcDbEntity
  8
0
100
AcDbLine
 62
7
  6
CONTINUOUS
 10
6.0654834891
 20
13.8058047238
 11
6.0654834891
 21
13.6218047238
  0
LINE
  5
233
100
AcDbEntity
  8
0
100
AcDbLine
 62
7
  6
CONTINUOUS
 10
6.0654834891
 20
13.8458047238
 11
6.0654834891
 21
14.0348047238
  0
LINE
  5
234
100
AcDbEntity
  8
0
100
AcDbLine
 62
7
  6
CONTINUOUS
 10
6.1154834891
 20
14.0348047238
 11
6.1154834891
 21
14.3848047238
  0
LINE
  5
235
100
AcDbEntity
  8
0
100
AcDbLine
 62
7
  6
CONTINUOUS
 10
6.3129834891
 20
15.103391804
 11
6.3129834891
 21
14.7812639538
  0
LINE
  5
236
100
AcDbEntity
  8
0
100
AcDbLine
 62
7
  6
CONTINUOUS
 10
5.6883478833
 20
12.1779966461
 11
5.6865243504
 21
12.1536828746
  0
LINE
  5
237
100
AcDbEntity
  8
0
100
AcDbLine
 62
7
  6
CONTINUOUS
 10
5.7432316968
 20
12.1130830231
 11
5.7414016856
 21
12.0886828746
  0
LINE
  5
238
100
AcDbEntity
  8
0
100
AcDbLine
 62
7
  6
CONTINUOUS
 10
5.8436661036
 20
12.0922395831
 11
5.8415243504
 21
12.0636828746
  0
LINE
  5
239
100
AcDbEntity
  8
0
100
AcDbLine
 62
7
  6
CONTINUOUS
 10
5.9032856415
 20
12.1421667549
 11
5.9015243504
 21
12.1186828746
  0
LINE
  5
23A
100
AcDbEntity
  8
0
100
AcDbLine
 62
7
  6
CONTINUOUS
 10
5.9749835257
 20
12.0925371547
 11
5.9728194547
 21
12.0636828746
  0
LINE
  5
23B
100
AcDbEntity
  8
0
100
AcDbLine
 62
7
  6
CONTINUOUS
 10
6.1219565938
 20
12.1790271489
 11
6.1200557732
 21
12.1536828746
  0
LINE
  5
23C
100
AcDbEntity
  8
0
100
AcDbLine
 62
7
  6
CONTINUOUS
 10
6.1184210652
 20
12.1139724045
 11
6.1165243504
 21
12.0886828746
  0
LINE
  5
23D
100
AcDbEntity
  8
0
100
AcDbLine
 62
7
  6
CONTINUOUS
 10
6.3337525623
 20
12.0933923657
 11
6.3315243504
 21
12.0636828746
  0
LINE
  5
23E
100
AcDbEntity
  8
0
100
AcDbLine
 62
7
  6
CONTINUOUS
 10
6.3471375655
 20
12.1432196484
 11
6.3452973075
 21
12.1186828746
  0
LINE
  5
23F
100
AcDbEntity
  8
0
100
AcDbLine
 62
7
  6
CONTINUOUS
 10
6.5481084891
 20
12.0748047238
 11
6.5465243504
 21
12.0536828746
  0
LINE
  5
240
100
AcDbEntity
  8
0
100
AcDbLine
 62
7
  6
CONTINUOUS
 10
16.3474885196
 20
5.7265923074
 11
16.2114885196
 21
5.6950923074
  0
LINE
  5
241
100
AcDbEntity
  8
0
100
AcDbLine
 62
7
  6
CONTINUOUS
 10
6.1572898828
 20
12.0823861415
 11
6.1594426278
 21
12.0536828746
  0
LINE
  5
242
100
AcDbEntity
  8
0
100
AcDbLine
 62
7
  6
CONTINUOUS
 10
6.2170384455
 20
12.0957386388
 11
6.2194426278
 21
12.0636828746
  0
LINE
  5
243
100
AcDbEntity
  8
0
100
AcDbLine
 62
7
  6
CONTINUOUS
 10
6.2312051004
 20
12.1454893341
 11
6.2332155848
 21
12.1186828746
  0
LINE
  5
244
100
AcDbEntity
  8
0
100
AcDbLine
 62
7
  6
CONTINUOUS
 10
6.4323391403
 20
12.0817293743
 11
6.4344426278
 21
12.0536828746
  0
LINE
  5
245
100
AcDbEntity
  8
0
100
AcDbLine
 62
7
  6
CONTINUOUS
 10
6.4625323825
 20
12.1162337394
 11
6.4645986973
 21
12.0886828746
  0
LINE
  5
246
100
AcDbEntity
  8
0
100
AcDbLine
 62
7
  6
CONTINUOUS
 10
6.4700941195
 20
12.1812681636
 11
6.4721630162
 21
12.1536828746
  0
LINE
  5
247
100
AcDbEntity
  8
0
100
AcDbLine
 62
7
  6
CONTINUOUS
 10
6.7071265655
 20
12.0945637051
 11
6.7094426278
 21
12.0636828746
  0
LINE
  5
248
100
AcDbEntity
  8
0
100
AcDbLine
 62
7
  6
CONTINUOUS
 10
6.7075173835
 20
12.1443527983
 11
6.7094426278
 21
12.1186828746
  0
LINE
  5
249
100
AcDbEntity
  8
0
100
AcDbLine
 62
7
  6
CONTINUOUS
 10
6.9447384328
 20
12.1801336296
 11
6.9467222394
 21
12.1536828746
  0
LINE
  5
24A
100
AcDbEntity
  8
0
100
AcDbLine
 62
7
  6
CONTINUOUS
 10
6.9523078059
 20
12.115066241
 11
6.9542865583
 21
12.0886828746
  0
LINE
  5
24B
100
AcDbEntity
  8
0
100
AcDbLine
 62
7
  6
CONTINUOUS
 10
6.9828584891
 20
12.0748047238
 11
6.9844426278
 21
12.0536828746
  0
LINE
  5
24C
100
AcDbEntity
  8
0
100
AcDbLine
 62
7
  6
CONTINUOUS
 10
6.3592334891
 20
16.547391804
 11
6.3592334891
 21
15.173391804
  0
LINE
  5
24D
100
AcDbEntity
  8
0
100
AcDbLine
 62
7
  6
CONTINUOUS
 10
6.3592334891
 20
15.1314810813
 11
6.3592334891
 21
15.1122568328
  0
LINE
  5
24E
100
AcDbEntity
  8
0
100
AcDbLine
 62
7
  6
CONTINUOUS
 10
6.3795602359
 20
15.1619452349
 11
6.3795602359
 21
15.144371896
  0
LINE
  5
24F
100
AcDbEntity
  8
0
100
AcDbLine
 62
7
  6
CONTINUOUS
 10
6.5660946719
 20
15.173391804
 11
6.5660946719
 21
15.1555318042
  0
LINE
  5
250
100
AcDbEntity
  8
0
100
AcDbLine
 62
7
  6
CONTINUOUS
 10
6.6408590533
 20
14.978391804
 11
6.6408590533
 21
14.7812639538
  0
LINE
  5
251
100
AcDbEntity
  8
0
100
AcDbLine
 62
7
  6
CONTINUOUS
 10
6.8901079249
 20
14.978391804
 11
6.8901079249
 21
14.7812639538
  0
LINE
  5
252
100
AcDbEntity
  8
0
100
AcDbLine
 62
7
  6
CONTINUOUS
 10
7.1330734878
 20
15.1077914659
 11
7.1330734878
 21
15.1253473292
  0
LINE
  5
253
100
AcDbEntity
  8
0
100
AcDbLine
 62
7
  6
CONTINUOUS
 10
7.1717334891
 20
16.547391804
 11
7.1717334891
 21
15.1479718282
  0
LINE
  5
254
100
AcDbEntity
  8
0
100
AcDbLine
 62
7
  6
CONTINUOUS
 10
7.2179834891
 20
15.103391804
 11
7.2179834891
 21
14.7812639538
  0
LINE
  5
255
100
AcDbEntity
  8
0
100
AcDbLine
 62
7
  6
CONTINUOUS
 10
6.5786591724
 20
12.115066241
 11
6.5766804199
 21
12.0886828746
  0
LINE
  5
256
100
AcDbEntity
  8
0
100
AcDbLine
 62
7
  6
CONTINUOUS
 10
6.5862285455
 20
12.1801336296
 11
6.5842447388
 21
12.1536828746
  0
LINE
  5
257
100
AcDbEntity
  8
0
100
AcDbLine
 62
7
  6
CONTINUOUS
 10
6.8234495947
 20
12.1443527983
 11
6.8215243504
 21
12.1186828746
  0
LINE
  5
258
100
AcDbEntity
  8
0
100
AcDbLine
 62
7
  6
CONTINUOUS
 10
6.8238404127
 20
12.0945637051
 11
6.8215243504
 21
12.0636828746
  0
LINE
  5
259
100
AcDbEntity
  8
0
100
AcDbLine
 62
7
  6
CONTINUOUS
 10
7.0608728587
 20
12.1812681636
 11
7.0588039621
 21
12.1536828746
  0
LINE
  5
25A
100
AcDbEntity
  8
0
100
AcDbLine
 62
7
  6
CONTINUOUS
 10
7.0684345958
 20
12.1162337394
 11
7.066368281
 21
12.0886828746
  0
LINE
  5
25B
100
AcDbEntity
  8
0
100
AcDbLine
 62
7
  6
CONTINUOUS
 10
7.0986278379
 20
12.0817293743
 11
7.0965243504
 21
12.0536828746
  0
LINE
  5
25C
100
AcDbEntity
  8
0
100
AcDbLine
 62
7
  6
CONTINUOUS
 10
7.2997618779
 20
12.1454893341
 11
7.2977513934
 21
12.1186828746
  0
LINE
  5
25D
100
AcDbEntity
  8
0
100
AcDbLine
 62
7
  6
CONTINUOUS
 10
7.3139285328
 20
12.0957386388
 11
7.3115243504
 21
12.0636828746
  0
LINE
  5
25E
100
AcDbEntity
  8
0
100
AcDbLine
 62
7
  6
CONTINUOUS
 10
7.3736770955
 20
12.0823861415
 11
7.3715243504
 21
12.0536828746
  0
LINE
  5
25F
100
AcDbEntity
  8
0
100
AcDbLine
 62
7
  6
CONTINUOUS
 10
16.4444834891
 20
4.827391804
 11
16.3544834891
 21
4.827391804
  0
LINE
  5
260
100
AcDbEntity
  8
0
100
AcDbLine
 62
7
  6
CONTINUOUS
 10
15.0034834891
 20
4.887391804
 11
14.0994834891
 21
4.887391804
  0
LINE
  5
261
100
AcDbEntity
  8
0
100
AcDbLine
 62
9
  6
CONTINUOUS
 10
14.0594834891
 20
4.927391804
 11
15.0434834891
 21
4.927391804
  0
LINE
  5
262
100
AcDbEntity
  8
0
100
AcDbLine
 62
7
  6
CONTINUOUS
 10
16.6804834891
 20
5.100391804
 11
17.2594834891
 21
5.100391804
  0
LINE
  5
263
100
AcDbEntity
  8
0
100
AcDbLine
 62
7
  6
CONTINUOUS
 10
16.6804834891
 20
5.454391804
 11
17.2594834891
 21
5.454391804
  0
LINE
  5
264
100
AcDbEntity
  8
0
100
AcDbLine
 62
7
  6
CONTINUOUS
 10
17.6094834891
 20
4.447391804
 11
17.2777403743
 21
4.4764155658
  0
LINE
  5
265
100
AcDbEntity
  8
0
100
AcDbLine
 62
7
  6
CONTINUOUS
 10
7.1838294128
 20
12.1432196484
 11
7.1856696708
 21
12.1186828746
  0
LINE
  5
266
100
AcDbEntity
  8
0
100
AcDbLine
 62
7
  6
CONTINUOUS
 10
7.197214416
 20
12.0933923657
 11
7.1994426278
 21
12.0636828746
  0
LINE
  5
267
100
AcDbEntity
  8
0
100
AcDbLine
 62
7
  6
CONTINUOUS
 10
7.4125459131
 20
12.1139724045
 11
7.4144426278
 21
12.0886828746
  0
LINE
  5
268
100
AcDbEntity
  8
0
100
AcDbLine
 62
7
  6
CONTINUOUS
 10
7.4090103845
 20
12.1790271489
 11
7.4109112051
 21
12.1536828746
  0
LINE
  5
269
100
AcDbEntity
  8
0
100
AcDbLine
 62
7
  6
CONTINUOUS
 10
7.5559834525
 20
12.0925371547
 11
7.5581475235
 21
12.0636828746
  0
LINE
  5
26A
100
AcDbEntity
  8
0
100
AcDbLine
 62
7
  6
CONTINUOUS
 10
7.6276813368
 20
12.1421667549
 11
7.6294426278
 21
12.1186828746
  0
LINE
  5
26B
100
AcDbEntity
  8
0
100
AcDbLine
 62
7
  6
CONTINUOUS
 10
7.6873008747
 20
12.0922395831
 11
7.6894426278
 21
12.0636828746
  0
LINE
  5
26C
100
AcDbEntity
  8
0
100
AcDbLine
 62
7
  6
CONTINUOUS
 10
7.7877352815
 20
12.1130830231
 11
7.7895652926
 21
12.0886828746
  0
LINE
  5
26D
100
AcDbEntity
  8
0
100
AcDbLine
 62
7
  6
CONTINUOUS
 10
7.842619095
 20
12.1779966461
 11
7.8444426278
 21
12.1536828746
  0
LINE
  5
26E
100
AcDbEntity
  8
0
100
AcDbLine
 62
7
  6
CONTINUOUS
 10
7.4154834891
 20
14.0348047238
 11
7.4154834891
 21
14.3848047238
  0
LINE
  5
26F
100
AcDbEntity
  8
0
100
AcDbLine
 62
7
  6
CONTINUOUS
 10
7.4654834891
 20
13.8058047238
 11
7.4654834891
 21
13.6218047238
  0
LINE
  5
270
100
AcDbEntity
  8
0
100
AcDbLine
 62
7
  6
CONTINUOUS
 10
7.4654834891
 20
13.8458047238
 11
7.4654834891
 21
14.0348047238
  0
LINE
  5
271
100
AcDbEntity
  8
0
100
AcDbLine
 62
7
  6
CONTINUOUS
 10
7.5251453007
 20
12.1823811811
 11
7.5229929277
 21
12.1536828746
  0
LINE
  5
272
100
AcDbEntity
  8
0
100
AcDbLine
 62
7
  6
CONTINUOUS
 10
7.5286731921
 20
12.1173340968
 11
7.5265243504
 21
12.0886828746
  0
LINE
  5
273
100
AcDbEntity
  8
0
100
AcDbLine
 62
7
  6
CONTINUOUS
 10
7.6726981084
 20
12.0966010384
 11
7.6702292462
 21
12.0636828746
  0
LINE
  5
274
100
AcDbEntity
  8
0
100
AcDbLine
 62
7
  6
CONTINUOUS
 10
7.7436144957
 20
12.146551478
 11
7.7415243504
 21
12.1186828746
  0
LINE
  5
275
100
AcDbEntity
  8
0
100
AcDbLine
 62
7
  6
CONTINUOUS
 10
7.8023715976
 20
12.0749795038
 11
7.8015243504
 21
12.0636828746
  0
LINE
  5
276
100
AcDbEntity
  8
0
100
AcDbLine
 62
7
  6
CONTINUOUS
 10
7.9038633098
 20
12.1182334689
 11
7.9016470152
 21
12.0886828746
  0
LINE
  5
277
100
AcDbEntity
  8
0
100
AcDbLine
 62
7
  6
CONTINUOUS
 10
7.9587549069
 20
12.1834236274
 11
7.9565243504
 21
12.1536828746
  0
LINE
  5
278
100
AcDbEntity
  8
0
100
AcDbLine
 62
7
  6
CONTINUOUS
 10
8.1247595569
 20
12.1474659283
 11
8.1226008278
 21
12.1186828746
  0
LINE
  5
279
100
AcDbEntity
  8
0
100
AcDbLine
 62
7
  6
CONTINUOUS
 10
8.1487513529
 20
12.118821636
 11
8.1464909457
 21
12.0886828746
  0
LINE
  5
27A
100
AcDbEntity
  8
0
100
AcDbLine
 62
7
  6
CONTINUOUS
 10
8.2338000936
 20
12.119026116
 11
8.2315243504
 21
12.0886828746
  0
LINE
  5
27B
100
AcDbEntity
  8
0
100
AcDbLine
 62
7
  6
CONTINUOUS
 10
8.3427507995
 20
12.1843491757
 11
8.3404508269
 21
12.1536828746
  0
LINE
  5
27C
100
AcDbEntity
  8
0
100
AcDbLine
 62
7
  6
CONTINUOUS
 10
9.7054834891
 20
12.3661444697
 11
9.4196142538
 21
12.2010977897
  0
LINE
  5
27D
100
AcDbEntity
  8
0
100
AcDbLine
 62
7
  6
CONTINUOUS
 10
16.4444834891
 20
5.727391804
 11
16.3544834891
 21
5.727391804
  0
LINE
  5
27E
100
AcDbEntity
  8
0
100
AcDbLine
 62
7
  6
CONTINUOUS
 10
16.3474885196
 20
4.8281913007
 11
16.2114885196
 21
4.8596913007
  0
LINE
  5
27F
100
AcDbEntity
  8
0
100
AcDbLine
 62
7
  6
CONTINUOUS
 10
8.0088254502
 20
12.1412649411
 11
8.0105191052
 21
12.1186828746
  0
LINE
  5
280
100
AcDbEntity
  8
0
100
AcDbLine
 62
7
  6
CONTINUOUS
 10
8.0332000844
 20
12.1048047238
 11
8.0344092231
 21
12.0886828746
  0
LINE
  5
281
100
AcDbEntity
  8
0
100
AcDbLine
 62
7
  6
CONTINUOUS
 10
8.2266138411
 20
12.1770863832
 11
8.2283691043
 21
12.1536828746
  0
LINE
  5
282
100
AcDbEntity
  8
0
100
AcDbLine
 62
7
  6
CONTINUOUS
 10
8.3013452321
 20
12.1398047238
 11
8.3029293708
 21
12.1186828746
  0
LINE
  5
283
100
AcDbEntity
  8
0
100
AcDbLine
 62
7
  6
CONTINUOUS
 10
8.4851367915
 20
12.1401409637
 11
8.4867461482
 21
12.1186828746
  0
LINE
  5
284
100
AcDbEntity
  8
0
100
AcDbLine
 62
7
  6
CONTINUOUS
 10
8.5442122837
 20
12.1763351599
 11
8.5459112051
 21
12.1536828746
  0
LINE
  5
285
100
AcDbEntity
  8
0
100
AcDbLine
 62
7
  6
CONTINUOUS
 10
8.7815339232
 20
12.1757747877
 11
8.7831908167
 21
12.1536828746
  0
LINE
  5
286
100
AcDbEntity
  8
0
100
AcDbLine
 62
7
  6
CONTINUOUS
 10
8.2254834891
 20
13.5618047238
 11
8.2254834891
 21
13.3308047238
  0
LINE
  5
287
100
AcDbEntity
  8
0
100
AcDbLine
 62
7
  6
CONTINUOUS
 10
8.8594834891
 20
-2.052608196
 11
8.8594834891
 21
-2.552608196
  0
LINE
  5
288
100
AcDbEntity
  8
0
100
AcDbLine
 62
7
  6
CONTINUOUS
 10
8.4172225602
 20
12.1481690988
 11
8.4150110934
 21
12.1186828746
  0
LINE
  5
289
100
AcDbEntity
  8
0
100
AcDbLine
 62
7
  6
CONTINUOUS
 10
8.6004120095
 20
12.1398047238
 11
8.5988278708
 21
12.1186828746
  0
LINE
  5
28A
100
AcDbEntity
  8
0
100
AcDbLine
 62
7
  6
CONTINUOUS
 10
8.6603504408
 20
12.1851163831
 11
8.6579929277
 21
12.1536828746
  0
LINE
  5
28B
100
AcDbEntity
  8
0
100
AcDbLine
 62
7
  6
CONTINUOUS
 10
8.6637803528
 20
12.1487629057
 11
8.6615243504
 21
12.1186828746
  0
LINE
  5
28C
100
AcDbEntity
  8
0
100
AcDbLine
 62
7
  6
CONTINUOUS
 10
8.8976731243
 20
12.1856906745
 11
8.8952725393
 21
12.1536828746
  0
LINE
  5
28D
100
AcDbEntity
  8
0
100
AcDbLine
 62
7
  6
CONTINUOUS
 10
9.0443466413
 20
12.1860460368
 11
9.0419194041
 21
12.1536828746
  0
LINE
  5
28E
100
AcDbEntity
  8
0
100
AcDbLine
 62
7
  6
CONTINUOUS
 10
9.0939606086
 20
12.1861663167
 11
9.0915243504
 21
12.1536828746
  0
LINE
  5
28F
100
AcDbEntity
  8
0
100
AcDbLine
 62
7
  6
CONTINUOUS
 10
17.2594834891
 20
7.017391804
 11
16.8834834891
 21
7.017391804
  0
LINE
  5
290
100
AcDbEntity
  8
0
100
AcDbLine
 62
7
  6
CONTINUOUS
 10
16.8334834891
 20
7.017391804
 11
15.0834834891
 21
7.017391804
  0
LINE
  5
291
100
AcDbEntity
  8
0
100
AcDbLine
 62
7
  6
CONTINUOUS
 10
16.8834834891
 20
7.107391804
 11
16.8334834891
 21
7.107391804
  0
LINE
  5
292
100
AcDbEntity
  8
0
100
AcDbLine
 62
7
  6
CONTINUOUS
 10
8.9282067316
 20
12.1754288728
 11
8.9298376815
 21
12.1536828746
  0
LINE
  5
293
100
AcDbEntity
  8
0
100
AcDbLine
 62
9
  6
CONTINUOUS
 10
9.6654834891
 20
19.041141804
 11
9.6654834891
 21
19.853641804
  0
LINE
  5
294
100
AcDbEntity
  8
0
100
AcDbLine
 62
7
  6
CONTINUOUS
 10
9.7204834891
 20
13.2708047238
 11
9.7204834891
 21
12.3921252319
  0
LINE
  5
295
100
AcDbEntity
  8
0
100
AcDbLine
 62
7
  6
CONTINUOUS
 10
9.8594834891
 20
-2.052608196
 11
9.8594834891
 21
-2.552608196
  0
LINE
  5
296
100
AcDbEntity
  8
0
100
AcDbLine
 62
7
  6
CONTINUOUS
 10
16.8834834891
 20
7.787391804
 11
16.8334834891
 21
7.787391804
  0
LINE
  5
297
100
AcDbEntity
  8
0
100
AcDbLine
 62
9
  6
CONTINUOUS
 10
15.00348349
 20
7.8523663401
 11
14.3097508911
 21
7.8523663401
  0
LINE
  5
298
100
AcDbEntity
  8
0
100
AcDbLine
 62
7
  6
CONTINUOUS
 10
17.2594834891
 20
7.877391804
 11
16.8834834891
 21
7.877391804
  0
LINE
  5
299
100
AcDbEntity
  8
0
100
AcDbLine
 62
7
  6
CONTINUOUS
 10
16.8334834891
 20
7.877391804
 11
15.0834834891
 21
7.877391804
  0
LINE
  5
29A
100
AcDbEntity
  8
0
100
AcDbLine
 62
9
  6
CONTINUOUS
 10
15.0034834891
 20
7.8900383899
 11
14.3097152993
 21
7.8900383899
  0
LINE
  5
29B
100
AcDbEntity
  8
0
100
AcDbLine
 62
9
  6
CONTINUOUS
 10
15.0434834891
 20
8.034391804
 11
14.0594834891
 21
8.034391804
  0
LINE
  5
29C
100
AcDbEntity
  8
0
100
AcDbLine
 62
7
  6
CONTINUOUS
 10
15.0034834891
 20
8.074391804
 11
14.0994834891
 21
8.074391804
  0
LINE
  5
29D
100
AcDbEntity
  8
0
100
AcDbLine
 62
7
  6
CONTINUOUS
 10
3.8254834891
 20
12.3661444697
 11
4.1113527245
 21
12.2010977897
  0
LINE
  5
29E
100
AcDbEntity
  8
0
100
AcDbLine
 62
9
  6
CONTINUOUS
 10
10.8594834891
 20
-1.052608196
 11
10.8594834891
 21
-0.052608196
  0
LINE
  5
29F
100
AcDbEntity
  8
0
100
AcDbLine
 62
7
  6
CONTINUOUS
 10
17.6094834891
 20
10.447391804
 11
17.2777403743
 21
10.4183680423
  0
LINE
  5
2A0
100
AcDbEntity
  8
0
100
AcDbLine
 62
7
  6
CONTINUOUS
 10
6.3680474143
 20
14.6483278789
 11
6.4198897716
 21
14.5964855216
  0
LINE
  5
2A1
100
AcDbEntity
  8
0
100
AcDbLine
 62
9
  6
CONTINUOUS
 10
14.9770442675
 20
7.0342624832
 11
14.2639224492
 21
7.7473843015
  0
LINE
  5
2A2
100
AcDbEntity
  8
0
100
AcDbLine
 62
7
  6
CONTINUOUS
 10
15.0053285274
 20
7.0625467658
 11
14.2922067103
 21
7.7756685829
  0
LINE
  5
2A3
100
AcDbEntity
  8
0
100
AcDbLine
 62
7
  6
CONTINUOUS
 10
16.6804834891
 20
5.502391804
 11
16.4664974482
 21
5.7182180636
  0
LINE
  5
2A4
100
AcDbEntity
  8
0
100
AcDbLine
 62
7
  6
CONTINUOUS
 10
5.2939301878
 20
12.1192214685
 11
5.2971668847
 21
12.119026116
  0
LINE
  5
2A5
100
AcDbEntity
  8
0
100
AcDbLine
 62
7
  6
CONTINUOUS
 10
4.8657403911
 20
12.1488758117
 11
4.8671866255
 21
12.1487629057
  0
LINE
  5
2A6
100
AcDbEntity
  8
0
100
AcDbLine
 62
7
  6
CONTINUOUS
 10
6.5804834891
 20
12.0755060966
 11
6.5685479812
 21
12.0764711735
  0
LINE
  5
2A7
100
AcDbEntity
  8
0
100
AcDbLine
 62
7
  6
CONTINUOUS
 10
14.0594834891
 20
4.927391804
 11
14.0594834891
 21
8.034391804
  0
LINE
  5
2A8
100
AcDbEntity
  8
0
100
AcDbLine
 62
9
  6
CONTINUOUS
 10
14.0994834891
 20
4.887391804
 11
14.0994834891
 21
8.074391804
  0
LINE
  5
2A9
100
AcDbEntity
  8
0
100
AcDbLine
 62
9
  6
CONTINUOUS
 10
14.3097508911
 20
7.8523663401
 11
14.3097510611
 21
7.8900383899
  0
LINE
  5
2AA
100
AcDbEntity
  8
0
100
AcDbLine
 62
9
  6
CONTINUOUS
 10
14.2922067204
 20
7.7756685727
 11
14.2639224492
 21
7.7473843015
  0
LINE
  5
2AB
100
AcDbEntity
  8
0
100
AcDbLine
 62
7
  6
CONTINUOUS
 10
6.9504834891
 20
12.0755060966
 11
6.9624189971
 21
12.0764711735
  0
LINE
  5
2AC
100
AcDbEntity
  8
0
100
AcDbLine
 62
7
  6
CONTINUOUS
 10
8.6652265872
 20
12.1488758117
 11
8.6637803528
 21
12.1487629057
  0
LINE
  5
2AD
100
AcDbEntity
  8
0
100
AcDbLine
 62
7
  6
CONTINUOUS
 10
8.2370367904
 20
12.1192214685
 11
8.2338000936
 21
12.119026116
  0
LINE
  5
2AE
100
AcDbEntity
  8
0
100
AcDbLine
 62
7
  6
CONTINUOUS
 10
7.3565663608
 20
12.0398047238
 11
7.2744006175
 21
12.0398047238
  0
LINE
  5
2AF
100
AcDbEntity
  8
0
100
AcDbLine
 62
7
  6
CONTINUOUS
 10
7.0815663608
 20
12.0398047238
 11
6.9994006175
 21
12.0398047238
  0
LINE
  5
2B0
100
AcDbEntity
  8
0
100
AcDbLine
 62
7
  6
CONTINUOUS
 10
6.5315663608
 20
12.0398047238
 11
6.4494006175
 21
12.0398047238
  0
LINE
  5
2B1
100
AcDbEntity
  8
0
100
AcDbLine
 62
7
  6
CONTINUOUS
 10
6.2565663608
 20
12.0398047238
 11
6.1744006175
 21
12.0398047238
  0
LINE
  5
2B2
100
AcDbEntity
  8
0
100
AcDbLine
 62
7
  6
CONTINUOUS
 10
7.7865663608
 20
12.0498047238
 11
7.7044006175
 21
12.0498047238
  0
LINE
  5
2B3
100
AcDbEntity
  8
0
100
AcDbLine
 62
7
  6
CONTINUOUS
 10
7.6552712565
 20
12.0498047238
 11
7.5731055132
 21
12.0498047238
  0
LINE
  5
2B4
100
AcDbEntity
  8
0
100
AcDbLine
 62
7
  6
CONTINUOUS
 10
7.2965663608
 20
12.0498047238
 11
7.2144006175
 21
12.0498047238
  0
LINE
  5
2B5
100
AcDbEntity
  8
0
100
AcDbLine
 62
7
  6
CONTINUOUS
 10
6.8065663608
 20
12.0498047238
 11
6.7244006175
 21
12.0498047238
  0
LINE
  5
2B6
100
AcDbEntity
  8
0
100
AcDbLine
 62
7
  6
CONTINUOUS
 10
6.3165663608
 20
12.0498047238
 11
6.2344006175
 21
12.0498047238
  0
LINE
  5
2B7
100
AcDbEntity
  8
0
100
AcDbLine
 62
7
  6
CONTINUOUS
 10
5.9578614651
 20
12.0498047238
 11
5.8756957218
 21
12.0498047238
  0
LINE
  5
2B8
100
AcDbEntity
  8
0
100
AcDbLine
 62
7
  6
CONTINUOUS
 10
5.8265663608
 20
12.0498047238
 11
5.7444006175
 21
12.0498047238
  0
LINE
  5
2B9
100
AcDbEntity
  8
0
100
AcDbLine
 62
9
  6
CONTINUOUS
 10
7.3715243504
 20
12.0536828746
 11
7.3066176436
 21
12.0536828746
  0
LINE
  5
2BA
100
AcDbEntity
  8
0
100
AcDbLine
 62
9
  6
CONTINUOUS
 10
7.0965243504
 20
12.0536828746
 11
6.9844426278
 21
12.0536828746
  0
LINE
  5
2BB
100
AcDbEntity
  8
0
100
AcDbLine
 62
9
  6
CONTINUOUS
 10
6.5465243504
 20
12.0536828746
 11
6.4344426278
 21
12.0536828746
  0
LINE
  5
2BC
100
AcDbEntity
  8
0
100
AcDbLine
 62
9
  6
CONTINUOUS
 10
6.2243493346
 20
12.0536828746
 11
6.1594426278
 21
12.0536828746
  0
LINE
  5
2BD
100
AcDbEntity
  8
0
100
AcDbLine
 62
9
  6
CONTINUOUS
 10
7.8015243504
 20
12.0636828746
 11
7.6894426278
 21
12.0636828746
  0
LINE
  5
2BE
100
AcDbEntity
  8
0
100
AcDbLine
 62
9
  6
CONTINUOUS
 10
7.6702292462
 20
12.0636828746
 11
7.5581475235
 21
12.0636828746
  0
LINE
  5
2BF
100
AcDbEntity
  8
0
100
AcDbLine
 62
9
  6
CONTINUOUS
 10
7.3115243504
 20
12.0636828746
 11
7.1994426278
 21
12.0636828746
  0
LINE
  5
2C0
100
AcDbEntity
  8
0
100
AcDbLine
 62
9
  6
CONTINUOUS
 10
6.8215243504
 20
12.0636828746
 11
6.7094426278
 21
12.0636828746
  0
LINE
  5
2C1
100
AcDbEntity
  8
0
100
AcDbLine
 62
9
  6
CONTINUOUS
 10
6.3315243504
 20
12.0636828746
 11
6.2194426278
 21
12.0636828746
  0
LINE
  5
2C2
100
AcDbEntity
  8
0
100
AcDbLine
 62
9
  6
CONTINUOUS
 10
5.9728194547
 20
12.0636828746
 11
5.8607377321
 21
12.0636828746
  0
LINE
  5
2C3
100
AcDbEntity
  8
0
100
AcDbLine
 62
9
  6
CONTINUOUS
 10
5.8415243504
 20
12.0636828746
 11
5.7294426278
 21
12.0636828746
  0
LINE
  5
2C4
100
AcDbEntity
  8
0
100
AcDbLine
 62
7
  6
CONTINUOUS
 10
8.2165663608
 20
12.0748047238
 11
8.1344006175
 21
12.0748047238
  0
LINE
  5
2C5
100
AcDbEntity
  8
0
100
AcDbLine
 62
7
  6
CONTINUOUS
 10
8.1315329561
 20
12.0748047238
 11
8.0493672128
 21
12.0748047238
  0
LINE
  5
2C6
100
AcDbEntity
  8
0
100
AcDbLine
 62
7
  6
CONTINUOUS
 10
7.8866890256
 20
12.0748047238
 11
7.8045232823
 21
12.0748047238
  0
LINE
  5
2C7
100
AcDbEntity
  8
0
100
AcDbLine
 62
7
  6
CONTINUOUS
 10
7.5115663608
 20
12.0748047238
 11
7.4294006175
 21
12.0748047238
  0
LINE
  5
2C8
100
AcDbEntity
  8
0
100
AcDbLine
 62
7
  6
CONTINUOUS
 10
7.0514102913
 20
12.0748047238
 11
6.969244548
 21
12.0748047238
  0
LINE
  5
2C9
100
AcDbEntity
  8
0
100
AcDbLine
 62
7
  6
CONTINUOUS
 10
6.5617224303
 20
12.0748047238
 11
6.479556687
 21
12.0748047238
  0
LINE
  5
2CA
100
AcDbEntity
  8
0
100
AcDbLine
 62
7
  6
CONTINUOUS
 10
6.1015663608
 20
12.0748047238
 11
6.0194006175
 21
12.0748047238
  0
LINE
  5
2CB
100
AcDbEntity
  8
0
100
AcDbLine
 62
7
  6
CONTINUOUS
 10
5.726443696
 20
12.0748047238
 11
5.6442779527
 21
12.0748047238
  0
LINE
  5
2CC
100
AcDbEntity
  8
0
100
AcDbLine
 62
7
  6
CONTINUOUS
 10
5.4815997655
 20
12.0748047238
 11
5.3994340222
 21
12.0748047238
  0
LINE
  5
2CD
100
AcDbEntity
  8
0
100
AcDbLine
 62
7
  6
CONTINUOUS
 10
5.3965663608
 20
12.0748047238
 11
5.3144006175
 21
12.0748047238
  0
LINE
  5
2CE
100
AcDbEntity
  8
0
100
AcDbLine
 62
7
  6
CONTINUOUS
 10
6.5804834891
 20
12.0755060966
 11
6.7085558862
 21
12.0755060966
  0
LINE
  5
2CF
100
AcDbEntity
  8
0
100
AcDbLine
 62
7
  6
CONTINUOUS
 10
6.8224110921
 20
12.0755060966
 11
6.9504834891
 21
12.0755060966
  0
LINE
  5
2D0
100
AcDbEntity
  8
0
100
AcDbLine
 62
7
  6
CONTINUOUS
 10
6.3378577663
 20
12.0787125743
 11
6.4325654003
 21
12.0787125743
  0
LINE
  5
2D1
100
AcDbEntity
  8
0
100
AcDbLine
 62
7
  6
CONTINUOUS
 10
6.5718093671
 20
12.0787125743
 11
6.7083154003
 21
12.0787125743
  0
LINE
  5
2D2
100
AcDbEntity
  8
0
100
AcDbLine
 62
7
  6
CONTINUOUS
 10
6.8226515779
 20
12.0787125743
 11
6.9591576112
 21
12.0787125743
  0
LINE
  5
2D3
100
AcDbEntity
  8
0
100
AcDbLine
 62
7
  6
CONTINUOUS
 10
7.0984015779
 20
12.0787125743
 11
7.193109212
 21
12.0787125743
  0
LINE
  5
2D4
100
AcDbEntity
  8
0
100
AcDbLine
 62
9
  6
CONTINUOUS
 10
6.3326641037
 20
12.0788795841
 11
6.4325528746
 21
12.0788795841
  0
LINE
  5
2D5
100
AcDbEntity
  8
0
100
AcDbLine
 62
9
  6
CONTINUOUS
 10
6.5719934018
 20
12.0788795841
 11
6.7083028746
 21
12.0788795841
  0
LINE
  5
2D6
100
AcDbEntity
  8
0
100
AcDbLine
 62
9
  6
CONTINUOUS
 10
6.8226641037
 20
12.0788795841
 11
6.9589735765
 21
12.0788795841
  0
LINE
  5
2D7
100
AcDbEntity
  8
0
100
AcDbLine
 62
9
  6
CONTINUOUS
 10
7.0984141037
 20
12.0788795841
 11
7.1983028746
 21
12.0788795841
  0
LINE
  5
2D8
100
AcDbEntity
  8
0
100
AcDbLine
 62
9
  6
CONTINUOUS
 10
7.3808021453
 20
12.0825648446
 11
7.3129404982
 21
12.0825648446
  0
LINE
  5
2D9
100
AcDbEntity
  8
0
100
AcDbLine
 62
9
  6
CONTINUOUS
 10
7.1980264801
 20
12.0825648446
 11
7.0645461011
 21
12.0825648446
  0
LINE
  5
2DA
100
AcDbEntity
  8
0
100
AcDbLine
 62
9
  6
CONTINUOUS
 10
6.9561087382
 20
12.0825648446
 11
6.8229404982
 21
12.0825648446
  0
LINE
  5
2DB
100
AcDbEntity
  8
0
100
AcDbLine
 62
9
  6
CONTINUOUS
 10
6.7080264801
 20
12.0825648446
 11
6.5748582401
 21
12.0825648446
  0
LINE
  5
2DC
100
AcDbEntity
  8
0
100
AcDbLine
 62
9
  6
CONTINUOUS
 10
6.4664208771
 20
12.0825648446
 11
6.3329404982
 21
12.0825648446
  0
LINE
  5
2DD
100
AcDbEntity
  8
0
100
AcDbLine
 62
9
  6
CONTINUOUS
 10
6.2180264801
 20
12.0825648446
 11
6.1501648329
 21
12.0825648446
  0
LINE
  5
2DE
100
AcDbEntity
  8
0
100
AcDbLine
 62
9
  6
CONTINUOUS
 10
8.2315243504
 20
12.0886828746
 11
8.0344092231
 21
12.0886828746
  0
LINE
  5
2DF
100
AcDbEntity
  8
0
100
AcDbLine
 62
9
  6
CONTINUOUS
 10
7.9016470152
 20
12.0886828746
 11
7.7895652926
 21
12.0886828746
  0
LINE
  5
2E0
100
AcDbEntity
  8
0
100
AcDbLine
 62
9
  6
CONTINUOUS
 10
7.5265243504
 20
12.0886828746
 11
7.4144426278
 21
12.0886828746
  0
LINE
  5
2E1
100
AcDbEntity
  8
0
100
AcDbLine
 62
9
  6
CONTINUOUS
 10
7.066368281
 20
12.0886828746
 11
6.9542865583
 21
12.0886828746
  0
LINE
  5
2E2
100
AcDbEntity
  8
0
100
AcDbLine
 62
9
  6
CONTINUOUS
 10
6.5766804199
 20
12.0886828746
 11
6.4645986973
 21
12.0886828746
  0
LINE
  5
2E3
100
AcDbEntity
  8
0
100
AcDbLine
 62
9
  6
CONTINUOUS
 10
6.1165243504
 20
12.0886828746
 11
6.0044426278
 21
12.0886828746
  0
LINE
  5
2E4
100
AcDbEntity
  8
0
100
AcDbLine
 62
9
  6
CONTINUOUS
 10
5.7414016856
 20
12.0886828746
 11
5.629319963
 21
12.0886828746
  0
LINE
  5
2E5
100
AcDbEntity
  8
0
100
AcDbLine
 62
9
  6
CONTINUOUS
 10
5.4965577551
 20
12.0886828746
 11
5.2994426278
 21
12.0886828746
  0
LINE
  5
2E6
100
AcDbEntity
  8
0
100
AcDbLine
 62
7
  6
CONTINUOUS
 10
5.9749217863
 20
12.0917139622
 11
6.0042152963
 21
12.0917139622
  0
LINE
  5
2E7
100
AcDbEntity
  8
0
100
AcDbLine
 62
7
  6
CONTINUOUS
 10
6.116751682
 20
12.0917139622
 11
6.2173402963
 21
12.0917139622
  0
LINE
  5
2E8
100
AcDbEntity
  8
0
100
AcDbLine
 62
7
  6
CONTINUOUS
 10
6.333626682
 20
12.0917139622
 11
6.4643713657
 21
12.0917139622
  0
LINE
  5
2E9
100
AcDbEntity
  8
0
100
AcDbLine
 62
7
  6
CONTINUOUS
 10
6.5769077515
 20
12.0917139622
 11
6.7073402963
 21
12.0917139622
  0
LINE
  5
2EA
100
AcDbEntity
  8
0
100
AcDbLine
 62
7
  6
CONTINUOUS
 10
6.823626682
 20
12.0917139622
 11
6.9540592268
 21
12.0917139622
  0
LINE
  5
2EB
100
AcDbEntity
  8
0
100
AcDbLine
 62
7
  6
CONTINUOUS
 10
7.0665956125
 20
12.0917139622
 11
7.1973402963
 21
12.0917139622
  0
LINE
  5
2EC
100
AcDbEntity
  8
0
100
AcDbLine
 62
7
  6
CONTINUOUS
 10
7.313626682
 20
12.0917139622
 11
7.4142152963
 21
12.0917139622
  0
LINE
  5
2ED
100
AcDbEntity
  8
0
100
AcDbLine
 62
7
  6
CONTINUOUS
 10
7.526751682
 20
12.0917139622
 11
7.556045192
 21
12.0917139622
  0
LINE
  5
2EE
100
AcDbEntity
  8
0
100
AcDbLine
 62
9
  6
CONTINUOUS
 10
5.8383913676
 20
12.0924366123
 11
5.8585812018
 21
12.0924366123
  0
LINE
  5
2EF
100
AcDbEntity
  8
0
100
AcDbLine
 62
9
  6
CONTINUOUS
 10
5.9749835257
 20
12.0924366123
 11
6.0041610975
 21
12.0924366123
  0
LINE
  5
2F0
100
AcDbEntity
  8
0
100
AcDbLine
 62
9
  6
CONTINUOUS
 10
6.1168058808
 20
12.0924366123
 11
6.2172860975
 21
12.0924366123
  0
LINE
  5
2F1
100
AcDbEntity
  8
0
100
AcDbLine
 62
9
  6
CONTINUOUS
 10
6.3336808808
 20
12.0924366123
 11
6.464317167
 21
12.0924366123
  0
LINE
  5
2F2
100
AcDbEntity
  8
0
100
AcDbLine
 62
9
  6
CONTINUOUS
 10
6.5769619503
 20
12.0924366123
 11
6.7072860975
 21
12.0924366123
  0
LINE
  5
2F3
100
AcDbEntity
  8
0
100
AcDbLine
 62
9
  6
CONTINUOUS
 10
6.8236808808
 20
12.0924366123
 11
6.954005028
 21
12.0924366123
  0
LINE
  5
2F4
100
AcDbEntity
  8
0
100
AcDbLine
 62
9
  6
CONTINUOUS
 10
7.0666498113
 20
12.0924366123
 11
7.1972860975
 21
12.0924366123
  0
LINE
  5
2F5
100
AcDbEntity
  8
0
100
AcDbLine
 62
9
  6
CONTINUOUS
 10
7.3136808808
 20
12.0924366123
 11
7.4141610975
 21
12.0924366123
  0
LINE
  5
2F6
100
AcDbEntity
  8
0
100
AcDbLine
 62
9
  6
CONTINUOUS
 10
7.5268058808
 20
12.0924366123
 11
7.5559834525
 21
12.0924366123
  0
LINE
  5
2F7
100
AcDbEntity
  8
0
100
AcDbLine
 62
9
  6
CONTINUOUS
 10
7.6723857765
 20
12.0924366123
 11
7.6925756107
 21
12.0924366123
  0
LINE
  5
2F8
100
AcDbEntity
  8
0
100
AcDbLine
 62
9
  6
CONTINUOUS
 10
7.7889320949
 20
12.0971255102
 11
7.5271575481
 21
12.0971255102
  0
LINE
  5
2F9
100
AcDbEntity
  8
0
100
AcDbLine
 62
9
  6
CONTINUOUS
 10
7.4138094302
 20
12.0971255102
 11
7.0670014786
 21
12.0971255102
  0
LINE
  5
2FA
100
AcDbEntity
  8
0
100
AcDbLine
 62
9
  6
CONTINUOUS
 10
6.9536533607
 20
12.0971255102
 11
6.5773136176
 21
12.0971255102
  0
LINE
  5
2FB
100
AcDbEntity
  8
0
100
AcDbLine
 62
9
  6
CONTINUOUS
 10
6.4639654996
 20
12.0971255102
 11
6.1171575481
 21
12.0971255102
  0
LINE
  5
2FC
100
AcDbEntity
  8
0
100
AcDbLine
 62
9
  6
CONTINUOUS
 10
6.0038094302
 20
12.0971255102
 11
5.7420348833
 21
12.0971255102
  0
LINE
  5
2FD
100
AcDbEntity
  8
0
100
AcDbLine
 62
7
  6
CONTINUOUS
 10
8.6465663608
 20
12.1048047238
 11
8.5017041378
 21
12.1048047238
  0
LINE
  5
2FE
100
AcDbEntity
  8
0
100
AcDbLine
 62
7
  6
CONTINUOUS
 10
8.4000531038
 20
12.1048047238
 11
8.3178873604
 21
12.1048047238
  0
LINE
  5
2FF
100
AcDbEntity
  8
0
100
AcDbLine
 62
7
  6
CONTINUOUS
 10
8.1076428382
 20
12.1048047238
 11
8.0254770949
 21
12.1048047238
  0
LINE
  5
300
100
AcDbEntity
  8
0
100
AcDbLine
 62
7
  6
CONTINUOUS
 10
7.7265663608
 20
12.1048047238
 11
7.6444006175
 21
12.1048047238
  0
LINE
  5
301
100
AcDbEntity
  8
0
100
AcDbLine
 62
7
  6
CONTINUOUS
 10
7.2827934038
 20
12.1048047238
 11
7.2006276605
 21
12.1048047238
  0
LINE
  5
302
100
AcDbEntity
  8
0
100
AcDbLine
 62
7
  6
CONTINUOUS
 10
6.8065663608
 20
12.1048047238
 11
6.7244006175
 21
12.1048047238
  0
LINE
  5
303
100
AcDbEntity
  8
0
100
AcDbLine
 62
7
  6
CONTINUOUS
 10
6.3303393178
 20
12.1048047238
 11
6.2481735745
 21
12.1048047238
  0
LINE
  5
304
100
AcDbEntity
  8
0
100
AcDbLine
 62
7
  6
CONTINUOUS
 10
5.8865663608
 20
12.1048047238
 11
5.8044006175
 21
12.1048047238
  0
LINE
  5
305
100
AcDbEntity
  8
0
100
AcDbLine
 62
7
  6
CONTINUOUS
 10
5.5054898834
 20
12.1048047238
 11
5.4233241401
 21
12.1048047238
  0
LINE
  5
306
100
AcDbEntity
  8
0
100
AcDbLine
 62
7
  6
CONTINUOUS
 10
5.2130796178
 20
12.1048047238
 11
5.1309138745
 21
12.1048047238
  0
LINE
  5
307
100
AcDbEntity
  8
0
100
AcDbLine
 62
7
  6
CONTINUOUS
 10
5.0292628404
 20
12.1048047238
 11
4.8844006175
 21
12.1048047238
  0
LINE
  5
308
100
AcDbEntity
  8
0
100
AcDbLine
 62
7
  6
CONTINUOUS
 10
5.5175644009
 20
12.110930605
 11
5.6276513832
 21
12.110930605
  0
LINE
  5
309
100
AcDbEntity
  8
0
100
AcDbLine
 62
7
  6
CONTINUOUS
 10
5.7430702654
 20
12.110930605
 11
5.7923261
 21
12.110930605
  0
LINE
  5
30A
100
AcDbEntity
  8
0
100
AcDbLine
 62
7
  6
CONTINUOUS
 10
5.8986408783
 20
12.110930605
 11
6.002774048
 21
12.110930605
  0
LINE
  5
30B
100
AcDbEntity
  8
0
100
AcDbLine
 62
7
  6
CONTINUOUS
 10
6.1181929302
 20
12.110930605
 11
6.236099057
 21
12.110930605
  0
LINE
  5
30C
100
AcDbEntity
  8
0
100
AcDbLine
 62
7
  6
CONTINUOUS
 10
6.3424138353
 20
12.110930605
 11
6.4629301175
 21
12.110930605
  0
LINE
  5
30D
100
AcDbEntity
  8
0
100
AcDbLine
 62
7
  6
CONTINUOUS
 10
6.5783489997
 20
12.110930605
 11
6.7123261
 21
12.110930605
  0
LINE
  5
30E
100
AcDbEntity
  8
0
100
AcDbLine
 62
7
  6
CONTINUOUS
 10
6.8186408783
 20
12.110930605
 11
6.9526179786
 21
12.110930605
  0
LINE
  5
30F
100
AcDbEntity
  8
0
100
AcDbLine
 62
7
  6
CONTINUOUS
 10
7.0680368607
 20
12.110930605
 11
7.1885531429
 21
12.110930605
  0
LINE
  5
310
100
AcDbEntity
  8
0
100
AcDbLine
 62
7
  6
CONTINUOUS
 10
7.2948679213
 20
12.110930605
 11
7.412774048
 21
12.110930605
  0
LINE
  5
311
100
AcDbEntity
  8
0
100
AcDbLine
 62
7
  6
CONTINUOUS
 10
7.5281929302
 20
12.110930605
 11
7.6323261
 21
12.110930605
  0
LINE
  5
312
100
AcDbEntity
  8
0
100
AcDbLine
 62
7
  6
CONTINUOUS
 10
7.7386408783
 20
12.110930605
 11
7.7878967128
 21
12.110930605
  0
LINE
  5
313
100
AcDbEntity
  8
0
100
AcDbLine
 62
7
  6
CONTINUOUS
 10
7.903315595
 20
12.110930605
 11
8.0134025773
 21
12.110930605
  0
LINE
  5
314
100
AcDbEntity
  8
0
100
AcDbLine
 62
9
  6
CONTINUOUS
 10
5.7432316968
 20
12.1124745168
 11
5.7913208986
 21
12.1124745168
  0
LINE
  5
315
100
AcDbEntity
  8
0
100
AcDbLine
 62
9
  6
CONTINUOUS
 10
5.8996460797
 20
12.1124745168
 11
6.0026582547
 21
12.1124745168
  0
LINE
  5
316
100
AcDbEntity
  8
0
100
AcDbLine
 62
9
  6
CONTINUOUS
 10
6.1183087236
 20
12.1124745168
 11
6.2350938556
 21
12.1124745168
  0
LINE
  5
317
100
AcDbEntity
  8
0
100
AcDbLine
 62
9
  6
CONTINUOUS
 10
6.3434190367
 20
12.1124745168
 11
6.4628143241
 21
12.1124745168
  0
LINE
  5
318
100
AcDbEntity
  8
0
100
AcDbLine
 62
9
  6
CONTINUOUS
 10
6.5784647931
 20
12.1124745168
 11
6.7113208986
 21
12.1124745168
  0
LINE
  5
319
100
AcDbEntity
  8
0
100
AcDbLine
 62
9
  6
CONTINUOUS
 10
6.8196460797
 20
12.1124745168
 11
6.9525021852
 21
12.1124745168
  0
LINE
  5
31A
100
AcDbEntity
  8
0
100
AcDbLine
 62
9
  6
CONTINUOUS
 10
7.0681526541
 20
12.1124745168
 11
7.1875479416
 21
12.1124745168
  0
LINE
  5
31B
100
AcDbEntity
  8
0
100
AcDbLine
 62
9
  6
CONTINUOUS
 10
7.2958731227
 20
12.1124745168
 11
7.4126582547
 21
12.1124745168
  0
LINE
  5
31C
100
AcDbEntity
  8
0
100
AcDbLine
 62
9
  6
CONTINUOUS
 10
7.5283087236
 20
12.1124745168
 11
7.6313208986
 21
12.1124745168
  0
LINE
  5
31D
100
AcDbEntity
  8
0
100
AcDbLine
 62
9
  6
CONTINUOUS
 10
7.7396460797
 20
12.1124745168
 11
7.7877352815
 21
12.1124745168
  0
LINE
  5
31E
100
AcDbEntity
  8
0
100
AcDbLine
 62
9
  6
CONTINUOUS
 10
8.6615243504
 20
12.1186828746
 11
8.4867461482
 21
12.1186828746
  0
LINE
  5
31F
100
AcDbEntity
  8
0
100
AcDbLine
 62
9
  6
CONTINUOUS
 10
8.4150110934
 20
12.1186828746
 11
8.3029293708
 21
12.1186828746
  0
LINE
  5
320
100
AcDbEntity
  8
0
100
AcDbLine
 62
9
  6
CONTINUOUS
 10
8.1226008278
 20
12.1186828746
 11
8.0105191052
 21
12.1186828746
  0
LINE
  5
321
100
AcDbEntity
  8
0
100
AcDbLine
 62
9
  6
CONTINUOUS
 10
7.7415243504
 20
12.1186828746
 11
7.6294426278
 21
12.1186828746
  0
LINE
  5
322
100
AcDbEntity
  8
0
100
AcDbLine
 62
9
  6
CONTINUOUS
 10
7.2977513934
 20
12.1186828746
 11
7.1856696708
 21
12.1186828746
  0
LINE
  5
323
100
AcDbEntity
  8
0
100
AcDbLine
 62
9
  6
CONTINUOUS
 10
6.8215243504
 20
12.1186828746
 11
6.7094426278
 21
12.1186828746
  0
LINE
  5
324
100
AcDbEntity
  8
0
100
AcDbLine
 62
9
  6
CONTINUOUS
 10
6.3452973075
 20
12.1186828746
 11
6.2332155848
 21
12.1186828746
  0
LINE
  5
325
100
AcDbEntity
  8
0
100
AcDbLine
 62
9
  6
CONTINUOUS
 10
5.9015243504
 20
12.1186828746
 11
5.7894426278
 21
12.1186828746
  0
LINE
  5
326
100
AcDbEntity
  8
0
100
AcDbLine
 62
9
  6
CONTINUOUS
 10
5.5204478731
 20
12.1186828746
 11
5.4083661504
 21
12.1186828746
  0
LINE
  5
327
100
AcDbEntity
  8
0
100
AcDbLine
 62
9
  6
CONTINUOUS
 10
5.2280376075
 20
12.1186828746
 11
5.1159558849
 21
12.1186828746
  0
LINE
  5
328
100
AcDbEntity
  8
0
100
AcDbLine
 62
9
  6
CONTINUOUS
 10
5.0442208301
 20
12.1186828746
 11
4.8694426278
 21
12.1186828746
  0
LINE
  5
329
100
AcDbEntity
  8
0
100
AcDbLine
 62
9
  6
CONTINUOUS
 10
8.2370367904
 20
12.1192214685
 11
8.1226008278
 21
12.1192214685
  0
LINE
  5
32A
100
AcDbEntity
  8
0
100
AcDbLine
 62
9
  6
CONTINUOUS
 10
8.0104787107
 20
12.1192214685
 11
7.7415243504
 21
12.1192214685
  0
LINE
  5
32B
100
AcDbEntity
  8
0
100
AcDbLine
 62
9
  6
CONTINUOUS
 10
7.6294426278
 20
12.1192214685
 11
7.2977513934
 21
12.1192214685
  0
LINE
  5
32C
100
AcDbEntity
  8
0
100
AcDbLine
 62
9
  6
CONTINUOUS
 10
7.1856696708
 20
12.1192214685
 11
6.8215243504
 21
12.1192214685
  0
LINE
  5
32D
100
AcDbEntity
  8
0
100
AcDbLine
 62
9
  6
CONTINUOUS
 10
6.7094426278
 20
12.1192214685
 11
6.3452973075
 21
12.1192214685
  0
LINE
  5
32E
100
AcDbEntity
  8
0
100
AcDbLine
 62
9
  6
CONTINUOUS
 10
6.2332155848
 20
12.1192214685
 11
5.9015243504
 21
12.1192214685
  0
LINE
  5
32F
100
AcDbEntity
  8
0
100
AcDbLine
 62
9
  6
CONTINUOUS
 10
5.7894426278
 20
12.1192214685
 11
5.5204882676
 21
12.1192214685
  0
LINE
  5
330
100
AcDbEntity
  8
0
100
AcDbLine
 62
9
  6
CONTINUOUS
 10
5.4083661504
 20
12.1192214685
 11
5.2939301878
 21
12.1192214685
  0
LINE
  5
331
100
AcDbEntity
  8
0
100
AcDbLine
 62
7
  6
CONTINUOUS
 10
5.0554603031
 20
12.1373737035
 11
5.1145540727
 21
12.1373737035
  0
LINE
  5
332
100
AcDbEntity
  8
0
100
AcDbLine
 62
7
  6
CONTINUOUS
 10
5.2294394196
 20
12.1373737035
 11
5.4069643383
 21
12.1373737035
  0
LINE
  5
333
100
AcDbEntity
  8
0
100
AcDbLine
 62
7
  6
CONTINUOUS
 10
5.5218496852
 20
12.1373737035
 11
5.7880408157
 21
12.1373737035
  0
LINE
  5
334
100
AcDbEntity
  8
0
100
AcDbLine
 62
7
  6
CONTINUOUS
 10
5.9029261626
 20
12.1373737035
 11
6.2318137727
 21
12.1373737035
  0
LINE
  5
335
100
AcDbEntity
  8
0
100
AcDbLine
 62
7
  6
CONTINUOUS
 10
6.3466991196
 20
12.1373737035
 11
6.7080408157
 21
12.1373737035
  0
LINE
  5
336
100
AcDbEntity
  8
0
100
AcDbLine
 62
7
  6
CONTINUOUS
 10
6.8229261626
 20
12.1373737035
 11
7.1842678586
 21
12.1373737035
  0
LINE
  5
337
100
AcDbEntity
  8
0
100
AcDbLine
 62
7
  6
CONTINUOUS
 10
7.2991532056
 20
12.1373737035
 11
7.6280408157
 21
12.1373737035
  0
LINE
  5
338
100
AcDbEntity
  8
0
100
AcDbLine
 62
7
  6
CONTINUOUS
 10
7.7429261626
 20
12.1373737035
 11
8.009117293
 21
12.1373737035
  0
LINE
  5
339
100
AcDbEntity
  8
0
100
AcDbLine
 62
7
  6
CONTINUOUS
 10
8.12400264
 20
12.1373737035
 11
8.3015275586
 21
12.1373737035
  0
LINE
  5
33A
100
AcDbEntity
  8
0
100
AcDbLine
 62
7
  6
CONTINUOUS
 10
8.4164129056
 20
12.1373737035
 11
8.4755066752
 21
12.1373737035
  0
LINE
  5
33B
100
AcDbEntity
  8
0
100
AcDbLine
 62
7
  6
CONTINUOUS
 10
9.0765663608
 20
12.1398047238
 11
8.9447956711
 21
12.1398047238
  0
LINE
  5
33C
100
AcDbEntity
  8
0
100
AcDbLine
 62
7
  6
CONTINUOUS
 10
8.8803145496
 20
12.1398047238
 11
8.7981488063
 21
12.1398047238
  0
LINE
  5
33D
100
AcDbEntity
  8
0
100
AcDbLine
 62
7
  6
CONTINUOUS
 10
8.643034938
 20
12.1398047238
 11
8.5608691947
 21
12.1398047238
  0
LINE
  5
33E
100
AcDbEntity
  8
0
100
AcDbLine
 62
7
  6
CONTINUOUS
 10
8.3254928372
 20
12.1398047238
 11
8.2433270939
 21
12.1398047238
  0
LINE
  5
33F
100
AcDbEntity
  8
0
100
AcDbLine
 62
7
  6
CONTINUOUS
 10
7.9415663608
 20
12.1398047238
 11
7.8594006175
 21
12.1398047238
  0
LINE
  5
340
100
AcDbEntity
  8
0
100
AcDbLine
 62
7
  6
CONTINUOUS
 10
7.508034938
 20
12.1398047238
 11
7.4258691947
 21
12.1398047238
  0
LINE
  5
341
100
AcDbEntity
  8
0
100
AcDbLine
 62
7
  6
CONTINUOUS
 10
7.0438459724
 20
12.1398047238
 11
6.9616802291
 21
12.1398047238
  0
LINE
  5
342
100
AcDbEntity
  8
0
100
AcDbLine
 62
7
  6
CONTINUOUS
 10
6.5692867492
 20
12.1398047238
 11
6.4871210059
 21
12.1398047238
  0
LINE
  5
343
100
AcDbEntity
  8
0
100
AcDbLine
 62
7
  6
CONTINUOUS
 10
6.1050977836
 20
12.1398047238
 11
6.0229320402
 21
12.1398047238
  0
LINE
  5
344
100
AcDbEntity
  8
0
100
AcDbLine
 62
7
  6
CONTINUOUS
 10
5.6715663608
 20
12.1398047238
 11
5.5894006175
 21
12.1398047238
  0
LINE
  5
345
100
AcDbEntity
  8
0
100
AcDbLine
 62
7
  6
CONTINUOUS
 10
5.2876398844
 20
12.1398047238
 11
5.205474141
 21
12.1398047238
  0
LINE
  5
346
100
AcDbEntity
  8
0
100
AcDbLine
 62
7
  6
CONTINUOUS
 10
4.9700977836
 20
12.1398047238
 11
4.8879320402
 21
12.1398047238
  0
LINE
  5
347
100
AcDbEntity
  8
0
100
AcDbLine
 62
7
  6
CONTINUOUS
 10
4.7328181719
 20
12.1398047238
 11
4.6506524286
 21
12.1398047238
  0
LINE
  5
348
100
AcDbEntity
  8
0
100
AcDbLine
 62
7
  6
CONTINUOUS
 10
4.5861713071
 20
12.1398047238
 11
4.4544006175
 21
12.1398047238
  0
LINE
  5
349
100
AcDbEntity
  8
0
100
AcDbLine
 62
9
  6
CONTINUOUS
 10
5.0458301868
 20
12.1400477139
 11
5.1143535219
 21
12.1400477139
  0
LINE
  5
34A
100
AcDbEntity
  8
0
100
AcDbLine
 62
9
  6
CONTINUOUS
 10
5.2902134902
 20
12.1400477139
 11
5.4067637875
 21
12.1400477139
  0
LINE
  5
34B
100
AcDbEntity
  8
0
100
AcDbLine
 62
9
  6
CONTINUOUS
 10
5.522050236
 20
12.1400477139
 11
5.5868270116
 21
12.1400477139
  0
LINE
  5
34C
100
AcDbEntity
  8
0
100
AcDbLine
 62
9
  6
CONTINUOUS
 10
5.6741399667
 20
12.1400477139
 11
5.7878402649
 21
12.1400477139
  0
LINE
  5
34D
100
AcDbEntity
  8
0
100
AcDbLine
 62
9
  6
CONTINUOUS
 10
5.9031267134
 20
12.1400477139
 11
6.0203584344
 21
12.1400477139
  0
LINE
  5
34E
100
AcDbEntity
  8
0
100
AcDbLine
 62
9
  6
CONTINUOUS
 10
6.1076713894
 20
12.1400477139
 11
6.2316132219
 21
12.1400477139
  0
LINE
  5
34F
100
AcDbEntity
  8
0
100
AcDbLine
 62
9
  6
CONTINUOUS
 10
6.3468996704
 20
12.1400477139
 11
6.4845474
 21
12.1400477139
  0
LINE
  5
350
100
AcDbEntity
  8
0
100
AcDbLine
 62
9
  6
CONTINUOUS
 10
6.5718603551
 20
12.1400477139
 11
6.7078402649
 21
12.1400477139
  0
LINE
  5
351
100
AcDbEntity
  8
0
100
AcDbLine
 62
9
  6
CONTINUOUS
 10
6.8231267134
 20
12.1400477139
 11
6.9591066232
 21
12.1400477139
  0
LINE
  5
352
100
AcDbEntity
  8
0
100
AcDbLine
 62
9
  6
CONTINUOUS
 10
7.0464195783
 20
12.1400477139
 11
7.1840673079
 21
12.1400477139
  0
LINE
  5
353
100
AcDbEntity
  8
0
100
AcDbLine
 62
9
  6
CONTINUOUS
 10
7.2993537564
 20
12.1400477139
 11
7.4232955888
 21
12.1400477139
  0
LINE
  5
354
100
AcDbEntity
  8
0
100
AcDbLine
 62
9
  6
CONTINUOUS
 10
7.5106085439
 20
12.1400477139
 11
7.6278402649
 21
12.1400477139
  0
LINE
  5
355
100
AcDbEntity
  8
0
100
AcDbLine
 62
9
  6
CONTINUOUS
 10
7.7431267134
 20
12.1400477139
 11
7.8568270116
 21
12.1400477139
  0
LINE
  5
356
100
AcDbEntity
  8
0
100
AcDbLine
 62
9
  6
CONTINUOUS
 10
7.9441399667
 20
12.1400477139
 11
8.0089167423
 21
12.1400477139
  0
LINE
  5
357
100
AcDbEntity
  8
0
100
AcDbLine
 62
9
  6
CONTINUOUS
 10
8.1242031908
 20
12.1400477139
 11
8.240753488
 21
12.1400477139
  0
LINE
  5
358
100
AcDbEntity
  8
0
100
AcDbLine
 62
9
  6
CONTINUOUS
 10
8.4166134564
 20
12.1400477139
 11
8.4851367915
 21
12.1400477139
  0
LINE
  5
359
100
AcDbEntity
  8
0
100
AcDbLine
 62
9
  6
CONTINUOUS
 10
8.6652265872
 20
12.1488758117
 11
8.6568047448
 21
12.1488758117
  0
LINE
  5
35A
100
AcDbEntity
  8
0
100
AcDbLine
 62
9
  6
CONTINUOUS
 10
8.5470993879
 20
12.1488758117
 11
8.339262644
 21
12.1488758117
  0
LINE
  5
35B
100
AcDbEntity
  8
0
100
AcDbLine
 62
9
  6
CONTINUOUS
 10
8.2295572871
 20
12.1488758117
 11
7.9553361676
 21
12.1488758117
  0
LINE
  5
35C
100
AcDbEntity
  8
0
100
AcDbLine
 62
9
  6
CONTINUOUS
 10
7.8456308107
 20
12.1488758117
 11
7.5218047448
 21
12.1488758117
  0
LINE
  5
35D
100
AcDbEntity
  8
0
100
AcDbLine
 62
9
  6
CONTINUOUS
 10
7.4120993879
 20
12.1488758117
 11
7.0576157792
 21
12.1488758117
  0
LINE
  5
35E
100
AcDbEntity
  8
0
100
AcDbLine
 62
9
  6
CONTINUOUS
 10
6.9479104223
 20
12.1488758117
 11
6.583056556
 21
12.1488758117
  0
LINE
  5
35F
100
AcDbEntity
  8
0
100
AcDbLine
 62
9
  6
CONTINUOUS
 10
6.473351199
 20
12.1488758117
 11
6.1188675904
 21
12.1488758117
  0
LINE
  5
360
100
AcDbEntity
  8
0
100
AcDbLine
 62
9
  6
CONTINUOUS
 10
6.0091622334
 20
12.1488758117
 11
5.6853361676
 21
12.1488758117
  0
LINE
  5
361
100
AcDbEntity
  8
0
100
AcDbLine
 62
9
  6
CONTINUOUS
 10
5.5756308107
 20
12.1488758117
 11
5.3014096912
 21
12.1488758117
  0
LINE
  5
362
100
AcDbEntity
  8
0
100
AcDbLine
 62
9
  6
CONTINUOUS
 10
5.1917043342
 20
12.1488758117
 11
4.9838675904
 21
12.1488758117
  0
LINE
  5
363
100
AcDbEntity
  8
0
100
AcDbLine
 62
9
  6
CONTINUOUS
 10
4.8741622334
 20
12.1488758117
 11
4.8657403911
 21
12.1488758117
  0
LINE
  5
364
100
AcDbEntity
  8
0
100
AcDbLine
 62
9
  6
CONTINUOUS
 10
9.0915243504
 20
12.1536828746
 11
8.9298376815
 21
12.1536828746
  0
LINE
  5
365
100
AcDbEntity
  8
0
100
AcDbLine
 62
9
  6
CONTINUOUS
 10
8.8952725393
 20
12.1536828746
 11
8.7831908167
 21
12.1536828746
  0
LINE
  5
366
100
AcDbEntity
  8
0
100
AcDbLine
 62
9
  6
CONTINUOUS
 10
8.6579929277
 20
12.1536828746
 11
8.5459112051
 21
12.1536828746
  0
LINE
  5
367
100
AcDbEntity
  8
0
100
AcDbLine
 62
9
  6
CONTINUOUS
 10
8.3404508269
 20
12.1536828746
 11
8.2283691043
 21
12.1536828746
  0
LINE
  5
368
100
AcDbEntity
  8
0
100
AcDbLine
 62
9
  6
CONTINUOUS
 10
7.9565243504
 20
12.1536828746
 11
7.8444426278
 21
12.1536828746
  0
LINE
  5
369
100
AcDbEntity
  8
0
100
AcDbLine
 62
9
  6
CONTINUOUS
 10
7.5229929277
 20
12.1536828746
 11
7.4109112051
 21
12.1536828746
  0
LINE
  5
36A
100
AcDbEntity
  8
0
100
AcDbLine
 62
9
  6
CONTINUOUS
 10
7.0588039621
 20
12.1536828746
 11
6.9467222394
 21
12.1536828746
  0
LINE
  5
36B
100
AcDbEntity
  8
0
100
AcDbLine
 62
9
  6
CONTINUOUS
 10
6.5842447388
 20
12.1536828746
 11
6.4721630162
 21
12.1536828746
  0
LINE
  5
36C
100
AcDbEntity
  8
0
100
AcDbLine
 62
9
  6
CONTINUOUS
 10
6.1200557732
 20
12.1536828746
 11
6.0079740506
 21
12.1536828746
  0
LINE
  5
36D
100
AcDbEntity
  8
0
100
AcDbLine
 62
9
  6
CONTINUOUS
 10
5.6865243504
 20
12.1536828746
 11
5.5744426278
 21
12.1536828746
  0
LINE
  5
36E
100
AcDbEntity
  8
0
100
AcDbLine
 62
9
  6
CONTINUOUS
 10
5.302597874
 20
12.1536828746
 11
5.1905161514
 21
12.1536828746
  0
LINE
  5
36F
100
AcDbEntity
  8
0
100
AcDbLine
 62
9
  6
CONTINUOUS
 10
4.9850557732
 20
12.1536828746
 11
4.8729740506
 21
12.1536828746
  0
LINE
  5
370
100
AcDbEntity
  8
0
100
AcDbLine
 62
9
  6
CONTINUOUS
 10
4.7477761616
 20
12.1536828746
 11
4.635694439
 21
12.1536828746
  0
LINE
  5
371
100
AcDbEntity
  8
0
100
AcDbLine
 62
9
  6
CONTINUOUS
 10
4.6011292968
 20
12.1536828746
 11
4.4394426278
 21
12.1536828746
  0
LINE
  5
372
100
AcDbEntity
  8
0
100
AcDbLine
 62
9
  6
CONTINUOUS
 10
8.7820067859
 20
12.1694699512
 11
8.6591769584
 21
12.1694699512
  0
LINE
  5
373
100
AcDbEntity
  8
0
100
AcDbLine
 62
9
  6
CONTINUOUS
 10
8.5447271743
 20
12.1694699512
 11
8.3416348576
 21
12.1694699512
  0
LINE
  5
374
100
AcDbEntity
  8
0
100
AcDbLine
 62
9
  6
CONTINUOUS
 10
8.2271850735
 20
12.1694699512
 11
7.9577083812
 21
12.1694699512
  0
LINE
  5
375
100
AcDbEntity
  8
0
100
AcDbLine
 62
9
  6
CONTINUOUS
 10
7.8432585971
 20
12.1694699512
 11
7.5241769584
 21
12.1694699512
  0
LINE
  5
376
100
AcDbEntity
  8
0
100
AcDbLine
 62
9
  6
CONTINUOUS
 10
7.4097271743
 20
12.1694699512
 11
7.0599879928
 21
12.1694699512
  0
LINE
  5
377
100
AcDbEntity
  8
0
100
AcDbLine
 62
9
  6
CONTINUOUS
 10
6.9455382087
 20
12.1694699512
 11
6.5854287696
 21
12.1694699512
  0
LINE
  5
378
100
AcDbEntity
  8
0
100
AcDbLine
 62
9
  6
CONTINUOUS
 10
6.4709789855
 20
12.1694699512
 11
6.121239804
 21
12.1694699512
  0
LINE
  5
379
100
AcDbEntity
  8
0
100
AcDbLine
 62
9
  6
CONTINUOUS
 10
6.0067900198
 20
12.1694699512
 11
5.6877083812
 21
12.1694699512
  0
LINE
  5
37A
100
AcDbEntity
  8
0
100
AcDbLine
 62
9
  6
CONTINUOUS
 10
5.5732585971
 20
12.1694699512
 11
5.3037819048
 21
12.1694699512
  0
LINE
  5
37B
100
AcDbEntity
  8
0
100
AcDbLine
 62
9
  6
CONTINUOUS
 10
5.1893321206
 20
12.1694699512
 11
4.986239804
 21
12.1694699512
  0
LINE
  5
37C
100
AcDbEntity
  8
0
100
AcDbLine
 62
9
  6
CONTINUOUS
 10
4.8717900198
 20
12.1694699512
 11
4.7489601923
 21
12.1694699512
  0
LINE
  5
37D
100
AcDbEntity
  8
0
100
AcDbLine
 62
7
  6
CONTINUOUS
 10
4.7490798512
 20
12.1710654033
 11
4.8716703609
 21
12.1710654033
  0
LINE
  5
37E
100
AcDbEntity
  8
0
100
AcDbLine
 62
7
  6
CONTINUOUS
 10
4.9863594629
 20
12.1710654033
 11
5.1892124617
 21
12.1710654033
  0
LINE
  5
37F
100
AcDbEntity
  8
0
100
AcDbLine
 62
7
  6
CONTINUOUS
 10
5.3039015637
 20
12.1710654033
 11
5.5731389382
 21
12.1710654033
  0
LINE
  5
380
100
AcDbEntity
  8
0
100
AcDbLine
 62
7
  6
CONTINUOUS
 10
5.6878280401
 20
12.1710654033
 11
6.0066703609
 21
12.1710654033
  0
LINE
  5
381
100
AcDbEntity
  8
0
100
AcDbLine
 62
7
  6
CONTINUOUS
 10
6.1213594629
 20
12.1710654033
 11
6.4708593266
 21
12.1710654033
  0
LINE
  5
382
100
AcDbEntity
  8
0
100
AcDbLine
 62
7
  6
CONTINUOUS
 10
6.5855484285
 20
12.1710654033
 11
6.9454185498
 21
12.1710654033
  0
LINE
  5
383
100
AcDbEntity
  8
0
100
AcDbLine
 62
7
  6
CONTINUOUS
 10
7.0601076517
 20
12.1710654033
 11
7.4096075154
 21
12.1710654033
  0
LINE
  5
384
100
AcDbEntity
  8
0
100
AcDbLine
 62
7
  6
CONTINUOUS
 10
7.5242966173
 20
12.1710654033
 11
7.8431389382
 21
12.1710654033
  0
LINE
  5
385
100
AcDbEntity
  8
0
100
AcDbLine
 62
7
  6
CONTINUOUS
 10
7.9578280401
 20
12.1710654033
 11
8.2270654146
 21
12.1710654033
  0
LINE
  5
386
100
AcDbEntity
  8
0
100
AcDbLine
 62
7
  6
CONTINUOUS
 10
8.3417545165
 20
12.1710654033
 11
8.5446075154
 21
12.1710654033
  0
LINE
  5
387
100
AcDbEntity
  8
0
100
AcDbLine
 62
7
  6
CONTINUOUS
 10
8.6592966173
 20
12.1710654033
 11
8.781887127
 21
12.1710654033
  0
LINE
  5
388
100
AcDbEntity
  8
0
100
AcDbLine
 62
9
  6
CONTINUOUS
 10
4.6027602466
 20
12.1751792959
 11
4.6340822074
 21
12.1751792959
  0
LINE
  5
389
100
AcDbEntity
  8
0
100
AcDbLine
 62
9
  6
CONTINUOUS
 10
4.7494330551
 20
12.1751792959
 11
4.871361819
 21
12.1751792959
  0
LINE
  5
38A
100
AcDbEntity
  8
0
100
AcDbLine
 62
9
  6
CONTINUOUS
 10
4.9866680048
 20
12.1751792959
 11
5.1889039198
 21
12.1751792959
  0
LINE
  5
38B
100
AcDbEntity
  8
0
100
AcDbLine
 62
9
  6
CONTINUOUS
 10
5.3042101056
 20
12.1751792959
 11
5.5728303962
 21
12.1751792959
  0
LINE
  5
38C
100
AcDbEntity
  8
0
100
AcDbLine
 62
9
  6
CONTINUOUS
 10
5.688136582
 20
12.1751792959
 11
6.006361819
 21
12.1751792959
  0
LINE
  5
38D
100
AcDbEntity
  8
0
100
AcDbLine
 62
9
  6
CONTINUOUS
 10
6.1216680048
 20
12.1751792959
 11
6.4705507846
 21
12.1751792959
  0
LINE
  5
38E
100
AcDbEntity
  8
0
100
AcDbLine
 62
9
  6
CONTINUOUS
 10
6.5858569704
 20
12.1751792959
 11
6.9451100078
 21
12.1751792959
  0
LINE
  5
38F
100
AcDbEntity
  8
0
100
AcDbLine
 62
9
  6
CONTINUOUS
 10
7.0604161937
 20
12.1751792959
 11
7.4092989735
 21
12.1751792959
  0
LINE
  5
390
100
AcDbEntity
  8
0
100
AcDbLine
 62
9
  6
CONTINUOUS
 10
7.5246051593
 20
12.1751792959
 11
7.8428303962
 21
12.1751792959
  0
LINE
  5
391
100
AcDbEntity
  8
0
100
AcDbLine
 62
9
  6
CONTINUOUS
 10
7.958136582
 20
12.1751792959
 11
8.2267568727
 21
12.1751792959
  0
LINE
  5
392
100
AcDbEntity
  8
0
100
AcDbLine
 62
9
  6
CONTINUOUS
 10
8.3420630585
 20
12.1751792959
 11
8.5442989735
 21
12.1751792959
  0
LINE
  5
393
100
AcDbEntity
  8
0
100
AcDbLine
 62
9
  6
CONTINUOUS
 10
8.6596051593
 20
12.1751792959
 11
8.7815339232
 21
12.1751792959
  0
LINE
  5
394
100
AcDbEntity
  8
0
100
AcDbLine
 62
9
  6
CONTINUOUS
 10
8.8968847709
 20
12.1751792959
 11
8.9282067316
 21
12.1751792959
  0
LINE
  5
395
100
AcDbEntity
  8
0
100
AcDbLine
 62
7
  6
CONTINUOUS
 10
4.1194820397
 20
12.1978759203
 11
9.4114849386
 21
12.1978759203
  0
LINE
  5
396
100
AcDbEntity
  8
0
100
AcDbLine
 62
9
  6
CONTINUOUS
 10
9.4196142538
 20
12.2010977897
 11
4.1113527245
 21
12.2010977897
  0
LINE
  5
397
100
AcDbEntity
  8
0
100
AcDbLine
 62
9
  6
CONTINUOUS
 10
9.7054834891
 20
12.3661444697
 11
3.8254834891
 21
12.3661444697
  0
LINE
  5
398
100
AcDbEntity
  8
0
100
AcDbLine
 62
9
  6
CONTINUOUS
 10
9.7204834891
 20
12.3921252319
 11
3.8104834891
 21
12.3921252319
  0
LINE
  5
399
100
AcDbEntity
  8
0
100
AcDbLine
 62
7
  6
CONTINUOUS
 10
6.3795602359
 20
15.1616561514
 11
6.3592334891
 21
15.173391804
  0
LINE
  5
39A
100
AcDbEntity
  8
0
100
AcDbLine
 62
7
  6
CONTINUOUS
 10
6.3597098512
 20
15.1117062404
 11
6.374093373
 21
15.103391804
  0
LINE
  5
39B
100
AcDbEntity
  8
0
100
AcDbLine
 62
7
  6
CONTINUOUS
 10
7.1412093036
 20
15.103391804
 11
7.1330734878
 21
15.1080955991
  0
LINE
  5
39C
100
AcDbEntity
  8
0
100
AcDbLine
 62
9
  6
CONTINUOUS
 10
15.0034834891
 20
4.887391804
 11
15.0034834891
 21
7.0148979557
  0
LINE
  5
39D
100
AcDbEntity
  8
0
100
AcDbLine
 62
9
  6
CONTINUOUS
 10
15.00348349
 20
7.8523663401
 11
15.0034834891
 21
8.074391804
  0
LINE
  5
39E
100
AcDbEntity
  8
0
100
AcDbLine
 62
7
  6
CONTINUOUS
 10
15.0434834891
 20
8.034391804
 11
15.0434834891
 21
7.910874274
  0
LINE
  5
39F
100
AcDbEntity
  8
0
100
AcDbLine
 62
7
  6
CONTINUOUS
 10
15.0434834891
 20
6.983909334
 11
15.0434834891
 21
4.927391804
  0
LINE
  5
3A0
100
AcDbEntity
  8
0
100
AcDbLine
 62
9
  6
CONTINUOUS
 10
15.0834834891
 20
7.877391804
 11
15.0834834891
 21
7.8714289575
  0
LINE
  5
3A1
100
AcDbEntity
  8
0
100
AcDbLine
 62
9
  6
CONTINUOUS
 10
15.0834834891
 20
7.0233546506
 11
15.0834834891
 21
7.017391804
  0
LINE
  5
3A2
100
AcDbEntity
  8
0
100
AcDbLine
 62
9
  6
CONTINUOUS
 10
15.0053285388
 20
7.0625467544
 11
14.9770442675
 21
7.0342624832
  0
LINE
  5
3A3
100
AcDbEntity
  8
0
100
AcDbLine
 62
9
  6
CONTINUOUS
 10
9.7204834891
 20
13.2708047238
 11
3.8104834891
 21
13.2708047238
  0
LINE
  5
3A4
100
AcDbEntity
  8
0
100
AcDbLine
 62
7
  6
CONTINUOUS
 10
9.6904834891
 20
13.3008047238
 11
3.8404834891
 21
13.3008047238
  0
LINE
  5
3A5
100
AcDbEntity
  8
0
100
AcDbLine
 62
9
  6
CONTINUOUS
 10
5.3054834891
 20
13.3308047238
 11
8.2254834891
 21
13.3308047238
  0
LINE
  5
3A6
100
AcDbEntity
  8
0
100
AcDbLine
 62
9
  6
CONTINUOUS
 10
8.2254834891
 20
13.5618047238
 11
5.3054834891
 21
13.5618047238
  0
LINE
  5
3A7
100
AcDbEntity
  8
0
100
AcDbLine
 62
7
  6
CONTINUOUS
 10
8.1954834891
 20
13.5918047238
 11
5.3354834891
 21
13.5918047238
  0
LINE
  5
3A8
100
AcDbEntity
  8
0
100
AcDbLine
 62
7
  6
CONTINUOUS
 10
16.1874834891
 20
4.8898919577
 11
16.1874834891
 21
5.6648916504
  0
LINE
  5
3A9
100
AcDbEntity
  8
0
100
AcDbLine
 62
9
  6
CONTINUOUS
 10
16.2114885196
 20
4.8596913007
 11
16.2114885196
 21
5.6950923074
  0
LINE
  5
3AA
100
AcDbEntity
  8
0
100
AcDbLine
 62
9
  6
CONTINUOUS
 10
15.0214215462
 20
7.0499912347
 11
15.0034834891
 21
7.0148979557
  0
LINE
  5
3AB
100
AcDbEntity
  8
0
100
AcDbLine
 62
9
  6
CONTINUOUS
 10
6.0654834891
 20
13.6218047238
 11
7.4654834891
 21
13.6218047238
  0
LINE
  5
3AC
100
AcDbEntity
  8
0
100
AcDbLine
 62
9
  6
CONTINUOUS
 10
7.4654834891
 20
13.8058047238
 11
6.0654834891
 21
13.8058047238
  0
LINE
  5
3AD
100
AcDbEntity
  8
0
100
AcDbLine
 62
7
  6
CONTINUOUS
 10
6.0854834891
 20
13.8258047238
 11
7.4454834891
 21
13.8258047238
  0
LINE
  5
3AE
100
AcDbEntity
  8
0
100
AcDbLine
 62
9
  6
CONTINUOUS
 10
6.0654834891
 20
13.8458047238
 11
7.4654834891
 21
13.8458047238
  0
LINE
  5
3AF
100
AcDbEntity
  8
0
100
AcDbLine
 62
7
  6
CONTINUOUS
 10
7.4654834891
 20
14.0348047238
 11
7.4154834891
 21
14.0348047238
  0
LINE
  5
3B0
100
AcDbEntity
  8
0
100
AcDbLine
 62
7
  6
CONTINUOUS
 10
6.1154834891
 20
14.0348047238
 11
6.0654834891
 21
14.0348047238
  0
LINE
  5
3B1
100
AcDbEntity
  8
0
100
AcDbLine
 62
7
  6
CONTINUOUS
 10
7.4154834891
 20
14.3848047238
 11
6.1154834891
 21
14.3848047238
  0
LINE
  5
3B2
100
AcDbEntity
  8
0
100
AcDbLine
 62
9
  6
CONTINUOUS
 10
6.4198642533
 20
14.4833229299
 11
7.1111027249
 21
14.4833229299
  0
LINE
  5
3B3
100
AcDbEntity
  8
0
100
AcDbLine
 62
9
  6
CONTINUOUS
 10
16.3474885196
 20
4.8281913007
 11
16.3474885196
 21
5.7265923074
  0
LINE
  5
3B4
100
AcDbEntity
  8
0
100
AcDbLine
 62
9
  6
CONTINUOUS
 10
16.3544834891
 20
4.827391804
 11
16.3544834891
 21
5.727391804
  0
LINE
  5
3B5
100
AcDbEntity
  8
0
100
AcDbLine
 62
9
  6
CONTINUOUS
 10
16.4444834891
 20
4.827391804
 11
16.4444834891
 21
5.727391804
  0
LINE
  5
3B6
100
AcDbEntity
  8
0
100
AcDbLine
 62
9
  6
CONTINUOUS
 10
16.4664974482
 20
4.8365655445
 11
16.4664974482
 21
5.7182180636
  0
LINE
  5
3B7
100
AcDbEntity
  8
0
100
AcDbLine
 62
7
  6
CONTINUOUS
 10
16.6804834891
 20
5.0523921627
 11
16.6804834891
 21
5.5023914454
  0
LINE
  5
3B8
100
AcDbEntity
  8
0
100
AcDbLine
 62
7
  6
CONTINUOUS
 10
16.8334834891
 20
7.017391804
 11
16.8334834891
 21
7.877391804
  0
LINE
  5
3B9
100
AcDbEntity
  8
0
100
AcDbLine
 62
7
  6
CONTINUOUS
 10
16.8834834891
 20
7.017391804
 11
16.8834834891
 21
7.877391804
  0
LINE
  5
3BA
100
AcDbEntity
  8
0
100
AcDbLine
 62
9
  6
CONTINUOUS
 10
6.4198897716
 20
14.5964855216
 11
7.1110772067
 21
14.5964855216
  0
LINE
  5
3BB
100
AcDbEntity
  8
0
100
AcDbLine
 62
9
  6
CONTINUOUS
 10
6.3680474143
 20
14.6483278789
 11
7.162919564
 21
14.6483278789
  0
LINE
  5
3BC
100
AcDbEntity
  8
0
100
AcDbLine
 62
9
  6
CONTINUOUS
 10
6.3129834891
 20
14.7812639538
 11
6.6408590533
 21
14.7812639538
  0
LINE
  5
3BD
100
AcDbEntity
  8
0
100
AcDbLine
 62
9
  6
CONTINUOUS
 10
6.8901079249
 20
14.7812639538
 11
7.2179834891
 21
14.7812639538
  0
LINE
  5
3BE
100
AcDbEntity
  8
0
100
AcDbLine
 62
7
  6
CONTINUOUS
 10
6.6408590533
 20
14.978391804
 11
6.8901079249
 21
14.978391804
  0
LINE
  5
3BF
100
AcDbEntity
  8
0
100
AcDbLine
 62
7
  6
CONTINUOUS
 10
6.3129834891
 20
15.103391804
 11
7.2179834891
 21
15.103391804
  0
LINE
  5
3C0
100
AcDbEntity
  8
0
100
AcDbLine
 62
7
  6
CONTINUOUS
 10
6.5660946719
 20
15.173391804
 11
6.3592334891
 21
15.173391804
  0
LINE
  5
3C1
100
AcDbEntity
  8
0
100
AcDbLine
 62
7
  6
CONTINUOUS
 10
17.2594834891
 20
4.4963396327
 11
17.2594834891
 21
10.3984439754
  0
LINE
  5
3C2
100
AcDbEntity
  8
0
100
AcDbLine
 62
9
  6
CONTINUOUS
 10
17.2777403743
 20
4.4764155658
 11
17.2777403743
 21
10.4183680423
  0
LINE
  5
3C3
100
AcDbEntity
  8
0
100
AcDbLine
 62
7
  6
CONTINUOUS
 10
17.2994834891
 20
18.3523918625
 11
17.2994834891
 21
20.5423917456
  0
LINE
  5
3C4
100
AcDbEntity
  8
0
100
AcDbLine
 62
9
  6
CONTINUOUS
 10
17.3294834891
 20
18.322391804
 11
17.3294834891
 21
20.572391804
  0
LINE
  5
3C5
100
AcDbEntity
  8
0
100
AcDbLine
 62
7
  6
CONTINUOUS
 10
17.3594834891
 20
0.342391804
 11
17.3594834891
 21
-1.447608196
  0
LINE
  5
3C6
100
AcDbEntity
  8
0
100
AcDbLine
 62
9
  6
CONTINUOUS
 10
17.3894834891
 20
-1.477608196
 11
17.3894834891
 21
0.372391804
  0
LINE
  5
3C7
100
AcDbEntity
  8
0
100
AcDbLine
 62
7
  6
CONTINUOUS
 10
17.6094834891
 20
-1.477608196
 11
17.6094834891
 21
0.372391804
  0
LINE
  5
3C8
100
AcDbEntity
  8
0
100
AcDbLine
 62
7
  6
CONTINUOUS
 10
17.6094834891
 20
4.4473919799
 11
17.6094834891
 21
10.4473916282
  0
LINE
  5
3C9
100
AcDbEntity
  8
0
100
AcDbLine
 62
7
  6
CONTINUOUS
 10
17.6094834891
 20
18.322391804
 11
17.6094834891
 21
20.572391804
  0
LINE
  5
3CA
100
AcDbEntity
  8
0
100
AcDbLine
 62
7
  6
CONTINUOUS
 10
16.6804834891
 20
5.052391804
 11
16.4664974482
 21
4.8365655445
  0
LINE
  5
3CB
100
AcDbEntity
  8
0
100
AcDbLine
 62
9
  6
CONTINUOUS
 10
7.1717334891
 20
16.547391804
 11
6.3592334891
 21
16.547391804
  0
LINE
  5
3CC
100
AcDbEntity
  8
0
100
AcDbLine
 62
7
  6
CONTINUOUS
 10
17.6094834891
 20
18.322391804
 11
17.3294834891
 21
18.322391804
  0
LINE
  5
3CD
100
AcDbEntity
  8
0
100
AcDbLine
 62
7
  6
CONTINUOUS
 10
17.2994834891
 20
19.041141804
 11
9.6654834891
 21
19.041141804
  0
LINE
  5
3CE
100
AcDbEntity
  8
0
100
AcDbLine
 62
7
  6
CONTINUOUS
 10
17.2994834891
 20
19.853641804
 11
9.6654834891
 21
19.853641804
  0
LINE
  5
3CF
100
AcDbEntity
  8
0
100
AcDbLine
 62
7
  6
CONTINUOUS
 10
17.6094834891
 20
20.572391804
 11
17.3294834891
 21
20.572391804
  0
ARC
  5
3D0
100
AcDbEntity
  8
0
100
AcDbCircle
 62
7
  6
CONTINUOUS
 10
3.8404834891
 20
12.3921252319
 40
0.03
100
AcDbArc
 50
180.0
 51
240.0000000021
  0
ARC
  5
3D1
100
AcDbEntity
  8
0
100
AcDbCircle
 62
7
  6
CONTINUOUS
 10
4.1263527245
 20
12.2270785519
 40
0.03
100
AcDbArc
 50
240.000000002
 51
256.7604517071
  0
ARC
  5
3D2
100
AcDbEntity
  8
0
100
AcDbCircle
 62
7
  6
CONTINUOUS
 10
5.1309138745
 20
12.1198047238
 40
0.015
100
AcDbArc
 50
184.2891533288
 51
270.0
  0
ARC
  5
3D3
100
AcDbEntity
  8
0
100
AcDbCircle
 62
7
  6
CONTINUOUS
 10
5.2130796178
 20
12.1198047238
 40
0.015
100
AcDbArc
 50
270.0
 51
355.7108466712
  0
ARC
  5
3D4
100
AcDbEntity
  8
0
100
AcDbCircle
 62
7
  6
CONTINUOUS
 10
4.9470970971
 20
12.1198047238
 40
0.015
100
AcDbArc
 50
184.2891533288
 51
270.0
  0
ARC
  5
3D5
100
AcDbEntity
  8
0
100
AcDbCircle
 62
7
  6
CONTINUOUS
 10
5.0292628404
 20
12.1198047238
 40
0.015
100
AcDbArc
 50
270.0
 51
355.7108466712
  0
ARC
  5
3D6
100
AcDbEntity
  8
0
100
AcDbCircle
 62
7
  6
CONTINUOUS
 10
4.8844006175
 20
12.1198047238
 40
0.015
100
AcDbArc
 50
184.2891533288
 51
270.0
  0
ARC
  5
3D7
100
AcDbEntity
  8
0
100
AcDbCircle
 62
7
  6
CONTINUOUS
 10
4.4544006175
 20
12.1548047238
 40
0.015
100
AcDbArc
 50
184.2891533288
 51
270.0
  0
ARC
  5
3D8
100
AcDbEntity
  8
0
100
AcDbCircle
 62
7
  6
CONTINUOUS
 10
4.5861713071
 20
12.1548047238
 40
0.015
100
AcDbArc
 50
270.0
 51
355.7108466712
  0
ARC
  5
3D9
100
AcDbEntity
  8
0
100
AcDbCircle
 62
7
  6
CONTINUOUS
 10
4.5040055638
 20
12.1548047238
 40
0.015
100
AcDbArc
 50
184.2891533288
 51
270.0
  0
ARC
  5
3DA
100
AcDbEntity
  8
0
100
AcDbCircle
 62
7
  6
CONTINUOUS
 10
4.7328181719
 20
12.1548047238
 40
0.015
100
AcDbArc
 50
270.0
 51
355.7108466712
  0
ARC
  5
3DB
100
AcDbEntity
  8
0
100
AcDbCircle
 62
7
  6
CONTINUOUS
 10
4.6506524286
 20
12.1548047238
 40
0.015
100
AcDbArc
 50
184.2891533288
 51
270.0
  0
ARC
  5
3DC
100
AcDbEntity
  8
0
100
AcDbCircle
 62
7
  6
CONTINUOUS
 10
4.9700977836
 20
12.1548047238
 40
0.015
100
AcDbArc
 50
270.0
 51
355.7108466712
  0
ARC
  5
3DD
100
AcDbEntity
  8
0
100
AcDbCircle
 62
7
  6
CONTINUOUS
 10
4.8879320402
 20
12.1548047238
 40
0.015
100
AcDbArc
 50
184.2891533288
 51
270.0
  0
ARC
  5
3DE
100
AcDbEntity
  8
0
100
AcDbCircle
 62
7
  6
CONTINUOUS
 10
5.205474141
 20
12.1548047238
 40
0.015
100
AcDbArc
 50
184.2891533288
 51
270.0
  0
ARC
  5
3DF
100
AcDbEntity
  8
0
100
AcDbCircle
 62
7
  6
CONTINUOUS
 10
4.6452176072
 20
13.1710654033
 40
1.0
100
AcDbArc
 50
267.5520868017
 51
269.3791378081
  0
ARC
  5
3E0
100
AcDbEntity
  8
0
100
AcDbCircle
 62
7
  6
CONTINUOUS
 10
5.0554603031
 20
13.1373737035
 40
1.0
100
AcDbArc
 50
269.4370126836
 51
270.0
  0
ARC
  5
3E1
100
AcDbEntity
  8
0
100
AcDbCircle
 62
7
  6
CONTINUOUS
 10
4.9436021338
 20
13.145839978
 40
1.0
100
AcDbArc
 50
258.7557154425
 51
265.5343308342
  0
ARC
  5
3E2
100
AcDbEntity
  8
0
100
AcDbCircle
 62
7
  6
CONTINUOUS
 10
3.8404834891
 20
13.2708047238
 40
0.03
100
AcDbArc
 50
90.0
 51
180.0
  0
ARC
  5
3E3
100
AcDbEntity
  8
0
100
AcDbCircle
 62
7
  6
CONTINUOUS
 10
5.2754834891
 20
13.3308047238
 40
0.03
100
AcDbArc
 50
270.0000000001
 51
360.0
  0
ARC
  5
3E4
100
AcDbEntity
  8
0
100
AcDbCircle
 62
7
  6
CONTINUOUS
 10
6.4494006175
 20
12.0548047238
 40
0.015
100
AcDbArc
 50
184.2891533288
 51
270.0
  0
ARC
  5
3E5
100
AcDbEntity
  8
0
100
AcDbCircle
 62
7
  6
CONTINUOUS
 10
6.5315663608
 20
12.0548047238
 40
0.015
100
AcDbArc
 50
270.0
 51
355.7108466712
  0
ARC
  5
3E6
100
AcDbEntity
  8
0
100
AcDbCircle
 62
7
  6
CONTINUOUS
 10
6.1744006175
 20
12.0548047238
 40
0.015
100
AcDbArc
 50
184.2891533288
 51
270.0
  0
ARC
  5
3E7
100
AcDbEntity
  8
0
100
AcDbCircle
 62
7
  6
CONTINUOUS
 10
6.2565663608
 20
12.0548047238
 40
0.015
100
AcDbArc
 50
270.0
 51
340.4997694482
  0
ARC
  5
3E8
100
AcDbEntity
  8
0
100
AcDbCircle
 62
7
  6
CONTINUOUS
 10
6.7244006175
 20
12.0648047238
 40
0.015
100
AcDbArc
 50
184.2891533288
 51
270.0
  0
ARC
  5
3E9
100
AcDbEntity
  8
0
100
AcDbCircle
 62
7
  6
CONTINUOUS
 10
6.2344006175
 20
12.0648047238
 40
0.015
100
AcDbArc
 50
184.2891533288
 51
270.0
  0
ARC
  5
3EA
100
AcDbEntity
  8
0
100
AcDbCircle
 62
7
  6
CONTINUOUS
 10
6.3165663608
 20
12.0648047238
 40
0.015
100
AcDbArc
 50
270.0
 51
355.7108466712
  0
ARC
  5
3EB
100
AcDbEntity
  8
0
100
AcDbCircle
 62
7
  6
CONTINUOUS
 10
5.8756957218
 20
12.0648047238
 40
0.015
100
AcDbArc
 50
184.2891533288
 51
270.0
  0
ARC
  5
3EC
100
AcDbEntity
  8
0
100
AcDbCircle
 62
7
  6
CONTINUOUS
 10
5.9578614651
 20
12.0648047238
 40
0.015
100
AcDbArc
 50
270.0
 51
355.7108466712
  0
ARC
  5
3ED
100
AcDbEntity
  8
0
100
AcDbCircle
 62
7
  6
CONTINUOUS
 10
5.7444006175
 20
12.0648047238
 40
0.015
100
AcDbArc
 50
184.2891533288
 51
270.0
  0
ARC
  5
3EE
100
AcDbEntity
  8
0
100
AcDbCircle
 62
7
  6
CONTINUOUS
 10
5.8265663608
 20
12.0648047238
 40
0.015
100
AcDbArc
 50
270.0
 51
355.7108466712
  0
ARC
  5
3EF
100
AcDbEntity
  8
0
100
AcDbCircle
 62
7
  6
CONTINUOUS
 10
6.479556687
 20
12.0898047238
 40
0.015
100
AcDbArc
 50
184.2891533288
 51
270.0
  0
ARC
  5
3F0
100
AcDbEntity
  8
0
100
AcDbCircle
 62
7
  6
CONTINUOUS
 10
6.5617224303
 20
12.0898047238
 40
0.015
100
AcDbArc
 50
270.0
 51
355.7108466712
  0
ARC
  5
3F1
100
AcDbEntity
  8
0
100
AcDbCircle
 62
7
  6
CONTINUOUS
 10
6.0194006175
 20
12.0898047238
 40
0.015
100
AcDbArc
 50
184.2891533288
 51
270.0
  0
ARC
  5
3F2
100
AcDbEntity
  8
0
100
AcDbCircle
 62
7
  6
CONTINUOUS
 10
6.1015663608
 20
12.0898047238
 40
0.015
100
AcDbArc
 50
270.0
 51
355.7108466712
  0
ARC
  5
3F3
100
AcDbEntity
  8
0
100
AcDbCircle
 62
7
  6
CONTINUOUS
 10
5.6442779527
 20
12.0898047238
 40
0.015
100
AcDbArc
 50
184.2891533288
 51
270.0
  0
ARC
  5
3F4
100
AcDbEntity
  8
0
100
AcDbCircle
 62
7
  6
CONTINUOUS
 10
5.726443696
 20
12.0898047238
 40
0.015
100
AcDbArc
 50
270.0
 51
355.7108466712
  0
ARC
  5
3F5
100
AcDbEntity
  8
0
100
AcDbCircle
 62
7
  6
CONTINUOUS
 10
5.3994340222
 20
12.0898047238
 40
0.015
100
AcDbArc
 50
184.2891533288
 51
270.0
  0
ARC
  5
3F6
100
AcDbEntity
  8
0
100
AcDbCircle
 62
7
  6
CONTINUOUS
 10
5.4815997655
 20
12.0898047238
 40
0.015
100
AcDbArc
 50
270.0
 51
355.7108466712
  0
ARC
  5
3F7
100
AcDbEntity
  8
0
100
AcDbCircle
 62
7
  6
CONTINUOUS
 10
5.3144006175
 20
12.0898047238
 40
0.015
100
AcDbArc
 50
184.2891533288
 51
270.0
  0
ARC
  5
3F8
100
AcDbEntity
  8
0
100
AcDbCircle
 62
7
  6
CONTINUOUS
 10
5.3965663608
 20
12.0898047238
 40
0.015
100
AcDbArc
 50
270.0
 51
275.4872656206
  0
ARC
  5
3F9
100
AcDbEntity
  8
0
100
AcDbCircle
 62
7
  6
CONTINUOUS
 10
6.7244006175
 20
12.1198047238
 40
0.015
100
AcDbArc
 50
184.2891533288
 51
270.0
  0
ARC
  5
3FA
100
AcDbEntity
  8
0
100
AcDbCircle
 62
7
  6
CONTINUOUS
 10
6.2481735745
 20
12.1198047238
 40
0.015
100
AcDbArc
 50
184.2891533288
 51
270.0
  0
ARC
  5
3FB
100
AcDbEntity
  8
0
100
AcDbCircle
 62
7
  6
CONTINUOUS
 10
6.3303393178
 20
12.1198047238
 40
0.015
100
AcDbArc
 50
270.0
 51
355.7108466712
  0
ARC
  5
3FC
100
AcDbEntity
  8
0
100
AcDbCircle
 62
7
  6
CONTINUOUS
 10
5.8044006175
 20
12.1198047238
 40
0.015
100
AcDbArc
 50
184.2891533288
 51
270.0
  0
ARC
  5
3FD
100
AcDbEntity
  8
0
100
AcDbCircle
 62
7
  6
CONTINUOUS
 10
5.8865663608
 20
12.1198047238
 40
0.015
100
AcDbArc
 50
270.0
 51
355.7108466712
  0
ARC
  5
3FE
100
AcDbEntity
  8
0
100
AcDbCircle
 62
7
  6
CONTINUOUS
 10
5.4233241401
 20
12.1198047238
 40
0.015
100
AcDbArc
 50
184.2891533288
 51
270.0
  0
ARC
  5
3FF
100
AcDbEntity
  8
0
100
AcDbCircle
 62
7
  6
CONTINUOUS
 10
5.5054898834
 20
12.1198047238
 40
0.015
100
AcDbArc
 50
270.0
 51
355.7108466712
  0
ARC
  5
400
100
AcDbEntity
  8
0
100
AcDbCircle
 62
7
  6
CONTINUOUS
 10
5.2876398844
 20
12.1548047238
 40
0.015
100
AcDbArc
 50
270.0
 51
355.7108466712
  0
ARC
  5
401
100
AcDbEntity
  8
0
100
AcDbCircle
 62
7
  6
CONTINUOUS
 10
5.6715663608
 20
12.1548047238
 40
0.015
100
AcDbArc
 50
270.0
 51
355.7108466712
  0
ARC
  5
402
100
AcDbEntity
  8
0
100
AcDbCircle
 62
7
  6
CONTINUOUS
 10
5.5894006175
 20
12.1548047238
 40
0.015
100
AcDbArc
 50
184.2891533288
 51
270.0
  0
ARC
  5
403
100
AcDbEntity
  8
0
100
AcDbCircle
 62
7
  6
CONTINUOUS
 10
6.1050977836
 20
12.1548047238
 40
0.015
100
AcDbArc
 50
270.0
 51
355.7108466712
  0
ARC
  5
404
100
AcDbEntity
  8
0
100
AcDbCircle
 62
7
  6
CONTINUOUS
 10
6.0229320402
 20
12.1548047238
 40
0.015
100
AcDbArc
 50
184.2891533288
 51
270.0
  0
ARC
  5
405
100
AcDbEntity
  8
0
100
AcDbCircle
 62
7
  6
CONTINUOUS
 10
6.5692867492
 20
12.1548047238
 40
0.015
100
AcDbArc
 50
270.0
 51
355.7108466712
  0
ARC
  5
406
100
AcDbEntity
  8
0
100
AcDbCircle
 62
7
  6
CONTINUOUS
 10
6.4871210059
 20
12.1548047238
 40
0.015
100
AcDbArc
 50
184.2891533288
 51
270.0
  0
ARC
  5
407
100
AcDbEntity
  8
0
100
AcDbCircle
 62
7
  6
CONTINUOUS
 10
6.3378577663
 20
13.0787125743
 40
1.0
100
AcDbArc
 50
269.701895091
 51
270.0
  0
ARC
  5
408
100
AcDbEntity
  8
0
100
AcDbCircle
 62
7
  6
CONTINUOUS
 10
5.8760847024
 20
13.0917139622
 40
1.0
100
AcDbArc
 50
268.1422256028
 51
268.998836011
  0
ARC
  5
409
100
AcDbEntity
  8
0
100
AcDbCircle
 62
7
  6
CONTINUOUS
 10
5.3542423977
 20
13.1174010302
 40
1.0
100
AcDbArc
 50
262.7783136043
 51
266.542266468
  0
ARC
  5
40A
100
AcDbEntity
  8
0
100
AcDbCircle
 62
7
  6
CONTINUOUS
 10
5.7648362786
 20
13.0962106837
 40
1.0
100
AcDbArc
 50
260.2020724392
 51
262.1365541428
  0
ARC
  5
40B
100
AcDbEntity
  8
0
100
AcDbCircle
 62
7
  6
CONTINUOUS
 10
6.175383918
 20
13.0822467929
 40
1.0
100
AcDbArc
 50
266.5620799247
 51
268.5548996513
  0
ARC
  5
40C
100
AcDbEntity
  8
0
100
AcDbCircle
 62
7
  6
CONTINUOUS
 10
5.3354834891
 20
13.5618047238
 40
0.03
100
AcDbArc
 50
90.0
 51
180.0
  0
ARC
  5
40D
100
AcDbEntity
  8
0
100
AcDbCircle
 62
7
  6
CONTINUOUS
 10
6.0354834891
 20
13.6218047238
 40
0.03
100
AcDbArc
 50
270.0000000036
 51
360.0
  0
ARC
  5
40E
100
AcDbEntity
  8
0
100
AcDbCircle
 62
7
  6
CONTINUOUS
 10
6.0854834891
 20
13.8058047238
 40
0.02
100
AcDbArc
 50
90.0
 51
180.0
  0
ARC
  5
40F
100
AcDbEntity
  8
0
100
AcDbCircle
 62
7
  6
CONTINUOUS
 10
6.0854834891
 20
13.8458047238
 40
0.02
100
AcDbArc
 50
180.0
 51
270.0
  0
ARC
  5
410
100
AcDbEntity
  8
0
100
AcDbCircle
 62
7
  6
CONTINUOUS
 10
6.5009834891
 20
14.7812639538
 40
0.188
100
AcDbArc
 50
180.0
 51
225.0
  0
ARC
  5
411
100
AcDbEntity
  8
0
100
AcDbCircle
 62
7
  6
CONTINUOUS
 10
6.3633212291
 20
14.5399169791
 40
0.08
100
AcDbArc
 50
314.9741595356
 51
45.0
  0
ARC
  5
412
100
AcDbEntity
  8
0
100
AcDbCircle
 62
7
  6
CONTINUOUS
 10
7.2744006175
 20
12.0548047238
 40
0.015
100
AcDbArc
 50
199.5002305518
 51
270.0
  0
ARC
  5
413
100
AcDbEntity
  8
0
100
AcDbCircle
 62
7
  6
CONTINUOUS
 10
7.3565663608
 20
12.0548047238
 40
0.015
100
AcDbArc
 50
270.0
 51
355.7108466712
  0
ARC
  5
414
100
AcDbEntity
  8
0
100
AcDbCircle
 62
7
  6
CONTINUOUS
 10
6.9994006175
 20
12.0548047238
 40
0.015
100
AcDbArc
 50
184.2891533288
 51
270.0
  0
ARC
  5
415
100
AcDbEntity
  8
0
100
AcDbCircle
 62
7
  6
CONTINUOUS
 10
7.0815663608
 20
12.0548047238
 40
0.015
100
AcDbArc
 50
270.0
 51
355.7108466712
  0
ARC
  5
416
100
AcDbEntity
  8
0
100
AcDbCircle
 62
7
  6
CONTINUOUS
 10
7.2144006175
 20
12.0648047238
 40
0.015
100
AcDbArc
 50
184.2891533288
 51
270.0
  0
ARC
  5
417
100
AcDbEntity
  8
0
100
AcDbCircle
 62
7
  6
CONTINUOUS
 10
7.2965663608
 20
12.0648047238
 40
0.015
100
AcDbArc
 50
270.0
 51
355.7108466712
  0
ARC
  5
418
100
AcDbEntity
  8
0
100
AcDbCircle
 62
7
  6
CONTINUOUS
 10
6.8065663608
 20
12.0648047238
 40
0.015
100
AcDbArc
 50
270.0
 51
355.7108466712
  0
ARC
  5
419
100
AcDbEntity
  8
0
100
AcDbCircle
 62
7
  6
CONTINUOUS
 10
7.4294006175
 20
12.0898047238
 40
0.015
100
AcDbArc
 50
184.2891533288
 51
270.0
  0
ARC
  5
41A
100
AcDbEntity
  8
0
100
AcDbCircle
 62
7
  6
CONTINUOUS
 10
6.969244548
 20
12.0898047238
 40
0.015
100
AcDbArc
 50
184.2891533288
 51
270.0
  0
ARC
  5
41B
100
AcDbEntity
  8
0
100
AcDbCircle
 62
7
  6
CONTINUOUS
 10
7.0514102913
 20
12.0898047238
 40
0.015
100
AcDbArc
 50
270.0
 51
355.7108466712
  0
ARC
  5
41C
100
AcDbEntity
  8
0
100
AcDbCircle
 62
7
  6
CONTINUOUS
 10
7.2006276605
 20
12.1198047238
 40
0.015
100
AcDbArc
 50
184.2891533288
 51
270.0
  0
ARC
  5
41D
100
AcDbEntity
  8
0
100
AcDbCircle
 62
7
  6
CONTINUOUS
 10
7.2827934038
 20
12.1198047238
 40
0.015
100
AcDbArc
 50
270.0
 51
355.7108466712
  0
ARC
  5
41E
100
AcDbEntity
  8
0
100
AcDbCircle
 62
7
  6
CONTINUOUS
 10
6.8065663608
 20
12.1198047238
 40
0.015
100
AcDbArc
 50
270.0
 51
355.7108466712
  0
ARC
  5
41F
100
AcDbEntity
  8
0
100
AcDbCircle
 62
7
  6
CONTINUOUS
 10
7.0438459724
 20
12.1548047238
 40
0.015
100
AcDbArc
 50
270.0
 51
355.7108466712
  0
ARC
  5
420
100
AcDbEntity
  8
0
100
AcDbCircle
 62
7
  6
CONTINUOUS
 10
6.9616802291
 20
12.1548047238
 40
0.015
100
AcDbArc
 50
184.2891533288
 51
270.0
  0
ARC
  5
421
100
AcDbEntity
  8
0
100
AcDbCircle
 62
7
  6
CONTINUOUS
 10
7.508034938
 20
12.1548047238
 40
0.015
100
AcDbArc
 50
270.0
 51
355.7108466712
  0
ARC
  5
422
100
AcDbEntity
  8
0
100
AcDbCircle
 62
7
  6
CONTINUOUS
 10
7.4258691947
 20
12.1548047238
 40
0.015
100
AcDbArc
 50
184.2891533288
 51
270.0
  0
ARC
  5
423
100
AcDbEntity
  8
0
100
AcDbCircle
 62
7
  6
CONTINUOUS
 10
7.193109212
 20
13.0787125743
 40
1.0
100
AcDbArc
 50
270.0
 51
270.298104909
  0
ARC
  5
424
100
AcDbEntity
  8
0
100
AcDbCircle
 62
7
  6
CONTINUOUS
 10
7.3555830602
 20
13.0822467929
 40
1.0
100
AcDbArc
 50
271.4451003487
 51
273.4379200753
  0
ARC
  5
425
100
AcDbEntity
  8
0
100
AcDbCircle
 62
7
  6
CONTINUOUS
 10
7.7044006175
 20
12.0648047238
 40
0.015
100
AcDbArc
 50
184.2891533288
 51
270.0
  0
ARC
  5
426
100
AcDbEntity
  8
0
100
AcDbCircle
 62
7
  6
CONTINUOUS
 10
7.7865663608
 20
12.0648047238
 40
0.015
100
AcDbArc
 50
270.0
 51
355.7108466712
  0
ARC
  5
427
100
AcDbEntity
  8
0
100
AcDbCircle
 62
7
  6
CONTINUOUS
 10
7.5731055132
 20
12.0648047238
 40
0.015
100
AcDbArc
 50
184.2891533288
 51
270.0
  0
ARC
  5
428
100
AcDbEntity
  8
0
100
AcDbCircle
 62
7
  6
CONTINUOUS
 10
7.6552712565
 20
12.0648047238
 40
0.015
100
AcDbArc
 50
270.0
 51
355.7108466712
  0
ARC
  5
429
100
AcDbEntity
  8
0
100
AcDbCircle
 62
7
  6
CONTINUOUS
 10
8.1344006175
 20
12.0898047238
 40
0.015
100
AcDbArc
 50
264.5127343793
 51
270.0
  0
ARC
  5
42A
100
AcDbEntity
  8
0
100
AcDbCircle
 62
7
  6
CONTINUOUS
 10
8.2165663608
 20
12.0898047238
 40
0.015
100
AcDbArc
 50
270.0
 51
355.7108466712
  0
ARC
  5
42B
100
AcDbEntity
  8
0
100
AcDbCircle
 62
7
  6
CONTINUOUS
 10
8.0493672128
 20
12.0898047238
 40
0.015
100
AcDbArc
 50
184.2891533288
 51
270.0
  0
ARC
  5
42C
100
AcDbEntity
  8
0
100
AcDbCircle
 62
7
  6
CONTINUOUS
 10
8.1315329561
 20
12.0898047238
 40
0.015
100
AcDbArc
 50
270.0
 51
355.7108466712
  0
ARC
  5
42D
100
AcDbEntity
  8
0
100
AcDbCircle
 62
7
  6
CONTINUOUS
 10
7.8045232823
 20
12.0898047238
 40
0.015
100
AcDbArc
 50
184.2891533288
 51
270.0
  0
ARC
  5
42E
100
AcDbEntity
  8
0
100
AcDbCircle
 62
7
  6
CONTINUOUS
 10
7.8866890256
 20
12.0898047238
 40
0.015
100
AcDbArc
 50
270.0
 51
355.7108466712
  0
ARC
  5
42F
100
AcDbEntity
  8
0
100
AcDbCircle
 62
7
  6
CONTINUOUS
 10
7.5115663608
 20
12.0898047238
 40
0.015
100
AcDbArc
 50
270.0
 51
355.7108466712
  0
ARC
  5
430
100
AcDbEntity
  8
0
100
AcDbCircle
 62
7
  6
CONTINUOUS
 10
8.0254770949
 20
12.1198047238
 40
0.015
100
AcDbArc
 50
184.2891533288
 51
270.0
  0
ARC
  5
431
100
AcDbEntity
  8
0
100
AcDbCircle
 62
7
  6
CONTINUOUS
 10
8.1076428382
 20
12.1198047238
 40
0.015
100
AcDbArc
 50
270.0
 51
355.7108466712
  0
ARC
  5
432
100
AcDbEntity
  8
0
100
AcDbCircle
 62
7
  6
CONTINUOUS
 10
7.6444006175
 20
12.1198047238
 40
0.015
100
AcDbArc
 50
184.2891533288
 51
270.0
  0
ARC
  5
433
100
AcDbEntity
  8
0
100
AcDbCircle
 62
7
  6
CONTINUOUS
 10
7.7265663608
 20
12.1198047238
 40
0.015
100
AcDbArc
 50
270.0
 51
355.7108466712
  0
ARC
  5
434
100
AcDbEntity
  8
0
100
AcDbCircle
 62
7
  6
CONTINUOUS
 10
7.9415663608
 20
12.1548047238
 40
0.015
100
AcDbArc
 50
270.0
 51
355.7108466712
  0
ARC
  5
435
100
AcDbEntity
  8
0
100
AcDbCircle
 62
7
  6
CONTINUOUS
 10
7.8594006175
 20
12.1548047238
 40
0.015
100
AcDbArc
 50
184.2891533288
 51
270.0
  0
ARC
  5
436
100
AcDbEntity
  8
0
100
AcDbCircle
 62
7
  6
CONTINUOUS
 10
7.6548822759
 20
13.0917139622
 40
1.0
100
AcDbArc
 50
271.001163989
 51
271.8577743972
  0
ARC
  5
437
100
AcDbEntity
  8
0
100
AcDbCircle
 62
7
  6
CONTINUOUS
 10
7.655398135
 20
13.0170231061
 40
0.9253336421
100
AcDbArc
 50
271.9757788691
 51
272.3026137236
  0
ARC
  5
438
100
AcDbEntity
  8
0
100
AcDbCircle
 62
7
  6
CONTINUOUS
 10
8.1767245805
 20
13.1174010302
 40
1.0
100
AcDbArc
 50
273.457733532
 51
277.2216863957
  0
ARC
  5
439
100
AcDbEntity
  8
0
100
AcDbCircle
 62
7
  6
CONTINUOUS
 10
7.7661306997
 20
13.0962106837
 40
1.0
100
AcDbArc
 50
277.8634458572
 51
279.7979275608
  0
ARC
  5
43A
100
AcDbEntity
  8
0
100
AcDbCircle
 62
7
  6
CONTINUOUS
 10
6.7654834891
 20
14.137391804
 40
0.489
100
AcDbArc
 50
30.394893546
 51
45.0258404644
  0
ARC
  5
43B
100
AcDbEntity
  8
0
100
AcDbCircle
 62
7
  6
CONTINUOUS
 10
6.7654834891
 20
14.137391804
 40
0.489
100
AcDbArc
 50
134.9741595356
 51
149.605106454
  0
ARC
  5
43C
100
AcDbEntity
  8
0
100
AcDbCircle
 62
7
  6
CONTINUOUS
 10
8.1954834891
 20
13.5618047238
 40
0.03
100
AcDbArc
 50
0.0
 51
90.0
  0
ARC
  5
43D
100
AcDbEntity
  8
0
100
AcDbCircle
 62
7
  6
CONTINUOUS
 10
7.4954834891
 20
13.6218047238
 40
0.03
100
AcDbArc
 50
180.0
 51
269.9999999964
  0
ARC
  5
43E
100
AcDbEntity
  8
0
100
AcDbCircle
 62
7
  6
CONTINUOUS
 10
7.4454834891
 20
13.8058047238
 40
0.02
100
AcDbArc
 50
0.0
 51
90.0
  0
ARC
  5
43F
100
AcDbEntity
  8
0
100
AcDbCircle
 62
7
  6
CONTINUOUS
 10
7.4454834891
 20
13.8458047238
 40
0.02
100
AcDbArc
 50
270.0
 51
360.0
  0
ARC
  5
440
100
AcDbEntity
  8
0
100
AcDbCircle
 62
7
  6
CONTINUOUS
 10
9.6904834891
 20
12.3921252319
 40
0.03
100
AcDbArc
 50
299.9999999979
 51
360.0
  0
ARC
  5
441
100
AcDbEntity
  8
0
100
AcDbCircle
 62
7
  6
CONTINUOUS
 10
9.4046142538
 20
12.2270785519
 40
0.03
100
AcDbArc
 50
283.2395482929
 51
299.999999998
  0
ARC
  5
442
100
AcDbEntity
  8
0
100
AcDbCircle
 62
7
  6
CONTINUOUS
 10
8.6465663608
 20
12.1198047238
 40
0.015
100
AcDbArc
 50
270.0
 51
355.7108466712
  0
ARC
  5
443
100
AcDbEntity
  8
0
100
AcDbCircle
 62
7
  6
CONTINUOUS
 10
8.5017041378
 20
12.1198047238
 40
0.015
100
AcDbArc
 50
184.2891533288
 51
270.0
  0
ARC
  5
444
100
AcDbEntity
  8
0
100
AcDbCircle
 62
7
  6
CONTINUOUS
 10
8.5838698812
 20
12.1198047238
 40
0.015
100
AcDbArc
 50
270.0
 51
355.7108466712
  0
ARC
  5
445
100
AcDbEntity
  8
0
100
AcDbCircle
 62
7
  6
CONTINUOUS
 10
8.3178873604
 20
12.1198047238
 40
0.015
100
AcDbArc
 50
184.2891533288
 51
270.0
  0
ARC
  5
446
100
AcDbEntity
  8
0
100
AcDbCircle
 62
7
  6
CONTINUOUS
 10
8.4000531038
 20
12.1198047238
 40
0.015
100
AcDbArc
 50
270.0
 51
355.7108466712
  0
ARC
  5
447
100
AcDbEntity
  8
0
100
AcDbCircle
 62
7
  6
CONTINUOUS
 10
9.0765663608
 20
12.1548047238
 40
0.015
100
AcDbArc
 50
270.0
 51
355.7108466712
  0
ARC
  5
448
100
AcDbEntity
  8
0
100
AcDbCircle
 62
7
  6
CONTINUOUS
 10
8.3254928372
 20
12.1548047238
 40
0.015
100
AcDbArc
 50
270.0
 51
355.7108466712
  0
ARC
  5
449
100
AcDbEntity
  8
0
100
AcDbCircle
 62
7
  6
CONTINUOUS
 10
8.2433270939
 20
12.1548047238
 40
0.015
100
AcDbArc
 50
184.2891533288
 51
270.0
  0
ARC
  5
44A
100
AcDbEntity
  8
0
100
AcDbCircle
 62
7
  6
CONTINUOUS
 10
8.643034938
 20
12.1548047238
 40
0.015
100
AcDbArc
 50
270.0
 51
355.7108466712
  0
ARC
  5
44B
100
AcDbEntity
  8
0
100
AcDbCircle
 62
7
  6
CONTINUOUS
 10
8.5608691947
 20
12.1548047238
 40
0.015
100
AcDbArc
 50
184.2891533288
 51
270.0
  0
ARC
  5
44C
100
AcDbEntity
  8
0
100
AcDbCircle
 62
7
  6
CONTINUOUS
 10
8.8803145496
 20
12.1548047238
 40
0.015
100
AcDbArc
 50
270.0
 51
355.7108466712
  0
ARC
  5
44D
100
AcDbEntity
  8
0
100
AcDbCircle
 62
7
  6
CONTINUOUS
 10
8.7981488063
 20
12.1548047238
 40
0.015
100
AcDbArc
 50
184.2891533288
 51
270.0
  0
ARC
  5
44E
100
AcDbEntity
  8
0
100
AcDbCircle
 62
7
  6
CONTINUOUS
 10
9.0269614145
 20
12.1548047238
 40
0.015
100
AcDbArc
 50
270.0
 51
355.7108466712
  0
ARC
  5
44F
100
AcDbEntity
  8
0
100
AcDbCircle
 62
7
  6
CONTINUOUS
 10
8.9447956711
 20
12.1548047238
 40
0.015
100
AcDbArc
 50
184.2891533288
 51
270.0
  0
ARC
  5
450
100
AcDbEntity
  8
0
100
AcDbCircle
 62
7
  6
CONTINUOUS
 10
8.8857493711
 20
13.1710654033
 40
1.0
100
AcDbArc
 50
270.6208621919
 51
272.4479131983
  0
ARC
  5
451
100
AcDbEntity
  8
0
100
AcDbCircle
 62
7
  6
CONTINUOUS
 10
8.4755066752
 20
13.1373737035
 40
1.0
100
AcDbArc
 50
270.0
 51
270.5629873164
  0
ARC
  5
452
100
AcDbEntity
  8
0
100
AcDbCircle
 62
7
  6
CONTINUOUS
 10
8.5873648445
 20
13.145839978
 40
1.0
100
AcDbArc
 50
274.4656691658
 51
281.2442845575
  0
ARC
  5
453
100
AcDbEntity
  8
0
100
AcDbCircle
 62
7
  6
CONTINUOUS
 10
9.6904834891
 20
13.2708047238
 40
0.03
100
AcDbArc
 50
0.0
 51
90.0
  0
ARC
  5
454
100
AcDbEntity
  8
0
100
AcDbCircle
 62
7
  6
CONTINUOUS
 10
8.2554834891
 20
13.3308047238
 40
0.03
100
AcDbArc
 50
180.0
 51
269.9999999999
  0
ARC
  5
455
100
AcDbEntity
  8
0
100
AcDbCircle
 62
7
  6
CONTINUOUS
 10
9.6654834891
 20
16.547391804
 40
3.30625
100
AcDbArc
 50
90.0
 51
180.0
  0
ARC
  5
456
100
AcDbEntity
  8
0
100
AcDbCircle
 62
7
  6
CONTINUOUS
 10
9.6654834891
 20
16.547391804
 40
2.49375
100
AcDbArc
 50
90.0
 51
180.0
  0
ARC
  5
457
100
AcDbEntity
  8
0
100
AcDbCircle
 62
7
  6
CONTINUOUS
 10
7.0299834891
 20
14.7812639538
 40
0.188
100
AcDbArc
 50
315.0
 51
360.0
  0
ARC
  5
458
100
AcDbEntity
  8
0
100
AcDbCircle
 62
7
  6
CONTINUOUS
 10
7.1676457492
 20
14.5399169791
 40
0.08
100
AcDbArc
 50
135.0
 51
225.0258404644
  0
ARC
  5
459
100
AcDbEntity
  8
0
100
AcDbCircle
 62
7
  6
CONTINUOUS
 10
6.7654834891
 20
36.4737332952
 40
24.3989285714
100
AcDbArc
 50
264.2430588061
 51
264.5237244568
  0
ARC
  5
45A
100
AcDbEntity
  8
0
100
AcDbCircle
 62
7
  6
CONTINUOUS
 10
6.7654834891
 20
36.4737332952
 40
24.3989285714
100
AcDbArc
 50
275.4762755432
 51
275.7569411939
  0
ARC
  5
45B
100
AcDbEntity
  8
0
100
AcDbCircle
 62
7
  6
CONTINUOUS
 10
6.7654834891
 20
36.4737332952
 40
24.3989285714
100
AcDbArc
 50
271.4283633978
 51
271.4451003487
  0
ARC
  5
45C
100
AcDbEntity
  8
0
100
AcDbCircle
 62
7
  6
CONTINUOUS
 10
6.7654834891
 20
36.4737332952
 40
24.3989285714
100
AcDbArc
 50
268.5548996513
 51
268.5716366022
  0
ARC
  5
45D
100
AcDbEntity
  8
0
100
AcDbCircle
 62
7
  6
CONTINUOUS
 10
10.8594834891
 20
-2.052608196
 40
2.0
100
AcDbArc
 50
90.0
 51
180.0
  0
ARC
  5
45E
100
AcDbEntity
  8
0
100
AcDbCircle
 62
7
  6
CONTINUOUS
 10
10.8594834891
 20
-2.052608196
 40
1.0
100
AcDbArc
 50
90.0
 51
180.0
  0
ARC
  5
45F
100
AcDbEntity
  8
0
100
AcDbCircle
 62
7
  6
CONTINUOUS
 10
15.0034834891
 20
4.927391804
 40
0.04
100
AcDbArc
 50
270.0
 51
360.0
  0
ARC
  5
460
100
AcDbEntity
  8
0
100
AcDbCircle
 62
7
  6
CONTINUOUS
 10
14.0994834891
 20
4.927391804
 40
0.04
100
AcDbArc
 50
180.0
 51
270.0
  0
ARC
  5
461
100
AcDbEntity
  8
0
100
AcDbCircle
 62
7
  6
CONTINUOUS
 10
15.0034834891
 20
8.034391804
 40
0.04
100
AcDbArc
 50
0.0
 51
90.0
  0
ARC
  5
462
100
AcDbEntity
  8
0
100
AcDbCircle
 62
7
  6
CONTINUOUS
 10
14.0994834891
 20
8.034391804
 40
0.04
100
AcDbArc
 50
90.0
 51
180.0
  0
ARC
  5
463
100
AcDbEntity
  8
0
100
AcDbCircle
 62
7
  6
CONTINUOUS
 10
15.0834834891
 20
6.977391804
 40
0.04
100
AcDbArc
 50
90.0
 51
180.0
  0
ARC
  5
464
100
AcDbEntity
  8
0
100
AcDbCircle
 62
7
  6
CONTINUOUS
 10
15.0834834891
 20
7.917391804
 40
0.04
100
AcDbArc
 50
180.0
 51
270.0
  0
ARC
  5
465
100
AcDbEntity
  8
0
100
AcDbCircle
 62
7
  6
CONTINUOUS
 10
16.4444834891
 20
5.696391804
 40
0.031
100
AcDbArc
 50
44.7546926505
 51
90.0
  0
ARC
  5
466
100
AcDbEntity
  8
0
100
AcDbCircle
 62
7
  6
CONTINUOUS
 10
16.3544834891
 20
5.696391804
 40
0.031
100
AcDbArc
 50
90.0
 51
103.0407610339
  0
ARC
  5
467
100
AcDbEntity
  8
0
100
AcDbCircle
 62
7
  6
CONTINUOUS
 10
16.4444834891
 20
4.858391804
 40
0.031
100
AcDbArc
 50
270.0
 51
315.2453073495
  0
ARC
  5
468
100
AcDbEntity
  8
0
100
AcDbCircle
 62
7
  6
CONTINUOUS
 10
16.3544834891
 20
4.858391804
 40
0.031
100
AcDbArc
 50
256.9592389661
 51
270.0
  0
ARC
  5
469
100
AcDbEntity
  8
0
100
AcDbCircle
 62
7
  6
CONTINUOUS
 10
16.2184834891
 20
5.664891804
 40
0.031
100
AcDbArc
 50
103.0407610339
 51
180.0
  0
ARC
  5
46A
100
AcDbEntity
  8
0
100
AcDbCircle
 62
7
  6
CONTINUOUS
 10
16.2184834891
 20
4.889891804
 40
0.031
100
AcDbArc
 50
180.0
 51
256.9592389661
  0
ARC
  5
46B
100
AcDbEntity
  8
0
100
AcDbCircle
 62
7
  6
CONTINUOUS
 10
17.3894834891
 20
-1.447608196
 40
0.03
100
AcDbArc
 50
180.0
 51
270.0
  0
ARC
  5
46C
100
AcDbEntity
  8
0
100
AcDbCircle
 62
7
  6
CONTINUOUS
 10
17.3894834891
 20
0.342391804
 40
0.03
100
AcDbArc
 50
90.0
 51
180.0
  0
ARC
  5
46D
100
AcDbEntity
  8
0
100
AcDbCircle
 62
7
  6
CONTINUOUS
 10
17.2794834891
 20
10.3984441483
 40
0.02
100
AcDbArc
 50
95.0
 51
180.0
  0
ARC
  5
46E
100
AcDbEntity
  8
0
100
AcDbCircle
 62
7
  6
CONTINUOUS
 10
17.2794834891
 20
4.4963394598
 40
0.02
100
AcDbArc
 50
180.0
 51
265.0
  0
ARC
  5
46F
100
AcDbEntity
  8
0
100
AcDbCircle
 62
7
  6
CONTINUOUS
 10
17.3294834891
 20
18.352391804
 40
0.03
100
AcDbArc
 50
180.0
 51
270.0
  0
ARC
  5
470
100
AcDbEntity
  8
0
100
AcDbCircle
 62
7
  6
CONTINUOUS
 10
17.3294834891
 20
20.542391804
 40
0.03
100
AcDbArc
 50
90.0
 51
180.0
  0
LINE
  5
471
100
AcDbEntity
  8
0
100
AcDbLine
 62
7
  6
CONTINUOUS
 10
6.35923349
 20
15.1122568328
 11
6.359709852
 21
15.1117062404
  0
SPLINE
  5
472
100
AcDbEntity
  8
0
100
AcDbSpline
 62
7
  6
CONTINUOUS
 70
0
 71
3
 72
15
 73
11
 74
0
 42
0.0000001
 43
0.0000001
 44
0.0000000001
 40
0.0
 40
0.0
 40
0.0
 40
0.0
 40
0.0913216139
 40
0.186755522
 40
0.2899201789
 40
0.4036953845
 40
0.5302350757
 40
0.6711008329
 40
0.8274169782
 40
1.0
 40
1.0
 40
1.0
 40
1.0
 10
6.3592334897
 20
15.1314810813
 30
0.0
 10
6.3592334887
 20
15.1315731638
 30
0.0
 10
6.3592543399
 20
15.1317620479
 30
0.0
 10
6.3593467581
 20
15.1320412835
 30
0.0
 10
6.3594991411
 20
15.13231864
 30
0.0
 10
6.3597104857
 20
15.1325943555
 30
0.0
 10
6.3599803868
 20
15.1328690791
 30
0.0
 10
6.3603087752
 20
15.133143266
 30
0.0
 10
6.3606956858
 20
15.1334172057
 30
0.0
 10
6.360978408
 20
15.1335909876
 30
0.0
 10
6.3611289377
 20
15.1336783038
 30
0.0
  0
LINE
  5
473
100
AcDbEntity
  8
0
100
AcDbLine
 62
9
  6
CONTINUOUS
 10
15.0482039097
 20
7.0381719402
 11
14.3097510146
 21
7.8523663401
  0
SPLINE
  5
474
100
AcDbEntity
  8
0
100
AcDbSpline
 62
9
  6
CONTINUOUS
 70
0
 71
3
 72
10
 73
6
 74
0
 42
0.0000001
 43
0.0000001
 44
0.0000000001
 40
0.0
 40
0.0
 40
0.0
 40
0.0
 40
0.5012859786
 40
0.7509565246
 40
1.0
 40
1.0
 40
1.0
 40
1.0
 10
15.0214215462
 20
7.0499912347
 30
0.0
 10
15.018466222
 20
7.051709435
 30
0.0
 10
15.0142272222
 20
7.054621856
 30
0.0
 10
15.009002123
 20
7.0590070968
 30
0.0
 10
15.0065295108
 20
7.0613459067
 30
0.0
 10
15.0053286124
 20
7.0625468281
 30
0.0
  0
SPLINE
  5
475
100
AcDbEntity
  8
0
100
AcDbSpline
 62
9
  6
CONTINUOUS
 70
0
 71
3
 72
11
 73
7
 74
0
 42
0.0000001
 43
0.0000001
 44
0.0000000001
 40
0.0
 40
0.0
 40
0.0
 40
0.0
 40
0.2499968989
 40
0.499994783
 40
0.7499968653
 40
1.0
 40
1.0
 40
1.0
 40
1.0
 10
15.0034834891
 20
7.0148979557
 30
0.0
 10
15.0010422881
 20
7.0161453689
 30
0.0
 10
14.9962618354
 20
7.0188452648
 30
0.0
 10
14.9894430141
 20
7.0234583187
 30
0.0
 10
14.9830047534
 20
7.0285885695
 30
0.0
 10
14.9789827208
 20
7.0323238558
 30
0.0
 10
14.9770442675
 20
7.0342624832
 30
0.0
  0
LINE
  5
476
100
AcDbEntity
  8
0
100
AcDbLine
 62
7
  6
CONTINUOUS
 10
9.0939606086
 20
12.1861663167
 11
9.0440074294
 21
12.181497128
  0
SPLINE
  5
477
100
AcDbEntity
  8
0
100
AcDbSpline
 62
9
  6
CONTINUOUS
 70
0
 71
3
 72
18
 73
14
 74
0
 42
0.0000001
 43
0.0000001
 44
0.0000000001
 40
0.0
 40
0.0
 40
0.0
 40
0.0
 40
0.1422049773
 40
0.2119268873
 40
0.2805815112
 40
0.4141306227
 40
0.5424156194
 40
0.6045635719
 40
0.6653537353
 40
0.7827429082
 40
0.8392642946
 40
0.8942994792
 40
1.0
 40
1.0
 40
1.0
 40
1.0
 10
15.0214215197
 20
7.0499911829
 30
0.0
 10
15.0226235437
 20
7.0492906267
 30
0.0
 10
15.024437329
 20
7.0482843198
 30
0.0
 10
15.0268792542
 20
7.0470300364
 30
0.0
 10
15.0292686545
 20
7.0458598793
 30
0.0
 10
15.0322058144
 20
7.0445068446
 30
0.0
 10
15.0351163853
 20
7.0432510041
 30
0.0
 10
15.037387386
 20
7.0423109085
 30
0.0
 10
15.0395683185
 20
7.0414322054
 30
0.0
 10
15.0417091928
 20
7.0406017482
 30
0.0
 10
15.0438037454
 20
7.0398080031
 30
0.0
 10
15.0457938354
 20
7.0390613244
 30
0.0
 10
15.0472683657
 20
7.0385147434
 30
0.0
 10
15.0482383782
 20
7.0381562765
 30
0.0
  0
SPLINE
  5
478
100
AcDbEntity
  8
0
100
AcDbSpline
 62
9
  6
CONTINUOUS
 70
0
 71
3
 72
31
 73
27
 74
0
 42
0.0000001
 43
0.0000001
 44
0.0000000001
 40
0.0
 40
0.0
 40
0.0
 40
0.0
 40
0.0462476313
 40
0.0703969382
 40
0.0951564404
 40
0.1205490763
 40
0.1465967049
 40
0.2006620741
 40
0.2573322039
 40
0.3165265362
 40
0.3781110204
 40
0.4419044946
 40
0.5076883528
 40
0.5752116166
 40
0.6441977978
 40
0.7143491917
 40
0.7497662396
 40
0.7853557201
 40
0.8210750957
 40
0.8568810147
 40
0.8748023205
 40
0.892727405
 40
0.9106495619
 40
0.9285613084
 40
0.9643255244
 40
1.0
 40
1.0
 40
1.0
 40
1.0
 10
15.0482383782
 20
7.0381562765
 30
0.0
 10
15.0475937406
 20
7.037871315
 30
0.0
 10
15.0466336143
 20
7.037387495
 30
0.0
 10
15.0453896394
 20
7.0366413619
 30
0.0
 10
15.0444483975
 20
7.0360109795
 30
0.0
 10
15.0435142728
 20
7.0353204049
 30
0.0
 10
15.0422641246
 20
7.0343085409
 30
0.0
 10
15.0407277714
 20
7.0328960219
 30
0.0
 10
15.0389579495
 20
7.0310024481
 30
0.0
 10
15.037250575
 20
7.0289027014
 30
0.0
 10
15.0356167182
 20
7.0266108584
 30
0.0
 10
15.0340669728
 20
7.0241421083
 30
0.0
 10
15.0326112486
 20
7.0215129948
 30
0.0
 10
15.0312587858
 20
7.0187410889
 30
0.0
 10
15.0300176504
 20
7.015845166
 30
0.0
 10
15.0290846511
 20
7.0133528643
 30
0.0
 10
15.0283982618
 20
7.0113139208
 30
0.0
 10
15.0279119926
 20
7.0097616824
 30
0.0
 10
15.0274555248
 20
7.0081942695
 30
0.0
 10
15.0270982157
 20
7.0068787046
 30
0.0
 10
15.0268225874
 20
7.0058220798
 30
0.0
 10
15.0266203381
 20
7.0050279962
 30
0.0
 10
15.0264215311
 20
7.004233195
 30
0.0
 10
15.0261619459
 20
7.0031733662
 30
0.0
 10
15.0258585808
 20
7.0018457328
 30
0.0
 10
15.0256590377
 20
7.0007748665
 30
0.0
 10
15.0255756762
 20
7.0002376174
 30
0.0
  0
LINE
  5
479
100
AcDbEntity
  8
0
100
AcDbLine
 62
7
  6
CONTINUOUS
 10
4.4869595501
 20
12.1814971279
 11
4.4370063697
 21
12.1861663167
  0
SPLINE
  5
47A
100
AcDbEntity
  8
0
100
AcDbSpline
 62
9
  6
CONTINUOUS
 70
0
 71
3
 72
18
 73
14
 74
0
 42
0.0000001
 43
0.0000001
 44
0.0000000001
 40
0.0
 40
0.0
 40
0.0
 40
0.0
 40
0.1141991464
 40
0.1731668551
 40
0.2332341842
 40
0.3561540631
 40
0.4187829383
 40
0.4820424567
 40
0.5458288123
 40
0.6100509002
 40
0.7394238978
 40
0.8695606743
 40
1.0
 40
1.0
 40
1.0
 40
1.0
 10
15.0255751447
 20
7.0002312167
 30
0.0
 10
15.0246443557
 20
7.000638733
 30
0.0
 10
15.0232345678
 20
7.0012609552
 30
0.0
 10
15.021362611
 20
7.0021570851
 30
0.0
 10
15.0194412545
 20
7.0031283856
 30
0.0
 10
15.0175222249
 20
7.0041755971
 30
0.0
 10
15.0156142864
 20
7.0052986304
 30
0.0
 10
15.0141800378
 20
7.0061883722
 30
0.0
 10
15.0127580116
 20
7.0071236844
 30
0.0
 10
15.0108822522
 20
7.0084378964
 30
0.0
 10
15.0085969088
 20
7.0101941284
 30
0.0
 10
15.00596953
 20
7.0124626312
 30
0.0
 10
15.0042975282
 20
7.0140707302
 30
0.0
 10
15.0034834891
 20
7.0148979557
 30
0.0
  0
SPLINE
  5
47B
100
AcDbEntity
  8
0
100
AcDbSpline
 62
7
  6
CONTINUOUS
 70
0
 71
3
 72
66
 73
62
 74
0
 42
0.0000001
 43
0.0000001
 44
0.0000000001
 40
0.0
 40
0.0
 40
0.0
 40
0.0
 40
0.0002831788
 40
0.0005079596
 40
0.0007996997
 40
0.0011617626
 40
0.0015958578
 40
0.0026834377
 40
0.004066276
 40
0.0057454563
 40
0.0099925159
 40
0.0154186131
 40
0.0220122416
 40
0.0297578831
 40
0.0386367373
 40
0.0486272082
 40
0.0597046236
 40
0.0718417541
 40
0.0850088667
 40
0.099173543
 40
0.114301185
 40
0.1472954454
 40
0.1836709603
 40
0.2230758906
 40
0.2651308986
 40
0.3094328271
 40
0.3555582424
 40
0.4030673198
 40
0.4515076298
 40
0.5004180308
 40
0.5493326333
 40
0.5977848139
 40
0.645311295
 40
0.6914561774
 40
0.7357752447
 40
0.7778401033
 40
0.817242472
 40
0.8535982772
 40
0.8865517954
 40
0.9157797037
 40
0.9289053179
 40
0.9409947577
 40
0.9520183689
 40
0.9619492164
 40
0.970762938
 40
0.9784384
 40
0.9849573841
 40
0.9877784267
 40
0.9903050758
 40
0.9925361941
 40
0.9944708053
 40
0.9961084443
 40
0.9974494447
 40
0.9980091247
 40
0.9984953344
 40
0.9989087159
 40
0.9992504072
 40
0.9995224763
 40
0.999729125
 40
0.9998801626
 40
1.0
 40
1.0
 40
1.0
 40
1.0
 10
4.6027602466
 20
12.1754288728
 30
0.0
 10
4.6027610707
 20
12.1754398605
 30
0.0
 10
4.6027468234
 20
12.175458227
 30
0.0
 10
4.6027220286
 20
12.1754755709
 30
0.0
 10
4.6026917356
 20
12.1754921864
 30
0.0
 10
4.602653088
 20
12.1755092582
 30
0.0
 10
4.6025845035
 20
12.1755353231
 30
0.0
 10
4.6024765345
 20
12.1755688934
 30
0.0
 10
4.6023204165
 20
12.1756102129
 30
0.0
 10
4.6020434131
 20
12.1756747693
 30
0.0
 10
4.6016101349
 20
12.1757611726
 30
0.0
 10
4.6009867873
 20
12.1758710864
 30
0.0
 10
4.6002274202
 20
12.1759930597
 30
0.0
 10
4.5993339354
 20
12.1761267633
 30
0.0
 10
4.5983085295
 20
12.1762717403
 30
0.0
 10
4.5971537592
 20
12.1764275966
 30
0.0
 10
4.5958724892
 20
12.1765939153
 30
0.0
 10
4.5944678947
 20
12.1767702692
 30
0.0
 10
4.592943445
 20
12.1769562105
 30
0.0
 10
4.5913028929
 20
12.1771512793
 30
0.0
 10
4.5888955107
 20
12.1774310809
 30
0.0
 10
4.5856283388
 20
12.1777990253
 30
0.0
 10
4.5814207452
 20
12.1782571165
 30
0.0
 10
4.5768611424
 20
12.1787391497
 30
0.0
 10
4.57199346
 20
12.1792404645
 30
0.0
 10
4.5668644025
 20
12.1797562286
 30
0.0
 10
4.5615230251
 20
12.1802814985
 30
0.0
 10
4.5560202985
 20
12.1808112527
 30
0.0
 10
4.5504086624
 20
12.1813404356
 30
0.0
 10
4.5447415749
 20
12.1818639993
 30
0.0
 10
4.5390730529
 20
12.1823769472
 30
0.0
 10
4.5334572055
 20
12.1828743773
 30
0.0
 10
4.5279477643
 20
12.183351525
 30
0.0
 10
4.5225976031
 20
12.1838038074
 30
0.0
 10
4.5174582545
 20
12.1842268666
 30
0.0
 10
4.5125794177
 20
12.184616616
 30
0.0
 10
4.5080084738
 20
12.1849692802
 30
0.0
 10
4.5037900024
 20
12.1852814519
 30
0.0
 10
4.4999653091
 20
12.1855500991
 30
0.0
 10
4.4970413656
 20
12.185741949
 30
0.0
 10
4.4949268905
 20
12.1858707138
 30
0.0
 10
4.4935191413
 20
12.185951383
 30
0.0
 10
4.4922351963
 20
12.1860194977
 30
0.0
 10
4.4910782292
 20
12.1860749029
 30
0.0
 10
4.4900510928
 20
12.1861174993
 30
0.0
 10
4.4891563218
 20
12.1861472082
 30
0.0
 10
4.4884943857
 20
12.1861619363
 30
0.0
 10
4.488032667
 20
12.1861664698
 30
0.0
 10
4.4877377675
 20
12.1861664379
 30
0.0
 10
4.4874773781
 20
12.1861631719
 30
0.0
 10
4.4872516457
 20
12.1861567032
 30
0.0
 10
4.4870606985
 20
12.1861470506
 30
0.0
 10
4.486923431
 20
12.1861359069
 30
0.0
 10
4.4868312044
 20
12.1861248504
 30
0.0
 10
4.4867750635
 20
12.1861162764
 30
0.0
 10
4.4867276518
 20
12.1861069372
 30
0.0
 10
4.4866889563
 20
12.1860968489
 30
0.0
 10
4.4866588211
 20
12.1860860395
 30
0.0
 10
4.4866371614
 20
12.1860744347
 30
0.0
 10
4.4866230906
 20
12.1860615762
 30
0.0
 10
4.4866199883
 20
12.1860506866
 30
0.0
 10
4.486620337
 20
12.1860460368
 30
0.0
  0
SPLINE
  5
47C
100
AcDbEntity
  8
0
100
AcDbSpline
 62
7
  6
CONTINUOUS
 70
0
 71
3
 72
60
 73
56
 74
0
 42
0.0000001
 43
0.0000001
 44
0.0000000001
 40
0.0
 40
0.0
 40
0.0
 40
0.0
 40
0.0002349682
 40
0.0004937839
 40
0.0007940195
 40
0.0011470871
 40
0.0020363011
 40
0.0031931486
 40
0.0046301349
 40
0.0063531117
 40
0.0083649814
 40
0.0106668482
 40
0.0161400974
 40
0.0227674221
 40
0.0305364113
 40
0.0394301721
 40
0.0605071697
 40
0.0857989557
 40
0.1150622731
 40
0.148015275
 40
0.184341147
 40
0.2236916636
 40
0.2656907204
 40
0.3099378512
 40
0.356011628
 40
0.4034734848
 40
0.5007438741
 40
0.5980435299
 40
0.6455369065
 40
0.6916457791
 40
0.7359235483
 40
0.7779397554
 40
0.8172846507
 40
0.8535735399
 40
0.8864511768
 40
0.9155960574
 40
0.9286785386
 40
0.9407245298
 40
0.951705166
 40
0.9615945196
 40
0.9703695307
 40
0.97801082
 40
0.9845026739
 40
0.9873140008
 40
0.9898343525
 40
0.9920635522
 40
0.9940019959
 40
0.9956512873
 40
0.9970150892
 40
0.9981006483
 40
0.9989236079
 40
0.9992478794
 40
0.9995246324
 40
0.9997683924
 40
1.0
 40
1.0
 40
1.0
 40
1.0
 10
4.7494330551
 20
12.1757747877
 30
0.0
 10
4.74943374
 20
12.1757839195
 30
0.0
 10
4.7494318638
 20
12.175803464
 30
0.0
 10
4.7494197736
 20
12.1758323131
 30
0.0
 10
4.7493989732
 20
12.1758614042
 30
0.0
 10
4.7493564262
 20
12.1759041328
 30
0.0
 10
4.7492791177
 20
12.1759577535
 30
0.0
 10
4.7491588738
 20
12.176020974
 30
0.0
 10
4.7490040836
 20
12.1760872721
 30
0.0
 10
4.7488147539
 20
12.1761565793
 30
0.0
 10
4.7485907943
 20
12.1762288066
 30
0.0
 10
4.748224442
 20
12.1763351294
 30
0.0
 10
4.7476800202
 20
12.1764724023
 30
0.0
 10
4.7469239357
 20
12.1766399959
 30
0.0
 10
4.7460337884
 20
12.1768178564
 30
0.0
 10
4.7445870632
 20
12.1770833232
 30
0.0
 10
4.7424615201
 20
12.177431836
 30
0.0
 10
4.7395455716
 20
12.1778632384
 30
0.0
 10
4.7361661948
 20
12.17832317
 30
0.0
 10
4.7323562593
 20
12.1788070377
 30
0.0
 10
4.7281525708
 20
12.1793099246
 30
0.0
 10
4.7235955944
 20
12.1798269039
 30
0.0
 10
4.718729022
 20
12.180352944
 30
0.0
 10
4.7135993878
 20
12.1808829661
 30
0.0
 10
4.7082556546
 20
12.181411883
 30
0.0
 10
4.7008525994
 20
12.182114572
 30
0.0
 10
4.6914569936
 20
12.1829518655
 30
0.0
 10
4.6820543179
 20
12.1837208534
 30
0.0
 10
4.6746356336
 20
12.1842845139
 30
0.0
 10
4.6692758407
 20
12.1846699748
 30
0.0
 10
4.6641274056
 20
12.1850178486
 30
0.0
 10
4.6592404687
 20
12.1853247488
 30
0.0
 10
4.6546627987
 20
12.1855876998
 30
0.0
 10
4.6504392781
 20
12.1858041927
 30
0.0
 10
4.6466114181
 20
12.1859721569
 30
0.0
 10
4.6436860478
 20
12.1860739519
 30
0.0
 10
4.6415715188
 20
12.1861279383
 30
0.0
 10
4.6401644591
 20
12.1861539267
 30
0.0
 10
4.6388816668
 20
12.1861668936
 30
0.0
 10
4.6377262843
 20
12.1861668364
 30
0.0
 10
4.6367011152
 20
12.1861538305
 30
0.0
 10
4.6358086447
 20
12.1861279626
 30
0.0
 10
4.6351490193
 20
12.1860945769
 30
0.0
 10
4.6346894935
 20
12.1860600259
 30
0.0
 10
4.6343961154
 20
12.1860321971
 30
0.0
 10
4.634137275
 20
12.1860012603
 30
0.0
 10
4.6339130783
 20
12.185967264
 30
0.0
 10
4.6337236187
 20
12.1859302824
 30
0.0
 10
4.6335687441
 20
12.1858904272
 30
0.0
 10
4.6334484359
 20
12.1858477817
 30
0.0
 10
4.6333706216
 20
12.185807194
 30
0.0
 10
4.6333278217
 20
12.1857714932
 30
0.0
 10
4.6333068933
 20
12.1857457117
 30
0.0
 10
4.6332948298
 20
12.1857185319
 30
0.0
 10
4.6332931789
 20
12.1856996757
 30
0.0
 10
4.633293854
 20
12.1856906745
 30
0.0
  0
SPLINE
  5
47D
100
AcDbEntity
  8
0
100
AcDbSpline
 62
9
  6
CONTINUOUS
 70
0
 71
3
 72
34
 73
30
 74
0
 42
0.0000001
 43
0.0000001
 44
0.0000000001
 40
0.0
 40
0.0
 40
0.0
 40
0.0
 40
0.0604840961
 40
0.1211649047
 40
0.1820798486
 40
0.2126486995
 40
0.2432938363
 40
0.2740208707
 40
0.3048405195
 40
0.3357532972
 40
0.3667640228
 40
0.3978825708
 40
0.4291118519
 40
0.460450922
 40
0.4919058435
 40
0.5550835543
 40
0.6186441686
 40
0.650576428
 40
0.6825574215
 40
0.7145612675
 40
0.7465629026
 40
0.7785349801
 40
0.8104543631
 40
0.8422996797
 40
0.8740552131
 40
0.9057074888
 40
0.9372507334
 40
0.9686854829
 40
1.0
 40
1.0
 40
1.0
 40
1.0
 10
14.2922066106
 20
7.7756684629
 30
0.0
 10
14.2906945279
 20
7.7771805715
 30
0.0
 10
14.2877704827
 20
7.7803173471
 30
0.0
 10
14.2837474645
 20
7.7853509764
 30
0.0
 10
14.2807494831
 20
7.7898275518
 30
0.0
 10
14.2786034454
 20
7.7935760221
 30
0.0
 10
14.2771288832
 20
7.7964745457
 30
0.0
 10
14.2758051953
 20
7.799454863
 30
0.0
 10
14.2746469343
 20
7.8025136411
 30
0.0
 10
14.2736687717
 20
7.8056454149
 30
0.0
 10
14.2728867478
 20
7.8088430173
 30
0.0
 10
14.2723203529
 20
7.8120974961
 30
0.0
 10
14.2719871197
 20
7.8153959441
 30
0.0
 10
14.2719042222
 20
7.8187227626
 30
0.0
 10
14.2721553703
 20
7.8231734865
 30
0.0
 10
14.2731890691
 20
7.8287024264
 30
0.0
 10
14.2752629633
 20
7.8339582798
 30
0.0
 10
14.2775456605
 20
7.8378524739
 30
0.0
 10
14.2795625958
 20
7.8405869065
 30
0.0
 10
14.28186276
 20
7.8430909533
 30
0.0
 10
14.2844185425
 20
7.8453330526
 30
0.0
 10
14.2871966011
 20
7.8472875604
 30
0.0
 10
14.2901595667
 20
7.8489364399
 30
0.0
 10
14.2932675824
 20
7.8502720022
 30
0.0
 10
14.2964827616
 20
7.8512914705
 30
0.0
 10
14.2997685122
 20
7.8520020594
 30
0.0
 10
14.3030929561
 20
7.8524146621
 30
0.0
 10
14.3064277981
 20
7.8525438359
 30
0.0
 10
14.3086470265
 20
7.8524523762
 30
0.0
 10
14.3097507211
 20
7.8523652212
 30
0.0
  0
SPLINE
  5
47E
100
AcDbEntity
  8
0
100
AcDbSpline
 62
7
  6
CONTINUOUS
 70
0
 71
3
 72
56
 73
52
 74
0
 42
0.0000001
 43
0.0000001
 44
0.0000000001
 40
0.0
 40
0.0
 40
0.0
 40
0.0
 40
0.0006851924
 40
0.0014919462
 40
0.0024981447
 40
0.0037445153
 40
0.0052518813
 40
0.007031394
 40
0.0090893396
 40
0.0114290649
 40
0.01695894
 40
0.023623909
 40
0.0314161263
 40
0.0403215981
 40
0.0503220483
 40
0.0613953292
 40
0.0735161594
 40
0.0866564987
 40
0.1158693808
 40
0.1487584573
 40
0.1850119423
 40
0.2242858525
 40
0.2662075083
 40
0.3103790258
 40
0.3563806843
 40
0.4037747561
 40
0.5009216186
 40
0.5981059937
 40
0.6915863867
 40
0.7357967347
 40
0.7777397295
 40
0.8170056627
 40
0.8532109708
 40
0.8860027953
 40
0.915063517
 40
0.9281063038
 40
0.9401153479
 40
0.9510629083
 40
0.9609244613
 40
0.9696787431
 40
0.9773087831
 40
0.9838023242
 40
0.9891537398
 40
0.9914026849
 40
0.9933695764
 40
0.9950587397
 40
0.9964779938
 40
0.9976412199
 40
0.9985746247
 40
0.9993295647
 40
1.0
 40
1.0
 40
1.0
 40
1.0
 10
4.9867546946
 20
12.1763351599
 30
0.0
 10
4.9867566958
 20
12.1763618426
 30
0.0
 10
4.986746549
 20
12.1764213804
 30
0.0
 10
4.9866943645
 20
12.1765055001
 30
0.0
 10
4.9866089049
 20
12.1765899152
 30
0.0
 10
4.9864896445
 20
12.1766762038
 30
0.0
 10
4.9863362177
 20
12.1767649253
 30
0.0
 10
4.9861483394
 20
12.1768561471
 30
0.0
 10
4.9859259594
 20
12.1769498408
 30
0.0
 10
4.9855627497
 20
12.1770856369
 30
0.0
 10
4.9850215948
 20
12.177257853
 30
0.0
 10
4.9842686297
 20
12.1774638672
 30
0.0
 10
4.983381719
 20
12.1776782464
 30
0.0
 10
4.9823630008
 20
12.1779003981
 30
0.0
 10
4.9812148874
 20
12.1781296362
 30
0.0
 10
4.9799401723
 20
12.1783653458
 30
0.0
 10
4.9785419531
 20
12.178606917
 30
0.0
 10
4.9764421954
 20
12.17894818
 30
0.0
 10
4.9735358909
 20
12.1793815121
 30
0.0
 10
4.9697299107
 20
12.1798988589
 30
0.0
 10
4.9655288608
 20
12.1804249891
 30
0.0
 10
4.9609729745
 20
12.1809547552
 30
0.0
 10
4.9561057663
 20
12.18148296
 30
0.0
 10
4.9509736902
 20
12.1820044762
 30
0.0
 10
4.9456257248
 20
12.1825142687
 30
0.0
 10
4.9382143503
 20
12.1831771776
 30
0.0
 10
4.9288053189
 20
12.1839397484
 30
0.0
 10
4.9175934776
 20
12.1847292408
 30
0.0
 10
4.9084372078
 20
12.1852730801
 30
0.0
 10
4.9014309408
 20
12.185622379
 30
0.0
 10
4.8965376237
 20
12.1858324848
 30
0.0
 10
4.891955233
 20
12.1859936895
 30
0.0
 10
4.8877288067
 20
12.1861045049
 30
0.0
 10
4.8838999062
 20
12.1861639461
 30
0.0
 10
4.8809750264
 20
12.1861708335
 30
0.0
 10
4.8788619631
 20
12.1861474007
 30
0.0
 10
4.8774564322
 20
12.1861174085
 30
0.0
 10
4.8761755226
 20
12.1860745177
 30
0.0
 10
4.875022323
 20
12.1860188887
 30
0.0
 10
4.8739995903
 20
12.1859507278
 30
0.0
 10
4.8731096795
 20
12.1858703847
 30
0.0
 10
4.8723546416
 20
12.1857781489
 30
0.0
 10
4.8718114125
 20
12.1856875936
 30
0.0
 10
4.8714466261
 20
12.1856064312
 30
0.0
 10
4.8712239019
 20
12.1855463107
 30
0.0
 10
4.8710357755
 20
12.1854834539
 30
0.0
 10
4.8708821185
 20
12.1854178941
 30
0.0
 10
4.8707625504
 20
12.1853494883
 30
0.0
 10
4.8706764547
 20
12.1852775662
 30
0.0
 10
4.8706237496
 20
12.1851996853
 30
0.0
 10
4.8706145794
 20
12.1851424911
 30
0.0
 10
4.8706165375
 20
12.1851163831
 30
0.0
  0
SPLINE
  5
47F
100
AcDbEntity
  8
0
100
AcDbSpline
 62
7
  6
CONTINUOUS
 70
0
 71
3
 72
55
 73
51
 74
0
 42
0.0000001
 43
0.0000001
 44
0.0000000001
 40
0.0
 40
0.0
 40
0.0
 40
0.0
 40
0.0008553307
 40
0.0018066458
 40
0.0029278321
 40
0.0042646172
 40
0.0058436005
 40
0.007680396
 40
0.0097844576
 40
0.0121613754
 40
0.0177446946
 40
0.0244422502
 40
0.0322513423
 40
0.0411613386
 40
0.0511563444
 40
0.062216026
 40
0.0743165246
 40
0.0874309935
 40
0.1165793229
 40
0.1493923639
 40
0.1855635687
 40
0.224753016
 40
0.2665910106
 40
0.3106816501
 40
0.4039265771
 40
0.5009357092
 40
0.5979841477
 40
0.6913180119
 40
0.7354490269
 40
0.7773088636
 40
0.8164892847
 40
0.8526093158
 40
0.8853199289
 40
0.9143086713
 40
0.9273210782
 40
0.9393048038
 40
0.9502333636
 40
0.9600837697
 40
0.9688367014
 40
0.9764777804
 40
0.9829984504
 40
0.9883987826
 40
0.9906833432
 40
0.992695494
 40
0.9944421502
 40
0.9959347968
 40
0.9971924349
 40
0.9982475351
 40
0.9991551864
 40
1.0
 40
1.0
 40
1.0
 40
1.0
 10
5.3043531372
 20
12.1770863832
 30
0.0
 10
5.3043556404
 20
12.1771197603
 30
0.0
 10
5.3043475388
 20
12.1771917144
 30
0.0
 10
5.3042980929
 20
12.1772966512
 30
0.0
 10
5.3042141247
 20
12.1774014079
 30
0.0
 10
5.3040961241
 20
12.1775071622
 30
0.0
 10
5.3039439476
 20
12.1776145861
 30
0.0
 10
5.3037574083
 20
12.1777238658
 30
0.0
 10
5.3035364402
 20
12.1778350329
 30
0.0
 10
5.3031761366
 20
12.1779943645
 30
0.0
 10
5.3026379568
 20
12.1781941259
 30
0.0
 10
5.3018877307
 20
12.1784297397
 30
0.0
 10
5.3010036622
 20
12.1786714537
 30
0.0
 10
5.2999878167
 20
12.1789186087
 30
0.0
 10
5.2988425192
 20
12.1791704516
 30
0.0
 10
5.2975705071
 20
12.1794263065
 30
0.0
 10
5.2961748252
 20
12.179685514
 30
0.0
 10
5.2940784667
 20
12.1800475833
 30
0.0
 10
5.2911753599
 20
12.1804995407
 30
0.0
 10
5.2873716579
 20
12.1810281522
 30
0.0
 10
5.2831713896
 20
12.181554935
 30
0.0
 10
5.2786146259
 20
12.182074695
 30
0.0
 10
5.2737448051
 20
12.182582303
 30
0.0
 10
5.2667650335
 20
12.183248688
 30
0.0
 10
5.2576259833
 20
12.1840108371
 30
0.0
 10
5.246409909
 20
12.1847896994
 30
0.0
 10
5.2351809104
 20
12.1854180541
 30
0.0
 10
5.2260116185
 20
12.1858032156
 30
0.0
 10
5.2189973303
 20
12.1860130763
 30
0.0
 10
5.2141001383
 20
12.1861166763
 30
0.0
 10
5.2095156205
 20
12.1861685937
 30
0.0
 10
5.2052888079
 20
12.1861684633
 30
0.0
 10
5.2014611556
 20
12.1861164449
 30
0.0
 10
5.1985386577
 20
12.1860279093
 30
0.0
 10
5.1964284326
 20
12.1859279856
 30
0.0
 10
5.195025131
 20
12.185843278
 30
0.0
 10
5.193746665
 20
12.1857463842
 30
0.0
 10
5.1925960661
 20
12.1856376071
 30
0.0
 10
5.1915760301
 20
12.1855172967
 30
0.0
 10
5.1906888108
 20
12.1853859461
 30
0.0
 10
5.1899363755
 20
12.1852439808
 30
0.0
 10
5.1893960271
 20
12.1851112228
 30
0.0
 10
5.1890341576
 20
12.184996542
 30
0.0
 10
5.1888127919
 20
12.1849129095
 30
0.0
 10
5.1886259339
 20
12.1848268578
 30
0.0
 10
5.188473444
 20
12.184738326
 30
0.0
 10
5.1883550648
 20
12.1846470359
 30
0.0
 10
5.1882706066
 20
12.1845521083
 30
0.0
 10
5.1882211035
 20
12.1844520914
 30
0.0
 10
5.1882137063
 20
12.1843821424
 30
0.0
 10
5.1882161788
 20
12.1843491757
 30
0.0
  0
SPLINE
  5
480
100
AcDbEntity
  8
0
100
AcDbSpline
 62
9
  6
CONTINUOUS
 70
0
 71
3
 72
41
 73
37
 74
0
 42
0.0000001
 43
0.0000001
 44
0.0000000001
 40
0.0
 40
0.0
 40
0.0
 40
0.0
 40
0.0624812519
 40
0.1249589272
 40
0.1562112353
 40
0.1874633169
 40
0.2187154478
 40
0.2499673232
 40
0.2812189285
 40
0.312470443
 40
0.3437220444
 40
0.3749729538
 40
0.4062240592
 40
0.4374748338
 40
0.4687254009
 40
0.4999758944
 40
0.5312260691
 40
0.5624761078
 40
0.5937260416
 40
0.6249758745
 40
0.656225616
 40
0.6874753112
 40
0.7187249656
 40
0.7499746812
 40
0.78122436
 40
0.8124742672
 40
0.8281026129
 40
0.8437308332
 40
0.8749806653
 40
0.890609269
 40
0.906237728
 40
0.9218655595
 40
0.9374927317
 40
0.9531208592
 40
0.968750671
 40
1.0
 40
1.0
 40
1.0
 40
1.0
 10
14.2639224492
 20
7.7473843015
 30
0.0
 10
14.2610633889
 20
7.7502433172
 30
0.0
 10
14.2556523919
 20
7.7562779152
 30
0.0
 10
14.249783384
 20
7.7645377265
 30
0.0
 10
14.2457011998
 20
7.7715246943
 30
0.0
 10
14.2429632056
 20
7.7769433727
 30
0.0
 10
14.2405676289
 20
7.7825219017
 30
0.0
 10
14.2385339065
 20
7.7882425474
 30
0.0
 10
14.2368810069
 20
7.7940848217
 30
0.0
 10
14.2356268305
 20
7.8000256586
 30
0.0
 10
14.234785355
 20
7.8060390469
 30
0.0
 10
14.2343740827
 20
7.8120973877
 30
0.0
 10
14.234406351
 20
7.8181697139
 30
0.0
 10
14.2348890079
 20
7.8242231632
 30
0.0
 10
14.2358331771
 20
7.8302222382
 30
0.0
 10
14.2372409176
 20
7.8361298934
 30
0.0
 10
14.2391119391
 20
7.8419077745
 30
0.0
 10
14.241442385
 20
7.8475163178
 30
0.0
 10
14.2442231388
 20
7.8529159218
 30
0.0
 10
14.2474398106
 20
7.858067889
 30
0.0
 10
14.2510743483
 20
7.8629341984
 30
0.0
 10
14.255103308
 20
7.8674793872
 30
0.0
 10
14.2594990962
 20
7.8716708339
 30
0.0
 10
14.2642305297
 20
7.8754793719
 30
0.0
 10
14.269263181
 20
7.8788795037
 30
0.0
 10
14.2736781222
 20
7.8813558872
 30
0.0
 10
14.2773217169
 20
7.8831147287
 30
0.0
 10
14.281033973
 20
7.8847234292
 30
0.0
 10
14.2848418149
 20
7.8861033566
 30
0.0
 10
14.2887208103
 20
7.8872527949
 30
0.0
 10
14.2916622529
 20
7.8879999588
 30
0.0
 10
14.2946306536
 20
7.8886308386
 30
0.0
 10
14.2976215439
 20
7.8891444051
 30
0.0
 10
14.3006301584
 20
7.8895424031
 30
0.0
 10
14.3046578804
 20
7.8899221369
 30
0.0
 10
14.307693091
 20
7.8900380545
 30
0.0
 10
14.3097152993
 20
7.8900383899
 30
0.0
  0
SPLINE
  5
481
100
AcDbEntity
  8
0
100
AcDbSpline
 62
7
  6
CONTINUOUS
 70
0
 71
3
 72
56
 73
52
 74
0
 42
0.0000001
 43
0.0000001
 44
0.0000000001
 40
0.0
 40
0.0
 40
0.0
 40
0.0
 40
0.0009897204
 40
0.0020580696
 40
0.0032747777
 40
0.0046875293
 40
0.0063265369
 40
0.0082107071
 40
0.0103520583
 40
0.0127581071
 40
0.0183804223
 40
0.0250978394
 40
0.0329125608
 40
0.0418172364
 40
0.0517983311
 40
0.062837297
 40
0.0749116983
 40
0.0879958559
 40
0.1170745509
 40
0.1498111051
 40
0.1859035103
 40
0.2250150241
 40
0.2667779796
 40
0.3107974465
 40
0.4039108207
 40
0.500795711
 40
0.5977149016
 40
0.6450085913
 40
0.6909066241
 40
0.7349611168
 40
0.776742797
 40
0.8158459871
 40
0.851893251
 40
0.8845400558
 40
0.9134794411
 40
0.9264747022
 40
0.9384475533
 40
0.9493726571
 40
0.9592284038
 40
0.9679972001
 40
0.9756669466
 40
0.9822323079
 40
0.9876982307
 40
0.9900259042
 40
0.9920897975
 40
0.9938987633
 40
0.9954667974
 40
0.9968159108
 40
0.9979811979
 40
0.9990171139
 40
1.0
 40
1.0
 40
1.0
 40
1.0
 10
5.6883478833
 20
12.1779966461
 30
0.0
 10
5.6883507852
 20
12.1780353381
 30
0.0
 10
5.6883439934
 20
12.1781172088
 30
0.0
 10
5.6882966082
 20
12.178238004
 30
0.0
 10
5.6882140916
 20
12.178358324
 30
0.0
 10
5.6880972505
 20
12.178478902
 30
0.0
 10
5.6879461654
 20
12.1786003865
 30
0.0
 10
5.6877607407
 20
12.1787230186
 30
0.0
 10
5.6875409269
 20
12.1788468741
 30
0.0
 10
5.687182997
 20
12.1790228511
 30
0.0
 10
5.6866472156
 20
12.1792415662
 30
0.0
 10
5.6858991201
 20
12.1794966481
 30
0.0
 10
5.6850172269
 20
12.179755299
 30
0.0
 10
5.6840035264
 20
12.1800168243
 30
0.0
 10
5.6828602611
 20
12.1802804386
 30
0.0
 10
5.6815901117
 20
12.1805454345
 30
0.0
 10
5.6801960721
 20
12.1808111297
 30
0.0
 10
5.6781016816
 20
12.1811784495
 30
0.0
 10
5.6751999422
 20
12.1816295918
 30
0.0
 10
5.6713964291
 20
12.1821466727
 30
0.0
 10
5.6671948259
 20
12.1826513366
 30
0.0
 10
5.6626351502
 20
12.1831385528
 30
0.0
 10
5.6577608827
 20
12.1836034499
 30
0.0
 10
5.6507727146
 20
12.1841984821
 30
0.0
 10
5.6416209327
 20
12.1848487083
 30
0.0
 10
5.630389132
 20
12.1854637317
 30
0.0
 10
5.6209439771
 20
12.1858325117
 30
0.0
 10
5.6134935109
 20
12.1860308785
 30
0.0
 10
5.6081137552
 20
12.1861273364
 30
0.0
 10
5.6029494118
 20
12.1861718518
 30
0.0
 10
5.5980512498
 20
12.1861640415
 30
0.0
 10
5.5934673684
 20
12.1861041004
 30
0.0
 10
5.589242641
 20
12.1859928378
 30
0.0
 10
5.5854182853
 20
12.1858315476
 30
0.0
 10
5.5824996887
 20
12.1856514852
 30
0.0
 10
5.5803932626
 20
12.1854795401
 30
0.0
 10
5.5789926087
 20
12.1853438975
 30
0.0
 10
5.5777168573
 20
12.1851973302
 30
0.0
 10
5.5765689881
 20
12.1850402649
 30
0.0
 10
5.5755516428
 20
12.1848731738
 30
0.0
 10
5.5746669942
 20
12.1846966578
 30
0.0
 10
5.5739169412
 20
12.1845112487
 30
0.0
 10
5.5733792778
 20
12.1843422356
 30
0.0
 10
5.5730200497
 20
12.1841992776
 30
0.0
 10
5.5727998682
 20
12.1840958379
 30
0.0
 10
5.5726141377
 20
12.183990398
 30
0.0
 10
5.5724627584
 20
12.1838828443
 30
0.0
 10
5.5723456042
 20
12.1837728513
 30
0.0
 10
5.572262805
 20
12.1836596336
 30
0.0
 10
5.5722155164
 20
12.1835424351
 30
0.0
 10
5.5722091895
 20
12.1834620522
 30
0.0
 10
5.5722120714
 20
12.1834236274
 30
0.0
  0
SPLINE
  5
482
100
AcDbEntity
  8
0
100
AcDbSpline
 62
7
  6
CONTINUOUS
 70
0
 71
3
 72
57
 73
53
 74
0
 42
0.0000001
 43
0.0000001
 44
0.0000000001
 40
0.0
 40
0.0
 40
0.0
 40
0.0
 40
0.0010822255
 40
0.0022307232
 40
0.0035125096
 40
0.0049762004
 40
0.0066542779
 40
0.0085679197
 40
0.010731019
 40
0.0131525582
 40
0.0187911312
 40
0.0255104211
 40
0.0333166142
 40
0.0422050824
 40
0.052164268
 40
0.0631770931
 40
0.0752223218
 40
0.0882752163
 40
0.1172879943
 40
0.1499579844
 40
0.1859862901
 40
0.2250379452
 40
0.2667459248
 40
0.3107149981
 40
0.3565255047
 40
0.4037375905
 40
0.5005317462
 40
0.5973492202
 40
0.6445862945
 40
0.6904244044
 40
0.7344171837
 40
0.7761377376
 40
0.8151835389
 40
0.851180948
 40
0.8837897671
 40
0.9127078204
 40
0.9257003634
 40
0.9376767412
 40
0.9486124538
 40
0.9584868672
 40
0.967283593
 40
0.9749920977
 40
0.981609233
 40
0.9871431964
 40
0.9895125898
 40
0.9916244107
 40
0.9934886239
 40
0.9951205279
 40
0.9965434133
 40
0.9977928878
 40
0.9989215563
 40
1.0
 40
1.0
 40
1.0
 40
1.0
 10
6.1219565938
 20
12.1790271489
 30
0.0
 10
6.1219597712
 20
12.1790695144
 30
0.0
 10
6.1219538165
 20
12.1791582191
 30
0.0
 10
6.1219077972
 20
12.1792896141
 30
0.0
 10
6.1218263545
 20
12.1794201224
 30
0.0
 10
6.1217103781
 20
12.1795501975
 30
0.0
 10
6.1215600848
 20
12.1796804298
 30
0.0
 10
6.1213754457
 20
12.1798110824
 30
0.0
 10
6.12115643
 20
12.1799422577
 30
0.0
 10
6.1208001085
 20
12.18012733
 30
0.0
 10
6.1202659025
 20
12.1803555699
 30
0.0
 10
6.1195191437
 20
12.1806190847
 30
0.0
 10
6.118638551
 20
12.1808834939
 30
0.0
 10
6.1176260489
 20
12.1811480937
 30
0.0
 10
6.1164838114
 20
12.1814120937
 30
0.0
 10
6.1152144715
 20
12.1816747833
 30
0.0
 10
6.1138209823
 20
12.1819354819
 30
0.0
 10
6.1117268614
 20
12.1822921882
 30
0.0
 10
6.108824457
 20
12.1827229706
 30
0.0
 10
6.1050189874
 20
12.1832060292
 30
0.0
 10
6.100814055
 20
12.1836665379
 30
0.0
 10
6.0962497477
 20
12.1840998448
 30
0.0
 10
6.0913697141
 20
12.1845015133
 30
0.0
 10
6.0862208563
 20
12.1848674856
 30
0.0
 10
6.0808528697
 20
12.1851940885
 30
0.0
 10
6.0734110012
 20
12.1855757463
 30
0.0
 10
6.0639632516
 20
12.1859312362
 30
0.0
 10
6.0545097966
 20
12.1861238823
 30
0.0
 10
6.0470553355
 20
12.186173957
 30
0.0
 10
6.0416744482
 20
12.1861586694
 30
0.0
 10
6.0365105331
 20
12.1860911364
 30
0.0
 10
6.0316142476
 20
12.1859721111
 30
0.0
 10
6.0270334894
 20
12.1858029166
 30
0.0
 10
6.0228128539
 20
12.1855854713
 30
0.0
 10
6.0189932432
 20
12.1853221378
 30
0.0
 10
6.0160794125
 20
12.1850586593
 30
0.0
 10
6.0139771449
 20
12.1848224572
 30
0.0
 10
6.0125791784
 20
12.1846419751
 30
0.0
 10
6.0113060464
 20
12.1844523124
 30
0.0
 10
6.010160691
 20
12.1842539971
 30
0.0
 10
6.0091457168
 20
12.1840475984
 30
0.0
 10
6.0082632476
 20
12.1838337956
 30
0.0
 10
6.0075151424
 20
12.1836131983
 30
0.0
 10
6.0069796643
 20
12.1834155036
 30
0.0
 10
6.0066224938
 20
12.1832506832
 30
0.0
 10
6.0064032201
 20
12.1831320503
 30
0.0
 10
6.0062183648
 20
12.1830119448
 30
0.0
 10
6.0060678696
 20
12.1828902355
 30
0.0
 10
6.0059516994
 20
12.1827666052
 30
0.0
 10
6.005870122
 20
12.1826403996
 30
0.0
 10
6.0058242019
 20
12.1825111984
 30
0.0
 10
6.0058185113
 20
12.1824233986
 30
0.0
 10
6.0058216776
 20
12.1823811811
 30
0.0
  0
SPLINE
  5
483
100
AcDbEntity
  8
0
100
AcDbSpline
 62
7
  6
CONTINUOUS
 70
0
 71
3
 72
57
 73
53
 74
0
 42
0.0000001
 43
0.0000001
 44
0.0000000001
 40
0.0
 40
0.0
 40
0.0
 40
0.0
 40
0.0011288924
 40
0.0023153371
 40
0.0036254785
 40
0.0051088378
 40
0.006799427
 40
0.0087198864
 40
0.0108853077
 40
0.0133056159
 40
0.0189336325
 40
0.0256349466
 40
0.033418285
 40
0.0422807947
 40
0.0522122019
 40
0.0631963577
 40
0.0752128129
 40
0.0882373805
 40
0.1171965666
 40
0.149818997
 40
0.1858068867
 40
0.224825251
 40
0.2665061491
 40
0.3104527812
 40
0.3562435358
 40
0.4034364657
 40
0.5001865236
 40
0.5969448385
 40
0.6441466134
 40
0.6899471321
 40
0.7339021396
 40
0.7755874625
 40
0.8146037208
 40
0.8505806403
 40
0.8831813961
 40
0.9121070545
 40
0.925110272
 40
0.9371023855
 40
0.9480592927
 40
0.9579607691
 40
0.9667909224
 40
0.9745398457
 40
0.9812052346
 40
0.9867965477
 40
0.9891986123
 40
0.9913461386
 40
0.9932494124
 40
0.9949240304
 40
0.9963933748
 40
0.9976925244
 40
0.9988723099
 40
1.0
 40
1.0
 40
1.0
 40
1.0
 10
6.5862285455
 20
12.1801336296
 30
0.0
 10
6.5862318622
 20
12.1801778536
 30
0.0
 10
6.5862263553
 20
12.1802699199
 30
0.0
 10
6.5861810346
 20
12.1804063362
 30
0.0
 10
6.586100141
 20
12.1805413014
 30
0.0
 10
6.585984598
 20
12.1806751325
 30
0.0
 10
6.5858346908
 20
12.1808083876
 30
0.0
 10
6.5856504251
 20
12.1809413433
 30
0.0
 10
6.5854317775
 20
12.1810741182
 30
0.0
 10
6.5850761444
 20
12.1812603662
 30
0.0
 10
6.5845425268
 20
12.181488247
 30
0.0
 10
6.5837962005
 20
12.1817487114
 30
0.0
 10
6.5829159223
 20
12.1820073753
 30
0.0
 10
6.581903568
 20
12.1822635466
 30
0.0
 10
6.5807612656
 20
12.1825164519
 30
0.0
 10
6.5794916166
 20
12.1827654038
 30
0.0
 10
6.5780975498
 20
12.1830097472
 30
0.0
 10
6.576001997
 20
12.1833402984
 30
0.0
 10
6.5730970218
 20
12.1837318671
 30
0.0
 10
6.5692877571
 20
12.1841596599
 30
0.0
 10
6.5650779869
 20
12.1845556665
 30
0.0
 10
6.5605079919
 20
12.1849158121
 30
0.0
 10
6.5556216943
 20
12.1852363241
 30
0.0
 10
6.5504663318
 20
12.1855138992
 30
0.0
 10
6.5450919681
 20
12.1857457016
 30
0.0
 10
6.537642326
 20
12.1859925098
 30
0.0
 10
6.528187561
 20
12.1861706188
 30
0.0
 10
6.5187307735
 20
12.1861780944
 30
0.0
 10
6.5112766679
 20
12.1860774441
 30
0.0
 10
6.5058977328
 20
12.1859510178
 30
0.0
 10
6.5007370361
 20
12.1857744433
 30
0.0
 10
6.4958449831
 20
12.1855495669
 30
0.0
 10
6.4912691643
 20
12.1852787666
 30
0.0
 10
6.4870538371
 20
12.1849649652
 30
0.0
 10
6.4832395703
 20
12.1846114658
 30
0.0
 10
6.4803305556
 20
12.1842764464
 30
0.0
 10
6.478232125
 20
12.1839866121
 30
0.0
 10
6.4768364771
 20
12.1837693736
 30
0.0
 10
6.4755654892
 20
12.1835450937
 30
0.0
 10
6.4744220855
 20
12.1833143768
 30
0.0
 10
6.473408857
 20
12.1830778635
 30
0.0
 10
6.4725279135
 20
12.1828362892
 30
0.0
 10
6.4717811069
 20
12.1825903162
 30
0.0
 10
6.47124704
 20
12.1823727359
 30
0.0
 10
6.470891112
 20
12.1821933108
 30
0.0
 10
6.4706723717
 20
12.1820647648
 30
0.0
 10
6.4704880282
 20
12.1819353623
 30
0.0
 10
6.4703380497
 20
12.1818049746
 30
0.0
 10
6.4702224421
 20
12.1816733068
 30
0.0
 10
6.4701415096
 20
12.1815397834
 30
0.0
 10
6.4700962276
 20
12.1814041042
 30
0.0
 10
6.4700908063
 20
12.1813123405
 30
0.0
 10
6.4700941195
 20
12.1812681636
 30
0.0
  0
SPLINE
  5
484
100
AcDbEntity
  8
0
100
AcDbSpline
 62
7
  6
CONTINUOUS
 70
0
 71
3
 72
57
 73
53
 74
0
 42
0.0000001
 43
0.0000001
 44
0.0000000001
 40
0.0
 40
0.0
 40
0.0
 40
0.0
 40
0.0011276901
 40
0.0023074756
 40
0.0036066252
 40
0.0050759696
 40
0.0067505876
 40
0.0086538613
 40
0.0108013876
 40
0.0132034523
 40
0.0187947653
 40
0.0254601542
 40
0.0332090775
 40
0.0420392307
 40
0.051940707
 40
0.0628976141
 40
0.0748897274
 40
0.0878929451
 40
0.1168186028
 40
0.149419359
 40
0.1853962781
 40
0.2244125369
 40
0.2660978598
 40
0.3100528669
 40
0.3558533856
 40
0.4030551599
 40
0.4998134739
 40
0.5965635324
 40
0.6437564637
 40
0.6895472187
 40
0.7334938519
 40
0.7751747499
 40
0.8141931138
 40
0.8501810033
 40
0.8828034335
 40
0.9117626198
 40
0.9247871874
 40
0.9368036426
 40
0.9477877984
 40
0.9577192056
 40
0.9665817152
 40
0.9743650536
 40
0.9810663675
 40
0.9866943842
 40
0.9891146924
 40
0.9912801137
 40
0.993200573
 40
0.9948911623
 40
0.9963745215
 40
0.9976846629
 40
0.9988711076
 40
1.0
 40
1.0
 40
1.0
 40
1.0
 10
7.0608728587
 20
12.1812681636
 30
0.0
 10
7.060876172
 20
12.1813123405
 30
0.0
 10
7.0608707507
 20
12.1814041042
 30
0.0
 10
7.0608254686
 20
12.1815397834
 30
0.0
 10
7.0607445362
 20
12.1816733068
 30
0.0
 10
7.0606289286
 20
12.1818049746
 30
0.0
 10
7.0604789501
 20
12.1819353623
 30
0.0
 10
7.0602946066
 20
12.1820647648
 30
0.0
 10
7.0600758663
 20
12.1821933108
 30
0.0
 10
7.0597199383
 20
12.1823727359
 30
0.0
 10
7.0591858714
 20
12.1825903162
 30
0.0
 10
7.0584390648
 20
12.1828362892
 30
0.0
 10
7.0575581213
 20
12.1830778635
 30
0.0
 10
7.0565448928
 20
12.1833143768
 30
0.0
 10
7.0554014891
 20
12.1835450937
 30
0.0
 10
7.0541305012
 20
12.1837693736
 30
0.0
 10
7.0527348533
 20
12.1839866121
 30
0.0
 10
7.0506364228
 20
12.1842764464
 30
0.0
 10
7.047727408
 20
12.1846114657
 30
0.0
 10
7.0439131413
 20
12.1849649651
 30
0.0
 10
7.039697814
 20
12.1852787666
 30
0.0
 10
7.0351219953
 20
12.1855495669
 30
0.0
 10
7.0302299422
 20
12.1857744433
 30
0.0
 10
7.0250692456
 20
12.1859510178
 30
0.0
 10
7.0196903105
 20
12.1860774441
 30
0.0
 10
7.012236205
 20
12.1861780944
 30
0.0
 10
7.0027794175
 20
12.1861706188
 30
0.0
 10
6.9933246525
 20
12.1859925098
 30
0.0
 10
6.9858750103
 20
12.1857457016
 30
0.0
 10
6.9805006465
 20
12.1855138992
 30
0.0
 10
6.9753452839
 20
12.1852363241
 30
0.0
 10
6.9704589862
 20
12.1849158121
 30
0.0
 10
6.9658889913
 20
12.1845556665
 30
0.0
 10
6.9616792211
 20
12.1841596599
 30
0.0
 10
6.9578699564
 20
12.1837318671
 30
0.0
 10
6.9549649813
 20
12.1833402984
 30
0.0
 10
6.9528694284
 20
12.1830097472
 30
0.0
 10
6.9514753616
 20
12.1827654038
 30
0.0
 10
6.9502057126
 20
12.1825164518
 30
0.0
 10
6.9490634102
 20
12.1822635466
 30
0.0
 10
6.9480510559
 20
12.1820073753
 30
0.0
 10
6.9471707777
 20
12.1817487114
 30
0.0
 10
6.9464244514
 20
12.181488247
 30
0.0
 10
6.9458908338
 20
12.1812603662
 30
0.0
 10
6.9455352007
 20
12.1810741182
 30
0.0
 10
6.9453165532
 20
12.1809413433
 30
0.0
 10
6.9451322874
 20
12.1808083876
 30
0.0
 10
6.9449823802
 20
12.1806751325
 30
0.0
 10
6.9448668373
 20
12.1805413014
 30
0.0
 10
6.9447859437
 20
12.1804063362
 30
0.0
 10
6.9447406229
 20
12.1802699199
 30
0.0
 10
6.944735116
 20
12.1801778536
 30
0.0
 10
6.9447384328
 20
12.1801336296
 30
0.0
  0
SPLINE
  5
485
100
AcDbEntity
  8
0
100
AcDbSpline
 62
7
  6
CONTINUOUS
 70
0
 71
3
 72
57
 73
53
 74
0
 42
0.0000001
 43
0.0000001
 44
0.0000000001
 40
0.0
 40
0.0
 40
0.0
 40
0.0
 40
0.0010784437
 40
0.0022071122
 40
0.0034565867
 40
0.0048794721
 40
0.0065113761
 40
0.0083755893
 40
0.0104874102
 40
0.0128568036
 40
0.018390767
 40
0.0250079022
 40
0.032716407
 40
0.0415131328
 40
0.0513875461
 40
0.0623232586
 40
0.0742996362
 40
0.0872921793
 40
0.1162102318
 40
0.1488190514
 40
0.1848164598
 40
0.2238622616
 40
0.2655828155
 40
0.3095755946
 40
0.3554137047
 40
0.4026507786
 40
0.4994682524
 40
0.5962624091
 40
0.6434744965
 40
0.6892850036
 40
0.7332540781
 40
0.7749620578
 40
0.8140137126
 40
0.8500420175
 40
0.8827120077
 40
0.9117247851
 40
0.9247776795
 40
0.9368229081
 40
0.9478357329
 40
0.9577949183
 40
0.9666833864
 40
0.9744895794
 40
0.9812088691
 40
0.986847442
 40
0.9892689812
 40
0.9914320805
 40
0.9933457223
 40
0.9950237996
 40
0.9964874904
 40
0.9977692769
 40
0.9989177745
 40
1.0
 40
1.0
 40
1.0
 40
1.0
 10
7.5251453007
 20
12.1823811811
 30
0.0
 10
7.525148467
 20
12.1824233986
 30
0.0
 10
7.5251427763
 20
12.1825111984
 30
0.0
 10
7.5250968563
 20
12.1826403996
 30
0.0
 10
7.5250152788
 20
12.1827666052
 30
0.0
 10
7.5248991086
 20
12.1828902355
 30
0.0
 10
7.5247486134
 20
12.1830119448
 30
0.0
 10
7.5245637581
 20
12.1831320503
 30
0.0
 10
7.5243444845
 20
12.1832506832
 30
0.0
 10
7.5239873139
 20
12.1834155036
 30
0.0
 10
7.5234518359
 20
12.1836131983
 30
0.0
 10
7.5227037307
 20
12.1838337956
 30
0.0
 10
7.5218212615
 20
12.1840475984
 30
0.0
 10
7.5208062873
 20
12.1842539971
 30
0.0
 10
7.5196609319
 20
12.1844523124
 30
0.0
 10
7.5183877999
 20
12.1846419751
 30
0.0
 10
7.5169898334
 20
12.1848224572
 30
0.0
 10
7.5148875658
 20
12.1850586593
 30
0.0
 10
7.5119737352
 20
12.1853221378
 30
0.0
 10
7.5081541245
 20
12.1855854713
 30
0.0
 10
7.503933489
 20
12.1858029166
 30
0.0
 10
7.4993527308
 20
12.1859721111
 30
0.0
 10
7.4944564452
 20
12.1860911364
 30
0.0
 10
7.4892925302
 20
12.1861586694
 30
0.0
 10
7.4839116429
 20
12.186173957
 30
0.0
 10
7.4764571818
 20
12.1861238823
 30
0.0
 10
7.4670037268
 20
12.1859312362
 30
0.0
 10
7.457555977
 20
12.1855757463
 30
0.0
 10
7.4501141085
 20
12.1851940885
 30
0.0
 10
7.4447461218
 20
12.1848674856
 30
0.0
 10
7.4395972639
 20
12.1845015133
 30
0.0
 10
7.4347172302
 20
12.1840998448
 30
0.0
 10
7.4301529229
 20
12.1836665379
 30
0.0
 10
7.4259479907
 20
12.1832060292
 30
0.0
 10
7.422142521
 20
12.1827229706
 30
0.0
 10
7.4192401166
 20
12.1822921882
 30
0.0
 10
7.4171459958
 20
12.1819354819
 30
0.0
 10
7.4157525066
 20
12.1816747832
 30
0.0
 10
7.4144831668
 20
12.1814120937
 30
0.0
 10
7.4133409293
 20
12.1811480937
 30
0.0
 10
7.4123284272
 20
12.1808834939
 30
0.0
 10
7.4114478346
 20
12.1806190847
 30
0.0
 10
7.4107010758
 20
12.1803555699
 30
0.0
 10
7.4101668698
 20
12.18012733
 30
0.0
 10
7.4098105482
 20
12.1799422577
 30
0.0
 10
7.4095915325
 20
12.1798110824
 30
0.0
 10
7.4094068935
 20
12.1796804298
 30
0.0
 10
7.4092566002
 20
12.1795501975
 30
0.0
 10
7.4091406238
 20
12.1794201224
 30
0.0
 10
7.409059181
 20
12.1792896141
 30
0.0
 10
7.4090131617
 20
12.1791582191
 30
0.0
 10
7.4090072071
 20
12.1790695144
 30
0.0
 10
7.4090103845
 20
12.1790271489
 30
0.0
  0
SPLINE
  5
486
100
AcDbEntity
  8
0
100
AcDbSpline
 62
9
  6
CONTINUOUS
 70
0
 71
3
 72
31
 73
27
 74
0
 42
0.0000001
 43
0.0000001
 44
0.0000000001
 40
0.0
 40
0.0
 40
0.0
 40
0.0
 40
0.0292867909
 40
0.0454332258
 40
0.0627303053
 40
0.0812686482
 40
0.1010901046
 40
0.1222017232
 40
0.1446036977
 40
0.1682978691
 40
0.1932750923
 40
0.2469547975
 40
0.3054270542
 40
0.3684777424
 40
0.4358483462
 40
0.5072955895
 40
0.5444682962
 40
0.5825507548
 40
0.6214963849
 40
0.6612567831
 40
0.7429754985
 40
0.8271617258
 40
0.8699686388
 40
0.9131187042
 40
0.9565075742
 40
1.0
 40
1.0
 40
1.0
 40
1.0
 10
15.0434834891
 20
7.910874274
 30
0.0
 10
15.0434834971
 20
7.9104070986
 30
0.0
 10
15.0433706636
 20
7.909680521
 30
0.0
 10
15.0430582548
 20
7.9087293797
 30
0.0
 10
15.0427244092
 20
7.9079688313
 30
0.0
 10
15.0423013294
 20
7.9071874135
 30
0.0
 10
15.0417908281
 20
7.9063869356
 30
0.0
 10
15.0411943934
 20
7.9055707361
 30
0.0
 10
15.0405137359
 20
7.9047417944
 30
0.0
 10
15.0397509692
 20
7.9039024258
 30
0.0
 10
15.038599345
 20
7.9027444544
 30
0.0
 10
15.0369583948
 20
7.901294118
 30
0.0
 10
15.0347309261
 20
7.8996025795
 30
0.0
 10
15.032212764
 20
7.8979437754
 30
0.0
 10
15.0294105373
 20
7.8963527778
 30
0.0
 10
15.0268837116
 20
7.8951247757
 30
0.0
 10
15.0247326515
 20
7.8942023891
 30
0.0
 10
15.0230356452
 20
7.8935390469
 30
0.0
 10
15.0212783242
 20
7.8929194432
 30
0.0
 10
15.0188367042
 20
7.8921517044
 30
0.0
 10
15.0156580242
 20
7.8913289809
 30
0.0
 10
15.012381844
 20
7.8907196442
 30
0.0
 10
15.0096897629
 20
7.8903705881
 30
0.0
 10
15.0076347007
 20
7.8901811814
 30
0.0
 10
15.0055633162
 20
7.8900649162
 30
0.0
 10
15.0041772693
 20
7.8900382829
 30
0.0
 10
15.0034834891
 20
7.8900383899
 30
0.0
  0
SPLINE
  5
487
100
AcDbEntity
  8
0
100
AcDbSpline
 62
7
  6
CONTINUOUS
 70
0
 71
3
 72
56
 73
52
 74
0
 42
0.0000001
 43
0.0000001
 44
0.0000000001
 40
0.0
 40
0.0
 40
0.0
 40
0.0
 40
0.0009828861
 40
0.0020188021
 40
0.0031840892
 40
0.0045332026
 40
0.0061012368
 40
0.0079102025
 40
0.0099740959
 40
0.0123017694
 40
0.0177676923
 40
0.0243330536
 40
0.0320028001
 40
0.0407715965
 40
0.050627343
 40
0.0615524467
 40
0.0735252977
 40
0.0865205588
 40
0.1154599434
 40
0.1481067487
 40
0.1841540123
 40
0.2232572029
 40
0.2650388831
 40
0.3090933757
 40
0.3549914085
 40
0.4022850979
 40
0.4992042885
 40
0.5960891797
 40
0.6892025547
 40
0.733222022
 40
0.7749849775
 40
0.814096491
 40
0.8501888961
 40
0.8829254499
 40
0.9120041449
 40
0.9250883024
 40
0.9371627036
 40
0.9482016694
 40
0.9581827641
 40
0.9670874395
 40
0.9749021608
 40
0.9816195779
 40
0.987241893
 40
0.9896479418
 40
0.991789293
 40
0.9936734632
 40
0.9953124708
 40
0.9967252224
 40
0.9979419304
 40
0.9990102796
 40
1.0
 40
1.0
 40
1.0
 40
1.0
 10
7.9587549069
 20
12.1834236274
 30
0.0
 10
7.9587577888
 20
12.1834620522
 30
0.0
 10
7.9587514619
 20
12.1835424351
 30
0.0
 10
7.9587041733
 20
12.1836596336
 30
0.0
 10
7.958621374
 20
12.1837728513
 30
0.0
 10
7.9585042198
 20
12.1838828443
 30
0.0
 10
7.9583528406
 20
12.183990398
 30
0.0
 10
7.9581671101
 20
12.1840958379
 30
0.0
 10
7.9579469285
 20
12.1841992776
 30
0.0
 10
7.9575877005
 20
12.1843422356
 30
0.0
 10
7.9570500371
 20
12.1845112487
 30
0.0
 10
7.9562999841
 20
12.1846966578
 30
0.0
 10
7.9554153355
 20
12.1848731739
 30
0.0
 10
7.9543979901
 20
12.1850402649
 30
0.0
 10
7.953250121
 20
12.1851973302
 30
0.0
 10
7.9519743696
 20
12.1853438975
 30
0.0
 10
7.9505737157
 20
12.1854795401
 30
0.0
 10
7.9484672896
 20
12.1856514852
 30
0.0
 10
7.945548693
 20
12.1858315476
 30
0.0
 10
7.9417243373
 20
12.1859928378
 30
0.0
 10
7.9374996099
 20
12.1861041004
 30
0.0
 10
7.9329157285
 20
12.1861640415
 30
0.0
 10
7.9280175665
 20
12.1861718518
 30
0.0
 10
7.9228532231
 20
12.1861273364
 30
0.0
 10
7.9174734674
 20
12.1860308785
 30
0.0
 10
7.9100230012
 20
12.1858325117
 30
0.0
 10
7.9005778463
 20
12.1854637317
 30
0.0
 10
7.8893460456
 20
12.1848487083
 30
0.0
 10
7.8801942635
 20
12.1841984821
 30
0.0
 10
7.8732060954
 20
12.1836034499
 30
0.0
 10
7.8683318279
 20
12.1831385528
 30
0.0
 10
7.8637721522
 20
12.1826513366
 30
0.0
 10
7.859570549
 20
12.1821466727
 30
0.0
 10
7.855767036
 20
12.1816295918
 30
0.0
 10
7.8528652966
 20
12.1811784495
 30
0.0
 10
7.8507709061
 20
12.1808111297
 30
0.0
 10
7.8493768665
 20
12.1805454344
 30
0.0
 10
7.8481067171
 20
12.1802804386
 30
0.0
 10
7.8469634518
 20
12.1800168243
 30
0.0
 10
7.8459497514
 20
12.179755299
 30
0.0
 10
7.8450678581
 20
12.1794966481
 30
0.0
 10
7.8443197627
 20
12.1792415662
 30
0.0
 10
7.8437839813
 20
12.1790228511
 30
0.0
 10
7.8434260514
 20
12.1788468741
 30
0.0
 10
7.8432062376
 20
12.1787230186
 30
0.0
 10
7.8430208129
 20
12.1786003865
 30
0.0
 10
7.8428697278
 20
12.178478902
 30
0.0
 10
7.8427528867
 20
12.178358324
 30
0.0
 10
7.84267037
 20
12.178238004
 30
0.0
 10
7.8426229849
 20
12.1781172088
 30
0.0
 10
7.8426161931
 20
12.1780353381
 30
0.0
 10
7.842619095
 20
12.1779966461
 30
0.0
  0
SPLINE
  5
488
100
AcDbEntity
  8
0
100
AcDbSpline
 62
9
  6
CONTINUOUS
 70
0
 71
3
 72
23
 73
19
 74
0
 42
0.0000001
 43
0.0000001
 44
0.0000000001
 40
0.0
 40
0.0
 40
0.0
 40
0.0
 40
0.0620635489
 40
0.1241476248
 40
0.1862612125
 40
0.2484241613
 40
0.3106473383
 40
0.3729420901
 40
0.4353160538
 40
0.4977740493
 40
0.5603175869
 40
0.622944888
 40
0.6856510376
 40
0.7484278595
 40
0.811265439
 40
0.8741486838
 40
0.9370679427
 40
1.0
 40
1.0
 40
1.0
 40
1.0
 10
15.0434834891
 20
7.910874274
 30
0.0
 10
15.0434834891
 20
7.9095839336
 30
0.0
 10
15.043612167
 20
7.907000985
 30
0.0
 10
15.0441891793
 20
7.9031655706
 30
0.0
 10
15.0451448053
 20
7.8994040403
 30
0.0
 10
15.0464696304
 20
7.8957531909
 30
0.0
 10
15.048151003
 20
7.8922480239
 30
0.0
 10
15.05017263
 20
7.8889223471
 30
0.0
 10
15.052515045
 20
7.885808178
 30
0.0
 10
15.0551556525
 20
7.8829354996
 30
0.0
 10
15.0580690051
 20
7.8803319647
 30
0.0
 10
15.061227022
 20
7.8780226154
 30
0.0
 10
15.0645992777
 20
7.876029672
 30
0.0
 10
15.0681533032
 20
7.8743722644
 30
0.0
 10
15.0718548351
 20
7.8730663958
 30
0.0
 10
15.0756684114
 20
7.8721244849
 30
0.0
 10
15.0795567969
 20
7.8715557713
 30
0.0
 10
15.0821750919
 20
7.8714289574
 30
0.0
 10
15.0834834891
 20
7.8714289575
 30
0.0
  0
SPLINE
  5
489
100
AcDbEntity
  8
0
100
AcDbSpline
 62
7
  6
CONTINUOUS
 70
0
 71
3
 72
55
 73
51
 74
0
 42
0.0000001
 43
0.0000001
 44
0.0000000001
 40
0.0
 40
0.0
 40
0.0
 40
0.0
 40
0.0008448135
 40
0.0017524649
 40
0.0028075651
 40
0.0040652034
 40
0.0055578502
 40
0.0073045066
 40
0.0093166573
 40
0.0116012178
 40
0.0170015501
 40
0.0235222209
 40
0.0311633005
 40
0.0399162323
 40
0.0497666381
 40
0.060695199
 40
0.0726789266
 40
0.0856913316
 40
0.1146800792
 40
0.1473906869
 40
0.1835107216
 40
0.2226911384
 40
0.2645509754
 40
0.3086819873
 40
0.4020158496
 40
0.4990642873
 40
0.5960734138
 40
0.6893183377
 40
0.7334089767
 40
0.7752469728
 40
0.8144364221
 40
0.8506076281
 40
0.8834206718
 40
0.9125690025
 40
0.9256834728
 40
0.937783972
 40
0.948843654
 40
0.9588386605
 40
0.9677486573
 40
0.9755577496
 40
0.9822553052
 40
0.9878386246
 40
0.9902155424
 40
0.9923196041
 40
0.9941563996
 40
0.9957353828
 40
0.9970721679
 40
0.9981933542
 40
0.9991446693
 40
1.0
 40
1.0
 40
1.0
 40
1.0
 10
8.3427507995
 20
12.1843491757
 30
0.0
 10
8.342753272
 20
12.1843821424
 30
0.0
 10
8.3427458748
 20
12.1844520914
 30
0.0
 10
8.3426963716
 20
12.1845521083
 30
0.0
 10
8.3426119134
 20
12.1846470359
 30
0.0
 10
8.3424935342
 20
12.184738326
 30
0.0
 10
8.3423410444
 20
12.1848268578
 30
0.0
 10
8.3421541863
 20
12.1849129095
 30
0.0
 10
8.3419328206
 20
12.1849965421
 30
0.0
 10
8.3415709511
 20
12.1851112228
 30
0.0
 10
8.3410306027
 20
12.1852439809
 30
0.0
 10
8.3402781673
 20
12.1853859461
 30
0.0
 10
8.339390948
 20
12.1855172967
 30
0.0
 10
8.3383709119
 20
12.1856376071
 30
0.0
 10
8.337220313
 20
12.1857463842
 30
0.0
 10
8.3359418469
 20
12.1858432781
 30
0.0
 10
8.3345385453
 20
12.1859279856
 30
0.0
 10
8.3324283199
 20
12.1860279093
 30
0.0
 10
8.3295058222
 20
12.1861164449
 30
0.0
 10
8.3256781697
 20
12.1861684633
 30
0.0
 10
8.3214513573
 20
12.1861685937
 30
0.0
 10
8.3168668396
 20
12.1861166763
 30
0.0
 10
8.3119696478
 20
12.1860130762
 30
0.0
 10
8.3049553598
 20
12.1858032156
 30
0.0
 10
8.2957860681
 20
12.1854180541
 30
0.0
 10
8.2845570699
 20
12.1847896994
 30
0.0
 10
8.2733409959
 20
12.1840108372
 30
0.0
 10
8.2642019461
 20
12.1832486881
 30
0.0
 10
8.2572221746
 20
12.1825823031
 30
0.0
 10
8.2523523537
 20
12.1820746952
 30
0.0
 10
8.2477955898
 20
12.1815549352
 30
0.0
 10
8.2435953212
 20
12.1810281523
 30
0.0
 10
8.2397916191
 20
12.1804995408
 30
0.0
 10
8.236888512
 20
12.1800475833
 30
0.0
 10
8.2347921534
 20
12.179685514
 30
0.0
 10
8.2333964714
 20
12.1794263065
 30
0.0
 10
8.2321244592
 20
12.1791704516
 30
0.0
 10
8.2309791617
 20
12.1789186087
 30
0.0
 10
8.2299633161
 20
12.1786714537
 30
0.0
 10
8.2290792476
 20
12.1784297397
 30
0.0
 10
8.2283290215
 20
12.178194126
 30
0.0
 10
8.2277908417
 20
12.1779943645
 30
0.0
 10
8.2274305381
 20
12.1778350329
 30
0.0
 10
8.2272095699
 20
12.1777238658
 30
0.0
 10
8.2270230307
 20
12.1776145861
 30
0.0
 10
8.2268708541
 20
12.1775071622
 30
0.0
 10
8.2267528536
 20
12.1774014079
 30
0.0
 10
8.2266688854
 20
12.1772966512
 30
0.0
 10
8.2266194395
 20
12.1771917144
 30
0.0
 10
8.2266113378
 20
12.1771197603
 30
0.0
 10
8.2266138411
 20
12.1770863832
 30
0.0
  0
SPLINE
  5
48A
100
AcDbEntity
  8
0
100
AcDbSpline
 62
7
  6
CONTINUOUS
 70
0
 71
3
 72
56
 73
52
 74
0
 42
0.0000001
 43
0.0000001
 44
0.0000000001
 40
0.0
 40
0.0
 40
0.0
 40
0.0
 40
0.0006704353
 40
0.0014253753
 40
0.0023587801
 40
0.0035220061
 40
0.0049412602
 40
0.0066304234
 40
0.0085973149
 40
0.01084626
 40
0.0161976756
 40
0.0226912163
 40
0.0303212561
 40
0.0390755378
 40
0.0489370912
 40
0.0598846514
 40
0.0718936951
 40
0.0849364825
 40
0.1139972039
 40
0.1467890294
 40
0.182994337
 40
0.222260271
 40
0.2642032658
 40
0.3084136143
 40
0.4018940077
 40
0.4990783826
 40
0.5962252464
 40
0.6436193189
 40
0.6896209773
 40
0.7337924947
 40
0.7757141497
 40
0.8149880591
 40
0.8512415436
 40
0.8841306191
 40
0.9133435013
 40
0.9264838405
 40
0.9386046707
 40
0.9496779516
 40
0.9596784019
 40
0.9685838736
 40
0.9763760909
 40
0.9830410599
 40
0.988570935
 40
0.9909106603
 40
0.9929686059
 40
0.9947481187
 40
0.9962554847
 40
0.9975018553
 40
0.9985080538
 40
0.9993148076
 40
1.0
 40
1.0
 40
1.0
 40
1.0
 10
8.6603504408
 20
12.1851163831
 30
0.0
 10
8.6603523989
 20
12.1851424911
 30
0.0
 10
8.6603432287
 20
12.1851996853
 30
0.0
 10
8.6602905236
 20
12.1852775662
 30
0.0
 10
8.6602044279
 20
12.1853494883
 30
0.0
 10
8.6600848597
 20
12.1854178941
 30
0.0
 10
8.6599312028
 20
12.1854834539
 30
0.0
 10
8.6597430764
 20
12.1855463107
 30
0.0
 10
8.6595203522
 20
12.1856064312
 30
0.0
 10
8.6591555658
 20
12.1856875936
 30
0.0
 10
8.6586123367
 20
12.1857781488
 30
0.0
 10
8.6578572989
 20
12.1858703847
 30
0.0
 10
8.656967388
 20
12.1859507278
 30
0.0
 10
8.6559446554
 20
12.1860188887
 30
0.0
 10
8.6547914558
 20
12.1860745177
 30
0.0
 10
8.6535105462
 20
12.1861174085
 30
0.0
 10
8.6521050152
 20
12.1861474007
 30
0.0
 10
8.649991952
 20
12.1861708335
 30
0.0
 10
8.6470670721
 20
12.1861639461
 30
0.0
 10
8.6432381716
 20
12.1861045049
 30
0.0
 10
8.6390117452
 20
12.1859936895
 30
0.0
 10
8.6344293545
 20
12.1858324848
 30
0.0
 10
8.6295360374
 20
12.185622379
 30
0.0
 10
8.6225297704
 20
12.1852730801
 30
0.0
 10
8.6133735006
 20
12.1847292408
 30
0.0
 10
8.6021616592
 20
12.1839397484
 30
0.0
 10
8.5927526277
 20
12.1831771776
 30
0.0
 10
8.5853412531
 20
12.1825142686
 30
0.0
 10
8.5799932877
 20
12.1820044762
 30
0.0
 10
8.5748612117
 20
12.18148296
 30
0.0
 10
8.5699940035
 20
12.1809547551
 30
0.0
 10
8.5654381173
 20
12.1804249891
 30
0.0
 10
8.5612370675
 20
12.1798988589
 30
0.0
 10
8.5574310873
 20
12.1793815121
 30
0.0
 10
8.5545247828
 20
12.17894818
 30
0.0
 10
8.5524250252
 20
12.178606917
 30
0.0
 10
8.551026806
 20
12.1783653458
 30
0.0
 10
8.5497520909
 20
12.1781296362
 30
0.0
 10
8.5486039775
 20
12.1779003981
 30
0.0
 10
8.5475852593
 20
12.1776782464
 30
0.0
 10
8.5466983486
 20
12.1774638672
 30
0.0
 10
8.5459453835
 20
12.177257853
 30
0.0
 10
8.5454042286
 20
12.1770856369
 30
0.0
 10
8.5450410189
 20
12.1769498408
 30
0.0
 10
8.5448186389
 20
12.1768561471
 30
0.0
 10
8.5446307606
 20
12.1767649253
 30
0.0
 10
8.5444773338
 20
12.1766762038
 30
0.0
 10
8.5443580734
 20
12.1765899152
 30
0.0
 10
8.5442726138
 20
12.1765055001
 30
0.0
 10
8.5442204293
 20
12.1764213804
 30
0.0
 10
8.5442102825
 20
12.1763618426
 30
0.0
 10
8.5442122837
 20
12.1763351599
 30
0.0
  0
SPLINE
  5
48B
100
AcDbEntity
  8
0
100
AcDbSpline
 62
9
  6
CONTINUOUS
 70
0
 71
3
 72
32
 73
28
 74
0
 42
0.0000001
 43
0.0000001
 44
0.0000000001
 40
0.0
 40
0.0
 40
0.0
 40
0.0
 40
0.0038180668
 40
0.0078314013
 40
0.012120552
 40
0.0167500774
 40
0.0217696156
 40
0.0272164252
 40
0.0394890435
 40
0.053706579
 40
0.0699167282
 40
0.0881255624
 40
0.1083130236
 40
0.1304355509
 40
0.1544359777
 40
0.1802463167
 40
0.207795076
 40
0.267808815
 40
0.3338498889
 40
0.4052692565
 40
0.4814037153
 40
0.5615861745
 40
0.6451712684
 40
0.7314820078
 40
0.8198388481
 40
0.9095768516
 40
1.0
 40
1.0
 40
1.0
 40
1.0
 10
15.0834834891
 20
7.8714289575
 30
0.0
 10
15.083483493
 20
7.8713216815
 30
0.0
 10
15.0834645823
 20
7.871101302
 30
0.0
 10
15.0833830539
 20
7.8707694852
 30
0.0
 10
15.0832487572
 20
7.8704307972
 30
0.0
 10
15.0830623566
 20
7.8700855249
 30
0.0
 10
15.0828243843
 20
7.8697337044
 30
0.0
 10
15.082422584
 20
7.8692361742
 30
0.0
 10
15.0817833882
 20
7.8686026961
 30
0.0
 10
15.0808482578
 20
7.8678489354
 30
0.0
 10
15.0797201408
 20
7.8670757461
 30
0.0
 10
15.0784035039
 20
7.8662866213
 30
0.0
 10
15.0769031226
 20
7.8654852852
 30
0.0
 10
15.0752246966
 20
7.8646755126
 30
0.0
 10
15.0733744608
 20
7.863861313
 30
0.0
 10
15.0713590553
 20
7.8630465563
 30
0.0
 10
15.0683743036
 20
7.8619328858
 30
0.0
 10
15.0642754158
 20
7.8605766435
 30
0.0
 10
15.0589389834
 20
7.8590527887
 30
0.0
 10
15.0531094439
 20
7.8576214813
 30
0.0
 10
15.0468449081
 20
7.8563121961
 30
0.0
 10
15.0402039195
 20
7.8551512249
 30
0.0
 10
15.0332457339
 20
7.8541656224
 30
0.0
 10
15.0260315678
 20
7.8533757922
 30
0.0
 10
15.0186239738
 20
7.8527962508
 30
0.0
 10
15.0110863984
 20
7.8524464985
 30
0.0
 10
15.0060241019
 20
7.8523660695
 30
0.0
 10
15.0034834891
 20
7.8523663401
 30
0.0
  0
SPLINE
  5
48C
100
AcDbEntity
  8
0
100
AcDbSpline
 62
7
  6
CONTINUOUS
 70
0
 71
3
 72
60
 73
56
 74
0
 42
0.0000001
 43
0.0000001
 44
0.0000000001
 40
0.0
 40
0.0
 40
0.0
 40
0.0
 40
0.0002316076
 40
0.0004753676
 40
0.0007521206
 40
0.0010763921
 40
0.0018993517
 40
0.0029849108
 40
0.0043487126
 40
0.005998004
 40
0.0079364476
 40
0.0101656474
 40
0.012685999
 40
0.0154973259
 40
0.0219891796
 40
0.0296304688
 40
0.0384054799
 40
0.0482948335
 40
0.0592754697
 40
0.0713214607
 40
0.0844039421
 40
0.1135488224
 40
0.1464264599
 40
0.1827153491
 40
0.2220602449
 40
0.2640764522
 40
0.3083542213
 40
0.3544630939
 40
0.4019564704
 40
0.4992561262
 40
0.5965265157
 40
0.6439883726
 40
0.6900621492
 40
0.73430928
 40
0.7763083368
 40
0.8156588531
 40
0.8519847249
 40
0.8849377266
 40
0.9142010441
 40
0.9394928303
 40
0.9605698279
 40
0.9694635888
 40
0.977232578
 40
0.9838599026
 40
0.9893331518
 40
0.9916350187
 40
0.9936468884
 40
0.9953698651
 40
0.9968068514
 40
0.9979636989
 40
0.9988529129
 40
0.9992059805
 40
0.9995062161
 40
0.9997650318
 40
1.0
 40
1.0
 40
1.0
 40
1.0
 10
8.8976731243
 20
12.1856906745
 30
0.0
 10
8.8976737994
 20
12.1856996757
 30
0.0
 10
8.8976721485
 20
12.1857185319
 30
0.0
 10
8.897660085
 20
12.1857457117
 30
0.0
 10
8.8976391566
 20
12.1857714932
 30
0.0
 10
8.8975963566
 20
12.185807194
 30
0.0
 10
8.8975185424
 20
12.1858477817
 30
0.0
 10
8.8973982342
 20
12.1858904272
 30
0.0
 10
8.8972433596
 20
12.1859302824
 30
0.0
 10
8.8970539
 20
12.1859672639
 30
0.0
 10
8.8968297033
 20
12.1860012603
 30
0.0
 10
8.8965708629
 20
12.1860321971
 30
0.0
 10
8.8962774848
 20
12.1860600259
 30
0.0
 10
8.895817959
 20
12.1860945769
 30
0.0
 10
8.8951583336
 20
12.1861279626
 30
0.0
 10
8.8942658632
 20
12.1861538305
 30
0.0
 10
8.8932406941
 20
12.1861668364
 30
0.0
 10
8.8920853115
 20
12.1861668936
 30
0.0
 10
8.8908025192
 20
12.1861539267
 30
0.0
 10
8.8893954595
 20
12.1861279383
 30
0.0
 10
8.8872809305
 20
12.1860739519
 30
0.0
 10
8.8843555602
 20
12.1859721569
 30
0.0
 10
8.8805277002
 20
12.1858041927
 30
0.0
 10
8.8763041796
 20
12.1855876998
 30
0.0
 10
8.8717265096
 20
12.1853247488
 30
0.0
 10
8.8668395726
 20
12.1850178486
 30
0.0
 10
8.8616911375
 20
12.1846699747
 30
0.0
 10
8.8563313446
 20
12.1842845139
 30
0.0
 10
8.8489126603
 20
12.1837208534
 30
0.0
 10
8.8395099846
 20
12.1829518655
 30
0.0
 10
8.8301143788
 20
12.182114572
 30
0.0
 10
8.8227113236
 20
12.181411883
 30
0.0
 10
8.8173675904
 20
12.1808829661
 30
0.0
 10
8.8122379563
 20
12.180352944
 30
0.0
 10
8.8073713839
 20
12.1798269039
 30
0.0
 10
8.8028144075
 20
12.1793099246
 30
0.0
 10
8.798610719
 20
12.1788070377
 30
0.0
 10
8.7948007834
 20
12.17832317
 30
0.0
 10
8.7914214066
 20
12.1778632384
 30
0.0
 10
8.7885054582
 20
12.177431836
 30
0.0
 10
8.7863799151
 20
12.1770833232
 30
0.0
 10
8.7849331898
 20
12.1768178564
 30
0.0
 10
8.7840430426
 20
12.1766399959
 30
0.0
 10
8.783286958
 20
12.1764724023
 30
0.0
 10
8.7827425363
 20
12.1763351294
 30
0.0
 10
8.7823761839
 20
12.1762288066
 30
0.0
 10
8.7821522243
 20
12.1761565793
 30
0.0
 10
8.7819628947
 20
12.1760872721
 30
0.0
 10
8.7818081045
 20
12.176020974
 30
0.0
 10
8.7816878605
 20
12.1759577535
 30
0.0
 10
8.781610552
 20
12.1759041328
 30
0.0
 10
8.7815680051
 20
12.1758614042
 30
0.0
 10
8.7815472047
 20
12.1758323131
 30
0.0
 10
8.7815351145
 20
12.175803464
 30
0.0
 10
8.7815332383
 20
12.1757839195
 30
0.0
 10
8.7815339232
 20
12.1757747877
 30
0.0
  0
SPLINE
  5
48D
100
AcDbEntity
  8
0
100
AcDbSpline
 62
7
  6
CONTINUOUS
 70
0
 71
3
 72
66
 73
62
 74
0
 42
0.0000001
 43
0.0000001
 44
0.0000000001
 40
0.0
 40
0.0
 40
0.0
 40
0.0
 40
0.0001198374
 40
0.000270875
 40
0.0004775237
 40
0.0007495928
 40
0.0010912841
 40
0.0015046656
 40
0.0019908753
 40
0.0025505553
 40
0.0038915557
 40
0.0055291947
 40
0.0074638059
 40
0.0096949242
 40
0.0122215732
 40
0.0150426159
 40
0.0215616
 40
0.029237062
 40
0.0380507836
 40
0.0479816311
 40
0.0590052423
 40
0.071094682
 40
0.0842202962
 40
0.1134482047
 40
0.1464017228
 40
0.1827575287
 40
0.2221598974
 40
0.2642247564
 40
0.3085438231
 40
0.3546887055
 40
0.402215186
 40
0.4506673665
 40
0.4995819693
 40
0.5484923695
 40
0.5969326798
 40
0.6444417572
 40
0.6905671734
 40
0.7348691027
 40
0.7769241111
 40
0.8163290418
 40
0.8527045562
 40
0.8856988171
 40
0.9008264585
 40
0.9149911348
 40
0.9281582476
 40
0.9402953779
 40
0.951372793
 40
0.9613632639
 40
0.970242118
 40
0.9779877593
 40
0.9845813874
 40
0.9900074844
 40
0.994254544
 40
0.9959337242
 40
0.9973165624
 40
0.9984041423
 40
0.9988382374
 40
0.9992003003
 40
0.9994920404
 40
0.9997168212
 40
1.0
 40
1.0
 40
1.0
 40
1.0
 10
9.0443466413
 20
12.1860460368
 30
0.0
 10
9.04434699
 20
12.1860506866
 30
0.0
 10
9.0443438877
 20
12.1860615762
 30
0.0
 10
9.0443298169
 20
12.1860744347
 30
0.0
 10
9.0443081571
 20
12.1860860395
 30
0.0
 10
9.044278022
 20
12.1860968489
 30
0.0
 10
9.0442393264
 20
12.1861069372
 30
0.0
 10
9.0441919148
 20
12.1861162764
 30
0.0
 10
9.0441357739
 20
12.1861248504
 30
0.0
 10
9.0440435473
 20
12.1861359069
 30
0.0
 10
9.0439062797
 20
12.1861470506
 30
0.0
 10
9.0437153326
 20
12.1861567032
 30
0.0
 10
9.0434896001
 20
12.1861631719
 30
0.0
 10
9.0432292108
 20
12.1861664379
 30
0.0
 10
9.0429343113
 20
12.1861664698
 30
0.0
 10
9.0424725926
 20
12.1861619363
 30
0.0
 10
9.0418106565
 20
12.1861472082
 30
0.0
 10
9.0409158854
 20
12.1861174993
 30
0.0
 10
9.0398887491
 20
12.1860749029
 30
0.0
 10
9.038731782
 20
12.1860194977
 30
0.0
 10
9.0374478369
 20
12.185951383
 30
0.0
 10
9.0360400878
 20
12.1858707138
 30
0.0
 10
9.0339256127
 20
12.185741949
 30
0.0
 10
9.0310016692
 20
12.1855500991
 30
0.0
 10
9.0271769758
 20
12.1852814519
 30
0.0
 10
9.0229585044
 20
12.1849692802
 30
0.0
 10
9.0183875605
 20
12.184616616
 30
0.0
 10
9.0135087236
 20
12.1842268666
 30
0.0
 10
9.0083693751
 20
12.1838038074
 30
0.0
 10
9.0030192139
 20
12.183351525
 30
0.0
 10
8.9975097728
 20
12.1828743773
 30
0.0
 10
8.9918939253
 20
12.1823769472
 30
0.0
 10
8.9862254034
 20
12.1818639993
 30
0.0
 10
8.9805583159
 20
12.1813404356
 30
0.0
 10
8.9749466798
 20
12.1808112527
 30
0.0
 10
8.9694439532
 20
12.1802814985
 30
0.0
 10
8.9641025757
 20
12.1797562286
 30
0.0
 10
8.9589735182
 20
12.1792404644
 30
0.0
 10
8.9541058357
 20
12.1787391496
 30
0.0
 10
8.9495462328
 20
12.1782571165
 30
0.0
 10
8.9453386392
 20
12.1777990253
 30
0.0
 10
8.9420714674
 20
12.1774310809
 30
0.0
 10
8.9396640852
 20
12.1771512793
 30
0.0
 10
8.9380235331
 20
12.1769562104
 30
0.0
 10
8.9364990834
 20
12.1767702692
 30
0.0
 10
8.9350944889
 20
12.1765939153
 30
0.0
 10
8.9338132189
 20
12.1764275966
 30
0.0
 10
8.9326584486
 20
12.1762717403
 30
0.0
 10
8.9316330428
 20
12.1761267633
 30
0.0
 10
8.930739558
 20
12.1759930596
 30
0.0
 10
8.9299801909
 20
12.1758710864
 30
0.0
 10
8.9293568433
 20
12.1757611726
 30
0.0
 10
8.9289235651
 20
12.1756747693
 30
0.0
 10
8.9286465617
 20
12.1756102129
 30
0.0
 10
8.9284904437
 20
12.1755688934
 30
0.0
 10
8.9283824747
 20
12.1755353231
 30
0.0
 10
8.9283138903
 20
12.1755092581
 30
0.0
 10
8.9282752426
 20
12.1754921864
 30
0.0
 10
8.9282449497
 20
12.1754755709
 30
0.0
 10
8.9282201548
 20
12.175458227
 30
0.0
 10
8.9282059075
 20
12.1754398605
 30
0.0
 10
8.9282067316
 20
12.1754288728
 30
0.0
  0
SPLINE
  5
48E
100
AcDbEntity
  8
0
100
AcDbSpline
 62
9
  6
CONTINUOUS
 70
0
 71
3
 72
23
 73
19
 74
0
 42
0.0000001
 43
0.0000001
 44
0.0000000001
 40
0.0
 40
0.0
 40
0.0
 40
0.0
 40
0.0620635475
 40
0.1241476222
 40
0.1862612089
 40
0.248424157
 40
0.3106473335
 40
0.3729420851
 40
0.4353160488
 40
0.4977740446
 40
0.5603175826
 40
0.6229448842
 40
0.6856510345
 40
0.7484278571
 40
0.8112654373
 40
0.8741486828
 40
0.9370679423
 40
1.0
 40
1.0
 40
1.0
 40
1.0
 10
15.0434834891
 20
6.983909334
 30
0.0
 10
15.0434834891
 20
6.9851996744
 30
0.0
 10
15.043612167
 20
6.987782623
 30
0.0
 10
15.0441891793
 20
6.9916180373
 30
0.0
 10
15.0451448053
 20
6.9953795675
 30
0.0
 10
15.0464696304
 20
6.9990304169
 30
0.0
 10
15.048151003
 20
7.0025355838
 30
0.0
 10
15.05017263
 20
7.0058612606
 30
0.0
 10
15.052515045
 20
7.0089754296
 30
0.0
 10
15.0551556525
 20
7.011848108
 30
0.0
 10
15.0580690051
 20
7.0144516429
 30
0.0
 10
15.061227022
 20
7.0167609922
 30
0.0
 10
15.0645992777
 20
7.0187539356
 30
0.0
 10
15.0681533032
 20
7.0204113433
 30
0.0
 10
15.0718548351
 20
7.021717212
 30
0.0
 10
15.0756684114
 20
7.022659123
 30
0.0
 10
15.0795567969
 20
7.0232278366
 30
0.0
 10
15.0821750919
 20
7.0233546506
 30
0.0
 10
15.0834834891
 20
7.0233546506
 30
0.0
  0
SPLINE
  5
48F
100
AcDbEntity
  8
0
100
AcDbSpline
 62
9
  6
CONTINUOUS
 70
0
 71
3
 72
24
 73
20
 74
0
 42
0.0000001
 43
0.0000001
 44
0.0000000001
 40
0.0
 40
0.0
 40
0.0
 40
0.0
 40
0.0891063618
 40
0.132551088
 40
0.1752044079
 40
0.2580520085
 40
0.3375721397
 40
0.4136723353
 40
0.4862151227
 40
0.555078906
 40
0.6201577688
 40
0.6813405692
 40
0.7385320861
 40
0.7916889735
 40
0.840806944
 40
0.8859182275
 40
0.92720384
 40
0.9650581992
 40
1.0
 40
1.0
 40
1.0
 40
1.0
 10
15.0255751447
 20
7.0002312167
 30
0.0
 10
15.0262620431
 20
6.9999367444
 30
0.0
 10
15.0272733715
 20
6.9994738082
 30
0.0
 10
15.0285894938
 20
6.9988200784
 30
0.0
 10
15.0298465655
 20
6.9981659951
 30
0.0
 10
15.0313500292
 20
6.997330468
 30
0.0
 10
15.0330570753
 20
6.9962870171
 30
0.0
 10
15.0346454714
 20
6.9952186534
 30
0.0
 10
15.0361141337
 20
6.9941355108
 30
0.0
 10
15.037460197
 20
6.9930448143
 30
0.0
 10
15.0386804526
 20
6.9919531996
 30
0.0
 10
15.0397719915
 20
6.9908676406
 30
0.0
 10
15.0407320072
 20
6.9897948916
 30
0.0
 10
15.0415565364
 20
6.9887403577
 30
0.0
 10
15.0422416461
 20
6.9877097121
 30
0.0
 10
15.0427842029
 20
6.9867089406
 30
0.0
 10
15.043180133
 20
6.9857422101
 30
0.0
 10
15.0434238288
 20
6.9848137611
 30
0.0
 10
15.0434835094
 20
6.9842023998
 30
0.0
 10
15.0434834891
 20
6.983909334
 30
0.0
  0
SPLINE
  5
490
100
AcDbEntity
  8
0
100
AcDbSpline
 62
9
  6
CONTINUOUS
 70
0
 71
3
 72
28
 73
24
 74
0
 42
0.0000001
 43
0.0000001
 44
0.0000000001
 40
0.0
 40
0.0
 40
0.0
 40
0.0
 40
0.1000278581
 40
0.1963961471
 40
0.288778794
 40
0.37681048
 40
0.4601660665
 40
0.5385328277
 40
0.6116012285
 40
0.6790747621
 40
0.7406674029
 40
0.7961198854
 40
0.845250927
 40
0.8674125217
 40
0.8879608891
 40
0.9069022005
 40
0.9242586635
 40
0.9400706024
 40
0.9544077414
 40
0.9673792341
 40
0.9791418473
 40
0.9899164096
 40
1.0
 40
1.0
 40
1.0
 40
1.0
 10
15.0482039097
 20
7.0381719402
 30
0.0
 10
15.0494890789
 20
7.0379159811
 30
0.0
 10
15.0520071856
 20
7.0373868178
 30
0.0
 10
15.0556926269
 20
7.0365314872
 30
0.0
 10
15.059206698
 20
7.0356363777
 30
0.0
 10
15.0625348453
 20
7.0347056586
 30
0.0
 10
15.0656635392
 20
7.0337470893
 30
0.0
 10
15.0685799191
 20
7.0327682645
 30
0.0
 10
15.0712712507
 20
7.0317764666
 30
0.0
 10
15.0737249718
 20
7.0307793305
 30
0.0
 10
15.0759287995
 20
7.0297844155
 30
0.0
 10
15.0778707073
 20
7.0287986017
 30
0.0
 10
15.079308116
 20
7.0279648217
 30
0.0
 10
15.0803135773
 20
7.0273035035
 30
0.0
 10
15.0809691636
 20
7.0268312975
 30
0.0
 10
15.0815514211
 20
7.0263664314
 30
0.0
 10
15.0820593339
 20
7.0259096079
 30
0.0
 10
15.0824919808
 20
7.0254613881
 30
0.0
 10
15.0828485783
 20
7.0250221867
 30
0.0
 10
15.0831285025
 20
7.0245923157
 30
0.0
 10
15.0833309148
 20
7.0241717153
 30
0.0
 10
15.0834544808
 20
7.0237605841
 30
0.0
 10
15.0834835183
 20
7.0234867502
 30
0.0
 10
15.0834834891
 20
7.0233546506
 30
0.0
  0
SPLINE
  5
491
100
AcDbEntity
  8
0
100
AcDbSpline
 62
7
  6
CONTINUOUS
 70
0
 71
3
 72
33
 73
29
 74
0
 42
0.0000001
 43
0.0000001
 44
0.0000000001
 40
0.0
 40
0.0
 40
0.0
 40
0.0
 40
0.0003002507
 40
0.0006472872
 40
0.0010808272
 40
0.0016218281
 40
0.0030632649
 40
0.0050143164
 40
0.0074897797
 40
0.0104960899
 40
0.0140361225
 40
0.0181111718
 40
0.0278671227
 40
0.0397593178
 40
0.0537767535
 40
0.0699040178
 40
0.0881218418
 40
0.1084083119
 40
0.1550824738
 40
0.2096913263
 40
0.2719569093
 40
0.3415608821
 40
0.4181465187
 40
0.5013207811
 40
0.5906563444
 40
0.6856940322
 40
0.7859450244
 40
1.0
 40
1.0
 40
1.0
 40
1.0
 10
7.0986278379
 20
12.0817293743
 30
0.0
 10
7.0986280941
 20
12.0817327903
 30
0.0
 10
7.0986267931
 20
12.0817403637
 30
0.0
 10
7.0986197895
 20
12.0817507866
 30
0.0
 10
7.0986083848
 20
12.0817607942
 30
0.0
 10
7.0985848877
 20
12.0817753564
 30
0.0
 10
7.0985431222
 20
12.081792368
 30
0.0
 10
7.09847892
 20
12.0818113951
 30
0.0
 10
7.0983962023
 20
12.08183032
 30
0.0
 10
7.0982949952
 20
12.0818491391
 30
0.0
 10
7.0981752436
 20
12.0818677833
 30
0.0
 10
7.0979787847
 20
12.0818939669
 30
0.0
 10
7.097686924
 20
12.0819251171
 30
0.0
 10
7.097281486
 20
12.0819598408
 30
0.0
 10
7.0968030615
 20
12.0819935758
 30
0.0
 10
7.0962522559
 20
12.082026255
 30
0.0
 10
7.0956297585
 20
12.0820577931
 30
0.0
 10
7.094658882
 20
12.0821002387
 30
0.0
 10
7.093272724
 20
12.0821487371
 30
0.0
 10
7.0914074816
 20
12.0821994576
 30
0.0
 10
7.0892804254
 20
12.0822446303
 30
0.0
 10
7.0869024865
 20
12.0822839813
 30
0.0
 10
7.0842858884
 20
12.0823172485
 30
0.0
 10
7.0814440912
 20
12.0823442329
 30
0.0
 10
7.078391717
 20
12.0823647725
 30
0.0
 10
7.0751444764
 20
12.0823787496
 30
0.0
 10
7.0704742975
 20
12.0823887297
 30
0.0
 10
7.0668883827
 20
12.082385674
 30
0.0
 10
7.0644462445
 20
12.0823796792
 30
0.0
  0
SPLINE
  5
492
100
AcDbEntity
  8
0
100
AcDbSpline
 62
7
  6
CONTINUOUS
 70
0
 71
3
 72
33
 73
29
 74
0
 42
0.0000001
 43
0.0000001
 44
0.0000000001
 40
0.0
 40
0.0
 40
0.0
 40
0.0
 40
0.21405472
 40
0.3143057713
 40
0.4093435303
 40
0.4986791457
 40
0.5818534458
 40
0.6584391049
 40
0.7280430922
 40
0.7903086811
 40
0.8449175344
 40
0.8915916945
 40
0.9118781677
 40
0.9300959851
 40
0.9462232523
 40
0.960240682
 40
0.9721328786
 40
0.9818888258
 40
0.9859638746
 40
0.989503908
 40
0.9925102187
 40
0.9949856809
 40
0.9969367319
 40
0.9983781693
 40
0.9989191708
 40
0.9993527115
 40
0.9996997486
 40
1.0
 40
1.0
 40
1.0
 40
1.0
 10
6.4665205242
 20
12.0823796797
 30
0.0
 10
6.4640784039
 20
12.0823856742
 30
0.0
 10
6.4604925133
 20
12.0823887295
 30
0.0
 10
6.4558223644
 20
12.0823787492
 30
0.0
 10
6.4525751416
 20
12.0823647718
 30
0.0
 10
6.4495227842
 20
12.0823442321
 30
0.0
 10
6.4466810032
 20
12.0823172475
 30
0.0
 10
6.4440644203
 20
12.0822839803
 30
0.0
 10
6.4416864954
 20
12.0822446292
 30
0.0
 10
6.439559452
 20
12.0821994565
 30
0.0
 10
6.437694221
 20
12.0821487361
 30
0.0
 10
6.4363080715
 20
12.0821002377
 30
0.0
 10
6.435337201
 20
12.0820577923
 30
0.0
 10
6.4347147074
 20
12.0820262542
 30
0.0
 10
6.4341639053
 20
12.0819935751
 30
0.0
 10
6.4336854838
 20
12.0819598401
 30
0.0
 10
6.4332800483
 20
12.0819251165
 30
0.0
 10
6.4329881895
 20
12.0818939664
 30
0.0
 10
6.4327917318
 20
12.0818677829
 30
0.0
 10
6.4326719809
 20
12.0818491387
 30
0.0
 10
6.4325707745
 20
12.0818303197
 30
0.0
 10
6.4324880574
 20
12.0818113949
 30
0.0
 10
6.4324238555
 20
12.0817923678
 30
0.0
 10
6.4323820903
 20
12.0817753562
 30
0.0
 10
6.4323585933
 20
12.081760794
 30
0.0
 10
6.4323471887
 20
12.0817507865
 30
0.0
 10
6.4323401852
 20
12.0817403636
 30
0.0
 10
6.4323388841
 20
12.0817327903
 30
0.0
 10
6.4323391403
 20
12.0817293743
 30
0.0
  0
LINE
  5
493
100
AcDbEntity
  8
0
100
AcDbLine
 62
7
  6
CONTINUOUS
 10
6.2181449186
 20
12.0810137158
 11
6.1572898828
 21
12.0823861415
  0
LINE
  5
494
100
AcDbEntity
  8
0
100
AcDbLine
 62
7
  6
CONTINUOUS
 10
7.3736770955
 20
12.0823861415
 11
7.3128220608
 21
12.0810137158
  0
LINE
  5
495
100
AcDbEntity
  8
0
100
AcDbLine
 62
7
  6
CONTINUOUS
 10
5.8383913676
 20
12.0924366123
 11
5.7419460751
 21
12.0963142105
  0
SPLINE
  5
496
100
AcDbEntity
  8
0
100
AcDbSpline
 62
7
  6
CONTINUOUS
 70
0
 71
3
 72
69
 73
65
 74
0
 42
0.0000001
 43
0.0000001
 44
0.0000000001
 40
0.0
 40
0.0
 40
0.0
 40
0.0
 40
0.0001274704
 40
0.0002914049
 40
0.0005124279
 40
0.0007990676
 40
0.0011551458
 40
0.001582607
 40
0.0020825391
 40
0.0026555562
 40
0.0040220727
 40
0.0056837102
 40
0.0076407864
 40
0.0098927745
 40
0.0152775874
 40
0.0218275471
 40
0.0295280729
 40
0.0383611509
 40
0.0483058765
 40
0.0593385732
 40
0.0714327134
 40
0.0845592448
 40
0.0986866579
 40
0.1137808853
 40
0.1467222497
 40
0.1830663793
 40
0.2224636753
 40
0.2645351672
 40
0.308876059
 40
0.3550597971
 40
0.4026422429
 40
0.4511654181
 40
0.5001620952
 40
0.549160468
 40
0.5976883737
 40
0.6452778851
 40
0.6914697713
 40
0.7358179546
 40
0.7778939723
 40
0.8172911571
 40
0.8536286456
 40
0.8865550096
 40
0.9157521218
 40
0.9288627889
 40
0.9409384973
 40
0.9519503095
 40
0.9618718728
 40
0.9706794593
 40
0.9783524752
 40
0.9848731475
 40
0.9876967445
 40
0.9902271284
 40
0.9924632165
 40
0.9944040979
 40
0.9960493475
 40
0.9973993721
 40
0.997964133
 40
0.9984558288
 40
0.9988751237
 40
0.9992231842
 40
0.999502104
 40
0.9997160498
 40
0.999874449
 40
1.0
 40
1.0
 40
1.0
 40
1.0
 10
5.9749835257
 20
12.0925371547
 30
0.0
 10
5.9749838972
 20
12.0925421079
 30
0.0
 10
5.9749806791
 20
12.0925537359
 30
0.0
 10
5.9749668965
 20
12.0925686591
 30
0.0
 10
5.9749452658
 20
12.0925835468
 30
0.0
 10
5.9749151209
 20
12.0925986863
 30
0.0
 10
5.9748763825
 20
12.092614196
 30
0.0
 10
5.9748289243
 20
12.0926300462
 30
0.0
 10
5.9747727305
 20
12.0926462316
 30
0.0
 10
5.9746805843
 20
12.0926696315
 30
0.0
 10
5.9745433187
 20
12.0926989887
 30
0.0
 10
5.9743521841
 20
12.0927337814
 30
0.0
 10
5.9741262555
 20
12.0927697819
 30
0.0
 10
5.9737561404
 20
12.0928225405
 30
0.0
 10
5.9732073869
 20
12.0928898107
 30
0.0
 10
5.9724465566
 20
12.092970955
 30
0.0
 10
5.9715510886
 20
12.0930561717
 30
0.0
 10
5.9705231486
 20
12.0931452233
 30
0.0
 10
5.9693652121
 20
12.0932378234
 30
0.0
 10
5.9680800802
 20
12.0933337217
 30
0.0
 10
5.96667086
 20
12.0934326649
 30
0.0
 10
5.9651409584
 20
12.0935343998
 30
0.0
 10
5.9634940719
 20
12.0936386729
 30
0.0
 10
5.9610761892
 20
12.0937850486
 30
0.0
 10
5.9577934419
 20
12.0939714973
 30
0.0
 10
5.9535643057
 20
12.0941952692
 30
0.0
 10
5.9489791265
 20
12.0944228798
 30
0.0
 10
5.9440820551
 20
12.0946521076
 30
0.0
 10
5.9389202345
 20
12.0948807118
 30
0.0
 10
5.9335433469
 20
12.0951064722
 30
0.0
 10
5.9280031464
 20
12.0953272007
 30
0.0
 10
5.9223529736
 20
12.0955407622
 30
0.0
 10
5.9166472494
 20
12.0957450928
 30
0.0
 10
5.9109409505
 20
12.0959382198
 30
0.0
 10
5.9052890849
 20
12.0961182801
 30
0.0
 10
5.8997461749
 20
12.0962835391
 30
0.0
 10
5.894365732
 20
12.0964324073
 30
0.0
 10
5.8891997357
 20
12.0965634564
 30
0.0
 10
5.8842981249
 20
12.0966754377
 30
0.0
 10
5.879708306
 20
12.0967672933
 30
0.0
 10
5.8754746938
 20
12.0968381841
 30
0.0
 10
5.8716382698
 20
12.0968874665
 30
0.0
 10
5.8687066974
 20
12.0969110644
 30
0.0
 10
5.8665875418
 20
12.0969177626
 30
0.0
 10
5.8651770028
 20
12.0969169674
 30
0.0
 10
5.8638907482
 20
12.0969105729
 30
0.0
 10
5.8627318869
 20
12.0968986095
 30
0.0
 10
5.8617032111
 20
12.0968811471
 30
0.0
 10
5.8608072007
 20
12.0968582572
 30
0.0
 10
5.860144514
 20
12.0968338014
 30
0.0
 10
5.8596823604
 20
12.0968107922
 30
0.0
 10
5.8593871238
 20
12.0967930545
 30
0.0
 10
5.859126443
 20
12.0967740315
 30
0.0
 10
5.85890046
 20
12.0967537641
 30
0.0
 10
5.8587093001
 20
12.0967322787
 30
0.0
 10
5.8585719521
 20
12.0967124733
 30
0.0
 10
5.8584797194
 20
12.0966954734
 30
0.0
 10
5.8584235261
 20
12.096683201
 30
0.0
 10
5.8583760711
 20
12.0966706559
 30
0.0
 10
5.8583373365
 20
12.0966578496
 30
0.0
 10
5.858307183
 20
12.0966448052
 30
0.0
 10
5.8582855169
 20
12.0966314264
 30
0.0
 10
5.858271607
 20
12.0966173028
 30
0.0
 10
5.8582685039
 20
12.096605917
 30
0.0
 10
5.8582688698
 20
12.0966010384
 30
0.0
  0
SPLINE
  5
497
100
AcDbEntity
  8
0
100
AcDbSpline
 62
7
  6
CONTINUOUS
 70
0
 71
3
 72
60
 73
56
 74
0
 42
0.0000001
 43
0.0000001
 44
0.0000000001
 40
0.0
 40
0.0
 40
0.0
 40
0.0
 40
0.0002148282
 40
0.0004509094
 40
0.0007277373
 40
0.0010576369
 40
0.0019021114
 40
0.0030161251
 40
0.0044116028
 40
0.006094023
 40
0.0080660188
 40
0.0103285024
 40
0.0157244773
 40
0.0222763497
 40
0.029972227
 40
0.0387957764
 40
0.0597437034
 40
0.0849261788
 40
0.1141049596
 40
0.1470018603
 40
0.18330184
 40
0.222656654
 40
0.2646883935
 40
0.3089927789
 40
0.3551431797
 40
0.4026949578
 40
0.5001587486
 40
0.5976293013
 40
0.645188219
 40
0.6913465213
 40
0.7356578314
 40
0.7776935619
 40
0.8170475078
 40
0.8533398518
 40
0.8862208019
 40
0.915374455
 40
0.9284650008
 40
0.9405223089
 40
0.9515179032
 40
0.961426211
 40
0.9702243425
 40
0.9778928472
 40
0.9844157162
 40
0.9872437234
 40
0.9897813663
 40
0.9920282196
 40
0.9939843274
 40
0.9956507799
 40
0.9970303679
 40
0.9981287844
 40
0.9989585951
 40
0.9992820219
 40
0.9995534761
 40
0.9997860203
 40
1.0
 40
1.0
 40
1.0
 40
1.0
 10
6.3337525623
 20
12.0933923657
 30
0.0
 10
6.3337531891
 20
12.0934007239
 30
0.0
 10
6.3337512274
 20
12.0934186406
 30
0.0
 10
6.3337388455
 20
12.0934446147
 30
0.0
 10
6.3337177804
 20
12.0934701596
 30
0.0
 10
6.3336746516
 20
12.0935071328
 30
0.0
 10
6.3335967196
 20
12.0935518773
 30
0.0
 10
6.3334761178
 20
12.0936028717
 30
0.0
 10
6.3333208501
 20
12.0936547224
 30
0.0
 10
6.3331309389
 20
12.0937073614
 30
0.0
 10
6.3329062828
 20
12.0937606828
 30
0.0
 10
6.3325383693
 20
12.0938371432
 30
0.0
 10
6.3319919148
 20
12.0939316315
 30
0.0
 10
6.3312333854
 20
12.094041639
 30
0.0
 10
6.3303401437
 20
12.094153299
 30
0.0
 10
6.3288870609
 20
12.0943132179
 30
0.0
 10
6.3267518841
 20
12.0945099496
 30
0.0
 10
6.3238223528
 20
12.0947368636
 30
0.0
 10
6.3204253725
 20
12.0949630773
 30
0.0
 10
6.3165936272
 20
12.0951862676
 30
0.0
 10
6.3123639688
 20
12.0954040307
 30
0.0
 10
6.3077771225
 20
12.0956141655
 30
0.0
 10
6.3028772663
 20
12.0958145605
 30
0.0
 10
6.2977116255
 20
12.0960032274
 30
0.0
 10
6.2923300202
 20
12.0961783143
 30
0.0
 10
6.2848746022
 20
12.0963930901
 30
0.0
 10
6.2754163353
 20
12.0966151803
 30
0.0
 10
6.2659565102
 20
12.0967736622
 30
0.0
 10
6.2584976354
 20
12.0968588864
 30
0.0
 10
6.2531124852
 20
12.0969003478
 30
0.0
 10
6.2479427016
 20
12.0969195264
 30
0.0
 10
6.2430383582
 20
12.0969162644
 30
0.0
 10
6.2384469486
 20
12.0968906436
 30
0.0
 10
6.2342129097
 20
12.0968430033
 30
0.0
 10
6.2303771944
 20
12.0967738848
 30
0.0
 10
6.22744709
 20
12.0966966799
 30
0.0
 10
6.2253297452
 20
12.0966229049
 30
0.0
 10
6.2239207695
 20
12.0965646912
 30
0.0
 10
6.2226362857
 20
12.0965017747
 30
0.0
 10
6.221479381
 20
12.0964343356
 30
0.0
 10
6.2204528129
 20
12.0963626042
 30
0.0
 10
6.219559032
 20
12.0962868021
 30
0.0
 10
6.2188985376
 20
12.0962176948
 30
0.0
 10
6.2184383821
 20
12.0961591973
 30
0.0
 10
6.218144434
 20
12.0961165364
 30
0.0
 10
6.2178850416
 20
12.096073034
 30
0.0
 10
6.2176603189
 20
12.096028743
 30
0.0
 10
6.2174703694
 20
12.0959837344
 30
0.0
 10
6.2173150756
 20
12.095938129
 30
0.0
 10
6.2171944601
 20
12.0958919911
 30
0.0
 10
6.2171164131
 20
12.0958503431
 30
0.0
 10
6.2170732148
 20
12.0958150463
 30
0.0
 10
6.2170521128
 20
12.0957902949
 30
0.0
 10
6.2170397266
 20
12.0957647188
 30
0.0
 10
6.2170378211
 20
12.095746964
 30
0.0
 10
6.2170384455
 20
12.0957386388
 30
0.0
  0
SPLINE
  5
498
100
AcDbEntity
  8
0
100
AcDbSpline
 62
7
  6
CONTINUOUS
 70
0
 71
3
 72
63
 73
59
 74
0
 42
0.0000001
 43
0.0000001
 44
0.0000000001
 40
0.0
 40
0.0
 40
0.0
 40
0.0
 40
0.0002469249
 40
0.0005105997
 40
0.0008095568
 40
0.0011567031
 40
0.0020246545
 40
0.0031526689
 40
0.0045561776
 40
0.0062425801
 40
0.0082156864
 40
0.0104771813
 40
0.0130275784
 40
0.0158667845
 40
0.0224079831
 40
0.030090529
 40
0.0388990514
 40
0.0488146216
 40
0.0598147406
 40
0.0718740186
 40
0.0849643167
 40
0.1141115076
 40
0.1469796007
 40
0.1832543178
 40
0.2225874638
 40
0.2646007718
 40
0.3088893557
 40
0.3550257276
 40
0.4025642848
 40
0.4999999946
 40
0.5974357092
 40
0.6449742627
 40
0.6911106383
 40
0.7353992253
 40
0.7774125343
 40
0.8167456805
 40
0.8530203977
 40
0.8858884904
 40
0.9150356814
 40
0.9281259803
 40
0.9401852588
 40
0.9511853781
 40
0.9611009484
 40
0.969909471
 40
0.9775920169
 40
0.9841332154
 40
0.9869724215
 40
0.9895228186
 40
0.9917843135
 40
0.9937574198
 40
0.9954438223
 40
0.996847331
 40
0.9979753455
 40
0.9988432969
 40
0.9991904432
 40
0.9994894003
 40
0.9997530751
 40
1.0
 40
1.0
 40
1.0
 40
1.0
 10
6.8238404127
 20
12.0945637051
 30
0.0
 10
6.8238411337
 20
12.0945733176
 30
0.0
 10
6.8238394789
 20
12.0945935557
 30
0.0
 10
6.8238275876
 20
12.0946232316
 30
0.0
 10
6.8238068528
 20
12.0946523744
 30
0.0
 10
6.8237644726
 20
12.0946938862
 30
0.0
 10
6.8236870895
 20
12.0947439652
 30
0.0
 10
6.8235667472
 20
12.0948002203
 30
0.0
 10
6.8234118486
 20
12.0948565987
 30
0.0
 10
6.8232223564
 20
12.0949130259
 30
0.0
 10
6.8229981367
 20
12.0949694138
 30
0.0
 10
6.8227392762
 20
12.0950256835
 30
0.0
 10
6.8224458815
 20
12.0950817771
 30
0.0
 10
6.8219867147
 20
12.0951599802
 30
0.0
 10
6.8213273404
 20
12.0952551108
 30
0.0
 10
6.8204347053
 20
12.0953634006
 30
0.0
 10
6.8194093362
 20
12.0954700705
 30
0.0
 10
6.8182536739
 20
12.0955748073
 30
0.0
 10
6.8169704633
 20
12.0956772833
 30
0.0
 10
6.8155627805
 20
12.0957772222
 30
0.0
 10
6.8134473912
 20
12.0959115706
 30
0.0
 10
6.8105195697
 20
12.0960687706
 30
0.0
 10
6.8066862053
 20
12.0962376835
 30
0.0
 10
6.8024542658
 20
12.0963910589
 30
0.0
 10
6.797864569
 20
12.0965273211
 30
0.0
 10
6.7929614222
 20
12.0966450441
 30
0.0
 10
6.7877922103
 20
12.0967430268
 30
0.0
 10
6.7824069311
 20
12.0968202836
 30
0.0
 10
6.7749467172
 20
12.0968951889
 30
0.0
 10
6.7654834896
 20
12.096931966
 30
0.0
 10
6.7560202621
 20
12.096895189
 30
0.0
 10
6.748560048
 20
12.0968202836
 30
0.0
 10
6.7431747687
 20
12.0967430268
 30
0.0
 10
6.7380055565
 20
12.0966450441
 30
0.0
 10
6.7331024095
 20
12.0965273211
 30
0.0
 10
6.7285127127
 20
12.0963910589
 30
0.0
 10
6.7242807732
 20
12.0962376835
 30
0.0
 10
6.7204474088
 20
12.0960687706
 30
0.0
 10
6.7175195872
 20
12.0959115706
 30
0.0
 10
6.7154041979
 20
12.0957772222
 30
0.0
 10
6.713996515
 20
12.0956772833
 30
0.0
 10
6.7127133044
 20
12.0955748073
 30
0.0
 10
6.7115576421
 20
12.0954700705
 30
0.0
 10
6.710532273
 20
12.0953634006
 30
0.0
 10
6.7096396379
 20
12.0952551108
 30
0.0
 10
6.7089802635
 20
12.0951599802
 30
0.0
 10
6.7085210968
 20
12.0950817772
 30
0.0
 10
6.7082277021
 20
12.0950256835
 30
0.0
 10
6.7079688416
 20
12.0949694138
 30
0.0
 10
6.7077446219
 20
12.0949130259
 30
0.0
 10
6.7075551296
 20
12.0948565987
 30
0.0
 10
6.7074002311
 20
12.0948002203
 30
0.0
 10
6.7072798888
 20
12.0947439652
 30
0.0
 10
6.7072025057
 20
12.0946938862
 30
0.0
 10
6.7071601255
 20
12.0946523744
 30
0.0
 10
6.7071393907
 20
12.0946232316
 30
0.0
 10
6.7071274993
 20
12.0945935557
 30
0.0
 10
6.7071258446
 20
12.0945733176
 30
0.0
 10
6.7071265655
 20
12.0945637051
 30
0.0
  0
SPLINE
  5
499
100
AcDbEntity
  8
0
100
AcDbSpline
 62
7
  6
CONTINUOUS
 70
0
 71
3
 72
60
 73
56
 74
0
 42
0.0000001
 43
0.0000001
 44
0.0000000001
 40
0.0
 40
0.0
 40
0.0
 40
0.0
 40
0.0002139797
 40
0.0004465239
 40
0.000717978
 40
0.0010414047
 40
0.0018712152
 40
0.0029696314
 40
0.0043492187
 40
0.0060156706
 40
0.007971778
 40
0.0102186304
 40
0.0127562723
 40
0.0155842786
 40
0.0221071448
 40
0.0297756491
 40
0.0385737867
 40
0.0484821166
 40
0.0594777422
 40
0.071535088
 40
0.0846256566
 40
0.1137793308
 40
0.1466602904
 40
0.1829526393
 40
0.2223065887
 40
0.2643423225
 40
0.3086536312
 40
0.3548119274
 40
0.4023707844
 40
0.4998411163
 40
0.5973050433
 40
0.6448569076
 40
0.6910073106
 40
0.7353116856
 40
0.7773434148
 40
0.8166982171
 40
0.852998184
 40
0.885895075
 40
0.915073848
 40
0.9402563151
 40
0.9612042351
 40
0.970027782
 40
0.9777236568
 40
0.9842755271
 40
0.9896715006
 40
0.9919339834
 40
0.9939059786
 40
0.9955883984
 40
0.9969838756
 40
0.998097889
 40
0.9989423633
 40
0.9992722628
 40
0.9995490906
 40
0.9997851718
 40
1.0
 40
1.0
 40
1.0
 40
1.0
 10
7.3139285328
 20
12.0957386388
 30
0.0
 10
7.3139291572
 20
12.095746964
 30
0.0
 10
7.3139272516
 20
12.0957647188
 30
0.0
 10
7.3139148655
 20
12.0957902949
 30
0.0
 10
7.3138937635
 20
12.0958150463
 30
0.0
 10
7.3138505652
 20
12.0958503431
 30
0.0
 10
7.3137725183
 20
12.0958919911
 30
0.0
 10
7.3136519027
 20
12.095938129
 30
0.0
 10
7.3134966091
 20
12.0959837344
 30
0.0
 10
7.3133066596
 20
12.0960287429
 30
0.0
 10
7.313081937
 20
12.0960730339
 30
0.0
 10
7.3128225447
 20
12.0961165363
 30
0.0
 10
7.3125285967
 20
12.0961591972
 30
0.0
 10
7.3120684414
 20
12.0962176948
 30
0.0
 10
7.3114079471
 20
12.096286802
 30
0.0
 10
7.3105141661
 20
12.0963626042
 30
0.0
 10
7.309487597
 20
12.0964343356
 30
0.0
 10
7.3083306899
 20
12.0965017749
 30
0.0
 10
7.3070462025
 20
12.0965646915
 30
0.0
 10
7.3056372233
 20
12.0966229052
 30
0.0
 10
7.3035198753
 20
12.0966966803
 30
0.0
 10
7.3005897688
 20
12.0967738851
 30
0.0
 10
7.2967540522
 20
12.0968430036
 30
0.0
 10
7.2925200125
 20
12.0968906438
 30
0.0
 10
7.2879286025
 20
12.0969162645
 30
0.0
 10
7.2830242589
 20
12.0969195264
 30
0.0
 10
7.2778544754
 20
12.0969003477
 30
0.0
 10
7.2724693279
 20
12.0968588862
 30
0.0
 10
7.2650104643
 20
12.0967736621
 30
0.0
 10
7.2555506448
 20
12.0966151803
 30
0.0
 10
7.2460923779
 20
12.0963930902
 30
0.0
 10
7.2386369511
 20
12.0961783141
 30
0.0
 10
7.2332553427
 20
12.0960032271
 30
0.0
 10
7.2280897027
 20
12.0958145602
 30
0.0
 10
7.2231898478
 20
12.0956141652
 30
0.0
 10
7.2186030028
 20
12.0954040304
 30
0.0
 10
7.2143733458
 20
12.0951862674
 30
0.0
 10
7.2105416016
 20
12.094963077
 30
0.0
 10
7.2071446223
 20
12.0947368634
 30
0.0
 10
7.2042150919
 20
12.0945099494
 30
0.0
 10
7.2020799159
 20
12.0943132178
 30
0.0
 10
7.2006268335
 20
12.0941532989
 30
0.0
 10
7.1997335921
 20
12.0940416389
 30
0.0
 10
7.1989750629
 20
12.0939316314
 30
0.0
 10
7.1984286086
 20
12.0938371431
 30
0.0
 10
7.1980606952
 20
12.0937606827
 30
0.0
 10
7.1978360392
 20
12.0937073614
 30
0.0
 10
7.197646128
 20
12.0936547224
 30
0.0
 10
7.1974908604
 20
12.0936028717
 30
0.0
 10
7.1973702586
 20
12.0935518773
 30
0.0
 10
7.1972923266
 20
12.0935071328
 30
0.0
 10
7.1972491978
 20
12.0934701596
 30
0.0
 10
7.1972281327
 20
12.0934446147
 30
0.0
 10
7.1972157509
 20
12.0934186406
 30
0.0
 10
7.1972137891
 20
12.0934007239
 30
0.0
 10
7.197214416
 20
12.0933923657
 30
0.0
  0
SPLINE
  5
49A
100
AcDbEntity
  8
0
100
AcDbSpline
 62
7
  6
CONTINUOUS
 70
0
 71
3
 72
69
 73
65
 74
0
 42
0.0000001
 43
0.0000001
 44
0.0000000001
 40
0.0
 40
0.0
 40
0.0
 40
0.0
 40
0.000125551
 40
0.0002839498
 40
0.0004978951
 40
0.0007768141
 40
0.0011248739
 40
0.001544168
 40
0.002035863
 40
0.0026006224
 40
0.0039506428
 40
0.0055958885
 40
0.0075367665
 40
0.009772848
 40
0.0123032252
 40
0.0151268174
 40
0.0216474709
 40
0.0293204707
 40
0.0381280378
 40
0.0480495758
 40
0.059061366
 40
0.0711370428
 40
0.084247678
 40
0.1134447226
 40
0.146371021
 40
0.1827084294
 40
0.2221055259
 40
0.2641814593
 40
0.3085295646
 40
0.3547213676
 40
0.4023107994
 40
0.450838638
 40
0.4998369501
 40
0.548833546
 40
0.5973566411
 40
0.6449390642
 40
0.6911228948
 40
0.735463928
 40
0.7775355968
 40
0.8169331153
 40
0.8532774402
 40
0.886218961
 40
0.9013132476
 40
0.9154407113
 40
0.9285672804
 40
0.9406614488
 40
0.9516941638
 40
0.961638898
 40
0.9704719801
 40
0.9781725023
 40
0.9847224528
 40
0.9901072574
 40
0.9923592382
 40
0.9943163099
 40
0.995977943
 40
0.9973444533
 40
0.997917468
 40
0.9984173987
 40
0.9988448588
 40
0.9992009358
 40
0.9994875741
 40
0.9997085959
 40
0.9998725297
 40
1.0
 40
1.0
 40
1.0
 40
1.0
 10
7.6726981084
 20
12.0966010384
 30
0.0
 10
7.6726984743
 20
12.096605917
 30
0.0
 10
7.6726953713
 20
12.0966173028
 30
0.0
 10
7.6726814615
 20
12.0966314264
 30
0.0
 10
7.6726597954
 20
12.0966448052
 30
0.0
 10
7.672629642
 20
12.0966578496
 30
0.0
 10
7.6725909075
 20
12.0966706559
 30
0.0
 10
7.6725434525
 20
12.0966832009
 30
0.0
 10
7.6724872594
 20
12.0966954733
 30
0.0
 10
7.6723950269
 20
12.0967124732
 30
0.0
 10
7.6722576793
 20
12.0967322785
 30
0.0
 10
7.6720665199
 20
12.0967537639
 30
0.0
 10
7.6718405374
 20
12.0967740313
 30
0.0
 10
7.6715798573
 20
12.0967930543
 30
0.0
 10
7.6712846214
 20
12.096810792
 30
0.0
 10
7.670822469
 20
12.0968338012
 30
0.0
 10
7.6701597838
 20
12.096858257
 30
0.0
 10
7.6692637755
 20
12.0968811469
 30
0.0
 10
7.6682351021
 20
12.0968986093
 30
0.0
 10
7.6670762434
 20
12.0969105728
 30
0.0
 10
7.6657899918
 20
12.0969169673
 30
0.0
 10
7.6643794562
 20
12.0969177627
 30
0.0
 10
7.6622603057
 20
12.0969110645
 30
0.0
 10
7.6593287397
 20
12.0968874669
 30
0.0
 10
7.655492324
 20
12.0968381847
 30
0.0
 10
7.651258721
 20
12.0967672941
 30
0.0
 10
7.6466689119
 20
12.096675439
 30
0.0
 10
7.6417673108
 20
12.0965634581
 30
0.0
 10
7.6366013241
 20
12.0964324093
 30
0.0
 10
7.6312208905
 20
12.0962835416
 30
0.0
 10
7.6256779895
 20
12.0961182831
 30
0.0
 10
7.6200261319
 20
12.0959382232
 30
0.0
 10
7.6143198412
 20
12.0957450967
 30
0.0
 10
7.6086141256
 20
12.0955407666
 30
0.0
 10
7.6029639599
 20
12.0953272057
 30
0.0
 10
7.5974237598
 20
12.0951064775
 30
0.0
 10
7.592046864
 20
12.0948807169
 30
0.0
 10
7.5868850274
 20
12.0946521124
 30
0.0
 10
7.5819879349
 20
12.0944228839
 30
0.0
 10
7.5774027326
 20
12.0941952722
 30
0.0
 10
7.573173574
 20
12.0939714993
 30
0.0
 10
7.5698908108
 20
12.0937850499
 30
0.0
 10
7.5674729177
 20
12.0936386736
 30
0.0
 10
7.5658260254
 20
12.0935344002
 30
0.0
 10
7.5642961193
 20
12.093432665
 30
0.0
 10
7.5628868958
 20
12.0933337215
 30
0.0
 10
7.5616017618
 20
12.093237823
 30
0.0
 10
7.5604438241
 20
12.0931452228
 30
0.0
 10
7.5594158837
 20
12.0930561712
 30
0.0
 10
7.5585204161
 20
12.0929709545
 30
0.0
 10
7.5577595866
 20
12.0928898101
 30
0.0
 10
7.557210834
 20
12.09282254
 30
0.0
 10
7.5568407198
 20
12.0927697814
 30
0.0
 10
7.5566147918
 20
12.0927337809
 30
0.0
 10
7.5564236578
 20
12.0926989883
 30
0.0
 10
7.5562863927
 20
12.0926696312
 30
0.0
 10
7.5561942468
 20
12.0926462313
 30
0.0
 10
7.5561380532
 20
12.092630046
 30
0.0
 10
7.5560905952
 20
12.0926141958
 30
0.0
 10
7.5560518569
 20
12.0925986862
 30
0.0
 10
7.5560217122
 20
12.0925835467
 30
0.0
 10
7.5560000816
 20
12.0925686591
 30
0.0
 10
7.5559862991
 20
12.0925537359
 30
0.0
 10
7.555983081
 20
12.0925421079
 30
0.0
 10
7.5559834525
 20
12.0925371547
 30
0.0
  0
LINE
  5
49B
100
AcDbEntity
  8
0
100
AcDbLine
 62
7
  6
CONTINUOUS
 10
7.7890209173
 20
12.0963142111
 11
7.6925756107
 21
12.0924366123
  0
LINE
  5
49C
100
AcDbEntity
  8
0
100
AcDbLine
 62
7
  6
CONTINUOUS
 10
5.3825794447
 20
12.114080828
 11
5.2971668847
 21
12.119026116
  0
SPLINE
  5
49D
100
AcDbEntity
  8
0
100
AcDbSpline
 62
7
  6
CONTINUOUS
 70
0
 71
3
 72
30
 73
26
 74
0
 42
0.0000001
 43
0.0000001
 44
0.0000000001
 40
0.0
 40
0.0
 40
0.0
 40
0.0
 40
0.2194742481
 40
0.3211517504
 40
0.4169284529
 40
0.5064366271
 40
0.5893326728
 40
0.6652984776
 40
0.7340427082
 40
0.7953025482
 40
0.8488448169
 40
0.8944672857
 40
0.9320005491
 40
0.961311519
 40
0.9728546182
 40
0.9823134531
 40
0.9862618533
 40
0.9896908446
 40
0.992602779
 40
0.9950023068
 40
0.9968989023
 40
0.9983126429
 40
0.9988533328
 40
0.999298493
 40
1.0
 40
1.0
 40
1.0
 40
1.0
 10
5.40832808
 20
12.1183626764
 30
0.0
 10
5.4064162578
 20
12.1184417489
 30
0.0
 10
5.4036185351
 20
12.1185528448
 30
0.0
 10
5.3999860159
 20
12.1186854056
 30
0.0
 10
5.3974856267
 20
12.1187707582
 30
0.0
 10
5.3951486809
 20
12.1188442949
 30
0.0
 10
5.3929841683
 20
12.1189057412
 30
0.0
 10
5.3910004185
 20
12.1189548789
 30
0.0
 10
5.3892050656
 20
12.1189915419
 30
0.0
 10
5.3876050125
 20
12.1190156376
 30
0.0
 10
5.3862064082
 20
12.1190271163
 30
0.0
 10
5.385014596
 20
12.1190261214
 30
0.0
 10
5.3840341446
 20
12.1190126715
 30
0.0
 10
5.3833509914
 20
12.1189905018
 30
0.0
 10
5.3829131081
 20
12.1189642508
 30
0.0
 10
5.3826963182
 20
12.1189458307
 30
0.0
 10
5.3825505038
 20
12.1189288871
 30
0.0
 10
5.3824616813
 20
12.1189162173
 30
0.0
 10
5.3823866497
 20
12.1189028308
 30
0.0
 10
5.3823253415
 20
12.118888789
 30
0.0
 10
5.3822777635
 20
12.1188740625
 30
0.0
 10
5.3822468514
 20
12.1188604386
 30
0.0
 10
5.3822296335
 20
12.1188483638
 30
0.0
 10
5.3822191724
 20
12.1188380307
 30
0.0
 10
5.382215168
 20
12.1188277348
 30
0.0
 10
5.3822156254
 20
12.118821636
 30
0.0
  0
LINE
  5
49E
100
AcDbEntity
  8
0
100
AcDbLine
 62
9
  6
CONTINUOUS
 10
5.5185277934
 20
12.112473786
 11
5.6274500796
 21
12.1124745142
  0
SPLINE
  5
49F
100
AcDbEntity
  8
0
100
AcDbSpline
 62
7
  6
CONTINUOUS
 70
0
 71
3
 72
62
 73
58
 74
0
 42
0.0000001
 43
0.0000001
 44
0.0000000001
 40
0.0
 40
0.0
 40
0.0
 40
0.0
 40
0.0002296565
 40
0.0004807575
 40
0.0007717681
 40
0.0011147416
 40
0.0019823928
 40
0.0031167507
 40
0.0045306755
 40
0.0062301767
 40
0.0082182379
 40
0.0104960081
 40
0.0130636457
 40
0.0159207881
 40
0.0224991148
 40
0.0302194655
 40
0.0390655411
 40
0.0490176395
 40
0.0600527737
 40
0.0852656872
 40
0.1144655792
 40
0.1473738951
 40
0.1836758261
 40
0.2230238029
 40
0.2650408459
 40
0.3093242041
 40
0.3554490063
 40
0.4029724429
 40
0.5003786011
 40
0.5977999327
 40
0.6453397167
 40
0.6914826619
 40
0.7357818314
 40
0.7778078086
 40
0.8171531221
 40
0.8534364167
 40
0.8863065047
 40
0.9154462551
 40
0.9285283913
 40
0.9405762097
 40
0.9515612321
 40
0.9614579258
 40
0.9702435121
 40
0.9778987774
 40
0.9844080854
 40
0.9872293932
 40
0.9897605301
 40
0.9920012422
 40
0.9939518145
 40
0.9956136906
 40
0.9969902311
 40
0.9980881182
 40
0.9989217963
 40
0.9992499558
 40
0.9995288392
 40
0.9997721197
 40
1.0
 40
1.0
 40
1.0
 40
1.0
 10
5.7432316968
 20
12.1130830231
 30
0.0
 10
5.7432323643
 20
12.1130919233
 30
0.0
 10
5.7432305075
 20
12.1131109159
 30
0.0
 10
5.7432183922
 20
12.1131387427
 30
0.0
 10
5.7431975779
 20
12.1131664103
 30
0.0
 10
5.7431549986
 20
12.1132065967
 30
0.0
 10
5.7430777135
 20
12.1132560187
 30
0.0
 10
5.7429577405
 20
12.1133130866
 30
0.0
 10
5.7428032974
 20
12.113371823
 30
0.0
 10
5.742614388
 20
12.1134321601
 30
0.0
 10
5.7423909067
 20
12.1134939955
 30
0.0
 10
5.742132954
 20
12.1135572525
 30
0.0
 10
5.7418406462
 20
12.1136218686
 30
0.0
 10
5.7413833674
 20
12.1137141405
 30
0.0
 10
5.740726851
 20
12.1138308329
 30
0.0
 10
5.7398381621
 20
12.1139699421
 30
0.0
 10
5.7388175746
 20
12.1141133962
 30
0.0
 10
5.7376675548
 20
12.1142608117
 30
0.0
 10
5.7358844737
 20
12.1144715636
 30
0.0
 10
5.7333549449
 20
12.1147386119
 30
0.0
 10
5.7299762666
 20
12.1150564617
 30
0.0
 10
5.7261655062
 20
12.1153808455
 30
0.0
 10
5.7219593389
 20
12.1157085282
 30
0.0
 10
5.717398196
 20
12.1160362065
 30
0.0
 10
5.7125259119
 20
12.116360656
 30
0.0
 10
5.7073893096
 20
12.1166786951
 30
0.0
 10
5.7020377648
 20
12.1169872334
 30
0.0
 10
5.6946235002
 20
12.1173851764
 30
0.0
 10
5.6852157833
 20
12.1178365704
 30
0.0
 10
5.675804435
 20
12.1182204833
 30
0.0
 10
5.6683821394
 20
12.1184810073
 30
0.0
 10
5.6630223472
 20
12.1186477937
 30
0.0
 10
5.6578760969
 20
12.1187859962
 30
0.0
 10
5.6529933644
 20
12.1188942945
 30
0.0
 10
5.6484216022
 20
12.118971682
 30
0.0
 10
5.6442052499
 20
12.1190174967
 30
0.0
 10
5.6403852869
 20
12.1190313723
 30
0.0
 10
5.6374669791
 20
12.1190159926
 30
0.0
 10
5.6353581068
 20
12.1189857281
 30
0.0
 10
5.6339548798
 20
12.1189558797
 30
0.0
 10
5.6326756818
 20
12.118918186
 30
0.0
 10
5.6315235982
 20
12.1188727688
 30
0.0
 10
5.6305013812
 20
12.1188198111
 30
0.0
 10
5.6296114739
 20
12.1187594936
 30
0.0
 10
5.6289538664
 20
12.118700981
 30
0.0
 10
5.6284957814
 20
12.1186491946
 30
0.0
 10
5.6282032173
 20
12.1186104829
 30
0.0
 10
5.6279450776
 20
12.118570088
 30
0.0
 10
5.6277214703
 20
12.1185280611
 30
0.0
 10
5.6275324901
 20
12.1184844765
 30
0.0
 10
5.6273780006
 20
12.118439444
 30
0.0
 10
5.6272579951
 20
12.1183930382
 30
0.0
 10
5.6271804499
 20
12.1183503792
 30
0.0
 10
5.6271377349
 20
12.1183138426
 30
0.0
 10
5.627116851
 20
12.118287896
 30
0.0
 10
5.6271047445
 20
12.1182609362
 30
0.0
 10
5.6271030061
 20
12.1182423002
 30
0.0
 10
5.6271036685
 20
12.1182334689
 30
0.0
  0
SPLINE
  5
4A0
100
AcDbEntity
  8
0
100
AcDbSpline
 62
7
  6
CONTINUOUS
 70
0
 71
3
 72
58
 73
54
 74
0
 42
0.0000001
 43
0.0000001
 44
0.0000000001
 40
0.0
 40
0.0
 40
0.0
 40
0.0
 40
0.0006248348
 40
0.0013692138
 40
0.0023166722
 40
0.0035085155
 40
0.0049648753
 40
0.0066962068
 40
0.0087082518
 40
0.0110039522
 40
0.0164506593
 40
0.0230379876
 40
0.0307578244
 40
0.0395961803
 40
0.049534963
 40
0.0605524223
 40
0.0726235325
 40
0.0857205749
 40
0.1148673135
 40
0.1477185222
 40
0.1839623196
 40
0.2232531936
 40
0.2652156866
 40
0.3094477022
 40
0.3555244149
 40
0.4030026428
 40
0.5003228562
 40
0.5976564376
 40
0.6451489861
 40
0.6912416149
 40
0.7354874433
 40
0.7774575607
 40
0.8167457589
 40
0.8529727258
 40
0.8857898406
 40
0.9148833039
 40
0.9279461904
 40
0.9399781685
 40
0.9509515402
 40
0.9608416974
 40
0.9696270611
 40
0.9772900101
 40
0.9838172059
 40
0.9892011299
 40
0.9914648513
 40
0.9934447032
 40
0.9951439929
 40
0.9965689495
 40
0.997730872
 40
0.9986517045
 40
0.9993765867
 40
0.9996935238
 40
1.0
 40
1.0
 40
1.0
 40
1.0
 10
6.1184210652
 20
12.1139724045
 30
0.0
 10
6.118422884
 20
12.1139966553
 30
0.0
 10
6.118412262
 20
12.114051273
 30
0.0
 10
6.1183591328
 20
12.1141260468
 30
0.0
 10
6.1182733828
 20
12.1141993858
 30
0.0
 10
6.1181540122
 20
12.1142731244
 30
0.0
 10
6.1180005734
 20
12.1143477762
 30
0.0
 10
6.1178127179
 20
12.1144233763
 30
0.0
 10
6.117590393
 20
12.11449988
 30
0.0
 10
6.1172267808
 20
12.1146093098
 30
0.0
 10
6.1166854786
 20
12.1147447463
 30
0.0
 10
6.1159328969
 20
12.1149024843
 30
0.0
 10
6.1150462941
 20
12.1150625356
 30
0.0
 10
6.114027751
 20
12.1152244455
 30
0.0
 10
6.1128796308
 20
12.1153876756
 30
0.0
 10
6.1116046738
 20
12.1155517712
 30
0.0
 10
6.1102059282
 20
12.1157162992
 30
0.0
 10
6.1081042199
 20
12.115943854
 30
0.0
 10
6.1051947509
 20
12.1162231865
 30
0.0
 10
6.1013844736
 20
12.1165431814
 30
0.0
 10
6.0971775452
 20
12.1168554045
 30
0.0
 10
6.0926143833
 20
12.1171567347
 30
0.0
 10
6.0877388466
 20
12.117444135
 30
0.0
 10
6.0825978611
 20
12.1177147539
 30
0.0
 10
6.0772409699
 20
12.1179659289
 30
0.0
 10
6.0698183628
 20
12.1182740891
 30
0.0
 10
6.0603996705
 20
12.1185927986
 30
0.0
 10
6.0509777747
 20
12.1188202453
 30
0.0
 10
6.0435480827
 20
12.1189425439
 30
0.0
 10
6.0381839214
 20
12.1190020238
 30
0.0
 10
6.0330344375
 20
12.1190295034
 30
0.0
 10
6.0281497093
 20
12.1190247547
 30
0.0
 10
6.0235772195
 20
12.1189878959
 30
0.0
 10
6.0193613627
 20
12.1189194181
 30
0.0
 10
6.0155430183
 20
12.1188201035
 30
0.0
 10
6.0126270077
 20
12.1187091928
 30
0.0
 10
6.0105206055
 20
12.1186032304
 30
0.0
 10
6.0091192763
 20
12.1185196281
 30
0.0
 10
6.0078421254
 20
12.1184292774
 30
0.0
 10
6.0066921996
 20
12.1183324461
 30
0.0
 10
6.005672225
 20
12.1182294297
 30
0.0
 10
6.0047845475
 20
12.1181206387
 30
0.0
 10
6.0040312186
 20
12.1180064173
 30
0.0
 10
6.0034891693
 20
12.1179022325
 30
0.0
 10
6.0031249832
 20
12.1178137369
 30
0.0
 10
6.0029025316
 20
12.1177500855
 30
0.0
 10
6.0027145917
 20
12.1176853344
 30
0.0
 10
6.0025610667
 20
12.1176195866
 30
0.0
 10
6.0024416214
 20
12.1175526334
 30
0.0
 10
6.0023555759
 20
12.1174843465
 30
0.0
 10
6.0023094564
 20
12.1174211797
 30
0.0
 10
6.0022940723
 20
12.1173705195
 30
0.0
 10
6.002292894
 20
12.1173459916
 30
0.0
 10
6.0022937862
 20
12.1173340968
 30
0.0
  0
SPLINE
  5
4A1
100
AcDbEntity
  8
0
100
AcDbSpline
 62
7
  6
CONTINUOUS
 70
0
 71
3
 72
57
 73
53
 74
0
 42
0.0000001
 43
0.0000001
 44
0.0000000001
 40
0.0
 40
0.0
 40
0.0
 40
0.0
 40
0.000704316
 40
0.0015099333
 40
0.0025005481
 40
0.0037221757
 40
0.0051989049
 40
0.0069438338
 40
0.0089644485
 40
0.0112648784
 40
0.0167124098
 40
0.0232925951
 40
0.0309997829
 40
0.0398216305
 40
0.0497412587
 40
0.06073769
 40
0.0727866506
 40
0.085860967
 40
0.1149619609
 40
0.1477690506
 40
0.183971992
 40
0.2232259944
 40
0.2651554569
 40
0.3093578136
 40
0.4028592274
 40
0.5001261932
 40
0.5973984263
 40
0.690911776
 40
0.7351195672
 40
0.7770520196
 40
0.8163049072
 40
0.852501114
 40
0.8852946435
 40
0.9143744941
 40
0.9274352657
 40
0.9394687548
 40
0.9504477657
 40
0.960348212
 40
0.9691491902
 40
0.9768340012
 40
0.9833905962
 40
0.9862440033
 40
0.9888141042
 40
0.9911020642
 40
0.9931101599
 40
0.9948426969
 40
0.9956080482
 40
0.9963078189
 40
0.9975181225
 40
0.9984988981
 40
0.9992976028
 40
1.0
 40
1.0
 40
1.0
 40
1.0
 10
6.5786591724
 20
12.115066241
 30
0.0
 10
6.5786612244
 20
12.1150936012
 30
0.0
 10
6.578651851
 20
12.1151537961
 30
0.0
 10
6.5786000524
 20
12.1152382077
 30
0.0
 10
6.5785147688
 20
12.1153202219
 30
0.0
 10
6.5783958724
 20
12.1154016901
 30
0.0
 10
6.5782429353
 20
12.1154832526
 30
0.0
 10
6.5780556458
 20
12.1155650316
 30
0.0
 10
6.5778339143
 20
12.1156470108
 30
0.0
 10
6.5774714217
 20
12.1157631205
 30
0.0
 10
6.5769311933
 20
12.1159048341
 30
0.0
 10
6.5761795905
 20
12.1160670998
 30
0.0
 10
6.575293894
 20
12.1162289266
 30
0.0
 10
6.5742761428
 20
12.116389848
 30
0.0
 10
6.5731286559
 20
12.1165493121
 30
0.0
 10
6.5718541454
 20
12.1167068687
 30
0.0
 10
6.5704556364
 20
12.1168620926
 30
0.0
 10
6.5683538174
 20
12.1170729783
 30
0.0
 10
6.5654435255
 20
12.1173243261
 30
0.0
 10
6.5616315163
 20
12.117601343
 30
0.0
 10
6.5574219145
 20
12.1178604452
 30
0.0
 10
6.5528552239
 20
12.1180989897
 30
0.0
 10
6.54797545
 20
12.1183145315
 30
0.0
 10
6.540982455
 20
12.1185731242
 30
0.0
 10
6.5318321176
 20
12.1188207391
 30
0.0
 10
6.5206124549
 20
12.1189958392
 30
0.0
 10
6.5093910764
 20
12.1190467503
 30
0.0
 10
6.500236726
 20
12.1189834278
 30
0.0
 10
6.4932391498
 20
12.1188656151
 30
0.0
 10
6.4883557425
 20
12.1187482761
 30
0.0
 10
6.4837853682
 20
12.1186015958
 30
0.0
 10
6.4795722442
 20
12.1184271362
 30
0.0
 10
6.4757570566
 20
12.1182267308
 30
0.0
 10
6.4728441902
 20
12.1180338311
 30
0.0
 10
6.4707405256
 20
12.1178651256
 30
0.0
 10
6.469341002
 20
12.1177379738
 30
0.0
 10
6.4680656274
 20
12.1176059951
 30
0.0
 10
6.4669174341
 20
12.1174695497
 30
0.0
 10
6.4658991045
 20
12.1173290644
 30
0.0
 10
6.4650130228
 20
12.1171849501
 30
0.0
 10
6.464359266
 20
12.1170571396
 30
0.0
 10
6.4639046767
 20
12.1169513277
 30
0.0
 10
6.4636140849
 20
12.1168749856
 30
0.0
 10
6.4633578457
 20
12.1167980263
 30
0.0
 10
6.4631360711
 20
12.1167204969
 30
0.0
 10
6.4629738759
 20
12.1166529683
 30
0.0
 10
6.4628620558
 20
12.1165979664
 30
0.0
 10
6.4627708741
 20
12.1165474449
 30
0.0
 10
6.4626768112
 20
12.1164848675
 30
0.0
 10
6.4625914422
 20
12.1164045006
 30
0.0
 10
6.4625395831
 20
12.1163209068
 30
0.0
 10
6.462530336
 20
12.1162610251
 30
0.0
 10
6.4625323825
 20
12.1162337394
 30
0.0
  0
SPLINE
  5
4A2
100
AcDbEntity
  8
0
100
AcDbSpline
 62
7
  6
CONTINUOUS
 70
0
 71
3
 72
57
 73
53
 74
0
 42
0.0000001
 43
0.0000001
 44
0.0000000001
 40
0.0
 40
0.0
 40
0.0
 40
0.0
 40
0.0007023972
 40
0.0015011018
 40
0.0024818775
 40
0.0036921811
 40
0.0043919518
 40
0.005157303
 40
0.0068898401
 40
0.0088979358
 40
0.0111858957
 40
0.0137559967
 40
0.0166094038
 40
0.0231659988
 40
0.0308508097
 40
0.039651788
 40
0.0495522342
 40
0.0605312449
 40
0.0725647339
 40
0.0856255055
 40
0.1147053555
 40
0.1474988855
 40
0.1836950917
 40
0.2229479798
 40
0.2648804321
 40
0.3090882233
 40
0.4026015728
 40
0.4998738054
 40
0.5971407714
 40
0.690642187
 40
0.7348445448
 40
0.7767740073
 40
0.8160280094
 40
0.8522309501
 40
0.8850380398
 40
0.9141390335
 40
0.92721335
 40
0.9392623105
 40
0.9502587418
 40
0.9601783699
 40
0.9690002174
 40
0.9767074052
 40
0.9832875904
 40
0.9887351217
 40
0.9910355515
 40
0.9930561663
 40
0.9948010952
 40
0.9962778243
 40
0.9974994519
 40
0.9984900667
 40
0.999295684
 40
1.0
 40
1.0
 40
1.0
 40
1.0
 10
7.0684345958
 20
12.1162337394
 30
0.0
 10
7.0684366422
 20
12.1162610251
 30
0.0
 10
7.0684273951
 20
12.1163209068
 30
0.0
 10
7.0683755361
 20
12.1164045006
 30
0.0
 10
7.0682901671
 20
12.1164848675
 30
0.0
 10
7.0681961041
 20
12.1165474449
 30
0.0
 10
7.0681049225
 20
12.1165979664
 30
0.0
 10
7.0679931023
 20
12.1166529683
 30
0.0
 10
7.0678309072
 20
12.1167204969
 30
0.0
 10
7.0676091325
 20
12.1167980263
 30
0.0
 10
7.0673528934
 20
12.1168749856
 30
0.0
 10
7.0670623016
 20
12.1169513277
 30
0.0
 10
7.0666077123
 20
12.1170571396
 30
0.0
 10
7.0659539555
 20
12.1171849501
 30
0.0
 10
7.0650678737
 20
12.1173290644
 30
0.0
 10
7.0640495441
 20
12.1174695497
 30
0.0
 10
7.0629013508
 20
12.1176059951
 30
0.0
 10
7.0616259763
 20
12.1177379738
 30
0.0
 10
7.0602264527
 20
12.1178651256
 30
0.0
 10
7.0581227882
 20
12.1180338311
 30
0.0
 10
7.0552099217
 20
12.1182267308
 30
0.0
 10
7.0513947341
 20
12.1184271362
 30
0.0
 10
7.0471816102
 20
12.1186015958
 30
0.0
 10
7.0426112358
 20
12.1187482761
 30
0.0
 10
7.0377278285
 20
12.1188656151
 30
0.0
 10
7.0307302524
 20
12.1189834278
 30
0.0
 10
7.021575902
 20
12.1190467503
 30
0.0
 10
7.0103545235
 20
12.1189958392
 30
0.0
 10
6.9991348608
 20
12.1188207391
 30
0.0
 10
6.9899845233
 20
12.1185731242
 30
0.0
 10
6.9829915281
 20
12.1183145315
 30
0.0
 10
6.9781117542
 20
12.1180989897
 30
0.0
 10
6.9735450636
 20
12.1178604452
 30
0.0
 10
6.9693354619
 20
12.117601343
 30
0.0
 10
6.9655234527
 20
12.117324326
 30
0.0
 10
6.9626131608
 20
12.1170729783
 30
0.0
 10
6.9605113418
 20
12.1168620926
 30
0.0
 10
6.9591128328
 20
12.1167068687
 30
0.0
 10
6.9578383223
 20
12.1165493121
 30
0.0
 10
6.9566908355
 20
12.116389848
 30
0.0
 10
6.9556730842
 20
12.1162289266
 30
0.0
 10
6.9547873877
 20
12.1160670998
 30
0.0
 10
6.9540357849
 20
12.1159048341
 30
0.0
 10
6.9534955566
 20
12.1157631205
 30
0.0
 10
6.953133064
 20
12.1156470108
 30
0.0
 10
6.9529113324
 20
12.1155650316
 30
0.0
 10
6.952724043
 20
12.1154832526
 30
0.0
 10
6.9525711059
 20
12.1154016901
 30
0.0
 10
6.9524522094
 20
12.1153202219
 30
0.0
 10
6.9523669259
 20
12.1152382077
 30
0.0
 10
6.9523151272
 20
12.1151537961
 30
0.0
 10
6.9523057538
 20
12.1150936012
 30
0.0
 10
6.9523078059
 20
12.115066241
 30
0.0
  0
SPLINE
  5
4A3
100
AcDbEntity
  8
0
100
AcDbSpline
 62
7
  6
CONTINUOUS
 70
0
 71
3
 72
58
 73
54
 74
0
 42
0.0000001
 43
0.0000001
 44
0.0000000001
 40
0.0
 40
0.0
 40
0.0
 40
0.0
 40
0.0003064762
 40
0.0006234131
 40
0.0013482945
 40
0.0022691258
 40
0.0034310469
 40
0.0048560007
 40
0.0065552877
 40
0.0085351375
 40
0.0107988546
 40
0.0161827707
 40
0.0227099542
 40
0.0303728946
 40
0.0391582528
 40
0.0490484196
 40
0.0600218105
 40
0.0720538082
 40
0.0851167027
 40
0.1142101498
 40
0.1470272354
 40
0.1832541676
 40
0.222542326
 40
0.2645124011
 40
0.3087581838
 40
0.3548507663
 40
0.402343271
 40
0.499676769
 40
0.5969969133
 40
0.644475112
 40
0.6905517978
 40
0.7347837925
 40
0.7767462851
 40
0.8160371885
 40
0.8522810394
 40
0.8851323157
 40
0.9142791379
 40
0.9273762293
 40
0.9394473809
 40
0.9504648781
 40
0.9604037019
 40
0.9692420866
 40
0.9769619498
 40
0.9835493008
 40
0.9889960223
 40
0.9912917302
 40
0.9933037798
 40
0.9950351151
 40
0.9964914789
 40
0.9976833248
 40
0.9986307848
 40
0.999375165
 40
1.0
 40
1.0
 40
1.0
 40
1.0
 10
7.5286731921
 20
12.1173340968
 30
0.0
 10
7.5286740842
 20
12.1173459916
 30
0.0
 10
7.5286729059
 20
12.1173705195
 30
0.0
 10
7.5286575219
 20
12.1174211796
 30
0.0
 10
7.5286114026
 20
12.1174843464
 30
0.0
 10
7.5285253571
 20
12.1175526332
 30
0.0
 10
7.528405912
 20
12.1176195863
 30
0.0
 10
7.5282523873
 20
12.1176853341
 30
0.0
 10
7.5280644477
 20
12.1177500851
 30
0.0
 10
7.5278419965
 20
12.1178137365
 30
0.0
 10
7.5274778109
 20
12.1179022321
 30
0.0
 10
7.5269357625
 20
12.1180064167
 30
0.0
 10
7.5261824348
 20
12.1181206382
 30
0.0
 10
7.5252947583
 20
12.1182294291
 30
0.0
 10
7.5242747839
 20
12.1183324456
 30
0.0
 10
7.5231248572
 20
12.1184292771
 30
0.0
 10
7.5218477045
 20
12.1185196279
 30
0.0
 10
7.5204463734
 20
12.1186032303
 30
0.0
 10
7.5183399707
 20
12.1187091928
 30
0.0
 10
7.5154239617
 20
12.1188201035
 30
0.0
 10
7.5116056203
 20
12.118919418
 30
0.0
 10
7.5073897675
 20
12.1189878958
 30
0.0
 10
7.5028172823
 20
12.1190247546
 30
0.0
 10
7.4979325591
 20
12.1190295035
 30
0.0
 10
7.4927830804
 20
12.119002024
 30
0.0
 10
7.4874189244
 20
12.1189425443
 30
0.0
 10
7.4799892392
 20
12.118820246
 30
0.0
 10
7.470567351
 20
12.1185927999
 30
0.0
 10
7.4611486657
 20
12.1182740909
 30
0.0
 10
7.4537260635
 20
12.1179659314
 30
0.0
 10
7.4483691753
 20
12.1177147568
 30
0.0
 10
7.4432281917
 20
12.1174441383
 30
0.0
 10
7.4383526547
 20
12.1171567383
 30
0.0
 10
7.4337894894
 20
12.1168554084
 30
0.0
 10
7.4295825552
 20
12.1165431854
 30
0.0
 10
7.4257722699
 20
12.1162231903
 30
0.0
 10
7.4228627932
 20
12.1159438574
 30
0.0
 10
7.4207610781
 20
12.1157163024
 30
0.0
 10
7.4193623274
 20
12.115551774
 30
0.0
 10
7.4180873658
 20
12.115387678
 30
0.0
 10
7.4169392414
 20
12.1152244477
 30
0.0
 10
7.4159206945
 20
12.1150625373
 30
0.0
 10
7.4150340888
 20
12.1149024857
 30
0.0
 10
7.4142815046
 20
12.1147447475
 30
0.0
 10
7.4137402007
 20
12.1146093106
 30
0.0
 10
7.4133765874
 20
12.1144998807
 30
0.0
 10
7.4131542619
 20
12.1144233769
 30
0.0
 10
7.412966406
 20
12.1143477766
 30
0.0
 10
7.4128129668
 20
12.1142731247
 30
0.0
 10
7.4126935959
 20
12.1141993861
 30
0.0
 10
7.4126078456
 20
12.1141260469
 30
0.0
 10
7.4125547163
 20
12.114051273
 30
0.0
 10
7.4125440943
 20
12.1139966553
 30
0.0
 10
7.4125459131
 20
12.1139724045
 30
0.0
  0
SPLINE
  5
4A4
100
AcDbEntity
  8
0
100
AcDbSpline
 62
7
  6
CONTINUOUS
 70
0
 71
3
 72
62
 73
58
 74
0
 42
0.0000001
 43
0.0000001
 44
0.0000000001
 40
0.0
 40
0.0
 40
0.0
 40
0.0
 40
0.0002278803
 40
0.0004711608
 40
0.0007500442
 40
0.0010782037
 40
0.0019118818
 40
0.0030097688
 40
0.0043863092
 40
0.0060481852
 40
0.0079987576
 40
0.0102394697
 40
0.0127706066
 40
0.0155919143
 40
0.0221012222
 40
0.0297564872
 40
0.0385420733
 40
0.0484387675
 40
0.0594237899
 40
0.0714716077
 40
0.0845537446
 40
0.1136934949
 40
0.1465635841
 40
0.1828468782
 40
0.2221921927
 40
0.2642181699
 40
0.3085173404
 40
0.3546602855
 40
0.4022000704
 40
0.4996214021
 40
0.5970275614
 40
0.6445509991
 40
0.690675802
 40
0.734959161
 40
0.7769762034
 40
0.8163241791
 40
0.8526261085
 40
0.8855344224
 40
0.9147343141
 40
0.9399472269
 40
0.9509823609
 40
0.9609344591
 40
0.9697805346
 40
0.9775008852
 40
0.9840792119
 40
0.9869363542
 40
0.9895039918
 40
0.991781762
 40
0.9937698233
 40
0.9954693245
 40
0.9968832493
 40
0.9980176072
 40
0.9988852584
 40
0.9992282319
 40
0.9995192425
 40
0.9997703435
 40
1.0
 40
1.0
 40
1.0
 40
1.0
 10
7.9038633098
 20
12.1182334689
 30
0.0
 10
7.9038639722
 20
12.1182423002
 30
0.0
 10
7.9038622337
 20
12.1182609362
 30
0.0
 10
7.9038501273
 20
12.118287896
 30
0.0
 10
7.9038292434
 20
12.1183138426
 30
0.0
 10
7.9037865284
 20
12.1183503792
 30
0.0
 10
7.9037089831
 20
12.1183930382
 30
0.0
 10
7.9035889776
 20
12.118439444
 30
0.0
 10
7.9034344882
 20
12.1184844764
 30
0.0
 10
7.9032455079
 20
12.1185280611
 30
0.0
 10
7.9030219007
 20
12.118570088
 30
0.0
 10
7.902763761
 20
12.1186104829
 30
0.0
 10
7.9024711968
 20
12.1186491946
 30
0.0
 10
7.9020131119
 20
12.118700981
 30
0.0
 10
7.9013555044
 20
12.1187594936
 30
0.0
 10
7.9004655971
 20
12.1188198111
 30
0.0
 10
7.8994433802
 20
12.1188727688
 30
0.0
 10
7.8982912966
 20
12.118918186
 30
0.0
 10
7.8970120986
 20
12.1189558797
 30
0.0
 10
7.8956088716
 20
12.1189857281
 30
0.0
 10
7.8934999993
 20
12.1190159926
 30
0.0
 10
7.8905816914
 20
12.1190313723
 30
0.0
 10
7.8867617284
 20
12.1190174967
 30
0.0
 10
7.882545376
 20
12.118971682
 30
0.0
 10
7.8779736137
 20
12.1188942945
 30
0.0
 10
7.8730908811
 20
12.1187859962
 30
0.0
 10
7.8679446309
 20
12.1186477937
 30
0.0
 10
7.8625848385
 20
12.1184810073
 30
0.0
 10
7.8551625429
 20
12.1182204833
 30
0.0
 10
7.8457511946
 20
12.1178365704
 30
0.0
 10
7.8363434776
 20
12.1173851764
 30
0.0
 10
7.8289292129
 20
12.1169872333
 30
0.0
 10
7.8235776679
 20
12.1166786951
 30
0.0
 10
7.8184410656
 20
12.1163606559
 30
0.0
 10
7.8135687815
 20
12.1160362064
 30
0.0
 10
7.8090076387
 20
12.1157085282
 30
0.0
 10
7.8048014717
 20
12.1153808455
 30
0.0
 10
7.8009907114
 20
12.1150564617
 30
0.0
 10
7.7976120333
 20
12.1147386118
 30
0.0
 10
7.7950825045
 20
12.1144715636
 30
0.0
 10
7.7932994234
 20
12.1142608117
 30
0.0
 10
7.7921494036
 20
12.1141133962
 30
0.0
 10
7.7911288162
 20
12.1139699421
 30
0.0
 10
7.7902401273
 20
12.1138308329
 30
0.0
 10
7.7895836109
 20
12.1137141405
 30
0.0
 10
7.789126332
 20
12.1136218686
 30
0.0
 10
7.7888340243
 20
12.1135572525
 30
0.0
 10
7.7885760716
 20
12.1134939955
 30
0.0
 10
7.7883525903
 20
12.1134321601
 30
0.0
 10
7.7881636809
 20
12.113371823
 30
0.0
 10
7.7880092378
 20
12.1133130866
 30
0.0
 10
7.7878892647
 20
12.1132560188
 30
0.0
 10
7.7878119796
 20
12.1132065967
 30
0.0
 10
7.7877694004
 20
12.1131664103
 30
0.0
 10
7.7877485861
 20
12.1131387427
 30
0.0
 10
7.7877364707
 20
12.1131109159
 30
0.0
 10
7.787734614
 20
12.1130919233
 30
0.0
 10
7.7877352815
 20
12.1130830231
 30
0.0
  0
LINE
  5
4A5
100
AcDbEntity
  8
0
100
AcDbLine
 62
9
  6
CONTINUOUS
 10
7.9035169236
 20
12.1124745142
 11
8.0124391743
 21
12.1124737862
  0
SPLINE
  5
4A6
100
AcDbEntity
  8
0
100
AcDbSpline
 62
7
  6
CONTINUOUS
 70
0
 71
3
 72
30
 73
26
 74
0
 42
0.0000001
 43
0.0000001
 44
0.0000000001
 40
0.0
 40
0.0
 40
0.0
 40
0.0
 40
0.0007015104
 40
0.0011466724
 40
0.0016873638
 40
0.0031011072
 40
0.0049977045
 40
0.0073972323
 40
0.0103091648
 40
0.0137381528
 40
0.0176865481
 40
0.0271453674
 40
0.0386884353
 40
0.0679993574
 40
0.1055326196
 40
0.1511550884
 40
0.2046973233
 40
0.2659570644
 40
0.3347011785
 40
0.4106670152
 40
0.493563139
 40
0.5830713138
 40
0.6788479396
 40
0.7805253814
 40
1.0
 40
1.0
 40
1.0
 40
1.0
 10
8.1487513529
 20
12.118821636
 30
0.0
 10
8.1487518103
 20
12.1188277348
 30
0.0
 10
8.1487478059
 20
12.1188380306
 30
0.0
 10
8.1487373449
 20
12.1188483637
 30
0.0
 10
8.1487201271
 20
12.1188604384
 30
0.0
 10
8.1486892153
 20
12.1188740623
 30
0.0
 10
8.1486416378
 20
12.1188887887
 30
0.0
 10
8.1485803302
 20
12.1189028305
 30
0.0
 10
8.1485052994
 20
12.118916217
 30
0.0
 10
8.1484164779
 20
12.1189288867
 30
0.0
 10
8.1482706651
 20
12.1189458302
 30
0.0
 10
8.1480538779
 20
12.1189642502
 30
0.0
 10
8.1476159997
 20
12.1189905012
 30
0.0
 10
8.1469328539
 20
12.119012671
 30
0.0
 10
8.1459524127
 20
12.1190261212
 30
0.0
 10
8.1447606126
 20
12.1190271165
 30
0.0
 10
8.1433620232
 20
12.1190156383
 30
0.0
 10
8.141761988
 20
12.1189915432
 30
0.0
 10
8.1399666544
 20
12.1189548811
 30
0.0
 10
8.1379829243
 20
12.1189057442
 30
0.0
 10
8.1358184321
 20
12.1188442989
 30
0.0
 10
8.1334815094
 20
12.1187707634
 30
0.0
 10
8.130981146
 20
12.1186854121
 30
0.0
 10
8.1273486607
 20
12.1185528532
 30
0.0
 10
8.1245509628
 20
12.1184417586
 30
0.0
 10
8.1226391562
 20
12.118362687
 30
0.0
  0
LINE
  5
4A7
100
AcDbEntity
  8
0
100
AcDbLine
 62
7
  6
CONTINUOUS
 10
8.2338000936
 20
12.119026116
 11
8.1483875628
 21
12.1140808297
  0
LINE
  5
4A8
100
AcDbEntity
  8
0
100
AcDbLine
 62
7
  6
CONTINUOUS
 10
4.8744446994
 20
12.1482137948
 11
4.8671866255
 21
12.1487629057
  0
SPLINE
  5
4A9
100
AcDbEntity
  8
0
100
AcDbSpline
 62
7
  6
CONTINUOUS
 70
0
 71
3
 72
36
 73
32
 74
0
 42
0.0000001
 43
0.0000001
 44
0.0000000001
 40
0.0
 40
0.0
 40
0.0
 40
0.0
 40
0.0005566754
 40
0.0010081656
 40
0.0015982527
 40
0.0023334785
 40
0.0032171202
 40
0.0042509781
 40
0.0054360183
 40
0.0082614262
 40
0.0116953842
 40
0.0203864561
 40
0.031493743
 40
0.0449899178
 40
0.0608394601
 40
0.0789992048
 40
0.0994193714
 40
0.1220439756
 40
0.146810629
 40
0.1736511532
 40
0.2024919421
 40
0.2332537776
 40
0.3001985647
 40
0.3737545081
 40
0.453120878
 40
0.537435926
 40
0.6257863569
 40
0.717216548
 40
0.8107381316
 40
0.9053403209
 40
1.0
 40
1.0
 40
1.0
 40
1.0
 10
5.0458301868
 20
12.1401409637
 30
0.0
 10
5.0458310746
 20
12.1401528011
 30
0.0
 10
5.0458146047
 20
12.1401724025
 30
0.0
 10
5.0457868764
 20
12.1401903124
 30
0.0
 10
5.0457526748
 20
12.1402076257
 30
0.0
 10
5.0457091066
 20
12.1402252447
 30
0.0
 10
5.0456556015
 20
12.1402438036
 30
0.0
 10
5.045592308
 20
12.1402630506
 30
0.0
 10
5.0454885295
 20
12.1402914069
 30
0.0
 10
5.0453340149
 20
12.1403279714
 30
0.0
 10
5.0450218261
 20
12.1403927032
 30
0.0
 10
5.0445337608
 20
12.1404782365
 30
0.0
 10
5.0438319756
 20
12.1405858966
 30
0.0
 10
5.0429774755
 20
12.1407042154
 30
0.0
 10
5.0419726522
 20
12.1408328532
 30
0.0
 10
5.0408202689
 20
12.1409713102
 30
0.0
 10
5.0395235315
 20
12.1411191692
 30
0.0
 10
5.0380860341
 20
12.141275983
 30
0.0
 10
5.0365117578
 20
12.1414413013
 30
0.0
 10
5.0348050522
 20
12.1416146542
 30
0.0
 10
5.0329706222
 20
12.1417955581
 30
0.0
 10
5.0302844617
 20
12.1420535098
 30
0.0
 10
5.0266479591
 20
12.1423900193
 30
0.0
 10
5.0219778838
 20
12.142805102
 30
0.0
 10
5.0169375028
 20
12.1432374627
 30
0.0
 10
5.0115815816
 20
12.1436823804
 30
0.0
 10
5.0059681809
 20
12.1441350026
 30
0.0
 10
5.0001580615
 20
12.144590414
 30
0.0
 10
4.9942140651
 20
12.1450436766
 30
0.0
 10
4.9882004772
 20
12.1454898784
 30
0.0
 10
4.9841750951
 20
12.1457803763
 30
0.0
 10
4.9821616462
 20
12.1459236028
 30
0.0
  0
SPLINE
  5
4AA
100
AcDbEntity
  8
0
100
AcDbSpline
 62
7
  6
CONTINUOUS
 70
0
 71
3
 72
36
 73
32
 74
0
 42
0.0000001
 43
0.0000001
 44
0.0000000001
 40
0.0
 40
0.0
 40
0.0
 40
0.0
 40
0.1702223511
 40
0.2584502985
 40
0.3469949138
 40
0.4345207165
 40
0.5197031711
 40
0.6012498216
 40
0.6779196952
 40
0.7485437642
 40
0.8120438838
 40
0.8674514598
 40
0.8918524169
 40
0.9139256326
 40
0.9335886576
 40
0.9507692649
 40
0.9584091639
 40
0.9654065008
 40
0.971755511
 40
0.9774517129
 40
0.9824913266
 40
0.9868723707
 40
0.9905947826
 40
0.9936614913
 40
0.9960818152
 40
0.9970562973
 40
0.9978799345
 40
0.9985620178
 40
0.9991190651
 40
0.9995812788
 40
1.0
 40
1.0
 40
1.0
 40
1.0
 10
5.1941999049
 20
12.1449252156
 30
0.0
 10
5.1896371975
 20
12.1452967535
 30
0.0
 10
5.182706426
 20
12.1458225434
 30
0.0
 10
5.1733967326
 20
12.1464643653
 30
0.0
 10
5.1663035445
 20
12.1469204416
 30
0.0
 10
5.159290075
 20
12.1473386807
 30
0.0
 10
5.1524625772
 20
12.1477127067
 30
0.0
 10
5.1459248195
 20
12.1480368714
 30
0.0
 10
5.1397764451
 20
12.1483062823
 30
0.0
 10
5.1341114013
 20
12.1485169862
 30
0.0
 10
5.12901642
 20
12.1486658847
 30
0.0
 10
5.1251630123
 20
12.1487400485
 30
0.0
 10
5.12242317
 20
12.1487634628
 30
0.0
 10
5.120644508
 20
12.1487637441
 30
0.0
 10
5.1190601017
 20
12.1487476188
 30
0.0
 10
5.1178640707
 20
12.1487197447
 30
0.0
 10
5.1170089658
 20
12.1486880027
 30
0.0
 10
5.1164452102
 20
12.14866108
 30
0.0
 10
5.1159340145
 20
12.1486301544
 30
0.0
 10
5.1154758538
 20
12.1485952785
 30
0.0
 10
5.1150711312
 20
12.1485565187
 30
0.0
 10
5.1147202033
 20
12.1485139564
 30
0.0
 10
5.1144232791
 20
12.1484677581
 30
0.0
 10
5.1141805776
 20
12.1484179933
 30
0.0
 10
5.1140128974
 20
12.1483711607
 30
0.0
 10
5.1139070395
 20
12.1483300903
 30
0.0
 10
5.1138470717
 20
12.148300632
 30
0.0
 10
5.113800461
 20
12.1482701967
 30
0.0
 10
5.1137670037
 20
12.1482384605
 30
0.0
 10
5.1137468839
 20
12.148204594
 30
0.0
 10
5.1137435759
 20
12.148180328
 30
0.0
 10
5.113744418
 20
12.1481690988
 30
0.0
  0
SPLINE
  5
4AB
100
AcDbEntity
  8
0
100
AcDbSpline
 62
7
  6
CONTINUOUS
 70
0
 71
3
 72
58
 73
54
 74
0
 42
0.0000001
 43
0.0000001
 44
0.0000000001
 40
0.0
 40
0.0
 40
0.0
 40
0.0
 40
0.0006664302
 40
0.001451579
 40
0.0024358075
 40
0.0036606116
 40
0.0051469319
 40
0.006905888
 40
0.0089437085
 40
0.011263685
 40
0.0167551534
 40
0.0233831248
 40
0.0311399232
 40
0.0400117711
 40
0.0499806484
 40
0.0610247226
 40
0.0731189452
 40
0.0862355264
 40
0.1154103736
 40
0.1482751086
 40
0.1845183796
 40
0.2237958335
 40
0.2657337728
 40
0.3099323513
 40
0.3559693226
 40
0.4034042188
 40
0.5006372901
 40
0.5978964323
 40
0.6914269516
 40
0.7356524636
 40
0.7776051824
 40
0.8168771308
 40
0.8530870769
 40
0.8858845511
 40
0.9149542643
 40
0.9280034694
 40
0.9400205115
 40
0.9509777482
 40
0.9608507283
 40
0.9696181669
 40
0.9772629476
 40
0.9837725121
 40
0.9865995169
 40
0.9891411378
 40
0.9913983449
 40
0.99337315
 40
0.9950695255
 40
0.9958155739
 40
0.996495146
 40
0.9976621225
 40
0.9985954888
 40
0.9993441426
 40
1.0
 40
1.0
 40
1.0
 40
1.0
 10
5.5221415281
 20
12.1412649411
 30
0.0
 10
5.5221434678
 20
12.1412908045
 30
0.0
 10
5.522133266
 20
12.1413485984
 30
0.0
 10
5.5220809103
 20
12.141429411
 30
0.0
 10
5.5219955324
 20
12.1415096608
 30
0.0
 10
5.5218765068
 20
12.1415910446
 30
0.0
 10
5.5217234303
 20
12.1416741162
 30
0.0
 10
5.5215359946
 20
12.1417589388
 30
0.0
 10
5.5213141432
 20
12.1418454799
 30
0.0
 10
5.5209515943
 20
12.1419701684
 30
0.0
 10
5.5204115594
 20
12.1421266336
 30
0.0
 10
5.519660356
 20
12.1423116576
 30
0.0
 10
5.5187754223
 20
12.142502143
 30
0.0
 10
5.5177588572
 20
12.1426975583
 30
0.0
 10
5.516613036
 20
12.142897283
 30
0.0
 10
5.5153407147
 20
12.1431007743
 30
0.0
 10
5.513944955
 20
12.1433075024
 30
0.0
 10
5.511848267
 20
12.1435971202
 30
0.0
 10
5.5089458416
 20
12.1439600712
 30
0.0
 10
5.505144678
 20
12.1443866415
 30
0.0
 10
5.5009481824
 20
12.1448138626
 30
0.0
 10
5.4963965778
 20
12.1452375194
 30
0.0
 10
5.4915334544
 20
12.1456534102
 30
0.0
 10
5.4864054143
 20
12.1460574594
 30
0.0
 10
5.4810616411
 20
12.1464457332
 30
0.0
 10
5.4736563637
 20
12.1469413682
 30
0.0
 10
5.4642571077
 20
12.1474935415
 30
0.0
 10
5.4530608154
 20
12.148035314
 30
0.0
 10
5.4439207974
 20
12.1483794426
 30
0.0
 10
5.4369296991
 20
12.1485776823
 30
0.0
 10
5.4320485543
 20
12.1486831945
 30
0.0
 10
5.4274786627
 20
12.1487474386
 30
0.0
 10
5.4232646639
 20
12.1487698984
 30
0.0
 10
5.4194476941
 20
12.1487504737
 30
0.0
 10
5.4165324589
 20
12.1486982384
 30
0.0
 10
5.4144265916
 20
12.1486329318
 30
0.0
 10
5.4130257868
 20
12.1485755064
 30
0.0
 10
5.4117491881
 20
12.1485080733
 30
0.0
 10
5.4105998589
 20
12.1484308398
 30
0.0
 10
5.4095805084
 20
12.1483440932
 30
0.0
 10
5.4086935369
 20
12.1482481179
 30
0.0
 10
5.4080387745
 20
12.1481571485
 30
0.0
 10
5.4075832874
 20
12.1480779726
 30
0.0
 10
5.4072923308
 20
12.1480192482
 30
0.0
 10
5.4070357578
 20
12.147958441
 30
0.0
 10
5.4068136788
 20
12.1478955929
 30
0.0
 10
5.4066510428
 20
12.147839441
 30
0.0
 10
5.4065388134
 20
12.1477927665
 30
0.0
 10
5.4064476215
 20
12.1477495481
 30
0.0
 10
5.4063535987
 20
12.1476953117
 30
0.0
 10
5.4062677807
 20
12.1476239181
 30
0.0
 10
5.4062150196
 20
12.147547534
 30
0.0
 10
5.4062055124
 20
12.1474913813
 30
0.0
 10
5.4062074214
 20
12.1474659283
 30
0.0
  0
SPLINE
  5
4AC
100
AcDbEntity
  8
0
100
AcDbSpline
 62
7
  6
CONTINUOUS
 70
0
 71
3
 72
55
 73
51
 74
0
 42
0.0000001
 43
0.0000001
 44
0.0000000001
 40
0.0
 40
0.0
 40
0.0
 40
0.0
 40
0.0008071017
 40
0.0017089386
 40
0.0027831473
 40
0.004076431
 40
0.0056151845
 40
0.0074145651
 40
0.0094835951
 40
0.011827513
 40
0.0173500748
 40
0.0239927564
 40
0.0317522327
 40
0.040617561
 40
0.0505727317
 40
0.0615974267
 40
0.0736678017
 40
0.0867570655
 40
0.11586985
 40
0.148666892
 40
0.1848407078
 40
0.2240496555
 40
0.2659216103
 40
0.3100576497
 40
0.4034139628
 40
0.5005390265
 40
0.5976866814
 40
0.6910941043
 40
0.7352533409
 40
0.7771378598
 40
0.8163416481
 40
0.8524861199
 40
0.8852244636
 40
0.9142458959
 40
0.9272767456
 40
0.9392803119
 40
0.9502299469
 40
0.9601023672
 40
0.9688777565
 40
0.9765409567
 40
0.9830822092
 40
0.9884996326
 40
0.9907903867
 40
0.9928063761
 40
0.9945535824
 40
0.9960421298
 40
0.997289034
 40
0.9983240539
 40
0.9991995339
 40
1.0
 40
1.0
 40
1.0
 40
1.0
 10
5.9032856415
 20
12.1421667549
 30
0.0
 10
5.9032879946
 20
12.1421981301
 30
0.0
 10
5.903279594
 20
12.1422660491
 30
0.0
 10
5.9032295594
 20
12.1423640152
 30
0.0
 10
5.9031453134
 20
12.1424607627
 30
0.0
 10
5.9030272604
 20
12.1425576915
 30
0.0
 10
5.9028751646
 20
12.142655496
 30
0.0
 10
5.9026887943
 20
12.1427543536
 30
0.0
 10
5.902468067
 20
12.1428542856
 30
0.0
 10
5.9021077907
 20
12.142996778
 30
0.0
 10
5.9015700353
 20
12.1431734794
 30
0.0
 10
5.9008209209
 20
12.1433793919
 30
0.0
 10
5.8999380973
 20
12.1435882625
 30
0.0
 10
5.898923599
 20
12.1437995113
 30
0.0
 10
5.8977797261
 20
12.1440124677
 30
0.0
 10
5.8965091867
 20
12.1442265486
 30
0.0
 10
5.8951149982
 20
12.144441195
 30
0.0
 10
5.8930201781
 20
12.1447380154
 30
0.0
 10
5.8901191079
 20
12.1451024619
 30
0.0
 10
5.8863182717
 20
12.1455200552
 30
0.0
 10
5.8821207324
 20
12.1459275596
 30
0.0
 10
5.8775666718
 20
12.1463209029
 30
0.0
 10
5.8726997176
 20
12.1466961456
 30
0.0
 10
5.8657239963
 20
12.1471763096
 30
0.0
 10
5.8565926152
 20
12.1477007742
 30
0.0
 10
5.8453906407
 20
12.1481966932
 30
0.0
 10
5.8341812784
 20
12.1485503342
 30
0.0
 10
5.8250326144
 20
12.1487185255
 30
0.0
 10
5.8180371703
 20
12.1487673661
 30
0.0
 10
5.8131545822
 20
12.1487610872
 30
0.0
 10
5.8085846752
 20
12.1487128321
 30
0.0
 10
5.804371986
 20
12.1486232265
 30
0.0
 10
5.8005574816
 20
12.1484933074
 30
0.0
 10
5.797645342
 20
12.1483482445
 30
0.0
 10
5.7955425996
 20
12.1482096851
 30
0.0
 10
5.7941440565
 20
12.1481003734
 30
0.0
 10
5.7928698257
 20
12.1479822479
 30
0.0
 10
5.7917229191
 20
12.147855656
 30
0.0
 10
5.7907060209
 20
12.1477209818
 30
0.0
 10
5.7898213931
 20
12.147578738
 30
0.0
 10
5.7890710154
 20
12.1474293662
 30
0.0
 10
5.7885320143
 20
12.1472931488
 30
0.0
 10
5.7881708258
 20
12.1471776642
 30
0.0
 10
5.7879498731
 20
12.1470943702
 30
0.0
 10
5.7877633253
 20
12.147009555
 30
0.0
 10
5.7876110551
 20
12.1469231849
 30
0.0
 10
5.7874927869
 20
12.1468350305
 30
0.0
 10
5.787408229
 20
12.1467442821
 30
0.0
 10
5.787358108
 20
12.1466493102
 30
0.0
 10
5.7873501488
 20
12.1465825952
 30
0.0
 10
5.7873524826
 20
12.146551478
 30
0.0
  0
SPLINE
  5
4AD
100
AcDbEntity
  8
0
100
AcDbSpline
 62
7
  6
CONTINUOUS
 70
0
 71
3
 72
55
 73
51
 74
0
 42
0.0000001
 43
0.0000001
 44
0.0000000001
 40
0.0
 40
0.0
 40
0.0
 40
0.0
 40
0.0008951291
 40
0.001870158
 40
0.0030006403
 40
0.004335778
 40
0.0059052004
 40
0.0077267014
 40
0.0098112394
 40
0.0121654581
 40
0.0176966567
 40
0.0243365759
 40
0.0320852189
 40
0.0409338728
 40
0.0508681388
 40
0.061868852
 40
0.0739131367
 40
0.0869749425
 40
0.1160309275
 40
0.1487716397
 40
0.1848919625
 40
0.22405151
 40
0.265878484
 40
0.3099735341
 40
0.4032553701
 40
0.5003065041
 40
0.5973706944
 40
0.6906820334
 40
0.7347904406
 40
0.7766246019
 40
0.8157810691
 40
0.8518843149
 40
0.8845909847
 40
0.913594083
 40
0.9266221134
 40
0.9386278293
 40
0.9495852501
 40
0.9594718558
 40
0.9682687906
 40
0.9759621619
 40
0.9825440062
 40
0.988015216
 40
0.9903392403
 40
0.9923937787
 40
0.994185963
 40
0.995727449
 40
0.9970371592
 40
0.9981466457
 40
0.9991080237
 40
1.0
 40
1.0
 40
1.0
 40
1.0
 10
6.3471375655
 20
12.1432196484
 30
0.0
 10
6.3471401783
 20
12.1432544856
 30
0.0
 10
6.3471327465
 20
12.1433287361
 30
0.0
 10
6.3470841354
 20
12.1434369173
 30
0.0
 10
6.3470007556
 20
12.1435433589
 30
0.0
 10
6.3468833779
 20
12.1436491491
 30
0.0
 10
6.34673193
 20
12.143755018
 30
0.0
 10
6.3465462343
 20
12.1438612007
 30
0.0
 10
6.3463262067
 20
12.1439677556
 30
0.0
 10
6.3459673195
 20
12.1441184668
 30
0.0
 10
6.3454309023
 20
12.1443034784
 30
0.0
 10
6.3446829594
 20
12.1445163475
 30
0.0
 10
6.3438012552
 20
12.1447294796
 30
0.0
 10
6.3427877687
 20
12.1449422821
 30
0.0
 10
6.3416447413
 20
12.1451540731
 30
0.0
 10
6.3403748431
 20
12.1453642681
 30
0.0
 10
6.3389810597
 20
12.1455723114
 30
0.0
 10
6.3368863314
 20
12.1458562605
 30
0.0
 10
6.3339845265
 20
12.1461975014
 30
0.0
 10
6.3301818507
 20
12.1465777373
 30
0.0
 10
6.3259813071
 20
12.1469377557
 30
0.0
 10
6.3214231546
 20
12.1472739009
 30
0.0
 10
6.3165511778
 20
12.1475827431
 30
0.0
 10
6.3095673744
 20
12.1479609913
 30
0.0
 10
6.3004255564
 20
12.1483397648
 30
0.0
 10
6.2892126712
 20
12.1486395488
 30
0.0
 10
6.2779955085
 20
12.148780133
 30
0.0
 10
6.2688436843
 20
12.1487603266
 30
0.0
 10
6.2618484675
 20
12.1486561361
 30
0.0
 10
6.2569674497
 20
12.1485383766
 30
0.0
 10
6.2524001392
 20
12.1483808902
 30
0.0
 10
6.2481908469
 20
12.1481853956
 30
0.0
 10
6.2443802861
 20
12.1479539855
 30
0.0
 10
6.2414721017
 20
12.1477261837
 30
0.0
 10
6.2393728137
 20
12.147524026
 30
0.0
 10
6.2379765247
 20
12.1473704214
 30
0.0
 10
6.2367045022
 20
12.1472098056
 30
0.0
 10
6.2355597278
 20
12.1470426287
 30
0.0
 10
6.2345448569
 20
12.1468693741
 30
0.0
 10
6.2336621069
 20
12.1466906437
 30
0.0
 10
6.2329134243
 20
12.1465069638
 30
0.0
 10
6.2323762865
 20
12.1463428124
 30
0.0
 10
6.2320168859
 20
12.1462059901
 30
0.0
 10
6.231796721
 20
12.1461080059
 30
0.0
 10
6.2316109129
 20
12.1460090497
 30
0.0
 10
6.2314593546
 20
12.1459090516
 30
0.0
 10
6.2313418508
 20
12.1458077431
 30
0.0
 10
6.2312583272
 20
12.1457043321
 30
0.0
 10
6.231209718
 20
12.1455976739
 30
0.0
 10
6.2312024968
 20
12.1455240486
 30
0.0
 10
6.2312051004
 20
12.1454893341
 30
0.0
  0
SPLINE
  5
4AE
100
AcDbEntity
  8
0
100
AcDbSpline
 62
7
  6
CONTINUOUS
 70
0
 71
3
 72
55
 73
51
 74
0
 42
0.0000001
 43
0.0000001
 44
0.0000000001
 40
0.0
 40
0.0
 40
0.0
 40
0.0
 40
0.0009241552
 40
0.0019198697
 40
0.003062885
 40
0.0044040325
 40
0.0059746164
 40
0.0077937092
 40
0.0098731917
 40
0.0122203837
 40
0.0177332767
 40
0.024351391
 40
0.0320762574
 40
0.0409002593
 40
0.0508097766
 40
0.0617861691
 40
0.0738070634
 40
0.0868466921
 40
0.115862939
 40
0.1485709314
 40
0.1846657487
 40
0.223806377
 40
0.2656197786
 40
0.3097049513
 40
0.4029707551
 40
0.499999998
 40
0.5970292419
 40
0.6902950474
 40
0.734380221
 40
0.7761936226
 40
0.8153342507
 40
0.8514290681
 40
0.8841370603
 40
0.9131533076
 40
0.9261929364
 40
0.9382138307
 40
0.9491902232
 40
0.9590997407
 40
0.9679237426
 40
0.9756486091
 40
0.9822667233
 40
0.9877796163
 40
0.9901268083
 40
0.9922062908
 40
0.9940253836
 40
0.9955959676
 40
0.996937115
 40
0.9980801303
 40
0.9990758448
 40
1.0
 40
1.0
 40
1.0
 40
1.0
 10
6.8234495947
 20
12.1443527983
 30
0.0
 10
6.8234522933
 20
12.1443887799
 30
0.0
 10
6.8234452354
 20
12.1444649938
 30
0.0
 10
6.8233971062
 20
12.1445761151
 30
0.0
 10
6.8233140007
 20
12.1446848331
 30
0.0
 10
6.8231968248
 20
12.1447921356
 30
0.0
 10
6.8230455667
 20
12.1448987725
 30
0.0
 10
6.8228600645
 20
12.1450050073
 30
0.0
 10
6.8226402284
 20
12.1451109148
 30
0.0
 10
6.8222816433
 20
12.1452597129
 30
0.0
 10
6.8217454308
 20
12.1454404775
 30
0.0
 10
6.8209976181
 20
12.1456457969
 30
0.0
 10
6.8201159166
 20
12.1458486838
 30
0.0
 10
6.8191022732
 20
12.1460485628
 30
0.0
 10
6.8179588996
 20
12.1462447756
 30
0.0
 10
6.8166884466
 20
12.1464367721
 30
0.0
 10
6.8152938867
 20
12.1466240321
 30
0.0
 10
6.8131975212
 20
12.1468757502
 30
0.0
 10
6.8102931155
 20
12.1471704465
 30
0.0
 10
6.8064868887
 20
12.1474872369
 30
0.0
 10
6.8022820581
 20
12.147774987
 30
0.0
 10
6.7977190766
 20
12.148030712
 30
0.0
 10
6.7928419784
 20
12.1482517361
 30
0.0
 10
6.7858510831
 20
12.1485017181
 30
0.0
 10
6.7767018464
 20
12.1487082638
 30
0.0
 10
6.7654834893
 20
12.1487907669
 30
0.0
 10
6.7542651322
 20
12.1487082639
 30
0.0
 10
6.7451158953
 20
12.1485017181
 30
0.0
 10
6.738125
 20
12.1482517361
 30
0.0
 10
6.7332479017
 20
12.148030712
 30
0.0
 10
6.7286849203
 20
12.147774987
 30
0.0
 10
6.7244800897
 20
12.1474872369
 30
0.0
 10
6.7206738628
 20
12.1471704465
 30
0.0
 10
6.7177694571
 20
12.1468757502
 30
0.0
 10
6.7156730916
 20
12.1466240321
 30
0.0
 10
6.7142785317
 20
12.1464367721
 30
0.0
 10
6.7130080786
 20
12.1462447756
 30
0.0
 10
6.7118647051
 20
12.1460485628
 30
0.0
 10
6.7108510616
 20
12.1458486838
 30
0.0
 10
6.7099693601
 20
12.1456457969
 30
0.0
 10
6.7092215474
 20
12.1454404775
 30
0.0
 10
6.7086853349
 20
12.1452597129
 30
0.0
 10
6.7083267498
 20
12.1451109148
 30
0.0
 10
6.7081069138
 20
12.1450050073
 30
0.0
 10
6.7079214116
 20
12.1448987725
 30
0.0
 10
6.7077701534
 20
12.1447921356
 30
0.0
 10
6.7076529776
 20
12.1446848331
 30
0.0
 10
6.707569872
 20
12.1445761151
 30
0.0
 10
6.7075217428
 20
12.1444649938
 30
0.0
 10
6.7075146849
 20
12.1443887799
 30
0.0
 10
6.7075173835
 20
12.1443527983
 30
0.0
  0
SPLINE
  5
4AF
100
AcDbEntity
  8
0
100
AcDbSpline
 62
7
  6
CONTINUOUS
 70
0
 71
3
 72
55
 73
51
 74
0
 42
0.0000001
 43
0.0000001
 44
0.0000000001
 40
0.0
 40
0.0
 40
0.0
 40
0.0
 40
0.0008919763
 40
0.0018533543
 40
0.0029628408
 40
0.004272551
 40
0.0058140369
 40
0.0076062213
 40
0.0096607597
 40
0.011984784
 40
0.0174559938
 40
0.0240378381
 40
0.0317312094
 40
0.0405281442
 40
0.0504147498
 40
0.0613721705
 40
0.0733778863
 40
0.0864059167
 40
0.1154090144
 40
0.1481156847
 40
0.1842189299
 40
0.2233753977
 40
0.265209559
 40
0.3093179662
 40
0.4026293052
 40
0.4996934953
 40
0.59674463
 40
0.690026468
 40
0.7341215192
 40
0.7759484933
 40
0.8151080405
 40
0.8512283626
 40
0.8839690746
 40
0.9130250589
 40
0.9260868645
 40
0.9381311489
 40
0.9491318619
 40
0.9590661277
 40
0.9679147815
 40
0.9756634245
 40
0.9823033435
 40
0.987834542
 40
0.9901887607
 40
0.9922732987
 40
0.9940947997
 40
0.9956642221
 40
0.9969993598
 40
0.998129842
 40
0.9991048709
 40
1.0
 40
1.0
 40
1.0
 40
1.0
 10
7.2997618779
 20
12.1454893341
 30
0.0
 10
7.2997644815
 20
12.1455240486
 30
0.0
 10
7.2997572602
 20
12.1455976739
 30
0.0
 10
7.2997086511
 20
12.1457043321
 30
0.0
 10
7.2996251275
 20
12.1458077431
 30
0.0
 10
7.2995076237
 20
12.1459090516
 30
0.0
 10
7.2993560653
 20
12.1460090497
 30
0.0
 10
7.2991702573
 20
12.1461080059
 30
0.0
 10
7.2989500923
 20
12.1462059901
 30
0.0
 10
7.2985906918
 20
12.1463428124
 30
0.0
 10
7.298053554
 20
12.1465069638
 30
0.0
 10
7.2973048713
 20
12.1466906437
 30
0.0
 10
7.2964221214
 20
12.1468693741
 30
0.0
 10
7.2954072504
 20
12.1470426287
 30
0.0
 10
7.2942624761
 20
12.1472098056
 30
0.0
 10
7.2929904536
 20
12.1473704214
 30
0.0
 10
7.2915941646
 20
12.147524026
 30
0.0
 10
7.2894948766
 20
12.1477261837
 30
0.0
 10
7.2865866922
 20
12.1479539855
 30
0.0
 10
7.2827761314
 20
12.1481853956
 30
0.0
 10
7.2785668392
 20
12.1483808901
 30
0.0
 10
7.2739995287
 20
12.1485383766
 30
0.0
 10
7.2691185108
 20
12.1486561361
 30
0.0
 10
7.262123294
 20
12.1487603266
 30
0.0
 10
7.2529714698
 20
12.148780133
 30
0.0
 10
7.2417543071
 20
12.1486395488
 30
0.0
 10
7.2305414219
 20
12.1483397648
 30
0.0
 10
7.2213996036
 20
12.1479609913
 30
0.0
 10
7.2144158002
 20
12.1475827431
 30
0.0
 10
7.2095438232
 20
12.1472739009
 30
0.0
 10
7.2049856709
 20
12.1469377557
 30
0.0
 10
7.2007851272
 20
12.1465777373
 30
0.0
 10
7.1969824516
 20
12.1461975014
 30
0.0
 10
7.1940806467
 20
12.1458562605
 30
0.0
 10
7.1919859185
 20
12.1455723114
 30
0.0
 10
7.190592135
 20
12.1453642681
 30
0.0
 10
7.1893222369
 20
12.1451540731
 30
0.0
 10
7.1881792095
 20
12.144942282
 30
0.0
 10
7.187165723
 20
12.1447294796
 30
0.0
 10
7.1862840188
 20
12.1445163475
 30
0.0
 10
7.185536076
 20
12.1443034784
 30
0.0
 10
7.1849996588
 20
12.1441184668
 30
0.0
 10
7.1846407715
 20
12.1439677556
 30
0.0
 10
7.1844207439
 20
12.1438612006
 30
0.0
 10
7.1842350483
 20
12.143755018
 30
0.0
 10
7.1840836003
 20
12.1436491491
 30
0.0
 10
7.1839662227
 20
12.1435433589
 30
0.0
 10
7.1838828429
 20
12.1434369173
 30
0.0
 10
7.1838342318
 20
12.1433287361
 30
0.0
 10
7.1838268
 20
12.1432544856
 30
0.0
 10
7.1838294128
 20
12.1432196484
 30
0.0
  0
SPLINE
  5
4B0
100
AcDbEntity
  8
0
100
AcDbSpline
 62
7
  6
CONTINUOUS
 70
0
 71
3
 72
55
 73
51
 74
0
 42
0.0000001
 43
0.0000001
 44
0.0000000001
 40
0.0
 40
0.0
 40
0.0
 40
0.0
 40
0.0008004661
 40
0.0016759461
 40
0.002710966
 40
0.0039578703
 40
0.0054464177
 40
0.0071936239
 40
0.0092096134
 40
0.0115003675
 40
0.0169177909
 40
0.0234590435
 40
0.0311222437
 40
0.039897633
 40
0.0497700532
 40
0.0607196881
 40
0.0727232543
 40
0.0857541041
 40
0.1147755356
 40
0.1475138799
 40
0.1836583515
 40
0.2228621402
 40
0.2647466592
 40
0.3089058957
 40
0.4023133184
 40
0.4994609732
 40
0.5965860377
 40
0.6899423516
 40
0.7340783913
 40
0.775950346
 40
0.8151592936
 40
0.8513331093
 40
0.8841301509
 40
0.9132429354
 40
0.926332199
 40
0.9384025739
 40
0.9494272688
 40
0.9593824395
 40
0.9682477676
 40
0.9760072439
 40
0.9826499254
 40
0.9881724871
 40
0.990516405
 40
0.992585435
 40
0.9943848156
 40
0.995923569
 40
0.9972168527
 40
0.9982910614
 40
0.9991928983
 40
1.0
 40
1.0
 40
1.0
 40
1.0
 10
7.7436144957
 20
12.146551478
 30
0.0
 10
7.7436168295
 20
12.1465825952
 30
0.0
 10
7.7436088703
 20
12.1466493102
 30
0.0
 10
7.7435587493
 20
12.1467442821
 30
0.0
 10
7.7434741914
 20
12.1468350305
 30
0.0
 10
7.7433559232
 20
12.1469231849
 30
0.0
 10
7.7432036529
 20
12.147009555
 30
0.0
 10
7.7430171051
 20
12.1470943702
 30
0.0
 10
7.7427961524
 20
12.1471776642
 30
0.0
 10
7.7424349639
 20
12.1472931488
 30
0.0
 10
7.7418959628
 20
12.1474293662
 30
0.0
 10
7.7411455851
 20
12.147578738
 30
0.0
 10
7.7402609573
 20
12.1477209818
 30
0.0
 10
7.7392440592
 20
12.147855656
 30
0.0
 10
7.7380971526
 20
12.1479822479
 30
0.0
 10
7.7368229218
 20
12.1481003734
 30
0.0
 10
7.7354243787
 20
12.1482096851
 30
0.0
 10
7.7333216363
 20
12.1483482445
 30
0.0
 10
7.7304094967
 20
12.1484933074
 30
0.0
 10
7.7265949923
 20
12.1486232265
 30
0.0
 10
7.7223823031
 20
12.1487128321
 30
0.0
 10
7.7178123961
 20
12.1487610872
 30
0.0
 10
7.712929808
 20
12.1487673661
 30
0.0
 10
7.7059343639
 20
12.1487185255
 30
0.0
 10
7.6967856999
 20
12.1485503342
 30
0.0
 10
7.6855763376
 20
12.1481966932
 30
0.0
 10
7.674374363
 20
12.1477007742
 30
0.0
 10
7.6652429818
 20
12.1471763096
 30
0.0
 10
7.6582672605
 20
12.1466961456
 30
0.0
 10
7.6534003063
 20
12.1463209029
 30
0.0
 10
7.6488462457
 20
12.1459275596
 30
0.0
 10
7.6446487064
 20
12.1455200552
 30
0.0
 10
7.6408478703
 20
12.1451024618
 30
0.0
 10
7.6379468001
 20
12.1447380154
 30
0.0
 10
7.63585198
 20
12.144441195
 30
0.0
 10
7.6344577915
 20
12.1442265485
 30
0.0
 10
7.6331872521
 20
12.1440124676
 30
0.0
 10
7.6320433792
 20
12.1437995113
 30
0.0
 10
7.631028881
 20
12.1435882625
 30
0.0
 10
7.6301460573
 20
12.1433793919
 30
0.0
 10
7.629396943
 20
12.1431734794
 30
0.0
 10
7.6288591875
 20
12.142996778
 30
0.0
 10
7.6284989113
 20
12.1428542856
 30
0.0
 10
7.6282781839
 20
12.1427543536
 30
0.0
 10
7.6280918137
 20
12.142655496
 30
0.0
 10
7.6279397178
 20
12.1425576915
 30
0.0
 10
7.6278216648
 20
12.1424607627
 30
0.0
 10
7.6277374189
 20
12.1423640152
 30
0.0
 10
7.6276873843
 20
12.1422660491
 30
0.0
 10
7.6276789837
 20
12.1421981301
 30
0.0
 10
7.6276813368
 20
12.1421667549
 30
0.0
  0
SPLINE
  5
4B1
100
AcDbEntity
  8
0
100
AcDbSpline
 62
7
  6
CONTINUOUS
 70
0
 71
3
 72
58
 73
54
 74
0
 42
0.0000001
 43
0.0000001
 44
0.0000000001
 40
0.0
 40
0.0
 40
0.0
 40
0.0
 40
0.0006558576
 40
0.0014045124
 40
0.0023378797
 40
0.0035048565
 40
0.0041844288
 40
0.0049304773
 40
0.0066268519
 40
0.008601654
 40
0.0108588569
 40
0.013400475
 40
0.0162274805
 40
0.0227370526
 40
0.0303818416
 40
0.0391492847
 40
0.0490222625
 40
0.0599794876
 40
0.0719965152
 40
0.0850457238
 40
0.1141154724
 40
0.1469129257
 40
0.1831228515
 40
0.2223948376
 40
0.2643475447
 40
0.308573017
 40
0.4021035844
 40
0.4993626966
 40
0.5965957557
 40
0.6440306469
 40
0.6900676637
 40
0.7342662441
 40
0.7762041948
 40
0.8154817279
 40
0.8517249902
 40
0.8845896832
 40
0.9137645322
 40
0.9268811131
 40
0.9389753196
 40
0.9500193752
 40
0.9599882437
 40
0.9688600903
 40
0.9766168913
 40
0.9832448639
 40
0.9887363283
 40
0.9910562994
 40
0.9930941157
 40
0.9948530695
 40
0.9963393884
 40
0.9975641918
 40
0.9985484204
 40
0.9993335697
 40
1.0
 40
1.0
 40
1.0
 40
1.0
 10
8.1247595569
 20
12.1474659283
 30
0.0
 10
8.1247614658
 20
12.1474913814
 30
0.0
 10
8.1247519585
 20
12.147547534
 30
0.0
 10
8.1246991974
 20
12.1476239182
 30
0.0
 10
8.1246133793
 20
12.1476953118
 30
0.0
 10
8.1245193565
 20
12.1477495483
 30
0.0
 10
8.1244281645
 20
12.1477927667
 30
0.0
 10
8.1243159352
 20
12.1478394412
 30
0.0
 10
8.1241532993
 20
12.147895593
 30
0.0
 10
8.1239312206
 20
12.147958441
 30
0.0
 10
8.1236746479
 20
12.1480192481
 30
0.0
 10
8.1233836916
 20
12.1480779725
 30
0.0
 10
8.1229282043
 20
12.1481571484
 30
0.0
 10
8.1222734413
 20
12.1482481179
 30
0.0
 10
8.121386469
 20
12.1483440934
 30
0.0
 10
8.1203671181
 20
12.1484308399
 30
0.0
 10
8.1192177892
 20
12.1485080734
 30
0.0
 10
8.1179411916
 20
12.1485755064
 30
0.0
 10
8.1165403877
 20
12.1486329318
 30
0.0
 10
8.1144345195
 20
12.1486982384
 30
0.0
 10
8.1115192835
 20
12.1487504737
 30
0.0
 10
8.107702314
 20
12.1487698984
 30
0.0
 10
8.1034883154
 20
12.1487474386
 30
0.0
 10
8.0989184235
 20
12.1486831945
 30
0.0
 10
8.0940372792
 20
12.1485776824
 30
0.0
 10
8.0870461811
 20
12.1483794426
 30
0.0
 10
8.0779061639
 20
12.1480353141
 30
0.0
 10
8.0667098714
 20
12.1474935416
 30
0.0
 10
8.0573106173
 20
12.1469413684
 30
0.0
 10
8.0499053388
 20
12.1464457333
 30
0.0
 10
8.0445615639
 20
12.1460574595
 30
0.0
 10
8.0394335215
 20
12.14565341
 30
0.0
 10
8.0345703945
 20
12.1452375189
 30
0.0
 10
8.0300187868
 20
12.1448138618
 30
0.0
 10
8.0258222901
 20
12.1443866404
 30
0.0
 10
8.0220211284
 20
12.1439600703
 30
0.0
 10
8.0191187045
 20
12.1435971193
 30
0.0
 10
8.0170220172
 20
12.1433075015
 30
0.0
 10
8.0156262588
 20
12.1431007736
 30
0.0
 10
8.0143539392
 20
12.1428972824
 30
0.0
 10
8.0132081191
 20
12.1426975579
 30
0.0
 10
8.0121915543
 20
12.1425021426
 30
0.0
 10
8.0113066205
 20
12.1423116572
 30
0.0
 10
8.0105554171
 20
12.142126633
 30
0.0
 10
8.0100153825
 20
12.1419701681
 30
0.0
 10
8.0096528342
 20
12.1418454795
 30
0.0
 10
8.0094309832
 20
12.1417589386
 30
0.0
 10
8.0092435478
 20
12.1416741161
 30
0.0
 10
8.0090904715
 20
12.1415910446
 30
0.0
 10
8.0089714459
 20
12.1415096608
 30
0.0
 10
8.008886068
 20
12.1414294111
 30
0.0
 10
8.0088337123
 20
12.1413485985
 30
0.0
 10
8.0088235105
 20
12.1412908045
 30
0.0
 10
8.0088254502
 20
12.1412649411
 30
0.0
  0
LINE
  5
4B2
100
AcDbEntity
  8
0
100
AcDbLine
 62
7
  6
CONTINUOUS
 10
5.8436661036
 20
12.0922395831
 11
5.8383913676
 21
12.0924366123
  0
SPLINE
  5
4B3
100
AcDbEntity
  8
0
100
AcDbSpline
 62
7
  6
CONTINUOUS
 70
0
 71
3
 72
36
 73
32
 74
0
 42
0.0000001
 43
0.0000001
 44
0.0000000001
 40
0.0
 40
0.0
 40
0.0
 40
0.0
 40
0.0004187213
 40
0.0008809354
 40
0.0014379833
 40
0.002120067
 40
0.0029437042
 40
0.0039181859
 40
0.0063385079
 40
0.0094052123
 40
0.0131276153
 40
0.0175086489
 40
0.0225482598
 40
0.0282444618
 40
0.034593474
 40
0.0415908145
 40
0.0492307134
 40
0.0664113123
 40
0.0860743061
 40
0.1081474832
 40
0.1325484461
 40
0.1879560192
 40
0.251456044
 40
0.3220801487
 40
0.3987501084
 40
0.4802968711
 40
0.5654793988
 40
0.653005088
 40
0.7415497037
 40
0.8297775873
 40
1.0
 40
1.0
 40
1.0
 40
1.0
 10
8.4172225602
 20
12.1481690988
 30
0.0
 10
8.4172234024
 20
12.148180328
 30
0.0
 10
8.4172200943
 20
12.1482045941
 30
0.0
 10
8.4171999745
 20
12.1482384605
 30
0.0
 10
8.4171665171
 20
12.1482701968
 30
0.0
 10
8.4171199064
 20
12.1483006321
 30
0.0
 10
8.4170599386
 20
12.1483300904
 30
0.0
 10
8.4169540807
 20
12.1483711607
 30
0.0
 10
8.4167864007
 20
12.1484179933
 30
0.0
 10
8.4165436995
 20
12.1484677581
 30
0.0
 10
8.4162467759
 20
12.1485139563
 30
0.0
 10
8.4158958485
 20
12.1485565186
 30
0.0
 10
8.4154911262
 20
12.1485952783
 30
0.0
 10
8.4150329655
 20
12.1486301543
 30
0.0
 10
8.4145217695
 20
12.14866108
 30
0.0
 10
8.4139580137
 20
12.1486880027
 30
0.0
 10
8.4131029088
 20
12.1487197446
 30
0.0
 10
8.4119068786
 20
12.1487476188
 30
0.0
 10
8.4103224741
 20
12.1487637441
 30
0.0
 10
8.4085438134
 20
12.1487634628
 30
0.0
 10
8.4058039716
 20
12.1487400486
 30
0.0
 10
8.4019505657
 20
12.1486658849
 30
0.0
 10
8.3968555851
 20
12.1485169865
 30
0.0
 10
8.3911905396
 20
12.1483062826
 30
0.0
 10
8.3850421577
 20
12.1480368714
 30
0.0
 10
8.3785043916
 20
12.1477127062
 30
0.0
 10
8.3716768905
 20
12.14733868
 30
0.0
 10
8.3646634209
 20
12.1469204408
 30
0.0
 10
8.3575702362
 20
12.1464643646
 30
0.0
 10
8.3482605412
 20
12.1458225426
 30
0.0
 10
8.3413297684
 20
12.1452967525
 30
0.0
 10
8.3367670585
 20
12.1449252143
 30
0.0
  0
SPLINE
  5
4B4
100
AcDbEntity
  8
0
100
AcDbSpline
 62
7
  6
CONTINUOUS
 70
0
 71
3
 72
36
 73
32
 74
0
 42
0.0000001
 43
0.0000001
 44
0.0000000001
 40
0.0
 40
0.0
 40
0.0
 40
0.0
 40
0.0946596789
 40
0.1892618688
 40
0.2827834514
 40
0.3742136424
 40
0.462564073
 40
0.5468791217
 40
0.626245491
 40
0.699801435
 40
0.7667462219
 40
0.7975080578
 40
0.8263488463
 40
0.8531893708
 40
0.8779560247
 40
0.9005806287
 40
0.9210007954
 40
0.9391605404
 40
0.9550100827
 40
0.9685062572
 40
0.9796135439
 40
0.988304616
 40
0.991738574
 40
0.9945639818
 40
0.9957490219
 40
0.9967828798
 40
0.9976665215
 40
0.9984017473
 40
0.9989918344
 40
0.9994433246
 40
1.0
 40
1.0
 40
1.0
 40
1.0
 10
8.5488053323
 20
12.1459236028
 30
0.0
 10
8.5467918835
 20
12.1457803763
 30
0.0
 10
8.5427665013
 20
12.1454898784
 30
0.0
 10
8.5367529135
 20
12.1450436766
 30
0.0
 10
8.5308089169
 20
12.144590414
 30
0.0
 10
8.5249987976
 20
12.1441350026
 30
0.0
 10
8.5193853969
 20
12.1436823804
 30
0.0
 10
8.5140294756
 20
12.1432374627
 30
0.0
 10
8.5089890946
 20
12.142805102
 30
0.0
 10
8.5043190192
 20
12.1423900193
 30
0.0
 10
8.5006825167
 20
12.1420535098
 30
0.0
 10
8.4979963562
 20
12.1417955581
 30
0.0
 10
8.4961619261
 20
12.1416146542
 30
0.0
 10
8.4944552205
 20
12.1414413013
 30
0.0
 10
8.4928809442
 20
12.141275983
 30
0.0
 10
8.4914434468
 20
12.1411191693
 30
0.0
 10
8.4901467093
 20
12.1409713102
 30
0.0
 10
8.4889943261
 20
12.1408328532
 30
0.0
 10
8.4879895028
 20
12.1407042154
 30
0.0
 10
8.4871350026
 20
12.1405858966
 30
0.0
 10
8.4864332174
 20
12.1404782365
 30
0.0
 10
8.4859451522
 20
12.1403927032
 30
0.0
 10
8.4856329633
 20
12.1403279714
 30
0.0
 10
8.4854784488
 20
12.1402914069
 30
0.0
 10
8.4853746703
 20
12.1402630506
 30
0.0
 10
8.4853113768
 20
12.1402438036
 30
0.0
 10
8.4852578717
 20
12.1402252447
 30
0.0
 10
8.4852143035
 20
12.1402076257
 30
0.0
 10
8.4851801018
 20
12.1401903124
 30
0.0
 10
8.4851523736
 20
12.1401724025
 30
0.0
 10
8.4851359037
 20
12.1401528011
 30
0.0
 10
8.4851367915
 20
12.1401409637
 30
0.0
  0
LINE
  5
4B5
100
AcDbEntity
  8
0
100
AcDbLine
 62
7
  6
CONTINUOUS
 10
8.6637803528
 20
12.1487629057
 11
8.6565222798
 21
12.1482137949
  0
SPLINE
  5
4B6
100
AcDbEntity
  8
0
100
AcDbSpline
 62
7
  6
CONTINUOUS
 70
0
 71
3
 72
38
 73
34
 74
0
 42
0.0000001
 43
0.0000001
 44
0.0000000001
 40
0.0
 40
0.0
 40
0.0
 40
0.0
 40
0.0004941017
 40
0.0010234765
 40
0.0016172659
 40
0.0022963317
 40
0.0030746666
 40
0.0039615145
 40
0.0060826788
 40
0.0086912457
 40
0.0118023548
 40
0.0154241424
 40
0.0195611755
 40
0.0242159872
 40
0.0293896527
 40
0.035082412
 40
0.0412939518
 40
0.0552691579
 40
0.0713045407
 40
0.0893846424
 40
0.1094908095
 40
0.1316016042
 40
0.1556930256
 40
0.2097109331
 40
0.2713108232
 40
0.3402284357
 40
0.4161716531
 40
0.4988225205
 40
0.587839287
 40
0.6828582419
 40
0.7834956361
 40
0.889348609
 40
1.0
 40
1.0
 40
1.0
 40
1.0
 10
6.3795602408
 20
15.1619452349
 30
0.0
 10
6.3795602415
 20
15.1619760878
 30
0.0
 10
6.3795694112
 20
15.1620402852
 30
0.0
 10
6.3796094487
 20
15.1621339729
 30
0.0
 10
6.3796747591
 20
15.1622264133
 30
0.0
 10
6.379764844
 20
15.1623180352
 30
0.0
 10
6.3798796442
 20
15.1624092977
 30
0.0
 10
6.3800779208
 20
15.1625385569
 30
0.0
 10
6.3803922026
 20
15.1626962946
 30
0.0
 10
6.3808478211
 20
15.1628763759
 30
0.0
 10
6.3814028286
 20
15.1630568222
 30
0.0
 10
6.3820572167
 20
15.1632375915
 30
0.0
 10
6.382811057
 20
15.1634185469
 30
0.0
 10
6.3836641733
 20
15.163599607
 30
0.0
 10
6.384616345
 20
15.1637807105
 30
0.0
 10
6.3856672854
 20
15.1639618274
 30
0.0
 10
6.387263629
 20
15.1642132588
 30
0.0
 10
6.3895042586
 20
15.1645233497
 30
0.0
 10
6.3924856803
 20
15.1648826983
 30
0.0
 10
6.3958523712
 20
15.1652420565
 30
0.0
 10
6.3996003413
 20
15.1656013149
 30
0.0
 10
6.4037252422
 20
15.1659603584
 30
0.0
 10
6.4099634631
 20
15.1664578551
 30
0.0
 10
6.4186658893
 20
15.1670703896
 30
0.0
 10
6.4301669431
 20
15.1677800022
 30
0.0
 10
6.4430394299
 20
15.168488629
 30
0.0
 10
6.4572282271
 20
15.1691960552
 30
0.0
 10
6.4726735512
 20
15.1699019933
 30
0.0
 10
6.4893112228
 20
15.1706063036
 30
0.0
 10
6.5070730203
 20
15.1713088786
 30
0.0
 10
6.5258869493
 20
15.1720096488
 30
0.0
 10
6.5456777099
 20
15.1727085707
 30
0.0
 10
6.5591890987
 20
15.173163782
 30
0.0
 10
6.5660946719
 20
15.173391804
 30
0.0
  0
SPLINE
  5
4B7
100
AcDbEntity
  8
0
100
AcDbSpline
 62
7
  6
CONTINUOUS
 70
0
 71
3
 72
32
 73
28
 74
0
 42
0.0000001
 43
0.0000001
 44
0.0000000001
 40
0.0
 40
0.0
 40
0.0
 40
0.0
 40
0.0034878199
 40
0.0073694657
 40
0.011653354
 40
0.0163454954
 40
0.0214500851
 40
0.0269700115
 40
0.0392626581
 40
0.0460378239
 40
0.0532324819
 40
0.0688790658
 40
0.0861977344
 40
0.1051795749
 40
0.1258126125
 40
0.1480821151
 40
0.1719711866
 40
0.1974608281
 40
0.2531560479
 40
0.3149803016
 40
0.3827200369
 40
0.4561380237
 40
0.534975006
 40
0.6189511223
 40
0.7077671894
 40
0.8011060666
 40
1.0
 40
1.0
 40
1.0
 40
1.0
 10
6.3611289377
 20
15.1336783038
 30
0.0
 10
6.3613366328
 20
15.1337987794
 30
0.0
 10
6.3617844593
 20
15.1340379545
 30
0.0
 10
6.3625113663
 20
15.1343779832
 30
0.0
 10
6.3633287837
 20
15.1347181682
 30
0.0
 10
6.3642365952
 20
15.1350584776
 30
0.0
 10
6.3652346876
 20
15.1353989326
 30
0.0
 10
6.3667404866
 20
15.135870092
 30
0.0
 10
6.3683724316
 20
15.1363212554
 30
0.0
 10
6.370125938
 20
15.1367617078
 30
0.0
 10
6.3721104947
 20
15.1372293855
 30
0.0
 10
6.3748137343
 20
15.1378102794
 30
0.0
 10
6.3783248783
 20
15.1384899137
 30
0.0
 10
6.3821849785
 20
15.1391700363
 30
0.0
 10
6.3863906162
 20
15.139850567
 30
0.0
 10
6.3909380701
 20
15.1405314137
 30
0.0
 10
6.3958232735
 20
15.1412125404
 30
0.0
 10
6.4029959601
 20
15.1421488813
 30
0.0
 10
6.4127725912
 20
15.1433098883
 30
0.0
 10
6.4254539384
 20
15.1446670683
 30
0.0
 10
6.4393615395
 20
15.1460255645
 30
0.0
 10
6.4544453152
 20
15.1473851484
 30
0.0
 10
6.4706509541
 20
15.1487455372
 30
0.0
 10
6.4879200496
 20
15.1501065553
 30
0.0
 10
6.5061903532
 20
15.1514681016
 30
0.0
 10
6.532356753
 20
15.1533235149
 30
0.0
 10
6.552430635
 20
15.1546540691
 30
0.0
 10
6.5660946719
 20
15.1555318042
 30
0.0
  0
SPLINE
  5
4B8
100
AcDbEntity
  8
0
100
AcDbSpline
 62
7
  6
CONTINUOUS
 70
0
 71
3
 72
30
 73
26
 74
0
 42
0.0000001
 43
0.0000001
 44
0.0000000001
 40
0.0
 40
0.0
 40
0.0
 40
0.0
 40
0.0020728918
 40
0.004590048
 40
0.0075640695
 40
0.0110019405
 40
0.0149076958
 40
0.0192836593
 40
0.0294493472
 40
0.0415004281
 40
0.0554304547
 40
0.0712286955
 40
0.0888810548
 40
0.1083708509
 40
0.1296792778
 40
0.1776662662
 40
0.2326539273
 40
0.2944276166
 40
0.3627486769
 40
0.4373562872
 40
0.5179690119
 40
0.6042862957
 40
0.6959898097
 40
0.792745192
 40
1.0
 40
1.0
 40
1.0
 40
1.0
 10
6.3800534989
 20
15.1446581024
 30
0.0
 10
6.3801649789
 20
15.1447227967
 30
0.0
 10
6.3804218539
 20
15.1448486893
 30
0.0
 10
6.380860093
 20
15.1450201805
 30
0.0
 10
6.38138831
 20
15.1451920182
 30
0.0
 10
6.3820064945
 20
15.1453640869
 30
0.0
 10
6.382714677
 20
15.1455363282
 30
0.0
 10
6.383836014
 20
15.145778333
 30
0.0
 10
6.3854631223
 20
15.1460749105
 30
0.0
 10
6.3876847979
 20
15.1464164074
 30
0.0
 10
6.3902601882
 20
15.1467582609
 30
0.0
 10
6.3931864696
 20
15.1471003175
 30
0.0
 10
6.3964605451
 20
15.1474423232
 30
0.0
 10
6.4000789236
 20
15.1477841964
 30
0.0
 10
6.4055791896
 20
15.1482586931
 30
0.0
 10
6.4132851946
 20
15.148842584
 30
0.0
 10
6.4235069947
 20
15.1495184399
 30
0.0
 10
6.4349956478
 20
15.150193523
 30
0.0
 10
6.447706189
 20
15.1508676145
 30
0.0
 10
6.4615896939
 20
15.1515404144
 30
0.0
 10
6.4765934685
 20
15.152211781
 30
0.0
 10
6.4926613134
 20
15.1528815973
 30
0.0
 10
6.5097337839
 20
15.1535498139
 30
0.0
 10
6.5343223726
 20
15.154459514
 30
0.0
 10
6.5532146301
 20
15.1551065051
 30
0.0
 10
6.5660946719
 20
15.1555318042
 30
0.0
  0
SPLINE
  5
4B9
100
AcDbEntity
  8
0
100
AcDbSpline
 62
7
  6
CONTINUOUS
 70
0
 71
3
 72
73
 73
69
 74
0
 42
0.0000001
 43
0.0000001
 44
0.0000000001
 40
0.0
 40
0.0
 40
0.0
 40
0.0
 40
0.0003693888
 40
0.0008047733
 40
0.0013079658
 40
0.0018801102
 40
0.0025219536
 40
0.0032339742
 40
0.0048696335
 40
0.0067885672
 40
0.0089910313
 40
0.0114766913
 40
0.0142447086
 40
0.0172939568
 40
0.0206229733
 40
0.0281133891
 40
0.036700044
 40
0.0463638822
 40
0.057083032
 40
0.0688329692
 40
0.0815866389
 40
0.0953145578
 40
0.109984907
 40
0.125563623
 40
0.1592992069
 40
0.1962074237
 40
0.2359444903
 40
0.2781400532
 40
0.3224007003
 40
0.3683136682
 40
0.415450719
 40
0.4633721552
 40
0.5116309375
 40
0.5597768697
 40
0.6073608117
 40
0.653938883
 40
0.6990766187
 40
0.7423530403
 40
0.7833646055
 40
0.821729004
 40
0.8570887693
 40
0.8891146855
 40
0.9037831004
 40
0.917509016
 40
0.9302606186
 40
0.9420084294
 40
0.9527253989
 40
0.9623870085
 40
0.9709713918
 40
0.9784594993
 40
0.9817873514
 40
0.984835426
 40
0.987602267
 40
0.9900867438
 40
0.9922880249
 40
0.9942057723
 40
0.9958402512
 40
0.9965516814
 40
0.9971929413
 40
0.9977645096
 40
0.9982671288
 40
0.9987019506
 40
0.9990707981
 40
0.99937672
 40
0.9996251603
 40
0.9998263352
 40
0.9999150808
 40
1.0
 40
1.0
 40
1.0
 40
1.0
 10
7.1712571279
 20
15.1474212366
 30
0.0
 10
7.1711704102
 20
15.1473711102
 30
0.0
 10
7.1709752324
 20
15.1472727058
 30
0.0
 10
7.1706474921
 20
15.1471366725
 30
0.0
 10
7.1702610005
 20
15.1470004046
 30
0.0
 10
7.1698157113
 20
15.1468639546
 30
0.0
 10
7.1693115642
 20
15.1467273394
 30
0.0
 10
7.1685237418
 20
15.146536072
 30
0.0
 10
7.1673906942
 20
15.1463007589
 30
0.0
 10
7.1658533325
 20
15.146028889
 30
0.0
 10
7.164082488
 20
15.145756435
 30
0.0
 10
7.162079123
 20
15.1454835043
 30
0.0
 10
7.159844301
 20
15.1452102477
 30
0.0
 10
7.1573792957
 20
15.144936728
 30
0.0
 10
7.1536378963
 20
15.1445566718
 30
0.0
 10
7.1483965452
 20
15.1440875451
 30
0.0
 10
7.1414378637
 20
15.1435429421
 30
0.0
 10
7.133601385
 20
15.1429974285
 30
0.0
 10
7.1249053598
 20
15.1424511696
 30
0.0
 10
7.1153700366
 20
15.141904395
 30
0.0
 10
7.1050176573
 20
15.1413572196
 30
0.0
 10
7.0938723784
 20
15.1408097427
 30
0.0
 10
7.0819602169
 20
15.1402620077
 30
0.0
 10
7.0646264673
 20
15.1395113726
 30
0.0
 10
7.0412649419
 20
15.1385812532
 30
0.0
 10
7.0113540633
 20
15.1374909756
 30
0.0
 10
6.9791478218
 20
15.1363996048
 30
0.0
 10
6.9449468684
 20
15.1353073781
 30
0.0
 10
6.9090704774
 20
15.1342145597
 30
0.0
 10
6.8718535781
 20
15.1331213168
 30
0.0
 10
6.8336436188
 20
15.1320277891
 30
0.0
 10
6.7947973225
 20
15.1309340894
 30
0.0
 10
6.7556773544
 20
15.1298403185
 30
0.0
 10
6.7166489357
 20
15.1287465712
 30
0.0
 10
6.6780764325
 20
15.1276529444
 30
0.0
 10
6.6403199533
 20
15.1265595441
 30
0.0
 10
6.603731986
 20
15.1254664935
 30
0.0
 10
6.5686541048
 20
15.12437395
 30
0.0
 10
6.5354137807
 20
15.1232821046
 30
0.0
 10
6.5043213118
 20
15.1221912738
 30
0.0
 10
6.4756669432
 20
15.1211017356
 30
0.0
 10
6.4534366957
 20
15.120170318
 30
0.0
 10
6.437070505
 20
15.1194177946
 30
0.0
 10
6.425926857
 20
15.1188702982
 30
0.0
 10
6.4155761601
 20
15.1183231281
 30
0.0
 10
6.406042568
 20
15.1177763529
 30
0.0
 10
6.3973483183
 20
15.1172300952
 30
0.0
 10
6.3895136553
 20
15.116684583
 30
0.0
 10
6.3825568254
 20
15.1161399822
 30
0.0
 10
6.3773170381
 20
15.1156708528
 30
0.0
 10
6.3735769056
 20
15.115290792
 30
0.0
 10
6.371112859
 20
15.1150172727
 30
0.0
 10
6.3688790019
 20
15.1147440176
 30
0.0
 10
6.3668766061
 20
15.1144710877
 30
0.0
 10
6.3651067357
 20
15.1141986363
 30
0.0
 10
6.3635703507
 20
15.1139267684
 30
0.0
 10
6.3624381219
 20
15.1136914551
 30
0.0
 10
6.3616509572
 20
15.1135001805
 30
0.0
 10
6.361147303
 20
15.1133635665
 30
0.0
 10
6.3607024998
 20
15.1132271152
 30
0.0
 10
6.360316515
 20
15.1130908545
 30
0.0
 10
6.3599892208
 20
15.1129548004
 30
0.0
 10
6.3597203442
 20
15.1128189938
 30
0.0
 10
6.3595093212
 20
15.1126830343
 30
0.0
 10
6.3593552784
 20
15.1125464669
 30
0.0
 10
6.359270866
 20
15.1124241796
 30
0.0
 10
6.3592387044
 20
15.1123270925
 30
0.0
 10
6.3592334906
 20
15.1122798593
 30
0.0
 10
6.35923349
 20
15.1122568328
 30
0.0
  0
SPLINE
  5
4BA
100
AcDbEntity
  8
0
100
AcDbSpline
 62
7
  6
CONTINUOUS
 70
0
 71
3
 72
27
 73
23
 74
0
 42
0.0000001
 43
0.0000001
 44
0.0000000001
 40
0.0
 40
0.0
 40
0.0
 40
0.0
 40
0.0625061022
 40
0.1250124978
 40
0.1875183066
 40
0.2500238667
 40
0.3125287534
 40
0.3750327147
 40
0.4375353372
 40
0.5000360646
 40
0.5625338524
 40
0.6250272016
 40
0.6875145138
 40
0.7499924761
 40
0.7812459482
 40
0.8124987466
 40
0.8437507973
 40
0.8750020262
 40
0.9062524188
 40
0.9375021774
 40
0.9687509262
 40
1.0
 40
1.0
 40
1.0
 40
1.0
 10
6.7654834892
 20
14.7020569465
 30
0.0
 10
6.7621017775
 20
14.7020569465
 30
0.0
 10
6.7553370995
 20
14.7022265904
 30
0.0
 10
6.7452167639
 20
14.7029929623
 30
0.0
 10
6.7351489307
 20
14.7042803009
 30
0.0
 10
6.7251640156
 20
14.7061038213
 30
0.0
 10
6.7152967359
 20
14.7084852405
 30
0.0
 10
6.7055889681
 20
14.7114530126
 30
0.0
 10
6.6960925014
 20
14.7150426073
 30
0.0
 10
6.6868729699
 20
14.7192965255
 30
0.0
 10
6.6780152007
 20
14.7242635666
 30
0.0
 10
6.6696298155
 20
14.729997253
 30
0.0
 10
6.6618633762
 20
14.7365488587
 30
0.0
 10
6.6560624153
 20
14.7427293719
 30
0.0
 10
6.6519516125
 20
14.748104332
 30
0.0
 10
6.6491662462
 20
14.7523495084
 30
0.0
 10
6.6467173042
 20
14.7567977075
 30
0.0
 10
6.6446431611
 20
14.7614332319
 30
0.0
 10
6.6429814599
 20
14.766232627
 30
0.0
 10
6.6417663027
 20
14.7711646658
 30
0.0
 10
6.6410251403
 20
14.7761897265
 30
0.0
 10
6.6408590533
 20
14.7795733131
 30
0.0
 10
6.6408590533
 20
14.7812639538
 30
0.0
  0
SPLINE
  5
4BB
100
AcDbEntity
  8
0
100
AcDbSpline
 62
7
  6
CONTINUOUS
 70
0
 71
3
 72
27
 73
23
 74
0
 42
0.0000001
 43
0.0000001
 44
0.0000000001
 40
0.0
 40
0.0
 40
0.0
 40
0.0
 40
0.0312491475
 40
0.062497983
 40
0.0937477981
 40
0.1249982289
 40
0.1562495424
 40
0.1875016185
 40
0.2187544436
 40
0.2500079455
 40
0.3124858853
 40
0.3749731242
 40
0.4374663991
 40
0.4999641568
 40
0.5624648439
 40
0.6249674405
 40
0.6874713703
 40
0.7499762413
 40
0.8124817654
 40
0.8749875229
 40
0.9374938944
 40
1.0
 40
1.0
 40
1.0
 40
1.0
 10
6.8901079249
 20
14.7812639538
 30
0.0
 10
6.8901079249
 20
14.7795733091
 30
0.0
 10
6.8899418375
 20
14.7761897138
 30
0.0
 10
6.8892006709
 20
14.7711646418
 30
0.0
 10
6.8879855092
 20
14.766232594
 30
0.0
 10
6.8863238004
 20
14.7614331911
 30
0.0
 10
6.8842496502
 20
14.7567976612
 30
0.0
 10
6.8818007013
 20
14.7523494575
 30
0.0
 10
6.8790153284
 20
14.7481042801
 30
0.0
 10
6.8749045203
 20
14.7427293217
 30
0.0
 10
6.8691035565
 20
14.7365488162
 30
0.0
 10
6.8613371202
 20
14.7299972214
 30
0.0
 10
6.8529517402
 20
14.7242635446
 30
0.0
 10
6.8440939773
 20
14.7192965085
 30
0.0
 10
6.834874449
 20
14.7150425956
 30
0.0
 10
6.8253779864
 20
14.7114530053
 30
0.0
 10
6.815670222
 20
14.7084852355
 30
0.0
 10
6.8058029465
 20
14.7061038186
 30
0.0
 10
6.7958180368
 20
14.7042802998
 30
0.0
 10
6.7857502096
 20
14.702992962
 30
0.0
 10
6.7756298779
 20
14.7022265904
 30
0.0
 10
6.7688652011
 20
14.7020569465
 30
0.0
 10
6.7654834892
 20
14.7020569465
 30
0.0
  0
SPLINE
  5
4BC
100
AcDbEntity
  8
0
100
AcDbSpline
 62
7
  6
CONTINUOUS
 70
0
 71
3
 72
25
 73
21
 74
0
 42
0.0000001
 43
0.0000001
 44
0.0000000001
 40
0.0
 40
0.0
 40
0.0
 40
0.0
 40
0.2275356532
 40
0.4260587362
 40
0.5143067583
 40
0.5951541834
 40
0.6685633559
 40
0.7345066467
 40
0.7929658233
 40
0.8439367764
 40
0.8874343023
 40
0.9235060379
 40
0.9387904566
 40
0.9522679183
 40
0.9639745171
 40
0.9739666603
 40
0.9823364493
 40
0.9892424435
 40
0.9949678448
 40
1.0
 40
1.0
 40
1.0
 40
1.0
 10
7.1058875794
 20
15.103391804
 30
0.0
 10
7.1079920243
 20
15.1035642494
 30
0.0
 10
7.1119311756
 20
15.1039047426
 30
0.0
 10
7.1166809094
 20
15.1043743064
 30
0.0
 10
7.1200711306
 20
15.1047547002
 30
0.0
 10
7.1223048702
 20
15.1050284831
 30
0.0
 10
7.1243299662
 20
15.1053020101
 30
0.0
 10
7.1261452763
 20
15.1055752078
 30
0.0
 10
7.1277498124
 20
15.1058479751
 30
0.0
 10
7.1291428421
 20
15.1061200699
 30
0.0
 10
7.130323697
 20
15.1063913771
 30
0.0
 10
7.131172279
 20
15.1066274536
 30
0.0
 10
7.1317422976
 20
15.1068204442
 30
0.0
 10
7.1320923316
 20
15.1069569351
 30
0.0
 10
7.1323892105
 20
15.1070932389
 30
0.0
 10
7.1326331809
 20
15.1072294445
 30
0.0
 10
7.1328247313
 20
15.1073658133
 30
0.0
 10
7.1329644406
 20
15.1075033545
 30
0.0
 10
7.1330523141
 20
15.1076443017
 30
0.0
 10
7.1330734818
 20
15.1077447682
 30
0.0
 10
7.133073483
 20
15.1077914659
 30
0.0
  0
SPLINE
  5
4BD
100
AcDbEntity
  8
0
100
AcDbSpline
 62
7
  6
CONTINUOUS
 70
0
 71
3
 72
38
 73
34
 74
0
 42
0.0000001
 43
0.0000001
 44
0.0000000001
 40
0.0
 40
0.0
 40
0.0
 40
0.0
 40
0.0817729666
 40
0.166265852
 40
0.252284058
 40
0.3386114971
 40
0.4240276549
 40
0.5073249486
 40
0.5873258737
 40
0.6628997623
 40
0.7329788513
 40
0.7656451776
 40
0.796573649
 40
0.825655141
 40
0.8527871575
 40
0.8778742043
 40
0.9008282029
 40
0.9215688584
 40
0.9400240701
 40
0.9561303926
 40
0.9632854576
 40
0.9698338036
 40
0.9757702559
 40
0.9810904892
 40
0.9857910028
 40
0.9898694535
 40
0.9933250225
 40
0.9948196689
 40
0.9961594836
 40
0.9973453985
 40
0.998378889
 40
0.9992623832
 40
1.0
 40
1.0
 40
1.0
 40
1.0
 10
6.6266733021
 20
15.103391804
 30
0.0
 10
6.6404735877
 20
15.103852732
 30
0.0
 10
6.6685339487
 20
15.1047669728
 30
0.0
 10
6.7111128306
 20
15.1061102336
 30
0.0
 10
6.7544611326
 20
15.1074538289
 30
0.0
 10
6.7979654076
 20
15.1087974941
 30
0.0
 10
6.8410100232
 20
15.1101409562
 30
0.0
 10
6.8829858461
 20
15.1114839337
 30
0.0
 10
6.9232988822
 20
15.1128260466
 30
0.0
 10
6.9613786691
 20
15.1141669384
 30
0.0
 10
6.9914676687
 20
15.1153077371
 30
0.0
 10
7.0140207258
 20
15.1162288066
 30
0.0
 10
7.0296552969
 20
15.1169031049
 30
0.0
 10
7.0443544542
 20
15.1175770844
 30
0.0
 10
7.0580661583
 20
15.1182506858
 30
0.0
 10
7.0707418779
 20
15.1189237825
 30
0.0
 10
7.0823367578
 20
15.1195962256
 30
0.0
 10
7.0928098127
 20
15.1202677178
 30
0.0
 10
7.1021240188
 20
15.1209380416
 30
0.0
 10
7.1091446796
 20
15.1215154489
 30
0.0
 10
7.1141565248
 20
15.1219834382
 30
0.0
 10
7.1174557722
 20
15.1223201757
 30
0.0
 10
7.1204434758
 20
15.1226565624
 30
0.0
 10
7.1231170321
 20
15.1229925172
 30
0.0
 10
7.125474206
 20
15.1233278174
 30
0.0
 10
7.1275130068
 20
15.1236623297
 30
0.0
 10
7.1290101364
 20
15.1239521756
 30
0.0
 10
7.1300458118
 20
15.1241881232
 30
0.0
 10
7.1307036387
 20
15.124356239
 30
0.0
 10
7.1312808546
 20
15.1245241
 30
0.0
 10
7.1317775238
 20
15.1246916722
 30
0.0
 10
7.1321936887
 20
15.1248588681
 30
0.0
 10
7.1324394058
 20
15.1249807339
 30
0.0
 10
7.1325472328
 20
15.1250430763
 30
0.0
  0
ELLIPSE
  5
4BE
100
AcDbEntity
  8
0
100
AcDbEllipse
 62
7
  6
CONTINUOUS
 10
6.7654834891
 20
14.543391804
 30
0.0
 11
0.4525
 21
0.0
 31
0.0
 40
1.0
 41
1.2917769134
 42
1.8498157402
  0
ENDSEC
  0
SECTION
  2
OBJECTS
  0
DICTIONARY
  5
C
100
AcDbDictionary
280
0
281
1
  3
ACAD_GROUP
350
D
  3
ACAD_MLINESTYLE
350
17
  3
ACAD_LAYOUT
350
1A
  3
ACAD_PLOTSETTINGS
350
19
  3
ACAD_PLOTSTYLENAME
350
E
  0
DICTIONARY
  5
D
102
{ACAD_REACTORS
330
C
102
}
100
AcDbDictionary
280
0
281
1
  0
ACDBDICTIONARYWDFLT
  5
E
102
{ACAD_REACTORS
330
C
102
}
100
AcDbDictionary
281
1
  3
Normal
350
F
100
AcDbDictionaryWithDefault
340
F
  0
DICTIONARY
  5
17
102
{ACAD_REACTORS
330
C
102
}
100
AcDbDictionary
280
0
281
1
  3
Standard
350
18
  0
DICTIONARY
  5
19
102
{ACAD_REACTORS
330
C
102
}
100
AcDbDictionary
281
1
  0
DICTIONARY
  5
1A
102
{ACAD_REACTORS
330
C
102
}
100
AcDbDictionary
281
1
  3
Model
350
4BF
  3
Layout1
350
4C0
  0
ACDBPLACEHOLDER
  5
F
102
{ACAD_REACTORS
330
E
102
}
  0
MLINESTYLE
  5
18
102
{ACAD_REACTORS
330
17
102
}
100
AcDbMlineStyle
  2
STANDARD
 70
0
  3

 62
256
 51
90.0
 52
90.0
 71
2
 49
0.5
 62
256
  6
BYLAYER
 49
-0.5
 62
256
  6
BYLAYER
  0
LAYOUT
  5
4BF
102
{ACAD_REACTORS
330
1A
102
}
100
AcDbPlotSettings
  1

  2
none_device
  4
ANSI_C_(22.00_x_17.00_Inches)
  6

 40
0.0
 41
0.0
 42
0.0
 43
0.0
 44
558.8
 45
431.8
 46
0.0
 47
0.0
 48
0.0
 49
0.0
140
0.0
141
0.0
142
1.0
143
1.0
 70
1024
 72
0
 73
0
 74
0
  7

 75
0
147
1.0
148
0.0
149
0.0
100
AcDbLayout
  1
Model
 70
0
 71
0
 10
0.0
 20
0.0
 11
22.0
 21
17.0
 12
0.0
 22
0.0
 32
0.0
 14
0.0
 24
0.0
 34
0.0
 15
0.0
 25
0.0
 35
0.0
146
0.0
 13
0.0
 23
0.0
 33
0.0
 16
1.0
 26
0.0
 36
0.0
 17
0.0
 27
1.0
 37
0.0
 76
0
330
205
345
0
346
0
  0
LAYOUT
  5
4C0
102
{ACAD_REACTORS
330
1A
102
}
100
AcDbPlotSettings
  1

  2
none_device
  4
ANSI_C_(22.00_x_17.00_Inches)
  6

 40
0.0
 41
0.0
 42
0.0
 43
0.0
 44
558.8
 45
431.8
 46
0.0
 47
0.0
 48
0.0
 49
0.0
140
0.0
141
0.0
142
1.0
143
1.0
 70
0
 72
0
 73
0
 74
0
  7

 75
0
147
1.0
148
0.0
149
0.0
100
AcDbLayout
  1
Layout1
 70
0
 71
1
 10
0.0
 20
0.0
 11
22.0
 21
17.0
 12
0.0
 22
0.0
 32
0.0
 14
0.0
 24
0.0
 34
0.0
 15
0.0
 25
0.0
 35
0.0
146
0.0
 13
0.0
 23
0.0
 33
0.0
 16
1.0
 26
0.0
 36
0.0
 17
0.0
 27
1.0
 37
0.0
 76
0
330
206
345
0
346
0
  0
ENDSEC
  0
EOF
