999
DXF file: 3-2485_RIGHT.dxf
999
Pro/ENGINEER 2018400 by Parametric Technology Corporation
  0
SECTION
  2
HEADER
  9
$ACADVER
  1
AC1027
  9
$DWGCODEPAGE
  3
ANSI_1252
  9
$EXTMAX
 10
11.0
 20
8.5
 30
0.0
  9
$EXTMIN
 10
0.0
 20
0.0
 30
0.0
  9
$LIMMIN
 10
0.0
 20
0.0
  9
$LIMMAX
 10
11.0
 20
8.5
  9
$VIEWCTR
 10
5.5
 20
4.25
  9
$VIEWSIZE
 40
8.5
  9
$CLAYER
  8
0
  9
$LTSCALE
 40
0.605
  9
$CELTYPE
  6
BYLAYER
  9
$DIMSCALE
 40
1.0
  9
$DIMASZ
 40
0.1
  9
$DIMEXO
 40
0.0625
  9
$DIMDLI
 40
0.418
  9
$DIMEXE
 40
0.125
  9
$DIMCEN
 40
0.099
  9
$DIMLFAC
 40
1.0
  9
$DIMBLK
  1
_FILLED
  9
$DIMALT
 70
1
  9
$DIMALTD
 70
2
  9
$DIMALTTD
 70
2
  9
$DIMALTF
 40
25.4
  9
$DIMTXT
 40
0.08
  9
$DIMTOL
 70
1
  9
$DIMLIM
 70
0
  9
$DIMTFAC
 40
1.0
  9
$DIMTP
 40
0.001
  9
$DIMTM
 40
0.001
  9
$DIMGAP
 40
0.09
  9
$DIMDSEP
 70
46
  9
$AUNITS
 70
0
  9
$PDMODE
 70
3
  9
$PDSIZE
 40
0.3125
  9
$HANDSEED
  5
2B1
  9
$TILEMODE
 70
1
  9
$MEASUREMENT
 70
0
  9
$INSUNITS
 70
1
  0
ENDSEC
  0
SECTION
  2
CLASSES
  0
CLASS
  1
ACDBDICTIONARYWDFLT
  2
AcDbDictionaryWithDefault
  3
AutoCAD 2000
 90
0
 91
1
280
0
281
0
  0
CLASS
  1
ACDBPLACEHOLDER
  2
AcDbPlaceHolder
  3
AutoCAD 2000
 90
0
 91
1
280
0
281
0
  0
CLASS
  1
LAYOUT
  2
AcDbLayout
  3
AutoCAD 2000
 90
0
 91
0
280
0
281
0
  0
ENDSEC
  0
SECTION
  2
TABLES
  0
TABLE
  2
VPORT
  5
8
100
AcDbSymbolTable
 70
2
  0
VPORT
  5
1F4
100
AcDbSymbolTableRecord
100
AcDbViewportTableRecord
  2
*ACTIVE
 70
0
 10
0.0
 20
0.0
 11
1.0
 21
1.0
 12
5.5
 22
4.25
 13
0.0
 23
0.0
 14
1.0
 24
1.0
 15
0.0
 25
0.0
 16
0.0
 26
0.0
 36
1.0
 17
0.0
 27
0.0
 37
0.0
 40
8.5
 41
1.2941176471
 42
50.0
 43
0.0
 44
0.0
 50
0.0
 51
0.0
 71
0
 72
100
 73
1
 74
1
 75
0
 76
0
 77
0
 78
0
  0
ENDTAB
  0
TABLE
  2
LTYPE
  5
5
100
AcDbSymbolTable
 70
6
  0
LTYPE
  5
14
100
AcDbSymbolTableRecord
100
AcDbLinetypeTableRecord
  2
BYBLOCK
 70
0
  3

 72
65
 73
0
 40
0.0
  0
LTYPE
  5
15
100
AcDbSymbolTableRecord
100
AcDbLinetypeTableRecord
  2
BYLAYER
 70
0
  3

 72
65
 73
0
 40
0.0
  0
LTYPE
  5
16
100
AcDbSymbolTableRecord
100
AcDbLinetypeTableRecord
  2
CONTINUOUS
 70
64
  3
Solid line
 72
65
 73
0
 40
0.0
  0
LTYPE
  5
1F5
100
AcDbSymbolTableRecord
100
AcDbLinetypeTableRecord
  2
CENTER
 70
64
  3
____ _ ____ _ ____ _ ____ _ ____ _ ____ _ ____
 72
65
 73
4
 40
0.6
 49
0.375
 74
0
 49
-0.075
 74
0
 49
0.075
 74
0
 49
-0.075
 74
0
  0
LTYPE
  5
1F6
100
AcDbSymbolTableRecord
100
AcDbLinetypeTableRecord
  2
HIDDEN
 70
64
  3
- - - - - - - - - - - - - - - - - - - -
 72
65
 73
2
 40
0.2
 49
0.1
 74
0
 49
-0.1
 74
0
  0
LTYPE
  5
1F7
100
AcDbSymbolTableRecord
100
AcDbLinetypeTableRecord
  2
PHANTOM
 70
64
  3
_____ _ _ _____ _ _ _____ _ _ _____
 72
65
 73
6
 40
0.8
 49
0.45
 74
0
 49
-0.05
 74
0
 49
0.1
 74
0
 49
-0.05
 74
0
 49
0.1
 74
0
 49
-0.05
 74
0
  0
LTYPE
  5
1F8
100
AcDbSymbolTableRecord
100
AcDbLinetypeTableRecord
  2
DOT
 70
64
  3
. . . . . . . . . . . . . . . . . . . .
 72
65
 73
2
 40
0.2
 49
0.1
 74
0
 49
-0.1
 74
0
  0
LTYPE
  5
1F9
100
AcDbSymbolTableRecord
100
AcDbLinetypeTableRecord
  2
DASHED
 70
64
  3
- - - - - - - - - - - - - - - - - - - -
 72
65
 73
2
 40
0.2
 49
0.1
 74
0
 49
-0.1
 74
0
  0
ENDTAB
  0
TABLE
  2
LAYER
  5
2
100
AcDbSymbolTable
 70
36
  0
LAYER
  5
10
100
AcDbSymbolTableRecord
100
AcDbLayerTableRecord
  2
0
 70
0
 62
7
  6
CONTINUOUS
370
-3
390
F
  0
LAYER
  5
1FA
100
AcDbSymbolTableRecord
100
AcDbLayerTableRecord
  2
DEFAULT_1
 70
0
 62
7
  6
CENTER
370
-3
390
F
  0
LAYER
  5
1FB
100
AcDbSymbolTableRecord
100
AcDbLayerTableRecord
  2
DEFAULT_2
 70
0
 62
8
  6
HIDDEN
370
-3
390
F
  0
LAYER
  5
1FC
100
AcDbSymbolTableRecord
100
AcDbLayerTableRecord
  2
DEFAULT_3
 70
0
 62
7
  6
PHANTOM
370
-3
390
F
  0
LAYER
  5
1FD
100
AcDbSymbolTableRecord
100
AcDbLayerTableRecord
  2
01_ALL_DTM_PLN
 70
0
 62
7
  6
CONTINUOUS
370
-3
390
F
  0
LAYER
  5
1FE
100
AcDbSymbolTableRecord
100
AcDbLayerTableRecord
  2
01__ASM_ALL_DTM_PLN
 70
0
 62
7
  6
CONTINUOUS
370
-3
390
F
  0
LAYER
  5
1FF
100
AcDbSymbolTableRecord
100
AcDbLayerTableRecord
  2
01__ASM_DEF_DTM_PLN
 70
0
 62
7
  6
CONTINUOUS
370
-3
390
F
  0
LAYER
  5
200
100
AcDbSymbolTableRecord
100
AcDbLayerTableRecord
  2
01___PRT_ALL_DTM_PLN
 70
0
 62
7
  6
CONTINUOUS
370
-3
390
F
  0
LAYER
  5
201
100
AcDbSymbolTableRecord
100
AcDbLayerTableRecord
  2
01___PRT_DEF_DTM_PLN
 70
0
 62
7
  6
CONTINUOUS
370
-3
390
F
  0
LAYER
  5
202
100
AcDbSymbolTableRecord
100
AcDbLayerTableRecord
  2
02_ALL_AXES
 70
0
 62
7
  6
CONTINUOUS
370
-3
390
F
  0
LAYER
  5
203
100
AcDbSymbolTableRecord
100
AcDbLayerTableRecord
  2
02__ASM_ALL_AXES
 70
0
 62
7
  6
CONTINUOUS
370
-3
390
F
  0
LAYER
  5
204
100
AcDbSymbolTableRecord
100
AcDbLayerTableRecord
  2
02___PRT_ALL_AXES
 70
0
 62
7
  6
CONTINUOUS
370
-3
390
F
  0
LAYER
  5
205
100
AcDbSymbolTableRecord
100
AcDbLayerTableRecord
  2
03_ALL_CURVES
 70
0
 62
7
  6
CONTINUOUS
370
-3
390
F
  0
LAYER
  5
206
100
AcDbSymbolTableRecord
100
AcDbLayerTableRecord
  2
03__ASM_ALL_CURVES
 70
0
 62
7
  6
CONTINUOUS
370
-3
390
F
  0
LAYER
  5
207
100
AcDbSymbolTableRecord
100
AcDbLayerTableRecord
  2
03___PRT_ALL_CURVES
 70
0
 62
7
  6
CONTINUOUS
370
-3
390
F
  0
LAYER
  5
208
100
AcDbSymbolTableRecord
100
AcDbLayerTableRecord
  2
04_ALL_DTM_PNT
 70
0
 62
7
  6
CONTINUOUS
370
-3
390
F
  0
LAYER
  5
209
100
AcDbSymbolTableRecord
100
AcDbLayerTableRecord
  2
04__ASM_ALL_DTM_PNT
 70
0
 62
7
  6
CONTINUOUS
370
-3
390
F
  0
LAYER
  5
20A
100
AcDbSymbolTableRecord
100
AcDbLayerTableRecord
  2
04___PRT_ALL_DTM_PNT
 70
0
 62
7
  6
CONTINUOUS
370
-3
390
F
  0
LAYER
  5
20B
100
AcDbSymbolTableRecord
100
AcDbLayerTableRecord
  2
05_ALL_DTM_CSYS
 70
0
 62
7
  6
CONTINUOUS
370
-3
390
F
  0
LAYER
  5
20C
100
AcDbSymbolTableRecord
100
AcDbLayerTableRecord
  2
05__ASM_ALL_DTM_CSYS
 70
0
 62
7
  6
CONTINUOUS
370
-3
390
F
  0
LAYER
  5
20D
100
AcDbSymbolTableRecord
100
AcDbLayerTableRecord
  2
05__ASM_DEF_DTM_CSYS
 70
0
 62
7
  6
CONTINUOUS
370
-3
390
F
  0
LAYER
  5
20E
100
AcDbSymbolTableRecord
100
AcDbLayerTableRecord
  2
05___PRT_ALL_DTM_CSYS
 70
0
 62
7
  6
CONTINUOUS
370
-3
390
F
  0
LAYER
  5
20F
100
AcDbSymbolTableRecord
100
AcDbLayerTableRecord
  2
05___PRT_DEF_DTM_CSYS
 70
0
 62
7
  6
CONTINUOUS
370
-3
390
F
  0
LAYER
  5
210
100
AcDbSymbolTableRecord
100
AcDbLayerTableRecord
  2
06_ALL_SURFS
 70
0
 62
7
  6
CONTINUOUS
370
-3
390
F
  0
LAYER
  5
211
100
AcDbSymbolTableRecord
100
AcDbLayerTableRecord
  2
06__ASM_ALL_SURFS
 70
0
 62
7
  6
CONTINUOUS
370
-3
390
F
  0
LAYER
  5
212
100
AcDbSymbolTableRecord
100
AcDbLayerTableRecord
  2
06___PRT_ALL_SURFS
 70
0
 62
7
  6
CONTINUOUS
370
-3
390
F
  0
LAYER
  5
213
100
AcDbSymbolTableRecord
100
AcDbLayerTableRecord
  2
07__ASM_ALL_SKELETONS
 70
0
 62
7
  6
CONTINUOUS
370
-3
390
F
  0
LAYER
  5
214
100
AcDbSymbolTableRecord
100
AcDbLayerTableRecord
  2
3-985_ASSY_PLANES
 70
0
 62
7
  6
CONTINUOUS
370
-3
390
F
  0
LAYER
  5
215
100
AcDbSymbolTableRecord
100
AcDbLayerTableRecord
  2
ALL_ASSEMBLY_MEMBERS
 70
0
 62
7
  6
CONTINUOUS
370
-3
390
F
  0
LAYER
  5
216
100
AcDbSymbolTableRecord
100
AcDbLayerTableRecord
  2
ALL_FEATURES
 70
0
 62
7
  6
CONTINUOUS
370
-3
390
F
  0
LAYER
  5
217
100
AcDbSymbolTableRecord
100
AcDbLayerTableRecord
  2
AXES_FEATURES
 70
0
 62
7
  6
CONTINUOUS
370
-3
390
F
  0
LAYER
  5
218
100
AcDbSymbolTableRecord
100
AcDbLayerTableRecord
  2
CHAMFER_FEATURES
 70
0
 62
7
  6
CONTINUOUS
370
-3
390
F
  0
LAYER
  5
219
100
AcDbSymbolTableRecord
100
AcDbLayerTableRecord
  2
COSMETIC_SKETCHES
 70
0
 62
7
  6
CONTINUOUS
370
-3
390
F
  0
LAYER
  5
21A
100
AcDbSymbolTableRecord
100
AcDbLayerTableRecord
  2
CUT_FEATURES
 70
0
 62
7
  6
CONTINUOUS
370
-3
390
F
  0
LAYER
  5
21B
100
AcDbSymbolTableRecord
100
AcDbLayerTableRecord
  2
DATUM_CURVES
 70
0
 62
7
  6
CONTINUOUS
370
-3
390
F
  0
LAYER
  5
21C
100
AcDbSymbolTableRecord
100
AcDbLayerTableRecord
  2
DATUM_PLANES
 70
0
 62
7
  6
CONTINUOUS
370
-3
390
F
  0
LAYER
  5
21D
100
AcDbSymbolTableRecord
100
AcDbLayerTableRecord
  2
DEFAULT_COORDINATE_SYSTEM
 70
0
 62
7
  6
CONTINUOUS
370
-3
390
F
  0
LAYER
  5
21E
100
AcDbSymbolTableRecord
100
AcDbLayerTableRecord
  2
DEFAULT_DATUM_AXES
 70
0
 62
7
  6
CONTINUOUS
370
-3
390
F
  0
LAYER
  5
21F
100
AcDbSymbolTableRecord
100
AcDbLayerTableRecord
  2
DEFAULT_DATUM_CURVES
 70
0
 62
7
  6
CONTINUOUS
370
-3
390
F
  0
LAYER
  5
220
100
AcDbSymbolTableRecord
100
AcDbLayerTableRecord
  2
DEFAULT_DATUM_PLANES
 70
0
 62
7
  6
CONTINUOUS
370
-3
390
F
  0
LAYER
  5
221
100
AcDbSymbolTableRecord
100
AcDbLayerTableRecord
  2
DEFAULT_SURFACES
 70
0
 62
7
  6
CONTINUOUS
370
-3
390
F
  0
LAYER
  5
222
100
AcDbSymbolTableRecord
100
AcDbLayerTableRecord
  2
DIMENSIONS
 70
0
 62
7
  6
CONTINUOUS
370
-3
390
F
  0
LAYER
  5
223
100
AcDbSymbolTableRecord
100
AcDbLayerTableRecord
  2
HOLE_FEATURES
 70
0
 62
7
  6
CONTINUOUS
370
-3
390
F
  0
LAYER
  5
224
100
AcDbSymbolTableRecord
100
AcDbLayerTableRecord
  2
NONE
 70
0
 62
7
  6
CONTINUOUS
370
-3
390
F
  0
LAYER
  5
225
100
AcDbSymbolTableRecord
100
AcDbLayerTableRecord
  2
PART_REFERENCE_DIMENSIONS
 70
0
 62
7
  6
CONTINUOUS
370
-3
390
F
  0
LAYER
  5
226
100
AcDbSymbolTableRecord
100
AcDbLayerTableRecord
  2
PLATED_SURFACE_AREA
 70
0
 62
7
  6
CONTINUOUS
370
-3
390
F
  0
LAYER
  5
227
100
AcDbSymbolTableRecord
100
AcDbLayerTableRecord
  2
PROTRUSION_FEATURES
 70
0
 62
7
  6
CONTINUOUS
370
-3
390
F
  0
LAYER
  5
228
100
AcDbSymbolTableRecord
100
AcDbLayerTableRecord
  2
QUILTS
 70
0
 62
7
  6
CONTINUOUS
370
-3
390
F
  0
LAYER
  5
229
100
AcDbSymbolTableRecord
100
AcDbLayerTableRecord
  2
REFERENCE_DIMENSIONS
 70
0
 62
7
  6
CONTINUOUS
370
-3
390
F
  0
LAYER
  5
22A
100
AcDbSymbolTableRecord
100
AcDbLayerTableRecord
  2
ROUND_FEATURES
 70
0
 62
7
  6
CONTINUOUS
370
-3
390
F
  0
LAYER
  5
22B
100
AcDbSymbolTableRecord
100
AcDbLayerTableRecord
  2
WETTED_SURFACES
 70
0
 62
7
  6
CONTINUOUS
370
-3
390
F
  0
LAYER
  5
22C
100
AcDbSymbolTableRecord
100
AcDbLayerTableRecord
  2
WETTED_SURFACE_AREA
 70
0
 62
7
  6
CONTINUOUS
370
-3
390
F
  0
LAYER
  5
22D
100
AcDbSymbolTableRecord
100
AcDbLayerTableRecord
  2
WETTED_SURFACE_LAYER
 70
0
 62
7
  6
CONTINUOUS
370
-3
390
F
  0
LAYER
  5
22E
100
AcDbSymbolTableRecord
100
AcDbLayerTableRecord
  2
XSEC_DATUMS
 70
0
 62
7
  6
CONTINUOUS
370
-3
390
F
  0
ENDTAB
  0
TABLE
  2
STYLE
  5
3
100
AcDbSymbolTable
 70
1
  0
STYLE
  5
11
100
AcDbSymbolTableRecord
100
AcDbTextStyleTableRecord
  2
STANDARD
 70
0
 40
0.0
 41
0.8
 50
0.0
 71
0
 42
0.2
  3
txt
  4

  0
STYLE
  5
22F
100
AcDbSymbolTableRecord
100
AcDbTextStyleTableRecord
  2
TEXTSTYLE_1
 70
0
 40
0.0
 41
0.8
 50
0.0
 71
0
 42
0.2
  3
gdt
  4

  0
ENDTAB
  0
TABLE
  2
VIEW
  5
6
100
AcDbSymbolTable
 70
0
  0
ENDTAB
  0
TABLE
  2
UCS
  5
7
100
AcDbSymbolTable
 70
0
  0
ENDTAB
  0
TABLE
  2
APPID
  5
9
100
AcDbSymbolTable
 70
1
  0
APPID
  5
230
100
AcDbSymbolTableRecord
100
AcDbRegAppTableRecord
  2
ACAD
 70
0
  0
ENDTAB
  0
TABLE
  2
BLOCK_RECORD
  5
1
100
AcDbSymbolTable
 70
0
  0
BLOCK_RECORD
  5
231
100
AcDbSymbolTableRecord
100
AcDbBlockTableRecord
  2
*Model_Space
  0
BLOCK_RECORD
  5
232
100
AcDbSymbolTableRecord
100
AcDbBlockTableRecord
  2
*Paper_Space
  0
BLOCK_RECORD
  5
233
100
AcDbSymbolTableRecord
100
AcDbBlockTableRecord
  2
_FILLED
  0
ENDTAB
  0
TABLE
  2
DIMSTYLE
  5
A
100
AcDbSymbolTable
 70
1
100
AcDbDimStyleTable
 71
0
  0
DIMSTYLE
105
234
100
AcDbSymbolTableRecord
100
AcDbDimStyleTableRecord
  2
STANDARD
 70
0
  3

  4

 40
1.0
 41
0.1
 42
0.0625
 43
0.38
 44
0.125
 45
0.0
 46
0.0
 47
0.001
 48
0.001
140
0.08
141
0.09
142
0.0
143
25.4
144
1.0
145
0.0
146
1.0
147
0.09
 71
1.0
 72
0.0
 73
1
 74
1
 75
0
 76
0
 77
0
 78
4
 79
1
170
1
171
2
172
0
173
0
174
0
175
0
176
0
177
0
178
0
270
2
179
3
271
3
272
3
273
2
274
2
275
0
280
0
281
0
282
0
283
1
284
4
285
0
286
0
287
3
288
0
340
11
278
46
341
233
342
233
343
233
344
233
  0
ENDTAB
  0
ENDSEC
  0
SECTION
  2
BLOCKS
  0
BLOCK
  5
20
100
AcDbEntity
  8
0
100
AcDbBlockBegin
  2
*Model_Space
 70
0
 10
0.0
 20
0.0
 30
0.0
  3
*Model_Space
  1

  0
ENDBLK
  5
21
100
AcDbEntity
  8
0
100
AcDbBlockEnd
  0
BLOCK
  5
1C
100
AcDbEntity
  8
0
100
AcDbBlockBegin
  2
*Paper_Space
 70
0
 10
0.0
 20
0.0
 30
0.0
  3
*Paper_Space
  1

  0
ENDBLK
  5
1D
100
AcDbEntity
  8
0
100
AcDbBlockEnd
  0
BLOCK
  5
235
100
AcDbEntity
  8
0
100
AcDbBlockBegin
  2
_FILLED
 70
64
 10
0.0
 20
0.0
  3
_FILLED
  1

  0
SOLID
  5
236
100
AcDbEntity
  8
0
  6
BYBLOCK
 62
0
100
AcDbTrace
 10
0.0
 20
0.0
 11
-1.0
 21
0.2
 12
-1.0
 22
-0.2
 13
-1.0
 23
-0.2
  0
ENDBLK
  5
237
100
AcDbEntity
  8
0
  6
BYBLOCK
 62
0
100
AcDbBlockEnd
  0
ENDSEC
  0
SECTION
  2
ENTITIES
  0
MTEXT
  5
238
100
AcDbEntity
  8
0
100
AcDbMText
 62
2
  6
CONTINUOUS
  7
STANDARD
 71
3
 72
1
 10
3.6242598608
 20
1.6182182536
 30
0.0
 11
1.0
 21
0.0
 31
0.0
 73
2
 44
0.9
  1
SCALE  .500
 40
0.08
 41
0.704
  0
LINE
  5
239
100
AcDbEntity
  8
0
100
AcDbLine
 62
7
  6
CONTINUOUS
 10
0.0
 20
0.0
 11
0.0
 21
8.5
  0
LINE
  5
23A
100
AcDbEntity
  8
0
100
AcDbLine
 62
7
  6
CONTINUOUS
 10
0.0
 20
0.0
 11
11.0
 21
0.0
  0
LINE
  5
23B
100
AcDbEntity
  8
0
100
AcDbLine
 62
7
  6
CONTINUOUS
 10
0.0
 20
8.5
 11
11.0
 21
8.5
  0
LINE
  5
23C
100
AcDbEntity
  8
0
100
AcDbLine
 62
7
  6
CONTINUOUS
 10
11.0
 20
0.0
 11
11.0
 21
8.5
  0
LINE
  5
23D
100
AcDbEntity
  8
ALL_ASSEMBLY_MEMBERS
100
AcDbLine
 62
7
  6
CONTINUOUS
 10
2.8954386646
 20
2.4935753965
 11
2.8954386646
 21
2.2435753965
  0
LINE
  5
23E
100
AcDbEntity
  8
ALL_ASSEMBLY_MEMBERS
100
AcDbLine
 62
7
  6
CONTINUOUS
 10
3.3954386646
 20
2.2435753965
 11
2.8954386646
 21
2.2435753965
  0
LINE
  5
23F
100
AcDbEntity
  8
ALL_ASSEMBLY_MEMBERS
100
AcDbLine
 62
7
  6
CONTINUOUS
 10
3.3954386646
 20
2.4935753965
 11
2.8954386646
 21
2.4935753965
  0
LINE
  5
240
100
AcDbEntity
  8
ALL_ASSEMBLY_MEMBERS
100
AcDbLine
 62
7
  6
CONTINUOUS
 10
3.3954386646
 20
2.4935753965
 11
3.3954386646
 21
2.2435753965
  0
LINE
  5
241
100
AcDbEntity
  8
ALL_ASSEMBLY_MEMBERS
100
AcDbLine
 62
7
  6
CONTINUOUS
 10
7.1604386646
 20
2.7810753965
 11
7.2704386646
 21
2.7810753965
  0
LINE
  5
242
100
AcDbEntity
  8
ALL_ASSEMBLY_MEMBERS
100
AcDbLine
 62
7
  6
CONTINUOUS
 10
7.2779386646
 20
2.9685753965
 11
7.4704386646
 21
2.9685753965
  0
LINE
  5
243
100
AcDbEntity
  8
ALL_ASSEMBLY_MEMBERS
100
AcDbLine
 62
7
  6
CONTINUOUS
 10
7.1454386646
 20
2.9935753965
 11
3.8954386646
 21
2.9935753965
  0
LINE
  5
244
100
AcDbEntity
  8
ALL_ASSEMBLY_MEMBERS
100
AcDbLine
 62
7
  6
CONTINUOUS
 10
3.8954386646
 20
2.9935753965
 11
3.8954386646
 21
3.4935753965
  0
LWPOLYLINE
  5
245
100
AcDbEntity
  8
ALL_ASSEMBLY_MEMBERS
100
AcDbPolyline
 62
7
  6
CONTINUOUS
 90
7
 70
0
 10
5.6428681951
 20
6.3052363502
 10
5.6412003294
 20
6.3043789842
 10
5.6394937641
 20
6.3036935382
 10
5.6377893291
 20
6.3031822484
 10
5.6361127948
 20
6.302835204
 10
5.6344722116
 20
6.3026374169
 10
5.6329006891
 20
6.3025755795
  0
LINE
  5
246
100
AcDbEntity
  8
ALL_ASSEMBLY_MEMBERS
100
AcDbLine
 62
7
  6
CONTINUOUS
 10
7.1454386646
 20
3.4935753965
 11
3.8954386646
 21
3.4935753965
  0
LINE
  5
247
100
AcDbEntity
  8
ALL_ASSEMBLY_MEMBERS
100
AcDbLine
 62
7
  6
CONTINUOUS
 10
7.4704386646
 20
3.5185753965
 11
7.2779386646
 21
3.5185753965
  0
LINE
  5
248
100
AcDbEntity
  8
ALL_ASSEMBLY_MEMBERS
100
AcDbLine
 62
7
  6
CONTINUOUS
 10
7.1604386646
 20
3.7060753965
 11
7.2704386646
 21
3.7060753965
  0
LWPOLYLINE
  5
249
100
AcDbEntity
  8
ALL_ASSEMBLY_MEMBERS
100
AcDbPolyline
 62
7
  6
CONTINUOUS
 90
8
 70
0
 10
5.6517360982
 20
6.315851172
 10
5.6509774919
 20
6.3140186735
 10
5.6500799739
 20
6.3123352285
 10
5.6490030029
 20
6.3107134819
 10
5.6477683972
 20
6.3091984933
 10
5.6463861787
 20
6.3078060805
 10
5.6448681137
 20
6.3065512648
 10
5.6432546357
 20
6.3054643236
  0
LINE
  5
24A
100
AcDbEntity
  8
ALL_ASSEMBLY_MEMBERS
100
AcDbLine
 62
7
  6
CONTINUOUS
 10
5.6534605724
 20
6.3205043359
 11
5.6534279308
 21
6.3204258811
  0
LWPOLYLINE
  5
24B
100
AcDbEntity
  8
ALL_ASSEMBLY_MEMBERS
100
AcDbPolyline
 62
7
  6
CONTINUOUS
 90
8
 70
0
 10
5.6515954784
 20
6.315469094
 10
5.6508115833
 20
6.3136762627
 10
5.6498464814
 20
6.3119530241
 10
5.6487096027
 20
6.3103249753
 10
5.6474255844
 20
6.3088268758
 10
5.6460096705
 20
6.3074708011
 10
5.6444781055
 20
6.3062671966
 10
5.6428681951
 20
6.3052363502
  0
LINE
  5
24C
100
AcDbEntity
  8
ALL_ASSEMBLY_MEMBERS
100
AcDbLine
 62
7
  6
CONTINUOUS
 10
5.6517364583
 20
6.3158516725
 11
5.6517355318
 21
6.315849069
  0
LINE
  5
24D
100
AcDbEntity
  8
ALL_ASSEMBLY_MEMBERS
100
AcDbLine
 62
7
  6
CONTINUOUS
 10
5.5454386646
 20
6.2825753965
 11
5.5454386646
 21
6.2045753965
  0
LINE
  5
24E
100
AcDbEntity
  8
ALL_ASSEMBLY_MEMBERS
100
AcDbLine
 62
7
  6
CONTINUOUS
 10
5.5654386646
 20
6.1845753965
 11
5.5654386646
 21
6.3025753965
  0
LINE
  5
24F
100
AcDbEntity
  8
ALL_ASSEMBLY_MEMBERS
100
AcDbLine
 62
7
  6
CONTINUOUS
 10
6.0174386646
 20
6.1845753965
 11
6.0174386646
 21
6.3025753965
  0
LINE
  5
250
100
AcDbEntity
  8
ALL_ASSEMBLY_MEMBERS
100
AcDbLine
 62
7
  6
CONTINUOUS
 10
6.0374386646
 20
6.2045753965
 11
6.0374386646
 21
6.2825753965
  0
LINE
  5
251
100
AcDbEntity
  8
ALL_ASSEMBLY_MEMBERS
100
AcDbLine
 62
7
  6
CONTINUOUS
 10
6.0574386646
 20
6.2792562475
 11
6.0574386646
 21
6.2078945454
  0
LINE
  5
252
100
AcDbEntity
  8
ALL_ASSEMBLY_MEMBERS
100
AcDbLine
 62
7
  6
CONTINUOUS
 10
5.6534605724
 20
6.1666464571
 11
5.6535330237
 21
6.1664509449
  0
LWPOLYLINE
  5
253
100
AcDbEntity
  8
ALL_ASSEMBLY_MEMBERS
100
AcDbPolyline
 62
7
  6
CONTINUOUS
 90
3
 70
0
 10
5.6517351909
 20
6.1713021548
 10
5.6534279308
 20
6.1667249118
 10
5.6583058777
 20
6.1550232273
  0
LINE
  5
254
100
AcDbEntity
  8
ALL_ASSEMBLY_MEMBERS
100
AcDbLine
 62
7
  6
CONTINUOUS
 10
5.6517353566
 20
6.1713017048
 11
5.6517361841
 21
6.1712993804
  0
LINE
  5
255
100
AcDbEntity
  8
ALL_ASSEMBLY_MEMBERS
100
AcDbLine
 62
7
  6
CONTINUOUS
 10
7.2704386646
 20
5.7810753965
 11
7.1554386646
 21
5.7810753965
  0
LINE
  5
256
100
AcDbEntity
  8
ALL_ASSEMBLY_MEMBERS
100
AcDbLine
 62
7
  6
CONTINUOUS
 10
5.669249775
 20
6.1339855924
 11
5.6756278516
 21
6.1238724625
  0
LINE
  5
257
100
AcDbEntity
  8
ALL_ASSEMBLY_MEMBERS
100
AcDbLine
 62
7
  6
CONTINUOUS
 10
5.6634795654
 20
6.1443680542
 11
5.6694048157
 21
6.1337244937
  0
LINE
  5
258
100
AcDbEntity
  8
ALL_ASSEMBLY_MEMBERS
100
AcDbLine
 62
7
  6
CONTINUOUS
 10
5.6581832279
 20
6.1552954657
 11
5.6636189198
 21
6.1441006856
  0
LINE
  5
259
100
AcDbEntity
  8
ALL_ASSEMBLY_MEMBERS
100
AcDbLine
 62
7
  6
CONTINUOUS
 10
5.6966311062
 20
6.0973227161
 11
5.7047135004
 21
6.0890691837
  0
LINE
  5
25A
100
AcDbEntity
  8
ALL_ASSEMBLY_MEMBERS
100
AcDbLine
 62
7
  6
CONTINUOUS
 10
5.6891799744
 20
6.1057853138
 11
5.6968362758
 21
6.0971020627
  0
LINE
  5
25B
100
AcDbEntity
  8
ALL_ASSEMBLY_MEMBERS
100
AcDbLine
 62
7
  6
CONTINUOUS
 10
5.6821130109
 20
6.1147211497
 11
5.689374119
 21
6.1055532717
  0
LINE
  5
25C
100
AcDbEntity
  8
ALL_ASSEMBLY_MEMBERS
100
AcDbLine
 62
7
  6
CONTINUOUS
 10
5.6754588466
 20
6.1241251358
 11
5.6822948411
 21
6.1144785145
  0
LINE
  5
25D
100
AcDbEntity
  8
ALL_ASSEMBLY_MEMBERS
100
AcDbLine
 62
7
  6
CONTINUOUS
 10
7.1454386646
 20
6.0285753965
 11
6.9574386646
 21
6.0285753965
  0
LINE
  5
25E
100
AcDbEntity
  8
ALL_ASSEMBLY_MEMBERS
100
AcDbLine
 62
7
  6
CONTINUOUS
 10
5.8541998818
 20
6.0285753968
 11
6.9324386646
 21
6.0285753965
  0
LINE
  5
25F
100
AcDbEntity
  8
ALL_ASSEMBLY_MEMBERS
100
AcDbLine
 62
7
  6
CONTINUOUS
 10
6.9544386646
 20
6.0735753965
 11
6.9574386646
 21
6.0735753965
  0
LINE
  5
260
100
AcDbEntity
  8
ALL_ASSEMBLY_MEMBERS
100
AcDbLine
 62
7
  6
CONTINUOUS
 10
5.6618004188
 20
6.1645753965
 11
6.0183613147
 21
6.1645753965
  0
LINE
  5
261
100
AcDbEntity
  8
ALL_ASSEMBLY_MEMBERS
100
AcDbLine
 62
7
  6
CONTINUOUS
 10
5.5654386646
 20
6.1845753965
 11
6.0174386646
 21
6.1845753965
  0
LINE
  5
262
100
AcDbEntity
  8
ALL_ASSEMBLY_MEMBERS
100
AcDbLine
 62
7
  6
CONTINUOUS
 10
5.5454386646
 20
6.2045753965
 11
6.0374386646
 21
6.2045753965
  0
LWPOLYLINE
  5
263
100
AcDbEntity
  8
ALL_ASSEMBLY_MEMBERS
100
AcDbPolyline
 62
7
  6
CONTINUOUS
 90
7
 70
0
 10
5.6334206641
 20
6.1845547531
 10
5.6344722111
 20
6.1845133761
 10
5.6361127941
 20
6.184315589
 10
5.6377893283
 20
6.1839685447
 10
5.6394937632
 20
6.183457255
 10
5.6412003282
 20
6.1827718092
 10
5.6428681939
 20
6.1819144434
  0
LWPOLYLINE
  5
264
100
AcDbEntity
  8
ALL_ASSEMBLY_MEMBERS
100
AcDbPolyline
 62
7
  6
CONTINUOUS
 90
14
 70
0
 10
5.6329609589
 20
6.1845752891
 10
5.6346233485
 20
6.1845010266
 10
5.6363287172
 20
6.1842793519
 10
5.6380625877
 20
6.1838976888
 10
5.6398179773
 20
6.1833409563
 10
5.6415649675
 20
6.182601054
 10
5.6432546358
 20
6.1816864692
 10
5.6448681138
 20
6.180599528
 10
5.6463861788
 20
6.1793447123
 10
5.6477683972
 20
6.1779522996
 10
5.649003003
 20
6.176437311
 10
5.6500799739
 20
6.1748155644
 10
5.6509774919
 20
6.1731321195
 10
5.6517360982
 20
6.171299621
  0
LINE
  5
265
100
AcDbEntity
  8
ALL_ASSEMBLY_MEMBERS
100
AcDbLine
 62
7
  6
CONTINUOUS
 10
6.9539169621
 20
6.0736129279
 11
6.9544386646
 21
6.0735753965
  0
LINE
  5
266
100
AcDbEntity
  8
ALL_ASSEMBLY_MEMBERS
100
AcDbLine
 62
7
  6
CONTINUOUS
 10
6.953919621
 20
6.0736127722
 11
6.9544386646
 21
6.0735753965
  0
LWPOLYLINE
  5
267
100
AcDbEntity
  8
ALL_ASSEMBLY_MEMBERS
100
AcDbPolyline
 62
7
  6
CONTINUOUS
 90
7
 70
0
 10
5.7712591684
 20
6.0452269038
 10
5.7825071138
 20
6.0408875145
 10
5.7942249683
 20
6.0371154833
 10
5.8064950523
 20
6.0339398438
 10
5.8192043619
 20
6.0314457356
 10
5.8320878617
 20
6.0297166285
 10
5.8451222317
 20
6.0287676647
  0
LWPOLYLINE
  5
268
100
AcDbEntity
  8
ALL_ASSEMBLY_MEMBERS
100
AcDbPolyline
 62
7
  6
CONTINUOUS
 90
8
 70
0
 10
5.7709722981
 20
6.0453473126
 10
5.7822067307
 20
6.0409941974
 10
5.7939111509
 20
6.0372067822
 10
5.8061660386
 20
6.0340148929
 10
5.8188608078
 20
6.031502944
 10
5.8317382335
 20
6.0297531014
 10
5.8447795348
 20
6.0287822558
 10
5.8542042159
 20
6.0285753872
  0
LINE
  5
269
100
AcDbEntity
  8
ALL_ASSEMBLY_MEMBERS
100
AcDbLine
 62
7
  6
CONTINUOUS
 10
5.7601731069
 20
6.0502366498
 11
5.7712591684
 21
6.0452269038
  0
LINE
  5
26A
100
AcDbEntity
  8
ALL_ASSEMBLY_MEMBERS
100
AcDbLine
 62
7
  6
CONTINUOUS
 10
5.7498324235
 20
6.0556174005
 11
5.7604476722
 21
6.050103569
  0
LINE
  5
26B
100
AcDbEntity
  8
ALL_ASSEMBLY_MEMBERS
100
AcDbLine
 62
7
  6
CONTINUOUS
 10
5.7399529527
 20
6.0614553155
 11
5.7500957347
 21
6.0554714765
  0
LINE
  5
26C
100
AcDbEntity
  8
ALL_ASSEMBLY_MEMBERS
100
AcDbLine
 62
7
  6
CONTINUOUS
 10
5.7304729473
 20
6.067760323
 11
5.7402058961
 21
6.06129662
  0
LINE
  5
26D
100
AcDbEntity
  8
ALL_ASSEMBLY_MEMBERS
100
AcDbLine
 62
7
  6
CONTINUOUS
 10
5.7214034659
 20
6.0745064136
 11
5.73071636
 21
6.0675891939
  0
LINE
  5
26E
100
AcDbEntity
  8
ALL_ASSEMBLY_MEMBERS
100
AcDbLine
 62
7
  6
CONTINUOUS
 10
5.7127615546
 20
6.0816674624
 11
5.7216377203
 21
6.0743228967
  0
LINE
  5
26F
100
AcDbEntity
  8
ALL_ASSEMBLY_MEMBERS
100
AcDbLine
 62
7
  6
CONTINUOUS
 10
5.7044984809
 20
6.0892777992
 11
5.7129863788
 21
6.0814712883
  0
LINE
  5
270
100
AcDbEntity
  8
ALL_ASSEMBLY_MEMBERS
100
AcDbLine
 62
7
  6
CONTINUOUS
 10
6.9324386646
 20
6.0285753965
 11
6.9324386646
 21
6.4585753965
  0
LINE
  5
271
100
AcDbEntity
  8
ALL_ASSEMBLY_MEMBERS
100
AcDbLine
 62
7
  6
CONTINUOUS
 10
6.9574386646
 20
6.0285753965
 11
6.9574386646
 21
6.4585753965
  0
LINE
  5
272
100
AcDbEntity
  8
ALL_ASSEMBLY_MEMBERS
100
AcDbLine
 62
7
  6
CONTINUOUS
 10
6.9544386646
 20
6.4135753965
 11
6.9539458638
 21
6.4135398714
  0
LINE
  5
273
100
AcDbEntity
  8
ALL_ASSEMBLY_MEMBERS
100
AcDbLine
 62
7
  6
CONTINUOUS
 10
5.5454386646
 20
6.2825753965
 11
6.0374386646
 21
6.2825753965
  0
LINE
  5
274
100
AcDbEntity
  8
ALL_ASSEMBLY_MEMBERS
100
AcDbLine
 62
7
  6
CONTINUOUS
 10
6.0174386646
 20
6.3025753965
 11
5.5654386646
 21
6.3025753965
  0
LINE
  5
275
100
AcDbEntity
  8
ALL_ASSEMBLY_MEMBERS
100
AcDbLine
 62
7
  6
CONTINUOUS
 10
6.0183611837
 20
6.3225753965
 11
5.6618002752
 21
6.3225753965
  0
LINE
  5
276
100
AcDbEntity
  8
ALL_ASSEMBLY_MEMBERS
100
AcDbLine
 62
7
  6
CONTINUOUS
 10
6.9544386646
 20
6.4135753965
 11
6.9574386646
 21
6.4135753965
  0
LINE
  5
277
100
AcDbEntity
  8
ALL_ASSEMBLY_MEMBERS
100
AcDbLine
 62
7
  6
CONTINUOUS
 10
7.1454386646
 20
3.6910753965
 11
7.1454386646
 21
2.7960753965
  0
LINE
  5
278
100
AcDbEntity
  8
ALL_ASSEMBLY_MEMBERS
100
AcDbLine
 62
7
  6
CONTINUOUS
 10
7.1454386646
 20
5.7910790813
 11
7.1454386646
 21
6.6960717116
  0
LINE
  5
279
100
AcDbEntity
  8
ALL_ASSEMBLY_MEMBERS
100
AcDbLine
 62
7
  6
CONTINUOUS
 10
7.1554386646
 20
5.7810753965
 11
7.1554386646
 21
6.7060753965
  0
LINE
  5
27A
100
AcDbEntity
  8
ALL_ASSEMBLY_MEMBERS
100
AcDbLine
 62
7
  6
CONTINUOUS
 10
7.1604386646
 20
2.7810753965
 11
7.1604386646
 21
3.7060753965
  0
LINE
  5
27B
100
AcDbEntity
  8
ALL_ASSEMBLY_MEMBERS
100
AcDbLine
 62
7
  6
CONTINUOUS
 10
7.2704386646
 20
6.7060753939
 11
7.2704386646
 21
5.7810753991
  0
LINE
  5
27C
100
AcDbEntity
  8
ALL_ASSEMBLY_MEMBERS
100
AcDbLine
 62
7
  6
CONTINUOUS
 10
7.2704386646
 20
2.7810760996
 11
7.2704386646
 21
3.7060746933
  0
LINE
  5
27D
100
AcDbEntity
  8
ALL_ASSEMBLY_MEMBERS
100
AcDbLine
 62
7
  6
CONTINUOUS
 10
7.2779386646
 20
6.6645753965
 11
7.2779386646
 21
5.8225753965
  0
LINE
  5
27E
100
AcDbEntity
  8
ALL_ASSEMBLY_MEMBERS
100
AcDbLine
 62
7
  6
CONTINUOUS
 10
7.2779386646
 20
2.8538253965
 11
7.2779386646
 21
3.6333253965
  0
LWPOLYLINE
  5
27F
100
AcDbEntity
  8
ALL_ASSEMBLY_MEMBERS
100
AcDbPolyline
 62
7
  6
CONTINUOUS
 90
24
 70
0
 10
5.8542477815
 20
6.4585754052
 10
5.8451222317
 20
6.4583831282
 10
5.8320878617
 20
6.4574341644
 10
5.8192043619
 20
6.4557050573
 10
5.8064950523
 20
6.4532109491
 10
5.7942249683
 20
6.4500353096
 10
5.7825071138
 20
6.4462632784
 10
5.7712591684
 20
6.4419238891
 10
5.7604476722
 20
6.4370472239
 10
5.7500957347
 20
6.4316793164
 10
5.7402058961
 20
6.425854173
 10
5.73071636
 20
6.419561599
 10
5.7216377203
 20
6.4128278962
 10
5.7129863788
 20
6.4056795046
 10
5.7047135004
 20
6.3980816093
 10
5.6968362758
 20
6.3900487303
 10
5.689374119
 20
6.3815975213
 10
5.6822948411
 20
6.3726722784
 10
5.6756278516
 20
6.3632783305
 10
5.6694048157
 20
6.3534262992
 10
5.6636189198
 20
6.3430501074
 10
5.6583058777
 20
6.3321275656
 10
5.6535330237
 20
6.3206998481
 10
5.6515954784
 20
6.315469094
  0
LINE
  5
280
100
AcDbEntity
  8
ALL_ASSEMBLY_MEMBERS
100
AcDbLine
 62
7
  6
CONTINUOUS
 10
7.1454386646
 20
6.4585753965
 11
6.9574386646
 21
6.4585753965
  0
LINE
  5
281
100
AcDbEntity
  8
ALL_ASSEMBLY_MEMBERS
100
AcDbLine
 62
7
  6
CONTINUOUS
 10
6.9324386646
 20
6.4585753965
 11
5.8542233066
 21
6.4585753965
  0
LINE
  5
282
100
AcDbEntity
  8
ALL_ASSEMBLY_MEMBERS
100
AcDbLine
 62
7
  6
CONTINUOUS
 10
7.4704386646
 20
3.5185753965
 11
7.4704386646
 21
2.9685753965
  0
LINE
  5
283
100
AcDbEntity
  8
ALL_ASSEMBLY_MEMBERS
100
AcDbLine
 62
7
  6
CONTINUOUS
 10
7.2704386646
 20
6.7060753965
 11
7.1554386646
 21
6.7060753965
  0
ARC
  5
284
100
AcDbEntity
  8
ALL_ASSEMBLY_MEMBERS
100
AcDbCircle
 62
7
  6
CONTINUOUS
 10
3.8954386646
 20
2.4935753965
 40
1.0
100
AcDbArc
 50
90.0
 51
180.0
  0
ARC
  5
285
100
AcDbEntity
  8
ALL_ASSEMBLY_MEMBERS
100
AcDbCircle
 62
7
  6
CONTINUOUS
 10
3.8954386646
 20
2.4935753965
 40
0.5
100
AcDbArc
 50
90.0
 51
180.0
  0
ARC
  5
286
100
AcDbEntity
  8
ALL_ASSEMBLY_MEMBERS
100
AcDbCircle
 62
7
  6
CONTINUOUS
 10
5.5654386646
 20
6.2825753965
 40
0.02
100
AcDbArc
 50
90.0
 51
180.0
  0
ARC
  5
287
100
AcDbEntity
  8
ALL_ASSEMBLY_MEMBERS
100
AcDbCircle
 62
7
  6
CONTINUOUS
 10
5.5654386646
 20
6.2045753965
 40
0.02
100
AcDbArc
 50
180.0
 51
270.0
  0
ARC
  5
288
100
AcDbEntity
  8
ALL_ASSEMBLY_MEMBERS
100
AcDbCircle
 62
7
  6
CONTINUOUS
 10
7.2604386646
 20
2.8538253965
 40
0.0175
100
AcDbArc
 50
304.8936448974
 51
360.0
  0
ARC
  5
289
100
AcDbEntity
  8
ALL_ASSEMBLY_MEMBERS
100
AcDbCircle
 62
7
  6
CONTINUOUS
 10
7.2604386646
 20
3.6333253965
 40
0.0175
100
AcDbArc
 50
0.0
 51
55.1063551026
  0
ARC
  5
28A
100
AcDbEntity
  8
ALL_ASSEMBLY_MEMBERS
100
AcDbCircle
 62
7
  6
CONTINUOUS
 10
7.1604386646
 20
3.6910753965
 40
0.015
100
AcDbArc
 50
90.0
 51
180.0
  0
ARC
  5
28B
100
AcDbEntity
  8
ALL_ASSEMBLY_MEMBERS
100
AcDbCircle
 62
7
  6
CONTINUOUS
 10
7.1604386646
 20
2.7960753965
 40
0.015
100
AcDbArc
 50
180.0
 51
270.0
  0
ARC
  5
28C
100
AcDbEntity
  8
ALL_ASSEMBLY_MEMBERS
100
AcDbCircle
 62
7
  6
CONTINUOUS
 10
5.840080816
 20
6.2435784366
 40
0.1949984607
100
AcDbArc
 50
23.8983815834
 51
156.1016390145
  0
ARC
  5
28D
100
AcDbEntity
  8
ALL_ASSEMBLY_MEMBERS
100
AcDbCircle
 62
7
  6
CONTINUOUS
 10
5.8400807567
 20
6.2435723357
 40
0.194998451
100
AcDbArc
 50
203.8983795869
 51
336.1016466124
  0
ARC
  5
28E
100
AcDbEntity
  8
ALL_ASSEMBLY_MEMBERS
100
AcDbCircle
 62
7
  6
CONTINUOUS
 10
6.9417352597
 20
6.5866781318
 40
0.173568419
100
AcDbArc
 50
273.3166077932
 51
273.5403104193
  0
ARC
  5
28F
100
AcDbEntity
  8
ALL_ASSEMBLY_MEMBERS
100
AcDbCircle
 62
7
  6
CONTINUOUS
 10
6.9419079025
 20
6.5837085217
 40
0.1705937948
100
AcDbArc
 50
272.7615684281
 51
273.3164225343
  0
ARC
  5
290
100
AcDbEntity
  8
ALL_ASSEMBLY_MEMBERS
100
AcDbCircle
 62
7
  6
CONTINUOUS
 10
6.941931557
 20
5.9036423529
 40
0.1703926557
100
AcDbArc
 50
85.9655925806
 51
86.4646651289
  0
ARC
  5
291
100
AcDbEntity
  8
ALL_ASSEMBLY_MEMBERS
100
AcDbCircle
 62
7
  6
CONTINUOUS
 10
6.9419394457
 20
5.904172671
 40
0.1698628621
100
AcDbArc
 50
86.4562905295
 51
93.2105659214
  0
ARC
  5
292
100
AcDbEntity
  8
ALL_ASSEMBLY_MEMBERS
100
AcDbCircle
 62
7
  6
CONTINUOUS
 10
6.9419378952
 20
6.5829227536
 40
0.1698074943
100
AcDbArc
 50
266.788878864
 51
272.7642341267
  0
ARC
  5
293
100
AcDbEntity
  8
ALL_ASSEMBLY_MEMBERS
100
AcDbCircle
 62
7
  6
CONTINUOUS
 10
6.9419951182
 20
6.5825548654
 40
0.169436975
100
AcDbArc
 50
273.5387049605
 51
274.0445498275
  0
ARC
  5
294
100
AcDbEntity
  8
ALL_ASSEMBLY_MEMBERS
100
AcDbCircle
 62
7
  6
CONTINUOUS
 10
6.0174386646
 20
6.2045753965
 40
0.02
100
AcDbArc
 50
270.0
 51
360.0
  0
ARC
  5
295
100
AcDbEntity
  8
ALL_ASSEMBLY_MEMBERS
100
AcDbCircle
 62
7
  6
CONTINUOUS
 10
6.0174386646
 20
6.2825753965
 40
0.02
100
AcDbArc
 50
0.0
 51
90.0
  0
ARC
  5
296
100
AcDbEntity
  8
ALL_ASSEMBLY_MEMBERS
100
AcDbCircle
 62
7
  6
CONTINUOUS
 10
7.2604386646
 20
6.6645753965
 40
0.0175
100
AcDbArc
 50
0.0
 51
55.1063551026
  0
ARC
  5
297
100
AcDbEntity
  8
ALL_ASSEMBLY_MEMBERS
100
AcDbCircle
 62
7
  6
CONTINUOUS
 10
7.2604386646
 20
5.8225753965
 40
0.0175
100
AcDbArc
 50
304.8936448974
 51
360.0
  0
ARC
  5
298
100
AcDbEntity
  8
ALL_ASSEMBLY_MEMBERS
100
AcDbCircle
 62
7
  6
CONTINUOUS
 10
6.9419386646
 20
6.2435753965
 40
0.0125
100
AcDbArc
 50
220.4438584186
 51
139.5537424743
  0
ARC
  5
299
100
AcDbEntity
  8
ALL_ASSEMBLY_MEMBERS
100
AcDbCircle
 62
7
  6
CONTINUOUS
 10
7.1554386646
 20
6.6960753965
 40
0.01
100
AcDbArc
 50
90.0
 51
180.0
  0
ARC
  5
29A
100
AcDbEntity
  8
ALL_ASSEMBLY_MEMBERS
100
AcDbCircle
 62
7
  6
CONTINUOUS
 10
7.1554386646
 20
5.7910753965
 40
0.01
100
AcDbArc
 50
180.0
 51
270.0
  0
SPLINE
  5
29B
100
AcDbEntity
  8
ALL_ASSEMBLY_MEMBERS
100
AcDbSpline
 62
7
  6
CONTINUOUS
 70
0
 71
3
 72
22
 73
18
 74
0
 42
0.0000001
 43
0.0000001
 44
0.0000000001
 40
0.0
 40
0.0
 40
0.0
 40
0.0
 40
0.0079150667
 40
0.0164830204
 40
0.0262003449
 40
0.0374008693
 40
0.0649787966
 40
0.1001340329
 40
0.1430204578
 40
0.1934861719
 40
0.2512602923
 40
0.315888391
 40
0.3867838407
 40
0.46333679
 40
0.6306772186
 40
0.8120056821
 40
1.0
 40
1.0
 40
1.0
 40
1.0
 10
6.0374386646
 20
6.2825753965
 30
0.0
 10
6.0374386646
 20
6.2825206765
 30
0.0
 10
6.0374565653
 20
6.2824061597
 30
0.0
 10
6.0375335725
 20
6.2822402595
 30
0.0
 10
6.0376581423
 20
6.2820773491
 30
0.0
 10
6.0379036475
 20
6.2818474123
 30
0.0
 10
6.0383394752
 20
6.2815733177
 30
0.0
 10
6.039006427
 20
6.2812737971
 30
0.0
 10
6.0398477462
 20
6.2809851985
 30
0.0
 10
6.0408562168
 20
6.2807103385
 30
0.0
 10
6.0420235802
 20
6.2804525442
 30
0.0
 10
6.0433387616
 20
6.2802142676
 30
0.0
 10
6.044789054
 20
6.2799977045
 30
0.0
 10
6.0469494407
 20
6.2797336619
 30
0.0
 10
6.0498791713
 20
6.2794799889
 30
0.0
 10
6.0535854992
 20
6.2792975114
 30
0.0
 10
6.0561389857
 20
6.2792562475
 30
0.0
 10
6.0574386646
 20
6.2792562475
 30
0.0
  0
SPLINE
  5
29C
100
AcDbEntity
  8
ALL_ASSEMBLY_MEMBERS
100
AcDbSpline
 62
7
  6
CONTINUOUS
 70
0
 71
3
 72
14
 73
10
 74
0
 42
0.0000001
 43
0.0000001
 44
0.0000000001
 40
0.0
 40
0.0
 40
0.0
 40
0.0
 40
0.2503406805
 40
0.3751807426
 40
0.4998268735
 40
0.6244928024
 40
0.7493170557
 40
0.8744808284
 40
1.0
 40
1.0
 40
1.0
 40
1.0
 10
6.0397988749
 20
6.3096039945
 30
0.0
 10
6.0423999512
 20
6.3079976961
 30
0.0
 10
6.0460441266
 20
6.3051304419
 30
0.0
 10
6.0500920492
 20
6.3005473989
 30
0.0
 10
6.0526770555
 20
6.2967642419
 30
0.0
 10
6.0547581884
 20
6.2926827994
 30
0.0
 10
6.0562888434
 20
6.288356663
 30
0.0
 10
6.0572273504
 20
6.2838544573
 30
0.0
 10
6.0574387216
 20
6.2807890518
 30
0.0
 10
6.0574386646
 20
6.2792562475
 30
0.0
  0
SPLINE
  5
29D
100
AcDbEntity
  8
ALL_ASSEMBLY_MEMBERS
100
AcDbSpline
 62
7
  6
CONTINUOUS
 70
0
 71
3
 72
20
 73
16
 74
0
 42
0.0000001
 43
0.0000001
 44
0.0000000001
 40
0.0
 40
0.0
 40
0.0
 40
0.0
 40
0.0192785729
 40
0.042085921
 40
0.0705488728
 40
0.1057052271
 40
0.1479412174
 40
0.1971007866
 40
0.2529101014
 40
0.3150865577
 40
0.383364668
 40
0.4574759565
 40
0.6218178712
 40
0.8045323353
 40
1.0
 40
1.0
 40
1.0
 40
1.0
 10
6.028469862
 20
6.1878927937
 30
0.0
 10
6.0285545929
 20
6.1879488078
 30
0.0
 10
6.0287715517
 20
6.188024778
 30
0.0
 10
6.029147992
 20
6.1880080521
 30
0.0
 10
6.0295889024
 20
6.1878857311
 30
0.0
 10
6.0301005648
 20
6.187660772
 30
0.0
 10
6.0306835083
 20
6.1873356404
 30
0.0
 10
6.0313306984
 20
6.1869070926
 30
0.0
 10
6.0320324327
 20
6.1863741518
 30
0.0
 10
6.0327783998
 20
6.1857356828
 30
0.0
 10
6.0335588665
 20
6.1849918004
 30
0.0
 10
6.034683715
 20
6.1838310457
 30
0.0
 10
6.0361551044
 20
6.1821688975
 30
0.0
 10
6.0379814401
 20
6.1799696591
 30
0.0
 10
6.0391959421
 20
6.1783891409
 30
0.0
 10
6.0398054234
 20
6.1775590031
 30
0.0
  0
SPLINE
  5
29E
100
AcDbEntity
  8
ALL_ASSEMBLY_MEMBERS
100
AcDbSpline
 62
7
  6
CONTINUOUS
 70
0
 71
3
 72
14
 73
10
 74
0
 42
0.0000001
 43
0.0000001
 44
0.0000000001
 40
0.0
 40
0.0
 40
0.0
 40
0.0
 40
0.2572902629
 40
0.3849590649
 40
0.5115934386
 40
0.6368246184
 40
0.7603437021
 40
0.881669625
 40
1.0
 40
1.0
 40
1.0
 40
1.0
 10
6.0398054234
 20
6.1775590031
 30
0.0
 10
6.0388668585
 20
6.1764846548
 30
0.0
 10
6.0373762203
 20
6.1749491536
 30
0.0
 10
6.0352354328
 20
6.1730864669
 30
0.0
 10
6.0335686215
 20
6.1717996589
 30
0.0
 10
6.0318433154
 20
6.1706327898
 30
0.0
 10
6.0300669614
 20
6.1696021545
 30
0.0
 10
6.0282563992
 20
6.1687172417
 30
0.0
 10
6.02702399
 20
6.1682170096
 30
0.0
 10
6.0264076705
 20
6.1679920316
 30
0.0
  0
SPLINE
  5
29F
100
AcDbEntity
  8
ALL_ASSEMBLY_MEMBERS
100
AcDbSpline
 62
7
  6
CONTINUOUS
 70
0
 71
3
 72
17
 73
13
 74
0
 42
0.0000001
 43
0.0000001
 44
0.0000000001
 40
0.0
 40
0.0
 40
0.0
 40
0.0
 40
0.1678778611
 40
0.3283081144
 40
0.4769994758
 40
0.6112695522
 40
0.7294826135
 40
0.7825637424
 40
0.831783763
 40
0.9200249619
 40
0.9606347608
 40
1.0
 40
1.0
 40
1.0
 40
1.0
 10
6.0264076705
 20
6.1679920316
 30
0.0
 10
6.0263186371
 20
6.1691203605
 30
0.0
 10
6.0260551055
 20
6.1713210724
 30
0.0
 10
6.0254015195
 20
6.1744742207
 30
0.0
 10
6.0245078039
 20
6.177332935
 30
0.0
 10
6.0234064434
 20
6.1798106227
 30
0.0
 10
6.0222999705
 20
6.1815613819
 30
0.0
 10
6.0213256275
 20
6.1826884632
 30
0.0
 10
6.0203802948
 20
6.1835602023
 30
0.0
 10
6.019337727
 20
6.1841999415
 30
0.0
 10
6.0182446184
 20
6.184521828
 30
0.0
 10
6.0177040659
 20
6.1845753873
 30
0.0
 10
6.0174386646
 20
6.1845753851
 30
0.0
  0
SPLINE
  5
2A0
100
AcDbEntity
  8
ALL_ASSEMBLY_MEMBERS
100
AcDbSpline
 62
7
  6
CONTINUOUS
 70
0
 71
3
 72
9
 73
5
 74
0
 42
0.0000001
 43
0.0000001
 44
0.0000000001
 40
0.0
 40
0.0
 40
0.0
 40
0.0
 40
0.2346690707
 40
1.0
 40
1.0
 40
1.0
 40
1.0
 10
6.0183613555
 20
6.1645753965
 30
0.0
 10
6.0189740267
 20
6.1648795293
 30
0.0
 10
6.021604213
 20
6.1661362483
 30
0.0
 10
6.0243094916
 20
6.1672343936
 30
0.0
 10
6.0264076526
 20
6.1679920249
 30
0.0
  0
SPLINE
  5
2A1
100
AcDbEntity
  8
ALL_ASSEMBLY_MEMBERS
100
AcDbSpline
 62
7
  6
CONTINUOUS
 70
0
 71
3
 72
17
 73
13
 74
0
 42
0.0000001
 43
0.0000001
 44
0.0000000001
 40
0.0
 40
0.0
 40
0.0
 40
0.0
 40
0.1448395821
 40
0.287205435
 40
0.4241815026
 40
0.5540299098
 40
0.6757128856
 40
0.7892895148
 40
0.8436009441
 40
0.8965989709
 40
0.9486129468
 40
1.0
 40
1.0
 40
1.0
 40
1.0
 10
6.0183613202
 20
6.1645753965
 30
0.0
 10
6.0183613181
 20
6.1658780619
 30
0.0
 10
6.0181816887
 20
6.1684646855
 30
0.0
 10
6.0173885212
 20
6.1722091319
 30
0.0
 10
6.0160944614
 20
6.17567034
 30
0.0
 10
6.014346287
 20
6.1787157901
 30
0.0
 10
6.0122086283
 20
6.181235091
 30
0.0
 10
6.0101227404
 20
6.1828361542
 30
0.0
 10
6.0083474312
 20
6.1837381758
 30
0.0
 10
6.0069928644
 20
6.1842185314
 30
0.0
 10
6.0056125612
 20
6.1845095722
 30
0.0
 10
6.004681352
 20
6.1845753965
 30
0.0
 10
6.0042191846
 20
6.1845753965
 30
0.0
  0
SPLINE
  5
2A2
100
AcDbEntity
  8
ALL_ASSEMBLY_MEMBERS
100
AcDbSpline
 62
7
  6
CONTINUOUS
 70
0
 71
3
 72
16
 73
12
 74
0
 42
0.0000001
 43
0.0000001
 44
0.0000000001
 40
0.0
 40
0.0
 40
0.0
 40
0.0
 40
0.0295189127
 40
0.0639337647
 40
0.1035148662
 40
0.1482458774
 40
0.252423092
 40
0.37443924
 40
0.5121805651
 40
0.6635544875
 40
1.0
 40
1.0
 40
1.0
 40
1.0
 10
5.6517362583
 20
6.1712993507
 30
0.0
 10
5.651776772
 20
6.1711859371
 30
0.0
 10
5.6518955612
 20
6.1709513754
 30
0.0
 10
5.6521444779
 20
6.1706090236
 30
0.0
 10
5.6524712528
 20
6.1702504269
 30
0.0
 10
5.6530336437
 20
6.1697251138
 30
0.0
 10
5.6539084278
 20
6.1690463746
 30
0.0
 10
5.6551410068
 20
6.1682176189
 30
0.0
 10
5.6565756452
 20
6.1673475585
 30
0.0
 10
5.6588001671
 20
6.1660959587
 30
0.0
 10
5.6605708317
 20
6.1651856015
 30
0.0
 10
5.6618003865
 20
6.1645753965
 30
0.0
  0
SPLINE
  5
2A3
100
AcDbEntity
  8
ALL_ASSEMBLY_MEMBERS
100
AcDbSpline
 62
7
  6
CONTINUOUS
 70
0
 71
3
 72
14
 73
10
 74
0
 42
0.0000001
 43
0.0000001
 44
0.0000000001
 40
0.0
 40
0.0
 40
0.0
 40
0.0
 40
0.1183285859
 40
0.2396547992
 40
0.3631733771
 40
0.4884061005
 40
0.6150413577
 40
0.742709638
 40
1.0
 40
1.0
 40
1.0
 40
1.0
 10
6.0264076799
 20
6.3191586268
 30
0.0
 10
6.0270245722
 20
6.3189333795
 30
0.0
 10
6.0282581583
 20
6.3184326253
 30
0.0
 10
6.0300704674
 20
6.3175468249
 30
0.0
 10
6.0318484452
 20
6.3165149732
 30
0.0
 10
6.0335752863
 20
6.315346723
 30
0.0
 10
6.0352434303
 20
6.3140582499
 30
0.0
 10
6.0373855157
 20
6.3121928123
 30
0.0
 10
6.0388768317
 20
6.3106550971
 30
0.0
 10
6.0398161091
 20
6.3095795216
 30
0.0
  0
SPLINE
  5
2A4
100
AcDbEntity
  8
ALL_ASSEMBLY_MEMBERS
100
AcDbSpline
 62
7
  6
CONTINUOUS
 70
0
 71
3
 72
19
 73
15
 74
0
 42
0.0000001
 43
0.0000001
 44
0.0000000001
 40
0.0
 40
0.0
 40
0.0
 40
0.0
 40
0.1950771265
 40
0.3774960765
 40
0.541683925
 40
0.6836275686
 40
0.7452070645
 40
0.8001943144
 40
0.8485343155
 40
0.8903508885
 40
0.9260077394
 40
0.9416488992
 40
0.9558840855
 40
1.0
 40
1.0
 40
1.0
 40
1.0
 10
6.0398161091
 20
6.3095795216
 30
0.0
 10
6.0392088136
 20
6.3087484256
 30
0.0
 10
6.037995957
 20
6.3071673759
 30
0.0
 10
6.0361628434
 20
6.3049734791
 30
0.0
 10
6.0344337226
 20
6.3030606694
 30
0.0
 10
6.0330664859
 20
6.3016824083
 30
0.0
 10
6.0320583315
 20
6.3007631327
 30
0.0
 10
6.0313885173
 20
6.3002070087
 30
0.0
 10
6.0307676025
 20
6.2997574279
 30
0.0
 10
6.030193781
 20
6.2994204783
 30
0.0
 10
6.0297374644
 20
6.2992330722
 30
0.0
 10
6.0294011879
 20
6.2991470245
 30
0.0
 10
6.0290182005
 20
6.2990886043
 30
0.0
 10
6.0286789809
 20
6.2991197374
 30
0.0
 10
6.0284847582
 20
6.2992480492
 30
0.0
  0
SPLINE
  5
2A5
100
AcDbEntity
  8
ALL_ASSEMBLY_MEMBERS
100
AcDbSpline
 62
7
  6
CONTINUOUS
 70
0
 71
3
 72
9
 73
5
 74
0
 42
0.0000001
 43
0.0000001
 44
0.0000000001
 40
0.0
 40
0.0
 40
0.0
 40
0.0
 40
0.2654325286
 40
1.0
 40
1.0
 40
1.0
 40
1.0
 10
6.0264076931
 20
6.3191586217
 30
0.0
 10
6.0256799904
 20
6.3194213972
 30
0.0
 10
6.0229521588
 20
6.3204487908
 30
0.0
 10
6.0202790758
 20
6.3216233626
 30
0.0
 10
6.0183612262
 20
6.3225753965
 30
0.0
  0
SPLINE
  5
2A6
100
AcDbEntity
  8
ALL_ASSEMBLY_MEMBERS
100
AcDbSpline
 62
7
  6
CONTINUOUS
 70
0
 71
3
 72
22
 73
18
 74
0
 42
0.0000001
 43
0.0000001
 44
0.0000000001
 40
0.0
 40
0.0
 40
0.0
 40
0.0
 40
0.0544803003
 40
0.1091467509
 40
0.1641839765
 40
0.2197793586
 40
0.2761279454
 40
0.3334202926
 40
0.3918588595
 40
0.4516464219
 40
0.5129835643
 40
0.576080784
 40
0.6411255581
 40
0.7083066965
 40
0.7777486589
 40
0.8495528185
 40
1.0
 40
1.0
 40
1.0
 40
1.0
 10
5.8542227532
 20
6.0285748708
 30
0.0
 10
5.8588575621
 20
6.0285747398
 30
0.0
 10
5.8681471531
 20
6.028940596
 30
0.0
 10
5.8820311885
 20
6.0305868771
 30
0.0
 10
5.8958372662
 20
6.0333365322
 30
0.0
 10
5.9095213764
 20
6.0372043729
 30
0.0
 10
5.9230397204
 20
6.0422013405
 30
0.0
 10
5.9363419013
 20
6.0483501999
 30
0.0
 10
5.9493725128
 20
6.055673353
 30
0.0
 10
5.9620700481
 20
6.0641950345
 30
0.0
 10
5.9743605644
 20
6.0739461737
 30
0.0
 10
5.9861633354
 20
6.0849502618
 30
0.0
 10
5.9973790587
 20
6.0972354952
 30
0.0
 10
6.0078963674
 20
6.1108136421
 30
0.0
 10
6.0175854756
 20
6.1256896574
 30
0.0
 10
6.0293804536
 20
6.1475446311
 30
0.0
 10
6.0362164982
 20
6.1653015501
 30
0.0
 10
6.0398122749
 20
6.177585078
 30
0.0
  0
SPLINE
  5
2A7
100
AcDbEntity
  8
ALL_ASSEMBLY_MEMBERS
100
AcDbSpline
 62
7
  6
CONTINUOUS
 70
0
 71
3
 72
17
 73
13
 74
0
 42
0.0000001
 43
0.0000001
 44
0.0000000001
 40
0.0
 40
0.0
 40
0.0
 40
0.0
 40
0.1678781104
 40
0.3283084886
 40
0.4769998833
 40
0.6112699192
 40
0.7294828708
 40
0.7825639386
 40
0.8317839107
 40
0.9200250676
 40
0.9606348358
 40
1.0
 40
1.0
 40
1.0
 40
1.0
 10
6.0264076931
 20
6.3191586217
 30
0.0
 10
6.0263186507
 20
6.3180303036
 30
0.0
 10
6.0260551049
 20
6.3158296141
 30
0.0
 10
6.0254015043
 20
6.3126765002
 30
0.0
 10
6.0245077775
 20
6.3098178209
 30
0.0
 10
6.023406411
 20
6.3073401675
 30
0.0
 10
6.0222999382
 20
6.3055894353
 30
0.0
 10
6.021325598
 20
6.3044623739
 30
0.0
 10
6.0203802692
 20
6.3035906516
 30
0.0
 10
6.0193377078
 20
6.302950928
 30
0.0
 10
6.0182446092
 20
6.3026290531
 30
0.0
 10
6.0177040626
 20
6.3025754981
 30
0.0
 10
6.0174386646
 20
6.3025755021
 30
0.0
  0
SPLINE
  5
2A8
100
AcDbEntity
  8
ALL_ASSEMBLY_MEMBERS
100
AcDbSpline
 62
7
  6
CONTINUOUS
 70
0
 71
3
 72
17
 73
13
 74
0
 42
0.0000001
 43
0.0000001
 44
0.0000000001
 40
0.0
 40
0.0
 40
0.0
 40
0.0
 40
0.1448395153
 40
0.2872052815
 40
0.4241812672
 40
0.5540296151
 40
0.6757125711
 40
0.7892892394
 40
0.8436007134
 40
0.8965988016
 40
0.9486128547
 40
1.0
 40
1.0
 40
1.0
 40
1.0
 10
5.661800411
 20
6.1645753965
 30
0.0
 10
5.661800411
 20
6.1658780618
 30
0.0
 10
5.6616207854
 20
6.1684646851
 30
0.0
 10
5.6608276218
 20
6.1722091316
 30
0.0
 10
5.6595335647
 20
6.17567034
 30
0.0
 10
5.657785391
 20
6.1787157903
 30
0.0
 10
5.6556477312
 20
6.1812350914
 30
0.0
 10
5.6535618413
 20
6.1828361544
 30
0.0
 10
5.6517865298
 20
6.1837381759
 30
0.0
 10
5.6504319606
 20
6.1842185314
 30
0.0
 10
5.6490516549
 20
6.1845095722
 30
0.0
 10
5.6481204438
 20
6.1845753965
 30
0.0
 10
5.6476582754
 20
6.1845753965
 30
0.0
  0
SPLINE
  5
2A9
100
AcDbEntity
  8
ALL_ASSEMBLY_MEMBERS
100
AcDbSpline
 62
7
  6
CONTINUOUS
 70
0
 71
3
 72
17
 73
13
 74
0
 42
0.0000001
 43
0.0000001
 44
0.0000000001
 40
0.0
 40
0.0
 40
0.0
 40
0.0
 40
0.1448395152
 40
0.2872052814
 40
0.4241812671
 40
0.554029615
 40
0.675712571
 40
0.7892892393
 40
0.8436007133
 40
0.8965988015
 40
0.9486128547
 40
1.0
 40
1.0
 40
1.0
 40
1.0
 10
6.0183611894
 20
6.3225753965
 30
0.0
 10
6.0183611894
 20
6.3212727312
 30
0.0
 10
6.0181815638
 20
6.3186861078
 30
0.0
 10
6.0173884002
 20
6.3149416613
 30
0.0
 10
6.0160943431
 20
6.311480453
 30
0.0
 10
6.0143461694
 20
6.3084350026
 30
0.0
 10
6.0122085096
 20
6.3059157016
 30
0.0
 10
6.0101226197
 20
6.3043146385
 30
0.0
 10
6.0083473082
 20
6.303412617
 30
0.0
 10
6.006992739
 20
6.3029322615
 30
0.0
 10
6.0056124333
 20
6.3026412207
 30
0.0
 10
6.0046812222
 20
6.3025753965
 30
0.0
 10
6.0042190538
 20
6.3025753965
 30
0.0
  0
SPLINE
  5
2AA
100
AcDbEntity
  8
ALL_ASSEMBLY_MEMBERS
100
AcDbSpline
 62
7
  6
CONTINUOUS
 70
0
 71
3
 72
16
 73
12
 74
0
 42
0.0000001
 43
0.0000001
 44
0.0000000001
 40
0.0
 40
0.0
 40
0.0
 40
0.0
 40
0.3364289885
 40
0.4878021146
 40
0.6255404272
 40
0.7475619024
 40
0.8517439214
 40
0.8964769936
 40
0.9360613909
 40
0.9704790603
 40
1.0
 40
1.0
 40
1.0
 40
1.0
 10
5.6618002253
 20
6.3225753965
 30
0.0
 10
5.6605707508
 20
6.3219653187
 30
0.0
 10
5.6588002461
 20
6.3210549948
 30
0.0
 10
5.6565759092
 20
6.3198034666
 30
0.0
 10
5.6551413683
 20
6.3189333774
 30
0.0
 10
5.6539088294
 20
6.3181046302
 30
0.0
 10
5.6530340401
 20
6.3174258971
 30
0.0
 10
5.6524716366
 20
6.3169005876
 30
0.0
 10
5.652144832
 20
6.3165420028
 30
0.0
 10
5.6518958734
 20
6.3161996643
 30
0.0
 10
5.6517770468
 20
6.3159651137
 30
0.0
 10
5.6517365119
 20
6.3158517045
 30
0.0
  0
SPLINE
  5
2AB
100
AcDbEntity
  8
ALL_ASSEMBLY_MEMBERS
100
AcDbSpline
 62
7
  6
CONTINUOUS
 70
0
 71
3
 72
17
 73
13
 74
0
 42
0.0000001
 43
0.0000001
 44
0.0000000001
 40
0.0
 40
0.0
 40
0.0
 40
0.0
 40
0.1448393673
 40
0.2872049524
 40
0.4241807482
 40
0.5540289474
 40
0.6757118507
 40
0.7892886001
 40
0.8436001727
 40
0.8965984003
 40
0.9486126343
 40
1.0
 40
1.0
 40
1.0
 40
1.0
 10
5.6618002802
 20
6.3225753965
 30
0.0
 10
5.6618002853
 20
6.3212727314
 30
0.0
 10
5.6616206685
 20
6.3186861081
 30
0.0
 10
5.6608275147
 20
6.314941661
 30
0.0
 10
5.6595334634
 20
6.311480452
 30
0.0
 10
5.6577852914
 20
6.3084350012
 30
0.0
 10
5.6556476289
 20
6.3059156999
 30
0.0
 10
5.653561734
 20
6.3043146377
 30
0.0
 10
5.6517864172
 20
6.3034126167
 30
0.0
 10
5.6504318428
 20
6.3029322613
 30
0.0
 10
5.6490515309
 20
6.3026412206
 30
0.0
 10
5.6481203154
 20
6.3025753965
 30
0.0
 10
5.6476581446
 20
6.3025753965
 30
0.0
  0
SPLINE
  5
2AC
100
AcDbEntity
  8
ALL_ASSEMBLY_MEMBERS
100
AcDbSpline
 62
7
  6
CONTINUOUS
 70
0
 71
3
 72
22
 73
18
 74
0
 42
0.0000001
 43
0.0000001
 44
0.0000000001
 40
0.0
 40
0.0
 40
0.0
 40
0.0
 40
0.1504408084
 40
0.2222429317
 40
0.2916833491
 40
0.3588633351
 40
0.423907578
 40
0.4870048884
 40
0.5483426506
 40
0.6081312449
 40
0.6665711522
 40
0.7238649857
 40
0.7802151617
 40
0.8358121238
 40
0.8908508272
 40
0.9455186135
 40
1.0
 40
1.0
 40
1.0
 40
1.0
 10
6.0397988749
 20
6.3096039945
 30
0.0
 10
6.0362043048
 20
6.3218840004
 30
0.0
 10
6.029367017
 20
6.3396348074
 30
0.0
 10
6.0175727744
 20
6.3614821267
 30
0.0
 10
6.0078848156
 20
6.3763531501
 30
0.0
 10
5.9973692507
 20
6.389926892
 30
0.0
 10
5.9861556573
 20
6.4022082865
 30
0.0
 10
5.9743553233
 20
6.4132091253
 30
0.0
 10
5.9620674875
 20
6.4229576036
 30
0.0
 10
5.949372825
 20
6.4314771979
 30
0.0
 10
5.9363452352
 20
6.438798809
 30
0.0
 10
5.9230461997
 20
6.4449466825
 30
0.0
 10
5.909531075
 20
6.4499431639
 30
0.0
 10
5.8958502415
 20
6.453811046
 30
0.0
 10
5.8820474618
 20
6.4565612527
 30
0.0
 10
5.8681667151
 20
6.458208558
 30
0.0
 10
5.8588792741
 20
6.4585754547
 30
0.0
 10
5.8542455234
 20
6.4585759232
 30
0.0
  0
SPLINE
  5
2AD
100
AcDbEntity
  8
ALL_ASSEMBLY_MEMBERS
100
AcDbSpline
 62
7
  6
CONTINUOUS
 70
0
 71
3
 72
22
 73
18
 74
0
 42
0.0000001
 43
0.0000001
 44
0.0000000001
 40
0.0
 40
0.0
 40
0.0
 40
0.0
 40
0.0079150587
 40
0.0164830056
 40
0.0262003249
 40
0.0374008452
 40
0.0649787674
 40
0.1001340014
 40
0.1430204261
 40
0.1934861412
 40
0.2512602634
 40
0.3158883648
 40
0.3867838179
 40
0.4633367706
 40
0.6306772061
 40
0.8120056754
 40
1.0
 40
1.0
 40
1.0
 40
1.0
 10
6.0374386646
 20
6.2045753965
 30
0.0
 10
6.0374386646
 20
6.2046301164
 30
0.0
 10
6.0374565653
 20
6.2047446331
 30
0.0
 10
6.0375335725
 20
6.2049105331
 30
0.0
 10
6.0376581424
 20
6.2050734433
 30
0.0
 10
6.0379036476
 20
6.20530338
 30
0.0
 10
6.0383394753
 20
6.2055774744
 30
0.0
 10
6.0390064271
 20
6.2058769948
 30
0.0
 10
6.0398477462
 20
6.2061655932
 30
0.0
 10
6.0408562168
 20
6.2064404531
 30
0.0
 10
6.0420235803
 20
6.2066982473
 30
0.0
 10
6.0433387617
 20
6.2069365239
 30
0.0
 10
6.0447890541
 20
6.207153087
 30
0.0
 10
6.0469494408
 20
6.2074171296
 30
0.0
 10
6.0498791714
 20
6.207670803
 30
0.0
 10
6.0535854993
 20
6.2078532809
 30
0.0
 10
6.0561389857
 20
6.2078945452
 30
0.0
 10
6.0574386646
 20
6.2078945454
 30
0.0
  0
SPLINE
  5
2AE
100
AcDbEntity
  8
ALL_ASSEMBLY_MEMBERS
100
AcDbSpline
 62
7
  6
CONTINUOUS
 70
0
 71
3
 72
14
 73
10
 74
0
 42
0.0000001
 43
0.0000001
 44
0.0000000001
 40
0.0
 40
0.0
 40
0.0
 40
0.0
 40
0.1255031802
 40
0.2506455267
 40
0.3754502618
 40
0.5001051725
 40
0.6247595293
 40
0.7496065013
 40
1.0
 40
1.0
 40
1.0
 40
1.0
 10
6.0574386646
 20
6.2078945454
 30
0.0
 10
6.0574386726
 20
6.2063633616
 30
0.0
 10
6.0572277873
 20
6.2033012841
 30
0.0
 10
6.0562916017
 20
6.1988037054
 30
0.0
 10
6.05476385
 20
6.1944816989
 30
0.0
 10
6.0526857584
 20
6.1904039097
 30
0.0
 10
6.0501086094
 20
6.1866208305
 30
0.0
 10
6.0460672281
 20
6.1820369703
 30
0.0
 10
6.0424119295
 20
6.1791894943
 30
0.0
 10
6.0398122749
 20
6.177585078
 30
0.0
  0
ENDSEC
  0
SECTION
  2
OBJECTS
  0
DICTIONARY
  5
C
100
AcDbDictionary
280
0
281
1
  3
ACAD_GROUP
350
D
  3
ACAD_MLINESTYLE
350
17
  3
ACAD_LAYOUT
350
1A
  3
ACAD_PLOTSETTINGS
350
19
  3
ACAD_PLOTSTYLENAME
350
E
  0
DICTIONARY
  5
D
102
{ACAD_REACTORS
330
C
102
}
100
AcDbDictionary
280
0
281
1
  0
ACDBDICTIONARYWDFLT
  5
E
102
{ACAD_REACTORS
330
C
102
}
100
AcDbDictionary
281
1
  3
Normal
350
F
100
AcDbDictionaryWithDefault
340
F
  0
DICTIONARY
  5
17
102
{ACAD_REACTORS
330
C
102
}
100
AcDbDictionary
280
0
281
1
  3
Standard
350
18
  0
DICTIONARY
  5
19
102
{ACAD_REACTORS
330
C
102
}
100
AcDbDictionary
281
1
  0
DICTIONARY
  5
1A
102
{ACAD_REACTORS
330
C
102
}
100
AcDbDictionary
281
1
  3
Model
350
2AF
  3
Layout1
350
2B0
  0
ACDBPLACEHOLDER
  5
F
102
{ACAD_REACTORS
330
E
102
}
  0
MLINESTYLE
  5
18
102
{ACAD_REACTORS
330
17
102
}
100
AcDbMlineStyle
  2
STANDARD
 70
0
  3

 62
256
 51
90.0
 52
90.0
 71
2
 49
0.5
 62
256
  6
BYLAYER
 49
-0.5
 62
256
  6
BYLAYER
  0
LAYOUT
  5
2AF
102
{ACAD_REACTORS
330
1A
102
}
100
AcDbPlotSettings
  1

  2
none_device
  4
ANSI_A_(11.00_x_8.50_Inches)
  6

 40
0.0
 41
0.0
 42
0.0
 43
0.0
 44
279.4
 45
215.9
 46
0.0
 47
0.0
 48
0.0
 49
0.0
140
0.0
141
0.0
142
1.0
143
1.0
 70
1024
 72
0
 73
0
 74
0
  7

 75
0
147
1.0
148
0.0
149
0.0
100
AcDbLayout
  1
Model
 70
0
 71
0
 10
0.0
 20
0.0
 11
11.0
 21
8.5
 12
0.0
 22
0.0
 32
0.0
 14
0.0
 24
0.0
 34
0.0
 15
0.0
 25
0.0
 35
0.0
146
0.0
 13
0.0
 23
0.0
 33
0.0
 16
1.0
 26
0.0
 36
0.0
 17
0.0
 27
1.0
 37
0.0
 76
0
330
231
345
0
346
0
  0
LAYOUT
  5
2B0
102
{ACAD_REACTORS
330
1A
102
}
100
AcDbPlotSettings
  1

  2
none_device
  4
ANSI_A_(11.00_x_8.50_Inches)
  6

 40
0.0
 41
0.0
 42
0.0
 43
0.0
 44
279.4
 45
215.9
 46
0.0
 47
0.0
 48
0.0
 49
0.0
140
0.0
141
0.0
142
1.0
143
1.0
 70
0
 72
0
 73
0
 74
0
  7

 75
0
147
1.0
148
0.0
149
0.0
100
AcDbLayout
  1
Layout1
 70
0
 71
1
 10
0.0
 20
0.0
 11
11.0
 21
8.5
 12
0.0
 22
0.0
 32
0.0
 14
0.0
 24
0.0
 34
0.0
 15
0.0
 25
0.0
 35
0.0
146
0.0
 13
0.0
 23
0.0
 33
0.0
 16
1.0
 26
0.0
 36
0.0
 17
0.0
 27
1.0
 37
0.0
 76
0
330
232
345
0
346
0
  0
ENDSEC
  0
EOF
