999
DXF file: 3-2485_TOP.dxf
999
Pro/ENGINEER 2018400 by Parametric Technology Corporation
  0
SECTION
  2
HEADER
  9
$ACADVER
  1
AC1027
  9
$DWGCODEPAGE
  3
ANSI_1252
  9
$EXTMAX
 10
11.0
 20
8.5
 30
0.0
  9
$EXTMIN
 10
0.0
 20
0.0
 30
0.0
  9
$LIMMIN
 10
0.0
 20
0.0
  9
$LIMMAX
 10
11.0
 20
8.5
  9
$VIEWCTR
 10
5.5
 20
4.25
  9
$VIEWSIZE
 40
8.5
  9
$CLAYER
  8
0
  9
$LTSCALE
 40
0.605
  9
$CELTYPE
  6
BYLAYER
  9
$DIMSCALE
 40
1.0
  9
$DIMASZ
 40
0.1
  9
$DIMEXO
 40
0.0625
  9
$DIMDLI
 40
0.418
  9
$DIMEXE
 40
0.125
  9
$DIMCEN
 40
0.099
  9
$DIMLFAC
 40
1.0
  9
$DIMBLK
  1
_FILLED
  9
$DIMALT
 70
1
  9
$DIMALTD
 70
2
  9
$DIMALTTD
 70
2
  9
$DIMALTF
 40
25.4
  9
$DIMTXT
 40
0.08
  9
$DIMTOL
 70
1
  9
$DIMLIM
 70
0
  9
$DIMTFAC
 40
1.0
  9
$DIMTP
 40
0.001
  9
$DIMTM
 40
0.001
  9
$DIMGAP
 40
0.09
  9
$DIMDSEP
 70
46
  9
$AUNITS
 70
0
  9
$PDMODE
 70
3
  9
$PDSIZE
 40
0.3125
  9
$HANDSEED
  5
2F7
  9
$TILEMODE
 70
1
  9
$MEASUREMENT
 70
0
  9
$INSUNITS
 70
1
  0
ENDSEC
  0
SECTION
  2
CLASSES
  0
CLASS
  1
ACDBDICTIONARYWDFLT
  2
AcDbDictionaryWithDefault
  3
AutoCAD 2000
 90
0
 91
1
280
0
281
0
  0
CLASS
  1
ACDBPLACEHOLDER
  2
AcDbPlaceHolder
  3
AutoCAD 2000
 90
0
 91
1
280
0
281
0
  0
CLASS
  1
LAYOUT
  2
AcDbLayout
  3
AutoCAD 2000
 90
0
 91
0
280
0
281
0
  0
ENDSEC
  0
SECTION
  2
TABLES
  0
TABLE
  2
VPORT
  5
8
100
AcDbSymbolTable
 70
2
  0
VPORT
  5
1F4
100
AcDbSymbolTableRecord
100
AcDbViewportTableRecord
  2
*ACTIVE
 70
0
 10
0.0
 20
0.0
 11
1.0
 21
1.0
 12
5.5
 22
4.25
 13
0.0
 23
0.0
 14
1.0
 24
1.0
 15
0.0
 25
0.0
 16
0.0
 26
0.0
 36
1.0
 17
0.0
 27
0.0
 37
0.0
 40
8.5
 41
1.2941176471
 42
50.0
 43
0.0
 44
0.0
 50
0.0
 51
0.0
 71
0
 72
100
 73
1
 74
1
 75
0
 76
0
 77
0
 78
0
  0
ENDTAB
  0
TABLE
  2
LTYPE
  5
5
100
AcDbSymbolTable
 70
6
  0
LTYPE
  5
14
100
AcDbSymbolTableRecord
100
AcDbLinetypeTableRecord
  2
BYBLOCK
 70
0
  3

 72
65
 73
0
 40
0.0
  0
LTYPE
  5
15
100
AcDbSymbolTableRecord
100
AcDbLinetypeTableRecord
  2
BYLAYER
 70
0
  3

 72
65
 73
0
 40
0.0
  0
LTYPE
  5
16
100
AcDbSymbolTableRecord
100
AcDbLinetypeTableRecord
  2
CONTINUOUS
 70
64
  3
Solid line
 72
65
 73
0
 40
0.0
  0
LTYPE
  5
1F5
100
AcDbSymbolTableRecord
100
AcDbLinetypeTableRecord
  2
CENTER
 70
64
  3
____ _ ____ _ ____ _ ____ _ ____ _ ____ _ ____
 72
65
 73
4
 40
0.6
 49
0.375
 74
0
 49
-0.075
 74
0
 49
0.075
 74
0
 49
-0.075
 74
0
  0
LTYPE
  5
1F6
100
AcDbSymbolTableRecord
100
AcDbLinetypeTableRecord
  2
HIDDEN
 70
64
  3
- - - - - - - - - - - - - - - - - - - -
 72
65
 73
2
 40
0.2
 49
0.1
 74
0
 49
-0.1
 74
0
  0
LTYPE
  5
1F7
100
AcDbSymbolTableRecord
100
AcDbLinetypeTableRecord
  2
PHANTOM
 70
64
  3
_____ _ _ _____ _ _ _____ _ _ _____
 72
65
 73
6
 40
0.8
 49
0.45
 74
0
 49
-0.05
 74
0
 49
0.1
 74
0
 49
-0.05
 74
0
 49
0.1
 74
0
 49
-0.05
 74
0
  0
LTYPE
  5
1F8
100
AcDbSymbolTableRecord
100
AcDbLinetypeTableRecord
  2
DOT
 70
64
  3
. . . . . . . . . . . . . . . . . . . .
 72
65
 73
2
 40
0.2
 49
0.1
 74
0
 49
-0.1
 74
0
  0
LTYPE
  5
1F9
100
AcDbSymbolTableRecord
100
AcDbLinetypeTableRecord
  2
DASHED
 70
64
  3
- - - - - - - - - - - - - - - - - - - -
 72
65
 73
2
 40
0.2
 49
0.1
 74
0
 49
-0.1
 74
0
  0
ENDTAB
  0
TABLE
  2
LAYER
  5
2
100
AcDbSymbolTable
 70
36
  0
LAYER
  5
10
100
AcDbSymbolTableRecord
100
AcDbLayerTableRecord
  2
0
 70
0
 62
7
  6
CONTINUOUS
370
-3
390
F
  0
LAYER
  5
1FA
100
AcDbSymbolTableRecord
100
AcDbLayerTableRecord
  2
DEFAULT_1
 70
0
 62
7
  6
CENTER
370
-3
390
F
  0
LAYER
  5
1FB
100
AcDbSymbolTableRecord
100
AcDbLayerTableRecord
  2
DEFAULT_2
 70
0
 62
8
  6
HIDDEN
370
-3
390
F
  0
LAYER
  5
1FC
100
AcDbSymbolTableRecord
100
AcDbLayerTableRecord
  2
DEFAULT_3
 70
0
 62
7
  6
PHANTOM
370
-3
390
F
  0
LAYER
  5
1FD
100
AcDbSymbolTableRecord
100
AcDbLayerTableRecord
  2
01_ALL_DTM_PLN
 70
0
 62
7
  6
CONTINUOUS
370
-3
390
F
  0
LAYER
  5
1FE
100
AcDbSymbolTableRecord
100
AcDbLayerTableRecord
  2
01__ASM_ALL_DTM_PLN
 70
0
 62
7
  6
CONTINUOUS
370
-3
390
F
  0
LAYER
  5
1FF
100
AcDbSymbolTableRecord
100
AcDbLayerTableRecord
  2
01__ASM_DEF_DTM_PLN
 70
0
 62
7
  6
CONTINUOUS
370
-3
390
F
  0
LAYER
  5
200
100
AcDbSymbolTableRecord
100
AcDbLayerTableRecord
  2
01___PRT_ALL_DTM_PLN
 70
0
 62
7
  6
CONTINUOUS
370
-3
390
F
  0
LAYER
  5
201
100
AcDbSymbolTableRecord
100
AcDbLayerTableRecord
  2
01___PRT_DEF_DTM_PLN
 70
0
 62
7
  6
CONTINUOUS
370
-3
390
F
  0
LAYER
  5
202
100
AcDbSymbolTableRecord
100
AcDbLayerTableRecord
  2
02_ALL_AXES
 70
0
 62
7
  6
CONTINUOUS
370
-3
390
F
  0
LAYER
  5
203
100
AcDbSymbolTableRecord
100
AcDbLayerTableRecord
  2
02__ASM_ALL_AXES
 70
0
 62
7
  6
CONTINUOUS
370
-3
390
F
  0
LAYER
  5
204
100
AcDbSymbolTableRecord
100
AcDbLayerTableRecord
  2
02___PRT_ALL_AXES
 70
0
 62
7
  6
CONTINUOUS
370
-3
390
F
  0
LAYER
  5
205
100
AcDbSymbolTableRecord
100
AcDbLayerTableRecord
  2
03_ALL_CURVES
 70
0
 62
7
  6
CONTINUOUS
370
-3
390
F
  0
LAYER
  5
206
100
AcDbSymbolTableRecord
100
AcDbLayerTableRecord
  2
03__ASM_ALL_CURVES
 70
0
 62
7
  6
CONTINUOUS
370
-3
390
F
  0
LAYER
  5
207
100
AcDbSymbolTableRecord
100
AcDbLayerTableRecord
  2
03___PRT_ALL_CURVES
 70
0
 62
7
  6
CONTINUOUS
370
-3
390
F
  0
LAYER
  5
208
100
AcDbSymbolTableRecord
100
AcDbLayerTableRecord
  2
04_ALL_DTM_PNT
 70
0
 62
7
  6
CONTINUOUS
370
-3
390
F
  0
LAYER
  5
209
100
AcDbSymbolTableRecord
100
AcDbLayerTableRecord
  2
04__ASM_ALL_DTM_PNT
 70
0
 62
7
  6
CONTINUOUS
370
-3
390
F
  0
LAYER
  5
20A
100
AcDbSymbolTableRecord
100
AcDbLayerTableRecord
  2
04___PRT_ALL_DTM_PNT
 70
0
 62
7
  6
CONTINUOUS
370
-3
390
F
  0
LAYER
  5
20B
100
AcDbSymbolTableRecord
100
AcDbLayerTableRecord
  2
05_ALL_DTM_CSYS
 70
0
 62
7
  6
CONTINUOUS
370
-3
390
F
  0
LAYER
  5
20C
100
AcDbSymbolTableRecord
100
AcDbLayerTableRecord
  2
05__ASM_ALL_DTM_CSYS
 70
0
 62
7
  6
CONTINUOUS
370
-3
390
F
  0
LAYER
  5
20D
100
AcDbSymbolTableRecord
100
AcDbLayerTableRecord
  2
05__ASM_DEF_DTM_CSYS
 70
0
 62
7
  6
CONTINUOUS
370
-3
390
F
  0
LAYER
  5
20E
100
AcDbSymbolTableRecord
100
AcDbLayerTableRecord
  2
05___PRT_ALL_DTM_CSYS
 70
0
 62
7
  6
CONTINUOUS
370
-3
390
F
  0
LAYER
  5
20F
100
AcDbSymbolTableRecord
100
AcDbLayerTableRecord
  2
05___PRT_DEF_DTM_CSYS
 70
0
 62
7
  6
CONTINUOUS
370
-3
390
F
  0
LAYER
  5
210
100
AcDbSymbolTableRecord
100
AcDbLayerTableRecord
  2
06_ALL_SURFS
 70
0
 62
7
  6
CONTINUOUS
370
-3
390
F
  0
LAYER
  5
211
100
AcDbSymbolTableRecord
100
AcDbLayerTableRecord
  2
06__ASM_ALL_SURFS
 70
0
 62
7
  6
CONTINUOUS
370
-3
390
F
  0
LAYER
  5
212
100
AcDbSymbolTableRecord
100
AcDbLayerTableRecord
  2
06___PRT_ALL_SURFS
 70
0
 62
7
  6
CONTINUOUS
370
-3
390
F
  0
LAYER
  5
213
100
AcDbSymbolTableRecord
100
AcDbLayerTableRecord
  2
07__ASM_ALL_SKELETONS
 70
0
 62
7
  6
CONTINUOUS
370
-3
390
F
  0
LAYER
  5
214
100
AcDbSymbolTableRecord
100
AcDbLayerTableRecord
  2
3-985_ASSY_PLANES
 70
0
 62
7
  6
CONTINUOUS
370
-3
390
F
  0
LAYER
  5
215
100
AcDbSymbolTableRecord
100
AcDbLayerTableRecord
  2
ALL_ASSEMBLY_MEMBERS
 70
0
 62
7
  6
CONTINUOUS
370
-3
390
F
  0
LAYER
  5
216
100
AcDbSymbolTableRecord
100
AcDbLayerTableRecord
  2
ALL_FEATURES
 70
0
 62
7
  6
CONTINUOUS
370
-3
390
F
  0
LAYER
  5
217
100
AcDbSymbolTableRecord
100
AcDbLayerTableRecord
  2
AXES_FEATURES
 70
0
 62
7
  6
CONTINUOUS
370
-3
390
F
  0
LAYER
  5
218
100
AcDbSymbolTableRecord
100
AcDbLayerTableRecord
  2
CHAMFER_FEATURES
 70
0
 62
7
  6
CONTINUOUS
370
-3
390
F
  0
LAYER
  5
219
100
AcDbSymbolTableRecord
100
AcDbLayerTableRecord
  2
COSMETIC_SKETCHES
 70
0
 62
7
  6
CONTINUOUS
370
-3
390
F
  0
LAYER
  5
21A
100
AcDbSymbolTableRecord
100
AcDbLayerTableRecord
  2
CUT_FEATURES
 70
0
 62
7
  6
CONTINUOUS
370
-3
390
F
  0
LAYER
  5
21B
100
AcDbSymbolTableRecord
100
AcDbLayerTableRecord
  2
DATUM_CURVES
 70
0
 62
7
  6
CONTINUOUS
370
-3
390
F
  0
LAYER
  5
21C
100
AcDbSymbolTableRecord
100
AcDbLayerTableRecord
  2
DATUM_PLANES
 70
0
 62
7
  6
CONTINUOUS
370
-3
390
F
  0
LAYER
  5
21D
100
AcDbSymbolTableRecord
100
AcDbLayerTableRecord
  2
DEFAULT_COORDINATE_SYSTEM
 70
0
 62
7
  6
CONTINUOUS
370
-3
390
F
  0
LAYER
  5
21E
100
AcDbSymbolTableRecord
100
AcDbLayerTableRecord
  2
DEFAULT_DATUM_AXES
 70
0
 62
7
  6
CONTINUOUS
370
-3
390
F
  0
LAYER
  5
21F
100
AcDbSymbolTableRecord
100
AcDbLayerTableRecord
  2
DEFAULT_DATUM_CURVES
 70
0
 62
7
  6
CONTINUOUS
370
-3
390
F
  0
LAYER
  5
220
100
AcDbSymbolTableRecord
100
AcDbLayerTableRecord
  2
DEFAULT_DATUM_PLANES
 70
0
 62
7
  6
CONTINUOUS
370
-3
390
F
  0
LAYER
  5
221
100
AcDbSymbolTableRecord
100
AcDbLayerTableRecord
  2
DEFAULT_SURFACES
 70
0
 62
7
  6
CONTINUOUS
370
-3
390
F
  0
LAYER
  5
222
100
AcDbSymbolTableRecord
100
AcDbLayerTableRecord
  2
DIMENSIONS
 70
0
 62
7
  6
CONTINUOUS
370
-3
390
F
  0
LAYER
  5
223
100
AcDbSymbolTableRecord
100
AcDbLayerTableRecord
  2
HOLE_FEATURES
 70
0
 62
7
  6
CONTINUOUS
370
-3
390
F
  0
LAYER
  5
224
100
AcDbSymbolTableRecord
100
AcDbLayerTableRecord
  2
NONE
 70
0
 62
7
  6
CONTINUOUS
370
-3
390
F
  0
LAYER
  5
225
100
AcDbSymbolTableRecord
100
AcDbLayerTableRecord
  2
PART_REFERENCE_DIMENSIONS
 70
0
 62
7
  6
CONTINUOUS
370
-3
390
F
  0
LAYER
  5
226
100
AcDbSymbolTableRecord
100
AcDbLayerTableRecord
  2
PLATED_SURFACE_AREA
 70
0
 62
7
  6
CONTINUOUS
370
-3
390
F
  0
LAYER
  5
227
100
AcDbSymbolTableRecord
100
AcDbLayerTableRecord
  2
PROTRUSION_FEATURES
 70
0
 62
7
  6
CONTINUOUS
370
-3
390
F
  0
LAYER
  5
228
100
AcDbSymbolTableRecord
100
AcDbLayerTableRecord
  2
QUILTS
 70
0
 62
7
  6
CONTINUOUS
370
-3
390
F
  0
LAYER
  5
229
100
AcDbSymbolTableRecord
100
AcDbLayerTableRecord
  2
REFERENCE_DIMENSIONS
 70
0
 62
7
  6
CONTINUOUS
370
-3
390
F
  0
LAYER
  5
22A
100
AcDbSymbolTableRecord
100
AcDbLayerTableRecord
  2
ROUND_FEATURES
 70
0
 62
7
  6
CONTINUOUS
370
-3
390
F
  0
LAYER
  5
22B
100
AcDbSymbolTableRecord
100
AcDbLayerTableRecord
  2
WETTED_SURFACES
 70
0
 62
7
  6
CONTINUOUS
370
-3
390
F
  0
LAYER
  5
22C
100
AcDbSymbolTableRecord
100
AcDbLayerTableRecord
  2
WETTED_SURFACE_AREA
 70
0
 62
7
  6
CONTINUOUS
370
-3
390
F
  0
LAYER
  5
22D
100
AcDbSymbolTableRecord
100
AcDbLayerTableRecord
  2
WETTED_SURFACE_LAYER
 70
0
 62
7
  6
CONTINUOUS
370
-3
390
F
  0
LAYER
  5
22E
100
AcDbSymbolTableRecord
100
AcDbLayerTableRecord
  2
XSEC_DATUMS
 70
0
 62
7
  6
CONTINUOUS
370
-3
390
F
  0
ENDTAB
  0
TABLE
  2
STYLE
  5
3
100
AcDbSymbolTable
 70
1
  0
STYLE
  5
11
100
AcDbSymbolTableRecord
100
AcDbTextStyleTableRecord
  2
STANDARD
 70
0
 40
0.0
 41
0.8
 50
0.0
 71
0
 42
0.2
  3
txt
  4

  0
STYLE
  5
22F
100
AcDbSymbolTableRecord
100
AcDbTextStyleTableRecord
  2
TEXTSTYLE_1
 70
0
 40
0.0
 41
0.8
 50
0.0
 71
0
 42
0.2
  3
gdt
  4

  0
ENDTAB
  0
TABLE
  2
VIEW
  5
6
100
AcDbSymbolTable
 70
0
  0
ENDTAB
  0
TABLE
  2
UCS
  5
7
100
AcDbSymbolTable
 70
0
  0
ENDTAB
  0
TABLE
  2
APPID
  5
9
100
AcDbSymbolTable
 70
1
  0
APPID
  5
230
100
AcDbSymbolTableRecord
100
AcDbRegAppTableRecord
  2
ACAD
 70
0
  0
ENDTAB
  0
TABLE
  2
BLOCK_RECORD
  5
1
100
AcDbSymbolTable
 70
0
  0
BLOCK_RECORD
  5
231
100
AcDbSymbolTableRecord
100
AcDbBlockTableRecord
  2
*Model_Space
  0
BLOCK_RECORD
  5
232
100
AcDbSymbolTableRecord
100
AcDbBlockTableRecord
  2
*Paper_Space
  0
BLOCK_RECORD
  5
233
100
AcDbSymbolTableRecord
100
AcDbBlockTableRecord
  2
_FILLED
  0
ENDTAB
  0
TABLE
  2
DIMSTYLE
  5
A
100
AcDbSymbolTable
 70
1
100
AcDbDimStyleTable
 71
0
  0
DIMSTYLE
105
234
100
AcDbSymbolTableRecord
100
AcDbDimStyleTableRecord
  2
STANDARD
 70
0
  3

  4

 40
1.0
 41
0.1
 42
0.0625
 43
0.38
 44
0.125
 45
0.0
 46
0.0
 47
0.001
 48
0.001
140
0.08
141
0.09
142
0.0
143
25.4
144
1.0
145
0.0
146
1.0
147
0.09
 71
1.0
 72
0.0
 73
1
 74
1
 75
0
 76
0
 77
0
 78
4
 79
1
170
1
171
2
172
0
173
0
174
0
175
0
176
0
177
0
178
0
270
2
179
3
271
3
272
3
273
2
274
2
275
0
280
0
281
0
282
0
283
1
284
4
285
0
286
0
287
3
288
0
340
11
278
46
341
233
342
233
343
233
344
233
  0
ENDTAB
  0
ENDSEC
  0
SECTION
  2
BLOCKS
  0
BLOCK
  5
20
100
AcDbEntity
  8
0
100
AcDbBlockBegin
  2
*Model_Space
 70
0
 10
0.0
 20
0.0
 30
0.0
  3
*Model_Space
  1

  0
ENDBLK
  5
21
100
AcDbEntity
  8
0
100
AcDbBlockEnd
  0
BLOCK
  5
1C
100
AcDbEntity
  8
0
100
AcDbBlockBegin
  2
*Paper_Space
 70
0
 10
0.0
 20
0.0
 30
0.0
  3
*Paper_Space
  1

  0
ENDBLK
  5
1D
100
AcDbEntity
  8
0
100
AcDbBlockEnd
  0
BLOCK
  5
235
100
AcDbEntity
  8
0
100
AcDbBlockBegin
  2
_FILLED
 70
64
 10
0.0
 20
0.0
  3
_FILLED
  1

  0
SOLID
  5
236
100
AcDbEntity
  8
0
  6
BYBLOCK
 62
0
100
AcDbTrace
 10
0.0
 20
0.0
 11
-1.0
 21
0.2
 12
-1.0
 22
-0.2
 13
-1.0
 23
-0.2
  0
ENDBLK
  5
237
100
AcDbEntity
  8
0
  6
BYBLOCK
 62
0
100
AcDbBlockEnd
  0
ENDSEC
  0
SECTION
  2
ENTITIES
  0
MTEXT
  5
238
100
AcDbEntity
  8
0
100
AcDbMText
 62
2
  6
CONTINUOUS
  7
STANDARD
 71
3
 72
1
 10
2.9692740683
 20
1.5619681677
 30
0.0
 11
1.0
 21
0.0
 31
0.0
 73
2
 44
0.9
  1
SCALE  .500
 40
0.08
 41
0.704
  0
LINE
  5
239
100
AcDbEntity
  8
0
100
AcDbLine
 62
7
  6
CONTINUOUS
 10
0.0
 20
0.0
 11
0.0
 21
8.5
  0
LINE
  5
23A
100
AcDbEntity
  8
0
100
AcDbLine
 62
7
  6
CONTINUOUS
 10
0.0
 20
0.0
 11
11.0
 21
0.0
  0
LINE
  5
23B
100
AcDbEntity
  8
0
100
AcDbLine
 62
7
  6
CONTINUOUS
 10
0.0
 20
8.5
 11
11.0
 21
8.5
  0
LINE
  5
23C
100
AcDbEntity
  8
0
100
AcDbLine
 62
7
  6
CONTINUOUS
 10
11.0
 20
0.0
 11
11.0
 21
8.5
  0
LINE
  5
23D
100
AcDbEntity
  8
ALL_ASSEMBLY_MEMBERS
100
AcDbLine
 62
7
  6
CONTINUOUS
 10
1.9341886646
 20
4.8573253106
 11
1.9341886646
 21
5.3093253106
  0
LINE
  5
23E
100
AcDbEntity
  8
ALL_ASSEMBLY_MEMBERS
100
AcDbLine
 62
7
  6
CONTINUOUS
 10
1.9541886646
 20
4.8373253106
 11
1.9541886646
 21
5.3293253106
  0
LINE
  5
23F
100
AcDbEntity
  8
ALL_ASSEMBLY_MEMBERS
100
AcDbLine
 62
7
  6
CONTINUOUS
 10
2.7516886646
 20
6.5623253106
 11
2.7516886646
 21
6.4473253106
  0
LINE
  5
240
100
AcDbEntity
  8
ALL_ASSEMBLY_MEMBERS
100
AcDbLine
 62
7
  6
CONTINUOUS
 10
2.9991886646
 20
6.4373253106
 11
2.9991886646
 21
6.2493253106
  0
LINE
  5
241
100
AcDbEntity
  8
ALL_ASSEMBLY_MEMBERS
100
AcDbLine
 62
7
  6
CONTINUOUS
 10
2.9991886646
 20
6.2243253106
 11
2.9991886646
 21
5.3493253106
  0
LINE
  5
242
100
AcDbEntity
  8
ALL_ASSEMBLY_MEMBERS
100
AcDbLine
 62
7
  6
CONTINUOUS
 10
3.0441886646
 20
6.2493253106
 11
3.0441886646
 21
6.2463253106
  0
LINE
  5
243
100
AcDbEntity
  8
ALL_ASSEMBLY_MEMBERS
100
AcDbLine
 62
7
  6
CONTINUOUS
 10
3.021766009
 20
5.3102479662
 11
3.0076238734
 21
5.2961058305
  0
LINE
  5
244
100
AcDbEntity
  8
ALL_ASSEMBLY_MEMBERS
100
AcDbLine
 62
7
  6
CONTINUOUS
 10
3.0441886646
 20
6.2463253106
 11
3.0442245652
 21
6.2458271018
  0
LINE
  5
245
100
AcDbEntity
  8
ALL_ASSEMBLY_MEMBERS
100
AcDbLine
 62
7
  6
CONTINUOUS
 10
3.0441886646
 20
6.2463253106
 11
3.0442244648
 21
6.2458286212
  0
LINE
  5
246
100
AcDbEntity
  8
ALL_ASSEMBLY_MEMBERS
100
AcDbLine
 62
7
  6
CONTINUOUS
 10
3.3841527987
 20
6.2458276783
 11
3.3841886646
 21
6.2463253106
  0
LINE
  5
247
100
AcDbEntity
  8
ALL_ASSEMBLY_MEMBERS
100
AcDbLine
 62
7
  6
CONTINUOUS
 10
3.3841886646
 20
6.2493253106
 11
3.3841886646
 21
6.2463253106
  0
LINE
  5
248
100
AcDbEntity
  8
ALL_ASSEMBLY_MEMBERS
100
AcDbLine
 62
7
  6
CONTINUOUS
 10
3.4166759326
 20
4.9624588545
 11
3.4166759326
 21
5.3093253106
  0
LINE
  5
249
100
AcDbEntity
  8
ALL_ASSEMBLY_MEMBERS
100
AcDbLine
 62
7
  6
CONTINUOUS
 10
3.4291886646
 20
6.4373253106
 11
3.4291886646
 21
6.2493253106
  0
LINE
  5
24A
100
AcDbEntity
  8
ALL_ASSEMBLY_MEMBERS
100
AcDbLine
 62
7
  6
CONTINUOUS
 10
3.4291886646
 20
6.2243253106
 11
3.4291886646
 21
5.3493253106
  0
LINE
  5
24B
100
AcDbEntity
  8
ALL_ASSEMBLY_MEMBERS
100
AcDbLine
 62
7
  6
CONTINUOUS
 10
3.4355119575
 20
4.962467249
 11
3.4355119575
 21
5.3093253106
  0
LINE
  5
24C
100
AcDbEntity
  8
ALL_ASSEMBLY_MEMBERS
100
AcDbLine
 62
7
  6
CONTINUOUS
 10
3.5076886646
 20
4.8373253106
 11
3.5076886646
 21
5.3293253106
  0
LINE
  5
24D
100
AcDbEntity
  8
ALL_ASSEMBLY_MEMBERS
100
AcDbLine
 62
7
  6
CONTINUOUS
 10
3.5276886646
 20
4.8573253106
 11
3.5276886646
 21
5.3093253106
  0
LINE
  5
24E
100
AcDbEntity
  8
ALL_ASSEMBLY_MEMBERS
100
AcDbLine
 62
7
  6
CONTINUOUS
 10
3.3783269182
 20
4.953687057
 11
3.3641847825
 21
4.9395449214
  0
LINE
  5
24F
100
AcDbEntity
  8
ALL_ASSEMBLY_MEMBERS
100
AcDbLine
 62
7
  6
CONTINUOUS
 10
3.015488442
 20
5.3182943165
 11
2.9979417186
 21
5.3093253105
  0
LINE
  5
250
100
AcDbEntity
  8
ALL_ASSEMBLY_MEMBERS
100
AcDbLine
 62
7
  6
CONTINUOUS
 10
3.6766886646
 20
6.5623253106
 11
3.6766886646
 21
6.4473253106
  0
LINE
  5
251
100
AcDbEntity
  8
ALL_ASSEMBLY_MEMBERS
100
AcDbLine
 62
7
  6
CONTINUOUS
 10
5.4316886646
 20
3.1873253106
 11
4.9316886646
 21
3.1873253106
  0
LINE
  5
252
100
AcDbEntity
  8
ALL_ASSEMBLY_MEMBERS
100
AcDbLine
 62
7
  6
CONTINUOUS
 10
3.4166759326
 20
4.9624589503
 11
3.413131523
 21
4.9656536542
  0
LINE
  5
253
100
AcDbEntity
  8
ALL_ASSEMBLY_MEMBERS
100
AcDbLine
 62
7
  6
CONTINUOUS
 10
3.0127906845
 20
5.3287931325
 11
3.0095663836
 21
5.3316989208
  0
LWPOLYLINE
  5
254
100
AcDbEntity
  8
ALL_ASSEMBLY_MEMBERS
100
AcDbPolyline
 62
7
  6
CONTINUOUS
 90
4
 70
0
 10
3.2431808319
 20
5.1198331869
 10
3.2163500543
 20
5.144133119
 10
3.2028489368
 20
5.1564092783
 10
3.1761828246
 20
5.1805607806
  0
LWPOLYLINE
  5
255
100
AcDbEntity
  8
ALL_ASSEMBLY_MEMBERS
100
AcDbPolyline
 62
7
  6
CONTINUOUS
 90
3
 70
0
 10
3.2819960449
 20
5.0846287177
 10
3.2564062189
 20
5.107809414
 10
3.2431808319
 20
5.1198331869
  0
LINE
  5
256
100
AcDbEntity
  8
ALL_ASSEMBLY_MEMBERS
100
AcDbLine
 62
7
  6
CONTINUOUS
 10
3.4166759326
 20
4.9624589503
 11
3.0095663836
 21
5.3316989208
  0
LWPOLYLINE
  5
257
100
AcDbEntity
  8
ALL_ASSEMBLY_MEMBERS
100
AcDbPolyline
 62
7
  6
CONTINUOUS
 90
3
 70
0
 10
3.3282277942
 20
5.0426817531
 10
3.3174169545
 20
5.052498312
 10
3.3060937409
 20
5.0627535276
  0
LWPOLYLINE
  5
258
100
AcDbEntity
  8
ALL_ASSEMBLY_MEMBERS
100
AcDbPolyline
 62
7
  6
CONTINUOUS
 90
5
 70
0
 10
3.1379973857
 20
5.2151953565
 10
3.1260182598
 20
5.2260792463
 10
3.1145292257
 20
5.2364990513
 10
3.103566419
 20
5.2464291293
 10
3.0931398051
 20
5.2558951224
  0
LINE
  5
259
100
AcDbEntity
  8
ALL_ASSEMBLY_MEMBERS
100
AcDbLine
 62
7
  6
CONTINUOUS
 10
3.2942739125
 20
5.0734717943
 11
3.2819960449
 21
5.0846287177
  0
LWPOLYLINE
  5
25A
100
AcDbEntity
  8
ALL_ASSEMBLY_MEMBERS
100
AcDbPolyline
 62
7
  6
CONTINUOUS
 90
3
 70
0
 10
3.1761828246
 20
5.1805607806
 10
3.1631196935
 20
5.1924361237
 10
3.1379973857
 20
5.2151953565
  0
LINE
  5
25B
100
AcDbEntity
  8
ALL_ASSEMBLY_MEMBERS
100
AcDbLine
 62
7
  6
CONTINUOUS
 10
3.413131523
 20
4.9656536542
 11
3.4045302114
 21
4.9734737789
  0
LINE
  5
25C
100
AcDbEntity
  8
ALL_ASSEMBLY_MEMBERS
100
AcDbLine
 62
7
  6
CONTINUOUS
 10
3.0207147812
 20
5.3215861967
 11
3.0127906845
 21
5.3287931325
  0
LINE
  5
25D
100
AcDbEntity
  8
ALL_ASSEMBLY_MEMBERS
100
AcDbLine
 62
7
  6
CONTINUOUS
 10
3.3641847825
 20
4.9395449214
 11
3.0076238734
 21
5.2961058305
  0
LINE
  5
25E
100
AcDbEntity
  8
ALL_ASSEMBLY_MEMBERS
100
AcDbLine
 62
7
  6
CONTINUOUS
 10
3.3783269104
 20
4.9536870648
 11
3.0217660145
 21
5.3102479607
  0
LINE
  5
25F
100
AcDbEntity
  8
ALL_ASSEMBLY_MEMBERS
100
AcDbLine
 62
7
  6
CONTINUOUS
 10
4.7191886646
 20
6.5623253106
 11
4.7191886646
 21
6.4523253106
  0
LINE
  5
260
100
AcDbEntity
  8
ALL_ASSEMBLY_MEMBERS
100
AcDbLine
 62
7
  6
CONTINUOUS
 10
4.9066886646
 20
6.5698253106
 11
4.9066886646
 21
6.7623253106
  0
LINE
  5
261
100
AcDbEntity
  8
ALL_ASSEMBLY_MEMBERS
100
AcDbLine
 62
7
  6
CONTINUOUS
 10
4.9316886646
 20
6.4373253106
 11
4.9316886646
 21
2.4373253106
  0
LINE
  5
262
100
AcDbEntity
  8
ALL_ASSEMBLY_MEMBERS
100
AcDbLine
 62
7
  6
CONTINUOUS
 10
5.4316886646
 20
6.4373253106
 11
5.4316886646
 21
2.4373253106
  0
LINE
  5
263
100
AcDbEntity
  8
ALL_ASSEMBLY_MEMBERS
100
AcDbLine
 62
7
  6
CONTINUOUS
 10
5.4566886646
 20
6.5698253106
 11
5.4566886646
 21
6.7623253106
  0
LINE
  5
264
100
AcDbEntity
  8
ALL_ASSEMBLY_MEMBERS
100
AcDbLine
 62
7
  6
CONTINUOUS
 10
5.6441886646
 20
6.5623253106
 11
5.6441886646
 21
6.4523253106
  0
LINE
  5
265
100
AcDbEntity
  8
ALL_ASSEMBLY_MEMBERS
100
AcDbLine
 62
7
  6
CONTINUOUS
 10
3.4355119575
 20
4.9624833863
 11
3.4166759326
 21
4.9624588545
  0
LINE
  5
266
100
AcDbEntity
  8
ALL_ASSEMBLY_MEMBERS
100
AcDbLine
 62
7
  6
CONTINUOUS
 10
8.4116886646
 20
4.8373253106
 11
6.8581886646
 21
4.8373253106
  0
LINE
  5
267
100
AcDbEntity
  8
ALL_ASSEMBLY_MEMBERS
100
AcDbLine
 62
7
  6
CONTINUOUS
 10
3.5076886646
 20
4.8373253106
 11
1.9541886646
 21
4.8373253106
  0
LINE
  5
268
100
AcDbEntity
  8
ALL_ASSEMBLY_MEMBERS
100
AcDbLine
 62
7
  6
CONTINUOUS
 10
8.4316886646
 20
4.8573253106
 11
6.8381886646
 21
4.8573253106
  0
LINE
  5
269
100
AcDbEntity
  8
ALL_ASSEMBLY_MEMBERS
100
AcDbLine
 62
7
  6
CONTINUOUS
 10
1.9341886646
 20
4.8573253106
 11
3.5276886646
 21
4.8573253106
  0
LINE
  5
26A
100
AcDbEntity
  8
ALL_ASSEMBLY_MEMBERS
100
AcDbLine
 62
7
  6
CONTINUOUS
 10
6.9492013966
 20
4.9624590115
 11
6.9303653717
 21
4.9624590965
  0
LINE
  5
26B
100
AcDbEntity
  8
ALL_ASSEMBLY_MEMBERS
100
AcDbLine
 62
7
  6
CONTINUOUS
 10
7.1629536822
 20
5.1563415448
 11
7.1494520202
 21
5.1440648932
  0
LWPOLYLINE
  5
26C
100
AcDbEntity
  8
ALL_ASSEMBLY_MEMBERS
100
AcDbPolyline
 62
7
  6
CONTINUOUS
 90
3
 70
0
 10
7.2026934058
 20
5.1923779121
 10
7.1896253645
 20
5.1804980543
 10
7.1629536822
 20
5.1563415448
  0
LINE
  5
26D
100
AcDbEntity
  8
ALL_ASSEMBLY_MEMBERS
100
AcDbLine
 62
7
  6
CONTINUOUS
 10
7.3493727057
 20
5.3254202362
 11
7.3404416026
 21
5.3172997524
  0
LINE
  5
26E
100
AcDbEntity
  8
ALL_ASSEMBLY_MEMBERS
100
AcDbLine
 62
7
  6
CONTINUOUS
 10
6.9664274453
 20
4.9780860896
 11
6.9527462354
 21
4.9656543469
  0
LINE
  5
26F
100
AcDbEntity
  8
ALL_ASSEMBLY_MEMBERS
100
AcDbLine
 62
7
  6
CONTINUOUS
 10
7.0484282786
 20
5.0524691334
 11
7.0273863236
 21
5.0333702671
  0
LINE
  5
270
100
AcDbEntity
  8
ALL_ASSEMBLY_MEMBERS
100
AcDbLine
 62
7
  6
CONTINUOUS
 10
7.008661891
 20
5.016391356
 11
6.9720444738
 21
4.983174619
  0
LWPOLYLINE
  5
271
100
AcDbEntity
  8
ALL_ASSEMBLY_MEMBERS
100
AcDbPolyline
 62
7
  6
CONTINUOUS
 90
4
 70
0
 10
7.2513132138
 20
5.2364674813
 10
7.2398161766
 20
5.2260403911
 10
7.2278289674
 20
5.2151490805
 10
7.2154433892
 20
5.2039341463
  0
LINE
  5
272
100
AcDbEntity
  8
ALL_ASSEMBLY_MEMBERS
100
AcDbLine
 62
7
  6
CONTINUOUS
 10
7.3562985965
 20
5.3316855208
 11
6.9492013966
 21
4.9624590733
  0
LWPOLYLINE
  5
273
100
AcDbEntity
  8
ALL_ASSEMBLY_MEMBERS
100
AcDbPolyline
 62
7
  6
CONTINUOUS
 90
5
 70
0
 10
7.0964539651
 20
5.0960126947
 10
7.083825157
 20
5.0845778458
 10
7.0715548151
 20
5.0734278375
 10
7.059742839
 20
5.0627166749
 10
7.0484282786
 20
5.0524691334
  0
LWPOLYLINE
  5
274
100
AcDbEntity
  8
ALL_ASSEMBLY_MEMBERS
100
AcDbPolyline
 62
7
  6
CONTINUOUS
 90
3
 70
0
 10
7.1494520202
 20
5.1440648932
 10
7.1226247168
 20
5.1197681124
 10
7.1094032754
 20
5.1077479833
  0
LINE
  5
275
100
AcDbEntity
  8
ALL_ASSEMBLY_MEMBERS
100
AcDbLine
 62
7
  6
CONTINUOUS
 10
6.9527462354
 20
4.9656543469
 11
6.9492013966
 21
4.9624590733
  0
LWPOLYLINE
  5
276
100
AcDbEntity
  8
ALL_ASSEMBLY_MEMBERS
100
AcDbPolyline
 62
7
  6
CONTINUOUS
 90
3
 70
0
 10
7.3562985965
 20
5.3316855208
 10
7.3530794469
 20
5.3287864346
 10
7.3493727057
 20
5.3254202362
  0
LINE
  5
277
100
AcDbEntity
  8
ALL_ASSEMBLY_MEMBERS
100
AcDbLine
 62
7
  6
CONTINUOUS
 10
7.3441111837
 20
5.3102478297
 11
6.9875502752
 21
4.9536869211
  0
LINE
  5
278
100
AcDbEntity
  8
ALL_ASSEMBLY_MEMBERS
100
AcDbLine
 62
7
  6
CONTINUOUS
 10
7.358253325
 20
5.2961056997
 11
7.0016924159
 21
4.9395447906
  0
LINE
  5
279
100
AcDbEntity
  8
ALL_ASSEMBLY_MEMBERS
100
AcDbLine
 62
7
  6
CONTINUOUS
 10
1.9341886646
 20
5.3093253106
 11
2.9979417186
 21
5.3093253106
  0
LINE
  5
27A
100
AcDbEntity
  8
ALL_ASSEMBLY_MEMBERS
100
AcDbLine
 62
7
  6
CONTINUOUS
 10
3.4166759326
 20
5.3093253106
 11
3.5276886646
 21
5.3093253106
  0
LINE
  5
27B
100
AcDbEntity
  8
ALL_ASSEMBLY_MEMBERS
100
AcDbLine
 62
7
  6
CONTINUOUS
 10
6.8381886646
 20
5.3093253106
 11
6.9492013966
 21
5.309325311
  0
LINE
  5
27C
100
AcDbEntity
  8
ALL_ASSEMBLY_MEMBERS
100
AcDbLine
 62
7
  6
CONTINUOUS
 10
7.3679355888
 20
5.3093253106
 11
8.4316886646
 21
5.3093253106
  0
LINE
  5
27D
100
AcDbEntity
  8
ALL_ASSEMBLY_MEMBERS
100
AcDbLine
 62
7
  6
CONTINUOUS
 10
1.9541886646
 20
5.3293253106
 11
2.9824474296
 21
5.3293253106
  0
LINE
  5
27E
100
AcDbEntity
  8
ALL_ASSEMBLY_MEMBERS
100
AcDbLine
 62
7
  6
CONTINUOUS
 10
3.4459298996
 20
5.3293253106
 11
3.5076886646
 21
5.3293253106
  0
LINE
  5
27F
100
AcDbEntity
  8
ALL_ASSEMBLY_MEMBERS
100
AcDbLine
 62
7
  6
CONTINUOUS
 10
6.8581886646
 20
5.3293253106
 11
6.9199474296
 21
5.3293253106
  0
LINE
  5
280
100
AcDbEntity
  8
ALL_ASSEMBLY_MEMBERS
100
AcDbLine
 62
7
  6
CONTINUOUS
 10
7.3834298996
 20
5.3293253106
 11
8.4116886646
 21
5.3293253106
  0
LINE
  5
281
100
AcDbEntity
  8
ALL_ASSEMBLY_MEMBERS
100
AcDbLine
 62
7
  6
CONTINUOUS
 10
2.9991886646
 20
5.3493253106
 11
3.0021700879
 21
5.3493253106
  0
LINE
  5
282
100
AcDbEntity
  8
ALL_ASSEMBLY_MEMBERS
100
AcDbLine
 62
7
  6
CONTINUOUS
 10
3.4262072413
 20
5.3493253106
 11
3.4291886646
 21
5.3493253106
  0
LINE
  5
283
100
AcDbEntity
  8
ALL_ASSEMBLY_MEMBERS
100
AcDbLine
 62
7
  6
CONTINUOUS
 10
6.9366886646
 20
5.3493253106
 11
6.9396700879
 21
5.3493253106
  0
LINE
  5
284
100
AcDbEntity
  8
ALL_ASSEMBLY_MEMBERS
100
AcDbLine
 62
7
  6
CONTINUOUS
 10
7.3637072413
 20
5.3493253106
 11
7.3666886646
 21
5.3493253106
  0
LINE
  5
285
100
AcDbEntity
  8
ALL_ASSEMBLY_MEMBERS
100
AcDbLine
 62
7
  6
CONTINUOUS
 10
6.6891886646
 20
6.5623253106
 11
6.6891886646
 21
6.4473253106
  0
LINE
  5
286
100
AcDbEntity
  8
ALL_ASSEMBLY_MEMBERS
100
AcDbLine
 62
7
  6
CONTINUOUS
 10
6.9875502802
 20
4.9536869262
 11
7.0016924159
 21
4.9395447906
  0
LINE
  5
287
100
AcDbEntity
  8
ALL_ASSEMBLY_MEMBERS
100
AcDbLine
 62
7
  6
CONTINUOUS
 10
6.8381886646
 20
5.3093253106
 11
6.8381886646
 21
4.8573253106
  0
LINE
  5
288
100
AcDbEntity
  8
ALL_ASSEMBLY_MEMBERS
100
AcDbLine
 62
7
  6
CONTINUOUS
 10
6.8581886646
 20
5.3293253106
 11
6.8581886646
 21
4.8373253106
  0
LINE
  5
289
100
AcDbEntity
  8
ALL_ASSEMBLY_MEMBERS
100
AcDbLine
 62
7
  6
CONTINUOUS
 10
6.9303653717
 20
5.3093253106
 11
6.9303653717
 21
4.9624412157
  0
LINE
  5
28A
100
AcDbEntity
  8
ALL_ASSEMBLY_MEMBERS
100
AcDbLine
 62
7
  6
CONTINUOUS
 10
6.9366886646
 20
6.4373253106
 11
6.9366886646
 21
6.2493253106
  0
LINE
  5
28B
100
AcDbEntity
  8
ALL_ASSEMBLY_MEMBERS
100
AcDbLine
 62
7
  6
CONTINUOUS
 10
6.9366886646
 20
6.2243253106
 11
6.9366886646
 21
5.3493253106
  0
LINE
  5
28C
100
AcDbEntity
  8
ALL_ASSEMBLY_MEMBERS
100
AcDbLine
 62
7
  6
CONTINUOUS
 10
6.9492013966
 20
5.309325311
 11
6.9492013966
 21
4.9624590115
  0
LINE
  5
28D
100
AcDbEntity
  8
ALL_ASSEMBLY_MEMBERS
100
AcDbLine
 62
7
  6
CONTINUOUS
 10
6.9816886646
 20
6.2493253106
 11
6.9816886646
 21
6.2463253106
  0
LINE
  5
28E
100
AcDbEntity
  8
ALL_ASSEMBLY_MEMBERS
100
AcDbLine
 62
7
  6
CONTINUOUS
 10
7.3666886646
 20
6.2243253106
 11
6.9366886646
 21
6.2243253106
  0
LINE
  5
28F
100
AcDbEntity
  8
ALL_ASSEMBLY_MEMBERS
100
AcDbLine
 62
7
  6
CONTINUOUS
 10
3.4291886646
 20
6.2243253106
 11
2.9991886646
 21
6.2243253106
  0
LINE
  5
290
100
AcDbEntity
  8
ALL_ASSEMBLY_MEMBERS
100
AcDbLine
 62
7
  6
CONTINUOUS
 10
7.3666861454
 20
6.2493253106
 11
6.9366911838
 21
6.2493253106
  0
LINE
  5
291
100
AcDbEntity
  8
ALL_ASSEMBLY_MEMBERS
100
AcDbLine
 62
7
  6
CONTINUOUS
 10
3.4291861454
 20
6.2493253106
 11
2.9991911838
 21
6.2493253106
  0
LINE
  5
292
100
AcDbEntity
  8
ALL_ASSEMBLY_MEMBERS
100
AcDbLine
 62
7
  6
CONTINUOUS
 10
7.3503889493
 20
5.3182943391
 11
7.3679355888
 21
5.3093253105
  0
LINE
  5
293
100
AcDbEntity
  8
ALL_ASSEMBLY_MEMBERS
100
AcDbLine
 62
7
  6
CONTINUOUS
 10
6.9816886646
 20
6.2463253106
 11
6.9817245652
 21
6.2458271018
  0
LINE
  5
294
100
AcDbEntity
  8
ALL_ASSEMBLY_MEMBERS
100
AcDbLine
 62
7
  6
CONTINUOUS
 10
6.9816886646
 20
6.2463253106
 11
6.9817244648
 21
6.2458286212
  0
LINE
  5
295
100
AcDbEntity
  8
ALL_ASSEMBLY_MEMBERS
100
AcDbLine
 62
7
  6
CONTINUOUS
 10
7.3216886646
 20
6.2493253106
 11
7.3216886646
 21
6.2463253106
  0
LINE
  5
296
100
AcDbEntity
  8
ALL_ASSEMBLY_MEMBERS
100
AcDbLine
 62
7
  6
CONTINUOUS
 10
7.3216527987
 20
6.2458276783
 11
7.3216886646
 21
6.2463253106
  0
LINE
  5
297
100
AcDbEntity
  8
ALL_ASSEMBLY_MEMBERS
100
AcDbLine
 62
7
  6
CONTINUOUS
 10
7.6041884312
 20
6.4373253106
 11
6.6991888327
 21
6.4373253106
  0
LINE
  5
298
100
AcDbEntity
  8
ALL_ASSEMBLY_MEMBERS
100
AcDbLine
 62
7
  6
CONTINUOUS
 10
5.6291886646
 20
6.4373253106
 11
4.7341886646
 21
6.4373253106
  0
LINE
  5
299
100
AcDbEntity
  8
ALL_ASSEMBLY_MEMBERS
100
AcDbLine
 62
7
  6
CONTINUOUS
 10
3.6666884312
 20
6.4373253106
 11
2.7616888327
 21
6.4373253106
  0
LINE
  5
29A
100
AcDbEntity
  8
ALL_ASSEMBLY_MEMBERS
100
AcDbLine
 62
7
  6
CONTINUOUS
 10
7.6141886646
 20
6.4473253106
 11
6.6891888364
 21
6.4473253106
  0
LINE
  5
29B
100
AcDbEntity
  8
ALL_ASSEMBLY_MEMBERS
100
AcDbLine
 62
7
  6
CONTINUOUS
 10
3.6766886646
 20
6.4473253106
 11
2.7516888364
 21
6.4473253106
  0
LINE
  5
29C
100
AcDbEntity
  8
ALL_ASSEMBLY_MEMBERS
100
AcDbLine
 62
7
  6
CONTINUOUS
 10
5.6441886646
 20
6.4523253106
 11
4.7191886646
 21
6.4523253106
  0
LINE
  5
29D
100
AcDbEntity
  8
ALL_ASSEMBLY_MEMBERS
100
AcDbLine
 62
7
  6
CONTINUOUS
 10
2.7516888364
 20
6.5623253106
 11
3.6766883816
 21
6.5623253106
  0
LINE
  5
29E
100
AcDbEntity
  8
ALL_ASSEMBLY_MEMBERS
100
AcDbLine
 62
7
  6
CONTINUOUS
 10
4.7191886646
 20
6.5623253106
 11
5.6441886646
 21
6.5623253106
  0
LINE
  5
29F
100
AcDbEntity
  8
ALL_ASSEMBLY_MEMBERS
100
AcDbLine
 62
7
  6
CONTINUOUS
 10
6.6891888364
 20
6.5623253106
 11
7.6141883816
 21
6.5623253106
  0
LINE
  5
2A0
100
AcDbEntity
  8
ALL_ASSEMBLY_MEMBERS
100
AcDbLine
 62
7
  6
CONTINUOUS
 10
5.5714386646
 20
6.5698253106
 11
4.7919386646
 21
6.5698253106
  0
LINE
  5
2A1
100
AcDbEntity
  8
ALL_ASSEMBLY_MEMBERS
100
AcDbLine
 62
7
  6
CONTINUOUS
 10
2.7931886646
 20
6.5698253106
 11
3.6351886646
 21
6.5698253106
  0
LINE
  5
2A2
100
AcDbEntity
  8
ALL_ASSEMBLY_MEMBERS
100
AcDbLine
 62
7
  6
CONTINUOUS
 10
6.7306886646
 20
6.5698253106
 11
7.5726886646
 21
6.5698253106
  0
LINE
  5
2A3
100
AcDbEntity
  8
ALL_ASSEMBLY_MEMBERS
100
AcDbLine
 62
7
  6
CONTINUOUS
 10
7.3441111894
 20
5.3102478354
 11
7.358253325
 21
5.2961056997
  0
LINE
  5
2A4
100
AcDbEntity
  8
ALL_ASSEMBLY_MEMBERS
100
AcDbLine
 62
7
  6
CONTINUOUS
 10
7.3666886646
 20
6.4373253106
 11
7.3666886646
 21
6.2493253106
  0
LINE
  5
2A5
100
AcDbEntity
  8
ALL_ASSEMBLY_MEMBERS
100
AcDbLine
 62
7
  6
CONTINUOUS
 10
7.3666886646
 20
6.2243253106
 11
7.3666886646
 21
5.3493253106
  0
LINE
  5
2A6
100
AcDbEntity
  8
ALL_ASSEMBLY_MEMBERS
100
AcDbLine
 62
7
  6
CONTINUOUS
 10
4.9066934712
 20
6.7623253106
 11
5.456683858
 21
6.7623253106
  0
LINE
  5
2A7
100
AcDbEntity
  8
ALL_ASSEMBLY_MEMBERS
100
AcDbLine
 62
7
  6
CONTINUOUS
 10
7.6141886646
 20
6.5623253106
 11
7.6141886646
 21
6.4473253106
  0
LINE
  5
2A8
100
AcDbEntity
  8
ALL_ASSEMBLY_MEMBERS
100
AcDbLine
 62
7
  6
CONTINUOUS
 10
8.4116886646
 20
4.8373253106
 11
8.4116886646
 21
5.3293253106
  0
LINE
  5
2A9
100
AcDbEntity
  8
ALL_ASSEMBLY_MEMBERS
100
AcDbLine
 62
7
  6
CONTINUOUS
 10
8.4316886646
 20
5.3093253106
 11
8.4316886646
 21
4.8573253106
  0
ARC
  5
2AA
100
AcDbEntity
  8
ALL_ASSEMBLY_MEMBERS
100
AcDbCircle
 62
7
  6
CONTINUOUS
 10
5.1816886646
 20
2.4373253106
 40
0.25
100
AcDbArc
 50
180.0
 51
360.0
  0
ARC
  5
2AB
100
AcDbEntity
  8
ALL_ASSEMBLY_MEMBERS
100
AcDbCircle
 62
7
  6
CONTINUOUS
 10
3.5544344123
 20
6.2337898738
 40
0.1707065117
100
AcDbArc
 50
176.4549519885
 51
177.2401086841
  0
ARC
  5
2AC
100
AcDbEntity
  8
ALL_ASSEMBLY_MEMBERS
100
AcDbCircle
 62
7
  6
CONTINUOUS
 10
2.8747854518
 20
6.2338260902
 40
0.1698633486
100
AcDbArc
 50
356.7893445467
 51
3.543699786
  0
ARC
  5
2AD
100
AcDbEntity
  8
ALL_ASSEMBLY_MEMBERS
100
AcDbCircle
 62
7
  6
CONTINUOUS
 10
3.5535350433
 20
6.2338245423
 40
0.1698065168
100
AcDbArc
 50
177.2371809562
 51
183.2110988618
  0
ARC
  5
2AE
100
AcDbEntity
  8
ALL_ASSEMBLY_MEMBERS
100
AcDbCircle
 62
7
  6
CONTINUOUS
 10
3.5535083441
 20
6.233860948
 40
0.1697778214
100
AcDbArc
 50
176.1051297393
 51
176.4595674145
  0
ARC
  5
2AF
100
AcDbEntity
  8
ALL_ASSEMBLY_MEMBERS
100
AcDbCircle
 62
7
  6
CONTINUOUS
 10
2.8752275436
 20
6.2338815384
 40
0.1694186773
100
AcDbArc
 50
3.5342248693
 51
3.8956711645
  0
ARC
  5
2B0
100
AcDbEntity
  8
ALL_ASSEMBLY_MEMBERS
100
AcDbCircle
 62
7
  6
CONTINUOUS
 10
1.9541886646
 20
5.3093253106
 40
0.02
100
AcDbArc
 50
90.0
 51
180.0
  0
ARC
  5
2B1
100
AcDbEntity
  8
ALL_ASSEMBLY_MEMBERS
100
AcDbCircle
 62
7
  6
CONTINUOUS
 10
1.9541886646
 20
4.8573253106
 40
0.02
100
AcDbArc
 50
180.0
 51
270.0
  0
ARC
  5
2B2
100
AcDbEntity
  8
ALL_ASSEMBLY_MEMBERS
100
AcDbCircle
 62
7
  6
CONTINUOUS
 10
3.5076886646
 20
5.3093253106
 40
0.02
100
AcDbArc
 50
0.0
 51
90.0
  0
ARC
  5
2B3
100
AcDbEntity
  8
ALL_ASSEMBLY_MEMBERS
100
AcDbCircle
 62
7
  6
CONTINUOUS
 10
3.5076886646
 20
4.8573253106
 40
0.02
100
AcDbArc
 50
270.0
 51
360.0
  0
ARC
  5
2B4
100
AcDbEntity
  8
ALL_ASSEMBLY_MEMBERS
100
AcDbCircle
 62
7
  6
CONTINUOUS
 10
2.9791886646
 20
5.3493253106
 40
0.02
100
AcDbArc
 50
282.0
 51
360.0
  0
ARC
  5
2B5
100
AcDbEntity
  8
ALL_ASSEMBLY_MEMBERS
100
AcDbCircle
 62
7
  6
CONTINUOUS
 10
3.4491886646
 20
5.3493253106
 40
0.02
100
AcDbArc
 50
180.0
 51
258.0
  0
ARC
  5
2B6
100
AcDbEntity
  8
ALL_ASSEMBLY_MEMBERS
100
AcDbCircle
 62
7
  6
CONTINUOUS
 10
4.7919386646
 20
6.5523253106
 40
0.0175
100
AcDbArc
 50
90.0
 51
145.1063551026
  0
ARC
  5
2B7
100
AcDbEntity
  8
ALL_ASSEMBLY_MEMBERS
100
AcDbCircle
 62
7
  6
CONTINUOUS
 10
3.6351886646
 20
6.5523253106
 40
0.0175
100
AcDbArc
 50
34.8936448974
 51
90.0
  0
ARC
  5
2B8
100
AcDbEntity
  8
ALL_ASSEMBLY_MEMBERS
100
AcDbCircle
 62
7
  6
CONTINUOUS
 10
2.7931886646
 20
6.5523253106
 40
0.0175
100
AcDbArc
 50
90.0
 51
145.1063551026
  0
ARC
  5
2B9
100
AcDbEntity
  8
ALL_ASSEMBLY_MEMBERS
100
AcDbCircle
 62
7
  6
CONTINUOUS
 10
4.7341886646
 20
6.4523253106
 40
0.015
100
AcDbArc
 50
180.0
 51
270.0
  0
ARC
  5
2BA
100
AcDbEntity
  8
ALL_ASSEMBLY_MEMBERS
100
AcDbCircle
 62
7
  6
CONTINUOUS
 10
3.2141886646
 20
6.2338253106
 40
0.0125
100
AcDbArc
 50
310.4448485947
 51
229.5539328701
  0
ARC
  5
2BB
100
AcDbEntity
  8
ALL_ASSEMBLY_MEMBERS
100
AcDbCircle
 62
7
  6
CONTINUOUS
 10
2.7616886646
 20
6.4473253106
 40
0.01
100
AcDbArc
 50
180.0
 51
270.0
  0
ARC
  5
2BC
100
AcDbEntity
  8
ALL_ASSEMBLY_MEMBERS
100
AcDbCircle
 62
7
  6
CONTINUOUS
 10
3.6666886646
 20
6.4473253106
 40
0.01
100
AcDbArc
 50
270.0
 51
360.0
  0
ARC
  5
2BD
100
AcDbEntity
  8
ALL_ASSEMBLY_MEMBERS
100
AcDbCircle
 62
7
  6
CONTINUOUS
 10
7.4919344123
 20
6.2337898738
 40
0.1707065117
100
AcDbArc
 50
176.4549519885
 51
177.240108684
  0
ARC
  5
2BE
100
AcDbEntity
  8
ALL_ASSEMBLY_MEMBERS
100
AcDbCircle
 62
7
  6
CONTINUOUS
 10
6.8122854518
 20
6.2338260902
 40
0.1698633486
100
AcDbArc
 50
356.7893445467
 51
3.543699786
  0
ARC
  5
2BF
100
AcDbEntity
  8
ALL_ASSEMBLY_MEMBERS
100
AcDbCircle
 62
7
  6
CONTINUOUS
 10
7.4910350433
 20
6.2338245423
 40
0.1698065168
100
AcDbArc
 50
177.2371809561
 51
183.2110988618
  0
ARC
  5
2C0
100
AcDbEntity
  8
ALL_ASSEMBLY_MEMBERS
100
AcDbCircle
 62
7
  6
CONTINUOUS
 10
7.491008344
 20
6.233860948
 40
0.1697778213
100
AcDbArc
 50
176.10512974
 51
176.4595674146
  0
ARC
  5
2C1
100
AcDbEntity
  8
ALL_ASSEMBLY_MEMBERS
100
AcDbCircle
 62
7
  6
CONTINUOUS
 10
6.8127275435
 20
6.2338815384
 40
0.1694186774
100
AcDbArc
 50
3.5342248694
 51
3.8956711636
  0
ARC
  5
2C2
100
AcDbEntity
  8
ALL_ASSEMBLY_MEMBERS
100
AcDbCircle
 62
7
  6
CONTINUOUS
 10
8.4116886646
 20
5.3093253106
 40
0.02
100
AcDbArc
 50
0.0
 51
90.0
  0
ARC
  5
2C3
100
AcDbEntity
  8
ALL_ASSEMBLY_MEMBERS
100
AcDbCircle
 62
7
  6
CONTINUOUS
 10
8.4116886646
 20
4.8573253106
 40
0.02
100
AcDbArc
 50
270.0
 51
360.0
  0
ARC
  5
2C4
100
AcDbEntity
  8
ALL_ASSEMBLY_MEMBERS
100
AcDbCircle
 62
7
  6
CONTINUOUS
 10
6.8581886646
 20
5.3093253106
 40
0.02
100
AcDbArc
 50
90.0
 51
180.0
  0
ARC
  5
2C5
100
AcDbEntity
  8
ALL_ASSEMBLY_MEMBERS
100
AcDbCircle
 62
7
  6
CONTINUOUS
 10
6.8581886646
 20
4.8573253106
 40
0.02
100
AcDbArc
 50
180.0
 51
270.0
  0
ARC
  5
2C6
100
AcDbEntity
  8
ALL_ASSEMBLY_MEMBERS
100
AcDbCircle
 62
7
  6
CONTINUOUS
 10
7.3866886646
 20
5.3493253106
 40
0.02
100
AcDbArc
 50
180.0
 51
258.0
  0
ARC
  5
2C7
100
AcDbEntity
  8
ALL_ASSEMBLY_MEMBERS
100
AcDbCircle
 62
7
  6
CONTINUOUS
 10
6.9166886646
 20
5.3493253106
 40
0.02
100
AcDbArc
 50
282.0
 51
360.0
  0
ARC
  5
2C8
100
AcDbEntity
  8
ALL_ASSEMBLY_MEMBERS
100
AcDbCircle
 62
7
  6
CONTINUOUS
 10
5.5714386646
 20
6.5523253106
 40
0.0175
100
AcDbArc
 50
34.8936448974
 51
90.0
  0
ARC
  5
2C9
100
AcDbEntity
  8
ALL_ASSEMBLY_MEMBERS
100
AcDbCircle
 62
7
  6
CONTINUOUS
 10
6.7306886646
 20
6.5523253106
 40
0.0175
100
AcDbArc
 50
90.0
 51
145.1063551026
  0
ARC
  5
2CA
100
AcDbEntity
  8
ALL_ASSEMBLY_MEMBERS
100
AcDbCircle
 62
7
  6
CONTINUOUS
 10
7.5726886646
 20
6.5523253106
 40
0.0175
100
AcDbArc
 50
34.8936448974
 51
90.0
  0
ARC
  5
2CB
100
AcDbEntity
  8
ALL_ASSEMBLY_MEMBERS
100
AcDbCircle
 62
7
  6
CONTINUOUS
 10
5.6291886646
 20
6.4523253106
 40
0.015
100
AcDbArc
 50
270.0
 51
360.0
  0
ARC
  5
2CC
100
AcDbEntity
  8
ALL_ASSEMBLY_MEMBERS
100
AcDbCircle
 62
7
  6
CONTINUOUS
 10
7.1516886646
 20
6.2338253106
 40
0.0125
100
AcDbArc
 50
310.4448485947
 51
229.5539328701
  0
ARC
  5
2CD
100
AcDbEntity
  8
ALL_ASSEMBLY_MEMBERS
100
AcDbCircle
 62
7
  6
CONTINUOUS
 10
7.6041886646
 20
6.4473253106
 40
0.01
100
AcDbArc
 50
270.0
 51
360.0
  0
ARC
  5
2CE
100
AcDbEntity
  8
ALL_ASSEMBLY_MEMBERS
100
AcDbCircle
 62
7
  6
CONTINUOUS
 10
6.6991886646
 20
6.4473253106
 40
0.01
100
AcDbArc
 50
180.0
 51
270.0
  0
LINE
  5
2CF
100
AcDbEntity
  8
ALL_ASSEMBLY_MEMBERS
100
AcDbLine
 62
7
  6
CONTINUOUS
 10
6.9817244648
 20
6.2458286212
 11
6.9817430348
 21
6.2455627838
  0
LINE
  5
2D0
100
AcDbEntity
  8
ALL_ASSEMBLY_MEMBERS
100
AcDbLine
 62
7
  6
CONTINUOUS
 10
6.9817430348
 20
6.2455627838
 11
6.9817510827
 21
6.2454457629
  0
SPLINE
  5
2D1
100
AcDbEntity
  8
ALL_ASSEMBLY_MEMBERS
100
AcDbSpline
 62
7
  6
CONTINUOUS
 70
0
 71
3
 72
8
 73
4
 74
0
 42
0.0000001
 43
0.0000001
 44
0.0000000001
 40
0.0
 40
0.0
 40
0.0
 40
0.0
 40
1.0
 40
1.0
 40
1.0
 40
1.0
 10
6.9817510827
 20
6.2454457629
 30
0.0
 10
6.9817523129
 20
6.245427785
 30
0.0
 10
6.9817535401
 20
6.2454098069
 30
0.0
 10
6.9817547646
 20
6.2453918286
 30
0.0
  0
SPLINE
  5
2D2
100
AcDbEntity
  8
ALL_ASSEMBLY_MEMBERS
100
AcDbSpline
 62
7
  6
CONTINUOUS
 70
0
 71
3
 72
8
 73
4
 74
0
 42
0.0000001
 43
0.0000001
 44
0.0000000001
 40
0.0
 40
0.0
 40
0.0
 40
0.0
 40
1.0
 40
1.0
 40
1.0
 40
1.0
 10
7.3216226477
 20
6.2453932707
 30
0.0
 10
7.3216238224
 20
6.2454105125
 30
0.0
 10
7.3216249998
 20
6.2454277541
 30
0.0
 10
7.3216261799
 20
6.2454449955
 30
0.0
  0
LINE
  5
2D3
100
AcDbEntity
  8
ALL_ASSEMBLY_MEMBERS
100
AcDbLine
 62
7
  6
CONTINUOUS
 10
7.3216261799
 20
6.2454449955
 11
7.3216342496
 21
6.2455622929
  0
LINE
  5
2D4
100
AcDbEntity
  8
ALL_ASSEMBLY_MEMBERS
100
AcDbLine
 62
7
  6
CONTINUOUS
 10
7.3216342496
 20
6.2455622929
 11
7.3216527987
 21
6.2458276783
  0
SPLINE
  5
2D5
100
AcDbEntity
  8
ALL_ASSEMBLY_MEMBERS
100
AcDbSpline
 62
7
  6
CONTINUOUS
 70
0
 71
3
 72
8
 73
4
 74
0
 42
0.0000001
 43
0.0000001
 44
0.0000000001
 40
0.0
 40
0.0
 40
0.0
 40
0.0
 40
1.0
 40
1.0
 40
1.0
 40
1.0
 10
3.3841226477
 20
6.2453932707
 30
0.0
 10
3.3841238224
 20
6.2454105125
 30
0.0
 10
3.3841249998
 20
6.2454277541
 30
0.0
 10
3.3841261799
 20
6.2454449955
 30
0.0
  0
LINE
  5
2D6
100
AcDbEntity
  8
ALL_ASSEMBLY_MEMBERS
100
AcDbLine
 62
7
  6
CONTINUOUS
 10
3.3841261799
 20
6.2454449955
 11
3.3841342496
 21
6.2455622929
  0
LINE
  5
2D7
100
AcDbEntity
  8
ALL_ASSEMBLY_MEMBERS
100
AcDbLine
 62
7
  6
CONTINUOUS
 10
3.3841342496
 20
6.2455622929
 11
3.3841527987
 21
6.2458276783
  0
LINE
  5
2D8
100
AcDbEntity
  8
ALL_ASSEMBLY_MEMBERS
100
AcDbLine
 62
7
  6
CONTINUOUS
 10
3.0442244648
 20
6.2458286212
 11
3.0442430348
 21
6.2455627838
  0
LINE
  5
2D9
100
AcDbEntity
  8
ALL_ASSEMBLY_MEMBERS
100
AcDbLine
 62
7
  6
CONTINUOUS
 10
3.0442430348
 20
6.2455627838
 11
3.0442510827
 21
6.2454457629
  0
SPLINE
  5
2DA
100
AcDbEntity
  8
ALL_ASSEMBLY_MEMBERS
100
AcDbSpline
 62
7
  6
CONTINUOUS
 70
0
 71
3
 72
8
 73
4
 74
0
 42
0.0000001
 43
0.0000001
 44
0.0000000001
 40
0.0
 40
0.0
 40
0.0
 40
0.0
 40
1.0
 40
1.0
 40
1.0
 40
1.0
 10
3.0442510827
 20
6.2454457629
 30
0.0
 10
3.0442523129
 20
6.245427785
 30
0.0
 10
3.0442535401
 20
6.2454098069
 30
0.0
 10
3.0442547646
 20
6.2453918286
 30
0.0
  0
SPLINE
  5
2DB
100
AcDbEntity
  8
ALL_ASSEMBLY_MEMBERS
100
AcDbSpline
 62
7
  6
CONTINUOUS
 70
0
 71
3
 72
9
 73
5
 74
0
 42
0.0000001
 43
0.0000001
 44
0.0000000001
 40
0.0
 40
0.0
 40
0.0
 40
0.0
 40
0.5000050999
 40
1.0
 40
1.0
 40
1.0
 40
1.0
 10
3.0076238734
 20
5.2961058305
 30
0.0
 10
3.0056867556
 20
5.2980427766
 30
0.0
 10
3.002092937
 20
5.3022086308
 30
0.0
 10
2.9991881621
 20
5.3068859956
 30
0.0
 10
2.9979417186
 20
5.3093253106
 30
0.0
  0
SPLINE
  5
2DC
100
AcDbEntity
  8
ALL_ASSEMBLY_MEMBERS
100
AcDbSpline
 62
7
  6
CONTINUOUS
 70
0
 71
3
 72
23
 73
19
 74
0
 42
0.0000001
 43
0.0000001
 44
0.0000000001
 40
0.0
 40
0.0
 40
0.0
 40
0.0
 40
0.06250338
 40
0.1250341103
 40
0.1875147023
 40
0.2499914663
 40
0.312455893
 40
0.3749167871
 40
0.4373813329
 40
0.4998548504
 40
0.5623395585
 40
0.6248358162
 40
0.687346534
 40
0.7498654194
 40
0.8123831019
 40
0.8749212507
 40
0.9374906551
 40
1.0
 40
1.0
 40
1.0
 40
1.0
 10
3.4355119575
 20
4.962467249
 30
0.0
 10
3.4355128995
 20
4.9604456766
 30
0.0
 10
3.4352130055
 20
4.9563946457
 30
0.0
 10
3.4338395872
 20
4.9504628698
 30
0.0
 10
3.4315384506
 20
4.9448232498
 30
0.0
 10
3.4283458169
 20
4.9396375009
 30
0.0
 10
3.4243345162
 20
4.9350554496
 30
0.0
 10
3.4196138877
 20
4.9312089899
 30
0.0
 10
3.4143206998
 20
4.9281996517
 30
0.0
 10
3.408608673
 20
4.9260925921
 30
0.0
 10
3.4026361111
 20
4.9249151631
 30
0.0
 10
3.396554805
 20
4.9246596067
 30
0.0
 10
3.3905018134
 20
4.9252901674
 30
0.0
 10
3.3845956548
 20
4.9267520946
 30
0.0
 10
3.3789329421
 20
4.9289748825
 30
0.0
 10
3.3735910727
 20
4.9318860619
 30
0.0
 10
3.3686339557
 20
4.9354084636
 30
0.0
 10
3.3656143317
 20
4.9381152622
 30
0.0
 10
3.3641847825
 20
4.9395449214
 30
0.0
  0
SPLINE
  5
2DD
100
AcDbEntity
  8
ALL_ASSEMBLY_MEMBERS
100
AcDbSpline
 62
7
  6
CONTINUOUS
 70
0
 71
3
 72
16
 73
12
 74
0
 42
0.0000001
 43
0.0000001
 44
0.0000000001
 40
0.0
 40
0.0
 40
0.0
 40
0.0
 40
0.0729106882
 40
0.1143666958
 40
0.1595884767
 40
0.2618685654
 40
0.3802080496
 40
0.5141230361
 40
0.6626895466
 40
0.8248877987
 40
1.0
 40
1.0
 40
1.0
 40
1.0
 10
2.9824474296
 20
5.3293253106
 30
0.0
 10
2.982747282
 20
5.3293253153
 30
0.0
 10
2.9832184742
 20
5.3292312368
 30
0.0
 10
2.9838270375
 20
5.3289851425
 30
0.0
 10
2.984513396
 20
5.3286172625
 30
0.0
 10
2.9854001124
 20
5.3279696564
 30
0.0
 10
2.9864593338
 20
5.3269635736
 30
0.0
 10
2.9875326184
 20
5.3257090291
 30
0.0
 10
2.9885928512
 20
5.3242161643
 30
0.0
 10
2.9896100651
 20
5.3224936642
 30
0.0
 10
2.9902134795
 20
5.3212423476
 30
0.0
 10
2.9904991327
 20
5.3205812563
 30
0.0
  0
SPLINE
  5
2DE
100
AcDbEntity
  8
ALL_ASSEMBLY_MEMBERS
100
AcDbSpline
 62
7
  6
CONTINUOUS
 70
0
 71
3
 72
16
 73
12
 74
0
 42
0.0000001
 43
0.0000001
 44
0.0000000001
 40
0.0
 40
0.0
 40
0.0
 40
0.0
 40
0.124023276
 40
0.1862879434
 40
0.2485586886
 40
0.3730369544
 40
0.4978412945
 40
0.6229851695
 40
0.748432731
 40
0.8742665863
 40
1.0
 40
1.0
 40
1.0
 40
1.0
 10
2.9824474296
 20
5.3293253106
 30
0.0
 10
2.983735316
 20
5.3293253106
 30
0.0
 10
2.9856766014
 20
5.3295212207
 30
0.0
 10
2.9881816168
 20
5.3301556168
 30
0.0
 10
2.9906161042
 20
5.3310386811
 30
0.0
 10
2.9934805732
 20
5.33259145
 30
0.0
 10
2.9964858834
 20
5.3350969938
 30
0.0
 10
2.9989547066
 20
5.3381458176
 30
0.0
 10
3.000788575
 20
5.3416264951
 30
0.0
 10
3.0019142945
 20
5.3454005709
 30
0.0
 10
3.0021700879
 20
5.3480196657
 30
0.0
 10
3.0021700879
 20
5.3493253106
 30
0.0
  0
SPLINE
  5
2DF
100
AcDbEntity
  8
ALL_ASSEMBLY_MEMBERS
100
AcDbSpline
 62
7
  6
CONTINUOUS
 70
0
 71
3
 72
19
 73
15
 74
0
 42
0.0000001
 43
0.0000001
 44
0.0000000001
 40
0.0
 40
0.0
 40
0.0
 40
0.0
 40
0.0207515488
 40
0.045415724
 40
0.075511991
 40
0.1117551219
 40
0.1544026029
 40
0.203498226
 40
0.2589231471
 40
0.3204544889
 40
0.4607781309
 40
0.6224814895
 40
0.8033491403
 40
1.0
 40
1.0
 40
1.0
 40
1.0
 10
3.0021700879
 20
5.3493253106
 30
0.0
 10
3.002305871
 20
5.3493253148
 30
0.0
 10
3.0026036857
 20
5.3492584943
 30
0.0
 10
3.0030323778
 20
5.3490036134
 30
0.0
 10
3.0034748184
 20
5.3486010688
 30
0.0
 10
3.0039323631
 20
5.3480521158
 30
0.0
 10
3.0044044886
 20
5.3473592961
 30
0.0
 10
3.0048881215
 20
5.3465258601
 30
0.0
 10
3.0053802212
 20
5.3455566564
 30
0.0
 10
3.0060736999
 20
5.3440221826
 30
0.0
 10
3.0069266202
 20
5.3417993612
 30
0.0
 10
3.0078865173
 20
5.3387875252
 30
0.0
 10
3.0087869939
 20
5.3353747686
 30
0.0
 10
3.0093151238
 20
5.3329608919
 30
0.0
 10
3.0095663836
 20
5.3316989208
 30
0.0
  0
SPLINE
  5
2E0
100
AcDbEntity
  8
ALL_ASSEMBLY_MEMBERS
100
AcDbSpline
 62
7
  6
CONTINUOUS
 70
0
 71
3
 72
20
 73
16
 74
0
 42
0.0000001
 43
0.0000001
 44
0.0000000001
 40
0.0
 40
0.0
 40
0.0
 40
0.0
 40
0.0628244955
 40
0.1261202705
 40
0.1897656911
 40
0.2536916884
 40
0.3177154585
 40
0.3816459265
 40
0.4453120018
 40
0.5085986594
 40
0.5714542031
 40
0.633867783
 40
0.6958600754
 40
0.7574851594
 40
1.0
 40
1.0
 40
1.0
 40
1.0
 10
3.4166754734
 20
4.9624587482
 30
0.0
 10
3.4167628298
 20
4.9613535167
 30
0.0
 10
3.4167702154
 20
4.9591168498
 30
0.0
 10
3.416213663
 20
4.9557969817
 30
0.0
 10
3.4150356876
 20
4.9526178082
 30
0.0
 10
3.413227417
 20
4.9497311227
 30
0.0
 10
3.4108412146
 20
4.94729128
 30
0.0
 10
3.4079941179
 20
4.9454200061
 30
0.0
 10
3.4048392087
 20
4.944177143
 30
0.0
 10
3.401528641
 20
4.9435581853
 30
0.0
 10
3.3981868926
 20
4.9435135968
 30
0.0
 10
3.3949031164
 20
4.9439728851
 30
0.0
 10
3.3917330586
 20
4.9448612678
 30
0.0
 10
3.3857529323
 20
4.9473315186
 30
0.0
 10
3.3813530698
 20
4.9506607769
 30
0.0
 10
3.3783268936
 20
4.9536870325
 30
0.0
  0
SPLINE
  5
2E1
100
AcDbEntity
  8
ALL_ASSEMBLY_MEMBERS
100
AcDbSpline
 62
7
  6
CONTINUOUS
 70
0
 71
3
 72
15
 73
11
 74
0
 42
0.0000001
 43
0.0000001
 44
0.0000000001
 40
0.0
 40
0.0
 40
0.0
 40
0.0
 40
0.1429411537
 40
0.2856162313
 40
0.425105685
 40
0.5588289268
 40
0.6841865161
 40
0.7998170766
 40
0.9053037719
 40
1.0
 40
1.0
 40
1.0
 40
1.0
 10
2.9906096825
 20
5.3203565079
 30
0.0
 10
2.9916865766
 20
5.3205225116
 30
0.0
 10
2.9938246129
 20
5.3209517325
 30
0.0
 10
2.9969327616
 20
5.3218874054
 30
0.0
 10
2.9998599807
 20
5.3231195314
 30
0.0
 10
3.0025381029
 20
5.3245630072
 30
0.0
 10
3.0049210731
 20
5.3261463784
 30
0.0
 10
3.0069380396
 20
5.3278654017
 30
0.0
 10
3.0085085516
 20
5.3297035386
 30
0.0
 10
3.00928468
 20
5.3310312064
 30
0.0
 10
3.0095750762
 20
5.3316920694
 30
0.0
  0
SPLINE
  5
2E2
100
AcDbEntity
  8
ALL_ASSEMBLY_MEMBERS
100
AcDbSpline
 62
7
  6
CONTINUOUS
 70
0
 71
3
 72
16
 73
12
 74
0
 42
0.0000001
 43
0.0000001
 44
0.0000000001
 40
0.0
 40
0.0
 40
0.0
 40
0.0
 40
0.1240232733
 40
0.1862879398
 40
0.2485586842
 40
0.3730369492
 40
0.4978412896
 40
0.6229851656
 40
0.7484327284
 40
0.8742665852
 40
1.0
 40
1.0
 40
1.0
 40
1.0
 10
3.4459298996
 20
5.3293253106
 30
0.0
 10
3.4446420132
 20
5.3293253106
 30
0.0
 10
3.4427007278
 20
5.3295212207
 30
0.0
 10
3.4401957125
 20
5.3301556168
 30
0.0
 10
3.4377612251
 20
5.3310386811
 30
0.0
 10
3.4348967562
 20
5.33259145
 30
0.0
 10
3.431891446
 20
5.3350969938
 30
0.0
 10
3.4294226228
 20
5.3381458176
 30
0.0
 10
3.4275887544
 20
5.3416264951
 30
0.0
 10
3.4264630348
 20
5.3454005709
 30
0.0
 10
3.4262072413
 20
5.3480196657
 30
0.0
 10
3.4262072413
 20
5.3493253106
 30
0.0
  0
SPLINE
  5
2E3
100
AcDbEntity
  8
ALL_ASSEMBLY_MEMBERS
100
AcDbSpline
 62
7
  6
CONTINUOUS
 70
0
 71
3
 72
11
 73
7
 74
0
 42
0.0000001
 43
0.0000001
 44
0.0000000001
 40
0.0
 40
0.0
 40
0.0
 40
0.0
 40
0.2173477129
 40
0.4575371496
 40
0.7194577629
 40
1.0
 40
1.0
 40
1.0
 40
1.0
 10
3.0095750762
 20
5.3316920694
 30
0.0
 10
3.0099433082
 20
5.3306956438
 30
0.0
 10
3.010720099
 20
5.3285986556
 30
0.0
 10
3.0120140269
 20
5.3253283369
 30
0.0
 10
3.0135688386
 20
5.3218319062
 30
0.0
 10
3.0147980557
 20
5.3194789803
 30
0.0
 10
3.015488442
 20
5.3182943165
 30
0.0
  0
SPLINE
  5
2E4
100
AcDbEntity
  8
ALL_ASSEMBLY_MEMBERS
100
AcDbSpline
 62
7
  6
CONTINUOUS
 70
0
 71
3
 72
19
 73
15
 74
0
 42
0.0000001
 43
0.0000001
 44
0.0000000001
 40
0.0
 40
0.0
 40
0.0
 40
0.0
 40
0.0868906256
 40
0.1730886579
 40
0.3391494788
 40
0.4930867668
 40
0.6318742161
 40
0.7532851217
 40
0.8069319146
 40
0.8555612661
 40
0.8990277836
 40
0.9373351708
 40
0.9707538558
 40
1.0
 40
1.0
 40
1.0
 40
1.0
 10
3.4355119575
 20
5.3093253106
 30
0.0
 10
3.4355118069
 20
5.3100180117
 30
0.0
 10
3.4355645707
 20
5.311398458
 30
0.0
 10
3.4358629454
 20
5.3140875311
 30
0.0
 10
3.4365664338
 20
5.3172605667
 30
0.0
 10
3.4378372002
 20
5.3207012927
 30
0.0
 10
3.4393723081
 20
5.3236337706
 30
0.0
 10
3.4408115034
 20
5.3256910231
 30
0.0
 10
3.4419933359
 20
5.327028625
 30
0.0
 10
3.4428340066
 20
5.3278329594
 30
0.0
 10
3.4436538754
 20
5.3284754201
 30
0.0
 10
3.4444442333
 20
5.3289492586
 30
0.0
 10
3.4451964982
 20
5.329247246
 30
0.0
 10
3.4456967463
 20
5.3293253273
 30
0.0
 10
3.4459298996
 20
5.3293253106
 30
0.0
  0
SPLINE
  5
2E5
100
AcDbEntity
  8
ALL_ASSEMBLY_MEMBERS
100
AcDbSpline
 62
7
  6
CONTINUOUS
 70
0
 71
3
 72
24
 73
20
 74
0
 42
0.0000001
 43
0.0000001
 44
0.0000000001
 40
0.0
 40
0.0
 40
0.0
 40
0.0
 40
0.1801584393
 40
0.3549237554
 40
0.5186970554
 40
0.5948524457
 40
0.6662847479
 40
0.7323291117
 40
0.7923386191
 40
0.8456845984
 40
0.8917883077
 40
0.9119675891
 40
0.9301681441
 40
0.946371461
 40
0.9605829611
 40
0.9728492524
 40
0.9833012257
 40
0.9922001623
 40
1.0
 40
1.0
 40
1.0
 40
1.0
 10
3.4166759326
 20
5.3093253106
 30
0.0
 10
3.4166755139
 20
5.3118559394
 30
0.0
 10
3.4168306495
 20
5.3168429031
 30
0.0
 10
3.4175067073
 20
5.3241017355
 30
0.0
 10
3.4184094177
 20
5.3298610202
 30
0.0
 10
3.4193045683
 20
5.3341427558
 30
0.0
 10
3.4200203125
 20
5.3370576613
 30
0.0
 10
3.4207824776
 20
5.339725647
 30
0.0
 10
3.421574642
 20
5.3421187903
 30
0.0
 10
3.4223809562
 20
5.3442094756
 30
0.0
 10
3.4230780493
 20
5.3457402031
 30
0.0
 10
3.423637225
 20
5.3467873486
 30
0.0
 10
3.4240316142
 20
5.3474452924
 30
0.0
 10
3.4244180163
 20
5.3480089777
 30
0.0
 10
3.4247948797
 20
5.3484762509
 30
0.0
 10
3.4251611172
 20
5.3488453141
 30
0.0
 10
3.4255167138
 20
5.3491147524
 30
0.0
 10
3.4258623832
 20
5.3492831355
 30
0.0
 10
3.4260976794
 20
5.3493253358
 30
0.0
 10
3.4262072413
 20
5.3493253106
 30
0.0
  0
SPLINE
  5
2E6
100
AcDbEntity
  8
ALL_ASSEMBLY_MEMBERS
100
AcDbSpline
 62
7
  6
CONTINUOUS
 70
0
 71
3
 72
13
 73
9
 74
0
 42
0.0000001
 43
0.0000001
 44
0.0000000001
 40
0.0
 40
0.0
 40
0.0
 40
0.0
 40
0.1306279998
 40
0.261070924
 40
0.3906894591
 40
0.518853921
 40
0.7674401846
 40
1.0
 40
1.0
 40
1.0
 40
1.0
 10
2.9979417186
 20
5.3093253106
 30
0.0
 10
2.997520123
 20
5.3097400006
 30
0.0
 10
2.9967000356
 20
5.3105920514
 30
0.0
 10
2.9955459224
 20
5.3119334936
 30
0.0
 10
2.9944790678
 20
5.3133315803
 30
0.0
 10
2.9932000658
 20
5.3152353485
 30
0.0
 10
2.9918416241
 20
5.3176410796
 30
0.0
 10
2.9909213303
 20
5.3196168018
 30
0.0
 10
2.9904991327
 20
5.3205812563
 30
0.0
  0
SPLINE
  5
2E7
100
AcDbEntity
  8
ALL_ASSEMBLY_MEMBERS
100
AcDbSpline
 62
7
  6
CONTINUOUS
 70
0
 71
3
 72
9
 73
5
 74
0
 42
0.0000001
 43
0.0000001
 44
0.0000000001
 40
0.0
 40
0.0
 40
0.0
 40
0.0
 40
0.2491881181
 40
1.0
 40
1.0
 40
1.0
 40
1.0
 10
3.0217660443
 20
5.3102480015
 30
0.0
 10
3.0211657404
 20
5.3108482943
 30
0.0
 10
3.018824442
 20
5.3133227691
 30
0.0
 10
3.0167740469
 20
5.3160829516
 30
0.0
 10
3.015488407
 20
5.3182942986
 30
0.0
  0
SPLINE
  5
2E8
100
AcDbEntity
  8
ALL_ASSEMBLY_MEMBERS
100
AcDbSpline
 62
7
  6
CONTINUOUS
 70
0
 71
3
 72
20
 73
16
 74
0
 42
0.0000001
 43
0.0000001
 44
0.0000000001
 40
0.0
 40
0.0
 40
0.0
 40
0.0
 40
0.2425083536
 40
0.304134522
 40
0.3661282437
 40
0.428543236
 40
0.4914001627
 40
0.5546872697
 40
0.6183531187
 40
0.6822832249
 40
0.7463070566
 40
0.810233387
 40
0.8738791839
 40
0.9371748891
 40
1.0
 40
1.0
 40
1.0
 40
1.0
 10
6.9875503352
 20
4.9536868713
 30
0.0
 10
6.9845241928
 20
4.9506607808
 30
0.0
 10
6.9801245123
 20
4.947331533
 30
0.0
 10
6.9741444806
 20
4.9448613186
 30
0.0
 10
6.970974355
 20
4.9439729941
 30
0.0
 10
6.9676905192
 20
4.9435137414
 30
0.0
 10
6.964348734
 20
4.9435583983
 30
0.0
 10
6.9610381689
 20
4.9441773995
 30
0.0
 10
6.957883286
 20
4.9454202627
 30
0.0
 10
6.9550362132
 20
4.9472915133
 30
0.0
 10
6.9526499932
 20
4.9497313095
 30
0.0
 10
6.9508417099
 20
4.9526179819
 30
0.0
 10
6.9496637502
 20
4.9557971536
 30
0.0
 10
6.9491072639
 20
4.9591170337
 30
0.0
 10
6.9491146789
 20
4.9613536847
 30
0.0
 10
6.949201956
 20
4.9624589265
 30
0.0
  0
SPLINE
  5
2E9
100
AcDbEntity
  8
ALL_ASSEMBLY_MEMBERS
100
AcDbSpline
 62
7
  6
CONTINUOUS
 70
0
 71
3
 72
23
 73
19
 74
0
 42
0.0000001
 43
0.0000001
 44
0.0000000001
 40
0.0
 40
0.0
 40
0.0
 40
0.0
 40
0.0625074167
 40
0.1250730658
 40
0.1876091578
 40
0.2501281369
 40
0.3126481449
 40
0.3751606033
 40
0.4376581548
 40
0.5001434719
 40
0.5626171074
 40
0.6250815268
 40
0.6875424004
 40
0.7500070438
 40
0.8124841756
 40
0.8749651777
 40
0.937496383
 40
1.0
 40
1.0
 40
1.0
 40
1.0
 10
7.0016924159
 20
4.9395447906
 30
0.0
 10
7.0002632567
 20
4.9381156091
 30
0.0
 10
6.99724472
 20
4.9354095526
 30
0.0
 10
6.9922894212
 20
4.9318878906
 30
0.0
 10
6.9869493973
 20
4.9289771039
 30
0.0
 10
6.9812884658
 20
4.9267543131
 30
0.0
 10
6.9753840346
 20
4.9252917993
 30
0.0
 10
6.9693326922
 20
4.9246602341
 30
0.0
 10
6.963252881
 20
4.9249141907
 30
0.0
 10
6.9572815351
 20
4.9260894472
 30
0.0
 10
6.9515702804
 20
4.928193802
 30
0.0
 10
6.9462772597
 20
4.931200036
 30
0.0
 10
6.9415560791
 20
4.9350431649
 30
0.0
 10
6.937543434
 20
4.9396218337
 30
0.0
 10
6.9343486817
 20
4.9448043524
 30
0.0
 10
6.9320447853
 20
4.9504410885
 30
0.0
 10
6.9306680724
 20
4.9563704286
 30
0.0
 10
6.9303657069
 20
4.9604201865
 30
0.0
 10
6.9303653717
 20
4.9624412157
 30
0.0
  0
SPLINE
  5
2EA
100
AcDbEntity
  8
ALL_ASSEMBLY_MEMBERS
100
AcDbSpline
 62
7
  6
CONTINUOUS
 70
0
 71
3
 72
19
 73
15
 74
0
 42
0.0000001
 43
0.0000001
 44
0.0000000001
 40
0.0
 40
0.0
 40
0.0
 40
0.0
 40
0.0622666244
 40
0.1005683499
 40
0.1440339296
 40
0.1926627348
 40
0.2463084404
 40
0.3677248186
 40
0.5065335915
 40
0.6605344541
 40
0.7423762507
 40
0.8268225957
 40
0.9130813622
 40
1.0
 40
1.0
 40
1.0
 40
1.0
 10
6.9199474296
 20
5.3293253106
 30
0.0
 10
6.9204436811
 20
5.329325319
 30
0.0
 10
6.9212397031
 20
5.3290660285
 30
0.0
 10
6.9222213823
 20
5.3284763118
 30
0.0
 10
6.9230427496
 20
5.3278336182
 30
0.0
 10
6.9238827013
 20
5.3270297892
 30
0.0
 10
6.9250646627
 20
5.3256927017
 30
0.0
 10
6.9265034352
 20
5.3236358537
 30
0.0
 10
6.9280392139
 20
5.3207043133
 30
0.0
 10
6.9290767565
 20
5.3178942149
 30
0.0
 10
6.9297192211
 20
5.315422044
 30
0.0
 10
6.9300854108
 20
5.3134409895
 30
0.0
 10
6.9303125004
 20
5.3113987275
 30
0.0
 10
6.9303654786
 20
5.3100180332
 30
0.0
 10
6.9303653717
 20
5.3093253106
 30
0.0
  0
SPLINE
  5
2EB
100
AcDbEntity
  8
ALL_ASSEMBLY_MEMBERS
100
AcDbSpline
 62
7
  6
CONTINUOUS
 70
0
 71
3
 72
16
 73
12
 74
0
 42
0.0000001
 43
0.0000001
 44
0.0000000001
 40
0.0
 40
0.0
 40
0.0
 40
0.0
 40
0.1240232724
 40
0.1862879378
 40
0.2485586813
 40
0.3730369456
 40
0.4978412861
 40
0.6229851623
 40
0.7484327261
 40
0.8742665845
 40
1.0
 40
1.0
 40
1.0
 40
1.0
 10
7.3834298996
 20
5.3293253106
 30
0.0
 10
7.3821420132
 20
5.3293253106
 30
0.0
 10
7.3802007279
 20
5.3295212207
 30
0.0
 10
7.3776957125
 20
5.3301556168
 30
0.0
 10
7.3752612252
 20
5.331038681
 30
0.0
 10
7.3723967563
 20
5.33259145
 30
0.0
 10
7.3693914461
 20
5.3350969938
 30
0.0
 10
7.3669226229
 20
5.3381458175
 30
0.0
 10
7.3650887544
 20
5.341626495
 30
0.0
 10
7.3639630349
 20
5.3454005709
 30
0.0
 10
7.3637072413
 20
5.3480196657
 30
0.0
 10
7.3637072413
 20
5.3493253106
 30
0.0
  0
SPLINE
  5
2EC
100
AcDbEntity
  8
ALL_ASSEMBLY_MEMBERS
100
AcDbSpline
 62
7
  6
CONTINUOUS
 70
0
 71
3
 72
16
 73
12
 74
0
 42
0.0000001
 43
0.0000001
 44
0.0000000001
 40
0.0
 40
0.0
 40
0.0
 40
0.0
 40
0.1751772686
 40
0.3378426392
 40
0.4865229008
 40
0.6204280325
 40
0.7387919816
 40
0.8409870773
 40
0.8861140072
 40
0.9274482316
 40
1.0
 40
1.0
 40
1.0
 40
1.0
 10
7.3752689582
 20
5.3203711384
 30
0.0
 10
7.3755582736
 20
5.3210460073
 30
0.0
 10
7.3761714016
 20
5.3223247197
 30
0.0
 10
7.3772022624
 20
5.3240867161
 30
0.0
 10
7.3782739475
 20
5.3256173727
 30
0.0
 10
7.379360037
 20
5.3269034536
 30
0.0
 10
7.3804341586
 20
5.3279341661
 30
0.0
 10
7.3813338979
 20
5.3285985693
 30
0.0
 10
7.3820306054
 20
5.3289761616
 30
0.0
 10
7.3826476184
 20
5.3292284773
 30
0.0
 10
7.3831257931
 20
5.3293253315
 30
0.0
 10
7.3834298996
 20
5.3293253106
 30
0.0
  0
SPLINE
  5
2ED
100
AcDbEntity
  8
ALL_ASSEMBLY_MEMBERS
100
AcDbSpline
 62
7
  6
CONTINUOUS
 70
0
 71
3
 72
19
 73
15
 74
0
 42
0.0000001
 43
0.0000001
 44
0.0000000001
 40
0.0
 40
0.0
 40
0.0
 40
0.0
 40
0.1964086722
 40
0.3769716525
 40
0.538744722
 40
0.6792662514
 40
0.740861487
 40
0.7963324754
 40
0.8454673308
 40
0.8881581429
 40
0.9244396926
 40
0.954561601
 40
0.979241421
 40
1.0
 40
1.0
 40
1.0
 40
1.0
 10
7.3562985965
 20
5.3316855208
 30
0.0
 10
7.3565498262
 20
5.332946944
 30
0.0
 10
7.3570803311
 20
5.3353587596
 30
0.0
 10
7.3579868513
 20
5.3387695799
 30
0.0
 10
7.3589466983
 20
5.3417837491
 30
0.0
 10
7.3597987696
 20
5.3440113107
 30
0.0
 10
7.3604931341
 20
5.3455491062
 30
0.0
 10
7.3609859297
 20
5.3465200424
 30
0.0
 10
7.3614702553
 20
5.3473549507
 30
0.0
 10
7.3619429245
 20
5.3480491731
 30
0.0
 10
7.3624009566
 20
5.3485993895
 30
0.0
 10
7.3628439169
 20
5.3490028633
 30
0.0
 10
7.3632730899
 20
5.3492583545
 30
0.0
 10
7.3635713021
 20
5.3493253406
 30
0.0
 10
7.3637072413
 20
5.3493253106
 30
0.0
  0
SPLINE
  5
2EE
100
AcDbEntity
  8
ALL_ASSEMBLY_MEMBERS
100
AcDbSpline
 62
7
  6
CONTINUOUS
 70
0
 71
3
 72
16
 73
12
 74
0
 42
0.0000001
 43
0.0000001
 44
0.0000000001
 40
0.0
 40
0.0
 40
0.0
 40
0.0
 40
0.1240232759
 40
0.1862879433
 40
0.2485586884
 40
0.3730369542
 40
0.4978412943
 40
0.6229851694
 40
0.7484327309
 40
0.8742665863
 40
1.0
 40
1.0
 40
1.0
 40
1.0
 10
6.9199474296
 20
5.3293253106
 30
0.0
 10
6.921235316
 20
5.3293253106
 30
0.0
 10
6.9231766014
 20
5.3295212207
 30
0.0
 10
6.9256816168
 20
5.3301556168
 30
0.0
 10
6.9281161042
 20
5.3310386811
 30
0.0
 10
6.9309805732
 20
5.33259145
 30
0.0
 10
6.9339858834
 20
5.3350969938
 30
0.0
 10
6.9364547066
 20
5.3381458176
 30
0.0
 10
6.938288575
 20
5.3416264951
 30
0.0
 10
6.9394142945
 20
5.3454005709
 30
0.0
 10
6.9396700879
 20
5.3480196657
 30
0.0
 10
6.9396700879
 20
5.3493253106
 30
0.0
  0
SPLINE
  5
2EF
100
AcDbEntity
  8
ALL_ASSEMBLY_MEMBERS
100
AcDbSpline
 62
7
  6
CONTINUOUS
 70
0
 71
3
 72
24
 73
20
 74
0
 42
0.0000001
 43
0.0000001
 44
0.0000000001
 40
0.0
 40
0.0
 40
0.0
 40
0.0
 40
0.0077982507
 40
0.0166939609
 40
0.027141784
 40
0.0394035913
 40
0.053607406
 40
0.0698016631
 40
0.0879945455
 40
0.1081678686
 40
0.1542530295
 40
0.2075815826
 40
0.2675778613
 40
0.3336137824
 40
0.4050424963
 40
0.4811956662
 40
0.644985981
 40
0.8198175735
 40
1.0
 40
1.0
 40
1.0
 40
1.0
 10
6.9396700879
 20
5.3493253106
 30
0.0
 10
6.9397796275
 20
5.3493253145
 30
0.0
 10
6.94001485
 20
5.3492831496
 30
0.0
 10
6.9403604457
 20
5.3491149011
 30
0.0
 10
6.9407159464
 20
5.3488456073
 30
0.0
 10
6.9410820263
 20
5.3484767118
 30
0.0
 10
6.941458774
 20
5.3480097315
 30
0.0
 10
6.9418450532
 20
5.3474463762
 30
0.0
 10
6.9422393374
 20
5.3467887409
 30
0.0
 10
6.9427983778
 20
5.3457420359
 30
0.0
 10
6.9434954021
 20
5.3442119242
 30
0.0
 10
6.9443015586
 20
5.3421219173
 30
0.0
 10
6.945093757
 20
5.3397293642
 30
0.0
 10
6.9458558985
 20
5.3370617378
 30
0.0
 10
6.9465716928
 20
5.3341470533
 30
0.0
 10
6.9474673704
 20
5.3298652659
 30
0.0
 10
6.9483702559
 20
5.3241048392
 30
0.0
 10
6.9490463284
 20
5.3168444975
 30
0.0
 10
6.9492016662
 20
5.3118562769
 30
0.0
 10
6.9492013966
 20
5.3093253106
 30
0.0
  0
SPLINE
  5
2F0
100
AcDbEntity
  8
ALL_ASSEMBLY_MEMBERS
100
AcDbSpline
 62
7
  6
CONTINUOUS
 70
0
 71
3
 72
11
 73
7
 74
0
 42
0.0000001
 43
0.0000001
 44
0.0000000001
 40
0.0
 40
0.0
 40
0.0
 40
0.0
 40
0.280578339
 40
0.5425225156
 40
0.7826939237
 40
1.0
 40
1.0
 40
1.0
 40
1.0
 10
7.3503889752
 20
5.3182943258
 30
0.0
 10
7.3510800264
 20
5.3194800411
 30
0.0
 10
7.3523099403
 20
5.3218352764
 30
0.0
 10
7.3538657977
 20
5.3253347082
 30
0.0
 10
7.3551607066
 20
5.3286073921
 30
0.0
 10
7.3559379841
 20
5.330705744
 30
0.0
 10
7.3563064284
 20
5.3317027551
 30
0.0
  0
SPLINE
  5
2F1
100
AcDbEntity
  8
ALL_ASSEMBLY_MEMBERS
100
AcDbSpline
 62
7
  6
CONTINUOUS
 70
0
 71
3
 72
15
 73
11
 74
0
 42
0.0000001
 43
0.0000001
 44
0.0000000001
 40
0.0
 40
0.0
 40
0.0
 40
0.0
 40
0.0946917153
 40
0.2004654657
 40
0.3164755975
 40
0.4417240699
 40
0.5748633309
 40
0.7141536434
 40
0.8570320459
 40
1.0
 40
1.0
 40
1.0
 40
1.0
 10
7.3563064284
 20
5.3317027551
 30
0.0
 10
7.3565980228
 20
5.3310431126
 30
0.0
 10
7.357375855
 20
5.3297157859
 30
0.0
 10
7.3589428537
 20
5.3278715956
 30
0.0
 10
7.3609481779
 20
5.3261358566
 30
0.0
 10
7.3633312238
 20
5.3245573335
 30
0.0
 10
7.3660350083
 20
5.3231802439
 30
0.0
 10
7.3689727541
 20
5.3219992979
 30
0.0
 10
7.3720582847
 20
5.3210078273
 30
0.0
 10
7.3741897207
 20
5.3205383658
 30
0.0
 10
7.3752657579
 20
5.3203714041
 30
0.0
  0
SPLINE
  5
2F2
100
AcDbEntity
  8
ALL_ASSEMBLY_MEMBERS
100
AcDbSpline
 62
7
  6
CONTINUOUS
 70
0
 71
3
 72
12
 73
8
 74
0
 42
0.0000001
 43
0.0000001
 44
0.0000000001
 40
0.0
 40
0.0
 40
0.0
 40
0.0
 40
0.2332525184
 40
0.4820607175
 40
0.6100857883
 40
0.7395042505
 40
1.0
 40
1.0
 40
1.0
 40
1.0
 10
7.3752689582
 20
5.3203711384
 30
0.0
 10
7.3748528783
 20
5.3194207895
 30
0.0
 10
7.3739493358
 20
5.3174747927
 30
0.0
 10
7.3726039371
 20
5.3151129739
 30
0.0
 10
7.3713383633
 20
5.3132492318
 30
0.0
 10
7.3699342575
 20
5.311421712
 30
0.0
 10
7.3687614067
 20
5.3101379645
 30
0.0
 10
7.3679355888
 20
5.3093253106
 30
0.0
  0
SPLINE
  5
2F3
100
AcDbEntity
  8
ALL_ASSEMBLY_MEMBERS
100
AcDbSpline
 62
7
  6
CONTINUOUS
 70
0
 71
3
 72
9
 73
5
 74
0
 42
0.0000001
 43
0.0000001
 44
0.0000000001
 40
0.0
 40
0.0
 40
0.0
 40
0.0
 40
0.2513199691
 40
1.0
 40
1.0
 40
1.0
 40
1.0
 10
7.3503889493
 20
5.3182943391
 30
0.0
 10
7.34995852
 20
5.3175539958
 30
0.0
 10
7.3481345044
 20
5.3146732208
 30
0.0
 10
7.3459150931
 20
5.3120517781
 30
0.0
 10
7.3441111526
 20
5.3102478722
 30
0.0
  0
SPLINE
  5
2F4
100
AcDbEntity
  8
ALL_ASSEMBLY_MEMBERS
100
AcDbSpline
 62
7
  6
CONTINUOUS
 70
0
 71
3
 72
9
 73
5
 74
0
 42
0.0000001
 43
0.0000001
 44
0.0000000001
 40
0.0
 40
0.0
 40
0.0
 40
0.0
 40
0.4999948241
 40
1.0
 40
1.0
 40
1.0
 40
1.0
 10
7.3679355888
 20
5.3093253106
 30
0.0
 10
7.3666891279
 20
5.3068859731
 30
0.0
 10
7.3637843201
 20
5.3022085625
 30
0.0
 10
7.3601904643
 20
5.298042665
 30
0.0
 10
7.358253325
 20
5.2961056997
 30
0.0
  0
ENDSEC
  0
SECTION
  2
OBJECTS
  0
DICTIONARY
  5
C
100
AcDbDictionary
280
0
281
1
  3
ACAD_GROUP
350
D
  3
ACAD_MLINESTYLE
350
17
  3
ACAD_LAYOUT
350
1A
  3
ACAD_PLOTSETTINGS
350
19
  3
ACAD_PLOTSTYLENAME
350
E
  0
DICTIONARY
  5
D
102
{ACAD_REACTORS
330
C
102
}
100
AcDbDictionary
280
0
281
1
  0
ACDBDICTIONARYWDFLT
  5
E
102
{ACAD_REACTORS
330
C
102
}
100
AcDbDictionary
281
1
  3
Normal
350
F
100
AcDbDictionaryWithDefault
340
F
  0
DICTIONARY
  5
17
102
{ACAD_REACTORS
330
C
102
}
100
AcDbDictionary
280
0
281
1
  3
Standard
350
18
  0
DICTIONARY
  5
19
102
{ACAD_REACTORS
330
C
102
}
100
AcDbDictionary
281
1
  0
DICTIONARY
  5
1A
102
{ACAD_REACTORS
330
C
102
}
100
AcDbDictionary
281
1
  3
Model
350
2F5
  3
Layout1
350
2F6
  0
ACDBPLACEHOLDER
  5
F
102
{ACAD_REACTORS
330
E
102
}
  0
MLINESTYLE
  5
18
102
{ACAD_REACTORS
330
17
102
}
100
AcDbMlineStyle
  2
STANDARD
 70
0
  3

 62
256
 51
90.0
 52
90.0
 71
2
 49
0.5
 62
256
  6
BYLAYER
 49
-0.5
 62
256
  6
BYLAYER
  0
LAYOUT
  5
2F5
102
{ACAD_REACTORS
330
1A
102
}
100
AcDbPlotSettings
  1

  2
none_device
  4
ANSI_A_(11.00_x_8.50_Inches)
  6

 40
0.0
 41
0.0
 42
0.0
 43
0.0
 44
279.4
 45
215.9
 46
0.0
 47
0.0
 48
0.0
 49
0.0
140
0.0
141
0.0
142
1.0
143
1.0
 70
1024
 72
0
 73
0
 74
0
  7

 75
0
147
1.0
148
0.0
149
0.0
100
AcDbLayout
  1
Model
 70
0
 71
0
 10
0.0
 20
0.0
 11
11.0
 21
8.5
 12
0.0
 22
0.0
 32
0.0
 14
0.0
 24
0.0
 34
0.0
 15
0.0
 25
0.0
 35
0.0
146
0.0
 13
0.0
 23
0.0
 33
0.0
 16
1.0
 26
0.0
 36
0.0
 17
0.0
 27
1.0
 37
0.0
 76
0
330
231
345
0
346
0
  0
LAYOUT
  5
2F6
102
{ACAD_REACTORS
330
1A
102
}
100
AcDbPlotSettings
  1

  2
none_device
  4
ANSI_A_(11.00_x_8.50_Inches)
  6

 40
0.0
 41
0.0
 42
0.0
 43
0.0
 44
279.4
 45
215.9
 46
0.0
 47
0.0
 48
0.0
 49
0.0
140
0.0
141
0.0
142
1.0
143
1.0
 70
0
 72
0
 73
0
 74
0
  7

 75
0
147
1.0
148
0.0
149
0.0
100
AcDbLayout
  1
Layout1
 70
0
 71
1
 10
0.0
 20
0.0
 11
11.0
 21
8.5
 12
0.0
 22
0.0
 32
0.0
 14
0.0
 24
0.0
 34
0.0
 15
0.0
 25
0.0
 35
0.0
146
0.0
 13
0.0
 23
0.0
 33
0.0
 16
1.0
 26
0.0
 36
0.0
 17
0.0
 27
1.0
 37
0.0
 76
0
330
232
345
0
346
0
  0
ENDSEC
  0
EOF
