999
DXF file: E:\BT Custom\CADOUTPUT\_FRONT.dxf
999
Pro/ENGINEER 2018400 by Parametric Technology Corporation
  0
SECTION
  2
HEADER
  9
$ACADVER
  1
AC1018
  9
$DWGCODEPAGE
  3
ANSI_1252
  9
$EXTMAX
 10
22.0
 20
17.0
 30
0.0
  9
$EXTMIN
 10
0.0
 20
0.0
 30
0.0
  9
$LIMMIN
 10
0.0
 20
0.0
  9
$LIMMAX
 10
22.0
 20
17.0
  9
$VIEWCTR
 10
11.0
 20
8.5
  9
$VIEWSIZE
 40
17.0
  9
$CLAYER
  8
0
  9
$LTSCALE
 40
1.21
  9
$CELTYPE
  6
BYLAYER
  9
$DIMSCALE
 40
1.0
  9
$DIMASZ
 40
0.1
  9
$DIMEXO
 40
0.0625
  9
$DIMDLI
 40
0.836
  9
$DIMEXE
 40
0.125
  9
$DIMCEN
 40
0.198
  9
$DIMLFAC
 40
1.0
  9
$DIMBLK
  1
_FILLED
  9
$DIMALT
 70
1
  9
$DIMALTD
 70
2
  9
$DIMALTTD
 70
2
  9
$DIMALTF
 40
25.4
  9
$DIMTXT
 40
0.08
  9
$DIMTOL
 70
1
  9
$DIMLIM
 70
0
  9
$DIMTFAC
 40
1.0
  9
$DIMTP
 40
0.001
  9
$DIMTM
 40
0.001
  9
$DIMGAP
 40
0.09
  9
$DIMDSEP
 70
46
  9
$AUNITS
 70
0
  9
$PDMODE
 70
3
  9
$PDSIZE
 40
0.06
  9
$HANDSEED
  5
28B
  9
$TILEMODE
 70
1
  9
$MEASUREMENT
 70
0
  9
$INSUNITS
 70
1
  0
ENDSEC
  0
SECTION
  2
CLASSES
  0
CLASS
  1
ACDBDICTIONARYWDFLT
  2
AcDbDictionaryWithDefault
  3
AutoCAD 2000
 90
0
 91
1
280
0
281
0
  0
CLASS
  1
ACDBPLACEHOLDER
  2
AcDbPlaceHolder
  3
AutoCAD 2000
 90
0
 91
1
280
0
281
0
  0
CLASS
  1
LAYOUT
  2
AcDbLayout
  3
AutoCAD 2000
 90
0
 91
0
280
0
281
0
  0
ENDSEC
  0
SECTION
  2
TABLES
  0
TABLE
  2
VPORT
  5
8
100
AcDbSymbolTable
 70
2
  0
VPORT
  5
1F4
100
AcDbSymbolTableRecord
100
AcDbViewportTableRecord
  2
*ACTIVE
 70
0
 10
0.0
 20
0.0
 11
1.0
 21
1.0
 12
11.0
 22
8.5
 13
0.0
 23
0.0
 14
1.0
 24
1.0
 15
0.0
 25
0.0
 16
0.0
 26
0.0
 36
1.0
 17
0.0
 27
0.0
 37
0.0
 40
17.0
 41
1.2941176471
 42
50.0
 43
0.0
 44
0.0
 50
0.0
 51
0.0
 71
0
 72
100
 73
1
 74
1
 75
0
 76
0
 77
0
 78
0
  0
ENDTAB
  0
TABLE
  2
LTYPE
  5
5
100
AcDbSymbolTable
 70
6
  0
LTYPE
  5
14
100
AcDbSymbolTableRecord
100
AcDbLinetypeTableRecord
  2
BYBLOCK
 70
0
  3

 72
65
 73
0
 40
0.0
  0
LTYPE
  5
15
100
AcDbSymbolTableRecord
100
AcDbLinetypeTableRecord
  2
BYLAYER
 70
0
  3

 72
65
 73
0
 40
0.0
  0
LTYPE
  5
16
100
AcDbSymbolTableRecord
100
AcDbLinetypeTableRecord
  2
CONTINUOUS
 70
64
  3
Solid line
 72
65
 73
0
 40
0.0
  0
LTYPE
  5
1F5
100
AcDbSymbolTableRecord
100
AcDbLinetypeTableRecord
  2
CENTER
 70
64
  3
____ _ ____ _ ____ _ ____ _ ____ _ ____ _ ____
 72
65
 73
4
 40
0.6
 49
0.375
 74
0
 49
-0.075
 74
0
 49
0.075
 74
0
 49
-0.075
 74
0
  0
LTYPE
  5
1F6
100
AcDbSymbolTableRecord
100
AcDbLinetypeTableRecord
  2
HIDDEN
 70
64
  3
- - - - - - - - - - - - - - - - - - - -
 72
65
 73
2
 40
0.2
 49
0.1
 74
0
 49
-0.1
 74
0
  0
LTYPE
  5
1F7
100
AcDbSymbolTableRecord
100
AcDbLinetypeTableRecord
  2
PHANTOM
 70
64
  3
_____ _ _ _____ _ _ _____ _ _ _____
 72
65
 73
6
 40
0.8
 49
0.45
 74
0
 49
-0.05
 74
0
 49
0.1
 74
0
 49
-0.05
 74
0
 49
0.1
 74
0
 49
-0.05
 74
0
  0
LTYPE
  5
1F8
100
AcDbSymbolTableRecord
100
AcDbLinetypeTableRecord
  2
DOT
 70
64
  3
. . . . . . . . . . . . . . . . . . . .
 72
65
 73
2
 40
0.2
 49
0.1
 74
0
 49
-0.1
 74
0
  0
LTYPE
  5
1F9
100
AcDbSymbolTableRecord
100
AcDbLinetypeTableRecord
  2
DASHED
 70
64
  3
- - - - - - - - - - - - - - - - - - - -
 72
65
 73
2
 40
0.2
 49
0.1
 74
0
 49
-0.1
 74
0
  0
ENDTAB
  0
TABLE
  2
LAYER
  5
2
100
AcDbSymbolTable
 70
36
  0
LAYER
  5
10
100
AcDbSymbolTableRecord
100
AcDbLayerTableRecord
  2
0
 70
0
 62
7
  6
CONTINUOUS
370
-3
390
F
  0
LAYER
  5
1FA
100
AcDbSymbolTableRecord
100
AcDbLayerTableRecord
  2
DEFAULT_1
 70
0
 62
7
  6
CENTER
370
-3
390
F
  0
LAYER
  5
1FB
100
AcDbSymbolTableRecord
100
AcDbLayerTableRecord
  2
DEFAULT_2
 70
0
 62
8
  6
HIDDEN
370
-3
390
F
  0
LAYER
  5
1FC
100
AcDbSymbolTableRecord
100
AcDbLayerTableRecord
  2
DEFAULT_3
 70
0
 62
7
  6
PHANTOM
370
-3
390
F
  0
LAYER
  5
1FD
100
AcDbSymbolTableRecord
100
AcDbLayerTableRecord
  2
ALL_FEATURES
 70
0
 62
7
  6
CONTINUOUS
370
-3
390
F
  0
LAYER
  5
1FE
100
AcDbSymbolTableRecord
100
AcDbLayerTableRecord
  2
AXES_FEATURES
 70
0
 62
7
  6
CONTINUOUS
370
-3
390
F
  0
LAYER
  5
1FF
100
AcDbSymbolTableRecord
100
AcDbLayerTableRecord
  2
DIMENSIONS
 70
0
 62
7
  6
CONTINUOUS
370
-3
390
F
  0
ENDTAB
  0
TABLE
  2
STYLE
  5
3
100
AcDbSymbolTable
 70
1
  0
STYLE
  5
11
100
AcDbSymbolTableRecord
100
AcDbTextStyleTableRecord
  2
STANDARD
 70
0
 40
0.0
 41
0.8
 50
0.0
 71
0
 42
0.2
  3
txt
  4

  0
STYLE
  5
200
100
AcDbSymbolTableRecord
100
AcDbTextStyleTableRecord
  2
TEXTSTYLE_1
 70
0
 40
0.0
 41
0.8
 50
0.0
 71
0
 42
0.2
  3
gdt
  4

  0
ENDTAB
  0
TABLE
  2
VIEW
  5
6
100
AcDbSymbolTable
 70
0
  0
ENDTAB
  0
TABLE
  2
UCS
  5
7
100
AcDbSymbolTable
 70
0
  0
ENDTAB
  0
TABLE
  2
APPID
  5
9
100
AcDbSymbolTable
 70
1
  0
APPID
  5
201
100
AcDbSymbolTableRecord
100
AcDbRegAppTableRecord
  2
ACAD
 70
0
  0
ENDTAB
  0
TABLE
  2
BLOCK_RECORD
  5
1
100
AcDbSymbolTable
 70
0
  0
BLOCK_RECORD
  5
202
100
AcDbSymbolTableRecord
100
AcDbBlockTableRecord
  2
*Model_Space
  0
BLOCK_RECORD
  5
203
100
AcDbSymbolTableRecord
100
AcDbBlockTableRecord
  2
*Paper_Space
  0
BLOCK_RECORD
  5
204
100
AcDbSymbolTableRecord
100
AcDbBlockTableRecord
  2
_FILLED
  0
ENDTAB
  0
TABLE
  2
DIMSTYLE
  5
A
100
AcDbSymbolTable
 70
1
100
AcDbDimStyleTable
 71
0
  0
DIMSTYLE
105
205
100
AcDbSymbolTableRecord
100
AcDbDimStyleTableRecord
  2
STANDARD
 70
0
  3

  4

 40
1.0
 41
0.1
 42
0.0625
 43
0.38
 44
0.125
 45
0.0
 46
0.0
 47
0.001
 48
0.001
140
0.08
141
0.09
142
0.0
143
25.4
144
1.0
145
0.0
146
1.0
147
0.09
 71
1.0
 72
0.0
 73
1
 74
1
 75
0
 76
0
 77
0
 78
4
 79
1
170
1
171
2
172
0
173
0
174
0
175
0
176
0
177
0
178
0
270
2
179
3
271
3
272
3
273
2
274
2
275
0
280
0
281
0
282
0
283
1
284
4
285
0
286
0
287
3
288
0
340
11
278
46
341
204
342
204
343
204
344
204
  0
ENDTAB
  0
ENDSEC
  0
SECTION
  2
BLOCKS
  0
BLOCK
  5
20
100
AcDbEntity
  8
0
100
AcDbBlockBegin
  2
*Model_Space
 70
0
 10
0.0
 20
0.0
 30
0.0
  3
*Model_Space
  1

  0
ENDBLK
  5
21
100
AcDbEntity
  8
0
100
AcDbBlockEnd
  0
BLOCK
  5
1C
100
AcDbEntity
  8
0
100
AcDbBlockBegin
  2
*Paper_Space
 70
0
 10
0.0
 20
0.0
 30
0.0
  3
*Paper_Space
  1

  0
ENDBLK
  5
1D
100
AcDbEntity
  8
0
100
AcDbBlockEnd
  0
BLOCK
  5
206
100
AcDbEntity
  8
0
100
AcDbBlockBegin
  2
_FILLED
 70
64
 10
0.0
 20
0.0
  3
_FILLED
  1

  0
SOLID
  5
207
100
AcDbEntity
  8
0
  6
BYBLOCK
 62
0
100
AcDbTrace
 10
0.0
 20
0.0
 11
-1.0
 21
0.2
 12
-1.0
 22
-0.2
 13
-1.0
 23
-0.2
  0
ENDBLK
  5
208
100
AcDbEntity
  8
0
  6
BYBLOCK
 62
0
100
AcDbBlockEnd
  0
ENDSEC
  0
SECTION
  2
ENTITIES
  0
LINE
  5
209
100
AcDbEntity
  8
0
100
AcDbLine
 62
7
  6
CONTINUOUS
 10
4.3776923427
 20
6.017081746
 11
4.3776923427
 21
6.921081746
  0
LINE
  5
20A
100
AcDbEntity
  8
0
100
AcDbLine
 62
9
  6
CONTINUOUS
 10
4.4176923427
 20
6.961081746
 11
4.4176923427
 21
5.977081746
  0
LINE
  5
20B
100
AcDbEntity
  8
0
100
AcDbLine
 62
7
  6
CONTINUOUS
 10
6.0126928177
 20
3.511081746
 11
7.8626919991
 21
3.511081746
  0
LINE
  5
20C
100
AcDbEntity
  8
0
100
AcDbLine
 62
7
  6
CONTINUOUS
 10
10.0126923427
 20
3.511081746
 11
11.8626923427
 21
3.511081746
  0
LINE
  5
20D
100
AcDbEntity
  8
0
100
AcDbLine
 62
7
  6
CONTINUOUS
 10
14.0126928177
 20
3.511081746
 11
15.8626919991
 21
3.511081746
  0
LINE
  5
20E
100
AcDbEntity
  8
0
100
AcDbLine
 62
9
  6
CONTINUOUS
 10
15.8626919991
 20
3.741081746
 11
14.0126923427
 21
3.741081746
  0
LINE
  5
20F
100
AcDbEntity
  8
0
100
AcDbLine
 62
9
  6
CONTINUOUS
 10
7.8626919991
 20
3.741081746
 11
6.0126923427
 21
3.741081746
  0
LINE
  5
210
100
AcDbEntity
  8
0
100
AcDbLine
 62
7
  6
CONTINUOUS
 10
15.8426920065
 20
3.761081746
 11
14.0326934289
 21
3.761081746
  0
LINE
  5
211
100
AcDbEntity
  8
0
100
AcDbLine
 62
7
  6
CONTINUOUS
 10
7.8426920065
 20
3.761081746
 11
6.0326934289
 21
3.761081746
  0
LINE
  5
212
100
AcDbEntity
  8
0
100
AcDbLine
 62
9
  6
CONTINUOUS
 10
11.8626923427
 20
3.991081746
 11
10.0126923427
 21
3.991081746
  0
LINE
  5
213
100
AcDbEntity
  8
0
100
AcDbLine
 62
7
  6
CONTINUOUS
 10
11.8426923427
 20
4.011081746
 11
10.0326923427
 21
4.011081746
  0
LINE
  5
214
100
AcDbEntity
  8
0
100
AcDbLine
 62
9
  6
CONTINUOUS
 10
6.5245630219
 20
6.0435209676
 11
6.5528472931
 21
6.0152366963
  0
LINE
  5
215
100
AcDbEntity
  8
0
100
AcDbLine
 62
7
  6
CONTINUOUS
 10
6.0126923427
 20
3.511081746
 11
6.0126923427
 21
3.741081746
  0
LINE
  5
216
100
AcDbEntity
  8
0
100
AcDbLine
 62
7
  6
CONTINUOUS
 10
15.367691514
 20
4.137081746
 11
14.5076931715
 21
4.137081746
  0
LINE
  5
217
100
AcDbEntity
  8
0
100
AcDbLine
 62
7
  6
CONTINUOUS
 10
7.367691514
 20
4.137081746
 11
6.5076931715
 21
4.137081746
  0
LINE
  5
218
100
AcDbEntity
  8
0
100
AcDbLine
 62
7
  6
CONTINUOUS
 10
6.5076923427
 20
4.187081746
 11
7.3676923427
 21
4.187081746
  0
LINE
  5
219
100
AcDbEntity
  8
0
100
AcDbLine
 62
7
  6
CONTINUOUS
 10
14.5076923427
 20
4.187081746
 11
15.3676923427
 21
4.187081746
  0
LINE
  5
21A
100
AcDbEntity
  8
0
100
AcDbLine
 62
9
  6
CONTINUOUS
 10
6.5051984892
 20
6.0170817409
 11
6.5402917818
 21
5.9991438167
  0
LINE
  5
21B
100
AcDbEntity
  8
0
100
AcDbLine
 62
7
  6
CONTINUOUS
 10
6.5076923427
 20
5.937081746
 11
6.5076923427
 21
4.187081746
  0
LINE
  5
21C
100
AcDbEntity
  8
0
100
AcDbLine
 62
7
  6
CONTINUOUS
 10
6.5076923427
 20
3.761081746
 11
6.5076923427
 21
4.137081746
  0
LINE
  5
21D
100
AcDbEntity
  8
0
100
AcDbLine
 62
7
  6
CONTINUOUS
 10
6.5976923427
 20
4.137081746
 11
6.5976923427
 21
4.187081746
  0
LINE
  5
21E
100
AcDbEntity
  8
0
100
AcDbLine
 62
9
  6
CONTINUOUS
 10
7.2659690512
 20
6.7283584545
 11
7.23768478
 21
6.7566427257
  0
LINE
  5
21F
100
AcDbEntity
  8
0
100
AcDbLine
 62
7
  6
CONTINUOUS
 10
7.2776923427
 20
4.137081746
 11
7.2776923427
 21
4.187081746
  0
LINE
  5
220
100
AcDbEntity
  8
0
100
AcDbLine
 62
9
  6
CONTINUOUS
 10
7.3426671998
 20
6.7108144505
 11
7.3426671998
 21
6.0170742333
  0
LINE
  5
221
100
AcDbEntity
  8
0
100
AcDbLine
 62
7
  6
CONTINUOUS
 10
7.3676923427
 20
5.937081746
 11
7.3676923427
 21
4.187081746
  0
LINE
  5
222
100
AcDbEntity
  8
0
100
AcDbLine
 62
7
  6
CONTINUOUS
 10
7.3676923427
 20
3.761081746
 11
7.3676923427
 21
4.137081746
  0
LINE
  5
223
100
AcDbEntity
  8
0
100
AcDbLine
 62
9
  6
CONTINUOUS
 10
7.3803379507
 20
6.7108260946
 11
7.3803389286
 21
6.0170817459
  0
LINE
  5
224
100
AcDbEntity
  8
0
100
AcDbLine
 62
9
  6
CONTINUOUS
 10
7.5246923427
 20
5.977081746
 11
7.5246923427
 21
6.961081746
  0
LINE
  5
225
100
AcDbEntity
  8
0
100
AcDbLine
 62
7
  6
CONTINUOUS
 10
7.5646923427
 20
6.921081746
 11
7.5646923427
 21
6.017081746
  0
LINE
  5
226
100
AcDbEntity
  8
0
100
AcDbLine
 62
7
  6
CONTINUOUS
 10
7.8626923427
 20
3.511081746
 11
7.8626923427
 21
3.741081746
  0
LINE
  5
227
100
AcDbEntity
  8
0
100
AcDbLine
 62
9
  6
CONTINUOUS
 10
15.3676923427
 20
5.937081746
 11
15.3617294961
 21
5.937081746
  0
LINE
  5
228
100
AcDbEntity
  8
0
100
AcDbLine
 62
9
  6
CONTINUOUS
 10
14.5136551893
 20
5.937081746
 11
14.5077954911
 21
5.937081746
  0
LINE
  5
229
100
AcDbEntity
  8
0
100
AcDbLine
 62
9
  6
CONTINUOUS
 10
7.3676923427
 20
5.937081746
 11
7.3617294961
 21
5.937081746
  0
LINE
  5
22A
100
AcDbEntity
  8
0
100
AcDbLine
 62
9
  6
CONTINUOUS
 10
6.5136551893
 20
5.937081746
 11
6.5076923427
 21
5.937081746
  0
LINE
  5
22B
100
AcDbEntity
  8
0
100
AcDbLine
 62
7
  6
CONTINUOUS
 10
17.4576923427
 20
5.977081746
 11
15.4011748127
 21
5.977081746
  0
LINE
  5
22C
100
AcDbEntity
  8
0
100
AcDbLine
 62
7
  6
CONTINUOUS
 10
14.4742098727
 20
5.977081746
 11
14.3506923427
 21
5.977081746
  0
LINE
  5
22D
100
AcDbEntity
  8
0
100
AcDbLine
 62
7
  6
CONTINUOUS
 10
7.5246923427
 20
5.977081746
 11
7.4011748127
 21
5.977081746
  0
LINE
  5
22E
100
AcDbEntity
  8
0
100
AcDbLine
 62
7
  6
CONTINUOUS
 10
6.4742098727
 20
5.977081746
 11
4.4176923427
 21
5.977081746
  0
LINE
  5
22F
100
AcDbEntity
  8
0
100
AcDbLine
 62
9
  6
CONTINUOUS
 10
4.3776923427
 20
6.017081746
 11
6.5051984944
 21
6.017081746
  0
LINE
  5
230
100
AcDbEntity
  8
0
100
AcDbLine
 62
9
  6
CONTINUOUS
 10
7.3426671998
 20
6.0170817457
 11
7.5646923427
 21
6.017081746
  0
LINE
  5
231
100
AcDbEntity
  8
0
100
AcDbLine
 62
9
  6
CONTINUOUS
 10
14.3106923427
 20
6.017081746
 11
14.5327174803
 21
6.0170820168
  0
LINE
  5
232
100
AcDbEntity
  8
0
100
AcDbLine
 62
9
  6
CONTINUOUS
 10
15.3701862348
 20
6.017081746
 11
17.4976923427
 21
6.017081746
  0
LINE
  5
233
100
AcDbEntity
  8
0
100
AcDbLine
 62
9
  6
CONTINUOUS
 10
7.3803389286
 20
6.7108141613
 11
7.3426671998
 21
6.7108141613
  0
LINE
  5
234
100
AcDbEntity
  8
0
100
AcDbLine
 62
9
  6
CONTINUOUS
 10
17.4976923427
 20
6.921081746
 11
14.3106923427
 21
6.921081746
  0
LINE
  5
235
100
AcDbEntity
  8
0
100
AcDbLine
 62
9
  6
CONTINUOUS
 10
7.5646923427
 20
6.921081746
 11
4.3776923427
 21
6.921081746
  0
LINE
  5
236
100
AcDbEntity
  8
0
100
AcDbLine
 62
7
  6
CONTINUOUS
 10
4.4176923427
 20
6.961081746
 11
7.5246923427
 21
6.961081746
  0
LINE
  5
237
100
AcDbEntity
  8
0
100
AcDbLine
 62
7
  6
CONTINUOUS
 10
14.3506923427
 20
6.961081746
 11
17.4576923427
 21
6.961081746
  0
LINE
  5
238
100
AcDbEntity
  8
0
100
AcDbLine
 62
7
  6
CONTINUOUS
 10
10.0126923427
 20
3.991081746
 11
10.0126923427
 21
3.511081746
  0
LINE
  5
239
100
AcDbEntity
  8
0
100
AcDbLine
 62
9
  6
CONTINUOUS
 10
7.2376848402
 20
6.756642786
 11
6.5245630219
 21
6.0435209676
  0
LINE
  5
23A
100
AcDbEntity
  8
0
100
AcDbLine
 62
7
  6
CONTINUOUS
 10
7.265969114
 20
6.7283585172
 11
6.5528472959
 21
6.0152366992
  0
LINE
  5
23B
100
AcDbEntity
  8
0
100
AcDbLine
 62
7
  6
CONTINUOUS
 10
10.4376923427
 20
4.011081746
 11
10.4376923427
 21
14.5242433291
  0
LINE
  5
23C
100
AcDbEntity
  8
0
100
AcDbLine
 62
7
  6
CONTINUOUS
 10
11.4376923427
 20
4.011081746
 11
11.4376923427
 21
14.5242428788
  0
LINE
  5
23D
100
AcDbEntity
  8
0
100
AcDbLine
 62
7
  6
CONTINUOUS
 10
11.8626923427
 20
3.991081746
 11
11.8626923427
 21
3.511081746
  0
LINE
  5
23E
100
AcDbEntity
  8
0
100
AcDbLine
 62
7
  6
CONTINUOUS
 10
15.3225376512
 20
6.0152364375
 11
14.6094158395
 21
6.7283582492
  0
LINE
  5
23F
100
AcDbEntity
  8
0
100
AcDbLine
 62
9
  6
CONTINUOUS
 10
15.3508219252
 20
6.043520706
 11
14.6377001069
 21
6.7566425244
  0
LINE
  5
240
100
AcDbEntity
  8
0
100
AcDbLine
 62
7
  6
CONTINUOUS
 10
14.0126923427
 20
3.511081746
 11
14.0126923427
 21
3.741081746
  0
LINE
  5
241
100
AcDbEntity
  8
0
100
AcDbLine
 62
7
  6
CONTINUOUS
 10
14.3106923427
 20
6.017081746
 11
14.3106923427
 21
6.921081746
  0
LINE
  5
242
100
AcDbEntity
  8
0
100
AcDbLine
 62
9
  6
CONTINUOUS
 10
14.3506923427
 20
6.961081746
 11
14.3506923427
 21
5.977081746
  0
LINE
  5
243
100
AcDbEntity
  8
0
100
AcDbLine
 62
9
  6
CONTINUOUS
 10
14.4950457569
 20
6.0170817459
 11
14.4950466738
 21
6.7107763537
  0
LINE
  5
244
100
AcDbEntity
  8
0
100
AcDbLine
 62
7
  6
CONTINUOUS
 10
14.5076923427
 20
5.937081746
 11
14.5076923427
 21
4.187081746
  0
LINE
  5
245
100
AcDbEntity
  8
0
100
AcDbLine
 62
7
  6
CONTINUOUS
 10
14.5076923427
 20
3.761081746
 11
14.5076923427
 21
4.137081746
  0
LINE
  5
246
100
AcDbEntity
  8
0
100
AcDbLine
 62
9
  6
CONTINUOUS
 10
14.5327174803
 20
6.0170744137
 11
14.5327174803
 21
6.7108147329
  0
LINE
  5
247
100
AcDbEntity
  8
0
100
AcDbLine
 62
7
  6
CONTINUOUS
 10
14.5976923427
 20
4.137081746
 11
14.5976923427
 21
4.187081746
  0
LINE
  5
248
100
AcDbEntity
  8
0
100
AcDbLine
 62
7
  6
CONTINUOUS
 10
15.2776923427
 20
4.137081746
 11
15.2776923427
 21
4.187081746
  0
LINE
  5
249
100
AcDbEntity
  8
0
100
AcDbLine
 62
7
  6
CONTINUOUS
 10
15.3676923427
 20
5.937081746
 11
15.3676923427
 21
4.187081746
  0
LINE
  5
24A
100
AcDbEntity
  8
0
100
AcDbLine
 62
7
  6
CONTINUOUS
 10
15.3676923427
 20
3.761081746
 11
15.3676923427
 21
4.137081746
  0
LINE
  5
24B
100
AcDbEntity
  8
0
100
AcDbLine
 62
9
  6
CONTINUOUS
 10
14.6377001069
 20
6.7566425244
 11
14.6094158356
 21
6.7283582531
  0
LINE
  5
24C
100
AcDbEntity
  8
0
100
AcDbLine
 62
7
  6
CONTINUOUS
 10
15.8626923427
 20
3.511081746
 11
15.8626923427
 21
3.741081746
  0
LINE
  5
24D
100
AcDbEntity
  8
0
100
AcDbLine
 62
9
  6
CONTINUOUS
 10
15.3701862106
 20
6.0170817941
 11
15.3350928663
 21
5.9991437555
  0
LINE
  5
24E
100
AcDbEntity
  8
0
100
AcDbLine
 62
9
  6
CONTINUOUS
 10
15.3225376336
 20
6.0152364551
 11
15.3508219049
 21
6.0435207264
  0
LINE
  5
24F
100
AcDbEntity
  8
0
100
AcDbLine
 62
9
  6
CONTINUOUS
 10
17.4576923427
 20
5.977081746
 11
17.4576923427
 21
6.961081746
  0
LINE
  5
250
100
AcDbEntity
  8
0
100
AcDbLine
 62
7
  6
CONTINUOUS
 10
17.4976923427
 20
6.921081746
 11
17.4976923427
 21
6.017081746
  0
ARC
  5
251
100
AcDbEntity
  8
0
100
AcDbCircle
 62
7
  6
CONTINUOUS
 10
10.9376923427
 20
14.5244127405
 40
0.5
100
AcDbArc
 50
0.0
 51
180.0
  0
ARC
  5
252
100
AcDbEntity
  8
0
100
AcDbCircle
 62
7
  6
CONTINUOUS
 10
4.4176923427
 20
6.921081746
 40
0.04
100
AcDbArc
 50
90.0
 51
180.0
  0
ARC
  5
253
100
AcDbEntity
  8
0
100
AcDbCircle
 62
7
  6
CONTINUOUS
 10
4.4176923427
 20
6.017081746
 40
0.04
100
AcDbArc
 50
180.0
 51
270.0
  0
ARC
  5
254
100
AcDbEntity
  8
0
100
AcDbCircle
 62
7
  6
CONTINUOUS
 10
7.5246923427
 20
6.921081746
 40
0.04
100
AcDbArc
 50
0.0
 51
90.0
  0
ARC
  5
255
100
AcDbEntity
  8
0
100
AcDbCircle
 62
7
  6
CONTINUOUS
 10
7.4076923427
 20
5.937081746
 40
0.04
100
AcDbArc
 50
99.2587646005
 51
180.0
  0
ARC
  5
256
100
AcDbEntity
  8
0
100
AcDbCircle
 62
7
  6
CONTINUOUS
 10
6.4676923427
 20
5.937081746
 40
0.04
100
AcDbArc
 50
0.0
 51
80.7412353995
  0
ARC
  5
257
100
AcDbEntity
  8
0
100
AcDbCircle
 62
7
  6
CONTINUOUS
 10
7.5246923427
 20
6.017081746
 40
0.04
100
AcDbArc
 50
270.0
 51
360.0
  0
ARC
  5
258
100
AcDbEntity
  8
0
100
AcDbCircle
 62
7
  6
CONTINUOUS
 10
17.4576923427
 20
6.017081746
 40
0.04
100
AcDbArc
 50
270.0
 51
360.0
  0
ARC
  5
259
100
AcDbEntity
  8
0
100
AcDbCircle
 62
7
  6
CONTINUOUS
 10
14.4676923427
 20
5.937081746
 40
0.04
100
AcDbArc
 50
0.0
 51
80.7412353995
  0
ARC
  5
25A
100
AcDbEntity
  8
0
100
AcDbCircle
 62
7
  6
CONTINUOUS
 10
15.4076923427
 20
5.937081746
 40
0.04
100
AcDbArc
 50
99.2587646005
 51
180.0
  0
ARC
  5
25B
100
AcDbEntity
  8
0
100
AcDbCircle
 62
7
  6
CONTINUOUS
 10
14.3506923427
 20
6.921081746
 40
0.04
100
AcDbArc
 50
90.0
 51
180.0
  0
ARC
  5
25C
100
AcDbEntity
  8
0
100
AcDbCircle
 62
7
  6
CONTINUOUS
 10
17.4576923427
 20
6.921081746
 40
0.04
100
AcDbArc
 50
0.0
 51
90.0
  0
ARC
  5
25D
100
AcDbEntity
  8
0
100
AcDbCircle
 62
7
  6
CONTINUOUS
 10
14.3506923427
 20
6.017081746
 40
0.04
100
AcDbArc
 50
180.0
 51
270.0
  0
ARC
  5
25E
100
AcDbEntity
  8
0
100
AcDbCircle
 62
7
  6
CONTINUOUS
 10
6.0326923427
 20
3.741081746
 40
0.02
100
AcDbArc
 50
90.0
 51
180.0
  0
ARC
  5
25F
100
AcDbEntity
  8
0
100
AcDbCircle
 62
7
  6
CONTINUOUS
 10
7.8426923427
 20
3.741081746
 40
0.02
100
AcDbArc
 50
0.0
 51
90.0
  0
ARC
  5
260
100
AcDbEntity
  8
0
100
AcDbCircle
 62
7
  6
CONTINUOUS
 10
15.8426923427
 20
3.741081746
 40
0.02
100
AcDbArc
 50
0.0
 51
90.0
  0
ARC
  5
261
100
AcDbEntity
  8
0
100
AcDbCircle
 62
7
  6
CONTINUOUS
 10
14.0326923427
 20
3.741081746
 40
0.02
100
AcDbArc
 50
90.0
 51
180.0
  0
ARC
  5
262
100
AcDbEntity
  8
0
100
AcDbCircle
 62
7
  6
CONTINUOUS
 10
10.0326923427
 20
3.991081746
 40
0.02
100
AcDbArc
 50
90.0
 51
180.0
  0
ARC
  5
263
100
AcDbEntity
  8
0
100
AcDbCircle
 62
7
  6
CONTINUOUS
 10
11.8426923427
 20
3.991081746
 40
0.02
100
AcDbArc
 50
0.0
 51
90.0
  0
SPLINE
  5
264
100
AcDbEntity
  8
0
100
AcDbSpline
 62
9
  6
CONTINUOUS
 70
0
 71
3
 72
12
 73
8
 74
0
 42
0.0000001
 43
0.0000001
 44
0.0000000001
 40
0.0
 40
0.0
 40
0.0
 40
0.0
 40
0.2604762863
 40
0.3898949881
 40
0.5179368209
 40
0.7667662314
 40
1.0
 40
1.0
 40
1.0
 40
1.0
 10
6.5051984944
 20
6.017081746
 30
0.0
 10
6.5035469621
 20
6.0154565409
 30
0.0
 10
6.5012012759
 20
6.01288918
 30
0.0
 10
6.4983936392
 20
6.0092336505
 30
0.0
 10
6.4958624586
 20
6.0055057474
 30
0.0
 10
6.4931697288
 20
6.0007829836
 30
0.0
 10
6.4913619188
 20
5.9968912046
 30
0.0
 10
6.4905296447
 20
5.9949907125
 30
0.0
  0
SPLINE
  5
265
100
AcDbEntity
  8
0
100
AcDbSpline
 62
9
  6
CONTINUOUS
 70
0
 71
3
 72
19
 73
15
 74
0
 42
0.0000001
 43
0.0000001
 44
0.0000000001
 40
0.0
 40
0.0
 40
0.0
 40
0.0
 40
0.0207572244
 40
0.0454568162
 40
0.0755902209
 40
0.1118810151
 40
0.1546133075
 40
0.2037776005
 40
0.2592414873
 40
0.3208111608
 40
0.4612816276
 40
0.6230585292
 40
0.803653504
 40
1.0
 40
1.0
 40
1.0
 40
1.0
 10
6.5136551893
 20
5.937081746
 30
0.0
 10
6.5139268984
 20
5.9370816858
 30
0.0
 10
6.5145231463
 20
5.9372162981
 30
0.0
 10
6.5153809844
 20
5.9377275881
 30
0.0
 10
6.5162672682
 20
5.938533884
 30
0.0
 10
6.5171839537
 20
5.9396338675
 30
0.0
 10
6.5181291864
 20
5.9410225402
 30
0.0
 10
6.5190977461
 20
5.9426921188
 30
0.0
 10
6.5200829023
 20
5.9446328057
 30
0.0
 10
6.5214706269
 20
5.9477055787
 30
0.0
 10
6.5231742745
 20
5.9521570215
 30
0.0
 10
6.5250927663
 20
5.9581818701
 30
0.0
 10
6.5269028133
 20
5.964999888
 30
0.0
 10
6.5279622538
 20
5.9698206265
 30
0.0
 10
6.5284639402
 20
5.9723413346
 30
0.0
  0
SPLINE
  5
266
100
AcDbEntity
  8
0
100
AcDbSpline
 62
9
  6
CONTINUOUS
 70
0
 71
3
 72
23
 73
19
 74
0
 42
0.0000001
 43
0.0000001
 44
0.0000000001
 40
0.0
 40
0.0
 40
0.0
 40
0.0
 40
0.1800689601
 40
0.3548000296
 40
0.5185314679
 40
0.5946767452
 40
0.6661118889
 40
0.7321658628
 40
0.7921898564
 40
0.8455561206
 40
0.8916833216
 40
0.9301040506
 40
0.946330105
 40
0.9605505273
 40
0.9728259891
 40
0.9832916569
 40
0.9922004896
 40
1.0
 40
1.0
 40
1.0
 40
1.0
 10
7.3426671998
 20
6.0170742333
 30
0.0
 10
7.3426666611
 20
6.01201605
 30
0.0
 10
7.3429770158
 20
6.002046729
 30
0.0
 10
7.3443278886
 20
5.9875352695
 30
0.0
 10
7.3461317251
 20
5.9760201954
 30
0.0
 10
7.3479217875
 20
5.9674590688
 30
0.0
 10
7.3493525309
 20
5.9616297216
 30
0.0
 10
7.3508760138
 20
5.9562932983
 30
0.0
 10
7.3524604183
 20
5.9515064884
 30
0.0
 10
7.3540723175
 20
5.9473230961
 30
0.0
 10
7.3556797978
 20
5.9437957621
 30
0.0
 10
7.357054824
 20
5.9413151263
 30
0.0
 10
7.3581486147
 20
5.939717742
 30
0.0
 10
7.3589034104
 20
5.9387827187
 30
0.0
 10
7.3596366692
 20
5.9380443071
 30
0.0
 10
7.3603482533
 20
5.9375046434
 30
0.0
 10
7.3610396513
 20
5.9371667965
 30
0.0
 10
7.3615104059
 20
5.9370817384
 30
0.0
 10
7.3617294961
 20
5.937081746
 30
0.0
  0
SPLINE
  5
267
100
AcDbEntity
  8
0
100
AcDbSpline
 62
9
  6
CONTINUOUS
 70
0
 71
3
 72
25
 73
21
 74
0
 42
0.0000001
 43
0.0000001
 44
0.0000000001
 40
0.0
 40
0.0
 40
0.0
 40
0.0
 40
0.0624787328
 40
0.1250532568
 40
0.1563464432
 40
0.1876250749
 40
0.2188965344
 40
0.2501739404
 40
0.3126832692
 40
0.3751844638
 40
0.4376871021
 40
0.5001940987
 40
0.5314754526
 40
0.5627507312
 40
0.625261936
 40
0.6877445831
 40
0.7502151038
 40
0.8126819961
 40
0.8751998424
 40
1.0
 40
1.0
 40
1.0
 40
1.0
 10
7.3803379507
 20
6.7108260946
 30
0.0
 10
7.3803372876
 20
6.714866814
 30
0.0
 10
7.3797329405
 20
6.7229666923
 30
0.0
 10
7.3774438423
 20
6.732860605
 30
0.0
 10
7.3746794504
 20
6.7404757648
 30
0.0
 10
7.3721522897
 20
6.7460012249
 30
0.0
 10
7.3691812479
 20
6.7513006433
 30
0.0
 10
7.3646466576
 20
6.758007021
 30
0.0
 10
7.3579549705
 20
6.7656512716
 30
0.0
 10
7.3485027227
 20
6.7733380949
 30
0.0
 10
7.3379108218
 20
6.7793552366
 30
0.0
 10
7.3283791248
 20
6.7828589938
 30
0.0
 10
7.3205044258
 20
6.7847359176
 30
0.0
 10
7.3125063795
 20
6.7859900905
 30
0.0
 10
7.3023677149
 20
6.7864113157
 30
0.0
 10
7.2902700712
 20
6.78514237
 30
0.0
 10
7.2784693985
 20
6.7822176717
 30
0.0
 10
7.2671539631
 20
6.7777691338
 30
0.0
 10
7.252943846
 20
6.7700236434
 30
0.0
 10
7.2433920454
 20
6.7623500737
 30
0.0
 10
7.2376848402
 20
6.756642786
 30
0.0
  0
SPLINE
  5
268
100
AcDbEntity
  8
0
100
AcDbSpline
 62
9
  6
CONTINUOUS
 70
0
 71
3
 72
18
 73
14
 74
0
 42
0.0000001
 43
0.0000001
 44
0.0000000001
 40
0.0
 40
0.0
 40
0.0
 40
0.0
 40
0.0298809755
 40
0.0642698004
 40
0.1039389267
 40
0.1491793069
 40
0.1999740242
 40
0.2559965469
 40
0.3818940356
 40
0.5232131224
 40
0.675841758
 40
0.8360417325
 40
1.0
 40
1.0
 40
1.0
 40
1.0
 10
7.4011747829
 20
5.9770817379
 30
0.0
 10
7.4006984178
 20
5.9770817212
 30
0.0
 10
7.3996725598
 20
5.9772462083
 30
0.0
 10
7.3981284602
 20
5.9778709685
 30
0.0
 10
7.3964997984
 20
5.9788659988
 30
0.0
 10
7.3948064185
 20
5.980219305
 30
0.0
 10
7.3930706674
 20
5.9819163778
 30
0.0
 10
7.3906436266
 20
5.984726925
 30
0.0
 10
7.3877337624
 20
5.9890022838
 30
0.0
 10
7.3847048282
 20
5.9949896002
 30
0.0
 10
7.3822737208
 20
6.0018323259
 30
0.0
 10
7.3807143584
 20
6.0092939195
 30
0.0
 10
7.3803408407
 20
6.0144679084
 30
0.0
 10
7.3803411913
 20
6.0170817454
 30
0.0
  0
SPLINE
  5
269
100
AcDbEntity
  8
0
100
AcDbSpline
 62
9
  6
CONTINUOUS
 70
0
 71
3
 72
9
 73
5
 74
0
 42
0.0000001
 43
0.0000001
 44
0.0000000001
 40
0.0
 40
0.0
 40
0.0
 40
0.0
 40
0.5000300981
 40
1.0
 40
1.0
 40
1.0
 40
1.0
 10
6.5245630219
 20
6.0435209676
 30
0.0
 10
6.5206885498
 20
6.0396468416
 30
0.0
 10
6.5135007366
 20
6.0313151117
 30
0.0
 10
6.5076912921
 20
6.02196018
 30
0.0
 10
6.5051984944
 20
6.017081746
 30
0.0
  0
SPLINE
  5
26A
100
AcDbEntity
  8
0
100
AcDbSpline
 62
9
  6
CONTINUOUS
 70
0
 71
3
 72
14
 73
10
 74
0
 42
0.0000001
 43
0.0000001
 44
0.0000000001
 40
0.0
 40
0.0
 40
0.0
 40
0.0
 40
0.0725070719
 40
0.1589717831
 40
0.2612606711
 40
0.3796061993
 40
0.5136508106
 40
0.6626855183
 40
1.0
 40
1.0
 40
1.0
 40
1.0
 10
6.4742098727
 20
5.977081746
 30
0.0
 10
6.4748174428
 20
5.977081704
 30
0.0
 10
6.4761492833
 20
5.9773544587
 30
0.0
 10
6.4781220716
 20
5.978332813
 30
0.0
 10
6.4802033942
 20
5.9798632026
 30
0.0
 10
6.4823521354
 20
5.981925622
 30
0.0
 10
6.4845245418
 20
5.9845009273
 30
0.0
 10
6.4875116413
 20
5.9887610742
 30
0.0
 10
6.4894159084
 20
5.9923928737
 30
0.0
 10
6.4905296447
 20
5.9949907125
 30
0.0
  0
SPLINE
  5
26B
100
AcDbEntity
  8
0
100
AcDbSpline
 62
9
  6
CONTINUOUS
 70
0
 71
3
 72
15
 73
11
 74
0
 42
0.0000001
 43
0.0000001
 44
0.0000000001
 40
0.0
 40
0.0
 40
0.0
 40
0.0
 40
0.1430054545
 40
0.2858710483
 40
0.4251706052
 40
0.5584364597
 40
0.6838026004
 40
0.7997555719
 40
0.9052277677
 40
1.0
 40
1.0
 40
1.0
 40
1.0
 10
6.4905296448
 20
5.9949909228
 30
0.0
 10
6.4926738107
 20
5.9946067967
 30
0.0
 10
6.4969291244
 20
5.9936559812
 30
0.0
 10
6.5031237
 20
5.9917446239
 30
0.0
 10
6.5090054404
 20
5.9893893645
 30
0.0
 10
6.5144073484
 20
5.9866159258
 30
0.0
 10
6.5191696897
 20
5.9834493866
 30
0.0
 10
6.5231805386
 20
5.9799858635
 30
0.0
 10
6.5263311764
 20
5.9763179923
 30
0.0
 10
6.5278865046
 20
5.9736647267
 30
0.0
 10
6.5284632297
 20
5.9723413345
 30
0.0
  0
SPLINE
  5
26C
100
AcDbEntity
  8
0
100
AcDbSpline
 62
9
  6
CONTINUOUS
 70
0
 71
3
 72
15
 73
11
 74
0
 42
0.0000001
 43
0.0000001
 44
0.0000000001
 40
0.0
 40
0.0
 40
0.0
 40
0.0
 40
0.1174413022
 40
0.2415543973
 40
0.3707725937
 40
0.5022364286
 40
0.6333198556
 40
0.7615061849
 40
0.8841595278
 40
1.0
 40
1.0
 40
1.0
 40
1.0
 10
6.5136551847
 20
5.937081746
 30
0.0
 10
6.513655185
 20
5.939520241
 30
0.0
 10
6.5131952395
 20
5.9445459277
 30
0.0
 10
6.5110940915
 20
5.9520009252
 30
0.0
 10
6.5074114837
 20
5.9591507945
 30
0.0
 10
6.5023165693
 20
5.9655663284
 30
0.0
 10
6.4959905108
 20
5.9707388312
 30
0.0
 10
6.4889364208
 20
5.974479175
 30
0.0
 10
6.4815777087
 20
5.9766143496
 30
0.0
 10
6.476615129
 20
5.9770817482
 30
0.0
 10
6.4742098729
 20
5.9770817482
 30
0.0
  0
SPLINE
  5
26D
100
AcDbEntity
  8
0
100
AcDbSpline
 62
9
  6
CONTINUOUS
 70
0
 71
3
 72
10
 73
6
 74
0
 42
0.0000001
 43
0.0000001
 44
0.0000000001
 40
0.0
 40
0.0
 40
0.0
 40
0.0
 40
0.2175425214
 40
0.4577269372
 40
1.0
 40
1.0
 40
1.0
 40
1.0
 10
6.5284643261
 20
5.9723413347
 30
0.0
 10
6.5291946656
 20
5.9743383201
 30
0.0
 10
6.5307542018
 20
5.9785324486
 30
0.0
 10
6.5343559106
 20
5.9876165165
 30
0.0
 10
6.5376281361
 20
5.9945611973
 30
0.0
 10
6.540291669
 20
5.9991437423
 30
0.0
  0
SPLINE
  5
26E
100
AcDbEntity
  8
0
100
AcDbSpline
 62
9
  6
CONTINUOUS
 70
0
 71
3
 72
9
 73
5
 74
0
 42
0.0000001
 43
0.0000001
 44
0.0000000001
 40
0.0
 40
0.0
 40
0.0
 40
0.0
 40
0.2453790706
 40
1.0
 40
1.0
 40
1.0
 40
1.0
 10
6.540291772
 20
5.9991437543
 30
0.0
 10
6.541132192
 20
6.0005894601
 30
0.0
 10
6.5447751976
 20
6.0063537027
 30
0.0
 10
6.5492110284
 20
6.0116004479
 30
0.0
 10
6.5528475275
 20
6.0152367834
 30
0.0
  0
SPLINE
  5
26F
100
AcDbEntity
  8
0
100
AcDbSpline
 62
9
  6
CONTINUOUS
 70
0
 71
3
 72
21
 73
17
 74
0
 42
0.0000001
 43
0.0000001
 44
0.0000000001
 40
0.0
 40
0.0
 40
0.0
 40
0.0
 40
0.1400382918
 40
0.2745326918
 40
0.3397877329
 40
0.4034896041
 40
0.4655259857
 40
0.5260648874
 40
0.5855431554
 40
0.644214419
 40
0.7023833771
 40
0.7603829649
 40
0.818665407
 40
0.8778418249
 40
0.9382495142
 40
1.0
 40
1.0
 40
1.0
 40
1.0
 10
7.2659689129
 20
6.7283585358
 30
0.0
 10
7.2694661397
 20
6.7318556381
 30
0.0
 10
7.2768863472
 20
6.7381802695
 30
0.0
 10
7.2874475856
 20
6.7440989229
 30
0.0
 10
7.2962839074
 20
6.7470862028
 30
0.0
 10
7.3029203509
 20
6.7484046381
 30
0.0
 10
7.3095138202
 20
6.7487613309
 30
0.0
 10
7.3159388727
 20
6.7480877412
 30
0.0
 10
7.3220342453
 20
6.7463255177
 30
0.0
 10
7.3276352082
 20
6.7435206047
 30
0.0
 10
7.3325524132
 20
6.7397218237
 30
0.0
 10
7.3366351791
 20
6.7350537492
 30
0.0
 10
7.3397273635
 20
6.7296387627
 30
0.0
 10
7.3417976273
 20
6.7236729316
 30
0.0
 10
7.3428385696
 20
6.7173251405
 30
0.0
 10
7.3428369546
 20
6.712989092
 30
0.0
 10
7.3426655037
 20
6.7108149977
 30
0.0
  0
LINE
  5
270
100
AcDbEntity
  8
0
100
AcDbLine
 62
9
  6
CONTINUOUS
 10
7.3426671998
 20
6.7108144505
 11
6.5629044368
 21
6.0035880895
  0
LINE
  5
271
100
AcDbEntity
  8
0
100
AcDbLine
 62
9
  6
CONTINUOUS
 10
6.5629044368
 20
6.0035880895
 11
6.5284639402
 21
5.9723413346
  0
SPLINE
  5
272
100
AcDbEntity
  8
0
100
AcDbSpline
 62
9
  6
CONTINUOUS
 70
0
 71
3
 72
15
 73
11
 74
0
 42
0.0000001
 43
0.0000001
 44
0.0000000001
 40
0.0
 40
0.0
 40
0.0
 40
0.0
 40
0.1158405166
 40
0.2384938946
 40
0.3666802447
 40
0.4977636769
 40
0.6292275
 40
0.7584456716
 40
0.8825587336
 40
1.0
 40
1.0
 40
1.0
 40
1.0
 10
7.4011748122
 20
5.9770817379
 30
0.0
 10
7.3987695548
 20
5.9770817381
 30
0.0
 10
7.3938069727
 20
5.9766143399
 30
0.0
 10
7.3864482572
 20
5.974479166
 30
0.0
 10
7.379394164
 20
5.970738823
 30
0.0
 10
7.3730681026
 20
5.9655663215
 30
0.0
 10
7.3679731854
 20
5.9591507893
 30
0.0
 10
7.3642905745
 20
5.952000922
 30
0.0
 10
7.3621894232
 20
5.9445459264
 30
0.0
 10
7.3617294752
 20
5.9395202406
 30
0.0
 10
7.3617294742
 20
5.937081746
 30
0.0
  0
SPLINE
  5
273
100
AcDbEntity
  8
0
100
AcDbSpline
 62
9
  6
CONTINUOUS
 70
0
 71
3
 72
18
 73
14
 74
0
 42
0.0000001
 43
0.0000001
 44
0.0000000001
 40
0.0
 40
0.0
 40
0.0
 40
0.0
 40
0.1638948275
 40
0.324033296
 40
0.4766395681
 40
0.6179691464
 40
0.7438974687
 40
0.799939855
 40
0.8507557938
 40
0.8960174565
 40
0.9357057503
 40
0.9701094946
 40
1.0
 40
1.0
 40
1.0
 40
1.0
 10
14.4950440232
 20
6.0170817454
 30
0.0
 10
14.4950445155
 20
6.0144689128
 30
0.0
 10
14.494671382
 20
6.0092968715
 30
0.0
 10
14.4931124596
 20
6.0018375778
 30
0.0
 10
14.4906822556
 20
5.9949957905
 30
0.0
 10
14.4876540571
 20
5.9890077502
 30
0.0
 10
14.4847442312
 20
5.9847311613
 30
0.0
 10
14.4823168396
 20
5.9819193885
 30
0.0
 10
14.4805806144
 20
5.9802213665
 30
0.0
 10
14.4788866477
 20
5.9788672075
 30
0.0
 10
14.4772573624
 20
5.9778714873
 30
0.0
 10
14.4757126877
 20
5.9772462702
 30
0.0
 10
14.4746864235
 20
5.9770816805
 30
0.0
 10
14.4742099052
 20
5.977081749
 30
0.0
  0
SPLINE
  5
274
100
AcDbEntity
  8
0
100
AcDbSpline
 62
9
  6
CONTINUOUS
 70
0
 71
3
 72
15
 73
11
 74
0
 42
0.0000001
 43
0.0000001
 44
0.0000000001
 40
0.0
 40
0.0
 40
0.0
 40
0.0
 40
0.1174413727
 40
0.2415545243
 40
0.3707727571
 40
0.5022366053
 40
0.6333200189
 40
0.7615063118
 40
0.8841595983
 40
1.0
 40
1.0
 40
1.0
 40
1.0
 10
14.5136551832
 20
5.937081746
 30
0.0
 10
14.5136551836
 20
5.9395202424
 30
0.0
 10
14.5131952377
 20
5.9445459318
 30
0.0
 10
14.511094088
 20
5.9520009324
 30
0.0
 10
14.5074114778
 20
5.9591508029
 30
0.0
 10
14.5023165615
 20
5.9655663363
 30
0.0
 10
14.4959905024
 20
5.9707388371
 30
0.0
 10
14.4889364136
 20
5.9744791783
 30
0.0
 10
14.4815777046
 20
5.9766143509
 30
0.0
 10
14.4766151275
 20
5.977081749
 30
0.0
 10
14.4742098729
 20
5.977081749
 30
0.0
  0
SPLINE
  5
275
100
AcDbEntity
  8
0
100
AcDbSpline
 62
9
  6
CONTINUOUS
 70
0
 71
3
 72
23
 73
19
 74
0
 42
0.0000001
 43
0.0000001
 44
0.0000000001
 40
0.0
 40
0.0
 40
0.0
 40
0.0
 40
0.007799987
 40
0.016709473
 40
0.0271759173
 40
0.0394518401
 40
0.053671817
 40
0.0698965729
 40
0.108313244
 40
0.1544345566
 40
0.2077927932
 40
0.2678075212
 40
0.3338533551
 40
0.4052809223
 40
0.4814176401
 40
0.6451361634
 40
0.8199027867
 40
1.0
 40
1.0
 40
1.0
 40
1.0
 10
14.5136551893
 20
5.937081746
 30
0.0
 10
14.5138742936
 20
5.9370816954
 30
0.0
 10
14.514345098
 20
5.9371667225
 30
0.0
 10
14.5150365389
 20
5.937504615
 30
0.0
 10
14.5157481447
 20
5.938044342
 30
0.0
 10
14.5164814018
 20
5.9387827895
 30
0.0
 10
14.5172361824
 20
5.9397177821
 30
0.0
 10
14.5183299021
 20
5.9413150244
 30
0.0
 10
14.5197047919
 20
5.9437953838
 30
0.0
 10
14.5213120945
 20
5.9473222552
 30
0.0
 10
14.5229238352
 20
5.9515050237
 30
0.0
 10
14.5245080806
 20
5.9562911511
 30
0.0
 10
14.526031285
 20
5.9616269402
 30
0.0
 10
14.5274619897
 20
5.9674556115
 30
0.0
 10
14.5292519757
 20
5.9760159437
 30
0.0
 10
14.5310565199
 20
5.9875313468
 30
0.0
 10
14.5324073409
 20
6.0020442865
 30
0.0
 10
14.5327183163
 20
6.0120154221
 30
0.0
 10
14.5327174803
 20
6.0170744137
 30
0.0
  0
SPLINE
  5
276
100
AcDbEntity
  8
0
100
AcDbSpline
 62
9
  6
CONTINUOUS
 70
0
 71
3
 72
19
 73
15
 74
0
 42
0.0000001
 43
0.0000001
 44
0.0000000001
 40
0.0
 40
0.0
 40
0.0
 40
0.0
 40
0.196359941
 40
0.3769940419
 40
0.5387713805
 40
0.679220504
 40
0.7407817143
 40
0.7962399242
 40
0.8454002767
 40
0.8881295079
 40
0.9244173197
 40
0.9545477212
 40
0.9792450142
 40
1.0
 40
1.0
 40
1.0
 40
1.0
 10
15.3469225055
 20
5.9723445599
 30
0.0
 10
15.3474245875
 20
5.9698235777
 30
0.0
 10
15.3484836947
 20
5.9650017632
 30
0.0
 10
15.3502917107
 20
5.9581819972
 30
0.0
 10
15.3522099823
 20
5.9521563501
 30
0.0
 10
15.3539142275
 20
5.947705206
 30
0.0
 10
15.3553020769
 20
5.9446327588
 30
0.0
 10
15.3562872072
 20
5.9426921648
 30
0.0
 10
15.3572556947
 20
5.9410225904
 30
0.0
 10
15.3582008429
 20
5.9396338839
 30
0.0
 10
15.35911749
 20
5.9385338962
 30
0.0
 10
15.3600037754
 20
5.9377276421
 30
0.0
 10
15.3608615965
 20
5.9372163958
 30
0.0
 10
15.3614577984
 20
5.9370817379
 30
0.0
 10
15.3617294961
 20
5.937081746
 30
0.0
  0
SPLINE
  5
277
100
AcDbEntity
  8
0
100
AcDbSpline
 62
9
  6
CONTINUOUS
 70
0
 71
3
 72
9
 73
5
 74
0
 42
0.0000001
 43
0.0000001
 44
0.0000000001
 40
0.0
 40
0.0
 40
0.0
 40
0.0
 40
0.4999700978
 40
1.0
 40
1.0
 40
1.0
 40
1.0
 10
15.3701862348
 20
6.017081746
 30
0.0
 10
15.3676934681
 20
6.0219601347
 30
0.0
 10
15.3618841021
 20
6.031314984
 30
0.0
 10
15.3546963461
 20
6.0396466119
 30
0.0
 10
15.3508219252
 20
6.043520706
 30
0.0
  0
SPLINE
  5
278
100
AcDbEntity
  8
0
100
AcDbSpline
 62
9
  6
CONTINUOUS
 70
0
 71
3
 72
15
 73
11
 74
0
 42
0.0000001
 43
0.0000001
 44
0.0000000001
 40
0.0
 40
0.0
 40
0.0
 40
0.0
 40
0.1158405014
 40
0.2384938673
 40
0.3666802095
 40
0.4977636387
 40
0.6292274647
 40
0.758445644
 40
0.8825587183
 40
1.0
 40
1.0
 40
1.0
 40
1.0
 10
15.4011748122
 20
5.9770817377
 30
0.0
 10
15.3987695551
 20
5.977081738
 30
0.0
 10
15.3938069736
 20
5.97661434
 30
0.0
 10
15.3864482586
 20
5.9744791666
 30
0.0
 10
15.3793941656
 20
5.9707388242
 30
0.0
 10
15.3730681039
 20
5.9655663232
 30
0.0
 10
15.3679731861
 20
5.9591507912
 30
0.0
 10
15.3642905746
 20
5.9520009236
 30
0.0
 10
15.3621894228
 20
5.9445459273
 30
0.0
 10
15.3617294746
 20
5.9395202409
 30
0.0
 10
15.3617294736
 20
5.937081746
 30
0.0
  0
SPLINE
  5
279
100
AcDbEntity
  8
0
100
AcDbSpline
 62
9
  6
CONTINUOUS
 70
0
 71
3
 72
15
 73
11
 74
0
 42
0.0000001
 43
0.0000001
 44
0.0000000001
 40
0.0
 40
0.0
 40
0.0
 40
0.0
 40
0.0949576438
 40
0.2002996292
 40
0.3158383247
 40
0.4412104904
 40
0.5749831789
 40
0.7144350701
 40
0.8570320405
 40
1.0
 40
1.0
 40
1.0
 40
1.0
 10
15.3469231505
 20
5.9723445598
 30
0.0
 10
15.3474990218
 20
5.973674052
 30
0.0
 10
15.3490489819
 20
5.9763374539
 30
0.0
 10
15.3522032752
 20
5.9800084271
 30
0.0
 10
15.3562444596
 20
5.983438608
 30
0.0
 10
15.3610146552
 20
5.9866057751
 30
0.0
 10
15.3663710602
 20
5.9895034922
 30
0.0
 10
15.3722341834
 20
5.9919612133
 30
0.0
 10
15.3784722502
 20
5.9937783508
 30
0.0
 10
15.3827639895
 20
5.9945741333
 30
0.0
 10
15.3849252858
 20
5.9948695337
 30
0.0
  0
SPLINE
  5
27A
100
AcDbEntity
  8
0
100
AcDbSpline
 62
9
  6
CONTINUOUS
 70
0
 71
3
 72
10
 73
6
 74
0
 42
0.0000001
 43
0.0000001
 44
0.0000000001
 40
0.0
 40
0.0
 40
0.0
 40
0.0
 40
0.2804606
 40
0.5425584509
 40
1.0
 40
1.0
 40
1.0
 40
1.0
 10
15.3350929619
 20
5.999143823
 30
0.0
 10
15.3364740674
 20
5.9967752617
 30
0.0
 10
15.3389324053
 20
5.9920675251
 30
0.0
 10
15.3429003621
 20
5.9831291
 30
0.0
 10
15.3453756326
 20
5.9765407319
 30
0.0
 10
15.3469218849
 20
5.97234456
 30
0.0
  0
LINE
  5
27B
100
AcDbEntity
  8
0
100
AcDbLine
 62
9
  6
CONTINUOUS
 10
15.3469225055
 20
5.9723445599
 11
15.3124805697
 21
6.0035881139
  0
LINE
  5
27C
100
AcDbEntity
  8
0
100
AcDbLine
 62
9
  6
CONTINUOUS
 10
15.3124805697
 20
6.0035881139
 11
14.5327174803
 21
6.7108147329
  0
SPLINE
  5
27D
100
AcDbEntity
  8
0
100
AcDbSpline
 62
9
  6
CONTINUOUS
 70
0
 71
3
 72
21
 73
17
 74
0
 42
0.0000001
 43
0.0000001
 44
0.0000000001
 40
0.0
 40
0.0
 40
0.0
 40
0.0
 40
0.0617492113
 40
0.1221555281
 40
0.1813310451
 40
0.2396132515
 40
0.2976131042
 40
0.3557828098
 40
0.4144553618
 40
0.4739342226
 40
0.5344717639
 40
0.5965056268
 40
0.6602049905
 40
0.7254583879
 40
0.8599533581
 40
1.0
 40
1.0
 40
1.0
 40
1.0
 10
14.532718903
 20
6.7108151897
 30
0.0
 10
14.5325473761
 20
6.7129892498
 30
0.0
 10
14.532545662
 20
6.7173252448
 30
0.0
 10
14.5335865818
 20
6.723672968
 30
0.0
 10
14.5356568811
 20
6.7296387455
 30
0.0
 10
14.5387490764
 20
6.7350537378
 30
0.0
 10
14.5428317997
 20
6.7397219426
 30
0.0
 10
14.5477490352
 20
6.7435209033
 30
0.0
 10
14.5533501037
 20
6.746325928
 30
0.0
 10
14.5594455275
 20
6.7480882221
 30
0.0
 10
14.5658705198
 20
6.7487617989
 30
0.0
 10
14.5724638118
 20
6.748405011
 30
0.0
 10
14.5791000485
 20
6.747086481
 30
0.0
 10
14.5879362838
 20
6.744099151
 30
0.0
 10
14.598498011
 20
6.7381806967
 30
0.0
 10
14.6059185671
 20
6.731855788
 30
0.0
 10
14.6094158832
 20
6.7283583036
 30
0.0
  0
SPLINE
  5
27E
100
AcDbEntity
  8
0
100
AcDbSpline
 62
9
  6
CONTINUOUS
 70
0
 71
3
 72
9
 73
5
 74
0
 42
0.0000001
 43
0.0000001
 44
0.0000000001
 40
0.0
 40
0.0
 40
0.0
 40
0.0
 40
0.2549358542
 40
1.0
 40
1.0
 40
1.0
 40
1.0
 10
15.3225375123
 20
6.0152364351
 30
0.0
 10
15.3237658574
 20
6.0140081397
 30
0.0
 10
15.3284449214
 20
6.0090553735
 30
0.0
 10
15.3325414286
 20
6.0035329119
 30
0.0
 10
15.3350928593
 20
5.9991438328
 30
0.0
  0
SPLINE
  5
27F
100
AcDbEntity
  8
0
100
AcDbSpline
 62
9
  6
CONTINUOUS
 70
0
 71
3
 72
25
 73
21
 74
0
 42
0.0000001
 43
0.0000001
 44
0.0000000001
 40
0.0
 40
0.0
 40
0.0
 40
0.0
 40
0.0624774723
 40
0.1250494953
 40
0.1563422962
 40
0.1876211637
 40
0.2188933664
 40
0.2501717976
 40
0.312682987
 40
0.3751863119
 40
0.4376922722
 40
0.5002019589
 40
0.5314846262
 40
0.5627606336
 40
0.6252723224
 40
0.6877564894
 40
0.7502273045
 40
0.8126926727
 40
0.8752066016
 40
1.0
 40
1.0
 40
1.0
 40
1.0
 10
14.4950466738
 20
6.7107763537
 30
0.0
 10
14.4950453189
 20
6.7148180432
 30
0.0
 10
14.4956447822
 20
6.7229200979
 30
0.0
 10
14.4979281861
 20
6.7328177965
 30
0.0
 10
14.500688766
 20
6.7404364025
 30
0.0
 10
14.5032133964
 20
6.7459648027
 30
0.0
 10
14.5061823399
 20
6.7512673644
 30
0.0
 10
14.5107146289
 20
6.7579781193
 30
0.0
 10
14.5174042721
 20
6.7656281759
 30
0.0
 10
14.5268563098
 20
6.7733211231
 30
0.0
 10
14.5374491177
 20
6.7793441719
 30
0.0
 10
14.5469825378
 20
6.7828523374
 30
0.0
 10
14.5548589541
 20
6.7847324692
 30
0.0
 10
14.5628588947
 20
6.7859893477
 30
0.0
 10
14.5730003479
 20
6.7864123153
 30
0.0
 10
14.5851015141
 20
6.7851450924
 30
0.0
 10
14.5969055813
 20
6.7822206999
 30
0.0
 10
14.6082239763
 20
6.7777719401
 30
0.0
 10
14.6224375872
 20
6.7700257507
 30
0.0
 10
14.6319919045
 20
6.7623511678
 30
0.0
 10
14.6377001069
 20
6.7566425244
 30
0.0
  0
LINE
  5
280
100
AcDbEntity
  8
0
100
AcDbLine
 62
9
  6
CONTINUOUS
 10
14.5327174803
 20
6.7108170409
 11
14.4950457568
 21
6.710776353
  0
SPLINE
  5
281
100
AcDbEntity
  8
0
100
AcDbSpline
 62
9
  6
CONTINUOUS
 70
0
 71
3
 72
14
 73
10
 74
0
 42
0.0000001
 43
0.0000001
 44
0.0000000001
 40
0.0
 40
0.0
 40
0.0
 40
0.0
 40
0.0726096541
 40
0.159098813
 40
0.2614049088
 40
0.3797767517
 40
0.5138149158
 40
0.6627861467
 40
1.0
 40
1.0
 40
1.0
 40
1.0
 10
15.4011748127
 20
5.977081746
 30
0.0
 10
15.4005697889
 20
5.9770817365
 30
0.0
 10
15.3992442534
 20
5.9773519372
 30
0.0
 10
15.3972802724
 20
5.9783229686
 30
0.0
 10
15.3952073236
 20
5.9798411193
 30
0.0
 10
15.3930659194
 20
5.9818875838
 30
0.0
 10
15.3909017337
 20
5.9844448079
 30
0.0
 10
15.3879313559
 20
5.9886797309
 30
0.0
 10
15.3860396266
 20
5.9922897632
 30
0.0
 10
15.3849252859
 20
5.9948692043
 30
0.0
  0
SPLINE
  5
282
100
AcDbEntity
  8
0
100
AcDbSpline
 62
9
  6
CONTINUOUS
 70
0
 71
3
 72
12
 73
8
 74
0
 42
0.0000001
 43
0.0000001
 44
0.0000000001
 40
0.0
 40
0.0
 40
0.0
 40
0.0
 40
0.2330247991
 40
0.4818733583
 40
0.6099379619
 40
0.7393962093
 40
1.0
 40
1.0
 40
1.0
 40
1.0
 10
15.3849252859
 20
5.9948692043
 30
0.0
 10
15.3840915528
 20
5.9967788401
 30
0.0
 10
15.3822616737
 20
6.0006833336
 30
0.0
 10
15.379559911
 20
6.0054309005
 30
0.0
 10
15.3770242831
 20
6.0091851429
 30
0.0
 10
15.3742067715
 20
6.0128656826
 30
0.0
 10
15.371847567
 20
6.0154476285
 30
0.0
 10
15.3701862348
 20
6.017081746
 30
0.0
  0
SPLINE
  5
283
100
AcDbEntity
  8
0
100
AcDbSpline
 62
7
  6
CONTINUOUS
 70
0
 71
3
 72
25
 73
21
 74
0
 42
0.0000001
 43
0.0000001
 44
0.0000000001
 40
0.0
 40
0.0
 40
0.0
 40
0.0
 40
0.0067467
 40
0.0142464096
 40
0.023060988
 40
0.0335310597
 40
0.045842767
 40
0.0600973859
 40
0.0763488319
 40
0.094622202
 40
0.1149113503
 40
0.1371906479
 40
0.1875786065
 40
0.2454552707
 40
0.3103291571
 40
0.3816442519
 40
0.4587589988
 40
0.6274259198
 40
0.8101842513
 40
1.0
 40
1.0
 40
1.0
 40
1.0
 10
11.4376857838
 20
10.586081746
 30
0.0
 10
11.4376858435
 20
10.5849261491
 30
0.0
 10
11.4372274996
 20
10.5824710049
 30
0.0
 10
11.4352824855
 20
10.5789777062
 30
0.0
 10
11.4321607463
 20
10.5755762858
 30
0.0
 10
11.4278849061
 20
10.5722318261
 30
0.0
 10
11.4224580492
 20
10.5689268493
 30
0.0
 10
11.4158833667
 20
10.5656620214
 30
0.0
 10
11.4081683325
 20
10.5624428281
 30
0.0
 10
11.3993254596
 20
10.5592784536
 30
0.0
 10
11.3893745252
 20
10.5561751563
 30
0.0
 10
11.374019854
 20
10.5519540585
 30
0.0
 10
11.3522109272
 20
10.5469741285
 30
0.0
 10
11.3230459032
 20
10.5415705565
 30
0.0
 10
11.2901785528
 20
10.5365733562
 30
0.0
 10
11.2539222371
 20
10.5320378534
 30
0.0
 10
11.1998878661
 20
10.5265042131
 30
0.0
 10
11.1266620222
 20
10.5211868757
 30
0.0
 10
11.0340241663
 20
10.517354678
 30
0.0
 10
10.9702046067
 20
10.5164951955
 30
0.0
 10
10.9376923427
 20
10.5164951955
 30
0.0
  0
SPLINE
  5
284
100
AcDbEntity
  8
0
100
AcDbSpline
 62
7
  6
CONTINUOUS
 70
0
 71
3
 72
25
 73
21
 74
0
 42
0.0000001
 43
0.0000001
 44
0.0000000001
 40
0.0
 40
0.0
 40
0.0
 40
0.0
 40
0.1898174366
 40
0.3725714967
 40
0.5412354582
 40
0.6183492537
 40
0.6896627071
 40
0.7545373432
 40
0.8124140155
 40
0.8628039137
 40
0.8850847274
 40
0.9053747882
 40
0.9236479972
 40
0.9398999578
 40
0.9541557216
 40
0.9664685049
 40
0.9769389839
 40
0.9857531873
 40
0.9932530489
 40
1.0
 40
1.0
 40
1.0
 40
1.0
 10
10.9376923427
 20
10.5164951955
 30
0.0
 10
10.905179792
 20
10.5164951955
 30
0.0
 10
10.8413606804
 20
10.517354662
 30
0.0
 10
10.748723775
 20
10.5211867698
 30
0.0
 10
10.6754993449
 20
10.5265040536
 30
0.0
 10
10.6214658867
 20
10.5320372644
 30
0.0
 10
10.5852099148
 20
10.5365729284
 30
0.0
 10
10.5523426514
 20
10.5415696781
 30
0.0
 10
10.5231771918
 20
10.5469734418
 30
0.0
 10
10.501367666
 20
10.5519533782
 30
0.0
 10
10.4860121951
 20
10.5561743788
 30
0.0
 10
10.476060836
 20
10.559277631
 30
0.0
 10
10.4672178362
 20
10.5624422995
 30
0.0
 10
10.4595025775
 20
10.5656616006
 30
0.0
 10
10.4529273762
 20
10.5689264371
 30
0.0
 10
10.4475000094
 20
10.5722314173
 30
0.0
 10
10.4432238459
 20
10.5755758312
 30
0.0
 10
10.4401025025
 20
10.5789776737
 30
0.0
 10
10.4381575745
 20
10.5824709604
 30
0.0
 10
10.4376989613
 20
10.5849261062
 30
0.0
 10
10.4376989016
 20
10.586081746
 30
0.0
  0
SPLINE
  5
285
100
AcDbEntity
  8
0
100
AcDbSpline
 62
7
  6
CONTINUOUS
 70
0
 71
3
 72
27
 73
23
 74
0
 42
0.0000001
 43
0.0000001
 44
0.0000000001
 40
0.0
 40
0.0
 40
0.0
 40
0.0
 40
0.0064330981
 40
0.0136691324
 40
0.0222689226
 40
0.0325642977
 40
0.0384120733
 40
0.0447457807
 40
0.0589029515
 40
0.0750802174
 40
0.093290335
 40
0.1135299593
 40
0.1357833677
 40
0.186169867
 40
0.2440710742
 40
0.3090202526
 40
0.3804298567
 40
0.4576682807
 40
0.5400040908
 40
0.6266643104
 40
0.8097647185
 40
1.0
 40
1.0
 40
1.0
 40
1.0
 10
10.4376923427
 20
11.0812067662
 30
0.0
 10
10.4376923427
 20
11.0823063145
 30
0.0
 10
10.4381614946
 20
11.0846569931
 30
0.0
 10
10.4401189392
 20
11.0879773354
 30
0.0
 10
10.4432384528
 20
11.0912119635
 30
0.0
 10
10.4466389094
 20
11.0937486246
 30
0.0
 10
10.4498991108
 20
11.0957826832
 30
0.0
 10
10.4538357667
 20
11.0979702965
 30
0.0
 10
10.4595086165
 20
11.1006497
 30
0.0
 10
10.4672237194
 20
11.103713228
 30
0.0
 10
10.4760644273
 20
11.1067261311
 30
0.0
 10
10.4860123822
 20
11.1096812805
 30
0.0
 10
10.5013725265
 20
11.1137005033
 30
0.0
 10
10.523185065
 20
11.1184398861
 30
0.0
 10
10.5523490638
 20
11.1235877986
 30
0.0
 10
10.585214497
 20
11.1283418722
 30
0.0
 10
10.6214694714
 20
11.1326603853
 30
0.0
 10
10.660765611
 20
11.1364915905
 30
0.0
 10
10.7027238435
 20
11.1398025092
 30
0.0
 10
10.7627903353
 20
11.1435421148
 30
0.0
 10
10.8413636453
 20
11.1466294165
 30
0.0
 10
10.9051772345
 20
11.1474451855
 30
0.0
 10
10.9376923427
 20
11.1474425519
 30
0.0
  0
SPLINE
  5
286
100
AcDbEntity
  8
0
100
AcDbSpline
 62
7
  6
CONTINUOUS
 70
0
 71
3
 72
27
 73
23
 74
0
 42
0.0000001
 43
0.0000001
 44
0.0000000001
 40
0.0
 40
0.0
 40
0.0
 40
0.0
 40
0.1902216804
 40
0.3733091092
 40
0.4599633383
 40
0.5422936228
 40
0.619527082
 40
0.6909323924
 40
0.7558781106
 40
0.8137768805
 40
0.8641619493
 40
0.8864149591
 40
0.9066543992
 40
0.9248647476
 40
0.9410429795
 40
0.9552023172
 40
0.9615377719
 40
0.9673878658
 40
0.9776898813
 40
0.986299598
 40
0.993549456
 40
1.0
 40
1.0
 40
1.0
 40
1.0
 10
10.9376923427
 20
11.1475126282
 30
0.0
 10
10.9702074261
 20
11.1475164407
 30
0.0
 10
11.0340210211
 20
11.1467020922
 30
0.0
 10
11.112594333
 20
11.1436143762
 30
0.0
 10
11.1726607876
 20
11.1398729622
 30
0.0
 10
11.2146190258
 20
11.1365600252
 30
0.0
 10
11.2539151829
 20
11.1327262111
 30
0.0
 10
11.2901701987
 20
11.1284045398
 30
0.0
 10
11.3230356998
 20
11.1236466157
 30
0.0
 10
11.352199725
 20
11.1184939236
 30
0.0
 10
11.374012188
 20
11.1137501576
 30
0.0
 10
11.3893722853
 20
11.1097276825
 30
0.0
 10
11.3993203044
 20
11.1067703791
 30
0.0
 10
11.4081611103
 20
11.1037551541
 30
0.0
 10
11.4158763532
 20
11.1006887927
 30
0.0
 10
11.4215491838
 20
11.098006282
 30
0.0
 10
11.4254857136
 20
11.0958155757
 30
0.0
 10
11.4287461968
 20
11.0937779864
 30
0.0
 10
11.4321471461
 20
11.0912359863
 30
0.0
 10
11.4352667319
 20
11.0879936325
 30
0.0
 10
11.4372237165
 20
11.0846644966
 30
0.0
 10
11.4376923439
 20
11.0823082557
 30
0.0
 10
11.4376923427
 20
11.0812056476
 30
0.0
  0
SPLINE
  5
287
100
AcDbEntity
  8
0
100
AcDbSpline
 62
7
  6
CONTINUOUS
 70
0
 71
3
 72
25
 73
21
 74
0
 42
0.0000001
 43
0.0000001
 44
0.0000000001
 40
0.0
 40
0.0
 40
0.0
 40
0.0
 40
0.1898174366
 40
0.3725714967
 40
0.5412354582
 40
0.6183492537
 40
0.6896627071
 40
0.7545373432
 40
0.8124140155
 40
0.8628039137
 40
0.8850847274
 40
0.9053747882
 40
0.9236479972
 40
0.9398999578
 40
0.9541557216
 40
0.9664685049
 40
0.9769389839
 40
0.9857531873
 40
0.9932530489
 40
1.0
 40
1.0
 40
1.0
 40
1.0
 10
10.9376923427
 20
10.6556682965
 30
0.0
 10
10.9702048934
 20
10.6556682965
 30
0.0
 10
11.034024005
 20
10.6548088299
 30
0.0
 10
11.1266609105
 20
10.6509767222
 30
0.0
 10
11.1998853405
 20
10.6456594384
 30
0.0
 10
11.2539187988
 20
10.6401262275
 30
0.0
 10
11.2901747707
 20
10.6355905635
 30
0.0
 10
11.3230420341
 20
10.6305938139
 30
0.0
 10
11.3522074937
 20
10.6251900502
 30
0.0
 10
11.3740170195
 20
10.6202101138
 30
0.0
 10
11.3893724904
 20
10.6159891132
 30
0.0
 10
11.3993238494
 20
10.6128858609
 30
0.0
 10
11.4081668493
 20
10.6097211925
 30
0.0
 10
11.4158821079
 20
10.6065018914
 30
0.0
 10
11.4224573093
 20
10.6032370548
 30
0.0
 10
11.4278846761
 20
10.5999320747
 30
0.0
 10
11.4321608396
 20
10.5965876607
 30
0.0
 10
11.435282183
 20
10.5931858182
 30
0.0
 10
11.4372271109
 20
10.5896925316
 30
0.0
 10
11.4376857242
 20
10.5872373858
 30
0.0
 10
11.4376857838
 20
10.586081746
 30
0.0
  0
SPLINE
  5
288
100
AcDbEntity
  8
0
100
AcDbSpline
 62
7
  6
CONTINUOUS
 70
0
 71
3
 72
25
 73
21
 74
0
 42
0.0000001
 43
0.0000001
 44
0.0000000001
 40
0.0
 40
0.0
 40
0.0
 40
0.0
 40
0.0067467
 40
0.0142464096
 40
0.023060988
 40
0.0335310597
 40
0.045842767
 40
0.0600973859
 40
0.0763488319
 40
0.094622202
 40
0.1149113503
 40
0.1371906479
 40
0.1875786065
 40
0.2454552707
 40
0.3103291571
 40
0.3816442519
 40
0.4587589988
 40
0.6274259198
 40
0.8101842513
 40
1.0
 40
1.0
 40
1.0
 40
1.0
 10
10.4376989016
 20
10.586081746
 30
0.0
 10
10.437698842
 20
10.5872373429
 30
0.0
 10
10.4381571859
 20
10.589692487
 30
0.0
 10
10.4401022
 20
10.5931857857
 30
0.0
 10
10.4432239392
 20
10.5965872062
 30
0.0
 10
10.4474997794
 20
10.5999316659
 30
0.0
 10
10.4529266363
 20
10.6032366427
 30
0.0
 10
10.4595013188
 20
10.6065014705
 30
0.0
 10
10.467216353
 20
10.6097206639
 30
0.0
 10
10.4760592259
 20
10.6128850384
 30
0.0
 10
10.4860101602
 20
10.6159883357
 30
0.0
 10
10.5013648315
 20
10.6202094335
 30
0.0
 10
10.5231737583
 20
10.6251893635
 30
0.0
 10
10.5523387823
 20
10.6305929355
 30
0.0
 10
10.5852061326
 20
10.6355901358
 30
0.0
 10
10.6214624484
 20
10.6401256385
 30
0.0
 10
10.6754968193
 20
10.6456592788
 30
0.0
 10
10.7487226632
 20
10.6509766163
 30
0.0
 10
10.8413605191
 20
10.654808814
 30
0.0
 10
10.9051800787
 20
10.6556682965
 30
0.0
 10
10.9376923427
 20
10.6556682965
 30
0.0
  0
ENDSEC
  0
SECTION
  2
OBJECTS
  0
DICTIONARY
  5
C
100
AcDbDictionary
280
0
281
1
  3
ACAD_GROUP
350
D
  3
ACAD_MLINESTYLE
350
17
  3
ACAD_LAYOUT
350
1A
  3
ACAD_PLOTSETTINGS
350
19
  3
ACAD_PLOTSTYLENAME
350
E
  0
DICTIONARY
  5
D
102
{ACAD_REACTORS
330
C
102
}
100
AcDbDictionary
280
0
281
1
  0
ACDBDICTIONARYWDFLT
  5
E
102
{ACAD_REACTORS
330
C
102
}
100
AcDbDictionary
281
1
  3
Normal
350
F
100
AcDbDictionaryWithDefault
340
F
  0
DICTIONARY
  5
17
102
{ACAD_REACTORS
330
C
102
}
100
AcDbDictionary
280
0
281
1
  3
Standard
350
18
  0
DICTIONARY
  5
19
102
{ACAD_REACTORS
330
C
102
}
100
AcDbDictionary
281
1
  0
DICTIONARY
  5
1A
102
{ACAD_REACTORS
330
C
102
}
100
AcDbDictionary
281
1
  3
Model
350
289
  3
Layout1
350
28A
  0
ACDBPLACEHOLDER
  5
F
102
{ACAD_REACTORS
330
E
102
}
  0
MLINESTYLE
  5
18
102
{ACAD_REACTORS
330
17
102
}
100
AcDbMlineStyle
  2
STANDARD
 70
0
  3

 62
256
 51
90.0
 52
90.0
 71
2
 49
0.5
 62
256
  6
BYLAYER
 49
-0.5
 62
256
  6
BYLAYER
  0
LAYOUT
  5
289
102
{ACAD_REACTORS
330
1A
102
}
100
AcDbPlotSettings
  1

  2
none_device
  4
ANSI_C_(22.00_x_17.00_Inches)
  6

 40
0.0
 41
0.0
 42
0.0
 43
0.0
 44
558.8
 45
431.8
 46
0.0
 47
0.0
 48
0.0
 49
0.0
140
0.0
141
0.0
142
1.0
143
1.0
 70
1024
 72
0
 73
0
 74
0
  7

 75
0
147
1.0
148
0.0
149
0.0
100
AcDbLayout
  1
Model
 70
0
 71
0
 10
0.0
 20
0.0
 11
22.0
 21
17.0
 12
0.0
 22
0.0
 32
0.0
 14
0.0
 24
0.0
 34
0.0
 15
0.0
 25
0.0
 35
0.0
146
0.0
 13
0.0
 23
0.0
 33
0.0
 16
1.0
 26
0.0
 36
0.0
 17
0.0
 27
1.0
 37
0.0
 76
0
330
202
345
0
346
0
  0
LAYOUT
  5
28A
102
{ACAD_REACTORS
330
1A
102
}
100
AcDbPlotSettings
  1

  2
none_device
  4
ANSI_C_(22.00_x_17.00_Inches)
  6

 40
0.0
 41
0.0
 42
0.0
 43
0.0
 44
558.8
 45
431.8
 46
0.0
 47
0.0
 48
0.0
 49
0.0
140
0.0
141
0.0
142
1.0
143
1.0
 70
0
 72
0
 73
0
 74
0
  7

 75
0
147
1.0
148
0.0
149
0.0
100
AcDbLayout
  1
Layout1
 70
0
 71
1
 10
0.0
 20
0.0
 11
22.0
 21
17.0
 12
0.0
 22
0.0
 32
0.0
 14
0.0
 24
0.0
 34
0.0
 15
0.0
 25
0.0
 35
0.0
146
0.0
 13
0.0
 23
0.0
 33
0.0
 16
1.0
 26
0.0
 36
0.0
 17
0.0
 27
1.0
 37
0.0
 76
0
330
203
345
0
346
0
  0
ENDSEC
  0
EOF
