999
DXF file: E:\BT Custom\CADOUTPUT\_RIGHT.dxf
999
Pro/ENGINEER 2018400 by Parametric Technology Corporation
  0
SECTION
  2
HEADER
  9
$ACADVER
  1
AC1018
  9
$DWGCODEPAGE
  3
ANSI_1252
  9
$EXTMAX
 10
22.0
 20
17.0
 30
0.0
  9
$EXTMIN
 10
0.0
 20
0.0
 30
0.0
  9
$LIMMIN
 10
0.0
 20
0.0
  9
$LIMMAX
 10
22.0
 20
17.0
  9
$VIEWCTR
 10
11.0
 20
8.5
  9
$VIEWSIZE
 40
17.0
  9
$CLAYER
  8
0
  9
$LTSCALE
 40
1.21
  9
$CELTYPE
  6
BYLAYER
  9
$DIMSCALE
 40
1.0
  9
$DIMASZ
 40
0.1
  9
$DIMEXO
 40
0.0625
  9
$DIMDLI
 40
0.836
  9
$DIMEXE
 40
0.125
  9
$DIMCEN
 40
0.198
  9
$DIMLFAC
 40
1.0
  9
$DIMBLK
  1
_FILLED
  9
$DIMALT
 70
1
  9
$DIMALTD
 70
2
  9
$DIMALTTD
 70
2
  9
$DIMALTF
 40
25.4
  9
$DIMTXT
 40
0.08
  9
$DIMTOL
 70
1
  9
$DIMLIM
 70
0
  9
$DIMTFAC
 40
1.0
  9
$DIMTP
 40
0.001
  9
$DIMTM
 40
0.001
  9
$DIMGAP
 40
0.09
  9
$DIMDSEP
 70
46
  9
$AUNITS
 70
0
  9
$PDMODE
 70
3
  9
$PDSIZE
 40
0.06
  9
$HANDSEED
  5
258
  9
$TILEMODE
 70
1
  9
$MEASUREMENT
 70
0
  9
$INSUNITS
 70
1
  0
ENDSEC
  0
SECTION
  2
CLASSES
  0
CLASS
  1
ACDBDICTIONARYWDFLT
  2
AcDbDictionaryWithDefault
  3
AutoCAD 2000
 90
0
 91
1
280
0
281
0
  0
CLASS
  1
ACDBPLACEHOLDER
  2
AcDbPlaceHolder
  3
AutoCAD 2000
 90
0
 91
1
280
0
281
0
  0
CLASS
  1
LAYOUT
  2
AcDbLayout
  3
AutoCAD 2000
 90
0
 91
0
280
0
281
0
  0
ENDSEC
  0
SECTION
  2
TABLES
  0
TABLE
  2
VPORT
  5
8
100
AcDbSymbolTable
 70
2
  0
VPORT
  5
1F4
100
AcDbSymbolTableRecord
100
AcDbViewportTableRecord
  2
*ACTIVE
 70
0
 10
0.0
 20
0.0
 11
1.0
 21
1.0
 12
11.0
 22
8.5
 13
0.0
 23
0.0
 14
1.0
 24
1.0
 15
0.0
 25
0.0
 16
0.0
 26
0.0
 36
1.0
 17
0.0
 27
0.0
 37
0.0
 40
17.0
 41
1.2941176471
 42
50.0
 43
0.0
 44
0.0
 50
0.0
 51
0.0
 71
0
 72
100
 73
1
 74
1
 75
0
 76
0
 77
0
 78
0
  0
ENDTAB
  0
TABLE
  2
LTYPE
  5
5
100
AcDbSymbolTable
 70
6
  0
LTYPE
  5
14
100
AcDbSymbolTableRecord
100
AcDbLinetypeTableRecord
  2
BYBLOCK
 70
0
  3

 72
65
 73
0
 40
0.0
  0
LTYPE
  5
15
100
AcDbSymbolTableRecord
100
AcDbLinetypeTableRecord
  2
BYLAYER
 70
0
  3

 72
65
 73
0
 40
0.0
  0
LTYPE
  5
16
100
AcDbSymbolTableRecord
100
AcDbLinetypeTableRecord
  2
CONTINUOUS
 70
64
  3
Solid line
 72
65
 73
0
 40
0.0
  0
LTYPE
  5
1F5
100
AcDbSymbolTableRecord
100
AcDbLinetypeTableRecord
  2
CENTER
 70
64
  3
____ _ ____ _ ____ _ ____ _ ____ _ ____ _ ____
 72
65
 73
4
 40
0.6
 49
0.375
 74
0
 49
-0.075
 74
0
 49
0.075
 74
0
 49
-0.075
 74
0
  0
LTYPE
  5
1F6
100
AcDbSymbolTableRecord
100
AcDbLinetypeTableRecord
  2
HIDDEN
 70
64
  3
- - - - - - - - - - - - - - - - - - - -
 72
65
 73
2
 40
0.2
 49
0.1
 74
0
 49
-0.1
 74
0
  0
LTYPE
  5
1F7
100
AcDbSymbolTableRecord
100
AcDbLinetypeTableRecord
  2
PHANTOM
 70
64
  3
_____ _ _ _____ _ _ _____ _ _ _____
 72
65
 73
6
 40
0.8
 49
0.45
 74
0
 49
-0.05
 74
0
 49
0.1
 74
0
 49
-0.05
 74
0
 49
0.1
 74
0
 49
-0.05
 74
0
  0
LTYPE
  5
1F8
100
AcDbSymbolTableRecord
100
AcDbLinetypeTableRecord
  2
DOT
 70
64
  3
. . . . . . . . . . . . . . . . . . . .
 72
65
 73
2
 40
0.2
 49
0.1
 74
0
 49
-0.1
 74
0
  0
LTYPE
  5
1F9
100
AcDbSymbolTableRecord
100
AcDbLinetypeTableRecord
  2
DASHED
 70
64
  3
- - - - - - - - - - - - - - - - - - - -
 72
65
 73
2
 40
0.2
 49
0.1
 74
0
 49
-0.1
 74
0
  0
ENDTAB
  0
TABLE
  2
LAYER
  5
2
100
AcDbSymbolTable
 70
36
  0
LAYER
  5
10
100
AcDbSymbolTableRecord
100
AcDbLayerTableRecord
  2
0
 70
0
 62
7
  6
CONTINUOUS
370
-3
390
F
  0
LAYER
  5
1FA
100
AcDbSymbolTableRecord
100
AcDbLayerTableRecord
  2
DEFAULT_1
 70
0
 62
7
  6
CENTER
370
-3
390
F
  0
LAYER
  5
1FB
100
AcDbSymbolTableRecord
100
AcDbLayerTableRecord
  2
DEFAULT_2
 70
0
 62
8
  6
HIDDEN
370
-3
390
F
  0
LAYER
  5
1FC
100
AcDbSymbolTableRecord
100
AcDbLayerTableRecord
  2
DEFAULT_3
 70
0
 62
7
  6
PHANTOM
370
-3
390
F
  0
LAYER
  5
1FD
100
AcDbSymbolTableRecord
100
AcDbLayerTableRecord
  2
ALL_FEATURES
 70
0
 62
7
  6
CONTINUOUS
370
-3
390
F
  0
LAYER
  5
1FE
100
AcDbSymbolTableRecord
100
AcDbLayerTableRecord
  2
AXES_FEATURES
 70
0
 62
7
  6
CONTINUOUS
370
-3
390
F
  0
LAYER
  5
1FF
100
AcDbSymbolTableRecord
100
AcDbLayerTableRecord
  2
DIMENSIONS
 70
0
 62
7
  6
CONTINUOUS
370
-3
390
F
  0
ENDTAB
  0
TABLE
  2
STYLE
  5
3
100
AcDbSymbolTable
 70
1
  0
STYLE
  5
11
100
AcDbSymbolTableRecord
100
AcDbTextStyleTableRecord
  2
STANDARD
 70
0
 40
0.0
 41
0.8
 50
0.0
 71
0
 42
0.2
  3
txt
  4

  0
STYLE
  5
200
100
AcDbSymbolTableRecord
100
AcDbTextStyleTableRecord
  2
TEXTSTYLE_1
 70
0
 40
0.0
 41
0.8
 50
0.0
 71
0
 42
0.2
  3
gdt
  4

  0
ENDTAB
  0
TABLE
  2
VIEW
  5
6
100
AcDbSymbolTable
 70
0
  0
ENDTAB
  0
TABLE
  2
UCS
  5
7
100
AcDbSymbolTable
 70
0
  0
ENDTAB
  0
TABLE
  2
APPID
  5
9
100
AcDbSymbolTable
 70
1
  0
APPID
  5
201
100
AcDbSymbolTableRecord
100
AcDbRegAppTableRecord
  2
ACAD
 70
0
  0
ENDTAB
  0
TABLE
  2
BLOCK_RECORD
  5
1
100
AcDbSymbolTable
 70
0
  0
BLOCK_RECORD
  5
202
100
AcDbSymbolTableRecord
100
AcDbBlockTableRecord
  2
*Model_Space
  0
BLOCK_RECORD
  5
203
100
AcDbSymbolTableRecord
100
AcDbBlockTableRecord
  2
*Paper_Space
  0
BLOCK_RECORD
  5
204
100
AcDbSymbolTableRecord
100
AcDbBlockTableRecord
  2
_FILLED
  0
ENDTAB
  0
TABLE
  2
DIMSTYLE
  5
A
100
AcDbSymbolTable
 70
1
100
AcDbDimStyleTable
 71
0
  0
DIMSTYLE
105
205
100
AcDbSymbolTableRecord
100
AcDbDimStyleTableRecord
  2
STANDARD
 70
0
  3

  4

 40
1.0
 41
0.1
 42
0.0625
 43
0.38
 44
0.125
 45
0.0
 46
0.0
 47
0.001
 48
0.001
140
0.08
141
0.09
142
0.0
143
25.4
144
1.0
145
0.0
146
1.0
147
0.09
 71
1.0
 72
0.0
 73
1
 74
1
 75
0
 76
0
 77
0
 78
4
 79
1
170
1
171
2
172
0
173
0
174
0
175
0
176
0
177
0
178
0
270
2
179
3
271
3
272
3
273
2
274
2
275
0
280
0
281
0
282
0
283
1
284
4
285
0
286
0
287
3
288
0
340
11
278
46
341
204
342
204
343
204
344
204
  0
ENDTAB
  0
ENDSEC
  0
SECTION
  2
BLOCKS
  0
BLOCK
  5
20
100
AcDbEntity
  8
0
100
AcDbBlockBegin
  2
*Model_Space
 70
0
 10
0.0
 20
0.0
 30
0.0
  3
*Model_Space
  1

  0
ENDBLK
  5
21
100
AcDbEntity
  8
0
100
AcDbBlockEnd
  0
BLOCK
  5
1C
100
AcDbEntity
  8
0
100
AcDbBlockBegin
  2
*Paper_Space
 70
0
 10
0.0
 20
0.0
 30
0.0
  3
*Paper_Space
  1

  0
ENDBLK
  5
1D
100
AcDbEntity
  8
0
100
AcDbBlockEnd
  0
BLOCK
  5
206
100
AcDbEntity
  8
0
100
AcDbBlockBegin
  2
_FILLED
 70
64
 10
0.0
 20
0.0
  3
_FILLED
  1

  0
SOLID
  5
207
100
AcDbEntity
  8
0
  6
BYBLOCK
 62
0
100
AcDbTrace
 10
0.0
 20
0.0
 11
-1.0
 21
0.2
 12
-1.0
 22
-0.2
 13
-1.0
 23
-0.2
  0
ENDBLK
  5
208
100
AcDbEntity
  8
0
  6
BYBLOCK
 62
0
100
AcDbBlockEnd
  0
ENDSEC
  0
SECTION
  2
ENTITIES
  0
LINE
  5
209
100
AcDbEntity
  8
0
100
AcDbLine
 62
7
  6
CONTINUOUS
 10
13.5275517632
 20
3.2533040479
 11
15.3775500215
 21
3.2533040479
  0
LINE
  5
20A
100
AcDbEntity
  8
0
100
AcDbLine
 62
9
  6
CONTINUOUS
 10
15.3775508924
 20
3.4833040479
 11
13.5275508924
 21
3.4833040479
  0
LINE
  5
20B
100
AcDbEntity
  8
0
100
AcDbLine
 62
7
  6
CONTINUOUS
 10
15.3575360913
 20
3.5033040479
 11
13.5475656935
 21
3.5033040479
  0
LINE
  5
20C
100
AcDbEntity
  8
0
100
AcDbLine
 62
9
  6
CONTINUOUS
 10
15.3775508924
 20
3.7333040479
 11
14.8825508924
 21
3.7333040479
  0
LINE
  5
20D
100
AcDbEntity
  8
0
100
AcDbLine
 62
9
  6
CONTINUOUS
 10
14.0225508924
 20
3.7333040479
 11
13.5275508924
 21
3.7333040479
  0
LINE
  5
20E
100
AcDbEntity
  8
0
100
AcDbLine
 62
7
  6
CONTINUOUS
 10
15.3575162769
 20
3.7533040479
 11
14.8825508924
 21
3.7533040479
  0
LINE
  5
20F
100
AcDbEntity
  8
0
100
AcDbLine
 62
7
  6
CONTINUOUS
 10
14.0225508924
 20
3.7533040479
 11
13.5475855078
 21
3.7533040479
  0
LINE
  5
210
100
AcDbEntity
  8
0
100
AcDbLine
 62
7
  6
CONTINUOUS
 10
14.8825508924
 20
3.8793040479
 11
14.0225508924
 21
3.8793040479
  0
LINE
  5
211
100
AcDbEntity
  8
0
100
AcDbLine
 62
7
  6
CONTINUOUS
 10
14.0225517211
 20
3.9293040479
 11
14.8825500636
 21
3.9293040479
  0
LINE
  5
212
100
AcDbEntity
  8
0
100
AcDbLine
 62
7
  6
CONTINUOUS
 10
6.042416858
 20
10.3978905984
 11
6.1115410709
 21
10.8897349301
  0
LINE
  5
213
100
AcDbEntity
  8
0
100
AcDbLine
 62
7
  6
CONTINUOUS
 10
7.0326849267
 20
10.2587174974
 11
7.1027549187
 21
10.7572913965
  0
LINE
  5
214
100
AcDbEntity
  8
0
100
AcDbLine
 62
9
  6
CONTINUOUS
 10
14.5239125945
 20
5.6793040479
 11
14.3811891902
 21
5.6793040479
  0
LINE
  5
215
100
AcDbEntity
  8
0
100
AcDbLine
 62
7
  6
CONTINUOUS
 10
14.5305508924
 20
5.7193040479
 11
14.3745508924
 21
5.7193040479
  0
LINE
  5
216
100
AcDbEntity
  8
0
100
AcDbLine
 62
9
  6
CONTINUOUS
 10
14.3345508924
 20
5.7593040479
 11
14.5705508924
 21
5.7593040479
  0
LINE
  5
217
100
AcDbEntity
  8
0
100
AcDbLine
 62
9
  6
CONTINUOUS
 10
14.5705508924
 20
6.6633040479
 11
14.3345508924
 21
6.6633040479
  0
LINE
  5
218
100
AcDbEntity
  8
0
100
AcDbLine
 62
7
  6
CONTINUOUS
 10
14.3745508924
 20
6.7033040479
 11
14.5305508924
 21
6.7033040479
  0
LINE
  5
219
100
AcDbEntity
  8
0
100
AcDbLine
 62
7
  6
CONTINUOUS
 10
14.5970532447
 20
6.4907265286
 11
14.5970491793
 21
6.4907279783
  0
LINE
  5
21A
100
AcDbEntity
  8
0
100
AcDbLine
 62
7
  6
CONTINUOUS
 10
14.649279064
 20
6.4680946243
 11
14.5970491793
 21
6.4907279783
  0
LWPOLYLINE
  5
21B
100
AcDbEntity
  8
0
100
AcDbPolyline
 62
7
  6
CONTINUOUS
 90
5
 70
0
 10
14.5971034389
 20
6.4907084625
 10
14.5906705501
 20
6.4936704083
 10
14.5799707033
 20
6.5025953996
 10
14.5729779807
 20
6.5146586144
 10
14.570550876
 20
6.5283799467
  0
LINE
  5
21C
100
AcDbEntity
  8
0
100
AcDbLine
 62
7
  6
CONTINUOUS
 10
6.042416858
 20
10.3978905984
 11
7.0326849267
 21
10.2587174974
  0
LINE
  5
21D
100
AcDbEntity
  8
0
100
AcDbLine
 62
9
  6
CONTINUOUS
 10
14.9525508924
 20
10.3283040479
 11
13.9525508924
 21
10.3283040479
  0
LINE
  5
21E
100
AcDbEntity
  8
0
100
AcDbLine
 62
7
  6
CONTINUOUS
 10
13.5275508924
 20
3.2533040479
 11
13.5275508924
 21
3.7333040479
  0
LINE
  5
21F
100
AcDbEntity
  8
0
100
AcDbLine
 62
7
  6
CONTINUOUS
 10
13.9525508924
 20
10.3283040479
 11
13.9525508924
 21
3.7533040479
  0
LINE
  5
220
100
AcDbEntity
  8
0
100
AcDbLine
 62
7
  6
CONTINUOUS
 10
14.0225508924
 20
3.8793040479
 11
14.0225508924
 21
3.5033040479
  0
LINE
  5
221
100
AcDbEntity
  8
0
100
AcDbLine
 62
7
  6
CONTINUOUS
 10
14.0225508924
 20
3.9293040479
 11
14.0225508924
 21
6.0857362469
  0
LINE
  5
222
100
AcDbEntity
  8
0
100
AcDbLine
 62
7
  6
CONTINUOUS
 10
14.1125508924
 20
3.8793040479
 11
14.1125508924
 21
3.9293040479
  0
LWPOLYLINE
  5
223
100
AcDbEntity
  8
0
100
AcDbPolyline
 62
7
  6
CONTINUOUS
 90
7
 70
0
 10
14.882550911
 20
6.0857005277
 10
14.8723875697
 20
6.1786718865
 10
14.8488066586
 20
6.2527137555
 10
14.8135177205
 20
6.3194108593
 10
14.7674788415
 20
6.37851864
 10
14.7121000705
 20
6.4285698256
 10
14.649279064
 20
6.4680946243
  0
LINE
  5
224
100
AcDbEntity
  8
0
100
AcDbLine
 62
9
  6
CONTINUOUS
 10
14.2945508924
 20
5.7574587394
 11
14.2945508924
 21
6.4705805511
  0
LINE
  5
225
100
AcDbEntity
  8
0
100
AcDbLine
 62
7
  6
CONTINUOUS
 10
14.3345508924
 20
5.7593040479
 11
14.3345508924
 21
6.6633040479
  0
LINE
  5
226
100
AcDbEntity
  8
0
100
AcDbLine
 62
9
  6
CONTINUOUS
 10
14.3745508924
 20
6.7033040479
 11
14.3745508924
 21
5.7193040479
  0
LINE
  5
227
100
AcDbEntity
  8
0
100
AcDbLine
 62
9
  6
CONTINUOUS
 10
14.5305508924
 20
5.7193040479
 11
14.5305508924
 21
6.7033040479
  0
LINE
  5
228
100
AcDbEntity
  8
0
100
AcDbLine
 62
7
  6
CONTINUOUS
 10
14.5705508924
 20
6.6633040479
 11
14.5705508924
 21
5.7593040479
  0
LINE
  5
229
100
AcDbEntity
  8
0
100
AcDbLine
 62
9
  6
CONTINUOUS
 10
14.6105508924
 20
6.4705808191
 11
14.6105508924
 21
5.7574590011
  0
LWPOLYLINE
  5
22A
100
AcDbEntity
  8
0
100
AcDbPolyline
 62
7
  6
CONTINUOUS
 90
5
 70
0
 10
14.3345508951
 20
6.5283806147
 10
14.3321252741
 20
6.5146632598
 10
14.3251329073
 20
6.5025980694
 10
14.3144317505
 20
6.4936711098
 10
14.3079993419
 20
6.4907091809
  0
LWPOLYLINE
  5
22B
100
AcDbEntity
  8
0
100
AcDbPolyline
 62
7
  6
CONTINUOUS
 90
8
 70
0
 10
14.3079869655
 20
6.4907047697
 10
14.2564642244
 20
6.4684240771
 10
14.1935545428
 20
6.4289874982
 10
14.1380775305
 20
6.3790063817
 10
14.0919357204
 20
6.3199523714
 10
14.0565433966
 20
6.2533009525
 10
14.0328576635
 20
6.1793182992
 10
14.0225508764
 20
6.0857986811
  0
LINE
  5
22C
100
AcDbEntity
  8
0
100
AcDbLine
 62
7
  6
CONTINUOUS
 10
14.3079869655
 20
6.4907047697
 11
14.3079844848
 21
6.4907038856
  0
LINE
  5
22D
100
AcDbEntity
  8
0
100
AcDbLine
 62
7
  6
CONTINUOUS
 10
14.7925508924
 20
3.8793040479
 11
14.7925508924
 21
3.9293040479
  0
LINE
  5
22E
100
AcDbEntity
  8
0
100
AcDbLine
 62
7
  6
CONTINUOUS
 10
14.8825508924
 20
3.8793040479
 11
14.8825508924
 21
3.5033040479
  0
LINE
  5
22F
100
AcDbEntity
  8
0
100
AcDbLine
 62
7
  6
CONTINUOUS
 10
14.8825508924
 20
3.9293040479
 11
14.8825508924
 21
6.0857347639
  0
LINE
  5
230
100
AcDbEntity
  8
0
100
AcDbLine
 62
7
  6
CONTINUOUS
 10
14.9525508924
 20
10.3283040479
 11
14.9525508924
 21
3.7533040479
  0
LINE
  5
231
100
AcDbEntity
  8
0
100
AcDbLine
 62
7
  6
CONTINUOUS
 10
15.3775508924
 20
3.2533040479
 11
15.3775508924
 21
3.7333040479
  0
ARC
  5
232
100
AcDbEntity
  8
0
100
AcDbCircle
 62
7
  6
CONTINUOUS
 10
10.5142198979
 20
10.3283040479
 40
4.4383309945
100
AcDbArc
 50
0.0
 51
172.7328475071
  0
ARC
  5
233
100
AcDbEntity
  8
0
100
AcDbCircle
 62
7
  6
CONTINUOUS
 10
10.5142198979
 20
10.3283040479
 40
3.4383309945
100
AcDbArc
 50
0.0
 51
172.8327494245
  0
ARC
  5
234
100
AcDbEntity
  8
0
100
AcDbCircle
 62
9
  6
CONTINUOUS
 10
14.4525413435
 20
6.114019759
 40
0.3899963124
100
AcDbArc
 50
113.8979124723
 51
246.1021011103
  0
ARC
  5
235
100
AcDbEntity
  8
0
100
AcDbCircle
 62
9
  6
CONTINUOUS
 10
14.4525604412
 20
6.1140197943
 40
0.389996312
100
AcDbArc
 50
293.8979123717
 51
66.102101644
  0
ARC
  5
236
100
AcDbEntity
  8
0
100
AcDbCircle
 62
7
  6
CONTINUOUS
 10
14.5305508924
 20
6.6633040479
 40
0.04
100
AcDbArc
 50
0.0
 51
90.0
  0
ARC
  5
237
100
AcDbEntity
  8
0
100
AcDbCircle
 62
7
  6
CONTINUOUS
 10
14.3745508924
 20
6.6633040479
 40
0.04
100
AcDbArc
 50
90.0
 51
180.0
  0
ARC
  5
238
100
AcDbEntity
  8
0
100
AcDbCircle
 62
7
  6
CONTINUOUS
 10
14.3745508924
 20
5.7593040479
 40
0.04
100
AcDbArc
 50
179.9999999899
 51
270.0
  0
ARC
  5
239
100
AcDbEntity
  8
0
100
AcDbCircle
 62
7
  6
CONTINUOUS
 10
14.5305508924
 20
5.7593040479
 40
0.04
100
AcDbArc
 50
270.0
 51
360.0
  0
ARC
  5
23A
100
AcDbEntity
  8
0
100
AcDbCircle
 62
7
  6
CONTINUOUS
 10
15.3575508924
 20
3.4833040479
 40
0.02
100
AcDbArc
 50
0.0
 51
90.0
  0
ARC
  5
23B
100
AcDbEntity
  8
0
100
AcDbCircle
 62
7
  6
CONTINUOUS
 10
13.5475508924
 20
3.4833040479
 40
0.02
100
AcDbArc
 50
90.0
 51
180.0
  0
ARC
  5
23C
100
AcDbEntity
  8
0
100
AcDbCircle
 62
7
  6
CONTINUOUS
 10
15.3575508924
 20
3.7333040479
 40
0.02
100
AcDbArc
 50
0.0
 51
90.0
  0
ARC
  5
23D
100
AcDbEntity
  8
0
100
AcDbCircle
 62
7
  6
CONTINUOUS
 10
13.5475508924
 20
3.7333040479
 40
0.02
100
AcDbArc
 50
90.0
 51
180.0
  0
SPLINE
  5
23E
100
AcDbEntity
  8
0
100
AcDbSpline
 62
9
  6
CONTINUOUS
 70
0
 71
3
 72
22
 73
18
 74
0
 42
0.0000001
 43
0.0000001
 44
0.0000000001
 40
0.0
 40
0.0
 40
0.0
 40
0.0
 40
0.0072057822
 40
0.0150479604
 40
0.0239597107
 40
0.0342810348
 40
0.0600878897
 40
0.093971437
 40
0.1367445976
 40
0.1882801742
 40
0.2481458661
 40
0.3158528717
 40
0.3907354709
 40
0.4715028039
 40
0.6448142946
 40
0.8243410544
 40
1.0
 40
1.0
 40
1.0
 40
1.0
 10
14.3745508891
 20
5.7193040396
 30
0.0
 10
14.3746505208
 20
5.7193040397
 30
0.0
 10
14.3748594728
 20
5.719274236
 30
0.0
 10
14.3751670927
 20
5.7191435922
 30
0.0
 10
14.3754749187
 20
5.7189266362
 30
0.0
 10
14.3759187683
 20
5.7184867364
 30
0.0
 10
14.3764616139
 20
5.717675831
 30
0.0
 10
14.3770662147
 20
5.7163920694
 30
0.0
 10
14.3776570408
 20
5.7147184722
 30
0.0
 10
14.3782302365
 20
5.7126642587
 30
0.0
 10
14.3787743403
 20
5.7102473941
 30
0.0
 10
14.3792777782
 20
5.7074931268
 30
0.0
 10
14.3797285649
 20
5.7044374232
 30
0.0
 10
14.3802694786
 20
5.6999208652
 30
0.0
 10
14.3807748457
 20
5.693944875
 30
0.0
 10
14.3811145148
 20
5.686644156
 30
0.0
 10
14.3811891809
 20
5.6817328189
 30
0.0
 10
14.3811891809
 20
5.6793040479
 30
0.0
  0
SPLINE
  5
23F
100
AcDbEntity
  8
0
100
AcDbSpline
 62
9
  6
CONTINUOUS
 70
0
 71
3
 72
21
 73
17
 74
0
 42
0.0000001
 43
0.0000001
 44
0.0000000001
 40
0.0
 40
0.0
 40
0.0
 40
0.0
 40
0.1964660914
 40
0.3800242034
 40
0.5450935809
 40
0.6195374026
 40
0.6881327461
 40
0.7506154319
 40
0.8066903964
 40
0.8560153207
 40
0.8982279952
 40
0.9330627874
 40
0.9608140712
 40
0.9723125833
 40
0.9824701258
 40
1.0
 40
1.0
 40
1.0
 40
1.0
 10
14.3205254065
 20
5.7145668617
 30
0.0
 10
14.3221778666
 20
5.7157991597
 30
0.0
 10
14.3253346409
 20
5.7182365654
 30
0.0
 10
14.3297460245
 20
5.7218773509
 30
0.0
 10
14.3330779222
 20
5.7248131889
 30
0.0
 10
14.3354012211
 20
5.7270619586
 30
0.0
 10
14.3368882383
 20
5.7286248
 30
0.0
 10
14.3381615589
 20
5.7301210814
 30
0.0
 10
14.3392236003
 20
5.7315276765
 30
0.0
 10
14.3400789472
 20
5.7328200992
 30
0.0
 10
14.3407323457
 20
5.733975457
 30
0.0
 10
14.3411920864
 20
5.7349756357
 30
0.0
 10
14.3414253015
 20
5.7357219667
 30
0.0
 10
14.3414899872
 20
5.7362382331
 30
0.0
 10
14.3414808872
 20
5.736649668
 30
0.0
 10
14.3413880404
 20
5.7369389823
 30
0.0
 10
14.3412857429
 20
5.7370918356
 30
0.0
  0
SPLINE
  5
240
100
AcDbEntity
  8
0
100
AcDbSpline
 62
9
  6
CONTINUOUS
 70
0
 71
3
 72
12
 73
8
 74
0
 42
0.0000001
 43
0.0000001
 44
0.0000000001
 40
0.0
 40
0.0
 40
0.0
 40
0.0
 40
0.2396128649
 40
0.363174878
 40
0.4884399515
 40
0.742649118
 40
1.0
 40
1.0
 40
1.0
 40
1.0
 10
14.3013841289
 20
5.7413661249
 30
0.0
 10
14.3023050579
 20
5.7388738037
 30
0.0
 10
14.3039583041
 20
5.7351839008
 30
0.0
 10
14.3066713434
 20
5.7304924768
 30
0.0
 10
14.3097931203
 20
5.7258648645
 30
0.0
 10
14.3142945421
 20
5.7204006135
 30
0.0
 10
14.3183787241
 20
5.7164466768
 30
0.0
 10
14.320525815
 20
5.7145668619
 30
0.0
  0
SPLINE
  5
241
100
AcDbEntity
  8
0
100
AcDbSpline
 62
9
  6
CONTINUOUS
 70
0
 71
3
 72
22
 73
18
 74
0
 42
0.0000001
 43
0.0000001
 44
0.0000000001
 40
0.0
 40
0.0
 40
0.0
 40
0.0
 40
0.0763949443
 40
0.1505487411
 40
0.2223471315
 40
0.2917874859
 40
0.4238944986
 40
0.4869893711
 40
0.5483295909
 40
0.6081166658
 40
0.6665582898
 40
0.7238541372
 40
0.7802038516
 40
0.8358044173
 40
0.8908453576
 40
0.9455148044
 40
1.0
 40
1.0
 40
1.0
 40
1.0
 10
14.3205256148
 20
5.7145668618
 30
0.0
 10
14.30805146
 20
5.7182178786
 30
0.0
 10
14.2837624146
 20
5.7264628394
 30
0.0
 10
14.2490470765
 20
5.7415959085
 30
0.0
 10
14.216758787
 20
5.759024266
 30
0.0
 10
14.1777557622
 20
5.7844226032
 30
0.0
 10
14.143078794
 20
5.8135104254
 30
0.0
 10
14.1132908107
 20
5.8454612934
 30
0.0
 10
14.0937909427
 20
5.8700442078
 30
0.0
 10
14.0767456821
 20
5.8954361627
 30
0.0
 10
14.0621020421
 20
5.9214981429
 30
0.0
 10
14.0498045176
 20
5.9481017644
 30
0.0
 10
14.0398083195
 20
5.9751375412
 30
0.0
 10
14.032075389
 20
6.002506407
 30
0.0
 10
14.0265736645
 20
6.030118249
 30
0.0
 10
14.0232819312
 20
6.0578866954
 30
0.0
 10
14.0225506686
 20
6.0764660043
 30
0.0
 10
14.022550763
 20
6.085735861
 30
0.0
  0
SPLINE
  5
242
100
AcDbEntity
  8
0
100
AcDbSpline
 62
9
  6
CONTINUOUS
 70
0
 71
3
 72
9
 73
5
 74
0
 42
0.0000001
 43
0.0000001
 44
0.0000000001
 40
0.0
 40
0.0
 40
0.0
 40
0.0
 40
0.4872895104
 40
1.0
 40
1.0
 40
1.0
 40
1.0
 10
14.294550935
 20
5.757458737
 30
0.0
 10
14.2958141752
 20
5.7549140781
 30
0.0
 10
14.298242872
 20
5.7496096978
 30
0.0
 10
14.3003690504
 20
5.744177604
 30
0.0
 10
14.3013843213
 20
5.7413661348
 30
0.0
  0
SPLINE
  5
243
100
AcDbEntity
  8
0
100
AcDbSpline
 62
9
  6
CONTINUOUS
 70
0
 71
3
 72
17
 73
13
 74
0
 42
0.0000001
 43
0.0000001
 44
0.0000000001
 40
0.0
 40
0.0
 40
0.0
 40
0.0
 40
0.0962902237
 40
0.2015158091
 40
0.2584198157
 40
0.3182323268
 40
0.4457460706
 40
0.5132179036
 40
0.5825522633
 40
0.7239940046
 40
0.8646782106
 40
1.0
 40
1.0
 40
1.0
 40
1.0
 10
14.3345518486
 20
6.4988650207
 30
0.0
 10
14.3345518401
 20
6.4971332823
 30
0.0
 10
14.3340668454
 20
6.4934952802
 30
0.0
 10
14.3322769622
 20
6.4891489204
 30
0.0
 10
14.3300930689
 20
6.4857978113
 30
0.0
 10
14.3272819373
 20
6.4824124803
 30
0.0
 10
14.3237842735
 20
6.4793902399
 30
0.0
 10
14.3197621178
 20
6.4768472081
 30
0.0
 10
14.3153038259
 20
6.4745618221
 30
0.0
 10
14.3093388759
 20
6.4723824578
 30
0.0
 10
14.3019539049
 20
6.4709046012
 30
0.0
 10
14.2969845968
 20
6.4705805172
 30
0.0
 10
14.2945508924
 20
6.4705805172
 30
0.0
  0
SPLINE
  5
244
100
AcDbEntity
  8
0
100
AcDbSpline
 62
9
  6
CONTINUOUS
 70
0
 71
3
 72
15
 73
11
 74
0
 42
0.0000001
 43
0.0000001
 44
0.0000000001
 40
0.0
 40
0.0
 40
0.0
 40
0.0
 40
0.121843533
 40
0.2476228843
 40
0.375812896
 40
0.5050811862
 40
0.6338482185
 40
0.7602665555
 40
0.8826868163
 40
1.0
 40
1.0
 40
1.0
 40
1.0
 10
14.2945508924
 20
5.7574587787
 30
0.0
 10
14.2959595282
 20
5.7574587788
 30
0.0
 10
14.2988233955
 20
5.7575678461
 30
0.0
 10
14.303144187
 20
5.7580611344
 30
0.0
 10
14.3074974616
 20
5.758913116
 30
0.0
 10
14.3117932705
 20
5.7601533692
 30
0.0
 10
14.3159386761
 20
5.7617743136
 30
0.0
 10
14.319841308
 20
5.7637468491
 30
0.0
 10
14.3234036358
 20
5.7660495599
 30
0.0
 10
14.3255402187
 20
5.7678279042
 30
0.0
 10
14.3265261203
 20
5.7687592689
 30
0.0
  0
SPLINE
  5
245
100
AcDbEntity
  8
0
100
AcDbSpline
 62
9
  6
CONTINUOUS
 70
0
 71
3
 72
12
 73
8
 74
0
 42
0.0000001
 43
0.0000001
 44
0.0000000001
 40
0.0
 40
0.0
 40
0.0
 40
0.0
 40
0.2809579471
 40
0.4133103488
 40
0.5399942528
 40
0.7782047354
 40
1.0
 40
1.0
 40
1.0
 40
1.0
 10
14.3265261203
 20
5.7687592689
 30
0.0
 10
14.3278399299
 20
5.7700004027
 30
0.0
 10
14.3296267875
 20
5.7719957345
 30
0.0
 10
14.3315439473
 20
5.7748982594
 30
0.0
 10
14.3330210814
 20
5.77774144
 30
0.0
 10
14.3342256094
 20
5.7813490908
 30
0.0
 10
14.3345513933
 20
5.7843160932
 30
0.0
 10
14.3345513832
 20
5.7857428596
 30
0.0
  0
SPLINE
  5
246
100
AcDbEntity
  8
0
100
AcDbSpline
 62
9
  6
CONTINUOUS
 70
0
 71
3
 72
17
 73
13
 74
0
 42
0.0000001
 43
0.0000001
 44
0.0000000001
 40
0.0
 40
0.0
 40
0.0
 40
0.0
 40
0.0379968138
 40
0.0779256552
 40
0.1667785739
 40
0.2175330808
 40
0.2728855638
 40
0.3970034901
 40
0.5373552989
 40
0.6887932537
 40
0.844972202
 40
1.0
 40
1.0
 40
1.0
 40
1.0
 10
14.3345506831
 20
5.7593041412
 30
0.0
 10
14.3345506907
 20
5.7587918188
 30
0.0
 10
14.3344495582
 20
5.7577387088
 30
0.0
 10
14.3338294834
 20
5.7555664143
 30
0.0
 10
14.3325518685
 20
5.7534544061
 30
0.0
 10
14.3307657432
 20
5.7515216336
 30
0.0
 10
14.328406108
 20
5.7494944554
 30
0.0
 10
14.3247259373
 20
5.7471997387
 30
0.0
 10
14.3195597814
 20
5.7449812401
 30
0.0
 10
14.3137667177
 20
5.7432330325
 30
0.0
 10
14.3076405119
 20
5.7420163919
 30
0.0
 10
14.3034679623
 20
5.7415305924
 30
0.0
 10
14.3013841543
 20
5.741366155
 30
0.0
  0
SPLINE
  5
247
100
AcDbEntity
  8
0
100
AcDbSpline
 62
9
  6
CONTINUOUS
 70
0
 71
3
 72
19
 73
15
 74
0
 42
0.0000001
 43
0.0000001
 44
0.0000000001
 40
0.0
 40
0.0
 40
0.0
 40
0.0
 40
0.0218436807
 40
0.0463484516
 40
0.0755515415
 40
0.1106217509
 40
0.1521773566
 40
0.2004567105
 40
0.2554601951
 40
0.3170608842
 40
0.4589398749
 40
0.6229293783
 40
0.8050937415
 40
1.0
 40
1.0
 40
1.0
 40
1.0
 10
14.5638970326
 20
5.7372132247
 30
0.0
 10
14.563769802
 20
5.7370206178
 30
0.0
 10
14.563584873
 20
5.736551445
 30
0.0
 10
14.5635733533
 20
5.7357413428
 30
0.0
 10
14.563796102
 20
5.7348231042
 30
0.0
 10
14.5642476216
 20
5.7337955693
 30
0.0
 10
14.5649271498
 20
5.7326612309
 30
0.0
 10
14.565824804
 20
5.7314199088
 30
0.0
 10
14.5669318298
 20
5.7300732889
 30
0.0
 10
14.5687617313
 20
5.728044394
 30
0.0
 10
14.5715143136
 20
5.7253015075
 30
0.0
 10
14.5753490711
 20
5.7218503982
 30
0.0
 10
14.5797627853
 20
5.7182132842
 30
0.0
 10
14.5829268696
 20
5.7157897522
 30
0.0
 10
14.5845818551
 20
5.7145636364
 30
0.0
  0
SPLINE
  5
248
100
AcDbEntity
  8
0
100
AcDbSpline
 62
9
  6
CONTINUOUS
 70
0
 71
3
 72
22
 73
18
 74
0
 42
0.0000001
 43
0.0000001
 44
0.0000000001
 40
0.0
 40
0.0
 40
0.0
 40
0.0
 40
0.1756587344
 40
0.3551853498
 40
0.5284967857
 40
0.6092641235
 40
0.6841467467
 40
0.7518537933
 40
0.811719538
 40
0.8632551736
 40
0.9060283938
 40
0.9399119961
 40
0.9657188987
 40
0.9760402432
 40
0.9849520113
 40
0.9927942049
 40
1.0
 40
1.0
 40
1.0
 40
1.0
 10
14.5239125951
 20
5.6793040479
 30
0.0
 10
14.523912595
 20
5.6817328167
 30
0.0
 10
14.5239872609
 20
5.6866441504
 30
0.0
 10
14.5243269296
 20
5.6939448658
 30
0.0
 10
14.5248322964
 20
5.6999208551
 30
0.0
 10
14.5253732102
 20
5.704437414
 30
0.0
 10
14.5258239971
 20
5.7074931195
 30
0.0
 10
14.5263274353
 20
5.7102473892
 30
0.0
 10
14.5268715397
 20
5.7126642566
 30
0.0
 10
14.5274447361
 20
5.714718473
 30
0.0
 10
14.528035563
 20
5.716392073
 30
0.0
 10
14.5286401647
 20
5.7176758371
 30
0.0
 10
14.5291830113
 20
5.7184867443
 30
0.0
 10
14.5296268617
 20
5.7189266453
 30
0.0
 10
14.5299346883
 20
5.7191436019
 30
0.0
 10
14.5302423088
 20
5.7192742462
 30
0.0
 10
14.5304512612
 20
5.7193040501
 30
0.0
 10
14.5305508931
 20
5.7193040501
 30
0.0
  0
SPLINE
  5
249
100
AcDbEntity
  8
0
100
AcDbSpline
 62
9
  6
CONTINUOUS
 70
0
 71
3
 72
18
 73
14
 74
0
 42
0.0000001
 43
0.0000001
 44
0.0000000001
 40
0.0
 40
0.0
 40
0.0
 40
0.0
 40
0.0368708084
 40
0.0756884218
 40
0.1622759675
 40
0.2118922107
 40
0.2661701649
 40
0.3886693506
 40
0.4567690543
 40
0.5287717783
 40
0.6814760102
 40
0.8406373937
 40
1.0
 40
1.0
 40
1.0
 40
1.0
 10
14.5705509013
 20
5.7593041027
 30
0.0
 10
14.5705509001
 20
5.7588069157
 30
0.0
 10
14.5706458273
 20
5.7577840618
 30
0.0
 10
14.5712321472
 20
5.7556658656
 30
0.0
 10
14.5724524858
 20
5.7535928796
 30
0.0
 10
14.5741731735
 20
5.751681709
 30
0.0
 10
14.5764685647
 20
5.7496593021
 30
0.0
 10
14.5792693061
 20
5.7478713391
 30
0.0
 10
14.5824513248
 20
5.7463146423
 30
0.0
 10
14.586109511
 20
5.7448214657
 30
0.0
 10
14.5910677958
 20
5.7432961771
 30
0.0
 10
14.597304246
 20
5.7420374212
 30
0.0
 10
14.6015751198
 20
5.7415351502
 30
0.0
 10
14.6037173959
 20
5.7413660928
 30
0.0
  0
SPLINE
  5
24A
100
AcDbEntity
  8
0
100
AcDbSpline
 62
9
  6
CONTINUOUS
 70
0
 71
3
 72
12
 73
8
 74
0
 42
0.0000001
 43
0.0000001
 44
0.0000000001
 40
0.0
 40
0.0
 40
0.0
 40
0.0
 40
0.2574049903
 40
0.3850581275
 40
0.5116865419
 40
0.760415933
 40
1.0
 40
1.0
 40
1.0
 40
1.0
 10
14.5845815013
 20
5.7145636366
 30
0.0
 10
14.5867219943
 20
5.7164515125
 30
0.0
 10
14.5897966081
 20
5.719428112
 30
0.0
 10
14.5935290139
 20
5.7237047436
 30
0.0
 10
14.596934106
 20
5.7281259774
 30
0.0
 10
14.6005779149
 20
5.7339122068
 30
0.0
 10
14.6028177908
 20
5.7388665073
 30
0.0
 10
14.6037173633
 20
5.7413660442
 30
0.0
  0
SPLINE
  5
24B
100
AcDbEntity
  8
0
100
AcDbSpline
 62
9
  6
CONTINUOUS
 70
0
 71
3
 72
9
 73
5
 74
0
 42
0.0000001
 43
0.0000001
 44
0.0000000001
 40
0.0
 40
0.0
 40
0.0
 40
0.0
 40
0.5127128095
 40
1.0
 40
1.0
 40
1.0
 40
1.0
 10
14.6037171642
 20
5.7413660562
 30
0.0
 10
14.6047324909
 20
5.7441775966
 30
0.0
 10
14.6068587848
 20
5.7496097968
 30
0.0
 10
14.6092875715
 20
5.7549142896
 30
0.0
 10
14.6105508326
 20
5.7574589997
 30
0.0
  0
SPLINE
  5
24C
100
AcDbEntity
  8
0
100
AcDbSpline
 62
9
  6
CONTINUOUS
 70
0
 71
3
 72
16
 73
12
 74
0
 42
0.0000001
 43
0.0000001
 44
0.0000000001
 40
0.0
 40
0.0
 40
0.0
 40
0.0
 40
0.3561206606
 40
0.5109052149
 40
0.6480615279
 40
0.766159554
 40
0.8640868279
 40
0.905384425
 40
0.9416335297
 40
0.9730333775
 40
1.0
 40
1.0
 40
1.0
 40
1.0
 10
14.6105511261
 20
6.4705809225
 30
0.0
 10
14.6092599721
 20
6.4731817361
 30
0.0
 10
14.6073551387
 20
6.4768884534
 30
0.0
 10
14.6047486024
 20
6.4814856674
 30
0.0
 10
14.6029949863
 20
6.4843335107
 30
0.0
 10
14.6013621079
 20
6.4867070146
 30
0.0
 10
14.6000451165
 20
6.4883454715
 30
0.0
 10
14.5990456522
 20
6.4893707988
 30
0.0
 10
14.5983749609
 20
6.4899553519
 30
0.0
 10
14.5977406961
 20
6.4903974617
 30
0.0
 10
14.5973111889
 20
6.4906096063
 30
0.0
 10
14.5971043924
 20
6.4906843087
 30
0.0
  0
SPLINE
  5
24D
100
AcDbEntity
  8
0
100
AcDbSpline
 62
9
  6
CONTINUOUS
 70
0
 71
3
 72
12
 73
8
 74
0
 42
0.0000001
 43
0.0000001
 44
0.0000000001
 40
0.0
 40
0.0
 40
0.0
 40
0.0
 40
0.2224741111
 40
0.4609705969
 40
0.5875666458
 40
0.7196972357
 40
1.0
 40
1.0
 40
1.0
 40
1.0
 10
14.5705504096
 20
5.7857430918
 30
0.0
 10
14.5705503994
 20
5.7843501348
 30
0.0
 10
14.5708605356
 20
5.7814565336
 30
0.0
 10
14.5720078078
 20
5.7779324249
 30
0.0
 10
14.5734143208
 20
5.7751494833
 30
0.0
 10
14.5752405941
 20
5.7723058579
 30
0.0
 10
14.5769469315
 20
5.7703428858
 30
0.0
 10
14.5782030681
 20
5.7691172159
 30
0.0
  0
SPLINE
  5
24E
100
AcDbEntity
  8
0
100
AcDbSpline
 62
9
  6
CONTINUOUS
 70
0
 71
3
 72
15
 73
11
 74
0
 42
0.0000001
 43
0.0000001
 44
0.0000000001
 40
0.0
 40
0.0
 40
0.0
 40
0.0
 40
0.1168117601
 40
0.2388948797
 40
0.3651901722
 40
0.4940222315
 40
0.6234873175
 40
0.7519223199
 40
0.8779507385
 40
1.0
 40
1.0
 40
1.0
 40
1.0
 10
14.5782030681
 20
5.7691172159
 30
0.0
 10
14.5791840128
 20
5.7681600633
 30
0.0
 10
14.5813181635
 20
5.7663295607
 30
0.0
 10
14.5848957146
 20
5.7639547057
 30
0.0
 10
14.5888348421
 20
5.7619199291
 30
0.0
 10
14.593032386
 20
5.7602457859
 30
0.0
 10
14.5973914164
 20
5.7589626929
 30
0.0
 10
14.6018146714
 20
5.7580815751
 30
0.0
 10
14.6062070681
 20
5.7575717199
 30
0.0
 10
14.6091188961
 20
5.757459004
 30
0.0
 10
14.6105508924
 20
5.757459004
 30
0.0
  0
SPLINE
  5
24F
100
AcDbEntity
  8
0
100
AcDbSpline
 62
9
  6
CONTINUOUS
 70
0
 71
3
 72
17
 73
13
 74
0
 42
0.0000001
 43
0.0000001
 44
0.0000000001
 40
0.0
 40
0.0
 40
0.0
 40
0.0
 40
0.1353219143
 40
0.2760061606
 40
0.4174478724
 40
0.4867822037
 40
0.5542540075
 40
0.6817677105
 40
0.7415802108
 40
0.7984842122
 40
0.9037098024
 40
1.0
 40
1.0
 40
1.0
 40
1.0
 10
14.6105508924
 20
6.4705807922
 30
0.0
 10
14.6081171955
 20
6.4705807923
 30
0.0
 10
14.6031479043
 20
6.4709048756
 30
0.0
 10
14.5957629608
 20
6.4723827286
 30
0.0
 10
14.5897980355
 20
6.4745620853
 30
0.0
 10
14.5853397631
 20
6.4768474617
 30
0.0
 10
14.5813176247
 20
6.479390482
 30
0.0
 10
14.5778199744
 20
6.4824127068
 30
0.0
 10
14.5750088496
 20
6.4857980192
 30
0.0
 10
14.5728249583
 20
6.48914911
 30
0.0
 10
14.5710350679
 20
6.4934954451
 30
0.0
 10
14.5705500557
 20
6.497133429
 30
0.0
 10
14.5705500367
 20
6.49886516
 30
0.0
  0
SPLINE
  5
250
100
AcDbEntity
  8
0
100
AcDbSpline
 62
9
  6
CONTINUOUS
 70
0
 71
3
 72
23
 73
19
 74
0
 42
0.0000001
 43
0.0000001
 44
0.0000000001
 40
0.0
 40
0.0
 40
0.0
 40
0.0
 40
0.0544789899
 40
0.1091424162
 40
0.1641774124
 40
0.2197721396
 40
0.2761160758
 40
0.3334059449
 40
0.3918415001
 40
0.4516225558
 40
0.512956318
 40
0.5760445095
 40
0.6410810547
 40
0.7082453674
 40
0.7776780787
 40
0.849468478
 40
0.9236136356
 40
1.0
 40
1.0
 40
1.0
 40
1.0
 10
14.8825510136
 20
6.085704965
 30
0.0
 10
14.882550302
 20
6.0764357985
 30
0.0
 10
14.8818175312
 20
6.0578579026
 30
0.0
 10
14.8785238567
 20
6.0300916951
 30
0.0
 10
14.8730204816
 20
6.0024821465
 30
0.0
 10
14.8652862549
 20
5.975115593
 30
0.0
 10
14.855289113
 20
5.9480821607
 30
0.0
 10
14.8429908521
 20
5.9214809148
 30
0.0
 10
14.8283469103
 20
5.8954214442
 30
0.0
 10
14.8113014531
 20
5.8700313537
 30
0.0
 10
14.7918033915
 20
5.8454521979
 30
0.0
 10
14.7697968887
 20
5.8218507607
 30
0.0
 10
14.7452312801
 20
5.7994243737
 30
0.0
 10
14.7180814983
 20
5.7783906432
 30
0.0
 10
14.6883374363
 20
5.7590208822
 30
0.0
 10
14.6560542477
 20
5.7415947169
 30
0.0
 10
14.6213393281
 20
5.7264662275
 30
0.0
 10
14.597054881
 20
5.7182143553
 30
0.0
 10
14.5845816258
 20
5.7145636365
 30
0.0
  0
SPLINE
  5
251
100
AcDbEntity
  8
0
100
AcDbSpline
 62
9
  6
CONTINUOUS
 70
0
 71
3
 72
16
 73
12
 74
0
 42
0.0000001
 43
0.0000001
 44
0.0000000001
 40
0.0
 40
0.0
 40
0.0
 40
0.0
 40
0.0269960519
 40
0.0584267012
 40
0.0947043962
 40
0.1360263949
 40
0.2339861821
 40
0.3520918456
 40
0.4892326345
 40
0.643982938
 40
1.0
 40
1.0
 40
1.0
 40
1.0
 10
14.3079918023
 20
6.4906825103
 30
0.0
 10
14.3077850013
 20
6.4906072643
 30
0.0
 10
14.3073555684
 20
6.4903941606
 30
0.0
 10
14.3067214198
 20
6.4899509494
 30
0.0
 10
14.3060508772
 20
6.4893655099
 30
0.0
 10
14.305051766
 20
6.4883393331
 30
0.0
 10
14.3037352582
 20
6.4867004591
 30
0.0
 10
14.3021029338
 20
6.4843271371
 30
0.0
 10
14.3003500223
 20
6.4814801682
 30
0.0
 10
14.2977447692
 20
6.4768850583
 30
0.0
 10
14.295840969
 20
6.4731801455
 30
0.0
 10
14.2945506469
 20
6.4705806056
 30
0.0
  0
SPLINE
  5
252
100
AcDbEntity
  8
0
100
AcDbSpline
 62
9
  6
CONTINUOUS
 70
0
 71
3
 72
11
 73
7
 74
0
 42
0.0000001
 43
0.0000001
 44
0.0000000001
 40
0.0
 40
0.0
 40
0.0
 40
0.0
 40
0.2506384427
 40
0.5000009744
 40
0.7494028998
 40
1.0
 40
1.0
 40
1.0
 40
1.0
 10
14.3205256148
 20
5.7145668618
 30
0.0
 10
14.3237345427
 20
5.709368654
 30
0.0
 10
14.3313337944
 20
5.6996753954
 30
0.0
 10
14.3458763685
 20
5.6883203549
 30
0.0
 10
14.3628303352
 20
5.6809981191
 30
0.0
 10
14.3750813042
 20
5.6793040172
 30
0.0
 10
14.3811891902
 20
5.6793040479
 30
0.0
  0
SPLINE
  5
253
100
AcDbEntity
  8
0
100
AcDbSpline
 62
9
  6
CONTINUOUS
 70
0
 71
3
 72
11
 73
7
 74
0
 42
0.0000001
 43
0.0000001
 44
0.0000000001
 40
0.0
 40
0.0
 40
0.0
 40
0.0
 40
0.2506012939
 40
0.500003582
 40
0.7493616359
 40
1.0
 40
1.0
 40
1.0
 40
1.0
 10
14.5239125945
 20
5.6793040479
 30
0.0
 10
14.5300206645
 20
5.6793038203
 30
0.0
 10
14.5422717564
 20
5.680998207
 30
0.0
 10
14.5592267212
 20
5.6883200388
 30
0.0
 10
14.5737661766
 20
5.6996777051
 30
0.0
 10
14.5813732389
 20
5.709365001
 30
0.0
 10
14.5845816258
 20
5.7145636365
 30
0.0
  0
LINE
  5
254
100
AcDbEntity
  8
0
100
AcDbLine
 62
7
  6
CONTINUOUS
 10
6.6071360899
 20
10.8234279495
 11
7.1027436648
 21
10.7572113211
  0
LINE
  5
255
100
AcDbEntity
  8
0
100
AcDbLine
 62
7
  6
CONTINUOUS
 10
6.1115410709
 20
10.8897349301
 11
6.6071360899
 21
10.8234279495
  0
ENDSEC
  0
SECTION
  2
OBJECTS
  0
DICTIONARY
  5
C
100
AcDbDictionary
280
0
281
1
  3
ACAD_GROUP
350
D
  3
ACAD_MLINESTYLE
350
17
  3
ACAD_LAYOUT
350
1A
  3
ACAD_PLOTSETTINGS
350
19
  3
ACAD_PLOTSTYLENAME
350
E
  0
DICTIONARY
  5
D
102
{ACAD_REACTORS
330
C
102
}
100
AcDbDictionary
280
0
281
1
  0
ACDBDICTIONARYWDFLT
  5
E
102
{ACAD_REACTORS
330
C
102
}
100
AcDbDictionary
281
1
  3
Normal
350
F
100
AcDbDictionaryWithDefault
340
F
  0
DICTIONARY
  5
17
102
{ACAD_REACTORS
330
C
102
}
100
AcDbDictionary
280
0
281
1
  3
Standard
350
18
  0
DICTIONARY
  5
19
102
{ACAD_REACTORS
330
C
102
}
100
AcDbDictionary
281
1
  0
DICTIONARY
  5
1A
102
{ACAD_REACTORS
330
C
102
}
100
AcDbDictionary
281
1
  3
Model
350
256
  3
Layout1
350
257
  0
ACDBPLACEHOLDER
  5
F
102
{ACAD_REACTORS
330
E
102
}
  0
MLINESTYLE
  5
18
102
{ACAD_REACTORS
330
17
102
}
100
AcDbMlineStyle
  2
STANDARD
 70
0
  3

 62
256
 51
90.0
 52
90.0
 71
2
 49
0.5
 62
256
  6
BYLAYER
 49
-0.5
 62
256
  6
BYLAYER
  0
LAYOUT
  5
256
102
{ACAD_REACTORS
330
1A
102
}
100
AcDbPlotSettings
  1

  2
none_device
  4
ANSI_C_(22.00_x_17.00_Inches)
  6

 40
0.0
 41
0.0
 42
0.0
 43
0.0
 44
558.8
 45
431.8
 46
0.0
 47
0.0
 48
0.0
 49
0.0
140
0.0
141
0.0
142
1.0
143
1.0
 70
1024
 72
0
 73
0
 74
0
  7

 75
0
147
1.0
148
0.0
149
0.0
100
AcDbLayout
  1
Model
 70
0
 71
0
 10
0.0
 20
0.0
 11
22.0
 21
17.0
 12
0.0
 22
0.0
 32
0.0
 14
0.0
 24
0.0
 34
0.0
 15
0.0
 25
0.0
 35
0.0
146
0.0
 13
0.0
 23
0.0
 33
0.0
 16
1.0
 26
0.0
 36
0.0
 17
0.0
 27
1.0
 37
0.0
 76
0
330
202
345
0
346
0
  0
LAYOUT
  5
257
102
{ACAD_REACTORS
330
1A
102
}
100
AcDbPlotSettings
  1

  2
none_device
  4
ANSI_C_(22.00_x_17.00_Inches)
  6

 40
0.0
 41
0.0
 42
0.0
 43
0.0
 44
558.8
 45
431.8
 46
0.0
 47
0.0
 48
0.0
 49
0.0
140
0.0
141
0.0
142
1.0
143
1.0
 70
0
 72
0
 73
0
 74
0
  7

 75
0
147
1.0
148
0.0
149
0.0
100
AcDbLayout
  1
Layout1
 70
0
 71
1
 10
0.0
 20
0.0
 11
22.0
 21
17.0
 12
0.0
 22
0.0
 32
0.0
 14
0.0
 24
0.0
 34
0.0
 15
0.0
 25
0.0
 35
0.0
146
0.0
 13
0.0
 23
0.0
 33
0.0
 16
1.0
 26
0.0
 36
0.0
 17
0.0
 27
1.0
 37
0.0
 76
0
330
203
345
0
346
0
  0
ENDSEC
  0
EOF
