999
DXF file: E:\BT Custom\CADOUTPUT\_FRONT.dxf
999
Pro/ENGINEER 2018400 by Parametric Technology Corporation
  0
SECTION
  2
HEADER
  9
$ACADVER
  1
AC1018
  9
$DWGCODEPAGE
  3
ANSI_1252
  9
$EXTMAX
 10
22.0
 20
17.0
 30
0.0
  9
$EXTMIN
 10
0.0
 20
0.0
 30
0.0
  9
$LIMMIN
 10
0.0
 20
0.0
  9
$LIMMAX
 10
22.0
 20
17.0
  9
$VIEWCTR
 10
11.0
 20
8.5
  9
$VIEWSIZE
 40
17.0
  9
$CLAYER
  8
0
  9
$LTSCALE
 40
1.21
  9
$CELTYPE
  6
BYLAYER
  9
$DIMSCALE
 40
1.0
  9
$DIMASZ
 40
0.1
  9
$DIMEXO
 40
0.0625
  9
$DIMDLI
 40
0.836
  9
$DIMEXE
 40
0.125
  9
$DIMCEN
 40
0.198
  9
$DIMLFAC
 40
1.0
  9
$DIMBLK
  1
_FILLED
  9
$DIMALT
 70
1
  9
$DIMALTD
 70
2
  9
$DIMALTTD
 70
2
  9
$DIMALTF
 40
25.4
  9
$DIMTXT
 40
0.08
  9
$DIMTOL
 70
1
  9
$DIMLIM
 70
0
  9
$DIMTFAC
 40
1.0
  9
$DIMTP
 40
0.001
  9
$DIMTM
 40
0.001
  9
$DIMGAP
 40
0.09
  9
$DIMDSEP
 70
46
  9
$AUNITS
 70
0
  9
$PDMODE
 70
3
  9
$PDSIZE
 40
0.06
  9
$HANDSEED
  5
4EC
  9
$TILEMODE
 70
1
  9
$MEASUREMENT
 70
0
  9
$INSUNITS
 70
1
  0
ENDSEC
  0
SECTION
  2
CLASSES
  0
CLASS
  1
ACDBDICTIONARYWDFLT
  2
AcDbDictionaryWithDefault
  3
AutoCAD 2000
 90
0
 91
1
280
0
281
0
  0
CLASS
  1
ACDBPLACEHOLDER
  2
AcDbPlaceHolder
  3
AutoCAD 2000
 90
0
 91
1
280
0
281
0
  0
CLASS
  1
LAYOUT
  2
AcDbLayout
  3
AutoCAD 2000
 90
0
 91
0
280
0
281
0
  0
ENDSEC
  0
SECTION
  2
TABLES
  0
TABLE
  2
VPORT
  5
8
100
AcDbSymbolTable
 70
2
  0
VPORT
  5
1F4
100
AcDbSymbolTableRecord
100
AcDbViewportTableRecord
  2
*ACTIVE
 70
0
 10
0.0
 20
0.0
 11
1.0
 21
1.0
 12
11.0
 22
8.5
 13
0.0
 23
0.0
 14
1.0
 24
1.0
 15
0.0
 25
0.0
 16
0.0
 26
0.0
 36
1.0
 17
0.0
 27
0.0
 37
0.0
 40
17.0
 41
1.2941176471
 42
50.0
 43
0.0
 44
0.0
 50
0.0
 51
0.0
 71
0
 72
100
 73
1
 74
1
 75
0
 76
0
 77
0
 78
0
  0
ENDTAB
  0
TABLE
  2
LTYPE
  5
5
100
AcDbSymbolTable
 70
6
  0
LTYPE
  5
14
100
AcDbSymbolTableRecord
100
AcDbLinetypeTableRecord
  2
BYBLOCK
 70
0
  3

 72
65
 73
0
 40
0.0
  0
LTYPE
  5
15
100
AcDbSymbolTableRecord
100
AcDbLinetypeTableRecord
  2
BYLAYER
 70
0
  3

 72
65
 73
0
 40
0.0
  0
LTYPE
  5
16
100
AcDbSymbolTableRecord
100
AcDbLinetypeTableRecord
  2
CONTINUOUS
 70
64
  3
Solid line
 72
65
 73
0
 40
0.0
  0
LTYPE
  5
1F5
100
AcDbSymbolTableRecord
100
AcDbLinetypeTableRecord
  2
CENTER
 70
64
  3
____ _ ____ _ ____ _ ____ _ ____ _ ____ _ ____
 72
65
 73
4
 40
0.6
 49
0.375
 74
0
 49
-0.075
 74
0
 49
0.075
 74
0
 49
-0.075
 74
0
  0
LTYPE
  5
1F6
100
AcDbSymbolTableRecord
100
AcDbLinetypeTableRecord
  2
HIDDEN
 70
64
  3
- - - - - - - - - - - - - - - - - - - -
 72
65
 73
2
 40
0.2
 49
0.1
 74
0
 49
-0.1
 74
0
  0
LTYPE
  5
1F7
100
AcDbSymbolTableRecord
100
AcDbLinetypeTableRecord
  2
PHANTOM
 70
64
  3
_____ _ _ _____ _ _ _____ _ _ _____
 72
65
 73
6
 40
0.8
 49
0.45
 74
0
 49
-0.05
 74
0
 49
0.1
 74
0
 49
-0.05
 74
0
 49
0.1
 74
0
 49
-0.05
 74
0
  0
LTYPE
  5
1F8
100
AcDbSymbolTableRecord
100
AcDbLinetypeTableRecord
  2
DOT
 70
64
  3
. . . . . . . . . . . . . . . . . . . .
 72
65
 73
2
 40
0.2
 49
0.1
 74
0
 49
-0.1
 74
0
  0
LTYPE
  5
1F9
100
AcDbSymbolTableRecord
100
AcDbLinetypeTableRecord
  2
DASHED
 70
64
  3
- - - - - - - - - - - - - - - - - - - -
 72
65
 73
2
 40
0.2
 49
0.1
 74
0
 49
-0.1
 74
0
  0
ENDTAB
  0
TABLE
  2
LAYER
  5
2
100
AcDbSymbolTable
 70
36
  0
LAYER
  5
10
100
AcDbSymbolTableRecord
100
AcDbLayerTableRecord
  2
0
 70
0
 62
7
  6
CONTINUOUS
370
-3
390
F
  0
LAYER
  5
1FA
100
AcDbSymbolTableRecord
100
AcDbLayerTableRecord
  2
DEFAULT_1
 70
0
 62
7
  6
CENTER
370
-3
390
F
  0
LAYER
  5
1FB
100
AcDbSymbolTableRecord
100
AcDbLayerTableRecord
  2
DEFAULT_2
 70
0
 62
8
  6
HIDDEN
370
-3
390
F
  0
LAYER
  5
1FC
100
AcDbSymbolTableRecord
100
AcDbLayerTableRecord
  2
DEFAULT_3
 70
0
 62
7
  6
PHANTOM
370
-3
390
F
  0
LAYER
  5
1FD
100
AcDbSymbolTableRecord
100
AcDbLayerTableRecord
  2
ALL_FEATURES
 70
0
 62
7
  6
CONTINUOUS
370
-3
390
F
  0
LAYER
  5
1FE
100
AcDbSymbolTableRecord
100
AcDbLayerTableRecord
  2
AXES_FEATURES
 70
0
 62
7
  6
CONTINUOUS
370
-3
390
F
  0
LAYER
  5
1FF
100
AcDbSymbolTableRecord
100
AcDbLayerTableRecord
  2
DEFAULT_COORDINATE_SYSTEM
 70
0
 62
7
  6
CONTINUOUS
370
-3
390
F
  0
LAYER
  5
200
100
AcDbSymbolTableRecord
100
AcDbLayerTableRecord
  2
DEFAULT_DATUM_AXES
 70
0
 62
7
  6
CONTINUOUS
370
-3
390
F
  0
LAYER
  5
201
100
AcDbSymbolTableRecord
100
AcDbLayerTableRecord
  2
DEFAULT_DATUM_PLANES
 70
0
 62
7
  6
CONTINUOUS
370
-3
390
F
  0
LAYER
  5
202
100
AcDbSymbolTableRecord
100
AcDbLayerTableRecord
  2
DIMENSIONS
 70
0
 62
7
  6
CONTINUOUS
370
-3
390
F
  0
ENDTAB
  0
TABLE
  2
STYLE
  5
3
100
AcDbSymbolTable
 70
1
  0
STYLE
  5
11
100
AcDbSymbolTableRecord
100
AcDbTextStyleTableRecord
  2
STANDARD
 70
0
 40
0.0
 41
0.8
 50
0.0
 71
0
 42
0.2
  3
txt
  4

  0
STYLE
  5
203
100
AcDbSymbolTableRecord
100
AcDbTextStyleTableRecord
  2
TEXTSTYLE_1
 70
0
 40
0.0
 41
0.8
 50
0.0
 71
0
 42
0.2
  3
gdt
  4

  0
ENDTAB
  0
TABLE
  2
VIEW
  5
6
100
AcDbSymbolTable
 70
0
  0
ENDTAB
  0
TABLE
  2
UCS
  5
7
100
AcDbSymbolTable
 70
0
  0
ENDTAB
  0
TABLE
  2
APPID
  5
9
100
AcDbSymbolTable
 70
1
  0
APPID
  5
204
100
AcDbSymbolTableRecord
100
AcDbRegAppTableRecord
  2
ACAD
 70
0
  0
ENDTAB
  0
TABLE
  2
BLOCK_RECORD
  5
1
100
AcDbSymbolTable
 70
0
  0
BLOCK_RECORD
  5
205
100
AcDbSymbolTableRecord
100
AcDbBlockTableRecord
  2
*Model_Space
  0
BLOCK_RECORD
  5
206
100
AcDbSymbolTableRecord
100
AcDbBlockTableRecord
  2
*Paper_Space
  0
BLOCK_RECORD
  5
207
100
AcDbSymbolTableRecord
100
AcDbBlockTableRecord
  2
_FILLED
  0
ENDTAB
  0
TABLE
  2
DIMSTYLE
  5
A
100
AcDbSymbolTable
 70
1
100
AcDbDimStyleTable
 71
0
  0
DIMSTYLE
105
208
100
AcDbSymbolTableRecord
100
AcDbDimStyleTableRecord
  2
STANDARD
 70
0
  3

  4

 40
1.0
 41
0.1
 42
0.0625
 43
0.38
 44
0.125
 45
0.0
 46
0.0
 47
0.001
 48
0.001
140
0.08
141
0.09
142
0.0
143
25.4
144
1.0
145
0.0
146
1.0
147
0.09
 71
1.0
 72
0.0
 73
1
 74
1
 75
0
 76
0
 77
0
 78
4
 79
1
170
1
171
2
172
0
173
0
174
0
175
0
176
0
177
0
178
0
270
2
179
3
271
3
272
3
273
2
274
2
275
0
280
0
281
0
282
0
283
1
284
4
285
0
286
0
287
3
288
0
340
11
278
46
341
207
342
207
343
207
344
207
  0
ENDTAB
  0
ENDSEC
  0
SECTION
  2
BLOCKS
  0
BLOCK
  5
20
100
AcDbEntity
  8
0
100
AcDbBlockBegin
  2
*Model_Space
 70
0
 10
0.0
 20
0.0
 30
0.0
  3
*Model_Space
  1

  0
ENDBLK
  5
21
100
AcDbEntity
  8
0
100
AcDbBlockEnd
  0
BLOCK
  5
1C
100
AcDbEntity
  8
0
100
AcDbBlockBegin
  2
*Paper_Space
 70
0
 10
0.0
 20
0.0
 30
0.0
  3
*Paper_Space
  1

  0
ENDBLK
  5
1D
100
AcDbEntity
  8
0
100
AcDbBlockEnd
  0
BLOCK
  5
209
100
AcDbEntity
  8
0
100
AcDbBlockBegin
  2
_FILLED
 70
64
 10
0.0
 20
0.0
  3
_FILLED
  1

  0
SOLID
  5
20A
100
AcDbEntity
  8
0
  6
BYBLOCK
 62
0
100
AcDbTrace
 10
0.0
 20
0.0
 11
-1.0
 21
0.2
 12
-1.0
 22
-0.2
 13
-1.0
 23
-0.2
  0
ENDBLK
  5
20B
100
AcDbEntity
  8
0
  6
BYBLOCK
 62
0
100
AcDbBlockEnd
  0
ENDSEC
  0
SECTION
  2
ENTITIES
  0
LINE
  5
20C
100
AcDbEntity
  8
0
100
AcDbLine
 62
7
  6
CONTINUOUS
 10
11.0156923427
 20
0.1449900369
 11
10.8596923427
 21
0.1449900369
  0
LINE
  5
20D
100
AcDbEntity
  8
0
100
AcDbLine
 62
9
  6
CONTINUOUS
 10
10.8196923427
 20
0.1849900369
 11
11.0556923427
 21
0.1849900369
  0
LINE
  5
20E
100
AcDbEntity
  8
0
100
AcDbLine
 62
7
  6
CONTINUOUS
 10
12.6218669735
 20
2.7537622081
 11
12.6544385873
 21
2.7614361422
  0
LINE
  5
20F
100
AcDbEntity
  8
0
100
AcDbLine
 62
7
  6
CONTINUOUS
 10
8.5626923427
 20
2.5799900369
 11
8.5957755637
 21
2.5799900369
  0
LINE
  5
210
100
AcDbEntity
  8
0
100
AcDbLine
 62
7
  6
CONTINUOUS
 10
8.7257209871
 20
2.5799900369
 11
8.7588042174
 21
2.5799900369
  0
LINE
  5
211
100
AcDbEntity
  8
0
100
AcDbLine
 62
7
  6
CONTINUOUS
 10
9.1491521154
 20
2.5799900369
 11
9.1822353159
 21
2.5799900369
  0
LINE
  5
212
100
AcDbEntity
  8
0
100
AcDbLine
 62
7
  6
CONTINUOUS
 10
12.9697523438
 20
2.5799900369
 11
13.1259597265
 21
2.5799900369
  0
LINE
  5
213
100
AcDbEntity
  8
0
100
AcDbLine
 62
7
  6
CONTINUOUS
 10
13.165352615
 20
2.5799900369
 11
13.2555641257
 21
2.5799900369
  0
LINE
  5
214
100
AcDbEntity
  8
0
100
AcDbLine
 62
7
  6
CONTINUOUS
 10
13.2518123709
 20
2.6094920841
 11
13.1984358751
 21
2.6094920841
  0
LINE
  5
215
100
AcDbEntity
  8
0
100
AcDbLine
 62
7
  6
CONTINUOUS
 10
13.1259597265
 20
2.6094920841
 11
13.0028356038
 21
2.6094920841
  0
LINE
  5
216
100
AcDbEntity
  8
0
100
AcDbLine
 62
7
  6
CONTINUOUS
 10
10.8056595561
 20
2.29576286
 11
10.805656993
 21
2.2957636878
  0
LINE
  5
217
100
AcDbEntity
  8
0
100
AcDbLine
 62
7
  6
CONTINUOUS
 10
8.5957755637
 20
2.6978276895
 11
8.7257209871
 21
2.6978276895
  0
LINE
  5
218
100
AcDbEntity
  8
0
100
AcDbLine
 62
7
  6
CONTINUOUS
 10
8.7257209871
 20
2.7273297386
 11
8.5957755637
 21
2.7273297386
  0
LINE
  5
219
100
AcDbEntity
  8
0
100
AcDbLine
 62
7
  6
CONTINUOUS
 10
9.0667851124
 20
2.8004879878
 11
9.1491521154
 21
2.8004879878
  0
LINE
  5
21A
100
AcDbEntity
  8
0
100
AcDbLine
 62
7
  6
CONTINUOUS
 10
9.1822353159
 20
2.8004879878
 11
9.2649433766
 21
2.8004879878
  0
LINE
  5
21B
100
AcDbEntity
  8
0
100
AcDbLine
 62
7
  6
CONTINUOUS
 10
13.1984358751
 20
2.8004879878
 11
13.2509597265
 21
2.8004879878
  0
LINE
  5
21C
100
AcDbEntity
  8
0
100
AcDbLine
 62
7
  6
CONTINUOUS
 10
13.2514713131
 20
2.8299900369
 11
13.165352615
 21
2.8299900369
  0
LINE
  5
21D
100
AcDbEntity
  8
0
100
AcDbLine
 62
7
  6
CONTINUOUS
 10
13.0028356038
 20
2.8299900369
 11
12.9697523438
 21
2.8299900369
  0
LINE
  5
21E
100
AcDbEntity
  8
0
100
AcDbLine
 62
7
  6
CONTINUOUS
 10
9.2649433766
 20
2.8299900369
 11
9.0667851124
 21
2.8299900369
  0
LINE
  5
21F
100
AcDbEntity
  8
0
100
AcDbLine
 62
7
  6
CONTINUOUS
 10
8.7588042174
 20
2.8299900369
 11
8.7257209871
 21
2.8299900369
  0
LINE
  5
220
100
AcDbEntity
  8
0
100
AcDbLine
 62
7
  6
CONTINUOUS
 10
8.5957755637
 20
2.8299900369
 11
8.5626923427
 21
2.8299900369
  0
LINE
  5
221
100
AcDbEntity
  8
0
100
AcDbLine
 62
9
  6
CONTINUOUS
 10
11.0556923427
 20
3.2919900369
 11
10.8196923427
 21
3.2919900369
  0
LINE
  5
222
100
AcDbEntity
  8
0
100
AcDbLine
 62
7
  6
CONTINUOUS
 10
11.0156923427
 20
3.3319900369
 11
10.8596923427
 21
3.3319900369
  0
LINE
  5
223
100
AcDbEntity
  8
0
100
AcDbLine
 62
7
  6
CONTINUOUS
 10
12.6587018989
 20
2.6592874454
 11
12.6256186687
 21
2.6676435174
  0
LWPOLYLINE
  5
224
100
AcDbEntity
  8
0
100
AcDbPolyline
 62
7
  6
CONTINUOUS
 90
5
 70
0
 10
10.8052262073
 20
2.2959119658
 10
10.8052309297
 20
2.2959100891
 10
10.8053744789
 20
2.2958493653
 10
10.8057050266
 20
2.2956964427
 10
10.8062299707
 20
2.2954282809
  0
LWPOLYLINE
  5
225
100
AcDbEntity
  8
0
100
AcDbPolyline
 62
7
  6
CONTINUOUS
 90
17
 70
0
 10
10.8062299707
 20
2.2954282809
 10
10.8069533741
 20
2.2950171837
 10
10.8078569927
 20
2.2944422938
 10
10.8089070059
 20
2.2936907899
 10
10.8100707326
 20
2.2927497669
 10
10.8113280483
 20
2.2915944945
 10
10.8126567862
 20
2.2901951914
 10
10.814051574
 20
2.2884878598
 10
10.815457807
 20
2.2864439838
 10
10.8167245015
 20
2.2842052629
 10
10.8177415606
 20
2.281973194
 10
10.8184958354
 20
2.2798745822
 10
10.8190288679
 20
2.2779367849
 10
10.8193810878
 20
2.2761718713
 10
10.8195876409
 20
2.27459056
 10
10.8196795919
 20
2.2732111777
 10
10.8196923198
 20
2.2725016097
  0
LINE
  5
226
100
AcDbEntity
  8
0
100
AcDbLine
 62
7
  6
CONTINUOUS
 10
10.5783453874
 20
15.4994824826
 11
10.5326235054
 21
15.4729982599
  0
LINE
  5
227
100
AcDbEntity
  8
0
100
AcDbLine
 62
7
  6
CONTINUOUS
 10
11.2862888968
 20
15.4648668223
 11
11.3434663779
 21
15.4979233062
  0
LINE
  5
228
100
AcDbEntity
  8
0
100
AcDbLine
 62
7
  6
CONTINUOUS
 10
11.1586143449
 20
15.5260120764
 11
11.171107992
 21
15.5385663622
  0
LINE
  5
229
100
AcDbEntity
  8
0
100
AcDbLine
 62
7
  6
CONTINUOUS
 10
11.3901923427
 20
15.3474900369
 11
11.3726923427
 21
15.3299900369
  0
LINE
  5
22A
100
AcDbEntity
  8
0
100
AcDbLine
 62
7
  6
CONTINUOUS
 10
11.2832860603
 20
14.9480837545
 11
11.3351284176
 21
14.9999261118
  0
LINE
  5
22B
100
AcDbEntity
  8
0
100
AcDbLine
 62
7
  6
CONTINUOUS
 10
7.9826923427
 20
12.7437234647
 11
7.9826923427
 21
13.6224029567
  0
LINE
  5
22C
100
AcDbEntity
  8
0
100
AcDbLine
 62
7
  6
CONTINUOUS
 10
8.6216527825
 20
12.5377343934
 11
8.6240867789
 21
12.5052811074
  0
LINE
  5
22D
100
AcDbEntity
  8
0
100
AcDbLine
 62
7
  6
CONTINUOUS
 10
8.7203371319
 20
12.5374952074
 11
8.7227531894
 21
12.5052811074
  0
LINE
  5
22E
100
AcDbEntity
  8
0
100
AcDbLine
 62
7
  6
CONTINUOUS
 10
8.5626923427
 20
2.8299900369
 11
8.5626923427
 21
2.5799900369
  0
LINE
  5
22F
100
AcDbEntity
  8
0
100
AcDbLine
 62
7
  6
CONTINUOUS
 10
8.5957755637
 20
2.5799900369
 11
8.5957755637
 21
2.6978276895
  0
LINE
  5
230
100
AcDbEntity
  8
0
100
AcDbLine
 62
7
  6
CONTINUOUS
 10
8.5957755637
 20
2.7273297386
 11
8.5957755637
 21
2.8299900369
  0
LINE
  5
231
100
AcDbEntity
  8
0
100
AcDbLine
 62
7
  6
CONTINUOUS
 10
8.7257209871
 20
2.8299900369
 11
8.7257209871
 21
2.7273297386
  0
LINE
  5
232
100
AcDbEntity
  8
0
100
AcDbLine
 62
7
  6
CONTINUOUS
 10
8.7257209871
 20
2.6978276895
 11
8.7257209871
 21
2.5799900369
  0
LINE
  5
233
100
AcDbEntity
  8
0
100
AcDbLine
 62
7
  6
CONTINUOUS
 10
8.7588042174
 20
2.5799900369
 11
8.7588042174
 21
2.8299900369
  0
LINE
  5
234
100
AcDbEntity
  8
0
100
AcDbLine
 62
7
  6
CONTINUOUS
 10
8.8364767386
 20
12.5271721276
 11
8.8348349121
 21
12.5052811074
  0
LINE
  5
235
100
AcDbEntity
  8
0
100
AcDbLine
 62
7
  6
CONTINUOUS
 10
9.0295315297
 20
12.5276276706
 11
9.0278555375
 21
12.5052811074
  0
LINE
  5
236
100
AcDbEntity
  8
0
100
AcDbLine
 62
7
  6
CONTINUOUS
 10
9.2180138224
 20
12.4914029567
 11
9.2164296837
 21
12.4702811074
  0
LINE
  5
237
100
AcDbEntity
  8
0
100
AcDbLine
 62
7
  6
CONTINUOUS
 10
8.9133928189
 20
12.53702772
 11
8.9157738148
 21
12.5052811074
  0
LINE
  5
238
100
AcDbEntity
  8
0
100
AcDbLine
 62
7
  6
CONTINUOUS
 10
9.0393954791
 20
12.5003611386
 11
9.0416514814
 21
12.4702811074
  0
LINE
  5
239
100
AcDbEntity
  8
0
100
AcDbLine
 62
7
  6
CONTINUOUS
 10
9.1021032921
 20
12.5002100263
 11
9.1043479611
 21
12.4702811074
  0
LINE
  5
23A
100
AcDbEntity
  8
0
100
AcDbLine
 62
7
  6
CONTINUOUS
 10
9.1923823245
 20
12.5363531483
 11
9.1947127276
 21
12.5052811074
  0
LINE
  5
23B
100
AcDbEntity
  8
0
100
AcDbLine
 62
7
  6
CONTINUOUS
 10
9.2865805998
 20
12.4914029567
 11
9.2881647385
 21
12.4702811074
  0
LINE
  5
23C
100
AcDbEntity
  8
0
100
AcDbLine
 62
7
  6
CONTINUOUS
 10
9.0667851124
 20
2.8299900369
 11
9.0667851124
 21
2.8004879878
  0
LINE
  5
23D
100
AcDbEntity
  8
0
100
AcDbLine
 62
7
  6
CONTINUOUS
 10
9.1491521154
 20
2.8004879878
 11
9.1491521154
 21
2.5799900369
  0
LINE
  5
23E
100
AcDbEntity
  8
0
100
AcDbLine
 62
7
  6
CONTINUOUS
 10
9.1822353159
 20
2.5799900369
 11
9.1822353159
 21
2.8004879878
  0
LINE
  5
23F
100
AcDbEntity
  8
0
100
AcDbLine
 62
7
  6
CONTINUOUS
 10
9.2649433766
 20
2.8004879878
 11
9.2649433766
 21
2.8299900369
  0
LINE
  5
240
100
AcDbEntity
  8
0
100
AcDbLine
 62
7
  6
CONTINUOUS
 10
9.4776923427
 20
13.6824029567
 11
9.4776923427
 21
13.9134029567
  0
LINE
  5
241
100
AcDbEntity
  8
0
100
AcDbLine
 62
7
  6
CONTINUOUS
 10
9.3085198889
 20
12.5282869566
 11
9.3067944502
 21
12.5052811074
  0
LINE
  5
242
100
AcDbEntity
  8
0
100
AcDbLine
 62
7
  6
CONTINUOUS
 10
9.4018883261
 20
12.4921726403
 11
9.4002464611
 21
12.4702811074
  0
LINE
  5
243
100
AcDbEntity
  8
0
100
AcDbLine
 62
7
  6
CONTINUOUS
 10
9.606363411
 20
12.4564029567
 11
9.6051542723
 21
12.4402811074
  0
LINE
  5
244
100
AcDbEntity
  8
0
100
AcDbLine
 62
7
  6
CONTINUOUS
 10
9.6612487592
 20
12.5291221452
 11
9.6594606813
 21
12.5052811074
  0
LINE
  5
245
100
AcDbEntity
  8
0
100
AcDbLine
 62
7
  6
CONTINUOUS
 10
9.6943503817
 20
12.492863174
 11
9.6926567267
 21
12.4702811074
  0
LINE
  5
246
100
AcDbEntity
  8
0
100
AcDbLine
 62
7
  6
CONTINUOUS
 10
9.7744423686
 20
12.4643475592
 11
9.7726373847
 21
12.4402811074
  0
LINE
  5
247
100
AcDbEntity
  8
0
100
AcDbLine
 62
7
  6
CONTINUOUS
 10
13.5918231074
 20
12.5526960226
 11
13.8776923427
 21
12.7177427026
  0
LINE
  5
248
100
AcDbEntity
  8
0
100
AcDbLine
 62
7
  6
CONTINUOUS
 10
9.4908006707
 20
12.4705728273
 11
9.4930725497
 21
12.4402811074
  0
LINE
  5
249
100
AcDbEntity
  8
0
100
AcDbLine
 62
7
  6
CONTINUOUS
 10
9.5451123936
 20
12.5355019757
 11
9.5473789587
 21
12.5052811074
  0
LINE
  5
24A
100
AcDbEntity
  8
0
100
AcDbLine
 62
7
  6
CONTINUOUS
 10
9.5789908654
 20
12.4914029567
 11
9.580575004
 21
12.4702811074
  0
LINE
  5
24B
100
AcDbEntity
  8
0
100
AcDbLine
 62
7
  6
CONTINUOUS
 10
9.6593465234
 20
12.4564029567
 11
9.6605556621
 21
12.4402811074
  0
LINE
  5
24C
100
AcDbEntity
  8
0
100
AcDbLine
 62
7
  6
CONTINUOUS
 10
9.8991589083
 20
12.4485154165
 11
9.9016514814
 21
12.4152811074
  0
LINE
  5
24D
100
AcDbEntity
  8
0
100
AcDbLine
 62
7
  6
CONTINUOUS
 10
9.9561669514
 20
12.5345124437
 11
9.9583593016
 21
12.5052811074
  0
LINE
  5
24E
100
AcDbEntity
  8
0
100
AcDbLine
 62
7
  6
CONTINUOUS
 10
9.9595613362
 20
12.4981497109
 11
9.9616514814
 21
12.4702811074
  0
LINE
  5
24F
100
AcDbEntity
  8
0
100
AcDbLine
 62
7
  6
CONTINUOUS
 10
9.9740942973
 20
12.4566365004
 11
9.9753209518
 21
12.4402811074
  0
LINE
  5
250
100
AcDbEntity
  8
0
100
AcDbLine
 62
7
  6
CONTINUOUS
 10
10.0321082483
 20
12.4264589393
 11
10.0329465857
 21
12.4152811074
  0
LINE
  5
251
100
AcDbEntity
  8
0
100
AcDbLine
 62
7
  6
CONTINUOUS
 10
10.2376923427
 20
14.7364029567
 11
10.2376923427
 21
14.1974029567
  0
LINE
  5
252
100
AcDbEntity
  8
0
100
AcDbLine
 62
7
  6
CONTINUOUS
 10
10.2376923427
 20
13.9734029567
 11
10.2376923427
 21
14.1574029567
  0
LINE
  5
253
100
AcDbEntity
  8
0
100
AcDbLine
 62
7
  6
CONTINUOUS
 10
10.0145673427
 20
12.4264029567
 11
10.013733204
 21
12.4152811074
  0
LINE
  5
254
100
AcDbEntity
  8
0
100
AcDbLine
 62
7
  6
CONTINUOUS
 10
10.0723022731
 20
12.5300977587
 11
10.0704410243
 21
12.5052811074
  0
LINE
  5
255
100
AcDbEntity
  8
0
100
AcDbLine
 62
7
  6
CONTINUOUS
 10
10.0754944951
 20
12.4937649878
 11
10.073733204
 21
12.4702811074
  0
LINE
  5
256
100
AcDbEntity
  8
0
100
AcDbLine
 62
7
  6
CONTINUOUS
 10
10.0892635695
 20
12.4650930424
 11
10.0874026744
 21
12.4402811074
  0
LINE
  5
257
100
AcDbEntity
  8
0
100
AcDbLine
 62
7
  6
CONTINUOUS
 10
10.1471923793
 20
12.4441353876
 11
10.1450283083
 21
12.4152811074
  0
LINE
  5
258
100
AcDbEntity
  8
0
100
AcDbLine
 62
7
  6
CONTINUOUS
 10
10.5047535288
 20
12.4288854369
 11
10.503733204
 21
12.4152811074
  0
LINE
  5
259
100
AcDbEntity
  8
0
100
AcDbLine
 62
7
  6
CONTINUOUS
 10
10.5130146988
 20
12.4606797315
 11
10.511484802
 21
12.4402811074
  0
LINE
  5
25A
100
AcDbEntity
  8
0
100
AcDbLine
 62
7
  6
CONTINUOUS
 10
10.5193464191
 20
12.4948178813
 11
10.5175061611
 21
12.4702811074
  0
LINE
  5
25B
100
AcDbEntity
  8
0
100
AcDbLine
 62
7
  6
CONTINUOUS
 10
10.5237154871
 20
12.5311720571
 11
10.5217736659
 21
12.5052811074
  0
LINE
  5
25C
100
AcDbEntity
  8
0
100
AcDbLine
 62
7
  6
CONTINUOUS
 10
10.5193885762
 20
12.431539031
 11
10.517419232
 21
12.4052811074
  0
LINE
  5
25D
100
AcDbEntity
  8
0
100
AcDbLine
 62
7
  6
CONTINUOUS
 10
10.3892472991
 20
12.4473368717
 11
10.3916514814
 21
12.4152811074
  0
LINE
  5
25E
100
AcDbEntity
  8
0
100
AcDbLine
 62
7
  6
CONTINUOUS
 10
10.3972942168
 20
12.4683992742
 11
10.3994030793
 21
12.4402811074
  0
LINE
  5
25F
100
AcDbEntity
  8
0
100
AcDbLine
 62
7
  6
CONTINUOUS
 10
10.403413954
 20
12.4970875669
 11
10.4054244384
 21
12.4702811074
  0
LINE
  5
260
100
AcDbEntity
  8
0
100
AcDbLine
 62
7
  6
CONTINUOUS
 10
10.4075808739
 20
12.5334286987
 11
10.4096919433
 21
12.5052811074
  0
LINE
  5
261
100
AcDbEntity
  8
0
100
AcDbLine
 62
7
  6
CONTINUOUS
 10
10.4851923427
 20
15.3474900369
 11
10.4851923427
 21
15.4549900369
  0
LINE
  5
262
100
AcDbEntity
  8
0
100
AcDbLine
 62
7
  6
CONTINUOUS
 10
10.5026923427
 20
15.3299900369
 11
10.5026923427
 21
15.0536551794
  0
LINE
  5
263
100
AcDbEntity
  8
0
100
AcDbLine
 62
7
  6
CONTINUOUS
 10
10.5314423427
 20
17.7049900369
 11
10.5314423427
 21
15.5280823923
  0
LINE
  5
264
100
AcDbEntity
  8
0
100
AcDbLine
 62
7
  6
CONTINUOUS
 10
10.5314423427
 20
15.4716310823
 11
10.5314423427
 21
15.4627734377
  0
LINE
  5
265
100
AcDbEntity
  8
0
100
AcDbLine
 62
7
  6
CONTINUOUS
 10
10.5778130059
 20
15.5015652623
 11
10.5778130059
 21
15.4991740272
  0
LINE
  5
266
100
AcDbEntity
  8
0
100
AcDbLine
 62
7
  6
CONTINUOUS
 10
10.6778847216
 20
14.3864029567
 11
10.6778847216
 21
14.7364029567
  0
LINE
  5
267
100
AcDbEntity
  8
0
100
AcDbLine
 62
9
  6
CONTINUOUS
 10
10.7796923427
 20
3.0332665285
 11
10.7796923427
 21
2.3201447367
  0
LINE
  5
268
100
AcDbEntity
  8
0
100
AcDbLine
 62
7
  6
CONTINUOUS
 10
10.8196923427
 20
3.2919900369
 11
10.8196923427
 21
0.1849900369
  0
LINE
  5
269
100
AcDbEntity
  8
0
100
AcDbLine
 62
9
  6
CONTINUOUS
 10
10.8596923427
 20
0.1449900369
 11
10.8596923427
 21
3.3319900369
  0
LINE
  5
26A
100
AcDbEntity
  8
0
100
AcDbLine
 62
9
  6
CONTINUOUS
 10
11.0156923427
 20
0.1449900369
 11
11.0156923427
 21
3.3319900369
  0
LINE
  5
26B
100
AcDbEntity
  8
0
100
AcDbLine
 62
7
  6
CONTINUOUS
 10
10.995759524
 20
12.5322987072
 11
10.993733204
 21
12.5052811074
  0
LINE
  5
26C
100
AcDbEntity
  8
0
100
AcDbLine
 62
7
  6
CONTINUOUS
 10
10.9956584483
 20
12.4959510312
 11
10.993733204
 21
12.4702811074
  0
LINE
  5
26D
100
AcDbEntity
  8
0
100
AcDbLine
 62
7
  6
CONTINUOUS
 10
10.9957557042
 20
12.4672477759
 11
10.993733204
 21
12.4402811074
  0
LINE
  5
26E
100
AcDbEntity
  8
0
100
AcDbLine
 62
7
  6
CONTINUOUS
 10
10.9960492663
 20
12.446161938
 11
10.993733204
 21
12.4152811074
  0
LINE
  5
26F
100
AcDbEntity
  8
0
100
AcDbLine
 62
7
  6
CONTINUOUS
 10
10.9957875186
 20
12.4326719686
 11
10.993733204
 21
12.4052811074
  0
LINE
  5
270
100
AcDbEntity
  8
0
100
AcDbLine
 62
7
  6
CONTINUOUS
 10
10.8795971668
 20
12.4326719686
 11
10.8816514814
 21
12.4052811074
  0
LINE
  5
271
100
AcDbEntity
  8
0
100
AcDbLine
 62
7
  6
CONTINUOUS
 10
10.8793354191
 20
12.446161938
 11
10.8816514814
 21
12.4152811074
  0
LINE
  5
272
100
AcDbEntity
  8
0
100
AcDbLine
 62
7
  6
CONTINUOUS
 10
10.8796289813
 20
12.4672477759
 11
10.8816514814
 21
12.4402811074
  0
LINE
  5
273
100
AcDbEntity
  8
0
100
AcDbLine
 62
7
  6
CONTINUOUS
 10
10.8797262371
 20
12.4959510312
 11
10.8816514814
 21
12.4702811074
  0
LINE
  5
274
100
AcDbEntity
  8
0
100
AcDbLine
 62
7
  6
CONTINUOUS
 10
10.8796251614
 20
12.5322987072
 11
10.8816514814
 21
12.5052811074
  0
LINE
  5
275
100
AcDbEntity
  8
0
100
AcDbLine
 62
7
  6
CONTINUOUS
 10
11.3559961092
 20
12.431539031
 11
11.3579654535
 21
12.4052811074
  0
LINE
  5
276
100
AcDbEntity
  8
0
100
AcDbLine
 62
7
  6
CONTINUOUS
 10
11.3516691984
 20
12.5311720571
 11
11.3536110196
 21
12.5052811074
  0
LINE
  5
277
100
AcDbEntity
  8
0
100
AcDbLine
 62
7
  6
CONTINUOUS
 10
11.3560382664
 20
12.4948178813
 11
11.3578785244
 21
12.4702811074
  0
LINE
  5
278
100
AcDbEntity
  8
0
100
AcDbLine
 62
7
  6
CONTINUOUS
 10
11.3623699867
 20
12.4606797315
 11
11.3638998835
 21
12.4402811074
  0
LINE
  5
279
100
AcDbEntity
  8
0
100
AcDbLine
 62
7
  6
CONTINUOUS
 10
11.3706311567
 20
12.4288854369
 11
11.3716514814
 21
12.4152811074
  0
LINE
  5
27A
100
AcDbEntity
  8
0
100
AcDbLine
 62
7
  6
CONTINUOUS
 10
11.0556923427
 20
0.1849900369
 11
11.0556923427
 21
3.2919900369
  0
LINE
  5
27B
100
AcDbEntity
  8
0
100
AcDbLine
 62
9
  6
CONTINUOUS
 10
11.0956923427
 20
2.3201449986
 11
11.0956923427
 21
3.0332668158
  0
LINE
  5
27C
100
AcDbEntity
  8
0
100
AcDbLine
 62
7
  6
CONTINUOUS
 10
11.1586143449
 20
15.5233120764
 11
11.1586143449
 21
15.5260120764
  0
LINE
  5
27D
100
AcDbEntity
  8
0
100
AcDbLine
 62
7
  6
CONTINUOUS
 10
11.171107992
 20
15.5385663622
 11
11.171107992
 21
15.5107577905
  0
LINE
  5
27E
100
AcDbEntity
  8
0
100
AcDbLine
 62
7
  6
CONTINUOUS
 10
11.1974999639
 20
14.3864029567
 11
11.1974999639
 21
14.7364029567
  0
LINE
  5
27F
100
AcDbEntity
  8
0
100
AcDbLine
 62
7
  6
CONTINUOUS
 10
11.2868423427
 20
15.4628067373
 11
11.2868423427
 21
15.465186838
  0
LINE
  5
280
100
AcDbEntity
  8
0
100
AcDbLine
 62
7
  6
CONTINUOUS
 10
11.3439423427
 20
17.7049900369
 11
11.3439423427
 21
15.4984734377
  0
LINE
  5
281
100
AcDbEntity
  8
0
100
AcDbLine
 62
7
  6
CONTINUOUS
 10
11.3726923427
 20
15.0536551794
 11
11.3726923427
 21
15.3299900369
  0
LINE
  5
282
100
AcDbEntity
  8
0
100
AcDbLine
 62
7
  6
CONTINUOUS
 10
11.3901923427
 20
15.3474900369
 11
11.3901923427
 21
15.4549900369
  0
LINE
  5
283
100
AcDbEntity
  8
0
100
AcDbLine
 62
7
  6
CONTINUOUS
 10
11.6376923427
 20
14.7364029567
 11
11.6376923427
 21
14.1974029567
  0
LINE
  5
284
100
AcDbEntity
  8
0
100
AcDbLine
 62
7
  6
CONTINUOUS
 10
11.6376923427
 20
13.9734029567
 11
11.6376923427
 21
14.1574029567
  0
LWPOLYLINE
  5
285
100
AcDbEntity
  8
0
100
AcDbPolyline
 62
7
  6
CONTINUOUS
 90
19
 70
0
 10
11.0556923522
 20
2.2725023139
 10
11.0557032975
 20
2.2731599641
 10
11.0557945761
 20
2.2745658531
 10
11.0560155158
 20
2.2762443537
 10
11.056403636
 20
2.2781362758
 10
11.0569855032
 20
2.2801750793
 10
11.0577737472
 20
2.2822899559
 10
11.0587642062
 20
2.2844075065
 10
11.059932822
 20
2.2864531804
 10
11.0612332794
 20
2.2883544574
 10
11.0626012167
 20
2.2900509012
 10
11.063963656
 20
2.291502723
 10
11.0652601081
 20
2.2927031373
 10
11.0664531603
 20
2.2936719124
 10
11.0675124318
 20
2.294431783
 10
11.0684103245
 20
2.2950044171
 10
11.0691284802
 20
2.2954140862
 10
11.0696605431
 20
2.2956871597
 10
11.0700041705
 20
2.2958467088
  0
LINE
  5
286
100
AcDbEntity
  8
0
100
AcDbLine
 62
7
  6
CONTINUOUS
 10
11.4678038116
 20
12.5334286987
 11
11.4656927422
 21
12.5052811074
  0
LINE
  5
287
100
AcDbEntity
  8
0
100
AcDbLine
 62
7
  6
CONTINUOUS
 10
11.4719707315
 20
12.4970875669
 11
11.469960247
 21
12.4702811074
  0
LINE
  5
288
100
AcDbEntity
  8
0
100
AcDbLine
 62
7
  6
CONTINUOUS
 10
11.4780904686
 20
12.4683992742
 11
11.4759816061
 21
12.4402811074
  0
LINE
  5
289
100
AcDbEntity
  8
0
100
AcDbLine
 62
7
  6
CONTINUOUS
 10
11.4861373864
 20
12.4473368717
 11
11.483733204
 21
12.4152811074
  0
LINE
  5
28A
100
AcDbEntity
  8
0
100
AcDbLine
 62
7
  6
CONTINUOUS
 10
11.8432764371
 20
12.4264589393
 11
11.8424380998
 21
12.4152811074
  0
LINE
  5
28B
100
AcDbEntity
  8
0
100
AcDbLine
 62
7
  6
CONTINUOUS
 10
11.9012903882
 20
12.4566365004
 11
11.9000637337
 21
12.4402811074
  0
LINE
  5
28C
100
AcDbEntity
  8
0
100
AcDbLine
 62
7
  6
CONTINUOUS
 10
11.9158233493
 20
12.4981497109
 11
11.913733204
 21
12.4702811074
  0
LINE
  5
28D
100
AcDbEntity
  8
0
100
AcDbLine
 62
7
  6
CONTINUOUS
 10
11.919217734
 20
12.5345124437
 11
11.9170253838
 21
12.5052811074
  0
LINE
  5
28E
100
AcDbEntity
  8
0
100
AcDbLine
 62
7
  6
CONTINUOUS
 10
11.7281923061
 20
12.4441353876
 11
11.7303563771
 21
12.4152811074
  0
LINE
  5
28F
100
AcDbEntity
  8
0
100
AcDbLine
 62
7
  6
CONTINUOUS
 10
11.786121116
 20
12.4650930424
 11
11.7879820111
 21
12.4402811074
  0
LINE
  5
290
100
AcDbEntity
  8
0
100
AcDbLine
 62
7
  6
CONTINUOUS
 10
11.7998901904
 20
12.4937649878
 11
11.8016514814
 21
12.4702811074
  0
LINE
  5
291
100
AcDbEntity
  8
0
100
AcDbLine
 62
7
  6
CONTINUOUS
 10
11.8030824124
 20
12.5300977587
 11
11.8049436612
 21
12.5052811074
  0
LINE
  5
292
100
AcDbEntity
  8
0
100
AcDbLine
 62
7
  6
CONTINUOUS
 10
11.8608173427
 20
12.4264029567
 11
11.8616514814
 21
12.4152811074
  0
LINE
  5
293
100
AcDbEntity
  8
0
100
AcDbLine
 62
7
  6
CONTINUOUS
 10
12.1009423169
 20
12.4643475592
 11
12.1027473008
 21
12.4402811074
  0
LINE
  5
294
100
AcDbEntity
  8
0
100
AcDbLine
 62
7
  6
CONTINUOUS
 10
11.9762257772
 20
12.4485154165
 11
11.973733204
 21
12.4152811074
  0
LINE
  5
295
100
AcDbEntity
  8
0
100
AcDbLine
 62
7
  6
CONTINUOUS
 10
12.2160381621
 20
12.4564029567
 11
12.2148290234
 21
12.4402811074
  0
LINE
  5
296
100
AcDbEntity
  8
0
100
AcDbLine
 62
7
  6
CONTINUOUS
 10
12.2963938201
 20
12.4914029567
 11
12.2948096814
 21
12.4702811074
  0
LINE
  5
297
100
AcDbEntity
  8
0
100
AcDbLine
 62
7
  6
CONTINUOUS
 10
12.3302722919
 20
12.5355019757
 11
12.3280057267
 21
12.5052811074
  0
LINE
  5
298
100
AcDbEntity
  8
0
100
AcDbLine
 62
7
  6
CONTINUOUS
 10
12.3845840148
 20
12.4705728273
 11
12.3823121358
 21
12.4402811074
  0
LINE
  5
299
100
AcDbEntity
  8
0
100
AcDbLine
 62
7
  6
CONTINUOUS
 10
12.5888040857
 20
12.4914029567
 11
12.587219947
 21
12.4702811074
  0
LINE
  5
29A
100
AcDbEntity
  8
0
100
AcDbLine
 62
7
  6
CONTINUOUS
 10
12.1810343038
 20
12.492863174
 11
12.1827279588
 21
12.4702811074
  0
LINE
  5
29B
100
AcDbEntity
  8
0
100
AcDbLine
 62
7
  6
CONTINUOUS
 10
12.2141359263
 20
12.5291221452
 11
12.2159240041
 21
12.5052811074
  0
LINE
  5
29C
100
AcDbEntity
  8
0
100
AcDbLine
 62
7
  6
CONTINUOUS
 10
12.2690212745
 20
12.4564029567
 11
12.2702304132
 21
12.4402811074
  0
LINE
  5
29D
100
AcDbEntity
  8
0
100
AcDbLine
 62
7
  6
CONTINUOUS
 10
12.4734963594
 20
12.4921726403
 11
12.4751382244
 21
12.4702811074
  0
LINE
  5
29E
100
AcDbEntity
  8
0
100
AcDbLine
 62
7
  6
CONTINUOUS
 10
12.5668647966
 20
12.5282869566
 11
12.5685902353
 21
12.5052811074
  0
LINE
  5
29F
100
AcDbEntity
  8
0
100
AcDbLine
 62
7
  6
CONTINUOUS
 10
12.6573708631
 20
12.4914029567
 11
12.6589550018
 21
12.4702811074
  0
LINE
  5
2A0
100
AcDbEntity
  8
0
100
AcDbLine
 62
7
  6
CONTINUOUS
 10
12.3976923427
 20
13.6824029567
 11
12.3976923427
 21
13.9134029567
  0
LINE
  5
2A1
100
AcDbEntity
  8
0
100
AcDbLine
 62
7
  6
CONTINUOUS
 10
12.9697523438
 20
2.8299900369
 11
12.9697523438
 21
2.5799900369
  0
LINE
  5
2A2
100
AcDbEntity
  8
0
100
AcDbLine
 62
7
  6
CONTINUOUS
 10
13.0028356038
 20
2.6094920841
 11
13.0028356038
 21
2.8299900369
  0
LINE
  5
2A3
100
AcDbEntity
  8
0
100
AcDbLine
 62
7
  6
CONTINUOUS
 10
12.6830023609
 20
12.5363531483
 11
12.6806719579
 21
12.5052811074
  0
LINE
  5
2A4
100
AcDbEntity
  8
0
100
AcDbLine
 62
7
  6
CONTINUOUS
 10
12.7732813933
 20
12.5002100263
 11
12.7710367244
 21
12.4702811074
  0
LINE
  5
2A5
100
AcDbEntity
  8
0
100
AcDbLine
 62
7
  6
CONTINUOUS
 10
12.8359892064
 20
12.5003611386
 11
12.833733204
 21
12.4702811074
  0
LINE
  5
2A6
100
AcDbEntity
  8
0
100
AcDbLine
 62
7
  6
CONTINUOUS
 10
12.9619918666
 20
12.53702772
 11
12.9596108706
 21
12.5052811074
  0
LINE
  5
2A7
100
AcDbEntity
  8
0
100
AcDbLine
 62
7
  6
CONTINUOUS
 10
13.1550475535
 20
12.5374952074
 11
13.152631496
 21
12.5052811074
  0
LINE
  5
2A8
100
AcDbEntity
  8
0
100
AcDbLine
 62
7
  6
CONTINUOUS
 10
13.253731903
 20
12.5377343934
 11
13.2512979065
 21
12.5052811074
  0
LINE
  5
2A9
100
AcDbEntity
  8
0
100
AcDbLine
 62
7
  6
CONTINUOUS
 10
8.2835615781
 20
12.5526960226
 11
7.9976923427
 21
12.7177427026
  0
LINE
  5
2AA
100
AcDbEntity
  8
0
100
AcDbLine
 62
7
  6
CONTINUOUS
 10
12.8458531558
 20
12.5276276706
 11
12.847529148
 21
12.5052811074
  0
LINE
  5
2AB
100
AcDbEntity
  8
0
100
AcDbLine
 62
7
  6
CONTINUOUS
 10
13.0389079469
 20
12.5271721276
 11
13.0405497734
 21
12.5052811074
  0
LINE
  5
2AC
100
AcDbEntity
  8
0
100
AcDbLine
 62
7
  6
CONTINUOUS
 10
13.1259597265
 20
2.5799900369
 11
13.1259597265
 21
2.6094920841
  0
LINE
  5
2AD
100
AcDbEntity
  8
0
100
AcDbLine
 62
7
  6
CONTINUOUS
 10
13.165352615
 20
2.8299900369
 11
13.165352615
 21
2.5799900369
  0
LINE
  5
2AE
100
AcDbEntity
  8
0
100
AcDbLine
 62
7
  6
CONTINUOUS
 10
13.1984358751
 20
2.6094920841
 11
13.1984358751
 21
2.8004879878
  0
LINE
  5
2AF
100
AcDbEntity
  8
0
100
AcDbLine
 62
7
  6
CONTINUOUS
 10
13.8926923427
 20
12.7437234647
 11
13.8926923427
 21
13.6224029567
  0
LINE
  5
2B0
100
AcDbEntity
  8
0
100
AcDbLine
 62
7
  6
CONTINUOUS
 10
11.1226923427
 20
12.4271043295
 11
11.1623481893
 21
12.4303108072
  0
LINE
  5
2B1
100
AcDbEntity
  8
0
100
AcDbLine
 62
7
  6
CONTINUOUS
 10
12.8374354408
 20
12.5004740445
 11
12.8359892064
 21
12.5003611386
  0
LINE
  5
2B2
100
AcDbEntity
  8
0
100
AcDbLine
 62
7
  6
CONTINUOUS
 10
11.9811042127
 20
12.4487237431
 11
11.9762257772
 21
12.4485154165
  0
LINE
  5
2B3
100
AcDbEntity
  8
0
100
AcDbLine
 62
7
  6
CONTINUOUS
 10
11.4550891865
 20
12.3914029567
 11
11.3729234432
 21
12.3914029567
  0
LINE
  5
2B4
100
AcDbEntity
  8
0
100
AcDbLine
 62
7
  6
CONTINUOUS
 10
10.9787752144
 20
12.3914029567
 11
10.8966094711
 21
12.3914029567
  0
LINE
  5
2B5
100
AcDbEntity
  8
0
100
AcDbLine
 62
7
  6
CONTINUOUS
 10
10.5024612423
 20
12.3914029567
 11
10.420295499
 21
12.3914029567
  0
LINE
  5
2B6
100
AcDbEntity
  8
0
100
AcDbLine
 62
7
  6
CONTINUOUS
 10
11.9587752144
 20
12.4014029567
 11
11.8766094711
 21
12.4014029567
  0
LINE
  5
2B7
100
AcDbEntity
  8
0
100
AcDbLine
 62
7
  6
CONTINUOUS
 10
11.8274801101
 20
12.4014029567
 11
11.7453143668
 21
12.4014029567
  0
LINE
  5
2B8
100
AcDbEntity
  8
0
100
AcDbLine
 62
7
  6
CONTINUOUS
 10
11.4687752144
 20
12.4014029567
 11
11.3866094711
 21
12.4014029567
  0
LINE
  5
2B9
100
AcDbEntity
  8
0
100
AcDbLine
 62
7
  6
CONTINUOUS
 10
10.9787752144
 20
12.4014029567
 11
10.8966094711
 21
12.4014029567
  0
LINE
  5
2BA
100
AcDbEntity
  8
0
100
AcDbLine
 62
7
  6
CONTINUOUS
 10
10.4887752144
 20
12.4014029567
 11
10.4066094711
 21
12.4014029567
  0
LINE
  5
2BB
100
AcDbEntity
  8
0
100
AcDbLine
 62
7
  6
CONTINUOUS
 10
10.1300703187
 20
12.4014029567
 11
10.0479045754
 21
12.4014029567
  0
LINE
  5
2BC
100
AcDbEntity
  8
0
100
AcDbLine
 62
7
  6
CONTINUOUS
 10
9.9987752144
 20
12.4014029567
 11
9.9166094711
 21
12.4014029567
  0
LINE
  5
2BD
100
AcDbEntity
  8
0
100
AcDbLine
 62
9
  6
CONTINUOUS
 10
11.3765581882
 20
12.4052811074
 11
11.3579654535
 21
12.4052811074
  0
LINE
  5
2BE
100
AcDbEntity
  8
0
100
AcDbLine
 62
9
  6
CONTINUOUS
 10
10.993733204
 20
12.4052811074
 11
10.9888264972
 21
12.4052811074
  0
LINE
  5
2BF
100
AcDbEntity
  8
0
100
AcDbLine
 62
9
  6
CONTINUOUS
 10
10.8865581882
 20
12.4052811074
 11
10.8816514814
 21
12.4052811074
  0
LINE
  5
2C0
100
AcDbEntity
  8
0
100
AcDbLine
 62
9
  6
CONTINUOUS
 10
10.517419232
 20
12.4052811074
 11
10.4988264972
 21
12.4052811074
  0
LINE
  5
2C1
100
AcDbEntity
  8
0
100
AcDbLine
 62
9
  6
CONTINUOUS
 10
11.973733204
 20
12.4152811074
 11
11.8616514814
 21
12.4152811074
  0
LINE
  5
2C2
100
AcDbEntity
  8
0
100
AcDbLine
 62
9
  6
CONTINUOUS
 10
11.8424380998
 20
12.4152811074
 11
11.7303563771
 21
12.4152811074
  0
LINE
  5
2C3
100
AcDbEntity
  8
0
100
AcDbLine
 62
9
  6
CONTINUOUS
 10
11.483733204
 20
12.4152811074
 11
11.3716514814
 21
12.4152811074
  0
LINE
  5
2C4
100
AcDbEntity
  8
0
100
AcDbLine
 62
9
  6
CONTINUOUS
 10
10.993733204
 20
12.4152811074
 11
10.8816514814
 21
12.4152811074
  0
LINE
  5
2C5
100
AcDbEntity
  8
0
100
AcDbLine
 62
9
  6
CONTINUOUS
 10
10.503733204
 20
12.4152811074
 11
10.3916514814
 21
12.4152811074
  0
LINE
  5
2C6
100
AcDbEntity
  8
0
100
AcDbLine
 62
9
  6
CONTINUOUS
 10
10.1450283083
 20
12.4152811074
 11
10.0329465857
 21
12.4152811074
  0
LINE
  5
2C7
100
AcDbEntity
  8
0
100
AcDbLine
 62
9
  6
CONTINUOUS
 10
10.013733204
 20
12.4152811074
 11
9.9016514814
 21
12.4152811074
  0
LINE
  5
2C8
100
AcDbEntity
  8
0
100
AcDbLine
 62
7
  6
CONTINUOUS
 10
12.3673541461
 20
12.4264029567
 11
12.2851884028
 21
12.4264029567
  0
LINE
  5
2C9
100
AcDbEntity
  8
0
100
AcDbLine
 62
7
  6
CONTINUOUS
 10
12.1998710337
 20
12.4264029567
 11
12.1177052904
 21
12.4264029567
  0
LINE
  5
2CA
100
AcDbEntity
  8
0
100
AcDbLine
 62
7
  6
CONTINUOUS
 10
11.8851057441
 20
12.4264029567
 11
11.8029400007
 21
12.4264029567
  0
LINE
  5
2CB
100
AcDbEntity
  8
0
100
AcDbLine
 62
7
  6
CONTINUOUS
 10
11.4610236165
 20
12.4264029567
 11
11.3788578732
 21
12.4264029567
  0
LINE
  5
2CC
100
AcDbEntity
  8
0
100
AcDbLine
 62
7
  6
CONTINUOUS
 10
10.9787752144
 20
12.4264029567
 11
10.8966094711
 21
12.4264029567
  0
LINE
  5
2CD
100
AcDbEntity
  8
0
100
AcDbLine
 62
7
  6
CONTINUOUS
 10
10.4965268123
 20
12.4264029567
 11
10.414361069
 21
12.4264029567
  0
LINE
  5
2CE
100
AcDbEntity
  8
0
100
AcDbLine
 62
7
  6
CONTINUOUS
 10
10.0724446847
 20
12.4264029567
 11
9.9902789414
 21
12.4264029567
  0
LINE
  5
2CF
100
AcDbEntity
  8
0
100
AcDbLine
 62
7
  6
CONTINUOUS
 10
9.7576793951
 20
12.4264029567
 11
9.6755136517
 21
12.4264029567
  0
LINE
  5
2D0
100
AcDbEntity
  8
0
100
AcDbLine
 62
7
  6
CONTINUOUS
 10
9.5901962827
 20
12.4264029567
 11
9.5080305393
 21
12.4264029567
  0
LINE
  5
2D1
100
AcDbEntity
  8
0
100
AcDbLine
 62
7
  6
CONTINUOUS
 10
10.8800147398
 20
12.4271043295
 11
10.7526923427
 21
12.4271043295
  0
LINE
  5
2D2
100
AcDbEntity
  8
0
100
AcDbLine
 62
7
  6
CONTINUOUS
 10
10.9953699457
 20
12.4271043295
 11
11.1226923427
 21
12.4271043295
  0
LINE
  5
2D3
100
AcDbEntity
  8
0
100
AcDbLine
 62
7
  6
CONTINUOUS
 10
10.5192964594
 20
12.4303108072
 11
10.8797742539
 21
12.4303108072
  0
LINE
  5
2D4
100
AcDbEntity
  8
0
100
AcDbLine
 62
7
  6
CONTINUOUS
 10
10.9956104315
 20
12.4303108072
 11
11.356088226
 21
12.4303108072
  0
LINE
  5
2D5
100
AcDbEntity
  8
0
100
AcDbLine
 62
9
  6
CONTINUOUS
 10
10.5193089852
 20
12.430477817
 11
10.8797617282
 21
12.430477817
  0
LINE
  5
2D6
100
AcDbEntity
  8
0
100
AcDbLine
 62
9
  6
CONTINUOUS
 10
10.9956229573
 20
12.430477817
 11
11.3560757003
 21
12.430477817
  0
LINE
  5
2D7
100
AcDbEntity
  8
0
100
AcDbLine
 62
9
  6
CONTINUOUS
 10
11.553010999
 20
12.4341630775
 11
11.4851493518
 21
12.4341630775
  0
LINE
  5
2D8
100
AcDbEntity
  8
0
100
AcDbLine
 62
9
  6
CONTINUOUS
 10
11.3657220633
 20
12.4341630775
 11
10.9951493518
 21
12.4341630775
  0
LINE
  5
2D9
100
AcDbEntity
  8
0
100
AcDbLine
 62
9
  6
CONTINUOUS
 10
10.8802353337
 20
12.4341630775
 11
10.5096626221
 21
12.4341630775
  0
LINE
  5
2DA
100
AcDbEntity
  8
0
100
AcDbLine
 62
9
  6
CONTINUOUS
 10
10.3902353337
 20
12.4341630775
 11
10.3223736865
 21
12.4341630775
  0
LINE
  5
2DB
100
AcDbEntity
  8
0
100
AcDbLine
 62
9
  6
CONTINUOUS
 10
12.3823121358
 20
12.4402811074
 11
12.2702304132
 21
12.4402811074
  0
LINE
  5
2DC
100
AcDbEntity
  8
0
100
AcDbLine
 62
9
  6
CONTINUOUS
 10
12.2148290234
 20
12.4402811074
 11
12.1027473008
 21
12.4402811074
  0
LINE
  5
2DD
100
AcDbEntity
  8
0
100
AcDbLine
 62
9
  6
CONTINUOUS
 10
11.9000637337
 20
12.4402811074
 11
11.7879820111
 21
12.4402811074
  0
LINE
  5
2DE
100
AcDbEntity
  8
0
100
AcDbLine
 62
9
  6
CONTINUOUS
 10
11.4759816061
 20
12.4402811074
 11
11.3638998835
 21
12.4402811074
  0
LINE
  5
2DF
100
AcDbEntity
  8
0
100
AcDbLine
 62
9
  6
CONTINUOUS
 10
10.993733204
 20
12.4402811074
 11
10.8816514814
 21
12.4402811074
  0
LINE
  5
2E0
100
AcDbEntity
  8
0
100
AcDbLine
 62
9
  6
CONTINUOUS
 10
10.511484802
 20
12.4402811074
 11
10.3994030793
 21
12.4402811074
  0
LINE
  5
2E1
100
AcDbEntity
  8
0
100
AcDbLine
 62
9
  6
CONTINUOUS
 10
10.0874026744
 20
12.4402811074
 11
9.9753209518
 21
12.4402811074
  0
LINE
  5
2E2
100
AcDbEntity
  8
0
100
AcDbLine
 62
9
  6
CONTINUOUS
 10
9.7726373847
 20
12.4402811074
 11
9.6605556621
 21
12.4402811074
  0
LINE
  5
2E3
100
AcDbEntity
  8
0
100
AcDbLine
 62
9
  6
CONTINUOUS
 10
9.6051542723
 20
12.4402811074
 11
9.4930725497
 21
12.4402811074
  0
LINE
  5
2E4
100
AcDbEntity
  8
0
100
AcDbLine
 62
7
  6
CONTINUOUS
 10
10.1471306399
 20
12.4433121951
 11
10.3895491499
 21
12.4433121951
  0
LINE
  5
2E5
100
AcDbEntity
  8
0
100
AcDbLine
 62
7
  6
CONTINUOUS
 10
10.5117121335
 20
12.4433121951
 11
10.8795491499
 21
12.4433121951
  0
LINE
  5
2E6
100
AcDbEntity
  8
0
100
AcDbLine
 62
7
  6
CONTINUOUS
 10
10.9958355356
 20
12.4433121951
 11
11.3636725519
 21
12.4433121951
  0
LINE
  5
2E7
100
AcDbEntity
  8
0
100
AcDbLine
 62
7
  6
CONTINUOUS
 10
11.4858355356
 20
12.4433121951
 11
11.7282540456
 21
12.4433121951
  0
LINE
  5
2E8
100
AcDbEntity
  8
0
100
AcDbLine
 62
9
  6
CONTINUOUS
 10
10.1471923793
 20
12.4440348452
 11
10.3894949511
 21
12.4440348452
  0
LINE
  5
2E9
100
AcDbEntity
  8
0
100
AcDbLine
 62
9
  6
CONTINUOUS
 10
10.5117663323
 20
12.4440348452
 11
10.8794949511
 21
12.4440348452
  0
LINE
  5
2EA
100
AcDbEntity
  8
0
100
AcDbLine
 62
9
  6
CONTINUOUS
 10
10.9958897344
 20
12.4440348452
 11
11.3636183532
 21
12.4440348452
  0
LINE
  5
2EB
100
AcDbEntity
  8
0
100
AcDbLine
 62
9
  6
CONTINUOUS
 10
11.4858897344
 20
12.4440348452
 11
11.7281923061
 21
12.4440348452
  0
LINE
  5
2EC
100
AcDbEntity
  8
0
100
AcDbLine
 62
9
  6
CONTINUOUS
 10
11.9811042127
 20
12.4487237431
 11
11.9006969314
 21
12.4487237431
  0
LINE
  5
2ED
100
AcDbEntity
  8
0
100
AcDbLine
 62
9
  6
CONTINUOUS
 10
11.7873488134
 20
12.4487237431
 11
11.4766148038
 21
12.4487237431
  0
LINE
  5
2EE
100
AcDbEntity
  8
0
100
AcDbLine
 62
9
  6
CONTINUOUS
 10
11.3632666858
 20
12.4487237431
 11
10.9943664017
 21
12.4487237431
  0
LINE
  5
2EF
100
AcDbEntity
  8
0
100
AcDbLine
 62
9
  6
CONTINUOUS
 10
10.8810182838
 20
12.4487237431
 11
10.5121179996
 21
12.4487237431
  0
LINE
  5
2F0
100
AcDbEntity
  8
0
100
AcDbLine
 62
9
  6
CONTINUOUS
 10
10.3987698817
 20
12.4487237431
 11
10.0880358721
 21
12.4487237431
  0
LINE
  5
2F1
100
AcDbEntity
  8
0
100
AcDbLine
 62
9
  6
CONTINUOUS
 10
9.9746877541
 20
12.4487237431
 11
9.8942804728
 21
12.4487237431
  0
LINE
  5
2F2
100
AcDbEntity
  8
0
100
AcDbLine
 62
7
  6
CONTINUOUS
 10
12.8187752144
 20
12.4564029567
 11
12.6739129914
 21
12.4564029567
  0
LINE
  5
2F3
100
AcDbEntity
  8
0
100
AcDbLine
 62
7
  6
CONTINUOUS
 10
12.5722619574
 20
12.4564029567
 11
12.490096214
 21
12.4564029567
  0
LINE
  5
2F4
100
AcDbEntity
  8
0
100
AcDbLine
 62
7
  6
CONTINUOUS
 10
12.2798516918
 20
12.4564029567
 11
12.1976859485
 21
12.4564029567
  0
LINE
  5
2F5
100
AcDbEntity
  8
0
100
AcDbLine
 62
7
  6
CONTINUOUS
 10
11.8987752144
 20
12.4564029567
 11
11.8166094711
 21
12.4564029567
  0
LINE
  5
2F6
100
AcDbEntity
  8
0
100
AcDbLine
 62
7
  6
CONTINUOUS
 10
11.4550022574
 20
12.4564029567
 11
11.3728365141
 21
12.4564029567
  0
LINE
  5
2F7
100
AcDbEntity
  8
0
100
AcDbLine
 62
7
  6
CONTINUOUS
 10
10.9787752144
 20
12.4564029567
 11
10.8966094711
 21
12.4564029567
  0
LINE
  5
2F8
100
AcDbEntity
  8
0
100
AcDbLine
 62
7
  6
CONTINUOUS
 10
10.5025481714
 20
12.4564029567
 11
10.4203824281
 21
12.4564029567
  0
LINE
  5
2F9
100
AcDbEntity
  8
0
100
AcDbLine
 62
7
  6
CONTINUOUS
 10
10.0587752144
 20
12.4564029567
 11
9.9766094711
 21
12.4564029567
  0
LINE
  5
2FA
100
AcDbEntity
  8
0
100
AcDbLine
 62
7
  6
CONTINUOUS
 10
9.677698737
 20
12.4564029567
 11
9.5955329937
 21
12.4564029567
  0
LINE
  5
2FB
100
AcDbEntity
  8
0
100
AcDbLine
 62
7
  6
CONTINUOUS
 10
9.3852884714
 20
12.4564029567
 11
9.3031227281
 21
12.4564029567
  0
LINE
  5
2FC
100
AcDbEntity
  8
0
100
AcDbLine
 62
7
  6
CONTINUOUS
 10
9.201471694
 20
12.4564029567
 11
9.0566094711
 21
12.4564029567
  0
LINE
  5
2FD
100
AcDbEntity
  8
0
100
AcDbLine
 62
7
  6
CONTINUOUS
 10
9.7743059645
 20
12.4625288379
 11
9.9645349536
 21
12.4625288379
  0
LINE
  5
2FE
100
AcDbEntity
  8
0
100
AcDbLine
 62
7
  6
CONTINUOUS
 10
10.0890712542
 20
12.4625288379
 11
10.3977344996
 21
12.4625288379
  0
LINE
  5
2FF
100
AcDbEntity
  8
0
100
AcDbLine
 62
7
  6
CONTINUOUS
 10
10.5146226889
 20
12.4625288379
 11
10.8799829016
 21
12.4625288379
  0
LINE
  5
300
100
AcDbEntity
  8
0
100
AcDbLine
 62
7
  6
CONTINUOUS
 10
10.9954017838
 20
12.4625288379
 11
11.3607619965
 21
12.4625288379
  0
LINE
  5
301
100
AcDbEntity
  8
0
100
AcDbLine
 62
7
  6
CONTINUOUS
 10
11.4776501859
 20
12.4625288379
 11
11.7863134313
 21
12.4625288379
  0
LINE
  5
302
100
AcDbEntity
  8
0
100
AcDbLine
 62
7
  6
CONTINUOUS
 10
11.9108497319
 20
12.4625288379
 11
12.101078721
 21
12.4625288379
  0
LINE
  5
303
100
AcDbEntity
  8
0
100
AcDbLine
 62
9
  6
CONTINUOUS
 10
9.7744423686
 20
12.4640727496
 11
9.9635297522
 21
12.4640727496
  0
LINE
  5
304
100
AcDbEntity
  8
0
100
AcDbLine
 62
9
  6
CONTINUOUS
 10
10.5156278903
 20
12.4640727496
 11
10.8798671083
 21
12.4640727496
  0
LINE
  5
305
100
AcDbEntity
  8
0
100
AcDbLine
 62
9
  6
CONTINUOUS
 10
10.9955175772
 20
12.4640727496
 11
11.3597567952
 21
12.4640727496
  0
LINE
  5
306
100
AcDbEntity
  8
0
100
AcDbLine
 62
9
  6
CONTINUOUS
 10
11.9118549333
 20
12.4640727496
 11
12.1009423169
 21
12.4640727496
  0
LINE
  5
307
100
AcDbEntity
  8
0
100
AcDbLine
 62
9
  6
CONTINUOUS
 10
12.833733204
 20
12.4702811074
 11
12.6589550018
 21
12.4702811074
  0
LINE
  5
308
100
AcDbEntity
  8
0
100
AcDbLine
 62
9
  6
CONTINUOUS
 10
12.587219947
 20
12.4702811074
 11
12.4751382244
 21
12.4702811074
  0
LINE
  5
309
100
AcDbEntity
  8
0
100
AcDbLine
 62
9
  6
CONTINUOUS
 10
12.2948096814
 20
12.4702811074
 11
12.1827279588
 21
12.4702811074
  0
LINE
  5
30A
100
AcDbEntity
  8
0
100
AcDbLine
 62
9
  6
CONTINUOUS
 10
11.913733204
 20
12.4702811074
 11
11.8016514814
 21
12.4702811074
  0
LINE
  5
30B
100
AcDbEntity
  8
0
100
AcDbLine
 62
9
  6
CONTINUOUS
 10
11.469960247
 20
12.4702811074
 11
11.3578785244
 21
12.4702811074
  0
LINE
  5
30C
100
AcDbEntity
  8
0
100
AcDbLine
 62
9
  6
CONTINUOUS
 10
10.993733204
 20
12.4702811074
 11
10.8816514814
 21
12.4702811074
  0
LINE
  5
30D
100
AcDbEntity
  8
0
100
AcDbLine
 62
9
  6
CONTINUOUS
 10
10.5175061611
 20
12.4702811074
 11
10.4054244384
 21
12.4702811074
  0
LINE
  5
30E
100
AcDbEntity
  8
0
100
AcDbLine
 62
9
  6
CONTINUOUS
 10
10.073733204
 20
12.4702811074
 11
9.9616514814
 21
12.4702811074
  0
LINE
  5
30F
100
AcDbEntity
  8
0
100
AcDbLine
 62
9
  6
CONTINUOUS
 10
9.6926567267
 20
12.4702811074
 11
9.580575004
 21
12.4702811074
  0
LINE
  5
310
100
AcDbEntity
  8
0
100
AcDbLine
 62
9
  6
CONTINUOUS
 10
9.4002464611
 20
12.4702811074
 11
9.2881647385
 21
12.4702811074
  0
LINE
  5
311
100
AcDbEntity
  8
0
100
AcDbLine
 62
9
  6
CONTINUOUS
 10
9.2164296837
 20
12.4702811074
 11
9.0416514814
 21
12.4702811074
  0
LINE
  5
312
100
AcDbEntity
  8
0
100
AcDbLine
 62
9
  6
CONTINUOUS
 10
12.409245644
 20
12.4708197014
 11
12.2948096814
 21
12.4708197014
  0
LINE
  5
313
100
AcDbEntity
  8
0
100
AcDbLine
 62
9
  6
CONTINUOUS
 10
12.1826875643
 20
12.4708197014
 11
11.913733204
 21
12.4708197014
  0
LINE
  5
314
100
AcDbEntity
  8
0
100
AcDbLine
 62
9
  6
CONTINUOUS
 10
11.8016514814
 20
12.4708197014
 11
11.469960247
 21
12.4708197014
  0
LINE
  5
315
100
AcDbEntity
  8
0
100
AcDbLine
 62
9
  6
CONTINUOUS
 10
11.3578785244
 20
12.4708197014
 11
10.993733204
 21
12.4708197014
  0
LINE
  5
316
100
AcDbEntity
  8
0
100
AcDbLine
 62
9
  6
CONTINUOUS
 10
10.8816514814
 20
12.4708197014
 11
10.5175061611
 21
12.4708197014
  0
LINE
  5
317
100
AcDbEntity
  8
0
100
AcDbLine
 62
9
  6
CONTINUOUS
 10
10.4054244384
 20
12.4708197014
 11
10.073733204
 21
12.4708197014
  0
LINE
  5
318
100
AcDbEntity
  8
0
100
AcDbLine
 62
9
  6
CONTINUOUS
 10
9.9616514814
 20
12.4708197014
 11
9.6926971212
 21
12.4708197014
  0
LINE
  5
319
100
AcDbEntity
  8
0
100
AcDbLine
 62
9
  6
CONTINUOUS
 10
9.580575004
 20
12.4708197014
 11
9.4661390414
 21
12.4708197014
  0
LINE
  5
31A
100
AcDbEntity
  8
0
100
AcDbLine
 62
7
  6
CONTINUOUS
 10
9.2276691567
 20
12.4889719364
 11
9.2867629263
 21
12.4889719364
  0
LINE
  5
31B
100
AcDbEntity
  8
0
100
AcDbLine
 62
7
  6
CONTINUOUS
 10
9.4016482733
 20
12.4889719364
 11
9.5791731919
 21
12.4889719364
  0
LINE
  5
31C
100
AcDbEntity
  8
0
100
AcDbLine
 62
7
  6
CONTINUOUS
 10
9.6940585388
 20
12.4889719364
 11
9.9602496693
 21
12.4889719364
  0
LINE
  5
31D
100
AcDbEntity
  8
0
100
AcDbLine
 62
7
  6
CONTINUOUS
 10
10.0751350162
 20
12.4889719364
 11
10.4040226263
 21
12.4889719364
  0
LINE
  5
31E
100
AcDbEntity
  8
0
100
AcDbLine
 62
7
  6
CONTINUOUS
 10
10.5189079732
 20
12.4889719364
 11
10.8802496693
 21
12.4889719364
  0
LINE
  5
31F
100
AcDbEntity
  8
0
100
AcDbLine
 62
7
  6
CONTINUOUS
 10
10.9951350162
 20
12.4889719364
 11
11.3564767122
 21
12.4889719364
  0
LINE
  5
320
100
AcDbEntity
  8
0
100
AcDbLine
 62
7
  6
CONTINUOUS
 10
11.4713620592
 20
12.4889719364
 11
11.8002496693
 21
12.4889719364
  0
LINE
  5
321
100
AcDbEntity
  8
0
100
AcDbLine
 62
7
  6
CONTINUOUS
 10
11.9151350162
 20
12.4889719364
 11
12.1813261466
 21
12.4889719364
  0
LINE
  5
322
100
AcDbEntity
  8
0
100
AcDbLine
 62
7
  6
CONTINUOUS
 10
12.2962114936
 20
12.4889719364
 11
12.4737364122
 21
12.4889719364
  0
LINE
  5
323
100
AcDbEntity
  8
0
100
AcDbLine
 62
7
  6
CONTINUOUS
 10
12.5886217592
 20
12.4889719364
 11
12.6477155288
 21
12.4889719364
  0
LINE
  5
324
100
AcDbEntity
  8
0
100
AcDbLine
 62
7
  6
CONTINUOUS
 10
13.2363399169
 20
12.4914029567
 11
13.1541741736
 21
12.4914029567
  0
LINE
  5
325
100
AcDbEntity
  8
0
100
AcDbLine
 62
7
  6
CONTINUOUS
 10
13.1376735064
 20
12.4914029567
 11
13.0555077631
 21
12.4914029567
  0
LINE
  5
326
100
AcDbEntity
  8
0
100
AcDbLine
 62
7
  6
CONTINUOUS
 10
12.944652881
 20
12.4914029567
 11
12.8624871377
 21
12.4914029567
  0
LINE
  5
327
100
AcDbEntity
  8
0
100
AcDbLine
 62
7
  6
CONTINUOUS
 10
12.6657139682
 20
12.4914029567
 11
12.5835482249
 21
12.4914029567
  0
LINE
  5
328
100
AcDbEntity
  8
0
100
AcDbLine
 62
7
  6
CONTINUOUS
 10
12.3130477371
 20
12.4914029567
 11
12.2308819938
 21
12.4914029567
  0
LINE
  5
329
100
AcDbEntity
  8
0
100
AcDbLine
 62
7
  6
CONTINUOUS
 10
11.9020673942
 20
12.4914029567
 11
11.8199016509
 21
12.4914029567
  0
LINE
  5
32A
100
AcDbEntity
  8
0
100
AcDbLine
 62
7
  6
CONTINUOUS
 10
11.4507347526
 20
12.4914029567
 11
11.3685690092
 21
12.4914029567
  0
LINE
  5
32B
100
AcDbEntity
  8
0
100
AcDbLine
 62
7
  6
CONTINUOUS
 10
10.9787752144
 20
12.4914029567
 11
10.8966094711
 21
12.4914029567
  0
LINE
  5
32C
100
AcDbEntity
  8
0
100
AcDbLine
 62
7
  6
CONTINUOUS
 10
10.5068156762
 20
12.4914029567
 11
10.4246499329
 21
12.4914029567
  0
LINE
  5
32D
100
AcDbEntity
  8
0
100
AcDbLine
 62
7
  6
CONTINUOUS
 10
10.0554830346
 20
12.4914029567
 11
9.9733172913
 21
12.4914029567
  0
LINE
  5
32E
100
AcDbEntity
  8
0
100
AcDbLine
 62
7
  6
CONTINUOUS
 10
9.6445026917
 20
12.4914029567
 11
9.5623369484
 21
12.4914029567
  0
LINE
  5
32F
100
AcDbEntity
  8
0
100
AcDbLine
 62
7
  6
CONTINUOUS
 10
9.2918364606
 20
12.4914029567
 11
9.2096707172
 21
12.4914029567
  0
LINE
  5
330
100
AcDbEntity
  8
0
100
AcDbLine
 62
7
  6
CONTINUOUS
 10
9.0128975478
 20
12.4914029567
 11
8.9307318045
 21
12.4914029567
  0
LINE
  5
331
100
AcDbEntity
  8
0
100
AcDbLine
 62
7
  6
CONTINUOUS
 10
8.8198769224
 20
12.4914029567
 11
8.7377111791
 21
12.4914029567
  0
LINE
  5
332
100
AcDbEntity
  8
0
100
AcDbLine
 62
7
  6
CONTINUOUS
 10
8.7212105119
 20
12.4914029567
 11
8.6390447686
 21
12.4914029567
  0
LINE
  5
333
100
AcDbEntity
  8
0
100
AcDbLine
 62
9
  6
CONTINUOUS
 10
9.4018883261
 20
12.4916459468
 11
9.5597633425
 21
12.4916459468
  0
LINE
  5
334
100
AcDbEntity
  8
0
100
AcDbLine
 62
9
  6
CONTINUOUS
 10
9.6942590896
 20
12.4916459468
 11
9.9600491185
 21
12.4916459468
  0
LINE
  5
335
100
AcDbEntity
  8
0
100
AcDbLine
 62
9
  6
CONTINUOUS
 10
10.075335567
 20
12.4916459468
 11
10.4038220755
 21
12.4916459468
  0
LINE
  5
336
100
AcDbEntity
  8
0
100
AcDbLine
 62
9
  6
CONTINUOUS
 10
10.519108524
 20
12.4916459468
 11
10.8800491185
 21
12.4916459468
  0
LINE
  5
337
100
AcDbEntity
  8
0
100
AcDbLine
 62
9
  6
CONTINUOUS
 10
10.995335567
 20
12.4916459468
 11
11.3562761615
 21
12.4916459468
  0
LINE
  5
338
100
AcDbEntity
  8
0
100
AcDbLine
 62
9
  6
CONTINUOUS
 10
11.47156261
 20
12.4916459468
 11
11.8000491185
 21
12.4916459468
  0
LINE
  5
339
100
AcDbEntity
  8
0
100
AcDbLine
 62
9
  6
CONTINUOUS
 10
11.915335567
 20
12.4916459468
 11
12.1811255959
 21
12.4916459468
  0
LINE
  5
33A
100
AcDbEntity
  8
0
100
AcDbLine
 62
9
  6
CONTINUOUS
 10
12.315621343
 20
12.4916459468
 11
12.4734963594
 21
12.4916459468
  0
LINE
  5
33B
100
AcDbEntity
  8
0
100
AcDbLine
 62
9
  6
CONTINUOUS
 10
12.8374354408
 20
12.5004740445
 11
12.679483775
 21
12.5004740445
  0
LINE
  5
33C
100
AcDbEntity
  8
0
100
AcDbLine
 62
9
  6
CONTINUOUS
 10
12.5697784181
 20
12.5004740445
 11
12.3268175439
 21
12.5004740445
  0
LINE
  5
33D
100
AcDbEntity
  8
0
100
AcDbLine
 62
9
  6
CONTINUOUS
 10
12.217112187
 20
12.5004740445
 11
11.915837201
 21
12.5004740445
  0
LINE
  5
33E
100
AcDbEntity
  8
0
100
AcDbLine
 62
9
  6
CONTINUOUS
 10
11.806131844
 20
12.5004740445
 11
11.4645045594
 21
12.5004740445
  0
LINE
  5
33F
100
AcDbEntity
  8
0
100
AcDbLine
 62
9
  6
CONTINUOUS
 10
11.3547992024
 20
12.5004740445
 11
10.9925450212
 21
12.5004740445
  0
LINE
  5
340
100
AcDbEntity
  8
0
100
AcDbLine
 62
9
  6
CONTINUOUS
 10
10.8828396643
 20
12.5004740445
 11
10.5205854831
 21
12.5004740445
  0
LINE
  5
341
100
AcDbEntity
  8
0
100
AcDbLine
 62
9
  6
CONTINUOUS
 10
10.4108801261
 20
12.5004740445
 11
10.0692528414
 21
12.5004740445
  0
LINE
  5
342
100
AcDbEntity
  8
0
100
AcDbLine
 62
9
  6
CONTINUOUS
 10
9.9595474845
 20
12.5004740445
 11
9.6582724985
 21
12.5004740445
  0
LINE
  5
343
100
AcDbEntity
  8
0
100
AcDbLine
 62
9
  6
CONTINUOUS
 10
9.5485671416
 20
12.5004740445
 11
9.3056062674
 21
12.5004740445
  0
LINE
  5
344
100
AcDbEntity
  8
0
100
AcDbLine
 62
9
  6
CONTINUOUS
 10
9.1959009104
 20
12.5004740445
 11
9.0379492447
 21
12.5004740445
  0
LINE
  5
345
100
AcDbEntity
  8
0
100
AcDbLine
 62
9
  6
CONTINUOUS
 10
13.2512979065
 20
12.5052811074
 11
13.0405497734
 21
12.5052811074
  0
LINE
  5
346
100
AcDbEntity
  8
0
100
AcDbLine
 62
9
  6
CONTINUOUS
 10
12.9596108706
 20
12.5052811074
 11
12.847529148
 21
12.5052811074
  0
LINE
  5
347
100
AcDbEntity
  8
0
100
AcDbLine
 62
9
  6
CONTINUOUS
 10
12.6806719579
 20
12.5052811074
 11
12.5685902353
 21
12.5052811074
  0
LINE
  5
348
100
AcDbEntity
  8
0
100
AcDbLine
 62
9
  6
CONTINUOUS
 10
12.3280057267
 20
12.5052811074
 11
12.2159240041
 21
12.5052811074
  0
LINE
  5
349
100
AcDbEntity
  8
0
100
AcDbLine
 62
9
  6
CONTINUOUS
 10
11.9170253838
 20
12.5052811074
 11
11.8049436612
 21
12.5052811074
  0
LINE
  5
34A
100
AcDbEntity
  8
0
100
AcDbLine
 62
9
  6
CONTINUOUS
 10
11.4656927422
 20
12.5052811074
 11
11.3536110196
 21
12.5052811074
  0
LINE
  5
34B
100
AcDbEntity
  8
0
100
AcDbLine
 62
9
  6
CONTINUOUS
 10
10.993733204
 20
12.5052811074
 11
10.8816514814
 21
12.5052811074
  0
LINE
  5
34C
100
AcDbEntity
  8
0
100
AcDbLine
 62
9
  6
CONTINUOUS
 10
10.5217736659
 20
12.5052811074
 11
10.4096919433
 21
12.5052811074
  0
LINE
  5
34D
100
AcDbEntity
  8
0
100
AcDbLine
 62
9
  6
CONTINUOUS
 10
10.0704410243
 20
12.5052811074
 11
9.9583593016
 21
12.5052811074
  0
LINE
  5
34E
100
AcDbEntity
  8
0
100
AcDbLine
 62
9
  6
CONTINUOUS
 10
9.6594606813
 20
12.5052811074
 11
9.5473789587
 21
12.5052811074
  0
LINE
  5
34F
100
AcDbEntity
  8
0
100
AcDbLine
 62
9
  6
CONTINUOUS
 10
9.3067944502
 20
12.5052811074
 11
9.1947127276
 21
12.5052811074
  0
LINE
  5
350
100
AcDbEntity
  8
0
100
AcDbLine
 62
9
  6
CONTINUOUS
 10
9.0278555375
 20
12.5052811074
 11
8.9157738148
 21
12.5052811074
  0
LINE
  5
351
100
AcDbEntity
  8
0
100
AcDbLine
 62
9
  6
CONTINUOUS
 10
8.8348349121
 20
12.5052811074
 11
8.6240867789
 21
12.5052811074
  0
LINE
  5
352
100
AcDbEntity
  8
0
100
AcDbLine
 62
9
  6
CONTINUOUS
 10
12.97567916
 20
12.521068184
 11
12.9607949014
 21
12.521068184
  0
LINE
  5
353
100
AcDbEntity
  8
0
100
AcDbLine
 62
9
  6
CONTINUOUS
 10
12.8463451173
 20
12.521068184
 11
12.6818559886
 21
12.521068184
  0
LINE
  5
354
100
AcDbEntity
  8
0
100
AcDbLine
 62
9
  6
CONTINUOUS
 10
12.5674062045
 20
12.521068184
 11
12.3291897575
 21
12.521068184
  0
LINE
  5
355
100
AcDbEntity
  8
0
100
AcDbLine
 62
9
  6
CONTINUOUS
 10
12.2147399734
 20
12.521068184
 11
11.9182094146
 21
12.521068184
  0
LINE
  5
356
100
AcDbEntity
  8
0
100
AcDbLine
 62
9
  6
CONTINUOUS
 10
11.8037596305
 20
12.521068184
 11
11.4668767729
 21
12.521068184
  0
LINE
  5
357
100
AcDbEntity
  8
0
100
AcDbLine
 62
9
  6
CONTINUOUS
 10
11.3524269888
 20
12.521068184
 11
10.9949172348
 21
12.521068184
  0
LINE
  5
358
100
AcDbEntity
  8
0
100
AcDbLine
 62
9
  6
CONTINUOUS
 10
10.8804674507
 20
12.521068184
 11
10.5229576966
 21
12.521068184
  0
LINE
  5
359
100
AcDbEntity
  8
0
100
AcDbLine
 62
9
  6
CONTINUOUS
 10
10.4085079125
 20
12.521068184
 11
10.071625055
 21
12.521068184
  0
LINE
  5
35A
100
AcDbEntity
  8
0
100
AcDbLine
 62
9
  6
CONTINUOUS
 10
9.9571752709
 20
12.521068184
 11
9.6606447121
 21
12.521068184
  0
LINE
  5
35B
100
AcDbEntity
  8
0
100
AcDbLine
 62
9
  6
CONTINUOUS
 10
9.546194928
 20
12.521068184
 11
9.307978481
 21
12.521068184
  0
LINE
  5
35C
100
AcDbEntity
  8
0
100
AcDbLine
 62
9
  6
CONTINUOUS
 10
9.1935286968
 20
12.521068184
 11
9.0290395682
 21
12.521068184
  0
LINE
  5
35D
100
AcDbEntity
  8
0
100
AcDbLine
 62
9
  6
CONTINUOUS
 10
8.9145897841
 20
12.521068184
 11
8.8997055255
 21
12.521068184
  0
LINE
  5
35E
100
AcDbEntity
  8
0
100
AcDbLine
 62
7
  6
CONTINUOUS
 10
8.8361386017
 20
12.5226636362
 11
8.9144701252
 21
12.5226636362
  0
LINE
  5
35F
100
AcDbEntity
  8
0
100
AcDbLine
 62
7
  6
CONTINUOUS
 10
9.0291592271
 20
12.5226636362
 11
9.1934090379
 21
12.5226636362
  0
LINE
  5
360
100
AcDbEntity
  8
0
100
AcDbLine
 62
7
  6
CONTINUOUS
 10
9.3080981399
 20
12.5226636362
 11
9.5460752691
 21
12.5226636362
  0
LINE
  5
361
100
AcDbEntity
  8
0
100
AcDbLine
 62
7
  6
CONTINUOUS
 10
9.660764371
 20
12.5226636362
 11
9.957055612
 21
12.5226636362
  0
LINE
  5
362
100
AcDbEntity
  8
0
100
AcDbLine
 62
7
  6
CONTINUOUS
 10
10.0717447139
 20
12.5226636362
 11
10.4083882536
 21
12.5226636362
  0
LINE
  5
363
100
AcDbEntity
  8
0
100
AcDbLine
 62
7
  6
CONTINUOUS
 10
10.5230773555
 20
12.5226636362
 11
10.8803477918
 21
12.5226636362
  0
LINE
  5
364
100
AcDbEntity
  8
0
100
AcDbLine
 62
7
  6
CONTINUOUS
 10
10.9950368937
 20
12.5226636362
 11
11.3523073299
 21
12.5226636362
  0
LINE
  5
365
100
AcDbEntity
  8
0
100
AcDbLine
 62
7
  6
CONTINUOUS
 10
11.4669964319
 20
12.5226636362
 11
11.8036399716
 21
12.5226636362
  0
LINE
  5
366
100
AcDbEntity
  8
0
100
AcDbLine
 62
7
  6
CONTINUOUS
 10
11.9183290735
 20
12.5226636362
 11
12.2146203145
 21
12.5226636362
  0
LINE
  5
367
100
AcDbEntity
  8
0
100
AcDbLine
 62
7
  6
CONTINUOUS
 10
12.3293094164
 20
12.5226636362
 11
12.5672865456
 21
12.5226636362
  0
LINE
  5
368
100
AcDbEntity
  8
0
100
AcDbLine
 62
7
  6
CONTINUOUS
 10
12.6819756475
 20
12.5226636362
 11
12.8462254584
 21
12.5226636362
  0
LINE
  5
369
100
AcDbEntity
  8
0
100
AcDbLine
 62
7
  6
CONTINUOUS
 10
12.9609145603
 20
12.5226636362
 11
13.0392460838
 21
12.5226636362
  0
LINE
  5
36A
100
AcDbEntity
  8
0
100
AcDbLine
 62
9
  6
CONTINUOUS
 10
8.8364767386
 20
12.5267775288
 11
8.9141615832
 21
12.5267775288
  0
LINE
  5
36B
100
AcDbEntity
  8
0
100
AcDbLine
 62
9
  6
CONTINUOUS
 10
9.0294677691
 20
12.5267775288
 11
9.193100496
 21
12.5267775288
  0
LINE
  5
36C
100
AcDbEntity
  8
0
100
AcDbLine
 62
9
  6
CONTINUOUS
 10
9.3084066818
 20
12.5267775288
 11
9.5457667271
 21
12.5267775288
  0
LINE
  5
36D
100
AcDbEntity
  8
0
100
AcDbLine
 62
9
  6
CONTINUOUS
 10
9.6610729129
 20
12.5267775288
 11
9.95674707
 21
12.5267775288
  0
LINE
  5
36E
100
AcDbEntity
  8
0
100
AcDbLine
 62
9
  6
CONTINUOUS
 10
10.0720532559
 20
12.5267775288
 11
10.4080797117
 21
12.5267775288
  0
LINE
  5
36F
100
AcDbEntity
  8
0
100
AcDbLine
 62
9
  6
CONTINUOUS
 10
10.5233858975
 20
12.5267775288
 11
10.8800392498
 21
12.5267775288
  0
LINE
  5
370
100
AcDbEntity
  8
0
100
AcDbLine
 62
9
  6
CONTINUOUS
 10
10.9953454356
 20
12.5267775288
 11
11.351998788
 21
12.5267775288
  0
LINE
  5
371
100
AcDbEntity
  8
0
100
AcDbLine
 62
9
  6
CONTINUOUS
 10
11.4673049738
 20
12.5267775288
 11
11.8033314296
 21
12.5267775288
  0
LINE
  5
372
100
AcDbEntity
  8
0
100
AcDbLine
 62
9
  6
CONTINUOUS
 10
11.9186376154
 20
12.5267775288
 11
12.2143117725
 21
12.5267775288
  0
LINE
  5
373
100
AcDbEntity
  8
0
100
AcDbLine
 62
9
  6
CONTINUOUS
 10
12.3296179584
 20
12.5267775288
 11
12.5669780037
 21
12.5267775288
  0
LINE
  5
374
100
AcDbEntity
  8
0
100
AcDbLine
 62
9
  6
CONTINUOUS
 10
12.6822841895
 20
12.5267775288
 11
12.8459169164
 21
12.5267775288
  0
LINE
  5
375
100
AcDbEntity
  8
0
100
AcDbLine
 62
9
  6
CONTINUOUS
 10
12.9612231022
 20
12.5267775288
 11
13.0389079469
 21
12.5267775288
  0
LINE
  5
376
100
AcDbEntity
  8
0
100
AcDbLine
 62
7
  6
CONTINUOUS
 10
8.2916908933
 20
12.5494741532
 11
13.5836937922
 21
12.5494741532
  0
LINE
  5
377
100
AcDbEntity
  8
0
100
AcDbLine
 62
9
  6
CONTINUOUS
 10
13.5918231074
 20
12.5526960226
 11
8.2835615781
 21
12.5526960226
  0
LINE
  5
378
100
AcDbEntity
  8
0
100
AcDbLine
 62
7
  6
CONTINUOUS
 10
9.8942804728
 20
12.4487237431
 11
9.8991589083
 21
12.4485154165
  0
LINE
  5
379
100
AcDbEntity
  8
0
100
AcDbLine
 62
7
  6
CONTINUOUS
 10
9.0379492447
 20
12.5004740445
 11
9.0393954791
 21
12.5003611386
  0
LINE
  5
37A
100
AcDbEntity
  8
0
100
AcDbLine
 62
7
  6
CONTINUOUS
 10
10.7526923427
 20
12.4271043295
 11
10.7130364961
 21
12.4303108072
  0
LINE
  5
37B
100
AcDbEntity
  8
0
100
AcDbLine
 62
9
  6
CONTINUOUS
 10
13.8776923427
 20
12.7177427026
 11
7.9976923427
 21
12.7177427026
  0
LINE
  5
37C
100
AcDbEntity
  8
0
100
AcDbLine
 62
9
  6
CONTINUOUS
 10
13.8926923427
 20
12.7437234647
 11
7.9826923427
 21
12.7437234647
  0
LINE
  5
37D
100
AcDbEntity
  8
0
100
AcDbLine
 62
7
  6
CONTINUOUS
 10
10.5920986252
 20
14.9480837545
 11
10.5402562679
 21
14.9999261118
  0
LINE
  5
37E
100
AcDbEntity
  8
0
100
AcDbLine
 62
7
  6
CONTINUOUS
 10
10.5026923427
 20
15.3299900369
 11
10.4851923427
 21
15.3474900369
  0
LINE
  5
37F
100
AcDbEntity
  8
0
100
AcDbLine
 62
9
  6
CONTINUOUS
 10
13.8926923427
 20
13.6224029567
 11
7.9826923427
 21
13.6224029567
  0
LINE
  5
380
100
AcDbEntity
  8
0
100
AcDbLine
 62
7
  6
CONTINUOUS
 10
13.8626922834
 20
13.6524029567
 11
8.012692402
 21
13.6524029567
  0
LINE
  5
381
100
AcDbEntity
  8
0
100
AcDbLine
 62
9
  6
CONTINUOUS
 10
9.4776923427
 20
13.6824029567
 11
12.3976923427
 21
13.6824029567
  0
LINE
  5
382
100
AcDbEntity
  8
0
100
AcDbLine
 62
9
  6
CONTINUOUS
 10
12.3976923427
 20
13.9134029567
 11
9.4776923427
 21
13.9134029567
  0
LINE
  5
383
100
AcDbEntity
  8
0
100
AcDbLine
 62
7
  6
CONTINUOUS
 10
12.3676923427
 20
13.9434029567
 11
9.5076923427
 21
13.9434029567
  0
LINE
  5
384
100
AcDbEntity
  8
0
100
AcDbLine
 62
9
  6
CONTINUOUS
 10
10.2376923427
 20
13.9734029567
 11
11.6376923427
 21
13.9734029567
  0
LINE
  5
385
100
AcDbEntity
  8
0
100
AcDbLine
 62
7
  6
CONTINUOUS
 10
11.171107992
 20
15.5107577905
 11
11.1586143449
 21
15.5233120764
  0
LINE
  5
386
100
AcDbEntity
  8
0
100
AcDbLine
 62
9
  6
CONTINUOUS
 10
11.6376923427
 20
14.1574029567
 11
10.2376923427
 21
14.1574029567
  0
LINE
  5
387
100
AcDbEntity
  8
0
100
AcDbLine
 62
7
  6
CONTINUOUS
 10
10.2576923427
 20
14.1774029567
 11
11.6176923427
 21
14.1774029567
  0
LINE
  5
388
100
AcDbEntity
  8
0
100
AcDbLine
 62
9
  6
CONTINUOUS
 10
10.2376923427
 20
14.1974029567
 11
11.6376923427
 21
14.1974029567
  0
LINE
  5
389
100
AcDbEntity
  8
0
100
AcDbLine
 62
7
  6
CONTINUOUS
 10
11.1974999639
 20
14.3864029567
 11
10.6778847216
 21
14.3864029567
  0
LINE
  5
38A
100
AcDbEntity
  8
0
100
AcDbLine
 62
7
  6
CONTINUOUS
 10
10.5315274898
 20
15.527984057
 11
10.5778130059
 21
15.5012547761
  0
LINE
  5
38B
100
AcDbEntity
  8
0
100
AcDbLine
 62
7
  6
CONTINUOUS
 10
10.5319183076
 20
15.4622233062
 11
10.5444315542
 21
15.4549900369
  0
LINE
  5
38C
100
AcDbEntity
  8
0
100
AcDbLine
 62
7
  6
CONTINUOUS
 10
10.2376925159
 20
14.7364029567
 11
11.6376921696
 21
14.7364029567
  0
LINE
  5
38D
100
AcDbEntity
  8
0
100
AcDbLine
 62
9
  6
CONTINUOUS
 10
11.2833115785
 20
14.8349211628
 11
10.5920731069
 21
14.8349211628
  0
LINE
  5
38E
100
AcDbEntity
  8
0
100
AcDbLine
 62
9
  6
CONTINUOUS
 10
11.2832860603
 20
14.9480837545
 11
10.5920986252
 21
14.9480837545
  0
LINE
  5
38F
100
AcDbEntity
  8
0
100
AcDbLine
 62
9
  6
CONTINUOUS
 10
10.5402562679
 20
14.9999261118
 11
11.3351284176
 21
14.9999261118
  0
LINE
  5
390
100
AcDbEntity
  8
0
100
AcDbLine
 62
9
  6
CONTINUOUS
 10
10.5026923427
 20
15.1328621866
 11
11.3726923427
 21
15.1328621866
  0
LINE
  5
391
100
AcDbEntity
  8
0
100
AcDbLine
 62
7
  6
CONTINUOUS
 10
11.3009138961
 20
15.4549900369
 11
11.2868423427
 21
15.4631266332
  0
LINE
  5
392
100
AcDbEntity
  8
0
100
AcDbLine
 62
7
  6
CONTINUOUS
 10
11.0700041705
 20
2.2958467088
 11
11.0700439562
 21
2.295864054
  0
LINE
  5
393
100
AcDbEntity
  8
0
100
AcDbLine
 62
7
  6
CONTINUOUS
 10
11.3901923427
 20
15.4549900369
 11
10.4851923427
 21
15.4549900369
  0
ARC
  5
394
100
AcDbEntity
  8
0
100
AcDbCircle
 62
7
  6
CONTINUOUS
 10
9.2690128802
 20
7.5396288789
 40
4.9361566058
100
AcDbArc
 50
86.368961039
 51
86.7470231068
  0
ARC
  5
395
100
AcDbEntity
  8
0
100
AcDbCircle
 62
7
  6
CONTINUOUS
 10
8.2646726692
 20
8.0371229464
 40
4.5148977515
100
AcDbArc
 50
84.1989841402
 51
84.7202498839
  0
ARC
  5
396
100
AcDbEntity
  8
0
100
AcDbCircle
 62
7
  6
CONTINUOUS
 10
9.2276691567
 20
13.4889719364
 40
1.0
100
AcDbArc
 50
269.4370126836
 51
270.0
  0
ARC
  5
397
100
AcDbEntity
  8
0
100
AcDbCircle
 62
7
  6
CONTINUOUS
 10
9.1158109874
 20
13.4974382109
 40
1.0
100
AcDbArc
 50
264.9073926562
 51
265.5343308342
  0
ARC
  5
398
100
AcDbEntity
  8
0
100
AcDbCircle
 62
7
  6
CONTINUOUS
 10
9.1158109874
 20
13.4974382109
 40
1.0
100
AcDbArc
 50
257.5196096022
 51
258.4033226512
  0
ARC
  5
399
100
AcDbEntity
  8
0
100
AcDbCircle
 62
7
  6
CONTINUOUS
 10
8.8726923427
 20
12.3990219307
 40
0.125
100
AcDbArc
 50
77.5196096022
 51
81.5997372456
  0
ARC
  5
39A
100
AcDbEntity
  8
0
100
AcDbCircle
 62
7
  6
CONTINUOUS
 10
8.0126923427
 20
12.7437234647
 40
0.03
100
AcDbArc
 50
180.0
 51
240.0
  0
ARC
  5
39B
100
AcDbEntity
  8
0
100
AcDbCircle
 62
7
  6
CONTINUOUS
 10
8.2985615781
 20
12.5786767847
 40
0.03
100
AcDbArc
 50
240.0
 51
256.7604517071
  0
ARC
  5
39C
100
AcDbEntity
  8
0
100
AcDbCircle
 62
7
  6
CONTINUOUS
 10
8.0126923427
 20
13.6224029567
 40
0.03
100
AcDbArc
 50
90.0
 51
180.0
  0
ARC
  5
39D
100
AcDbEntity
  8
0
100
AcDbCircle
 62
7
  6
CONTINUOUS
 10
9.4476923427
 20
13.6824029567
 40
0.03
100
AcDbArc
 50
270.0
 51
360.0
  0
ARC
  5
39E
100
AcDbEntity
  8
0
100
AcDbCircle
 62
7
  6
CONTINUOUS
 10
9.1193059507
 20
12.4714029567
 40
0.015
100
AcDbArc
 50
184.2891533288
 51
270.0
  0
ARC
  5
39F
100
AcDbEntity
  8
0
100
AcDbCircle
 62
7
  6
CONTINUOUS
 10
9.201471694
 20
12.4714029567
 40
0.015
100
AcDbArc
 50
270.0
 51
355.7108466712
  0
ARC
  5
3A0
100
AcDbEntity
  8
0
100
AcDbCircle
 62
7
  6
CONTINUOUS
 10
9.0566094711
 20
12.4714029567
 40
0.015
100
AcDbArc
 50
184.2891533288
 51
270.0
  0
ARC
  5
3A1
100
AcDbEntity
  8
0
100
AcDbCircle
 62
7
  6
CONTINUOUS
 10
9.3031227281
 20
12.4714029567
 40
0.015
100
AcDbArc
 50
184.2891533288
 51
270.0
  0
ARC
  5
3A2
100
AcDbEntity
  8
0
100
AcDbCircle
 62
7
  6
CONTINUOUS
 10
9.3852884714
 20
12.4714029567
 40
0.015
100
AcDbArc
 50
270.0
 51
355.7108466712
  0
ARC
  5
3A3
100
AcDbEntity
  8
0
100
AcDbCircle
 62
7
  6
CONTINUOUS
 10
8.7377111791
 20
12.5064029567
 40
0.015
100
AcDbArc
 50
184.2891533288
 51
270.0
  0
ARC
  5
3A4
100
AcDbEntity
  8
0
100
AcDbCircle
 62
7
  6
CONTINUOUS
 10
8.8198769224
 20
12.5064029567
 40
0.015
100
AcDbArc
 50
270.0
 51
355.7108466712
  0
ARC
  5
3A5
100
AcDbEntity
  8
0
100
AcDbCircle
 62
7
  6
CONTINUOUS
 10
8.6390447686
 20
12.5064029567
 40
0.015
100
AcDbArc
 50
184.2891533288
 51
270.0
  0
ARC
  5
3A6
100
AcDbEntity
  8
0
100
AcDbCircle
 62
7
  6
CONTINUOUS
 10
8.7212105119
 20
12.5064029567
 40
0.015
100
AcDbArc
 50
270.0
 51
303.4223499938
  0
ARC
  5
3A7
100
AcDbEntity
  8
0
100
AcDbCircle
 62
7
  6
CONTINUOUS
 10
9.2096707172
 20
12.5064029567
 40
0.015
100
AcDbArc
 50
184.2891533288
 51
270.0
  0
ARC
  5
3A8
100
AcDbEntity
  8
0
100
AcDbCircle
 62
7
  6
CONTINUOUS
 10
9.2918364606
 20
12.5064029567
 40
0.015
100
AcDbArc
 50
270.0
 51
355.7108466712
  0
ARC
  5
3A9
100
AcDbEntity
  8
0
100
AcDbCircle
 62
7
  6
CONTINUOUS
 10
8.9307318045
 20
12.5064029567
 40
0.015
100
AcDbArc
 50
184.2891533288
 51
270.0
  0
ARC
  5
3AA
100
AcDbEntity
  8
0
100
AcDbCircle
 62
7
  6
CONTINUOUS
 10
9.0128975478
 20
12.5064029567
 40
0.015
100
AcDbArc
 50
270.0
 51
355.7108466712
  0
ARC
  5
3AB
100
AcDbEntity
  8
0
100
AcDbCircle
 62
9
  6
CONTINUOUS
 10
10.9376895998
 20
2.6767056326
 40
0.3899984689
100
AcDbArc
 50
113.8988202982
 51
246.1011797018
  0
ARC
  5
3AC
100
AcDbEntity
  8
0
100
AcDbCircle
 62
9
  6
CONTINUOUS
 10
10.8388498348
 20
2.3985710645
 40
0.1080329648
100
AcDbArc
 50
251.8536753334
 51
252.1065847559
  0
ARC
  5
3AD
100
AcDbEntity
  8
0
100
AcDbCircle
 62
7
  6
CONTINUOUS
 10
10.8596923427
 20
0.1849900369
 40
0.04
100
AcDbArc
 50
180.0
 51
270.0
  0
ARC
  5
3AE
100
AcDbEntity
  8
0
100
AcDbCircle
 62
7
  6
CONTINUOUS
 10
10.8596923427
 20
3.2919900369
 40
0.04
100
AcDbArc
 50
90.0
 51
180.0
  0
ARC
  5
3AF
100
AcDbEntity
  8
0
100
AcDbCircle
 62
7
  6
CONTINUOUS
 10
10.7796954298
 20
3.147638391
 40
0.0399984565
100
AcDbArc
 50
289.6386977676
 51
360.0
  0
ARC
  5
3B0
100
AcDbEntity
  8
0
100
AcDbCircle
 62
7
  6
CONTINUOUS
 10
9.6221936199
 20
10.597401164
 40
1.8739105668
100
AcDbArc
 50
87.1123603678
 51
87.81632732
  0
ARC
  5
3B1
100
AcDbEntity
  8
0
100
AcDbCircle
 62
7
  6
CONTINUOUS
 10
9.9166094711
 20
12.4164029567
 40
0.015
100
AcDbArc
 50
184.2891533288
 51
270.0
  0
ARC
  5
3B2
100
AcDbEntity
  8
0
100
AcDbCircle
 62
7
  6
CONTINUOUS
 10
9.9987752144
 20
12.4164029567
 40
0.015
100
AcDbArc
 50
270.0
 51
355.7108466712
  0
ARC
  5
3B3
100
AcDbEntity
  8
0
100
AcDbCircle
 62
7
  6
CONTINUOUS
 10
10.0479045754
 20
12.4164029567
 40
0.015
100
AcDbArc
 50
184.2891533288
 51
270.0
  0
ARC
  5
3B4
100
AcDbEntity
  8
0
100
AcDbCircle
 62
7
  6
CONTINUOUS
 10
10.1300703187
 20
12.4164029567
 40
0.015
100
AcDbArc
 50
270.0
 51
355.7108466712
  0
ARC
  5
3B5
100
AcDbEntity
  8
0
100
AcDbCircle
 62
7
  6
CONTINUOUS
 10
9.5080305393
 20
12.4414029567
 40
0.015
100
AcDbArc
 50
184.2891533288
 51
270.0
  0
ARC
  5
3B6
100
AcDbEntity
  8
0
100
AcDbCircle
 62
7
  6
CONTINUOUS
 10
9.5901962827
 20
12.4414029567
 40
0.015
100
AcDbArc
 50
270.0
 51
355.7108466712
  0
ARC
  5
3B7
100
AcDbEntity
  8
0
100
AcDbCircle
 62
7
  6
CONTINUOUS
 10
9.9902789414
 20
12.4414029567
 40
0.015
100
AcDbArc
 50
184.2891533288
 51
270.0
  0
ARC
  5
3B8
100
AcDbEntity
  8
0
100
AcDbCircle
 62
7
  6
CONTINUOUS
 10
10.0724446847
 20
12.4414029567
 40
0.015
100
AcDbArc
 50
270.0
 51
355.7108466712
  0
ARC
  5
3B9
100
AcDbEntity
  8
0
100
AcDbCircle
 62
7
  6
CONTINUOUS
 10
9.6755136517
 20
12.4414029567
 40
0.015
100
AcDbArc
 50
184.2891533288
 51
270.0
  0
ARC
  5
3BA
100
AcDbEntity
  8
0
100
AcDbCircle
 62
7
  6
CONTINUOUS
 10
9.7576793951
 20
12.4414029567
 40
0.015
100
AcDbArc
 50
270.0
 51
355.7108466712
  0
ARC
  5
3BB
100
AcDbEntity
  8
0
100
AcDbCircle
 62
7
  6
CONTINUOUS
 10
9.9766094711
 20
12.4714029567
 40
0.015
100
AcDbArc
 50
184.2891533288
 51
270.0
  0
ARC
  5
3BC
100
AcDbEntity
  8
0
100
AcDbCircle
 62
7
  6
CONTINUOUS
 10
10.0587752144
 20
12.4714029567
 40
0.015
100
AcDbArc
 50
270.0
 51
355.7108466712
  0
ARC
  5
3BD
100
AcDbEntity
  8
0
100
AcDbCircle
 62
7
  6
CONTINUOUS
 10
9.5955329937
 20
12.4714029567
 40
0.015
100
AcDbArc
 50
184.2891533288
 51
270.0
  0
ARC
  5
3BE
100
AcDbEntity
  8
0
100
AcDbCircle
 62
7
  6
CONTINUOUS
 10
9.677698737
 20
12.4714029567
 40
0.015
100
AcDbArc
 50
270.0
 51
355.7108466712
  0
ARC
  5
3BF
100
AcDbEntity
  8
0
100
AcDbCircle
 62
7
  6
CONTINUOUS
 10
9.9733172913
 20
12.5064029567
 40
0.015
100
AcDbArc
 50
184.2891533288
 51
270.0
  0
ARC
  5
3C0
100
AcDbEntity
  8
0
100
AcDbCircle
 62
7
  6
CONTINUOUS
 10
10.0554830346
 20
12.5064029567
 40
0.015
100
AcDbArc
 50
270.0
 51
355.7108466712
  0
ARC
  5
3C1
100
AcDbEntity
  8
0
100
AcDbCircle
 62
7
  6
CONTINUOUS
 10
9.5623369484
 20
12.5064029567
 40
0.015
100
AcDbArc
 50
184.2891533288
 51
270.0
  0
ARC
  5
3C2
100
AcDbEntity
  8
0
100
AcDbCircle
 62
7
  6
CONTINUOUS
 10
9.6445026917
 20
12.5064029567
 40
0.015
100
AcDbArc
 50
270.0
 51
355.7108466712
  0
ARC
  5
3C3
100
AcDbEntity
  8
0
100
AcDbCircle
 62
7
  6
CONTINUOUS
 10
9.9370451322
 20
13.4478089166
 40
1.0
100
AcDbArc
 50
260.6273191301
 51
267.549018051
  0
ARC
  5
3C4
100
AcDbEntity
  8
0
100
AcDbCircle
 62
7
  6
CONTINUOUS
 10
9.5264512513
 20
13.4689992631
 40
1.0
100
AcDbArc
 50
262.7783136043
 51
266.542266468
  0
ARC
  5
3C5
100
AcDbEntity
  8
0
100
AcDbCircle
 62
7
  6
CONTINUOUS
 10
9.5076923427
 20
13.9134029567
 40
0.03
100
AcDbArc
 50
90.0
 51
180.0
  0
ARC
  5
3C6
100
AcDbEntity
  8
0
100
AcDbCircle
 62
7
  6
CONTINUOUS
 10
10.4151745767
 20
12.3341741168
 40
0.1360392165
100
AcDbArc
 50
94.11209517
 51
94.3937752382
  0
ARC
  5
3C7
100
AcDbEntity
  8
0
100
AcDbCircle
 62
7
  6
CONTINUOUS
 10
10.8966094711
 20
12.4064029567
 40
0.015
100
AcDbArc
 50
184.2891533288
 51
270.0
  0
ARC
  5
3C8
100
AcDbEntity
  8
0
100
AcDbCircle
 62
7
  6
CONTINUOUS
 10
10.420295499
 20
12.4064029567
 40
0.015
100
AcDbArc
 50
199.4043838073
 51
270.0
  0
ARC
  5
3C9
100
AcDbEntity
  8
0
100
AcDbCircle
 62
7
  6
CONTINUOUS
 10
10.5024612423
 20
12.4064029567
 40
0.015
100
AcDbArc
 50
270.0
 51
355.7108466712
  0
ARC
  5
3CA
100
AcDbEntity
  8
0
100
AcDbCircle
 62
7
  6
CONTINUOUS
 10
10.8966094711
 20
12.4164029567
 40
0.015
100
AcDbArc
 50
184.2891533288
 51
270.0
  0
ARC
  5
3CB
100
AcDbEntity
  8
0
100
AcDbCircle
 62
7
  6
CONTINUOUS
 10
10.4066094711
 20
12.4164029567
 40
0.015
100
AcDbArc
 50
184.2891533288
 51
270.0
  0
ARC
  5
3CC
100
AcDbEntity
  8
0
100
AcDbCircle
 62
7
  6
CONTINUOUS
 10
10.4887752144
 20
12.4164029567
 40
0.015
100
AcDbArc
 50
270.0
 51
355.7108466712
  0
ARC
  5
3CD
100
AcDbEntity
  8
0
100
AcDbCircle
 62
7
  6
CONTINUOUS
 10
10.8966094711
 20
12.4414029567
 40
0.015
100
AcDbArc
 50
184.2891533288
 51
270.0
  0
ARC
  5
3CE
100
AcDbEntity
  8
0
100
AcDbCircle
 62
7
  6
CONTINUOUS
 10
10.414361069
 20
12.4414029567
 40
0.015
100
AcDbArc
 50
184.2891533288
 51
270.0
  0
ARC
  5
3CF
100
AcDbEntity
  8
0
100
AcDbCircle
 62
7
  6
CONTINUOUS
 10
10.4965268123
 20
12.4414029567
 40
0.015
100
AcDbArc
 50
270.0
 51
355.7108466712
  0
ARC
  5
3D0
100
AcDbEntity
  8
0
100
AcDbCircle
 62
7
  6
CONTINUOUS
 10
10.8966094711
 20
12.4714029567
 40
0.015
100
AcDbArc
 50
184.2891533288
 51
270.0
  0
ARC
  5
3D1
100
AcDbEntity
  8
0
100
AcDbCircle
 62
7
  6
CONTINUOUS
 10
10.4203824281
 20
12.4714029567
 40
0.015
100
AcDbArc
 50
184.2891533288
 51
270.0
  0
ARC
  5
3D2
100
AcDbEntity
  8
0
100
AcDbCircle
 62
7
  6
CONTINUOUS
 10
10.5025481714
 20
12.4714029567
 40
0.015
100
AcDbArc
 50
270.0
 51
355.7108466712
  0
ARC
  5
3D3
100
AcDbEntity
  8
0
100
AcDbCircle
 62
7
  6
CONTINUOUS
 10
10.8966094711
 20
12.5064029567
 40
0.015
100
AcDbArc
 50
184.2891533288
 51
270.0
  0
ARC
  5
3D4
100
AcDbEntity
  8
0
100
AcDbCircle
 62
7
  6
CONTINUOUS
 10
10.4246499329
 20
12.5064029567
 40
0.015
100
AcDbArc
 50
184.2891533288
 51
270.0
  0
ARC
  5
3D5
100
AcDbEntity
  8
0
100
AcDbCircle
 62
7
  6
CONTINUOUS
 10
10.5068156762
 20
12.5064029567
 40
0.015
100
AcDbArc
 50
270.0
 51
355.7108466712
  0
ARC
  5
3D6
100
AcDbEntity
  8
0
100
AcDbCircle
 62
7
  6
CONTINUOUS
 10
10.3475927716
 20
13.4338450258
 40
1.0
100
AcDbArc
 50
262.1497539613
 51
268.5548996513
  0
ARC
  5
3D7
100
AcDbEntity
  8
0
100
AcDbCircle
 62
7
  6
CONTINUOUS
 10
10.6731923427
 20
15.1328621866
 40
0.188
100
AcDbArc
 50
204.9175653171
 51
225.0
  0
ARC
  5
3D8
100
AcDbEntity
  8
0
100
AcDbCircle
 62
7
  6
CONTINUOUS
 10
10.5355300827
 20
14.891515212
 40
0.08
100
AcDbArc
 50
314.9741595356
 51
45.0
  0
ARC
  5
3D9
100
AcDbEntity
  8
0
100
AcDbCircle
 62
7
  6
CONTINUOUS
 10
10.2076923427
 20
13.9734029567
 40
0.03
100
AcDbArc
 50
270.0
 51
360.0
  0
ARC
  5
3DA
100
AcDbEntity
  8
0
100
AcDbCircle
 62
7
  6
CONTINUOUS
 10
10.2576923427
 20
14.1974029567
 40
0.02
100
AcDbArc
 50
180.0
 51
270.0
  0
ARC
  5
3DB
100
AcDbEntity
  8
0
100
AcDbCircle
 62
7
  6
CONTINUOUS
 10
10.2576923427
 20
14.1574029567
 40
0.02
100
AcDbArc
 50
90.0
 51
180.0
  0
CIRCLE
  5
3DC
100
AcDbEntity
  8
0
100
AcDbCircle
 62
7
  6
CONTINUOUS
 10
10.9376923427
 20
2.7049900369
 40
3.0
  0
CIRCLE
  5
3DD
100
AcDbEntity
  8
0
100
AcDbCircle
 62
9
  6
CONTINUOUS
 10
10.9376923427
 20
2.7049900369
 40
2.9709762382
  0
CIRCLE
  5
3DE
100
AcDbEntity
  8
0
100
AcDbCircle
 62
9
  6
CONTINUOUS
 10
10.9376923427
 20
2.7049900369
 40
2.9510523443
  0
ARC
  5
3DF
100
AcDbEntity
  8
0
100
AcDbCircle
 62
7
  6
CONTINUOUS
 10
10.9376923427
 20
2.7049900369
 40
0.43
100
AcDbArc
 50
252.125809042
 51
253.4464960477
  0
ARC
  5
3E0
100
AcDbEntity
  8
0
100
AcDbCircle
 62
7
  6
CONTINUOUS
 10
10.9376923427
 20
2.7049900369
 40
0.43
100
AcDbArc
 50
109.6437136923
 51
252.0577104569
  0
ARC
  5
3E1
100
AcDbEntity
  8
0
100
AcDbCircle
 62
7
  6
CONTINUOUS
 10
10.9376923427
 20
2.7049900369
 40
0.43
100
AcDbArc
 50
287.9259541885
 51
70.3562863077
  0
ARC
  5
3E2
100
AcDbEntity
  8
0
100
AcDbCircle
 62
9
  6
CONTINUOUS
 10
10.9376950652
 20
2.6767059072
 40
0.3899984887
100
AcDbArc
 50
293.8988222914
 51
66.1011777086
  0
ARC
  5
3E3
100
AcDbEntity
  8
0
100
AcDbCircle
 62
7
  6
CONTINUOUS
 10
11.0156923427
 20
0.1849900369
 40
0.04
100
AcDbArc
 50
270.0
 51
360.0
  0
ARC
  5
3E4
100
AcDbEntity
  8
0
100
AcDbCircle
 62
7
  6
CONTINUOUS
 10
11.0156923427
 20
3.2919900369
 40
0.04
100
AcDbArc
 50
0.0
 51
90.0
  0
ARC
  5
3E5
100
AcDbEntity
  8
0
100
AcDbCircle
 62
7
  6
CONTINUOUS
 10
11.0956923427
 20
3.1476344378
 40
0.0399997458
100
AcDbArc
 50
179.9968701762
 51
250.3552341
  0
ARC
  5
3E6
100
AcDbEntity
  8
0
100
AcDbCircle
 62
7
  6
CONTINUOUS
 10
11.5277919138
 20
13.4338450258
 40
1.0
100
AcDbArc
 50
271.4451003487
 51
277.8502460387
  0
ARC
  5
3E7
100
AcDbEntity
  8
0
100
AcDbCircle
 62
7
  6
CONTINUOUS
 10
11.4603989847
 20
12.3367134584
 40
0.1334928683
100
AcDbArc
 50
85.6071765492
 51
85.8907161044
  0
ARC
  5
3E8
100
AcDbEntity
  8
0
100
AcDbCircle
 62
7
  6
CONTINUOUS
 10
11.3729234432
 20
12.4064029567
 40
0.015
100
AcDbArc
 50
184.2891533288
 51
270.0
  0
ARC
  5
3E9
100
AcDbEntity
  8
0
100
AcDbCircle
 62
7
  6
CONTINUOUS
 10
11.4550891865
 20
12.4064029567
 40
0.015
100
AcDbArc
 50
270.0
 51
340.5956161927
  0
ARC
  5
3EA
100
AcDbEntity
  8
0
100
AcDbCircle
 62
7
  6
CONTINUOUS
 10
10.9787752144
 20
12.4064029567
 40
0.015
100
AcDbArc
 50
270.0
 51
355.7108466712
  0
ARC
  5
3EB
100
AcDbEntity
  8
0
100
AcDbCircle
 62
7
  6
CONTINUOUS
 10
11.3866094711
 20
12.4164029567
 40
0.015
100
AcDbArc
 50
184.2891533288
 51
270.0
  0
ARC
  5
3EC
100
AcDbEntity
  8
0
100
AcDbCircle
 62
7
  6
CONTINUOUS
 10
11.4687752144
 20
12.4164029567
 40
0.015
100
AcDbArc
 50
270.0
 51
355.7108466712
  0
ARC
  5
3ED
100
AcDbEntity
  8
0
100
AcDbCircle
 62
7
  6
CONTINUOUS
 10
10.9787752144
 20
12.4164029567
 40
0.015
100
AcDbArc
 50
270.0
 51
355.7108466712
  0
ARC
  5
3EE
100
AcDbEntity
  8
0
100
AcDbCircle
 62
7
  6
CONTINUOUS
 10
11.3788578732
 20
12.4414029567
 40
0.015
100
AcDbArc
 50
184.2891533288
 51
270.0
  0
ARC
  5
3EF
100
AcDbEntity
  8
0
100
AcDbCircle
 62
7
  6
CONTINUOUS
 10
11.4610236165
 20
12.4414029567
 40
0.015
100
AcDbArc
 50
270.0
 51
355.7108466712
  0
ARC
  5
3F0
100
AcDbEntity
  8
0
100
AcDbCircle
 62
7
  6
CONTINUOUS
 10
10.9787752144
 20
12.4414029567
 40
0.015
100
AcDbArc
 50
270.0
 51
355.7108466712
  0
ARC
  5
3F1
100
AcDbEntity
  8
0
100
AcDbCircle
 62
7
  6
CONTINUOUS
 10
11.3728365141
 20
12.4714029567
 40
0.015
100
AcDbArc
 50
184.2891533288
 51
270.0
  0
ARC
  5
3F2
100
AcDbEntity
  8
0
100
AcDbCircle
 62
7
  6
CONTINUOUS
 10
11.4550022574
 20
12.4714029567
 40
0.015
100
AcDbArc
 50
270.0
 51
355.7108466712
  0
ARC
  5
3F3
100
AcDbEntity
  8
0
100
AcDbCircle
 62
7
  6
CONTINUOUS
 10
10.9787752144
 20
12.4714029567
 40
0.015
100
AcDbArc
 50
270.0
 51
355.7108466712
  0
ARC
  5
3F4
100
AcDbEntity
  8
0
100
AcDbCircle
 62
7
  6
CONTINUOUS
 10
11.3685690092
 20
12.5064029567
 40
0.015
100
AcDbArc
 50
184.2891533288
 51
270.0
  0
ARC
  5
3F5
100
AcDbEntity
  8
0
100
AcDbCircle
 62
7
  6
CONTINUOUS
 10
11.4507347526
 20
12.5064029567
 40
0.015
100
AcDbArc
 50
270.0
 51
355.7108466712
  0
ARC
  5
3F6
100
AcDbEntity
  8
0
100
AcDbCircle
 62
7
  6
CONTINUOUS
 10
10.9787752144
 20
12.5064029567
 40
0.015
100
AcDbArc
 50
270.0
 51
355.7108466712
  0
ARC
  5
3F7
100
AcDbEntity
  8
0
100
AcDbCircle
 62
7
  6
CONTINUOUS
 10
10.9376923427
 20
17.7049900369
 40
1.125
100
AcDbArc
 50
291.1729873384
 51
248.8270126592
  0
ARC
  5
3F8
100
AcDbEntity
  8
0
100
AcDbCircle
 62
9
  6
CONTINUOUS
 10
10.9376923427
 20
17.7049900369
 40
1.095
100
AcDbArc
 50
291.7804681619
 51
248.2195318227
  0
ARC
  5
3F9
100
AcDbEntity
  8
0
100
AcDbCircle
 62
7
  6
CONTINUOUS
 10
10.9376923427
 20
14.4889900369
 40
0.489
100
AcDbArc
 50
30.394893546
 51
45.0258404644
  0
ARC
  5
3FA
100
AcDbEntity
  8
0
100
AcDbCircle
 62
7
  6
CONTINUOUS
 10
10.9376923427
 20
14.4889900369
 40
0.489
100
AcDbArc
 50
134.9741595356
 51
149.605106454
  0
ARC
  5
3FB
100
AcDbEntity
  8
0
100
AcDbCircle
 62
7
  6
CONTINUOUS
 10
10.9376923427
 20
17.7049900369
 40
0.40625
100
AcDbArc
 50
0.0
 51
180.0
  0
ARC
  5
3FC
100
AcDbEntity
  8
0
100
AcDbCircle
 62
7
  6
CONTINUOUS
 10
11.2021923427
 20
15.1328621866
 40
0.188
100
AcDbArc
 50
315.0
 51
335.0824346829
  0
ARC
  5
3FD
100
AcDbEntity
  8
0
100
AcDbCircle
 62
7
  6
CONTINUOUS
 10
11.3398546028
 20
14.891515212
 40
0.08
100
AcDbArc
 50
135.0
 51
225.0258404644
  0
ARC
  5
3FE
100
AcDbEntity
  8
0
100
AcDbCircle
 62
7
  6
CONTINUOUS
 10
11.6176923427
 20
14.1974029567
 40
0.02
100
AcDbArc
 50
270.0
 51
360.0
  0
ARC
  5
3FF
100
AcDbEntity
  8
0
100
AcDbCircle
 62
7
  6
CONTINUOUS
 10
11.6176923427
 20
14.1574029567
 40
0.02
100
AcDbArc
 50
0.0
 51
90.0
  0
ARC
  5
400
100
AcDbEntity
  8
0
100
AcDbCircle
 62
7
  6
CONTINUOUS
 10
12.2531910645
 20
10.5974011853
 40
1.8739105455
100
AcDbArc
 50
92.1836726219
 51
92.8876396348
  0
ARC
  5
401
100
AcDbEntity
  8
0
100
AcDbCircle
 62
7
  6
CONTINUOUS
 10
11.9383395533
 20
13.4478089166
 40
1.0
100
AcDbArc
 50
272.450981949
 51
279.3726808699
  0
ARC
  5
402
100
AcDbEntity
  8
0
100
AcDbCircle
 62
7
  6
CONTINUOUS
 10
12.3489334342
 20
13.4689992631
 40
1.0
100
AcDbArc
 50
273.457733532
 51
277.2216863957
  0
ARC
  5
403
100
AcDbEntity
  8
0
100
AcDbCircle
 62
7
  6
CONTINUOUS
 10
12.3676923427
 20
13.9134029567
 40
0.03
100
AcDbArc
 50
0.0
 51
90.0
  0
ARC
  5
404
100
AcDbEntity
  8
0
100
AcDbCircle
 62
7
  6
CONTINUOUS
 10
11.6676923427
 20
13.9734029567
 40
0.03
100
AcDbArc
 50
180.0
 51
270.0
  0
ARC
  5
405
100
AcDbEntity
  8
0
100
AcDbCircle
 62
7
  6
CONTINUOUS
 10
11.8766094711
 20
12.4164029567
 40
0.015
100
AcDbArc
 50
184.2891533288
 51
270.0
  0
ARC
  5
406
100
AcDbEntity
  8
0
100
AcDbCircle
 62
7
  6
CONTINUOUS
 10
11.9587752144
 20
12.4164029567
 40
0.015
100
AcDbArc
 50
270.0
 51
355.7108466712
  0
ARC
  5
407
100
AcDbEntity
  8
0
100
AcDbCircle
 62
7
  6
CONTINUOUS
 10
11.7453143668
 20
12.4164029567
 40
0.015
100
AcDbArc
 50
184.2891533288
 51
270.0
  0
ARC
  5
408
100
AcDbEntity
  8
0
100
AcDbCircle
 62
7
  6
CONTINUOUS
 10
11.8274801101
 20
12.4164029567
 40
0.015
100
AcDbArc
 50
270.0
 51
355.7108466712
  0
ARC
  5
409
100
AcDbEntity
  8
0
100
AcDbCircle
 62
7
  6
CONTINUOUS
 10
12.2851884028
 20
12.4414029567
 40
0.015
100
AcDbArc
 50
184.2891533288
 51
270.0
  0
ARC
  5
40A
100
AcDbEntity
  8
0
100
AcDbCircle
 62
7
  6
CONTINUOUS
 10
12.3673541461
 20
12.4414029567
 40
0.015
100
AcDbArc
 50
270.0
 51
355.7108466712
  0
ARC
  5
40B
100
AcDbEntity
  8
0
100
AcDbCircle
 62
7
  6
CONTINUOUS
 10
12.1177052904
 20
12.4414029567
 40
0.015
100
AcDbArc
 50
184.2891533288
 51
270.0
  0
ARC
  5
40C
100
AcDbEntity
  8
0
100
AcDbCircle
 62
7
  6
CONTINUOUS
 10
12.1998710337
 20
12.4414029567
 40
0.015
100
AcDbArc
 50
270.0
 51
355.7108466712
  0
ARC
  5
40D
100
AcDbEntity
  8
0
100
AcDbCircle
 62
7
  6
CONTINUOUS
 10
11.8029400007
 20
12.4414029567
 40
0.015
100
AcDbArc
 50
184.2891533288
 51
270.0
  0
ARC
  5
40E
100
AcDbEntity
  8
0
100
AcDbCircle
 62
7
  6
CONTINUOUS
 10
11.8851057441
 20
12.4414029567
 40
0.015
100
AcDbArc
 50
270.0
 51
355.7108466712
  0
ARC
  5
40F
100
AcDbEntity
  8
0
100
AcDbCircle
 62
7
  6
CONTINUOUS
 10
12.1976859485
 20
12.4714029567
 40
0.015
100
AcDbArc
 50
184.2891533288
 51
270.0
  0
ARC
  5
410
100
AcDbEntity
  8
0
100
AcDbCircle
 62
7
  6
CONTINUOUS
 10
12.2798516918
 20
12.4714029567
 40
0.015
100
AcDbArc
 50
270.0
 51
355.7108466712
  0
ARC
  5
411
100
AcDbEntity
  8
0
100
AcDbCircle
 62
7
  6
CONTINUOUS
 10
11.8166094711
 20
12.4714029567
 40
0.015
100
AcDbArc
 50
184.2891533288
 51
270.0
  0
ARC
  5
412
100
AcDbEntity
  8
0
100
AcDbCircle
 62
7
  6
CONTINUOUS
 10
11.8987752144
 20
12.4714029567
 40
0.015
100
AcDbArc
 50
270.0
 51
355.7108466712
  0
ARC
  5
413
100
AcDbEntity
  8
0
100
AcDbCircle
 62
7
  6
CONTINUOUS
 10
12.2308819938
 20
12.5064029567
 40
0.015
100
AcDbArc
 50
184.2891533288
 51
270.0
  0
ARC
  5
414
100
AcDbEntity
  8
0
100
AcDbCircle
 62
7
  6
CONTINUOUS
 10
12.3130477371
 20
12.5064029567
 40
0.015
100
AcDbArc
 50
270.0
 51
355.7108466712
  0
ARC
  5
415
100
AcDbEntity
  8
0
100
AcDbCircle
 62
7
  6
CONTINUOUS
 10
11.8199016509
 20
12.5064029567
 40
0.015
100
AcDbArc
 50
184.2891533288
 51
270.0
  0
ARC
  5
416
100
AcDbEntity
  8
0
100
AcDbCircle
 62
7
  6
CONTINUOUS
 10
11.9020673942
 20
12.5064029567
 40
0.015
100
AcDbArc
 50
270.0
 51
355.7108466712
  0
ARC
  5
417
100
AcDbEntity
  8
0
100
AcDbCircle
 62
7
  6
CONTINUOUS
 10
12.606371382
 20
7.5396360582
 40
4.9361494141
100
AcDbArc
 50
93.2529767157
 51
93.6310408412
  0
ARC
  5
418
100
AcDbEntity
  8
0
100
AcDbCircle
 62
7
  6
CONTINUOUS
 10
13.6107119979
 20
8.0371231403
 40
4.5148975568
100
AcDbArc
 50
95.2797501099
 51
95.801015905
  0
ARC
  5
419
100
AcDbEntity
  8
0
100
AcDbCircle
 62
7
  6
CONTINUOUS
 10
12.6477155288
 20
13.4889719364
 40
1.0
100
AcDbArc
 50
270.0
 51
270.5629873164
  0
ARC
  5
41A
100
AcDbEntity
  8
0
100
AcDbCircle
 62
7
  6
CONTINUOUS
 10
12.7595736981
 20
13.4974382109
 40
1.0
100
AcDbArc
 50
274.4656691658
 51
275.0926073438
  0
ARC
  5
41B
100
AcDbEntity
  8
0
100
AcDbCircle
 62
7
  6
CONTINUOUS
 10
12.7595736981
 20
13.4974382109
 40
1.0
100
AcDbArc
 50
281.5966773488
 51
282.4803903978
  0
ARC
  5
41C
100
AcDbEntity
  8
0
100
AcDbCircle
 62
7
  6
CONTINUOUS
 10
13.0026923427
 20
12.3990219307
 40
0.125
100
AcDbArc
 50
98.4002627544
 51
102.4803903978
  0
ARC
  5
41D
100
AcDbEntity
  8
0
100
AcDbCircle
 62
7
  6
CONTINUOUS
 10
13.8626923427
 20
12.7437234647
 40
0.03
100
AcDbArc
 50
300.0
 51
360.0
  0
ARC
  5
41E
100
AcDbEntity
  8
0
100
AcDbCircle
 62
7
  6
CONTINUOUS
 10
13.5768231074
 20
12.5786767847
 40
0.03
100
AcDbArc
 50
283.2395482929
 51
300.0
  0
ARC
  5
41F
100
AcDbEntity
  8
0
100
AcDbCircle
 62
7
  6
CONTINUOUS
 10
13.8626923427
 20
13.6224029567
 40
0.03
100
AcDbArc
 50
0.0
 51
90.0
  0
ARC
  5
420
100
AcDbEntity
  8
0
100
AcDbCircle
 62
7
  6
CONTINUOUS
 10
12.4276923427
 20
13.6824029567
 40
0.03
100
AcDbArc
 50
180.0
 51
270.0
  0
ARC
  5
421
100
AcDbEntity
  8
0
100
AcDbCircle
 62
7
  6
CONTINUOUS
 10
12.8187752144
 20
12.4714029567
 40
0.015
100
AcDbArc
 50
270.0
 51
355.7108466712
  0
ARC
  5
422
100
AcDbEntity
  8
0
100
AcDbCircle
 62
7
  6
CONTINUOUS
 10
12.6739129914
 20
12.4714029567
 40
0.015
100
AcDbArc
 50
184.2891533288
 51
270.0
  0
ARC
  5
423
100
AcDbEntity
  8
0
100
AcDbCircle
 62
7
  6
CONTINUOUS
 10
12.7560787348
 20
12.4714029567
 40
0.015
100
AcDbArc
 50
270.0
 51
355.7108466712
  0
ARC
  5
424
100
AcDbEntity
  8
0
100
AcDbCircle
 62
7
  6
CONTINUOUS
 10
12.490096214
 20
12.4714029567
 40
0.015
100
AcDbArc
 50
184.2891533288
 51
270.0
  0
ARC
  5
425
100
AcDbEntity
  8
0
100
AcDbCircle
 62
7
  6
CONTINUOUS
 10
12.5722619574
 20
12.4714029567
 40
0.015
100
AcDbArc
 50
270.0
 51
355.7108466712
  0
ARC
  5
426
100
AcDbEntity
  8
0
100
AcDbCircle
 62
7
  6
CONTINUOUS
 10
13.1541741736
 20
12.5064029567
 40
0.015
100
AcDbArc
 50
236.5776500062
 51
270.0
  0
ARC
  5
427
100
AcDbEntity
  8
0
100
AcDbCircle
 62
7
  6
CONTINUOUS
 10
13.2363399169
 20
12.5064029567
 40
0.015
100
AcDbArc
 50
270.0
 51
355.7108466712
  0
ARC
  5
428
100
AcDbEntity
  8
0
100
AcDbCircle
 62
7
  6
CONTINUOUS
 10
13.0555077631
 20
12.5064029567
 40
0.015
100
AcDbArc
 50
184.2891533288
 51
270.0
  0
ARC
  5
429
100
AcDbEntity
  8
0
100
AcDbCircle
 62
7
  6
CONTINUOUS
 10
13.1376735064
 20
12.5064029567
 40
0.015
100
AcDbArc
 50
270.0
 51
355.7108466712
  0
ARC
  5
42A
100
AcDbEntity
  8
0
100
AcDbCircle
 62
7
  6
CONTINUOUS
 10
12.8624871377
 20
12.5064029567
 40
0.015
100
AcDbArc
 50
184.2891533288
 51
270.0
  0
ARC
  5
42B
100
AcDbEntity
  8
0
100
AcDbCircle
 62
7
  6
CONTINUOUS
 10
12.944652881
 20
12.5064029567
 40
0.015
100
AcDbArc
 50
270.0
 51
355.7108466712
  0
ARC
  5
42C
100
AcDbEntity
  8
0
100
AcDbCircle
 62
7
  6
CONTINUOUS
 10
12.5835482249
 20
12.5064029567
 40
0.015
100
AcDbArc
 50
184.2891533288
 51
270.0
  0
ARC
  5
42D
100
AcDbEntity
  8
0
100
AcDbCircle
 62
7
  6
CONTINUOUS
 10
12.6657139682
 20
12.5064029567
 40
0.015
100
AcDbArc
 50
270.0
 51
355.7108466712
  0
ARC
  5
42E
100
AcDbEntity
  8
0
100
AcDbCircle
 62
7
  6
CONTINUOUS
 10
10.9376923427
 20
36.8253315281
 40
24.3989285714
100
AcDbArc
 50
271.2854429774
 51
271.4451003487
  0
ARC
  5
42F
100
AcDbEntity
  8
0
100
AcDbCircle
 62
7
  6
CONTINUOUS
 10
10.9376923427
 20
36.8253315281
 40
24.3989285714
100
AcDbArc
 50
273.3995135595
 51
273.457733532
  0
ARC
  5
430
100
AcDbEntity
  8
0
100
AcDbCircle
 62
7
  6
CONTINUOUS
 10
10.9376923427
 20
36.8253315281
 40
24.3989285714
100
AcDbArc
 50
268.5548996513
 51
268.7145570226
  0
ARC
  5
431
100
AcDbEntity
  8
0
100
AcDbCircle
 62
7
  6
CONTINUOUS
 10
10.9376923427
 20
36.8253315281
 40
24.3989285714
100
AcDbArc
 50
266.542266468
 51
266.6004864405
  0
ARC
  5
432
100
AcDbEntity
  8
0
100
AcDbCircle
 62
7
  6
CONTINUOUS
 10
10.9376923427
 20
36.8253315281
 40
24.3989285714
100
AcDbArc
 50
264.2464514784
 51
264.5531282714
  0
ARC
  5
433
100
AcDbEntity
  8
0
100
AcDbCircle
 62
7
  6
CONTINUOUS
 10
10.9376923427
 20
36.8253315281
 40
24.3989285714
100
AcDbArc
 50
275.4468717286
 51
275.7535485216
  0
SPLINE
  5
434
100
AcDbEntity
  8
0
100
AcDbSpline
 62
7
  6
CONTINUOUS
 70
0
 71
3
 72
8
 73
4
 74
0
 42
0.0000001
 43
0.0000001
 44
0.0000000001
 40
0.0
 40
0.0
 40
0.0
 40
0.0
 40
1.0
 40
1.0
 40
1.0
 40
1.0
 10
8.8038246785
 20
2.7017499284
 30
0.0
 10
8.8038246785
 20
2.679751292
 30
0.0
 10
8.8085995768
 20
2.6589463802
 30
0.0
 10
8.8181158878
 20
2.6393189924
 30
0.0
  0
SPLINE
  5
435
100
AcDbEntity
  8
0
100
AcDbSpline
 62
7
  6
CONTINUOUS
 70
0
 71
3
 72
8
 73
4
 74
0
 42
0.0000001
 43
0.0000001
 44
0.0000000001
 40
0.0
 40
0.0
 40
0.0
 40
0.0
 40
1.0
 40
1.0
 40
1.0
 40
1.0
 10
8.8181158878
 20
2.6393189924
 30
0.0
 10
8.8276991699
 20
2.6195534767
 30
0.0
 10
8.841682807
 20
2.6040350573
 30
0.0
 10
8.8602092451
 20
2.5926801428
 30
0.0
  0
SPLINE
  5
436
100
AcDbEntity
  8
0
100
AcDbSpline
 62
7
  6
CONTINUOUS
 70
0
 71
3
 72
8
 73
4
 74
0
 42
0.0000001
 43
0.0000001
 44
0.0000000001
 40
0.0
 40
0.0
 40
0.0
 40
0.0
 40
1.0
 40
1.0
 40
1.0
 40
1.0
 10
8.8602092451
 20
2.5926801428
 30
0.0
 10
8.8786882613
 20
2.5813542934
 30
0.0
 10
8.899834231
 20
2.5757267355
 30
0.0
 10
8.9233676646
 20
2.5757267355
 30
0.0
  0
SPLINE
  5
437
100
AcDbEntity
  8
0
100
AcDbSpline
 62
7
  6
CONTINUOUS
 70
0
 71
3
 72
8
 73
4
 74
0
 42
0.0000001
 43
0.0000001
 44
0.0000000001
 40
0.0
 40
0.0
 40
0.0
 40
0.0
 40
1.0
 40
1.0
 40
1.0
 40
1.0
 10
8.9233676646
 20
2.5757267355
 30
0.0
 10
8.9450252209
 20
2.5757267355
 30
0.0
 10
8.9653185461
 20
2.5808426972
 30
0.0
 10
8.9840770549
 20
2.5910746146
 30
0.0
  0
SPLINE
  5
438
100
AcDbEntity
  8
0
100
AcDbSpline
 62
7
  6
CONTINUOUS
 70
0
 71
3
 72
8
 73
4
 74
0
 42
0.0000001
 43
0.0000001
 44
0.0000000001
 40
0.0
 40
0.0
 40
0.0
 40
0.0
 40
1.0
 40
1.0
 40
1.0
 40
1.0
 10
8.9840770549
 20
2.5910746146
 30
0.0
 10
9.0028355871
 20
2.6013065448
 30
0.0
 10
9.0173308108
 20
2.6164838971
 30
0.0
 10
9.0275972616
 20
2.6365890231
 30
0.0
  0
SPLINE
  5
439
100
AcDbEntity
  8
0
100
AcDbSpline
 62
7
  6
CONTINUOUS
 70
0
 71
3
 72
8
 73
4
 74
0
 42
0.0000001
 43
0.0000001
 44
0.0000000001
 40
0.0
 40
0.0
 40
0.0
 40
0.0
 40
1.0
 40
1.0
 40
1.0
 40
1.0
 10
9.0275972616
 20
2.6365890231
 30
0.0
 10
9.0377946649
 20
2.656558931
 30
0.0
 10
9.0429106508
 20
2.6792396979
 30
0.0
 10
9.0429106508
 20
2.7046489717
 30
0.0
  0
SPLINE
  5
43A
100
AcDbEntity
  8
0
100
AcDbSpline
 62
7
  6
CONTINUOUS
 70
0
 71
3
 72
8
 73
4
 74
0
 42
0.0000001
 43
0.0000001
 44
0.0000000001
 40
0.0
 40
0.0
 40
0.0
 40
0.0
 40
1.0
 40
1.0
 40
1.0
 40
1.0
 10
9.0429106508
 20
2.7046489717
 30
0.0
 10
9.0429106508
 20
2.7295466588
 30
0.0
 10
9.0379651938
 20
2.7518863605
 30
0.0
 10
9.0282448713
 20
2.7716680706
 30
0.0
  0
SPLINE
  5
43B
100
AcDbEntity
  8
0
100
AcDbSpline
 62
7
  6
CONTINUOUS
 70
0
 71
3
 72
8
 73
4
 74
0
 42
0.0000001
 43
0.0000001
 44
0.0000000001
 40
0.0
 40
0.0
 40
0.0
 40
0.0
 40
1.0
 40
1.0
 40
1.0
 40
1.0
 10
9.0282448713
 20
2.7716680706
 30
0.0
 10
9.0185245429
 20
2.7914497928
 30
0.0
 10
9.0043703769
 20
2.8067976759
 30
0.0
 10
8.9858934816
 20
2.8177816416
 30
0.0
  0
SPLINE
  5
43C
100
AcDbEntity
  8
0
100
AcDbSpline
 62
7
  6
CONTINUOUS
 70
0
 71
3
 72
8
 73
4
 74
0
 42
0.0000001
 43
0.0000001
 44
0.0000000001
 40
0.0
 40
0.0
 40
0.0
 40
0.0
 40
1.0
 40
1.0
 40
1.0
 40
1.0
 10
8.9858934816
 20
2.8177816416
 30
0.0
 10
8.9673649226
 20
2.8287963198
 30
0.0
 10
8.9465600107
 20
2.8344238774
 30
0.0
 10
8.9235381935
 20
2.8344238774
 30
0.0
  0
SPLINE
  5
43D
100
AcDbEntity
  8
0
100
AcDbSpline
 62
7
  6
CONTINUOUS
 70
0
 71
3
 72
8
 73
4
 74
0
 42
0.0000001
 43
0.0000001
 44
0.0000000001
 40
0.0
 40
0.0
 40
0.0
 40
0.0
 40
1.0
 40
1.0
 40
1.0
 40
1.0
 10
8.9235381935
 20
2.8344238774
 30
0.0
 10
8.8882380579
 20
2.8344238774
 30
0.0
 10
8.8594181393
 20
2.8226571606
 30
0.0
 10
8.8372039914
 20
2.7991663392
 30
0.0
  0
SPLINE
  5
43E
100
AcDbEntity
  8
0
100
AcDbSpline
 62
7
  6
CONTINUOUS
 70
0
 71
3
 72
8
 73
4
 74
0
 42
0.0000001
 43
0.0000001
 44
0.0000000001
 40
0.0
 40
0.0
 40
0.0
 40
0.0
 40
1.0
 40
1.0
 40
1.0
 40
1.0
 10
8.8372039914
 20
2.7991663392
 30
0.0
 10
8.8149092649
 20
2.7755903081
 30
0.0
 10
8.8038246785
 20
2.7431892232
 30
0.0
 10
8.8038246785
 20
2.7017499284
 30
0.0
  0
SPLINE
  5
43F
100
AcDbEntity
  8
0
100
AcDbSpline
 62
7
  6
CONTINUOUS
 70
0
 71
3
 72
8
 73
4
 74
0
 42
0.0000001
 43
0.0000001
 44
0.0000000001
 40
0.0
 40
0.0
 40
0.0
 40
0.0
 40
1.0
 40
1.0
 40
1.0
 40
1.0
 10
12.6256186687
 20
2.6676435174
 30
0.0
 10
12.6210142993
 20
2.6464975403
 30
0.0
 10
12.6123171769
 20
2.6306380594
 30
0.0
 10
12.5995344868
 20
2.6200563612
 30
0.0
  0
SPLINE
  5
440
100
AcDbEntity
  8
0
100
AcDbSpline
 62
7
  6
CONTINUOUS
 70
0
 71
3
 72
8
 73
4
 74
0
 42
0.0000001
 43
0.0000001
 44
0.0000000001
 40
0.0
 40
0.0
 40
0.0
 40
0.0
 40
1.0
 40
1.0
 40
1.0
 40
1.0
 10
12.5995344868
 20
2.6200563612
 30
0.0
 10
12.5865668379
 20
2.6093215515
 30
0.0
 10
12.5708778821
 20
2.6040350573
 30
0.0
 10
12.5524604194
 20
2.6040350573
 30
0.0
  0
SPLINE
  5
441
100
AcDbEntity
  8
0
100
AcDbSpline
 62
7
  6
CONTINUOUS
 70
0
 71
3
 72
8
 73
4
 74
0
 42
0.0000001
 43
0.0000001
 44
0.0000000001
 40
0.0
 40
0.0
 40
0.0
 40
0.0
 40
1.0
 40
1.0
 40
1.0
 40
1.0
 10
12.5524604194
 20
2.6040350573
 30
0.0
 10
12.5371125363
 20
2.6040350573
 30
0.0
 10
12.5229583703
 20
2.6079572943
 30
0.0
 10
12.5099753468
 20
2.6157640804
 30
0.0
  0
SPLINE
  5
442
100
AcDbEntity
  8
0
100
AcDbSpline
 62
7
  6
CONTINUOUS
 70
0
 71
3
 72
8
 73
4
 74
0
 42
0.0000001
 43
0.0000001
 44
0.0000000001
 40
0.0
 40
0.0
 40
0.0
 40
0.0
 40
1.0
 40
1.0
 40
1.0
 40
1.0
 10
12.5099753468
 20
2.6157640804
 30
0.0
 10
12.4968669661
 20
2.6236462445
 30
0.0
 10
12.4871466406
 20
2.6354129577
 30
0.0
 10
12.4810074858
 20
2.6512724388
 30
0.0
  0
SPLINE
  5
443
100
AcDbEntity
  8
0
100
AcDbSpline
 62
7
  6
CONTINUOUS
 70
0
 71
3
 72
8
 73
4
 74
0
 42
0.0000001
 43
0.0000001
 44
0.0000000001
 40
0.0
 40
0.0
 40
0.0
 40
0.0
 40
1.0
 40
1.0
 40
1.0
 40
1.0
 10
12.4810074858
 20
2.6512724388
 30
0.0
 10
12.4748683297
 20
2.6671319233
 30
0.0
 10
12.4717987538
 20
2.6857199149
 30
0.0
 10
12.4717987538
 20
2.7070364283
 30
0.0
  0
SPLINE
  5
444
100
AcDbEntity
  8
0
100
AcDbSpline
 62
7
  6
CONTINUOUS
 70
0
 71
3
 72
8
 73
4
 74
0
 42
0.0000001
 43
0.0000001
 44
0.0000000001
 40
0.0
 40
0.0
 40
0.0
 40
0.0
 40
1.0
 40
1.0
 40
1.0
 40
1.0
 10
12.4717987538
 20
2.7070364283
 30
0.0
 10
12.4717987538
 20
2.7234074996
 30
0.0
 10
12.4743567355
 20
2.7394375132
 30
0.0
 10
12.4795665086
 20
2.7549814279
 30
0.0
  0
SPLINE
  5
445
100
AcDbEntity
  8
0
100
AcDbSpline
 62
7
  6
CONTINUOUS
 70
0
 71
3
 72
8
 73
4
 74
0
 42
0.0000001
 43
0.0000001
 44
0.0000000001
 40
0.0
 40
0.0
 40
0.0
 40
0.0
 40
1.0
 40
1.0
 40
1.0
 40
1.0
 10
12.4795665086
 20
2.7549814279
 30
0.0
 10
12.4847591915
 20
2.7704743521
 30
0.0
 10
12.4937973865
 20
2.7829231845
 30
0.0
 10
12.5067578302
 20
2.7921319201
 30
0.0
  0
SPLINE
  5
446
100
AcDbEntity
  8
0
100
AcDbSpline
 62
7
  6
CONTINUOUS
 70
0
 71
3
 72
8
 73
4
 74
0
 42
0.0000001
 43
0.0000001
 44
0.0000000001
 40
0.0
 40
0.0
 40
0.0
 40
0.0
 40
1.0
 40
1.0
 40
1.0
 40
1.0
 10
12.5067578302
 20
2.7921319201
 30
0.0
 10
12.5197182618
 20
2.8013406472
 30
0.0
 10
12.5357482754
 20
2.8059450166
 30
0.0
 10
12.5550183975
 20
2.8059450166
 30
0.0
  0
SPLINE
  5
447
100
AcDbEntity
  8
0
100
AcDbSpline
 62
7
  6
CONTINUOUS
 70
0
 71
3
 72
8
 73
4
 74
0
 42
0.0000001
 43
0.0000001
 44
0.0000000001
 40
0.0
 40
0.0
 40
0.0
 40
0.0
 40
1.0
 40
1.0
 40
1.0
 40
1.0
 10
12.5550183975
 20
2.8059450166
 30
0.0
 10
12.5717305415
 20
2.8059450166
 30
0.0
 10
12.5855436348
 20
2.8016817199
 30
0.0
 10
12.5965560573
 20
2.7934010615
 30
0.0
  0
SPLINE
  5
448
100
AcDbEntity
  8
0
100
AcDbSpline
 62
7
  6
CONTINUOUS
 70
0
 71
3
 72
8
 73
4
 74
0
 42
0.0000001
 43
0.0000001
 44
0.0000000001
 40
0.0
 40
0.0
 40
0.0
 40
0.0
 40
1.0
 40
1.0
 40
1.0
 40
1.0
 10
12.5965560573
 20
2.7934010615
 30
0.0
 10
12.6075422787
 20
2.7851401047
 30
0.0
 10
12.6160688721
 20
2.7718385981
 30
0.0
 10
12.6218669735
 20
2.7537622081
 30
0.0
  0
SPLINE
  5
449
100
AcDbEntity
  8
0
100
AcDbSpline
 62
7
  6
CONTINUOUS
 70
0
 71
3
 72
8
 73
4
 74
0
 42
0.0000001
 43
0.0000001
 44
0.0000000001
 40
0.0
 40
0.0
 40
0.0
 40
0.0
 40
1.0
 40
1.0
 40
1.0
 40
1.0
 10
12.6544385873
 20
2.7614361422
 30
0.0
 10
12.6476173126
 20
2.7844579743
 30
0.0
 10
12.6358505957
 20
2.8023638503
 30
0.0
 10
12.6187566337
 20
2.8150988443
 30
0.0
  0
SPLINE
  5
44A
100
AcDbEntity
  8
0
100
AcDbSpline
 62
7
  6
CONTINUOUS
 70
0
 71
3
 72
8
 73
4
 74
0
 42
0.0000001
 43
0.0000001
 44
0.0000000001
 40
0.0
 40
0.0
 40
0.0
 40
0.0
 40
1.0
 40
1.0
 40
1.0
 40
1.0
 10
12.6187566337
 20
2.8150988443
 30
0.0
 10
12.6017441772
 20
2.8277731167
 30
0.0
 10
12.5805982076
 20
2.8342533485
 30
0.0
 10
12.5557005279
 20
2.8342533485
 30
0.0
  0
SPLINE
  5
44B
100
AcDbEntity
  8
0
100
AcDbSpline
 62
7
  6
CONTINUOUS
 70
0
 71
3
 72
8
 73
4
 74
0
 42
0.0000001
 43
0.0000001
 44
0.0000000001
 40
0.0
 40
0.0
 40
0.0
 40
0.0
 40
1.0
 40
1.0
 40
1.0
 40
1.0
 10
12.5557005279
 20
2.8342533485
 30
0.0
 10
12.5335313626
 20
2.8342533485
 30
0.0
 10
12.5134085738
 20
2.8291373776
 30
0.0
 10
12.4949911083
 20
2.8190759844
 30
0.0
  0
SPLINE
  5
44C
100
AcDbEntity
  8
0
100
AcDbSpline
 62
7
  6
CONTINUOUS
 70
0
 71
3
 72
8
 73
4
 74
0
 42
0.0000001
 43
0.0000001
 44
0.0000000001
 40
0.0
 40
0.0
 40
0.0
 40
0.0
 40
1.0
 40
1.0
 40
1.0
 40
1.0
 10
12.4949911083
 20
2.8190759844
 30
0.0
 10
12.4765736521
 20
2.8090145962
 30
0.0
 10
12.4624194898
 20
2.7943488435
 30
0.0
 10
12.452528628
 20
2.7749081796
 30
0.0
  0
SPLINE
  5
44D
100
AcDbEntity
  8
0
100
AcDbSpline
 62
7
  6
CONTINUOUS
 70
0
 71
3
 72
8
 73
4
 74
0
 42
0.0000001
 43
0.0000001
 44
0.0000000001
 40
0.0
 40
0.0
 40
0.0
 40
0.0
 40
1.0
 40
1.0
 40
1.0
 40
1.0
 10
12.452528628
 20
2.7749081796
 30
0.0
 10
12.4426377718
 20
2.7554675268
 30
0.0
 10
12.4376923427
 20
2.7327867673
 30
0.0
 10
12.4376923427
 20
2.7068658845
 30
0.0
  0
SPLINE
  5
44E
100
AcDbEntity
  8
0
100
AcDbSpline
 62
7
  6
CONTINUOUS
 70
0
 71
3
 72
8
 73
4
 74
0
 42
0.0000001
 43
0.0000001
 44
0.0000000001
 40
0.0
 40
0.0
 40
0.0
 40
0.0
 40
1.0
 40
1.0
 40
1.0
 40
1.0
 10
12.4376923427
 20
2.7068658845
 30
0.0
 10
12.4376923427
 20
2.6829914005
 30
0.0
 10
12.4419556432
 20
2.6606516988
 30
0.0
 10
12.4508233105
 20
2.6398467904
 30
0.0
  0
SPLINE
  5
44F
100
AcDbEntity
  8
0
100
AcDbSpline
 62
7
  6
CONTINUOUS
 70
0
 71
3
 72
8
 73
4
 74
0
 42
0.0000001
 43
0.0000001
 44
0.0000000001
 40
0.0
 40
0.0
 40
0.0
 40
0.0
 40
1.0
 40
1.0
 40
1.0
 40
1.0
 10
12.4508233105
 20
2.6398467904
 30
0.0
 10
12.4596909792
 20
2.6190418789
 30
0.0
 10
12.4724808805
 20
2.6030118653
 30
0.0
 10
12.4893635545
 20
2.5920978151
 30
0.0
  0
SPLINE
  5
450
100
AcDbEntity
  8
0
100
AcDbSpline
 62
7
  6
CONTINUOUS
 70
0
 71
3
 72
8
 73
4
 74
0
 42
0.0000001
 43
0.0000001
 44
0.0000000001
 40
0.0
 40
0.0
 40
0.0
 40
0.0
 40
1.0
 40
1.0
 40
1.0
 40
1.0
 10
12.4893635545
 20
2.5920978151
 30
0.0
 10
12.5062462338
 20
2.5811837614
 30
0.0
 10
12.5282448627
 20
2.5757267355
 30
0.0
 10
12.5551889263
 20
2.5757267355
 30
0.0
  0
SPLINE
  5
451
100
AcDbEntity
  8
0
100
AcDbSpline
 62
7
  6
CONTINUOUS
 70
0
 71
3
 72
8
 73
4
 74
0
 42
0.0000001
 43
0.0000001
 44
0.0000000001
 40
0.0
 40
0.0
 40
0.0
 40
0.0
 40
1.0
 40
1.0
 40
1.0
 40
1.0
 10
12.5551889263
 20
2.5757267355
 30
0.0
 10
12.5811098092
 20
2.5757267355
 30
0.0
 10
12.6031084381
 20
2.5827185499
 30
0.0
 10
12.6211848396
 20
2.5970432468
 30
0.0
  0
SPLINE
  5
452
100
AcDbEntity
  8
0
100
AcDbSpline
 62
7
  6
CONTINUOUS
 70
0
 71
3
 72
8
 73
4
 74
0
 42
0.0000001
 43
0.0000001
 44
0.0000000001
 40
0.0
 40
0.0
 40
0.0
 40
0.0
 40
1.0
 40
1.0
 40
1.0
 40
1.0
 10
12.6211848396
 20
2.5970432468
 30
0.0
 10
12.6392612331
 20
2.6113679373
 30
0.0
 10
12.6517100804
 20
2.6320023166
 30
0.0
 10
12.6587018989
 20
2.6592874454
 30
0.0
  0
SPLINE
  5
453
100
AcDbEntity
  8
0
100
AcDbSpline
 62
7
  6
CONTINUOUS
 70
0
 71
3
 72
8
 73
4
 74
0
 42
0.0000001
 43
0.0000001
 44
0.0000000001
 40
0.0
 40
0.0
 40
0.0
 40
0.0
 40
1.0
 40
1.0
 40
1.0
 40
1.0
 10
12.6893976652
 20
2.7017499284
 30
0.0
 10
12.6893976652
 20
2.679751292
 30
0.0
 10
12.6941725634
 20
2.6589463802
 30
0.0
 10
12.7036888744
 20
2.6393189924
 30
0.0
  0
SPLINE
  5
454
100
AcDbEntity
  8
0
100
AcDbSpline
 62
7
  6
CONTINUOUS
 70
0
 71
3
 72
8
 73
4
 74
0
 42
0.0000001
 43
0.0000001
 44
0.0000000001
 40
0.0
 40
0.0
 40
0.0
 40
0.0
 40
1.0
 40
1.0
 40
1.0
 40
1.0
 10
12.7036888744
 20
2.6393189924
 30
0.0
 10
12.7132721566
 20
2.6195534767
 30
0.0
 10
12.7272557937
 20
2.6040350573
 30
0.0
 10
12.7457822318
 20
2.5926801428
 30
0.0
  0
SPLINE
  5
455
100
AcDbEntity
  8
0
100
AcDbSpline
 62
7
  6
CONTINUOUS
 70
0
 71
3
 72
8
 73
4
 74
0
 42
0.0000001
 43
0.0000001
 44
0.0000000001
 40
0.0
 40
0.0
 40
0.0
 40
0.0
 40
1.0
 40
1.0
 40
1.0
 40
1.0
 10
12.7457822318
 20
2.5926801428
 30
0.0
 10
12.764261248
 20
2.5813542934
 30
0.0
 10
12.7854072176
 20
2.5757267355
 30
0.0
 10
12.8089406513
 20
2.5757267355
 30
0.0
  0
SPLINE
  5
456
100
AcDbEntity
  8
0
100
AcDbSpline
 62
7
  6
CONTINUOUS
 70
0
 71
3
 72
8
 73
4
 74
0
 42
0.0000001
 43
0.0000001
 44
0.0000000001
 40
0.0
 40
0.0
 40
0.0
 40
0.0
 40
1.0
 40
1.0
 40
1.0
 40
1.0
 10
12.8089406513
 20
2.5757267355
 30
0.0
 10
12.8305982076
 20
2.5757267355
 30
0.0
 10
12.8508915328
 20
2.5808426972
 30
0.0
 10
12.8696500416
 20
2.5910746146
 30
0.0
  0
SPLINE
  5
457
100
AcDbEntity
  8
0
100
AcDbSpline
 62
7
  6
CONTINUOUS
 70
0
 71
3
 72
8
 73
4
 74
0
 42
0.0000001
 43
0.0000001
 44
0.0000000001
 40
0.0
 40
0.0
 40
0.0
 40
0.0
 40
1.0
 40
1.0
 40
1.0
 40
1.0
 10
12.8696500416
 20
2.5910746146
 30
0.0
 10
12.8884085738
 20
2.6013065448
 30
0.0
 10
12.9029037975
 20
2.6164838971
 30
0.0
 10
12.9131702483
 20
2.6365890231
 30
0.0
  0
SPLINE
  5
458
100
AcDbEntity
  8
0
100
AcDbSpline
 62
7
  6
CONTINUOUS
 70
0
 71
3
 72
8
 73
4
 74
0
 42
0.0000001
 43
0.0000001
 44
0.0000000001
 40
0.0
 40
0.0
 40
0.0
 40
0.0
 40
1.0
 40
1.0
 40
1.0
 40
1.0
 10
12.9131702483
 20
2.6365890231
 30
0.0
 10
12.9233676516
 20
2.656558931
 30
0.0
 10
12.9284836375
 20
2.6792396979
 30
0.0
 10
12.9284836375
 20
2.7046489717
 30
0.0
  0
SPLINE
  5
459
100
AcDbEntity
  8
0
100
AcDbSpline
 62
7
  6
CONTINUOUS
 70
0
 71
3
 72
8
 73
4
 74
0
 42
0.0000001
 43
0.0000001
 44
0.0000000001
 40
0.0
 40
0.0
 40
0.0
 40
0.0
 40
1.0
 40
1.0
 40
1.0
 40
1.0
 10
12.9284836375
 20
2.7046489717
 30
0.0
 10
12.9284836375
 20
2.7295466588
 30
0.0
 10
12.9235381805
 20
2.7518863605
 30
0.0
 10
12.913817858
 20
2.7716680706
 30
0.0
  0
SPLINE
  5
45A
100
AcDbEntity
  8
0
100
AcDbSpline
 62
7
  6
CONTINUOUS
 70
0
 71
3
 72
8
 73
4
 74
0
 42
0.0000001
 43
0.0000001
 44
0.0000000001
 40
0.0
 40
0.0
 40
0.0
 40
0.0
 40
1.0
 40
1.0
 40
1.0
 40
1.0
 10
12.913817858
 20
2.7716680706
 30
0.0
 10
12.9040975295
 20
2.7914497928
 30
0.0
 10
12.8899433636
 20
2.8067976759
 30
0.0
 10
12.8714664683
 20
2.8177816416
 30
0.0
  0
SPLINE
  5
45B
100
AcDbEntity
  8
0
100
AcDbSpline
 62
7
  6
CONTINUOUS
 70
0
 71
3
 72
8
 73
4
 74
0
 42
0.0000001
 43
0.0000001
 44
0.0000000001
 40
0.0
 40
0.0
 40
0.0
 40
0.0
 40
1.0
 40
1.0
 40
1.0
 40
1.0
 10
12.8714664683
 20
2.8177816416
 30
0.0
 10
12.8529379093
 20
2.8287963198
 30
0.0
 10
12.8321329974
 20
2.8344238774
 30
0.0
 10
12.8091111802
 20
2.8344238774
 30
0.0
  0
SPLINE
  5
45C
100
AcDbEntity
  8
0
100
AcDbSpline
 62
7
  6
CONTINUOUS
 70
0
 71
3
 72
8
 73
4
 74
0
 42
0.0000001
 43
0.0000001
 44
0.0000000001
 40
0.0
 40
0.0
 40
0.0
 40
0.0
 40
1.0
 40
1.0
 40
1.0
 40
1.0
 10
12.8091111802
 20
2.8344238774
 30
0.0
 10
12.7738110446
 20
2.8344238774
 30
0.0
 10
12.744991126
 20
2.8226571606
 30
0.0
 10
12.7227769781
 20
2.7991663392
 30
0.0
  0
SPLINE
  5
45D
100
AcDbEntity
  8
0
100
AcDbSpline
 62
7
  6
CONTINUOUS
 70
0
 71
3
 72
8
 73
4
 74
0
 42
0.0000001
 43
0.0000001
 44
0.0000000001
 40
0.0
 40
0.0
 40
0.0
 40
0.0
 40
1.0
 40
1.0
 40
1.0
 40
1.0
 10
12.7227769781
 20
2.7991663392
 30
0.0
 10
12.7004822515
 20
2.7755903081
 30
0.0
 10
12.6893976652
 20
2.7431892232
 30
0.0
 10
12.6893976652
 20
2.7017499284
 30
0.0
  0
SPLINE
  5
45E
100
AcDbEntity
  8
0
100
AcDbSpline
 62
7
  6
CONTINUOUS
 70
0
 71
3
 72
8
 73
4
 74
0
 42
0.0000001
 43
0.0000001
 44
0.0000000001
 40
0.0
 40
0.0
 40
0.0
 40
0.0
 40
1.0
 40
1.0
 40
1.0
 40
1.0
 10
13.2555641257
 20
2.5799900369
 30
0.0
 10
13.2705709063
 20
2.5799900369
 30
0.0
 10
13.2840429269
 20
2.5813542934
 30
0.0
 10
13.2956583888
 20
2.5841727455
 30
0.0
  0
SPLINE
  5
45F
100
AcDbEntity
  8
0
100
AcDbSpline
 62
7
  6
CONTINUOUS
 70
0
 71
3
 72
8
 73
4
 74
0
 42
0.0000001
 43
0.0000001
 44
0.0000000001
 40
0.0
 40
0.0
 40
0.0
 40
0.0
 40
1.0
 40
1.0
 40
1.0
 40
1.0
 10
13.2956583888
 20
2.5841727455
 30
0.0
 10
13.3072353326
 20
2.5869818513
 30
0.0
 10
13.3172967159
 20
2.5912451531
 30
0.0
 10
13.3254822311
 20
2.596702165
 30
0.0
  0
SPLINE
  5
460
100
AcDbEntity
  8
0
100
AcDbSpline
 62
7
  6
CONTINUOUS
 70
0
 71
3
 72
8
 73
4
 74
0
 42
0.0000001
 43
0.0000001
 44
0.0000000001
 40
0.0
 40
0.0
 40
0.0
 40
0.0
 40
1.0
 40
1.0
 40
1.0
 40
1.0
 10
13.3254822311
 20
2.596702165
 30
0.0
 10
13.3336677872
 20
2.6021592041
 30
0.0
 10
13.3413417064
 20
2.6098331475
 30
0.0
 10
13.3482774487
 20
2.6194232805
 30
0.0
  0
SPLINE
  5
461
100
AcDbEntity
  8
0
100
AcDbSpline
 62
7
  6
CONTINUOUS
 70
0
 71
3
 72
8
 73
4
 74
0
 42
0.0000001
 43
0.0000001
 44
0.0000000001
 40
0.0
 40
0.0
 40
0.0
 40
0.0
 40
1.0
 40
1.0
 40
1.0
 40
1.0
 10
13.3482774487
 20
2.6194232805
 30
0.0
 10
13.3551548444
 20
2.6289327369
 30
0.0
 10
13.3609528862
 20
2.6412110479
 30
0.0
 10
13.3653867282
 20
2.6558768091
 30
0.0
  0
SPLINE
  5
462
100
AcDbEntity
  8
0
100
AcDbSpline
 62
7
  6
CONTINUOUS
 70
0
 71
3
 72
8
 73
4
 74
0
 42
0.0000001
 43
0.0000001
 44
0.0000000001
 40
0.0
 40
0.0
 40
0.0
 40
0.0
 40
1.0
 40
1.0
 40
1.0
 40
1.0
 10
13.3653867282
 20
2.6558768091
 30
0.0
 10
13.3698205673
 20
2.6705425607
 30
0.0
 10
13.3720375024
 20
2.6872547047
 30
0.0
 10
13.3720375024
 20
2.7063542978
 30
0.0
  0
SPLINE
  5
463
100
AcDbEntity
  8
0
100
AcDbSpline
 62
7
  6
CONTINUOUS
 70
0
 71
3
 72
8
 73
4
 74
0
 42
0.0000001
 43
0.0000001
 44
0.0000000001
 40
0.0
 40
0.0
 40
0.0
 40
0.0
 40
1.0
 40
1.0
 40
1.0
 40
1.0
 10
13.3720375024
 20
2.7063542978
 30
0.0
 10
13.3720375024
 20
2.7285234557
 30
0.0
 10
13.368626865
 20
2.7483051793
 30
0.0
 10
13.3621466456
 20
2.7656994529
 30
0.0
  0
SPLINE
  5
464
100
AcDbEntity
  8
0
100
AcDbSpline
 62
7
  6
CONTINUOUS
 70
0
 71
3
 72
8
 73
4
 74
0
 42
0.0000001
 43
0.0000001
 44
0.0000000001
 40
0.0
 40
0.0
 40
0.0
 40
0.0
 40
1.0
 40
1.0
 40
1.0
 40
1.0
 10
13.3621466456
 20
2.7656994529
 30
0.0
 10
13.3556664311
 20
2.7830937134
 30
0.0
 10
13.3457755767
 20
2.7972478793
 30
0.0
 10
13.3325773912
 20
2.8084229677
 30
0.0
  0
SPLINE
  5
465
100
AcDbEntity
  8
0
100
AcDbSpline
 62
7
  6
CONTINUOUS
 70
0
 71
3
 72
8
 73
4
 74
0
 42
0.0000001
 43
0.0000001
 44
0.0000000001
 40
0.0
 40
0.0
 40
0.0
 40
0.0
 40
1.0
 40
1.0
 40
1.0
 40
1.0
 10
13.3325773912
 20
2.8084229677
 30
0.0
 10
13.3224126421
 20
2.817029603
 30
0.0
 10
13.3103049122
 20
2.8229982184
 30
0.0
 10
13.2959738666
 20
2.8263819413
 30
0.0
  0
SPLINE
  5
466
100
AcDbEntity
  8
0
100
AcDbSpline
 62
7
  6
CONTINUOUS
 70
0
 71
3
 72
8
 73
4
 74
0
 42
0.0000001
 43
0.0000001
 44
0.0000000001
 40
0.0
 40
0.0
 40
0.0
 40
0.0
 40
1.0
 40
1.0
 40
1.0
 40
1.0
 10
13.2959738666
 20
2.8263819413
 30
0.0
 10
13.2857482754
 20
2.8287963198
 30
0.0
 10
13.2709119641
 20
2.8299900369
 30
0.0
 10
13.2514713131
 20
2.8299900369
 30
0.0
  0
SPLINE
  5
467
100
AcDbEntity
  8
0
100
AcDbSpline
 62
7
  6
CONTINUOUS
 70
0
 71
3
 72
8
 73
4
 74
0
 42
0.0000001
 43
0.0000001
 44
0.0000000001
 40
0.0
 40
0.0
 40
0.0
 40
0.0
 40
1.0
 40
1.0
 40
1.0
 40
1.0
 10
8.8379310821
 20
2.7012383343
 30
0.0
 10
8.8379310821
 20
2.7387553827
 30
0.0
 10
8.8462871466
 20
2.7656994538
 30
0.0
 10
8.8631698274
 20
2.7817294748
 30
0.0
  0
SPLINE
  5
468
100
AcDbEntity
  8
0
100
AcDbSpline
 62
7
  6
CONTINUOUS
 70
0
 71
3
 72
8
 73
4
 74
0
 42
0.0000001
 43
0.0000001
 44
0.0000000001
 40
0.0
 40
0.0
 40
0.0
 40
0.0
 40
1.0
 40
1.0
 40
1.0
 40
1.0
 10
8.8631698274
 20
2.7817294748
 30
0.0
 10
8.8800524924
 20
2.7977594809
 30
0.0
 10
8.9001752887
 20
2.8059450166
 30
0.0
 10
8.9237087224
 20
2.8059450166
 30
0.0
  0
SPLINE
  5
469
100
AcDbEntity
  8
0
100
AcDbSpline
 62
7
  6
CONTINUOUS
 70
0
 71
3
 72
8
 73
4
 74
0
 42
0.0000001
 43
0.0000001
 44
0.0000000001
 40
0.0
 40
0.0
 40
0.0
 40
0.0
 40
1.0
 40
1.0
 40
1.0
 40
1.0
 10
8.9237087224
 20
2.8059450166
 30
0.0
 10
8.9400797937
 20
2.8059450166
 30
0.0
 10
8.9549160753
 20
2.8016817199
 30
0.0
 10
8.9682175746
 20
2.7933256525
 30
0.0
  0
SPLINE
  5
46A
100
AcDbEntity
  8
0
100
AcDbSpline
 62
7
  6
CONTINUOUS
 70
0
 71
3
 72
8
 73
4
 74
0
 42
0.0000001
 43
0.0000001
 44
0.0000000001
 40
0.0
 40
0.0
 40
0.0
 40
0.0
 40
1.0
 40
1.0
 40
1.0
 40
1.0
 10
8.9682175746
 20
2.7933256525
 30
0.0
 10
8.9815190886
 20
2.7849695758
 30
0.0
 10
8.9915804718
 20
2.773202859
 30
0.0
 10
8.998401759
 20
2.7580255104
 30
0.0
  0
SPLINE
  5
46B
100
AcDbEntity
  8
0
100
AcDbSpline
 62
7
  6
CONTINUOUS
 70
0
 71
3
 72
8
 73
4
 74
0
 42
0.0000001
 43
0.0000001
 44
0.0000000001
 40
0.0
 40
0.0
 40
0.0
 40
0.0
 40
1.0
 40
1.0
 40
1.0
 40
1.0
 10
8.998401759
 20
2.7580255104
 30
0.0
 10
9.0052230511
 20
2.7428481506
 30
0.0
 10
9.0088042174
 20
2.7251128183
 30
0.0
 10
9.0088042174
 20
2.704819508
 30
0.0
  0
SPLINE
  5
46C
100
AcDbEntity
  8
0
100
AcDbSpline
 62
7
  6
CONTINUOUS
 70
0
 71
3
 72
8
 73
4
 74
0
 42
0.0000001
 43
0.0000001
 44
0.0000000001
 40
0.0
 40
0.0
 40
0.0
 40
0.0
 40
1.0
 40
1.0
 40
1.0
 40
1.0
 10
9.0088042174
 20
2.704819508
 30
0.0
 10
9.0088042174
 20
2.6725889446
 30
0.0
 10
9.0006186817
 20
2.6476912649
 30
0.0
 10
8.9846311893
 20
2.6302580939
 30
0.0
  0
SPLINE
  5
46D
100
AcDbEntity
  8
0
100
AcDbSpline
 62
7
  6
CONTINUOUS
 70
0
 71
3
 72
8
 73
4
 74
0
 42
0.0000001
 43
0.0000001
 44
0.0000000001
 40
0.0
 40
0.0
 40
0.0
 40
0.0
 40
1.0
 40
1.0
 40
1.0
 40
1.0
 10
8.9846311893
 20
2.6302580939
 30
0.0
 10
8.9685586546
 20
2.6127321908
 30
0.0
 10
8.9480948005
 20
2.6040350573
 30
0.0
 10
8.9231971059
 20
2.6040350573
 30
0.0
  0
SPLINE
  5
46E
100
AcDbEntity
  8
0
100
AcDbSpline
 62
7
  6
CONTINUOUS
 70
0
 71
3
 72
8
 73
4
 74
0
 42
0.0000001
 43
0.0000001
 44
0.0000000001
 40
0.0
 40
0.0
 40
0.0
 40
0.0
 40
1.0
 40
1.0
 40
1.0
 40
1.0
 10
8.9231971059
 20
2.6040350573
 30
0.0
 10
8.8986404989
 20
2.6040350573
 30
0.0
 10
8.8783471737
 20
2.6125616619
 30
0.0
 10
8.8621466322
 20
2.6299559298
 30
0.0
  0
SPLINE
  5
46F
100
AcDbEntity
  8
0
100
AcDbSpline
 62
7
  6
CONTINUOUS
 70
0
 71
3
 72
8
 73
4
 74
0
 42
0.0000001
 43
0.0000001
 44
0.0000000001
 40
0.0
 40
0.0
 40
0.0
 40
0.0
 40
1.0
 40
1.0
 40
1.0
 40
1.0
 10
8.8621466322
 20
2.6299559298
 30
0.0
 10
8.8459460888
 20
2.6473501997
 30
0.0
 10
8.8379310821
 20
2.6710541548
 30
0.0
 10
8.8379310821
 20
2.7012383343
 30
0.0
  0
SPLINE
  5
470
100
AcDbEntity
  8
0
100
AcDbSpline
 62
7
  6
CONTINUOUS
 70
0
 71
3
 72
8
 73
4
 74
0
 42
0.0000001
 43
0.0000001
 44
0.0000000001
 40
0.0
 40
0.0
 40
0.0
 40
0.0
 40
1.0
 40
1.0
 40
1.0
 40
1.0
 10
12.7235040687
 20
2.7012383343
 30
0.0
 10
12.7235040687
 20
2.7387553827
 30
0.0
 10
12.7318601333
 20
2.7656994538
 30
0.0
 10
12.748742814
 20
2.7817294748
 30
0.0
  0
SPLINE
  5
471
100
AcDbEntity
  8
0
100
AcDbSpline
 62
7
  6
CONTINUOUS
 70
0
 71
3
 72
8
 73
4
 74
0
 42
0.0000001
 43
0.0000001
 44
0.0000000001
 40
0.0
 40
0.0
 40
0.0
 40
0.0
 40
1.0
 40
1.0
 40
1.0
 40
1.0
 10
12.748742814
 20
2.7817294748
 30
0.0
 10
12.7656254791
 20
2.7977594809
 30
0.0
 10
12.7857482754
 20
2.8059450166
 30
0.0
 10
12.8092817091
 20
2.8059450166
 30
0.0
  0
SPLINE
  5
472
100
AcDbEntity
  8
0
100
AcDbSpline
 62
7
  6
CONTINUOUS
 70
0
 71
3
 72
8
 73
4
 74
0
 42
0.0000001
 43
0.0000001
 44
0.0000000001
 40
0.0
 40
0.0
 40
0.0
 40
0.0
 40
1.0
 40
1.0
 40
1.0
 40
1.0
 10
12.8092817091
 20
2.8059450166
 30
0.0
 10
12.8256527804
 20
2.8059450166
 30
0.0
 10
12.840489062
 20
2.8016817199
 30
0.0
 10
12.8537905613
 20
2.7933256525
 30
0.0
  0
SPLINE
  5
473
100
AcDbEntity
  8
0
100
AcDbSpline
 62
7
  6
CONTINUOUS
 70
0
 71
3
 72
8
 73
4
 74
0
 42
0.0000001
 43
0.0000001
 44
0.0000000001
 40
0.0
 40
0.0
 40
0.0
 40
0.0
 40
1.0
 40
1.0
 40
1.0
 40
1.0
 10
12.8537905613
 20
2.7933256525
 30
0.0
 10
12.8670920752
 20
2.7849695758
 30
0.0
 10
12.8771534585
 20
2.773202859
 30
0.0
 10
12.8839747456
 20
2.7580255104
 30
0.0
  0
SPLINE
  5
474
100
AcDbEntity
  8
0
100
AcDbSpline
 62
7
  6
CONTINUOUS
 70
0
 71
3
 72
8
 73
4
 74
0
 42
0.0000001
 43
0.0000001
 44
0.0000000001
 40
0.0
 40
0.0
 40
0.0
 40
0.0
 40
1.0
 40
1.0
 40
1.0
 40
1.0
 10
12.8839747456
 20
2.7580255104
 30
0.0
 10
12.8907960378
 20
2.7428481506
 30
0.0
 10
12.8943772041
 20
2.7251128183
 30
0.0
 10
12.8943772041
 20
2.704819508
 30
0.0
  0
SPLINE
  5
475
100
AcDbEntity
  8
0
100
AcDbSpline
 62
7
  6
CONTINUOUS
 70
0
 71
3
 72
8
 73
4
 74
0
 42
0.0000001
 43
0.0000001
 44
0.0000000001
 40
0.0
 40
0.0
 40
0.0
 40
0.0
 40
1.0
 40
1.0
 40
1.0
 40
1.0
 10
12.8943772041
 20
2.704819508
 30
0.0
 10
12.8943772041
 20
2.6725889446
 30
0.0
 10
12.8861916684
 20
2.6476912649
 30
0.0
 10
12.8702041759
 20
2.6302580939
 30
0.0
  0
SPLINE
  5
476
100
AcDbEntity
  8
0
100
AcDbSpline
 62
7
  6
CONTINUOUS
 70
0
 71
3
 72
8
 73
4
 74
0
 42
0.0000001
 43
0.0000001
 44
0.0000000001
 40
0.0
 40
0.0
 40
0.0
 40
0.0
 40
1.0
 40
1.0
 40
1.0
 40
1.0
 10
12.8702041759
 20
2.6302580939
 30
0.0
 10
12.8541316413
 20
2.6127321908
 30
0.0
 10
12.8336677872
 20
2.6040350573
 30
0.0
 10
12.8087700926
 20
2.6040350573
 30
0.0
  0
SPLINE
  5
477
100
AcDbEntity
  8
0
100
AcDbSpline
 62
7
  6
CONTINUOUS
 70
0
 71
3
 72
8
 73
4
 74
0
 42
0.0000001
 43
0.0000001
 44
0.0000000001
 40
0.0
 40
0.0
 40
0.0
 40
0.0
 40
1.0
 40
1.0
 40
1.0
 40
1.0
 10
12.8087700926
 20
2.6040350573
 30
0.0
 10
12.7842134856
 20
2.6040350573
 30
0.0
 10
12.7639201604
 20
2.6125616619
 30
0.0
 10
12.7477196189
 20
2.6299559298
 30
0.0
  0
SPLINE
  5
478
100
AcDbEntity
  8
0
100
AcDbSpline
 62
7
  6
CONTINUOUS
 70
0
 71
3
 72
8
 73
4
 74
0
 42
0.0000001
 43
0.0000001
 44
0.0000000001
 40
0.0
 40
0.0
 40
0.0
 40
0.0
 40
1.0
 40
1.0
 40
1.0
 40
1.0
 10
12.7477196189
 20
2.6299559298
 30
0.0
 10
12.7315190755
 20
2.6473501997
 30
0.0
 10
12.7235040687
 20
2.6710541548
 30
0.0
 10
12.7235040687
 20
2.7012383343
 30
0.0
  0
SPLINE
  5
479
100
AcDbEntity
  8
0
100
AcDbSpline
 62
7
  6
CONTINUOUS
 70
0
 71
3
 72
8
 73
4
 74
0
 42
0.0000001
 43
0.0000001
 44
0.0000000001
 40
0.0
 40
0.0
 40
0.0
 40
0.0
 40
1.0
 40
1.0
 40
1.0
 40
1.0
 10
13.2509597265
 20
2.8004879878
 30
0.0
 10
13.2705709063
 20
2.8004879878
 30
0.0
 10
13.284895631
 20
2.7987826691
 30
0.0
 10
13.2937558847
 20
2.7953528891
 30
0.0
  0
SPLINE
  5
47A
100
AcDbEntity
  8
0
100
AcDbSpline
 62
7
  6
CONTINUOUS
 70
0
 71
3
 72
8
 73
4
 74
0
 42
0.0000001
 43
0.0000001
 44
0.0000000001
 40
0.0
 40
0.0
 40
0.0
 40
0.0
 40
1.0
 40
1.0
 40
1.0
 40
1.0
 10
13.2937558847
 20
2.7953528891
 30
0.0
 10
13.3060415708
 20
2.7905971335
 30
0.0
 10
13.3164440714
 20
2.7810473369
 30
0.0
 10
13.3249706601
 20
2.7670637151
 30
0.0
  0
SPLINE
  5
47B
100
AcDbEntity
  8
0
100
AcDbSpline
 62
7
  6
CONTINUOUS
 70
0
 71
3
 72
8
 73
4
 74
0
 42
0.0000001
 43
0.0000001
 44
0.0000000001
 40
0.0
 40
0.0
 40
0.0
 40
0.0
 40
1.0
 40
1.0
 40
1.0
 40
1.0
 10
13.3249706601
 20
2.7670637151
 30
0.0
 10
13.3334972583
 20
2.7530800776
 30
0.0
 10
13.337931069
 20
2.7329572962
 30
0.0
 10
13.337931069
 20
2.7068658845
 30
0.0
  0
SPLINE
  5
47C
100
AcDbEntity
  8
0
100
AcDbSpline
 62
7
  6
CONTINUOUS
 70
0
 71
3
 72
8
 73
4
 74
0
 42
0.0000001
 43
0.0000001
 44
0.0000000001
 40
0.0
 40
0.0
 40
0.0
 40
0.0
 40
1.0
 40
1.0
 40
1.0
 40
1.0
 10
13.337931069
 20
2.7068658845
 30
0.0
 10
13.337931069
 20
2.6879368277
 30
0.0
 10
13.3357141935
 20
2.6719068141
 30
0.0
 10
13.33128035
 20
2.658605306
 30
0.0
  0
SPLINE
  5
47D
100
AcDbEntity
  8
0
100
AcDbSpline
 62
7
  6
CONTINUOUS
 70
0
 71
3
 72
8
 73
4
 74
0
 42
0.0000001
 43
0.0000001
 44
0.0000000001
 40
0.0
 40
0.0
 40
0.0
 40
0.0
 40
1.0
 40
1.0
 40
1.0
 40
1.0
 10
13.33128035
 20
2.658605306
 30
0.0
 10
13.3268465124
 20
2.6453038157
 30
0.0
 10
13.3208778821
 20
2.6349013598
 30
0.0
 10
13.3130334243
 20
2.6270568954
 30
0.0
  0
SPLINE
  5
47E
100
AcDbEntity
  8
0
100
AcDbSpline
 62
7
  6
CONTINUOUS
 70
0
 71
3
 72
8
 73
4
 74
0
 42
0.0000001
 43
0.0000001
 44
0.0000000001
 40
0.0
 40
0.0
 40
0.0
 40
0.0
 40
1.0
 40
1.0
 40
1.0
 40
1.0
 10
13.3130334243
 20
2.6270568954
 30
0.0
 10
13.3074058615
 20
2.621429328
 30
0.0
 10
13.2999024116
 20
2.6171660276
 30
0.0
 10
13.2905232001
 20
2.6140964585
 30
0.0
  0
SPLINE
  5
47F
100
AcDbEntity
  8
0
100
AcDbSpline
 62
7
  6
CONTINUOUS
 70
0
 71
3
 72
8
 73
4
 74
0
 42
0.0000001
 43
0.0000001
 44
0.0000000001
 40
0.0
 40
0.0
 40
0.0
 40
0.0
 40
1.0
 40
1.0
 40
1.0
 40
1.0
 10
13.2905232001
 20
2.6140964585
 30
0.0
 10
13.2811439358
 20
2.6110268721
 30
0.0
 10
13.2681835018
 20
2.6094920841
 30
0.0
 10
13.2518123709
 20
2.6094920841
 30
0.0
  0
LINE
  5
480
100
AcDbEntity
  8
0
100
AcDbLine
 62
7
  6
CONTINUOUS
 10
11.3439423364
 20
15.4984734377
 11
11.3434663718
 21
15.4979233062
  0
SPLINE
  5
481
100
AcDbEntity
  8
0
100
AcDbSpline
 62
7
  6
CONTINUOUS
 70
0
 71
3
 72
14
 73
10
 74
0
 42
0.0000001
 43
0.0000001
 44
0.0000000001
 40
0.0
 40
0.0
 40
0.0
 40
0.0
 40
0.0912768679
 40
0.1866729115
 40
0.2898149271
 40
0.403589083
 40
0.5301508942
 40
0.6710662453
 40
1.0
 40
1.0
 40
1.0
 40
1.0
 10
10.5314423495
 20
15.4716310823
 30
0.0
 10
10.5314423494
 20
15.4716883795
 30
0.0
 10
10.5314553381
 20
15.4718059165
 30
0.0
 10
10.5315129103
 20
15.4719796724
 30
0.0
 10
10.5316078515
 20
15.4721522555
 30
0.0
 10
10.5317395392
 20
15.472323807
 30
0.0
 10
10.5319077113
 20
15.4724947648
 30
0.0
 10
10.5321956641
 20
15.4727347128
 30
0.0
 10
10.5324448167
 20
15.4728947952
 30
0.0
 10
10.5326235054
 20
15.4729982599
 30
0.0
  0
LINE
  5
482
100
AcDbEntity
  8
0
100
AcDbLine
 62
7
  6
CONTINUOUS
 10
10.5314423473
 20
15.4627734377
 11
10.5319183115
 21
15.4622233062
  0
LINE
  5
483
100
AcDbEntity
  8
0
100
AcDbLine
 62
7
  6
CONTINUOUS
 10
10.5315274927
 20
15.527984057
 11
10.5314423458
 21
15.5280823923
  0
SPLINE
  5
484
100
AcDbEntity
  8
0
100
AcDbSpline
 62
7
  6
CONTINUOUS
 70
0
 71
3
 72
19
 73
15
 74
0
 42
0.0000001
 43
0.0000001
 44
0.0000000001
 40
0.0
 40
0.0
 40
0.0
 40
0.0
 40
0.0219197991
 40
0.0456763623
 40
0.0731697713
 40
0.1056425679
 40
0.1438472362
 40
0.1882322142
 40
0.2390685974
 40
0.296525854
 40
0.4316424696
 40
0.5939751134
 40
0.7835052201
 40
1.0
 40
1.0
 40
1.0
 40
1.0
 10
10.9956584427
 20
12.4959510312
 30
0.0
 10
10.9956612468
 20
12.4959883996
 30
0.0
 10
10.9956533531
 20
12.4960678662
 30
0.0
 10
10.9956009562
 20
12.4961832768
 30
0.0
 10
10.9955110528
 20
12.4962959709
 30
0.0
 10
10.9953845745
 20
12.4964071912
 30
0.0
 10
10.9952214146
 20
12.4965177288
 30
0.0
 10
10.9950213868
 20
12.4966278509
 30
0.0
 10
10.994784404
 20
12.4967376326
 30
0.0
 10
10.99439776
 20
12.4968918983
 30
0.0
 10
10.9938200119
 20
12.497079107
 30
0.0
 10
10.9930147964
 20
12.4972915359
 30
0.0
 10
10.9920658258
 20
12.4975012226
 30
0.0
 10
10.9913837026
 20
12.4976302568
 30
0.0
 10
10.9910192863
 20
12.497694949
 30
0.0
  0
SPLINE
  5
485
100
AcDbEntity
  8
0
100
AcDbSpline
 62
7
  6
CONTINUOUS
 70
0
 71
3
 72
16
 73
12
 74
0
 42
0.0000001
 43
0.0000001
 44
0.0000000001
 40
0.0
 40
0.0
 40
0.0
 40
0.0
 40
0.0306797791
 40
0.06241949
 40
0.1337711848
 40
0.2217595475
 40
0.3303612055
 40
0.4616357145
 40
0.6166599067
 40
0.7960190124
 40
1.0
 40
1.0
 40
1.0
 40
1.0
 10
10.5193464131
 20
12.4948178814
 30
0.0
 10
10.519348096
 20
12.4948403205
 30
0.0
 10
10.5193464698
 20
12.4948865057
 30
0.0
 10
10.519321882
 20
12.4949821804
 30
0.0
 10
10.5192471367
 20
12.4951040221
 30
0.0
 10
10.5191043677
 20
12.4952406598
 30
0.0
 10
10.5189055596
 20
12.4953772391
 30
0.0
 10
10.518649913
 20
12.4955141895
 30
0.0
 10
10.5183370777
 20
12.495651855
 30
0.0
 10
10.5179670188
 20
12.4957900463
 30
0.0
 10
10.5176995051
 20
12.4958768439
 30
0.0
 10
10.5175564696
 20
12.4959207088
 30
0.0
  0
SPLINE
  5
486
100
AcDbEntity
  8
0
100
AcDbSpline
 62
7
  6
CONTINUOUS
 70
0
 71
3
 72
23
 73
19
 74
0
 42
0.0000001
 43
0.0000001
 44
0.0000000001
 40
0.0
 40
0.0
 40
0.0
 40
0.0
 40
0.0065984926
 40
0.0135791424
 40
0.0214244506
 40
0.030478567
 40
0.0530023379
 40
0.0821952679
 40
0.11847821
 40
0.162045049
 40
0.2129861611
 40
0.2713290453
 40
0.3370704553
 40
0.4101805363
 40
0.4906106587
 40
0.5783012872
 40
0.7751464755
 40
1.0
 40
1.0
 40
1.0
 40
1.0
 10
11.4780904636
 20
12.4683992741
 30
0.0
 10
11.4780917377
 20
12.468416249
 30
0.0
 10
11.4780890449
 20
12.4684518
 30
0.0
 10
11.4780688253
 20
12.4685039207
 30
0.0
 10
11.4780333425
 20
12.4685548278
 30
0.0
 10
11.477960849
 20
12.4686267213
 30
0.0
 10
11.4778281935
 20
12.4687126584
 30
0.0
 10
11.4776218268
 20
12.468807876
 30
0.0
 10
11.4773563669
 20
12.4689019492
 30
0.0
 10
11.4770318278
 20
12.4689947053
 30
0.0
 10
11.4766481018
 20
12.4690859568
 30
0.0
 10
11.4762054876
 20
12.4691755377
 30
0.0
 10
11.4757043477
 20
12.4692632872
 30
0.0
 10
11.4751451593
 20
12.4693490751
 30
0.0
 10
11.4745284688
 20
12.4694327938
 30
0.0
 10
11.4735937298
 20
12.4695458943
 30
0.0
 10
11.4722862732
 20
12.4696790679
 30
0.0
 10
11.4712021228
 20
12.4697697276
 30
0.0
 10
11.4706237565
 20
12.4698141719
 30
0.0
  0
SPLINE
  5
487
100
AcDbEntity
  8
0
100
AcDbSpline
 62
7
  6
CONTINUOUS
 70
0
 71
3
 72
25
 73
21
 74
0
 42
0.0000001
 43
0.0000001
 44
0.0000000001
 40
0.0
 40
0.0
 40
0.0
 40
0.0
 40
0.0038828415
 40
0.0085316144
 40
0.0145426434
 40
0.0221997243
 40
0.031637095
 40
0.042923689
 40
0.0560979648
 40
0.0711825887
 40
0.1071235734
 40
0.1507879315
 40
0.2021675158
 40
0.2612210878
 40
0.3278921279
 40
0.402104023
 40
0.4837701901
 40
0.5727891424
 40
0.7724278266
 40
1.0
 40
1.0
 40
1.0
 40
1.0
 10
11.4861373819
 20
12.4473368716
 30
0.0
 10
11.486138314
 20
12.4473493158
 30
0.0
 10
11.486132343
 20
12.4473775054
 30
0.0
 10
11.4861026862
 20
12.4474148448
 30
0.0
 10
11.4860553841
 20
12.4474504001
 30
0.0
 10
11.485989632
 20
12.4474853436
 30
0.0
 10
11.4859051325
 20
12.4475199325
 30
0.0
 10
11.4858016451
 20
12.4475541843
 30
0.0
 10
11.4856791131
 20
12.4475880768
 30
0.0
 10
11.4854782764
 20
12.4476355405
 30
0.0
 10
11.4851791144
 20
12.4476920756
 30
0.0
 10
11.4847628314
 20
12.4477550672
 30
0.0
 10
11.4842713192
 20
12.4478162123
 30
0.0
 10
11.4837051841
 20
12.4478754021
 30
0.0
 10
11.4830651268
 20
12.4479324675
 30
0.0
 10
11.4823519677
 20
12.4479873079
 30
0.0
 10
11.481566636
 20
12.4480398228
 30
0.0
 10
11.4803784707
 20
12.4481092999
 30
0.0
 10
11.4787211843
 20
12.4481880854
 30
0.0
 10
11.4773490933
 20
12.4482389351
 30
0.0
 10
11.4766181002
 20
12.448263155
 30
0.0
  0
SPLINE
  5
488
100
AcDbEntity
  8
0
100
AcDbSpline
 62
7
  6
CONTINUOUS
 70
0
 71
3
 72
23
 73
19
 74
0
 42
0.0000001
 43
0.0000001
 44
0.0000000001
 40
0.0
 40
0.0
 40
0.0
 40
0.0
 40
0.0071395573
 40
0.0147183278
 40
0.0231666513
 40
0.032798357
 40
0.056356317
 40
0.086407625
 40
0.123382299
 40
0.1674786597
 40
0.218786538
 40
0.2773289456
 40
0.3430939421
 40
0.4160386752
 40
0.4961027294
 40
0.5832072937
 40
0.7781532956
 40
1.0
 40
1.0
 40
1.0
 40
1.0
 10
10.0754944912
 20
12.4937649879
 30
0.0
 10
10.0754961866
 20
12.4937876097
 30
0.0
 10
10.075493107
 20
12.4938349644
 30
0.0
 10
10.0754690326
 20
12.4939052499
 30
0.0
 10
10.0754263482
 20
12.4939753039
 30
0.0
 10
10.0753391778
 20
12.4940754403
 30
0.0
 10
10.0751787952
 20
12.4941990654
 30
0.0
 10
10.0749277522
 20
12.4943406187
 30
0.0
 10
10.0746049237
 20
12.4944846468
 30
0.0
 10
10.0742103788
 20
12.494630945
 30
0.0
 10
10.073744113
 20
12.4947792778
 30
0.0
 10
10.0732065935
 20
12.4949293872
 30
0.0
 10
10.072598395
 20
12.4950810101
 30
0.0
 10
10.0719202428
 20
12.4952339191
 30
0.0
 10
10.0711729691
 20
12.4953878892
 30
0.0
 10
10.0700425319
 20
12.4956024432
 30
0.0
 10
10.0684636026
 20
12.4958688067
 30
0.0
 10
10.067153585
 20
12.4960633382
 30
0.0
 10
10.0664555889
 20
12.496161709
 30
0.0
  0
SPLINE
  5
489
100
AcDbEntity
  8
0
100
AcDbSpline
 62
7
  6
CONTINUOUS
 70
0
 71
3
 72
39
 73
35
 74
0
 42
0.0000001
 43
0.0000001
 44
0.0000000001
 40
0.0
 40
0.0
 40
0.0
 40
0.0
 40
0.0976733415
 40
0.1944737945
 40
0.2894736947
 40
0.3817552697
 40
0.4704262978
 40
0.5546255917
 40
0.6335320923
 40
0.7063727308
 40
0.7724305797
 40
0.8027091084
 40
0.8310526272
 40
0.8573904942
 40
0.8816572372
 40
0.9037925801
 40
0.9237410467
 40
0.9414532631
 40
0.9568850031
 40
0.9699979927
 40
0.9756747844
 40
0.9807603602
 40
0.9852515381
 40
0.9891460009
 40
0.9924416825
 40
0.9951369003
 40
0.9972313007
 40
0.9980535596
 40
0.9987263623
 40
0.9992506848
 40
0.9996288754
 40
0.9997651635
 40
0.9998686689
 40
1.0
 40
1.0
 40
1.0
 40
1.0
 10
8.6801276403
 20
12.5328663965
 30
0.0
 10
8.6782250336
 20
12.5330433723
 30
0.0
 10
8.6744366563
 20
12.5333939473
 30
0.0
 10
8.6687971713
 20
12.5339103879
 30
0.0
 10
8.6632622325
 20
12.5344117701
 30
0.0
 10
8.6578851847
 20
12.5348932596
 30
0.0
 10
8.6527180829
 20
12.5353501951
 30
0.0
 10
8.6478111035
 20
12.5357781404
 30
0.0
 10
8.6432121078
 20
12.536172929
 30
0.0
 10
8.6389661524
 20
12.5365306981
 30
0.0
 10
8.6356676517
 20
12.5368024435
 30
0.0
 10
8.633236372
 20
12.5369983498
 30
0.0
 10
8.6315794624
 20
12.5371296388
 30
0.0
 10
8.6300396116
 20
12.5372492878
 30
0.0
 10
8.6286206544
 20
12.5373570007
 30
0.0
 10
8.6273261316
 20
12.537452516
 30
0.0
 10
8.6261592726
 20
12.5375356017
 30
0.0
 10
8.6251229966
 20
12.53760607
 30
0.0
 10
8.6242198925
 20
12.5376637565
 30
0.0
 10
8.6235515377
 20
12.5377027977
 30
0.0
 10
8.6230850894
 20
12.5377271579
 30
0.0
 10
8.6227870103
 20
12.5377412526
 30
0.0
 10
8.6225236879
 20
12.5377520768
 30
0.0
 10
8.6222952842
 20
12.5377596305
 30
0.0
 10
8.6221019346
 20
12.537763949
 30
0.0
 10
8.6219437582
 20
12.5377650241
 30
0.0
 10
8.6218339607
 20
12.5377632784
 30
0.0
 10
8.6217638186
 20
12.5377597836
 30
0.0
 10
8.6217244301
 20
12.5377566285
 30
0.0
 10
8.6216938496
 20
12.5377526387
 30
0.0
 10
8.6216739144
 20
12.5377486138
 30
0.0
 10
8.6216624593
 20
12.5377444112
 30
0.0
 10
8.6216561205
 20
12.5377412486
 30
0.0
 10
8.6216525969
 20
12.5377369549
 30
0.0
 10
8.6216527891
 20
12.5377343928
 30
0.0
  0
SPLINE
  5
48A
100
AcDbEntity
  8
0
100
AcDbSpline
 62
7
  6
CONTINUOUS
 70
0
 71
3
 72
34
 73
30
 74
0
 42
0.0000001
 43
0.0000001
 44
0.0000000001
 40
0.0
 40
0.0
 40
0.0
 40
0.0
 40
0.1946270735
 40
0.2896905135
 40
0.3820207346
 40
0.4707205096
 40
0.554923855
 40
0.6338057771
 40
0.7065906592
 40
0.7725609013
 40
0.8310651698
 40
0.8815264197
 40
0.923449629
 40
0.9410793919
 40
0.956430404
 40
0.9694680881
 40
0.9751110038
 40
0.9801664526
 40
0.9846326151
 40
0.9885091196
 40
0.9917968478
 40
0.9944989089
 40
0.9966235847
 40
0.9974752028
 40
0.9981916807
 40
0.9987808776
 40
0.9992571489
 40
0.9996476619
 40
1.0
 40
1.0
 40
1.0
 40
1.0
 10
8.7787940507
 20
12.533979414
 30
0.0
 10
8.7750039228
 20
12.5343170542
 30
0.0
 10
8.7693611368
 20
12.5348039769
 30
0.0
 10
8.7619171851
 20
12.5354134809
 30
0.0
 10
8.7565359748
 20
12.5358374886
 30
0.0
 10
8.7513651244
 20
12.5362278557
 30
0.0
 10
8.7464551512
 20
12.5365807672
 30
0.0
 10
8.7418542271
 20
12.5368927795
 30
0.0
 10
8.7376076587
 20
12.5371608644
 30
0.0
 10
8.7337574043
 20
12.5373824327
 30
0.0
 10
8.7303415926
 20
12.5375554793
 30
0.0
 10
8.7273941016
 20
12.5376783936
 30
0.0
 10
8.7252440651
 20
12.5377420378
 30
0.0
 10
8.7237797554
 20
12.5377637794
 30
0.0
 10
8.7228800306
 20
12.5377660176
 30
0.0
 10
8.7222146932
 20
12.5377568361
 30
0.0
 10
8.7217508605
 20
12.5377418484
 30
0.0
 10
8.7214546957
 20
12.537727897
 30
0.0
 10
8.7211932928
 20
12.5377107347
 30
0.0
 10
8.7209667953
 20
12.5376903958
 30
0.0
 10
8.7207752697
 20
12.5376669764
 30
0.0
 10
8.7206188016
 20
12.5376405058
 30
0.0
 10
8.7205106462
 20
12.5376146053
 30
0.0
 10
8.720442291
 20
12.5375911827
 30
0.0
 10
8.7204036282
 20
12.5375741575
 30
0.0
 10
8.720373561
 20
12.5375563209
 30
0.0
 10
8.7203519305
 20
12.5375374681
 30
0.0
 10
8.7203388082
 20
12.5375169855
 30
0.0
 10
8.7203366232
 20
12.5375020761
 30
0.0
 10
8.7203371385
 20
12.5374952069
 30
0.0
  0
SPLINE
  5
48B
100
AcDbEntity
  8
0
100
AcDbSpline
 62
7
  6
CONTINUOUS
 70
0
 71
3
 72
30
 73
26
 74
0
 42
0.0000001
 43
0.0000001
 44
0.0000000001
 40
0.0
 40
0.0
 40
0.0
 40
0.0
 40
0.0015635571
 40
0.0032991984
 40
0.0053443971
 40
0.0077845569
 40
0.0106698255
 40
0.0140297113
 40
0.0222362714
 40
0.032486896
 40
0.0448102597
 40
0.059213879
 40
0.0756916703
 40
0.0942303555
 40
0.1148095895
 40
0.1374051538
 40
0.1619876989
 40
0.216980389
 40
0.2794883645
 40
0.3491636612
 40
0.4256147969
 40
0.5084099277
 40
0.5970800093
 40
0.7900013412
 40
1.0
 40
1.0
 40
1.0
 40
1.0
 10
9.6943503816
 20
12.492863174
 30
0.0
 10
9.6943518656
 20
12.492882967
 30
0.0
 10
9.694347066
 20
12.4929256017
 30
0.0
 10
9.6943176246
 20
12.4929876825
 30
0.0
 10
9.6942676286
 20
12.4930494677
 30
0.0
 10
9.6941973725
 20
12.493111699
 30
0.0
 10
9.6941067448
 20
12.4931748036
 30
0.0
 10
9.6939476401
 20
12.4932664629
 30
0.0
 10
9.6936946411
 20
12.4933804949
 30
0.0
 10
9.6933273081
 20
12.4935141809
 30
0.0
 10
9.6928783616
 20
12.493651859
 30
0.0
 10
9.6923483563
 20
12.4937932623
 30
0.0
 10
9.6917378648
 20
12.4939380619
 30
0.0
 10
9.6910477351
 20
12.4940859756
 30
0.0
 10
9.6902789252
 20
12.4942367486
 30
0.0
 10
9.6894325401
 20
12.4943901294
 30
0.0
 10
9.6881535896
 20
12.4946059537
 30
0.0
 10
9.6863704244
 20
12.4948779201
 30
0.0
 10
9.6840162203
 20
12.495200265
 30
0.0
 10
9.681387952
 20
12.4955275352
 30
0.0
 10
9.6785006918
 20
12.4958577736
 30
0.0
 10
9.6753709631
 20
12.4961890036
 30
0.0
 10
9.6707674759
 20
12.496642186
 30
0.0
 10
9.6645511405
 20
12.49719249
 30
0.0
 10
9.6594516994
 20
12.4975905658
 30
0.0
 10
9.6567930648
 20
12.4977862793
 30
0.0
  0
SPLINE
  5
48C
100
AcDbEntity
  8
0
100
AcDbSpline
 62
7
  6
CONTINUOUS
 70
0
 71
3
 72
18
 73
14
 74
0
 42
0.0000001
 43
0.0000001
 44
0.0000000001
 40
0.0
 40
0.0
 40
0.0
 40
0.0
 40
0.0233543251
 40
0.0483421688
 40
0.0767569185
 40
0.1098339531
 40
0.1483583344
 40
0.1928237442
 40
0.3006800609
 40
0.434882271
 40
0.5960463573
 40
0.784405809
 40
1.0
 40
1.0
 40
1.0
 40
1.0
 10
10.9957556996
 20
12.4672477759
 30
0.0
 10
10.995757212
 20
12.4672679251
 30
0.0
 10
10.9957536357
 20
12.4673104057
 30
0.0
 10
10.9957282238
 20
12.467372614
 30
0.0
 10
10.995684001
 20
12.4674336225
 30
0.0
 10
10.9956214815
 20
12.4674939042
 30
0.0
 10
10.9955406813
 20
12.467553873
 30
0.0
 10
10.9953990752
 20
12.467639157
 30
0.0
 10
10.9951730437
 20
12.4677425282
 30
0.0
 10
10.9948442983
 20
12.4678598713
 30
0.0
 10
10.9944422579
 20
12.467976866
 30
0.0
 10
10.9939673008
 20
12.4680933322
 30
0.0
 10
10.9936252933
 20
12.468165571
 30
0.0
 10
10.9934423475
 20
12.4682019596
 30
0.0
  0
SPLINE
  5
48D
100
AcDbEntity
  8
0
100
AcDbSpline
 62
7
  6
CONTINUOUS
 70
0
 71
3
 72
34
 73
30
 74
0
 42
0.0000001
 43
0.0000001
 44
0.0000000001
 40
0.0
 40
0.0
 40
0.0
 40
0.0
 40
0.0004673137
 40
0.0009794848
 40
0.0015723648
 40
0.002269434
 40
0.004026568
 40
0.0063156934
 40
0.0091626953
 40
0.0125797608
 40
0.0165724547
 40
0.0211432652
 40
0.0262927878
 40
0.0320198771
 40
0.0451982455
 40
0.0606551791
 40
0.0783581694
 40
0.0982671122
 40
0.1203361501
 40
0.1707405941
 40
0.2290938043
 40
0.2948395097
 40
0.3673503408
 40
0.445935162
 40
0.5298459699
 40
0.6182842024
 40
0.7104082023
 40
0.8053419884
 40
1.0
 40
1.0
 40
1.0
 40
1.0
 10
9.4018883198
 20
12.4921726408
 30
0.0
 10
9.4018889972
 20
12.4921816691
 30
0.0
 10
9.4018871618
 20
12.492200947
 30
0.0
 10
9.4018751706
 20
12.4922293224
 30
0.0
 10
9.4018545203
 20
12.4922577467
 30
0.0
 10
9.4018122742
 20
12.4922992478
 30
0.0
 10
9.4017355145
 20
12.4923508464
 30
0.0
 10
9.4016162099
 20
12.4924110963
 30
0.0
 10
9.4014626241
 20
12.4924737208
 30
0.0
 10
9.4012747605
 20
12.4925386519
 30
0.0
 10
9.4010525235
 20
12.4926058004
 30
0.0
 10
9.4007960109
 20
12.4926750811
 30
0.0
 10
9.400505339
 20
12.4927464259
 30
0.0
 10
9.4000507269
 20
12.4928490948
 30
0.0
 10
9.399398008
 20
12.4929805261
 30
0.0
 10
9.3985143746
 20
12.4931393698
 30
0.0
 10
9.3974996572
 20
12.4933052709
 30
0.0
 10
9.3963563213
 20
12.4934778006
 30
0.0
 10
9.3945839479
 20
12.4937272265
 30
0.0
 10
9.3920696971
 20
12.4940487616
 30
0.0
 10
9.3887114153
 20
12.4944389424
 30
0.0
 10
9.384923911
 20
12.4948444999
 30
0.0
 10
9.3807435429
 20
12.4952614367
 30
0.0
 10
9.3762103117
 20
12.4956856179
 30
0.0
 10
9.3713675206
 20
12.4961129225
 30
0.0
 10
9.3662613735
 20
12.4965392143
 30
0.0
 10
9.3609405483
 20
12.4969603983
 30
0.0
 10
9.3535659591
 20
12.4975143497
 30
0.0
 10
9.3479687859
 20
12.4979024679
 30
0.0
 10
9.3442055998
 20
12.4981497109
 30
0.0
  0
SPLINE
  5
48E
100
AcDbEntity
  8
0
100
AcDbSpline
 62
7
  6
CONTINUOUS
 70
0
 71
3
 72
32
 73
28
 74
0
 42
0.0000001
 43
0.0000001
 44
0.0000000001
 40
0.0
 40
0.0
 40
0.0
 40
0.0
 40
0.1934182077
 40
0.2877549731
 40
0.379285532
 40
0.4671298906
 40
0.5504481004
 40
0.6284496456
 40
0.7004011303
 40
0.7656341875
 40
0.8235535342
 40
0.8496076025
 40
0.8736482781
 40
0.8956267884
 40
0.9155013313
 40
0.9332394515
 40
0.9488190929
 40
0.9622332691
 40
0.9734975387
 40
0.9783397168
 40
0.9826698839
 40
0.9865071909
 40
0.9898803941
 40
0.9928335676
 40
0.9954334508
 40
0.9977779773
 40
1.0
 40
1.0
 40
1.0
 40
1.0
 10
11.4096518809
 20
12.5376442697
 30
0.0
 10
11.4058538236
 20
12.5375699426
 30
0.0
 10
11.4002041066
 20
12.5374092637
 30
0.0
 10
11.3927614751
 20
12.537093017
 30
0.0
 10
11.3873929515
 20
12.5368121127
 30
0.0
 10
11.3822436502
 20
12.5364884496
 30
0.0
 10
11.377363373
 20
12.5361252993
 30
0.0
 10
11.3727991234
 20
12.5357263636
 30
0.0
 10
11.3685946131
 20
12.5352957687
 30
0.0
 10
11.3647899566
 20
12.5348379002
 30
0.0
 10
11.3618884436
 20
12.5344245506
 30
0.0
 10
11.3597952494
 20
12.534079122
 30
0.0
 10
11.3584025776
 20
12.5338252853
 30
0.0
 10
11.3571341106
 20
12.5335681411
 30
0.0
 10
11.3559927818
 20
12.5333083464
 30
0.0
 10
11.3549812031
 20
12.5330466226
 30
0.0
 10
11.3541015185
 20
12.5327837363
 30
0.0
 10
11.3533556259
 20
12.5325203888
 30
0.0
 10
11.3528222236
 20
12.5322911716
 30
0.0
 10
11.352466628
 20
12.5321045729
 30
0.0
 10
11.3522480144
 20
12.5319719119
 30
0.0
 10
11.3520637458
 20
12.5318394304
 30
0.0
 10
11.3519138127
 20
12.5317069991
 30
0.0
 10
11.3517982079
 20
12.5315743588
 30
0.0
 10
11.3517171581
 20
12.5314409546
 30
0.0
 10
11.3516716021
 20
12.531306382
 30
0.0
 10
11.3516659396
 20
12.531215576
 30
0.0
 10
11.3516692042
 20
12.5311720572
 30
0.0
  0
SPLINE
  5
48F
100
AcDbEntity
  8
0
100
AcDbSpline
 62
7
  6
CONTINUOUS
 70
0
 71
3
 72
34
 73
30
 74
0
 42
0.0000001
 43
0.0000001
 44
0.0000000001
 40
0.0
 40
0.0
 40
0.0
 40
0.0
 40
0.0003612823
 40
0.0007825131
 40
0.0013019308
 40
0.0019403299
 40
0.0036123455
 40
0.0058438061
 40
0.0086507158
 40
0.0120398261
 40
0.0160134919
 40
0.0205721765
 40
0.0257150766
 40
0.0314400411
 40
0.0446250083
 40
0.0600994685
 40
0.0778280782
 40
0.0977686015
 40
0.1198734824
 40
0.1703570571
 40
0.2287914567
 40
0.2946130823
 40
0.3671895508
 40
0.4458265609
 40
0.5297746945
 40
0.6182366378
 40
0.7103740017
 40
0.8053156027
 40
1.0
 40
1.0
 40
1.0
 40
1.0
 10
8.8364767326
 20
12.5271721281
 30
0.0
 10
8.8364772569
 20
12.527179113
 30
0.0
 10
8.836474837
 20
12.5271945984
 30
0.0
 10
8.8364620288
 20
12.5272167525
 30
0.0
 10
8.8364408797
 20
12.5272391229
 30
0.0
 10
8.8363973886
 20
12.5272727992
 30
0.0
 10
8.836319671
 20
12.5273150617
 30
0.0
 10
8.8361997564
 20
12.527365637
 30
0.0
 10
8.8360453648
 20
12.527419429
 30
0.0
 10
8.8358565746
 20
12.5274763956
 30
0.0
 10
8.8356333377
 20
12.5275364095
 30
0.0
 10
8.8353757769
 20
12.5275993993
 30
0.0
 10
8.8350840244
 20
12.5276652988
 30
0.0
 10
8.8346277225
 20
12.5277615738
 30
0.0
 10
8.8339730353
 20
12.5278875254
 30
0.0
 10
8.8330872513
 20
12.5280433947
 30
0.0
 10
8.8320704006
 20
12.5282097415
 30
0.0
 10
8.8309249936
 20
12.5283861377
 30
0.0
 10
8.8291499154
 20
12.5286457571
 30
0.0
 10
8.8266329238
 20
12.5289892581
 30
0.0
 10
8.8232722779
 20
12.5294179322
 30
0.0
 10
8.8194835291
 20
12.5298749153
 30
0.0
 10
8.8153032013
 20
12.5303557371
 30
0.0
 10
8.8107713731
 20
12.5308556898
 30
0.0
 10
8.8059313108
 20
12.5313699597
 30
0.0
 10
8.8008290631
 20
12.5318936187
 30
0.0
 10
8.7955130358
 20
12.5324216835
 30
0.0
 10
8.7881454604
 20
12.533130851
 30
0.0
 10
8.7825536988
 20
12.533644489
 30
0.0
 10
8.7787940507
 20
12.533979414
 30
0.0
  0
SPLINE
  5
490
100
AcDbEntity
  8
0
100
AcDbSpline
 62
7
  6
CONTINUOUS
 70
0
 71
3
 72
32
 73
28
 74
0
 42
0.0000001
 43
0.0000001
 44
0.0000000001
 40
0.0
 40
0.0
 40
0.0
 40
0.0
 40
0.1934682328
 40
0.2878200627
 40
0.3793657441
 40
0.4672302511
 40
0.5505779159
 40
0.6286213138
 40
0.7006284503
 40
0.7659302412
 40
0.8239281007
 40
0.8500230938
 40
0.8741044276
 40
0.8961217862
 40
0.916031514
 40
0.9337987196
 40
0.949398057
 40
0.9628181092
 40
0.9740677549
 40
0.9788917058
 40
0.9831941035
 40
0.986991725
 40
0.9903102562
 40
0.9931900389
 40
0.9956941218
 40
0.9979186706
 40
1.0
 40
1.0
 40
1.0
 40
1.0
 10
11.8609845225
 20
12.5372889074
 30
0.0
 10
11.8571916415
 20
12.5371437682
 30
0.0
 10
11.8515506376
 20
12.5368812337
 30
0.0
 10
11.8441209903
 20
12.5364380645
 30
0.0
 10
11.8387626381
 20
12.5360692878
 30
0.0
 10
11.8336233694
 20
12.5356650908
 30
0.0
 10
11.8287525541
 20
12.5352294891
 30
0.0
 10
11.8241968188
 20
12.5347668386
 30
0.0
 10
11.8199995827
 20
12.5342818234
 30
0.0
 10
11.8162007618
 20
12.5337792977
 30
0.0
 10
11.8133031606
 20
12.5333362139
 30
0.0
 10
11.8112122215
 20
12.5329724802
 30
0.0
 10
11.809820688
 20
12.532708042
 30
0.0
 10
11.8085530001
 20
12.5324429635
 30
0.0
 10
11.8074121208
 20
12.532177918
 30
0.0
 10
11.806400698
 20
12.5319136342
 30
0.0
 10
11.8055209303
 20
12.5316508835
 30
0.0
 10
11.8047747695
 20
12.5313903725
 30
0.0
 10
11.8042407242
 20
12.5311658685
 30
0.0
 10
11.8038842717
 20
12.5309845159
 30
0.0
 10
11.8036652557
 20
12.530856399
 30
0.0
 10
11.8034805593
 20
12.5307291663
 30
0.0
 10
11.8033301562
 20
12.5306027106
 30
0.0
 10
11.8032139918
 20
12.5304767844
 30
0.0
 10
11.8031321948
 20
12.5303507864
 30
0.0
 10
11.8030856534
 20
12.5302241115
 30
0.0
 10
11.8030793632
 20
12.5301384781
 30
0.0
 10
11.803082418
 20
12.5300977589
 30
0.0
  0
LINE
  5
491
100
AcDbEntity
  8
0
100
AcDbLine
 62
7
  6
CONTINUOUS
 10
11.9762257708
 20
12.4485154162
 11
11.9176923427
 21
12.446161938
  0
SPLINE
  5
492
100
AcDbEntity
  8
0
100
AcDbSpline
 62
7
  6
CONTINUOUS
 70
0
 71
3
 72
31
 73
27
 74
0
 42
0.0000001
 43
0.0000001
 44
0.0000000001
 40
0.0
 40
0.0
 40
0.0
 40
0.0
 40
0.1936489298
 40
0.3797120374
 40
0.4676652612
 40
0.5511084789
 40
0.6292547576
 40
0.7013704996
 40
0.7667826047
 40
0.8248856505
 40
0.8510280719
 40
0.8751513531
 40
0.8972030365
 40
0.9171369588
 40
0.9349149499
 40
0.9505073028
 40
0.9638966351
 40
0.9750827995
 40
0.979858287
 40
0.9840979339
 40
0.9878151447
 40
0.9910311763
 40
0.9937808578
 40
0.9961215782
 40
0.9981468936
 40
1.0
 40
1.0
 40
1.0
 40
1.0
 10
12.2719648654
 20
12.536714616
 30
0.0
 10
12.2681790815
 20
12.5365054234
 30
0.0
 10
12.2607587062
 20
12.5360409588
 30
0.0
 10
12.2516291829
 20
12.5353308036
 30
0.0
 10
12.2446589672
 20
12.5346968711
 30
0.0
 10
12.2397974384
 20
12.534208296
 30
0.0
 10
12.2352495376
 20
12.533702511
 30
0.0
 10
12.231058495
 20
12.5331845246
 30
0.0
 10
12.2272641415
 20
12.5326594559
 30
0.0
 10
12.2243689657
 20
12.532206035
 30
0.0
 10
12.2222789369
 20
12.5318398492
 30
0.0
 10
12.2208876777
 20
12.5315763369
 30
0.0
 10
12.2196199117
 20
12.5313148652
 30
0.0
 10
12.2184786423
 20
12.5310560995
 30
0.0
 10
12.2174665655
 20
12.5308007475
 30
0.0
 10
12.2165859506
 20
12.5305495623
 30
0.0
 10
12.2158388158
 20
12.5303032304
 30
0.0
 10
12.2153033221
 20
12.530093162
 30
0.0
 10
12.2149452356
 20
12.5299248367
 30
0.0
 10
12.2147254657
 20
12.5298068449
 30
0.0
 10
12.2145400057
 20
12.5296904208
 30
0.0
 10
12.2143888065
 20
12.5295754941
 30
0.0
 10
12.2142717348
 20
12.5294618483
 30
0.0
 10
12.2141887429
 20
12.529348833
 30
0.0
 10
12.2141405503
 20
12.5292354837
 30
0.0
 10
12.2141332172
 20
12.5291583268
 30
0.0
 10
12.2141359318
 20
12.5291221455
 30
0.0
  0
SPLINE
  5
493
100
AcDbEntity
  8
0
100
AcDbSpline
 62
7
  6
CONTINUOUS
 70
0
 71
3
 72
31
 73
27
 74
0
 42
0.0000001
 43
0.0000001
 44
0.0000000001
 40
0.0
 40
0.0
 40
0.0
 40
0.0
 40
0.1939427315
 40
0.3802907207
 40
0.4683894995
 40
0.5519811501
 40
0.6302768293
 40
0.7025388495
 40
0.7680876732
 40
0.8263088041
 40
0.8524994042
 40
0.8766612674
 40
0.8987395687
 40
0.9186854025
 40
0.9364569978
 40
0.9520198817
 40
0.965350014
 40
0.9764370742
 40
0.981142879
 40
0.9852956934
 40
0.9889047269
 40
0.9919854699
 40
0.9945650341
 40
0.9966916975
 40
0.9984527049
 40
1.0
 40
1.0
 40
1.0
 40
1.0
 10
12.6246310966
 20
12.5359474085
 30
0.0
 10
12.6208537592
 20
12.5356837822
 30
0.0
 10
12.6134500443
 20
12.5351222486
 30
0.0
 10
12.6043404622
 20
12.5343170839
 30
0.0
 10
12.5973842632
 20
12.5336266647
 30
0.0
 10
12.592531266
 20
12.5331067352
 30
0.0
 10
12.5879901246
 20
12.5325800514
 30
0.0
 10
12.5838039902
 20
12.5320517645
 30
0.0
 10
12.5800127143
 20
12.5315270428
 30
0.0
 10
12.5771186029
 20
12.5310829681
 30
0.0
 10
12.5750283442
 20
12.5307301821
 30
0.0
 10
12.5736366589
 20
12.5304790092
 30
0.0
 10
12.5723681394
 20
12.5302324616
 30
0.0
 10
12.5712258338
 20
12.52999117
 30
0.0
 10
12.5702124882
 20
12.5297557916
 30
0.0
 10
12.569330451
 20
12.5295270322
 30
0.0
 10
12.5685818095
 20
12.5293055262
 30
0.0
 10
12.5680442869
 20
12.529118954
 30
0.0
 10
12.5676839956
 20
12.5289709101
 30
0.0
 10
12.5674632155
 20
12.5288681461
 30
0.0
 10
12.5672767595
 20
12.5287675746
 30
0.0
 10
12.5671245694
 20
12.5286691811
 30
0.0
 10
12.5670064158
 20
12.5285728284
 30
0.0
 10
12.5669220065
 20
12.5284779007
 30
0.0
 10
12.5668714763
 20
12.5283829518
 30
0.0
 10
12.5668625416
 20
12.5283170816
 30
0.0
 10
12.566864802
 20
12.528286957
 30
0.0
  0
SPLINE
  5
494
100
AcDbEntity
  8
0
100
AcDbSpline
 62
7
  6
CONTINUOUS
 70
0
 71
3
 72
33
 73
29
 74
0
 42
0.0000001
 43
0.0000001
 44
0.0000000001
 40
0.0
 40
0.0
 40
0.0
 40
0.0
 40
0.194309261
 40
0.2890654442
 40
0.3810179328
 40
0.4692970125
 40
0.5530674474
 40
0.6315366346
 40
0.7039612129
 40
0.7696540436
 40
0.8279910379
 40
0.8542251968
 40
0.878418779
 40
0.9005147929
 40
0.9204617387
 40
0.9382145268
 40
0.9537342619
 40
0.9669905488
 40
0.9779632447
 40
0.9825914714
 40
0.9866492635
 40
0.9901412383
 40
0.9930761834
 40
0.9954713303
 40
0.9973608843
 40
0.9981379088
 40
0.9988215115
 40
1.0
 40
1.0
 40
1.0
 40
1.0
 10
12.9035700093
 20
12.5350218603
 30
0.0
 10
12.8998016811
 20
12.5347157519
 30
0.0
 10
12.8941976875
 20
12.5342353231
 30
0.0
 10
12.8868158339
 20
12.5335498206
 30
0.0
 10
12.8814907154
 20
12.5330287236
 30
0.0
 10
12.8763810541
 20
12.532501381
 30
0.0
 10
12.8715353365
 20
12.5319728391
 30
0.0
 10
12.866999603
 20
12.5314481841
 30
0.0
 10
12.8628170243
 20
12.5309325179
 30
0.0
 10
12.8590275522
 20
12.5304308496
 30
0.0
 10
12.8561334076
 20
12.5300152847
 30
0.0
 10
12.8540420916
 20
12.5296911069
 30
0.0
 10
12.8526494938
 20
12.5294631043
 30
0.0
 10
12.8513797704
 20
12.5292421084
 30
0.0
 10
12.8502360101
 20
12.5290286859
 30
0.0
 10
12.8492210041
 20
12.5288234146
 30
0.0
 10
12.848337176
 20
12.528626916
 30
0.0
 10
12.8475866754
 20
12.5284397374
 30
0.0
 10
12.8470467922
 20
12.5282846756
 30
0.0
 10
12.8466839784
 20
12.5281633397
 30
0.0
 10
12.8464620195
 20
12.5280801988
 30
0.0
 10
12.8462744464
 20
12.5279997677
 30
0.0
 10
12.8461211532
 20
12.5279220952
 30
0.0
 10
12.8460020846
 20
12.5278471897
 30
0.0
 10
12.8459262857
 20
12.5277832427
 30
0.0
 10
12.8458851964
 20
12.5277322933
 30
0.0
 10
12.8458595412
 20
12.5276877263
 30
0.0
 10
12.8458514454
 20
12.527650537
 30
0.0
 10
12.8458531614
 20
12.5276276711
 30
0.0
  0
SPLINE
  5
495
100
AcDbEntity
  8
0
100
AcDbSpline
 62
7
  6
CONTINUOUS
 70
0
 71
3
 72
27
 73
23
 74
0
 42
0.0000001
 43
0.0000001
 44
0.0000000001
 40
0.0
 40
0.0
 40
0.0
 40
0.0
 40
0.0018935156
 40
0.003900816
 40
0.0061342717
 40
0.0086763147
 40
0.0148845995
 40
0.0227991281
 40
0.0325387265
 40
0.0441634223
 40
0.0577054125
 40
0.0731803647
 40
0.1099490187
 40
0.1544685618
 40
0.2066801116
 40
0.2664898844
 40
0.3337795858
 40
0.4084067601
 40
0.4902103572
 40
0.5790111351
 40
0.7767974597
 40
1.0
 40
1.0
 40
1.0
 40
1.0
 10
10.0892635688
 20
12.4650930424
 30
0.0
 10
10.0892643381
 20
12.4651033085
 30
0.0
 10
10.0892629772
 20
12.4651247794
 30
0.0
 10
10.0892522084
 20
12.4651566666
 30
0.0
 10
10.0892330822
 20
12.4651884612
 30
0.0
 10
10.0891940157
 20
12.465233903
 30
0.0
 10
10.0891220335
 20
12.4652900823
 30
0.0
 10
10.0890092169
 20
12.4653544983
 30
0.0
 10
10.0888640043
 20
12.4654201798
 30
0.0
 10
10.0886863155
 20
12.4654870683
 30
0.0
 10
10.0884760241
 20
12.4655551223
 30
0.0
 10
10.0881319552
 20
12.4656530173
 30
0.0
 10
10.0876200116
 20
12.4657751136
 30
0.0
 10
10.0869084376
 20
12.4659186328
 30
0.0
 10
10.0860700545
 20
12.4660656259
 30
0.0
 10
10.0851067368
 20
12.466215697
 30
0.0
 10
10.0840206153
 20
12.466368371
 30
0.0
 10
10.0828141481
 20
12.4665232516
 30
0.0
 10
10.0814900714
 20
12.4666799489
 30
0.0
 10
10.0794991351
 20
12.4668987251
 30
0.0
 10
10.076740813
 20
12.4671712621
 30
0.0
 10
10.0744607092
 20
12.4673718348
 30
0.0
 10
10.0732514189
 20
12.467473171
 30
0.0
  0
SPLINE
  5
496
100
AcDbEntity
  8
0
100
AcDbSpline
 62
7
  6
CONTINUOUS
 70
0
 71
3
 72
34
 73
30
 74
0
 42
0.0000001
 43
0.0000001
 44
0.0000000001
 40
0.0
 40
0.0
 40
0.0
 40
0.0
 40
0.1946843996
 40
0.2896260016
 40
0.381763366
 40
0.4702253101
 40
0.5541734433
 40
0.632810453
 40
0.7053869207
 40
0.7712085467
 40
0.8296429457
 40
0.8801265213
 40
0.9022314004
 40
0.9221719229
 40
0.9399005324
 40
0.9553749924
 40
0.9685599591
 40
0.9742849234
 40
0.9794278233
 40
0.9839865078
 40
0.9879601738
 40
0.9913492842
 40
0.9941561939
 40
0.9963876545
 40
0.9980596701
 40
0.9986980692
 40
0.9992174869
 40
0.9996387177
 40
1.0
 40
1.0
 40
1.0
 40
1.0
 10
13.0965906347
 20
12.533979414
 30
0.0
 10
13.0928309867
 20
12.533644489
 30
0.0
 10
13.087239225
 20
12.533130851
 30
0.0
 10
13.0798716495
 20
12.5324216835
 30
0.0
 10
13.0745556222
 20
12.5318936186
 30
0.0
 10
13.0694533744
 20
12.5313699597
 30
0.0
 10
13.0646133121
 20
12.5308556898
 30
0.0
 10
13.0600814839
 20
12.530355737
 30
0.0
 10
13.0559011562
 20
12.5298749152
 30
0.0
 10
13.0521124073
 20
12.5294179322
 30
0.0
 10
13.0487517615
 20
12.5289892581
 30
0.0
 10
13.0462347699
 20
12.5286457571
 30
0.0
 10
13.0444596918
 20
12.5283861377
 30
0.0
 10
13.0433142848
 20
12.5282097414
 30
0.0
 10
13.0422974342
 20
12.5280433947
 30
0.0
 10
13.0414116501
 20
12.5278875254
 30
0.0
 10
13.0407569629
 20
12.5277615738
 30
0.0
 10
13.0403006611
 20
12.5276652988
 30
0.0
 10
13.0400089086
 20
12.5275993993
 30
0.0
 10
13.0397513478
 20
12.5275364095
 30
0.0
 10
13.0395281109
 20
12.5274763956
 30
0.0
 10
13.0393393206
 20
12.527419429
 30
0.0
 10
13.039184929
 20
12.527365637
 30
0.0
 10
13.0390650145
 20
12.5273150617
 30
0.0
 10
13.0389872969
 20
12.5272727992
 30
0.0
 10
13.0389438058
 20
12.5272391229
 30
0.0
 10
13.0389226567
 20
12.5272167525
 30
0.0
 10
13.0389098484
 20
12.5271945984
 30
0.0
 10
13.0389074286
 20
12.527179113
 30
0.0
 10
13.0389079528
 20
12.5271721281
 30
0.0
  0
LINE
  5
497
100
AcDbEntity
  8
0
100
AcDbLine
 62
7
  6
CONTINUOUS
 10
10.9376923427
 20
15.53562669
 11
11.171107992
 21
15.5385663622
  0
SPLINE
  5
498
100
AcDbEntity
  8
0
100
AcDbSpline
 62
9
  6
CONTINUOUS
 70
0
 71
3
 72
44
 73
40
 74
0
 42
0.0000001
 43
0.0000001
 44
0.0000000001
 40
0.0
 40
0.0
 40
0.0
 40
0.0
 40
0.0045813121
 40
0.0088428176
 40
0.0129120082
 40
0.0169568055
 40
0.0211692614
 40
0.0257337264
 40
0.0308028078
 40
0.0364959247
 40
0.042907441
 40
0.0501072941
 40
0.0581465424
 40
0.0670567197
 40
0.0768570404
 40
0.0875566477
 40
0.0991533432
 40
0.1116372091
 40
0.1391709783
 40
0.169910156
 40
0.2035058106
 40
0.2395378246
 40
0.2775554889
 40
0.3170990621
 40
0.3577339454
 40
0.3990641595
 40
0.4407425548
 40
0.4824760169
 40
0.5651845709
 40
0.6058181258
 40
0.6458030407
 40
0.685054765
 40
0.7235102642
 40
0.7611303036
 40
0.7978855903
 40
0.8337635464
 40
0.8687576183
 40
0.9361119986
 40
1.0
 40
1.0
 40
1.0
 40
1.0
 10
10.7931415308
 20
3.1099636546
 30
0.0
 10
10.7932585144
 20
3.110005398
 30
0.0
 10
10.7934901449
 20
3.11007127
 30
0.0
 10
10.7938400528
 20
3.1101094563
 30
0.0
 10
10.7941767121
 20
3.1100788551
 30
0.0
 10
10.7944975005
 20
3.109975806
 30
0.0
 10
10.7947998452
 20
3.109799237
 30
0.0
 10
10.7950826798
 20
3.1095493602
 30
0.0
 10
10.7953458255
 20
3.1092257842
 30
0.0
 10
10.795588645
 20
3.1088271442
 30
0.0
 10
10.795810315
 20
3.1083520958
 30
0.0
 10
10.7960111781
 20
3.1077999124
 30
0.0
 10
10.7961912519
 20
3.107169973
 30
0.0
 10
10.7963499019
 20
3.1064619532
 30
0.0
 10
10.7964859215
 20
3.1056760012
 30
0.0
 10
10.7965985751
 20
3.1048129117
 30
0.0
 10
10.7966878042
 20
3.1038740185
 30
0.0
 10
10.7967780472
 20
3.1024773931
 30
0.0
 10
10.7968239458
 20
3.1005587797
 30
0.0
 10
10.7967804199
 20
3.0980679016
 30
0.0
 10
10.796640942
 20
3.0953498956
 30
0.0
 10
10.7964080006
 20
3.0924403802
 30
0.0
 10
10.7960835142
 20
3.0893775006
 30
0.0
 10
10.7956758166
 20
3.0861987656
 30
0.0
 10
10.7951864739
 20
3.0829407419
 30
0.0
 10
10.794624921
 20
3.0796357069
 30
0.0
 10
10.7939963888
 20
3.0763124099
 30
0.0
 10
10.7930771535
 20
3.0719031949
 30
0.0
 10
10.792051642
 20
3.0675456302
 30
0.0
 10
10.7909220956
 20
3.0632638314
 30
0.0
 10
10.7900405587
 20
3.0601355954
 30
0.0
 10
10.7891228096
 20
3.0570793966
 30
0.0
 10
10.7881706316
 20
3.05410099
 30
0.0
 10
10.7871886418
 20
3.0512036696
 30
0.0
 10
10.7861809962
 20
3.0483892948
 30
0.0
 10
10.7851495733
 20
3.0456595086
 30
0.0
 10
10.7837622212
 20
3.0421779985
 30
0.0
 10
10.7819831872
 20
3.0380359166
 30
0.0
 10
10.7804623704
 20
3.0348180494
 30
0.0
 10
10.7796923427
 20
3.033266495
 30
0.0
  0
SPLINE
  5
499
100
AcDbEntity
  8
0
100
AcDbSpline
 62
9
  6
CONTINUOUS
 70
0
 71
3
 72
21
 73
17
 74
0
 42
0.0000001
 43
0.0000001
 44
0.0000000001
 40
0.0
 40
0.0
 40
0.0
 40
0.0
 40
0.1448794158
 40
0.2164983298
 40
0.2871072818
 40
0.4240293942
 40
0.4899664682
 40
0.5539480407
 40
0.6158722091
 40
0.6757098337
 40
0.7335131862
 40
0.7894223563
 40
0.8436691976
 40
0.8965717102
 40
0.9485316933
 40
1.0
 40
1.0
 40
1.0
 40
1.0
 10
10.7796923427
 20
3.0332665441
 30
0.0
 10
10.7822998652
 20
3.0332665441
 30
0.0
 10
10.7862037575
 20
3.0329974626
 30
0.0
 10
10.7912956381
 20
3.0320976782
 30
0.0
 10
10.7961701884
 20
3.0308676206
 30
0.0
 10
10.8008027857
 20
3.0291355006
 30
0.0
 10
10.8050628559
 20
3.0269079958
 30
0.0
 10
10.8079765276
 20
3.0250464969
 30
0.0
 10
10.8106195467
 20
3.0229913295
 30
0.0
 10
10.8129666626
 20
3.0207615088
 30
0.0
 10
10.8149949107
 20
3.0183778454
 30
0.0
 10
10.8166842049
 20
3.0158626142
 30
0.0
 10
10.8180172693
 20
3.0132396218
 30
0.0
 10
10.8189801891
 20
3.0105338644
 30
0.0
 10
10.8195622586
 20
3.0077726226
 30
0.0
 10
10.8196923427
 20
3.0059085932
 30
0.0
 10
10.8196923427
 20
3.0049822728
 30
0.0
  0
SPLINE
  5
49A
100
AcDbEntity
  8
0
100
AcDbSpline
 62
7
  6
CONTINUOUS
 70
0
 71
3
 72
34
 73
30
 74
0
 42
0.0000001
 43
0.0000001
 44
0.0000000001
 40
0.0
 40
0.0
 40
0.0
 40
0.0
 40
0.000360604
 40
0.0007761752
 40
0.001286736
 40
0.0019143796
 40
0.0035616664
 40
0.0057660245
 40
0.0085443357
 40
0.0119038539
 40
0.0158472169
 40
0.0203750583
 40
0.0254867785
 40
0.0311804064
 40
0.0443027144
 40
0.0597155631
 40
0.0773846612
 40
0.0972689187
 40
0.1193218485
 40
0.1697183054
 40
0.2280934271
 40
0.2938887406
 40
0.3664744923
 40
0.4451559973
 40
0.5291811071
 40
0.6177467421
 40
0.7100060862
 40
0.8050777838
 40
1.0
 40
1.0
 40
1.0
 40
1.0
 10
9.7744423598
 20
12.4643475597
 30
0.0
 10
9.7744428825
 20
12.4643545251
 30
0.0
 10
9.7744405261
 20
12.4643698874
 30
0.0
 10
9.7744277009
 20
12.4643916951
 30
0.0
 10
9.7744065197
 20
12.464413332
 30
0.0
 10
9.7743629711
 20
12.4644454392
 30
0.0
 10
9.7742851635
 20
12.4644847989
 30
0.0
 10
9.7741652242
 20
12.4645308229
 30
0.0
 10
9.7740107873
 20
12.4645787349
 30
0.0
 10
9.7738219282
 20
12.4646284949
 30
0.0
 10
9.773598588
 20
12.4646799734
 30
0.0
 10
9.7733408861
 20
12.4647331035
 30
0.0
 10
9.7730489482
 20
12.4647878234
 30
0.0
 10
9.7725921968
 20
12.4648666202
 30
0.0
 10
9.7719368363
 20
12.4649674547
 30
0.0
 10
9.7710501532
 20
12.4650892913
 30
0.0
 10
9.7700320834
 20
12.4652165502
 30
0.0
 10
9.7688850885
 20
12.4653489013
 30
0.0
 10
9.7671068125
 20
12.4655402875
 30
0.0
 10
9.7645846814
 20
12.465786981
 30
0.0
 10
9.7612165128
 20
12.4660863173
 30
0.0
 10
9.7574179802
 20
12.4663974579
 30
0.0
 10
9.7532255782
 20
12.4667173285
 30
0.0
 10
9.7486795096
 20
12.4670427462
 30
0.0
 10
9.7438233266
 20
12.4673705384
 30
0.0
 10
9.7387035189
 20
12.467697521
 30
0.0
 10
9.733369076
 20
12.4680205424
 30
0.0
 10
9.7259768972
 20
12.4684453026
 30
0.0
 10
9.7203674689
 20
12.4687428299
 30
0.0
 10
9.7165965234
 20
12.4689323297
 30
0.0
  0
SPLINE
  5
49B
100
AcDbEntity
  8
0
100
AcDbSpline
 62
9
  6
CONTINUOUS
 70
0
 71
3
 72
11
 73
7
 74
0
 42
0.0000001
 43
0.0000001
 44
0.0000000001
 40
0.0
 40
0.0
 40
0.0
 40
0.0
 40
0.2742485203
 40
0.5337637999
 40
0.7764699813
 40
1.0
 40
1.0
 40
1.0
 40
1.0
 10
10.7796923427
 20
2.3201447964
 30
0.0
 10
10.7802735452
 20
2.3189739509
 30
0.0
 10
10.7814211477
 20
2.3167032499
 30
0.0
 10
10.7831480925
 20
2.3134296792
 30
0.0
 10
10.7848288268
 20
2.3104059149
 30
0.0
 10
10.7859634724
 20
2.3084945828
 30
0.0
 10
10.7865255995
 20
2.3075895218
 30
0.0
  0
SPLINE
  5
49C
100
AcDbEntity
  8
0
100
AcDbSpline
 62
7
  6
CONTINUOUS
 70
0
 71
3
 72
32
 73
28
 74
0
 42
0.0000001
 43
0.0000001
 44
0.0000000001
 40
0.0
 40
0.0
 40
0.0
 40
0.0
 40
0.2253077468
 40
0.3281284241
 40
0.4241407002
 40
0.5131685472
 40
0.5950511871
 40
0.6696416466
 40
0.736807976
 40
0.7964341509
 40
0.8484215173
 40
0.8715254536
 40
0.8926922649
 40
0.9119158747
 40
0.9291930109
 40
0.9445229438
 40
0.9579091714
 40
0.9693616959
 40
0.9789006939
 40
0.9829652259
 40
0.9865696866
 40
0.9897263415
 40
0.9924538009
 40
0.9947813785
 40
0.9967564409
 40
0.9984562231
 40
1.0
 40
1.0
 40
1.0
 40
1.0
 10
11.2074461017
 20
15.4549900369
 30
0.0
 10
11.2134604107
 20
15.4552983504
 30
0.0
 10
11.2222183342
 20
15.455768931
 30
0.0
 10
11.2335353126
 20
15.4564389819
 30
0.0
 10
11.2412140953
 20
15.4569258431
 30
0.0
 10
11.2483320436
 20
15.45741242
 30
0.0
 10
11.2548759975
 20
15.4578986481
 30
0.0
 10
11.2608339018
 20
15.4583844223
 30
0.0
 10
11.2661948157
 20
15.4588695446
 30
0.0
 10
11.2709488921
 20
15.4593538738
 30
0.0
 10
11.2745256837
 20
15.4597711204
 30
0.0
 10
11.2770763038
 20
15.4601090906
 30
0.0
 10
11.2787559615
 20
15.4603523228
 30
0.0
 10
11.2802781341
 20
15.4605953375
 30
0.0
 10
11.2816421689
 20
15.4608380738
 30
0.0
 10
11.2828475082
 20
15.4610804474
 30
0.0
 10
11.2838937972
 20
15.4613222824
 30
0.0
 10
11.2847806987
 20
15.461563476
 30
0.0
 10
11.2854173256
 20
15.4617732605
 30
0.0
 10
11.2858443814
 20
15.4619444869
 30
0.0
 10
11.2861072182
 20
15.4620658801
 30
0.0
 10
11.2863302062
 20
15.4621871929
 30
0.0
 10
11.2865135215
 20
15.4623085577
 30
0.0
 10
11.2866574432
 20
15.4624302578
 30
0.0
 10
11.2867621755
 20
15.462553089
 30
0.0
 10
11.28682715
 20
15.4626782834
 30
0.0
 10
11.2868423431
 20
15.462765474
 30
0.0
 10
11.2868423426
 20
15.4628067373
 30
0.0
  0
SPLINE
  5
49D
100
AcDbEntity
  8
0
100
AcDbSpline
 62
7
  6
CONTINUOUS
 70
0
 71
3
 72
18
 73
14
 74
0
 42
0.0000001
 43
0.0000001
 44
0.0000000001
 40
0.0
 40
0.0
 40
0.0
 40
0.0
 40
0.0191390677
 40
0.0404802996
 40
0.0660712616
 40
0.0971248574
 40
0.1343184529
 40
0.1780410227
 40
0.2858933969
 40
0.4217387138
 40
0.5859678313
 40
0.7787269122
 40
1.0
 40
1.0
 40
1.0
 40
1.0
 10
10.9960492608
 20
12.446161938
 30
0.0
 10
10.9960501881
 20
12.4461742922
 30
0.0
 10
10.9960466953
 20
12.4462010555
 30
0.0
 10
10.9960258743
 20
12.4462391783
 30
0.0
 10
10.9959910142
 20
12.4462761773
 30
0.0
 10
10.9959422774
 20
12.4463127565
 30
0.0
 10
10.9958795125
 20
12.4463492335
 30
0.0
 10
10.9957689689
 20
12.4464015436
 30
0.0
 10
10.9955935843
 20
12.4464646636
 30
0.0
 10
10.9953393571
 20
12.4465363763
 30
0.0
 10
10.9950283876
 20
12.44660805
 30
0.0
 10
10.9946609201
 20
12.4466795685
 30
0.0
 10
10.9943965867
 20
12.4467239741
 30
0.0
 10
10.9942551164
 20
12.446746379
 30
0.0
  0
SPLINE
  5
49E
100
AcDbEntity
  8
0
100
AcDbSpline
 62
7
  6
CONTINUOUS
 70
0
 71
3
 72
30
 73
26
 74
0
 42
0.0000001
 43
0.0000001
 44
0.0000000001
 40
0.0
 40
0.0
 40
0.0
 40
0.0
 40
0.2086932458
 40
0.3055949383
 40
0.3971484852
 40
0.4830853794
 40
0.5631537559
 40
0.6371195063
 40
0.7047671172
 40
0.7659005578
 40
0.820344246
 40
0.8679443634
 40
0.8891366501
 40
0.9085711994
 40
0.92623617
 40
0.9421214397
 40
0.9562197451
 40
0.9685266259
 40
0.9790424455
 40
0.9836308043
 40
0.9877750051
 40
0.9914780496
 40
0.9947444621
 40
0.9975813261
 40
1.0
 40
1.0
 40
1.0
 40
1.0
 10
11.1476925195
 20
15.4549900369
 30
0.0
 10
11.1573623013
 20
15.4553839763
 30
0.0
 10
11.1715211499
 20
15.4559828219
 30
0.0
 10
11.1899190264
 20
15.45682446
 30
0.0
 10
11.2026286383
 20
15.4574397685
 30
0.0
 10
11.2145566787
 20
15.4580547949
 30
0.0
 10
11.2256679775
 20
15.458669487
 30
0.0
 10
11.2359297755
 20
15.4592837355
 30
0.0
 10
11.2453118299
 20
15.4598974123
 30
0.0
 10
11.2537865312
 20
15.4605102649
 30
0.0
 10
11.2613289361
 20
15.4611221073
 30
0.0
 10
11.2670196736
 20
15.4616489303
 30
0.0
 10
11.2710887859
 20
15.4620756631
 30
0.0
 10
11.273774494
 20
15.462382978
 30
0.0
 10
11.2762123844
 20
15.4626899947
 30
0.0
 10
11.2784007074
 20
15.4629966668
 30
0.0
 10
11.2803379531
 20
15.4633028082
 30
0.0
 10
11.2820227852
 20
15.4636083295
 30
0.0
 10
11.283266483
 20
15.4638726337
 30
0.0
 10
11.2841329621
 20
15.464087377
 30
0.0
 10
11.2846889191
 20
15.464240898
 30
0.0
 10
11.2851810686
 20
15.4643942419
 30
0.0
 10
11.2856094443
 20
15.4645473978
 30
0.0
 10
11.2859740691
 20
15.4647003162
 30
0.0
 10
11.286191794
 20
15.4648106747
 30
0.0
 10
11.2862888907
 20
15.4648668223
 30
0.0
  0
LINE
  5
49F
100
AcDbEntity
  8
0
100
AcDbLine
 62
7
  6
CONTINUOUS
 10
9.2016959997
 20
12.4937245263
 11
9.1603888224
 21
12.4970875669
  0
SPLINE
  5
4A0
100
AcDbEntity
  8
0
100
AcDbSpline
 62
9
  6
CONTINUOUS
 70
0
 71
3
 72
21
 73
17
 74
0
 42
0.0000001
 43
0.0000001
 44
0.0000000001
 40
0.0
 40
0.0
 40
0.0
 40
0.0
 40
0.1448793513
 40
0.216498226
 40
0.2871071366
 40
0.4240291684
 40
0.4899662086
 40
0.5539477547
 40
0.6158719066
 40
0.675709527
 40
0.7335128899
 40
0.7894220862
 40
0.84366897
 40
0.8965715419
 40
0.9485316013
 40
1.0
 40
1.0
 40
1.0
 40
1.0
 10
10.7796923427
 20
2.3201447257
 30
0.0
 10
10.7822998649
 20
2.3201447298
 30
0.0
 10
10.7862037571
 20
2.3198756539
 30
0.0
 10
10.791295638
 20
2.3189758755
 30
0.0
 10
10.7961701883
 20
2.3177458229
 30
0.0
 10
10.8008027859
 20
2.3160137062
 30
0.0
 10
10.805062856
 20
2.3137862031
 30
0.0
 10
10.8079765277
 20
2.3119247046
 30
0.0
 10
10.8106195469
 20
2.3098695368
 30
0.0
 10
10.8129666628
 20
2.3076397146
 30
0.0
 10
10.8149949109
 20
2.305256049
 30
0.0
 10
10.816684205
 20
2.3027408149
 30
0.0
 10
10.8180172694
 20
2.3001178188
 30
0.0
 10
10.8189801893
 20
2.2974120569
 30
0.0
 10
10.8195622587
 20
2.2946508099
 30
0.0
 10
10.8196923427
 20
2.2927867769
 30
0.0
 10
10.8196923427
 20
2.2918604545
 30
0.0
  0
SPLINE
  5
4A1
100
AcDbEntity
  8
0
100
AcDbSpline
 62
9
  6
CONTINUOUS
 70
0
 71
3
 72
21
 73
17
 74
0
 42
0.0000001
 43
0.0000001
 44
0.0000000001
 40
0.0
 40
0.0
 40
0.0
 40
0.0
 40
0.1320451305
 40
0.2625371403
 40
0.3270690595
 40
0.3910160921
 40
0.4543437174
 40
0.517035707
 40
0.5790950747
 40
0.6405445
 40
0.701426162
 40
0.7618008968
 40
0.8217475638
 40
0.8813565492
 40
0.9407397569
 40
1.0
 40
1.0
 40
1.0
 40
1.0
 10
10.7865256131
 20
2.3075895917
 30
0.0
 10
10.788811571
 20
2.3072366741
 30
0.0
 10
10.7933096386
 20
2.3061788991
 30
0.0
 10
10.7986321589
 20
2.3039888209
 30
0.0
 10
10.8025869481
 20
2.3017573571
 30
0.0
 10
10.8053687248
 20
2.2998657467
 30
0.0
 10
10.8079545865
 20
2.2977648748
 30
0.0
 10
10.8103249333
 20
2.2954706036
 30
0.0
 10
10.8124615247
 20
2.2930003791
 30
0.0
 10
10.8143479338
 20
2.2903729775
 30
0.0
 10
10.8159695892
 20
2.287608417
 30
0.0
 10
10.8173139579
 20
2.2847277939
 30
0.0
 10
10.8183705538
 20
2.2817532036
 30
0.0
 10
10.8191312993
 20
2.2787072977
 30
0.0
 10
10.8195900449
 20
2.2756139293
 30
0.0
 10
10.8196923243
 20
2.2735342091
 30
0.0
 10
10.81969232
 20
2.2724961449
 30
0.0
  0
SPLINE
  5
4A2
100
AcDbEntity
  8
0
100
AcDbSpline
 62
7
  6
CONTINUOUS
 70
0
 71
3
 72
39
 73
35
 74
0
 42
0.0000001
 43
0.0000001
 44
0.0000000001
 40
0.0
 40
0.0
 40
0.0
 40
0.0
 40
0.0001313311
 40
0.0002348364
 40
0.0003711245
 40
0.0007493152
 40
0.0012736377
 40
0.0019464405
 40
0.0027686994
 40
0.0048630998
 40
0.0075583176
 40
0.0108539991
 40
0.0147484618
 40
0.0192396397
 40
0.0243252156
 40
0.0300020075
 40
0.0431149971
 40
0.0585467367
 40
0.0762589535
 40
0.0962074204
 40
0.118342763
 40
0.1426095059
 40
0.1689473732
 40
0.1972908916
 40
0.2275694198
 40
0.2936272689
 40
0.3664679066
 40
0.4453744078
 40
0.5295737014
 40
0.6182447303
 40
0.7105263051
 40
0.8055262054
 40
0.9023266584
 40
1.0
 40
1.0
 40
1.0
 40
1.0
 10
13.2537318964
 20
12.5377343928
 30
0.0
 10
13.2537320886
 20
12.5377369549
 30
0.0
 10
13.253728565
 20
12.5377412486
 30
0.0
 10
13.2537222262
 20
12.5377444112
 30
0.0
 10
13.2537107711
 20
12.5377486138
 30
0.0
 10
13.2536908359
 20
12.5377526387
 30
0.0
 10
13.2536602553
 20
12.5377566285
 30
0.0
 10
13.2536208669
 20
12.5377597836
 30
0.0
 10
13.2535507248
 20
12.5377632784
 30
0.0
 10
13.2534409273
 20
12.5377650241
 30
0.0
 10
13.2532827509
 20
12.537763949
 30
0.0
 10
13.2530894013
 20
12.5377596305
 30
0.0
 10
13.2528609976
 20
12.5377520768
 30
0.0
 10
13.2525976752
 20
12.5377412526
 30
0.0
 10
13.2522995961
 20
12.5377271579
 30
0.0
 10
13.2518331478
 20
12.5377027977
 30
0.0
 10
13.2511647929
 20
12.5376637565
 30
0.0
 10
13.2502616889
 20
12.53760607
 30
0.0
 10
13.2492254129
 20
12.5375356017
 30
0.0
 10
13.2480585538
 20
12.537452516
 30
0.0
 10
13.2467640311
 20
12.5373570007
 30
0.0
 10
13.2453450739
 20
12.5372492878
 30
0.0
 10
13.2438052231
 20
12.5371296388
 30
0.0
 10
13.2421483135
 20
12.5369983498
 30
0.0
 10
13.2397170338
 20
12.5368024435
 30
0.0
 10
13.2364185331
 20
12.5365306981
 30
0.0
 10
13.2321725777
 20
12.536172929
 30
0.0
 10
13.227573582
 20
12.5357781404
 30
0.0
 10
13.2226666026
 20
12.5353501951
 30
0.0
 10
13.2174995008
 20
12.5348932596
 30
0.0
 10
13.212122453
 20
12.5344117701
 30
0.0
 10
13.2065875141
 20
12.5339103879
 30
0.0
 10
13.2009480292
 20
12.5333939473
 30
0.0
 10
13.1971596519
 20
12.5330433723
 30
0.0
 10
13.1952570452
 20
12.5328663965
 30
0.0
  0
SPLINE
  5
4A3
100
AcDbEntity
  8
0
100
AcDbSpline
 62
7
  6
CONTINUOUS
 70
0
 71
3
 72
28
 73
24
 74
0
 42
0.0000001
 43
0.0000001
 44
0.0000000001
 40
0.0
 40
0.0
 40
0.0
 40
0.0
 40
0.0014962673
 40
0.0028560306
 40
0.0046848406
 40
0.0069974943
 40
0.0098010377
 40
0.0168940062
 40
0.0259793252
 40
0.0370604871
 40
0.0501372268
 40
0.0652075841
 40
0.1013104272
 40
0.1453204367
 40
0.197174684
 40
0.2567951084
 40
0.32409171
 40
0.3989616651
 40
0.4812902695
 40
0.5709515133
 40
0.6678072496
 40
0.7717090717
 40
1.0
 40
1.0
 40
1.0
 40
1.0
 10
10.5193885762
 20
12.431539031
 30
0.0
 10
10.5193889899
 20
12.4315445449
 30
0.0
 10
10.5193784434
 20
12.4315528461
 30
0.0
 10
10.5193635667
 20
12.4315595608
 30
0.0
 10
10.5193440099
 20
12.4315664054
 30
0.0
 10
10.5193193635
 20
12.4315731013
 30
0.0
 10
10.5192753087
 20
12.4315831707
 30
0.0
 10
10.5192062623
 20
12.4315954891
 30
0.0
 10
10.5191065502
 20
12.4316099815
 30
0.0
 10
10.5189846121
 20
12.4316249352
 30
0.0
 10
10.5188404632
 20
12.4316403632
 30
0.0
 10
10.5186040971
 20
12.4316628846
 30
0.0
 10
10.5182534963
 20
12.4316914246
 30
0.0
 10
10.5177670139
 20
12.4317256436
 30
0.0
 10
10.5171935359
 20
12.4317614195
 30
0.0
 10
10.5165339424
 20
12.4317986827
 30
0.0
 10
10.5157892469
 20
12.4318373433
 30
0.0
 10
10.5149605962
 20
12.4318773303
 30
0.0
 10
10.5140492665
 20
12.4319185719
 30
0.0
 10
10.5130566631
 20
12.431960998
 30
0.0
 10
10.5119843142
 20
12.4320045404
 30
0.0
 10
10.5103999701
 20
12.4320659384
 30
0.0
 10
10.5091731685
 20
12.4321104353
 30
0.0
 10
10.5083300466
 20
12.4321400159
 30
0.0
  0
SPLINE
  5
4A4
100
AcDbEntity
  8
0
100
AcDbSpline
 62
7
  6
CONTINUOUS
 70
0
 71
3
 72
34
 73
30
 74
0
 42
0.0000001
 43
0.0000001
 44
0.0000000001
 40
0.0
 40
0.0
 40
0.0
 40
0.0
 40
0.0003523381
 40
0.0007428511
 40
0.0012191224
 40
0.0018083194
 40
0.0025247973
 40
0.0033764154
 40
0.0055010912
 40
0.0082031522
 40
0.0114908802
 40
0.0153673845
 40
0.019833547
 40
0.024888996
 40
0.0305319118
 40
0.0435695958
 40
0.0589206072
 40
0.0765503706
 40
0.1184735795
 40
0.1689348299
 40
0.2274390973
 40
0.29340934
 40
0.3661942212
 40
0.4450761443
 40
0.5292794896
 40
0.6179792657
 40
0.7103094867
 40
0.8053729267
 40
1.0
 40
1.0
 40
1.0
 40
1.0
 10
13.155047547
 20
12.5374952069
 30
0.0
 10
13.1550480623
 20
12.5375020761
 30
0.0
 10
13.1550458773
 20
12.5375169855
 30
0.0
 10
13.1550327549
 20
12.5375374681
 30
0.0
 10
13.1550111244
 20
12.5375563209
 30
0.0
 10
13.1549810573
 20
12.5375741575
 30
0.0
 10
13.1549423945
 20
12.5375911827
 30
0.0
 10
13.1548740392
 20
12.5376146053
 30
0.0
 10
13.1547658838
 20
12.5376405058
 30
0.0
 10
13.1546094158
 20
12.5376669764
 30
0.0
 10
13.1544178902
 20
12.5376903958
 30
0.0
 10
13.1541913927
 20
12.5377107347
 30
0.0
 10
13.1539299898
 20
12.537727897
 30
0.0
 10
13.153633825
 20
12.5377418484
 30
0.0
 10
13.1531699923
 20
12.5377568361
 30
0.0
 10
13.1525046549
 20
12.5377660176
 30
0.0
 10
13.1516049301
 20
12.5377637794
 30
0.0
 10
13.1501406204
 20
12.5377420378
 30
0.0
 10
13.1479905839
 20
12.5376783936
 30
0.0
 10
13.1450430929
 20
12.5375554793
 30
0.0
 10
13.1416272813
 20
12.5373824327
 30
0.0
 10
13.1377770269
 20
12.5371608644
 30
0.0
 10
13.1335304585
 20
12.5368927795
 30
0.0
 10
13.1289295344
 20
12.5365807672
 30
0.0
 10
13.1240195611
 20
12.5362278557
 30
0.0
 10
13.1188487107
 20
12.5358374886
 30
0.0
 10
13.1134675004
 20
12.5354134809
 30
0.0
 10
13.1060235487
 20
12.5348039769
 30
0.0
 10
13.1003807627
 20
12.5343170542
 30
0.0
 10
13.0965906347
 20
12.533979414
 30
0.0
  0
SPLINE
  5
4A5
100
AcDbEntity
  8
0
100
AcDbSpline
 62
7
  6
CONTINUOUS
 70
0
 71
3
 72
34
 73
30
 74
0
 42
0.0000001
 43
0.0000001
 44
0.0000000001
 40
0.0
 40
0.0
 40
0.0
 40
0.0
 40
0.0005694898
 40
0.0011551931
 40
0.0025070832
 40
0.0042605147
 40
0.0065075553
 40
0.0092911177
 40
0.0126327133
 40
0.0165433243
 40
0.0210288216
 40
0.0260921768
 40
0.0317339327
 40
0.0447483776
 40
0.0600562038
 40
0.0776290029
 40
0.0974294811
 40
0.119413477
 40
0.1435295565
 40
0.1697206607
 40
0.2280703703
 40
0.2938961629
 40
0.3665532881
 40
0.4453278924
 40
0.5294456894
 40
0.6180810485
 40
0.7103658202
 40
0.8053996138
 40
1.0
 40
1.0
 40
1.0
 40
1.0
 10
12.96199186
 20
12.5370277195
 30
0.0
 10
12.961992693
 20
12.537038824
 30
0.0
 10
12.9619914175
 20
12.5370616963
 30
0.0
 10
12.9619755151
 20
12.537108634
 30
0.0
 10
12.9619280165
 20
12.5371656067
 30
0.0
 10
12.9618408648
 20
12.5372245041
 30
0.0
 10
12.9617201665
 20
12.5372805022
 30
0.0
 10
12.9615651034
 20
12.537333538
 30
0.0
 10
12.9613752931
 20
12.5373838138
 30
0.0
 10
12.9611506467
 20
12.5374311897
 30
0.0
 10
12.9608911887
 20
12.537475609
 30
0.0
 10
12.9605970181
 20
12.5375170018
 30
0.0
 10
12.9601362905
 20
12.5375706596
 30
0.0
 10
12.9594744825
 20
12.5376277005
 30
0.0
 10
12.9585785819
 20
12.5376810416
 30
0.0
 10
12.9575492118
 20
12.5377216777
 30
0.0
 10
12.9563888487
 20
12.5377494496
 30
0.0
 10
12.9551002995
 20
12.5377641856
 30
0.0
 10
12.9536867127
 20
12.5377658212
 30
0.0
 10
12.9515620966
 20
12.5377498351
 30
0.0
 10
12.9486222904
 20
12.5376942287
 30
0.0
 10
12.9447751485
 20
12.537578512
 30
0.0
 10
12.9405301411
 20
12.5374123224
 30
0.0
 10
12.935929242
 20
12.5371972249
 30
0.0
 10
12.93101787
 20
12.5369352519
 30
0.0
 10
12.9258444058
 20
12.5366289499
 30
0.0
 10
12.9204596431
 20
12.5362813238
 30
0.0
 10
12.9130096583
 20
12.5357631184
 30
0.0
 10
12.9073626928
 20
12.5353299471
 30
0.0
 10
12.9035700093
 20
12.5350218603
 30
0.0
  0
SPLINE
  5
4A6
100
AcDbEntity
  8
0
100
AcDbSpline
 62
7
  6
CONTINUOUS
 70
0
 71
3
 72
31
 73
27
 74
0
 42
0.0000001
 43
0.0000001
 44
0.0000000001
 40
0.0
 40
0.0
 40
0.0
 40
0.0
 40
0.0015247811
 40
0.0031935466
 40
0.0051860147
 40
0.0076103431
 40
0.0105265064
 40
0.013968132
 40
0.0179543273
 40
0.0224964579
 40
0.0332708697
 40
0.0463140064
 40
0.0616205755
 40
0.0791695742
 40
0.0989289215
 40
0.1208583701
 40
0.1449095744
 40
0.1710280257
 40
0.2292170926
 40
0.2948732339
 40
0.367361918
 40
0.4459766469
 40
0.5299479769
 40
0.6184528585
 40
0.8055583125
 40
1.0
 40
1.0
 40
1.0
 40
1.0
 10
12.6830023545
 20
12.5363531479
 30
0.0
 10
12.6830045864
 20
12.5363829016
 30
0.0
 10
12.6829963945
 20
12.5364468567
 30
0.0
 10
12.6829451864
 20
12.5365366018
 30
0.0
 10
12.6828594987
 20
12.5366206854
 30
0.0
 10
12.68274004
 20
12.5367011173
 30
0.0
 10
12.6825863637
 20
12.536778714
 30
0.0
 10
12.6823981451
 20
12.5368536864
 30
0.0
 10
12.6821752484
 20
12.5369260688
 30
0.0
 10
12.68181051
 20
12.5370246988
 30
0.0
 10
12.6812666196
 20
12.5371371012
 30
0.0
 10
12.6805099875
 20
12.5372549594
 30
0.0
 10
12.6796180085
 20
12.5373614487
 30
0.0
 10
12.6785927098
 20
12.537456213
 30
0.0
 10
12.6774364095
 20
12.5375388337
 30
0.0
 10
12.6761518603
 20
12.5376090141
 30
0.0
 10
12.6747421419
 20
12.5376665326
 30
0.0
 10
12.6726226115
 20
12.5377282691
 30
0.0
 10
12.6696881951
 20
12.5377688146
 30
0.0
 10
12.6658461842
 20
12.5377642806
 30
0.0
 10
12.6616048667
 20
12.537707622
 30
0.0
 10
12.6570060746
 20
12.5375992655
 30
0.0
 10
12.6520951828
 20
12.53744016
 30
0.0
 10
12.6450644396
 20
12.537156965
 30
0.0
 10
12.6358780591
 20
12.5366870691
 30
0.0
 10
12.6284267476
 20
12.5362123131
 30
0.0
 10
12.6246310966
 20
12.5359474085
 30
0.0
  0
SPLINE
  5
4A7
100
AcDbEntity
  8
0
100
AcDbSpline
 62
7
  6
CONTINUOUS
 70
0
 71
3
 72
32
 73
28
 74
0
 42
0.0000001
 43
0.0000001
 44
0.0000000001
 40
0.0
 40
0.0
 40
0.0
 40
0.0
 40
0.0018398396
 40
0.0037935512
 40
0.00602233
 40
0.0086364253
 40
0.0117043466
 40
0.0152678388
 40
0.0193523036
 40
0.0239737277
 40
0.0348619553
 40
0.0479742316
 40
0.0633161605
 40
0.0808738965
 40
0.1006204395
 40
0.1225193776
 40
0.1465254452
 40
0.172586711
 40
0.2306335401
 40
0.2961227667
 40
0.3684318029
 40
0.4468637781
 40
0.5306566792
 40
0.6189927555
 40
0.7110077339
 40
0.8058016238
 40
1.0
 40
1.0
 40
1.0
 40
1.0
 10
12.3302722855
 20
12.5355019754
 30
0.0
 10
12.3302749816
 20
12.5355379171
 30
0.0
 10
12.330268171
 20
12.5356135372
 30
0.0
 10
12.3302197416
 20
12.535722918
 30
0.0
 10
12.3301359039
 20
12.535827732
 30
0.0
 10
12.3300178429
 20
12.5359290796
 30
0.0
 10
12.3298655244
 20
12.5360277974
 30
0.0
 10
12.3296787562
 20
12.5361241844
 30
0.0
 10
12.3294574291
 20
12.5362183517
 30
0.0
 10
12.3290959817
 20
12.5363480513
 30
0.0
 10
12.328555603
 20
12.5364999242
 30
0.0
 10
12.3278024461
 20
12.5366646764
 30
0.0
 10
12.3269142514
 20
12.5368195846
 30
0.0
 10
12.3258929629
 20
12.5369641724
 30
0.0
 10
12.3247408001
 20
12.5370978978
 30
0.0
 10
12.323460448
 20
12.5372203272
 30
0.0
 10
12.3220549234
 20
12.5373311074
 30
0.0
 10
12.3199413086
 20
12.5374677371
 30
0.0
 10
12.3170135343
 20
12.537602601
 30
0.0
 10
12.313178243
 20
12.5377094833
 30
0.0
 10
12.3089424967
 20
12.5377649718
 30
0.0
 10
12.3043478511
 20
12.5377683397
 30
0.0
 10
12.2994394917
 20
12.5377193581
 30
0.0
 10
12.2942657939
 20
12.5376184119
 30
0.0
 10
12.2888777452
 20
12.5374664574
 30
0.0
 10
12.2814186296
 20
12.5371955422
 30
0.0
 10
12.2757634409
 20
12.5369245153
 30
0.0
 10
12.2719648654
 20
12.536714616
 30
0.0
  0
SPLINE
  5
4A8
100
AcDbEntity
  8
0
100
AcDbSpline
 62
7
  6
CONTINUOUS
 70
0
 71
3
 72
32
 73
28
 74
0
 42
0.0000001
 43
0.0000001
 44
0.0000000001
 40
0.0
 40
0.0
 40
0.0
 40
0.0
 40
0.00207472
 40
0.0042512644
 40
0.0066765796
 40
0.0094579276
 40
0.0126665946
 40
0.0163484621
 40
0.0205327364
 40
0.0252384663
 40
0.0362573688
 40
0.0494608709
 40
0.0648629083
 40
0.0824552102
 40
0.1022147983
 40
0.1241083297
 40
0.1480930325
 40
0.1741191159
 40
0.2320612758
 40
0.2974113031
 40
0.3695581902
 40
0.4478152153
 40
0.5314290722
 40
0.6195890853
 40
0.7114362752
 40
0.8060740793
 40
1.0
 40
1.0
 40
1.0
 40
1.0
 10
11.9192177277
 20
12.5345124435
 30
0.0
 10
11.9192207717
 20
12.5345530228
 30
0.0
 10
11.9192148111
 20
12.5346376014
 30
0.0
 10
11.9191682156
 20
12.5347615754
 30
0.0
 10
11.9190859402
 20
12.5348820485
 30
0.0
 10
11.9189691409
 20
12.5349996177
 30
0.0
 10
11.9188180032
 20
12.5351149894
 30
0.0
 10
11.9186324486
 20
12.5352284742
 30
0.0
 10
11.9184124147
 20
12.5353402168
 30
0.0
 10
11.918053735
 20
12.5354950827
 30
0.0
 10
11.9175163942
 20
12.5356795758
 30
0.0
 10
11.9167662131
 20
12.5358838509
 30
0.0
 10
11.9158813446
 20
12.5360802146
 30
0.0
 10
11.9148636742
 20
12.5362680997
 30
0.0
 10
11.9137153505
 20
12.5364468735
 30
0.0
 10
11.9124390053
 20
12.5366159908
 30
0.0
 10
11.9110376041
 20
12.5367749877
 30
0.0
 10
11.9089301297
 20
12.536980246
 30
0.0
 10
11.9060096064
 20
12.5372032506
 30
0.0
 10
11.9021820424
 20
12.5374166516
 30
0.0
 10
11.8979533252
 20
12.5375817351
 30
0.0
 10
11.8933646448
 20
12.5376966579
 30
0.0
 10
11.8884608748
 20
12.537760047
 30
0.0
 10
11.883290169
 20
12.5377711404
 30
0.0
 10
11.8779033909
 20
12.5377297576
 30
0.0
 10
11.870443052
 20
12.5376039711
 30
0.0
 10
11.8647853781
 20
12.5374343518
 30
0.0
 10
11.8609845225
 20
12.5372889074
 30
0.0
  0
SPLINE
  5
4A9
100
AcDbEntity
  8
0
100
AcDbSpline
 62
7
  6
CONTINUOUS
 70
0
 71
3
 72
38
 73
34
 74
0
 42
0.0000001
 43
0.0000001
 44
0.0000000001
 40
0.0
 40
0.0
 40
0.0
 40
0.0
 40
0.0978191242
 40
0.1947460606
 40
0.2898483493
 40
0.3822039859
 40
0.4709175959
 40
0.5551262384
 40
0.6340088682
 40
0.7067943382
 40
0.7727695603
 40
0.8312871718
 40
0.8575668974
 40
0.8817729389
 40
0.9038461611
 40
0.9237323632
 40
0.9413835967
 40
0.9567572256
 40
0.9698169882
 40
0.9754698064
 40
0.9805337417
 40
0.9850061675
 40
0.9888855554
 40
0.9921710484
 40
0.9948628698
 40
0.9959870632
 40
0.9969643669
 40
0.9977960764
 40
0.9984843989
 40
0.9990333856
 40
0.9994513313
 40
0.9997576004
 40
1.0
 40
1.0
 40
1.0
 40
1.0
 10
9.1603888224
 20
12.4970875669
 30
0.0
 10
9.1584892223
 20
12.4972265715
 30
0.0
 10
9.1547070828
 20
12.4974997037
 30
0.0
 10
9.1490772017
 20
12.4978953772
 30
0.0
 10
9.1435526823
 20
12.4982726503
 30
0.0
 10
9.1381869661
 20
12.4986278721
 30
0.0
 10
9.1330321536
 20
12.4989575967
 30
0.0
 10
9.1281383943
 20
12.4992586258
 30
0.0
 10
9.1235534366
 20
12.4995280379
 30
0.0
 10
9.1193221308
 20
12.4997632367
 30
0.0
 10
9.1154859714
 20
12.4999619477
 30
0.0
 10
9.1125534533
 20
12.5001001965
 30
0.0
 10
9.110432902
 20
12.5001901042
 30
0.0
 10
9.1090211318
 20
12.5002448584
 30
0.0
 10
9.1077335565
 20
12.50028929
 30
0.0
 10
9.1065733435
 20
12.5003233003
 30
0.0
 10
9.1055433483
 20
12.500346849
 30
0.0
 10
9.1046460982
 20
12.500359902
 30
0.0
 10
9.1039823711
 20
12.5003622475
 30
0.0
 10
9.1035194209
 20
12.5003580985
 30
0.0
 10
9.1032237124
 20
12.5003524988
 30
0.0
 10
9.1029626096
 20
12.5003442871
 30
0.0
 10
9.1027362566
 20
12.500333501
 30
0.0
 10
9.1025447808
 20
12.500320165
 30
0.0
 10
9.1024071544
 20
12.5003063375
 30
0.0
 10
9.1023147028
 20
12.5002934517
 30
0.0
 10
9.1022584079
 20
12.5002837478
 30
0.0
 10
9.1022108621
 20
12.5002734384
 30
0.0
 10
9.1021720541
 20
12.5002625368
 30
0.0
 10
9.1021418357
 20
12.5002510704
 30
0.0
 10
9.1021201232
 20
12.5002389547
 30
0.0
 10
9.1021060671
 20
12.5002257548
 30
0.0
 10
9.1021029454
 20
12.5002147325
 30
0.0
 10
9.1021032986
 20
12.5002100259
 30
0.0
  0
LINE
  5
4AA
100
AcDbEntity
  8
0
100
AcDbLine
 62
7
  6
CONTINUOUS
 10
9.1024502059
 20
12.4955911384
 11
9.0976923427
 21
12.4959510312
  0
LINE
  5
4AB
100
AcDbEntity
  8
0
100
AcDbLine
 62
7
  6
CONTINUOUS
 10
9.0976923427
 20
12.4959510312
 11
9.0393954856
 21
12.5003611381
  0
SPLINE
  5
4AC
100
AcDbEntity
  8
0
100
AcDbSpline
 62
7
  6
CONTINUOUS
 70
0
 71
3
 72
32
 73
28
 74
0
 42
0.0000001
 43
0.0000001
 44
0.0000000001
 40
0.0
 40
0.0
 40
0.0
 40
0.0
 40
0.0022194983
 40
0.0045401071
 40
0.0070996033
 40
0.010001383
 40
0.0133164843
 40
0.0170920066
 40
0.0213587004
 40
0.0261370322
 40
0.0372759645
 40
0.0505718512
 40
0.0660432076
 40
0.0836849076
 40
0.1034762718
 40
0.1253857483
 40
0.1493720812
 40
0.1753868216
 40
0.2332721583
 40
0.2985279631
 40
0.370552451
 40
0.4486678868
 40
0.5321294689
 40
0.6201341987
 40
0.711829583
 40
0.8063240452
 40
1.0
 40
1.0
 40
1.0
 40
1.0
 10
11.4678038053
 20
12.5334286986
 30
0.0
 10
11.4678070649
 20
12.5334721536
 30
0.0
 10
11.4678015619
 20
12.5335624258
 30
0.0
 10
11.4677560056
 20
12.533695629
 30
0.0
 10
11.4676747456
 20
12.5338262481
 30
0.0
 10
11.4675588369
 20
12.5339546626
 30
0.0
 10
11.4674085438
 20
12.5340814705
 30
0.0
 10
11.4672238528
 20
12.5342069628
 30
0.0
 10
11.4670047382
 20
12.5343312902
 30
0.0
 10
11.4666480393
 20
12.5345044263
 30
0.0
 10
11.4661129815
 20
12.5347132769
 30
0.0
 10
11.465365079
 20
12.5349479488
 30
0.0
 10
11.4644828322
 20
12.5351769771
 30
0.0
 10
11.4634681001
 20
12.5353997296
 30
0.0
 10
11.4623229961
 20
12.5356155088
 30
0.0
 10
11.461050121
 20
12.5358236848
 30
0.0
 10
11.4596524074
 20
12.5360237055
 30
0.0
 10
11.4575506958
 20
12.5362882523
 30
0.0
 10
11.4546373524
 20
12.5365892255
 30
0.0
 10
11.4508178734
 20
12.5368993893
 30
0.0
 10
11.4465970979
 20
12.5371664841
 30
0.0
 10
11.4420158172
 20
12.537387655
 30
0.0
 10
11.4371185184
 20
12.5375604634
 30
0.0
 10
11.4319530209
 20
12.5376830449
 30
0.0
 10
11.4265699244
 20
12.5377540934
 30
0.0
 10
11.419111698
 20
12.5377791766
 30
0.0
 10
11.4134537373
 20
12.5377186711
 30
0.0
 10
11.4096518809
 20
12.5376442697
 30
0.0
  0
SPLINE
  5
4AD
100
AcDbEntity
  8
0
100
AcDbSpline
 62
9
  6
CONTINUOUS
 70
0
 71
3
 72
11
 73
7
 74
0
 42
0.0000001
 43
0.0000001
 44
0.0000000001
 40
0.0
 40
0.0
 40
0.0
 40
0.0
 40
0.2235312718
 40
0.4662376372
 40
0.7257523901
 40
1.0
 40
1.0
 40
1.0
 40
1.0
 10
11.0888587933
 20
2.3075894675
 30
0.0
 10
11.0894209452
 20
2.3084945571
 30
0.0
 10
11.0905556499
 20
2.310405938
 30
0.0
 10
11.0922364601
 20
2.3134297817
 30
0.0
 10
11.0939634764
 20
2.316703431
 30
0.0
 10
11.0951111233
 20
2.3189741858
 30
0.0
 10
11.0956923427
 20
2.3201450609
 30
0.0
  0
SPLINE
  5
4AE
100
AcDbEntity
  8
0
100
AcDbSpline
 62
7
  6
CONTINUOUS
 70
0
 71
3
 72
32
 73
28
 74
0
 42
0.0000001
 43
0.0000001
 44
0.0000000001
 40
0.0
 40
0.0
 40
0.0
 40
0.0
 40
0.0022689633
 40
0.0046463942
 40
0.0072655277
 40
0.0102265536
 40
0.0135988073
 40
0.0174286257
 40
0.0217464967
 40
0.0265728482
 40
0.0377984657
 40
0.0511690846
 40
0.0667036841
 40
0.0843975259
 40
0.1042302198
 40
0.1261705008
 40
0.150177433
 40
0.1762029121
 40
0.2340819094
 40
0.2992980588
 40
0.3712550371
 40
0.4492815221
 40
0.5326396748
 40
0.6205335634
 40
0.7121173631
 40
0.8065053031
 40
1.0
 40
1.0
 40
1.0
 40
1.0
 10
10.9957595179
 20
12.5322987072
 30
0.0
 10
10.995762852
 20
12.5323431541
 30
0.0
 10
10.9957574474
 20
12.5324355374
 30
0.0
 10
10.9957122238
 20
12.5325723139
 30
0.0
 10
10.9956313694
 20
12.5327072824
 30
0.0
 10
10.9955158658
 20
12.5328407737
 30
0.0
 10
10.9953659826
 20
12.5329733364
 30
0.0
 10
10.9951817272
 20
12.5331052419
 30
0.0
 10
10.9949630917
 20
12.5332366333
 30
0.0
 10
10.9946074339
 20
12.5334204698
 30
0.0
 10
10.9940737123
 20
12.5336444186
 30
0.0
 10
10.9933272552
 20
12.5338990525
 30
0.0
 10
10.9924467581
 20
12.5341505597
 30
0.0
 10
10.9914340858
 20
12.5343982642
 30
0.0
 10
10.9902913516
 20
12.5346414245
 30
0.0
 10
10.9890211498
 20
12.534879352
 30
0.0
 10
10.987626403
 20
12.5351114304
 30
0.0
 10
10.9855295674
 20
12.5354233567
 30
0.0
 10
10.9826227169
 20
12.5357886891
 30
0.0
 10
10.9788110503
 20
12.536181536
 30
0.0
 10
10.9745985337
 20
12.5365384509
 30
0.0
 10
10.9700255839
 20
12.5368557202
 30
0.0
 10
10.9651362827
 20
12.5371299743
 30
0.0
 10
10.9599780482
 20
12.5373583526
 30
0.0
 10
10.9546011102
 20
12.5375384999
 30
0.0
 10
10.947148787
 20
12.5377132318
 30
0.0
 10
10.9414933776
 20
12.5377645495
 30
0.0
 10
10.9376923427
 20
12.5377645495
 30
0.0
  0
SPLINE
  5
4AF
100
AcDbEntity
  8
0
100
AcDbSpline
 62
7
  6
CONTINUOUS
 70
0
 71
3
 72
19
 73
15
 74
0
 42
0.0000001
 43
0.0000001
 44
0.0000000001
 40
0.0
 40
0.0
 40
0.0
 40
0.0
 40
0.2164941506
 40
0.4060237126
 40
0.5683558608
 40
0.7034722252
 40
0.7609293532
 40
0.8117657636
 40
0.8561508495
 40
0.8943556328
 40
0.9268287164
 40
0.9543225499
 40
0.9780796072
 40
1.0
 40
1.0
 40
1.0
 40
1.0
 10
10.8843651013
 20
12.4976948961
 30
0.0
 10
10.884000708
 20
12.4976302056
 30
0.0
 10
10.8833186278
 20
12.497501175
 30
0.0
 10
10.8823697175
 20
12.4972914943
 30
0.0
 10
10.8815645535
 20
12.4970790714
 30
0.0
 10
10.8809868426
 20
12.4968918687
 30
0.0
 10
10.8806002239
 20
12.4967376076
 30
0.0
 10
10.8803632564
 20
12.4966278294
 30
0.0
 10
10.8801632414
 20
12.4965177109
 30
0.0
 10
10.8800000923
 20
12.4964071765
 30
0.0
 10
10.8798736223
 20
12.4962959596
 30
0.0
 10
10.8797837246
 20
12.4961832692
 30
0.0
 10
10.8797313318
 20
12.4960678621
 30
0.0
 10
10.879723439
 20
12.4959883984
 30
0.0
 10
10.8797262429
 20
12.4959510312
 30
0.0
  0
SPLINE
  5
4B0
100
AcDbEntity
  8
0
100
AcDbSpline
 62
7
  6
CONTINUOUS
 70
0
 71
3
 72
21
 73
17
 74
0
 42
0.0000001
 43
0.0000001
 44
0.0000000001
 40
0.0
 40
0.0
 40
0.0
 40
0.0
 40
0.221300944
 40
0.415364264
 40
0.5814692853
 40
0.6538750448
 40
0.7191267371
 40
0.777210852
 40
0.8281517586
 40
0.8720191629
 40
0.9089685337
 40
0.9392992488
 40
0.9635973985
 40
0.9830426674
 40
0.991650254
 40
1.0
 40
1.0
 40
1.0
 40
1.0
 10
10.4115168026
 20
12.4991122205
 30
0.0
 10
10.4108883306
 20
12.4990470586
 30
0.0
 10
10.4097097405
 20
12.4989144984
 30
0.0
 10
10.4080646314
 20
12.4986902445
 30
0.0
 10
10.4068462635
 20
12.4984859025
 30
0.0
 10
10.4059962449
 20
12.4983133239
 30
0.0
 10
10.4054516708
 20
12.4981873773
 30
0.0
 10
10.404970786
 20
12.498059114
 30
0.0
 10
10.4045540069
 20
12.4979287443
 30
0.0
 10
10.4042015813
 20
12.4977964222
 30
0.0
 10
10.403913487
 20
12.4976623986
 30
0.0
 10
10.4036892725
 20
12.4975263256
 30
0.0
 10
10.4035278509
 20
12.4973878184
 30
0.0
 10
10.4034424047
 20
12.497261114
 30
0.0
 10
10.4034141744
 20
12.4971602302
 30
0.0
 10
10.4034121763
 20
12.4971113395
 30
0.0
 10
10.4034139599
 20
12.4970875668
 30
0.0
  0
SPLINE
  5
4B1
100
AcDbEntity
  8
0
100
AcDbSpline
 62
7
  6
CONTINUOUS
 70
0
 71
3
 72
32
 73
28
 74
0
 42
0.0000001
 43
0.0000001
 44
0.0000000001
 40
0.0
 40
0.0
 40
0.0
 40
0.0
 40
0.0022220226
 40
0.0045665489
 40
0.0071664319
 40
0.0101196052
 40
0.0134928082
 40
0.0173301152
 40
0.0216602822
 40
0.0265024601
 40
0.0377667288
 40
0.0511809047
 40
0.0667605464
 40
0.0844986659
 40
0.1043732083
 40
0.1263517193
 40
0.1503923949
 40
0.1764464622
 40
0.234365809
 40
0.2995988654
 40
0.3715503502
 40
0.4495518961
 40
0.5328701067
 40
0.6207144664
 40
0.7122450262
 40
0.8065817917
 40
1.0
 40
1.0
 40
1.0
 40
1.0
 10
10.5237154812
 20
12.5311720572
 30
0.0
 10
10.5237187459
 20
12.531215576
 30
0.0
 10
10.5237130834
 20
12.531306382
 30
0.0
 10
10.5236675274
 20
12.5314409546
 30
0.0
 10
10.5235864776
 20
12.5315743588
 30
0.0
 10
10.5234708729
 20
12.5317069991
 30
0.0
 10
10.5233209397
 20
12.5318394304
 30
0.0
 10
10.5231366711
 20
12.5319719119
 30
0.0
 10
10.5229180575
 20
12.5321045728
 30
0.0
 10
10.5225624619
 20
12.5322911716
 30
0.0
 10
10.5220290597
 20
12.5325203888
 30
0.0
 10
10.5212831671
 20
12.5327837363
 30
0.0
 10
10.5204034825
 20
12.5330466226
 30
0.0
 10
10.5193919038
 20
12.5333083463
 30
0.0
 10
10.5182505751
 20
12.5335681411
 30
0.0
 10
10.516982108
 20
12.5338252853
 30
0.0
 10
10.5155894362
 20
12.534079122
 30
0.0
 10
10.513496242
 20
12.5344245506
 30
0.0
 10
10.5105947291
 20
12.5348379002
 30
0.0
 10
10.5067900726
 20
12.5352957686
 30
0.0
 10
10.5025855623
 20
12.5357263635
 30
0.0
 10
10.4980213127
 20
12.5361252993
 30
0.0
 10
10.4931410354
 20
12.5364884496
 30
0.0
 10
10.487991734
 20
12.5368121127
 30
0.0
 10
10.4826232104
 20
12.537093017
 30
0.0
 10
10.4751805789
 20
12.5374092637
 30
0.0
 10
10.4695308618
 20
12.5375699426
 30
0.0
 10
10.4657328046
 20
12.5376442697
 30
0.0
  0
SPLINE
  5
4B2
100
AcDbEntity
  8
0
100
AcDbSpline
 62
7
  6
CONTINUOUS
 70
0
 71
3
 72
14
 73
10
 74
0
 42
0.0000001
 43
0.0000001
 44
0.0000000001
 40
0.0
 40
0.0
 40
0.0
 40
0.0
 40
0.364458534
 40
0.5136189141
 40
0.641923746
 40
0.7510501407
 40
0.8437519402
 40
0.9245111036
 40
1.0
 40
1.0
 40
1.0
 40
1.0
 10
9.9603860761
 20
12.4987758459
 30
0.0
 10
9.960260488
 20
12.4987323611
 30
0.0
 10
9.9600852638
 20
12.4986645436
 30
0.0
 10
9.9598776319
 20
12.4985559241
 30
0.0
 10
9.9597593526
 20
12.4984786823
 30
0.0
 10
9.9596676692
 20
12.4983999549
 30
0.0
 10
9.959602522
 20
12.4983190794
 30
0.0
 10
9.9595647412
 20
12.4982351514
 30
0.0
 10
9.9595592824
 20
12.4981771612
 30
0.0
 10
9.9595613421
 20
12.4981497106
 30
0.0
  0
SPLINE
  5
4B3
100
AcDbEntity
  8
0
100
AcDbSpline
 62
7
  6
CONTINUOUS
 70
0
 71
3
 72
11
 73
7
 74
0
 42
0.0000001
 43
0.0000001
 44
0.0000000001
 40
0.0
 40
0.0
 40
0.0
 40
0.0
 40
0.2717688073
 40
0.5347708674
 40
0.7802492616
 40
1.0
 40
1.0
 40
1.0
 40
1.0
 10
9.3442055998
 20
12.4981497109
 30
0.0
 10
9.3406968789
 20
12.4983802354
 30
0.0
 10
9.3337910599
 20
12.4988104352
 30
0.0
 10
9.3237110885
 20
12.4993676159
 30
0.0
 10
9.3142993878
 20
12.4998149626
 30
0.0
 10
9.3082843054
 20
12.5000458731
 30
0.0
 10
9.3054425065
 20
12.5001366624
 30
0.0
  0
SPLINE
  5
4B4
100
AcDbEntity
  8
0
100
AcDbSpline
 62
7
  6
CONTINUOUS
 70
0
 71
3
 72
39
 73
35
 74
0
 42
0.0000001
 43
0.0000001
 44
0.0000000001
 40
0.0
 40
0.0
 40
0.0
 40
0.0
 40
0.0978655662
 40
0.1948265771
 40
0.2899503082
 40
0.3823155994
 40
0.4710290116
 40
0.5552305742
 40
0.6341029469
 40
0.7068791375
 40
0.7728502996
 40
0.8030800885
 40
0.8313729712
 40
0.8576596008
 40
0.8818758354
 40
0.9039626683
 40
0.9238658666
 40
0.941537233
 40
0.956933583
 40
0.9700176474
 40
0.9756826442
 40
0.9807583622
 40
0.9852416798
 40
0.9891303467
 40
0.9924224076
 40
0.9951162613
 40
0.9972116128
 40
0.9980352761
 40
0.9987101509
 40
0.9992372765
 40
0.9996190919
 40
0.9997575555
 40
0.9998635055
 40
1.0
 40
1.0
 40
1.0
 40
1.0
 10
9.549113411
 20
12.4678319723
 30
0.0
 10
9.5472116926
 20
12.4679404872
 30
0.0
 10
9.5434257268
 20
12.4681546561
 30
0.0
 10
9.5377909572
 20
12.4684678132
 30
0.0
 10
9.5322627674
 20
12.468769399
 30
0.0
 10
9.5268945568
 20
12.4690565017
 30
0.0
 10
9.5217383145
 20
12.4693263449
 30
0.0
 10
9.5168440155
 20
12.4695763191
 30
0.0
 10
9.512259182
 20
12.4698040105
 30
0.0
 10
9.5080284036
 20
12.4700072163
 30
0.0
 10
9.5047429929
 20
12.4701586538
 30
0.0
 10
9.5023222662
 20
12.4702657201
 30
0.0
 10
9.5006730881
 20
12.4703363808
 30
0.0
 10
9.4991407458
 20
12.4703996072
 30
0.0
 10
9.4977289873
 20
12.4704552478
 30
0.0
 10
9.4964412683
 20
12.4705031745
 30
0.0
 10
9.4952807365
 20
12.4705432778
 30
0.0
 10
9.4942502346
 20
12.4705754813
 30
0.0
 10
9.493352281
 20
12.4705997185
 30
0.0
 10
9.4926878352
 20
12.470613907
 30
0.0
 10
9.4922241706
 20
12.470620846
 30
0.0
 10
9.4919278698
 20
12.4706237696
 30
0.0
 10
9.4916661288
 20
12.4706246825
 30
0.0
 10
9.4914391049
 20
12.4706235913
 30
0.0
 10
9.4912469275
 20
12.4706205367
 30
0.0
 10
9.4910897128
 20
12.4706155165
 30
0.0
 10
9.4909806083
 20
12.4706094723
 30
0.0
 10
9.490910935
 20
12.4706031743
 30
0.0
 10
9.4908717884
 20
12.470598407
 30
0.0
 10
9.4908413947
 20
12.4705931332
 30
0.0
 10
9.4908215921
 20
12.470588212
 30
0.0
 10
9.4908102435
 20
12.4705834782
 30
0.0
 10
9.4908039214
 20
12.4705799356
 30
0.0
 10
9.4908004781
 20
12.4705754762
 30
0.0
 10
9.4908006771
 20
12.4705728269
 30
0.0
  0
SPLINE
  5
4B5
100
AcDbEntity
  8
0
100
AcDbSpline
 62
7
  6
CONTINUOUS
 70
0
 71
3
 72
32
 73
28
 74
0
 42
0.0000001
 43
0.0000001
 44
0.0000000001
 40
0.0
 40
0.0
 40
0.0
 40
0.0
 40
0.0020813294
 40
0.0043058782
 40
0.0068099611
 40
0.0096897438
 40
0.013008275
 40
0.0168058965
 40
0.0211082942
 40
0.0259322451
 40
0.0371818907
 40
0.050601943
 40
0.0662012804
 40
0.083968486
 40
0.1038782138
 40
0.1258955726
 40
0.1499769064
 40
0.1760718992
 40
0.2340697585
 40
0.2993715491
 40
0.3713786853
 40
0.4494220836
 40
0.5327697485
 40
0.620634256
 40
0.7121799376
 40
0.8065317674
 40
1.0
 40
1.0
 40
1.0
 40
1.0
 10
10.0723022675
 20
12.5300977589
 30
0.0
 10
10.0723053223
 20
12.5301384781
 30
0.0
 10
10.0722990321
 20
12.5302241115
 30
0.0
 10
10.0722524907
 20
12.5303507864
 30
0.0
 10
10.0721706937
 20
12.5304767844
 30
0.0
 10
10.0720545292
 20
12.5306027106
 30
0.0
 10
10.0719041262
 20
12.5307291663
 30
0.0
 10
10.0717194298
 20
12.530856399
 30
0.0
 10
10.0715004138
 20
12.5309845159
 30
0.0
 10
10.0711439613
 20
12.5311658685
 30
0.0
 10
10.070609916
 20
12.5313903725
 30
0.0
 10
10.0698637552
 20
12.5316508835
 30
0.0
 10
10.0689839875
 20
12.5319136342
 30
0.0
 10
10.0679725647
 20
12.532177918
 30
0.0
 10
10.0668316853
 20
12.5324429635
 30
0.0
 10
10.0655639975
 20
12.532708042
 30
0.0
 10
10.0641724639
 20
12.5329724802
 30
0.0
 10
10.0620815248
 20
12.5333362139
 30
0.0
 10
10.0591839237
 20
12.5337792977
 30
0.0
 10
10.0553851028
 20
12.5342818234
 30
0.0
 10
10.0511878667
 20
12.5347668386
 30
0.0
 10
10.0466321314
 20
12.5352294891
 30
0.0
 10
10.0417613161
 20
12.5356650908
 30
0.0
 10
10.0366220474
 20
12.5360692878
 30
0.0
 10
10.0312636952
 20
12.5364380645
 30
0.0
 10
10.0238340479
 20
12.5368812337
 30
0.0
 10
10.018193044
 20
12.5371437682
 30
0.0
 10
10.014400163
 20
12.5372889074
 30
0.0
  0
SPLINE
  5
4B6
100
AcDbEntity
  8
0
100
AcDbSpline
 62
7
  6
CONTINUOUS
 70
0
 71
3
 72
31
 73
27
 74
0
 42
0.0000001
 43
0.0000001
 44
0.0000000001
 40
0.0
 40
0.0
 40
0.0
 40
0.0
 40
0.0018531065
 40
0.0038784219
 40
0.0062191424
 40
0.0089688238
 40
0.0121848556
 40
0.0159020663
 40
0.0201417131
 40
0.0249172008
 40
0.0361033656
 40
0.0494926981
 40
0.0650850509
 40
0.0828630426
 40
0.1027969653
 40
0.1248486484
 40
0.1489719298
 40
0.1751143516
 40
0.2332173967
 40
0.2986295019
 40
0.3707452432
 40
0.4488915223
 40
0.5323347397
 40
0.620287964
 40
0.8063510709
 40
1.0
 40
1.0
 40
1.0
 40
1.0
 10
9.6612487537
 20
12.5291221455
 30
0.0
 10
9.6612514683
 20
12.5291583268
 30
0.0
 10
9.6612441352
 20
12.5292354837
 30
0.0
 10
9.6611959426
 20
12.529348833
 30
0.0
 10
9.6611129507
 20
12.5294618483
 30
0.0
 10
9.6609958789
 20
12.5295754941
 30
0.0
 10
9.6608446798
 20
12.5296904208
 30
0.0
 10
9.6606592198
 20
12.5298068449
 30
0.0
 10
9.6604394498
 20
12.5299248367
 30
0.0
 10
9.6600813634
 20
12.530093162
 30
0.0
 10
9.6595458696
 20
12.5303032304
 30
0.0
 10
9.6587987348
 20
12.5305495623
 30
0.0
 10
9.6579181199
 20
12.5308007475
 30
0.0
 10
9.6569060431
 20
12.5310560995
 30
0.0
 10
9.6557647737
 20
12.5313148652
 30
0.0
 10
9.6544970077
 20
12.5315763369
 30
0.0
 10
9.6531057485
 20
12.5318398493
 30
0.0
 10
9.6510157197
 20
12.532206035
 30
0.0
 10
9.6481205438
 20
12.5326594559
 30
0.0
 10
9.6443261904
 20
12.5331845246
 30
0.0
 10
9.6401351478
 20
12.533702511
 30
0.0
 10
9.635587247
 20
12.534208296
 30
0.0
 10
9.6307257182
 20
12.5346968711
 30
0.0
 10
9.6237555025
 20
12.5353308036
 30
0.0
 10
9.6146259793
 20
12.5360409588
 30
0.0
 10
9.607205604
 20
12.5365054234
 30
0.0
 10
9.60341982
 20
12.536714616
 30
0.0
  0
SPLINE
  5
4B7
100
AcDbEntity
  8
0
100
AcDbSpline
 62
7
  6
CONTINUOUS
 70
0
 71
3
 72
18
 73
14
 74
0
 42
0.0000001
 43
0.0000001
 44
0.0000000001
 40
0.0
 40
0.0
 40
0.0
 40
0.0
 40
0.2155943604
 40
0.4039539702
 40
0.565118168
 40
0.6993204403
 40
0.8071767553
 40
0.8516421367
 40
0.890166474
 40
0.9232434412
 40
0.9516580942
 40
0.9766458132
 40
1.0
 40
1.0
 40
1.0
 40
1.0
 10
10.8819423721
 20
12.4682019664
 30
0.0
 10
10.8817594236
 20
12.4681655775
 30
0.0
 10
10.8814174111
 20
12.4680933383
 30
0.0
 10
10.8809424471
 20
12.4679768712
 30
0.0
 10
10.8805404009
 20
12.4678598757
 30
0.0
 10
10.8802116506
 20
12.4677425318
 30
0.0
 10
10.8799856158
 20
12.4676391599
 30
0.0
 10
10.8798440075
 20
12.4675538752
 30
0.0
 10
10.8797632061
 20
12.467493906
 30
0.0
 10
10.8797006856
 20
12.4674336239
 30
0.0
 10
10.8796564621
 20
12.467372615
 30
0.0
 10
10.8796310498
 20
12.4673104062
 30
0.0
 10
10.8796274735
 20
12.4672679252
 30
0.0
 10
10.8796289859
 20
12.4672477759
 30
0.0
  0
SPLINE
  5
4B8
100
AcDbEntity
  8
0
100
AcDbSpline
 62
9
  6
CONTINUOUS
 70
0
 71
3
 72
21
 73
17
 74
0
 42
0.0000001
 43
0.0000001
 44
0.0000000001
 40
0.0
 40
0.0
 40
0.0
 40
0.0
 40
0.1320451372
 40
0.2625371039
 40
0.3270689893
 40
0.3910159837
 40
0.4543435697
 40
0.5170355232
 40
0.5790948624
 40
0.64054427
 40
0.7014259277
 40
0.7618006739
 40
0.8217473698
 40
0.8813564027
 40
0.9407396751
 40
1.0
 40
1.0
 40
1.0
 40
1.0
 10
11.0888587933
 20
2.3075894675
 30
0.0
 10
11.0865728571
 20
2.3072365458
 30
0.0
 10
11.0820748343
 20
2.3061787647
 30
0.0
 10
11.0767523718
 20
2.3039886855
 30
0.0
 10
11.0727976297
 20
2.3017572257
 30
0.0
 10
11.0700158883
 20
2.2998656208
 30
0.0
 10
11.0674300615
 20
2.2977647569
 30
0.0
 10
11.0650597485
 20
2.2954704961
 30
0.0
 10
11.0629231899
 20
2.2930002842
 30
0.0
 10
11.0610368119
 20
2.2903728973
 30
0.0
 10
11.0594151855
 20
2.2876083537
 30
0.0
 10
11.0580708432
 20
2.2847277492
 30
0.0
 10
11.0570142709
 20
2.2817531791
 30
0.0
 10
11.0562535457
 20
2.2787072949
 30
0.0
 10
11.0557948169
 20
2.2756139491
 30
0.0
 10
11.055692546
 20
2.2735342448
 30
0.0
 10
11.055692554
 20
2.2724961886
 30
0.0
  0
SPLINE
  5
4B9
100
AcDbEntity
  8
0
100
AcDbSpline
 62
7
  6
CONTINUOUS
 70
0
 71
3
 72
23
 73
19
 74
0
 42
0.0000001
 43
0.0000001
 44
0.0000000001
 40
0.0
 40
0.0
 40
0.0
 40
0.0
 40
0.224851802
 40
0.4216936451
 40
0.5093823739
 40
0.5898105972
 40
0.6629188781
 40
0.7286586457
 40
0.7870000973
 40
0.8379401705
 40
0.8815065258
 40
0.9177896988
 40
0.9469838942
 40
0.9695103378
 40
0.9785664876
 40
0.9864143675
 40
0.993398101
 40
1.0
 40
1.0
 40
1.0
 40
1.0
 10
10.4047525164
 20
12.4698135251
 30
0.0
 10
10.4041747879
 20
12.4697690913
 30
0.0
 10
10.4030918386
 20
12.4696784562
 30
0.0
 10
10.4017858354
 20
12.4695453273
 30
0.0
 10
10.4008521435
 20
12.4694322702
 30
0.0
 10
10.4002361475
 20
12.4693485859
 30
0.0
 10
10.3996775912
 20
12.4692628353
 30
0.0
 10
10.39917702
 20
12.4691751259
 30
0.0
 10
10.3987349102
 20
12.4690855876
 30
0.0
 10
10.3983516231
 20
12.4689943811
 30
0.0
 10
10.3980274565
 20
12.4689016723
 30
0.0
 10
10.3977623021
 20
12.4688076479
 30
0.0
 10
10.3975561729
 20
12.4687124802
 30
0.0
 10
10.3974236737
 20
12.468626589
 30
0.0
 10
10.3973512689
 20
12.4685547374
 30
0.0
 10
10.3973158294
 20
12.4685038584
 30
0.0
 10
10.3972956363
 20
12.468451768
 30
0.0
 10
10.3972929485
 20
12.4684162392
 30
0.0
 10
10.3972942219
 20
12.4683992741
 30
0.0
  0
LINE
  5
4BA
100
AcDbEntity
  8
0
100
AcDbLine
 62
9
  6
CONTINUOUS
 10
10.0890950833
 20
12.4640727497
 11
10.3975613284
 21
12.4640708939
  0
LINE
  5
4BB
100
AcDbEntity
  8
0
100
AcDbLine
 62
7
  6
CONTINUOUS
 10
9.6935953319
 20
12.4699509251
 11
9.6926323901
 21
12.4699870207
  0
LINE
  5
4BC
100
AcDbEntity
  8
0
100
AcDbLine
 62
7
  6
CONTINUOUS
 10
9.9576923427
 20
12.446161938
 11
9.8991589146
 21
12.4485154162
  0
SPLINE
  5
4BD
100
AcDbEntity
  8
0
100
AcDbSpline
 62
7
  6
CONTINUOUS
 70
0
 71
3
 72
31
 73
27
 74
0
 42
0.0000001
 43
0.0000001
 44
0.0000000001
 40
0.0
 40
0.0
 40
0.0
 40
0.0
 40
0.0015472952
 40
0.0033083019
 40
0.0054349653
 40
0.0080145297
 40
0.0110952723
 40
0.0147043067
 40
0.0188571219
 40
0.0235629255
 40
0.0346499837
 40
0.0479801156
 40
0.0635430009
 40
0.0813145915
 40
0.1012604228
 40
0.1233387274
 40
0.1475005882
 40
0.173691184
 40
0.2319123177
 40
0.2974611383
 40
0.3697231589
 40
0.4480188385
 40
0.5316104917
 40
0.6197092712
 40
0.8060572649
 40
1.0
 40
1.0
 40
1.0
 40
1.0
 10
9.3085198834
 20
12.528286957
 30
0.0
 10
9.3085221438
 20
12.5283170816
 30
0.0
 10
9.3085132092
 20
12.5283829518
 30
0.0
 10
9.308462679
 20
12.5284779008
 30
0.0
 10
9.3083782697
 20
12.5285728284
 30
0.0
 10
9.3082601161
 20
12.528669181
 30
0.0
 10
9.308107926
 20
12.5287675746
 30
0.0
 10
9.3079214699
 20
12.5288681461
 30
0.0
 10
9.3077006899
 20
12.5289709101
 30
0.0
 10
9.3073403986
 20
12.529118954
 30
0.0
 10
9.3068028761
 20
12.5293055262
 30
0.0
 10
9.3060542346
 20
12.5295270322
 30
0.0
 10
9.3051721974
 20
12.5297557915
 30
0.0
 10
9.304158852
 20
12.5299911699
 30
0.0
 10
9.3030165464
 20
12.5302324615
 30
0.0
 10
9.3017480269
 20
12.5304790091
 30
0.0
 10
9.3003563417
 20
12.5307301821
 30
0.0
 10
9.2982660831
 20
12.531082968
 30
0.0
 10
9.2953719718
 20
12.5315270427
 30
0.0
 10
9.2915806959
 20
12.5320517644
 30
0.0
 10
9.2873945616
 20
12.5325800513
 30
0.0
 10
9.2828534201
 20
12.5331067352
 30
0.0
 10
9.2780004228
 20
12.5336266647
 30
0.0
 10
9.2710442236
 20
12.5343170839
 30
0.0
 10
9.2619346414
 20
12.5351222485
 30
0.0
 10
9.2545309263
 20
12.5356837822
 30
0.0
 10
9.2507535889
 20
12.5359474085
 30
0.0
  0
SPLINE
  5
4BE
100
AcDbEntity
  8
0
100
AcDbSpline
 62
7
  6
CONTINUOUS
 70
0
 71
3
 72
18
 73
14
 74
0
 42
0.0000001
 43
0.0000001
 44
0.0000000001
 40
0.0
 40
0.0
 40
0.0
 40
0.0
 40
0.2212727571
 40
0.4140315394
 40
0.5782604228
 40
0.714105591
 40
0.8219579029
 40
0.8656805186
 40
0.9028742119
 40
0.9339279554
 40
0.9595191175
 40
0.9808606145
 40
1.0
 40
1.0
 40
1.0
 40
1.0
 10
10.8811294994
 20
12.4467463679
 30
0.0
 10
10.8809880346
 20
12.4467239635
 30
0.0
 10
10.8807237113
 20
12.4466795586
 30
0.0
 10
10.880356258
 20
12.4466080415
 30
0.0
 10
10.8800453005
 20
12.4465363691
 30
0.0
 10
10.8797910832
 20
12.4464646578
 30
0.0
 10
10.8796157054
 20
12.4464015389
 30
0.0
 10
10.8795051662
 20
12.4463492299
 30
0.0
 10
10.8794424038
 20
12.4463127536
 30
0.0
 10
10.8793936688
 20
12.4462761751
 30
0.0
 10
10.8793588101
 20
12.4462391767
 30
0.0
 10
10.87933799
 20
12.4462010546
 30
0.0
 10
10.8793344973
 20
12.446174292
 30
0.0
 10
10.8793354247
 20
12.446161938
 30
0.0
  0
SPLINE
  5
4BF
100
AcDbEntity
  8
0
100
AcDbSpline
 62
7
  6
CONTINUOUS
 70
0
 71
3
 72
25
 73
21
 74
0
 42
0.0000001
 43
0.0000001
 44
0.0000000001
 40
0.0
 40
0.0
 40
0.0
 40
0.0
 40
0.2275722192
 40
0.4272108933
 40
0.5162298311
 40
0.5978959797
 40
0.6721078512
 40
0.7387788777
 40
0.7978324583
 40
0.8492120614
 40
0.8928764265
 40
0.928817408
 40
0.9439020324
 40
0.9570763062
 40
0.9683628972
 40
0.9778002661
 40
0.985457349
 40
0.9914683806
 40
0.9961171553
 40
1.0
 40
1.0
 40
1.0
 40
1.0
 10
10.3987665628
 20
12.4482631543
 30
0.0
 10
10.3980355713
 20
12.4482389343
 30
0.0
 10
10.3966634834
 20
12.4481880846
 30
0.0
 10
10.3950062007
 20
12.4481092992
 30
0.0
 10
10.3938180383
 20
12.4480398221
 30
0.0
 10
10.3930327087
 20
12.4479873073
 30
0.0
 10
10.3923195514
 20
12.4479324669
 30
0.0
 10
10.3916794957
 20
12.4478754015
 30
0.0
 10
10.3911133619
 20
12.4478162118
 30
0.0
 10
10.3906218507
 20
12.4477550667
 30
0.0
 10
10.3902055687
 20
12.4476920752
 30
0.0
 10
10.3899064073
 20
12.4476355401
 30
0.0
 10
10.3897055712
 20
12.4475880765
 30
0.0
 10
10.3895830395
 20
12.447554184
 30
0.0
 10
10.3894795523
 20
12.4475199322
 30
0.0
 10
10.3893950531
 20
12.4474853434
 30
0.0
 10
10.3893293011
 20
12.4474503999
 30
0.0
 10
10.3892819991
 20
12.4474148447
 30
0.0
 10
10.3892523424
 20
12.4473775053
 30
0.0
 10
10.3892463714
 20
12.4473493158
 30
0.0
 10
10.3892473035
 20
12.4473368716
 30
0.0
  0
LINE
  5
4C0
100
AcDbEntity
  8
0
100
AcDbLine
 62
7
  6
CONTINUOUS
 10
10.088987447
 20
12.4473368717
 11
10.0879340535
 21
12.4473734157
  0
LINE
  5
4C1
100
AcDbEntity
  8
0
100
AcDbLine
 62
7
  6
CONTINUOUS
 10
9.9749383482
 20
12.4454685641
 11
9.9576923427
 21
12.446161938
  0
LINE
  5
4C2
100
AcDbEntity
  8
0
100
AcDbLine
 62
7
  6
CONTINUOUS
 10
10.8802846322
 20
12.4328751539
 11
10.879597173
 21
12.4326719686
  0
SPLINE
  5
4C3
100
AcDbEntity
  8
0
100
AcDbSpline
 62
7
  6
CONTINUOUS
 70
0
 71
3
 72
33
 73
29
 74
0
 42
0.0000001
 43
0.0000001
 44
0.0000000001
 40
0.0
 40
0.0
 40
0.0
 40
0.0
 40
0.0011784885
 40
0.001862091
 40
0.0026391155
 40
0.0045286693
 40
0.0069238161
 40
0.0098587607
 40
0.0133507353
 40
0.0174085272
 40
0.0220367537
 40
0.0330094495
 40
0.0462657347
 40
0.0617854682
 40
0.0795382572
 40
0.099485202
 40
0.1215812116
 40
0.1457747943
 40
0.1720089552
 40
0.230345943
 40
0.2960387735
 40
0.3684633482
 40
0.4469325387
 40
0.5307029754
 40
0.6189820586
 40
0.710934548
 40
0.8056907338
 40
1.0
 40
1.0
 40
1.0
 40
1.0
 10
9.0295315241
 20
12.5276276711
 30
0.0
 10
9.02953324
 20
12.527650537
 30
0.0
 10
9.0295251442
 20
12.5276877263
 30
0.0
 10
9.029499489
 20
12.5277322932
 30
0.0
 10
9.0294583998
 20
12.5277832427
 30
0.0
 10
9.0293826009
 20
12.5278471897
 30
0.0
 10
9.0292635323
 20
12.5279220952
 30
0.0
 10
9.0291102391
 20
12.5279997676
 30
0.0
 10
9.028922666
 20
12.5280801987
 30
0.0
 10
9.0287007071
 20
12.5281633397
 30
0.0
 10
9.0283378934
 20
12.5282846756
 30
0.0
 10
9.0277980102
 20
12.5284397374
 30
0.0
 10
9.0270475097
 20
12.5286269159
 30
0.0
 10
9.0261636817
 20
12.5288234146
 30
0.0
 10
9.0251486756
 20
12.5290286858
 30
0.0
 10
9.0240049155
 20
12.5292421083
 30
0.0
 10
9.0227351922
 20
12.5294631042
 30
0.0
 10
9.0213425944
 20
12.5296911068
 30
0.0
 10
9.0192512784
 20
12.5300152847
 30
0.0
 10
9.016357134
 20
12.5304308495
 30
0.0
 10
9.012567662
 20
12.5309325178
 30
0.0
 10
9.0083850833
 20
12.531448184
 30
0.0
 10
9.0038493498
 20
12.531972839
 30
0.0
 10
8.9990036321
 20
12.5325013809
 30
0.0
 10
8.9938939706
 20
12.5330287236
 30
0.0
 10
8.988568852
 20
12.5335498206
 30
0.0
 10
8.9811869982
 20
12.534235323
 30
0.0
 10
8.9755830045
 20
12.5347157519
 30
0.0
 10
8.9718146761
 20
12.5350218603
 30
0.0
  0
LINE
  5
4C4
100
AcDbEntity
  8
0
100
AcDbLine
 62
7
  6
CONTINUOUS
 10
11.787450632
 20
12.4473734157
 11
11.7863972384
 21
12.4473368717
  0
LINE
  5
4C5
100
AcDbEntity
  8
0
100
AcDbLine
 62
7
  6
CONTINUOUS
 10
12.7776923427
 20
12.4959510312
 11
12.7729344798
 21
12.4955911384
  0
LINE
  5
4C6
100
AcDbEntity
  8
0
100
AcDbLine
 62
7
  6
CONTINUOUS
 10
12.7149958631
 20
12.4970875669
 11
12.6736886586
 21
12.4937245237
  0
SPLINE
  5
4C7
100
AcDbEntity
  8
0
100
AcDbSpline
 62
7
  6
CONTINUOUS
 70
0
 71
3
 72
34
 73
30
 74
0
 42
0.0000001
 43
0.0000001
 44
0.0000000001
 40
0.0
 40
0.0
 40
0.0
 40
0.0
 40
0.1946580174
 40
0.2895917566
 40
0.3817157269
 40
0.4701539342
 40
0.5540647185
 40
0.6326495607
 40
0.705160474
 40
0.7709062404
 40
0.8292595061
 40
0.8796640421
 40
0.901733088
 40
0.9216420405
 40
0.9393450291
 40
0.9548019229
 40
0.9679802761
 40
0.973707334
 40
0.9788568412
 40
0.9834276426
 40
0.9874203009
 40
0.9908373399
 40
0.9936843388
 40
0.9959734452
 40
0.9977305645
 40
0.9984276346
 40
0.9990205176
 40
0.9995326878
 40
1.0
 40
1.0
 40
1.0
 40
1.0
 10
12.5311790857
 20
12.4981497109
 30
0.0
 10
12.5274158995
 20
12.4979024679
 30
0.0
 10
12.521818727
 20
12.4975143498
 30
0.0
 10
12.5144441391
 20
12.4969603984
 30
0.0
 10
12.5091233159
 20
12.4965392146
 30
0.0
 10
12.5040171704
 20
12.496112923
 30
0.0
 10
12.4991743798
 20
12.4956856184
 30
0.0
 10
12.494641147
 20
12.4952614371
 30
0.0
 10
12.4904607757
 20
12.4948445
 30
0.0
 10
12.4866732676
 20
12.4944389421
 30
0.0
 10
12.4833149817
 20
12.4940487608
 30
0.0
 10
12.480800728
 20
12.4937272253
 30
0.0
 10
12.4790283525
 20
12.4934777989
 30
0.0
 10
12.4778850163
 20
12.493305269
 30
0.0
 10
12.4768702995
 20
12.493139368
 30
0.0
 10
12.4759866672
 20
12.4929805239
 30
0.0
 10
12.47533395
 20
12.4928490931
 30
0.0
 10
12.4748793391
 20
12.492746424
 30
0.0
 10
12.4745886683
 20
12.4926750793
 30
0.0
 10
12.4743321568
 20
12.4926057992
 30
0.0
 10
12.4741099212
 20
12.4925386507
 30
0.0
 10
12.473922059
 20
12.4924737196
 30
0.0
 10
12.4737684739
 20
12.4924110959
 30
0.0
 10
12.47364917
 20
12.492350846
 30
0.0
 10
12.4735724112
 20
12.4922992473
 30
0.0
 10
12.4735301652
 20
12.4922577464
 30
0.0
 10
12.4735095144
 20
12.4922293224
 30
0.0
 10
12.4734975232
 20
12.4922009469
 30
0.0
 10
12.473495688
 20
12.492181669
 30
0.0
 10
12.4734963655
 20
12.4921726407
 30
0.0
  0
SPLINE
  5
4C8
100
AcDbEntity
  8
0
100
AcDbSpline
 62
7
  6
CONTINUOUS
 70
0
 71
3
 72
30
 73
26
 74
0
 42
0.0000001
 43
0.0000001
 44
0.0000000001
 40
0.0
 40
0.0
 40
0.0
 40
0.0
 40
0.2099982674
 40
0.4029194033
 40
0.4915894772
 40
0.5743846492
 40
0.650835863
 40
0.720511265
 40
0.783019362
 40
0.8380121642
 40
0.8625947503
 40
0.8851903602
 40
0.9057696188
 40
0.9243083311
 40
0.9407861323
 40
0.9551897625
 40
0.9675131262
 40
0.9777637489
 40
0.9859703063
 40
0.9893301803
 40
0.9922154522
 40
0.9946556198
 40
0.9967008104
 40
0.9984364442
 40
1.0
 40
1.0
 40
1.0
 40
1.0
 10
12.2185916648
 20
12.4977862825
 30
0.0
 10
12.215933032
 20
12.4975905694
 30
0.0
 10
12.2108335924
 20
12.4971924939
 30
0.0
 10
12.2046172573
 20
12.4966421904
 30
0.0
 10
12.2000137668
 20
12.4961890081
 30
0.0
 10
12.1968840331
 20
12.4958577779
 30
0.0
 10
12.1939967666
 20
12.4955275392
 30
0.0
 10
12.1913684914
 20
12.4952002684
 30
0.0
 10
12.1890142802
 20
12.4948779229
 30
0.0
 10
12.1872311095
 20
12.4946059559
 30
0.0
 10
12.185952155
 20
12.494390131
 30
0.0
 10
12.1851057675
 20
12.49423675
 30
0.0
 10
12.1843369556
 20
12.4940859766
 30
0.0
 10
12.1836468242
 20
12.4939380627
 30
0.0
 10
12.1830363315
 20
12.4937932629
 30
0.0
 10
12.1825063252
 20
12.4936518594
 30
0.0
 10
12.1820573781
 20
12.4935141812
 30
0.0
 10
12.1816900448
 20
12.4933804949
 30
0.0
 10
12.1814370455
 20
12.4932664631
 30
0.0
 10
12.181277941
 20
12.4931748035
 30
0.0
 10
12.1811873131
 20
12.4931116989
 30
0.0
 10
12.1811170565
 20
12.4930494679
 30
0.0
 10
12.1810670607
 20
12.4929876825
 30
0.0
 10
12.1810376199
 20
12.4929256016
 30
0.0
 10
12.1810328203
 20
12.4928829671
 30
0.0
 10
12.1810343041
 20
12.492863174
 30
0.0
  0
SPLINE
  5
4C9
100
AcDbEntity
  8
0
100
AcDbSpline
 62
7
  6
CONTINUOUS
 70
0
 71
3
 72
23
 73
19
 74
0
 42
0.0000001
 43
0.0000001
 44
0.0000000001
 40
0.0
 40
0.0
 40
0.0
 40
0.0
 40
0.2218467038
 40
0.4167927054
 40
0.5038972697
 40
0.5839613238
 40
0.6569060568
 40
0.7226710531
 40
0.7812134608
 40
0.8325213392
 40
0.8766177
 40
0.9135923742
 40
0.9436436823
 40
0.9672016425
 40
0.9768333483
 40
0.9852816719
 40
0.9928604426
 40
1.0
 40
1.0
 40
1.0
 40
1.0
 10
11.8089290963
 20
12.4961617089
 30
0.0
 10
11.8082311002
 20
12.4960633382
 30
0.0
 10
11.8069210827
 20
12.4958688067
 30
0.0
 10
11.8053421535
 20
12.4956024432
 30
0.0
 10
11.8042117163
 20
12.4953878891
 30
0.0
 10
11.8034644426
 20
12.495233919
 30
0.0
 10
11.8027862903
 20
12.49508101
 30
0.0
 10
11.8021780919
 20
12.4949293872
 30
0.0
 10
11.8016405724
 20
12.4947792778
 30
0.0
 10
11.8011743067
 20
12.4946309449
 30
0.0
 10
11.8007797617
 20
12.4944846468
 30
0.0
 10
11.8004569332
 20
12.4943406187
 30
0.0
 10
11.8002058902
 20
12.4941990654
 30
0.0
 10
11.8000455077
 20
12.4940754403
 30
0.0
 10
11.7999583373
 20
12.4939753039
 30
0.0
 10
11.7999156529
 20
12.4939052499
 30
0.0
 10
11.7998915785
 20
12.4938349644
 30
0.0
 10
11.7998884988
 20
12.4937876097
 30
0.0
 10
11.7998901943
 20
12.4937649879
 30
0.0
  0
SPLINE
  5
4CA
100
AcDbEntity
  8
0
100
AcDbSpline
 62
7
  6
CONTINUOUS
 70
0
 71
3
 72
16
 73
12
 74
0
 42
0.0000001
 43
0.0000001
 44
0.0000000001
 40
0.0
 40
0.0
 40
0.0
 40
0.0
 40
0.2039809668
 40
0.3833400555
 40
0.5383642351
 40
0.6696387372
 40
0.7782403967
 40
0.8662287717
 40
0.937580487
 40
0.9693202092
 40
1.0
 40
1.0
 40
1.0
 40
1.0
 10
11.3578282139
 20
12.4959207081
 30
0.0
 10
11.3576851785
 20
12.4958768433
 30
0.0
 10
11.3574176651
 20
12.4957900457
 30
0.0
 10
11.3570476066
 20
12.4956518545
 30
0.0
 10
11.3567347717
 20
12.4955141891
 30
0.0
 10
11.3564791254
 20
12.4953772388
 30
0.0
 10
11.3562803175
 20
12.4952406596
 30
0.0
 10
11.3561375487
 20
12.4951040219
 30
0.0
 10
11.3560628034
 20
12.4949821803
 30
0.0
 10
11.3560382157
 20
12.4948865056
 30
0.0
 10
11.3560365894
 20
12.4948403205
 30
0.0
 10
11.3560382723
 20
12.4948178814
 30
0.0
  0
SPLINE
  5
4CB
100
AcDbEntity
  8
0
100
AcDbSpline
 62
7
  6
CONTINUOUS
 70
0
 71
3
 72
37
 73
33
 74
0
 42
0.0000001
 43
0.0000001
 44
0.0000000001
 40
0.0
 40
0.0
 40
0.0
 40
0.0
 40
0.0002550785
 40
0.0005828846
 40
0.0010246675
 40
0.0015975225
 40
0.0023091265
 40
0.0031633764
 40
0.0053070851
 40
0.008037542
 40
0.0113577646
 40
0.0152682967
 40
0.019768051
 40
0.0305277908
 40
0.043615763
 40
0.0590030586
 40
0.0766537199
 40
0.0965261283
 40
0.1185731467
 40
0.1427418475
 40
0.1689745189
 40
0.1972082171
 40
0.2273749999
 40
0.2932142302
 40
0.3658605029
 40
0.4446165205
 40
0.5287267272
 40
0.6173845713
 40
0.7097393771
 40
0.8049056725
 40
0.9019687389
 40
1.0
 40
1.0
 40
1.0
 40
1.0
 10
10.147192381
 20
12.4441353875
 30
0.0
 10
10.1471927518
 20
12.4441403339
 30
0.0
 10
10.1471895485
 20
12.4441519416
 30
0.0
 10
10.1471758092
 20
12.4441668471
 30
0.0
 10
10.1471542418
 20
12.4441817127
 30
0.0
 10
10.1471241844
 20
12.4441968279
 30
0.0
 10
10.1470855577
 20
12.444212315
 30
0.0
 10
10.1470171073
 20
12.444235178
 30
0.0
 10
10.1469092902
 20
12.4442635388
 30
0.0
 10
10.1467534691
 20
12.4442969838
 30
0.0
 10
10.1465628715
 20
12.4443316936
 30
0.0
 10
10.1463375985
 20
12.4443676405
 30
0.0
 10
10.1459685431
 20
12.4444203039
 30
0.0
 10
10.1454213583
 20
12.4444874551
 30
0.0
 10
10.1446626886
 20
12.4445684519
 30
0.0
 10
10.1437697495
 20
12.4446535115
 30
0.0
 10
10.1427446917
 20
12.4447423976
 30
0.0
 10
10.1415899773
 20
12.4448348249
 30
0.0
 10
10.1403083914
 20
12.4449305439
 30
0.0
 10
10.138903021
 20
12.4450293033
 30
0.0
 10
10.1373772549
 20
12.4451308498
 30
0.0
 10
10.1357347696
 20
12.445234932
 30
0.0
 10
10.1333232224
 20
12.4453810463
 30
0.0
 10
10.1300488817
 20
12.4455671704
 30
0.0
 10
10.125830303
 20
12.4457905674
 30
0.0
 10
10.1212561584
 20
12.4460178202
 30
0.0
 10
10.1163703713
 20
12.4462467163
 30
0.0
 10
10.1112198414
 20
12.4464750243
 30
0.0
 10
10.1058539943
 20
12.4467005342
 30
0.0
 10
10.1003243586
 20
12.446921065
 30
0.0
 10
10.0946839796
 20
12.4471344922
 30
0.0
 10
10.0908926061
 20
12.4472704326
 30
0.0
 10
10.088987447
 20
12.4473368717
 30
0.0
  0
SPLINE
  5
4CC
100
AcDbEntity
  8
0
100
AcDbSpline
 62
7
  6
CONTINUOUS
 70
0
 71
3
 72
34
 73
30
 74
0
 42
0.0000001
 43
0.0000001
 44
0.0000000001
 40
0.0
 40
0.0
 40
0.0
 40
0.0
 40
0.1949222444
 40
0.2899939234
 40
0.3822532298
 40
0.4708187799
 40
0.5548439483
 40
0.6335256267
 40
0.7061113532
 40
0.771906674
 40
0.8302818013
 40
0.8806781709
 40
0.9027310774
 40
0.9226153421
 40
0.9402844521
 40
0.9556972878
 40
0.9688195813
 40
0.9745132055
 40
0.9796249225
 40
0.984152763
 40
0.9880961278
 40
0.9914556477
 40
0.9942339607
 40
0.996438324
 40
0.9980856168
 40
0.9987132626
 40
0.9992238246
 40
0.9996393961
 40
1.0
 40
1.0
 40
1.0
 40
1.0
 10
12.1587881621
 20
12.4689323297
 30
0.0
 10
12.155017216
 20
12.4687428299
 30
0.0
 10
12.1494077875
 20
12.4684453026
 30
0.0
 10
12.1420156092
 20
12.4680205424
 30
0.0
 10
12.1366811691
 20
12.4676975211
 30
0.0
 10
12.1315613626
 20
12.4673705386
 30
0.0
 10
12.1267051768
 20
12.4670427462
 30
0.0
 10
12.1221591042
 20
12.4667173283
 30
0.0
 10
12.1179666991
 20
12.4663974575
 30
0.0
 10
12.1141681668
 20
12.4660863168
 30
0.0
 10
12.1107999997
 20
12.4657869805
 30
0.0
 10
12.1082778706
 20
12.4655402873
 30
0.0
 10
12.1064995965
 20
12.4653489013
 30
0.0
 10
12.1053526018
 20
12.4652165501
 30
0.0
 10
12.1043345318
 20
12.4650892912
 30
0.0
 10
12.103447849
 20
12.4649674547
 30
0.0
 10
12.1027924892
 20
12.4648666203
 30
0.0
 10
12.1023357381
 20
12.4647878235
 30
0.0
 10
12.1020438003
 20
12.4647331037
 30
0.0
 10
12.1017860985
 20
12.4646799736
 30
0.0
 10
12.1015627583
 20
12.4646284952
 30
0.0
 10
12.1013738991
 20
12.4645787352
 30
0.0
 10
12.101219462
 20
12.4645308231
 30
0.0
 10
12.1010995224
 20
12.4644847991
 30
0.0
 10
12.1010217145
 20
12.4644454392
 30
0.0
 10
12.1009781658
 20
12.464413332
 30
0.0
 10
12.1009569845
 20
12.4643916951
 30
0.0
 10
12.1009441593
 20
12.4643698874
 30
0.0
 10
12.1009418029
 20
12.4643545251
 30
0.0
 10
12.1009423255
 20
12.4643475596
 30
0.0
  0
SPLINE
  5
4CD
100
AcDbEntity
  8
0
100
AcDbSpline
 62
7
  6
CONTINUOUS
 70
0
 71
3
 72
27
 73
23
 74
0
 42
0.0000001
 43
0.0000001
 44
0.0000000001
 40
0.0
 40
0.0
 40
0.0
 40
0.0
 40
0.2232025395
 40
0.4209888646
 40
0.5097896426
 40
0.5915932396
 40
0.6662204138
 40
0.7335101152
 40
0.7933198882
 40
0.8455314379
 40
0.890050981
 40
0.9268196349
 40
0.9422945872
 40
0.9558365773
 40
0.9674612731
 40
0.9772008716
 40
0.9851154002
 40
0.991323685
 40
0.9938657281
 40
0.9960991839
 40
0.9981064843
 40
1.0
 40
1.0
 40
1.0
 40
1.0
 10
11.8021332654
 20
12.4674731709
 30
0.0
 10
11.8009239751
 20
12.4673718347
 30
0.0
 10
11.7986438715
 20
12.467171262
 30
0.0
 10
11.7958855496
 20
12.4668987251
 30
0.0
 10
11.7938946135
 20
12.4666799488
 30
0.0
 10
11.7925705369
 20
12.4665232515
 30
0.0
 10
11.7913640698
 20
12.4663683709
 30
0.0
 10
11.7902779483
 20
12.466215697
 30
0.0
 10
11.7893146307
 20
12.4660656259
 30
0.0
 10
11.7884762477
 20
12.4659186328
 30
0.0
 10
11.7877646737
 20
12.4657751135
 30
0.0
 10
11.7872527302
 20
12.4656530173
 30
0.0
 10
11.7869086613
 20
12.4655551223
 30
0.0
 10
11.7866983699
 20
12.4654870683
 30
0.0
 10
11.7865206811
 20
12.4654201798
 30
0.0
 10
11.7863754686
 20
12.4653544983
 30
0.0
 10
11.786262652
 20
12.4652900823
 30
0.0
 10
11.7861906698
 20
12.465233903
 30
0.0
 10
11.7861516033
 20
12.4651884612
 30
0.0
 10
11.7861324771
 20
12.4651566666
 30
0.0
 10
11.7861217083
 20
12.4651247794
 30
0.0
 10
11.7861203473
 20
12.4651033085
 30
0.0
 10
11.7861211167
 20
12.4650930424
 30
0.0
  0
LINE
  5
4CE
100
AcDbEntity
  8
0
100
AcDbLine
 62
9
  6
CONTINUOUS
 10
11.4778233583
 20
12.4640708939
 11
11.7862896046
 21
12.4640727497
  0
SPLINE
  5
4CF
100
AcDbEntity
  8
0
100
AcDbSpline
 62
9
  6
CONTINUOUS
 70
0
 71
3
 72
17
 73
13
 74
0
 42
0.0000001
 43
0.0000001
 44
0.0000000001
 40
0.0
 40
0.0
 40
0.0
 40
0.0
 40
0.1095633571
 40
0.2204111645
 40
0.2772379989
 40
0.335432364
 40
0.3950728054
 40
0.4561746795
 40
0.5828257841
 40
0.7155859399
 40
0.8547256503
 40
1.0
 40
1.0
 40
1.0
 40
1.0
 10
11.0888588034
 20
2.3075894158
 30
0.0
 10
11.088420583
 20
2.3068899407
 30
0.0
 10
11.0874332239
 20
2.3055467806
 30
0.0
 10
11.0859751146
 20
2.3040428933
 30
0.0
 10
11.0846787179
 20
2.302939283
 30
0.0
 10
11.0836275009
 20
2.3021466684
 30
0.0
 10
11.0825104942
 20
2.3013911059
 30
0.0
 10
11.0809214995
 20
2.3004161212
 30
0.0
 10
11.0787884997
 20
2.29927922
 30
0.0
 10
11.0760494967
 20
2.2980451373
 30
0.0
 10
11.0731197062
 20
2.2969047098
 30
0.0
 10
11.0710927994
 20
2.2962083898
 30
0.0
 10
11.070052404
 20
2.2958687056
 30
0.0
  0
LINE
  5
4D0
100
AcDbEntity
  8
0
100
AcDbLine
 62
7
  6
CONTINUOUS
 10
11.9176923427
 20
12.446161938
 11
11.9004463373
 21
12.4454685641
  0
SPLINE
  5
4D1
100
AcDbEntity
  8
0
100
AcDbSpline
 62
7
  6
CONTINUOUS
 70
0
 71
3
 72
37
 73
33
 74
0
 42
0.0000001
 43
0.0000001
 44
0.0000000001
 40
0.0
 40
0.0
 40
0.0
 40
0.0
 40
0.098031377
 40
0.1950943276
 40
0.2902605952
 40
0.3826153155
 40
0.4712730971
 40
0.5553835062
 40
0.6341397052
 40
0.7067860312
 40
0.7726252984
 40
0.8027920505
 40
0.8310256886
 40
0.8572582888
 40
0.881426958
 40
0.903473966
 40
0.9233463507
 40
0.9409969871
 40
0.9563842569
 40
0.969472212
 40
0.9802319472
 40
0.9847317057
 40
0.9886422432
 40
0.9919624686
 40
0.9946929228
 40
0.9968366273
 40
0.9976908757
 40
0.9984024788
 40
0.9989753332
 40
0.9994171158
 40
0.9997449216
 40
1.0
 40
1.0
 40
1.0
 40
1.0
 10
11.7863972384
 20
12.4473368717
 30
0.0
 10
11.7844920771
 20
12.4472704326
 30
0.0
 10
11.7807007036
 20
12.4471344921
 30
0.0
 10
11.7750603252
 20
12.446921065
 30
0.0
 10
11.7695306939
 20
12.4467005343
 30
0.0
 10
11.7641648502
 20
12.4464750246
 30
0.0
 10
11.7590143193
 20
12.4462467165
 30
0.0
 10
11.7541285259
 20
12.4460178201
 30
0.0
 10
11.7495543728
 20
12.4457905669
 30
0.0
 10
11.7453357889
 20
12.4455671696
 30
0.0
 10
11.742061447
 20
12.4453810454
 30
0.0
 10
11.7396499009
 20
12.4452349311
 30
0.0
 10
11.7380074187
 20
12.4451308491
 30
0.0
 10
11.7364816557
 20
12.4450293027
 30
0.0
 10
11.7350762876
 20
12.4449305434
 30
0.0
 10
11.7337947029
 20
12.4448348245
 30
0.0
 10
11.7326399897
 20
12.4447423973
 30
0.0
 10
11.7316149333
 20
12.4446535113
 30
0.0
 10
11.7307219955
 20
12.4445684518
 30
0.0
 10
11.7299633267
 20
12.4444874551
 30
0.0
 10
11.7294161423
 20
12.4444203039
 30
0.0
 10
11.7290470868
 20
12.4443676405
 30
0.0
 10
11.7288218136
 20
12.4443316936
 30
0.0
 10
11.7286312159
 20
12.4442969837
 30
0.0
 10
11.7284753948
 20
12.4442635388
 30
0.0
 10
11.7283675779
 20
12.4442351779
 30
0.0
 10
11.7282991276
 20
12.444212315
 30
0.0
 10
11.728260501
 20
12.4441968279
 30
0.0
 10
11.7282304436
 20
12.4441817127
 30
0.0
 10
11.7282088763
 20
12.4441668471
 30
0.0
 10
11.728195137
 20
12.4441519416
 30
0.0
 10
11.7281919337
 20
12.4441403339
 30
0.0
 10
11.7281923045
 20
12.4441353875
 30
0.0
  0
SPLINE
  5
4D2
100
AcDbEntity
  8
0
100
AcDbSpline
 62
7
  6
CONTINUOUS
 70
0
 71
3
 72
28
 73
24
 74
0
 42
0.0000001
 43
0.0000001
 44
0.0000000001
 40
0.0
 40
0.0
 40
0.0
 40
0.0
 40
0.22829145
 40
0.3321935039
 40
0.4290493392
 40
0.5187107028
 40
0.6010392554
 40
0.6759092106
 40
0.7432056474
 40
0.8028260111
 40
0.8546800555
 40
0.8986899886
 40
0.9347926398
 40
0.9498630051
 40
0.9629396758
 40
0.9740207406
 40
0.9831060261
 40
0.9901990246
 40
0.9930025486
 40
0.9953151714
 40
0.9971439511
 40
0.9985036965
 40
1.0
 40
1.0
 40
1.0
 40
1.0
 10
11.3670540711
 20
12.432139996
 30
0.0
 10
11.3662109906
 20
12.4321104163
 30
0.0
 10
11.3649842491
 20
12.432065921
 30
0.0
 10
11.3633999831
 20
12.432004525
 30
0.0
 10
11.3623276875
 20
12.4319609841
 30
0.0
 10
11.3613351343
 20
12.4319185594
 30
0.0
 10
11.3604238512
 20
12.4318773191
 30
0.0
 10
11.3595952437
 20
12.4318373336
 30
0.0
 10
11.3588505873
 20
12.4317986742
 30
0.0
 10
11.3581910292
 20
12.4317614124
 30
0.0
 10
11.3576175819
 20
12.4317256376
 30
0.0
 10
11.3571311262
 20
12.4316914198
 30
0.0
 10
11.3567805444
 20
12.4316628807
 30
0.0
 10
11.3565441914
 20
12.4316403601
 30
0.0
 10
11.3564000505
 20
12.4316249326
 30
0.0
 10
11.3562781194
 20
12.4316099794
 30
0.0
 10
11.3561784129
 20
12.4315954873
 30
0.0
 10
11.3561093701
 20
12.4315831695
 30
0.0
 10
11.3560653177
 20
12.4315731003
 30
0.0
 10
11.3560406729
 20
12.4315664046
 30
0.0
 10
11.3560211175
 20
12.4315595603
 30
0.0
 10
11.3560062416
 20
12.4315528455
 30
0.0
 10
11.3559956961
 20
12.4315445448
 30
0.0
 10
11.3559961093
 20
12.431539031
 30
0.0
  0
SPLINE
  5
4D3
100
AcDbEntity
  8
0
100
AcDbSpline
 62
9
  6
CONTINUOUS
 70
0
 71
3
 72
21
 73
17
 74
0
 42
0.0000001
 43
0.0000001
 44
0.0000000001
 40
0.0
 40
0.0
 40
0.0
 40
0.0
 40
0.1448794153
 40
0.2164983291
 40
0.2871072809
 40
0.4240293928
 40
0.4899664666
 40
0.5539480389
 40
0.6158722073
 40
0.6757098318
 40
0.7335131844
 40
0.7894223547
 40
0.8436691962
 40
0.8965717091
 40
0.9485316929
 40
1.0
 40
1.0
 40
1.0
 40
1.0
 10
11.0956923427
 20
2.3201449873
 30
0.0
 10
11.0930848203
 20
2.3201449873
 30
0.0
 10
11.089180928
 20
2.3198759058
 30
0.0
 10
11.0840890474
 20
2.3189761215
 30
0.0
 10
11.0792144971
 20
2.3177460639
 30
0.0
 10
11.0745818998
 20
2.3160139439
 30
0.0
 10
11.0703218296
 20
2.3137864391
 30
0.0
 10
11.067408158
 20
2.3119249402
 30
0.0
 10
11.0647651388
 20
2.3098697728
 30
0.0
 10
11.062418023
 20
2.3076399521
 30
0.0
 10
11.0603897749
 20
2.3052562887
 30
0.0
 10
11.0587004807
 20
2.3027410575
 30
0.0
 10
11.0573674162
 20
2.3001180651
 30
0.0
 10
11.0564044963
 20
2.2974123077
 30
0.0
 10
11.0558224268
 20
2.2946510658
 30
0.0
 10
11.0556923427
 20
2.2927870365
 30
0.0
 10
11.0556923427
 20
2.291860716
 30
0.0
  0
SPLINE
  5
4D4
100
AcDbEntity
  8
0
100
AcDbSpline
 62
7
  6
CONTINUOUS
 70
0
 71
3
 72
39
 73
35
 74
0
 42
0.0000001
 43
0.0000001
 44
0.0000000001
 40
0.0
 40
0.0
 40
0.0
 40
0.0
 40
0.0001364945
 40
0.0002424445
 40
0.0003809081
 40
0.0007627235
 40
0.0012898492
 40
0.001964724
 40
0.0027883873
 40
0.0048837388
 40
0.0075775925
 40
0.0108696533
 40
0.0147583201
 40
0.0192416377
 40
0.0243173559
 40
0.0299823527
 40
0.0430664171
 40
0.0584627668
 40
0.0761341334
 40
0.0960373319
 40
0.1181241643
 40
0.1423403989
 40
0.1686270288
 40
0.1969199111
 40
0.2271496995
 40
0.2931208618
 40
0.3658970518
 40
0.4447694252
 40
0.5289709876
 40
0.6176844008
 40
0.710049692
 40
0.8051734229
 40
0.9021344337
 40
1.0
 40
1.0
 40
1.0
 40
1.0
 10
12.3845840084
 20
12.4705728269
 30
0.0
 10
12.3845842073
 20
12.4705754762
 30
0.0
 10
12.3845807641
 20
12.4705799356
 30
0.0
 10
12.384574442
 20
12.4705834782
 30
0.0
 10
12.3845630933
 20
12.470588212
 30
0.0
 10
12.3845432908
 20
12.4705931332
 30
0.0
 10
12.3845128971
 20
12.470598407
 30
0.0
 10
12.3844737504
 20
12.4706031743
 30
0.0
 10
12.3844040771
 20
12.4706094723
 30
0.0
 10
12.3842949727
 20
12.4706155165
 30
0.0
 10
12.384137758
 20
12.4706205367
 30
0.0
 10
12.3839455806
 20
12.4706235913
 30
0.0
 10
12.3837185567
 20
12.4706246825
 30
0.0
 10
12.3834568157
 20
12.4706237696
 30
0.0
 10
12.3831605148
 20
12.470620846
 30
0.0
 10
12.3826968502
 20
12.470613907
 30
0.0
 10
12.3820324045
 20
12.4705997185
 30
0.0
 10
12.3811344508
 20
12.4705754813
 30
0.0
 10
12.380103949
 20
12.4705432778
 30
0.0
 10
12.3789434172
 20
12.4705031745
 30
0.0
 10
12.3776556982
 20
12.4704552478
 30
0.0
 10
12.3762439397
 20
12.4703996072
 30
0.0
 10
12.3747115974
 20
12.4703363808
 30
0.0
 10
12.3730624193
 20
12.4702657201
 30
0.0
 10
12.3706416926
 20
12.4701586538
 30
0.0
 10
12.367356282
 20
12.4700072163
 30
0.0
 10
12.3631255035
 20
12.4698040105
 30
0.0
 10
12.35854067
 20
12.4695763191
 30
0.0
 10
12.353646371
 20
12.4693263449
 30
0.0
 10
12.3484901286
 20
12.4690565017
 30
0.0
 10
12.343121918
 20
12.468769399
 30
0.0
 10
12.3375937283
 20
12.4684678132
 30
0.0
 10
12.3319589587
 20
12.4681546561
 30
0.0
 10
12.3281729929
 20
12.4679404872
 30
0.0
 10
12.3262712745
 20
12.4678319723
 30
0.0
  0
SPLINE
  5
4D5
100
AcDbEntity
  8
0
100
AcDbSpline
 62
9
  6
CONTINUOUS
 70
0
 71
3
 72
17
 73
13
 74
0
 42
0.0000001
 43
0.0000001
 44
0.0000000001
 40
0.0
 40
0.0
 40
0.0
 40
0.0
 40
0.1451822819
 40
0.2842216544
 40
0.4169422613
 40
0.5436220241
 40
0.6047277468
 40
0.6643536623
 40
0.7225337196
 40
0.7793676007
 40
0.8903123923
 40
1.0
 40
1.0
 40
1.0
 40
1.0
 10
10.8052035257
 20
2.2959112019
 30
0.0
 10
10.804170401
 20
2.2962498322
 30
0.0
 10
10.8021578206
 20
2.2969439644
 30
0.0
 10
10.7992489448
 20
2.2980815212
 30
0.0
 10
10.7965293638
 20
2.2993128958
 30
0.0
 10
10.7944108581
 20
2.3004460835
 30
0.0
 10
10.7928326183
 20
2.3014175265
 30
0.0
 10
10.7917236264
 20
2.3021702055
 30
0.0
 10
10.7906801536
 20
2.3029597331
 30
0.0
 10
10.7893928578
 20
2.3040593556
 30
0.0
 10
10.7879441597
 20
2.3055571349
 30
0.0
 10
10.7869616454
 20
2.3068934758
 30
0.0
 10
10.7865256131
 20
2.3075895917
 30
0.0
  0
SPLINE
  5
4D6
100
AcDbEntity
  8
0
100
AcDbSpline
 62
7
  6
CONTINUOUS
 70
0
 71
3
 72
48
 73
44
 74
0
 42
0.0000001
 43
0.0000001
 44
0.0000000001
 40
0.0
 40
0.0
 40
0.0
 40
0.0
 40
0.0000749126
 40
0.0001668065
 40
0.0002855852
 40
0.0004359276
 40
0.0006201205
 40
0.0008393926
 40
0.0010944642
 40
0.0013857845
 40
0.0020781977
 40
0.0029181027
 40
0.0039062051
 40
0.0050428839
 40
0.0063282968
 40
0.0077624559
 40
0.0110767283
 40
0.0149846728
 40
0.0194843996
 40
0.0245736022
 40
0.0302493836
 40
0.0365085606
 40
0.0433474198
 40
0.0507620041
 40
0.0587478588
 40
0.0764141482
 40
0.0963041023
 40
0.118370049
 40
0.1425590158
 40
0.1688128746
 40
0.197068482
 40
0.2272578459
 40
0.2593083192
 40
0.2931427526
 40
0.3286796756
 40
0.3658335195
 40
0.4446304398
 40
0.5287748933
 40
0.6174567653
 40
0.7098221481
 40
0.8049816987
 40
0.9020190771
 40
1.0
 40
1.0
 40
1.0
 40
1.0
 10
10.5314423458
 20
15.5280823923
 30
0.0
 10
10.5314423467
 20
15.5280925412
 30
0.0
 10
10.5314490131
 20
15.5281152277
 30
0.0
 10
10.5314745292
 20
15.5281451052
 30
0.0
 10
10.5315141026
 20
15.5281742242
 30
0.0
 10
10.5315684037
 20
15.5282032111
 30
0.0
 10
10.5316376458
 20
15.5282322752
 30
0.0
 10
10.5317220175
 20
15.5282614138
 30
0.0
 10
10.5318215779
 20
15.5282906248
 30
0.0
 10
10.5319842396
 20
15.5283320593
 30
0.0
 10
10.5322261654
 20
15.5283826495
 30
0.0
 10
10.5325626798
 20
15.5284407567
 30
0.0
 10
10.5329601067
 20
15.528499052
 30
0.0
 10
10.5334184138
 20
15.5285575035
 30
0.0
 10
10.5339375673
 20
15.5286160592
 30
0.0
 10
10.5347508818
 20
15.5286982487
 30
0.0
 10
10.5359193177
 20
15.528799209
 30
0.0
 10
10.537503105
 20
15.5289157717
 30
0.0
 10
10.5393278964
 20
15.5290326183
 30
0.0
 10
10.5413925995
 20
15.5291496935
 30
0.0
 10
10.5436959985
 20
15.5292669221
 30
0.0
 10
10.5462367046
 20
15.5293842638
 30
0.0
 10
10.5490132015
 20
15.5295016922
 30
0.0
 10
10.5520238111
 20
15.5296191904
 30
0.0
 10
10.5565006334
 20
15.5297814412
 30
0.0
 10
10.562667257
 20
15.5299822987
 30
0.0
 10
10.5707412682
 20
15.5302163786
 30
0.0
 10
10.5796992723
 20
15.5304507469
 30
0.0
 10
10.5895196948
 20
15.5306853524
 30
0.0
 10
10.6001788845
 20
15.5309201281
 30
0.0
 10
10.6116511648
 20
15.5311550376
 30
0.0
 10
10.6239088999
 20
15.5313900513
 30
0.0
 10
10.6369225622
 20
15.5316251487
 30
0.0
 10
10.6506608021
 20
15.5318603126
 30
0.0
 10
10.6650905228
 20
15.5320955358
 30
0.0
 10
10.6856110156
 20
15.5324155255
 30
0.0
 10
10.7127162611
 20
15.5328129372
 30
0.0
 10
10.746802023
 20
15.5332814029
 30
0.0
 10
10.7827261494
 20
15.5337501544
 30
0.0
 10
10.8201426783
 20
15.5342191234
 30
0.0
 10
10.8586912639
 20
15.5346882366
 30
0.0
 10
10.8980006757
 20
15.5351574418
 30
0.0
 10
10.9244191807
 20
15.5354697694
 30
0.0
 10
10.9376923427
 20
15.53562669
 30
0.0
  0
SPLINE
  5
4D7
100
AcDbEntity
  8
0
100
AcDbSpline
 62
9
  6
CONTINUOUS
 70
0
 71
3
 72
42
 73
38
 74
0
 42
0.0000001
 43
0.0000001
 44
0.0000000001
 40
0.0
 40
0.0
 40
0.0
 40
0.0
 40
0.0638901037
 40
0.1312436341
 40
0.2021141349
 40
0.2388706423
 40
0.2764903277
 40
0.314945516
 40
0.3541985668
 40
0.3941845877
 40
0.4348177553
 40
0.5175274579
 40
0.5592612463
 40
0.6009392557
 40
0.6422700678
 40
0.6829055699
 40
0.7224484519
 40
0.7604672389
 40
0.7964986614
 40
0.8300949595
 40
0.8608336046
 40
0.8883677888
 40
0.9124452104
 40
0.9231436971
 40
0.9329443866
 40
0.9418556808
 40
0.9498949905
 40
0.9570938506
 40
0.9635049499
 40
0.9691985912
 40
0.974267946
 40
0.9788322525
 40
0.9830452079
 40
0.9870912785
 40
0.991161056
 40
0.9954213904
 40
1.0
 40
1.0
 40
1.0
 40
1.0
 10
11.0956923427
 20
3.0332666958
 30
0.0
 10
11.0949224156
 20
3.0348183376
 30
0.0
 10
11.0934011591
 20
3.0380360033
 30
0.0
 10
11.0912384997
 20
3.043071995
 30
0.0
 10
11.0895236987
 20
3.0474964023
 30
0.0
 10
11.0881961349
 20
3.0512038976
 30
0.0
 10
11.087214048
 20
3.0541011672
 30
0.0
 10
11.0862619531
 20
3.0570795741
 30
0.0
 10
11.0853445258
 20
3.0601358861
 30
0.0
 10
11.0844630026
 20
3.0632641322
 30
0.0
 10
11.0833326642
 20
3.0675457203
 30
0.0
 10
11.0823084114
 20
3.0719035462
 30
0.0
 10
11.0813880851
 20
3.0763124967
 30
0.0
 10
11.0807598734
 20
3.0796358308
 30
0.0
 10
11.0801985698
 20
3.082940878
 30
0.0
 10
11.0797086148
 20
3.0861987815
 30
0.0
 10
11.079301318
 20
3.0893775559
 30
0.0
 10
11.0789766357
 20
3.0924403635
 30
0.0
 10
11.0787436926
 20
3.0953498804
 30
0.0
 10
11.0786042049
 20
3.0980678115
 30
0.0
 10
11.0785607344
 20
3.1005587521
 30
0.0
 10
11.0786142926
 20
3.1027914447
 30
0.0
 10
11.0787422984
 20
3.1044771166
 30
0.0
 10
11.0788989777
 20
3.1056757392
 30
0.0
 10
11.0790349528
 20
3.1064616951
 30
0.0
 10
11.07919333
 20
3.1071698072
 30
0.0
 10
11.0793733474
 20
3.1077997678
 30
0.0
 10
11.0795745153
 20
3.1083518017
 30
0.0
 10
11.0797964721
 20
3.1088266728
 30
0.0
 10
11.080039209
 20
3.1092253485
 30
0.0
 10
11.0803021383
 20
3.1095491145
 30
0.0
 10
11.0805849459
 20
3.1097990693
 30
0.0
 10
11.0808874536
 20
3.1099754633
 30
0.0
 10
11.0812083537
 20
3.1100783181
 30
0.0
 10
11.0815450078
 20
3.1101089579
 30
0.0
 10
11.0818948384
 20
3.1100709419
 30
0.0
 10
11.0821263876
 20
3.1100051636
 30
0.0
 10
11.0822433037
 20
3.1099634541
 30
0.0
  0
SPLINE
  5
4D8
100
AcDbEntity
  8
0
100
AcDbSpline
 62
7
  6
CONTINUOUS
 70
0
 71
3
 72
73
 73
69
 74
0
 42
0.0000001
 43
0.0000001
 44
0.0000000001
 40
0.0
 40
0.0
 40
0.0
 40
0.0
 40
0.000369246
 40
0.000804487
 40
0.0013075498
 40
0.0018795729
 40
0.0025212844
 40
0.0032331705
 40
0.004868594
 40
0.0067872783
 40
0.0089895202
 40
0.0114749465
 40
0.0142427536
 40
0.0172917828
 40
0.0206206005
 40
0.0281106239
 40
0.0366969115
 40
0.0463604076
 40
0.0570792404
 40
0.0688288859
 40
0.0815822893
 40
0.0953099672
 40
0.1099801008
 40
0.1255586264
 40
0.1592939045
 40
0.196201913
 40
0.2359388654
 40
0.2781344038
 40
0.3223951109
 40
0.3683082168
 40
0.4154454766
 40
0.463367185
 40
0.5116262942
 40
0.559772599
 40
0.6073569496
 40
0.6539354557
 40
0.6990736421
 40
0.7423505202
 40
0.7833625372
 40
0.8217273731
 40
0.8570875521
 40
0.8891138495
 40
0.9037824401
 40
0.9175085205
 40
0.9302602754
 40
0.9420082256
 40
0.9527253204
 40
0.96238704
 40
0.9709715172
 40
0.978459701
 40
0.9817875973
 40
0.9848356847
 40
0.9876025591
 40
0.9900870379
 40
0.9922883396
 40
0.9942060763
 40
0.9958405593
 40
0.9965519817
 40
0.9971932215
 40
0.9977647766
 40
0.998267388
 40
0.9987021886
 40
0.999070999
 40
0.9993768847
 40
0.9996252866
 40
0.9998264049
 40
0.999915116
 40
1.0
 40
1.0
 40
1.0
 40
1.0
 10
11.3434663718
 20
15.4979233062
 30
0.0
 10
11.3433796869
 20
15.4978732007
 30
0.0
 10
11.3431845766
 20
15.4977748354
 30
0.0
 10
11.3428569359
 20
15.4976388569
 30
0.0
 10
11.342470538
 20
15.4975026461
 30
0.0
 10
11.3420253401
 20
15.497366254
 30
0.0
 10
11.3415212876
 20
15.4972296936
 30
0.0
 10
11.3407335878
 20
15.4970385009
 30
0.0
 10
11.3396006916
 20
15.4968032909
 30
0.0
 10
11.3380635071
 20
15.4965315287
 30
0.0
 10
11.3362928396
 20
15.496259192
 30
0.0
 10
11.3342896438
 20
15.4959863708
 30
0.0
 10
11.3320549905
 20
15.4957132303
 30
0.0
 10
11.3295901465
 20
15.4954398215
 30
0.0
 10
11.3258489552
 20
15.4950599232
 30
0.0
 10
11.3206078525
 20
15.4945909886
 30
0.0
 10
11.313649459
 20
15.4940466114
 30
0.0
 10
11.3058132504
 20
15.4935013235
 30
0.0
 10
11.2971174769
 20
15.4929552906
 30
0.0
 10
11.2875823865
 20
15.4924087419
 30
0.0
 10
11.2772302211
 20
15.4918617928
 30
0.0
 10
11.266085137
 20
15.4913145422
 30
0.0
 10
11.2541731509
 20
15.4907670335
 30
0.0
 10
11.2368395959
 20
15.4900167078
 30
0.0
 10
11.2134782664
 20
15.4890869723
 30
0.0
 10
11.1835675676
 20
15.4879971455
 30
0.0
 10
11.1513614325
 20
15.4869062259
 30
0.0
 10
11.1171605154
 20
15.4858144507
 30
0.0
 10
11.0812840943
 20
15.4847220841
 30
0.0
 10
11.0440671032
 20
15.4836292932
 30
0.0
 10
11.0058569957
 20
15.4825362175
 30
0.0
 10
10.9670105007
 20
15.48144297
 30
0.0
 10
10.9278902899
 20
15.4803496512
 30
0.0
 10
10.8888615913
 20
15.4792563562
 30
0.0
 10
10.8502887785
 20
15.4781631814
 30
0.0
 10
10.8125319675
 20
15.4770702333
 30
0.0
 10
10.775943654
 20
15.4759776347
 30
0.0
 10
10.7408654201
 20
15.4748855429
 30
0.0
 10
10.7076247446
 20
15.4737941491
 30
0.0
 10
10.6765319329
 20
15.4727037694
 30
0.0
 10
10.6478772374
 20
15.4716146818
 30
0.0
 10
10.6256467295
 20
15.4706836495
 30
0.0
 10
10.6092803426
 20
15.4699314373
 30
0.0
 10
10.5981365593
 20
15.4693841674
 30
0.0
 10
10.5877857354
 20
15.4688372236
 30
0.0
 10
10.5782520252
 20
15.4682906746
 30
0.0
 10
10.5695576671
 20
15.467744643
 30
0.0
 10
10.5617229058
 20
15.4671993562
 30
0.0
 10
10.554765988
 20
15.4666549815
 30
0.0
 10
10.5495261299
 20
15.4661860438
 30
0.0
 10
10.5457859479
 20
15.4658061437
 30
0.0
 10
10.5433218667
 20
15.4655327336
 30
0.0
 10
10.541087984
 20
15.4652595961
 30
0.0
 10
10.53908556
 20
15.4649867744
 30
0.0
 10
10.5373156698
 20
15.4647144409
 30
0.0
 10
10.5357792634
 20
15.4644426805
 30
0.0
 10
10.534647019
 20
15.4642074677
 30
0.0
 10
10.5338598424
 20
15.4640162727
 30
0.0
 10
10.5333561856
 20
15.4638797128
 30
0.0
 10
10.5329113773
 20
15.4637433179
 30
0.0
 10
10.5325253842
 20
15.4636071164
 30
0.0
 10
10.5321980855
 20
15.4634711205
 30
0.0
 10
10.5319292112
 20
15.4633353672
 30
0.0
 10
10.5317181886
 20
15.4631994644
 30
0.0
 10
10.531564139
 20
15.4630629607
 30
0.0
 10
10.5314797157
 20
15.4629407219
 30
0.0
 10
10.5314475572
 20
15.4628436692
 30
0.0
 10
10.5314423466
 20
15.4627964546
 30
0.0
 10
10.5314423473
 20
15.4627734377
 30
0.0
  0
SPLINE
  5
4D9
100
AcDbEntity
  8
0
100
AcDbSpline
 62
7
  6
CONTINUOUS
 70
0
 71
3
 72
40
 73
36
 74
0
 42
0.0000001
 43
0.0000001
 44
0.0000000001
 40
0.0
 40
0.0
 40
0.0
 40
0.0
 40
0.0007383273
 40
0.0016387805
 40
0.0027059624
 40
0.0039423848
 40
0.0053494831
 40
0.0069280527
 40
0.0086784173
 40
0.0106006409
 40
0.0149598896
 40
0.0200029627
 40
0.0257251816
 40
0.0321205733
 40
0.0391820285
 40
0.0469015381
 40
0.0552702231
 40
0.0642783673
 40
0.084170532
 40
0.1064859263
 40
0.1311216878
 40
0.157965002
 40
0.1868937648
 40
0.2177773539
 40
0.2504772975
 40
0.2848479683
 40
0.3579876326
 40
0.4359163285
 40
0.5172870271
 40
0.6007100666
 40
0.6847773949
 40
0.7680864659
 40
0.8492634222
 40
0.9269851833
 40
1.0
 40
1.0
 40
1.0
 40
1.0
 10
10.5783453938
 20
15.4994824826
 30
0.0
 10
10.578469112
 20
15.4995541755
 30
0.0
 10
10.5787551121
 20
15.499693514
 30
0.0
 10
10.5792440316
 20
15.4998829936
 30
0.0
 10
10.579835074
 20
15.5000729346
 30
0.0
 10
10.5805282254
 20
15.500263206
 30
0.0
 10
10.5813235252
 20
15.5004537069
 30
0.0
 10
10.5822207889
 20
15.5006443455
 30
0.0
 10
10.5832197787
 20
15.5008350876
 30
0.0
 10
10.5847524901
 20
15.5011007389
 30
0.0
 10
10.5869213757
 20
15.5014280126
 30
0.0
 10
10.5898260297
 20
15.5018068375
 30
0.0
 10
10.5931279034
 20
15.5021859576
 30
0.0
 10
10.5968229107
 20
15.5025652496
 30
0.0
 10
10.6009065512
 20
15.5029445403
 30
0.0
 10
10.6053738518
 20
15.5033237343
 30
0.0
 10
10.6102194153
 20
15.5037027806
 30
0.0
 10
10.6174182848
 20
15.5042253338
 30
0.0
 10
10.6273161841
 20
15.5048708976
 30
0.0
 10
10.6402397941
 20
15.505622176
 30
0.0
 10
10.6545116872
 20
15.5063728948
 30
0.0
 10
10.6700660121
 20
15.5071228768
 30
0.0
 10
10.6868316728
 20
15.5078719026
 30
0.0
 10
10.7047326667
 20
15.5086198473
 30
0.0
 10
10.723688488
 20
15.5093666418
 30
0.0
 10
10.7508236429
 20
15.5103818355
 30
0.0
 10
10.7867152728
 20
15.5116349998
 30
0.0
 10
10.8317070708
 20
15.5131057361
 30
0.0
 10
10.8786915704
 20
15.5145719797
 30
0.0
 10
10.9268656256
 20
15.5160333328
 30
0.0
 10
10.9754154083
 20
15.5174893765
 30
0.0
 10
11.0235301723
 20
15.5189397799
 30
0.0
 10
11.0704156276
 20
15.5203841801
 30
0.0
 10
11.1153066474
 20
15.5218221961
 30
0.0
 10
11.1444826131
 20
15.5228121626
 30
0.0
 10
11.1586143449
 20
15.5233120764
 30
0.0
  0
SPLINE
  5
4DA
100
AcDbEntity
  8
0
100
AcDbSpline
 62
7
  6
CONTINUOUS
 70
0
 71
3
 72
41
 73
37
 74
0
 42
0.0000001
 43
0.0000001
 44
0.0000000001
 40
0.0
 40
0.0
 40
0.0
 40
0.0
 40
0.0009949185
 40
0.0021442733
 40
0.0034519726
 40
0.0049205389
 40
0.0065515621
 40
0.008346064
 40
0.0103046802
 40
0.0124277015
 40
0.0171670311
 40
0.0225629579
 40
0.0286122584
 40
0.0353101927
 40
0.0426508668
 40
0.0506273698
 40
0.059231833
 40
0.0684555839
 40
0.0887222225
 40
0.1113427375
 40
0.136221371
 40
0.1632520481
 40
0.1923189827
 40
0.2232972918
 40
0.2560536523
 40
0.2904469017
 40
0.3263286647
 40
0.3635440585
 40
0.441327728
 40
0.5224550258
 40
0.6055247553
 40
0.6891018741
 40
0.7717425078
 40
0.8520190855
 40
0.9285452579
 40
1.0
 40
1.0
 40
1.0
 40
1.0
 10
10.5326235054
 20
15.4729982599
 30
0.0
 10
10.5328071908
 20
15.4731046176
 30
0.0
 10
10.5332143919
 20
15.4733143668
 30
0.0
 10
10.5338905127
 20
15.4736071371
 30
0.0
 10
10.5346753568
 20
15.4739002487
 30
0.0
 10
10.5355688637
 20
15.4741936313
 30
0.0
 10
10.5365709809
 20
15.4744872623
 30
0.0
 10
10.5376815255
 20
15.4747810893
 30
0.0
 10
10.5389002623
 20
15.4750750891
 30
0.0
 10
10.5407376103
 20
15.475482365
 30
0.0
 10
10.5433041967
 20
15.4759860845
 30
0.0
 10
10.5467071944
 20
15.4765716845
 30
0.0
 10
10.5505333514
 20
15.4771580609
 30
0.0
 10
10.5547786178
 20
15.4777450908
 30
0.0
 10
10.5594385108
 20
15.4783325907
 30
0.0
 10
10.5645080363
 20
15.478920453
 30
0.0
 10
10.5699817416
 20
15.4795086287
 30
0.0
 10
10.5780684413
 20
15.4803188348
 30
0.0
 10
10.5891406091
 20
15.4813223435
 30
0.0
 10
10.603550311
 20
15.4824938906
 30
0.0
 10
10.6194072496
 20
15.4836667722
 30
0.0
 10
10.6366428059
 20
15.4848407439
 30
0.0
 10
10.6551823961
 20
15.486015504
 30
0.0
 10
10.6749457449
 20
15.4871908815
 30
0.0
 10
10.6958472665
 20
15.4883667385
 30
0.0
 10
10.7177964345
 20
15.4895429693
 30
0.0
 10
10.7406981754
 20
15.4907195189
 30
0.0
 10
10.7728475795
 20
15.4923120544
 30
0.0
 10
10.814642446
 20
15.4942871438
 30
0.0
 10
10.866213458
 20
15.4966256497
 30
0.0
 10
10.9190216307
 20
15.4989650581
 30
0.0
 10
10.9721529563
 20
15.5013047262
 30
0.0
 10
11.0246878345
 20
15.5036439431
 30
0.0
 10
11.075717013
 20
15.5059819379
 30
0.0
 10
11.1243572941
 20
15.5083178527
 30
0.0
 10
11.15588599
 20
15.5099371996
 30
0.0
 10
11.171107992
 20
15.5107577905
 30
0.0
  0
LINE
  5
4DB
100
AcDbEntity
  8
0
100
AcDbLine
 62
7
  6
CONTINUOUS
 10
12.8359891999
 20
12.5003611381
 11
12.7776923427
 21
12.4959510312
  0
SPLINE
  5
4DC
100
AcDbEntity
  8
0
100
AcDbSpline
 62
7
  6
CONTINUOUS
 70
0
 71
3
 72
48
 73
44
 74
0
 42
0.0000001
 43
0.0000001
 44
0.0000000001
 40
0.0
 40
0.0
 40
0.0
 40
0.0
 40
0.0001712663
 40
0.0003548167
 40
0.0005607756
 40
0.0007963872
 40
0.0010665079
 40
0.0013743444
 40
0.0021107738
 40
0.0030165811
 40
0.0040970231
 40
0.0053549178
 40
0.0067918485
 40
0.0084086818
 40
0.0102057652
 40
0.0121831615
 40
0.0143407268
 40
0.0191947097
 40
0.0247635624
 40
0.03104136
 40
0.0380209239
 40
0.0456940091
 40
0.0540513374
 40
0.0630827561
 40
0.0727772841
 40
0.0941075116
 40
0.1179384351
 40
0.1441549135
 40
0.1726311594
 40
0.2032315631
 40
0.235811441
 40
0.2702178161
 40
0.3062903042
 40
0.3438618577
 40
0.3827596223
 40
0.4228058266
 40
0.5056127519
 40
0.5907939199
 40
0.6768363398
 40
0.7622298177
 40
0.8454932659
 40
0.9251997827
 40
1.0
 40
1.0
 40
1.0
 40
1.0
 10
10.5778130117
 20
15.5015652623
 30
0.0
 10
10.5778130126
 20
15.5015984795
 30
0.0
 10
10.5778229035
 20
15.5016676079
 30
0.0
 10
10.5778660804
 20
15.501768488
 30
0.0
 10
10.5779365093
 20
15.5018680344
 30
0.0
 10
10.5780336571
 20
15.501966712
 30
0.0
 10
10.5781574641
 20
15.5020650164
 30
0.0
 10
10.5783713232
 20
15.5022042794
 30
0.0
 10
10.5787103167
 20
15.5023742546
 30
0.0
 10
10.5792017792
 20
15.502568353
 30
0.0
 10
10.5798004913
 20
15.5027628971
 30
0.0
 10
10.5805064473
 20
15.5029578431
 30
0.0
 10
10.5813197244
 20
15.5031530413
 30
0.0
 10
10.5822401266
 20
15.503348404
 30
0.0
 10
10.583267406
 20
15.5035438662
 30
0.0
 10
10.5844012393
 20
15.5037393937
 30
0.0
 10
10.5861234259
 20
15.5040108964
 30
0.0
 10
10.5885404989
 20
15.5043458775
 30
0.0
 10
10.5917563307
 20
15.5047342768
 30
0.0
 10
10.5953870341
 20
15.5051228859
 30
0.0
 10
10.5994279077
 20
15.5055115934
 30
0.0
 10
10.6038737902
 20
15.5059002438
 30
0.0
 10
10.6087190222
 20
15.5062887567
 30
0.0
 10
10.6139574838
 20
15.5066770872
 30
0.0
 10
10.6217079993
 20
15.5072117186
 30
0.0
 10
10.6323268508
 20
15.5078725172
 30
0.0
 10
10.6461492173
 20
15.5086421693
 30
0.0
 10
10.661359528
 20
15.5094111516
 30
0.0
 10
10.6778843449
 20
15.5101792946
 30
0.0
 10
10.6956446207
 20
15.5109463888
 30
0.0
 10
10.7145560932
 20
15.5117123212
 30
0.0
 10
10.7345297446
 20
15.512477003
 30
0.0
 10
10.7554722534
 20
15.5132403735
 30
0.0
 10
10.7772864685
 20
15.5140023847
 30
0.0
 10
10.7998718855
 20
15.5147630149
 30
0.0
 10
10.8312268126
 20
15.5157867034
 30
0.0
 10
10.8715552607
 20
15.5170529236
 30
0.0
 10
10.9208017695
 20
15.5185509708
 30
0.0
 10
10.9705503347
 20
15.5200434859
 30
0.0
 10
11.0199269665
 20
15.5215301201
 30
0.0
 10
11.0680743784
 20
15.5230104546
 30
0.0
 10
11.1141664326
 20
15.5244840639
 30
0.0
 10
11.1441158917
 20
15.5254991897
 30
0.0
 10
11.1586143449
 20
15.5260120764
 30
0.0
  0
SPLINE
  5
4DD
100
AcDbEntity
  8
0
100
AcDbSpline
 62
9
  6
CONTINUOUS
 70
0
 71
3
 72
21
 73
17
 74
0
 42
0.0000001
 43
0.0000001
 44
0.0000000001
 40
0.0
 40
0.0
 40
0.0
 40
0.0
 40
0.1448795702
 40
0.2164985784
 40
0.2871076295
 40
0.4240299354
 40
0.4899670908
 40
0.5539487267
 40
0.6158729348
 40
0.6757105696
 40
0.7335138977
 40
0.7894230052
 40
0.8436697435
 40
0.896572112
 40
0.9485319118
 40
1.0
 40
1.0
 40
1.0
 40
1.0
 10
11.0956923427
 20
3.0332668056
 30
0.0
 10
11.0930848197
 20
3.0332667956
 30
0.0
 10
11.0891809273
 20
3.0329977007
 30
0.0
 10
11.0840890472
 20
3.032097902
 30
0.0
 10
11.0792144971
 20
3.0308678326
 30
0.0
 10
11.0745819003
 20
3.0291357045
 30
0.0
 10
11.07032183
 20
3.0269081955
 30
0.0
 10
11.0674081585
 20
3.0250466957
 30
0.0
 10
11.0647651394
 20
3.0229915295
 30
0.0
 10
11.0624180236
 20
3.020761712
 30
0.0
 10
11.0603897755
 20
3.0183780539
 30
0.0
 10
11.0587004812
 20
3.0158628299
 30
0.0
 10
11.0573674167
 20
3.0132398467
 30
0.0
 10
11.0564044966
 20
3.0105341001
 30
0.0
 10
11.055822427
 20
3.0077728707
 30
0.0
 10
11.0556923427
 20
3.0059088501
 30
0.0
 10
11.0556923427
 20
3.0049825344
 30
0.0
  0
SPLINE
  5
4DE
100
AcDbEntity
  8
0
100
AcDbSpline
 62
7
  6
CONTINUOUS
 70
0
 71
3
 72
32
 73
28
 74
0
 42
0.0000001
 43
0.0000001
 44
0.0000000001
 40
0.0
 40
0.0
 40
0.0
 40
0.0
 40
0.1934946954
 40
0.2878826348
 40
0.3794664337
 40
0.4673603236
 40
0.550718476
 40
0.6287449629
 40
0.7007019397
 40
0.7659180937
 40
0.8237970867
 40
0.8498225692
 40
0.8738295012
 40
0.895769779
 40
0.9156024736
 40
0.9332963165
 40
0.9488309146
 40
0.9622015329
 40
0.9734271509
 40
0.9782535025
 40
0.9825713734
 40
0.9864011916
 40
0.9897734453
 40
0.9927344715
 40
0.9953536054
 40
0.9977310365
 40
1.0
 40
1.0
 40
1.0
 40
1.0
 10
10.9376923427
 20
12.5377645495
 30
0.0
 10
10.9338913079
 20
12.5377645495
 30
0.0
 10
10.9282358986
 20
12.5377132318
 30
0.0
 10
10.9207835754
 20
12.5375384999
 30
0.0
 10
10.9154066374
 20
12.5373583526
 30
0.0
 10
10.9102484029
 20
12.5371299743
 30
0.0
 10
10.9053591016
 20
12.5368557202
 30
0.0
 10
10.9007861518
 20
12.5365384509
 30
0.0
 10
10.8965736351
 20
12.536181536
 30
0.0
 10
10.8927619686
 20
12.5357886891
 30
0.0
 10
10.889855118
 20
12.5354233567
 30
0.0
 10
10.8877582824
 20
12.5351114303
 30
0.0
 10
10.8863635356
 20
12.534879352
 30
0.0
 10
10.8850933339
 20
12.5346414245
 30
0.0
 10
10.8839505997
 20
12.5343982642
 30
0.0
 10
10.8829379274
 20
12.5341505597
 30
0.0
 10
10.8820574303
 20
12.5338990525
 30
0.0
 10
10.8813109732
 20
12.5336444186
 30
0.0
 10
10.8807772516
 20
12.5334204698
 30
0.0
 10
10.8804215939
 20
12.5332366333
 30
0.0
 10
10.8802029583
 20
12.533105242
 30
0.0
 10
10.8800187029
 20
12.5329733365
 30
0.0
 10
10.8798688197
 20
12.5328407737
 30
0.0
 10
10.8797533161
 20
12.5327072824
 30
0.0
 10
10.8796724617
 20
12.532572314
 30
0.0
 10
10.8796272381
 20
12.5324355374
 30
0.0
 10
10.8796218335
 20
12.5323431541
 30
0.0
 10
10.8796251676
 20
12.5322987072
 30
0.0
  0
SPLINE
  5
4DF
100
AcDbEntity
  8
0
100
AcDbSpline
 62
7
  6
CONTINUOUS
 70
0
 71
3
 72
38
 73
34
 74
0
 42
0.0000001
 43
0.0000001
 44
0.0000000001
 40
0.0
 40
0.0
 40
0.0
 40
0.0
 40
0.0002423996
 40
0.0005486687
 40
0.0009666144
 40
0.0015156011
 40
0.0022039236
 40
0.0030356332
 40
0.0040129369
 40
0.0051371302
 40
0.0078289516
 40
0.0111144445
 40
0.0149938323
 40
0.0194662581
 40
0.0245301935
 40
0.0301830118
 40
0.0432427743
 40
0.0586164027
 40
0.0762676365
 40
0.0961538388
 40
0.1182270604
 40
0.1424331019
 40
0.1687128279
 40
0.2272304384
 40
0.2932056609
 40
0.3659911301
 40
0.4448737607
 40
0.5290824031
 40
0.6177960141
 40
0.7101516506
 40
0.8052539392
 40
0.9021808756
 40
1.0
 40
1.0
 40
1.0
 40
1.0
 10
12.7732813869
 20
12.5002100259
 30
0.0
 10
12.7732817401
 20
12.5002147325
 30
0.0
 10
12.7732786184
 20
12.5002257548
 30
0.0
 10
12.7732645623
 20
12.5002389547
 30
0.0
 10
12.7732428498
 20
12.5002510704
 30
0.0
 10
12.7732126314
 20
12.5002625368
 30
0.0
 10
12.7731738233
 20
12.5002734384
 30
0.0
 10
12.7731262776
 20
12.5002837478
 30
0.0
 10
12.7730699827
 20
12.5002934517
 30
0.0
 10
12.7729775311
 20
12.5003063375
 30
0.0
 10
12.7728399047
 20
12.500320165
 30
0.0
 10
12.7726484289
 20
12.500333501
 30
0.0
 10
12.7724220759
 20
12.5003442871
 30
0.0
 10
12.7721609731
 20
12.5003524988
 30
0.0
 10
12.7718652646
 20
12.5003580985
 30
0.0
 10
12.7714023143
 20
12.5003622475
 30
0.0
 10
12.7707385873
 20
12.500359902
 30
0.0
 10
12.7698413372
 20
12.500346849
 30
0.0
 10
12.768811342
 20
12.5003233003
 30
0.0
 10
12.767651129
 20
12.50028929
 30
0.0
 10
12.7663635537
 20
12.5002448584
 30
0.0
 10
12.7649517835
 20
12.5001901042
 30
0.0
 10
12.7628312322
 20
12.5001001965
 30
0.0
 10
12.7598987141
 20
12.4999619477
 30
0.0
 10
12.7560625547
 20
12.4997632367
 30
0.0
 10
12.751831249
 20
12.4995280379
 30
0.0
 10
12.7472462912
 20
12.4992586258
 30
0.0
 10
12.742352532
 20
12.4989575967
 30
0.0
 10
12.7371977194
 20
12.4986278721
 30
0.0
 10
12.7318320032
 20
12.4982726503
 30
0.0
 10
12.7263074838
 20
12.4978953772
 30
0.0
 10
12.7206776027
 20
12.4974997037
 30
0.0
 10
12.7168954632
 20
12.4972265715
 30
0.0
 10
12.7149958631
 20
12.4970875669
 30
0.0
  0
LINE
  5
4E0
100
AcDbEntity
  8
0
100
AcDbLine
 62
7
  6
CONTINUOUS
 10
12.1827522963
 20
12.4699870208
 11
12.1817893553
 21
12.4699509252
  0
SPLINE
  5
4E1
100
AcDbEntity
  8
0
100
AcDbSpline
 62
7
  6
CONTINUOUS
 70
0
 71
3
 72
11
 73
7
 74
0
 42
0.0000001
 43
0.0000001
 44
0.0000000001
 40
0.0
 40
0.0
 40
0.0
 40
0.0
 40
0.2197507298
 40
0.4652291241
 40
0.7282311872
 40
1.0
 40
1.0
 40
1.0
 40
1.0
 10
12.5699421841
 20
12.5001366626
 30
0.0
 10
12.5671003849
 20
12.5000458733
 30
0.0
 10
12.5610853018
 20
12.4998149628
 30
0.0
 10
12.5516736
 20
12.4993676161
 30
0.0
 10
12.5415936271
 20
12.4988104353
 30
0.0
 10
12.5346878072
 20
12.4983802354
 30
0.0
 10
12.5311790857
 20
12.4981497109
 30
0.0
  0
SPLINE
  5
4E2
100
AcDbEntity
  8
0
100
AcDbSpline
 62
7
  6
CONTINUOUS
 70
0
 71
3
 72
34
 73
30
 74
0
 42
0.0000001
 43
0.0000001
 44
0.0000000001
 40
0.0
 40
0.0
 40
0.0
 40
0.0
 40
0.1946003871
 40
0.2896341812
 40
0.3819189528
 40
0.4705543106
 40
0.5546721073
 40
0.6334467104
 40
0.7061038364
 40
0.7719296286
 40
0.8302793392
 40
0.8564704429
 40
0.8805865224
 40
0.9025705189
 40
0.9223709969
 40
0.9399437956
 40
0.9552516222
 40
0.9682660672
 40
0.9739078231
 40
0.9789711781
 40
0.9834566754
 40
0.9873672865
 40
0.9907088822
 40
0.9934924447
 40
0.9957394853
 40
0.9974929168
 40
0.9988448069
 40
0.9994305102
 40
1.0
 40
1.0
 40
1.0
 40
1.0
 10
8.9718146761
 20
12.5350218603
 30
0.0
 10
8.9680219926
 20
12.5353299471
 30
0.0
 10
8.9623750271
 20
12.5357631184
 30
0.0
 10
8.9549250423
 20
12.5362813238
 30
0.0
 10
8.9495402796
 20
12.5366289499
 30
0.0
 10
8.9443668155
 20
12.5369352519
 30
0.0
 10
8.9394554435
 20
12.5371972249
 30
0.0
 10
8.9348545444
 20
12.5374123224
 30
0.0
 10
8.9306095371
 20
12.537578512
 30
0.0
 10
8.9267623951
 20
12.5376942287
 30
0.0
 10
8.9238225889
 20
12.5377498351
 30
0.0
 10
8.9216979728
 20
12.5377658212
 30
0.0
 10
8.920284386
 20
12.5377641856
 30
0.0
 10
8.9189958368
 20
12.5377494496
 30
0.0
 10
8.9178354737
 20
12.5377216777
 30
0.0
 10
8.9168061036
 20
12.5376810416
 30
0.0
 10
8.915910203
 20
12.5376277005
 30
0.0
 10
8.915248395
 20
12.5375706596
 30
0.0
 10
8.9147876674
 20
12.5375170019
 30
0.0
 10
8.9144934968
 20
12.537475609
 30
0.0
 10
8.9142340388
 20
12.5374311897
 30
0.0
 10
8.9140093924
 20
12.5373838138
 30
0.0
 10
8.9138195821
 20
12.537333538
 30
0.0
 10
8.913664519
 20
12.5372805022
 30
0.0
 10
8.9135438207
 20
12.5372245041
 30
0.0
 10
8.913456669
 20
12.5371656067
 30
0.0
 10
8.9134091704
 20
12.537108634
 30
0.0
 10
8.9133932679
 20
12.5370616963
 30
0.0
 10
8.9133919924
 20
12.537038824
 30
0.0
 10
8.9133928254
 20
12.5370277195
 30
0.0
  0
SPLINE
  5
4E3
100
AcDbEntity
  8
0
100
AcDbSpline
 62
7
  6
CONTINUOUS
 70
0
 71
3
 72
31
 73
27
 74
0
 42
0.0000001
 43
0.0000001
 44
0.0000000001
 40
0.0
 40
0.0
 40
0.0
 40
0.0
 40
0.1944416956
 40
0.3815471539
 40
0.470052038
 40
0.5540233683
 40
0.632638101
 40
0.7051267786
 40
0.7707829267
 40
0.8289719803
 40
0.855090437
 40
0.8791416408
 40
0.901071082
 40
0.9208304295
 40
0.9383794299
 40
0.9536859959
 40
0.966729131
 40
0.9775035435
 40
0.9820456739
 40
0.9860318689
 40
0.989473494
 40
0.992389657
 40
0.9948139853
 40
0.9968064535
 40
0.9984752189
 40
1.0
 40
1.0
 40
1.0
 40
1.0
 10
9.2507535889
 20
12.5359474085
 30
0.0
 10
9.2469579377
 20
12.5362123131
 30
0.0
 10
9.239506626
 20
12.5366870691
 30
0.0
 10
9.2303202452
 20
12.537156965
 30
0.0
 10
9.2232895018
 20
12.53744016
 30
0.0
 10
9.2183786099
 20
12.5375992655
 30
0.0
 10
9.2137798178
 20
12.537707622
 30
0.0
 10
9.2095385003
 20
12.5377642806
 30
0.0
 10
9.2056964896
 20
12.5377688146
 30
0.0
 10
9.2027620733
 20
12.5377282691
 30
0.0
 10
9.2006425431
 20
12.5376665326
 30
0.0
 10
9.1992328247
 20
12.5376090141
 30
0.0
 10
9.1979482756
 20
12.5375388337
 30
0.0
 10
9.1967919754
 20
12.537456213
 30
0.0
 10
9.1957666767
 20
12.5373614487
 30
0.0
 10
9.1948746978
 20
12.5372549594
 30
0.0
 10
9.1941180658
 20
12.5371371012
 30
0.0
 10
9.1935741754
 20
12.5370246988
 30
0.0
 10
9.193209437
 20
12.5369260688
 30
0.0
 10
9.1929865404
 20
12.5368536864
 30
0.0
 10
9.1927983217
 20
12.536778714
 30
0.0
 10
9.1926446454
 20
12.5367011173
 30
0.0
 10
9.1925251868
 20
12.5366206854
 30
0.0
 10
9.192439499
 20
12.5365366018
 30
0.0
 10
9.192388291
 20
12.5364468567
 30
0.0
 10
9.1923800991
 20
12.5363829016
 30
0.0
 10
9.192382331
 20
12.5363531479
 30
0.0
  0
SPLINE
  5
4E4
100
AcDbEntity
  8
0
100
AcDbSpline
 62
7
  6
CONTINUOUS
 70
0
 71
3
 72
32
 73
28
 74
0
 42
0.0000001
 43
0.0000001
 44
0.0000000001
 40
0.0
 40
0.0
 40
0.0
 40
0.0
 40
0.1941983729
 40
0.2889922614
 40
0.3810072392
 40
0.4693433172
 40
0.5531362186
 40
0.631568195
 40
0.7038772321
 40
0.7693664574
 40
0.8274132884
 40
0.8534745532
 40
0.8774806209
 40
0.8993795603
 40
0.919126103
 40
0.9366838387
 40
0.9520257682
 40
0.9651380447
 40
0.9760262721
 40
0.9806476963
 40
0.9847321611
 40
0.9882956534
 40
0.9913635748
 40
0.9939776701
 40
0.9962064488
 40
0.9981601604
 40
1.0
 40
1.0
 40
1.0
 40
1.0
 10
9.60341982
 20
12.536714616
 30
0.0
 10
9.5996212446
 20
12.5369245153
 30
0.0
 10
9.593966056
 20
12.5371955422
 30
0.0
 10
9.5865069405
 20
12.5374664574
 30
0.0
 10
9.5811188918
 20
12.5376184119
 30
0.0
 10
9.575945194
 20
12.5377193581
 30
0.0
 10
9.5710368346
 20
12.5377683397
 30
0.0
 10
9.5664421889
 20
12.5377649718
 30
0.0
 10
9.5622064425
 20
12.5377094833
 30
0.0
 10
9.5583711512
 20
12.537602601
 30
0.0
 10
9.555443377
 20
12.5374677371
 30
0.0
 10
9.5533297621
 20
12.5373311074
 30
0.0
 10
9.5519242375
 20
12.5372203272
 30
0.0
 10
9.5506438854
 20
12.5370978978
 30
0.0
 10
9.5494917226
 20
12.5369641724
 30
0.0
 10
9.5484704341
 20
12.5368195847
 30
0.0
 10
9.5475822394
 20
12.5366646764
 30
0.0
 10
9.5468290825
 20
12.5364999242
 30
0.0
 10
9.5462887038
 20
12.5363480513
 30
0.0
 10
9.5459272563
 20
12.5362183517
 30
0.0
 10
9.5457059293
 20
12.5361241844
 30
0.0
 10
9.5455191611
 20
12.5360277974
 30
0.0
 10
9.5453668425
 20
12.5359290796
 30
0.0
 10
9.5452487816
 20
12.535827732
 30
0.0
 10
9.5451649439
 20
12.535722918
 30
0.0
 10
9.5451165145
 20
12.5356135372
 30
0.0
 10
9.5451097039
 20
12.5355379171
 30
0.0
 10
9.5451124
 20
12.5355019754
 30
0.0
  0
SPLINE
  5
4E5
100
AcDbEntity
  8
0
100
AcDbSpline
 62
7
  6
CONTINUOUS
 70
0
 71
3
 72
32
 73
28
 74
0
 42
0.0000001
 43
0.0000001
 44
0.0000000001
 40
0.0
 40
0.0
 40
0.0
 40
0.0
 40
0.1939259189
 40
0.2885637221
 40
0.3804109121
 40
0.4685709254
 40
0.5521847827
 40
0.6304418079
 40
0.7025886959
 40
0.7679387235
 40
0.8258808843
 40
0.8519069678
 40
0.8758916706
 40
0.8977852019
 40
0.9175447899
 40
0.9351370918
 40
0.9505391292
 40
0.9637426312
 40
0.9747615337
 40
0.9794672636
 40
0.9836515379
 40
0.9873334054
 40
0.9905420724
 40
0.9933234204
 40
0.9957487356
 40
0.99792528
 40
1.0
 40
1.0
 40
1.0
 40
1.0
 10
10.014400163
 20
12.5372889074
 30
0.0
 10
10.0105993074
 20
12.5374343518
 30
0.0
 10
10.0049416336
 20
12.5376039711
 30
0.0
 10
9.9974812947
 20
12.5377297576
 30
0.0
 10
9.9920945166
 20
12.5377711404
 30
0.0
 10
9.9869238109
 20
12.537760047
 30
0.0
 10
9.9820200408
 20
12.5376966579
 30
0.0
 10
9.9774313603
 20
12.5375817351
 30
0.0
 10
9.9732026431
 20
12.5374166516
 30
0.0
 10
9.9693750791
 20
12.5372032506
 30
0.0
 10
9.9664545558
 20
12.536980246
 30
0.0
 10
9.9643470814
 20
12.5367749877
 30
0.0
 10
9.9629456801
 20
12.5366159908
 30
0.0
 10
9.961669335
 20
12.5364468735
 30
0.0
 10
9.9605210113
 20
12.5362680997
 30
0.0
 10
9.9595033409
 20
12.5360802146
 30
0.0
 10
9.9586184723
 20
12.5358838509
 30
0.0
 10
9.9578682912
 20
12.5356795758
 30
0.0
 10
9.9573309505
 20
12.5354950827
 30
0.0
 10
9.9569722708
 20
12.5353402168
 30
0.0
 10
9.9567522369
 20
12.5352284742
 30
0.0
 10
9.9565666822
 20
12.5351149894
 30
0.0
 10
9.9564155446
 20
12.5349996177
 30
0.0
 10
9.9562987452
 20
12.5348820485
 30
0.0
 10
9.9562164699
 20
12.5347615754
 30
0.0
 10
9.9561698743
 20
12.5346376014
 30
0.0
 10
9.9561639138
 20
12.5345530228
 30
0.0
 10
9.9561669577
 20
12.5345124435
 30
0.0
  0
SPLINE
  5
4E6
100
AcDbEntity
  8
0
100
AcDbSpline
 62
7
  6
CONTINUOUS
 70
0
 71
3
 72
32
 73
28
 74
0
 42
0.0000001
 43
0.0000001
 44
0.0000000001
 40
0.0
 40
0.0
 40
0.0
 40
0.0
 40
0.1936759547
 40
0.2881704169
 40
0.3798658011
 40
0.4678705311
 40
0.5513321131
 40
0.6294475491
 40
0.7014720372
 40
0.7667278433
 40
0.8246131795
 40
0.8506279209
 40
0.8746142537
 40
0.8965237289
 40
0.916315093
 40
0.9339567932
 40
0.9494281491
 40
0.9627240355
 40
0.9738629679
 40
0.9786412997
 40
0.9829079935
 40
0.9866835158
 40
0.989998617
 40
0.9929003967
 40
0.9954598929
 40
0.9977805017
 40
1.0
 40
1.0
 40
1.0
 40
1.0
 10
10.4657328046
 20
12.5376442697
 30
0.0
 10
10.4619309482
 20
12.5377186711
 30
0.0
 10
10.4562729875
 20
12.5377791766
 30
0.0
 10
10.4488147611
 20
12.5377540934
 30
0.0
 10
10.4434316646
 20
12.5376830449
 30
0.0
 10
10.4382661671
 20
12.5375604634
 30
0.0
 10
10.4333688682
 20
12.537387655
 30
0.0
 10
10.4287875875
 20
12.5371664841
 30
0.0
 10
10.424566812
 20
12.5368993893
 30
0.0
 10
10.420747333
 20
12.5365892255
 30
0.0
 10
10.4178339895
 20
12.5362882523
 30
0.0
 10
10.415732278
 20
12.5360237055
 30
0.0
 10
10.4143345644
 20
12.5358236848
 30
0.0
 10
10.4130616893
 20
12.5356155088
 30
0.0
 10
10.4119165854
 20
12.5353997296
 30
0.0
 10
10.4109018533
 20
12.5351769771
 30
0.0
 10
10.4100196065
 20
12.5349479488
 30
0.0
 10
10.4092717039
 20
12.5347132769
 30
0.0
 10
10.4087366462
 20
12.5345044263
 30
0.0
 10
10.4083799473
 20
12.5343312902
 30
0.0
 10
10.4081608327
 20
12.5342069628
 30
0.0
 10
10.4079761417
 20
12.5340814705
 30
0.0
 10
10.4078258486
 20
12.5339546626
 30
0.0
 10
10.4077099399
 20
12.5338262481
 30
0.0
 10
10.4076286799
 20
12.533695629
 30
0.0
 10
10.4075831236
 20
12.5335624258
 30
0.0
 10
10.4075776205
 20
12.5334721536
 30
0.0
 10
10.4075808802
 20
12.5334286986
 30
0.0
  0
SPLINE
  5
4E7
100
AcDbEntity
  8
0
100
AcDbSpline
 62
7
  6
CONTINUOUS
 70
0
 71
3
 72
14
 73
10
 74
0
 42
0.0000001
 43
0.0000001
 44
0.0000000001
 40
0.0
 40
0.0
 40
0.0
 40
0.0
 40
0.0754949123
 40
0.1562588881
 40
0.2489635062
 40
0.3580906236
 40
0.4863942838
 40
0.6355518302
 40
1.0
 40
1.0
 40
1.0
 40
1.0
 10
11.9158233434
 20
12.4981497107
 30
0.0
 10
11.9158254028
 20
12.4981771576
 30
0.0
 10
11.9158199462
 20
12.4982351394
 30
0.0
 10
11.9157821765
 20
12.4983190564
 30
0.0
 10
11.9157170473
 20
12.4983999222
 30
0.0
 10
11.9156253883
 20
12.4984786403
 30
0.0
 10
11.9155071401
 20
12.498555873
 30
0.0
 10
11.915299563
 20
12.4986644797
 30
0.0
 10
11.9151243836
 20
12.4987322901
 30
0.0
 10
11.9149988276
 20
12.4987757703
 30
0.0
  0
LINE
  5
4E8
100
AcDbEntity
  8
0
100
AcDbLine
 62
7
  6
CONTINUOUS
 10
10.9957875128
 20
12.4326719686
 11
10.9951002562
 21
12.4328751244
  0
SPLINE
  5
4E9
100
AcDbEntity
  8
0
100
AcDbSpline
 62
7
  6
CONTINUOUS
 70
0
 71
3
 72
21
 73
17
 74
0
 42
0.0000001
 43
0.0000001
 44
0.0000000001
 40
0.0
 40
0.0
 40
0.0
 40
0.0
 40
0.0083497423
 40
0.0169573254
 40
0.0364025888
 40
0.0607007347
 40
0.0910314472
 40
0.1279808166
 40
0.1718482206
 40
0.2227891283
 40
0.2808732449
 40
0.346124939
 40
0.4185307006
 40
0.5846357256
 40
0.7786990525
 40
1.0
 40
1.0
 40
1.0
 40
1.0
 10
11.4719707256
 20
12.4970875668
 30
0.0
 10
11.4719725092
 20
12.4971113395
 30
0.0
 10
11.4719705111
 20
12.4971602303
 30
0.0
 10
11.4719422808
 20
12.4972611141
 30
0.0
 10
11.4718568344
 20
12.4973878185
 30
0.0
 10
11.4716954126
 20
12.4975263258
 30
0.0
 10
11.4714711979
 20
12.4976623989
 30
0.0
 10
11.4711831034
 20
12.4977964226
 30
0.0
 10
11.4708306774
 20
12.4979287447
 30
0.0
 10
11.4704138979
 20
12.4980591145
 30
0.0
 10
11.4699330127
 20
12.4981873778
 30
0.0
 10
11.469388438
 20
12.4983133245
 30
0.0
 10
11.4685384186
 20
12.4984859031
 30
0.0
 10
11.4673200495
 20
12.4986902452
 30
0.0
 10
11.4656749388
 20
12.4989144991
 30
0.0
 10
11.4644963475
 20
12.4990470594
 30
0.0
 10
11.463867875
 20
12.4991122213
 30
0.0
  0
ENDSEC
  0
SECTION
  2
OBJECTS
  0
DICTIONARY
  5
C
100
AcDbDictionary
280
0
281
1
  3
ACAD_GROUP
350
D
  3
ACAD_MLINESTYLE
350
17
  3
ACAD_LAYOUT
350
1A
  3
ACAD_PLOTSETTINGS
350
19
  3
ACAD_PLOTSTYLENAME
350
E
  0
DICTIONARY
  5
D
102
{ACAD_REACTORS
330
C
102
}
100
AcDbDictionary
280
0
281
1
  0
ACDBDICTIONARYWDFLT
  5
E
102
{ACAD_REACTORS
330
C
102
}
100
AcDbDictionary
281
1
  3
Normal
350
F
100
AcDbDictionaryWithDefault
340
F
  0
DICTIONARY
  5
17
102
{ACAD_REACTORS
330
C
102
}
100
AcDbDictionary
280
0
281
1
  3
Standard
350
18
  0
DICTIONARY
  5
19
102
{ACAD_REACTORS
330
C
102
}
100
AcDbDictionary
281
1
  0
DICTIONARY
  5
1A
102
{ACAD_REACTORS
330
C
102
}
100
AcDbDictionary
281
1
  3
Model
350
4EA
  3
Layout1
350
4EB
  0
ACDBPLACEHOLDER
  5
F
102
{ACAD_REACTORS
330
E
102
}
  0
MLINESTYLE
  5
18
102
{ACAD_REACTORS
330
17
102
}
100
AcDbMlineStyle
  2
STANDARD
 70
0
  3

 62
256
 51
90.0
 52
90.0
 71
2
 49
0.5
 62
256
  6
BYLAYER
 49
-0.5
 62
256
  6
BYLAYER
  0
LAYOUT
  5
4EA
102
{ACAD_REACTORS
330
1A
102
}
100
AcDbPlotSettings
  1

  2
none_device
  4
ANSI_C_(22.00_x_17.00_Inches)
  6

 40
0.0
 41
0.0
 42
0.0
 43
0.0
 44
558.8
 45
431.8
 46
0.0
 47
0.0
 48
0.0
 49
0.0
140
0.0
141
0.0
142
1.0
143
1.0
 70
1024
 72
0
 73
0
 74
0
  7

 75
0
147
1.0
148
0.0
149
0.0
100
AcDbLayout
  1
Model
 70
0
 71
0
 10
0.0
 20
0.0
 11
22.0
 21
17.0
 12
0.0
 22
0.0
 32
0.0
 14
0.0
 24
0.0
 34
0.0
 15
0.0
 25
0.0
 35
0.0
146
0.0
 13
0.0
 23
0.0
 33
0.0
 16
1.0
 26
0.0
 36
0.0
 17
0.0
 27
1.0
 37
0.0
 76
0
330
205
345
0
346
0
  0
LAYOUT
  5
4EB
102
{ACAD_REACTORS
330
1A
102
}
100
AcDbPlotSettings
  1

  2
none_device
  4
ANSI_C_(22.00_x_17.00_Inches)
  6

 40
0.0
 41
0.0
 42
0.0
 43
0.0
 44
558.8
 45
431.8
 46
0.0
 47
0.0
 48
0.0
 49
0.0
140
0.0
141
0.0
142
1.0
143
1.0
 70
0
 72
0
 73
0
 74
0
  7

 75
0
147
1.0
148
0.0
149
0.0
100
AcDbLayout
  1
Layout1
 70
0
 71
1
 10
0.0
 20
0.0
 11
22.0
 21
17.0
 12
0.0
 22
0.0
 32
0.0
 14
0.0
 24
0.0
 34
0.0
 15
0.0
 25
0.0
 35
0.0
146
0.0
 13
0.0
 23
0.0
 33
0.0
 16
1.0
 26
0.0
 36
0.0
 17
0.0
 27
1.0
 37
0.0
 76
0
330
206
345
0
346
0
  0
ENDSEC
  0
EOF
