999
DXF file: E:\BT Custom\CADOUTPUT\_FRONT.dxf
999
Pro/ENGINEER 2018400 by Parametric Technology Corporation
  0
SECTION
  2
HEADER
  9
$ACADVER
  1
AC1018
  9
$DWGCODEPAGE
  3
ANSI_1252
  9
$EXTMAX
 10
22.0
 20
17.0
 30
0.0
  9
$EXTMIN
 10
0.0
 20
0.0
 30
0.0
  9
$LIMMIN
 10
0.0
 20
0.0
  9
$LIMMAX
 10
22.0
 20
17.0
  9
$VIEWCTR
 10
11.0
 20
8.5
  9
$VIEWSIZE
 40
17.0
  9
$CLAYER
  8
0
  9
$LTSCALE
 40
1.21
  9
$CELTYPE
  6
BYLAYER
  9
$DIMSCALE
 40
1.0
  9
$DIMASZ
 40
0.1
  9
$DIMEXO
 40
0.0625
  9
$DIMDLI
 40
0.836
  9
$DIMEXE
 40
0.125
  9
$DIMCEN
 40
0.198
  9
$DIMLFAC
 40
1.0
  9
$DIMBLK
  1
_FILLED
  9
$DIMALT
 70
1
  9
$DIMALTD
 70
2
  9
$DIMALTTD
 70
2
  9
$DIMALTF
 40
25.4
  9
$DIMTXT
 40
0.08
  9
$DIMTOL
 70
1
  9
$DIMLIM
 70
0
  9
$DIMTFAC
 40
1.0
  9
$DIMTP
 40
0.001
  9
$DIMTM
 40
0.001
  9
$DIMGAP
 40
0.09
  9
$DIMDSEP
 70
46
  9
$AUNITS
 70
0
  9
$PDMODE
 70
3
  9
$PDSIZE
 40
0.06
  9
$HANDSEED
  5
287
  9
$TILEMODE
 70
1
  9
$MEASUREMENT
 70
0
  9
$INSUNITS
 70
1
  0
ENDSEC
  0
SECTION
  2
CLASSES
  0
CLASS
  1
ACDBDICTIONARYWDFLT
  2
AcDbDictionaryWithDefault
  3
AutoCAD 2000
 90
0
 91
1
280
0
281
0
  0
CLASS
  1
ACDBPLACEHOLDER
  2
AcDbPlaceHolder
  3
AutoCAD 2000
 90
0
 91
1
280
0
281
0
  0
CLASS
  1
LAYOUT
  2
AcDbLayout
  3
AutoCAD 2000
 90
0
 91
0
280
0
281
0
  0
ENDSEC
  0
SECTION
  2
TABLES
  0
TABLE
  2
VPORT
  5
8
100
AcDbSymbolTable
 70
2
  0
VPORT
  5
1F4
100
AcDbSymbolTableRecord
100
AcDbViewportTableRecord
  2
*ACTIVE
 70
0
 10
0.0
 20
0.0
 11
1.0
 21
1.0
 12
11.0
 22
8.5
 13
0.0
 23
0.0
 14
1.0
 24
1.0
 15
0.0
 25
0.0
 16
0.0
 26
0.0
 36
1.0
 17
0.0
 27
0.0
 37
0.0
 40
17.0
 41
1.2941176471
 42
50.0
 43
0.0
 44
0.0
 50
0.0
 51
0.0
 71
0
 72
100
 73
1
 74
1
 75
0
 76
0
 77
0
 78
0
  0
ENDTAB
  0
TABLE
  2
LTYPE
  5
5
100
AcDbSymbolTable
 70
6
  0
LTYPE
  5
14
100
AcDbSymbolTableRecord
100
AcDbLinetypeTableRecord
  2
BYBLOCK
 70
0
  3

 72
65
 73
0
 40
0.0
  0
LTYPE
  5
15
100
AcDbSymbolTableRecord
100
AcDbLinetypeTableRecord
  2
BYLAYER
 70
0
  3

 72
65
 73
0
 40
0.0
  0
LTYPE
  5
16
100
AcDbSymbolTableRecord
100
AcDbLinetypeTableRecord
  2
CONTINUOUS
 70
64
  3
Solid line
 72
65
 73
0
 40
0.0
  0
LTYPE
  5
1F5
100
AcDbSymbolTableRecord
100
AcDbLinetypeTableRecord
  2
CENTER
 70
64
  3
____ _ ____ _ ____ _ ____ _ ____ _ ____ _ ____
 72
65
 73
4
 40
0.6
 49
0.375
 74
0
 49
-0.075
 74
0
 49
0.075
 74
0
 49
-0.075
 74
0
  0
LTYPE
  5
1F6
100
AcDbSymbolTableRecord
100
AcDbLinetypeTableRecord
  2
HIDDEN
 70
64
  3
- - - - - - - - - - - - - - - - - - - -
 72
65
 73
2
 40
0.2
 49
0.1
 74
0
 49
-0.1
 74
0
  0
LTYPE
  5
1F7
100
AcDbSymbolTableRecord
100
AcDbLinetypeTableRecord
  2
PHANTOM
 70
64
  3
_____ _ _ _____ _ _ _____ _ _ _____
 72
65
 73
6
 40
0.8
 49
0.45
 74
0
 49
-0.05
 74
0
 49
0.1
 74
0
 49
-0.05
 74
0
 49
0.1
 74
0
 49
-0.05
 74
0
  0
LTYPE
  5
1F8
100
AcDbSymbolTableRecord
100
AcDbLinetypeTableRecord
  2
DOT
 70
64
  3
. . . . . . . . . . . . . . . . . . . .
 72
65
 73
2
 40
0.2
 49
0.1
 74
0
 49
-0.1
 74
0
  0
LTYPE
  5
1F9
100
AcDbSymbolTableRecord
100
AcDbLinetypeTableRecord
  2
DASHED
 70
64
  3
- - - - - - - - - - - - - - - - - - - -
 72
65
 73
2
 40
0.2
 49
0.1
 74
0
 49
-0.1
 74
0
  0
ENDTAB
  0
TABLE
  2
LAYER
  5
2
100
AcDbSymbolTable
 70
36
  0
LAYER
  5
10
100
AcDbSymbolTableRecord
100
AcDbLayerTableRecord
  2
0
 70
0
 62
7
  6
CONTINUOUS
370
-3
390
F
  0
LAYER
  5
1FA
100
AcDbSymbolTableRecord
100
AcDbLayerTableRecord
  2
DEFAULT_1
 70
0
 62
7
  6
CENTER
370
-3
390
F
  0
LAYER
  5
1FB
100
AcDbSymbolTableRecord
100
AcDbLayerTableRecord
  2
DEFAULT_2
 70
0
 62
8
  6
HIDDEN
370
-3
390
F
  0
LAYER
  5
1FC
100
AcDbSymbolTableRecord
100
AcDbLayerTableRecord
  2
DEFAULT_3
 70
0
 62
7
  6
PHANTOM
370
-3
390
F
  0
LAYER
  5
1FD
100
AcDbSymbolTableRecord
100
AcDbLayerTableRecord
  2
ALL_FEATURES
 70
0
 62
7
  6
CONTINUOUS
370
-3
390
F
  0
LAYER
  5
1FE
100
AcDbSymbolTableRecord
100
AcDbLayerTableRecord
  2
AXES_FEATURES
 70
0
 62
7
  6
CONTINUOUS
370
-3
390
F
  0
LAYER
  5
1FF
100
AcDbSymbolTableRecord
100
AcDbLayerTableRecord
  2
DIMENSIONS
 70
0
 62
7
  6
CONTINUOUS
370
-3
390
F
  0
ENDTAB
  0
TABLE
  2
STYLE
  5
3
100
AcDbSymbolTable
 70
1
  0
STYLE
  5
11
100
AcDbSymbolTableRecord
100
AcDbTextStyleTableRecord
  2
STANDARD
 70
0
 40
0.0
 41
0.8
 50
0.0
 71
0
 42
0.2
  3
txt
  4

  0
STYLE
  5
200
100
AcDbSymbolTableRecord
100
AcDbTextStyleTableRecord
  2
TEXTSTYLE_1
 70
0
 40
0.0
 41
0.8
 50
0.0
 71
0
 42
0.2
  3
gdt
  4

  0
ENDTAB
  0
TABLE
  2
VIEW
  5
6
100
AcDbSymbolTable
 70
0
  0
ENDTAB
  0
TABLE
  2
UCS
  5
7
100
AcDbSymbolTable
 70
0
  0
ENDTAB
  0
TABLE
  2
APPID
  5
9
100
AcDbSymbolTable
 70
1
  0
APPID
  5
201
100
AcDbSymbolTableRecord
100
AcDbRegAppTableRecord
  2
ACAD
 70
0
  0
ENDTAB
  0
TABLE
  2
BLOCK_RECORD
  5
1
100
AcDbSymbolTable
 70
0
  0
BLOCK_RECORD
  5
202
100
AcDbSymbolTableRecord
100
AcDbBlockTableRecord
  2
*Model_Space
  0
BLOCK_RECORD
  5
203
100
AcDbSymbolTableRecord
100
AcDbBlockTableRecord
  2
*Paper_Space
  0
BLOCK_RECORD
  5
204
100
AcDbSymbolTableRecord
100
AcDbBlockTableRecord
  2
_FILLED
  0
ENDTAB
  0
TABLE
  2
DIMSTYLE
  5
A
100
AcDbSymbolTable
 70
1
100
AcDbDimStyleTable
 71
0
  0
DIMSTYLE
105
205
100
AcDbSymbolTableRecord
100
AcDbDimStyleTableRecord
  2
STANDARD
 70
0
  3

  4

 40
1.0
 41
0.1
 42
0.0625
 43
0.38
 44
0.125
 45
0.0
 46
0.0
 47
0.001
 48
0.001
140
0.08
141
0.09
142
0.0
143
25.4
144
1.0
145
0.0
146
1.0
147
0.09
 71
1.0
 72
0.0
 73
1
 74
1
 75
0
 76
0
 77
0
 78
4
 79
1
170
1
171
2
172
0
173
0
174
0
175
0
176
0
177
0
178
0
270
2
179
3
271
3
272
3
273
2
274
2
275
0
280
0
281
0
282
0
283
1
284
4
285
0
286
0
287
3
288
0
340
11
278
46
341
204
342
204
343
204
344
204
  0
ENDTAB
  0
ENDSEC
  0
SECTION
  2
BLOCKS
  0
BLOCK
  5
20
100
AcDbEntity
  8
0
100
AcDbBlockBegin
  2
*Model_Space
 70
0
 10
0.0
 20
0.0
 30
0.0
  3
*Model_Space
  1

  0
ENDBLK
  5
21
100
AcDbEntity
  8
0
100
AcDbBlockEnd
  0
BLOCK
  5
1C
100
AcDbEntity
  8
0
100
AcDbBlockBegin
  2
*Paper_Space
 70
0
 10
0.0
 20
0.0
 30
0.0
  3
*Paper_Space
  1

  0
ENDBLK
  5
1D
100
AcDbEntity
  8
0
100
AcDbBlockEnd
  0
BLOCK
  5
206
100
AcDbEntity
  8
0
100
AcDbBlockBegin
  2
_FILLED
 70
64
 10
0.0
 20
0.0
  3
_FILLED
  1

  0
SOLID
  5
207
100
AcDbEntity
  8
0
  6
BYBLOCK
 62
0
100
AcDbTrace
 10
0.0
 20
0.0
 11
-1.0
 21
0.2
 12
-1.0
 22
-0.2
 13
-1.0
 23
-0.2
  0
ENDBLK
  5
208
100
AcDbEntity
  8
0
  6
BYBLOCK
 62
0
100
AcDbBlockEnd
  0
ENDSEC
  0
SECTION
  2
ENTITIES
  0
LINE
  5
209
100
AcDbEntity
  8
0
100
AcDbLine
 62
7
  6
CONTINUOUS
 10
4.3776923427
 20
8.2419495878
 11
4.3776923427
 21
9.1459495878
  0
LINE
  5
20A
100
AcDbEntity
  8
0
100
AcDbLine
 62
9
  6
CONTINUOUS
 10
4.4176923427
 20
9.1859495878
 11
4.4176923427
 21
8.2019495878
  0
LINE
  5
20B
100
AcDbEntity
  8
0
100
AcDbLine
 62
7
  6
CONTINUOUS
 10
6.0126923427
 20
5.7359495878
 11
6.0126923427
 21
5.9659495878
  0
LINE
  5
20C
100
AcDbEntity
  8
0
100
AcDbLine
 62
7
  6
CONTINUOUS
 10
6.5076923427
 20
8.1619495878
 11
6.5076923427
 21
6.4119495878
  0
LINE
  5
20D
100
AcDbEntity
  8
0
100
AcDbLine
 62
7
  6
CONTINUOUS
 10
6.5076923427
 20
5.9859495878
 11
6.5076923427
 21
6.3619495878
  0
LINE
  5
20E
100
AcDbEntity
  8
0
100
AcDbLine
 62
7
  6
CONTINUOUS
 10
6.5976923427
 20
6.3619495878
 11
6.5976923427
 21
6.4119495878
  0
LINE
  5
20F
100
AcDbEntity
  8
0
100
AcDbLine
 62
7
  6
CONTINUOUS
 10
7.2776923427
 20
6.3619495878
 11
7.2776923427
 21
6.4119495878
  0
LINE
  5
210
100
AcDbEntity
  8
0
100
AcDbLine
 62
9
  6
CONTINUOUS
 10
7.3426671998
 20
8.9356822923
 11
7.3426671998
 21
8.2419421267
  0
LINE
  5
211
100
AcDbEntity
  8
0
100
AcDbLine
 62
7
  6
CONTINUOUS
 10
7.3676923427
 20
8.1619495878
 11
7.3676923427
 21
6.4119495878
  0
LINE
  5
212
100
AcDbEntity
  8
0
100
AcDbLine
 62
7
  6
CONTINUOUS
 10
7.3676923427
 20
5.9859495878
 11
7.3676923427
 21
6.3619495878
  0
LINE
  5
213
100
AcDbEntity
  8
0
100
AcDbLine
 62
9
  6
CONTINUOUS
 10
7.3803379507
 20
8.9356939364
 11
7.3803389286
 21
8.2419495877
  0
LINE
  5
214
100
AcDbEntity
  8
0
100
AcDbLine
 62
9
  6
CONTINUOUS
 10
7.5246923427
 20
8.2019495878
 11
7.5246923427
 21
9.1859495878
  0
LINE
  5
215
100
AcDbEntity
  8
0
100
AcDbLine
 62
7
  6
CONTINUOUS
 10
6.0126928177
 20
5.7359495878
 11
7.8626919991
 21
5.7359495878
  0
LINE
  5
216
100
AcDbEntity
  8
0
100
AcDbLine
 62
7
  6
CONTINUOUS
 10
10.0626923427
 20
5.7359495878
 11
11.8126923427
 21
5.7359495878
  0
LINE
  5
217
100
AcDbEntity
  8
0
100
AcDbLine
 62
7
  6
CONTINUOUS
 10
14.0126928177
 20
5.7359495878
 11
15.8626919991
 21
5.7359495878
  0
LINE
  5
218
100
AcDbEntity
  8
0
100
AcDbLine
 62
9
  6
CONTINUOUS
 10
6.5245630219
 20
8.2683888094
 11
6.5528472931
 21
8.2401045381
  0
LINE
  5
219
100
AcDbEntity
  8
0
100
AcDbLine
 62
7
  6
CONTINUOUS
 10
7.5646923427
 20
9.1459495878
 11
7.5646923427
 21
8.2419495878
  0
LINE
  5
21A
100
AcDbEntity
  8
0
100
AcDbLine
 62
7
  6
CONTINUOUS
 10
7.8626923427
 20
5.7359495878
 11
7.8626923427
 21
5.9659495878
  0
LINE
  5
21B
100
AcDbEntity
  8
0
100
AcDbLine
 62
9
  6
CONTINUOUS
 10
15.8626919991
 20
5.9659495878
 11
14.0126923427
 21
5.9659495878
  0
LINE
  5
21C
100
AcDbEntity
  8
0
100
AcDbLine
 62
9
  6
CONTINUOUS
 10
7.8626919991
 20
5.9659495878
 11
6.0126923427
 21
5.9659495878
  0
LINE
  5
21D
100
AcDbEntity
  8
0
100
AcDbLine
 62
7
  6
CONTINUOUS
 10
15.8426920065
 20
5.9859495878
 11
14.0326934289
 21
5.9859495878
  0
LINE
  5
21E
100
AcDbEntity
  8
0
100
AcDbLine
 62
7
  6
CONTINUOUS
 10
7.8426920065
 20
5.9859495878
 11
6.0326934289
 21
5.9859495878
  0
LINE
  5
21F
100
AcDbEntity
  8
0
100
AcDbLine
 62
9
  6
CONTINUOUS
 10
11.8126923427
 20
6.2159495878
 11
10.0626923427
 21
6.2159495878
  0
LINE
  5
220
100
AcDbEntity
  8
0
100
AcDbLine
 62
7
  6
CONTINUOUS
 10
11.7926923427
 20
6.2359495878
 11
10.0826923427
 21
6.2359495878
  0
LINE
  5
221
100
AcDbEntity
  8
0
100
AcDbLine
 62
9
  6
CONTINUOUS
 10
6.5051984892
 20
8.2419495827
 11
6.5402917818
 21
8.2240116584
  0
LINE
  5
222
100
AcDbEntity
  8
0
100
AcDbLine
 62
7
  6
CONTINUOUS
 10
15.367691514
 20
6.3619495878
 11
14.5076931715
 21
6.3619495878
  0
LINE
  5
223
100
AcDbEntity
  8
0
100
AcDbLine
 62
7
  6
CONTINUOUS
 10
7.367691514
 20
6.3619495878
 11
6.5076931715
 21
6.3619495878
  0
LINE
  5
224
100
AcDbEntity
  8
0
100
AcDbLine
 62
7
  6
CONTINUOUS
 10
6.5076923427
 20
6.4119495878
 11
7.3676923427
 21
6.4119495878
  0
LINE
  5
225
100
AcDbEntity
  8
0
100
AcDbLine
 62
7
  6
CONTINUOUS
 10
14.5076923427
 20
6.4119495878
 11
15.3676923427
 21
6.4119495878
  0
LINE
  5
226
100
AcDbEntity
  8
0
100
AcDbLine
 62
9
  6
CONTINUOUS
 10
7.2659690512
 20
8.9532262962
 11
7.23768478
 21
8.9815105675
  0
LINE
  5
227
100
AcDbEntity
  8
0
100
AcDbLine
 62
9
  6
CONTINUOUS
 10
7.2376848402
 20
8.9815106277
 11
6.5245630219
 21
8.2683888094
  0
LINE
  5
228
100
AcDbEntity
  8
0
100
AcDbLine
 62
7
  6
CONTINUOUS
 10
7.265969114
 20
8.953226359
 11
6.5528472959
 21
8.240104541
  0
LINE
  5
229
100
AcDbEntity
  8
0
100
AcDbLine
 62
9
  6
CONTINUOUS
 10
15.3676923427
 20
8.1619495878
 11
15.3617294961
 21
8.1619495878
  0
LINE
  5
22A
100
AcDbEntity
  8
0
100
AcDbLine
 62
9
  6
CONTINUOUS
 10
14.5136551893
 20
8.1619495878
 11
14.5077954911
 21
8.1619495878
  0
LINE
  5
22B
100
AcDbEntity
  8
0
100
AcDbLine
 62
9
  6
CONTINUOUS
 10
7.3676923427
 20
8.1619495878
 11
7.3617294961
 21
8.1619495878
  0
LINE
  5
22C
100
AcDbEntity
  8
0
100
AcDbLine
 62
9
  6
CONTINUOUS
 10
6.5136551893
 20
8.1619495878
 11
6.5076923427
 21
8.1619495878
  0
LINE
  5
22D
100
AcDbEntity
  8
0
100
AcDbLine
 62
7
  6
CONTINUOUS
 10
17.4576923427
 20
8.2019495878
 11
15.4011748127
 21
8.2019495878
  0
LINE
  5
22E
100
AcDbEntity
  8
0
100
AcDbLine
 62
7
  6
CONTINUOUS
 10
14.4742098727
 20
8.2019495878
 11
14.3506923427
 21
8.2019495878
  0
LINE
  5
22F
100
AcDbEntity
  8
0
100
AcDbLine
 62
7
  6
CONTINUOUS
 10
7.5246923427
 20
8.2019495878
 11
7.4011748127
 21
8.2019495878
  0
LINE
  5
230
100
AcDbEntity
  8
0
100
AcDbLine
 62
7
  6
CONTINUOUS
 10
6.4742098727
 20
8.2019495878
 11
4.4176923427
 21
8.2019495878
  0
LINE
  5
231
100
AcDbEntity
  8
0
100
AcDbLine
 62
9
  6
CONTINUOUS
 10
4.3776923427
 20
8.2419495878
 11
6.5051984944
 21
8.2419495878
  0
LINE
  5
232
100
AcDbEntity
  8
0
100
AcDbLine
 62
9
  6
CONTINUOUS
 10
15.3701862348
 20
8.2419495878
 11
17.4976923427
 21
8.2419495878
  0
LINE
  5
233
100
AcDbEntity
  8
0
100
AcDbLine
 62
9
  6
CONTINUOUS
 10
7.3426671998
 20
8.2419495875
 11
7.5646923427
 21
8.2419495878
  0
LINE
  5
234
100
AcDbEntity
  8
0
100
AcDbLine
 62
9
  6
CONTINUOUS
 10
14.5327174803
 20
8.2419498586
 11
14.3106923427
 21
8.2419495878
  0
LINE
  5
235
100
AcDbEntity
  8
0
100
AcDbLine
 62
7
  6
CONTINUOUS
 10
10.0626923427
 20
6.2159495878
 11
10.0626923427
 21
5.7359495878
  0
LINE
  5
236
100
AcDbEntity
  8
0
100
AcDbLine
 62
7
  6
CONTINUOUS
 10
10.4376923427
 20
6.2359495878
 11
10.4376923427
 21
12.2984495886
  0
LINE
  5
237
100
AcDbEntity
  8
0
100
AcDbLine
 62
9
  6
CONTINUOUS
 10
7.3803389286
 20
8.9356820031
 11
7.3426671998
 21
8.9356820031
  0
LINE
  5
238
100
AcDbEntity
  8
0
100
AcDbLine
 62
9
  6
CONTINUOUS
 10
17.4976923427
 20
9.1459495878
 11
14.3106923427
 21
9.1459495878
  0
LINE
  5
239
100
AcDbEntity
  8
0
100
AcDbLine
 62
9
  6
CONTINUOUS
 10
7.5646923427
 20
9.1459495878
 11
4.3776923427
 21
9.1459495878
  0
LINE
  5
23A
100
AcDbEntity
  8
0
100
AcDbLine
 62
7
  6
CONTINUOUS
 10
4.4176923427
 20
9.1859495878
 11
7.5246923427
 21
9.1859495878
  0
LINE
  5
23B
100
AcDbEntity
  8
0
100
AcDbLine
 62
7
  6
CONTINUOUS
 10
14.3506923427
 20
9.1859495878
 11
17.4576923427
 21
9.1859495878
  0
LINE
  5
23C
100
AcDbEntity
  8
0
100
AcDbLine
 62
7
  6
CONTINUOUS
 10
11.4376923427
 20
6.2359495878
 11
11.4376923427
 21
12.2984495886
  0
LINE
  5
23D
100
AcDbEntity
  8
0
100
AcDbLine
 62
7
  6
CONTINUOUS
 10
11.8126923427
 20
6.2159495878
 11
11.8126923427
 21
5.7359495878
  0
LINE
  5
23E
100
AcDbEntity
  8
0
100
AcDbLine
 62
7
  6
CONTINUOUS
 10
10.4376923427
 20
11.2984495886
 11
11.4376923427
 21
11.2984495886
  0
LINE
  5
23F
100
AcDbEntity
  8
0
100
AcDbLine
 62
7
  6
CONTINUOUS
 10
15.3225376512
 20
8.2401042793
 11
14.6094158395
 21
8.953226091
  0
LINE
  5
240
100
AcDbEntity
  8
0
100
AcDbLine
 62
9
  6
CONTINUOUS
 10
15.3508219252
 20
8.2683885478
 11
14.6377001069
 21
8.9815103661
  0
LINE
  5
241
100
AcDbEntity
  8
0
100
AcDbLine
 62
9
  6
CONTINUOUS
 10
14.6377001069
 20
8.9815103661
 11
14.6094158356
 21
8.9532260949
  0
LINE
  5
242
100
AcDbEntity
  8
0
100
AcDbLine
 62
9
  6
CONTINUOUS
 10
15.3701862106
 20
8.2419496359
 11
15.3350928663
 21
8.2240115973
  0
LINE
  5
243
100
AcDbEntity
  8
0
100
AcDbLine
 62
7
  6
CONTINUOUS
 10
14.0126923427
 20
5.7359495878
 11
14.0126923427
 21
5.9659495878
  0
LINE
  5
244
100
AcDbEntity
  8
0
100
AcDbLine
 62
7
  6
CONTINUOUS
 10
14.3106923427
 20
8.2419495878
 11
14.3106923427
 21
9.1459495878
  0
LINE
  5
245
100
AcDbEntity
  8
0
100
AcDbLine
 62
9
  6
CONTINUOUS
 10
14.3506923427
 20
9.1859495878
 11
14.3506923427
 21
8.2019495878
  0
LINE
  5
246
100
AcDbEntity
  8
0
100
AcDbLine
 62
9
  6
CONTINUOUS
 10
14.4950457569
 20
8.2419495877
 11
14.4950466738
 21
8.9356441954
  0
LINE
  5
247
100
AcDbEntity
  8
0
100
AcDbLine
 62
7
  6
CONTINUOUS
 10
14.5076923427
 20
8.1619495878
 11
14.5076923427
 21
6.4119495878
  0
LINE
  5
248
100
AcDbEntity
  8
0
100
AcDbLine
 62
7
  6
CONTINUOUS
 10
14.5076923427
 20
5.9859495878
 11
14.5076923427
 21
6.3619495878
  0
LINE
  5
249
100
AcDbEntity
  8
0
100
AcDbLine
 62
9
  6
CONTINUOUS
 10
14.5327174803
 20
8.2419422555
 11
14.5327174803
 21
8.9356825747
  0
LINE
  5
24A
100
AcDbEntity
  8
0
100
AcDbLine
 62
7
  6
CONTINUOUS
 10
14.5976923427
 20
6.3619495878
 11
14.5976923427
 21
6.4119495878
  0
LINE
  5
24B
100
AcDbEntity
  8
0
100
AcDbLine
 62
9
  6
CONTINUOUS
 10
15.3225376336
 20
8.2401042969
 11
15.3508219049
 21
8.2683885681
  0
LINE
  5
24C
100
AcDbEntity
  8
0
100
AcDbLine
 62
7
  6
CONTINUOUS
 10
15.2776923427
 20
6.3619495878
 11
15.2776923427
 21
6.4119495878
  0
LINE
  5
24D
100
AcDbEntity
  8
0
100
AcDbLine
 62
7
  6
CONTINUOUS
 10
15.3676923427
 20
8.1619495878
 11
15.3676923427
 21
6.4119495878
  0
LINE
  5
24E
100
AcDbEntity
  8
0
100
AcDbLine
 62
7
  6
CONTINUOUS
 10
15.3676923427
 20
5.9859495878
 11
15.3676923427
 21
6.3619495878
  0
LINE
  5
24F
100
AcDbEntity
  8
0
100
AcDbLine
 62
7
  6
CONTINUOUS
 10
15.8626923427
 20
5.7359495878
 11
15.8626923427
 21
5.9659495878
  0
LINE
  5
250
100
AcDbEntity
  8
0
100
AcDbLine
 62
9
  6
CONTINUOUS
 10
17.4576923427
 20
8.2019495878
 11
17.4576923427
 21
9.1859495878
  0
LINE
  5
251
100
AcDbEntity
  8
0
100
AcDbLine
 62
7
  6
CONTINUOUS
 10
17.4976923427
 20
9.1459495878
 11
17.4976923427
 21
8.2419495878
  0
ARC
  5
252
100
AcDbEntity
  8
0
100
AcDbCircle
 62
7
  6
CONTINUOUS
 10
10.9376923427
 20
12.2998638021
 40
0.5
100
AcDbArc
 50
0.0
 51
180.0
  0
ARC
  5
253
100
AcDbEntity
  8
0
100
AcDbCircle
 62
7
  6
CONTINUOUS
 10
4.4176923427
 20
9.1459495878
 40
0.04
100
AcDbArc
 50
90.0
 51
180.0
  0
ARC
  5
254
100
AcDbEntity
  8
0
100
AcDbCircle
 62
7
  6
CONTINUOUS
 10
4.4176923427
 20
8.2419495878
 40
0.04
100
AcDbArc
 50
180.0
 51
270.0
  0
ARC
  5
255
100
AcDbEntity
  8
0
100
AcDbCircle
 62
7
  6
CONTINUOUS
 10
7.5246923427
 20
9.1459495878
 40
0.04
100
AcDbArc
 50
0.0
 51
90.0
  0
ARC
  5
256
100
AcDbEntity
  8
0
100
AcDbCircle
 62
7
  6
CONTINUOUS
 10
7.4076923427
 20
8.1619495878
 40
0.04
100
AcDbArc
 50
99.2587646005
 51
180.0
  0
ARC
  5
257
100
AcDbEntity
  8
0
100
AcDbCircle
 62
7
  6
CONTINUOUS
 10
6.4676923427
 20
8.1619495878
 40
0.04
100
AcDbArc
 50
0.0
 51
80.7412353995
  0
ARC
  5
258
100
AcDbEntity
  8
0
100
AcDbCircle
 62
7
  6
CONTINUOUS
 10
7.5246923427
 20
8.2419495878
 40
0.04
100
AcDbArc
 50
270.0
 51
360.0
  0
ARC
  5
259
100
AcDbEntity
  8
0
100
AcDbCircle
 62
7
  6
CONTINUOUS
 10
17.4576923427
 20
8.2419495878
 40
0.04
100
AcDbArc
 50
270.0
 51
360.0
  0
ARC
  5
25A
100
AcDbEntity
  8
0
100
AcDbCircle
 62
7
  6
CONTINUOUS
 10
14.4676923427
 20
8.1619495878
 40
0.04
100
AcDbArc
 50
0.0
 51
80.7412353995
  0
ARC
  5
25B
100
AcDbEntity
  8
0
100
AcDbCircle
 62
7
  6
CONTINUOUS
 10
15.4076923427
 20
8.1619495878
 40
0.04
100
AcDbArc
 50
99.2587646005
 51
180.0
  0
ARC
  5
25C
100
AcDbEntity
  8
0
100
AcDbCircle
 62
7
  6
CONTINUOUS
 10
14.3506923427
 20
9.1459495878
 40
0.04
100
AcDbArc
 50
90.0
 51
180.0
  0
ARC
  5
25D
100
AcDbEntity
  8
0
100
AcDbCircle
 62
7
  6
CONTINUOUS
 10
17.4576923427
 20
9.1459495878
 40
0.04
100
AcDbArc
 50
0.0
 51
90.0
  0
ARC
  5
25E
100
AcDbEntity
  8
0
100
AcDbCircle
 62
7
  6
CONTINUOUS
 10
14.3506923427
 20
8.2419495878
 40
0.04
100
AcDbArc
 50
180.0
 51
270.0
  0
ARC
  5
25F
100
AcDbEntity
  8
0
100
AcDbCircle
 62
7
  6
CONTINUOUS
 10
6.0326923427
 20
5.9659495878
 40
0.02
100
AcDbArc
 50
90.0
 51
180.0
  0
ARC
  5
260
100
AcDbEntity
  8
0
100
AcDbCircle
 62
7
  6
CONTINUOUS
 10
7.8426923427
 20
5.9659495878
 40
0.02
100
AcDbArc
 50
0.0
 51
90.0
  0
ARC
  5
261
100
AcDbEntity
  8
0
100
AcDbCircle
 62
7
  6
CONTINUOUS
 10
15.8426923427
 20
5.9659495878
 40
0.02
100
AcDbArc
 50
0.0
 51
90.0
  0
ARC
  5
262
100
AcDbEntity
  8
0
100
AcDbCircle
 62
7
  6
CONTINUOUS
 10
14.0326923427
 20
5.9659495878
 40
0.02
100
AcDbArc
 50
90.0
 51
180.0
  0
ARC
  5
263
100
AcDbEntity
  8
0
100
AcDbCircle
 62
7
  6
CONTINUOUS
 10
10.0826923427
 20
6.2159495878
 40
0.02
100
AcDbArc
 50
90.0
 51
180.0
  0
ARC
  5
264
100
AcDbEntity
  8
0
100
AcDbCircle
 62
7
  6
CONTINUOUS
 10
11.7926923427
 20
6.2159495878
 40
0.02
100
AcDbArc
 50
0.0
 51
90.0
  0
SPLINE
  5
265
100
AcDbEntity
  8
0
100
AcDbSpline
 62
9
  6
CONTINUOUS
 70
0
 71
3
 72
12
 73
8
 74
0
 42
0.0000001
 43
0.0000001
 44
0.0000000001
 40
0.0
 40
0.0
 40
0.0
 40
0.0
 40
0.2604676482
 40
0.3898976792
 40
0.5179516656
 40
0.7667690267
 40
1.0
 40
1.0
 40
1.0
 40
1.0
 10
6.5051984944
 20
8.2419495878
 30
0.0
 10
6.5035470474
 20
8.2403244656
 30
0.0
 10
6.5012044528
 20
8.2377542243
 30
0.0
 10
6.4983977754
 20
8.2340980689
 30
0.0
 10
6.4958625278
 20
8.2303730179
 30
0.0
 10
6.4931645584
 20
8.2256529971
 30
0.0
 10
6.4913618937
 20
8.2217589891
 30
0.0
 10
6.4905296447
 20
8.2198585543
 30
0.0
  0
SPLINE
  5
266
100
AcDbEntity
  8
0
100
AcDbSpline
 62
9
  6
CONTINUOUS
 70
0
 71
3
 72
19
 73
15
 74
0
 42
0.0000001
 43
0.0000001
 44
0.0000000001
 40
0.0
 40
0.0
 40
0.0
 40
0.0
 40
0.0207575686
 40
0.0454594086
 40
0.075596036
 40
0.1118887076
 40
0.154619758
 40
0.2037807039
 40
0.2592409557
 40
0.3208087232
 40
0.4612827607
 40
0.6230641686
 40
0.8036564766
 40
1.0
 40
1.0
 40
1.0
 40
1.0
 10
6.5136551893
 20
8.1619495878
 30
0.0
 10
6.5139269013
 20
8.1619495276
 30
0.0
 10
6.5145231739
 20
8.1620842414
 30
0.0
 10
6.5153809618
 20
8.1625957448
 30
0.0
 10
6.5162672011
 20
8.1634022137
 30
0.0
 10
6.5171838708
 20
8.1645022587
 30
0.0
 10
6.5181291348
 20
8.1658908528
 30
0.0
 10
6.519097723
 20
8.1675602777
 30
0.0
 10
6.5200829012
 20
8.1695008094
 30
0.0
 10
6.5214706453
 20
8.1725735255
 30
0.0
 10
6.5231741815
 20
8.1770250708
 30
0.0
 10
6.5250926073
 20
8.1830499708
 30
0.0
 10
6.5269027831
 20
8.1898678949
 30
0.0
 10
6.5279622644
 20
8.1946885212
 30
0.0
 10
6.5284639402
 20
8.1972091764
 30
0.0
  0
SPLINE
  5
267
100
AcDbEntity
  8
0
100
AcDbSpline
 62
9
  6
CONTINUOUS
 70
0
 71
3
 72
23
 73
19
 74
0
 42
0.0000001
 43
0.0000001
 44
0.0000000001
 40
0.0
 40
0.0
 40
0.0
 40
0.0
 40
0.1800726028
 40
0.3548108942
 40
0.5185434417
 40
0.5946883409
 40
0.6661234273
 40
0.7321777513
 40
0.7922014976
 40
0.8455660459
 40
0.8916893442
 40
0.9301061489
 40
0.9463311549
 40
0.9605511798
 40
0.9728264033
 40
0.9832918982
 40
0.9922005777
 40
1.0
 40
1.0
 40
1.0
 40
1.0
 10
7.3426671998
 20
8.2419421267
 30
0.0
 10
7.3426666611
 20
8.2368838399
 30
0.0
 10
7.3429772549
 20
8.226914217
 30
0.0
 10
7.3443281296
 20
8.2124024242
 30
0.0
 10
7.3461319172
 20
8.2008871108
 30
0.0
 10
7.3479220163
 20
8.1923259695
 30
0.0
 10
7.3493527942
 20
8.1864966326
 30
0.0
 10
7.3508762181
 20
8.1811601903
 30
0.0
 10
7.3524605792
 20
8.1763734119
 30
0.0
 10
7.3540724323
 20
8.1721901759
 30
0.0
 10
7.3556799189
 20
8.1686631348
 30
0.0
 10
7.3570549654
 20
8.1661827952
 30
0.0
 10
7.3581487319
 20
8.1645855784
 30
0.0
 10
7.358903499
 20
8.1636505938
 30
0.0
 10
7.35963673
 20
8.1629121873
 30
0.0
 10
7.3603482842
 20
8.1623725111
 30
0.0
 10
7.3610396603
 20
8.162034645
 30
0.0
 10
7.3615104083
 20
8.1619495802
 30
0.0
 10
7.3617294961
 20
8.1619495878
 30
0.0
  0
SPLINE
  5
268
100
AcDbEntity
  8
0
100
AcDbSpline
 62
9
  6
CONTINUOUS
 70
0
 71
3
 72
25
 73
21
 74
0
 42
0.0000001
 43
0.0000001
 44
0.0000000001
 40
0.0
 40
0.0
 40
0.0
 40
0.0
 40
0.0624766976
 40
0.1250474781
 40
0.1563390843
 40
0.187616415
 40
0.2188871661
 40
0.2501644175
 40
0.3126731481
 40
0.3751744379
 40
0.4376772552
 40
0.5001856354
 40
0.5314672547
 40
0.5627430743
 40
0.6252564366
 40
0.6877401101
 40
0.7502112251
 40
0.8126790818
 40
0.8751984922
 40
1.0
 40
1.0
 40
1.0
 40
1.0
 10
7.3803379507
 20
8.9356939364
 30
0.0
 10
7.3803372876
 20
8.9397345237
 30
0.0
 10
7.3797329963
 20
8.9478340445
 30
0.0
 10
7.3774437935
 20
8.9577274172
 30
0.0
 10
7.3746799842
 20
8.9653423169
 30
0.0
 10
7.372153353
 20
8.9708677671
 30
0.0
 10
7.3691825326
 20
8.9761671577
 30
0.0
 10
7.3646480244
 20
8.9828734764
 30
0.0
 10
7.357956397
 20
8.9905177285
 30
0.0
 10
7.3485041312
 20
8.9982044814
 30
0.0
 10
7.3379124618
 20
9.00422213
 30
0.0
 10
7.3283810224
 20
9.007726953
 30
0.0
 10
7.3205062394
 20
9.0096042074
 30
0.0
 10
7.3125079659
 20
9.0108581948
 30
0.0
 10
7.3023690522
 20
9.0112791958
 30
0.0
 10
7.2902712073
 20
9.0100100084
 30
0.0
 10
7.2784703097
 20
9.0070855414
 30
0.0
 10
7.2671547094
 20
9.0026368358
 30
0.0
 10
7.2529443671
 20
8.9948912952
 30
0.0
 10
7.2433921065
 20
8.9872179766
 30
0.0
 10
7.2376848402
 20
8.9815106277
 30
0.0
  0
SPLINE
  5
269
100
AcDbEntity
  8
0
100
AcDbSpline
 62
9
  6
CONTINUOUS
 70
0
 71
3
 72
18
 73
14
 74
0
 42
0.0000001
 43
0.0000001
 44
0.0000000001
 40
0.0
 40
0.0
 40
0.0
 40
0.0
 40
0.0298809755
 40
0.0642698004
 40
0.1039389267
 40
0.1491793069
 40
0.1999740242
 40
0.2559965469
 40
0.3818940356
 40
0.5232131224
 40
0.675841758
 40
0.8360417325
 40
1.0
 40
1.0
 40
1.0
 40
1.0
 10
7.4011747829
 20
8.2019495796
 30
0.0
 10
7.4006984178
 20
8.201949563
 30
0.0
 10
7.3996725598
 20
8.2021140501
 30
0.0
 10
7.3981284602
 20
8.2027388103
 30
0.0
 10
7.3964997984
 20
8.2037338406
 30
0.0
 10
7.3948064185
 20
8.2050871468
 30
0.0
 10
7.3930706674
 20
8.2067842196
 30
0.0
 10
7.3906436266
 20
8.2095947667
 30
0.0
 10
7.3877337624
 20
8.2138701256
 30
0.0
 10
7.3847048282
 20
8.2198574419
 30
0.0
 10
7.3822737208
 20
8.2267001677
 30
0.0
 10
7.3807143584
 20
8.2341617613
 30
0.0
 10
7.3803408407
 20
8.2393357502
 30
0.0
 10
7.3803411913
 20
8.2419495872
 30
0.0
  0
SPLINE
  5
26A
100
AcDbEntity
  8
0
100
AcDbSpline
 62
9
  6
CONTINUOUS
 70
0
 71
3
 72
9
 73
5
 74
0
 42
0.0000001
 43
0.0000001
 44
0.0000000001
 40
0.0
 40
0.0
 40
0.0
 40
0.0
 40
0.5000300981
 40
1.0
 40
1.0
 40
1.0
 40
1.0
 10
6.5245630219
 20
8.2683888094
 30
0.0
 10
6.5206885498
 20
8.2645146834
 30
0.0
 10
6.5135007366
 20
8.2561829535
 30
0.0
 10
6.5076912921
 20
8.2468280218
 30
0.0
 10
6.5051984944
 20
8.2419495878
 30
0.0
  0
SPLINE
  5
26B
100
AcDbEntity
  8
0
100
AcDbSpline
 62
9
  6
CONTINUOUS
 70
0
 71
3
 72
14
 73
10
 74
0
 42
0.0000001
 43
0.0000001
 44
0.0000000001
 40
0.0
 40
0.0
 40
0.0
 40
0.0
 40
0.0725070712
 40
0.1589717827
 40
0.2612606711
 40
0.3796061994
 40
0.5136508106
 40
0.6626855183
 40
1.0
 40
1.0
 40
1.0
 40
1.0
 10
6.4742098727
 20
8.2019495878
 30
0.0
 10
6.4748174428
 20
8.2019495458
 30
0.0
 10
6.4761492832
 20
8.2022223005
 30
0.0
 10
6.4781220716
 20
8.2032006548
 30
0.0
 10
6.4802033942
 20
8.2047310443
 30
0.0
 10
6.4823521354
 20
8.2067934638
 30
0.0
 10
6.4845245418
 20
8.2093687691
 30
0.0
 10
6.4875116413
 20
8.213628916
 30
0.0
 10
6.4894159084
 20
8.2172607155
 30
0.0
 10
6.4905296447
 20
8.2198585543
 30
0.0
  0
SPLINE
  5
26C
100
AcDbEntity
  8
0
100
AcDbSpline
 62
9
  6
CONTINUOUS
 70
0
 71
3
 72
15
 73
11
 74
0
 42
0.0000001
 43
0.0000001
 44
0.0000000001
 40
0.0
 40
0.0
 40
0.0
 40
0.0
 40
0.1430054545
 40
0.2858710483
 40
0.4251706052
 40
0.5584364597
 40
0.6838026004
 40
0.7997555719
 40
0.9052277677
 40
1.0
 40
1.0
 40
1.0
 40
1.0
 10
6.4905296448
 20
8.2198587645
 30
0.0
 10
6.4926738107
 20
8.2194746385
 30
0.0
 10
6.4969291244
 20
8.218523823
 30
0.0
 10
6.5031237
 20
8.2166124656
 30
0.0
 10
6.5090054404
 20
8.2142572062
 30
0.0
 10
6.5144073484
 20
8.2114837676
 30
0.0
 10
6.5191696897
 20
8.2083172284
 30
0.0
 10
6.5231805386
 20
8.2048537053
 30
0.0
 10
6.5263311764
 20
8.2011858341
 30
0.0
 10
6.5278865046
 20
8.1985325685
 30
0.0
 10
6.5284632297
 20
8.1972091763
 30
0.0
  0
SPLINE
  5
26D
100
AcDbEntity
  8
0
100
AcDbSpline
 62
9
  6
CONTINUOUS
 70
0
 71
3
 72
15
 73
11
 74
0
 42
0.0000001
 43
0.0000001
 44
0.0000000001
 40
0.0
 40
0.0
 40
0.0
 40
0.0
 40
0.1174413022
 40
0.2415543973
 40
0.3707725937
 40
0.5022364286
 40
0.6333198556
 40
0.7615061849
 40
0.8841595278
 40
1.0
 40
1.0
 40
1.0
 40
1.0
 10
6.5136551847
 20
8.1619495878
 30
0.0
 10
6.513655185
 20
8.1643880828
 30
0.0
 10
6.5131952395
 20
8.1694137695
 30
0.0
 10
6.5110940915
 20
8.176868767
 30
0.0
 10
6.5074114837
 20
8.1840186363
 30
0.0
 10
6.5023165693
 20
8.1904341702
 30
0.0
 10
6.4959905108
 20
8.195606673
 30
0.0
 10
6.4889364208
 20
8.1993470168
 30
0.0
 10
6.4815777087
 20
8.2014821914
 30
0.0
 10
6.476615129
 20
8.20194959
 30
0.0
 10
6.4742098729
 20
8.20194959
 30
0.0
  0
SPLINE
  5
26E
100
AcDbEntity
  8
0
100
AcDbSpline
 62
9
  6
CONTINUOUS
 70
0
 71
3
 72
10
 73
6
 74
0
 42
0.0000001
 43
0.0000001
 44
0.0000000001
 40
0.0
 40
0.0
 40
0.0
 40
0.0
 40
0.2175425214
 40
0.4577269372
 40
1.0
 40
1.0
 40
1.0
 40
1.0
 10
6.5284643261
 20
8.1972091765
 30
0.0
 10
6.5291946656
 20
8.1992061619
 30
0.0
 10
6.5307542018
 20
8.2034002904
 30
0.0
 10
6.5343559106
 20
8.2124843583
 30
0.0
 10
6.5376281361
 20
8.2194290391
 30
0.0
 10
6.540291669
 20
8.2240115841
 30
0.0
  0
SPLINE
  5
26F
100
AcDbEntity
  8
0
100
AcDbSpline
 62
9
  6
CONTINUOUS
 70
0
 71
3
 72
9
 73
5
 74
0
 42
0.0000001
 43
0.0000001
 44
0.0000000001
 40
0.0
 40
0.0
 40
0.0
 40
0.0
 40
0.2453790748
 40
1.0
 40
1.0
 40
1.0
 40
1.0
 10
6.540291772
 20
8.2240115961
 30
0.0
 10
6.541132191
 20
8.2254573002
 30
0.0
 10
6.5447751923
 20
8.2312215365
 30
0.0
 10
6.5492110171
 20
8.2364682765
 30
0.0
 10
6.5528475111
 20
8.2401046088
 30
0.0
  0
SPLINE
  5
270
100
AcDbEntity
  8
0
100
AcDbSpline
 62
9
  6
CONTINUOUS
 70
0
 71
3
 72
21
 73
17
 74
0
 42
0.0000001
 43
0.0000001
 44
0.0000000001
 40
0.0
 40
0.0
 40
0.0
 40
0.0
 40
0.1400381625
 40
0.2745324839
 40
0.3397875059
 40
0.4034893699
 40
0.4655257542
 40
0.526064668
 40
0.5855429583
 40
0.6442142513
 40
0.7023832431
 40
0.760382865
 40
0.8186653396
 40
0.877841787
 40
0.9382495001
 40
1.0
 40
1.0
 40
1.0
 40
1.0
 10
7.2659688966
 20
8.9532263613
 30
0.0
 10
7.2694661205
 20
8.9567234715
 30
0.0
 10
7.2768863253
 20
8.9630481195
 30
0.0
 10
7.2874475666
 20
8.9689667922
 30
0.0
 10
7.2962838964
 20
8.9719540849
 30
0.0
 10
7.3029203488
 20
8.9732725279
 30
0.0
 10
7.309513829
 20
8.9736292258
 30
0.0
 10
7.3159388937
 20
8.9729556376
 30
0.0
 10
7.3220342788
 20
8.9711934117
 30
0.0
 10
7.3276352535
 20
8.9683884923
 30
0.0
 10
7.3325524682
 20
8.9645897012
 30
0.0
 10
7.3366352404
 20
8.9599216139
 30
0.0
 10
7.3397274271
 20
8.9545066129
 30
0.0
 10
7.3417976892
 20
8.948540767
 30
0.0
 10
7.3428386261
 20
8.9421929619
 30
0.0
 10
7.3428370051
 20
8.9378569048
 30
0.0
 10
7.3426655506
 20
8.9356828067
 30
0.0
  0
LINE
  5
271
100
AcDbEntity
  8
0
100
AcDbLine
 62
9
  6
CONTINUOUS
 10
7.3426671998
 20
8.9356822923
 11
6.5629044603
 21
8.2284559526
  0
LINE
  5
272
100
AcDbEntity
  8
0
100
AcDbLine
 62
9
  6
CONTINUOUS
 10
6.5629044603
 20
8.2284559526
 11
6.5284639402
 21
8.1972091764
  0
SPLINE
  5
273
100
AcDbEntity
  8
0
100
AcDbSpline
 62
9
  6
CONTINUOUS
 70
0
 71
3
 72
15
 73
11
 74
0
 42
0.0000001
 43
0.0000001
 44
0.0000000001
 40
0.0
 40
0.0
 40
0.0
 40
0.0
 40
0.1158405166
 40
0.2384938946
 40
0.3666802447
 40
0.4977636769
 40
0.6292275
 40
0.7584456716
 40
0.8825587336
 40
1.0
 40
1.0
 40
1.0
 40
1.0
 10
7.4011748122
 20
8.2019495796
 30
0.0
 10
7.3987695548
 20
8.2019495799
 30
0.0
 10
7.3938069727
 20
8.2014821817
 30
0.0
 10
7.3864482572
 20
8.1993470078
 30
0.0
 10
7.379394164
 20
8.1956066648
 30
0.0
 10
7.3730681026
 20
8.1904341633
 30
0.0
 10
7.3679731854
 20
8.1840186311
 30
0.0
 10
7.3642905745
 20
8.1768687638
 30
0.0
 10
7.3621894232
 20
8.1694137681
 30
0.0
 10
7.3617294752
 20
8.1643880824
 30
0.0
 10
7.3617294742
 20
8.1619495878
 30
0.0
  0
SPLINE
  5
274
100
AcDbEntity
  8
0
100
AcDbSpline
 62
9
  6
CONTINUOUS
 70
0
 71
3
 72
18
 73
14
 74
0
 42
0.0000001
 43
0.0000001
 44
0.0000000001
 40
0.0
 40
0.0
 40
0.0
 40
0.0
 40
0.1638944566
 40
0.3240326401
 40
0.4766387734
 40
0.6179683647
 40
0.7438968345
 40
0.7999393285
 40
0.8507553877
 40
0.8960171744
 40
0.9357055854
 40
0.9701094283
 40
1.0
 40
1.0
 40
1.0
 40
1.0
 10
14.4950437606
 20
8.2419495871
 30
0.0
 10
14.4950442529
 20
8.239336762
 30
0.0
 10
14.4946711201
 20
8.2341647342
 30
0.0
 10
14.4931122005
 20
8.2267054577
 30
0.0
 10
14.4906820007
 20
8.2198636805
 30
0.0
 10
14.4876538063
 20
8.2138756424
 30
0.0
 10
14.4847439841
 20
8.2095990498
 30
0.0
 10
14.4823165947
 20
8.2067872702
 30
0.0
 10
14.4805803703
 20
8.2050892414
 30
0.0
 10
14.4788864039
 20
8.203735075
 30
0.0
 10
14.4772571185
 20
8.2027393468
 30
0.0
 10
14.4757124436
 20
8.2021141212
 30
0.0
 10
14.4746861784
 20
8.2019495252
 30
0.0
 10
14.4742096594
 20
8.2019495908
 30
0.0
  0
SPLINE
  5
275
100
AcDbEntity
  8
0
100
AcDbSpline
 62
9
  6
CONTINUOUS
 70
0
 71
3
 72
15
 73
11
 74
0
 42
0.0000001
 43
0.0000001
 44
0.0000000001
 40
0.0
 40
0.0
 40
0.0
 40
0.0
 40
0.1174408279
 40
0.2415535455
 40
0.3707715023
 40
0.5022352519
 40
0.6333187712
 40
0.761505343
 40
0.8841590606
 40
1.0
 40
1.0
 40
1.0
 40
1.0
 10
14.5136551832
 20
8.1619495878
 30
0.0
 10
14.5136551836
 20
8.1643880729
 30
0.0
 10
14.513195242
 20
8.1694137419
 30
0.0
 10
14.5110941079
 20
8.1768687193
 30
0.0
 10
14.5074115183
 20
8.1840185811
 30
0.0
 10
14.5023166185
 20
8.1904341203
 30
0.0
 10
14.4959905652
 20
8.1956066376
 30
0.0
 10
14.4889364679
 20
8.1993469999
 30
0.0
 10
14.4815777359
 20
8.2014821883
 30
0.0
 10
14.4766151387
 20
8.2019495908
 30
0.0
 10
14.4742098729
 20
8.2019495908
 30
0.0
  0
SPLINE
  5
276
100
AcDbEntity
  8
0
100
AcDbSpline
 62
9
  6
CONTINUOUS
 70
0
 71
3
 72
23
 73
19
 74
0
 42
0.0000001
 43
0.0000001
 44
0.0000000001
 40
0.0
 40
0.0
 40
0.0
 40
0.0
 40
0.007799987
 40
0.016709473
 40
0.0271759173
 40
0.0394518401
 40
0.053671817
 40
0.0698965729
 40
0.108313244
 40
0.1544345566
 40
0.2077927932
 40
0.2678075212
 40
0.3338533551
 40
0.4052809223
 40
0.4814176401
 40
0.6451361634
 40
0.8199027867
 40
1.0
 40
1.0
 40
1.0
 40
1.0
 10
14.5136551893
 20
8.1619495878
 30
0.0
 10
14.5138742936
 20
8.1619495372
 30
0.0
 10
14.514345098
 20
8.1620345643
 30
0.0
 10
14.5150365389
 20
8.1623724567
 30
0.0
 10
14.5157481447
 20
8.1629121838
 30
0.0
 10
14.5164814018
 20
8.1636506312
 30
0.0
 10
14.5172361824
 20
8.1645856239
 30
0.0
 10
14.5183299021
 20
8.1661828662
 30
0.0
 10
14.5197047919
 20
8.1686632256
 30
0.0
 10
14.5213120945
 20
8.172190097
 30
0.0
 10
14.5229238352
 20
8.1763728655
 30
0.0
 10
14.5245080806
 20
8.1811589929
 30
0.0
 10
14.526031285
 20
8.1864947819
 30
0.0
 10
14.5274619897
 20
8.1923234533
 30
0.0
 10
14.5292519757
 20
8.2008837855
 30
0.0
 10
14.5310565199
 20
8.2123991886
 30
0.0
 10
14.5324073409
 20
8.2269121283
 30
0.0
 10
14.5327183163
 20
8.2368832639
 30
0.0
 10
14.5327174803
 20
8.2419422555
 30
0.0
  0
SPLINE
  5
277
100
AcDbEntity
  8
0
100
AcDbSpline
 62
9
  6
CONTINUOUS
 70
0
 71
3
 72
19
 73
15
 74
0
 42
0.0000001
 43
0.0000001
 44
0.0000000001
 40
0.0
 40
0.0
 40
0.0
 40
0.0
 40
0.196359941
 40
0.3769940419
 40
0.5387713805
 40
0.679220504
 40
0.7407817143
 40
0.7962399242
 40
0.8454002767
 40
0.8881295079
 40
0.9244173197
 40
0.9545477212
 40
0.9792450142
 40
1.0
 40
1.0
 40
1.0
 40
1.0
 10
15.3469225055
 20
8.1972124017
 30
0.0
 10
15.3474245875
 20
8.1946914195
 30
0.0
 10
15.3484836947
 20
8.189869605
 30
0.0
 10
15.3502917107
 20
8.183049839
 30
0.0
 10
15.3522099823
 20
8.1770241919
 30
0.0
 10
15.3539142275
 20
8.1725730478
 30
0.0
 10
15.3553020769
 20
8.1695006005
 30
0.0
 10
15.3562872072
 20
8.1675600066
 30
0.0
 10
15.3572556947
 20
8.1658904322
 30
0.0
 10
15.3582008429
 20
8.1645017257
 30
0.0
 10
15.35911749
 20
8.163401738
 30
0.0
 10
15.3600037754
 20
8.1625954839
 30
0.0
 10
15.3608615965
 20
8.1620842376
 30
0.0
 10
15.3614577984
 20
8.1619495796
 30
0.0
 10
15.3617294961
 20
8.1619495878
 30
0.0
  0
SPLINE
  5
278
100
AcDbEntity
  8
0
100
AcDbSpline
 62
9
  6
CONTINUOUS
 70
0
 71
3
 72
9
 73
5
 74
0
 42
0.0000001
 43
0.0000001
 44
0.0000000001
 40
0.0
 40
0.0
 40
0.0
 40
0.0
 40
0.4999700978
 40
1.0
 40
1.0
 40
1.0
 40
1.0
 10
15.3701862348
 20
8.2419495878
 30
0.0
 10
15.3676934681
 20
8.2468279765
 30
0.0
 10
15.3618841021
 20
8.2561828257
 30
0.0
 10
15.3546963461
 20
8.2645144537
 30
0.0
 10
15.3508219252
 20
8.2683885478
 30
0.0
  0
SPLINE
  5
279
100
AcDbEntity
  8
0
100
AcDbSpline
 62
9
  6
CONTINUOUS
 70
0
 71
3
 72
15
 73
11
 74
0
 42
0.0000001
 43
0.0000001
 44
0.0000000001
 40
0.0
 40
0.0
 40
0.0
 40
0.0
 40
0.1158405014
 40
0.2384938673
 40
0.3666802095
 40
0.4977636387
 40
0.6292274647
 40
0.758445644
 40
0.8825587183
 40
1.0
 40
1.0
 40
1.0
 40
1.0
 10
15.4011748122
 20
8.2019495795
 30
0.0
 10
15.3987695551
 20
8.2019495798
 30
0.0
 10
15.3938069736
 20
8.2014821818
 30
0.0
 10
15.3864482586
 20
8.1993470084
 30
0.0
 10
15.3793941656
 20
8.195606666
 30
0.0
 10
15.3730681039
 20
8.190434165
 30
0.0
 10
15.3679731861
 20
8.184018633
 30
0.0
 10
15.3642905746
 20
8.1768687654
 30
0.0
 10
15.3621894228
 20
8.1694137691
 30
0.0
 10
15.3617294746
 20
8.1643880827
 30
0.0
 10
15.3617294736
 20
8.1619495878
 30
0.0
  0
SPLINE
  5
27A
100
AcDbEntity
  8
0
100
AcDbSpline
 62
9
  6
CONTINUOUS
 70
0
 71
3
 72
15
 73
11
 74
0
 42
0.0000001
 43
0.0000001
 44
0.0000000001
 40
0.0
 40
0.0
 40
0.0
 40
0.0
 40
0.0949576438
 40
0.2002996292
 40
0.3158383247
 40
0.4412104904
 40
0.5749831789
 40
0.7144350701
 40
0.8570320405
 40
1.0
 40
1.0
 40
1.0
 40
1.0
 10
15.3469231505
 20
8.1972124015
 30
0.0
 10
15.3474990218
 20
8.1985418937
 30
0.0
 10
15.3490489819
 20
8.2012052956
 30
0.0
 10
15.3522032752
 20
8.2048762689
 30
0.0
 10
15.3562444596
 20
8.2083064498
 30
0.0
 10
15.3610146552
 20
8.2114736169
 30
0.0
 10
15.3663710602
 20
8.214371334
 30
0.0
 10
15.3722341834
 20
8.2168290551
 30
0.0
 10
15.3784722502
 20
8.2186461926
 30
0.0
 10
15.3827639895
 20
8.2194419751
 30
0.0
 10
15.3849252858
 20
8.2197373755
 30
0.0
  0
SPLINE
  5
27B
100
AcDbEntity
  8
0
100
AcDbSpline
 62
9
  6
CONTINUOUS
 70
0
 71
3
 72
10
 73
6
 74
0
 42
0.0000001
 43
0.0000001
 44
0.0000000001
 40
0.0
 40
0.0
 40
0.0
 40
0.0
 40
0.2804606
 40
0.5425584509
 40
1.0
 40
1.0
 40
1.0
 40
1.0
 10
15.3350929619
 20
8.2240116648
 30
0.0
 10
15.3364740674
 20
8.2216431035
 30
0.0
 10
15.3389324053
 20
8.2169353669
 30
0.0
 10
15.3429003621
 20
8.2079969418
 30
0.0
 10
15.3453756326
 20
8.2014085736
 30
0.0
 10
15.3469218849
 20
8.1972124017
 30
0.0
  0
LINE
  5
27C
100
AcDbEntity
  8
0
100
AcDbLine
 62
9
  6
CONTINUOUS
 10
15.3469225055
 20
8.1972124017
 11
15.31248056
 21
8.2284559645
  0
LINE
  5
27D
100
AcDbEntity
  8
0
100
AcDbLine
 62
9
  6
CONTINUOUS
 10
15.31248056
 20
8.2284559645
 11
14.5327174803
 21
8.9356825747
  0
SPLINE
  5
27E
100
AcDbEntity
  8
0
100
AcDbSpline
 62
9
  6
CONTINUOUS
 70
0
 71
3
 72
21
 73
17
 74
0
 42
0.0000001
 43
0.0000001
 44
0.0000000001
 40
0.0
 40
0.0
 40
0.0
 40
0.0
 40
0.0617492021
 40
0.1221555085
 40
0.1813310145
 40
0.2396132107
 40
0.2976130554
 40
0.3557827547
 40
0.4144553029
 40
0.4739341621
 40
0.534471706
 40
0.5965055758
 40
0.6602049479
 40
0.7254583526
 40
0.8599533415
 40
1.0
 40
1.0
 40
1.0
 40
1.0
 10
14.532718903
 20
8.9356830315
 30
0.0
 10
14.5325473759
 20
8.9378570937
 30
0.0
 10
14.5325456621
 20
8.942193093
 30
0.0
 10
14.5335865846
 20
8.9485408221
 30
0.0
 10
14.5356568884
 20
8.9545066045
 30
0.0
 10
14.5387490904
 20
8.9599216
 30
0.0
 10
14.5428318219
 20
8.9645898059
 30
0.0
 10
14.5477490666
 20
8.9683887653
 30
0.0
 10
14.5533501446
 20
8.9711937861
 30
0.0
 10
14.5594455776
 20
8.972956074
 30
0.0
 10
14.5658705784
 20
8.9736296423
 30
0.0
 10
14.572463878
 20
8.9732728446
 30
0.0
 10
14.5791001212
 20
8.9719543036
 30
0.0
 10
14.5879363633
 20
8.968966957
 30
0.0
 10
14.5984980952
 20
8.9630484801
 30
0.0
 10
14.6059186523
 20
8.9567235537
 30
0.0
 10
14.6094159681
 20
8.9532260604
 30
0.0
  0
SPLINE
  5
27F
100
AcDbEntity
  8
0
100
AcDbSpline
 62
9
  6
CONTINUOUS
 70
0
 71
3
 72
9
 73
5
 74
0
 42
0.0000001
 43
0.0000001
 44
0.0000000001
 40
0.0
 40
0.0
 40
0.0
 40
0.0
 40
0.2549358773
 40
1.0
 40
1.0
 40
1.0
 40
1.0
 10
15.3225374266
 20
8.2401043625
 30
0.0
 10
15.3237657807
 20
8.2388760614
 30
0.0
 10
15.3284448783
 20
8.2339232715
 30
0.0
 10
15.3325414136
 20
8.2284007795
 30
0.0
 10
15.3350928593
 20
8.2240116746
 30
0.0
  0
SPLINE
  5
280
100
AcDbEntity
  8
0
100
AcDbSpline
 62
9
  6
CONTINUOUS
 70
0
 71
3
 72
25
 73
21
 74
0
 42
0.0000001
 43
0.0000001
 44
0.0000000001
 40
0.0
 40
0.0
 40
0.0
 40
0.0
 40
0.0624774723
 40
0.1250494953
 40
0.1563422962
 40
0.1876211637
 40
0.2188933664
 40
0.2501717976
 40
0.312682987
 40
0.3751863119
 40
0.4376922722
 40
0.5002019589
 40
0.5314846262
 40
0.5627606336
 40
0.6252723224
 40
0.6877564894
 40
0.7502273045
 40
0.8126926727
 40
0.8752066016
 40
1.0
 40
1.0
 40
1.0
 40
1.0
 10
14.4950466738
 20
8.9356441954
 30
0.0
 10
14.4950453189
 20
8.939685885
 30
0.0
 10
14.4956447822
 20
8.9477879396
 30
0.0
 10
14.4979281861
 20
8.9576856383
 30
0.0
 10
14.500688766
 20
8.9653042443
 30
0.0
 10
14.5032133964
 20
8.9708326444
 30
0.0
 10
14.5061823399
 20
8.9761352062
 30
0.0
 10
14.5107146289
 20
8.9828459611
 30
0.0
 10
14.5174042721
 20
8.9904960177
 30
0.0
 10
14.5268563098
 20
8.9981889649
 30
0.0
 10
14.5374491177
 20
9.0042120137
 30
0.0
 10
14.5469825378
 20
9.0077201792
 30
0.0
 10
14.5548589541
 20
9.009600311
 30
0.0
 10
14.5628588947
 20
9.0108571895
 30
0.0
 10
14.5730003479
 20
9.0112801571
 30
0.0
 10
14.5851015141
 20
9.0100129341
 30
0.0
 10
14.5969055813
 20
9.0070885417
 30
0.0
 10
14.6082239763
 20
9.0026397819
 30
0.0
 10
14.6224375872
 20
8.9948935925
 30
0.0
 10
14.6319919045
 20
8.9872190096
 30
0.0
 10
14.6377001069
 20
8.9815103661
 30
0.0
  0
LINE
  5
281
100
AcDbEntity
  8
0
100
AcDbLine
 62
9
  6
CONTINUOUS
 10
14.5327174803
 20
8.9356848827
 11
14.4950457568
 21
8.9356441948
  0
SPLINE
  5
282
100
AcDbEntity
  8
0
100
AcDbSpline
 62
9
  6
CONTINUOUS
 70
0
 71
3
 72
14
 73
10
 74
0
 42
0.0000001
 43
0.0000001
 44
0.0000000001
 40
0.0
 40
0.0
 40
0.0
 40
0.0
 40
0.072614537
 40
0.1591118734
 40
0.2614214536
 40
0.3797904209
 40
0.5138229201
 40
0.6627891673
 40
1.0
 40
1.0
 40
1.0
 40
1.0
 10
15.4011748127
 20
8.2019495878
 30
0.0
 10
15.4005697461
 20
8.2019495783
 30
0.0
 10
15.3992441019
 20
8.2022197929
 30
0.0
 10
15.3972799386
 20
8.2031907849
 30
0.0
 10
15.3952069133
 20
8.2047089861
 30
0.0
 10
15.3930656152
 20
8.2067555183
 30
0.0
 10
15.3909016191
 20
8.2093127687
 30
0.0
 10
15.3879313911
 20
8.2135476723
 30
0.0
 10
15.3860396205
 20
8.2171576192
 30
0.0
 10
15.3849252859
 20
8.219737046
 30
0.0
  0
SPLINE
  5
283
100
AcDbEntity
  8
0
100
AcDbSpline
 62
9
  6
CONTINUOUS
 70
0
 71
3
 72
12
 73
8
 74
0
 42
0.0000001
 43
0.0000001
 44
0.0000000001
 40
0.0
 40
0.0
 40
0.0
 40
0.0
 40
0.2330247991
 40
0.4818733583
 40
0.6099379619
 40
0.7393962093
 40
1.0
 40
1.0
 40
1.0
 40
1.0
 10
15.3849252859
 20
8.219737046
 30
0.0
 10
15.3840915528
 20
8.2216466819
 30
0.0
 10
15.3822616737
 20
8.2255511754
 30
0.0
 10
15.379559911
 20
8.2302987423
 30
0.0
 10
15.3770242831
 20
8.2340529847
 30
0.0
 10
15.3742067715
 20
8.2377335244
 30
0.0
 10
15.371847567
 20
8.2403154703
 30
0.0
 10
15.3701862348
 20
8.2419495878
 30
0.0
  0
ELLIPSE
  5
284
100
AcDbEntity
  8
0
100
AcDbEllipse
 62
7
  6
CONTINUOUS
 10
10.9376923427
 20
12.2984495886
 30
0.0
 11
0.0
 21
0.5
 31
0.0
 40
1.0
 41
-1.5707963268
 42
1.5707963268
  0
ENDSEC
  0
SECTION
  2
OBJECTS
  0
DICTIONARY
  5
C
100
AcDbDictionary
280
0
281
1
  3
ACAD_GROUP
350
D
  3
ACAD_MLINESTYLE
350
17
  3
ACAD_LAYOUT
350
1A
  3
ACAD_PLOTSETTINGS
350
19
  3
ACAD_PLOTSTYLENAME
350
E
  0
DICTIONARY
  5
D
102
{ACAD_REACTORS
330
C
102
}
100
AcDbDictionary
280
0
281
1
  0
ACDBDICTIONARYWDFLT
  5
E
102
{ACAD_REACTORS
330
C
102
}
100
AcDbDictionary
281
1
  3
Normal
350
F
100
AcDbDictionaryWithDefault
340
F
  0
DICTIONARY
  5
17
102
{ACAD_REACTORS
330
C
102
}
100
AcDbDictionary
280
0
281
1
  3
Standard
350
18
  0
DICTIONARY
  5
19
102
{ACAD_REACTORS
330
C
102
}
100
AcDbDictionary
281
1
  0
DICTIONARY
  5
1A
102
{ACAD_REACTORS
330
C
102
}
100
AcDbDictionary
281
1
  3
Model
350
285
  3
Layout1
350
286
  0
ACDBPLACEHOLDER
  5
F
102
{ACAD_REACTORS
330
E
102
}
  0
MLINESTYLE
  5
18
102
{ACAD_REACTORS
330
17
102
}
100
AcDbMlineStyle
  2
STANDARD
 70
0
  3

 62
256
 51
90.0
 52
90.0
 71
2
 49
0.5
 62
256
  6
BYLAYER
 49
-0.5
 62
256
  6
BYLAYER
  0
LAYOUT
  5
285
102
{ACAD_REACTORS
330
1A
102
}
100
AcDbPlotSettings
  1

  2
none_device
  4
ANSI_C_(22.00_x_17.00_Inches)
  6

 40
0.0
 41
0.0
 42
0.0
 43
0.0
 44
558.8
 45
431.8
 46
0.0
 47
0.0
 48
0.0
 49
0.0
140
0.0
141
0.0
142
1.0
143
1.0
 70
1024
 72
0
 73
0
 74
0
  7

 75
0
147
1.0
148
0.0
149
0.0
100
AcDbLayout
  1
Model
 70
0
 71
0
 10
0.0
 20
0.0
 11
22.0
 21
17.0
 12
0.0
 22
0.0
 32
0.0
 14
0.0
 24
0.0
 34
0.0
 15
0.0
 25
0.0
 35
0.0
146
0.0
 13
0.0
 23
0.0
 33
0.0
 16
1.0
 26
0.0
 36
0.0
 17
0.0
 27
1.0
 37
0.0
 76
0
330
202
345
0
346
0
  0
LAYOUT
  5
286
102
{ACAD_REACTORS
330
1A
102
}
100
AcDbPlotSettings
  1

  2
none_device
  4
ANSI_C_(22.00_x_17.00_Inches)
  6

 40
0.0
 41
0.0
 42
0.0
 43
0.0
 44
558.8
 45
431.8
 46
0.0
 47
0.0
 48
0.0
 49
0.0
140
0.0
141
0.0
142
1.0
143
1.0
 70
0
 72
0
 73
0
 74
0
  7

 75
0
147
1.0
148
0.0
149
0.0
100
AcDbLayout
  1
Layout1
 70
0
 71
1
 10
0.0
 20
0.0
 11
22.0
 21
17.0
 12
0.0
 22
0.0
 32
0.0
 14
0.0
 24
0.0
 34
0.0
 15
0.0
 25
0.0
 35
0.0
146
0.0
 13
0.0
 23
0.0
 33
0.0
 16
1.0
 26
0.0
 36
0.0
 17
0.0
 27
1.0
 37
0.0
 76
0
330
203
345
0
346
0
  0
ENDSEC
  0
EOF
