999
DXF file: 3-2524ts_FRONT.dxf
999
Pro/ENGINEER 2018400 by Parametric Technology Corporation
  0
SECTION
  2
HEADER
  9
$ACADVER
  1
AC1027
  9
$DWGCODEPAGE
  3
ANSI_1252
  9
$EXTMAX
 10
11.0
 20
8.5
 30
0.0
  9
$EXTMIN
 10
0.0
 20
0.0
 30
0.0
  9
$LIMMIN
 10
0.0
 20
0.0
  9
$LIMMAX
 10
11.0
 20
8.5
  9
$VIEWCTR
 10
5.5
 20
4.25
  9
$VIEWSIZE
 40
8.5
  9
$CLAYER
  8
0
  9
$LTSCALE
 40
0.605
  9
$CELTYPE
  6
BYLAYER
  9
$DIMSCALE
 40
1.0
  9
$DIMASZ
 40
0.1
  9
$DIMEXO
 40
0.0625
  9
$DIMDLI
 40
0.418
  9
$DIMEXE
 40
0.125
  9
$DIMCEN
 40
0.099
  9
$DIMLFAC
 40
1.0
  9
$DIMBLK
  1
_FILLED
  9
$DIMALT
 70
1
  9
$DIMALTD
 70
2
  9
$DIMALTTD
 70
2
  9
$DIMALTF
 40
25.4
  9
$DIMTXT
 40
0.08
  9
$DIMTOL
 70
1
  9
$DIMLIM
 70
0
  9
$DIMTFAC
 40
1.0
  9
$DIMTP
 40
0.001
  9
$DIMTM
 40
0.001
  9
$DIMGAP
 40
0.09
  9
$DIMDSEP
 70
46
  9
$AUNITS
 70
0
  9
$PDMODE
 70
3
  9
$PDSIZE
 40
0.3125
  9
$HANDSEED
  5
54B
  9
$TILEMODE
 70
1
  9
$MEASUREMENT
 70
0
  9
$INSUNITS
 70
1
  0
ENDSEC
  0
SECTION
  2
CLASSES
  0
CLASS
  1
ACDBDICTIONARYWDFLT
  2
AcDbDictionaryWithDefault
  3
AutoCAD 2000
 90
0
 91
1
280
0
281
0
  0
CLASS
  1
ACDBPLACEHOLDER
  2
AcDbPlaceHolder
  3
AutoCAD 2000
 90
0
 91
1
280
0
281
0
  0
CLASS
  1
LAYOUT
  2
AcDbLayout
  3
AutoCAD 2000
 90
0
 91
0
280
0
281
0
  0
ENDSEC
  0
SECTION
  2
TABLES
  0
TABLE
  2
VPORT
  5
8
100
AcDbSymbolTable
 70
2
  0
VPORT
  5
1F4
100
AcDbSymbolTableRecord
100
AcDbViewportTableRecord
  2
*ACTIVE
 70
0
 10
0.0
 20
0.0
 11
1.0
 21
1.0
 12
5.5
 22
4.25
 13
0.0
 23
0.0
 14
1.0
 24
1.0
 15
0.0
 25
0.0
 16
0.0
 26
0.0
 36
1.0
 17
0.0
 27
0.0
 37
0.0
 40
8.5
 41
1.2941176471
 42
50.0
 43
0.0
 44
0.0
 50
0.0
 51
0.0
 71
0
 72
100
 73
1
 74
1
 75
0
 76
0
 77
0
 78
0
  0
ENDTAB
  0
TABLE
  2
LTYPE
  5
5
100
AcDbSymbolTable
 70
6
  0
LTYPE
  5
14
100
AcDbSymbolTableRecord
100
AcDbLinetypeTableRecord
  2
BYBLOCK
 70
0
  3

 72
65
 73
0
 40
0.0
  0
LTYPE
  5
15
100
AcDbSymbolTableRecord
100
AcDbLinetypeTableRecord
  2
BYLAYER
 70
0
  3

 72
65
 73
0
 40
0.0
  0
LTYPE
  5
16
100
AcDbSymbolTableRecord
100
AcDbLinetypeTableRecord
  2
CONTINUOUS
 70
64
  3
Solid line
 72
65
 73
0
 40
0.0
  0
LTYPE
  5
1F5
100
AcDbSymbolTableRecord
100
AcDbLinetypeTableRecord
  2
CENTER
 70
64
  3
____ _ ____ _ ____ _ ____ _ ____ _ ____ _ ____
 72
65
 73
4
 40
0.6
 49
0.375
 74
0
 49
-0.075
 74
0
 49
0.075
 74
0
 49
-0.075
 74
0
  0
LTYPE
  5
1F6
100
AcDbSymbolTableRecord
100
AcDbLinetypeTableRecord
  2
HIDDEN
 70
64
  3
- - - - - - - - - - - - - - - - - - - -
 72
65
 73
2
 40
0.2
 49
0.1
 74
0
 49
-0.1
 74
0
  0
LTYPE
  5
1F7
100
AcDbSymbolTableRecord
100
AcDbLinetypeTableRecord
  2
PHANTOM
 70
64
  3
_____ _ _ _____ _ _ _____ _ _ _____
 72
65
 73
6
 40
0.8
 49
0.45
 74
0
 49
-0.05
 74
0
 49
0.1
 74
0
 49
-0.05
 74
0
 49
0.1
 74
0
 49
-0.05
 74
0
  0
LTYPE
  5
1F8
100
AcDbSymbolTableRecord
100
AcDbLinetypeTableRecord
  2
DOT
 70
64
  3
. . . . . . . . . . . . . . . . . . . .
 72
65
 73
2
 40
0.2
 49
0.1
 74
0
 49
-0.1
 74
0
  0
LTYPE
  5
1F9
100
AcDbSymbolTableRecord
100
AcDbLinetypeTableRecord
  2
DASHED
 70
64
  3
- - - - - - - - - - - - - - - - - - - -
 72
65
 73
2
 40
0.2
 49
0.1
 74
0
 49
-0.1
 74
0
  0
ENDTAB
  0
TABLE
  2
LAYER
  5
2
100
AcDbSymbolTable
 70
36
  0
LAYER
  5
10
100
AcDbSymbolTableRecord
100
AcDbLayerTableRecord
  2
0
 70
0
 62
7
  6
CONTINUOUS
370
-3
390
F
  0
LAYER
  5
1FA
100
AcDbSymbolTableRecord
100
AcDbLayerTableRecord
  2
DEFAULT_1
 70
0
 62
7
  6
CENTER
370
-3
390
F
  0
LAYER
  5
1FB
100
AcDbSymbolTableRecord
100
AcDbLayerTableRecord
  2
DEFAULT_2
 70
0
 62
8
  6
HIDDEN
370
-3
390
F
  0
LAYER
  5
1FC
100
AcDbSymbolTableRecord
100
AcDbLayerTableRecord
  2
DEFAULT_3
 70
0
 62
7
  6
PHANTOM
370
-3
390
F
  0
LAYER
  5
1FD
100
AcDbSymbolTableRecord
100
AcDbLayerTableRecord
  2
ALL_ASSEMBLY_MEMBERS
 70
0
 62
7
  6
CONTINUOUS
370
-3
390
F
  0
LAYER
  5
1FE
100
AcDbSymbolTableRecord
100
AcDbLayerTableRecord
  2
ALL_FEATURES
 70
0
 62
7
  6
CONTINUOUS
370
-3
390
F
  0
LAYER
  5
1FF
100
AcDbSymbolTableRecord
100
AcDbLayerTableRecord
  2
AXES_FEATURES
 70
0
 62
7
  6
CONTINUOUS
370
-3
390
F
  0
LAYER
  5
200
100
AcDbSymbolTableRecord
100
AcDbLayerTableRecord
  2
CHAMFER_FEATURES
 70
0
 62
7
  6
CONTINUOUS
370
-3
390
F
  0
LAYER
  5
201
100
AcDbSymbolTableRecord
100
AcDbLayerTableRecord
  2
COSMETIC_SKETCHES
 70
0
 62
7
  6
CONTINUOUS
370
-3
390
F
  0
LAYER
  5
202
100
AcDbSymbolTableRecord
100
AcDbLayerTableRecord
  2
CUT_FEATURES
 70
0
 62
7
  6
CONTINUOUS
370
-3
390
F
  0
LAYER
  5
203
100
AcDbSymbolTableRecord
100
AcDbLayerTableRecord
  2
DATUM_CURVES
 70
0
 62
7
  6
CONTINUOUS
370
-3
390
F
  0
LAYER
  5
204
100
AcDbSymbolTableRecord
100
AcDbLayerTableRecord
  2
DATUM_PLANES
 70
0
 62
7
  6
CONTINUOUS
370
-3
390
F
  0
LAYER
  5
205
100
AcDbSymbolTableRecord
100
AcDbLayerTableRecord
  2
DATUM_POINTS
 70
0
 62
7
  6
CONTINUOUS
370
-3
390
F
  0
LAYER
  5
206
100
AcDbSymbolTableRecord
100
AcDbLayerTableRecord
  2
DEFAULT_COORDINATE_SYSTEM
 70
0
 62
7
  6
CONTINUOUS
370
-3
390
F
  0
LAYER
  5
207
100
AcDbSymbolTableRecord
100
AcDbLayerTableRecord
  2
DEFAULT_DATUM_AXES
 70
0
 62
7
  6
CONTINUOUS
370
-3
390
F
  0
LAYER
  5
208
100
AcDbSymbolTableRecord
100
AcDbLayerTableRecord
  2
DEFAULT_DATUM_CURVES
 70
0
 62
7
  6
CONTINUOUS
370
-3
390
F
  0
LAYER
  5
209
100
AcDbSymbolTableRecord
100
AcDbLayerTableRecord
  2
DEFAULT_DATUM_PLANES
 70
0
 62
7
  6
CONTINUOUS
370
-3
390
F
  0
LAYER
  5
20A
100
AcDbSymbolTableRecord
100
AcDbLayerTableRecord
  2
DEFAULT_SURFACES
 70
0
 62
7
  6
CONTINUOUS
370
-3
390
F
  0
LAYER
  5
20B
100
AcDbSymbolTableRecord
100
AcDbLayerTableRecord
  2
DIMENSIONS
 70
0
 62
7
  6
CONTINUOUS
370
-3
390
F
  0
LAYER
  5
20C
100
AcDbSymbolTableRecord
100
AcDbLayerTableRecord
  2
HOLE_FEATURES
 70
0
 62
7
  6
CONTINUOUS
370
-3
390
F
  0
LAYER
  5
20D
100
AcDbSymbolTableRecord
100
AcDbLayerTableRecord
  2
HOLE_PATTERN
 70
0
 62
7
  6
CONTINUOUS
370
-3
390
F
  0
LAYER
  5
20E
100
AcDbSymbolTableRecord
100
AcDbLayerTableRecord
  2
NONE
 70
0
 62
7
  6
CONTINUOUS
370
-3
390
F
  0
LAYER
  5
20F
100
AcDbSymbolTableRecord
100
AcDbLayerTableRecord
  2
PART_REFERENCE_DIMENSIONS
 70
0
 62
7
  6
CONTINUOUS
370
-3
390
F
  0
LAYER
  5
210
100
AcDbSymbolTableRecord
100
AcDbLayerTableRecord
  2
PLATED_SURFACE_AREA
 70
0
 62
7
  6
CONTINUOUS
370
-3
390
F
  0
LAYER
  5
211
100
AcDbSymbolTableRecord
100
AcDbLayerTableRecord
  2
POINTS
 70
0
 62
7
  6
CONTINUOUS
370
-3
390
F
  0
LAYER
  5
212
100
AcDbSymbolTableRecord
100
AcDbLayerTableRecord
  2
PROTRUSION
 70
0
 62
7
  6
CONTINUOUS
370
-3
390
F
  0
LAYER
  5
213
100
AcDbSymbolTableRecord
100
AcDbLayerTableRecord
  2
PROTRUSION_FEATURES
 70
0
 62
7
  6
CONTINUOUS
370
-3
390
F
  0
LAYER
  5
214
100
AcDbSymbolTableRecord
100
AcDbLayerTableRecord
  2
QUILT
 70
0
 62
7
  6
CONTINUOUS
370
-3
390
F
  0
LAYER
  5
215
100
AcDbSymbolTableRecord
100
AcDbLayerTableRecord
  2
QUILTS
 70
0
 62
7
  6
CONTINUOUS
370
-3
390
F
  0
LAYER
  5
216
100
AcDbSymbolTableRecord
100
AcDbLayerTableRecord
  2
REFERENCE_DIMENSIONS
 70
0
 62
7
  6
CONTINUOUS
370
-3
390
F
  0
LAYER
  5
217
100
AcDbSymbolTableRecord
100
AcDbLayerTableRecord
  2
ROUND_FEATURES
 70
0
 62
7
  6
CONTINUOUS
370
-3
390
F
  0
LAYER
  5
218
100
AcDbSymbolTableRecord
100
AcDbLayerTableRecord
  2
SATIN_DIRECTION
 70
0
 62
7
  6
CONTINUOUS
370
-3
390
F
  0
LAYER
  5
219
100
AcDbSymbolTableRecord
100
AcDbLayerTableRecord
  2
SHELL_FEATURES
 70
0
 62
7
  6
CONTINUOUS
370
-3
390
F
  0
LAYER
  5
21A
100
AcDbSymbolTableRecord
100
AcDbLayerTableRecord
  2
SURFACE_FEATURES
 70
0
 62
7
  6
CONTINUOUS
370
-3
390
F
  0
LAYER
  5
21B
100
AcDbSymbolTableRecord
100
AcDbLayerTableRecord
  2
XSEC_DATUMS
 70
0
 62
7
  6
CONTINUOUS
370
-3
390
F
  0
ENDTAB
  0
TABLE
  2
STYLE
  5
3
100
AcDbSymbolTable
 70
1
  0
STYLE
  5
11
100
AcDbSymbolTableRecord
100
AcDbTextStyleTableRecord
  2
STANDARD
 70
0
 40
0.0
 41
0.8
 50
0.0
 71
0
 42
0.2
  3
txt
  4

  0
STYLE
  5
21C
100
AcDbSymbolTableRecord
100
AcDbTextStyleTableRecord
  2
TEXTSTYLE_1
 70
0
 40
0.0
 41
0.8
 50
0.0
 71
0
 42
0.2
  3
gdt
  4

  0
ENDTAB
  0
TABLE
  2
VIEW
  5
6
100
AcDbSymbolTable
 70
0
  0
ENDTAB
  0
TABLE
  2
UCS
  5
7
100
AcDbSymbolTable
 70
0
  0
ENDTAB
  0
TABLE
  2
APPID
  5
9
100
AcDbSymbolTable
 70
1
  0
APPID
  5
21D
100
AcDbSymbolTableRecord
100
AcDbRegAppTableRecord
  2
ACAD
 70
0
  0
ENDTAB
  0
TABLE
  2
BLOCK_RECORD
  5
1
100
AcDbSymbolTable
 70
0
  0
BLOCK_RECORD
  5
21E
100
AcDbSymbolTableRecord
100
AcDbBlockTableRecord
  2
*Model_Space
  0
BLOCK_RECORD
  5
21F
100
AcDbSymbolTableRecord
100
AcDbBlockTableRecord
  2
*Paper_Space
  0
BLOCK_RECORD
  5
220
100
AcDbSymbolTableRecord
100
AcDbBlockTableRecord
  2
_FILLED
  0
ENDTAB
  0
TABLE
  2
DIMSTYLE
  5
A
100
AcDbSymbolTable
 70
1
100
AcDbDimStyleTable
 71
0
  0
DIMSTYLE
105
221
100
AcDbSymbolTableRecord
100
AcDbDimStyleTableRecord
  2
STANDARD
 70
0
  3

  4

 40
1.0
 41
0.1
 42
0.0625
 43
0.38
 44
0.125
 45
0.0
 46
0.0
 47
0.001
 48
0.001
140
0.08
141
0.09
142
0.0
143
25.4
144
1.0
145
0.0
146
1.0
147
0.09
 71
1.0
 72
0.0
 73
1
 74
1
 75
0
 76
0
 77
0
 78
4
 79
1
170
1
171
2
172
0
173
0
174
0
175
0
176
0
177
0
178
0
270
2
179
3
271
3
272
3
273
2
274
2
275
0
280
0
281
0
282
0
283
1
284
4
285
0
286
0
287
3
288
0
340
11
278
46
341
220
342
220
343
220
344
220
  0
ENDTAB
  0
ENDSEC
  0
SECTION
  2
BLOCKS
  0
BLOCK
  5
20
100
AcDbEntity
  8
0
100
AcDbBlockBegin
  2
*Model_Space
 70
0
 10
0.0
 20
0.0
 30
0.0
  3
*Model_Space
  1

  0
ENDBLK
  5
21
100
AcDbEntity
  8
0
100
AcDbBlockEnd
  0
BLOCK
  5
1C
100
AcDbEntity
  8
0
100
AcDbBlockBegin
  2
*Paper_Space
 70
0
 10
0.0
 20
0.0
 30
0.0
  3
*Paper_Space
  1

  0
ENDBLK
  5
1D
100
AcDbEntity
  8
0
100
AcDbBlockEnd
  0
BLOCK
  5
222
100
AcDbEntity
  8
0
100
AcDbBlockBegin
  2
_FILLED
 70
64
 10
0.0
 20
0.0
  3
_FILLED
  1

  0
SOLID
  5
223
100
AcDbEntity
  8
0
  6
BYBLOCK
 62
0
100
AcDbTrace
 10
0.0
 20
0.0
 11
-1.0
 21
0.2
 12
-1.0
 22
-0.2
 13
-1.0
 23
-0.2
  0
ENDBLK
  5
224
100
AcDbEntity
  8
0
  6
BYBLOCK
 62
0
100
AcDbBlockEnd
  0
ENDSEC
  0
SECTION
  2
ENTITIES
  0
MTEXT
  5
225
100
AcDbEntity
  8
0
100
AcDbMText
 62
2
  6
CONTINUOUS
  7
STANDARD
 71
3
 72
1
 10
5.177173913
 20
3.0843284161
 30
0.0
 11
1.0
 21
0.0
 31
0.0
 73
2
 44
0.9
  1
SCALE  .500
 40
0.08
 41
0.704
  0
LINE
  5
226
100
AcDbEntity
  8
0
100
AcDbLine
 62
7
  6
CONTINUOUS
 10
0.0
 20
0.0
 11
0.0
 21
8.5
  0
LINE
  5
227
100
AcDbEntity
  8
0
100
AcDbLine
 62
7
  6
CONTINUOUS
 10
0.0
 20
0.0
 11
11.0
 21
0.0
  0
LINE
  5
228
100
AcDbEntity
  8
0
100
AcDbLine
 62
7
  6
CONTINUOUS
 10
0.0
 20
8.5
 11
11.0
 21
8.5
  0
LINE
  5
229
100
AcDbEntity
  8
0
100
AcDbLine
 62
7
  6
CONTINUOUS
 10
11.0
 20
0.0
 11
11.0
 21
8.5
  0
LINE
  5
22A
100
AcDbEntity
  8
ALL_ASSEMBLY_MEMBERS
100
AcDbLine
 62
7
  6
CONTINUOUS
 10
3.489673913
 20
6.0968284161
 11
3.489673913
 21
3.6368284161
  0
LINE
  5
22B
100
AcDbEntity
  8
ALL_ASSEMBLY_MEMBERS
100
AcDbLine
 62
7
  6
CONTINUOUS
 10
3.552173913
 20
6.0968284161
 11
3.552173913
 21
3.6368284161
  0
LINE
  5
22C
100
AcDbEntity
  8
ALL_ASSEMBLY_MEMBERS
100
AcDbLine
 62
7
  6
CONTINUOUS
 10
3.947173913
 20
3.1793284161
 11
6.407173913
 21
3.1793284161
  0
LINE
  5
22D
100
AcDbEntity
  8
ALL_ASSEMBLY_MEMBERS
100
AcDbLine
 62
7
  6
CONTINUOUS
 10
3.947173913
 20
3.2418284161
 11
6.407173913
 21
3.2418284161
  0
LINE
  5
22E
100
AcDbEntity
  8
ALL_ASSEMBLY_MEMBERS
100
AcDbLine
 62
7
  6
CONTINUOUS
 10
3.739673913
 20
6.3468284161
 11
3.739673913
 21
6.3243284161
  0
LINE
  5
22F
100
AcDbEntity
  8
ALL_ASSEMBLY_MEMBERS
100
AcDbLine
 62
7
  6
CONTINUOUS
 10
3.739673913
 20
3.4093284161
 11
3.739673913
 21
3.3868284161
  0
LINE
  5
230
100
AcDbEntity
  8
ALL_ASSEMBLY_MEMBERS
100
AcDbLine
 62
7
  6
CONTINUOUS
 10
3.697173913
 20
3.4293284161
 11
3.719673913
 21
3.4293284161
  0
LINE
  5
231
100
AcDbEntity
  8
ALL_ASSEMBLY_MEMBERS
100
AcDbLine
 62
7
  6
CONTINUOUS
 10
6.634673913
 20
3.4293284161
 11
6.657173913
 21
3.4293284161
  0
LINE
  5
232
100
AcDbEntity
  8
ALL_ASSEMBLY_MEMBERS
100
AcDbLine
 62
7
  6
CONTINUOUS
 10
3.802173913
 20
6.3468284161
 11
3.802173913
 21
6.3243284161
  0
LINE
  5
233
100
AcDbEntity
  8
ALL_ASSEMBLY_MEMBERS
100
AcDbLine
 62
7
  6
CONTINUOUS
 10
3.802173913
 20
3.4093284161
 11
3.802173913
 21
3.3868284161
  0
LINE
  5
234
100
AcDbEntity
  8
ALL_ASSEMBLY_MEMBERS
100
AcDbLine
 62
7
  6
CONTINUOUS
 10
3.697173913
 20
3.4918284161
 11
3.719673913
 21
3.4918284161
  0
LINE
  5
235
100
AcDbEntity
  8
ALL_ASSEMBLY_MEMBERS
100
AcDbLine
 62
7
  6
CONTINUOUS
 10
6.634673913
 20
3.4918284161
 11
6.657173913
 21
3.4918284161
  0
LINE
  5
236
100
AcDbEntity
  8
ALL_ASSEMBLY_MEMBERS
100
AcDbLine
 62
7
  6
CONTINUOUS
 10
4.4744532078
 20
4.7990744468
 11
4.4742468453
 21
4.8014264446
  0
LINE
  5
237
100
AcDbEntity
  8
ALL_ASSEMBLY_MEMBERS
100
AcDbLine
 62
7
  6
CONTINUOUS
 10
4.4752897164
 20
4.8001772626
 11
4.4753791131
 21
4.799155453
  0
LWPOLYLINE
  5
238
100
AcDbEntity
  8
ALL_ASSEMBLY_MEMBERS
100
AcDbPolyline
 62
7
  6
CONTINUOUS
 90
17
 70
0
 10
4.4271991113
 20
4.8607055909
 10
4.4272992615
 20
4.8583301398
 10
4.4276462942
 20
4.855407108
 10
4.4282377057
 20
4.8525236075
 10
4.4290693043
 20
4.8497000313
 10
4.4301352001
 20
4.8469563475
 10
4.4314278462
 20
4.8443119585
 10
4.4329380926
 20
4.8417855621
 10
4.4346552525
 20
4.8393950196
 10
4.4365671769
 20
4.8371572309
 10
4.4386603371
 20
4.8350880181
 10
4.440919922
 20
4.833202011
 10
4.4433299476
 20
4.8315125391
 10
4.4458733655
 20
4.8300315428
 10
4.4485321779
 20
4.8287694901
 10
4.451287577
 20
4.8277352956
 10
4.4538510126
 20
4.8270012071
  0
LINE
  5
239
100
AcDbEntity
  8
ALL_ASSEMBLY_MEMBERS
100
AcDbLine
 62
7
  6
CONTINUOUS
 10
4.4271989061
 20
4.8607055897
 11
4.4271989063
 21
4.8729512684
  0
LWPOLYLINE
  5
23A
100
AcDbEntity
  8
ALL_ASSEMBLY_MEMBERS
100
AcDbPolyline
 62
7
  6
CONTINUOUS
 90
13
 70
0
 10
4.4682970791
 20
4.9205330054
 10
4.4681522475
 20
4.9200537453
 10
4.4675103741
 20
4.9183088153
 10
4.4667095224
 20
4.9166315673
 10
4.4657567607
 20
4.9150364124
 10
4.4646604534
 20
4.9135370276
 10
4.4634301911
 20
4.9121462466
 10
4.4620767035
 20
4.910875947
 10
4.46061176
 20
4.9097369468
 10
4.4590480446
 20
4.908738904
 10
4.4573991247
 20
4.9078902871
 10
4.4556793432
 20
4.9071982766
 10
4.453851128
 20
4.9066556921
  0
LINE
  5
23B
100
AcDbEntity
  8
ALL_ASSEMBLY_MEMBERS
100
AcDbLine
 62
7
  6
CONTINUOUS
 10
4.5285092013
 20
5.2033010106
 11
4.514260985
 21
5.1594495099
  0
LINE
  5
23C
100
AcDbEntity
  8
ALL_ASSEMBLY_MEMBERS
100
AcDbLine
 62
7
  6
CONTINUOUS
 10
4.7578723454
 20
5.4336456411
 11
4.7478894015
 21
5.4261229533
  0
LINE
  5
23D
100
AcDbEntity
  8
ALL_ASSEMBLY_MEMBERS
100
AcDbLine
 62
7
  6
CONTINUOUS
 10
5.0679527137
 20
5.5735899853
 11
5.0785901519
 21
5.57917377
  0
LINE
  5
23E
100
AcDbEntity
  8
ALL_ASSEMBLY_MEMBERS
100
AcDbLine
 62
7
  6
CONTINUOUS
 10
5.0998673043
 20
5.589536385
 11
5.0679527137
 21
5.5729500814
  0
LWPOLYLINE
  5
23F
100
AcDbEntity
  8
ALL_ASSEMBLY_MEMBERS
100
AcDbPolyline
 62
7
  6
CONTINUOUS
 90
17
 70
0
 10
5.1832967383
 20
4.1168536144
 10
5.1856721894
 20
4.1169537646
 10
5.1885952212
 20
4.1173007973
 10
5.1914787217
 20
4.1178922088
 10
5.1943022979
 20
4.1187238074
 10
5.1970459817
 20
4.1197897033
 10
5.1996903707
 20
4.1210823493
 10
5.2022167671
 20
4.1225925957
 10
5.2046073096
 20
4.1243097557
 10
5.2068450983
 20
4.12622168
 10
5.2089143111
 20
4.1283148402
 10
5.2108003182
 20
4.1305744251
 10
5.2124897901
 20
4.1329844507
 10
5.2139707864
 20
4.1355278686
 10
5.2152328391
 20
4.138186681
 10
5.2162670336
 20
4.1409420801
 10
5.2170011221
 20
4.1435055157
  0
LINE
  5
240
100
AcDbEntity
  8
ALL_ASSEMBLY_MEMBERS
100
AcDbLine
 62
7
  6
CONTINUOUS
 10
5.2299169727
 20
4.1432565198
 11
5.2169217192
 21
4.1432278194
  0
LINE
  5
241
100
AcDbEntity
  8
ALL_ASSEMBLY_MEMBERS
100
AcDbLine
 62
7
  6
CONTINUOUS
 10
5.1832967395
 20
4.1168534092
 11
5.1710510611
 21
4.1168534094
  0
LINE
  5
242
100
AcDbEntity
  8
ALL_ASSEMBLY_MEMBERS
100
AcDbLine
 62
7
  6
CONTINUOUS
 10
5.2170011221
 20
4.1441204473
 11
5.2299169727
 21
4.1441204473
  0
LINE
  5
243
100
AcDbEntity
  8
ALL_ASSEMBLY_MEMBERS
100
AcDbLine
 62
7
  6
CONTINUOUS
 10
5.2590600338
 20
4.1822441881
 11
5.2633433077
 21
4.1822441881
  0
LINE
  5
244
100
AcDbEntity
  8
ALL_ASSEMBLY_MEMBERS
100
AcDbLine
 62
7
  6
CONTINUOUS
 10
5.2693062997
 20
4.2324982128
 11
5.2735895735
 21
4.2324982128
  0
LWPOLYLINE
  5
245
100
AcDbEntity
  8
ALL_ASSEMBLY_MEMBERS
100
AcDbPolyline
 62
7
  6
CONTINUOUS
 90
13
 70
0
 10
5.1234693238
 20
4.1579515822
 10
5.1239485838
 20
4.1578067506
 10
5.1256935139
 20
4.1571648772
 10
5.1273707619
 20
4.1563640256
 10
5.1289659167
 20
4.1554112638
 10
5.1304653016
 20
4.1543149565
 10
5.1318560826
 20
4.1530846942
 10
5.1331263822
 20
4.1517312066
 10
5.1342653823
 20
4.1502662632
 10
5.1352634252
 20
4.1487025478
 10
5.1361120421
 20
4.1470536279
 10
5.1368040526
 20
4.1453338464
 10
5.1373466373
 20
4.1435056302
  0
LINE
  5
246
100
AcDbEntity
  8
ALL_ASSEMBLY_MEMBERS
100
AcDbLine
 62
7
  6
CONTINUOUS
 10
4.6197110394
 20
4.4188592983
 11
4.6095566254
 21
4.4252796948
  0
LINE
  5
247
100
AcDbEntity
  8
ALL_ASSEMBLY_MEMBERS
100
AcDbLine
 62
7
  6
CONTINUOUS
 10
4.5899437568
 20
4.4385249447
 11
4.6202652125
 21
4.4191792503
  0
LINE
  5
248
100
AcDbEntity
  8
ALL_ASSEMBLY_MEMBERS
100
AcDbLine
 62
7
  6
CONTINUOUS
 10
4.6322307176
 20
4.5672880959
 11
4.6489018907
 21
4.5384127771
  0
LINE
  5
249
100
AcDbEntity
  8
ALL_ASSEMBLY_MEMBERS
100
AcDbLine
 62
7
  6
CONTINUOUS
 10
4.4712525105
 20
4.9813542186
 11
4.469229182
 21
4.9931964994
  0
LINE
  5
24A
100
AcDbEntity
  8
ALL_ASSEMBLY_MEMBERS
100
AcDbLine
 62
7
  6
CONTINUOUS
 10
4.4956395607
 20
5.07379532
 11
4.4954856234
 21
5.0747161284
  0
LINE
  5
24B
100
AcDbEntity
  8
ALL_ASSEMBLY_MEMBERS
100
AcDbLine
 62
7
  6
CONTINUOUS
 10
4.4974612396
 20
5.0629125023
 11
4.4954856377
 21
5.074716124
  0
LINE
  5
24C
100
AcDbEntity
  8
ALL_ASSEMBLY_MEMBERS
100
AcDbLine
 62
7
  6
CONTINUOUS
 10
4.465948734
 20
5.0166345065
 11
4.4718610953
 21
4.9811564774
  0
LINE
  5
24D
100
AcDbEntity
  8
ALL_ASSEMBLY_MEMBERS
100
AcDbLine
 62
7
  6
CONTINUOUS
 10
4.4924208231
 20
5.0981072193
 11
4.4983331844
 21
5.0626291903
  0
LINE
  5
24E
100
AcDbEntity
  8
ALL_ASSEMBLY_MEMBERS
100
AcDbLine
 62
7
  6
CONTINUOUS
 10
5.2573290841
 20
4.2574954799
 11
5.2561739458
 21
4.257490299
  0
LINE
  5
24F
100
AcDbEntity
  8
ALL_ASSEMBLY_MEMBERS
100
AcDbLine
 62
7
  6
CONTINUOUS
 10
4.6118978498
 20
4.5843514927
 11
4.6124216233
 21
4.5809687221
  0
LINE
  5
250
100
AcDbEntity
  8
ALL_ASSEMBLY_MEMBERS
100
AcDbLine
 62
7
  6
CONTINUOUS
 10
4.6682431066
 20
4.5275653341
 11
4.6612534448
 21
4.5290728977
  0
LINE
  5
251
100
AcDbEntity
  8
ALL_ASSEMBLY_MEMBERS
100
AcDbLine
 62
7
  6
CONTINUOUS
 10
4.6470907257
 20
4.5321306197
 11
4.6435167382
 21
4.5329041382
  0
LINE
  5
252
100
AcDbEntity
  8
ALL_ASSEMBLY_MEMBERS
100
AcDbLine
 62
7
  6
CONTINUOUS
 10
4.6470907257
 20
4.5321306197
 11
4.6435166344
 21
4.5329036141
  0
LINE
  5
253
100
AcDbEntity
  8
ALL_ASSEMBLY_MEMBERS
100
AcDbLine
 62
7
  6
CONTINUOUS
 10
4.6469770826
 20
4.5327834406
 11
4.6478821846
 21
4.5325872176
  0
LINE
  5
254
100
AcDbEntity
  8
ALL_ASSEMBLY_MEMBERS
100
AcDbLine
 62
7
  6
CONTINUOUS
 10
4.6478821846
 20
4.5325872176
 11
4.6683692917
 21
4.5281476335
  0
LWPOLYLINE
  5
255
100
AcDbEntity
  8
ALL_ASSEMBLY_MEMBERS
100
AcDbPolyline
 62
7
  6
CONTINUOUS
 90
13
 70
0
 10
5.1373466684
 20
5.5901513287
 10
5.1368039829
 20
5.5883227864
 10
5.1361119301
 20
5.5866029596
 10
5.1352632622
 20
5.5849540011
 10
5.1342651606
 20
5.5833902549
 10
5.1331260949
 20
5.5819252896
 10
5.1318557241
 20
5.58057179
 10
5.1304648677
 20
5.5793415265
 10
5.1289654046
 20
5.5782452293
 10
5.1273701701
 20
5.5772924896
 10
5.1256928427
 20
5.5764916721
 10
5.1239478349
 20
5.5758498452
 10
5.1234693017
 20
5.5757052438
  0
LWPOLYLINE
  5
256
100
AcDbEntity
  8
ALL_ASSEMBLY_MEMBERS
100
AcDbPolyline
 62
7
  6
CONTINUOUS
 90
17
 70
0
 10
4.4538511633
 20
4.9066555418
 10
4.4512873915
 20
4.9059213243
 10
4.448531986
 20
4.9048870715
 10
4.4458731781
 20
4.9036249591
 10
4.4433297753
 20
4.9021439036
 10
4.4409197743
 20
4.9004543741
 10
4.4386602233
 20
4.8985683127
 10
4.4365671051
 20
4.8964990503
 10
4.4346552301
 20
4.8942612177
 10
4.4329381255
 20
4.891870638
 10
4.4314279392
 20
4.8893442122
 10
4.4301353569
 20
4.8866998024
 10
4.4290695269
 20
4.8839561072
 10
4.4282379947
 20
4.8811325292
 10
4.4276466484
 20
4.8782490364
 10
4.4272996781
 20
4.8753260216
 10
4.4271995809
 20
4.8729512623
  0
LWPOLYLINE
  5
257
100
AcDbEntity
  8
ALL_ASSEMBLY_MEMBERS
100
AcDbPolyline
 62
7
  6
CONTINUOUS
 90
13
 70
0
 10
4.453851002
 20
4.8270011712
 10
4.4556795429
 20
4.8264584859
 10
4.4573993697
 20
4.8257664332
 10
4.4590483282
 20
4.8249177653
 10
4.4606120744
 20
4.8239196636
 10
4.4620770397
 20
4.8227805979
 10
4.4634305392
 20
4.8215102272
 10
4.4646608027
 20
4.8201193707
 10
4.4657570999
 20
4.8186199076
 10
4.4667098396
 20
4.8170246732
 10
4.4675106571
 20
4.8153473457
 10
4.468152484
 20
4.813602338
 10
4.4682970854
 20
4.8131238048
  0
LINE
  5
258
100
AcDbEntity
  8
ALL_ASSEMBLY_MEMBERS
100
AcDbLine
 62
7
  6
CONTINUOUS
 10
4.5252280822
 20
5.148323926
 11
4.513498883
 21
5.1596971319
  0
LINE
  5
259
100
AcDbEntity
  8
ALL_ASSEMBLY_MEMBERS
100
AcDbLine
 62
7
  6
CONTINUOUS
 10
4.5481566072
 20
5.1260942735
 11
4.5252280868
 21
5.1483239244
  0
LWPOLYLINE
  5
25A
100
AcDbEntity
  8
ALL_ASSEMBLY_MEMBERS
100
AcDbPolyline
 62
7
  6
CONTINUOUS
 90
17
 70
0
 10
5.1373467869
 20
4.1435056653
 10
5.1380810039
 20
4.1409418946
 10
5.1391152564
 20
4.1381864891
 10
5.1403773685
 20
4.1355276811
 10
5.1418584237
 20
4.1329842784
 10
5.1435479527
 20
4.1305742775
 10
5.1454340136
 20
4.1283147264
 10
5.1475032755
 20
4.1262216082
 10
5.1497411075
 20
4.1243097331
 10
5.1521316865
 20
4.1225926284
 10
5.1546581116
 20
4.1210824419
 10
5.1573025207
 20
4.1197898594
 10
5.1600462152
 20
4.118724029
 10
5.1628697924
 20
4.1178924963
 10
5.1657532844
 20
4.1173011494
 10
5.1686762984
 20
4.1169541785
 10
5.1710510671
 20
4.1168540805
  0
LINE
  5
25B
100
AcDbEntity
  8
ALL_ASSEMBLY_MEMBERS
100
AcDbLine
 62
7
  6
CONTINUOUS
 10
5.1708238649
 20
4.2305057605
 11
5.170865383
 21
4.2127560065
  0
LINE
  5
25C
100
AcDbEntity
  8
ALL_ASSEMBLY_MEMBERS
100
AcDbLine
 62
7
  6
CONTINUOUS
 10
5.170865383
 20
4.2127560065
 11
5.1708976329
 21
4.1981792317
  0
LINE
  5
25D
100
AcDbEntity
  8
ALL_ASSEMBLY_MEMBERS
100
AcDbLine
 62
7
  6
CONTINUOUS
 10
5.1708976329
 20
4.1981792317
 11
5.1709082427
 21
4.1931746638
  0
LINE
  5
25E
100
AcDbEntity
  8
ALL_ASSEMBLY_MEMBERS
100
AcDbLine
 62
7
  6
CONTINUOUS
 10
5.1835418055
 20
5.4965172344
 11
5.1834501932
 21
5.5354775812
  0
LINE
  5
25F
100
AcDbEntity
  8
ALL_ASSEMBLY_MEMBERS
100
AcDbLine
 62
7
  6
CONTINUOUS
 10
5.1708060206
 20
4.2371395979
 11
5.1710511299
 21
4.1168540191
  0
LINE
  5
260
100
AcDbEntity
  8
ALL_ASSEMBLY_MEMBERS
100
AcDbLine
 62
7
  6
CONTINUOUS
 10
5.1709082427
 20
4.1931746638
 11
5.1709595714
 21
4.1678246012
  0
LINE
  5
261
100
AcDbEntity
  8
ALL_ASSEMBLY_MEMBERS
100
AcDbLine
 62
7
  6
CONTINUOUS
 10
5.1835341951
 20
5.4991152853
 11
5.1832966962
 21
5.6168028132
  0
LINE
  5
262
100
AcDbEntity
  8
ALL_ASSEMBLY_MEMBERS
100
AcDbLine
 62
7
  6
CONTINUOUS
 10
5.1709595714
 20
4.1678246012
 11
5.1709879758
 21
4.1527060027
  0
LWPOLYLINE
  5
263
100
AcDbEntity
  8
ALL_ASSEMBLY_MEMBERS
100
AcDbPolyline
 62
7
  6
CONTINUOUS
 90
4
 70
0
 10
5.1709879758
 20
4.1527060027
 10
5.170996688
 20
4.1478187642
 10
5.171005024
 20
4.1430657474
 10
5.1710133438
 20
4.138516413
  0
LWPOLYLINE
  5
264
100
AcDbEntity
  8
ALL_ASSEMBLY_MEMBERS
100
AcDbPolyline
 62
7
  6
CONTINUOUS
 90
4
 70
0
 10
5.1833693326
 20
5.5759653676
 10
5.1833511382
 20
5.5858380312
 10
5.1833428022
 20
5.5905910478
 10
5.1833344823
 20
5.5951403828
  0
LINE
  5
265
100
AcDbEntity
  8
ALL_ASSEMBLY_MEMBERS
100
AcDbLine
 62
7
  6
CONTINUOUS
 10
5.1834501932
 20
5.5354775812
 11
5.1833693326
 21
5.5759653676
  0
LINE
  5
266
100
AcDbEntity
  8
ALL_ASSEMBLY_MEMBERS
100
AcDbLine
 62
7
  6
CONTINUOUS
 10
5.137231679
 20
4.2181016073
 11
5.1372608965
 21
4.2011650976
  0
LINE
  5
267
100
AcDbEntity
  8
ALL_ASSEMBLY_MEMBERS
100
AcDbLine
 62
7
  6
CONTINUOUS
 10
5.1371887407
 20
4.2408324814
 11
5.1373466695
 21
4.1435059215
  0
LINE
  5
268
100
AcDbEntity
  8
ALL_ASSEMBLY_MEMBERS
100
AcDbLine
 62
7
  6
CONTINUOUS
 10
5.1710133438
 20
4.138516413
 11
5.1710388578
 21
4.1236960074
  0
LINE
  5
269
100
AcDbEntity
  8
ALL_ASSEMBLY_MEMBERS
100
AcDbLine
 62
7
  6
CONTINUOUS
 10
5.1710388578
 20
4.1236960074
 11
5.1710506004
 21
4.1169890761
  0
LWPOLYLINE
  5
26A
100
AcDbEntity
  8
ALL_ASSEMBLY_MEMBERS
100
AcDbPolyline
 62
7
  6
CONTINUOUS
 90
3
 70
0
 10
5.1372679409
 20
4.1968581908
 10
5.1373015123
 20
4.1753556102
 10
5.1373194067
 20
4.1631500845
  0
LINE
  5
26B
100
AcDbEntity
  8
ALL_ASSEMBLY_MEMBERS
100
AcDbLine
 62
7
  6
CONTINUOUS
 10
5.1373194067
 20
4.1631500845
 11
5.1373432922
 21
4.1458737375
  0
LINE
  5
26C
100
AcDbEntity
  8
ALL_ASSEMBLY_MEMBERS
100
AcDbLine
 62
7
  6
CONTINUOUS
 10
5.1373432922
 20
4.1458737375
 11
5.1373462706
 21
4.1437352918
  0
LINE
  5
26D
100
AcDbEntity
  8
ALL_ASSEMBLY_MEMBERS
100
AcDbLine
 62
7
  6
CONTINUOUS
 10
5.0679527137
 20
5.5703704343
 11
5.0679527137
 21
5.5735899853
  0
LINE
  5
26E
100
AcDbEntity
  8
ALL_ASSEMBLY_MEMBERS
100
AcDbLine
 62
7
  6
CONTINUOUS
 10
5.0686245989
 20
5.4741944718
 11
5.0686245989
 21
5.4784051953
  0
LINE
  5
26F
100
AcDbEntity
  8
ALL_ASSEMBLY_MEMBERS
100
AcDbLine
 62
7
  6
CONTINUOUS
 10
5.0805505795
 20
5.4803722732
 11
5.0805505795
 21
5.4797037033
  0
LINE
  5
270
100
AcDbEntity
  8
ALL_ASSEMBLY_MEMBERS
100
AcDbLine
 62
7
  6
CONTINUOUS
 10
5.0851697942
 20
5.4919535765
 11
5.0851697942
 21
5.5666578611
  0
LINE
  5
271
100
AcDbEntity
  8
ALL_ASSEMBLY_MEMBERS
100
AcDbLine
 62
7
  6
CONTINUOUS
 10
5.098173913
 20
4.1915811968
 11
5.098173913
 21
4.6288284161
  0
LINE
  5
272
100
AcDbEntity
  8
ALL_ASSEMBLY_MEMBERS
100
AcDbLine
 62
7
  6
CONTINUOUS
 10
5.098173913
 20
5.1048284161
 11
5.098173913
 21
5.5420747051
  0
LINE
  5
273
100
AcDbEntity
  8
ALL_ASSEMBLY_MEMBERS
100
AcDbLine
 62
7
  6
CONTINUOUS
 10
5.0998673043
 20
5.5527210369
 11
5.0998673043
 21
5.5903241809
  0
LINE
  5
274
100
AcDbEntity
  8
ALL_ASSEMBLY_MEMBERS
100
AcDbLine
 62
7
  6
CONTINUOUS
 10
5.1234695183
 20
4.1862809193
 11
5.1234692957
 21
4.191772376
  0
LINE
  5
275
100
AcDbEntity
  8
ALL_ASSEMBLY_MEMBERS
100
AcDbLine
 62
7
  6
CONTINUOUS
 10
5.123469343
 20
4.1592603409
 11
5.1234693
 21
4.1607642164
  0
LINE
  5
276
100
AcDbEntity
  8
ALL_ASSEMBLY_MEMBERS
100
AcDbLine
 62
7
  6
CONTINUOUS
 10
5.1234693512
 20
5.5439824176
 11
5.1234695132
 21
5.5494315367
  0
LINE
  5
277
100
AcDbEntity
  8
ALL_ASSEMBLY_MEMBERS
100
AcDbLine
 62
7
  6
CONTINUOUS
 10
5.1234693676
 20
5.1081261333
 11
5.1234693673
 21
5.5757051778
  0
LINE
  5
278
100
AcDbEntity
  8
ALL_ASSEMBLY_MEMBERS
100
AcDbLine
 62
7
  6
CONTINUOUS
 10
5.1234693096
 20
4.1579515863
 11
5.1234693676
 21
4.6255306987
  0
LINE
  5
279
100
AcDbEntity
  8
ALL_ASSEMBLY_MEMBERS
100
AcDbLine
 62
7
  6
CONTINUOUS
 10
5.1234695932
 20
5.5319854037
 11
5.1234693798
 21
5.5381526416
  0
LINE
  5
27A
100
AcDbEntity
  8
ALL_ASSEMBLY_MEMBERS
100
AcDbLine
 62
7
  6
CONTINUOUS
 10
5.1234693664
 20
5.5694231465
 11
5.1234692845
 21
5.5718010856
  0
LINE
  5
27B
100
AcDbEntity
  8
ALL_ASSEMBLY_MEMBERS
100
AcDbLine
 62
7
  6
CONTINUOUS
 10
5.1234696681
 20
5.5124065108
 11
5.1234693285
 21
5.519063755
  0
LINE
  5
27C
100
AcDbEntity
  8
ALL_ASSEMBLY_MEMBERS
100
AcDbLine
 62
7
  6
CONTINUOUS
 10
5.1234693675
 20
5.5748766545
 11
5.1234693241
 21
5.5757052502
  0
LINE
  5
27D
100
AcDbEntity
  8
ALL_ASSEMBLY_MEMBERS
100
AcDbLine
 62
7
  6
CONTINUOUS
 10
5.137186175
 20
5.4900738988
 11
5.1371861799
 21
5.1040624246
  0
LINE
  5
27E
100
AcDbEntity
  8
ALL_ASSEMBLY_MEMBERS
100
AcDbLine
 62
7
  6
CONTINUOUS
 10
5.1371861819
 20
4.629594407
 11
5.137186175
 21
4.2435829335
  0
LINE
  5
27F
100
AcDbEntity
  8
ALL_ASSEMBLY_MEMBERS
100
AcDbLine
 62
7
  6
CONTINUOUS
 10
5.1708060015
 20
4.3305813579
 11
5.1708096234
 21
4.3003635871
  0
LINE
  5
280
100
AcDbEntity
  8
ALL_ASSEMBLY_MEMBERS
100
AcDbLine
 62
7
  6
CONTINUOUS
 10
5.1708060207
 20
5.4965172337
 11
5.1708059418
 21
5.1065143024
  0
LINE
  5
281
100
AcDbEntity
  8
ALL_ASSEMBLY_MEMBERS
100
AcDbLine
 62
7
  6
CONTINUOUS
 10
5.170806001
 20
4.6271417771
 11
5.1708060206
 21
4.2371395979
  0
LINE
  5
282
100
AcDbEntity
  8
ALL_ASSEMBLY_MEMBERS
100
AcDbLine
 62
7
  6
CONTINUOUS
 10
5.1835418251
 20
5.106515053
 11
5.1835418055
 21
5.4965172344
  0
LINE
  5
283
100
AcDbEntity
  8
ALL_ASSEMBLY_MEMBERS
100
AcDbLine
 62
7
  6
CONTINUOUS
 10
5.1835418054
 20
4.2371395986
 11
5.1835418843
 21
4.6271425299
  0
LINE
  5
284
100
AcDbEntity
  8
ALL_ASSEMBLY_MEMBERS
100
AcDbLine
 62
7
  6
CONTINUOUS
 10
5.1835418245
 20
5.3181551661
 11
5.1835397322
 21
5.3455796354
  0
LINE
  5
285
100
AcDbEntity
  8
ALL_ASSEMBLY_MEMBERS
100
AcDbLine
 62
7
  6
CONTINUOUS
 10
5.1835418242
 20
5.2409025181
 11
5.1835386732
 21
5.2658560051
  0
LINE
  5
286
100
AcDbEntity
  8
ALL_ASSEMBLY_MEMBERS
100
AcDbLine
 62
7
  6
CONTINUOUS
 10
5.1835418246
 20
5.4030754738
 11
5.1835382027
 21
5.4332932448
  0
LINE
  5
287
100
AcDbEntity
  8
ALL_ASSEMBLY_MEMBERS
100
AcDbLine
 62
7
  6
CONTINUOUS
 10
5.1708096548
 20
5.4334402446
 11
5.1708060016
 21
5.4032766699
  0
LINE
  5
288
100
AcDbEntity
  8
ALL_ASSEMBLY_MEMBERS
100
AcDbLine
 62
7
  6
CONTINUOUS
 10
5.1708060102
 20
5.2918655199
 11
5.1708060017
 21
5.2411727273
  0
LINE
  5
289
100
AcDbEntity
  8
ALL_ASSEMBLY_MEMBERS
100
AcDbLine
 62
7
  6
CONTINUOUS
 10
5.1708059504
 20
5.3740890985
 11
5.1708060017
 21
5.3184400085
  0
LINE
  5
28A
100
AcDbEntity
  8
ALL_ASSEMBLY_MEMBERS
100
AcDbLine
 62
7
  6
CONTINUOUS
 10
5.1835418757
 20
4.3595677338
 11
5.1835418243
 21
4.4152168238
  0
LWPOLYLINE
  5
28B
100
AcDbEntity
  8
ALL_ASSEMBLY_MEMBERS
100
AcDbPolyline
 62
7
  6
CONTINUOUS
 90
3
 70
0
 10
5.1835418159
 20
4.4417913124
 10
5.1835418244
 20
4.492484105
 10
5.1835365377
 20
4.5401330571
  0
LINE
  5
28C
100
AcDbEntity
  8
ALL_ASSEMBLY_MEMBERS
100
AcDbLine
 62
7
  6
CONTINUOUS
 10
5.1835381713
 20
4.3002165877
 11
5.1835418245
 21
4.3303801624
  0
LWPOLYLINE
  5
28D
100
AcDbEntity
  8
ALL_ASSEMBLY_MEMBERS
100
AcDbPolyline
 62
7
  6
CONTINUOUS
 90
5
 70
0
 10
5.1708112884
 20
5.1935237752
 10
5.1708060017
 20
5.1707637095
 10
5.170794034
 20
5.1486572308
 10
5.1707913527
 20
5.1272395186
 10
5.1708059418
 20
5.1065143024
  0
LWPOLYLINE
  5
28E
100
AcDbEntity
  8
ALL_ASSEMBLY_MEMBERS
100
AcDbPolyline
 62
7
  6
CONTINUOUS
 90
5
 70
0
 10
5.1835365377
 20
4.5401330571
 10
5.1835418244
 20
4.5628931228
 10
5.1835537921
 20
4.5849996015
 10
5.1835564734
 20
4.6064173137
 10
5.1835418843
 20
4.6271425299
  0
LWPOLYLINE
  5
28F
100
AcDbEntity
  8
ALL_ASSEMBLY_MEMBERS
100
AcDbPolyline
 62
7
  6
CONTINUOUS
 90
4
 70
0
 10
5.170806001
 20
4.6271417771
 10
5.1707916294
 20
4.6064814331
 10
5.1707942411
 20
4.5851207028
 10
5.1708060017
 20
4.5630633165
  0
LWPOLYLINE
  5
290
100
AcDbEntity
  8
ALL_ASSEMBLY_MEMBERS
100
AcDbPolyline
 62
7
  6
CONTINUOUS
 90
4
 70
0
 10
5.1835418251
 20
5.106515053
 10
5.1835561967
 20
5.1271753972
 10
5.183553585
 20
5.1485361275
 10
5.1835418243
 20
5.1705935139
  0
LINE
  5
291
100
AcDbEntity
  8
ALL_ASSEMBLY_MEMBERS
100
AcDbLine
 62
7
  6
CONTINUOUS
 10
5.137346644
 20
5.5901512287
 11
5.1373384866
 21
5.584218081
  0
LINE
  5
292
100
AcDbEntity
  8
ALL_ASSEMBLY_MEMBERS
100
AcDbLine
 62
7
  6
CONTINUOUS
 10
5.137330299
 20
5.5783997322
 11
5.1372582708
 21
5.5309409874
  0
LINE
  5
293
100
AcDbEntity
  8
ALL_ASSEMBLY_MEMBERS
100
AcDbLine
 62
7
  6
CONTINUOUS
 10
5.1373466824
 20
5.5901512997
 11
5.1371887408
 21
5.4928243511
  0
LINE
  5
294
100
AcDbEntity
  8
ALL_ASSEMBLY_MEMBERS
100
AcDbLine
 62
7
  6
CONTINUOUS
 10
5.183333586
 20
4.1377864332
 11
5.1833416057
 21
4.1424926348
  0
LINE
  5
295
100
AcDbEntity
  8
ALL_ASSEMBLY_MEMBERS
100
AcDbLine
 62
7
  6
CONTINUOUS
 10
5.1372582708
 20
5.5309409874
 11
5.1372192658
 21
5.5087238307
  0
LINE
  5
296
100
AcDbEntity
  8
ALL_ASSEMBLY_MEMBERS
100
AcDbLine
 62
7
  6
CONTINUOUS
 10
5.1710142992
 20
5.5959042558
 11
5.1709879739
 21
5.58112775
  0
LINE
  5
297
100
AcDbEntity
  8
ALL_ASSEMBLY_MEMBERS
100
AcDbLine
 62
7
  6
CONTINUOUS
 10
5.1833599142
 20
4.1525632348
 11
5.1833792436
 21
4.1631380495
  0
LINE
  5
298
100
AcDbEntity
  8
ALL_ASSEMBLY_MEMBERS
100
AcDbLine
 62
7
  6
CONTINUOUS
 10
5.1833416057
 20
4.1424926348
 11
5.1833599142
 21
4.1525632348
  0
LINE
  5
299
100
AcDbEntity
  8
ALL_ASSEMBLY_MEMBERS
100
AcDbLine
 62
7
  6
CONTINUOUS
 10
5.1833792436
 20
4.1631380495
 11
5.1834329261
 21
4.1900022292
  0
LINE
  5
29A
100
AcDbEntity
  8
ALL_ASSEMBLY_MEMBERS
100
AcDbLine
 62
7
  6
CONTINUOUS
 10
5.1708694645
 20
5.522697955
 11
5.1708466038
 21
5.5127922381
  0
LWPOLYLINE
  5
29B
100
AcDbEntity
  8
ALL_ASSEMBLY_MEMBERS
100
AcDbPolyline
 62
7
  6
CONTINUOUS
 90
4
 70
0
 10
5.1709879739
 20
5.58112775
 10
5.1708922291
 20
5.533042385
 10
5.1708808637
 20
5.5278272408
 10
5.1708694645
 20
5.522697955
  0
LINE
  5
29C
100
AcDbEntity
  8
ALL_ASSEMBLY_MEMBERS
100
AcDbLine
 62
7
  6
CONTINUOUS
 10
5.1834329261
 20
4.1900022292
 11
5.1834669952
 21
4.2058444134
  0
LWPOLYLINE
  5
29D
100
AcDbEntity
  8
ALL_ASSEMBLY_MEMBERS
100
AcDbPolyline
 62
7
  6
CONTINUOUS
 90
3
 70
0
 10
5.1834669952
 20
4.2058444134
 10
5.1834783897
 20
4.2109712822
 10
5.1835012398
 20
4.2208720697
  0
LINE
  5
29E
100
AcDbEntity
  8
ALL_ASSEMBLY_MEMBERS
100
AcDbLine
 62
7
  6
CONTINUOUS
 10
5.1710511102
 20
5.6168032836
 11
5.1708060207
 21
5.4965172337
  0
LINE
  5
29F
100
AcDbEntity
  8
ALL_ASSEMBLY_MEMBERS
100
AcDbLine
 62
7
  6
CONTINUOUS
 10
5.1832967158
 20
4.1168535527
 11
5.1835418054
 21
4.2371395986
  0
LINE
  5
2A0
100
AcDbEntity
  8
ALL_ASSEMBLY_MEMBERS
100
AcDbLine
 62
7
  6
CONTINUOUS
 10
5.5787960464
 20
5.3551863104
 11
5.6261631979
 21
5.4116362833
  0
LINE
  5
2A1
100
AcDbEntity
  8
ALL_ASSEMBLY_MEMBERS
100
AcDbLine
 62
7
  6
CONTINUOUS
 10
5.6357387534
 20
5.4036014382
 11
5.588371602
 21
5.3471514653
  0
LINE
  5
2A2
100
AcDbEntity
  8
ALL_ASSEMBLY_MEMBERS
100
AcDbLine
 62
7
  6
CONTINUOUS
 10
4.539116618
 20
4.6413461864
 11
4.5395801589
 21
4.6416138119
  0
LINE
  5
2A3
100
AcDbEntity
  8
ALL_ASSEMBLY_MEMBERS
100
AcDbLine
 62
7
  6
CONTINUOUS
 10
4.5084801834
 20
4.6115977917
 11
4.5090152704
 21
4.6119067243
  0
LINE
  5
2A4
100
AcDbEntity
  8
ALL_ASSEMBLY_MEMBERS
100
AcDbLine
 62
7
  6
CONTINUOUS
 10
4.5476968817
 20
4.6266133956
 11
4.5482476394
 21
4.6269313757
  0
LINE
  5
2A5
100
AcDbEntity
  8
ALL_ASSEMBLY_MEMBERS
100
AcDbLine
 62
7
  6
CONTINUOUS
 10
4.5846088318
 20
4.6422179062
 11
4.5851679615
 21
4.6425407199
  0
LINE
  5
2A6
100
AcDbEntity
  8
ALL_ASSEMBLY_MEMBERS
100
AcDbLine
 62
7
  6
CONTINUOUS
 10
4.6240698997
 20
4.577123208
 11
4.624859832
 21
4.5775792756
  0
LINE
  5
2A7
100
AcDbEntity
  8
ALL_ASSEMBLY_MEMBERS
100
AcDbLine
 62
7
  6
CONTINUOUS
 10
4.6314290755
 20
4.5668252677
 11
4.6322307176
 21
4.5672880959
  0
LINE
  5
2A8
100
AcDbEntity
  8
ALL_ASSEMBLY_MEMBERS
100
AcDbLine
 62
7
  6
CONTINUOUS
 10
4.5510504893
 20
4.5040293211
 11
4.5518562129
 21
4.5044945059
  0
LINE
  5
2A9
100
AcDbEntity
  8
ALL_ASSEMBLY_MEMBERS
100
AcDbLine
 62
7
  6
CONTINUOUS
 10
4.6481060422
 20
4.5379532937
 11
4.6489018907
 21
4.5384127771
  0
LINE
  5
2AA
100
AcDbEntity
  8
ALL_ASSEMBLY_MEMBERS
100
AcDbLine
 62
7
  6
CONTINUOUS
 10
5.7801391652
 20
4.9882496775
 11
5.779281386
 21
4.9880198363
  0
LINE
  5
2AB
100
AcDbEntity
  8
ALL_ASSEMBLY_MEMBERS
100
AcDbLine
 62
7
  6
CONTINUOUS
 10
5.8535391664
 20
5.022089756
 11
5.8526556381
 21
5.0218530153
  0
LINE
  5
2AC
100
AcDbEntity
  8
ALL_ASSEMBLY_MEMBERS
100
AcDbLine
 62
7
  6
CONTINUOUS
 10
5.7835670478
 20
5.0157744113
 11
5.7826729295
 21
5.015534833
  0
LINE
  5
2AD
100
AcDbEntity
  8
ALL_ASSEMBLY_MEMBERS
100
AcDbLine
 62
7
  6
CONTINUOUS
 10
4.4760907774
 20
4.7992177156
 11
4.4744532078
 21
4.7990744468
  0
LINE
  5
2AE
100
AcDbEntity
  8
ALL_ASSEMBLY_MEMBERS
100
AcDbLine
 62
7
  6
CONTINUOUS
 10
5.8134965727
 20
4.860478368
 11
5.831246345
 21
4.8605198862
  0
LINE
  5
2AF
100
AcDbEntity
  8
ALL_ASSEMBLY_MEMBERS
100
AcDbLine
 62
7
  6
CONTINUOUS
 10
5.831246345
 20
4.8605198862
 11
5.8458231352
 21
4.8605521361
  0
LINE
  5
2B0
100
AcDbEntity
  8
ALL_ASSEMBLY_MEMBERS
100
AcDbLine
 62
7
  6
CONTINUOUS
 10
5.8458231352
 20
4.8605521361
 11
5.8508277082
 21
4.8605627459
  0
LINE
  5
2B1
100
AcDbEntity
  8
ALL_ASSEMBLY_MEMBERS
100
AcDbLine
 62
7
  6
CONTINUOUS
 10
4.5474850948
 20
4.8731963086
 11
4.508507672
 21
4.8731046595
  0
LINE
  5
2B2
100
AcDbEntity
  8
ALL_ASSEMBLY_MEMBERS
100
AcDbLine
 62
7
  6
CONTINUOUS
 10
5.8068627312
 20
4.8604605237
 11
5.9271483101
 21
4.860705633
  0
LINE
  5
2B3
100
AcDbEntity
  8
ALL_ASSEMBLY_MEMBERS
100
AcDbLine
 62
7
  6
CONTINUOUS
 10
5.8508277082
 20
4.8605627459
 11
5.8761777956
 21
4.8606140746
  0
LINE
  5
2B4
100
AcDbEntity
  8
ALL_ASSEMBLY_MEMBERS
100
AcDbLine
 62
7
  6
CONTINUOUS
 10
4.5448870439
 20
4.8731886982
 11
4.4271995165
 21
4.8729511992
  0
LINE
  5
2B5
100
AcDbEntity
  8
ALL_ASSEMBLY_MEMBERS
100
AcDbLine
 62
7
  6
CONTINUOUS
 10
5.8761777956
 20
4.8606140746
 11
5.8912964062
 21
4.860642479
  0
LWPOLYLINE
  5
2B6
100
AcDbEntity
  8
ALL_ASSEMBLY_MEMBERS
100
AcDbPolyline
 62
7
  6
CONTINUOUS
 90
4
 70
0
 10
5.8912964062
 20
4.860642479
 10
5.8961836472
 20
4.8606511912
 10
5.9009366653
 20
4.8606595273
 10
5.9054859997
 20
4.8606678471
  0
LWPOLYLINE
  5
2B7
100
AcDbEntity
  8
ALL_ASSEMBLY_MEMBERS
100
AcDbPolyline
 62
7
  6
CONTINUOUS
 90
4
 70
0
 10
4.4680061351
 20
4.8730237788
 10
4.458131712
 20
4.8730055827
 10
4.4533785807
 20
4.8729972478
 10
4.4488297292
 20
4.8729889298
  0
LINE
  5
2B8
100
AcDbEntity
  8
ALL_ASSEMBLY_MEMBERS
100
AcDbLine
 62
7
  6
CONTINUOUS
 10
4.508507672
 20
4.8731046595
 11
4.4680061351
 21
4.8730237788
  0
LINE
  5
2B9
100
AcDbEntity
  8
ALL_ASSEMBLY_MEMBERS
100
AcDbLine
 62
7
  6
CONTINUOUS
 10
5.8259007218
 20
4.8268861822
 11
5.8428372316
 21
4.8269153996
  0
LINE
  5
2BA
100
AcDbEntity
  8
ALL_ASSEMBLY_MEMBERS
100
AcDbLine
 62
7
  6
CONTINUOUS
 10
5.8031698478
 20
4.8268432438
 11
5.9004964076
 21
4.8270011726
  0
LINE
  5
2BB
100
AcDbEntity
  8
ALL_ASSEMBLY_MEMBERS
100
AcDbLine
 62
7
  6
CONTINUOUS
 10
5.9054859997
 20
4.8606678471
 11
5.920306386
 21
4.8606933611
  0
LINE
  5
2BC
100
AcDbEntity
  8
ALL_ASSEMBLY_MEMBERS
100
AcDbLine
 62
7
  6
CONTINUOUS
 10
5.920306386
 20
4.8606933611
 11
5.9270132643
 21
4.8607051036
  0
LWPOLYLINE
  5
2BD
100
AcDbEntity
  8
ALL_ASSEMBLY_MEMBERS
100
AcDbPolyline
 62
7
  6
CONTINUOUS
 90
3
 70
0
 10
5.8471441384
 20
4.826922444
 10
5.868646719
 20
4.8269560154
 10
5.8808522447
 20
4.8269739098
  0
LINE
  5
2BE
100
AcDbEntity
  8
ALL_ASSEMBLY_MEMBERS
100
AcDbLine
 62
7
  6
CONTINUOUS
 10
5.8808522447
 20
4.8269739098
 11
5.8981285917
 21
4.8269977953
  0
LINE
  5
2BF
100
AcDbEntity
  8
ALL_ASSEMBLY_MEMBERS
100
AcDbLine
 62
7
  6
CONTINUOUS
 10
5.8981285917
 20
4.8269977953
 11
5.9002670374
 21
4.8270007737
  0
LINE
  5
2C0
100
AcDbEntity
  8
ALL_ASSEMBLY_MEMBERS
100
AcDbLine
 62
7
  6
CONTINUOUS
 10
5.8524211323
 20
4.7878284161
 11
5.415173913
 21
4.7878284161
  0
LINE
  5
2C1
100
AcDbEntity
  8
ALL_ASSEMBLY_MEMBERS
100
AcDbLine
 62
7
  6
CONTINUOUS
 10
4.939173913
 20
4.7878284161
 11
4.5019276241
 21
4.7878284161
  0
LINE
  5
2C2
100
AcDbEntity
  8
ALL_ASSEMBLY_MEMBERS
100
AcDbLine
 62
7
  6
CONTINUOUS
 10
5.8577214099
 20
4.8131240214
 11
5.8522299532
 21
4.8131237988
  0
LINE
  5
2C3
100
AcDbEntity
  8
ALL_ASSEMBLY_MEMBERS
100
AcDbLine
 62
7
  6
CONTINUOUS
 10
5.8847419883
 20
4.8131238461
 11
5.8832381128
 21
4.8131238031
  0
LINE
  5
2C4
100
AcDbEntity
  8
ALL_ASSEMBLY_MEMBERS
100
AcDbLine
 62
7
  6
CONTINUOUS
 10
4.5000199118
 20
4.8131238543
 11
4.4945707927
 21
4.8131240163
  0
LINE
  5
2C5
100
AcDbEntity
  8
ALL_ASSEMBLY_MEMBERS
100
AcDbLine
 62
7
  6
CONTINUOUS
 10
4.9358761959
 20
4.8131238707
 11
4.4682971514
 21
4.8131238704
  0
LINE
  5
2C6
100
AcDbEntity
  8
ALL_ASSEMBLY_MEMBERS
100
AcDbLine
 62
7
  6
CONTINUOUS
 10
5.8860507429
 20
4.8131238127
 11
5.4184716305
 21
4.8131238707
  0
LINE
  5
2C7
100
AcDbEntity
  8
ALL_ASSEMBLY_MEMBERS
100
AcDbLine
 62
7
  6
CONTINUOUS
 10
4.5120169257
 20
4.8131240963
 11
4.5058496878
 21
4.8131238829
  0
LINE
  5
2C8
100
AcDbEntity
  8
ALL_ASSEMBLY_MEMBERS
100
AcDbLine
 62
7
  6
CONTINUOUS
 10
4.4745791829
 20
4.8131238695
 11
4.4722012438
 21
4.8131237876
  0
LINE
  5
2C9
100
AcDbEntity
  8
ALL_ASSEMBLY_MEMBERS
100
AcDbLine
 62
7
  6
CONTINUOUS
 10
4.5315958185
 20
4.8131241712
 11
4.5249385743
 21
4.8131238316
  0
LINE
  5
2CA
100
AcDbEntity
  8
ALL_ASSEMBLY_MEMBERS
100
AcDbLine
 62
7
  6
CONTINUOUS
 10
4.4691256748
 20
4.8131238706
 11
4.468297079
 21
4.8131238272
  0
LINE
  5
2CB
100
AcDbEntity
  8
ALL_ASSEMBLY_MEMBERS
100
AcDbLine
 62
7
  6
CONTINUOUS
 10
4.5539284304
 20
4.8268406781
 11
4.9399399039
 21
4.826840685
  0
LINE
  5
2CC
100
AcDbEntity
  8
ALL_ASSEMBLY_MEMBERS
100
AcDbLine
 62
7
  6
CONTINUOUS
 10
5.4144079222
 20
4.826840685
 11
5.8004193957
 21
4.8268406781
  0
LINE
  5
2CD
100
AcDbEntity
  8
ALL_ASSEMBLY_MEMBERS
100
AcDbLine
 62
7
  6
CONTINUOUS
 10
5.7134209707
 20
4.8604605046
 11
5.7436387417
 21
4.8604641265
  0
LINE
  5
2CE
100
AcDbEntity
  8
ALL_ASSEMBLY_MEMBERS
100
AcDbLine
 62
7
  6
CONTINUOUS
 10
4.5474850955
 20
4.8604605238
 11
4.9374872737
 21
4.8604605043
  0
LINE
  5
2CF
100
AcDbEntity
  8
ALL_ASSEMBLY_MEMBERS
100
AcDbLine
 62
7
  6
CONTINUOUS
 10
5.4168605499
 20
4.860460504
 11
5.8068627312
 21
4.8604605237
  0
LINE
  5
2D0
100
AcDbEntity
  8
ALL_ASSEMBLY_MEMBERS
100
AcDbLine
 62
7
  6
CONTINUOUS
 10
4.9374872761
 20
4.8731963283
 11
4.5474850948
 21
4.8731963086
  0
LINE
  5
2D1
100
AcDbEntity
  8
ALL_ASSEMBLY_MEMBERS
100
AcDbLine
 62
7
  6
CONTINUOUS
 10
5.8068627306
 20
4.8731963085
 11
5.4168597993
 21
4.8731963874
  0
LINE
  5
2D2
100
AcDbEntity
  8
ALL_ASSEMBLY_MEMBERS
100
AcDbLine
 62
7
  6
CONTINUOUS
 10
4.7258471631
 20
4.8731963276
 11
4.6984226938
 21
4.8731942353
  0
LINE
  5
2D3
100
AcDbEntity
  8
ALL_ASSEMBLY_MEMBERS
100
AcDbLine
 62
7
  6
CONTINUOUS
 10
4.8030998111
 20
4.8731963273
 11
4.7781463241
 21
4.8731931763
  0
LINE
  5
2D4
100
AcDbEntity
  8
ALL_ASSEMBLY_MEMBERS
100
AcDbLine
 62
7
  6
CONTINUOUS
 10
4.6409268554
 20
4.8731963277
 11
4.6107090844
 21
4.8731927058
  0
LINE
  5
2D5
100
AcDbEntity
  8
ALL_ASSEMBLY_MEMBERS
100
AcDbLine
 62
7
  6
CONTINUOUS
 10
4.610561934
 20
4.8604641579
 11
4.6407254399
 21
4.8604605047
  0
LINE
  5
2D6
100
AcDbEntity
  8
ALL_ASSEMBLY_MEMBERS
100
AcDbLine
 62
7
  6
CONTINUOUS
 10
4.7521363574
 20
4.8604605133
 11
4.8028290561
 21
4.8604605048
  0
LINE
  5
2D7
100
AcDbEntity
  8
ALL_ASSEMBLY_MEMBERS
100
AcDbLine
 62
7
  6
CONTINUOUS
 10
4.6699129471
 20
4.8604604535
 11
4.7255619212
 21
4.8604605048
  0
LINE
  5
2D8
100
AcDbEntity
  8
ALL_ASSEMBLY_MEMBERS
100
AcDbLine
 62
7
  6
CONTINUOUS
 10
5.6844345954
 20
4.8731963788
 11
5.6287855054
 21
4.8731963274
  0
LWPOLYLINE
  5
2D9
100
AcDbEntity
  8
ALL_ASSEMBLY_MEMBERS
100
AcDbPolyline
 62
7
  6
CONTINUOUS
 90
3
 70
0
 10
5.6022110168
 20
4.873196319
 10
5.5515182242
 20
4.8731963275
 10
5.503869272
 20
4.8731910408
  0
LINE
  5
2DA
100
AcDbEntity
  8
ALL_ASSEMBLY_MEMBERS
100
AcDbLine
 62
7
  6
CONTINUOUS
 10
5.7437857415
 20
4.8731926744
 11
5.7136221668
 21
4.8731963276
  0
LWPOLYLINE
  5
2DB
100
AcDbEntity
  8
ALL_ASSEMBLY_MEMBERS
100
AcDbPolyline
 62
7
  6
CONTINUOUS
 90
5
 70
0
 10
4.8504779266
 20
4.8604657855
 10
4.8732379562
 20
4.8604605048
 10
4.8953444019
 20
4.8604485527
 10
4.9167620842
 20
4.8604458918
 10
4.9374872737
 20
4.8604605043
  0
LWPOLYLINE
  5
2DC
100
AcDbEntity
  8
ALL_ASSEMBLY_MEMBERS
100
AcDbPolyline
 62
7
  6
CONTINUOUS
 90
5
 70
0
 10
5.503869272
 20
4.8731910408
 10
5.4811092064
 20
4.8731963275
 10
5.4590027277
 20
4.8732082952
 10
5.4375850155
 20
4.8732109765
 10
5.4168597993
 20
4.8731963874
  0
LWPOLYLINE
  5
2DD
100
AcDbEntity
  8
ALL_ASSEMBLY_MEMBERS
100
AcDbPolyline
 62
7
  6
CONTINUOUS
 90
4
 70
0
 10
5.4168605499
 20
4.860460504
 10
5.4375208941
 20
4.8604461325
 10
5.4588816244
 20
4.8604487442
 10
5.4809390108
 20
4.8604605049
  0
LWPOLYLINE
  5
2DE
100
AcDbEntity
  8
ALL_ASSEMBLY_MEMBERS
100
AcDbPolyline
 62
7
  6
CONTINUOUS
 90
4
 70
0
 10
4.9374872761
 20
4.8731963283
 10
4.916826932
 20
4.8732106998
 10
4.8954662017
 20
4.8732080881
 10
4.8734088153
 20
4.8731963274
  0
LINE
  5
2DF
100
AcDbEntity
  8
ALL_ASSEMBLY_MEMBERS
100
AcDbLine
 62
7
  6
CONTINUOUS
 10
4.4538510993
 20
4.8270011474
 11
4.4598037914
 21
4.8269929645
  0
LINE
  5
2E0
100
AcDbEntity
  8
ALL_ASSEMBLY_MEMBERS
100
AcDbLine
 62
7
  6
CONTINUOUS
 10
4.465628226
 20
4.8269847664
 11
4.513079963
 21
4.8269127427
  0
LINE
  5
2E1
100
AcDbEntity
  8
ALL_ASSEMBLY_MEMBERS
100
AcDbLine
 62
7
  6
CONTINUOUS
 10
4.4538510297
 20
4.8270011846
 11
4.5511779781
 21
4.8268432439
  0
LINE
  5
2E2
100
AcDbEntity
  8
ALL_ASSEMBLY_MEMBERS
100
AcDbLine
 62
7
  6
CONTINUOUS
 10
5.906215766
 20
4.8729880893
 11
5.9015095625
 21
4.8729961091
  0
LINE
  5
2E3
100
AcDbEntity
  8
ALL_ASSEMBLY_MEMBERS
100
AcDbLine
 62
7
  6
CONTINUOUS
 10
4.513079963
 20
4.8269127427
 11
4.5352870894
 21
4.8268737528
  0
LINE
  5
2E4
100
AcDbEntity
  8
ALL_ASSEMBLY_MEMBERS
100
AcDbLine
 62
7
  6
CONTINUOUS
 10
4.4481320212
 20
4.8606687431
 11
4.4629088196
 21
4.8606424149
  0
LINE
  5
2E5
100
AcDbEntity
  8
ALL_ASSEMBLY_MEMBERS
100
AcDbLine
 62
7
  6
CONTINUOUS
 10
5.8914389673
 20
4.8730144175
 11
5.8808641642
 21
4.8730337469
  0
LINE
  5
2E6
100
AcDbEntity
  8
ALL_ASSEMBLY_MEMBERS
100
AcDbLine
 62
7
  6
CONTINUOUS
 10
5.9015095625
 20
4.8729961091
 11
5.8914389673
 21
4.8730144175
  0
LINE
  5
2E7
100
AcDbEntity
  8
ALL_ASSEMBLY_MEMBERS
100
AcDbLine
 62
7
  6
CONTINUOUS
 10
5.8808641642
 20
4.8730337469
 11
5.854000024
 21
4.8730874294
  0
LINE
  5
2E8
100
AcDbEntity
  8
ALL_ASSEMBLY_MEMBERS
100
AcDbLine
 62
7
  6
CONTINUOUS
 10
4.521316806
 20
4.8605239395
 11
4.5312175818
 21
4.8605010894
  0
LWPOLYLINE
  5
2E9
100
AcDbEntity
  8
ALL_ASSEMBLY_MEMBERS
100
AcDbPolyline
 62
7
  6
CONTINUOUS
 90
4
 70
0
 10
4.4629088196
 20
4.8606424149
 10
4.5109771555
 20
4.8605466949
 10
4.5161899431
 20
4.8605353339
 10
4.521316806
 20
4.8605239395
  0
LINE
  5
2EA
100
AcDbEntity
  8
ALL_ASSEMBLY_MEMBERS
100
AcDbLine
 62
7
  6
CONTINUOUS
 10
5.854000024
 20
4.8730874294
 11
5.8381578659
 21
4.8731214984
  0
LWPOLYLINE
  5
2EB
100
AcDbEntity
  8
ALL_ASSEMBLY_MEMBERS
100
AcDbPolyline
 62
7
  6
CONTINUOUS
 90
3
 70
0
 10
5.8381578659
 20
4.8731214984
 10
5.8330310059
 20
4.8731328929
 10
5.8231302357
 20
4.873155743
  0
LINE
  5
2EC
100
AcDbEntity
  8
ALL_ASSEMBLY_MEMBERS
100
AcDbLine
 62
7
  6
CONTINUOUS
 10
4.4271990497
 20
4.8607056134
 11
4.5474850955
 21
4.8604605238
  0
LINE
  5
2ED
100
AcDbEntity
  8
ALL_ASSEMBLY_MEMBERS
100
AcDbLine
 62
7
  6
CONTINUOUS
 10
5.9271487764
 20
4.8729512189
 11
5.8068627306
 21
4.8731963085
  0
LINE
  5
2EE
100
AcDbEntity
  8
ALL_ASSEMBLY_MEMBERS
100
AcDbLine
 62
7
  6
CONTINUOUS
 10
5.8713154064
 20
4.7380861261
 11
5.7987447201
 21
4.7508822961
  0
LINE
  5
2EF
100
AcDbEntity
  8
ALL_ASSEMBLY_MEMBERS
100
AcDbLine
 62
7
  6
CONTINUOUS
 10
5.8009153223
 20
4.763192393
 11
5.8734860086
 21
4.750396223
  0
LINE
  5
2F0
100
AcDbEntity
  8
ALL_ASSEMBLY_MEMBERS
100
AcDbLine
 62
7
  6
CONTINUOUS
 10
4.4743144854
 20
4.9803593227
 11
4.4712525105
 21
4.9813542186
  0
LINE
  5
2F1
100
AcDbEntity
  8
ALL_ASSEMBLY_MEMBERS
100
AcDbLine
 62
7
  6
CONTINUOUS
 10
4.5659908853
 20
4.9512783166
 11
4.5619862492
 21
4.9525795017
  0
LINE
  5
2F2
100
AcDbEntity
  8
ALL_ASSEMBLY_MEMBERS
100
AcDbLine
 62
7
  6
CONTINUOUS
 10
4.5638007777
 20
4.9645296438
 11
4.5644366254
 21
4.9643230443
  0
LINE
  5
2F3
100
AcDbEntity
  8
ALL_ASSEMBLY_MEMBERS
100
AcDbLine
 62
7
  6
CONTINUOUS
 10
4.5542137195
 20
4.9725015975
 11
4.4831657228
 21
4.995586491
  0
LINE
  5
2F4
100
AcDbEntity
  8
ALL_ASSEMBLY_MEMBERS
100
AcDbLine
 62
7
  6
CONTINUOUS
 10
4.5586905355
 20
4.9865008685
 11
4.4651994956
 21
5.0168779488
  0
LINE
  5
2F5
100
AcDbEntity
  8
ALL_ASSEMBLY_MEMBERS
100
AcDbLine
 62
7
  6
CONTINUOUS
 10
4.5805410381
 20
4.9967978577
 11
4.576537867
 21
4.9980985668
  0
LINE
  5
2F6
100
AcDbEntity
  8
ALL_ASSEMBLY_MEMBERS
100
AcDbLine
 62
7
  6
CONTINUOUS
 10
4.5005220242
 20
5.0619179931
 11
4.4974612396
 21
5.0629125023
  0
LINE
  5
2F7
100
AcDbEntity
  8
ALL_ASSEMBLY_MEMBERS
100
AcDbLine
 62
7
  6
CONTINUOUS
 10
4.5921602376
 20
5.0328493982
 11
4.5881576524
 21
5.034149917
  0
LINE
  5
2F8
100
AcDbEntity
  8
ALL_ASSEMBLY_MEMBERS
100
AcDbLine
 62
7
  6
CONTINUOUS
 10
4.580465105
 20
5.0540460287
 11
4.5094404541
 21
5.0771233367
  0
LINE
  5
2F9
100
AcDbEntity
  8
ALL_ASSEMBLY_MEMBERS
100
AcDbLine
 62
7
  6
CONTINUOUS
 10
4.4915375498
 20
5.0983942122
 11
4.5850076649
 21
5.0680239308
  0
LINE
  5
2FA
100
AcDbEntity
  8
ALL_ASSEMBLY_MEMBERS
100
AcDbLine
 62
7
  6
CONTINUOUS
 10
5.6577665887
 20
4.4829783177
 11
5.6570391503
 21
4.4834876755
  0
LINE
  5
2FB
100
AcDbEntity
  8
ALL_ASSEMBLY_MEMBERS
100
AcDbLine
 62
7
  6
CONTINUOUS
 10
5.7308702042
 20
4.4485026378
 11
5.7301209292
 21
4.4490272858
  0
LINE
  5
2FC
100
AcDbEntity
  8
ALL_ASSEMBLY_MEMBERS
100
AcDbLine
 62
7
  6
CONTINUOUS
 10
5.6810551586
 20
4.4980449651
 11
5.6802969028
 21
4.4985759015
  0
LINE
  5
2FD
100
AcDbEntity
  8
ALL_ASSEMBLY_MEMBERS
100
AcDbLine
 62
7
  6
CONTINUOUS
 10
4.7916779223
 20
5.3680136235
 11
4.7473300492
 21
5.4268652388
  0
LINE
  5
2FE
100
AcDbEntity
  8
ALL_ASSEMBLY_MEMBERS
100
AcDbLine
 62
7
  6
CONTINUOUS
 10
4.7573129931
 20
5.4343879266
 11
4.8016608662
 21
5.3755363113
  0
LINE
  5
2FF
100
AcDbEntity
  8
ALL_ASSEMBLY_MEMBERS
100
AcDbLine
 62
7
  6
CONTINUOUS
 10
5.2171590854
 20
5.4928243509
 11
5.2170011566
 21
5.5901509108
  0
LINE
  5
300
100
AcDbEntity
  8
ALL_ASSEMBLY_MEMBERS
100
AcDbLine
 62
7
  6
CONTINUOUS
 10
5.2171161471
 20
5.5155552122
 11
5.2170869296
 21
5.5324917141
  0
LWPOLYLINE
  5
301
100
AcDbEntity
  8
ALL_ASSEMBLY_MEMBERS
100
AcDbPolyline
 62
7
  6
CONTINUOUS
 90
3
 70
0
 10
5.2170463139
 20
5.5583011923
 10
5.2170284195
 20
5.5705067168
 10
5.2170184725
 20
5.5776970721
  0
LINE
  5
302
100
AcDbEntity
  8
ALL_ASSEMBLY_MEMBERS
100
AcDbLine
 62
7
  6
CONTINUOUS
 10
5.2170798852
 20
5.5367986192
 11
5.2170463139
 21
5.5583011923
  0
LINE
  5
303
100
AcDbEntity
  8
ALL_ASSEMBLY_MEMBERS
100
AcDbLine
 62
7
  6
CONTINUOUS
 10
5.2170045339
 20
5.5877830807
 11
5.2170015555
 21
5.5899215361
  0
LINE
  5
304
100
AcDbEntity
  8
ALL_ASSEMBLY_MEMBERS
100
AcDbLine
 62
7
  6
CONTINUOUS
 10
5.2170184725
 20
5.5776970721
 11
5.2170045339
 21
5.5877830807
  0
LINE
  5
305
100
AcDbEntity
  8
ALL_ASSEMBLY_MEMBERS
100
AcDbLine
 62
7
  6
CONTINUOUS
 10
5.2171616442
 20
5.1040624253
 11
5.2171616511
 21
5.4900738988
  0
LINE
  5
306
100
AcDbEntity
  8
ALL_ASSEMBLY_MEMBERS
100
AcDbLine
 62
7
  6
CONTINUOUS
 10
5.2171616511
 20
4.2435829335
 11
5.2171616462
 21
4.6295944077
  0
LINE
  5
307
100
AcDbEntity
  8
ALL_ASSEMBLY_MEMBERS
100
AcDbLine
 62
7
  6
CONTINUOUS
 10
5.2299169727
 20
4.1475478992
 11
5.2299169727
 21
4.1432565198
  0
LINE
  5
308
100
AcDbEntity
  8
ALL_ASSEMBLY_MEMBERS
100
AcDbLine
 62
7
  6
CONTINUOUS
 10
5.2308784597
 20
4.164233686
 11
5.2308785416
 21
4.1618557469
  0
LINE
  5
309
100
AcDbEntity
  8
ALL_ASSEMBLY_MEMBERS
100
AcDbLine
 62
7
  6
CONTINUOUS
 10
5.2308785165
 20
5.575705246
 11
5.2308784585
 21
5.1081261336
  0
LINE
  5
30A
100
AcDbEntity
  8
ALL_ASSEMBLY_MEMBERS
100
AcDbLine
 62
7
  6
CONTINUOUS
 10
5.2308784585
 20
4.625530699
 11
5.2308784588
 21
4.1579516545
  0
LINE
  5
30B
100
AcDbEntity
  8
ALL_ASSEMBLY_MEMBERS
100
AcDbLine
 62
7
  6
CONTINUOUS
 10
5.2308784749
 20
4.1896744149
 11
5.2308783129
 21
4.1842252958
  0
LINE
  5
30C
100
AcDbEntity
  8
ALL_ASSEMBLY_MEMBERS
100
AcDbLine
 62
7
  6
CONTINUOUS
 10
5.2308784831
 20
5.5743964914
 11
5.2308785261
 21
5.5728926159
  0
LWPOLYLINE
  5
30D
100
AcDbEntity
  8
ALL_ASSEMBLY_MEMBERS
100
AcDbPolyline
 62
7
  6
CONTINUOUS
 90
3
 70
0
 10
5.2308784527
 20
4.2080510118
 10
5.2308782328
 20
4.2016714288
 10
5.2308784462
 20
4.1955041909
  0
LINE
  5
30E
100
AcDbEntity
  8
ALL_ASSEMBLY_MEMBERS
100
AcDbLine
 62
7
  6
CONTINUOUS
 10
5.2308783078
 20
5.547375913
 11
5.2308785304
 21
5.5418844563
  0
LINE
  5
30F
100
AcDbEntity
  8
ALL_ASSEMBLY_MEMBERS
100
AcDbLine
 62
7
  6
CONTINUOUS
 10
5.256173913
 20
5.5420756354
 11
5.256173913
 21
5.1048284161
  0
LINE
  5
310
100
AcDbEntity
  8
ALL_ASSEMBLY_MEMBERS
100
AcDbLine
 62
7
  6
CONTINUOUS
 10
5.256173913
 20
4.6288284161
 11
5.256173913
 21
4.1915821272
  0
LINE
  5
311
100
AcDbEntity
  8
ALL_ASSEMBLY_MEMBERS
100
AcDbLine
 62
7
  6
CONTINUOUS
 10
5.2633433077
 20
4.2207908996
 11
5.2633433077
 21
4.1815006284
  0
LINE
  5
312
100
AcDbEntity
  8
ALL_ASSEMBLY_MEMBERS
100
AcDbLine
 62
7
  6
CONTINUOUS
 10
5.2789380461
 20
5.4923100848
 11
5.2789380461
 21
5.4916644575
  0
LINE
  5
313
100
AcDbEntity
  8
ALL_ASSEMBLY_MEMBERS
100
AcDbLine
 62
7
  6
CONTINUOUS
 10
5.2838801185
 20
5.5320790267
 11
5.2838801185
 21
5.5314430665
  0
LINE
  5
314
100
AcDbEntity
  8
ALL_ASSEMBLY_MEMBERS
100
AcDbLine
 62
7
  6
CONTINUOUS
 10
5.2904845733
 20
5.5735494856
 11
5.2904845733
 21
5.5729316204
  0
LINE
  5
315
100
AcDbEntity
  8
ALL_ASSEMBLY_MEMBERS
100
AcDbLine
 62
7
  6
CONTINUOUS
 10
5.3009292215
 20
5.5321433576
 11
5.3009292215
 21
5.5316081067
  0
LINE
  5
316
100
AcDbEntity
  8
ALL_ASSEMBLY_MEMBERS
100
AcDbLine
 62
7
  6
CONTINUOUS
 10
5.2308781958
 20
5.5109615147
 11
5.2308784586
 21
5.4865893131
  0
LINE
  5
317
100
AcDbEntity
  8
ALL_ASSEMBLY_MEMBERS
100
AcDbLine
 62
7
  6
CONTINUOUS
 10
5.2308785385
 20
5.5173759644
 11
5.2308781958
 21
5.5109615147
  0
LINE
  5
318
100
AcDbEntity
  8
ALL_ASSEMBLY_MEMBERS
100
AcDbLine
 62
7
  6
CONTINUOUS
 10
5.2308785223
 20
5.5360703159
 11
5.2308784523
 21
5.5237304139
  0
LINE
  5
319
100
AcDbEntity
  8
ALL_ASSEMBLY_MEMBERS
100
AcDbLine
 62
7
  6
CONTINUOUS
 10
5.2308785215
 20
4.1600373106
 11
5.230878502
 21
4.1579515821
  0
LWPOLYLINE
  5
31A
100
AcDbEntity
  8
ALL_ASSEMBLY_MEMBERS
100
AcDbPolyline
 62
7
  6
CONTINUOUS
 90
3
 70
0
 10
5.230879576
 20
4.240818267
 10
5.2308784706
 20
4.2278829936
 10
5.2308784976
 20
4.2145930774
  0
LINE
  5
31B
100
AcDbEntity
  8
ALL_ASSEMBLY_MEMBERS
100
AcDbLine
 62
7
  6
CONTINUOUS
 10
5.2170464579
 20
4.1754459783
 11
5.2170532062
 21
4.1799245549
  0
LINE
  5
31C
100
AcDbEntity
  8
ALL_ASSEMBLY_MEMBERS
100
AcDbLine
 62
7
  6
CONTINUOUS
 10
5.2170011446
 20
4.1435055328
 11
5.2171590853
 21
4.2408324812
  0
LINE
  5
31D
100
AcDbEntity
  8
ALL_ASSEMBLY_MEMBERS
100
AcDbLine
 62
7
  6
CONTINUOUS
 10
5.2170532062
 20
4.1799245549
 11
5.2170895865
 21
4.2027344661
  0
LWPOLYLINE
  5
31E
100
AcDbEntity
  8
ALL_ASSEMBLY_MEMBERS
100
AcDbPolyline
 62
7
  6
CONTINUOUS
 90
3
 70
0
 10
5.2170895865
 20
4.2027344661
 10
5.2171128805
 20
4.2162589013
 10
5.2171206887
 20
4.2206443799
  0
LINE
  5
31F
100
AcDbEntity
  8
ALL_ASSEMBLY_MEMBERS
100
AcDbLine
 62
7
  6
CONTINUOUS
 10
5.2170011818
 20
4.1435056024
 11
5.2170014288
 21
4.143646424
  0
LINE
  5
320
100
AcDbEntity
  8
ALL_ASSEMBLY_MEMBERS
100
AcDbLine
 62
7
  6
CONTINUOUS
 10
4.6706015713
 20
4.5289269943
 11
4.6682431066
 21
4.5275653341
  0
LINE
  5
321
100
AcDbEntity
  8
ALL_ASSEMBLY_MEMBERS
100
AcDbLine
 62
7
  6
CONTINUOUS
 10
4.6813624777
 20
4.5104103136
 11
4.6777172182
 21
4.5083057221
  0
LINE
  5
322
100
AcDbEntity
  8
ALL_ASSEMBLY_MEMBERS
100
AcDbLine
 62
7
  6
CONTINUOUS
 10
4.6743937919
 20
4.4872821951
 11
4.5892615056
 21
4.4381310467
  0
LINE
  5
323
100
AcDbEntity
  8
ALL_ASSEMBLY_MEMBERS
100
AcDbLine
 62
7
  6
CONTINUOUS
 10
4.6818017031
 20
4.4745879318
 11
4.6171058948
 21
4.4372357895
  0
LINE
  5
324
100
AcDbEntity
  8
ALL_ASSEMBLY_MEMBERS
100
AcDbLine
 62
7
  6
CONTINUOUS
 10
4.6941410133
 20
4.4763782262
 11
4.6947200118
 21
4.4767125111
  0
LINE
  5
325
100
AcDbEntity
  8
ALL_ASSEMBLY_MEMBERS
100
AcDbLine
 62
7
  6
CONTINUOUS
 10
4.7054541366
 20
4.4691389247
 11
4.701807543
 21
4.4670335629
  0
LINE
  5
326
100
AcDbEntity
  8
ALL_ASSEMBLY_MEMBERS
100
AcDbLine
 62
7
  6
CONTINUOUS
 10
4.6224992523
 20
4.4204690738
 11
4.6197110394
 21
4.4188592983
  0
LINE
  5
327
100
AcDbEntity
  8
ALL_ASSEMBLY_MEMBERS
100
AcDbLine
 62
7
  6
CONTINUOUS
 10
5.7580233146
 20
5.0634466741
 11
5.7571673913
 21
5.0632173301
  0
LINE
  5
328
100
AcDbEntity
  8
ALL_ASSEMBLY_MEMBERS
100
AcDbLine
 62
7
  6
CONTINUOUS
 10
5.8194438491
 20
5.0806867913
 11
5.8185853875
 21
5.0804567673
  0
LINE
  5
329
100
AcDbEntity
  8
ALL_ASSEMBLY_MEMBERS
100
AcDbLine
 62
7
  6
CONTINUOUS
 10
5.8651730215
 20
5.0949397021
 11
5.8643155849
 21
5.0947099527
  0
LINE
  5
32A
100
AcDbEntity
  8
ALL_ASSEMBLY_MEMBERS
100
AcDbLine
 62
7
  6
CONTINUOUS
 10
4.5511779783
 20
4.9068135885
 11
4.4538514168
 21
4.9066556605
  0
LINE
  5
32B
100
AcDbEntity
  8
ALL_ASSEMBLY_MEMBERS
100
AcDbLine
 62
7
  6
CONTINUOUS
 10
4.5284359353
 20
4.9067706303
 11
4.5114926634
 21
4.9067414028
  0
LWPOLYLINE
  5
32C
100
AcDbEntity
  8
ALL_ASSEMBLY_MEMBERS
100
AcDbPolyline
 62
7
  6
CONTINUOUS
 90
3
 70
0
 10
4.4856750527
 20
4.9067007789
 10
4.4734685776
 20
4.9066828835
 10
4.466280477
 20
4.9066729412
  0
LINE
  5
32D
100
AcDbEntity
  8
ALL_ASSEMBLY_MEMBERS
100
AcDbLine
 62
7
  6
CONTINUOUS
 10
4.507184208
 20
4.906734357
 11
4.4856750527
 21
4.9067007789
  0
LINE
  5
32E
100
AcDbEntity
  8
ALL_ASSEMBLY_MEMBERS
100
AcDbLine
 62
7
  6
CONTINUOUS
 10
4.4562069207
 20
4.9066590187
 11
4.4540769763
 21
4.9066560536
  0
LINE
  5
32F
100
AcDbEntity
  8
ALL_ASSEMBLY_MEMBERS
100
AcDbLine
 62
7
  6
CONTINUOUS
 10
4.466280477
 20
4.9066729412
 11
4.4562069207
 21
4.9066590187
  0
LINE
  5
330
100
AcDbEntity
  8
ALL_ASSEMBLY_MEMBERS
100
AcDbLine
 62
7
  6
CONTINUOUS
 10
4.9399399039
 20
4.9068161473
 11
4.5539284304
 21
4.9068161542
  0
LINE
  5
331
100
AcDbEntity
  8
ALL_ASSEMBLY_MEMBERS
100
AcDbLine
 62
7
  6
CONTINUOUS
 10
5.8004193957
 20
4.9068161542
 11
5.4144079215
 21
4.9068161493
  0
LINE
  5
332
100
AcDbEntity
  8
ALL_ASSEMBLY_MEMBERS
100
AcDbLine
 62
7
  6
CONTINUOUS
 10
5.8797686432
 20
4.9205329628
 11
5.8821465823
 21
4.9205330447
  0
LINE
  5
333
100
AcDbEntity
  8
ALL_ASSEMBLY_MEMBERS
100
AcDbLine
 62
7
  6
CONTINUOUS
 10
4.4682970832
 20
4.9205330196
 11
4.9358761956
 21
4.9205329616
  0
LINE
  5
334
100
AcDbEntity
  8
ALL_ASSEMBLY_MEMBERS
100
AcDbLine
 62
7
  6
CONTINUOUS
 10
5.4184716302
 20
4.9205329616
 11
5.8860506747
 21
4.9205329619
  0
LINE
  5
335
100
AcDbEntity
  8
ALL_ASSEMBLY_MEMBERS
100
AcDbLine
 62
7
  6
CONTINUOUS
 10
5.8543279142
 20
4.920532978
 11
5.8597770333
 21
4.920532816
  0
LINE
  5
336
100
AcDbEntity
  8
ALL_ASSEMBLY_MEMBERS
100
AcDbLine
 62
7
  6
CONTINUOUS
 10
4.4696058377
 20
4.9205329862
 11
4.4711097132
 21
4.9205330292
  0
LWPOLYLINE
  5
337
100
AcDbEntity
  8
ALL_ASSEMBLY_MEMBERS
100
AcDbPolyline
 62
7
  6
CONTINUOUS
 90
3
 70
0
 10
5.8359513174
 20
4.9205329558
 10
5.8423309004
 20
4.920532736
 10
5.8484981383
 20
4.9205329494
  0
LINE
  5
338
100
AcDbEntity
  8
ALL_ASSEMBLY_MEMBERS
100
AcDbLine
 62
7
  6
CONTINUOUS
 10
4.4966264161
 20
4.9205328109
 11
4.5021178727
 21
4.9205330335
  0
LINE
  5
339
100
AcDbEntity
  8
ALL_ASSEMBLY_MEMBERS
100
AcDbLine
 62
7
  6
CONTINUOUS
 10
4.5019266937
 20
4.9458284161
 11
4.939173913
 21
4.9458284161
  0
LINE
  5
33A
100
AcDbEntity
  8
ALL_ASSEMBLY_MEMBERS
100
AcDbLine
 62
7
  6
CONTINUOUS
 10
5.415173913
 20
4.9458284161
 11
5.852420202
 21
4.9458284161
  0
LINE
  5
33B
100
AcDbEntity
  8
ALL_ASSEMBLY_MEMBERS
100
AcDbLine
 62
7
  6
CONTINUOUS
 10
4.5330408144
 20
4.9205326989
 11
4.5574130161
 21
4.9205329617
  0
LINE
  5
33C
100
AcDbEntity
  8
ALL_ASSEMBLY_MEMBERS
100
AcDbLine
 62
7
  6
CONTINUOUS
 10
4.5266263647
 20
4.9205330416
 11
4.5330408144
 21
4.9205326989
  0
LINE
  5
33D
100
AcDbEntity
  8
ALL_ASSEMBLY_MEMBERS
100
AcDbLine
 62
7
  6
CONTINUOUS
 10
4.5079320132
 20
4.9205330254
 11
4.5202719152
 21
4.9205329554
  0
LINE
  5
33E
100
AcDbEntity
  8
ALL_ASSEMBLY_MEMBERS
100
AcDbLine
 62
7
  6
CONTINUOUS
 10
5.8839650186
 20
4.9205330246
 11
5.8860507471
 21
4.9205330051
  0
LWPOLYLINE
  5
33F
100
AcDbEntity
  8
ALL_ASSEMBLY_MEMBERS
100
AcDbPolyline
 62
7
  6
CONTINUOUS
 90
3
 70
0
 10
5.8031840622
 20
4.9205340791
 10
5.8161193355
 20
4.9205329737
 10
5.8294092517
 20
4.9205330007
  0
LINE
  5
340
100
AcDbEntity
  8
ALL_ASSEMBLY_MEMBERS
100
AcDbLine
 62
7
  6
CONTINUOUS
 10
5.8685563188
 20
4.9067009611
 11
5.8640777435
 21
4.9067077093
  0
LINE
  5
341
100
AcDbEntity
  8
ALL_ASSEMBLY_MEMBERS
100
AcDbLine
 62
7
  6
CONTINUOUS
 10
5.9004967964
 20
4.9066556477
 11
5.803169848
 21
4.9068135884
  0
LINE
  5
342
100
AcDbEntity
  8
ALL_ASSEMBLY_MEMBERS
100
AcDbLine
 62
7
  6
CONTINUOUS
 10
5.8640777435
 20
4.9067077093
 11
5.8412678418
 21
4.9067440897
  0
LWPOLYLINE
  5
343
100
AcDbEntity
  8
ALL_ASSEMBLY_MEMBERS
100
AcDbPolyline
 62
7
  6
CONTINUOUS
 90
3
 70
0
 10
5.8412678418
 20
4.9067440897
 10
5.8277434133
 20
4.9067673837
 10
5.8233579371
 20
4.9067751919
  0
LINE
  5
344
100
AcDbEntity
  8
ALL_ASSEMBLY_MEMBERS
100
AcDbLine
 62
7
  6
CONTINUOUS
 10
5.9004967268
 20
4.9066556849
 11
5.9003559018
 21
4.9066559319
  0
LINE
  5
345
100
AcDbEntity
  8
ALL_ASSEMBLY_MEMBERS
100
AcDbLine
 62
7
  6
CONTINUOUS
 10
4.6029275196
 20
5.0795980612
 11
4.6069301228
 21
5.0782975366
  0
LINE
  5
346
100
AcDbEntity
  8
ALL_ASSEMBLY_MEMBERS
100
AcDbLine
 62
7
  6
CONTINUOUS
 10
4.6007715278
 20
5.1127958845
 11
4.6015743923
 21
5.112535018
  0
LINE
  5
347
100
AcDbEntity
  8
ALL_ASSEMBLY_MEMBERS
100
AcDbLine
 62
7
  6
CONTINUOUS
 10
4.6160348707
 20
5.1511956843
 11
4.6166717354
 21
5.1509887544
  0
LINE
  5
348
100
AcDbEntity
  8
ALL_ASSEMBLY_MEMBERS
100
AcDbLine
 62
7
  6
CONTINUOUS
 10
4.5997472315
 20
5.1634641708
 11
4.6003576653
 21
5.1632658288
  0
LINE
  5
349
100
AcDbEntity
  8
ALL_ASSEMBLY_MEMBERS
100
AcDbLine
 62
7
  6
CONTINUOUS
 10
4.5656529245
 20
5.1773679409
 11
4.5662644991
 21
5.1771692283
  0
LINE
  5
34A
100
AcDbEntity
  8
ALL_ASSEMBLY_MEMBERS
100
AcDbLine
 62
7
  6
CONTINUOUS
 10
4.5962282747
 20
5.1790900458
 11
4.596765948
 21
5.1789153452
  0
LWPOLYLINE
  5
34B
100
AcDbEntity
  8
ALL_ASSEMBLY_MEMBERS
100
AcDbPolyline
 62
7
  6
CONTINUOUS
 90
13
 70
0
 10
5.217001158
 20
4.1435055051
 10
5.2175438433
 20
4.145334046
 10
5.218235896
 20
4.1470538728
 10
5.2190845639
 20
4.1487028313
 10
5.2200826656
 20
4.1502665775
 10
5.2212217313
 20
4.1517315428
 10
5.222492102
 20
4.1530850423
 10
5.2238829585
 20
4.1543153058
 10
5.2253824215
 20
4.155411603
 10
5.226977656
 20
4.1563643427
 10
5.2286549834
 20
4.1571651602
 10
5.2303999912
 20
4.1578069872
 10
5.2308785243
 20
4.1579515885
  0
LWPOLYLINE
  5
34C
100
AcDbEntity
  8
ALL_ASSEMBLY_MEMBERS
100
AcDbPolyline
 62
7
  6
CONTINUOUS
 90
17
 70
0
 10
5.9004966639
 20
4.82700129
 10
5.9030604346
 20
4.827735507
 10
5.9058158401
 20
4.8287697595
 10
5.9084746481
 20
4.8300318716
 10
5.9110180508
 20
4.8315129268
 10
5.9134280517
 20
4.8332024558
 10
5.9156876028
 20
4.8350885167
 10
5.917780721
 20
4.8371577786
 10
5.9196925961
 20
4.8393956106
 10
5.9214097008
 20
4.8417861897
 10
5.9229198873
 20
4.8443126148
 10
5.9242124698
 20
4.8469570238
 10
5.9252783002
 20
4.8497007183
 10
5.9261098329
 20
4.8525242955
 10
5.9267011798
 20
4.8554077876
 10
5.9270481507
 20
4.8583308015
 10
5.9271482487
 20
4.8607055703
  0
LINE
  5
34D
100
AcDbEntity
  8
ALL_ASSEMBLY_MEMBERS
100
AcDbLine
 62
7
  6
CONTINUOUS
 10
5.8349226192
 20
5.0332738762
 11
5.8823284336
 21
5.0239782648
  0
LWPOLYLINE
  5
34E
100
AcDbEntity
  8
ALL_ASSEMBLY_MEMBERS
100
AcDbPolyline
 62
7
  6
CONTINUOUS
 90
13
 70
0
 10
5.9004968241
 20
4.9066556611
 10
5.8986682832
 20
4.9071983464
 10
5.8969484564
 20
4.9078903991
 10
5.8952994979
 20
4.908739067
 10
5.8937357517
 20
4.9097371687
 10
5.8922707864
 20
4.9108762344
 10
5.8909172869
 20
4.9121466051
 10
5.8896870234
 20
4.9135374616
 10
5.8885907262
 20
4.9150369247
 10
5.8876379865
 20
4.9166321591
 10
5.886837169
 20
4.9183094866
 10
5.886195342
 20
4.9200544943
 10
5.8860507407
 20
4.9205330275
  0
LINE
  5
34F
100
AcDbEntity
  8
ALL_ASSEMBLY_MEMBERS
100
AcDbLine
 62
7
  6
CONTINUOUS
 10
5.7935911268
 20
4.5363330508
 11
5.7989374231
 21
4.5283285536
  0
LINE
  5
350
100
AcDbEntity
  8
ALL_ASSEMBLY_MEMBERS
100
AcDbLine
 62
7
  6
CONTINUOUS
 10
5.7274712514
 20
4.4699527542
 11
5.7429102107
 21
4.4419938941
  0
LINE
  5
351
100
AcDbEntity
  8
ALL_ASSEMBLY_MEMBERS
100
AcDbLine
 62
7
  6
CONTINUOUS
 10
5.742910207
 20
4.4419938968
 11
5.7508222701
 21
4.4276626897
  0
LWPOLYLINE
  5
352
100
AcDbEntity
  8
ALL_ASSEMBLY_MEMBERS
100
AcDbPolyline
 62
7
  6
CONTINUOUS
 90
17
 70
0
 10
5.2170010391
 20
5.590151167
 10
5.2162668222
 20
5.5927149377
 10
5.2152325697
 20
5.5954703432
 10
5.2139704576
 20
5.5981291512
 10
5.2124894024
 20
5.6006725539
 10
5.2107998734
 20
5.6030825548
 10
5.2089138125
 20
5.6053421059
 10
5.2068445506
 20
5.6074352241
 10
5.2046067186
 20
5.6093470992
 10
5.2022161395
 20
5.6110642039
 10
5.1996897144
 20
5.6125743904
 10
5.1970453054
 20
5.6138669729
 10
5.1943016109
 20
5.6149328033
 10
5.1914780337
 20
5.615764336
 10
5.1885945417
 20
5.6163556829
 10
5.1856715277
 20
5.6167026538
 10
5.1832967589
 20
5.6168027518
  0
LWPOLYLINE
  5
353
100
AcDbEntity
  8
ALL_ASSEMBLY_MEMBERS
100
AcDbPolyline
 62
7
  6
CONTINUOUS
 90
17
 70
0
 10
5.9271487147
 20
4.8729512414
 10
5.9270485646
 20
4.8753266925
 10
5.9267015318
 20
4.8782497243
 10
5.9261101204
 20
4.8811332248
 10
5.9252785218
 20
4.883956801
 10
5.9242126259
 20
4.8867004848
 10
5.9229199799
 20
4.8893448738
 10
5.9214097335
 20
4.8918712702
 10
5.9196925735
 20
4.8942618127
 10
5.9177806492
 20
4.8964996014
 10
5.9156874889
 20
4.8985688142
 10
5.9134279041
 20
4.9004548213
 10
5.9110178785
 20
4.9021442932
 10
5.9084744606
 20
4.9036252895
 10
5.9058156482
 20
4.9048873422
 10
5.9030602491
 20
4.9059215367
 10
5.9004968135
 20
4.9066556252
  0
LINE
  5
354
100
AcDbEntity
  8
ALL_ASSEMBLY_MEMBERS
100
AcDbLine
 62
7
  6
CONTINUOUS
 10
5.92714892
 20
4.8729512426
 11
5.9271489198
 21
4.8607055642
  0
LINE
  5
355
100
AcDbEntity
  8
ALL_ASSEMBLY_MEMBERS
100
AcDbLine
 62
7
  6
CONTINUOUS
 10
5.8704000845
 20
4.7382475221
 11
5.8725706868
 21
4.750557619
  0
LWPOLYLINE
  5
356
100
AcDbEntity
  8
ALL_ASSEMBLY_MEMBERS
100
AcDbPolyline
 62
7
  6
CONTINUOUS
 90
13
 70
0
 10
5.886050747
 20
4.8131238269
 10
5.8861955786
 20
4.813603087
 10
5.886837452
 20
4.815348017
 10
5.8876383036
 20
4.817025265
 10
5.8885910654
 20
4.8186204198
 10
5.8896873727
 20
4.8201198047
 10
5.890917635
 20
4.8215105857
 10
5.8922711226
 20
4.8227808853
 10
5.893736066
 20
4.8239198854
 10
5.8952997814
 20
4.8249179283
 10
5.8969487013
 20
4.8257665452
 10
5.8986684828
 20
4.8264585557
 10
5.900496699
 20
4.8270011404
  0
LINE
  5
357
100
AcDbEntity
  8
ALL_ASSEMBLY_MEMBERS
100
AcDbLine
 62
7
  6
CONTINUOUS
 10
5.7236320885
 20
4.3904137624
 11
5.7500786554
 21
4.4281833743
  0
LINE
  5
358
100
AcDbEntity
  8
ALL_ASSEMBLY_MEMBERS
100
AcDbLine
 62
7
  6
CONTINUOUS
 10
5.7715153087
 20
4.4587980879
 11
5.8091378427
 21
4.5125286349
  0
LWPOLYLINE
  5
359
100
AcDbEntity
  8
ALL_ASSEMBLY_MEMBERS
100
AcDbPolyline
 62
7
  6
CONTINUOUS
 90
17
 70
0
 10
5.1710510883
 20
5.6168032233
 10
5.1686756327
 20
5.6167030727
 10
5.1657526013
 20
5.6163560397
 10
5.1628691013
 20
5.615764628
 10
5.1600455256
 20
5.6149330292
 10
5.1573018422
 20
5.6138671332
 10
5.1546574535
 20
5.6125744871
 10
5.1521310575
 20
5.6110642406
 10
5.1497405153
 20
5.6093470806
 10
5.1475027268
 20
5.6074351563
 10
5.1454335143
 20
5.605341996
 10
5.1435475074
 20
5.6030824112
 10
5.1418580356
 20
5.6006723855
 10
5.1403770394
 20
5.5981289677
 10
5.1391149867
 20
5.5954701552
 10
5.1380807923
 20
5.5927147561
 10
5.1373467033
 20
5.5901513183
  0
LINE
  5
35A
100
AcDbEntity
  8
ALL_ASSEMBLY_MEMBERS
100
AcDbLine
 62
7
  6
CONTINUOUS
 10
5.1710510871
 20
5.6168034231
 11
5.183296765
 21
5.6168034229
  0
LWPOLYLINE
  5
35B
100
AcDbEntity
  8
ALL_ASSEMBLY_MEMBERS
100
AcDbPolyline
 62
7
  6
CONTINUOUS
 90
13
 70
0
 10
5.2308785023
 20
5.5757052501
 10
5.2303992422
 20
5.5758500817
 10
5.2286543122
 20
5.5764919551
 10
5.2269770642
 20
5.5772928067
 10
5.2253819094
 20
5.5782455685
 10
5.2238825245
 20
5.5793418758
 10
5.2224917435
 20
5.5805721381
 10
5.2212214439
 20
5.5819256257
 10
5.2200824438
 20
5.5833905691
 10
5.2190844009
 20
5.5849542845
 10
5.218235784
 20
5.5866032044
 10
5.2175437735
 20
5.5883229859
 10
5.2170011888
 20
5.5901512021
  0
LINE
  5
35C
100
AcDbEntity
  8
ALL_ASSEMBLY_MEMBERS
100
AcDbLine
 62
7
  6
CONTINUOUS
 10
5.6351413195
 20
5.4028894442
 11
5.625565764
 21
5.4109242893
  0
LINE
  5
35D
100
AcDbEntity
  8
ALL_ASSEMBLY_MEMBERS
100
AcDbLine
 62
7
  6
CONTINUOUS
 10
5.8933852555
 20
4.9792062283
 11
5.8814515798
 21
5.0237433126
  0
LINE
  5
35E
100
AcDbEntity
  8
ALL_ASSEMBLY_MEMBERS
100
AcDbLine
 62
7
  6
CONTINUOUS
 10
6.552173913
 20
3.3868284161
 11
6.552173913
 21
3.4093284161
  0
LINE
  5
35F
100
AcDbEntity
  8
ALL_ASSEMBLY_MEMBERS
100
AcDbLine
 62
7
  6
CONTINUOUS
 10
6.552173913
 20
6.3243284161
 11
6.552173913
 21
6.3468284161
  0
LINE
  5
360
100
AcDbEntity
  8
ALL_ASSEMBLY_MEMBERS
100
AcDbLine
 62
7
  6
CONTINUOUS
 10
6.614673913
 20
3.3868284161
 11
6.614673913
 21
3.4093284161
  0
LINE
  5
361
100
AcDbEntity
  8
ALL_ASSEMBLY_MEMBERS
100
AcDbLine
 62
7
  6
CONTINUOUS
 10
6.614673913
 20
6.3243284161
 11
6.614673913
 21
6.3468284161
  0
LINE
  5
362
100
AcDbEntity
  8
ALL_ASSEMBLY_MEMBERS
100
AcDbLine
 62
7
  6
CONTINUOUS
 10
6.657173913
 20
6.2418284161
 11
6.634673913
 21
6.2418284161
  0
LINE
  5
363
100
AcDbEntity
  8
ALL_ASSEMBLY_MEMBERS
100
AcDbLine
 62
7
  6
CONTINUOUS
 10
3.719673913
 20
6.2418284161
 11
3.697173913
 21
6.2418284161
  0
LINE
  5
364
100
AcDbEntity
  8
ALL_ASSEMBLY_MEMBERS
100
AcDbLine
 62
7
  6
CONTINUOUS
 10
6.657173913
 20
6.3043284161
 11
6.634673913
 21
6.3043284161
  0
LINE
  5
365
100
AcDbEntity
  8
ALL_ASSEMBLY_MEMBERS
100
AcDbLine
 62
7
  6
CONTINUOUS
 10
3.719673913
 20
6.3043284161
 11
3.697173913
 21
6.3043284161
  0
LINE
  5
366
100
AcDbEntity
  8
ALL_ASSEMBLY_MEMBERS
100
AcDbLine
 62
7
  6
CONTINUOUS
 10
6.802173913
 20
3.6368284161
 11
6.802173913
 21
6.0968284161
  0
LINE
  5
367
100
AcDbEntity
  8
ALL_ASSEMBLY_MEMBERS
100
AcDbLine
 62
7
  6
CONTINUOUS
 10
6.864673913
 20
3.6368284161
 11
6.864673913
 21
6.0968284161
  0
LINE
  5
368
100
AcDbEntity
  8
ALL_ASSEMBLY_MEMBERS
100
AcDbLine
 62
7
  6
CONTINUOUS
 10
6.407173913
 20
6.4918284161
 11
3.947173913
 21
6.4918284161
  0
LINE
  5
369
100
AcDbEntity
  8
ALL_ASSEMBLY_MEMBERS
100
AcDbLine
 62
7
  6
CONTINUOUS
 10
6.407173913
 20
6.5543284161
 11
3.947173913
 21
6.5543284161
  0
ARC
  5
36A
100
AcDbEntity
  8
ALL_ASSEMBLY_MEMBERS
100
AcDbCircle
 62
7
  6
CONTINUOUS
 10
-14.4274849429
 20
-0.3859367997
 40
21.017985165
100
AcDbArc
 50
14.7898276008
 51
14.9155205964
  0
ARC
  5
36B
100
AcDbEntity
  8
ALL_ASSEMBLY_MEMBERS
100
AcDbCircle
 62
7
  6
CONTINUOUS
 10
3.6832476762
 20
0.1026639929
 40
4.5337327545
100
AcDbArc
 50
77.7270762627
 51
77.855528391
  0
ARC
  5
36C
100
AcDbEntity
  8
ALL_ASSEMBLY_MEMBERS
100
AcDbCircle
 62
7
  6
CONTINUOUS
 10
3.8374613459
 20
4.2435339533
 40
1.3797003841
100
AcDbArc
 50
359.887814016
 51
0.0020383553
  0
ARC
  5
36D
100
AcDbEntity
  8
ALL_ASSEMBLY_MEMBERS
100
AcDbCircle
 62
7
  6
CONTINUOUS
 10
3.947173913
 20
3.3868284161
 40
0.2075
100
AcDbArc
 50
180.0
 51
270.0
  0
ARC
  5
36E
100
AcDbEntity
  8
ALL_ASSEMBLY_MEMBERS
100
AcDbCircle
 62
7
  6
CONTINUOUS
 10
3.697173913
 20
3.6368284161
 40
0.2075
100
AcDbArc
 50
180.0
 51
270.0
  0
ARC
  5
36F
100
AcDbEntity
  8
ALL_ASSEMBLY_MEMBERS
100
AcDbCircle
 62
7
  6
CONTINUOUS
 10
3.947173913
 20
3.3868284161
 40
0.145
100
AcDbArc
 50
180.0
 51
270.0
  0
ARC
  5
370
100
AcDbEntity
  8
ALL_ASSEMBLY_MEMBERS
100
AcDbCircle
 62
7
  6
CONTINUOUS
 10
3.697173913
 20
3.6368284161
 40
0.145
100
AcDbArc
 50
180.0
 51
270.0
  0
ARC
  5
371
100
AcDbEntity
  8
ALL_ASSEMBLY_MEMBERS
100
AcDbCircle
 62
7
  6
CONTINUOUS
 10
3.719673913
 20
3.4093284161
 40
0.0825
100
AcDbArc
 50
0.0
 51
90.0
  0
ARC
  5
372
100
AcDbEntity
  8
ALL_ASSEMBLY_MEMBERS
100
AcDbCircle
 62
7
  6
CONTINUOUS
 10
3.719673913
 20
3.4093284161
 40
0.02
100
AcDbArc
 50
0.0
 51
90.0
  0
ARC
  5
373
100
AcDbEntity
  8
ALL_ASSEMBLY_MEMBERS
100
AcDbCircle
 62
7
  6
CONTINUOUS
 10
3.8318277382
 20
5.4901174968
 40
1.3853339917
100
AcDbArc
 50
359.9981925435
 51
0.1119523607
  0
ARC
  5
374
100
AcDbEntity
  8
ALL_ASSEMBLY_MEMBERS
100
AcDbCircle
 62
7
  6
CONTINUOUS
 10
3.697173913
 20
6.0968284161
 40
0.2075
100
AcDbArc
 50
90.0
 51
180.0
  0
ARC
  5
375
100
AcDbEntity
  8
ALL_ASSEMBLY_MEMBERS
100
AcDbCircle
 62
7
  6
CONTINUOUS
 10
3.947173913
 20
6.3468284161
 40
0.2075
100
AcDbArc
 50
90.0
 51
180.0
  0
ARC
  5
376
100
AcDbEntity
  8
ALL_ASSEMBLY_MEMBERS
100
AcDbCircle
 62
7
  6
CONTINUOUS
 10
3.697173913
 20
6.0968284161
 40
0.145
100
AcDbArc
 50
90.0
 51
180.0
  0
ARC
  5
377
100
AcDbEntity
  8
ALL_ASSEMBLY_MEMBERS
100
AcDbCircle
 62
7
  6
CONTINUOUS
 10
3.947173913
 20
6.3468284161
 40
0.145
100
AcDbArc
 50
90.0
 51
180.0
  0
ARC
  5
378
100
AcDbEntity
  8
ALL_ASSEMBLY_MEMBERS
100
AcDbCircle
 62
7
  6
CONTINUOUS
 10
3.719673913
 20
6.3243284161
 40
0.0825
100
AcDbArc
 50
270.0
 51
360.0
  0
ARC
  5
379
100
AcDbEntity
  8
ALL_ASSEMBLY_MEMBERS
100
AcDbCircle
 62
7
  6
CONTINUOUS
 10
3.719673913
 20
6.3243284161
 40
0.02
100
AcDbArc
 50
270.0
 51
360.0
  0
ARC
  5
37A
100
AcDbEntity
  8
ALL_ASSEMBLY_MEMBERS
100
AcDbCircle
 62
7
  6
CONTINUOUS
 10
4.5538848324
 20
3.521482243
 40
1.38533399
100
AcDbArc
 50
89.9981925434
 51
90.1119523608
  0
ARC
  5
37B
100
AcDbEntity
  8
ALL_ASSEMBLY_MEMBERS
100
AcDbCircle
 62
7
  6
CONTINUOUS
 10
4.9358773254
 20
4.2653230934
 40
0.5478007773
100
AcDbArc
 50
89.4362761273
 51
90.0001181389
  0
ARC
  5
37C
100
AcDbEntity
  8
ALL_ASSEMBLY_MEMBERS
100
AcDbCircle
 62
7
  6
CONTINUOUS
 10
4.575670571
 20
4.6255318364
 40
0.5477987966
100
AcDbArc
 50
359.999881008
 51
0.5637250821
  0
ARC
  5
37D
100
AcDbEntity
  8
ALL_ASSEMBLY_MEMBERS
100
AcDbCircle
 62
7
  6
CONTINUOUS
 10
4.9393725249
 20
4.6290270261
 40
0.1840798534
100
AcDbArc
 50
0.5896631556
 51
89.4103374478
  0
ARC
  5
37E
100
AcDbEntity
  8
ALL_ASSEMBLY_MEMBERS
100
AcDbCircle
 62
7
  6
CONTINUOUS
 10
4.939173913
 20
4.6288284161
 40
0.159
100
AcDbArc
 50
0.0
 51
90.0
  0
ARC
  5
37F
100
AcDbEntity
  8
ALL_ASSEMBLY_MEMBERS
100
AcDbCircle
 62
7
  6
CONTINUOUS
 10
4.5680819538
 20
4.3653664955
 40
0.0772780807
100
AcDbArc
 50
49.8029456296
 51
51.1610904261
  0
ARC
  5
380
100
AcDbEntity
  8
ALL_ASSEMBLY_MEMBERS
100
AcDbCircle
 62
7
  6
CONTINUOUS
 10
4.5438758604
 20
4.599287482
 40
0.0404853001
100
AcDbArc
 50
209.997017163
 51
211.1659241011
  0
ARC
  5
381
100
AcDbEntity
  8
ALL_ASSEMBLY_MEMBERS
100
AcDbCircle
 62
7
  6
CONTINUOUS
 10
4.5432414296
 20
4.5987339162
 40
0.0404176992
100
AcDbArc
 50
209.7670970486
 51
210.6428726021
  0
ARC
  5
382
100
AcDbEntity
  8
ALL_ASSEMBLY_MEMBERS
100
AcDbCircle
 62
7
  6
CONTINUOUS
 10
4.584325267
 20
4.5235866308
 40
0.0377452563
100
AcDbArc
 50
249.6092864554
 51
258.1246560054
  0
ARC
  5
383
100
AcDbEntity
  8
ALL_ASSEMBLY_MEMBERS
100
AcDbCircle
 62
7
  6
CONTINUOUS
 10
4.5834401578
 20
4.5229904675
 40
0.0375833123
100
AcDbArc
 50
249.6672700449
 51
254.2977764118
  0
ARC
  5
384
100
AcDbEntity
  8
ALL_ASSEMBLY_MEMBERS
100
AcDbCircle
 62
7
  6
CONTINUOUS
 10
5.133173913
 20
4.1915791602
 40
0.035
100
AcDbArc
 50
180.0000000224
 51
253.9023788032
  0
ARC
  5
385
100
AcDbEntity
  8
ALL_ASSEMBLY_MEMBERS
100
AcDbCircle
 62
7
  6
CONTINUOUS
 10
4.5019246994
 20
4.8228284161
 40
0.035
100
AcDbArc
 50
196.0976396061
 51
269.9999999975
  0
ARC
  5
386
100
AcDbEntity
  8
ALL_ASSEMBLY_MEMBERS
100
AcDbCircle
 62
7
  6
CONTINUOUS
 10
4.5350209148
 20
4.592252329
 40
0.0291174914
100
AcDbArc
 50
230.241007137
 51
244.4604453528
  0
ARC
  5
387
100
AcDbEntity
  8
ALL_ASSEMBLY_MEMBERS
100
AcDbCircle
 62
7
  6
CONTINUOUS
 10
4.5909039708
 20
4.6267321903
 40
0.0167129055
100
AcDbArc
 50
22.7288435127
 51
30.0010661623
  0
ARC
  5
388
100
AcDbEntity
  8
ALL_ASSEMBLY_MEMBERS
100
AcDbCircle
 62
7
  6
CONTINUOUS
 10
4.5756767505
 20
5.1081253758
 40
0.5477926171
100
AcDbArc
 50
359.4362288079
 51
0.0000792326
  0
ARC
  5
389
100
AcDbEntity
  8
ALL_ASSEMBLY_MEMBERS
100
AcDbCircle
 62
7
  6
CONTINUOUS
 10
4.5019246571
 20
4.9108284161
 40
0.035
100
AcDbArc
 50
90.0000000224
 51
163.9023788032
  0
ARC
  5
38A
100
AcDbEntity
  8
ALL_ASSEMBLY_MEMBERS
100
AcDbCircle
 62
7
  6
CONTINUOUS
 10
4.6012325776
 20
5.1403389557
 40
0.0195209602
100
AcDbArc
 50
308.4092111302
 51
312.0559988991
  0
ARC
  5
38B
100
AcDbEntity
  8
ALL_ASSEMBLY_MEMBERS
100
AcDbCircle
 62
7
  6
CONTINUOUS
 10
4.6008713028
 20
5.1397661178
 40
0.0194809439
100
AcDbArc
 50
334.7889107586
 51
342.0546889724
  0
ARC
  5
38C
100
AcDbEntity
  8
ALL_ASSEMBLY_MEMBERS
100
AcDbCircle
 62
7
  6
CONTINUOUS
 10
4.6006622304
 20
5.1404468886
 40
0.0193035568
100
AcDbArc
 50
308.2427098115
 51
313.595889206
  0
ARC
  5
38D
100
AcDbEntity
  8
ALL_ASSEMBLY_MEMBERS
100
AcDbCircle
 62
7
  6
CONTINUOUS
 10
4.5538794502
 20
6.2065409833
 40
1.3797003841
100
AcDbArc
 50
269.887814016
 51
270.0020383553
  0
ARC
  5
38E
100
AcDbEntity
  8
ALL_ASSEMBLY_MEMBERS
100
AcDbCircle
 62
7
  6
CONTINUOUS
 10
4.9393727704
 20
5.1046294836
 40
0.184079487
100
AcDbArc
 50
270.5895871591
 51
359.410436267
  0
ARC
  5
38F
100
AcDbEntity
  8
ALL_ASSEMBLY_MEMBERS
100
AcDbCircle
 62
7
  6
CONTINUOUS
 10
4.939173913
 20
5.1048284161
 40
0.159
100
AcDbArc
 50
270.0
 51
360.0
  0
ARC
  5
390
100
AcDbEntity
  8
ALL_ASSEMBLY_MEMBERS
100
AcDbCircle
 62
7
  6
CONTINUOUS
 10
4.9358773327
 20
5.468331782
 40
0.5477988204
100
AcDbArc
 50
269.9998810721
 51
270.5637251217
  0
CIRCLE
  5
391
100
AcDbEntity
  8
ALL_ASSEMBLY_MEMBERS
100
AcDbCircle
 62
7
  6
CONTINUOUS
 10
5.177173913
 20
4.8668284161
 40
0.87125
  0
CIRCLE
  5
392
100
AcDbEntity
  8
ALL_ASSEMBLY_MEMBERS
100
AcDbCircle
 62
7
  6
CONTINUOUS
 10
5.177173913
 20
4.8668284161
 40
0.83125
  0
ARC
  5
393
100
AcDbEntity
  8
ALL_ASSEMBLY_MEMBERS
100
AcDbCircle
 62
7
  6
CONTINUOUS
 10
5.177173913
 20
4.8668284161
 40
0.632318858
100
AcDbArc
 50
89.4236713699
 51
90.5763286048
  0
ARC
  5
394
100
AcDbEntity
  8
ALL_ASSEMBLY_MEMBERS
100
AcDbCircle
 62
7
  6
CONTINUOUS
 10
5.177173913
 20
4.8668284161
 40
0.632318858
100
AcDbArc
 50
269.4236713699
 51
270.5763286048
  0
ARC
  5
395
100
AcDbEntity
  8
ALL_ASSEMBLY_MEMBERS
100
AcDbCircle
 62
7
  6
CONTINUOUS
 10
5.177173913
 20
4.8668284161
 40
0.632318858
100
AcDbArc
 50
179.4236713699
 51
180.5763286048
  0
ARC
  5
396
100
AcDbEntity
  8
ALL_ASSEMBLY_MEMBERS
100
AcDbCircle
 62
7
  6
CONTINUOUS
 10
5.177173913
 20
4.8668284161
 40
0.632318858
100
AcDbArc
 50
359.4236713699
 51
0.5763286048
  0
ARC
  5
397
100
AcDbEntity
  8
ALL_ASSEMBLY_MEMBERS
100
AcDbCircle
 62
7
  6
CONTINUOUS
 10
5.177173913
 20
4.8668284161
 40
0.525
100
AcDbArc
 50
98.659552025
 51
171.3451569753
  0
ARC
  5
398
100
AcDbEntity
  8
ALL_ASSEMBLY_MEMBERS
100
AcDbCircle
 62
7
  6
CONTINUOUS
 10
5.177173913
 20
4.8668284161
 40
0.525
100
AcDbArc
 50
188.6548430247
 51
261.340447975
  0
ARC
  5
399
100
AcDbEntity
  8
ALL_ASSEMBLY_MEMBERS
100
AcDbCircle
 62
7
  6
CONTINUOUS
 10
5.177173913
 20
4.8668284161
 40
0.525
100
AcDbArc
 50
8.6548430247
 51
81.340447975
  0
ARC
  5
39A
100
AcDbEntity
  8
ALL_ASSEMBLY_MEMBERS
100
AcDbCircle
 62
7
  6
CONTINUOUS
 10
5.177173913
 20
4.8668284161
 40
0.525
100
AcDbArc
 50
278.659552025
 51
351.3451569753
  0
ARC
  5
39B
100
AcDbEntity
  8
ALL_ASSEMBLY_MEMBERS
100
AcDbCircle
 62
7
  6
CONTINUOUS
 10
5.177173913
 20
4.8668284161
 40
0.5
100
AcDbArc
 50
99.0922716134
 51
170.9042156727
  0
ARC
  5
39C
100
AcDbEntity
  8
ALL_ASSEMBLY_MEMBERS
100
AcDbCircle
 62
7
  6
CONTINUOUS
 10
5.177173913
 20
4.8668284161
 40
0.5
100
AcDbArc
 50
9.0957843273
 51
80.9077283866
  0
ARC
  5
39D
100
AcDbEntity
  8
ALL_ASSEMBLY_MEMBERS
100
AcDbCircle
 62
7
  6
CONTINUOUS
 10
5.177173913
 20
4.8668284161
 40
0.5
100
AcDbArc
 50
279.0922716134
 51
350.9042156727
  0
ARC
  5
39E
100
AcDbEntity
  8
ALL_ASSEMBLY_MEMBERS
100
AcDbCircle
 62
7
  6
CONTINUOUS
 10
5.177173913
 20
4.8668284161
 40
0.5
100
AcDbArc
 50
189.0957843273
 51
260.9077283866
  0
ARC
  5
39F
100
AcDbEntity
  8
ALL_ASSEMBLY_MEMBERS
100
AcDbCircle
 62
7
  6
CONTINUOUS
 10
5.177173913
 20
4.8668284161
 40
0.49725
100
AcDbArc
 50
9.1422074502
 51
80.8577925498
  0
ARC
  5
3A0
100
AcDbEntity
  8
ALL_ASSEMBLY_MEMBERS
100
AcDbCircle
 62
7
  6
CONTINUOUS
 10
5.177173913
 20
4.8668284161
 40
0.49725
100
AcDbArc
 50
99.1422074502
 51
170.8577925498
  0
ARC
  5
3A1
100
AcDbEntity
  8
ALL_ASSEMBLY_MEMBERS
100
AcDbCircle
 62
7
  6
CONTINUOUS
 10
5.177173913
 20
4.8668284161
 40
0.49725
100
AcDbArc
 50
279.1422074502
 51
350.8577925498
  0
ARC
  5
3A2
100
AcDbEntity
  8
ALL_ASSEMBLY_MEMBERS
100
AcDbCircle
 62
7
  6
CONTINUOUS
 10
5.177173913
 20
4.8668284161
 40
0.49725
100
AcDbArc
 50
189.1422074502
 51
260.8577925498
  0
ARC
  5
3A3
100
AcDbEntity
  8
ALL_ASSEMBLY_MEMBERS
100
AcDbCircle
 62
7
  6
CONTINUOUS
 10
5.177173913
 20
4.8668284161
 40
0.4925
100
AcDbArc
 50
99.2315329845
 51
170.7684670155
  0
ARC
  5
3A4
100
AcDbEntity
  8
ALL_ASSEMBLY_MEMBERS
100
AcDbCircle
 62
7
  6
CONTINUOUS
 10
5.177173913
 20
4.8668284161
 40
0.4925
100
AcDbArc
 50
9.2315329845
 51
80.7684670155
  0
ARC
  5
3A5
100
AcDbEntity
  8
ALL_ASSEMBLY_MEMBERS
100
AcDbCircle
 62
7
  6
CONTINUOUS
 10
5.177173913
 20
4.8668284161
 40
0.4925
100
AcDbArc
 50
279.2315329845
 51
350.7684670155
  0
ARC
  5
3A6
100
AcDbEntity
  8
ALL_ASSEMBLY_MEMBERS
100
AcDbCircle
 62
7
  6
CONTINUOUS
 10
5.177173913
 20
4.8668284161
 40
0.4925
100
AcDbArc
 50
189.2315329845
 51
260.7684670155
  0
ARC
  5
3A7
100
AcDbEntity
  8
ALL_ASSEMBLY_MEMBERS
100
AcDbCircle
 62
7
  6
CONTINUOUS
 10
5.177173913
 20
4.8668284161
 40
0.49
100
AcDbArc
 50
279.2805767187
 51
350.7194232813
  0
ARC
  5
3A8
100
AcDbEntity
  8
ALL_ASSEMBLY_MEMBERS
100
AcDbCircle
 62
7
  6
CONTINUOUS
 10
5.177173913
 20
4.8668284161
 40
0.49
100
AcDbArc
 50
189.2793019081
 51
260.7194232813
  0
ARC
  5
3A9
100
AcDbEntity
  8
ALL_ASSEMBLY_MEMBERS
100
AcDbCircle
 62
7
  6
CONTINUOUS
 10
5.177173913
 20
4.8668284161
 40
0.49
100
AcDbArc
 50
99.2805767187
 51
170.720700615
  0
ARC
  5
3AA
100
AcDbEntity
  8
ALL_ASSEMBLY_MEMBERS
100
AcDbCircle
 62
7
  6
CONTINUOUS
 10
5.177173913
 20
4.8668284161
 40
0.49
100
AcDbArc
 50
9.2805767187
 51
80.7194232813
  0
ARC
  5
3AB
100
AcDbEntity
  8
ALL_ASSEMBLY_MEMBERS
100
AcDbCircle
 62
7
  6
CONTINUOUS
 10
5.177173913
 20
4.8668284161
 40
0.4806601291
100
AcDbArc
 50
189.4626107232
 51
260.5373892768
  0
ARC
  5
3AC
100
AcDbEntity
  8
ALL_ASSEMBLY_MEMBERS
100
AcDbCircle
 62
7
  6
CONTINUOUS
 10
5.177173913
 20
4.8668284161
 40
0.4806601291
100
AcDbArc
 50
279.4626107232
 51
350.5373892768
  0
ARC
  5
3AD
100
AcDbEntity
  8
ALL_ASSEMBLY_MEMBERS
100
AcDbCircle
 62
7
  6
CONTINUOUS
 10
5.177173913
 20
4.8668284161
 40
0.4806601291
100
AcDbArc
 50
99.4626107232
 51
170.5373892768
  0
ARC
  5
3AE
100
AcDbEntity
  8
ALL_ASSEMBLY_MEMBERS
100
AcDbCircle
 62
7
  6
CONTINUOUS
 10
5.177173913
 20
4.8668284161
 40
0.4806601291
100
AcDbArc
 50
9.4626107232
 51
80.5373892768
  0
ARC
  5
3AF
100
AcDbEntity
  8
ALL_ASSEMBLY_MEMBERS
100
AcDbCircle
 62
7
  6
CONTINUOUS
 10
5.133173913
 20
5.5420776298
 40
0.035
100
AcDbArc
 50
106.0976396061
 51
179.9999999975
  0
ARC
  5
3B0
100
AcDbEntity
  8
ALL_ASSEMBLY_MEMBERS
100
AcDbCircle
 62
7
  6
CONTINUOUS
 10
-11.4483094961
 20
16.5084559946
 40
21.0179851648
100
AcDbArc
 50
324.7898276008
 51
324.9155205964
  0
ARC
  5
3B1
100
AcDbEntity
  8
ALL_ASSEMBLY_MEMBERS
100
AcDbCircle
 62
7
  6
CONTINUOUS
 10
-11.4211199107
 20
16.4888440592
 40
20.9844637145
100
AcDbArc
 50
325.0632453361
 51
325.1978078348
  0
ARC
  5
3B2
100
AcDbEntity
  8
ALL_ASSEMBLY_MEMBERS
100
AcDbCircle
 62
7
  6
CONTINUOUS
 10
5.8004683759
 20
3.5271158485
 40
1.3797003846
100
AcDbArc
 50
89.887814016
 51
90.0020383553
  0
ARC
  5
3B3
100
AcDbEntity
  8
ALL_ASSEMBLY_MEMBERS
100
AcDbCircle
 62
7
  6
CONTINUOUS
 10
5.4184704934
 20
4.2653250503
 40
0.5477988204
100
AcDbArc
 50
89.9998810721
 51
90.5637251217
  0
ARC
  5
3B4
100
AcDbEntity
  8
ALL_ASSEMBLY_MEMBERS
100
AcDbCircle
 62
7
  6
CONTINUOUS
 10
5.7786710756
 20
4.6255314565
 40
0.5477926171
100
AcDbArc
 50
179.4362288079
 51
180.0000792326
  0
ARC
  5
3B5
100
AcDbEntity
  8
ALL_ASSEMBLY_MEMBERS
100
AcDbCircle
 62
7
  6
CONTINUOUS
 10
5.4149750534
 20
4.6290273509
 40
0.184079487
100
AcDbArc
 50
90.589586466
 51
179.4104369578
  0
ARC
  5
3B6
100
AcDbEntity
  8
ALL_ASSEMBLY_MEMBERS
100
AcDbCircle
 62
7
  6
CONTINUOUS
 10
5.415173913
 20
4.6288284161
 40
0.159
100
AcDbArc
 50
90.0
 51
180.0
  0
ARC
  5
3B7
100
AcDbEntity
  8
ALL_ASSEMBLY_MEMBERS
100
AcDbCircle
 62
7
  6
CONTINUOUS
 10
5.221173913
 20
4.1915792025
 40
0.035
100
AcDbArc
 50
286.0976396061
 51
359.9999999975
  0
ARC
  5
3B8
100
AcDbEntity
  8
ALL_ASSEMBLY_MEMBERS
100
AcDbCircle
 62
7
  6
CONTINUOUS
 10
5.852423169
 20
4.8228284161
 40
0.035
100
AcDbArc
 50
270.0000000224
 51
343.9023788032
  0
ARC
  5
3B9
100
AcDbEntity
  8
ALL_ASSEMBLY_MEMBERS
100
AcDbCircle
 62
7
  6
CONTINUOUS
 10
5.2508594678
 20
4.22555716
 40
0.0249683286
100
AcDbArc
 50
75.0661708818
 51
77.7000242736
  0
ARC
  5
3BA
100
AcDbEntity
  8
ALL_ASSEMBLY_MEMBERS
100
AcDbCircle
 62
7
  6
CONTINUOUS
 10
5.8004629937
 20
6.212174591
 40
1.3853339917
100
AcDbArc
 50
269.9981925435
 51
270.1119523607
  0
ARC
  5
3BB
100
AcDbEntity
  8
ALL_ASSEMBLY_MEMBERS
100
AcDbCircle
 62
7
  6
CONTINUOUS
 10
5.7786772789
 20
5.1081249965
 40
0.5477988204
100
AcDbArc
 50
179.9998810721
 51
180.5637251217
  0
ARC
  5
3BC
100
AcDbEntity
  8
ALL_ASSEMBLY_MEMBERS
100
AcDbCircle
 62
7
  6
CONTINUOUS
 10
5.4184708727
 20
5.4683255787
 40
0.5477926171
100
AcDbArc
 50
269.4362288079
 51
270.0000792326
  0
ARC
  5
3BD
100
AcDbEntity
  8
ALL_ASSEMBLY_MEMBERS
100
AcDbCircle
 62
7
  6
CONTINUOUS
 10
5.4149749783
 20
5.1046295565
 40
0.184079487
100
AcDbArc
 50
180.589586466
 51
269.4104369578
  0
ARC
  5
3BE
100
AcDbEntity
  8
ALL_ASSEMBLY_MEMBERS
100
AcDbCircle
 62
7
  6
CONTINUOUS
 10
5.415173913
 20
5.1048284161
 40
0.159
100
AcDbArc
 50
180.0
 51
270.0
  0
ARC
  5
3BF
100
AcDbEntity
  8
ALL_ASSEMBLY_MEMBERS
100
AcDbCircle
 62
7
  6
CONTINUOUS
 10
5.7288689372
 20
5.0047108591
 40
0.1249679993
100
AcDbArc
 50
4.7958314267
 51
7.8842561579
  0
ARC
  5
3C0
100
AcDbEntity
  8
ALL_ASSEMBLY_MEMBERS
100
AcDbCircle
 62
7
  6
CONTINUOUS
 10
5.7215243604
 20
5.0096792328
 40
0.1160591177
100
AcDbArc
 50
43.9976432908
 51
45.6759118307
  0
ARC
  5
3C1
100
AcDbEntity
  8
ALL_ASSEMBLY_MEMBERS
100
AcDbCircle
 62
7
  6
CONTINUOUS
 10
5.8824180196
 20
5.1558697414
 40
0.0988014251
100
AcDbArc
 50
229.7540556282
 51
231.6102538966
  0
ARC
  5
3C2
100
AcDbEntity
  8
ALL_ASSEMBLY_MEMBERS
100
AcDbCircle
 62
7
  6
CONTINUOUS
 10
5.7622654847
 20
5.0376515859
 40
0.061291125
100
AcDbArc
 50
48.4013447243
 51
50.6452395079
  0
ARC
  5
3C3
100
AcDbEntity
  8
ALL_ASSEMBLY_MEMBERS
100
AcDbCircle
 62
7
  6
CONTINUOUS
 10
5.7661475547
 20
5.0423566625
 40
0.0551913015
100
AcDbArc
 50
50.6640986454
 51
51.9932784448
  0
ARC
  5
3C4
100
AcDbEntity
  8
ALL_ASSEMBLY_MEMBERS
100
AcDbCircle
 62
7
  6
CONTINUOUS
 10
5.2854686172
 20
5.5553651027
 40
0.0438037301
100
AcDbArc
 50
158.0971896006
 51
162.1974654461
  0
ARC
  5
3C5
100
AcDbEntity
  8
ALL_ASSEMBLY_MEMBERS
100
AcDbCircle
 62
7
  6
CONTINUOUS
 10
5.271193616
 20
5.5511940157
 40
0.0437998737
100
AcDbArc
 50
144.6813185056
 51
147.7448754429
  0
ARC
  5
3C6
100
AcDbEntity
  8
ALL_ASSEMBLY_MEMBERS
100
AcDbCircle
 62
7
  6
CONTINUOUS
 10
5.2684128141
 20
5.5531565658
 40
0.0403962846
100
AcDbArc
 50
142.0334089646
 51
144.6723739462
  0
ARC
  5
3C7
100
AcDbEntity
  8
ALL_ASSEMBLY_MEMBERS
100
AcDbCircle
 62
7
  6
CONTINUOUS
 10
5.8257164311
 20
5.0857824717
 40
0.0395196571
100
AcDbArc
 50
23.4152822502
 51
28.0506009594
  0
ARC
  5
3C8
100
AcDbEntity
  8
ALL_ASSEMBLY_MEMBERS
100
AcDbCircle
 62
7
  6
CONTINUOUS
 10
5.221173913
 20
5.5420776721
 40
0.035
100
AcDbArc
 50
0.0000000224
 51
73.9023788032
  0
ARC
  5
3C9
100
AcDbEntity
  8
ALL_ASSEMBLY_MEMBERS
100
AcDbCircle
 62
7
  6
CONTINUOUS
 10
5.8524231266
 20
4.9108284161
 40
0.035
100
AcDbArc
 50
16.0976396061
 51
89.9999999975
  0
ARC
  5
3CA
100
AcDbEntity
  8
ALL_ASSEMBLY_MEMBERS
100
AcDbCircle
 62
7
  6
CONTINUOUS
 10
5.8030827296
 20
5.0015619042
 40
0.0291431619
100
AcDbArc
 50
245.4078815942
 51
249.5817265006
  0
ARC
  5
3CB
100
AcDbEntity
  8
ALL_ASSEMBLY_MEMBERS
100
AcDbCircle
 62
7
  6
CONTINUOUS
 10
5.8038599071
 20
5.0016132276
 40
0.0289728216
100
AcDbArc
 50
245.3415251937
 51
250.0351623748
  0
ARC
  5
3CC
100
AcDbEntity
  8
ALL_ASSEMBLY_MEMBERS
100
AcDbCircle
 62
7
  6
CONTINUOUS
 10
5.778876878
 20
5.0698029465
 40
0.0226132521
100
AcDbArc
 50
165.2957398933
 51
180.3971212838
  0
ARC
  5
3CD
100
AcDbEntity
  8
ALL_ASSEMBLY_MEMBERS
100
AcDbCircle
 62
7
  6
CONTINUOUS
 10
5.2620750438
 20
5.4935425001
 40
0.0148909372
100
AcDbArc
 50
246.6092241092
 51
251.165591825
  0
ARC
  5
3CE
100
AcDbEntity
  8
ALL_ASSEMBLY_MEMBERS
100
AcDbCircle
 62
7
  6
CONTINUOUS
 10
6.5225200879
 20
4.2435393355
 40
1.3853339917
100
AcDbArc
 50
179.9981925435
 51
180.1119523607
  0
ARC
  5
3CF
100
AcDbEntity
  8
ALL_ASSEMBLY_MEMBERS
100
AcDbCircle
 62
7
  6
CONTINUOUS
 10
6.407173913
 20
3.3868284161
 40
0.2075
100
AcDbArc
 50
270.0
 51
360.0
  0
ARC
  5
3D0
100
AcDbEntity
  8
ALL_ASSEMBLY_MEMBERS
100
AcDbCircle
 62
7
  6
CONTINUOUS
 10
6.657173913
 20
3.6368284161
 40
0.2075
100
AcDbArc
 50
270.0
 51
360.0
  0
ARC
  5
3D1
100
AcDbEntity
  8
ALL_ASSEMBLY_MEMBERS
100
AcDbCircle
 62
7
  6
CONTINUOUS
 10
6.407173913
 20
3.3868284161
 40
0.145
100
AcDbArc
 50
270.0
 51
360.0
  0
ARC
  5
3D2
100
AcDbEntity
  8
ALL_ASSEMBLY_MEMBERS
100
AcDbCircle
 62
7
  6
CONTINUOUS
 10
6.657173913
 20
3.6368284161
 40
0.145
100
AcDbArc
 50
270.0
 51
360.0
  0
ARC
  5
3D3
100
AcDbEntity
  8
ALL_ASSEMBLY_MEMBERS
100
AcDbCircle
 62
7
  6
CONTINUOUS
 10
6.634673913
 20
3.4093284161
 40
0.0825
100
AcDbArc
 50
90.0
 51
180.0
  0
ARC
  5
3D4
100
AcDbEntity
  8
ALL_ASSEMBLY_MEMBERS
100
AcDbCircle
 62
7
  6
CONTINUOUS
 10
6.634673913
 20
3.4093284161
 40
0.02
100
AcDbArc
 50
90.0
 51
180.0
  0
ARC
  5
3D5
100
AcDbEntity
  8
ALL_ASSEMBLY_MEMBERS
100
AcDbCircle
 62
7
  6
CONTINUOUS
 10
6.5168864802
 20
5.490122879
 40
1.3797003841
100
AcDbArc
 50
179.887814016
 51
180.0020383553
  0
ARC
  5
3D6
100
AcDbEntity
  8
ALL_ASSEMBLY_MEMBERS
100
AcDbCircle
 62
7
  6
CONTINUOUS
 10
6.407173913
 20
6.3468284161
 40
0.2075
100
AcDbArc
 50
0.0
 51
90.0
  0
ARC
  5
3D7
100
AcDbEntity
  8
ALL_ASSEMBLY_MEMBERS
100
AcDbCircle
 62
7
  6
CONTINUOUS
 10
6.657173913
 20
6.0968284161
 40
0.2075
100
AcDbArc
 50
0.0
 51
90.0
  0
ARC
  5
3D8
100
AcDbEntity
  8
ALL_ASSEMBLY_MEMBERS
100
AcDbCircle
 62
7
  6
CONTINUOUS
 10
6.407173913
 20
6.3468284161
 40
0.145
100
AcDbArc
 50
0.0
 51
90.0
  0
ARC
  5
3D9
100
AcDbEntity
  8
ALL_ASSEMBLY_MEMBERS
100
AcDbCircle
 62
7
  6
CONTINUOUS
 10
6.657173913
 20
6.0968284161
 40
0.145
100
AcDbArc
 50
0.0
 51
90.0
  0
ARC
  5
3DA
100
AcDbEntity
  8
ALL_ASSEMBLY_MEMBERS
100
AcDbCircle
 62
7
  6
CONTINUOUS
 10
6.634673913
 20
6.3243284161
 40
0.0825
100
AcDbArc
 50
180.0
 51
270.0
  0
ARC
  5
3DB
100
AcDbEntity
  8
ALL_ASSEMBLY_MEMBERS
100
AcDbCircle
 62
7
  6
CONTINUOUS
 10
6.634673913
 20
6.3243284161
 40
0.02
100
AcDbArc
 50
180.0
 51
270.0
  0
ARC
  5
3DC
100
AcDbEntity
  8
ALL_ASSEMBLY_MEMBERS
100
AcDbCircle
 62
7
  6
CONTINUOUS
 10
24.8593208937
 20
-1.5301632047
 40
21.4174392638
100
AcDbArc
 50
161.6753938543
 51
161.7987434926
  0
ARC
  5
3DD
100
AcDbEntity
  8
ALL_ASSEMBLY_MEMBERS
100
AcDbCircle
 62
7
  6
CONTINUOUS
 10
21.7965339338
 20
-0.5313157453
 40
18.0817712461
100
AcDbArc
 50
162.1979997579
 51
162.3494272383
  0
ARC
  5
3DE
100
AcDbEntity
  8
ALL_ASSEMBLY_MEMBERS
100
AcDbCircle
 62
7
  6
CONTINUOUS
 10
21.3028168974
 20
-0.3727106071
 40
17.5632037218
100
AcDbArc
 50
161.9187563744
 51
162.0746530724
  0
ARC
  5
3DF
100
AcDbEntity
  8
ALL_ASSEMBLY_MEMBERS
100
AcDbCircle
 62
7
  6
CONTINUOUS
 10
20.3092992612
 20
13.605356342
 40
18.0817712453
100
AcDbArc
 50
210.1979997578
 51
210.3494272383
  0
ARC
  5
3E0
100
AcDbEntity
  8
ALL_ASSEMBLY_MEMBERS
100
AcDbCircle
 62
7
  6
CONTINUOUS
 10
19.8736778737
 20
13.3518594556
 40
17.5777605591
100
AcDbArc
 50
209.9084223481
 51
210.1282491443
  0
SPLINE
  5
3E1
100
AcDbEntity
  8
ALL_ASSEMBLY_MEMBERS
100
AcDbSpline
 62
7
  6
CONTINUOUS
 70
0
 71
3
 72
11
 73
7
 74
0
 42
0.0000001
 43
0.0000001
 44
0.0000000001
 40
0.0
 40
0.0
 40
0.0
 40
0.0
 40
0.2559940416
 40
0.5061886822
 40
0.7530781593
 40
1.0
 40
1.0
 40
1.0
 40
1.0
 10
5.259673913
 20
5.1788308662
 30
0.0
 10
5.259673913
 20
5.177602223
 30
0.0
 10
5.2595426052
 20
5.1751700973
 30
0.0
 10
5.2589128435
 20
5.1716014515
 30
0.0
 10
5.2578333916
 20
5.1681865586
 30
0.0
 10
5.2568064522
 20
5.1660401226
 30
0.0
 10
5.256220398
 20
5.1650100716
 30
0.0
  0
SPLINE
  5
3E2
100
AcDbEntity
  8
ALL_ASSEMBLY_MEMBERS
100
AcDbSpline
 62
7
  6
CONTINUOUS
 70
0
 71
3
 72
11
 73
7
 74
0
 42
0.0000001
 43
0.0000001
 44
0.0000000001
 40
0.0
 40
0.0
 40
0.0
 40
0.0
 40
0.2469224943
 40
0.4938131448
 40
0.7440076974
 40
1.0
 40
1.0
 40
1.0
 40
1.0
 10
5.0981270984
 20
5.1650106805
 30
0.0
 10
5.0975410963
 20
5.1660406993
 30
0.0
 10
5.0965142412
 20
5.1681870579
 30
0.0
 10
5.0954349026
 20
5.1716018146
 30
0.0
 10
5.0948052066
 20
5.1751702905
 30
0.0
 10
5.094673913
 20
5.1776022904
 30
0.0
 10
5.094673913
 20
5.1788308662
 30
0.0
  0
SPLINE
  5
3E3
100
AcDbEntity
  8
ALL_ASSEMBLY_MEMBERS
100
AcDbSpline
 62
7
  6
CONTINUOUS
 70
0
 71
3
 72
10
 73
6
 74
0
 42
0.0000001
 43
0.0000001
 44
0.0000000001
 40
0.0
 40
0.0
 40
0.0
 40
0.0
 40
0.4802501615
 40
0.735056279
 40
1.0
 40
1.0
 40
1.0
 40
1.0
 10
5.259673913
 20
5.1788308662
 30
0.0
 10
5.259673913
 20
5.1815508518
 30
0.0
 10
5.2591767436
 20
5.185723739
 30
0.0
 10
5.2577447662
 20
5.1912060464
 30
0.0
 10
5.2567626544
 20
5.19398591
 30
0.0
 10
5.2562089432
 20
5.1953805704
 30
0.0
  0
SPLINE
  5
3E4
100
AcDbEntity
  8
ALL_ASSEMBLY_MEMBERS
100
AcDbSpline
 62
7
  6
CONTINUOUS
 70
0
 71
3
 72
10
 73
6
 74
0
 42
0.0000001
 43
0.0000001
 44
0.0000000001
 40
0.0
 40
0.0
 40
0.0
 40
0.0
 40
0.2649432033
 40
0.5197491241
 40
1.0
 40
1.0
 40
1.0
 40
1.0
 10
5.0981385631
 20
5.1953797785
 30
0.0
 10
5.0975849031
 20
5.1939851819
 30
0.0
 10
5.0966028832
 20
5.1912054473
 30
0.0
 10
5.0951710361
 20
5.1857233997
 30
0.0
 10
5.094673913
 20
5.1815507195
 30
0.0
 10
5.094673913
 20
5.1788308662
 30
0.0
  0
SPLINE
  5
3E5
100
AcDbEntity
  8
ALL_ASSEMBLY_MEMBERS
100
AcDbSpline
 62
7
  6
CONTINUOUS
 70
0
 71
3
 72
15
 73
11
 74
0
 42
0.0000001
 43
0.0000001
 44
0.0000000001
 40
0.0
 40
0.0
 40
0.0
 40
0.0
 40
0.0287938427
 40
0.0629103417
 40
0.1466847838
 40
0.2502375014
 40
0.3719792637
 40
0.51010543
 40
0.6625096987
 40
1.0
 40
1.0
 40
1.0
 40
1.0
 10
5.4144079215
 20
4.9068161493
 30
0.0
 10
5.4143648226
 20
4.9069417499
 30
0.0
 10
5.4142816567
 20
4.9072199406
 30
0.0
 10
5.4141207218
 20
4.9078771538
 30
0.0
 10
5.4139352104
 20
4.9088821347
 30
0.0
 10
5.4137381576
 20
4.9102939971
 30
0.0
 10
5.4135585588
 20
4.9119605819
 30
0.0
 10
5.4133997525
 20
4.9138553592
 30
0.0
 10
5.4132132592
 20
4.9167457377
 30
0.0
 10
5.4131236889
 20
4.9190036551
 30
0.0
 10
5.4130808646
 20
4.9205594797
 30
0.0
  0
SPLINE
  5
3E6
100
AcDbEntity
  8
ALL_ASSEMBLY_MEMBERS
100
AcDbSpline
 62
7
  6
CONTINUOUS
 70
0
 71
3
 72
23
 73
19
 74
0
 42
0.0000001
 43
0.0000001
 44
0.0000000001
 40
0.0
 40
0.0
 40
0.0
 40
0.0
 40
0.0623606148
 40
0.1247850142
 40
0.187243606
 40
0.2497445045
 40
0.3122784211
 40
0.3748400648
 40
0.4374213153
 40
0.5000131039
 40
0.5626048585
 40
0.625185901
 40
0.6877475504
 40
0.7502814412
 40
0.8127807778
 40
0.8752385069
 40
0.9376503153
 40
1.0
 40
1.0
 40
1.0
 40
1.0
 10
5.4144079221
 20
4.9068162654
 30
0.0
 10
5.4079702956
 20
4.9068166495
 30
0.0
 10
5.395079601
 20
4.9074489846
 30
0.0
 10
5.3759293702
 20
4.9102853491
 30
0.0
 10
5.3571335223
 20
4.9149893484
 30
0.0
 10
5.3388786107
 20
4.92151539
 30
0.0
 10
5.3213418174
 20
4.9298046847
 30
0.0
 10
5.3046952679
 20
4.9397778758
 30
0.0
 10
5.2891023641
 20
4.9513393438
 30
0.0
 10
5.2747168695
 20
4.9643771495
 30
0.0
 10
5.2616797008
 20
4.9787631896
 30
0.0
 10
5.2501188403
 20
4.9943565089
 30
0.0
 10
5.2401463097
 20
5.0110034366
 30
0.0
 10
5.2318579279
 20
5.0285404675
 30
0.0
 10
5.2253324546
 20
5.04679533
 30
0.0
 10
5.2206301074
 20
5.0655899745
 30
0.0
 10
5.2177936889
 20
5.084737612
 30
0.0
 10
5.217161707
 20
5.0976259271
 30
0.0
 10
5.2171616456
 20
5.1040624253
 30
0.0
  0
SPLINE
  5
3E7
100
AcDbEntity
  8
ALL_ASSEMBLY_MEMBERS
100
AcDbSpline
 62
7
  6
CONTINUOUS
 70
0
 71
3
 72
15
 73
11
 74
0
 42
0.0000001
 43
0.0000001
 44
0.0000000001
 40
0.0
 40
0.0
 40
0.0
 40
0.0
 40
0.02879382
 40
0.0629102982
 40
0.1466847076
 40
0.2502374055
 40
0.3719791604
 40
0.5101053311
 40
0.6625096204
 40
1.0
 40
1.0
 40
1.0
 40
1.0
 10
5.2171616456
 20
5.1040624253
 30
0.0
 10
5.217287246
 20
5.1040193263
 30
0.0
 10
5.2175654364
 20
5.1039361604
 30
0.0
 10
5.2182226492
 20
5.1037752255
 30
0.0
 10
5.2192276295
 20
5.103589714
 30
0.0
 10
5.2206394914
 20
5.1033926611
 30
0.0
 10
5.2223060757
 20
5.1032130623
 30
0.0
 10
5.2242008528
 20
5.1030542559
 30
0.0
 10
5.2270912312
 20
5.1028677625
 30
0.0
 10
5.2293491487
 20
5.1027781922
 30
0.0
 10
5.2309049734
 20
5.1027353679
 30
0.0
  0
SPLINE
  5
3E8
100
AcDbEntity
  8
ALL_ASSEMBLY_MEMBERS
100
AcDbSpline
 62
7
  6
CONTINUOUS
 70
0
 71
3
 72
15
 73
11
 74
0
 42
0.0000001
 43
0.0000001
 44
0.0000000001
 40
0.0
 40
0.0
 40
0.0
 40
0.0
 40
0.0721197361
 40
0.1609919098
 40
0.266590948
 40
0.3880399987
 40
0.5240246125
 40
0.6728225383
 40
0.8323949615
 40
1.0
 40
1.0
 40
1.0
 40
1.0
 10
5.2171616511
 20
5.4900738988
 30
0.0
 10
5.2174173287
 20
5.4898434107
 30
0.0
 10
5.2180550398
 20
5.4894042004
 30
0.0
 10
5.2191994891
 20
5.4888430971
 30
0.0
 10
5.2206167546
 20
5.4883216993
 30
0.0
 10
5.2222846631
 20
5.4878477853
 30
0.0
 10
5.2241789847
 20
5.4874296245
 30
0.0
 10
5.2262705632
 20
5.4870737197
 30
0.0
 10
5.2285248451
 20
5.4867871218
 30
0.0
 10
5.2300806121
 20
5.4866474635
 30
0.0
 10
5.2308784969
 20
5.4865894669
 30
0.0
  0
SPLINE
  5
3E9
100
AcDbEntity
  8
ALL_ASSEMBLY_MEMBERS
100
AcDbSpline
 62
7
  6
CONTINUOUS
 70
0
 71
3
 72
26
 73
22
 74
0
 42
0.0000001
 43
0.0000001
 44
0.0000000001
 40
0.0
 40
0.0
 40
0.0
 40
0.0
 40
0.0623569829
 40
0.1247778131
 40
0.1872329021
 40
0.2497303102
 40
0.2810010551
 40
0.31227957
 40
0.3748377009
 40
0.4374154208
 40
0.5000036728
 40
0.562591892
 40
0.6251694078
 40
0.6877275428
 40
0.7190062096
 40
0.75027678
 40
0.8127726162
 40
0.8752268621
 40
0.9064456374
 40
0.9376539077
 40
1.0
 40
1.0
 40
1.0
 40
1.0
 10
5.4168597993
 20
4.8731963874
 30
0.0
 10
5.4092453029
 20
4.8731968319
 30
0.0
 10
5.393998074
 20
4.8739458143
 30
0.0
 10
5.371347168
 20
4.8773039489
 30
0.0
 10
5.3491169325
 20
4.882871535
 30
0.0
 10
5.331123802
 20
4.8893083522
 30
0.0
 10
5.3171589691
 20
4.8954976188
 30
0.0
 10
5.3035079499
 20
4.9023677891
 30
0.0
 10
5.2870961485
 20
4.9122033145
 30
0.0
 10
5.2686548152
 20
4.925879816
 30
0.0
 10
5.2516398172
 20
4.9413016684
 30
0.0
 10
5.2362187627
 20
4.9583173544
 30
0.0
 10
5.2225430527
 20
4.9767592322
 30
0.0
 10
5.212708215
 20
4.9931714534
 30
0.0
 10
5.2058387076
 20
5.0068227838
 30
0.0
 10
5.1996501205
 20
5.020787784
 30
0.0
 10
5.1932141112
 20
5.0387802466
 30
0.0
 10
5.1885746371
 20
5.0573107193
 30
0.0
 10
5.1859681183
 20
5.0723414204
 30
0.0
 10
5.1841034358
 20
5.0874674828
 30
0.0
 10
5.1835419707
 20
5.0989018865
 30
0.0
 10
5.1835418251
 20
5.106515053
 30
0.0
  0
SPLINE
  5
3EA
100
AcDbEntity
  8
ALL_ASSEMBLY_MEMBERS
100
AcDbSpline
 62
7
  6
CONTINUOUS
 70
0
 71
3
 72
25
 73
21
 74
0
 42
0.0000001
 43
0.0000001
 44
0.0000000001
 40
0.0
 40
0.0
 40
0.0
 40
0.0
 40
0.0623475428
 40
0.0935565134
 40
0.1247758527
 40
0.1872313819
 40
0.2497286465
 40
0.3122603096
 40
0.3748197166
 40
0.4373984107
 40
0.499987831
 40
0.5625773304
 40
0.6251563056
 40
0.6877156843
 40
0.7189948252
 40
0.7502661822
 40
0.8127648399
 40
0.8752212459
 40
0.9376424879
 40
1.0
 40
1.0
 40
1.0
 40
1.0
 10
5.1708059418
 20
5.1065143024
 30
0.0
 10
5.1708055837
 20
5.098901103
 30
0.0
 10
5.1702438983
 20
5.0874666867
 30
0.0
 10
5.1683793577
 20
5.0723405444
 30
0.0
 10
5.1657731417
 20
5.0573098606
 30
0.0
 10
5.1611330048
 20
5.0387787345
 30
0.0
 10
5.1534104529
 20
5.0171887909
 30
0.0
 10
5.1436029999
 20
4.9964473319
 30
0.0
 10
5.1318045296
 20
4.9767588751
 30
0.0
 10
5.1181281682
 20
4.9583163999
 30
0.0
 10
5.1027073092
 20
4.9413008322
 30
0.0
 10
5.0856920744
 20
4.9258791148
 30
0.0
 10
5.0672506887
 20
4.9122026867
 30
0.0
 10
5.0508388635
 20
4.9023671458
 30
0.0
 10
5.0371877747
 20
4.8954970823
 30
0.0
 10
5.0232229044
 20
4.8893078668
 30
0.0
 10
5.0052297047
 20
4.8828711475
 30
0.0
 10
4.9829994801
 20
4.8773038279
 30
0.0
 10
4.9603487674
 20
4.8739455567
 30
0.0
 10
4.9451016929
 20
4.8731965597
 30
0.0
 10
4.9374872761
 20
4.8731963283
 30
0.0
  0
SPLINE
  5
3EB
100
AcDbEntity
  8
ALL_ASSEMBLY_MEMBERS
100
AcDbSpline
 62
7
  6
CONTINUOUS
 70
0
 71
3
 72
18
 73
14
 74
0
 42
0.0000001
 43
0.0000001
 44
0.0000000001
 40
0.0
 40
0.0
 40
0.0
 40
0.0
 40
0.1626452334
 40
0.3216590805
 40
0.4725470757
 40
0.6117845673
 40
0.7362697017
 40
0.7921888077
 40
0.8435138741
 40
0.8900225712
 40
0.9316034625
 40
0.968230894
 40
1.0
 40
1.0
 40
1.0
 40
1.0
 10
4.5448870514
 20
4.8731886981
 30
0.0
 10
4.5448779949
 20
4.8750681315
 30
0.0
 10
4.5449364188
 20
4.878785842
 30
0.0
 10
4.5452463541
 20
4.8842391591
 30
0.0
 10
4.5457749069
 20
4.8894042843
 30
0.0
 10
4.5465036142
 20
4.8941417898
 30
0.0
 10
4.5472874904
 20
4.8977548574
 30
0.0
 10
4.5480149714
 20
4.9003327135
 30
0.0
 10
4.5485780195
 20
4.9020186921
 30
0.0
 10
4.5491752497
 20
4.9035160122
 30
0.0
 10
4.5498015848
 20
4.9048156621
 30
0.0
 10
4.5504518532
 20
4.9059095552
 30
0.0
 10
4.550932132
 20
4.9065409492
 30
0.0
 10
4.5511779788
 20
4.9068135822
 30
0.0
  0
SPLINE
  5
3EC
100
AcDbEntity
  8
ALL_ASSEMBLY_MEMBERS
100
AcDbSpline
 62
7
  6
CONTINUOUS
 70
0
 71
3
 72
18
 73
14
 74
0
 42
0.0000001
 43
0.0000001
 44
0.0000000001
 40
0.0
 40
0.0
 40
0.0
 40
0.0
 40
0.1625110467
 40
0.3214307404
 40
0.4722687732
 40
0.6115007949
 40
0.73602263
 40
0.791973797
 40
0.843338443
 40
0.8898922137
 40
0.9315206015
 40
0.9681936112
 40
1.0
 40
1.0
 40
1.0
 40
1.0
 10
4.5474850948
 20
4.8731963086
 30
0.0
 10
4.5474862955
 20
4.8750751559
 30
0.0
 10
4.5475646571
 20
4.8787917144
 30
0.0
 10
4.5479027287
 20
4.8842428669
 30
0.0
 10
4.5484567859
 20
4.8894061774
 30
0.0
 10
4.5492077174
 20
4.8941424026
 30
0.0
 10
4.5500073972
 20
4.8977546072
 30
0.0
 10
4.5507453146
 20
4.9003321856
 30
0.0
 10
4.5513148254
 20
4.902018346
 30
0.0
 10
4.5519173373
 20
4.9035160511
 30
0.0
 10
4.552547743
 20
4.9048162852
 30
0.0
 10
4.5532008455
 20
4.9059109542
 30
0.0
 10
4.5536822823
 20
4.9065431121
 30
0.0
 10
4.5539285078
 20
4.9068162322
 30
0.0
  0
SPLINE
  5
3ED
100
AcDbEntity
  8
ALL_ASSEMBLY_MEMBERS
100
AcDbSpline
 62
7
  6
CONTINUOUS
 70
0
 71
3
 72
17
 73
13
 74
0
 42
0.0000001
 43
0.0000001
 44
0.0000000001
 40
0.0
 40
0.0
 40
0.0
 40
0.0
 40
0.166818274
 40
0.3297054921
 40
0.4837953609
 40
0.6251883883
 40
0.7503495733
 40
0.8562135183
 40
0.9010265873
 40
0.9400644038
 40
0.973114999
 40
1.0
 40
1.0
 40
1.0
 40
1.0
 10
4.9374872762
 20
4.8731963283
 30
0.0
 10
4.9374877349
 20
4.8750747987
 30
0.0
 10
4.9375175211
 20
4.8787875275
 30
0.0
 10
4.9376459804
 20
4.8842340632
 30
0.0
 10
4.9378565091
 20
4.8893915531
 30
0.0
 10
4.9381413021
 20
4.8941200755
 30
0.0
 10
4.9384934626
 20
4.89829929
 30
0.0
 10
4.9388488524
 20
4.9013859289
 30
0.0
 10
4.9391713957
 20
4.9034979688
 30
0.0
 10
4.9394096763
 20
4.9047929147
 30
0.0
 10
4.9396554666
 20
4.9058802478
 30
0.0
 10
4.9398416449
 20
4.9065297961
 30
0.0
 10
4.9399399044
 20
4.9068161473
 30
0.0
  0
SPLINE
  5
3EE
100
AcDbEntity
  8
ALL_ASSEMBLY_MEMBERS
100
AcDbSpline
 62
7
  6
CONTINUOUS
 70
0
 71
3
 72
17
 73
13
 74
0
 42
0.0000001
 43
0.0000001
 44
0.0000000001
 40
0.0
 40
0.0
 40
0.0
 40
0.0
 40
0.1668185067
 40
0.3297059172
 40
0.4837959143
 40
0.625188991
 40
0.7503501367
 40
0.8562139535
 40
0.9010269284
 40
0.9400646356
 40
0.9731151132
 40
1.0
 40
1.0
 40
1.0
 40
1.0
 10
5.1708059418
 20
5.1065143022
 30
0.0
 10
5.168927468
 20
5.1065139117
 30
0.0
 10
5.1652147317
 20
5.1064842608
 30
0.0
 10
5.1597681827
 20
5.106356001
 30
0.0
 10
5.1546106787
 20
5.1061456612
 30
0.0
 10
5.1498821423
 20
5.1058610403
 30
0.0
 10
5.1457029148
 20
5.1055090293
 30
0.0
 10
5.142616265
 20
5.1051537465
 30
0.0
 10
5.1405042174
 20
5.1048312729
 30
0.0
 10
5.1392092671
 20
5.104593033
 30
0.0
 10
5.1381219302
 20
5.1043472744
 30
0.0
 10
5.1374723794
 20
5.1041611128
 30
0.0
 10
5.1371860272
 20
5.1040628597
 30
0.0
  0
SPLINE
  5
3EF
100
AcDbEntity
  8
ALL_ASSEMBLY_MEMBERS
100
AcDbSpline
 62
7
  6
CONTINUOUS
 70
0
 71
3
 72
18
 73
14
 74
0
 42
0.0000001
 43
0.0000001
 44
0.0000000001
 40
0.0
 40
0.0
 40
0.0
 40
0.0
 40
0.1625102005
 40
0.3214291675
 40
0.4722666898
 40
0.6114984834
 40
0.7360204217
 40
0.791971771
 40
0.8433366871
 40
0.8898908115
 40
0.931519625
 40
0.9681931128
 40
1.0
 40
1.0
 40
1.0
 40
1.0
 10
5.1708060207
 20
5.4965172334
 30
0.0
 10
5.1689271892
 20
5.4965160293
 30
0.0
 10
5.1652106609
 20
5.4964376622
 30
0.0
 10
5.1597595504
 20
5.4960995865
 30
0.0
 10
5.1545962737
 20
5.4955455297
 30
0.0
 10
5.149860071
 20
5.4947946027
 30
0.0
 10
5.1462478763
 20
5.4939949305
 30
0.0
 10
5.1436702977
 20
5.4932570219
 30
0.0
 10
5.1419841313
 20
5.4926875178
 30
0.0
 10
5.1404864158
 20
5.4920850133
 30
0.0
 10
5.1391861669
 20
5.4914546158
 30
0.0
 10
5.1380914787
 20
5.490801522
 30
0.0
 10
5.1374593047
 20
5.4903200924
 30
0.0
 10
5.1371861752
 20
5.4900738704
 30
0.0
  0
SPLINE
  5
3F0
100
AcDbEntity
  8
ALL_ASSEMBLY_MEMBERS
100
AcDbSpline
 62
7
  6
CONTINUOUS
 70
0
 71
3
 72
18
 73
14
 74
0
 42
0.0000001
 43
0.0000001
 44
0.0000000001
 40
0.0
 40
0.0
 40
0.0
 40
0.0
 40
0.1626452867
 40
0.3216591789
 40
0.4725472039
 40
0.6117847068
 40
0.7362698321
 40
0.7921889261
 40
0.8435139756
 40
0.8900226514
 40
0.9316035178
 40
0.9682309219
 40
1.0
 40
1.0
 40
1.0
 40
1.0
 10
5.1708136313
 20
5.4991152853
 30
0.0
 10
5.1689341968
 20
5.4991243418
 30
0.0
 10
5.1652164843
 20
5.4990659178
 30
0.0
 10
5.1597631644
 20
5.4987559819
 30
0.0
 10
5.1545980369
 20
5.4982274285
 30
0.0
 10
5.14986053
 20
5.4974987203
 30
0.0
 10
5.1462474618
 20
5.4967148432
 30
0.0
 10
5.1436696057
 20
5.4959873613
 30
0.0
 10
5.1419836275
 20
5.4954243127
 30
0.0
 10
5.140486308
 20
5.4948270819
 30
0.0
 10
5.1391866588
 20
5.4942007463
 30
0.0
 10
5.1380927668
 20
5.4935504773
 30
0.0
 10
5.1374613737
 20
5.4930701981
 30
0.0
 10
5.1371887412
 20
5.492824351
 30
0.0
  0
SPLINE
  5
3F1
100
AcDbEntity
  8
ALL_ASSEMBLY_MEMBERS
100
AcDbSpline
 62
7
  6
CONTINUOUS
 70
0
 71
3
 72
15
 73
11
 74
0
 42
0.0000001
 43
0.0000001
 44
0.0000000001
 40
0.0
 40
0.0
 40
0.0
 40
0.0
 40
0.0721184339
 40
0.1609895095
 40
0.2665878436
 40
0.3880366365
 40
0.5240214538
 40
0.672820049
 40
0.8323935672
 40
1.0
 40
1.0
 40
1.0
 40
1.0
 10
4.5539285344
 20
4.8268406
 30
0.0
 10
4.554159025
 20
4.8265849359
 30
0.0
 10
4.5545982408
 20
4.8259472476
 30
0.0
 10
4.55515935
 20
4.8248028264
 30
0.0
 10
4.5556807545
 20
4.8233855838
 30
0.0
 10
4.5561546755
 20
4.8217176922
 30
0.0
 10
4.556572843
 20
4.8198233815
 30
0.0
 10
4.5569287541
 20
4.8177318079
 30
0.0
 10
4.5572153575
 20
4.8154775259
 30
0.0
 10
4.5573550186
 20
4.813921757
 30
0.0
 10
4.5574130164
 20
4.8131238706
 30
0.0
  0
SPLINE
  5
3F2
100
AcDbEntity
  8
ALL_ASSEMBLY_MEMBERS
100
AcDbSpline
 62
7
  6
CONTINUOUS
 70
0
 71
3
 72
15
 73
11
 74
0
 42
0.0000001
 43
0.0000001
 44
0.0000000001
 40
0.0
 40
0.0
 40
0.0
 40
0.0
 40
0.0287938204
 40
0.0629102993
 40
0.1466847098
 40
0.2502374085
 40
0.371979164
 40
0.5101053349
 40
0.6625096236
 40
1.0
 40
1.0
 40
1.0
 40
1.0
 10
4.9399399039
 20
4.826840685
 30
0.0
 10
4.9399830029
 20
4.8267150845
 30
0.0
 10
4.9400661687
 20
4.8264368941
 30
0.0
 10
4.9402271037
 20
4.8257796813
 30
0.0
 10
4.9404126152
 20
4.824774701
 30
0.0
 10
4.9406096681
 20
4.823362839
 30
0.0
 10
4.9407892669
 20
4.8216962546
 30
0.0
 10
4.9409480733
 20
4.8198014775
 30
0.0
 10
4.9411345667
 20
4.8169110989
 30
0.0
 10
4.941224137
 20
4.8146531814
 30
0.0
 10
4.9412669613
 20
4.8130973566
 30
0.0
  0
SPLINE
  5
3F3
100
AcDbEntity
  8
ALL_ASSEMBLY_MEMBERS
100
AcDbSpline
 62
7
  6
CONTINUOUS
 70
0
 71
3
 72
20
 73
16
 74
0
 42
0.0000001
 43
0.0000001
 44
0.0000000001
 40
0.0
 40
0.0
 40
0.0
 40
0.0
 40
0.0257752727
 40
0.0539211535
 40
0.0861454803
 40
0.1235403239
 40
0.1667331694
 40
0.2159645144
 40
0.2712599731
 40
0.3325329923
 40
0.3996103341
 40
0.4721959008
 40
0.6324597609
 40
0.8100215424
 40
1.0
 40
1.0
 40
1.0
 40
1.0
 10
5.098173913
 20
5.4781166257
 30
0.0
 10
5.0981739231
 20
5.4783558001
 30
0.0
 10
5.0982594426
 20
5.4788588414
 30
0.0
 10
5.0986229144
 20
5.4795805313
 30
0.0
 10
5.0992074064
 20
5.4802819801
 30
0.0
 10
5.1000068992
 20
5.4809633987
 30
0.0
 10
5.1010177793
 20
5.4816229917
 30
0.0
 10
5.1022335369
 20
5.4822595107
 30
0.0
 10
5.1036470679
 20
5.4828697538
 30
0.0
 10
5.1052502729
 20
5.483449872
 30
0.0
 10
5.1070337937
 20
5.4839957555
 30
0.0
 10
5.1097276881
 20
5.4846972954
 30
0.0
 10
5.1134639063
 20
5.4854504137
 30
0.0
 10
5.118314338
 20
5.486142271
 30
0.0
 10
5.1217111762
 20
5.4864624858
 30
0.0
 10
5.1234693887
 20
5.4865902978
 30
0.0
  0
SPLINE
  5
3F4
100
AcDbEntity
  8
ALL_ASSEMBLY_MEMBERS
100
AcDbSpline
 62
7
  6
CONTINUOUS
 70
0
 71
3
 72
24
 73
20
 74
0
 42
0.0000001
 43
0.0000001
 44
0.0000000001
 40
0.0
 40
0.0
 40
0.0
 40
0.0
 40
0.0054494211
 40
0.011729706
 40
0.0193883184
 40
0.0287237747
 40
0.0398929475
 40
0.052980132
 40
0.0680315606
 40
0.0850723447
 40
0.1251244691
 40
0.1729826879
 40
0.2283850237
 40
0.2910388944
 40
0.3606124535
 40
0.4366716565
 40
0.6063846971
 40
0.7960539758
 40
1.0
 40
1.0
 40
1.0
 40
1.0
 10
5.098173913
 20
5.1048284161
 30
0.0
 10
5.098173913
 20
5.1048753394
 30
0.0
 10
5.098196887
 20
5.104976967
 30
0.0
 10
5.0982904596
 20
5.1051179943
 30
0.0
 10
5.0984380894
 20
5.1052552426
 30
0.0
 10
5.0986398991
 20
5.1053908941
 30
0.0
 10
5.0988962577
 20
5.1055256809
 30
0.0
 10
5.099207392
 20
5.1056595587
 30
0.0
 10
5.0995732359
 20
5.1057923335
 30
0.0
 10
5.1001663697
 20
5.1059775374
 30
0.0
 10
5.1010432837
 20
5.1061984619
 30
0.0
 10
5.1022528497
 20
5.1064441517
 30
0.0
 10
5.1036620576
 20
5.1066803676
 30
0.0
 10
5.1052620722
 20
5.1069053804
 30
0.0
 10
5.1070431084
 20
5.1071173255
 30
0.0
 10
5.1097447376
 20
5.1073909333
 30
0.0
 10
5.113483235
 20
5.107683649
 30
0.0
 10
5.1183267219
 20
5.1079522709
 30
0.0
 10
5.1217139571
 20
5.1080764543
 30
0.0
 10
5.1234693677
 20
5.1081261333
 30
0.0
  0
SPLINE
  5
3F5
100
AcDbEntity
  8
ALL_ASSEMBLY_MEMBERS
100
AcDbSpline
 62
7
  6
CONTINUOUS
 70
0
 71
3
 72
24
 73
20
 74
0
 42
0.0000001
 43
0.0000001
 44
0.0000000001
 40
0.0
 40
0.0
 40
0.0
 40
0.0
 40
0.004936281
 40
0.0107823324
 40
0.0180990919
 40
0.0271687835
 40
0.0381308761
 40
0.0510567914
 40
0.0659838221
 40
0.0829308426
 40
0.1228710516
 40
0.1706974368
 40
0.2261334041
 40
0.2888770875
 40
0.3585901254
 40
0.4348332674
 40
0.6050324963
 40
0.7953230522
 40
1.0
 40
1.0
 40
1.0
 40
1.0
 10
5.0981141503
 20
5.1004694054
 30
0.0
 10
5.0981153099
 20
5.1005116824
 30
0.0
 10
5.0981416403
 20
5.1006038942
 30
0.0
 10
5.0982392264
 20
5.1007273323
 30
0.0
 10
5.0983896953
 20
5.1008457849
 30
0.0
 10
5.0985941194
 20
5.1009615073
 30
0.0
 10
5.098852975
 20
5.101075132
 30
0.0
 10
5.0991665444
 20
5.1011865307
 30
0.0
 10
5.0995347331
 20
5.1012954962
 30
0.0
 10
5.1001316195
 20
5.1014454109
 30
0.0
 10
5.1010122513
 20
5.1016194663
 30
0.0
 10
5.1022250242
 20
5.1018066093
 30
0.0
 10
5.1036369293
 20
5.1019798379
 30
0.0
 10
5.1052390928
 20
5.1021378394
 30
0.0
 10
5.1070216827
 20
5.1022791975
 30
0.0
 10
5.1097250818
 20
5.1024507373
 30
0.0
 10
5.1134638725
 20
5.102611092
 30
0.0
 10
5.118305111
 20
5.1027197218
 30
0.0
 10
5.1216892258
 20
5.1027386335
 30
0.0
 10
5.1234428491
 20
5.1027352878
 30
0.0
  0
SPLINE
  5
3F6
100
AcDbEntity
  8
ALL_ASSEMBLY_MEMBERS
100
AcDbSpline
 62
7
  6
CONTINUOUS
 70
0
 71
3
 72
24
 73
20
 74
0
 42
0.0000001
 43
0.0000001
 44
0.0000000001
 40
0.0
 40
0.0
 40
0.0
 40
0.0
 40
0.0049362178
 40
0.0107822107
 40
0.0180989208
 40
0.0271685716
 40
0.0381306305
 40
0.0510565183
 40
0.0659835266
 40
0.0829305293
 40
0.1228707149
 40
0.1706970903
 40
0.2261330596
 40
0.2888767554
 40
0.3585898148
 40
0.4348329863
 40
0.6050322937
 40
0.7953229469
 40
1.0
 40
1.0
 40
1.0
 40
1.0
 10
4.9435327938
 20
4.9458881863
 30
0.0
 10
4.9434905173
 20
4.9458870268
 30
0.0
 10
4.9433983064
 20
4.9458606968
 30
0.0
 10
4.9432748699
 20
4.945763111
 30
0.0
 10
4.9431564188
 20
4.9456126426
 30
0.0
 10
4.943040698
 20
4.9454082188
 30
0.0
 10
4.9429270747
 20
4.9451493635
 30
0.0
 10
4.9428156774
 20
4.9448357943
 30
0.0
 10
4.9427067133
 20
4.9444676057
 30
0.0
 10
4.9425568005
 20
4.9438707193
 30
0.0
 10
4.9423827475
 20
4.9429900875
 30
0.0
 10
4.9421956072
 20
4.9417773142
 30
0.0
 10
4.9420223814
 20
4.9403654085
 30
0.0
 10
4.9418643827
 20
4.9387632442
 30
0.0
 10
4.9417230275
 20
4.9369806534
 30
0.0
 10
4.9415514919
 20
4.9342772526
 30
0.0
 10
4.9413911427
 20
4.9305384594
 30
0.0
 10
4.9412825198
 20
4.9256972177
 30
0.0
 10
4.9412636131
 20
4.9223131007
 30
0.0
 10
4.9412669613
 20
4.9205594764
 30
0.0
  0
SPLINE
  5
3F7
100
AcDbEntity
  8
ALL_ASSEMBLY_MEMBERS
100
AcDbSpline
 62
7
  6
CONTINUOUS
 70
0
 71
3
 72
24
 73
20
 74
0
 42
0.0000001
 43
0.0000001
 44
0.0000000001
 40
0.0
 40
0.0
 40
0.0
 40
0.0
 40
0.0054494215
 40
0.0117297065
 40
0.0193883189
 40
0.0287237751
 40
0.0398929477
 40
0.0529801321
 40
0.0680315604
 40
0.0850723444
 40
0.1251244684
 40
0.1729826868
 40
0.2283850224
 40
0.2910388929
 40
0.3606124519
 40
0.436671655
 40
0.6063846958
 40
0.796053975
 40
1.0
 40
1.0
 40
1.0
 40
1.0
 10
4.939173913
 20
4.9458284161
 30
0.0
 10
4.9391269898
 20
4.9458284161
 30
0.0
 10
4.9390253622
 20
4.9458054422
 30
0.0
 10
4.9388843349
 20
4.9457118696
 30
0.0
 10
4.9387470866
 20
4.9455642398
 30
0.0
 10
4.9386114351
 20
4.9453624301
 30
0.0
 10
4.9384766482
 20
4.9451060716
 30
0.0
 10
4.9383427704
 20
4.9447949373
 30
0.0
 10
4.9382099956
 20
4.9444290933
 30
0.0
 10
4.9380247917
 20
4.9438359596
 30
0.0
 10
4.9378038672
 20
4.9429590456
 30
0.0
 10
4.9375581774
 20
4.9417494796
 30
0.0
 10
4.9373219614
 20
4.9403402717
 30
0.0
 10
4.9370969486
 20
4.9387402571
 30
0.0
 10
4.9368850034
 20
4.9369592209
 30
0.0
 10
4.9366113957
 20
4.9342575917
 30
0.0
 10
4.93631868
 20
4.9305190943
 30
0.0
 10
4.936050058
 20
4.9256756074
 30
0.0
 10
4.9359258747
 20
4.9222883722
 30
0.0
 10
4.9358761956
 20
4.9205329616
 30
0.0
  0
SPLINE
  5
3F8
100
AcDbEntity
  8
ALL_ASSEMBLY_MEMBERS
100
AcDbSpline
 62
7
  6
CONTINUOUS
 70
0
 71
3
 72
20
 73
16
 74
0
 42
0.0000001
 43
0.0000001
 44
0.0000000001
 40
0.0
 40
0.0
 40
0.0
 40
0.0
 40
0.0257663463
 40
0.0539041182
 40
0.0861218514
 40
0.1235117962
 40
0.1667013723
 40
0.2159309117
 40
0.2712258643
 40
0.3324995374
 40
0.3995785711
 40
0.4721667479
 40
0.6324381771
 40
0.8100099694
 40
1.0
 40
1.0
 40
1.0
 40
1.0
 10
4.5658857025
 20
4.9458284161
 30
0.0
 10
4.5656466221
 20
4.9458284246
 30
0.0
 10
4.5651437549
 20
4.9457429352
 30
0.0
 10
4.5644223336
 20
4.9453794952
 30
0.0
 10
4.5637211497
 20
4.9447950364
 30
0.0
 10
4.5630399816
 20
4.9439955755
 30
0.0
 10
4.5623806207
 20
4.9429847229
 30
0.0
 10
4.5617443134
 20
4.9417689862
 30
0.0
 10
4.5611342606
 20
4.9403554687
 30
0.0
 10
4.5605543099
 20
4.9387522702
 30
0.0
 10
4.5600085693
 20
4.9369687491
 30
0.0
 10
4.5593071882
 20
4.9342748343
 30
0.0
 10
4.5585541956
 20
4.9305385836
 30
0.0
 10
4.5578623701
 20
4.9256881069
 30
0.0
 10
4.5575420984
 20
4.9222912342
 30
0.0
 10
4.5574142376
 20
4.920533
 30
0.0
  0
SPLINE
  5
3F9
100
AcDbEntity
  8
ALL_ASSEMBLY_MEMBERS
100
AcDbSpline
 62
7
  6
CONTINUOUS
 70
0
 71
3
 72
23
 73
19
 74
0
 42
0.0000001
 43
0.0000001
 44
0.0000000001
 40
0.0
 40
0.0
 40
0.0
 40
0.0
 40
0.0623607067
 40
0.1247853591
 40
0.1872438875
 40
0.2497447749
 40
0.3122786774
 40
0.3748403033
 40
0.4374215393
 40
0.5000133138
 40
0.562605051
 40
0.6251860795
 40
0.6877477125
 40
0.7502815858
 40
0.8127809022
 40
0.8752386117
 40
0.937650362
 40
1.0
 40
1.0
 40
1.0
 40
1.0
 10
4.9399399039
 20
4.8268406842
 30
0.0
 10
4.9463775402
 20
4.8268405599
 30
0.0
 10
4.9592682814
 20
4.8262078807
 30
0.0
 10
4.9784184873
 20
4.8233713352
 30
0.0
 10
4.9972144048
 20
4.8186675211
 30
0.0
 10
5.0154692876
 20
4.8121414109
 30
0.0
 10
5.0330060863
 20
4.8038521443
 30
0.0
 10
5.0496526336
 20
4.7938789505
 30
0.0
 10
5.0652454952
 20
4.7823174335
 30
0.0
 10
5.0796309969
 20
4.7692796442
 30
0.0
 10
5.0926681665
 20
4.7548936073
 30
0.0
 10
5.1042289944
 20
4.7393002701
 30
0.0
 10
5.1142015482
 20
4.7226533615
 30
0.0
 10
5.1224899091
 20
4.7051163247
 30
0.0
 10
5.1290153803
 20
4.6868614677
 30
0.0
 10
5.1337177248
 20
4.6680668317
 30
0.0
 10
5.1365541375
 20
4.6489192055
 30
0.0
 10
5.1371861205
 20
4.6360309007
 30
0.0
 10
5.1371861806
 20
4.629594407
 30
0.0
  0
SPLINE
  5
3FA
100
AcDbEntity
  8
ALL_ASSEMBLY_MEMBERS
100
AcDbSpline
 62
7
  6
CONTINUOUS
 70
0
 71
3
 72
15
 73
11
 74
0
 42
0.0000001
 43
0.0000001
 44
0.0000000001
 40
0.0
 40
0.0
 40
0.0
 40
0.0
 40
0.02879382
 40
0.0629102982
 40
0.1466847077
 40
0.2502374056
 40
0.3719791605
 40
0.5101053312
 40
0.6625096205
 40
1.0
 40
1.0
 40
1.0
 40
1.0
 10
5.1371861806
 20
4.629594407
 30
0.0
 10
5.1370605802
 20
4.629637506
 30
0.0
 10
5.1367823898
 20
4.6297206718
 30
0.0
 10
5.136125177
 20
4.6298816068
 30
0.0
 10
5.1351201967
 20
4.6300671183
 30
0.0
 10
5.1337083348
 20
4.6302641712
 30
0.0
 10
5.1320417504
 20
4.63044377
 30
0.0
 10
5.1301469734
 20
4.6306025764
 30
0.0
 10
5.127256595
 20
4.6307890698
 30
0.0
 10
5.1249986775
 20
4.6308786401
 30
0.0
 10
5.1234428527
 20
4.6309214644
 30
0.0
  0
SPLINE
  5
3FB
100
AcDbEntity
  8
ALL_ASSEMBLY_MEMBERS
100
AcDbSpline
 62
7
  6
CONTINUOUS
 70
0
 71
3
 72
15
 73
11
 74
0
 42
0.0000001
 43
0.0000001
 44
0.0000000001
 40
0.0
 40
0.0
 40
0.0
 40
0.0
 40
0.0721197361
 40
0.1609919098
 40
0.266590948
 40
0.3880399987
 40
0.5240246125
 40
0.6728225383
 40
0.8323949615
 40
1.0
 40
1.0
 40
1.0
 40
1.0
 10
5.137186175
 20
4.2435829335
 30
0.0
 10
5.1369304974
 20
4.2438134216
 30
0.0
 10
5.1362927863
 20
4.2442526319
 30
0.0
 10
5.1351483369
 20
4.2448137352
 30
0.0
 10
5.1337310715
 20
4.245335133
 30
0.0
 10
5.132063163
 20
4.245809047
 30
0.0
 10
5.1301688414
 20
4.2462272078
 30
0.0
 10
5.1280772628
 20
4.2465831126
 30
0.0
 10
5.125822981
 20
4.2468697105
 30
0.0
 10
5.124267214
 20
4.2470093688
 30
0.0
 10
5.1234693292
 20
4.2470673654
 30
0.0
  0
SPLINE
  5
3FC
100
AcDbEntity
  8
ALL_ASSEMBLY_MEMBERS
100
AcDbSpline
 62
7
  6
CONTINUOUS
 70
0
 71
3
 72
18
 73
14
 74
0
 42
0.0000001
 43
0.0000001
 44
0.0000000001
 40
0.0
 40
0.0
 40
0.0
 40
0.0
 40
0.1626452336
 40
0.3216590808
 40
0.4725470761
 40
0.6117845677
 40
0.7362697021
 40
0.7921888081
 40
0.8435138744
 40
0.8900225714
 40
0.9316034626
 40
0.9682308941
 40
1.0
 40
1.0
 40
1.0
 40
1.0
 10
5.1708136311
 20
4.2345415545
 30
0.0
 10
5.1689341977
 20
4.234532498
 30
0.0
 10
5.1652164872
 20
4.2345909219
 30
0.0
 10
5.1597631701
 20
4.2349008572
 30
0.0
 10
5.1545980448
 20
4.2354294099
 30
0.0
 10
5.1498605394
 20
4.2361581173
 30
0.0
 10
5.1462474718
 20
4.2369419935
 30
0.0
 10
5.1436696156
 20
4.2376694745
 30
0.0
 10
5.1419836371
 20
4.2382325226
 30
0.0
 10
5.140486317
 20
4.2388297528
 30
0.0
 10
5.139186667
 20
4.2394560879
 30
0.0
 10
5.138092774
 20
4.2401063563
 30
0.0
 10
5.13746138
 20
4.2405866351
 30
0.0
 10
5.137188747
 20
4.2408324819
 30
0.0
  0
SPLINE
  5
3FD
100
AcDbEntity
  8
ALL_ASSEMBLY_MEMBERS
100
AcDbSpline
 62
7
  6
CONTINUOUS
 70
0
 71
3
 72
18
 73
14
 74
0
 42
0.0000001
 43
0.0000001
 44
0.0000000001
 40
0.0
 40
0.0
 40
0.0
 40
0.0
 40
0.1625110467
 40
0.3214307404
 40
0.4722687732
 40
0.6115007949
 40
0.73602263
 40
0.791973797
 40
0.843338443
 40
0.8898922137
 40
0.9315206015
 40
0.9681936112
 40
1.0
 40
1.0
 40
1.0
 40
1.0
 10
5.1708060206
 20
4.2371395979
 30
0.0
 10
5.1689271733
 20
4.2371407986
 30
0.0
 10
5.1652106147
 20
4.2372191602
 30
0.0
 10
5.1597594623
 20
4.2375572319
 30
0.0
 10
5.1545961518
 20
4.238111289
 30
0.0
 10
5.1498599266
 20
4.2388622205
 30
0.0
 10
5.146247722
 20
4.2396619003
 30
0.0
 10
5.1436701436
 20
4.2403998177
 30
0.0
 10
5.1419839832
 20
4.2409693285
 30
0.0
 10
5.1404862781
 20
4.2415718404
 30
0.0
 10
5.139186044
 20
4.2422022461
 30
0.0
 10
5.138091375
 20
4.2428553486
 30
0.0
 10
5.1374592171
 20
4.2433367854
 30
0.0
 10
5.137186097
 20
4.2435830109
 30
0.0
  0
SPLINE
  5
3FE
100
AcDbEntity
  8
ALL_ASSEMBLY_MEMBERS
100
AcDbSpline
 62
7
  6
CONTINUOUS
 70
0
 71
3
 72
17
 73
13
 74
0
 42
0.0000001
 43
0.0000001
 44
0.0000000001
 40
0.0
 40
0.0
 40
0.0
 40
0.0
 40
0.1668182735
 40
0.3297054911
 40
0.4837953596
 40
0.6251883869
 40
0.7503495719
 40
0.856213517
 40
0.9010265862
 40
0.9400644029
 40
0.9731149985
 40
1.0
 40
1.0
 40
1.0
 40
1.0
 10
5.170806001
 20
4.6271417771
 30
0.0
 10
5.1689275306
 20
4.6271422359
 30
0.0
 10
5.1652148017
 20
4.6271720222
 30
0.0
 10
5.159768266
 20
4.6273004817
 30
0.0
 10
5.1546107761
 20
4.6275110105
 30
0.0
 10
5.1498822537
 20
4.6277958036
 30
0.0
 10
5.1457030392
 20
4.6281479642
 30
0.0
 10
5.1426164003
 20
4.6285033541
 30
0.0
 10
5.1405043604
 20
4.6288258975
 30
0.0
 10
5.1392094145
 20
4.6290641782
 30
0.0
 10
5.1381220814
 20
4.6293099686
 30
0.0
 10
5.1374725331
 20
4.6294961469
 30
0.0
 10
5.1371861819
 20
4.6295944065
 30
0.0
  0
SPLINE
  5
3FF
100
AcDbEntity
  8
ALL_ASSEMBLY_MEMBERS
100
AcDbSpline
 62
7
  6
CONTINUOUS
 70
0
 71
3
 72
17
 73
13
 74
0
 42
0.0000001
 43
0.0000001
 44
0.0000000001
 40
0.0
 40
0.0
 40
0.0
 40
0.0
 40
0.1668181141
 40
0.3297052365
 40
0.4837950658
 40
0.6251881002
 40
0.7503493284
 40
0.8562133423
 40
0.9010264522
 40
0.9400643124
 40
0.9731149529
 40
1.0
 40
1.0
 40
1.0
 40
1.0
 10
4.937487276
 20
4.8604605044
 30
0.0
 10
4.9374877342
 20
4.8585820319
 30
0.0
 10
4.9375175196
 20
4.8548692983
 30
0.0
 10
4.9376459777
 20
4.8494227548
 30
0.0
 10
4.9378565055
 20
4.8442652556
 30
0.0
 10
4.9381412978
 20
4.8395367233
 30
0.0
 10
4.9384934582
 20
4.8353574989
 30
0.0
 10
4.9388488482
 20
4.8322708518
 30
0.0
 10
4.9391713919
 20
4.8301588058
 30
0.0
 10
4.939409673
 20
4.8288638558
 30
0.0
 10
4.939655464
 20
4.827776519
 30
0.0
 10
4.9398416428
 20
4.8271269683
 30
0.0
 10
4.9399399027
 20
4.826840616
 30
0.0
  0
SPLINE
  5
400
100
AcDbEntity
  8
ALL_ASSEMBLY_MEMBERS
100
AcDbSpline
 62
7
  6
CONTINUOUS
 70
0
 71
3
 72
18
 73
14
 74
0
 42
0.0000001
 43
0.0000001
 44
0.0000000001
 40
0.0
 40
0.0
 40
0.0
 40
0.0
 40
0.1625102005
 40
0.3214291675
 40
0.4722666898
 40
0.6114984834
 40
0.7360204217
 40
0.791971771
 40
0.8433366871
 40
0.8898908115
 40
0.931519625
 40
0.9681931128
 40
1.0
 40
1.0
 40
1.0
 40
1.0
 10
4.5474850958
 20
4.8604605238
 30
0.0
 10
4.5474862999
 20
4.8585816923
 30
0.0
 10
4.547564667
 20
4.854865164
 30
0.0
 10
4.5479027427
 20
4.8494140536
 30
0.0
 10
4.5484567995
 20
4.8442507768
 30
0.0
 10
4.5492077265
 20
4.8395145741
 30
0.0
 10
4.5500073986
 20
4.8359023794
 30
0.0
 10
4.5507453073
 20
4.8333248008
 30
0.0
 10
4.5513148114
 20
4.8316386344
 30
0.0
 10
4.5519173159
 20
4.8301409189
 30
0.0
 10
4.5525477134
 20
4.82884067
 30
0.0
 10
4.5532008072
 20
4.8277459818
 30
0.0
 10
4.5536822368
 20
4.8271138079
 30
0.0
 10
4.5539284588
 20
4.8268406783
 30
0.0
  0
SPLINE
  5
401
100
AcDbEntity
  8
ALL_ASSEMBLY_MEMBERS
100
AcDbSpline
 62
7
  6
CONTINUOUS
 70
0
 71
3
 72
18
 73
14
 74
0
 42
0.0000001
 43
0.0000001
 44
0.0000000001
 40
0.0
 40
0.0
 40
0.0
 40
0.0
 40
0.1626452867
 40
0.3216591789
 40
0.4725472039
 40
0.6117847068
 40
0.7362698321
 40
0.7921889261
 40
0.8435139756
 40
0.8900226514
 40
0.9316035178
 40
0.9682309219
 40
1.0
 40
1.0
 40
1.0
 40
1.0
 10
4.5448870439
 20
4.8604681344
 30
0.0
 10
4.5448779874
 20
4.8585886999
 30
0.0
 10
4.5449364114
 20
4.8548709874
 30
0.0
 10
4.5452463473
 20
4.8494176675
 30
0.0
 10
4.5457749007
 20
4.84425254
 30
0.0
 10
4.5465036089
 20
4.8395150331
 30
0.0
 10
4.547287486
 20
4.835901965
 30
0.0
 10
4.5480149679
 20
4.8333241088
 30
0.0
 10
4.5485780165
 20
4.8316381306
 30
0.0
 10
4.5491752473
 20
4.8301408111
 30
0.0
 10
4.5498015829
 20
4.8288411619
 30
0.0
 10
4.5504518519
 20
4.8277472699
 30
0.0
 10
4.5509321311
 20
4.8271158768
 30
0.0
 10
4.5511779781
 20
4.8268432443
 30
0.0
  0
SPLINE
  5
402
100
AcDbEntity
  8
ALL_ASSEMBLY_MEMBERS
100
AcDbSpline
 62
7
  6
CONTINUOUS
 70
0
 71
3
 72
25
 73
21
 74
0
 42
0.0000001
 43
0.0000001
 44
0.0000000001
 40
0.0
 40
0.0
 40
0.0
 40
0.0
 40
0.0623475428
 40
0.0935565134
 40
0.1247758527
 40
0.1872313819
 40
0.2497286465
 40
0.3122603096
 40
0.3748197166
 40
0.4373984107
 40
0.499987831
 40
0.5625773304
 40
0.6251563056
 40
0.6877156843
 40
0.7189948252
 40
0.7502661822
 40
0.8127648399
 40
0.8752212459
 40
0.9376424879
 40
1.0
 40
1.0
 40
1.0
 40
1.0
 10
5.1835418843
 20
4.6271425299
 30
0.0
 10
5.1835422424
 20
4.6347557293
 30
0.0
 10
5.1841039278
 20
4.6461901456
 30
0.0
 10
5.1859684684
 20
4.6613162879
 30
0.0
 10
5.1885746843
 20
4.6763469717
 30
0.0
 10
5.1932148213
 20
4.6948780978
 30
0.0
 10
5.2009373732
 20
4.7164680414
 30
0.0
 10
5.2107448261
 20
4.7372095004
 30
0.0
 10
5.2225432965
 20
4.7568979572
 30
0.0
 10
5.2362196579
 20
4.7753404324
 30
0.0
 10
5.2516405169
 20
4.7923560001
 30
0.0
 10
5.2686557517
 20
4.8077777175
 30
0.0
 10
5.2870971374
 20
4.8214541456
 30
0.0
 10
5.3035089626
 20
4.8312896865
 30
0.0
 10
5.3171600514
 20
4.8381597499
 30
0.0
 10
5.3311249217
 20
4.8443489655
 30
0.0
 10
5.3491181214
 20
4.8507856848
 30
0.0
 10
5.371348346
 20
4.8563530044
 30
0.0
 10
5.3939990587
 20
4.8597112756
 30
0.0
 10
5.4092461332
 20
4.8604602726
 30
0.0
 10
5.4168605499
 20
4.860460504
 30
0.0
  0
SPLINE
  5
403
100
AcDbEntity
  8
ALL_ASSEMBLY_MEMBERS
100
AcDbSpline
 62
7
  6
CONTINUOUS
 70
0
 71
3
 72
26
 73
22
 74
0
 42
0.0000001
 43
0.0000001
 44
0.0000000001
 40
0.0
 40
0.0
 40
0.0
 40
0.0
 40
0.0623571091
 40
0.1247781146
 40
0.1872331886
 40
0.2497305666
 40
0.2810013071
 40
0.312279818
 40
0.3748379289
 40
0.437415635
 40
0.5000038736
 40
0.5625920766
 40
0.6251695796
 40
0.6877276994
 40
0.7190063584
 40
0.7502769203
 40
0.8127727372
 40
0.875226965
 40
0.9064457176
 40
0.9376539534
 40
1.0
 40
1.0
 40
1.0
 40
1.0
 10
4.9374872737
 20
4.8604605043
 30
0.0
 10
4.9451018016
 20
4.8604602022
 30
0.0
 10
4.9603491119
 20
4.8597112008
 30
0.0
 10
4.9830000781
 20
4.8563529461
 30
0.0
 10
5.0052303938
 20
4.8507854404
 30
0.0
 10
5.0232236007
 20
4.8443487226
 30
0.0
 10
5.0371884505
 20
4.8381594257
 30
0.0
 10
5.0508395177
 20
4.8312892888
 30
0.0
 10
5.067251368
 20
4.8214537698
 30
0.0
 10
5.0856927211
 20
4.807777225
 30
0.0
 10
5.1027077901
 20
4.7923553892
 30
0.0
 10
5.1181289015
 20
4.7753396932
 30
0.0
 10
5.1318046291
 20
4.7568977761
 30
0.0
 10
5.1416395258
 20
4.7404855487
 30
0.0
 10
5.1485090494
 20
4.7268341941
 30
0.0
 10
5.1546976547
 20
4.7128691716
 30
0.0
 10
5.1611336859
 20
4.69487668
 30
0.0
 10
5.1657731761
 20
4.6763461771
 30
0.0
 10
5.1683797007
 20
4.6613154536
 30
0.0
 10
5.1702443904
 20
4.6461893723
 30
0.0
 10
5.1708058564
 20
4.6347549541
 30
0.0
 10
5.170806001
 20
4.6271417771
 30
0.0
  0
SPLINE
  5
404
100
AcDbEntity
  8
ALL_ASSEMBLY_MEMBERS
100
AcDbSpline
 62
7
  6
CONTINUOUS
 70
0
 71
3
 72
18
 73
14
 74
0
 42
0.0000001
 43
0.0000001
 44
0.0000000001
 40
0.0
 40
0.0
 40
0.0
 40
0.0
 40
0.1626452336
 40
0.3216590808
 40
0.4725470761
 40
0.6117845677
 40
0.7362697021
 40
0.7921888081
 40
0.8435138744
 40
0.8900225714
 40
0.9316034626
 40
0.9682308941
 40
1.0
 40
1.0
 40
1.0
 40
1.0
 10
5.8094607747
 20
4.8604681342
 30
0.0
 10
5.8094698312
 20
4.8585887008
 30
0.0
 10
5.8094114073
 20
4.8548709903
 30
0.0
 10
5.809101472
 20
4.8494176732
 30
0.0
 10
5.8085729192
 20
4.8442525479
 30
0.0
 10
5.8078442119
 20
4.8395150425
 30
0.0
 10
5.8070603357
 20
4.8359019749
 30
0.0
 10
5.8063328547
 20
4.8333241187
 30
0.0
 10
5.8057698066
 20
4.8316381402
 30
0.0
 10
5.8051725764
 20
4.8301408201
 30
0.0
 10
5.8045462413
 20
4.8288411702
 30
0.0
 10
5.8038959729
 20
4.8277472771
 30
0.0
 10
5.8034156941
 20
4.8271158831
 30
0.0
 10
5.8031698473
 20
4.8268432501
 30
0.0
  0
SPLINE
  5
405
100
AcDbEntity
  8
ALL_ASSEMBLY_MEMBERS
100
AcDbSpline
 62
7
  6
CONTINUOUS
 70
0
 71
3
 72
18
 73
14
 74
0
 42
0.0000001
 43
0.0000001
 44
0.0000000001
 40
0.0
 40
0.0
 40
0.0
 40
0.0
 40
0.1625110467
 40
0.3214307404
 40
0.4722687732
 40
0.6115007949
 40
0.73602263
 40
0.791973797
 40
0.843338443
 40
0.8898922137
 40
0.9315206015
 40
0.9681936112
 40
1.0
 40
1.0
 40
1.0
 40
1.0
 10
5.8068627312
 20
4.8604605237
 30
0.0
 10
5.8068615306
 20
4.8585816764
 30
0.0
 10
5.806783169
 20
4.8548651178
 30
0.0
 10
5.8064450973
 20
4.8494139654
 30
0.0
 10
5.8058910402
 20
4.8442506549
 30
0.0
 10
5.8051401087
 20
4.8395144297
 30
0.0
 10
5.8043404289
 20
4.8359022251
 30
0.0
 10
5.8036025115
 20
4.8333246467
 30
0.0
 10
5.8030330007
 20
4.8316384863
 30
0.0
 10
5.8024304888
 20
4.8301407812
 30
0.0
 10
5.8018000831
 20
4.8288405471
 30
0.0
 10
5.8011469806
 20
4.8277458781
 30
0.0
 10
5.8006655438
 20
4.8271137202
 30
0.0
 10
5.8004193183
 20
4.8268406001
 30
0.0
  0
SPLINE
  5
406
100
AcDbEntity
  8
ALL_ASSEMBLY_MEMBERS
100
AcDbSpline
 62
7
  6
CONTINUOUS
 70
0
 71
3
 72
17
 73
13
 74
0
 42
0.0000001
 43
0.0000001
 44
0.0000000001
 40
0.0
 40
0.0
 40
0.0
 40
0.0
 40
0.166818274
 40
0.3297054921
 40
0.4837953609
 40
0.6251883883
 40
0.7503495733
 40
0.8562135183
 40
0.9010265873
 40
0.9400644038
 40
0.973114999
 40
1.0
 40
1.0
 40
1.0
 40
1.0
 10
5.4168605499
 20
4.860460504
 30
0.0
 10
5.4168600912
 20
4.8585820336
 30
0.0
 10
5.416830305
 20
4.8548693048
 30
0.0
 10
5.4167018457
 20
4.8494227691
 30
0.0
 10
5.4164913169
 20
4.8442652792
 30
0.0
 10
5.416206524
 20
4.8395367568
 30
0.0
 10
5.4158543635
 20
4.8353575423
 30
0.0
 10
5.4154989737
 20
4.8322709034
 30
0.0
 10
5.4151764304
 20
4.8301588635
 30
0.0
 10
5.4149381498
 20
4.8288639176
 30
0.0
 10
5.4146923595
 20
4.8277765845
 30
0.0
 10
5.4145061812
 20
4.8271270362
 30
0.0
 10
5.4144079216
 20
4.826840685
 30
0.0
  0
SPLINE
  5
407
100
AcDbEntity
  8
ALL_ASSEMBLY_MEMBERS
100
AcDbSpline
 62
7
  6
CONTINUOUS
 70
0
 71
3
 72
17
 73
13
 74
0
 42
0.0000001
 43
0.0000001
 44
0.0000000001
 40
0.0
 40
0.0
 40
0.0
 40
0.0
 40
0.1668185067
 40
0.3297059172
 40
0.4837959143
 40
0.625188991
 40
0.7503501367
 40
0.8562139535
 40
0.9010269284
 40
0.9400646356
 40
0.9731151132
 40
1.0
 40
1.0
 40
1.0
 40
1.0
 10
5.1835418842
 20
4.6271425301
 30
0.0
 10
5.1854203581
 20
4.6271429206
 30
0.0
 10
5.1891330944
 20
4.6271725715
 30
0.0
 10
5.1945796434
 20
4.6273008313
 30
0.0
 10
5.1997371474
 20
4.6275111711
 30
0.0
 10
5.2044656838
 20
4.627795792
 30
0.0
 10
5.2086449113
 20
4.628147803
 30
0.0
 10
5.2117315611
 20
4.6285030858
 30
0.0
 10
5.2138436087
 20
4.6288255594
 30
0.0
 10
5.215138559
 20
4.6290637993
 30
0.0
 10
5.2162258959
 20
4.6293095579
 30
0.0
 10
5.2168754467
 20
4.6294957195
 30
0.0
 10
5.2171617989
 20
4.6295939726
 30
0.0
  0
SPLINE
  5
408
100
AcDbEntity
  8
ALL_ASSEMBLY_MEMBERS
100
AcDbSpline
 62
7
  6
CONTINUOUS
 70
0
 71
3
 72
18
 73
14
 74
0
 42
0.0000001
 43
0.0000001
 44
0.0000000001
 40
0.0
 40
0.0
 40
0.0
 40
0.0
 40
0.1625102005
 40
0.3214291675
 40
0.4722666898
 40
0.6114984834
 40
0.7360204217
 40
0.791971771
 40
0.8433366871
 40
0.8898908115
 40
0.931519625
 40
0.9681931128
 40
1.0
 40
1.0
 40
1.0
 40
1.0
 10
5.1835418054
 20
4.2371395989
 30
0.0
 10
5.1854206369
 20
4.237140803
 30
0.0
 10
5.1891371652
 20
4.2372191701
 30
0.0
 10
5.1945882756
 20
4.2375572458
 30
0.0
 10
5.1997515523
 20
4.2381113026
 30
0.0
 10
5.2044877551
 20
4.2388622296
 30
0.0
 10
5.2080999498
 20
4.2396619018
 30
0.0
 10
5.2106775284
 20
4.2403998104
 30
0.0
 10
5.2123636948
 20
4.2409693145
 30
0.0
 10
5.2138614103
 20
4.241571819
 30
0.0
 10
5.2151616592
 20
4.2422022165
 30
0.0
 10
5.2162563474
 20
4.2428553103
 30
0.0
 10
5.2168885213
 20
4.2433367399
 30
0.0
 10
5.2171616508
 20
4.2435829619
 30
0.0
  0
SPLINE
  5
409
100
AcDbEntity
  8
ALL_ASSEMBLY_MEMBERS
100
AcDbSpline
 62
7
  6
CONTINUOUS
 70
0
 71
3
 72
18
 73
14
 74
0
 42
0.0000001
 43
0.0000001
 44
0.0000000001
 40
0.0
 40
0.0
 40
0.0
 40
0.0
 40
0.1626452867
 40
0.3216591789
 40
0.4725472039
 40
0.6117847068
 40
0.7362698321
 40
0.7921889261
 40
0.8435139756
 40
0.8900226514
 40
0.9316035178
 40
0.9682309219
 40
1.0
 40
1.0
 40
1.0
 40
1.0
 10
5.1835341948
 20
4.234541547
 30
0.0
 10
5.1854136293
 20
4.2345324905
 30
0.0
 10
5.1891313418
 20
4.2345909145
 30
0.0
 10
5.1945846617
 20
4.2349008504
 30
0.0
 10
5.1997497892
 20
4.2354294038
 30
0.0
 10
5.204487296
 20
4.236158112
 30
0.0
 10
5.2081003642
 20
4.2369419891
 30
0.0
 10
5.2106782204
 20
4.237669471
 30
0.0
 10
5.2123641986
 20
4.2382325196
 30
0.0
 10
5.2138615181
 20
4.2388297504
 30
0.0
 10
5.2151611673
 20
4.239456086
 30
0.0
 10
5.2162550593
 20
4.240106355
 30
0.0
 10
5.2168864524
 20
4.2405866342
 30
0.0
 10
5.2171590849
 20
4.2408324813
 30
0.0
  0
SPLINE
  5
40A
100
AcDbEntity
  8
ALL_ASSEMBLY_MEMBERS
100
AcDbSpline
 62
7
  6
CONTINUOUS
 70
0
 71
3
 72
15
 73
11
 74
0
 42
0.0000001
 43
0.0000001
 44
0.0000000001
 40
0.0
 40
0.0
 40
0.0
 40
0.0
 40
0.0721184339
 40
0.1609895095
 40
0.2665878436
 40
0.3880366365
 40
0.5240214538
 40
0.672820049
 40
0.8323935672
 40
1.0
 40
1.0
 40
1.0
 40
1.0
 10
5.2171617291
 20
4.2435830375
 30
0.0
 10
5.2174173933
 20
4.2438135281
 30
0.0
 10
5.2180550816
 20
4.2442527439
 30
0.0
 10
5.2191995028
 20
4.2448138531
 30
0.0
 10
5.2206167454
 20
4.2453352576
 30
0.0
 10
5.222284637
 20
4.2458091786
 30
0.0
 10
5.2241789477
 20
4.2462273461
 30
0.0
 10
5.2262705213
 20
4.2465832573
 30
0.0
 10
5.2285248033
 20
4.2468698606
 30
0.0
 10
5.2300805722
 20
4.2470095217
 30
0.0
 10
5.2308784586
 20
4.2470675195
 30
0.0
  0
SPLINE
  5
40B
100
AcDbEntity
  8
ALL_ASSEMBLY_MEMBERS
100
AcDbSpline
 62
7
  6
CONTINUOUS
 70
0
 71
3
 72
18
 73
14
 74
0
 42
0.0000001
 43
0.0000001
 44
0.0000000001
 40
0.0
 40
0.0
 40
0.0
 40
0.0
 40
0.1626452336
 40
0.3216590808
 40
0.4725470761
 40
0.6117845677
 40
0.7362697021
 40
0.7921888081
 40
0.8435138744
 40
0.8900225714
 40
0.9316034626
 40
0.9682308941
 40
1.0
 40
1.0
 40
1.0
 40
1.0
 10
5.183534195
 20
5.4991152778
 30
0.0
 10
5.1854136284
 20
5.4991243343
 30
0.0
 10
5.1891313389
 20
5.4990659104
 30
0.0
 10
5.194584656
 20
5.4987559751
 30
0.0
 10
5.1997497812
 20
5.4982274224
 30
0.0
 10
5.2044872867
 20
5.497498715
 30
0.0
 10
5.2081003543
 20
5.4967148388
 30
0.0
 10
5.2106782104
 20
5.4959873578
 30
0.0
 10
5.212364189
 20
5.4954243097
 30
0.0
 10
5.2138615091
 20
5.4948270795
 30
0.0
 10
5.215161159
 20
5.4942007444
 30
0.0
 10
5.2162550521
 20
5.493550476
 30
0.0
 10
5.2168864461
 20
5.4930701972
 30
0.0
 10
5.2171590791
 20
5.4928243504
 30
0.0
  0
SPLINE
  5
40C
100
AcDbEntity
  8
ALL_ASSEMBLY_MEMBERS
100
AcDbSpline
 62
7
  6
CONTINUOUS
 70
0
 71
3
 72
18
 73
14
 74
0
 42
0.0000001
 43
0.0000001
 44
0.0000000001
 40
0.0
 40
0.0
 40
0.0
 40
0.0
 40
0.1625110467
 40
0.3214307404
 40
0.4722687732
 40
0.6115007949
 40
0.73602263
 40
0.791973797
 40
0.843338443
 40
0.8898922137
 40
0.9315206015
 40
0.9681936112
 40
1.0
 40
1.0
 40
1.0
 40
1.0
 10
5.1835418055
 20
5.4965172344
 30
0.0
 10
5.1854206528
 20
5.4965160337
 30
0.0
 10
5.1891372113
 20
5.4964376721
 30
0.0
 10
5.1945883638
 20
5.4960996004
 30
0.0
 10
5.1997516743
 20
5.4955455433
 30
0.0
 10
5.2044878995
 20
5.4947946118
 30
0.0
 10
5.2081001041
 20
5.493994932
 30
0.0
 10
5.2106776825
 20
5.4932570146
 30
0.0
 10
5.2123638429
 20
5.4926875038
 30
0.0
 10
5.213861548
 20
5.4920849919
 30
0.0
 10
5.2151617821
 20
5.4914545862
 30
0.0
 10
5.2162564511
 20
5.4908014837
 30
0.0
 10
5.216888609
 20
5.4903200469
 30
0.0
 10
5.2171617291
 20
5.4900738214
 30
0.0
  0
SPLINE
  5
40D
100
AcDbEntity
  8
ALL_ASSEMBLY_MEMBERS
100
AcDbSpline
 62
7
  6
CONTINUOUS
 70
0
 71
3
 72
17
 73
13
 74
0
 42
0.0000001
 43
0.0000001
 44
0.0000000001
 40
0.0
 40
0.0
 40
0.0
 40
0.0
 40
0.166818274
 40
0.3297054921
 40
0.4837953609
 40
0.6251883883
 40
0.7503495733
 40
0.8562135183
 40
0.9010265873
 40
0.9400644038
 40
0.973114999
 40
1.0
 40
1.0
 40
1.0
 40
1.0
 10
5.1835418251
 20
5.106515053
 30
0.0
 10
5.1854202956
 20
5.1065145943
 30
0.0
 10
5.1891330244
 20
5.1064848081
 30
0.0
 10
5.1945795601
 20
5.1063563488
 30
0.0
 10
5.19973705
 20
5.1061458201
 30
0.0
 10
5.2044655724
 20
5.1058610271
 30
0.0
 10
5.2086447869
 20
5.1055088666
 30
0.0
 10
5.2117314258
 20
5.1051534768
 30
0.0
 10
5.2138434657
 20
5.1048309335
 30
0.0
 10
5.2151384116
 20
5.1045926529
 30
0.0
 10
5.2162257446
 20
5.1043468626
 30
0.0
 10
5.216875293
 20
5.1041606843
 30
0.0
 10
5.2171616441
 20
5.1040624247
 30
0.0
  0
SPLINE
  5
40E
100
AcDbEntity
  8
ALL_ASSEMBLY_MEMBERS
100
AcDbSpline
 62
7
  6
CONTINUOUS
 70
0
 71
3
 72
17
 73
13
 74
0
 42
0.0000001
 43
0.0000001
 44
0.0000000001
 40
0.0
 40
0.0
 40
0.0
 40
0.0
 40
0.1668184753
 40
0.3297058691
 40
0.4837958632
 40
0.6251889479
 40
0.7503501091
 40
0.8562139439
 40
0.9010269265
 40
0.9400646392
 40
0.9731151183
 40
1.0
 40
1.0
 40
1.0
 40
1.0
 10
5.4168597994
 20
4.8731963874
 30
0.0
 10
5.4168594085
 20
4.8750748621
 30
0.0
 10
5.4168297568
 20
4.8787876004
 30
0.0
 10
5.4167014956
 20
4.8842341524
 30
0.0
 10
5.4164911544
 20
4.8893916597
 30
0.0
 10
5.4162065324
 20
4.8941201994
 30
0.0
 10
5.4158545209
 20
4.8982994301
 30
0.0
 10
5.4154992386
 20
4.9013860825
 30
0.0
 10
5.4151767659
 20
4.9034981321
 30
0.0
 10
5.4149385271
 20
4.9047930836
 30
0.0
 10
5.4146927699
 20
4.9058804216
 30
0.0
 10
5.4145066096
 20
4.9065299732
 30
0.0
 10
5.4144083573
 20
4.9068163258
 30
0.0
  0
SPLINE
  5
40F
100
AcDbEntity
  8
ALL_ASSEMBLY_MEMBERS
100
AcDbSpline
 62
7
  6
CONTINUOUS
 70
0
 71
3
 72
18
 73
14
 74
0
 42
0.0000001
 43
0.0000001
 44
0.0000000001
 40
0.0
 40
0.0
 40
0.0
 40
0.0
 40
0.1625102005
 40
0.3214291675
 40
0.4722666898
 40
0.6114984834
 40
0.7360204217
 40
0.791971771
 40
0.8433366871
 40
0.8898908115
 40
0.931519625
 40
0.9681931128
 40
1.0
 40
1.0
 40
1.0
 40
1.0
 10
5.8068627303
 20
4.8731963085
 30
0.0
 10
5.8068615262
 20
4.87507514
 30
0.0
 10
5.8067831591
 20
4.8787916683
 30
0.0
 10
5.8064450834
 20
4.8842427787
 30
0.0
 10
5.8058910266
 20
4.8894060554
 30
0.0
 10
5.8051400996
 20
4.8941422582
 30
0.0
 10
5.8043404274
 20
4.8977544529
 30
0.0
 10
5.8036025188
 20
4.9003320315
 30
0.0
 10
5.8030330147
 20
4.9020181979
 30
0.0
 10
5.8024305102
 20
4.9035159134
 30
0.0
 10
5.8018001127
 20
4.9048161623
 30
0.0
 10
5.8011470189
 20
4.9059108505
 30
0.0
 10
5.8006655892
 20
4.9065430244
 30
0.0
 10
5.8004193673
 20
4.9068161539
 30
0.0
  0
SPLINE
  5
410
100
AcDbEntity
  8
ALL_ASSEMBLY_MEMBERS
100
AcDbSpline
 62
7
  6
CONTINUOUS
 70
0
 71
3
 72
18
 73
14
 74
0
 42
0.0000001
 43
0.0000001
 44
0.0000000001
 40
0.0
 40
0.0
 40
0.0
 40
0.0
 40
0.1626452867
 40
0.3216591789
 40
0.4725472039
 40
0.6117847068
 40
0.7362698321
 40
0.7921889261
 40
0.8435139756
 40
0.8900226514
 40
0.9316035178
 40
0.9682309219
 40
1.0
 40
1.0
 40
1.0
 40
1.0
 10
5.8094607822
 20
4.8731886979
 30
0.0
 10
5.8094698387
 20
4.8750681324
 30
0.0
 10
5.8094114147
 20
4.8787858449
 30
0.0
 10
5.8091014788
 20
4.8842391648
 30
0.0
 10
5.8085729254
 20
4.8894042923
 30
0.0
 10
5.8078442172
 20
4.8941417992
 30
0.0
 10
5.8070603401
 20
4.8977548673
 30
0.0
 10
5.8063328582
 20
4.9003327235
 30
0.0
 10
5.8057698096
 20
4.9020187017
 30
0.0
 10
5.8051725788
 20
4.9035160212
 30
0.0
 10
5.8045462432
 20
4.9048156704
 30
0.0
 10
5.8038959742
 20
4.9059095624
 30
0.0
 10
5.803415695
 20
4.9065409555
 30
0.0
 10
5.8031698479
 20
4.906813588
 30
0.0
  0
SPLINE
  5
411
100
AcDbEntity
  8
ALL_ASSEMBLY_MEMBERS
100
AcDbSpline
 62
7
  6
CONTINUOUS
 70
0
 71
3
 72
15
 73
11
 74
0
 42
0.0000001
 43
0.0000001
 44
0.0000000001
 40
0.0
 40
0.0
 40
0.0
 40
0.0
 40
0.0287938427
 40
0.0629103416
 40
0.1466847836
 40
0.2502375011
 40
0.3719792635
 40
0.5101054298
 40
0.6625096986
 40
1.0
 40
1.0
 40
1.0
 40
1.0
 10
5.2171616462
 20
4.6295944077
 30
0.0
 10
5.2172872468
 20
4.6296375066
 30
0.0
 10
5.2175654375
 20
4.6297206725
 30
0.0
 10
5.2182226507
 20
4.6298816074
 30
0.0
 10
5.2192276316
 20
4.6300671188
 30
0.0
 10
5.220639494
 20
4.6302641716
 30
0.0
 10
5.2223060788
 20
4.6304437704
 30
0.0
 10
5.2242008561
 20
4.6306025767
 30
0.0
 10
5.2270912346
 20
4.63078907
 30
0.0
 10
5.229349152
 20
4.6308786403
 30
0.0
 10
5.2309049766
 20
4.6309214645
 30
0.0
  0
SPLINE
  5
412
100
AcDbEntity
  8
ALL_ASSEMBLY_MEMBERS
100
AcDbSpline
 62
7
  6
CONTINUOUS
 70
0
 71
3
 72
23
 73
19
 74
0
 42
0.0000001
 43
0.0000001
 44
0.0000000001
 40
0.0
 40
0.0
 40
0.0
 40
0.0
 40
0.0623499966
 40
0.1247618615
 40
0.1872197278
 40
0.2497192985
 40
0.3122532862
 40
0.3748150316
 40
0.4373960769
 40
0.4999878577
 40
0.5625797117
 40
0.625161033
 40
0.6877227458
 40
0.7502567175
 40
0.8127577033
 40
0.8752164006
 40
0.9376400787
 40
1.0
 40
1.0
 40
1.0
 40
1.0
 10
5.2171617623
 20
4.6295944071
 30
0.0
 10
5.2171621068
 20
4.636030937
 30
0.0
 10
5.2177939076
 20
4.6489192671
 30
0.0
 10
5.2206300081
 20
4.6680670276
 30
0.0
 10
5.2253326286
 20
4.6868616506
 30
0.0
 10
5.2318580791
 20
4.7051165645
 30
0.0
 10
5.2401464919
 20
4.7226536253
 30
0.0
 10
5.2501189247
 20
4.7393006417
 30
0.0
 10
5.2616799957
 20
4.7548938163
 30
0.0
 10
5.2747170311
 20
4.7692799844
 30
0.0
 10
5.2891026688
 20
4.7823176664
 30
0.0
 10
5.3046955774
 20
4.793879145
 30
0.0
 10
5.321342119
 20
4.803852399
 30
0.0
 10
5.338878991
 20
4.8121415685
 30
0.0
 10
5.3571339061
 20
4.8186676825
 30
0.0
 10
5.3759297732
 20
4.8233713861
 30
0.0
 10
5.3950798046
 20
4.8262079534
 30
0.0
 10
5.4079703677
 20
4.8268405892
 30
0.0
 10
5.4144079222
 20
4.8268406836
 30
0.0
  0
SPLINE
  5
413
100
AcDbEntity
  8
ALL_ASSEMBLY_MEMBERS
100
AcDbSpline
 62
7
  6
CONTINUOUS
 70
0
 71
3
 72
15
 73
11
 74
0
 42
0.0000001
 43
0.0000001
 44
0.0000000001
 40
0.0
 40
0.0
 40
0.0
 40
0.0
 40
0.02879382
 40
0.0629102983
 40
0.1466847077
 40
0.2502374056
 40
0.3719791606
 40
0.5101053312
 40
0.6625096204
 40
1.0
 40
1.0
 40
1.0
 40
1.0
 10
5.4144079222
 20
4.8268406836
 30
0.0
 10
5.4143648232
 20
4.8267150832
 30
0.0
 10
5.4142816573
 20
4.8264368928
 30
0.0
 10
5.4141207224
 20
4.82577968
 30
0.0
 10
5.4139352109
 20
4.8247746997
 30
0.0
 10
5.413738158
 20
4.8233628378
 30
0.0
 10
5.4135585592
 20
4.8216962535
 30
0.0
 10
5.4133997528
 20
4.8198014764
 30
0.0
 10
5.4132132594
 20
4.816911098
 30
0.0
 10
5.413123689
 20
4.8146531805
 30
0.0
 10
5.4130808648
 20
4.8130973558
 30
0.0
  0
SPLINE
  5
414
100
AcDbEntity
  8
ALL_ASSEMBLY_MEMBERS
100
AcDbSpline
 62
7
  6
CONTINUOUS
 70
0
 71
3
 72
15
 73
11
 74
0
 42
0.0000001
 43
0.0000001
 44
0.0000000001
 40
0.0
 40
0.0
 40
0.0
 40
0.0
 40
0.0721197361
 40
0.1609919098
 40
0.266590948
 40
0.3880399987
 40
0.5240246125
 40
0.6728225383
 40
0.8323949615
 40
1.0
 40
1.0
 40
1.0
 40
1.0
 10
5.8004193957
 20
4.8268406781
 30
0.0
 10
5.8001889075
 20
4.8265850005
 30
0.0
 10
5.7997496973
 20
4.8259472894
 30
0.0
 10
5.799188594
 20
4.8248028401
 30
0.0
 10
5.7986671962
 20
4.8233855746
 30
0.0
 10
5.7981932822
 20
4.8217176661
 30
0.0
 10
5.7977751214
 20
4.8198233445
 30
0.0
 10
5.7974192166
 20
4.817731766
 30
0.0
 10
5.7971326187
 20
4.8154774841
 30
0.0
 10
5.7969929604
 20
4.8139217171
 30
0.0
 10
5.7969349638
 20
4.8131238323
 30
0.0
  0
SPLINE
  5
415
100
AcDbEntity
  8
ALL_ASSEMBLY_MEMBERS
100
AcDbSpline
 62
7
  6
CONTINUOUS
 70
0
 71
3
 72
20
 73
16
 74
0
 42
0.0000001
 43
0.0000001
 44
0.0000000001
 40
0.0
 40
0.0
 40
0.0
 40
0.0
 40
0.0257752727
 40
0.0539211535
 40
0.0861454803
 40
0.1235403239
 40
0.1667331694
 40
0.2159645144
 40
0.2712599731
 40
0.3325329923
 40
0.3996103341
 40
0.4721959008
 40
0.6324597609
 40
0.8100215424
 40
1.0
 40
1.0
 40
1.0
 40
1.0
 10
4.5658857035
 20
4.7878284162
 30
0.0
 10
4.5656465291
 20
4.7878284262
 30
0.0
 10
4.5651434878
 20
4.7879139457
 30
0.0
 10
4.5644217979
 20
4.7882774175
 30
0.0
 10
4.5637203491
 20
4.7888619095
 30
0.0
 10
4.5630389305
 20
4.7896614023
 30
0.0
 10
4.5623793375
 20
4.7906722824
 30
0.0
 10
4.5617428185
 20
4.79188804
 30
0.0
 10
4.5611325753
 20
4.793301571
 30
0.0
 10
4.5605524572
 20
4.794904776
 30
0.0
 10
4.5600065737
 20
4.7966882968
 30
0.0
 10
4.5593050338
 20
4.7993821912
 30
0.0
 10
4.5585519155
 20
4.8031184094
 30
0.0
 10
4.5578600582
 20
4.8079688411
 30
0.0
 10
4.5575398434
 20
4.8113656793
 30
0.0
 10
4.5574120314
 20
4.8131238918
 30
0.0
  0
SPLINE
  5
416
100
AcDbEntity
  8
ALL_ASSEMBLY_MEMBERS
100
AcDbSpline
 62
7
  6
CONTINUOUS
 70
0
 71
3
 72
24
 73
20
 74
0
 42
0.0000001
 43
0.0000001
 44
0.0000000001
 40
0.0
 40
0.0
 40
0.0
 40
0.0
 40
0.0054494211
 40
0.011729706
 40
0.0193883184
 40
0.0287237747
 40
0.0398929475
 40
0.052980132
 40
0.0680315606
 40
0.0850723447
 40
0.1251244691
 40
0.1729826879
 40
0.2283850237
 40
0.2910388944
 40
0.3606124535
 40
0.4366716565
 40
0.6063846971
 40
0.7960539758
 40
1.0
 40
1.0
 40
1.0
 40
1.0
 10
4.939173913
 20
4.7878284161
 30
0.0
 10
4.9391269898
 20
4.7878284162
 30
0.0
 10
4.9390253622
 20
4.7878513901
 30
0.0
 10
4.9388843349
 20
4.7879449627
 30
0.0
 10
4.9387470866
 20
4.7880925925
 30
0.0
 10
4.9386114351
 20
4.7882944022
 30
0.0
 10
4.9384766482
 20
4.7885507608
 30
0.0
 10
4.9383427705
 20
4.7888618951
 30
0.0
 10
4.9382099957
 20
4.789227739
 30
0.0
 10
4.9380247918
 20
4.7898208728
 30
0.0
 10
4.9378038673
 20
4.7906977868
 30
0.0
 10
4.9375581775
 20
4.7919073528
 30
0.0
 10
4.9373219616
 20
4.7933165607
 30
0.0
 10
4.9370969488
 20
4.7949165754
 30
0.0
 10
4.9368850036
 20
4.7966976115
 30
0.0
 10
4.9366113959
 20
4.7993992408
 30
0.0
 10
4.9363186802
 20
4.8031377381
 30
0.0
 10
4.9360500583
 20
4.807981225
 30
0.0
 10
4.9359258749
 20
4.8113684602
 30
0.0
 10
4.9358761959
 20
4.8131238708
 30
0.0
  0
SPLINE
  5
417
100
AcDbEntity
  8
ALL_ASSEMBLY_MEMBERS
100
AcDbSpline
 62
7
  6
CONTINUOUS
 70
0
 71
3
 72
24
 73
20
 74
0
 42
0.0000001
 43
0.0000001
 44
0.0000000001
 40
0.0
 40
0.0
 40
0.0
 40
0.0
 40
0.0049362174
 40
0.0107822097
 40
0.018098919
 40
0.0271685687
 40
0.0381306265
 40
0.051056513
 40
0.0659835199
 40
0.0829305211
 40
0.1228707034
 40
0.1706970756
 40
0.2261330416
 40
0.2888767345
 40
0.3585897915
 40
0.4348329615
 40
0.6050322695
 40
0.7953229301
 40
1.0
 40
1.0
 40
1.0
 40
1.0
 10
4.9435327935
 20
4.7877686569
 30
0.0
 10
4.943490517
 20
4.7877698164
 30
0.0
 10
4.9433983062
 20
4.7877961464
 30
0.0
 10
4.9432748697
 20
4.7878937321
 30
0.0
 10
4.9431564187
 20
4.7880442005
 30
0.0
 10
4.9430406979
 20
4.7882486242
 30
0.0
 10
4.9429270746
 20
4.7885074793
 30
0.0
 10
4.9428156774
 20
4.7888210484
 30
0.0
 10
4.9427067133
 20
4.7891892368
 30
0.0
 10
4.9425568006
 20
4.7897861228
 30
0.0
 10
4.9423827476
 20
4.7906667543
 30
0.0
 10
4.9421956075
 20
4.791879527
 30
0.0
 10
4.9420223817
 20
4.7932914321
 30
0.0
 10
4.941864383
 20
4.7948935956
 30
0.0
 10
4.9417230279
 20
4.7966761857
 30
0.0
 10
4.9415514922
 20
4.7993795854
 30
0.0
 10
4.941391143
 20
4.8031183772
 30
0.0
 10
4.94128252
 20
4.8079596172
 30
0.0
 10
4.9412636131
 20
4.811343733
 30
0.0
 10
4.9412669613
 20
4.8130973568
 30
0.0
  0
SPLINE
  5
418
100
AcDbEntity
  8
ALL_ASSEMBLY_MEMBERS
100
AcDbSpline
 62
7
  6
CONTINUOUS
 70
0
 71
3
 72
24
 73
20
 74
0
 42
0.0000001
 43
0.0000001
 44
0.0000000001
 40
0.0
 40
0.0
 40
0.0
 40
0.0
 40
0.0049362157
 40
0.0107822069
 40
0.0180989158
 40
0.0271685657
 40
0.0381306239
 40
0.0510565112
 40
0.0659835191
 40
0.0829305216
 40
0.1228707071
 40
0.1706970827
 40
0.2261330524
 40
0.2888767488
 40
0.3585898088
 40
0.4348329812
 40
0.6050322904
 40
0.7953229454
 40
1.0
 40
1.0
 40
1.0
 40
1.0
 10
5.0981141425
 20
4.6331872966
 30
0.0
 10
5.0981153019
 20
4.6331450201
 30
0.0
 10
5.098141632
 20
4.6330528092
 30
0.0
 10
5.0982392178
 20
4.6329293728
 30
0.0
 10
5.0983896862
 20
4.6328109217
 30
0.0
 10
5.09859411
 20
4.6326952009
 30
0.0
 10
5.0988529653
 20
4.6325815777
 30
0.0
 10
5.0991665345
 20
4.6324701805
 30
0.0
 10
5.0995347231
 20
4.6323612164
 30
0.0
 10
5.1001316095
 20
4.6322113037
 30
0.0
 10
5.1010122414
 20
4.6320372507
 30
0.0
 10
5.1022250147
 20
4.6318501105
 30
0.0
 10
5.1036369204
 20
4.6316768848
 30
0.0
 10
5.1052390847
 20
4.6315188862
 30
0.0
 10
5.1070216756
 20
4.631377531
 30
0.0
 10
5.1097250764
 20
4.6312059954
 30
0.0
 10
5.1134638697
 20
4.6310456462
 30
0.0
 10
5.1183051115
 20
4.6309370233
 30
0.0
 10
5.1216892285
 20
4.6309181165
 30
0.0
 10
5.1234428529
 20
4.6309214647
 30
0.0
  0
SPLINE
  5
419
100
AcDbEntity
  8
ALL_ASSEMBLY_MEMBERS
100
AcDbSpline
 62
7
  6
CONTINUOUS
 70
0
 71
3
 72
24
 73
20
 74
0
 42
0.0000001
 43
0.0000001
 44
0.0000000001
 40
0.0
 40
0.0
 40
0.0
 40
0.0
 40
0.0054494215
 40
0.0117297065
 40
0.0193883189
 40
0.0287237751
 40
0.0398929477
 40
0.0529801321
 40
0.0680315604
 40
0.0850723444
 40
0.1251244684
 40
0.1729826868
 40
0.2283850224
 40
0.2910388929
 40
0.3606124519
 40
0.436671655
 40
0.6063846958
 40
0.796053975
 40
1.0
 40
1.0
 40
1.0
 40
1.0
 10
5.0981739131
 20
4.6288284161
 30
0.0
 10
5.0981739131
 20
4.6287814929
 30
0.0
 10
5.098196887
 20
4.6286798653
 30
0.0
 10
5.0982904596
 20
4.628538838
 30
0.0
 10
5.0984380894
 20
4.6284015897
 30
0.0
 10
5.0986398991
 20
4.6282659382
 30
0.0
 10
5.0988962576
 20
4.6281311513
 30
0.0
 10
5.0992073919
 20
4.6279972735
 30
0.0
 10
5.0995732359
 20
4.6278644987
 30
0.0
 10
5.1001663696
 20
4.6276792948
 30
0.0
 10
5.1010432836
 20
4.6274583703
 30
0.0
 10
5.1022528496
 20
4.6272126805
 30
0.0
 10
5.1036620575
 20
4.6269764645
 30
0.0
 10
5.1052620721
 20
4.6267514517
 30
0.0
 10
5.1070431083
 20
4.6265395065
 30
0.0
 10
5.1097447375
 20
4.6262658988
 30
0.0
 10
5.1134832349
 20
4.6259731831
 30
0.0
 10
5.1183267218
 20
4.6257045611
 30
0.0
 10
5.121713957
 20
4.6255803778
 30
0.0
 10
5.1234693676
 20
4.6255306987
 30
0.0
  0
SPLINE
  5
41A
100
AcDbEntity
  8
ALL_ASSEMBLY_MEMBERS
100
AcDbSpline
 62
7
  6
CONTINUOUS
 70
0
 71
3
 72
20
 73
16
 74
0
 42
0.0000001
 43
0.0000001
 44
0.0000000001
 40
0.0
 40
0.0
 40
0.0
 40
0.0
 40
0.0257663463
 40
0.0539041182
 40
0.0861218514
 40
0.1235117962
 40
0.1667013723
 40
0.2159309117
 40
0.2712258643
 40
0.3324995374
 40
0.3995785711
 40
0.4721667479
 40
0.6324381771
 40
0.8100099694
 40
1.0
 40
1.0
 40
1.0
 40
1.0
 10
5.098173913
 20
4.2555402056
 30
0.0
 10
5.0981739046
 20
4.2553011252
 30
0.0
 10
5.098259394
 20
4.254798258
 30
0.0
 10
5.098622834
 20
4.2540768367
 30
0.0
 10
5.0992072928
 20
4.2533756528
 30
0.0
 10
5.1000067537
 20
4.2526944847
 30
0.0
 10
5.1010176063
 20
4.2520351238
 30
0.0
 10
5.102233343
 20
4.2513988165
 30
0.0
 10
5.1036468605
 20
4.2507887637
 30
0.0
 10
5.105250059
 20
4.250208813
 30
0.0
 10
5.1070335801
 20
4.2496630724
 30
0.0
 10
5.1097274949
 20
4.2489616913
 30
0.0
 10
5.1134637456
 20
4.2482086987
 30
0.0
 10
5.1183142223
 20
4.2475168732
 30
0.0
 10
5.121711095
 20
4.2471966015
 30
0.0
 10
5.1234693292
 20
4.2470687407
 30
0.0
  0
SPLINE
  5
41B
100
AcDbEntity
  8
ALL_ASSEMBLY_MEMBERS
100
AcDbSpline
 62
7
  6
CONTINUOUS
 70
0
 71
3
 72
15
 73
11
 74
0
 42
0.0000001
 43
0.0000001
 44
0.0000000001
 40
0.0
 40
0.0
 40
0.0
 40
0.0
 40
0.0721184339
 40
0.1609895095
 40
0.2665878436
 40
0.3880366365
 40
0.5240214538
 40
0.672820049
 40
0.8323935672
 40
1.0
 40
1.0
 40
1.0
 40
1.0
 10
5.1371860969
 20
5.4900737948
 30
0.0
 10
5.1369304328
 20
5.4898433042
 30
0.0
 10
5.1362927445
 20
5.4894040884
 30
0.0
 10
5.1351483233
 20
5.4888429792
 30
0.0
 10
5.1337310806
 20
5.4883215747
 30
0.0
 10
5.1320631891
 20
5.4878476537
 30
0.0
 10
5.1301688784
 20
5.4874294862
 30
0.0
 10
5.1280773048
 20
5.487073575
 30
0.0
 10
5.1258230228
 20
5.4867869717
 30
0.0
 10
5.1242672539
 20
5.4866473106
 30
0.0
 10
5.1234693675
 20
5.4865893127
 30
0.0
  0
SPLINE
  5
41C
100
AcDbEntity
  8
ALL_ASSEMBLY_MEMBERS
100
AcDbSpline
 62
7
  6
CONTINUOUS
 70
0
 71
3
 72
20
 73
16
 74
0
 42
0.0000001
 43
0.0000001
 44
0.0000000001
 40
0.0
 40
0.0
 40
0.0
 40
0.0
 40
0.0257663463
 40
0.0539041182
 40
0.0861218514
 40
0.1235117962
 40
0.1667013723
 40
0.2159309117
 40
0.2712258643
 40
0.3324995374
 40
0.3995785711
 40
0.4721667479
 40
0.6324381771
 40
0.8100099694
 40
1.0
 40
1.0
 40
1.0
 40
1.0
 10
5.7884621236
 20
4.7878284162
 30
0.0
 10
5.788701204
 20
4.7878284077
 30
0.0
 10
5.7892040711
 20
4.7879138971
 30
0.0
 10
5.7899254925
 20
4.7882773371
 30
0.0
 10
5.7906266764
 20
4.7888617959
 30
0.0
 10
5.7913078445
 20
4.7896612568
 30
0.0
 10
5.7919672054
 20
4.7906721094
 30
0.0
 10
5.7926035127
 20
4.7918878461
 30
0.0
 10
5.7932135655
 20
4.7933013636
 30
0.0
 10
5.7937935162
 20
4.7949045621
 30
0.0
 10
5.7943392568
 20
4.7966880832
 30
0.0
 10
5.7950406379
 20
4.799381998
 30
0.0
 10
5.7957936305
 20
4.8031182487
 30
0.0
 10
5.796485456
 20
4.8079687254
 30
0.0
 10
5.7968057277
 20
4.8113655981
 30
0.0
 10
5.7969335885
 20
4.8131238323
 30
0.0
  0
SPLINE
  5
41D
100
AcDbEntity
  8
ALL_ASSEMBLY_MEMBERS
100
AcDbSpline
 62
7
  6
CONTINUOUS
 70
0
 71
3
 72
24
 73
20
 74
0
 42
0.0000001
 43
0.0000001
 44
0.0000000001
 40
0.0
 40
0.0
 40
0.0
 40
0.0
 40
0.0054494215
 40
0.0117297065
 40
0.0193883189
 40
0.0287237751
 40
0.0398929477
 40
0.0529801321
 40
0.0680315604
 40
0.0850723444
 40
0.1251244684
 40
0.1729826868
 40
0.2283850224
 40
0.2910388929
 40
0.3606124519
 40
0.436671655
 40
0.6063846958
 40
0.796053975
 40
1.0
 40
1.0
 40
1.0
 40
1.0
 10
5.415173913
 20
4.7878284162
 30
0.0
 10
5.4152208363
 20
4.7878284162
 30
0.0
 10
5.4153224639
 20
4.7878513901
 30
0.0
 10
5.4154634912
 20
4.7879449627
 30
0.0
 10
5.4156007395
 20
4.7880925925
 30
0.0
 10
5.415736391
 20
4.7882944022
 30
0.0
 10
5.4158711779
 20
4.7885507607
 30
0.0
 10
5.4160050557
 20
4.788861895
 30
0.0
 10
5.4161378305
 20
4.789227739
 30
0.0
 10
5.4163230344
 20
4.7898208727
 30
0.0
 10
5.4165439589
 20
4.7906977867
 30
0.0
 10
5.4167896487
 20
4.7919073527
 30
0.0
 10
5.4170258647
 20
4.7933165606
 30
0.0
 10
5.4172508775
 20
4.7949165752
 30
0.0
 10
5.4174628226
 20
4.7966976114
 30
0.0
 10
5.4177364304
 20
4.7993992406
 30
0.0
 10
5.4180291461
 20
4.803137738
 30
0.0
 10
5.4182977681
 20
4.8079812249
 30
0.0
 10
5.4184219514
 20
4.8113684601
 30
0.0
 10
5.4184716305
 20
4.8131238707
 30
0.0
  0
SPLINE
  5
41E
100
AcDbEntity
  8
ALL_ASSEMBLY_MEMBERS
100
AcDbSpline
 62
7
  6
CONTINUOUS
 70
0
 71
3
 72
24
 73
20
 74
0
 42
0.0000001
 43
0.0000001
 44
0.0000000001
 40
0.0
 40
0.0
 40
0.0
 40
0.0
 40
0.0049362178
 40
0.0107822107
 40
0.0180989208
 40
0.0271685716
 40
0.0381306305
 40
0.0510565183
 40
0.0659835266
 40
0.0829305293
 40
0.1228707149
 40
0.1706970903
 40
0.2261330596
 40
0.2888767554
 40
0.3585898148
 40
0.4348329863
 40
0.6050322937
 40
0.7953229469
 40
1.0
 40
1.0
 40
1.0
 40
1.0
 10
5.4108150323
 20
4.787768646
 30
0.0
 10
5.4108573088
 20
4.7877698055
 30
0.0
 10
5.4109495197
 20
4.7877961355
 30
0.0
 10
5.4110729562
 20
4.7878937213
 30
0.0
 10
5.4111914073
 20
4.7880441897
 30
0.0
 10
5.4113071281
 20
4.7882486135
 30
0.0
 10
5.4114207514
 20
4.7885074688
 30
0.0
 10
5.4115321487
 20
4.788821038
 30
0.0
 10
5.4116411128
 20
4.7891892266
 30
0.0
 10
5.4117910256
 20
4.789786113
 30
0.0
 10
5.4119650786
 20
4.7906667448
 30
0.0
 10
5.4121522189
 20
4.7918795181
 30
0.0
 10
5.4123254447
 20
4.7932914238
 30
0.0
 10
5.4124834434
 20
4.7948935881
 30
0.0
 10
5.4126247986
 20
4.7966761789
 30
0.0
 10
5.4127963342
 20
4.7993795797
 30
0.0
 10
5.4129566834
 20
4.8031183729
 30
0.0
 10
5.4130653063
 20
4.8079596146
 30
0.0
 10
5.413084213
 20
4.8113437316
 30
0.0
 10
5.4130808647
 20
4.8130973559
 30
0.0
  0
SPLINE
  5
41F
100
AcDbEntity
  8
ALL_ASSEMBLY_MEMBERS
100
AcDbSpline
 62
7
  6
CONTINUOUS
 70
0
 71
3
 72
24
 73
20
 74
0
 42
0.0000001
 43
0.0000001
 44
0.0000000001
 40
0.0
 40
0.0
 40
0.0
 40
0.0
 40
0.004936281
 40
0.0107823324
 40
0.0180990919
 40
0.0271687835
 40
0.0381308761
 40
0.0510567914
 40
0.0659838221
 40
0.0829308426
 40
0.1228710516
 40
0.1706974368
 40
0.2261334041
 40
0.2888770875
 40
0.3585901254
 40
0.4348332674
 40
0.6050324963
 40
0.7953230522
 40
1.0
 40
1.0
 40
1.0
 40
1.0
 10
5.2562336758
 20
4.6331874269
 30
0.0
 10
5.2562325162
 20
4.6331451499
 30
0.0
 10
5.2562061858
 20
4.6330529381
 30
0.0
 10
5.2561085997
 20
4.6329295
 30
0.0
 10
5.2559581308
 20
4.6328110474
 30
0.0
 10
5.2557537067
 20
4.632695325
 30
0.0
 10
5.2554948511
 20
4.6325817003
 30
0.0
 10
5.2551812817
 20
4.6324703016
 30
0.0
 10
5.254813093
 20
4.6323613361
 30
0.0
 10
5.2542162066
 20
4.6322114214
 30
0.0
 10
5.2533355748
 20
4.632037366
 30
0.0
 10
5.2521228019
 20
4.631850223
 30
0.0
 10
5.2507108967
 20
4.6316769944
 30
0.0
 10
5.2491087332
 20
4.6315189929
 30
0.0
 10
5.2473261434
 20
4.6313776348
 30
0.0
 10
5.2446227443
 20
4.631206095
 30
0.0
 10
5.2408839535
 20
4.6310457403
 30
0.0
 10
5.236042715
 20
4.6309371105
 30
0.0
 10
5.2326586002
 20
4.6309181988
 30
0.0
 10
5.230904977
 20
4.6309215445
 30
0.0
  0
SPLINE
  5
420
100
AcDbEntity
  8
ALL_ASSEMBLY_MEMBERS
100
AcDbSpline
 62
7
  6
CONTINUOUS
 70
0
 71
3
 72
24
 73
20
 74
0
 42
0.0000001
 43
0.0000001
 44
0.0000000001
 40
0.0
 40
0.0
 40
0.0
 40
0.0
 40
0.0054494211
 40
0.011729706
 40
0.0193883184
 40
0.0287237747
 40
0.0398929475
 40
0.052980132
 40
0.0680315606
 40
0.0850723447
 40
0.1251244691
 40
0.1729826879
 40
0.2283850237
 40
0.2910388944
 40
0.3606124535
 40
0.4366716565
 40
0.6063846971
 40
0.7960539758
 40
1.0
 40
1.0
 40
1.0
 40
1.0
 10
5.256173913
 20
4.6288284161
 30
0.0
 10
5.256173913
 20
4.6287814929
 30
0.0
 10
5.2561509391
 20
4.6286798653
 30
0.0
 10
5.2560573664
 20
4.628538838
 30
0.0
 10
5.2559097367
 20
4.6284015897
 30
0.0
 10
5.255707927
 20
4.6282659382
 30
0.0
 10
5.2554515684
 20
4.6281311513
 30
0.0
 10
5.2551404341
 20
4.6279972736
 30
0.0
 10
5.2547745902
 20
4.6278644988
 30
0.0
 10
5.2541814564
 20
4.6276792949
 30
0.0
 10
5.2533045424
 20
4.6274583704
 30
0.0
 10
5.2520949764
 20
4.6272126806
 30
0.0
 10
5.2506857685
 20
4.6269764647
 30
0.0
 10
5.2490857538
 20
4.6267514519
 30
0.0
 10
5.2473047176
 20
4.6265395068
 30
0.0
 10
5.2446030884
 20
4.626265899
 30
0.0
 10
5.2408645911
 20
4.6259731833
 30
0.0
 10
5.2360211042
 20
4.6257045614
 30
0.0
 10
5.232633869
 20
4.625580378
 30
0.0
 10
5.2308784584
 20
4.625530699
 30
0.0
  0
SPLINE
  5
421
100
AcDbEntity
  8
ALL_ASSEMBLY_MEMBERS
100
AcDbSpline
 62
7
  6
CONTINUOUS
 70
0
 71
3
 72
20
 73
16
 74
0
 42
0.0000001
 43
0.0000001
 44
0.0000000001
 40
0.0
 40
0.0
 40
0.0
 40
0.0
 40
0.0257752727
 40
0.0539211535
 40
0.0861454803
 40
0.1235403239
 40
0.1667331694
 40
0.2159645144
 40
0.2712599731
 40
0.3325329923
 40
0.3996103341
 40
0.4721959008
 40
0.6324597609
 40
0.8100215424
 40
1.0
 40
1.0
 40
1.0
 40
1.0
 10
5.256173913
 20
4.2555402066
 30
0.0
 10
5.256173903
 20
4.2553010322
 30
0.0
 10
5.2560883835
 20
4.2547979909
 30
0.0
 10
5.2557249117
 20
4.254076301
 30
0.0
 10
5.2551404197
 20
4.2533748522
 30
0.0
 10
5.2543409268
 20
4.2526934336
 30
0.0
 10
5.2533300467
 20
4.2520338406
 30
0.0
 10
5.2521142892
 20
4.2513973216
 30
0.0
 10
5.2507007582
 20
4.2507870785
 30
0.0
 10
5.2490975532
 20
4.2502069603
 30
0.0
 10
5.2473140324
 20
4.2496610768
 30
0.0
 10
5.244620138
 20
4.2489595369
 30
0.0
 10
5.2408839198
 20
4.2482064186
 30
0.0
 10
5.2360334881
 20
4.2475145613
 30
0.0
 10
5.2326366499
 20
4.2471943465
 30
0.0
 10
5.2308784374
 20
4.2470665345
 30
0.0
  0
SPLINE
  5
422
100
AcDbEntity
  8
ALL_ASSEMBLY_MEMBERS
100
AcDbSpline
 62
7
  6
CONTINUOUS
 70
0
 71
3
 72
20
 73
16
 74
0
 42
0.0000001
 43
0.0000001
 44
0.0000000001
 40
0.0
 40
0.0
 40
0.0
 40
0.0
 40
0.0257663463
 40
0.0539041182
 40
0.0861218514
 40
0.1235117962
 40
0.1667013723
 40
0.2159309117
 40
0.2712258643
 40
0.3324995374
 40
0.3995785711
 40
0.4721667479
 40
0.6324381771
 40
0.8100099694
 40
1.0
 40
1.0
 40
1.0
 40
1.0
 10
5.256173913
 20
5.4781166267
 30
0.0
 10
5.2561739215
 20
5.4783557071
 30
0.0
 10
5.2560884321
 20
5.4788585743
 30
0.0
 10
5.2557249921
 20
5.4795799956
 30
0.0
 10
5.2551405333
 20
5.4802811795
 30
0.0
 10
5.2543410724
 20
5.4809623476
 30
0.0
 10
5.2533302198
 20
5.4816217085
 30
0.0
 10
5.2521144831
 20
5.4822580158
 30
0.0
 10
5.2507009656
 20
5.4828680686
 30
0.0
 10
5.2490977671
 20
5.4834480193
 30
0.0
 10
5.247314246
 20
5.4839937599
 30
0.0
 10
5.2446203312
 20
5.484695141
 30
0.0
 10
5.2408840805
 20
5.4854481336
 30
0.0
 10
5.2360336038
 20
5.4861399591
 30
0.0
 10
5.232636731
 20
5.4864602308
 30
0.0
 10
5.2308784969
 20
5.4865880916
 30
0.0
  0
SPLINE
  5
423
100
AcDbEntity
  8
ALL_ASSEMBLY_MEMBERS
100
AcDbSpline
 62
7
  6
CONTINUOUS
 70
0
 71
3
 72
24
 73
20
 74
0
 42
0.0000001
 43
0.0000001
 44
0.0000000001
 40
0.0
 40
0.0
 40
0.0
 40
0.0
 40
0.0054494215
 40
0.0117297065
 40
0.0193883189
 40
0.0287237751
 40
0.0398929477
 40
0.0529801321
 40
0.0680315604
 40
0.0850723444
 40
0.1251244684
 40
0.1729826868
 40
0.2283850224
 40
0.2910388929
 40
0.3606124519
 40
0.436671655
 40
0.6063846958
 40
0.796053975
 40
1.0
 40
1.0
 40
1.0
 40
1.0
 10
5.256173913
 20
5.1048284161
 30
0.0
 10
5.256173913
 20
5.1048753394
 30
0.0
 10
5.2561509391
 20
5.104976967
 30
0.0
 10
5.2560573665
 20
5.1051179943
 30
0.0
 10
5.2559097367
 20
5.1052552426
 30
0.0
 10
5.255707927
 20
5.1053908941
 30
0.0
 10
5.2554515685
 20
5.105525681
 30
0.0
 10
5.2551404342
 20
5.1056595588
 30
0.0
 10
5.2547745902
 20
5.1057923336
 30
0.0
 10
5.2541814565
 20
5.1059775375
 30
0.0
 10
5.2533045425
 20
5.106198462
 30
0.0
 10
5.2520949765
 20
5.1064441518
 30
0.0
 10
5.2506857686
 20
5.1066803678
 30
0.0
 10
5.249085754
 20
5.1069053806
 30
0.0
 10
5.2473047178
 20
5.1071173258
 30
0.0
 10
5.2446030886
 20
5.1073909335
 30
0.0
 10
5.2408645912
 20
5.1076836492
 30
0.0
 10
5.2360211043
 20
5.1079522712
 30
0.0
 10
5.2326338691
 20
5.1080764545
 30
0.0
 10
5.2308784585
 20
5.1081261336
 30
0.0
  0
SPLINE
  5
424
100
AcDbEntity
  8
ALL_ASSEMBLY_MEMBERS
100
AcDbSpline
 62
7
  6
CONTINUOUS
 70
0
 71
3
 72
24
 73
20
 74
0
 42
0.0000001
 43
0.0000001
 44
0.0000000001
 40
0.0
 40
0.0
 40
0.0
 40
0.0
 40
0.0049362178
 40
0.0107822107
 40
0.0180989208
 40
0.0271685716
 40
0.0381306305
 40
0.0510565183
 40
0.0659835266
 40
0.0829305293
 40
0.1228707149
 40
0.1706970903
 40
0.2261330596
 40
0.2888767554
 40
0.3585898148
 40
0.4348329863
 40
0.6050322937
 40
0.7953229469
 40
1.0
 40
1.0
 40
1.0
 40
1.0
 10
5.2562336832
 20
5.1004695354
 30
0.0
 10
5.2562325237
 20
5.1005118119
 30
0.0
 10
5.2562061937
 20
5.1006040228
 30
0.0
 10
5.2561086079
 20
5.1007274593
 30
0.0
 10
5.2559581395
 20
5.1008459104
 30
0.0
 10
5.2557537157
 20
5.1009616312
 30
0.0
 10
5.2554948604
 20
5.1010752545
 30
0.0
 10
5.2551812912
 20
5.1011866518
 30
0.0
 10
5.2548131026
 20
5.1012956159
 30
0.0
 10
5.2542162162
 20
5.1014455287
 30
0.0
 10
5.2533355844
 20
5.1016195817
 30
0.0
 10
5.2521228111
 20
5.101806722
 30
0.0
 10
5.2507109054
 20
5.1019799478
 30
0.0
 10
5.2491087411
 20
5.1021379465
 30
0.0
 10
5.2473261503
 20
5.1022793017
 30
0.0
 10
5.2446227495
 20
5.1024508373
 30
0.0
 10
5.2408839563
 20
5.1026111865
 30
0.0
 10
5.2360427146
 20
5.1027198094
 30
0.0
 10
5.2326585976
 20
5.1027387161
 30
0.0
 10
5.2309049733
 20
5.1027353679
 30
0.0
  0
SPLINE
  5
425
100
AcDbEntity
  8
ALL_ASSEMBLY_MEMBERS
100
AcDbSpline
 62
7
  6
CONTINUOUS
 70
0
 71
3
 72
24
 73
20
 74
0
 42
0.0000001
 43
0.0000001
 44
0.0000000001
 40
0.0
 40
0.0
 40
0.0
 40
0.0
 40
0.004936281
 40
0.0107823324
 40
0.0180990919
 40
0.0271687835
 40
0.0381308761
 40
0.0510567914
 40
0.0659838221
 40
0.0829308426
 40
0.1228710516
 40
0.1706974368
 40
0.2261334041
 40
0.2888770875
 40
0.3585901254
 40
0.4348332674
 40
0.6050324963
 40
0.7953230522
 40
1.0
 40
1.0
 40
1.0
 40
1.0
 10
5.4108149023
 20
4.9458881789
 30
0.0
 10
5.4108571793
 20
4.9458870193
 30
0.0
 10
5.4109493911
 20
4.9458606889
 30
0.0
 10
5.4110728292
 20
4.9457631028
 30
0.0
 10
5.4111912818
 20
4.9456126339
 30
0.0
 10
5.4113070042
 20
4.9454082098
 30
0.0
 10
5.4114206289
 20
4.9451493542
 30
0.0
 10
5.4115320276
 20
4.9448357848
 30
0.0
 10
5.4116409931
 20
4.9444675961
 30
0.0
 10
5.4117909078
 20
4.9438707097
 30
0.0
 10
5.4119649632
 20
4.9429900779
 30
0.0
 10
5.4121521062
 20
4.941777305
 30
0.0
 10
5.4123253348
 20
4.9403653999
 30
0.0
 10
5.4124833363
 20
4.9387632363
 30
0.0
 10
5.4126246944
 20
4.9369806465
 30
0.0
 10
5.4127962342
 20
4.9342772474
 30
0.0
 10
5.4129565889
 20
4.9305384567
 30
0.0
 10
5.4130652187
 20
4.9256972181
 30
0.0
 10
5.4130841304
 20
4.9223131034
 30
0.0
 10
5.4130807847
 20
4.9205594801
 30
0.0
  0
SPLINE
  5
426
100
AcDbEntity
  8
ALL_ASSEMBLY_MEMBERS
100
AcDbSpline
 62
7
  6
CONTINUOUS
 70
0
 71
3
 72
24
 73
20
 74
0
 42
0.0000001
 43
0.0000001
 44
0.0000000001
 40
0.0
 40
0.0
 40
0.0
 40
0.0
 40
0.0054494211
 40
0.011729706
 40
0.0193883184
 40
0.0287237747
 40
0.0398929475
 40
0.052980132
 40
0.0680315606
 40
0.0850723447
 40
0.1251244691
 40
0.1729826879
 40
0.2283850237
 40
0.2910388944
 40
0.3606124535
 40
0.4366716565
 40
0.6063846971
 40
0.7960539758
 40
1.0
 40
1.0
 40
1.0
 40
1.0
 10
5.415173913
 20
4.9458284161
 30
0.0
 10
5.4152208363
 20
4.9458284161
 30
0.0
 10
5.4153224639
 20
4.9458054422
 30
0.0
 10
5.4154634912
 20
4.9457118696
 30
0.0
 10
5.4156007395
 20
4.9455642398
 30
0.0
 10
5.4157363909
 20
4.9453624301
 30
0.0
 10
5.4158711778
 20
4.9451060715
 30
0.0
 10
5.4160050556
 20
4.9447949372
 30
0.0
 10
5.4161378304
 20
4.9444290933
 30
0.0
 10
5.4163230343
 20
4.9438359595
 30
0.0
 10
5.4165439588
 20
4.9429590455
 30
0.0
 10
5.4167896486
 20
4.9417494795
 30
0.0
 10
5.4170258645
 20
4.9403402716
 30
0.0
 10
5.4172508773
 20
4.9387402569
 30
0.0
 10
5.4174628224
 20
4.9369592208
 30
0.0
 10
5.4177364302
 20
4.9342575915
 30
0.0
 10
5.4180291459
 20
4.9305190942
 30
0.0
 10
5.4182977678
 20
4.9256756073
 30
0.0
 10
5.4184219512
 20
4.9222883721
 30
0.0
 10
5.4184716302
 20
4.9205329615
 30
0.0
  0
SPLINE
  5
427
100
AcDbEntity
  8
ALL_ASSEMBLY_MEMBERS
100
AcDbSpline
 62
7
  6
CONTINUOUS
 70
0
 71
3
 72
20
 73
16
 74
0
 42
0.0000001
 43
0.0000001
 44
0.0000000001
 40
0.0
 40
0.0
 40
0.0
 40
0.0
 40
0.0257752727
 40
0.0539211535
 40
0.0861454803
 40
0.1235403239
 40
0.1667331694
 40
0.2159645144
 40
0.2712599731
 40
0.3325329923
 40
0.3996103341
 40
0.4721959008
 40
0.6324597609
 40
0.8100215424
 40
1.0
 40
1.0
 40
1.0
 40
1.0
 10
5.7884621226
 20
4.9458284161
 30
0.0
 10
5.788701297
 20
4.9458284061
 30
0.0
 10
5.7892043383
 20
4.9457428866
 30
0.0
 10
5.7899260282
 20
4.9453794148
 30
0.0
 10
5.790627477
 20
4.9447949228
 30
0.0
 10
5.7913088956
 20
4.94399543
 30
0.0
 10
5.7919684886
 20
4.9429845499
 30
0.0
 10
5.7926050076
 20
4.9417687923
 30
0.0
 10
5.7932152507
 20
4.9403552613
 30
0.0
 10
5.7937953689
 20
4.9387520563
 30
0.0
 10
5.7943412524
 20
4.9369685355
 30
0.0
 10
5.7950427923
 20
4.9342746411
 30
0.0
 10
5.7957959106
 20
4.9305384229
 30
0.0
 10
5.7964877679
 20
4.9256879912
 30
0.0
 10
5.7968079827
 20
4.922291153
 30
0.0
 10
5.7969357947
 20
4.9205329405
 30
0.0
  0
SPLINE
  5
428
100
AcDbEntity
  8
ALL_ASSEMBLY_MEMBERS
100
AcDbSpline
 62
7
  6
CONTINUOUS
 70
0
 71
3
 72
15
 73
11
 74
0
 42
0.0000001
 43
0.0000001
 44
0.0000000001
 40
0.0
 40
0.0
 40
0.0
 40
0.0
 40
0.0287938427
 40
0.0629103416
 40
0.1466847836
 40
0.2502375011
 40
0.3719792635
 40
0.5101054298
 40
0.6625096986
 40
1.0
 40
1.0
 40
1.0
 40
1.0
 10
5.1371861799
 20
5.1040624246
 30
0.0
 10
5.1370605793
 20
5.1040193257
 30
0.0
 10
5.1367823886
 20
5.1039361598
 30
0.0
 10
5.1361251754
 20
5.1037752249
 30
0.0
 10
5.1351201945
 20
5.1035897135
 30
0.0
 10
5.1337083321
 20
5.1033926607
 30
0.0
 10
5.1320417473
 20
5.1032130619
 30
0.0
 10
5.13014697
 20
5.1030542556
 30
0.0
 10
5.1272565915
 20
5.1028677623
 30
0.0
 10
5.1249986741
 20
5.102778192
 30
0.0
 10
5.1234428494
 20
5.1027353678
 30
0.0
  0
SPLINE
  5
429
100
AcDbEntity
  8
ALL_ASSEMBLY_MEMBERS
100
AcDbSpline
 62
7
  6
CONTINUOUS
 70
0
 71
3
 72
23
 73
19
 74
0
 42
0.0000001
 43
0.0000001
 44
0.0000000001
 40
0.0
 40
0.0
 40
0.0
 40
0.0
 40
0.0623499966
 40
0.1247618615
 40
0.1872197278
 40
0.2497192985
 40
0.3122532862
 40
0.3748150316
 40
0.4373960769
 40
0.4999878577
 40
0.5625797117
 40
0.625161033
 40
0.6877227458
 40
0.7502567175
 40
0.8127577033
 40
0.8752164006
 40
0.9376400787
 40
1.0
 40
1.0
 40
1.0
 40
1.0
 10
5.1371860638
 20
5.1040624252
 30
0.0
 10
5.1371857193
 20
5.0976258953
 30
0.0
 10
5.1365539185
 20
5.0847375652
 30
0.0
 10
5.133717818
 20
5.0655898047
 30
0.0
 10
5.1290151975
 20
5.0467951817
 30
0.0
 10
5.122489747
 20
5.0285402678
 30
0.0
 10
5.1142013342
 20
5.011003207
 30
0.0
 10
5.1042289014
 20
4.9943561906
 30
0.0
 10
5.0926678304
 20
4.978763016
 30
0.0
 10
5.079630795
 20
4.9643768479
 30
0.0
 10
5.0652451573
 20
4.9513391659
 30
0.0
 10
5.0496522487
 20
4.9397776873
 30
0.0
 10
5.0330057071
 20
4.9298044333
 30
0.0
 10
5.0154688351
 20
4.9215152638
 30
0.0
 10
4.99721392
 20
4.9149891498
 30
0.0
 10
4.9784180529
 20
4.9102854462
 30
0.0
 10
4.9592680215
 20
4.9074488789
 30
0.0
 10
4.9463774584
 20
4.9068162431
 30
0.0
 10
4.9399399039
 20
4.9068161487
 30
0.0
  0
SPLINE
  5
42A
100
AcDbEntity
  8
ALL_ASSEMBLY_MEMBERS
100
AcDbSpline
 62
7
  6
CONTINUOUS
 70
0
 71
3
 72
15
 73
11
 74
0
 42
0.0000001
 43
0.0000001
 44
0.0000000001
 40
0.0
 40
0.0
 40
0.0
 40
0.0
 40
0.02879382
 40
0.0629102983
 40
0.1466847077
 40
0.2502374056
 40
0.3719791606
 40
0.5101053312
 40
0.6625096204
 40
1.0
 40
1.0
 40
1.0
 40
1.0
 10
4.9399399039
 20
4.9068161487
 30
0.0
 10
4.9399830029
 20
4.9069417491
 30
0.0
 10
4.9400661687
 20
4.9072199395
 30
0.0
 10
4.9402271037
 20
4.9078771523
 30
0.0
 10
4.9404126152
 20
4.9088821326
 30
0.0
 10
4.9406096681
 20
4.9102939945
 30
0.0
 10
4.9407892669
 20
4.9119605788
 30
0.0
 10
4.9409480733
 20
4.9138553559
 30
0.0
 10
4.9411345667
 20
4.9167457343
 30
0.0
 10
4.941224137
 20
4.9190036518
 30
0.0
 10
4.9412669613
 20
4.9205594765
 30
0.0
  0
SPLINE
  5
42B
100
AcDbEntity
  8
ALL_ASSEMBLY_MEMBERS
100
AcDbSpline
 62
7
  6
CONTINUOUS
 70
0
 71
3
 72
15
 73
11
 74
0
 42
0.0000001
 43
0.0000001
 44
0.0000000001
 40
0.0
 40
0.0
 40
0.0
 40
0.0
 40
0.0721197361
 40
0.1609919098
 40
0.266590948
 40
0.3880399987
 40
0.5240246125
 40
0.6728225383
 40
0.8323949615
 40
1.0
 40
1.0
 40
1.0
 40
1.0
 10
4.5539284304
 20
4.9068161542
 30
0.0
 10
4.5541589185
 20
4.9070718318
 30
0.0
 10
4.5545981288
 20
4.9077095429
 30
0.0
 10
4.555159232
 20
4.9088539922
 30
0.0
 10
4.5556806299
 20
4.9102712577
 30
0.0
 10
4.5561545439
 20
4.9119391662
 30
0.0
 10
4.5565727047
 20
4.9138334878
 30
0.0
 10
4.5569286095
 20
4.9159250663
 30
0.0
 10
4.5572152074
 20
4.9181793482
 30
0.0
 10
4.5573548657
 20
4.9197351152
 30
0.0
 10
4.5574128623
 20
4.920533
 30
0.0
  0
SPLINE
  5
42C
100
AcDbEntity
  8
ALL_ASSEMBLY_MEMBERS
100
AcDbSpline
 62
7
  6
CONTINUOUS
 70
0
 71
3
 72
15
 73
11
 74
0
 42
0.0000001
 43
0.0000001
 44
0.0000000001
 40
0.0
 40
0.0
 40
0.0
 40
0.0
 40
0.0721184339
 40
0.1609895095
 40
0.2665878436
 40
0.3880366365
 40
0.5240214538
 40
0.672820049
 40
0.8323935672
 40
1.0
 40
1.0
 40
1.0
 40
1.0
 10
5.8004192917
 20
4.9068162323
 30
0.0
 10
5.8001888011
 20
4.9070718964
 30
0.0
 10
5.7997495853
 20
4.9077095847
 30
0.0
 10
5.7991884761
 20
4.9088540059
 30
0.0
 10
5.7986670716
 20
4.9102712485
 30
0.0
 10
5.7981931506
 20
4.9119391401
 30
0.0
 10
5.7977749831
 20
4.9138334508
 30
0.0
 10
5.7974190719
 20
4.9159250244
 30
0.0
 10
5.7971324686
 20
4.9181793064
 30
0.0
 10
5.7969928075
 20
4.9197350753
 30
0.0
 10
5.7969348096
 20
4.9205329617
 30
0.0
  0
SPLINE
  5
42D
100
AcDbEntity
  8
ALL_ASSEMBLY_MEMBERS
100
AcDbSpline
 62
7
  6
CONTINUOUS
 70
0
 71
3
 72
9
 73
5
 74
0
 42
0.0000001
 43
0.0000001
 44
0.0000000001
 40
0.0
 40
0.0
 40
0.0
 40
0.0
 40
0.2498044585
 40
1.0
 40
1.0
 40
1.0
 40
1.0
 10
5.2615398981
 20
5.4725098132
 30
0.0
 10
5.2610908453
 20
5.472511959
 30
0.0
 10
5.2592936579
 20
5.4725562051
 30
0.0
 10
5.2574994206
 20
5.4727471268
 30
0.0
 10
5.2561709589
 20
5.4729791977
 30
0.0
  0
SPLINE
  5
42E
100
AcDbEntity
  8
ALL_ASSEMBLY_MEMBERS
100
AcDbSpline
 62
7
  6
CONTINUOUS
 70
0
 71
3
 72
14
 73
10
 74
0
 42
0.0000001
 43
0.0000001
 44
0.0000000001
 40
0.0
 40
0.0
 40
0.0
 40
0.0
 40
0.2479775344
 40
0.3725423397
 40
0.4974624442
 40
0.6227237047
 40
0.74829736
 40
0.874120443
 40
1.0
 40
1.0
 40
1.0
 40
1.0
 10
5.2909526469
 20
5.4900875928
 30
0.0
 10
5.2894904433
 20
5.4874855804
 30
0.0
 10
5.2869131433
 20
5.4837564548
 30
0.0
 10
5.2826162651
 20
5.4795626751
 30
0.0
 10
5.2789462781
 20
5.4769096951
 30
0.0
 10
5.2749009182
 20
5.4748464337
 30
0.0
 10
5.2705745709
 20
5.47343457
 30
0.0
 10
5.2660888903
 20
5.4726481154
 30
0.0
 10
5.2630549949
 20
5.4725025732
 30
0.0
 10
5.2615398981
 20
5.4725098132
 30
0.0
  0
SPLINE
  5
42F
100
AcDbEntity
  8
ALL_ASSEMBLY_MEMBERS
100
AcDbSpline
 62
7
  6
CONTINUOUS
 70
0
 71
3
 72
11
 73
7
 74
0
 42
0.0000001
 43
0.0000001
 44
0.0000000001
 40
0.0
 40
0.0
 40
0.0
 40
0.0
 40
0.2499581139
 40
0.4998985114
 40
0.7498664665
 40
1.0
 40
1.0
 40
1.0
 40
1.0
 10
5.3009292215
 20
5.5321433576
 30
0.0
 10
5.3009292215
 20
5.528504402
 30
0.0
 10
5.3005935015
 20
5.5212203983
 30
0.0
 10
5.2988909433
 20
5.5104110898
 30
0.0
 10
5.2958044241
 20
5.4999024904
 30
0.0
 10
5.2927366138
 20
5.4932621877
 30
0.0
 10
5.2909526469
 20
5.4900875928
 30
0.0
  0
LINE
  5
430
100
AcDbEntity
  8
ALL_ASSEMBLY_MEMBERS
100
AcDbLine
 62
7
  6
CONTINUOUS
 10
5.5787960464
 20
5.3551863104
 11
5.588371602
 21
5.3471514653
  0
SPLINE
  5
431
100
AcDbEntity
  8
ALL_ASSEMBLY_MEMBERS
100
AcDbSpline
 62
7
  6
CONTINUOUS
 70
0
 71
3
 72
14
 73
10
 74
0
 42
0.0000001
 43
0.0000001
 44
0.0000000001
 40
0.0
 40
0.0
 40
0.0
 40
0.0
 40
0.2506532932
 40
0.375883964
 40
0.5009838712
 40
0.6258854939
 40
0.7506503537
 40
0.8754353564
 40
1.0
 40
1.0
 40
1.0
 40
1.0
 10
5.7526516309
 20
5.0906521411
 30
0.0
 10
5.7534384509
 20
5.0924604604
 30
0.0
 10
5.7548531888
 20
5.0950858783
 30
0.0
 10
5.7572742762
 20
5.0982059584
 30
0.0
 10
5.7593586202
 20
5.1003073822
 30
0.0
 10
5.7616799772
 20
5.1021378946
 30
0.0
 10
5.7642151188
 20
5.1036543584
 30
0.0
 10
5.766909734
 20
5.1048538195
 30
0.0
 10
5.7687810798
 20
5.1054560162
 30
0.0
 10
5.769727731
 20
5.1057096706
 30
0.0
  0
SPLINE
  5
432
100
AcDbEntity
  8
ALL_ASSEMBLY_MEMBERS
100
AcDbSpline
 62
7
  6
CONTINUOUS
 70
0
 71
3
 72
12
 73
8
 74
0
 42
0.0000001
 43
0.0000001
 44
0.0000000001
 40
0.0
 40
0.0
 40
0.0
 40
0.0
 40
0.2505897638
 40
0.5009548746
 40
0.6260388563
 40
0.751025827
 40
1.0
 40
1.0
 40
1.0
 40
1.0
 10
5.7513135273
 20
5.0648640628
 30
0.0
 10
5.7507394728
 20
5.0669857925
 30
0.0
 10
5.7498569261
 20
5.0713065738
 30
0.0
 10
5.749596454
 20
5.0768187018
 30
0.0
 10
5.7499687474
 20
5.0811983534
 30
0.0
 10
5.7507459332
 20
5.0855108158
 30
0.0
 10
5.7517803213
 20
5.0886496426
 30
0.0
 10
5.7526516309
 20
5.0906521411
 30
0.0
  0
SPLINE
  5
433
100
AcDbEntity
  8
ALL_ASSEMBLY_MEMBERS
100
AcDbSpline
 62
7
  6
CONTINUOUS
 70
0
 71
3
 72
13
 73
9
 74
0
 42
0.0000001
 43
0.0000001
 44
0.0000000001
 40
0.0
 40
0.0
 40
0.0
 40
0.0
 40
0.2490270627
 40
0.3741900528
 40
0.4992946036
 40
0.6245436449
 40
0.7497804741
 40
1.0
 40
1.0
 40
1.0
 40
1.0
 10
5.7663833566
 20
5.0419483818
 30
0.0
 10
5.7644092059
 20
5.0431856493
 30
0.0
 10
5.7616708684
 20
5.0454392873
 30
0.0
 10
5.7586264101
 20
5.0489899581
 30
0.0
 10
5.7566419324
 20
5.0518975394
 30
0.0
 10
5.7549423701
 20
5.0549781052
 30
0.0
 10
5.7530199189
 20
5.0592542184
 30
0.0
 10
5.751924921
 20
5.0626043263
 30
0.0
 10
5.7513135273
 20
5.0648640628
 30
0.0
  0
SPLINE
  5
434
100
AcDbEntity
  8
ALL_ASSEMBLY_MEMBERS
100
AcDbSpline
 62
7
  6
CONTINUOUS
 70
0
 71
3
 72
13
 73
9
 74
0
 42
0.0000001
 43
0.0000001
 44
0.0000000001
 40
0.0
 40
0.0
 40
0.0
 40
0.0
 40
0.2489082269
 40
0.3736969204
 40
0.498645165
 40
0.6237791484
 40
0.7491091395
 40
1.0
 40
1.0
 40
1.0
 40
1.0
 10
5.7891066665
 20
5.0384741901
 30
0.0
 10
5.7872097348
 20
5.0379659088
 30
0.0
 10
5.7842811505
 20
5.0374538091
 30
0.0
 10
5.7803410112
 20
5.0373947575
 30
0.0
 10
5.7773910172
 20
5.0376828157
 30
0.0
 10
5.7744860924
 20
5.0382924806
 30
0.0
 10
5.7707229917
 20
5.039531705
 30
0.0
 10
5.768060653
 20
5.040897163
 30
0.0
 10
5.7663833566
 20
5.0419483818
 30
0.0
  0
SPLINE
  5
435
100
AcDbEntity
  8
ALL_ASSEMBLY_MEMBERS
100
AcDbSpline
 62
7
  6
CONTINUOUS
 70
0
 71
3
 72
15
 73
11
 74
0
 42
0.0000001
 43
0.0000001
 44
0.0000000001
 40
0.0
 40
0.0
 40
0.0
 40
0.0
 40
0.1241114187
 40
0.1864527746
 40
0.2487576403
 40
0.3734097267
 40
0.4984597969
 40
0.6236014348
 40
0.7490584422
 40
1.0
 40
1.0
 40
1.0
 40
1.0
 10
5.8499363856
 20
5.0579036063
 30
0.0
 10
5.8484013314
 20
5.0574922897
 30
0.0
 10
5.8460230949
 20
5.0571084533
 30
0.0
 10
5.8428338717
 20
5.0570838657
 30
0.0
 10
5.8396511277
 20
5.0573978133
 30
0.0
 10
5.8357598571
 20
5.058414743
 30
0.0
 10
5.8313729297
 20
5.0604066236
 30
0.0
 10
5.8273067991
 20
5.0630006232
 30
0.0
 10
5.8222958118
 20
5.0670306657
 30
0.0
 10
5.8189355205
 20
5.0705145993
 30
0.0
 10
5.8168328949
 20
5.0729443658
 30
0.0
  0
SPLINE
  5
436
100
AcDbEntity
  8
ALL_ASSEMBLY_MEMBERS
100
AcDbSpline
 62
7
  6
CONTINUOUS
 70
0
 71
3
 72
9
 73
5
 74
0
 42
0.0000001
 43
0.0000001
 44
0.0000000001
 40
0.0
 40
0.0
 40
0.0
 40
0.0
 40
0.5003325496
 40
1.0
 40
1.0
 40
1.0
 40
1.0
 10
5.8175422047
 20
5.1120003857
 30
0.0
 10
5.8192029479
 20
5.1136453814
 30
0.0
 10
5.8229682821
 20
5.1165167661
 30
0.0
 10
5.8273567129
 20
5.1182820104
 30
0.0
 10
5.8296115988
 20
5.1188862052
 30
0.0
  0
SPLINE
  5
437
100
AcDbEntity
  8
ALL_ASSEMBLY_MEMBERS
100
AcDbSpline
 62
7
  6
CONTINUOUS
 70
0
 71
3
 72
13
 73
9
 74
0
 42
0.0000001
 43
0.0000001
 44
0.0000000001
 40
0.0
 40
0.0
 40
0.0
 40
0.0
 40
0.2504782198
 40
0.5007345136
 40
0.6257625084
 40
0.7506906529
 40
0.8754586788
 40
1.0
 40
1.0
 40
1.0
 40
1.0
 10
5.8058408517
 20
5.0905188926
 30
0.0
 10
5.8066076115
 20
5.0924229618
 30
0.0
 10
5.8081935104
 20
5.0962082864
 30
0.0
 10
5.8103596731
 20
5.1008592183
 30
0.0
 10
5.8122641406
 20
5.1044899895
 30
0.0
 10
5.8138074423
 20
5.1071468779
 30
0.0
 10
5.8155119631
 20
5.1096979751
 30
0.0
 10
5.8168170948
 20
5.1112821514
 30
0.0
 10
5.8175422047
 20
5.1120003857
 30
0.0
  0
SPLINE
  5
438
100
AcDbEntity
  8
ALL_ASSEMBLY_MEMBERS
100
AcDbSpline
 62
7
  6
CONTINUOUS
 70
0
 71
3
 72
14
 73
10
 74
0
 42
0.0000001
 43
0.0000001
 44
0.0000000001
 40
0.0
 40
0.0
 40
0.0
 40
0.0
 40
0.1245538834
 40
0.2493771848
 40
0.3743570571
 40
0.4994192508
 40
0.6245338376
 40
0.7496799043
 40
1.0
 40
1.0
 40
1.0
 40
1.0
 10
5.8322132743
 20
4.9901384874
 30
0.0
 10
5.8330563097
 20
4.9917489813
 30
0.0
 10
5.8343767157
 20
4.9951686178
 30
0.0
 10
5.8355693935
 20
5.0005110323
 30
0.0
 10
5.8362145813
 20
5.0059511146
 30
0.0
 10
5.8364576585
 20
5.0114243619
 30
0.0
 10
5.8363959838
 20
5.0169039274
 30
0.0
 10
5.8359938563
 20
5.0242001559
 30
0.0
 10
5.8354039099
 20
5.0296524233
 30
0.0
 10
5.8349226192
 20
5.0332738762
 30
0.0
  0
SPLINE
  5
439
100
AcDbEntity
  8
ALL_ASSEMBLY_MEMBERS
100
AcDbSpline
 62
7
  6
CONTINUOUS
 70
0
 71
3
 72
13
 73
9
 74
0
 42
0.0000001
 43
0.0000001
 44
0.0000000001
 40
0.0
 40
0.0
 40
0.0
 40
0.0
 40
0.2487894957
 40
0.373578842
 40
0.4985408428
 40
0.6237084852
 40
0.7490757226
 40
1.0
 40
1.0
 40
1.0
 40
1.0
 10
5.812125354
 20
4.9738659632
 30
0.0
 10
5.8142581272
 20
4.974437438
 30
0.0
 10
5.817395345
 20
4.9755970142
 30
0.0
 10
5.8212528446
 20
4.9777787788
 30
0.0
 10
5.8239513234
 20
4.9797378983
 30
0.0
 10
5.8264226484
 20
4.98198403
 30
0.0
 10
5.829370112
 20
4.9853278145
 30
0.0
 10
5.8311804865
 20
4.9881654998
 30
0.0
 10
5.8322132743
 20
4.9901384874
 30
0.0
  0
SPLINE
  5
43A
100
AcDbEntity
  8
ALL_ASSEMBLY_MEMBERS
100
AcDbSpline
 62
7
  6
CONTINUOUS
 70
0
 71
3
 72
13
 73
9
 74
0
 42
0.0000001
 43
0.0000001
 44
0.0000000001
 40
0.0
 40
0.0
 40
0.0
 40
0.0
 40
0.251428422
 40
0.5017730788
 40
0.6267543423
 40
0.7514001053
 40
0.8758082341
 40
1.0
 40
1.0
 40
1.0
 40
1.0
 10
5.7680182676
 20
5.0138688402
 30
0.0
 10
5.768176761
 20
5.0147461844
 30
0.0
 10
5.7686102362
 20
5.0164799683
 30
0.0
 10
5.7696019467
 20
5.0185012212
 30
0.0
 10
5.7707399051
 20
5.0198718026
 30
0.0
 10
5.7717643962
 20
5.0207264155
 30
0.0
 10
5.7729254624
 20
5.0213763285
 30
0.0
 10
5.7737620511
 20
5.0216681242
 30
0.0
 10
5.7741874199
 20
5.0217821014
 30
0.0
  0
SPLINE
  5
43B
100
AcDbEntity
  8
ALL_ASSEMBLY_MEMBERS
100
AcDbSpline
 62
7
  6
CONTINUOUS
 70
0
 71
3
 72
11
 73
7
 74
0
 42
0.0000001
 43
0.0000001
 44
0.0000000001
 40
0.0
 40
0.0
 40
0.0
 40
0.0
 40
0.250200325
 40
0.5003627418
 40
0.7503603891
 40
1.0
 40
1.0
 40
1.0
 40
1.0
 10
5.7694283085
 20
4.9973788008
 30
0.0
 10
5.7690705701
 20
4.9987222359
 30
0.0
 10
5.7684319274
 20
5.001430399
 30
0.0
 10
5.7677797577
 20
5.005553816
 30
0.0
 10
5.7675426808
 20
5.009721404
 30
0.0
 10
5.7677716716
 20
5.0125038011
 30
0.0
 10
5.7680182676
 20
5.0138688402
 30
0.0
  0
SPLINE
  5
43C
100
AcDbEntity
  8
ALL_ASSEMBLY_MEMBERS
100
AcDbSpline
 62
7
  6
CONTINUOUS
 70
0
 71
3
 72
13
 73
9
 74
0
 42
0.0000001
 43
0.0000001
 44
0.0000000001
 40
0.0
 40
0.0
 40
0.0
 40
0.0
 40
0.2487384485
 40
0.3736631366
 40
0.4987448431
 40
0.6240180584
 40
0.7493942377
 40
1.0
 40
1.0
 40
1.0
 40
1.0
 10
5.7903035402
 20
4.9679318741
 30
0.0
 10
5.7877113365
 20
4.9695668221
 30
0.0
 10
5.7840364521
 20
4.9724045172
 30
0.0
 10
5.7797927927
 20
4.976860223
 30
0.0
 10
5.7769642447
 20
4.9805287022
 30
0.0
 10
5.7745060169
 20
4.9844602279
 30
0.0
 10
5.7717410697
 20
4.9899906742
 30
0.0
 10
5.7702228437
 20
4.994395038
 30
0.0
 10
5.7694283085
 20
4.9973788008
 30
0.0
  0
SPLINE
  5
43D
100
AcDbEntity
  8
ALL_ASSEMBLY_MEMBERS
100
AcDbSpline
 62
7
  6
CONTINUOUS
 70
0
 71
3
 72
14
 73
10
 74
0
 42
0.0000001
 43
0.0000001
 44
0.0000000001
 40
0.0
 40
0.0
 40
0.0
 40
0.0
 40
0.124613615
 40
0.249409879
 40
0.3742179327
 40
0.4991321278
 40
0.6241955049
 40
0.7494048681
 40
1.0
 40
1.0
 40
1.0
 40
1.0
 10
5.8236143052
 20
4.962684863
 30
0.0
 10
5.8222203035
 20
4.9623113414
 30
0.0
 10
5.81939425
 20
4.9616904759
 30
0.0
 10
5.8150834345
 20
4.9611777102
 30
0.0
 10
5.8107370018
 20
4.9611319238
 30
0.0
 10
5.8064108368
 20
4.9615817494
 30
0.0
 10
5.8021555542
 20
4.9625057922
 30
0.0
 10
5.7966497488
 20
4.9643606793
 30
0.0
 10
5.7927582687
 20
4.9663836341
 30
0.0
 10
5.7903035402
 20
4.9679318741
 30
0.0
  0
LINE
  5
43E
100
AcDbEntity
  8
ALL_ASSEMBLY_MEMBERS
100
AcDbLine
 62
7
  6
CONTINUOUS
 10
5.8535391664
 20
5.022089756
 11
5.8682251693
 21
5.018895081
  0
LINE
  5
43F
100
AcDbEntity
  8
ALL_ASSEMBLY_MEMBERS
100
AcDbLine
 62
7
  6
CONTINUOUS
 10
5.8682251693
 20
5.018895081
 11
5.8777873821
 21
4.9828521588
  0
LINE
  5
440
100
AcDbEntity
  8
ALL_ASSEMBLY_MEMBERS
100
AcDbLine
 62
7
  6
CONTINUOUS
 10
5.8777873821
 20
4.9828521588
 11
5.8941475899
 21
4.9794104952
  0
LINE
  5
441
100
AcDbEntity
  8
ALL_ASSEMBLY_MEMBERS
100
AcDbLine
 62
7
  6
CONTINUOUS
 10
5.8009153223
 20
4.763192393
 11
5.7987447201
 21
4.7508822961
  0
LINE
  5
442
100
AcDbEntity
  8
ALL_ASSEMBLY_MEMBERS
100
AcDbLine
 62
7
  6
CONTINUOUS
 10
5.7935911268
 20
4.5363330508
 11
5.790689329
 21
4.5344688591
  0
SPLINE
  5
443
100
AcDbEntity
  8
ALL_ASSEMBLY_MEMBERS
100
AcDbSpline
 62
7
  6
CONTINUOUS
 70
0
 71
3
 72
12
 73
8
 74
0
 42
0.0000001
 43
0.0000001
 44
0.0000000001
 40
0.0
 40
0.0
 40
0.0
 40
0.0
 40
0.1254170491
 40
0.2506524482
 40
0.5006530455
 40
0.7504056296
 40
1.0
 40
1.0
 40
1.0
 40
1.0
 10
5.794559064
 20
4.5209094515
 30
0.0
 10
5.7945483345
 20
4.5215015431
 30
0.0
 10
5.7944350311
 20
4.5226833011
 30
0.0
 10
5.7939948239
 20
4.5250073474
 30
0.0
 10
5.7931893546
 20
4.5278513095
 30
0.0
 10
5.7920140928
 20
4.5311894632
 30
0.0
 10
5.7911409582
 20
4.5333803052
 30
0.0
 10
5.790689329
 20
4.5344688591
 30
0.0
  0
SPLINE
  5
444
100
AcDbEntity
  8
ALL_ASSEMBLY_MEMBERS
100
AcDbSpline
 62
7
  6
CONTINUOUS
 70
0
 71
3
 72
13
 73
9
 74
0
 42
0.0000001
 43
0.0000001
 44
0.0000000001
 40
0.0
 40
0.0
 40
0.0
 40
0.0
 40
0.2500424111
 40
0.5000954227
 40
0.625134575
 40
0.7501059748
 40
0.875290641
 40
1.0
 40
1.0
 40
1.0
 40
1.0
 10
5.7888848753
 20
4.508161377
 30
0.0
 10
5.7895578065
 20
4.5091281448
 30
0.0
 10
5.7908582538
 20
4.5110938066
 30
0.0
 10
5.792320901
 20
4.5136544497
 30
0.0
 10
5.7933253615
 20
4.5157866631
 30
0.0
 10
5.7939656208
 20
4.5174365931
 30
0.0
 10
5.79443569
 20
4.5191419875
 30
0.0
 10
5.7945697082
 20
4.520322061
 30
0.0
 10
5.794559064
 20
4.5209094515
 30
0.0
  0
LINE
  5
445
100
AcDbEntity
  8
ALL_ASSEMBLY_MEMBERS
100
AcDbLine
 62
7
  6
CONTINUOUS
 10
5.7888808095
 20
4.5081552511
 11
5.7693775083
 21
4.4801853691
  0
LINE
  5
446
100
AcDbEntity
  8
ALL_ASSEMBLY_MEMBERS
100
AcDbLine
 62
7
  6
CONTINUOUS
 10
5.7073806117
 20
4.5647096647
 11
5.7005682648
 21
4.5549207916
  0
LINE
  5
447
100
AcDbEntity
  8
ALL_ASSEMBLY_MEMBERS
100
AcDbLine
 62
7
  6
CONTINUOUS
 10
5.7005682648
 20
4.5549207916
 11
5.772276576
 21
4.4582650428
  0
SPLINE
  5
448
100
AcDbEntity
  8
ALL_ASSEMBLY_MEMBERS
100
AcDbSpline
 62
7
  6
CONTINUOUS
 70
0
 71
3
 72
14
 73
10
 74
0
 42
0.0000001
 43
0.0000001
 44
0.0000000001
 40
0.0
 40
0.0
 40
0.0
 40
0.0
 40
0.1245538834
 40
0.2493771848
 40
0.3743570571
 40
0.4994192508
 40
0.6245338376
 40
0.7496799043
 40
1.0
 40
1.0
 40
1.0
 40
1.0
 10
5.6926860932
 20
4.4443013394
 30
0.0
 10
5.6944616958
 20
4.4446907423
 30
0.0
 10
5.6979300299
 20
4.4458773526
 30
0.0
 10
5.7027891954
 20
4.4483977463
 30
0.0
 10
5.7073712589
 20
4.4514003212
 30
0.0
 10
5.7117202566
 20
4.4547322489
 30
0.0
 10
5.7158782035
 20
4.4583016912
 30
0.0
 10
5.7212089563
 20
4.463299664
 30
0.0
 10
5.7250064252
 20
4.4672562392
 30
0.0
 10
5.7274712514
 20
4.4699527542
 30
0.0
  0
SPLINE
  5
449
100
AcDbEntity
  8
ALL_ASSEMBLY_MEMBERS
100
AcDbSpline
 62
7
  6
CONTINUOUS
 70
0
 71
3
 72
13
 73
9
 74
0
 42
0.0000001
 43
0.0000001
 44
0.0000000001
 40
0.0
 40
0.0
 40
0.0
 40
0.0
 40
0.2487894957
 40
0.373578842
 40
0.4985408428
 40
0.6237084852
 40
0.7490757226
 40
1.0
 40
1.0
 40
1.0
 40
1.0
 10
5.6673083502
 20
4.4492298022
 30
0.0
 10
5.6691170455
 20
4.4479633401
 30
0.0
 10
5.6720218971
 20
4.446305453
 30
0.0
 10
5.6761727786
 20
4.4447528481
 30
0.0
 10
5.6794081
 20
4.4439449911
 30
0.0
 10
5.6827172738
 20
4.443495632
 30
0.0
 10
5.6871733544
 20
4.4433870871
 30
0.0
 10
5.6905108338
 20
4.4438242888
 30
0.0
 10
5.6926860932
 20
4.4443013394
 30
0.0
  0
SPLINE
  5
44A
100
AcDbEntity
  8
ALL_ASSEMBLY_MEMBERS
100
AcDbSpline
 62
7
  6
CONTINUOUS
 70
0
 71
3
 72
13
 73
9
 74
0
 42
0.0000001
 43
0.0000001
 44
0.0000000001
 40
0.0
 40
0.0
 40
0.0
 40
0.0
 40
0.251428422
 40
0.5017730788
 40
0.6267543423
 40
0.7514001053
 40
0.8758082341
 40
1.0
 40
1.0
 40
1.0
 40
1.0
 10
5.6696008432
 20
4.5087311442
 30
0.0
 10
5.6703748054
 20
4.5091736773
 30
0.0
 10
5.6719815934
 20
4.5099560708
 30
0.0
 10
5.6741674222
 20
4.5104956129
 30
0.0
 10
5.675948814
 20
4.5105048789
 30
0.0
 10
5.6772620157
 20
4.5102694078
 30
0.0
 10
5.6785061969
 20
4.5097977355
 30
0.0
 10
5.6792674741
 20
4.509344434
 30
0.0
 10
5.6796282076
 20
4.5090918457
 30
0.0
  0
SPLINE
  5
44B
100
AcDbEntity
  8
ALL_ASSEMBLY_MEMBERS
100
AcDbSpline
 62
7
  6
CONTINUOUS
 70
0
 71
3
 72
11
 73
7
 74
0
 42
0.0000001
 43
0.0000001
 44
0.0000000001
 40
0.0
 40
0.0
 40
0.0
 40
0.0
 40
0.250200325
 40
0.5003627418
 40
0.7503603891
 40
1.0
 40
1.0
 40
1.0
 40
1.0
 10
5.6578750969
 20
4.4970513973
 30
0.0
 10
5.6586742781
 20
4.4981889842
 30
0.0
 10
5.6603383398
 20
4.5004189866
 30
0.0
 10
5.6630778539
 20
4.503569059
 30
0.0
 10
5.6661180214
 20
4.5064295444
 30
0.0
 10
5.6683966537
 20
4.5080426175
 30
0.0
 10
5.6696008432
 20
4.5087311442
 30
0.0
  0
SPLINE
  5
44C
100
AcDbEntity
  8
ALL_ASSEMBLY_MEMBERS
100
AcDbSpline
 62
7
  6
CONTINUOUS
 70
0
 71
3
 72
13
 73
9
 74
0
 42
0.0000001
 43
0.0000001
 44
0.0000000001
 40
0.0
 40
0.0
 40
0.0
 40
0.0
 40
0.2487384485
 40
0.3736631366
 40
0.4987448431
 40
0.6240180584
 40
0.7493942377
 40
1.0
 40
1.0
 40
1.0
 40
1.0
 10
5.6487357826
 20
4.4621319225
 30
0.0
 10
5.648321989
 20
4.46516859
 30
0.0
 10
5.6481336194
 20
4.46980775
 30
0.0
 10
5.6488191164
 20
4.4759226542
 30
0.0
 10
5.6498111789
 20
4.4804475006
 30
0.0
 10
5.651242784
 20
4.4848577484
 30
0.0
 10
5.6537020778
 20
4.4905307232
 30
0.0
 10
5.6561001194
 20
4.4945248223
 30
0.0
 10
5.6578750969
 20
4.4970513973
 30
0.0
  0
SPLINE
  5
44D
100
AcDbEntity
  8
ALL_ASSEMBLY_MEMBERS
100
AcDbSpline
 62
7
  6
CONTINUOUS
 70
0
 71
3
 72
14
 73
10
 74
0
 42
0.0000001
 43
0.0000001
 44
0.0000000001
 40
0.0
 40
0.0
 40
0.0
 40
0.0
 40
0.124613615
 40
0.249409879
 40
0.3742179327
 40
0.4991321278
 40
0.6241955049
 40
0.7494048681
 40
1.0
 40
1.0
 40
1.0
 40
1.0
 10
5.666128086
 20
4.4332416822
 30
0.0
 10
5.6649459048
 20
4.4340694545
 30
0.0
 10
5.662653742
 20
4.4358352524
 30
0.0
 10
5.6594900019
 20
4.4388079293
 30
0.0
 10
5.6566610944
 20
4.4421080589
 30
0.0
 10
5.6542248756
 20
4.4457112359
 30
0.0
 10
5.6521974905
 20
4.4495649348
 30
0.0
 10
5.650079353
 20
4.4549749248
 30
0.0
 10
5.6491276311
 20
4.4592563019
 30
0.0
 10
5.6487357826
 20
4.4621319225
 30
0.0
  0
LINE
  5
44E
100
AcDbEntity
  8
ALL_ASSEMBLY_MEMBERS
100
AcDbLine
 62
7
  6
CONTINUOUS
 10
5.7308702042
 20
4.4485026378
 11
5.7378629218
 21
4.4351990094
  0
LINE
  5
44F
100
AcDbEntity
  8
ALL_ASSEMBLY_MEMBERS
100
AcDbLine
 62
7
  6
CONTINUOUS
 10
5.7378629218
 20
4.4351990094
 11
5.7163989135
 21
4.4047059856
  0
LINE
  5
450
100
AcDbEntity
  8
ALL_ASSEMBLY_MEMBERS
100
AcDbLine
 62
7
  6
CONTINUOUS
 10
5.7163989135
 20
4.4047059856
 11
5.7242785851
 21
4.3899610806
  0
SPLINE
  5
451
100
AcDbEntity
  8
ALL_ASSEMBLY_MEMBERS
100
AcDbSpline
 62
7
  6
CONTINUOUS
 70
0
 71
3
 72
9
 73
5
 74
0
 42
0.0000001
 43
0.0000001
 44
0.0000000001
 40
0.0
 40
0.0
 40
0.0
 40
0.0
 40
0.2507178029
 40
1.0
 40
1.0
 40
1.0
 40
1.0
 10
5.2198853551
 20
4.149957069
 30
0.0
 10
5.2202372752
 20
4.1497445956
 30
0.0
 10
5.2216914871
 20
4.1489798262
 30
0.0
 10
5.2232803969
 20
4.148505335
 30
0.0
 10
5.2244797132
 20
4.1482389046
 30
0.0
  0
SPLINE
  5
452
100
AcDbEntity
  8
ALL_ASSEMBLY_MEMBERS
100
AcDbSpline
 62
7
  6
CONTINUOUS
 70
0
 71
3
 72
9
 73
5
 74
0
 42
0.0000001
 43
0.0000001
 44
0.0000000001
 40
0.0
 40
0.0
 40
0.0
 40
0.0
 40
0.4999310131
 40
1.0
 40
1.0
 40
1.0
 40
1.0
 10
5.2244797132
 20
4.1482389046
 30
0.0
 10
5.2253720857
 20
4.1480406623
 30
0.0
 10
5.2271803454
 20
4.1477470105
 30
0.0
 10
5.2290039046
 20
4.1475968557
 30
0.0
 10
5.2299169727
 20
4.1475478992
 30
0.0
  0
LINE
  5
453
100
AcDbEntity
  8
ALL_ASSEMBLY_MEMBERS
100
AcDbLine
 62
7
  6
CONTINUOUS
 10
5.2633433077
 20
4.2207908996
 11
5.2590600338
 21
4.2207717652
  0
SPLINE
  5
454
100
AcDbEntity
  8
ALL_ASSEMBLY_MEMBERS
100
AcDbSpline
 62
7
  6
CONTINUOUS
 70
0
 71
3
 72
11
 73
7
 74
0
 42
0.0000001
 43
0.0000001
 44
0.0000000001
 40
0.0
 40
0.0
 40
0.0
 40
0.0
 40
0.2515211717
 40
0.5012771263
 40
0.7507198355
 40
1.0
 40
1.0
 40
1.0
 40
1.0
 10
5.2562097494
 20
4.2101316701
 30
0.0
 10
5.2566953043
 20
4.2109257007
 30
0.0
 10
5.257483248
 20
4.2126199783
 30
0.0
 10
5.2582623679
 20
4.2152920214
 30
0.0
 10
5.2587703038
 20
4.2180180681
 30
0.0
 10
5.2589799198
 20
4.2198528188
 30
0.0
 10
5.2590600338
 20
4.2207717652
 30
0.0
  0
LINE
  5
455
100
AcDbEntity
  8
ALL_ASSEMBLY_MEMBERS
100
AcDbLine
 62
7
  6
CONTINUOUS
 10
5.2724137736
 20
4.2575699094
 11
5.2735895735
 21
4.2318198143
  0
LINE
  5
456
100
AcDbEntity
  8
ALL_ASSEMBLY_MEMBERS
100
AcDbLine
 62
7
  6
CONTINUOUS
 10
5.2724137736
 20
4.2575699094
 11
5.2573290841
 21
4.2574954799
  0
SPLINE
  5
457
100
AcDbEntity
  8
ALL_ASSEMBLY_MEMBERS
100
AcDbSpline
 62
7
  6
CONTINUOUS
 70
0
 71
3
 72
13
 73
9
 74
0
 42
0.0000001
 43
0.0000001
 44
0.0000000001
 40
0.0
 40
0.0
 40
0.0
 40
0.0
 40
0.2509469573
 40
0.3763134173
 40
0.5014808876
 40
0.626433288
 40
0.751220366
 40
1.0
 40
1.0
 40
1.0
 40
1.0
 10
5.8511898933
 20
5.1049273803
 30
0.0
 10
5.8502721609
 20
5.10552965
 30
0.0
 10
5.8488128281
 20
5.1063191447
 30
0.0
 10
5.8467409203
 20
5.1070504785
 30
0.0
 10
5.8451369645
 20
5.1074203942
 30
0.0
 10
5.8435039663
 20
5.1076078668
 30
0.0
 10
5.8413195598
 20
5.1076025464
 30
0.0
 10
5.8396933923
 20
5.1073280692
 30
0.0
 10
5.8386422458
 20
5.1070464153
 30
0.0
  0
SPLINE
  5
458
100
AcDbEntity
  8
ALL_ASSEMBLY_MEMBERS
100
AcDbSpline
 62
7
  6
CONTINUOUS
 70
0
 71
3
 72
11
 73
7
 74
0
 42
0.0000001
 43
0.0000001
 44
0.0000000001
 40
0.0
 40
0.0
 40
0.0
 40
0.0
 40
0.2504429413
 40
0.500797765
 40
0.7507460574
 40
1.0
 40
1.0
 40
1.0
 40
1.0
 10
5.8591655033
 20
5.0937620459
 30
0.0
 10
5.8588601794
 20
5.0948922279
 30
0.0
 10
5.8580755527
 20
5.0971111214
 30
0.0
 10
5.8563212609
 20
5.1001744996
 30
0.0
 10
5.8540109239
 20
5.1028376282
 30
0.0
 10
5.8521640024
 20
5.1042881129
 30
0.0
 10
5.8511898933
 20
5.1049273803
 30
0.0
  0
SPLINE
  5
459
100
AcDbEntity
  8
ALL_ASSEMBLY_MEMBERS
100
AcDbSpline
 62
7
  6
CONTINUOUS
 70
0
 71
3
 72
12
 73
8
 74
0
 42
0.0000001
 43
0.0000001
 44
0.0000000001
 40
0.0
 40
0.0
 40
0.0
 40
0.0
 40
0.2489105674
 40
0.3739432064
 40
0.499059201
 40
0.7494521429
 40
1.0
 40
1.0
 40
1.0
 40
1.0
 10
5.8579402776
 20
5.0796111886
 30
0.0
 10
5.8585207714
 20
5.0806702268
 30
0.0
 10
5.8592226692
 20
5.082363799
 30
0.0
 10
5.8597717879
 20
5.0847257299
 30
0.0
 10
5.8600607168
 20
5.0871415771
 30
0.0
 10
5.8599653248
 20
5.0901964121
 30
0.0
 10
5.859482549
 20
5.0925884753
 30
0.0
 10
5.8591655033
 20
5.0937620459
 30
0.0
  0
SPLINE
  5
45A
100
AcDbEntity
  8
ALL_ASSEMBLY_MEMBERS
100
AcDbSpline
 62
7
  6
CONTINUOUS
 70
0
 71
3
 72
12
 73
8
 74
0
 42
0.0000001
 43
0.0000001
 44
0.0000000001
 40
0.0
 40
0.0
 40
0.0
 40
0.0
 40
0.2490971196
 40
0.4985743987
 40
0.6236822619
 40
0.7490725884
 40
1.0
 40
1.0
 40
1.0
 40
1.0
 10
5.8471572645
 20
5.0714184774
 30
0.0
 10
5.8482737185
 20
5.0717176304
 30
0.0
 10
5.850467818
 20
5.0724914319
 30
0.0
 10
5.8529804681
 20
5.0739707417
 30
0.0
 10
5.8547686182
 20
5.0754558617
 30
0.0
 10
5.8563824017
 20
5.0771370653
 30
0.0
 10
5.8573806288
 20
5.0785901793
 30
0.0
 10
5.8579402776
 20
5.0796111886
 30
0.0
  0
SPLINE
  5
45B
100
AcDbEntity
  8
ALL_ASSEMBLY_MEMBERS
100
AcDbSpline
 62
7
  6
CONTINUOUS
 70
0
 71
3
 72
9
 73
5
 74
0
 42
0.0000001
 43
0.0000001
 44
0.0000000001
 40
0.0
 40
0.0
 40
0.0
 40
0.0
 40
0.4996943764
 40
1.0
 40
1.0
 40
1.0
 40
1.0
 10
5.7937413231
 20
5.0618221925
 30
0.0
 10
5.7955978087
 20
5.0652800016
 30
0.0
 10
5.7989401212
 20
5.0724027438
 30
0.0
 10
5.801695867
 20
5.0797644028
 30
0.0
 10
5.8029571935
 20
5.0834859272
 30
0.0
  0
SPLINE
  5
45C
100
AcDbEntity
  8
ALL_ASSEMBLY_MEMBERS
100
AcDbSpline
 62
7
  6
CONTINUOUS
 70
0
 71
3
 72
11
 73
7
 74
0
 42
0.0000001
 43
0.0000001
 44
0.0000000001
 40
0.0
 40
0.0
 40
0.0
 40
0.0
 40
0.2491987035
 40
0.4987510671
 40
0.7490050499
 40
1.0
 40
1.0
 40
1.0
 40
1.0
 10
5.7802704957
 20
5.0503660737
 30
0.0
 10
5.7817296261
 20
5.0507570465
 30
0.0
 10
5.7845773031
 20
5.0518649186
 30
0.0
 10
5.7883260395
 20
5.0544995442
 30
0.0
 10
5.7914026346
 20
5.0578944875
 30
0.0
 10
5.7930216111
 20
5.0604816885
 30
0.0
 10
5.7937413231
 20
5.0618221925
 30
0.0
  0
SPLINE
  5
45D
100
AcDbEntity
  8
ALL_ASSEMBLY_MEMBERS
100
AcDbSpline
 62
7
  6
CONTINUOUS
 70
0
 71
3
 72
14
 73
10
 74
0
 42
0.0000001
 43
0.0000001
 44
0.0000000001
 40
0.0
 40
0.0
 40
0.0
 40
0.0
 40
0.2505422253
 40
0.3759757417
 40
0.5010922204
 40
0.6258938472
 40
0.7509118169
 40
0.8758341041
 40
1.0
 40
1.0
 40
1.0
 40
1.0
 10
5.8001318147
 20
5.0858440151
 30
0.0
 10
5.7983161113
 20
5.0872625417
 30
0.0
 10
5.7954436704
 20
5.0892202735
 30
0.0
 10
5.7913170234
 20
5.091285298
 30
0.0
 10
5.78807744
 20
5.0924993815
 30
0.0
 10
5.7847128069
 20
5.0933009075
 30
0.0
 10
5.7812685504
 20
5.0936124476
 30
0.0
 10
5.7778218411
 20
5.0934447412
 30
0.0
 10
5.7755625961
 20
5.0930135699
 30
0.0
 10
5.7744596065
 20
5.0927180247
 30
0.0
  0
SPLINE
  5
45E
100
AcDbEntity
  8
ALL_ASSEMBLY_MEMBERS
100
AcDbSpline
 62
7
  6
CONTINUOUS
 70
0
 71
3
 72
11
 73
7
 74
0
 42
0.0000001
 43
0.0000001
 44
0.0000000001
 40
0.0
 40
0.0
 40
0.0
 40
0.0
 40
0.2518453978
 40
0.5024215464
 40
0.751657804
 40
1.0
 40
1.0
 40
1.0
 40
1.0
 10
5.2616238903
 20
5.5841888563
 30
0.0
 10
5.2597484736
 20
5.5841964504
 30
0.0
 10
5.255962392
 20
5.5837330549
 30
0.0
 10
5.2508996317
 20
5.5810353778
 30
0.0
 10
5.2471864677
 20
5.5767581024
 30
0.0
 10
5.2455188097
 20
5.5734203162
 30
0.0
 10
5.2448267298
 20
5.5717053524
 30
0.0
  0
SPLINE
  5
45F
100
AcDbEntity
  8
ALL_ASSEMBLY_MEMBERS
100
AcDbSpline
 62
7
  6
CONTINUOUS
 70
0
 71
3
 72
12
 73
8
 74
0
 42
0.0000001
 43
0.0000001
 44
0.0000000001
 40
0.0
 40
0.0
 40
0.0
 40
0.0
 40
0.2483346086
 40
0.3732429827
 40
0.4982875803
 40
0.748789602
 40
1.0
 40
1.0
 40
1.0
 40
1.0
 10
5.278589009
 20
5.5702453665
 30
0.0
 10
5.2778979421
 20
5.5720600844
 30
0.0
 10
5.2766632095
 20
5.5747275849
 30
0.0
 10
5.2744608793
 20
5.5779540947
 30
0.0
 10
5.2718171966
 20
5.5808548309
 30
0.0
 10
5.2675672984
 20
5.5835574316
 30
0.0
 10
5.2635882096
 20
5.5841809023
 30
0.0
 10
5.2616238903
 20
5.5841888563
 30
0.0
  0
SPLINE
  5
460
100
AcDbEntity
  8
ALL_ASSEMBLY_MEMBERS
100
AcDbSpline
 62
7
  6
CONTINUOUS
 70
0
 71
3
 72
12
 73
8
 74
0
 42
0.0000001
 43
0.0000001
 44
0.0000000001
 40
0.0
 40
0.0
 40
0.0
 40
0.0
 40
0.2497638696
 40
0.4996086998
 40
0.7495931011
 40
0.8747386891
 40
1.0
 40
1.0
 40
1.0
 40
1.0
 10
5.2838801185
 20
5.5320790267
 30
0.0
 10
5.2838801185
 20
5.535302729
 30
0.0
 10
5.2837414441
 20
5.5417528513
 30
0.0
 10
5.2829855069
 20
5.5514039103
 30
0.0
 10
5.2817288441
 20
5.5593866527
 30
0.0
 10
5.2801727009
 20
5.565658911
 30
0.0
 10
5.2791643788
 20
5.5687344651
 30
0.0
 10
5.278589009
 20
5.5702453665
 30
0.0
  0
SPLINE
  5
461
100
AcDbEntity
  8
ALL_ASSEMBLY_MEMBERS
100
AcDbSpline
 62
7
  6
CONTINUOUS
 70
0
 71
3
 72
13
 73
9
 74
0
 42
0.0000001
 43
0.0000001
 44
0.0000000001
 40
0.0
 40
0.0
 40
0.0
 40
0.0
 40
0.1251006433
 40
0.2501358854
 40
0.3751287119
 40
0.5001108948
 40
0.7500369252
 40
1.0
 40
1.0
 40
1.0
 40
1.0
 10
4.5329061713
 20
4.572979006
 30
0.0
 10
4.5344714776
 20
4.573199644
 30
0.0
 10
4.5375757402
 20
4.5738291087
 30
0.0
 10
4.5421283798
 20
4.5751612266
 30
0.0
 10
4.5465865533
 20
4.5767747112
 30
0.0
 10
4.5524170413
 20
4.5792097723
 30
0.0
 10
4.5595227167
 20
4.5826665785
 30
0.0
 10
4.5650540506
 20
4.5857209013
 30
0.0
 10
4.5677894348
 20
4.5873001761
 30
0.0
  0
SPLINE
  5
462
100
AcDbEntity
  8
ALL_ASSEMBLY_MEMBERS
100
AcDbSpline
 62
7
  6
CONTINUOUS
 70
0
 71
3
 72
11
 73
7
 74
0
 42
0.0000001
 43
0.0000001
 44
0.0000000001
 40
0.0
 40
0.0
 40
0.0
 40
0.0
 40
0.2518453978
 40
0.5024215464
 40
0.751657804
 40
1.0
 40
1.0
 40
1.0
 40
1.0
 10
4.5136965595
 20
4.5812840217
 30
0.0
 10
4.5146276912
 20
4.5796560662
 30
0.0
 10
4.5169220443
 20
4.576608921
 30
0.0
 10
4.5217896814
 20
4.5735732806
 30
0.0
 10
4.5273504925
 20
4.5724962239
 30
0.0
 10
4.5310749291
 20
4.5727208829
 30
0.0
 10
4.5329061713
 20
4.572979006
 30
0.0
  0
SPLINE
  5
463
100
AcDbEntity
  8
ALL_ASSEMBLY_MEMBERS
100
AcDbSpline
 62
7
  6
CONTINUOUS
 70
0
 71
3
 72
12
 73
8
 74
0
 42
0.0000001
 43
0.0000001
 44
0.0000000001
 40
0.0
 40
0.0
 40
0.0
 40
0.0
 40
0.2483346086
 40
0.3732429827
 40
0.4982875803
 40
0.748789602
 40
1.0
 40
1.0
 40
1.0
 40
1.0
 10
4.5172894166
 20
4.6029479904
 30
0.0
 10
4.5160633582
 20
4.60144215
 30
0.0
 10
4.5143706014
 20
4.5990390899
 30
0.0
 10
4.512677527
 20
4.5955185611
 30
0.0
 10
4.5114872571
 20
4.5917786966
 30
0.0
 10
4.5112716853
 20
4.5867468764
 30
0.0
 10
4.5127212883
 20
4.5829891492
 30
0.0
 10
4.5136965595
 20
4.5812840217
 30
0.0
  0
SPLINE
  5
464
100
AcDbEntity
  8
ALL_ASSEMBLY_MEMBERS
100
AcDbSpline
 62
7
  6
CONTINUOUS
 70
0
 71
3
 72
12
 73
8
 74
0
 42
0.0000001
 43
0.0000001
 44
0.0000000001
 40
0.0
 40
0.0
 40
0.0
 40
0.0
 40
0.2497638696
 40
0.4996086998
 40
0.7495931011
 40
0.8747386891
 40
1.0
 40
1.0
 40
1.0
 40
1.0
 10
4.5476968817
 20
4.6266133956
 30
0.0
 10
4.5449050736
 20
4.6250015444
 30
0.0
 10
4.5393884411
 20
4.6216563877
 30
0.0
 10
4.5314083473
 20
4.6161761974
 30
0.0
 10
4.5251234211
 20
4.6110965243
 30
0.0
 10
4.5204695576
 20
4.6066127355
 30
0.0
 10
4.5183102107
 20
4.6042017259
 30
0.0
 10
4.5172894166
 20
4.6029479904
 30
0.0
  0
LINE
  5
465
100
AcDbEntity
  8
ALL_ASSEMBLY_MEMBERS
100
AcDbLine
 62
7
  6
CONTINUOUS
 10
5.0753378486
 20
5.5729813312
 11
5.0679527137
 21
5.5703704343
  0
SPLINE
  5
466
100
AcDbEntity
  8
ALL_ASSEMBLY_MEMBERS
100
AcDbSpline
 62
7
  6
CONTINUOUS
 70
0
 71
3
 72
9
 73
5
 74
0
 42
0.0000001
 43
0.0000001
 44
0.0000000001
 40
0.0
 40
0.0
 40
0.0
 40
0.0
 40
0.5000595349
 40
1.0
 40
1.0
 40
1.0
 40
1.0
 10
5.0802146352
 20
5.573981464
 30
0.0
 10
5.0793814636
 20
5.5739775439
 30
0.0
 10
5.0777142099
 20
5.5737723195
 30
0.0
 10
5.076114292
 20
5.5732829854
 30
0.0
 10
5.0753378486
 20
5.5729813312
 30
0.0
  0
SPLINE
  5
467
100
AcDbEntity
  8
ALL_ASSEMBLY_MEMBERS
100
AcDbSpline
 62
7
  6
CONTINUOUS
 70
0
 71
3
 72
16
 73
12
 74
0
 42
0.0000001
 43
0.0000001
 44
0.0000000001
 40
0.0
 40
0.0
 40
0.0
 40
0.0
 40
0.2478014303
 40
0.3718211115
 40
0.4963270546
 40
0.6208857109
 40
0.6838364481
 40
0.7469478016
 40
0.8100303555
 40
0.8732854234
 40
1.0
 40
1.0
 40
1.0
 40
1.0
 10
5.0851697942
 20
5.5666578611
 30
0.0
 10
5.0851697942
 20
5.567485406
 30
0.0
 10
5.0851011656
 20
5.5687322005
 30
0.0
 10
5.0847584377
 20
5.5703575739
 30
0.0
 10
5.0843312656
 20
5.5715338422
 30
0.0
 10
5.083766894
 20
5.5724259148
 30
0.0
 10
5.0831685485
 20
5.5730155926
 30
0.0
 10
5.0826557065
 20
5.5733885878
 30
0.0
 10
5.0820877278
 20
5.5736743804
 30
0.0
 10
5.0812771381
 20
5.573923536
 30
0.0
 10
5.0806377999
 20
5.5739834551
 30
0.0
 10
5.0802146352
 20
5.573981464
 30
0.0
  0
LINE
  5
468
100
AcDbEntity
  8
ALL_ASSEMBLY_MEMBERS
100
AcDbLine
 62
7
  6
CONTINUOUS
 10
5.0686245989
 20
5.4741944718
 11
5.0981738636
 21
5.4743505952
  0
LINE
  5
469
100
AcDbEntity
  8
ALL_ASSEMBLY_MEMBERS
100
AcDbLine
 62
7
  6
CONTINUOUS
 10
4.7916779223
 20
5.3680136235
 11
4.8016608662
 21
5.3755363113
  0
LINE
  5
46A
100
AcDbEntity
  8
ALL_ASSEMBLY_MEMBERS
100
AcDbLine
 62
7
  6
CONTINUOUS
 10
4.4741135071
 20
4.9881898149
 11
4.4743144854
 21
4.9803593227
  0
SPLINE
  5
46B
100
AcDbEntity
  8
ALL_ASSEMBLY_MEMBERS
100
AcDbSpline
 62
7
  6
CONTINUOUS
 70
0
 71
3
 72
9
 73
5
 74
0
 42
0.0000001
 43
0.0000001
 44
0.0000000001
 40
0.0
 40
0.0
 40
0.0
 40
0.0
 40
0.5000595349
 40
1.0
 40
1.0
 40
1.0
 40
1.0
 10
4.4746693342
 20
4.9931369725
 30
0.0
 10
4.4744155983
 20
4.9923433679
 30
0.0
 10
4.4740955686
 20
4.9906942976
 30
0.0
 10
4.4740665511
 20
4.9890214727
 30
0.0
 10
4.4741135071
 20
4.9881898149
 30
0.0
  0
SPLINE
  5
46C
100
AcDbEntity
  8
ALL_ASSEMBLY_MEMBERS
100
AcDbSpline
 62
7
  6
CONTINUOUS
 70
0
 71
3
 72
16
 73
12
 74
0
 42
0.0000001
 43
0.0000001
 44
0.0000000001
 40
0.0
 40
0.0
 40
0.0
 40
0.0
 40
0.2478014303
 40
0.3718211115
 40
0.4963270546
 40
0.6208857109
 40
0.6838364481
 40
0.7469478016
 40
0.8100303555
 40
0.8732854234
 40
1.0
 40
1.0
 40
1.0
 40
1.0
 10
4.4831657228
 20
4.995586491
 30
0.0
 10
4.4823786809
 20
4.9958422165
 30
0.0
 10
4.4811717014
 20
4.9961622275
 30
0.0
 10
4.4795199708
 20
4.9963385419
 30
0.0
 10
4.4782692697
 20
4.996295764
 30
0.0
 10
4.4772464577
 20
4.9960346803
 30
0.0
 10
4.4765007419
 20
4.9956478404
 30
0.0
 10
4.4759875256
 20
4.9952753605
 30
0.0
 10
4.4755402055
 20
4.9948234955
 30
0.0
 10
4.4750527585
 20
4.9941295721
 30
0.0
 10
4.4747982057
 20
4.9935400414
 30
0.0
 10
4.4746693342
 20
4.9931369725
 30
0.0
  0
LINE
  5
46D
100
AcDbEntity
  8
ALL_ASSEMBLY_MEMBERS
100
AcDbLine
 62
7
  6
CONTINUOUS
 10
4.500351115
 20
5.0697388817
 11
4.5005220242
 21
5.0619179931
  0
SPLINE
  5
46E
100
AcDbEntity
  8
ALL_ASSEMBLY_MEMBERS
100
AcDbSpline
 62
7
  6
CONTINUOUS
 70
0
 71
3
 72
9
 73
5
 74
0
 42
0.0000001
 43
0.0000001
 44
0.0000000001
 40
0.0
 40
0.0
 40
0.0
 40
0.0
 40
0.5002368415
 40
1.0
 40
1.0
 40
1.0
 40
1.0
 10
4.5009265394
 20
5.0746796077
 30
0.0
 10
4.5006696316
 20
5.0738874372
 30
0.0
 10
4.5003429103
 20
5.0722410827
 30
0.0
 10
4.5003073117
 20
5.0705697273
 30
0.0
 10
4.500351115
 20
5.0697388817
 30
0.0
  0
SPLINE
  5
46F
100
AcDbEntity
  8
ALL_ASSEMBLY_MEMBERS
100
AcDbSpline
 62
7
  6
CONTINUOUS
 70
0
 71
3
 72
16
 73
12
 74
0
 42
0.0000001
 43
0.0000001
 44
0.0000000001
 40
0.0
 40
0.0
 40
0.0
 40
0.0
 40
0.2475551804
 40
0.371524824
 40
0.4960487305
 40
0.6207034792
 40
0.6837214771
 40
0.7468990419
 40
0.8100340755
 40
0.8733167736
 40
1.0
 40
1.0
 40
1.0
 40
1.0
 10
4.5094404503
 20
5.0771233379
 30
0.0
 10
4.508653493
 20
5.0773790359
 30
0.0
 10
4.507446396
 20
5.0776990088
 30
0.0
 10
4.5057941604
 20
5.0778755752
 30
0.0
 10
4.5045421418
 20
5.0778332613
 30
0.0
 10
4.503517645
 20
5.0775729379
 30
0.0
 10
4.5027697992
 20
5.0771869791
 30
0.0
 10
4.5022546241
 20
5.0768152164
 30
0.0
 10
4.5018050653
 20
5.0763641163
 30
0.0
 10
4.5013144391
 20
5.0756713356
 30
0.0
 10
4.501057167
 20
5.0750823955
 30
0.0
 10
4.5009265394
 20
5.0746796077
 30
0.0
  0
SPLINE
  5
470
100
AcDbEntity
  8
ALL_ASSEMBLY_MEMBERS
100
AcDbSpline
 62
7
  6
CONTINUOUS
 70
0
 71
3
 72
14
 73
10
 74
0
 42
0.0000001
 43
0.0000001
 44
0.0000000001
 40
0.0
 40
0.0
 40
0.0
 40
0.0
 40
0.1246124479
 40
0.2494705311
 40
0.3744644644
 40
0.4995247488
 40
0.6246251302
 40
0.7497475683
 40
1.0
 40
1.0
 40
1.0
 40
1.0
 10
4.5740108747
 20
5.1607673388
 30
0.0
 10
4.5724237155
 20
5.1598768479
 30
0.0
 10
4.5694470842
 20
5.1577309916
 30
0.0
 10
4.5655264147
 20
5.1539033657
 30
0.0
 10
4.5620112581
 20
5.1496958967
 30
0.0
 10
4.5588151802
 20
5.145241518
 30
0.0
 10
4.555871137
 20
5.1406158445
 30
0.0
 10
4.5522194286
 20
5.1342824061
 30
0.0
 10
4.5497330913
 20
5.1293915995
 30
0.0
 10
4.5481566072
 20
5.1260942735
 30
0.0
  0
SPLINE
  5
471
100
AcDbEntity
  8
ALL_ASSEMBLY_MEMBERS
100
AcDbSpline
 62
7
  6
CONTINUOUS
 70
0
 71
3
 72
13
 73
9
 74
0
 42
0.0000001
 43
0.0000001
 44
0.0000000001
 40
0.0
 40
0.0
 40
0.0
 40
0.0
 40
0.2486883763
 40
0.3734630915
 40
0.4984320022
 40
0.6236205877
 40
0.7490168701
 40
1.0
 40
1.0
 40
1.0
 40
1.0
 10
4.5997472315
 20
5.1634641708
 30
0.0
 10
4.5976462963
 20
5.164146806
 30
0.0
 10
4.5943818568
 20
5.1648834805
 30
0.0
 10
4.5899555552
 20
5.1651555711
 30
0.0
 10
4.5866223214
 20
5.1649833675
 30
0.0
 10
4.5833226612
 20
5.1644470256
 30
0.0
 10
4.5790239265
 20
5.1632500801
 30
0.0
 10
4.5759551937
 20
5.1618582177
 30
0.0
 10
4.5740108747
 20
5.1607673388
 30
0.0
  0
SPLINE
  5
472
100
AcDbEntity
  8
ALL_ASSEMBLY_MEMBERS
100
AcDbSpline
 62
7
  6
CONTINUOUS
 70
0
 71
3
 72
13
 73
9
 74
0
 42
0.0000001
 43
0.0000001
 44
0.0000000001
 40
0.0
 40
0.0
 40
0.0
 40
0.0
 40
0.2514413685
 40
0.5018493417
 40
0.6268607309
 40
0.7515128639
 40
0.8758877299
 40
1.0
 40
1.0
 40
1.0
 40
1.0
 10
4.6148445821
 20
5.1059240301
 30
0.0
 10
4.6142320515
 20
5.1052753058
 30
0.0
 10
4.6129201503
 20
5.1040595181
 30
0.0
 10
4.6109843338
 20
5.1029064908
 30
0.0
 10
4.6092814471
 20
5.1023781177
 30
0.0
 10
4.6079558006
 20
5.1022200007
 30
0.0
 10
4.6066275785
 20
5.1023076386
 30
0.0
 10
4.6057668423
 20
5.1025186356
 30
0.0
 10
4.6053479996
 20
5.1026547258
 30
0.0
  0
SPLINE
  5
473
100
AcDbEntity
  8
ALL_ASSEMBLY_MEMBERS
100
AcDbSpline
 62
7
  6
CONTINUOUS
 70
0
 71
3
 72
11
 73
7
 74
0
 42
0.0000001
 43
0.0000001
 44
0.0000000001
 40
0.0
 40
0.0
 40
0.0
 40
0.0
 40
0.2501100261
 40
0.500232469
 40
0.7502548419
 40
1.0
 40
1.0
 40
1.0
 40
1.0
 10
4.6226831619
 20
5.120512074
 30
0.0
 10
4.6222481907
 20
5.1191912416
 30
0.0
 10
4.6213021588
 20
5.1165734903
 30
0.0
 10
4.6195932134
 20
5.1127624373
 30
0.0
 10
4.6175118753
 20
5.109140437
 30
0.0
 10
4.6157978889
 20
5.1069336667
 30
0.0
 10
4.6148445821
 20
5.1059240301
 30
0.0
  0
SPLINE
  5
474
100
AcDbEntity
  8
ALL_ASSEMBLY_MEMBERS
100
AcDbSpline
 62
7
  6
CONTINUOUS
 70
0
 71
3
 72
13
 73
9
 74
0
 42
0.0000001
 43
0.0000001
 44
0.0000000001
 40
0.0
 40
0.0
 40
0.0
 40
0.0
 40
0.2486566223
 40
0.3735473334
 40
0.4986083741
 40
0.6238797943
 40
0.7492772366
 40
1.0
 40
1.0
 40
1.0
 40
1.0
 10
4.6212871125
 20
5.1565537538
 30
0.0
 10
4.6225663253
 20
5.1537720919
 30
0.0
 10
4.6240954926
 20
5.149392707
 30
0.0
 10
4.6252163136
 20
5.1433482392
 30
0.0
 10
4.6255812521
 20
5.1387340384
 30
0.0
 10
4.6254918106
 20
5.1341011636
 30
0.0
 10
4.6247849051
 20
5.1279609884
 30
0.0
 10
4.6236487943
 20
5.1234443105
 30
0.0
 10
4.6226831619
 20
5.120512074
 30
0.0
  0
SPLINE
  5
475
100
AcDbEntity
  8
ALL_ASSEMBLY_MEMBERS
100
AcDbSpline
 62
7
  6
CONTINUOUS
 70
0
 71
3
 72
14
 73
10
 74
0
 42
0.0000001
 43
0.0000001
 44
0.0000000001
 40
0.0
 40
0.0
 40
0.0
 40
0.0
 40
0.124708023
 40
0.2495716995
 40
0.3744168055
 40
0.4993373077
 40
0.6243791571
 40
0.7495431333
 40
1.0
 40
1.0
 40
1.0
 40
1.0
 10
4.5962282747
 20
5.1790900458
 30
0.0
 10
4.5976011845
 20
5.1786439604
 30
0.0
 10
4.6003099061
 20
5.1776253684
 30
0.0
 10
4.6042047117
 20
5.1757075174
 30
0.0
 10
4.6078740432
 20
5.1733789169
 30
0.0
 10
4.6112553408
 20
5.1706460154
 30
0.0
 10
4.6143178002
 20
5.1675543777
 30
0.0
 10
4.6179193519
 20
5.1630021186
 30
0.0
 10
4.6200758065
 20
5.1591877517
 30
0.0
 10
4.6212871125
 20
5.1565537538
 30
0.0
  0
LINE
  5
476
100
AcDbEntity
  8
ALL_ASSEMBLY_MEMBERS
100
AcDbLine
 62
7
  6
CONTINUOUS
 10
4.5386649258
 20
5.1456035645
 11
4.5280999908
 21
5.1562775609
  0
LINE
  5
477
100
AcDbEntity
  8
ALL_ASSEMBLY_MEMBERS
100
AcDbLine
 62
7
  6
CONTINUOUS
 10
4.5280999908
 20
5.1562775609
 11
4.5397839522
 21
5.1916898933
  0
LINE
  5
478
100
AcDbEntity
  8
ALL_ASSEMBLY_MEMBERS
100
AcDbLine
 62
7
  6
CONTINUOUS
 10
4.5397839522
 20
5.1916898933
 11
4.527948336
 21
5.2034832468
  0
LINE
  5
479
100
AcDbEntity
  8
ALL_ASSEMBLY_MEMBERS
100
AcDbLine
 62
7
  6
CONTINUOUS
 10
4.6179586505
 20
4.4243937509
 11
4.6224992523
 21
4.4204690738
  0
SPLINE
  5
47A
100
AcDbEntity
  8
ALL_ASSEMBLY_MEMBERS
100
AcDbSpline
 62
7
  6
CONTINUOUS
 70
0
 71
3
 72
9
 73
5
 74
0
 42
0.0000001
 43
0.0000001
 44
0.0000000001
 40
0.0
 40
0.0
 40
0.0
 40
0.0
 40
0.5000595349
 40
1.0
 40
1.0
 40
1.0
 40
1.0
 10
4.6132410482
 20
4.4292826944
 30
0.0
 10
4.6136610289
 20
4.4285631068
 30
0.0
 10
4.6146723853
 20
4.4272218349
 30
0.0
 10
4.6158961199
 20
4.4260809324
 30
0.0
 10
4.6165455818
 20
4.4255593398
 30
0.0
  0
SPLINE
  5
47B
100
AcDbEntity
  8
ALL_ASSEMBLY_MEMBERS
100
AcDbSpline
 62
7
  6
CONTINUOUS
 70
0
 71
3
 72
16
 73
12
 74
0
 42
0.0000001
 43
0.0000001
 44
0.0000000001
 40
0.0
 40
0.0
 40
0.0
 40
0.0
 40
0.2478014303
 40
0.3718211115
 40
0.4963270546
 40
0.6208857109
 40
0.6838364481
 40
0.7469478016
 40
0.8100303555
 40
0.8732854234
 40
1.0
 40
1.0
 40
1.0
 40
1.0
 10
4.6171058948
 20
4.4372357895
 30
0.0
 10
4.6163892199
 20
4.436822017
 30
0.0
 10
4.6153437785
 20
4.4361391857
 30
0.0
 10
4.6141075278
 20
4.4350296879
 30
0.0
 10
4.6133024356
 20
4.4340716119
 30
0.0
 10
4.6128120639
 20
4.4331368154
 30
0.0
 10
4.6126005607
 20
4.4323237941
 30
0.0
 10
4.6125339584
 20
4.4316931623
 30
0.0
 10
4.612570444
 20
4.4310583821
 30
0.0
 10
4.6127599638
 20
4.430231813
 30
0.0
 10
4.6130277415
 20
4.4296481704
 30
0.0
 10
4.6132410482
 20
4.4292826944
 30
0.0
  0
SPLINE
  5
47C
100
AcDbEntity
  8
ALL_ASSEMBLY_MEMBERS
100
AcDbSpline
 62
7
  6
CONTINUOUS
 70
0
 71
3
 72
12
 73
8
 74
0
 42
0.0000001
 43
0.0000001
 44
0.0000000001
 40
0.0
 40
0.0
 40
0.0
 40
0.0
 40
0.1248400314
 40
0.2497523606
 40
0.4996992809
 40
0.7497916306
 40
1.0
 40
1.0
 40
1.0
 40
1.0
 10
4.5985857235
 20
4.5496010906
 30
0.0
 10
4.6006749322
 20
4.5492553702
 30
0.0
 10
4.6048415592
 20
4.5484847927
 30
0.0
 10
4.6131379449
 20
4.5467462171
 30
0.0
 10
4.6234617177
 20
4.5443331265
 30
0.0
 10
4.6358020648
 20
4.5412220906
 30
0.0
 10
4.6440070336
 20
4.5390539213
 30
0.0
 10
4.6481060422
 20
4.5379532937
 30
0.0
  0
SPLINE
  5
47D
100
AcDbEntity
  8
ALL_ASSEMBLY_MEMBERS
100
AcDbSpline
 62
7
  6
CONTINUOUS
 70
0
 71
3
 72
13
 73
9
 74
0
 42
0.0000001
 43
0.0000001
 44
0.0000000001
 40
0.0
 40
0.0
 40
0.0
 40
0.0
 40
0.1246716759
 40
0.2494019412
 40
0.3742207294
 40
0.4991692067
 40
0.7493107248
 40
1.0
 40
1.0
 40
1.0
 40
1.0
 10
4.5625232649
 20
4.5457593273
 30
0.0
 10
4.5638533609
 20
4.5465272585
 30
0.0
 10
4.566629904
 20
4.5478704061
 30
0.0
 10
4.5710174466
 20
4.5493201813
 30
0.0
 10
4.5755421352
 20
4.5502643879
 30
0.0
 10
4.5816708955
 20
4.5509402821
 30
0.0
 10
4.5894062114
 20
4.5508625643
 30
0.0
 10
4.5955388525
 20
4.5501052841
 30
0.0
 10
4.5985857235
 20
4.5496010906
 30
0.0
  0
LINE
  5
47E
100
AcDbEntity
  8
ALL_ASSEMBLY_MEMBERS
100
AcDbLine
 62
7
  6
CONTINUOUS
 10
4.598578328
 20
4.4876352887
 11
4.5981923441
 21
4.4910976203
  0
SPLINE
  5
47F
100
AcDbEntity
  8
ALL_ASSEMBLY_MEMBERS
100
AcDbSpline
 62
7
  6
CONTINUOUS
 70
0
 71
3
 72
11
 73
7
 74
0
 42
0.0000001
 43
0.0000001
 44
0.0000000001
 40
0.0
 40
0.0
 40
0.0
 40
0.0
 40
0.2507553423
 40
0.500851086
 40
0.7505585609
 40
1.0
 40
1.0
 40
1.0
 40
1.0
 10
4.5780450648
 20
4.4924658257
 30
0.0
 10
4.5796262974
 20
4.4918315001
 30
0.0
 10
4.5829445149
 20
4.4909535328
 30
0.0
 10
4.5880342822
 20
4.4904802069
 30
0.0
 10
4.5931315623
 20
4.4905688524
 30
0.0
 10
4.5965103135
 20
4.4908900155
 30
0.0
 10
4.5981923441
 20
4.4910976203
 30
0.0
  0
SPLINE
  5
480
100
AcDbEntity
  8
ALL_ASSEMBLY_MEMBERS
100
AcDbSpline
 62
7
  6
CONTINUOUS
 70
0
 71
3
 72
11
 73
7
 74
0
 42
0.0000001
 43
0.0000001
 44
0.0000000001
 40
0.0
 40
0.0
 40
0.0
 40
0.0
 40
0.2503466151
 40
0.5006486511
 40
0.7506648106
 40
1.0
 40
1.0
 40
1.0
 40
1.0
 10
4.5661731249
 20
4.5032562247
 30
0.0
 10
4.5668551513
 20
4.5020761631
 30
0.0
 10
4.5683667533
 20
4.4997965755
 30
0.0
 10
4.5711168703
 20
4.4967495209
 30
0.0
 10
4.5743512491
 20
4.4942246467
 30
0.0
 10
4.5767851896
 20
4.4929712359
 30
0.0
 10
4.5780450648
 20
4.4924658257
 30
0.0
  0
SPLINE
  5
481
100
AcDbEntity
  8
ALL_ASSEMBLY_MEMBERS
100
AcDbSpline
 62
7
  6
CONTINUOUS
 70
0
 71
3
 72
14
 73
10
 74
0
 42
0.0000001
 43
0.0000001
 44
0.0000000001
 40
0.0
 40
0.0
 40
0.0
 40
0.0
 40
0.1241184878
 40
0.2487766947
 40
0.373600516
 40
0.4986846691
 40
0.6240359559
 40
0.7494409856
 40
1.0
 40
1.0
 40
1.0
 40
1.0
 10
4.5647900242
 20
4.5208608807
 30
0.0
 10
4.5644815822
 20
4.5201663375
 30
0.0
 10
4.5639426577
 20
4.5187373374
 30
0.0
 10
4.5633964017
 20
4.5165100684
 30
0.0
 10
4.5631475609
 20
4.5142228851
 30
0.0
 10
4.563213436
 20
4.5119195802
 30
0.0
 10
4.5635694465
 20
4.509639838
 30
0.0
 10
4.5644131451
 20
4.5066824078
 30
0.0
 10
4.5654054587
 20
4.5045844625
 30
0.0
 10
4.5661731249
 20
4.5032562247
 30
0.0
  0
SPLINE
  5
482
100
AcDbEntity
  8
ALL_ASSEMBLY_MEMBERS
100
AcDbSpline
 62
7
  6
CONTINUOUS
 70
0
 71
3
 72
9
 73
5
 74
0
 42
0.0000001
 43
0.0000001
 44
0.0000000001
 40
0.0
 40
0.0
 40
0.0
 40
0.0
 40
0.4991362407
 40
1.0
 40
1.0
 40
1.0
 40
1.0
 10
4.5761067625
 20
4.5339151267
 30
0.0
 10
4.5735850136
 20
4.5324591943
 30
0.0
 10
4.5690105213
 20
4.5286199627
 30
0.0
 10
4.5659759545
 20
4.5235313336
 30
0.0
 10
4.5647900242
 20
4.5208608807
 30
0.0
  0
LINE
  5
483
100
AcDbEntity
  8
ALL_ASSEMBLY_MEMBERS
100
AcDbLine
 62
7
  6
CONTINUOUS
 10
4.6368625938
 20
4.587321453
 11
4.6111263541
 21
4.5839060694
  0
SPLINE
  5
484
100
AcDbEntity
  8
ALL_ASSEMBLY_MEMBERS
100
AcDbSpline
 62
7
  6
CONTINUOUS
 70
0
 71
3
 72
11
 73
7
 74
0
 42
0.0000001
 43
0.0000001
 44
0.0000000001
 40
0.0
 40
0.0
 40
0.0
 40
0.0
 40
0.2506734877
 40
0.5007216556
 40
0.7504291522
 40
1.0
 40
1.0
 40
1.0
 40
1.0
 10
4.6101564555
 20
4.6048511986
 30
0.0
 10
4.6085644195
 20
4.6015582142
 30
0.0
 10
4.6047025025
 20
4.595291188
 30
0.0
 10
4.5973335124
 20
4.587128747
 30
0.0
 10
4.5888602349
 20
4.5801686602
 30
0.0
 10
4.5827138519
 20
4.5762301674
 30
0.0
 10
4.5795601767
 20
4.5744093922
 30
0.0
  0
SPLINE
  5
485
100
AcDbEntity
  8
ALL_ASSEMBLY_MEMBERS
100
AcDbSpline
 62
7
  6
CONTINUOUS
 70
0
 71
3
 72
14
 73
10
 74
0
 42
0.0000001
 43
0.0000001
 44
0.0000000001
 40
0.0
 40
0.0
 40
0.0
 40
0.0
 40
0.1255198928
 40
0.2511163668
 40
0.3765841673
 40
0.5018211517
 40
0.6268312497
 40
0.7515365691
 40
1.0
 40
1.0
 40
1.0
 40
1.0
 10
4.6104554441
 20
4.6370508039
 30
0.0
 10
4.6111522918
 20
4.6358303975
 30
0.0
 10
4.6123976521
 20
4.6332993384
 30
0.0
 10
4.6137289901
 20
4.6292842956
 30
0.0
 10
4.6144657327
 20
4.6251205251
 30
0.0
 10
4.6145930665
 20
4.6209021178
 30
0.0
 10
4.6141568419
 20
4.6167150554
 30
0.0
 10
4.6129165115
 20
4.6112668552
 30
0.0
 10
4.6113672885
 20
4.6073556984
 30
0.0
 10
4.6101564555
 20
4.6048511986
 30
0.0
  0
SPLINE
  5
486
100
AcDbEntity
  8
ALL_ASSEMBLY_MEMBERS
100
AcDbSpline
 62
7
  6
CONTINUOUS
 70
0
 71
3
 72
14
 73
10
 74
0
 42
0.0000001
 43
0.0000001
 44
0.0000000001
 40
0.0
 40
0.0
 40
0.0
 40
0.0
 40
0.2479775344
 40
0.3725423397
 40
0.4974624442
 40
0.6227237047
 40
0.74829736
 40
0.874120443
 40
1.0
 40
1.0
 40
1.0
 40
1.0
 10
4.580526266
 20
4.6537341018
 30
0.0
 10
4.5835107766
 20
4.6537688025
 30
0.0
 10
4.5880289441
 20
4.653401358
 30
0.0
 10
4.593809303
 20
4.6517770422
 30
0.0
 10
4.5979418446
 20
4.6499252302
 30
0.0
 10
4.6017513613
 20
4.6474534764
 30
0.0
 10
4.6051372447
 20
4.6444126817
 30
0.0
 10
4.6080611747
 20
4.6409211956
 30
0.0
 10
4.6097041657
 20
4.6383665362
 30
0.0
 10
4.6104554441
 20
4.6370508039
 30
0.0
  0
SPLINE
  5
487
100
AcDbEntity
  8
ALL_ASSEMBLY_MEMBERS
100
AcDbSpline
 62
7
  6
CONTINUOUS
 70
0
 71
3
 72
11
 73
7
 74
0
 42
0.0000001
 43
0.0000001
 44
0.0000000001
 40
0.0
 40
0.0
 40
0.0
 40
0.0
 40
0.2499581139
 40
0.4998985114
 40
0.7498664665
 40
1.0
 40
1.0
 40
1.0
 40
1.0
 10
4.539116618
 20
4.6413461864
 30
0.0
 10
4.5422680459
 20
4.6431656642
 30
0.0
 10
4.5487440383
 20
4.646516924
 30
0.0
 10
4.5589564531
 20
4.6504471196
 30
0.0
 10
4.5696004267
 20
4.6530284152
 30
0.0
 10
4.5768850027
 20
4.653691765
 30
0.0
 10
4.580526266
 20
4.6537341018
 30
0.0
  0
SPLINE
  5
488
100
AcDbEntity
  8
ALL_ASSEMBLY_MEMBERS
100
AcDbSpline
 62
7
  6
CONTINUOUS
 70
0
 71
3
 72
11
 73
7
 74
0
 42
0.0000001
 43
0.0000001
 44
0.0000000001
 40
0.0
 40
0.0
 40
0.0
 40
0.0
 40
0.2042862227
 40
0.4372076767
 40
0.7017485586
 40
1.0
 40
1.0
 40
1.0
 40
1.0
 10
5.8033571145
 20
5.0476287072
 30
0.0
 10
5.8042947284
 20
5.0485946854
 30
0.0
 10
5.8061275319
 20
5.0508325187
 30
0.0
 10
5.8086060538
 20
5.0547454366
 30
0.0
 10
5.8109901119
 20
5.0594224037
 30
0.0
 10
5.8124310732
 20
5.0628427905
 30
0.0
 10
5.8131448468
 20
5.0646739972
 30
0.0
  0
LINE
  5
489
100
AcDbEntity
  8
ALL_ASSEMBLY_MEMBERS
100
AcDbLine
 62
7
  6
CONTINUOUS
 10
5.8131448468
 20
5.0646739972
 11
5.8159622019
 21
5.0727110643
  0
SPLINE
  5
48A
100
AcDbEntity
  8
ALL_ASSEMBLY_MEMBERS
100
AcDbSpline
 62
7
  6
CONTINUOUS
 70
0
 71
3
 72
10
 73
6
 74
0
 42
0.0000001
 43
0.0000001
 44
0.0000000001
 40
0.0
 40
0.0
 40
0.0
 40
0.0
 40
0.2364585468
 40
0.4795539597
 40
1.0
 40
1.0
 40
1.0
 40
1.0
 10
5.8637692165
 20
5.0704300955
 30
0.0
 10
5.8642328354
 20
5.0715001647
 30
0.0
 10
5.86502875
 20
5.0737361866
 30
0.0
 10
5.8660741699
 20
5.0785663275
 30
0.0
 10
5.8661773471
 20
5.0823723075
 30
0.0
 10
5.8660067006
 20
5.0849334086
 30
0.0
  0
SPLINE
  5
48B
100
AcDbEntity
  8
ALL_ASSEMBLY_MEMBERS
100
AcDbSpline
 62
7
  6
CONTINUOUS
 70
0
 71
3
 72
9
 73
5
 74
0
 42
0.0000001
 43
0.0000001
 44
0.0000000001
 40
0.0
 40
0.0
 40
0.0
 40
0.0
 40
0.2361620559
 40
1.0
 40
1.0
 40
1.0
 40
1.0
 10
5.8660067006
 20
5.0849334086
 30
0.0
 10
5.8659547267
 20
5.0857134446
 30
0.0
 10
5.8656405477
 20
5.0890100761
 30
0.0
 10
5.8649700159
 20
5.0922675829
 30
0.0
 10
5.8643155849
 20
5.0947099527
 30
0.0
  0
LINE
  5
48C
100
AcDbEntity
  8
ALL_ASSEMBLY_MEMBERS
100
AcDbLine
 62
7
  6
CONTINUOUS
 10
5.8643155849
 20
5.0947099527
 11
5.8632296644
 21
5.0982681646
  0
LINE
  5
48D
100
AcDbEntity
  8
ALL_ASSEMBLY_MEMBERS
100
AcDbLine
 62
7
  6
CONTINUOUS
 10
5.8632296644
 20
5.0982681646
 11
5.8619815916
 21
5.1014872936
  0
SPLINE
  5
48E
100
AcDbEntity
  8
ALL_ASSEMBLY_MEMBERS
100
AcDbSpline
 62
7
  6
CONTINUOUS
 70
0
 71
3
 72
9
 73
5
 74
0
 42
0.0000001
 43
0.0000001
 44
0.0000000001
 40
0.0
 40
0.0
 40
0.0
 40
0.0
 40
0.5123551953
 40
1.0
 40
1.0
 40
1.0
 40
1.0
 10
5.8605938182
 20
5.1043666363
 30
0.0
 10
5.8599287049
 20
5.1056107293
 30
0.0
 10
5.8584883519
 20
5.1079667197
 30
0.0
 10
5.8567464997
 20
5.1101122445
 30
0.0
 10
5.8558263
 20
5.1110900172
 30
0.0
  0
SPLINE
  5
48F
100
AcDbEntity
  8
ALL_ASSEMBLY_MEMBERS
100
AcDbSpline
 62
7
  6
CONTINUOUS
 70
0
 71
3
 72
9
 73
5
 74
0
 42
0.0000001
 43
0.0000001
 44
0.0000000001
 40
0.0
 40
0.0
 40
0.0
 40
0.0
 40
0.5032208674
 40
1.0
 40
1.0
 40
1.0
 40
1.0
 10
5.8558263
 20
5.1110900172
 30
0.0
 10
5.854984514
 20
5.1119844702
 30
0.0
 10
5.8531901391
 20
5.1136520565
 30
0.0
 10
5.8511776002
 20
5.1150494545
 30
0.0
 10
5.8501351966
 20
5.1156688633
 30
0.0
  0
SPLINE
  5
490
100
AcDbEntity
  8
ALL_ASSEMBLY_MEMBERS
100
AcDbSpline
 62
7
  6
CONTINUOUS
 70
0
 71
3
 72
11
 73
7
 74
0
 42
0.0000001
 43
0.0000001
 44
0.0000000001
 40
0.0
 40
0.0
 40
0.0
 40
0.0
 40
0.2907116205
 40
0.5531150185
 40
0.7888090345
 40
1.0
 40
1.0
 40
1.0
 40
1.0
 10
5.8026167361
 20
5.0927078147
 30
0.0
 10
5.8012355184
 20
5.0940552564
 30
0.0
 10
5.7985373527
 20
5.0965489204
 30
0.0
 10
5.7944514459
 20
5.0998310691
 30
0.0
 10
5.7905378059
 20
5.1024592462
 30
0.0
 10
5.7879060178
 20
5.1038459867
 30
0.0
 10
5.7866232673
 20
5.1044112693
 30
0.0
  0
SPLINE
  5
491
100
AcDbEntity
  8
ALL_ASSEMBLY_MEMBERS
100
AcDbSpline
 62
7
  6
CONTINUOUS
 70
0
 71
3
 72
9
 73
5
 74
0
 42
0.0000001
 43
0.0000001
 44
0.0000000001
 40
0.0
 40
0.0
 40
0.0
 40
0.0
 40
0.2498600558
 40
1.0
 40
1.0
 40
1.0
 40
1.0
 10
4.6011611044
 20
4.5402406752
 30
0.0
 10
4.6027911808
 20
4.5401734133
 30
0.0
 10
4.6093103533
 20
4.5397923687
 30
0.0
 10
4.6158023783
 20
4.5389894582
 30
0.0
 10
4.6206349507
 20
4.5381912757
 30
0.0
  0
LINE
  5
492
100
AcDbEntity
  8
ALL_ASSEMBLY_MEMBERS
100
AcDbLine
 62
7
  6
CONTINUOUS
 10
4.6206349507
 20
4.5381912757
 11
4.6370427285
 21
4.5349329026
  0
SPLINE
  5
493
100
AcDbEntity
  8
ALL_ASSEMBLY_MEMBERS
100
AcDbSpline
 62
7
  6
CONTINUOUS
 70
0
 71
3
 72
12
 73
8
 74
0
 42
0.0000001
 43
0.0000001
 44
0.0000000001
 40
0.0
 40
0.0
 40
0.0
 40
0.0
 40
0.2495620566
 40
0.4992996026
 40
0.6242392794
 40
0.7492478762
 40
1.0
 40
1.0
 40
1.0
 40
1.0
 10
4.6124216233
 20
4.5809687221
 30
0.0
 10
4.6132742009
 20
4.5808944115
 30
0.0
 10
4.6149779937
 20
4.580720595
 30
0.0
 10
4.6170967482
 20
4.580408018
 30
0.0
 10
4.6187795654
 20
4.5800827863
 30
0.0
 10
4.6204525796
 20
4.5796970046
 30
0.0
 10
4.6216859198
 20
4.5793052721
 30
0.0
 10
4.622480442
 20
4.5789764151
 30
0.0
  0
SPLINE
  5
494
100
AcDbEntity
  8
ALL_ASSEMBLY_MEMBERS
100
AcDbSpline
 62
7
  6
CONTINUOUS
 70
0
 71
3
 72
9
 73
5
 74
0
 42
0.0000001
 43
0.0000001
 44
0.0000000001
 40
0.0
 40
0.0
 40
0.0
 40
0.0
 40
0.2511838708
 40
1.0
 40
1.0
 40
1.0
 40
1.0
 10
4.622480442
 20
4.5789764151
 30
0.0
 10
4.6226943633
 20
4.5788878719
 30
0.0
 10
4.6235368973
 20
4.578516881
 30
0.0
 10
4.6243411778
 20
4.5780346584
 30
0.0
 10
4.624859832
 20
4.5775792756
 30
0.0
  0
SPLINE
  5
495
100
AcDbEntity
  8
ALL_ASSEMBLY_MEMBERS
100
AcDbSpline
 62
7
  6
CONTINUOUS
 70
0
 71
3
 72
11
 73
7
 74
0
 42
0.0000001
 43
0.0000001
 44
0.0000000001
 40
0.0
 40
0.0
 40
0.0
 40
0.0
 40
0.2498211863
 40
0.4998561516
 40
0.74990212
 40
1.0
 40
1.0
 40
1.0
 40
1.0
 10
4.624859832
 20
4.5775792756
 30
0.0
 10
4.6256544284
 20
4.5768816134
 30
0.0
 10
4.6270527846
 20
4.5752751355
 30
0.0
 10
4.6289073501
 20
4.5727008235
 30
0.0
 10
4.630621342
 20
4.5700256273
 30
0.0
 10
4.6317014269
 20
4.5682048541
 30
0.0
 10
4.6322307176
 20
4.5672880959
 30
0.0
  0
SPLINE
  5
496
100
AcDbEntity
  8
ALL_ASSEMBLY_MEMBERS
100
AcDbSpline
 62
7
  6
CONTINUOUS
 70
0
 71
3
 72
15
 73
11
 74
0
 42
0.0000001
 43
0.0000001
 44
0.0000000001
 40
0.0
 40
0.0
 40
0.0
 40
0.0
 40
0.1243249313
 40
0.187396717
 40
0.2503045081
 40
0.3753283125
 40
0.5001173894
 40
0.6249925463
 40
0.749972343
 40
1.0
 40
1.0
 40
1.0
 40
1.0
 10
4.6947200118
 20
4.4767125111
 30
0.0
 10
4.6951854912
 20
4.4765131834
 30
0.0
 10
4.6958327575
 20
4.4760849327
 30
0.0
 10
4.6965917565
 20
4.4754055138
 30
0.0
 10
4.6973135647
 20
4.4746804431
 30
0.0
 10
4.6981463908
 20
4.4737148124
 30
0.0
 10
4.6990612147
 20
4.472492532
 30
0.0
 10
4.6999285343
 20
4.4712368273
 30
0.0
 10
4.701035363
 20
4.469527705
 30
0.0
 10
4.7018174945
 20
4.4682151815
 30
0.0
 10
4.7023266625
 20
4.4673332767
 30
0.0
  0
LINE
  5
497
100
AcDbEntity
  8
ALL_ASSEMBLY_MEMBERS
100
AcDbLine
 62
7
  6
CONTINUOUS
 10
4.6784327121
 20
4.5087188127
 11
4.6805337965
 21
4.5045046321
  0
LINE
  5
498
100
AcDbEntity
  8
ALL_ASSEMBLY_MEMBERS
100
AcDbLine
 62
7
  6
CONTINUOUS
 10
4.6805337965
 20
4.5045046321
 11
4.6823380122
 21
4.4998668921
  0
SPLINE
  5
499
100
AcDbEntity
  8
ALL_ASSEMBLY_MEMBERS
100
AcDbSpline
 62
7
  6
CONTINUOUS
 70
0
 71
3
 72
11
 73
7
 74
0
 42
0.0000001
 43
0.0000001
 44
0.0000000001
 40
0.0
 40
0.0
 40
0.0
 40
0.0
 40
0.25043461
 40
0.5028104161
 40
0.7532968109
 40
1.0
 40
1.0
 40
1.0
 40
1.0
 10
4.6823380122
 20
4.4998668921
 30
0.0
 10
4.6824215311
 20
4.4995756693
 30
0.0
 10
4.6825741965
 20
4.4989866164
 30
0.0
 10
4.6827568044
 20
4.4980930407
 30
0.0
 10
4.682848852
 20
4.497188634
 30
0.0
 10
4.6828017357
 20
4.4965831504
 30
0.0
 10
4.6827408488
 20
4.496290979
 30
0.0
  0
SPLINE
  5
49A
100
AcDbEntity
  8
ALL_ASSEMBLY_MEMBERS
100
AcDbSpline
 62
7
  6
CONTINUOUS
 70
0
 71
3
 72
9
 73
5
 74
0
 42
0.0000001
 43
0.0000001
 44
0.0000000001
 40
0.0
 40
0.0
 40
0.0
 40
0.0
 40
0.7497442601
 40
1.0
 40
1.0
 40
1.0
 40
1.0
 10
5.2623797642
 20
5.477888287
 30
0.0
 10
5.2607921219
 20
5.477888287
 30
0.0
 10
5.258653725
 20
5.4781895361
 30
0.0
 10
5.2566593137
 20
5.4789082878
 30
0.0
 10
5.2561715079
 20
5.4791153576
 30
0.0
  0
SPLINE
  5
49B
100
AcDbEntity
  8
ALL_ASSEMBLY_MEMBERS
100
AcDbSpline
 62
7
  6
CONTINUOUS
 70
0
 71
3
 72
11
 73
7
 74
0
 42
0.0000001
 43
0.0000001
 44
0.0000000001
 40
0.0
 40
0.0
 40
0.0
 40
0.0
 40
0.2580772158
 40
0.5072024108
 40
0.7526736582
 40
1.0
 40
1.0
 40
1.0
 40
1.0
 10
5.2851691786
 20
5.5798228906
 30
0.0
 10
5.2840900136
 20
5.5809466795
 30
0.0
 10
5.2818237772
 20
5.5830226133
 30
0.0
 10
5.2780542401
 20
5.5855889528
 30
0.0
 10
5.2739989545
 20
5.5875300536
 30
0.0
 10
5.2711391277
 20
5.5883960893
 30
0.0
 10
5.2696826081
 20
5.5887247447
 30
0.0
  0
SPLINE
  5
49C
100
AcDbEntity
  8
ALL_ASSEMBLY_MEMBERS
100
AcDbSpline
 62
7
  6
CONTINUOUS
 70
0
 71
3
 72
9
 73
5
 74
0
 42
0.0000001
 43
0.0000001
 44
0.0000000001
 40
0.0
 40
0.0
 40
0.0
 40
0.0
 40
0.243921155
 40
1.0
 40
1.0
 40
1.0
 40
1.0
 10
5.2696826081
 20
5.5887247447
 30
0.0
 10
5.2690792543
 20
5.588860888
 30
0.0
 10
5.2665893537
 20
5.5893456063
 30
0.0
 10
5.2640450288
 20
5.589536385
 30
0.0
 10
5.2621278016
 20
5.589536385
 30
0.0
  0
LINE
  5
49D
100
AcDbEntity
  8
ALL_ASSEMBLY_MEMBERS
100
AcDbLine
 62
7
  6
CONTINUOUS
 10
5.2621278016
 20
5.589536385
 11
5.2579489636
 21
5.5893121165
  0
SPLINE
  5
49E
100
AcDbEntity
  8
ALL_ASSEMBLY_MEMBERS
100
AcDbSpline
 62
7
  6
CONTINUOUS
 70
0
 71
3
 72
9
 73
5
 74
0
 42
0.0000001
 43
0.0000001
 44
0.0000000001
 40
0.0
 40
0.0
 40
0.0
 40
0.0
 40
0.5076421991
 40
1.0
 40
1.0
 40
1.0
 40
1.0
 10
5.2579489636
 20
5.5893121165
 30
0.0
 10
5.2566407974
 20
5.5891677143
 30
0.0
 10
5.2540770739
 20
5.5887391279
 30
0.0
 10
5.2515842685
 20
5.587998692
 30
0.0
 10
5.2503867728
 20
5.587556629
 30
0.0
  0
SPLINE
  5
49F
100
AcDbEntity
  8
ALL_ASSEMBLY_MEMBERS
100
AcDbSpline
 62
7
  6
CONTINUOUS
 70
0
 71
3
 72
9
 73
5
 74
0
 42
0.0000001
 43
0.0000001
 44
0.0000000001
 40
0.0
 40
0.0
 40
0.0
 40
0.0
 40
0.4967264604
 40
1.0
 40
1.0
 40
1.0
 40
1.0
 10
5.2503867728
 20
5.587556629
 30
0.0
 10
5.2486785852
 20
5.5869260407
 30
0.0
 10
5.2453501559
 20
5.5853316382
 30
0.0
 10
5.2423846831
 20
5.5831374289
 30
0.0
 10
5.2410025327
 20
5.5819154701
 30
0.0
  0
SPLINE
  5
4A0
100
AcDbEntity
  8
ALL_ASSEMBLY_MEMBERS
100
AcDbSpline
 62
7
  6
CONTINUOUS
 70
0
 71
3
 72
9
 73
5
 74
0
 42
0.0000001
 43
0.0000001
 44
0.0000000001
 40
0.0
 40
0.0
 40
0.0
 40
0.0
 40
0.2418855964
 40
1.0
 40
1.0
 40
1.0
 40
1.0
 10
5.2410025327
 20
5.5819154701
 30
0.0
 10
5.2404865039
 20
5.5814592493
 30
0.0
 10
5.238414042
 20
5.5795045664
 30
0.0
 10
5.2365927645
 20
5.5772900887
 30
0.0
 10
5.2353530378
 20
5.5755227764
 30
0.0
  0
LINE
  5
4A1
100
AcDbEntity
  8
ALL_ASSEMBLY_MEMBERS
100
AcDbLine
 62
7
  6
CONTINUOUS
 10
5.0805505795
 20
5.4797037033
 11
5.0799842183
 21
5.4793419955
  0
SPLINE
  5
4A2
100
AcDbEntity
  8
ALL_ASSEMBLY_MEMBERS
100
AcDbSpline
 62
7
  6
CONTINUOUS
 70
0
 71
3
 72
13
 73
9
 74
0
 42
0.0000001
 43
0.0000001
 44
0.0000000001
 40
0.0
 40
0.0
 40
0.0
 40
0.0
 40
0.1252938265
 40
0.2508618675
 40
0.3756697835
 40
0.5003981165
 40
0.7501172718
 40
1.0
 40
1.0
 40
1.0
 40
1.0
 10
5.0799842183
 20
5.4793419955
 30
0.0
 10
5.0795608587
 20
5.4791109306
 30
0.0
 10
5.0786512944
 20
5.4787648306
 30
0.0
 10
5.0772475467
 20
5.478415277
 30
0.0
 10
5.0758217054
 20
5.4781779711
 30
0.0
 10
5.0739104412
 20
5.4779724322
 30
0.0
 10
5.0715099375
 20
5.477830768
 30
0.0
 10
5.0695865084
 20
5.4778057678
 30
0.0
 10
5.0686245989
 20
5.4778057678
 30
0.0
  0
SPLINE
  5
4A3
100
AcDbEntity
  8
ALL_ASSEMBLY_MEMBERS
100
AcDbSpline
 62
7
  6
CONTINUOUS
 70
0
 71
3
 72
11
 73
7
 74
0
 42
0.0000001
 43
0.0000001
 44
0.0000000001
 40
0.0
 40
0.0
 40
0.0
 40
0.0
 40
0.2506996057
 40
0.5008591606
 40
0.7505971276
 40
1.0
 40
1.0
 40
1.0
 40
1.0
 10
5.2904845733
 20
5.5735494856
 30
0.0
 10
5.2923975545
 20
5.5704847836
 30
0.0
 10
5.2956581445
 20
5.5639954832
 30
0.0
 10
5.2988674433
 20
5.5536245688
 30
0.0
 10
5.3005960366
 20
5.5429369458
 30
0.0
 10
5.3009292215
 20
5.5357374116
 30
0.0
 10
5.3009292215
 20
5.5321433576
 30
0.0
  0
SPLINE
  5
4A4
100
AcDbEntity
  8
ALL_ASSEMBLY_MEMBERS
100
AcDbSpline
 62
7
  6
CONTINUOUS
 70
0
 71
3
 72
9
 73
5
 74
0
 42
0.0000001
 43
0.0000001
 44
0.0000000001
 40
0.0
 40
0.0
 40
0.0
 40
0.0
 40
0.2494466249
 40
1.0
 40
1.0
 40
1.0
 40
1.0
 10
5.2621278016
 20
5.5902946663
 30
0.0
 10
5.2627785033
 20
5.590292038
 30
0.0
 10
5.265386043
 20
5.5902126345
 30
0.0
 10
5.2679873848
 20
5.5898484917
 30
0.0
 10
5.2698928481
 20
5.5893984213
 30
0.0
  0
SPLINE
  5
4A5
100
AcDbEntity
  8
ALL_ASSEMBLY_MEMBERS
100
AcDbSpline
 62
7
  6
CONTINUOUS
 70
0
 71
3
 72
11
 73
7
 74
0
 42
0.0000001
 43
0.0000001
 44
0.0000000001
 40
0.0
 40
0.0
 40
0.0
 40
0.0
 40
0.2506244578
 40
0.5008987832
 40
0.7509301063
 40
1.0
 40
1.0
 40
1.0
 40
1.0
 10
5.2698928481
 20
5.5893984213
 30
0.0
 10
5.2714280165
 20
5.5890358146
 30
0.0
 10
5.2744476337
 20
5.5880743283
 30
0.0
 10
5.2786683664
 20
5.5859044851
 30
0.0
 10
5.2825054954
 20
5.5831332963
 30
0.0
 10
5.2847676435
 20
5.5809372106
 30
0.0
 10
5.2858210712
 20
5.5797762869
 30
0.0
  0
SPLINE
  5
4A6
100
AcDbEntity
  8
ALL_ASSEMBLY_MEMBERS
100
AcDbSpline
 62
7
  6
CONTINUOUS
 70
0
 71
3
 72
9
 73
5
 74
0
 42
0.0000001
 43
0.0000001
 44
0.0000000001
 40
0.0
 40
0.0
 40
0.0
 40
0.0
 40
0.250609723
 40
1.0
 40
1.0
 40
1.0
 40
1.0
 10
5.2858210712
 20
5.5797762869
 30
0.0
 10
5.2862581256
 20
5.5792946337
 30
0.0
 10
5.2879520745
 20
5.577327436
 30
0.0
 10
5.2894547625
 20
5.5751992997
 30
0.0
 10
5.2904845733
 20
5.5735494856
 30
0.0
  0
SPLINE
  5
4A7
100
AcDbEntity
  8
ALL_ASSEMBLY_MEMBERS
100
AcDbSpline
 62
7
  6
CONTINUOUS
 70
0
 71
3
 72
9
 73
5
 74
0
 42
0.0000001
 43
0.0000001
 44
0.0000000001
 40
0.0
 40
0.0
 40
0.0
 40
0.0
 40
0.7497096004
 40
1.0
 40
1.0
 40
1.0
 40
1.0
 10
5.236565611
 20
5.5780084362
 30
0.0
 10
5.2373994684
 20
5.5790764164
 30
0.0
 10
5.2385877535
 20
5.5804450139
 30
0.0
 10
5.2398772093
 20
5.5817117905
 30
0.0
 10
5.2402063912
 20
5.5820220496
 30
0.0
  0
SPLINE
  5
4A8
100
AcDbEntity
  8
ALL_ASSEMBLY_MEMBERS
100
AcDbSpline
 62
7
  6
CONTINUOUS
 70
0
 71
3
 72
11
 73
7
 74
0
 42
0.0000001
 43
0.0000001
 44
0.0000000001
 40
0.0
 40
0.0
 40
0.0
 40
0.0
 40
0.24928195
 40
0.4991611146
 40
0.7494173043
 40
1.0
 40
1.0
 40
1.0
 40
1.0
 10
5.2402063912
 20
5.5820220496
 30
0.0
 10
5.2409324258
 20
5.5827063486
 30
0.0
 10
5.2424503796
 20
5.5840106933
 30
0.0
 10
5.2449117144
 20
5.5857332801
 30
0.0
 10
5.2475391062
 20
5.587201503
 30
0.0
 10
5.2493866706
 20
5.5879901504
 30
0.0
 10
5.250327969
 20
5.5883362193
 30
0.0
  0
SPLINE
  5
4A9
100
AcDbEntity
  8
ALL_ASSEMBLY_MEMBERS
100
AcDbSpline
 62
7
  6
CONTINUOUS
 70
0
 71
3
 72
9
 73
5
 74
0
 42
0.0000001
 43
0.0000001
 44
0.0000000001
 40
0.0
 40
0.0
 40
0.0
 40
0.0
 40
0.4997206379
 40
1.0
 40
1.0
 40
1.0
 40
1.0
 10
5.250327969
 20
5.5883362193
 30
0.0
 10
5.2522055608
 20
5.589026517
 30
0.0
 10
5.2561121255
 20
5.5900267912
 30
0.0
 10
5.2601251159
 20
5.5903027555
 30
0.0
 10
5.2621278016
 20
5.5902946663
 30
0.0
  0
LINE
  5
4AA
100
AcDbEntity
  8
ALL_ASSEMBLY_MEMBERS
100
AcDbLine
 62
7
  6
CONTINUOUS
 10
5.6261631979
 20
5.4116362833
 11
5.6357387534
 21
5.4036014382
  0
SPLINE
  5
4AB
100
AcDbEntity
  8
ALL_ASSEMBLY_MEMBERS
100
AcDbSpline
 62
7
  6
CONTINUOUS
 70
0
 71
3
 72
11
 73
7
 74
0
 42
0.0000001
 43
0.0000001
 44
0.0000000001
 40
0.0
 40
0.0
 40
0.0
 40
0.0
 40
0.2493339763
 40
0.49925164
 40
0.7495163269
 40
1.0
 40
1.0
 40
1.0
 40
1.0
 10
5.7873901123
 20
5.1046167447
 30
0.0
 10
5.7891669185
 20
5.1038371074
 30
0.0
 10
5.792576924
 20
5.1019352212
 30
0.0
 10
5.7972911092
 20
5.0984878642
 30
0.0
 10
5.8017039634
 20
5.0946519614
 30
0.0
 10
5.8044835383
 20
5.0919179549
 30
0.0
 10
5.8058408517
 20
5.0905188926
 30
0.0
  0
SPLINE
  5
4AC
100
AcDbEntity
  8
ALL_ASSEMBLY_MEMBERS
100
AcDbSpline
 62
7
  6
CONTINUOUS
 70
0
 71
3
 72
9
 73
5
 74
0
 42
0.0000001
 43
0.0000001
 44
0.0000000001
 40
0.0
 40
0.0
 40
0.0
 40
0.0
 40
0.4988637996
 40
1.0
 40
1.0
 40
1.0
 40
1.0
 10
5.769727731
 20
5.1057096706
 30
0.0
 10
5.7726132788
 20
5.1064828508
 30
0.0
 10
5.7786673153
 20
5.1072643271
 30
0.0
 10
5.784642072
 20
5.1058225458
 30
0.0
 10
5.7873901123
 20
5.1046167447
 30
0.0
  0
SPLINE
  5
4AD
100
AcDbEntity
  8
ALL_ASSEMBLY_MEMBERS
100
AcDbSpline
 62
7
  6
CONTINUOUS
 70
0
 71
3
 72
9
 73
5
 74
0
 42
0.0000001
 43
0.0000001
 44
0.0000000001
 40
0.0
 40
0.0
 40
0.0
 40
0.0
 40
0.5006934839
 40
1.0
 40
1.0
 40
1.0
 40
1.0
 10
5.8042518566
 20
5.0478684999
 30
0.0
 10
5.8021612855
 20
5.0457139415
 30
0.0
 10
5.7975545241
 20
5.0417882165
 30
0.0
 10
5.7919984405
 20
5.0392490386
 30
0.0
 10
5.7891066665
 20
5.0384741901
 30
0.0
  0
SPLINE
  5
4AE
100
AcDbEntity
  8
ALL_ASSEMBLY_MEMBERS
100
AcDbSpline
 62
7
  6
CONTINUOUS
 70
0
 71
3
 72
11
 73
7
 74
0
 42
0.0000001
 43
0.0000001
 44
0.0000000001
 40
0.0
 40
0.0
 40
0.0
 40
0.0
 40
0.2505605717
 40
0.5008979259
 40
0.7508000143
 40
1.0
 40
1.0
 40
1.0
 40
1.0
 10
5.8168328949
 20
5.0729443658
 30
0.0
 10
5.8161221088
 20
5.070693705
 30
0.0
 10
5.8146035395
 20
5.0662244188
 30
0.0
 10
5.8119241318
 20
5.059670902
 30
0.0
 10
5.8086725451
 20
5.0533963291
 30
0.0
 10
5.8058865243
 20
5.0495532008
 30
0.0
 10
5.8042518566
 20
5.0478684999
 30
0.0
  0
SPLINE
  5
4AF
100
AcDbEntity
  8
ALL_ASSEMBLY_MEMBERS
100
AcDbSpline
 62
7
  6
CONTINUOUS
 70
0
 71
3
 72
13
 73
9
 74
0
 42
0.0000001
 43
0.0000001
 44
0.0000000001
 40
0.0
 40
0.0
 40
0.0
 40
0.0
 40
0.2509006996
 40
0.3762409755
 40
0.5013925378
 40
0.6263426563
 40
0.7511203426
 40
1.0
 40
1.0
 40
1.0
 40
1.0
 10
5.8646595437
 20
5.0706686218
 30
0.0
 10
5.8639889875
 20
5.0691185618
 30
0.0
 10
5.8627636083
 20
5.066874766
 30
0.0
 10
5.8606583638
 20
5.0642281902
 30
0.0
 10
5.8588484763
 20
5.0624549733
 30
0.0
 10
5.8568398155
 20
5.0609165125
 30
0.0
 10
5.8539351728
 20
5.0592214653
 30
0.0
 10
5.8515545824
 20
5.0583372008
 30
0.0
 10
5.8499363856
 20
5.0579036063
 30
0.0
  0
SPLINE
  5
4B0
100
AcDbEntity
  8
ALL_ASSEMBLY_MEMBERS
100
AcDbSpline
 62
7
  6
CONTINUOUS
 70
0
 71
3
 72
12
 73
8
 74
0
 42
0.0000001
 43
0.0000001
 44
0.0000000001
 40
0.0
 40
0.0
 40
0.0
 40
0.0
 40
0.2503559615
 40
0.5006890109
 40
0.6257968259
 40
0.7508893421
 40
1.0
 40
1.0
 40
1.0
 40
1.0
 10
5.8651734153
 20
5.0949386158
 30
0.0
 10
5.8657113794
 20
5.0929470025
 30
0.0
 10
5.8665964389
 20
5.0889081421
 30
0.0
 10
5.8670530174
 20
5.0837515352
 30
0.0
 10
5.8669031174
 20
5.0796237965
 30
0.0
 10
5.8663602902
 20
5.0755414764
 30
0.0
 10
5.8654745608
 20
5.0725526181
 30
0.0
 10
5.8646595437
 20
5.0706686218
 30
0.0
  0
SPLINE
  5
4B1
100
AcDbEntity
  8
ALL_ASSEMBLY_MEMBERS
100
AcDbSpline
 62
7
  6
CONTINUOUS
 70
0
 71
3
 72
9
 73
5
 74
0
 42
0.0000001
 43
0.0000001
 44
0.0000000001
 40
0.0
 40
0.0
 40
0.0
 40
0.0
 40
0.2492414464
 40
1.0
 40
1.0
 40
1.0
 40
1.0
 10
5.8509316924
 20
5.1158822837
 30
0.0
 10
5.8515081799
 20
5.1155410575
 30
0.0
 10
5.8537649753
 20
5.1140785089
 30
0.0
 10
5.8557906361
 20
5.1122650363
 30
0.0
 10
5.8571401386
 20
5.1107648203
 30
0.0
  0
SPLINE
  5
4B2
100
AcDbEntity
  8
ALL_ASSEMBLY_MEMBERS
100
AcDbSpline
 62
7
  6
CONTINUOUS
 70
0
 71
3
 72
9
 73
5
 74
0
 42
0.0000001
 43
0.0000001
 44
0.0000000001
 40
0.0
 40
0.0
 40
0.0
 40
0.0
 40
0.4997141776
 40
1.0
 40
1.0
 40
1.0
 40
1.0
 10
5.8571401386
 20
5.1107648203
 30
0.0
 10
5.8581334548
 20
5.1096605697
 30
0.0
 10
5.8599434221
 20
5.1072864045
 30
0.0
 10
5.8614076115
 20
5.1046903711
 30
0.0
 10
5.8620631684
 20
5.1033557019
 30
0.0
  0
SPLINE
  5
4B3
100
AcDbEntity
  8
ALL_ASSEMBLY_MEMBERS
100
AcDbSpline
 62
7
  6
CONTINUOUS
 70
0
 71
3
 72
9
 73
5
 74
0
 42
0.0000001
 43
0.0000001
 44
0.0000000001
 40
0.0
 40
0.0
 40
0.0
 40
0.0
 40
0.2502394274
 40
1.0
 40
1.0
 40
1.0
 40
1.0
 10
5.8620631684
 20
5.1033557019
 30
0.0
 10
5.8623934606
 20
5.1026832496
 30
0.0
 10
5.8636358156
 20
5.0999579549
 30
0.0
 10
5.8645880665
 20
5.0971056532
 30
0.0
 10
5.8651734153
 20
5.0949386158
 30
0.0
  0
SPLINE
  5
4B4
100
AcDbEntity
  8
ALL_ASSEMBLY_MEMBERS
100
AcDbSpline
 62
7
  6
CONTINUOUS
 70
0
 71
3
 72
13
 73
9
 74
0
 42
0.0000001
 43
0.0000001
 44
0.0000000001
 40
0.0
 40
0.0
 40
0.0
 40
0.0
 40
0.2488312676
 40
0.373618203
 40
0.4985781795
 40
0.6237335966
 40
0.7490861956
 40
1.0
 40
1.0
 40
1.0
 40
1.0
 10
5.8296115988
 20
5.1188862052
 30
0.0
 10
5.831384448
 20
5.1193612388
 30
0.0
 10
5.8341200181
 20
5.1198436983
 30
0.0
 10
5.8378022866
 20
5.1199202626
 30
0.0
 10
5.840562441
 20
5.1196769507
 30
0.0
 10
5.8432854069
 20
5.1191424765
 30
0.0
 10
5.8468227604
 20
5.1180441742
 30
0.0
 10
5.8493390286
 20
5.1168249903
 30
0.0
 10
5.8509316924
 20
5.1158822837
 30
0.0
  0
SPLINE
  5
4B5
100
AcDbEntity
  8
ALL_ASSEMBLY_MEMBERS
100
AcDbSpline
 62
7
  6
CONTINUOUS
 70
0
 71
3
 72
9
 73
5
 74
0
 42
0.0000001
 43
0.0000001
 44
0.0000000001
 40
0.0
 40
0.0
 40
0.0
 40
0.0
 40
0.5005217451
 40
1.0
 40
1.0
 40
1.0
 40
1.0
 10
5.7939673286
 20
4.9743816048
 30
0.0
 10
5.7950532588
 20
4.9739872229
 30
0.0
 10
5.7972723686
 20
4.9733284328
 30
0.0
 10
5.7995570145
 20
4.9729539687
 30
0.0
 10
5.8007041219
 20
4.9728383561
 30
0.0
  0
SPLINE
  5
4B6
100
AcDbEntity
  8
ALL_ASSEMBLY_MEMBERS
100
AcDbSpline
 62
7
  6
CONTINUOUS
 70
0
 71
3
 72
9
 73
5
 74
0
 42
0.0000001
 43
0.0000001
 44
0.0000000001
 40
0.0
 40
0.0
 40
0.0
 40
0.0
 40
0.5001819869
 40
1.0
 40
1.0
 40
1.0
 40
1.0
 10
5.8007041219
 20
4.9728383561
 30
0.0
 10
5.8026143306
 20
4.9726458336
 30
0.0
 10
5.806481479
 20
4.9726533645
 30
0.0
 10
5.810272236
 20
4.9733694217
 30
0.0
 10
5.812125354
 20
4.9738659632
 30
0.0
  0
SPLINE
  5
4B7
100
AcDbEntity
  8
ALL_ASSEMBLY_MEMBERS
100
AcDbSpline
 62
7
  6
CONTINUOUS
 70
0
 71
3
 72
13
 73
9
 74
0
 42
0.0000001
 43
0.0000001
 44
0.0000000001
 40
0.0
 40
0.0
 40
0.0
 40
0.0
 40
0.2510366153
 40
0.3765941088
 40
0.5018459431
 40
0.6269286096
 40
0.7516619393
 40
1.0
 40
1.0
 40
1.0
 40
1.0
 10
5.780138535
 20
4.9882519904
 30
0.0
 10
5.7805256003
 20
4.9867947264
 30
0.0
 10
5.7813644275
 20
4.9846629858
 30
0.0
 10
5.7829773595
 20
4.9821091511
 30
0.0
 10
5.7844231049
 20
4.9803670122
 30
0.0
 10
5.7860578258
 20
4.9788099442
 30
0.0
 10
5.7884414361
 20
4.9769937075
 30
0.0
 10
5.790416597
 20
4.9759046419
 30
0.0
 10
5.791772199
 20
4.9752824148
 30
0.0
  0
SPLINE
  5
4B8
100
AcDbEntity
  8
ALL_ASSEMBLY_MEMBERS
100
AcDbSpline
 62
7
  6
CONTINUOUS
 70
0
 71
3
 72
9
 73
5
 74
0
 42
0.0000001
 43
0.0000001
 44
0.0000000001
 40
0.0
 40
0.0
 40
0.0
 40
0.0
 40
0.499346371
 40
1.0
 40
1.0
 40
1.0
 40
1.0
 10
5.7804772021
 20
4.9988618997
 30
0.0
 10
5.7799059192
 20
4.9971686603
 30
0.0
 10
5.7792183616
 20
4.993593774
 30
0.0
 10
5.7796785895
 20
4.9899836416
 30
0.0
 10
5.780138535
 20
4.9882519904
 30
0.0
  0
LINE
  5
4B9
100
AcDbEntity
  8
ALL_ASSEMBLY_MEMBERS
100
AcDbLine
 62
7
  6
CONTINUOUS
 10
5.7832002294
 20
5.0075096357
 11
5.7804772021
 21
4.9988618997
  0
SPLINE
  5
4BA
100
AcDbEntity
  8
ALL_ASSEMBLY_MEMBERS
100
AcDbSpline
 62
7
  6
CONTINUOUS
 70
0
 71
3
 72
9
 73
5
 74
0
 42
0.0000001
 43
0.0000001
 44
0.0000000001
 40
0.0
 40
0.0
 40
0.0
 40
0.0
 40
0.5005428404
 40
1.0
 40
1.0
 40
1.0
 40
1.0
 10
5.7835670155
 20
5.0157745277
 30
0.0
 10
5.7839261509
 20
5.0144303185
 30
0.0
 10
5.7840760192
 20
5.0115928315
 30
0.0
 10
5.7835494819
 20
5.0088533285
 30
0.0
 10
5.7832002294
 20
5.0075096357
 30
0.0
  0
SPLINE
  5
4BB
100
AcDbEntity
  8
ALL_ASSEMBLY_MEMBERS
100
AcDbSpline
 62
7
  6
CONTINUOUS
 70
0
 71
3
 72
9
 73
5
 74
0
 42
0.0000001
 43
0.0000001
 44
0.0000000001
 40
0.0
 40
0.0
 40
0.0
 40
0.0
 40
0.4986504805
 40
1.0
 40
1.0
 40
1.0
 40
1.0
 10
5.7797299262
 20
5.0211804995
 30
0.0
 10
5.7807324088
 20
5.0206665076
 30
0.0
 10
5.7824396776
 20
5.0190087867
 30
0.0
 10
5.783274653
 20
5.0168688126
 30
0.0
 10
5.7835670155
 20
5.0157745277
 30
0.0
  0
SPLINE
  5
4BC
100
AcDbEntity
  8
ALL_ASSEMBLY_MEMBERS
100
AcDbSpline
 62
7
  6
CONTINUOUS
 70
0
 71
3
 72
9
 73
5
 74
0
 42
0.0000001
 43
0.0000001
 44
0.0000000001
 40
0.0
 40
0.0
 40
0.0
 40
0.0
 40
0.4988949084
 40
1.0
 40
1.0
 40
1.0
 40
1.0
 10
5.7741874199
 20
5.0217821014
 30
0.0
 10
5.7750994182
 20
5.0220264706
 30
0.0
 10
5.7770361818
 20
5.0222109762
 30
0.0
 10
5.7788860304
 20
5.0216131809
 30
0.0
 10
5.7797299262
 20
5.0211804995
 30
0.0
  0
SPLINE
  5
4BD
100
AcDbEntity
  8
ALL_ASSEMBLY_MEMBERS
100
AcDbSpline
 62
7
  6
CONTINUOUS
 70
0
 71
3
 72
13
 73
9
 74
0
 42
0.0000001
 43
0.0000001
 44
0.0000000001
 40
0.0
 40
0.0
 40
0.0
 40
0.0
 40
0.2508271358
 40
0.3761462637
 40
0.5012720283
 40
0.6262285669
 40
0.7510424561
 40
1.0
 40
1.0
 40
1.0
 40
1.0
 10
5.848287618
 20
4.9807732616
 30
0.0
 10
5.8468745507
 20
4.9785691169
 30
0.0
 10
5.8444803338
 20
4.9754240609
 30
0.0
 10
5.8407558092
 20
4.9717398448
 30
0.0
 10
5.8377064154
 20
4.9692684279
 30
0.0
 10
5.8344354876
 20
4.9671082193
 30
0.0
 10
5.8298231897
 20
4.9646803222
 30
0.0
 10
5.8261244496
 20
4.9633574542
 30
0.0
 10
5.8236143052
 20
4.962684863
 30
0.0
  0
SPLINE
  5
4BE
100
AcDbEntity
  8
ALL_ASSEMBLY_MEMBERS
100
AcDbSpline
 62
7
  6
CONTINUOUS
 70
0
 71
3
 72
13
 73
9
 74
0
 42
0.0000001
 43
0.0000001
 44
0.0000000001
 40
0.0
 40
0.0
 40
0.0
 40
0.0
 40
0.2504586406
 40
0.5007111813
 40
0.6257959687
 40
0.7507467896
 40
0.8755187025
 40
1.0
 40
1.0
 40
1.0
 40
1.0
 10
5.8535391664
 20
5.022089756
 30
0.0
 10
5.8540163315
 20
5.0185775222
 30
0.0
 10
5.8547069332
 20
5.0115164347
 30
0.0
 10
5.8546486174
 20
5.0026330366
 30
0.0
 10
5.8537870805
 20
4.9955973306
 30
0.0
 10
5.8526393711
 20
4.9904080807
 30
0.0
 10
5.8508856283
 20
4.9853962096
 30
0.0
 10
5.8492384014
 20
4.9822563223
 30
0.0
 10
5.848287618
 20
4.9807732616
 30
0.0
  0
LINE
  5
4BF
100
AcDbEntity
  8
ALL_ASSEMBLY_MEMBERS
100
AcDbLine
 62
7
  6
CONTINUOUS
 10
5.8734860086
 20
4.750396223
 11
5.8713154064
 21
4.7380861261
  0
LINE
  5
4C0
100
AcDbEntity
  8
ALL_ASSEMBLY_MEMBERS
100
AcDbLine
 62
7
  6
CONTINUOUS
 10
5.7073806117
 20
4.5647096647
 11
5.7693775083
 21
4.4801853691
  0
SPLINE
  5
4C1
100
AcDbEntity
  8
ALL_ASSEMBLY_MEMBERS
100
AcDbSpline
 62
7
  6
CONTINUOUS
 70
0
 71
3
 72
9
 73
5
 74
0
 42
0.0000001
 43
0.0000001
 44
0.0000000001
 40
0.0
 40
0.0
 40
0.0
 40
0.0
 40
0.5013697195
 40
1.0
 40
1.0
 40
1.0
 40
1.0
 10
5.2572938891
 20
4.2496821606
 30
0.0
 10
5.2585378361
 20
4.249349408
 30
0.0
 10
5.2609674854
 20
4.2484744539
 30
0.0
 10
5.2631211799
 20
4.2469521402
 30
0.0
 10
5.2639702308
 20
4.2459934062
 30
0.0
  0
LINE
  5
4C2
100
AcDbEntity
  8
ALL_ASSEMBLY_MEMBERS
100
AcDbLine
 62
7
  6
CONTINUOUS
 10
5.7816219888
 20
4.4716318815
 11
5.772276576
 21
4.4582650428
  0
LINE
  5
4C3
100
AcDbEntity
  8
ALL_ASSEMBLY_MEMBERS
100
AcDbLine
 62
7
  6
CONTINUOUS
 10
5.7989374231
 20
4.5283285536
 11
5.8097976477
 21
4.5120666345
  0
SPLINE
  5
4C4
100
AcDbEntity
  8
ALL_ASSEMBLY_MEMBERS
100
AcDbSpline
 62
7
  6
CONTINUOUS
 70
0
 71
3
 72
12
 73
8
 74
0
 42
0.0000001
 43
0.0000001
 44
0.0000000001
 40
0.0
 40
0.0
 40
0.0
 40
0.0
 40
0.2505854232
 40
0.3758336667
 40
0.5008870252
 40
0.7505318626
 40
1.0
 40
1.0
 40
1.0
 40
1.0
 10
5.6553106592
 20
4.465731701
 30
0.0
 10
5.6557707071
 20
4.4640551865
 30
0.0
 10
5.6566883334
 20
4.4615941492
 30
0.0
 10
5.6583476198
 20
4.4585364704
 30
0.0
 10
5.6602860586
 20
4.4556544173
 30
0.0
 10
5.6631838571
 20
4.4524053367
 30
0.0
 10
5.6658906127
 20
4.4502225126
 30
0.0
 10
5.6673083502
 20
4.4492298022
 30
0.0
  0
SPLINE
  5
4C5
100
AcDbEntity
  8
ALL_ASSEMBLY_MEMBERS
100
AcDbSpline
 62
7
  6
CONTINUOUS
 70
0
 71
3
 72
13
 73
9
 74
0
 42
0.0000001
 43
0.0000001
 44
0.0000000001
 40
0.0
 40
0.0
 40
0.0
 40
0.0
 40
0.2510366153
 40
0.3765941088
 40
0.5018459431
 40
0.6269286096
 40
0.7516619393
 40
1.0
 40
1.0
 40
1.0
 40
1.0
 10
5.6577679554
 20
4.4829802871
 30
0.0
 10
5.6569004272
 20
4.4817470667
 30
0.0
 10
5.655806607
 20
4.4797342313
 30
0.0
 10
5.6548870287
 20
4.4768570804
 30
0.0
 10
5.6544817801
 20
4.4746297499
 30
0.0
 10
5.6543397752
 20
4.472376617
 30
0.0
 10
5.6544806123
 20
4.4693832111
 30
0.0
 10
5.6549159486
 20
4.4671701122
 30
0.0
 10
5.6553106592
 20
4.465731701
 30
0.0
  0
SPLINE
  5
4C6
100
AcDbEntity
  8
ALL_ASSEMBLY_MEMBERS
100
AcDbSpline
 62
7
  6
CONTINUOUS
 70
0
 71
3
 72
9
 73
5
 74
0
 42
0.0000001
 43
0.0000001
 44
0.0000000001
 40
0.0
 40
0.0
 40
0.0
 40
0.0
 40
0.499346371
 40
1.0
 40
1.0
 40
1.0
 40
1.0
 10
5.6661133085
 20
4.4895407714
 30
0.0
 10
5.6644489983
 20
4.4888900062
 30
0.0
 10
5.661268523
 20
4.4871188132
 30
0.0
 10
5.6587988299
 20
4.4844457098
 30
0.0
 10
5.6577679554
 20
4.4829802871
 30
0.0
  0
LINE
  5
4C7
100
AcDbEntity
  8
ALL_ASSEMBLY_MEMBERS
100
AcDbLine
 62
7
  6
CONTINUOUS
 10
5.6744881868
 20
4.4930134689
 11
5.6661133085
 21
4.4895407714
  0
SPLINE
  5
4C8
100
AcDbEntity
  8
ALL_ASSEMBLY_MEMBERS
100
AcDbSpline
 62
7
  6
CONTINUOUS
 70
0
 71
3
 72
9
 73
5
 74
0
 42
0.0000001
 43
0.0000001
 44
0.0000000001
 40
0.0
 40
0.0
 40
0.0
 40
0.0
 40
0.5005428404
 40
1.0
 40
1.0
 40
1.0
 40
1.0
 10
5.681055227
 20
4.4980450647
 30
0.0
 10
5.6802563508
 20
4.49690591
 30
0.0
 10
5.6781790431
 20
4.4949672027
 30
0.0
 10
5.6757420104
 20
4.4936096351
 30
0.0
 10
5.6744881868
 20
4.4930134689
 30
0.0
  0
SPLINE
  5
4C9
100
AcDbEntity
  8
ALL_ASSEMBLY_MEMBERS
100
AcDbSpline
 62
7
  6
CONTINUOUS
 70
0
 71
3
 72
9
 73
5
 74
0
 42
0.0000001
 43
0.0000001
 44
0.0000000001
 40
0.0
 40
0.0
 40
0.0
 40
0.0
 40
0.4986504805
 40
1.0
 40
1.0
 40
1.0
 40
1.0
 10
5.6827300082
 20
4.5044593373
 30
0.0
 10
5.6829806509
 20
4.5033610035
 30
0.0
 10
5.6828081743
 20
4.5009875972
 30
0.0
 10
5.6817055708
 20
4.4989724201
 30
0.0
 10
5.681055227
 20
4.4980450647
 30
0.0
  0
SPLINE
  5
4CA
100
AcDbEntity
  8
ALL_ASSEMBLY_MEMBERS
100
AcDbSpline
 62
7
  6
CONTINUOUS
 70
0
 71
3
 72
9
 73
5
 74
0
 42
0.0000001
 43
0.0000001
 44
0.0000000001
 40
0.0
 40
0.0
 40
0.0
 40
0.0
 40
0.4988949084
 40
1.0
 40
1.0
 40
1.0
 40
1.0
 10
5.6796282076
 20
4.5090918457
 30
0.0
 10
5.6804016265
 20
4.508550292
 30
0.0
 10
5.6817878936
 20
4.5071852428
 30
0.0
 10
5.6825190156
 20
4.5053839212
 30
0.0
 10
5.6827300082
 20
4.5044593373
 30
0.0
  0
SPLINE
  5
4CB
100
AcDbEntity
  8
ALL_ASSEMBLY_MEMBERS
100
AcDbSpline
 62
7
  6
CONTINUOUS
 70
0
 71
3
 72
13
 73
9
 74
0
 42
0.0000001
 43
0.0000001
 44
0.0000000001
 40
0.0
 40
0.0
 40
0.0
 40
0.0
 40
0.2508271358
 40
0.3761462637
 40
0.5012720283
 40
0.6262285669
 40
0.7510424561
 40
1.0
 40
1.0
 40
1.0
 40
1.0
 10
5.695844303
 20
4.4259678267
 30
0.0
 10
5.693247528
 20
4.425633502
 30
0.0
 10
5.6892993024
 20
4.4254459756
 30
0.0
 10
5.6840829508
 20
4.4259309585
 30
0.0
 10
5.6802296231
 20
4.4266783335
 30
0.0
 10
5.6764722954
 20
4.4277954542
 30
0.0
 10
5.6716476904
 20
4.4297680573
 30
0.0
 10
5.6682568104
 20
4.4317511334
 30
0.0
 10
5.666128086
 20
4.4332416822
 30
0.0
  0
SPLINE
  5
4CC
100
AcDbEntity
  8
ALL_ASSEMBLY_MEMBERS
100
AcDbSpline
 62
7
  6
CONTINUOUS
 70
0
 71
3
 72
13
 73
9
 74
0
 42
0.0000001
 43
0.0000001
 44
0.0000000001
 40
0.0
 40
0.0
 40
0.0
 40
0.0
 40
0.2504586406
 40
0.5007111813
 40
0.6257959687
 40
0.7507467896
 40
0.8755187025
 40
1.0
 40
1.0
 40
1.0
 40
1.0
 10
5.7308702042
 20
4.4485026378
 30
0.0
 10
5.7284863927
 20
4.4458794878
 30
0.0
 10
5.7235211961
 20
4.4408116766
 30
0.0
 10
5.7166786338
 20
4.4351462109
 30
0.0
 10
5.710735185
 20
4.4312837218
 30
0.0
 10
5.7060222556
 20
4.4288273326
 30
0.0
 10
5.7010556555
 20
4.4269492089
 30
0.0
 10
5.6975915452
 20
4.4261927773
 30
0.0
 10
5.695844303
 20
4.4259678267
 30
0.0
  0
SPLINE
  5
4CD
100
AcDbEntity
  8
ALL_ASSEMBLY_MEMBERS
100
AcDbSpline
 62
7
  6
CONTINUOUS
 70
0
 71
3
 72
9
 73
5
 74
0
 42
0.0000001
 43
0.0000001
 44
0.0000000001
 40
0.0
 40
0.0
 40
0.0
 40
0.0
 40
0.7498022354
 40
1.0
 40
1.0
 40
1.0
 40
1.0
 10
5.2590600338
 20
4.1814825748
 30
0.0
 10
5.2589592643
 20
4.1827448498
 30
0.0
 10
5.2587295545
 20
4.184424341
 30
0.0
 10
5.258344256
 20
4.1860691267
 30
0.0
 10
5.2582375702
 20
4.1864779789
 30
0.0
  0
SPLINE
  5
4CE
100
AcDbEntity
  8
ALL_ASSEMBLY_MEMBERS
100
AcDbSpline
 62
7
  6
CONTINUOUS
 70
0
 71
3
 72
9
 73
5
 74
0
 42
0.0000001
 43
0.0000001
 44
0.0000000001
 40
0.0
 40
0.0
 40
0.0
 40
0.0
 40
0.499588333
 40
1.0
 40
1.0
 40
1.0
 40
1.0
 10
5.2582375702
 20
4.1864779789
 30
0.0
 10
5.2580054584
 20
4.1873675008
 30
0.0
 10
5.2574425532
 20
4.1891242943
 30
0.0
 10
5.2566645073
 20
4.1907984064
 30
0.0
 10
5.2562218928
 20
4.1916058749
 30
0.0
  0
LINE
  5
4CF
100
AcDbEntity
  8
ALL_ASSEMBLY_MEMBERS
100
AcDbLine
 62
7
  6
CONTINUOUS
 10
5.2633433077
 20
4.1815006284
 11
5.2590600338
 21
4.1814825748
  0
SPLINE
  5
4D0
100
AcDbEntity
  8
ALL_ASSEMBLY_MEMBERS
100
AcDbSpline
 62
7
  6
CONTINUOUS
 70
0
 71
3
 72
13
 73
9
 74
0
 42
0.0000001
 43
0.0000001
 44
0.0000000001
 40
0.0
 40
0.0
 40
0.0
 40
0.0
 40
0.248658449
 40
0.3734580185
 40
0.4985439621
 40
0.6237891327
 40
0.7492410299
 40
1.0
 40
1.0
 40
1.0
 40
1.0
 10
4.6166717354
 20
5.1509887544
 30
0.0
 10
4.6174729841
 20
5.1497267337
 30
0.0
 10
4.618540357
 20
5.1477349535
 30
0.0
 10
4.619558735
 20
5.1449111562
 30
0.0
 10
4.6200854272
 20
5.1427132104
 30
0.0
 10
4.620352564
 20
5.1404638446
 30
0.0
 10
4.6203245563
 20
5.1374430027
 30
0.0
 10
4.6198703677
 20
5.135197597
 30
0.0
 10
4.6194045191
 20
5.1337638623
 30
0.0
  0
SPLINE
  5
4D1
100
AcDbEntity
  8
ALL_ASSEMBLY_MEMBERS
100
AcDbSpline
 62
7
  6
CONTINUOUS
 70
0
 71
3
 72
9
 73
5
 74
0
 42
0.0000001
 43
0.0000001
 44
0.0000000001
 40
0.0
 40
0.0
 40
0.0
 40
0.0
 40
0.5004903257
 40
1.0
 40
1.0
 40
1.0
 40
1.0
 10
4.6184965822
 20
5.1314681239
 30
0.0
 10
4.6179946879
 20
5.1304050669
 30
0.0
 10
4.6167812473
 20
5.1283727045
 30
0.0
 10
4.6151797964
 20
5.1266309461
 30
0.0
 10
4.6143088218
 20
5.1258448285
 30
0.0
  0
SPLINE
  5
4D2
100
AcDbEntity
  8
ALL_ASSEMBLY_MEMBERS
100
AcDbSpline
 62
7
  6
CONTINUOUS
 70
0
 71
3
 72
9
 73
5
 74
0
 42
0.0000001
 43
0.0000001
 44
0.0000000001
 40
0.0
 40
0.0
 40
0.0
 40
0.0
 40
0.2496154467
 40
1.0
 40
1.0
 40
1.0
 40
1.0
 10
5.2639702308
 20
4.2452718345
 30
0.0
 10
5.2634826115
 20
4.2458202934
 30
0.0
 10
5.2612270806
 20
4.2477534309
 30
0.0
 10
5.2583315221
 20
4.2487251473
 30
0.0
 10
5.2561757084
 20
4.2491937818
 30
0.0
  0
SPLINE
  5
4D3
100
AcDbEntity
  8
ALL_ASSEMBLY_MEMBERS
100
AcDbSpline
 62
7
  6
CONTINUOUS
 70
0
 71
3
 72
9
 73
5
 74
0
 42
0.0000001
 43
0.0000001
 44
0.0000000001
 40
0.0
 40
0.0
 40
0.0
 40
0.0
 40
0.4999237644
 40
1.0
 40
1.0
 40
1.0
 40
1.0
 10
5.2693062997
 20
4.2317980268
 30
0.0
 10
5.2691208093
 20
4.233215114
 30
0.0
 10
5.2686125027
 20
4.2360341911
 30
0.0
 10
5.2677350829
 20
4.2387697879
 30
0.0
 10
5.2671765492
 20
4.2400857775
 30
0.0
  0
SPLINE
  5
4D4
100
AcDbEntity
  8
ALL_ASSEMBLY_MEMBERS
100
AcDbSpline
 62
7
  6
CONTINUOUS
 70
0
 71
3
 72
9
 73
5
 74
0
 42
0.0000001
 43
0.0000001
 44
0.0000000001
 40
0.0
 40
0.0
 40
0.0
 40
0.0
 40
0.4995193573
 40
1.0
 40
1.0
 40
1.0
 40
1.0
 10
5.2671765492
 20
4.2400857775
 30
0.0
 10
5.2667785995
 20
4.2410234071
 30
0.0
 10
5.2658568616
 20
4.2428508769
 30
0.0
 10
5.2646483214
 20
4.2445091396
 30
0.0
 10
5.2639702308
 20
4.2452718345
 30
0.0
  0
LINE
  5
4D5
100
AcDbEntity
  8
ALL_ASSEMBLY_MEMBERS
100
AcDbLine
 62
7
  6
CONTINUOUS
 10
5.2735895735
 20
4.2318198143
 11
5.2693062997
 21
4.2317980268
  0
LINE
  5
4D6
100
AcDbEntity
  8
ALL_ASSEMBLY_MEMBERS
100
AcDbLine
 62
7
  6
CONTINUOUS
 10
4.6133604379
 20
5.1250424565
 11
4.6063764859
 21
5.1192692093
  0
SPLINE
  5
4D7
100
AcDbEntity
  8
ALL_ASSEMBLY_MEMBERS
100
AcDbSpline
 62
7
  6
CONTINUOUS
 70
0
 71
3
 72
10
 73
6
 74
0
 42
0.0000001
 43
0.0000001
 44
0.0000000001
 40
0.0
 40
0.0
 40
0.0
 40
0.0
 40
0.2876767798
 40
0.5473529254
 40
1.0
 40
1.0
 40
1.0
 40
1.0
 10
4.6063764859
 20
5.1192692093
 30
0.0
 10
4.6057863192
 20
5.1187287786
 30
0.0
 10
4.60470246
 20
5.1176544011
 30
0.0
 10
4.6029374141
 20
5.1155039786
 30
0.0
 10
4.6019634823
 20
5.113732514
 30
0.0
 10
4.6015743923
 20
5.112535018
 30
0.0
  0
SPLINE
  5
4D8
100
AcDbEntity
  8
ALL_ASSEMBLY_MEMBERS
100
AcDbSpline
 62
7
  6
CONTINUOUS
 70
0
 71
3
 72
11
 73
7
 74
0
 42
0.0000001
 43
0.0000001
 44
0.0000000001
 40
0.0
 40
0.0
 40
0.0
 40
0.0
 40
0.2870409588
 40
0.5435906091
 40
0.7778840706
 40
1.0
 40
1.0
 40
1.0
 40
1.0
 10
4.6015743923
 20
5.112535018
 30
0.0
 10
4.6013727814
 20
5.1119145235
 30
0.0
 10
4.6010716674
 20
5.1107097562
 30
0.0
 10
4.6009554245
 20
5.108934265
 30
0.0
 10
4.6011974797
 20
5.1073180842
 30
0.0
 10
4.6015999195
 20
5.1063480717
 30
0.0
 10
4.6018513133
 20
5.1059102582
 30
0.0
  0
SPLINE
  5
4D9
100
AcDbEntity
  8
ALL_ASSEMBLY_MEMBERS
100
AcDbSpline
 62
7
  6
CONTINUOUS
 70
0
 71
3
 72
14
 73
10
 74
0
 42
0.0000001
 43
0.0000001
 44
0.0000000001
 40
0.0
 40
0.0
 40
0.0
 40
0.0
 40
0.0988238485
 40
0.2028344599
 40
0.3134427589
 40
0.4318312705
 40
0.5589724218
 40
0.6956583385
 40
1.0
 40
1.0
 40
1.0
 40
1.0
 10
4.5662644991
 20
5.1771692283
 30
0.0
 10
4.5649919782
 20
5.1765913218
 30
0.0
 10
4.5624598207
 20
5.1752229811
 30
0.0
 10
4.5588439488
 20
5.1726422302
 30
0.0
 10
4.5553307579
 20
5.169492819
 30
0.0
 10
4.5519212881
 20
5.1657763534
 30
0.0
 10
4.5486149273
 20
5.1614927378
 30
0.0
 10
4.5441858449
 20
5.1547818805
 30
0.0
 10
4.5412729153
 20
5.1492461654
 30
0.0
 10
4.5394408256
 20
5.1453514593
 30
0.0
  0
SPLINE
  5
4DA
100
AcDbEntity
  8
ALL_ASSEMBLY_MEMBERS
100
AcDbSpline
 62
7
  6
CONTINUOUS
 70
0
 71
3
 72
9
 73
5
 74
0
 42
0.0000001
 43
0.0000001
 44
0.0000000001
 40
0.0
 40
0.0
 40
0.0
 40
0.0
 40
0.2480486592
 40
1.0
 40
1.0
 40
1.0
 40
1.0
 10
4.5909087145
 20
5.0457957572
 30
0.0
 10
4.5909739352
 20
5.0456043743
 30
0.0
 10
4.5911812322
 20
5.0448132277
 30
0.0
 10
4.5912006047
 20
5.0439868447
 30
0.0
 10
4.5911774818
 20
5.043374346
 30
0.0
  0
SPLINE
  5
4DB
100
AcDbEntity
  8
ALL_ASSEMBLY_MEMBERS
100
AcDbSpline
 62
7
  6
CONTINUOUS
 70
0
 71
3
 72
12
 73
8
 74
0
 42
0.0000001
 43
0.0000001
 44
0.0000000001
 40
0.0
 40
0.0
 40
0.0
 40
0.0
 40
0.2502422294
 40
0.3750543983
 40
0.499939255
 40
0.7499351481
 40
1.0
 40
1.0
 40
1.0
 40
1.0
 10
4.5911774818
 20
5.043374346
 30
0.0
 10
4.5911467302
 20
5.0425597738
 30
0.0
 10
4.5909961596
 20
5.0413423254
 30
0.0
 10
4.5906739849
 20
5.0397461956
 30
0.0
 10
4.5903034632
 20
5.0381608769
 30
0.0
 10
4.5897664379
 20
5.0361965881
 30
0.0
 10
4.5892801463
 20
5.0346416911
 30
0.0
 10
4.5890284288
 20
5.0338669846
 30
0.0
  0
SPLINE
  5
4DC
100
AcDbEntity
  8
ALL_ASSEMBLY_MEMBERS
100
AcDbSpline
 62
7
  6
CONTINUOUS
 70
0
 71
3
 72
11
 73
7
 74
0
 42
0.0000001
 43
0.0000001
 44
0.0000000001
 40
0.0
 40
0.0
 40
0.0
 40
0.0
 40
0.2497774743
 40
0.499649485
 40
0.7496873409
 40
1.0
 40
1.0
 40
1.0
 40
1.0
 10
4.5795601767
 20
4.5744093922
 30
0.0
 10
4.576432341
 20
4.5726035354
 30
0.0
 10
4.5699950063
 20
4.5692900656
 30
0.0
 10
4.5598296943
 20
4.5654482181
 30
0.0
 10
4.5492372842
 20
4.5629597612
 30
0.0
 10
4.5419999103
 20
4.5623226923
 30
0.0
 10
4.5383808268
 20
4.5622710323
 30
0.0
  0
SPLINE
  5
4DD
100
AcDbEntity
  8
ALL_ASSEMBLY_MEMBERS
100
AcDbSpline
 62
7
  6
CONTINUOUS
 70
0
 71
3
 72
12
 73
8
 74
0
 42
0.0000001
 43
0.0000001
 44
0.0000000001
 40
0.0
 40
0.0
 40
0.0
 40
0.0
 40
0.2487246999
 40
0.4981504449
 40
0.7484465483
 40
0.8741058868
 40
1.0
 40
1.0
 40
1.0
 40
1.0
 10
4.5383808268
 20
4.5622710323
 30
0.0
 10
4.5361719376
 20
4.5622395018
 30
0.0
 10
4.5317347235
 20
4.5624630382
 30
0.0
 10
4.5252079489
 20
4.5639124185
 30
0.0
 10
4.5201125235
 20
4.5662515995
 30
0.0
 10
4.5164388758
 20
4.5687905556
 30
0.0
 10
4.514756152
 20
4.5702691551
 30
0.0
 10
4.5139572585
 20
4.5710514947
 30
0.0
  0
SPLINE
  5
4DE
100
AcDbEntity
  8
ALL_ASSEMBLY_MEMBERS
100
AcDbSpline
 62
7
  6
CONTINUOUS
 70
0
 71
3
 72
9
 73
5
 74
0
 42
0.0000001
 43
0.0000001
 44
0.0000000001
 40
0.0
 40
0.0
 40
0.0
 40
0.0
 40
0.4998803358
 40
1.0
 40
1.0
 40
1.0
 40
1.0
 10
4.5139572585
 20
4.5710514947
 30
0.0
 10
4.5128882109
 20
4.5720983905
 30
0.0
 10
4.510901731
 20
4.5743527147
 30
0.0
 10
4.5092306527
 20
4.5768456702
 30
0.0
 10
4.5084676221
 20
4.5781336075
 30
0.0
  0
SPLINE
  5
4DF
100
AcDbEntity
  8
ALL_ASSEMBLY_MEMBERS
100
AcDbSpline
 62
7
  6
CONTINUOUS
 70
0
 71
3
 72
15
 73
11
 74
0
 42
0.0000001
 43
0.0000001
 44
0.0000000001
 40
0.0
 40
0.0
 40
0.0
 40
0.0
 40
0.1242927224
 40
0.1867938511
 40
0.2491323784
 40
0.3738770533
 40
0.4987960722
 40
0.6239190566
 40
0.749188961
 40
1.0
 40
1.0
 40
1.0
 40
1.0
 10
5.8386422458
 20
5.1070464153
 30
0.0
 10
5.8372882757
 20
5.1066836201
 30
0.0
 10
5.8353304582
 20
5.1058149657
 30
0.0
 10
5.8330096522
 20
5.1042264872
 30
0.0
 10
5.8308718471
 20
5.1023869284
 30
0.0
 10
5.8285385244
 20
5.0997324115
 30
0.0
 10
5.8261651672
 20
5.0962263841
 30
0.0
 10
5.8241294217
 20
5.0925098123
 30
0.0
 10
5.8217702261
 20
5.0873699477
 30
0.0
 10
5.820317117
 20
5.083377179
 30
0.0
 10
5.8194438491
 20
5.0806867913
 30
0.0
  0
LINE
  5
4E0
100
AcDbEntity
  8
ALL_ASSEMBLY_MEMBERS
100
AcDbLine
 62
7
  6
CONTINUOUS
 10
4.6037957001
 20
5.0793159722
 11
4.6012675873
 21
5.0731651976
  0
SPLINE
  5
4E1
100
AcDbEntity
  8
ALL_ASSEMBLY_MEMBERS
100
AcDbSpline
 62
7
  6
CONTINUOUS
 70
0
 71
3
 72
11
 73
7
 74
0
 42
0.0000001
 43
0.0000001
 44
0.0000000001
 40
0.0
 40
0.0
 40
0.0
 40
0.0
 40
0.2487672996
 40
0.4979532237
 40
0.7494205411
 40
1.0
 40
1.0
 40
1.0
 40
1.0
 10
4.6012675873
 20
5.0731651976
 30
0.0
 10
4.6010528121
 20
5.0727142379
 30
0.0
 10
4.6006092144
 20
5.07181797
 30
0.0
 10
4.5998642936
 20
5.0705084889
 30
0.0
 10
4.5990211645
 20
5.0692585992
 30
0.0
 10
4.5983552641
 20
5.0684876837
 30
0.0
 10
4.5979674432
 20
5.0681671589
 30
0.0
  0
LINE
  5
4E2
100
AcDbEntity
  8
ALL_ASSEMBLY_MEMBERS
100
AcDbLine
 62
7
  6
CONTINUOUS
 10
4.5979674432
 20
5.0681671589
 11
4.5974427301
 21
5.0677985621
  0
SPLINE
  5
4E3
100
AcDbEntity
  8
ALL_ASSEMBLY_MEMBERS
100
AcDbSpline
 62
7
  6
CONTINUOUS
 70
0
 71
3
 72
9
 73
5
 74
0
 42
0.0000001
 43
0.0000001
 44
0.0000000001
 40
0.0
 40
0.0
 40
0.0
 40
0.0
 40
0.5005721628
 40
1.0
 40
1.0
 40
1.0
 40
1.0
 10
5.8349902803
 20
5.0711831672
 30
0.0
 10
5.8369779873
 20
5.0706939474
 30
0.0
 10
5.84110111
 20
5.0702557839
 30
0.0
 10
5.8451845094
 20
5.0708898793
 30
0.0
 10
5.8471572645
 20
5.0714184774
 30
0.0
  0
SPLINE
  5
4E4
100
AcDbEntity
  8
ALL_ASSEMBLY_MEMBERS
100
AcDbSpline
 62
7
  6
CONTINUOUS
 70
0
 71
3
 72
9
 73
5
 74
0
 42
0.0000001
 43
0.0000001
 44
0.0000000001
 40
0.0
 40
0.0
 40
0.0
 40
0.0
 40
0.5003527837
 40
1.0
 40
1.0
 40
1.0
 40
1.0
 10
5.8194438491
 20
5.0806867913
 30
0.0
 10
5.8208008132
 20
5.0795432794
 30
0.0
 10
5.8235675333
 20
5.0773221233
 30
0.0
 10
5.8264836106
 20
5.075293147
 30
0.0
 10
5.8279934699
 20
5.0743655579
 30
0.0
  0
SPLINE
  5
4E5
100
AcDbEntity
  8
ALL_ASSEMBLY_MEMBERS
100
AcDbSpline
 62
7
  6
CONTINUOUS
 70
0
 71
3
 72
9
 73
5
 74
0
 42
0.0000001
 43
0.0000001
 44
0.0000000001
 40
0.0
 40
0.0
 40
0.0
 40
0.0
 40
0.500710494
 40
1.0
 40
1.0
 40
1.0
 40
1.0
 10
5.8279934699
 20
5.0743655579
 30
0.0
 10
5.829089574
 20
5.0736921612
 30
0.0
 10
5.8313340754
 20
5.072437632
 30
0.0
 10
5.8337446717
 20
5.0714897398
 30
0.0
 10
5.8349902803
 20
5.0711831672
 30
0.0
  0
SPLINE
  5
4E6
100
AcDbEntity
  8
ALL_ASSEMBLY_MEMBERS
100
AcDbSpline
 62
7
  6
CONTINUOUS
 70
0
 71
3
 72
9
 73
5
 74
0
 42
0.0000001
 43
0.0000001
 44
0.0000000001
 40
0.0
 40
0.0
 40
0.0
 40
0.0
 40
0.2480486614
 40
1.0
 40
1.0
 40
1.0
 40
1.0
 10
4.5644366254
 20
4.9643230443
 30
0.0
 10
4.5645018461
 20
4.9641316615
 30
0.0
 10
4.5647091431
 20
4.9633405151
 30
0.0
 10
4.5647285158
 20
4.9625141322
 30
0.0
 10
4.5647053929
 20
4.9619016336
 30
0.0
  0
SPLINE
  5
4E7
100
AcDbEntity
  8
ALL_ASSEMBLY_MEMBERS
100
AcDbSpline
 62
7
  6
CONTINUOUS
 70
0
 71
3
 72
12
 73
8
 74
0
 42
0.0000001
 43
0.0000001
 44
0.0000000001
 40
0.0
 40
0.0
 40
0.0
 40
0.0
 40
0.2502422279
 40
0.375054398
 40
0.4999392556
 40
0.7499351487
 40
1.0
 40
1.0
 40
1.0
 40
1.0
 10
4.5647053929
 20
4.9619016336
 30
0.0
 10
4.5646746413
 20
4.9610870611
 30
0.0
 10
4.5645240707
 20
4.9598696122
 30
0.0
 10
4.5642018956
 20
4.9582734817
 30
0.0
 10
4.5638313736
 20
4.9566881624
 30
0.0
 10
4.5632943481
 20
4.9547238728
 30
0.0
 10
4.5628080562
 20
4.9531689753
 30
0.0
 10
4.5625563387
 20
4.9523942684
 30
0.0
  0
LINE
  5
4E8
100
AcDbEntity
  8
ALL_ASSEMBLY_MEMBERS
100
AcDbLine
 62
7
  6
CONTINUOUS
 10
4.5773236121
 20
4.9978432628
 11
4.5747954992
 21
4.9916924874
  0
SPLINE
  5
4E9
100
AcDbEntity
  8
ALL_ASSEMBLY_MEMBERS
100
AcDbSpline
 62
7
  6
CONTINUOUS
 70
0
 71
3
 72
11
 73
7
 74
0
 42
0.0000001
 43
0.0000001
 44
0.0000000001
 40
0.0
 40
0.0
 40
0.0
 40
0.0
 40
0.2487673278
 40
0.4979532652
 40
0.7494205558
 40
1.0
 40
1.0
 40
1.0
 40
1.0
 10
4.5747954992
 20
4.9916924874
 30
0.0
 10
4.5745807238
 20
4.9912415275
 30
0.0
 10
4.5741371259
 20
4.9903452592
 30
0.0
 10
4.5733922045
 20
4.9890357778
 30
0.0
 10
4.5725490744
 20
4.987785888
 30
0.0
 10
4.5718831732
 20
4.987014973
 30
0.0
 10
4.5714953524
 20
4.9866944479
 30
0.0
  0
LINE
  5
4EA
100
AcDbEntity
  8
ALL_ASSEMBLY_MEMBERS
100
AcDbLine
 62
7
  6
CONTINUOUS
 10
4.5714953524
 20
4.9866944479
 11
4.5709706379
 21
4.9863258494
  0
SPLINE
  5
4EB
100
AcDbEntity
  8
ALL_ASSEMBLY_MEMBERS
100
AcDbSpline
 62
7
  6
CONTINUOUS
 70
0
 71
3
 72
12
 73
8
 74
0
 42
0.0000001
 43
0.0000001
 44
0.0000000001
 40
0.0
 40
0.0
 40
0.0
 40
0.0
 40
0.251115713
 40
0.3765838497
 40
0.5016560562
 40
0.7510765224
 40
1.0
 40
1.0
 40
1.0
 40
1.0
 10
5.7660823036
 20
5.0519531309
 30
0.0
 10
5.7671186026
 20
5.0512903041
 30
0.0
 10
5.7688054941
 20
5.0504849877
 30
0.0
 10
5.7711834584
 20
5.0498480033
 30
0.0
 10
5.7736139889
 20
5.0495044857
 30
0.0
 10
5.776688458
 20
5.0495718505
 30
0.0
 10
5.7790926408
 20
5.0500504684
 30
0.0
 10
5.7802704957
 20
5.0503660737
 30
0.0
  0
SPLINE
  5
4EC
100
AcDbEntity
  8
ALL_ASSEMBLY_MEMBERS
100
AcDbSpline
 62
7
  6
CONTINUOUS
 70
0
 71
3
 72
12
 73
8
 74
0
 42
0.0000001
 43
0.0000001
 44
0.0000000001
 40
0.0
 40
0.0
 40
0.0
 40
0.0
 40
0.2503412301
 40
0.5006738051
 40
0.625817694
 40
0.7508831025
 40
1.0
 40
1.0
 40
1.0
 40
1.0
 10
5.7580240635
 20
5.0634438998
 30
0.0
 10
5.7583368166
 20
5.0622870384
 30
0.0
 10
5.7591177963
 20
5.0600102583
 30
0.0
 10
5.7605672411
 20
5.0573673935
 30
0.0
 10
5.7620175369
 20
5.0554549907
 30
0.0
 10
5.7636555561
 20
5.0537096806
 30
0.0
 10
5.7650776909
 20
5.0525956908
 30
0.0
 10
5.7660823036
 20
5.0519531309
 30
0.0
  0
SPLINE
  5
4ED
100
AcDbEntity
  8
ALL_ASSEMBLY_MEMBERS
100
AcDbSpline
 62
7
  6
CONTINUOUS
 70
0
 71
3
 72
11
 73
7
 74
0
 42
0.0000001
 43
0.0000001
 44
0.0000000001
 40
0.0
 40
0.0
 40
0.0
 40
0.0
 40
0.2488570824
 40
0.4985608347
 40
0.7490419651
 40
1.0
 40
1.0
 40
1.0
 40
1.0
 10
5.7602609925
 20
5.081695333
 30
0.0
 10
5.7594926892
 20
5.0803322173
 30
0.0
 10
5.7581779132
 20
5.0774638465
 30
0.0
 10
5.7571006017
 20
5.0728432901
 30
0.0
 10
5.7570333604
 20
5.0680864318
 30
0.0
 10
5.7576122573
 20
5.0649671545
 30
0.0
 10
5.7580240635
 20
5.0634438998
 30
0.0
  0
SPLINE
  5
4EE
100
AcDbEntity
  8
ALL_ASSEMBLY_MEMBERS
100
AcDbSpline
 62
7
  6
CONTINUOUS
 70
0
 71
3
 72
13
 73
9
 74
0
 42
0.0000001
 43
0.0000001
 44
0.0000000001
 40
0.0
 40
0.0
 40
0.0
 40
0.0
 40
0.2492003862
 40
0.3740418138
 40
0.498988074
 40
0.6240664003
 40
0.7493172038
 40
1.0
 40
1.0
 40
1.0
 40
1.0
 10
5.7744596065
 20
5.0927180247
 30
0.0
 10
5.7729772836
 20
5.0923208375
 30
0.0
 10
5.7707940746
 20
5.0915327827
 30
0.0
 10
5.7680911328
 20
5.0900614875
 30
0.0
 10
5.7661904552
 20
5.0887432518
 30
0.0
 10
5.7644382012
 20
5.0872293735
 30
0.0
 10
5.7623324944
 20
5.0849680447
 30
0.0
 10
5.7610189916
 20
5.0830401669
 30
0.0
 10
5.7602609925
 20
5.081695333
 30
0.0
  0
SPLINE
  5
4EF
100
AcDbEntity
  8
ALL_ASSEMBLY_MEMBERS
100
AcDbSpline
 62
7
  6
CONTINUOUS
 70
0
 71
3
 72
12
 73
8
 74
0
 42
0.0000001
 43
0.0000001
 44
0.0000000001
 40
0.0
 40
0.0
 40
0.0
 40
0.0
 40
0.1250332566
 40
0.2500378169
 40
0.4999611317
 40
0.7499497599
 40
1.0
 40
1.0
 40
1.0
 40
1.0
 10
5.2789380461
 20
5.4923100848
 30
0.0
 10
5.2795013243
 20
5.4938899347
 30
0.0
 10
5.2804685249
 20
5.4971069838
 30
0.0
 10
5.2819261011
 20
5.5036571146
 30
0.0
 10
5.2830732899
 20
5.5119741204
 30
0.0
 10
5.2837558285
 20
5.5220155635
 30
0.0
 10
5.2838801185
 20
5.5287247207
 30
0.0
 10
5.2838801185
 20
5.5320790267
 30
0.0
  0
SPLINE
  5
4F0
100
AcDbEntity
  8
ALL_ASSEMBLY_MEMBERS
100
AcDbSpline
 62
7
  6
CONTINUOUS
 70
0
 71
3
 72
12
 73
8
 74
0
 42
0.0000001
 43
0.0000001
 44
0.0000000001
 40
0.0
 40
0.0
 40
0.0
 40
0.0
 40
0.2517770562
 40
0.3776506181
 40
0.5031159712
 40
0.7519091192
 40
1.0
 40
1.0
 40
1.0
 40
1.0
 10
5.2623797642
 20
5.4786142226
 30
0.0
 10
5.2643151877
 20
5.4786049752
 30
0.0
 10
5.2672726667
 20
5.4790356598
 30
0.0
 10
5.2707614365
 20
5.4807590577
 30
0.0
 10
5.2738350712
 20
5.4831080582
 30
0.0
 10
5.276753902
 20
5.4870002222
 30
0.0
 10
5.2782975778
 20
5.4905137367
 30
0.0
 10
5.2789380461
 20
5.4923100848
 30
0.0
  0
SPLINE
  5
4F1
100
AcDbEntity
  8
ALL_ASSEMBLY_MEMBERS
100
AcDbSpline
 62
7
  6
CONTINUOUS
 70
0
 71
3
 72
9
 73
5
 74
0
 42
0.0000001
 43
0.0000001
 44
0.0000000001
 40
0.0
 40
0.0
 40
0.0
 40
0.0
 40
0.25044448
 40
1.0
 40
1.0
 40
1.0
 40
1.0
 10
5.257267741
 20
5.4794488898
 30
0.0
 10
5.2576780734
 20
5.4793090739
 30
0.0
 10
5.2593410031
 20
5.4788240653
 30
0.0
 10
5.2610823602
 20
5.4786204215
 30
0.0
 10
5.2623797642
 20
5.4786142226
 30
0.0
  0
SPLINE
  5
4F2
100
AcDbEntity
  8
ALL_ASSEMBLY_MEMBERS
100
AcDbSpline
 62
7
  6
CONTINUOUS
 70
0
 71
3
 72
12
 73
8
 74
0
 42
0.0000001
 43
0.0000001
 44
0.0000000001
 40
0.0
 40
0.0
 40
0.0
 40
0.0
 40
0.1250332566
 40
0.2500378169
 40
0.4999611317
 40
0.7499497599
 40
1.0
 40
1.0
 40
1.0
 40
1.0
 10
4.5846088318
 20
4.6422179062
 30
0.0
 10
4.5829590026
 20
4.6419157945
 30
0.0
 10
4.5796893561
 20
4.6411448902
 30
0.0
 10
4.5732879883
 20
4.6391321229
 30
0.0
 10
4.5655116556
 20
4.6359671146
 30
0.0
 10
4.5564742414
 20
4.6315374889
 30
0.0
 10
4.5506017959
 20
4.6282905485
 30
0.0
 10
4.5476968817
 20
4.6266133956
 30
0.0
  0
SPLINE
  5
4F3
100
AcDbEntity
  8
ALL_ASSEMBLY_MEMBERS
100
AcDbSpline
 62
7
  6
CONTINUOUS
 70
0
 71
3
 72
12
 73
8
 74
0
 42
0.0000001
 43
0.0000001
 44
0.0000000001
 40
0.0
 40
0.0
 40
0.0
 40
0.0
 40
0.2517770562
 40
0.3776506181
 40
0.5031159712
 40
0.7519091192
 40
1.0
 40
1.0
 40
1.0
 40
1.0
 10
4.6047489374
 20
4.6347259446
 30
0.0
 10
4.6037892342
 20
4.6364066942
 30
0.0
 10
4.6019375108
 20
4.6387526038
 30
0.0
 10
4.5987006196
 20
4.6409122681
 30
0.0
 10
4.5951295081
 20
4.6423996136
 30
0.0
 10
4.5902993798
 20
4.6429813132
 30
0.0
 10
4.5864847491
 20
4.6425614184
 30
0.0
 10
4.5846088318
 20
4.6422179062
 30
0.0
  0
SPLINE
  5
4F4
100
AcDbEntity
  8
ALL_ASSEMBLY_MEMBERS
100
AcDbSpline
 62
7
  6
CONTINUOUS
 70
0
 71
3
 72
11
 73
7
 74
0
 42
0.0000001
 43
0.0000001
 44
0.0000000001
 40
0.0
 40
0.0
 40
0.0
 40
0.0
 40
0.2489226745
 40
0.4985513515
 40
0.7488848939
 40
1.0
 40
1.0
 40
1.0
 40
1.0
 10
4.602528506
 20
4.6143780849
 30
0.0
 10
4.6031160907
 20
4.6152761145
 30
0.0
 10
4.6042210308
 20
4.6171238441
 30
0.0
 10
4.6055805346
 20
4.6200603277
 30
0.0
 10
4.6065477098
 20
4.6231625795
 30
0.0
 10
4.6068293598
 20
4.6253215235
 30
0.0
 10
4.6068617283
 20
4.6264036706
 30
0.0
  0
SPLINE
  5
4F5
100
AcDbEntity
  8
ALL_ASSEMBLY_MEMBERS
100
AcDbSpline
 62
7
  6
CONTINUOUS
 70
0
 71
3
 72
11
 73
7
 74
0
 42
0.0000001
 43
0.0000001
 44
0.0000000001
 40
0.0
 40
0.0
 40
0.0
 40
0.0
 40
0.2497169053
 40
0.4996910003
 40
0.7501133444
 40
1.0
 40
1.0
 40
1.0
 40
1.0
 10
4.6068617283
 20
4.6264036706
 30
0.0
 10
4.6068833593
 20
4.6271268413
 30
0.0
 10
4.6068323384
 20
4.6285789951
 30
0.0
 10
4.6064441589
 20
4.6307251559
 30
0.0
 10
4.6057482023
 20
4.6327917203
 30
0.0
 10
4.6051079306
 20
4.634097232
 30
0.0
 10
4.6047489374
 20
4.6347259446
 30
0.0
  0
SPLINE
  5
4F6
100
AcDbEntity
  8
ALL_ASSEMBLY_MEMBERS
100
AcDbSpline
 62
7
  6
CONTINUOUS
 70
0
 71
3
 72
13
 73
9
 74
0
 42
0.0000001
 43
0.0000001
 44
0.0000000001
 40
0.0
 40
0.0
 40
0.0
 40
0.0
 40
0.2497628008
 40
0.4995702163
 40
0.6245329747
 40
0.7495554827
 40
0.8746729786
 40
1.0
 40
1.0
 40
1.0
 40
1.0
 10
4.5677894348
 20
4.5873001761
 30
0.0
 10
4.5709873448
 20
4.5891464903
 30
0.0
 10
4.5773229394
 20
4.5929459406
 30
0.0
 10
4.5850142606
 20
4.598066724
 30
0.0
 10
4.5909224068
 20
4.6025079669
 30
0.0
 10
4.5951787326
 20
4.6060695346
 30
0.0
 10
4.5991626336
 20
4.6099417037
 30
0.0
 10
4.6015140086
 20
4.6128275873
 30
0.0
 10
4.602528506
 20
4.6143780849
 30
0.0
  0
SPLINE
  5
4F7
100
AcDbEntity
  8
ALL_ASSEMBLY_MEMBERS
100
AcDbSpline
 62
7
  6
CONTINUOUS
 70
0
 71
3
 72
9
 73
5
 74
0
 42
0.0000001
 43
0.0000001
 44
0.0000000001
 40
0.0
 40
0.0
 40
0.0
 40
0.0
 40
0.2495659361
 40
1.0
 40
1.0
 40
1.0
 40
1.0
 10
5.6546164614
 20
4.4662164522
 30
0.0
 10
5.6544672487
 20
4.4667577523
 30
0.0
 10
5.6539297787
 20
4.4689419666
 30
0.0
 10
5.6536627586
 20
4.4712003446
 30
0.0
 10
5.6536743483
 20
4.4728886789
 30
0.0
  0
SPLINE
  5
4F8
100
AcDbEntity
  8
ALL_ASSEMBLY_MEMBERS
100
AcDbSpline
 62
7
  6
CONTINUOUS
 70
0
 71
3
 72
9
 73
5
 74
0
 42
0.0000001
 43
0.0000001
 44
0.0000000001
 40
0.0
 40
0.0
 40
0.0
 40
0.0
 40
0.4992558391
 40
1.0
 40
1.0
 40
1.0
 40
1.0
 10
5.6536743483
 20
4.4728886789
 30
0.0
 10
5.653687205
 20
4.47476159
 30
0.0
 10
5.6542357107
 20
4.4785399919
 30
0.0
 10
5.6559616648
 20
4.4819488668
 30
0.0
 10
5.6570391503
 20
4.4834876755
 30
0.0
  0
SPLINE
  5
4F9
100
AcDbEntity
  8
ALL_ASSEMBLY_MEMBERS
100
AcDbSpline
 62
7
  6
CONTINUOUS
 70
0
 71
3
 72
13
 73
9
 74
0
 42
0.0000001
 43
0.0000001
 44
0.0000000001
 40
0.0
 40
0.0
 40
0.0
 40
0.0
 40
0.1261982345
 40
0.251862487
 40
0.3770657699
 40
0.5019777977
 40
0.7510912298
 40
1.0
 40
1.0
 40
1.0
 40
1.0
 10
5.0805505795
 20
5.4803722732
 30
0.0
 10
5.0810410248
 20
5.4806159576
 30
0.0
 10
5.0819484096
 20
5.4812595298
 30
0.0
 10
5.0829840906
 20
5.4825451157
 30
0.0
 10
5.0837370821
 20
5.4840002228
 30
0.0
 10
5.0844536511
 20
5.4860497823
 30
0.0
 10
5.0849612047
 20
5.4887172484
 30
0.0
 10
5.0851264583
 20
5.4908742848
 30
0.0
 10
5.0851697942
 20
5.4919535765
 30
0.0
  0
SPLINE
  5
4FA
100
AcDbEntity
  8
ALL_ASSEMBLY_MEMBERS
100
AcDbSpline
 62
7
  6
CONTINUOUS
 70
0
 71
3
 72
12
 73
8
 74
0
 42
0.0000001
 43
0.0000001
 44
0.0000000001
 40
0.0
 40
0.0
 40
0.0
 40
0.0
 40
0.2499319212
 40
0.4999033346
 40
0.7499351531
 40
0.8749074302
 40
1.0
 40
1.0
 40
1.0
 40
1.0
 10
5.0686245989
 20
5.4784051953
 30
0.0
 10
5.0695007709
 20
5.4784105
 30
0.0
 10
5.0712533531
 20
5.4784435681
 30
0.0
 10
5.0738787723
 20
5.4785916217
 30
0.0
 10
5.0760581664
 20
5.4788443461
 30
0.0
 10
5.0777783173
 20
5.4791881943
 30
0.0
 10
5.0786220164
 20
5.4794343871
 30
0.0
 10
5.0790336464
 20
5.479585636
 30
0.0
  0
LINE
  5
4FB
100
AcDbEntity
  8
ALL_ASSEMBLY_MEMBERS
100
AcDbLine
 62
7
  6
CONTINUOUS
 10
5.0790336464
 20
5.479585636
 11
5.0805505795
 21
5.4803722732
  0
SPLINE
  5
4FC
100
AcDbEntity
  8
ALL_ASSEMBLY_MEMBERS
100
AcDbSpline
 62
7
  6
CONTINUOUS
 70
0
 71
3
 72
11
 73
7
 74
0
 42
0.0000001
 43
0.0000001
 44
0.0000000001
 40
0.0
 40
0.0
 40
0.0
 40
0.0
 40
0.2504402171
 40
0.5007219418
 40
0.7506273355
 40
1.0
 40
1.0
 40
1.0
 40
1.0
 10
5.6570391503
 20
4.4834876755
 30
0.0
 10
5.6575544284
 20
4.4842235689
 30
0.0
 10
5.6586829831
 20
4.4856296734
 30
0.0
 10
5.660667822
 20
4.4874645067
 30
0.0
 10
5.6629100489
 20
4.4889672906
 30
0.0
 10
5.6645362911
 20
4.4897341888
 30
0.0
 10
5.6653690302
 20
4.4900608849
 30
0.0
  0
LINE
  5
4FD
100
AcDbEntity
  8
ALL_ASSEMBLY_MEMBERS
100
AcDbLine
 62
7
  6
CONTINUOUS
 10
5.6653690302
 20
4.4900608849
 11
5.6737357572
 21
4.4935399594
  0
SPLINE
  5
4FE
100
AcDbEntity
  8
ALL_ASSEMBLY_MEMBERS
100
AcDbSpline
 62
7
  6
CONTINUOUS
 70
0
 71
3
 72
10
 73
6
 74
0
 42
0.0000001
 43
0.0000001
 44
0.0000000001
 40
0.0
 40
0.0
 40
0.0
 40
0.0
 40
0.2876765656
 40
0.5473526881
 40
1.0
 40
1.0
 40
1.0
 40
1.0
 10
5.6737357572
 20
4.4935399594
 30
0.0
 10
5.6744581419
 20
4.4938842278
 30
0.0
 10
5.6758087572
 20
4.4945947703
 30
0.0
 10
5.6781253994
 20
4.4961351801
 30
0.0
 10
5.6795747003
 20
4.4975444895
 30
0.0
 10
5.6802969028
 20
4.4985759015
 30
0.0
  0
SPLINE
  5
4FF
100
AcDbEntity
  8
ALL_ASSEMBLY_MEMBERS
100
AcDbSpline
 62
7
  6
CONTINUOUS
 70
0
 71
3
 72
11
 73
7
 74
0
 42
0.0000001
 43
0.0000001
 44
0.0000000001
 40
0.0
 40
0.0
 40
0.0
 40
0.0
 40
0.2870410772
 40
0.5435909377
 40
0.7778844208
 40
1.0
 40
1.0
 40
1.0
 40
1.0
 10
5.6802969028
 20
4.4985759015
 30
0.0
 10
5.6806711195
 20
4.4991103383
 30
0.0
 10
5.6813113165
 20
4.5001744266
 30
0.0
 10
5.6819415843
 20
4.5018383518
 30
0.0
 10
5.6821826319
 20
4.5034546831
 30
0.0
 10
5.6820813801
 20
4.5044999721
 30
0.0
 10
5.6819689743
 20
4.5049921547
 30
0.0
  0
LINE
  5
500
100
AcDbEntity
  8
ALL_ASSEMBLY_MEMBERS
100
AcDbLine
 62
7
  6
CONTINUOUS
 10
5.0785901519
 20
5.57917377
 11
5.0998673043
 21
5.5903241809
  0
SPLINE
  5
501
100
AcDbEntity
  8
ALL_ASSEMBLY_MEMBERS
100
AcDbSpline
 62
7
  6
CONTINUOUS
 70
0
 71
3
 72
14
 73
10
 74
0
 42
0.0000001
 43
0.0000001
 44
0.0000000001
 40
0.0
 40
0.0
 40
0.0
 40
0.0
 40
0.0988237932
 40
0.2028343866
 40
0.3134426965
 40
0.4318312366
 40
0.5589724214
 40
0.6956583635
 40
1.0
 40
1.0
 40
1.0
 40
1.0
 10
5.6951667126
 20
4.4264422806
 30
0.0
 10
5.696552593
 20
4.4266228862
 30
0.0
 10
5.69937417
 20
4.4271911059
 30
0.0
 10
5.7035865825
 20
4.4286019127
 30
0.0
 10
5.7078670616
 20
4.4305865535
 30
0.0
 10
5.7122141432
 20
4.4331437962
 30
0.0
 10
5.7166284399
 20
4.436273553
 30
0.0
 10
5.7228260568
 20
4.4413962397
 30
0.0
 10
5.7272301916
 20
4.4458384117
 30
0.0
 10
5.7301209292
 20
4.4490272858
 30
0.0
  0
LINE
  5
502
100
AcDbEntity
  8
ALL_ASSEMBLY_MEMBERS
100
AcDbLine
 62
7
  6
CONTINUOUS
 10
4.7473300492
 20
5.4268652388
 11
4.7573129931
 21
5.4343879266
  0
SPLINE
  5
503
100
AcDbEntity
  8
ALL_ASSEMBLY_MEMBERS
100
AcDbSpline
 62
7
  6
CONTINUOUS
 70
0
 71
3
 72
13
 73
9
 74
0
 42
0.0000001
 43
0.0000001
 44
0.0000000001
 40
0.0
 40
0.0
 40
0.0
 40
0.0
 40
0.1261982345
 40
0.251862487
 40
0.3770657699
 40
0.5019777977
 40
0.7510912298
 40
1.0
 40
1.0
 40
1.0
 40
1.0
 10
4.5638007777
 20
4.9645296438
 30
0.0
 10
4.5637205759
 20
4.9650713876
 30
0.0
 10
4.5633888997
 20
4.9661332365
 30
0.0
 10
4.5624862779
 20
4.9675154956
 30
0.0
 10
4.561335076
 20
4.9686812859
 30
0.0
 10
4.5596072611
 20
4.9699961323
 30
0.0
 10
4.5572271928
 20
4.9713031368
 30
0.0
 10
4.5552267954
 20
4.9721268632
 30
0.0
 10
4.5542137195
 20
4.9725015975
 30
0.0
  0
SPLINE
  5
504
100
AcDbEntity
  8
ALL_ASSEMBLY_MEMBERS
100
AcDbSpline
 62
7
  6
CONTINUOUS
 70
0
 71
3
 72
12
 73
8
 74
0
 42
0.0000001
 43
0.0000001
 44
0.0000000001
 40
0.0
 40
0.0
 40
0.0
 40
0.0
 40
0.2499530869
 40
0.4999472256
 40
0.750003709
 40
0.8750315361
 40
1.0
 40
1.0
 40
1.0
 40
1.0
 10
4.5619862492
 20
4.9525795017
 30
0.0
 10
4.562236656
 20
4.9533663525
 30
0.0
 10
4.5627185765
 20
4.9549464076
 30
0.0
 10
4.5633588461
 20
4.9573403845
 30
0.0
 10
4.5637878857
 20
4.9593625233
 30
0.0
 10
4.5640166822
 20
4.9609991546
 30
0.0
 10
4.5640772403
 20
4.9618240618
 30
0.0
 10
4.5640852861
 20
4.962236824
 30
0.0
  0
LINE
  5
505
100
AcDbEntity
  8
ALL_ASSEMBLY_MEMBERS
100
AcDbLine
 62
7
  6
CONTINUOUS
 10
4.5640852861
 20
4.962236824
 11
4.5638007777
 21
4.9645296438
  0
SPLINE
  5
506
100
AcDbEntity
  8
ALL_ASSEMBLY_MEMBERS
100
AcDbSpline
 62
7
  6
CONTINUOUS
 70
0
 71
3
 72
9
 73
5
 74
0
 42
0.0000001
 43
0.0000001
 44
0.0000000001
 40
0.0
 40
0.0
 40
0.0
 40
0.0
 40
0.249987936
 40
1.0
 40
1.0
 40
1.0
 40
1.0
 10
4.6007665298
 20
4.6402489448
 30
0.0
 10
4.6012408436
 20
4.6399163079
 30
0.0
 10
4.6030508995
 20
4.6384621679
 30
0.0
 10
4.6045085681
 20
4.6365941476
 30
0.0
 10
4.605377616
 20
4.6350889124
 30
0.0
  0
SPLINE
  5
507
100
AcDbEntity
  8
ALL_ASSEMBLY_MEMBERS
100
AcDbSpline
 62
7
  6
CONTINUOUS
 70
0
 71
3
 72
10
 73
6
 74
0
 42
0.0000001
 43
0.0000001
 44
0.0000000001
 40
0.0
 40
0.0
 40
0.0
 40
0.0
 40
0.5009991617
 40
0.750803546
 40
1.0
 40
1.0
 40
1.0
 40
1.0
 10
4.6063190139
 20
4.6331895625
 30
0.0
 10
4.6067198568
 20
4.6322319879
 30
0.0
 10
4.6071881572
 20
4.6307343196
 30
0.0
 10
4.6074919613
 20
4.6286818254
 30
0.0
 10
4.6075333811
 20
4.6276464124
 30
0.0
 10
4.6075291783
 20
4.6271300863
 30
0.0
  0
SPLINE
  5
508
100
AcDbEntity
  8
ALL_ASSEMBLY_MEMBERS
100
AcDbSpline
 62
7
  6
CONTINUOUS
 70
0
 71
3
 72
13
 73
9
 74
0
 42
0.0000001
 43
0.0000001
 44
0.0000000001
 40
0.0
 40
0.0
 40
0.0
 40
0.0
 40
0.1243788029
 40
0.2491717612
 40
0.374213372
 40
0.4993132606
 40
0.7496076731
 40
1.0
 40
1.0
 40
1.0
 40
1.0
 10
4.5702307736
 20
4.9865662459
 30
0.0
 10
4.5707066594
 20
4.9868449223
 30
0.0
 10
4.5715108466
 20
4.9876398223
 30
0.0
 10
4.5724661886
 20
4.9889935361
 30
0.0
 10
4.5732951034
 20
4.9904380236
 30
0.0
 10
4.574285817
 20
4.9924236938
 30
0.0
 10
4.5753782788
 20
4.9949765869
 30
0.0
 10
4.5761615405
 20
4.9970540904
 30
0.0
 10
4.576537867
 20
4.9980985668
 30
0.0
  0
SPLINE
  5
509
100
AcDbEntity
  8
ALL_ASSEMBLY_MEMBERS
100
AcDbSpline
 62
7
  6
CONTINUOUS
 70
0
 71
3
 72
12
 73
8
 74
0
 42
0.0000001
 43
0.0000001
 44
0.0000000001
 40
0.0
 40
0.0
 40
0.0
 40
0.0
 40
0.2494302583
 40
0.3742324542
 40
0.4990753595
 40
0.7493411782
 40
1.0
 40
1.0
 40
1.0
 40
1.0
 10
4.5586905355
 20
4.9865008685
 30
0.0
 10
4.5596272084
 20
4.986196525
 30
0.0
 10
4.5610576625
 20
4.9858089822
 30
0.0
 10
4.5630025039
 20
4.9854827934
 30
0.0
 10
4.5649702137
 20
4.9853033591
 30
0.0
 10
4.5674543833
 20
4.9854289286
 30
0.0
 10
4.5693767101
 20
4.9860661105
 30
0.0
 10
4.5702307736
 20
4.9865662459
 30
0.0
  0
LINE
  5
50A
100
AcDbEntity
  8
ALL_ASSEMBLY_MEMBERS
100
AcDbLine
 62
7
  6
CONTINUOUS
 10
4.4692291657
 20
4.9931965027
 11
4.4651994956
 21
5.0168779488
  0
SPLINE
  5
50B
100
AcDbEntity
  8
ALL_ASSEMBLY_MEMBERS
100
AcDbSpline
 62
7
  6
CONTINUOUS
 70
0
 71
3
 72
13
 73
9
 74
0
 42
0.0000001
 43
0.0000001
 44
0.0000000001
 40
0.0
 40
0.0
 40
0.0
 40
0.0
 40
0.1261334691
 40
0.251693392
 40
0.3768204226
 40
0.501703948
 40
0.7508898288
 40
1.0
 40
1.0
 40
1.0
 40
1.0
 10
4.5900270444
 20
5.0460823407
 30
0.0
 10
4.5899491783
 20
5.046623225
 30
0.0
 10
4.58962182
 20
5.0476838946
 30
0.0
 10
4.5887239211
 20
5.0490648658
 30
0.0
 10
4.5875764642
 20
5.0502293416
 30
0.0
 10
4.5858523477
 20
5.0515429244
 30
0.0
 10
4.5834754604
 20
5.0528487026
 30
0.0
 10
4.5814773118
 20
5.0536715889
 30
0.0
 10
4.5804651047
 20
5.0540460288
 30
0.0
  0
SPLINE
  5
50C
100
AcDbEntity
  8
ALL_ASSEMBLY_MEMBERS
100
AcDbSpline
 62
7
  6
CONTINUOUS
 70
0
 71
3
 72
12
 73
8
 74
0
 42
0.0000001
 43
0.0000001
 44
0.0000000001
 40
0.0
 40
0.0
 40
0.0
 40
0.0
 40
0.2500553523
 40
0.5001046564
 40
0.7501443745
 40
0.8751225684
 40
1.0
 40
1.0
 40
1.0
 40
1.0
 10
4.5881576524
 20
5.034149917
 30
0.0
 10
4.5884117945
 20
5.0349355438
 30
0.0
 10
4.5889011853
 20
5.0365130872
 30
0.0
 10
4.5895527252
 20
5.0389033757
 30
0.0
 10
4.5899912133
 20
5.040922525
 30
0.0
 10
4.5902275242
 20
5.0425568315
 30
0.0
 10
4.5902918186
 20
5.0433806306
 30
0.0
 10
4.5903016992
 20
5.0437928713
 30
0.0
  0
LINE
  5
50D
100
AcDbEntity
  8
ALL_ASSEMBLY_MEMBERS
100
AcDbLine
 62
7
  6
CONTINUOUS
 10
4.5903016992
 20
5.0437928713
 11
4.5900270444
 21
5.0460823407
  0
SPLINE
  5
50E
100
AcDbEntity
  8
ALL_ASSEMBLY_MEMBERS
100
AcDbSpline
 62
7
  6
CONTINUOUS
 70
0
 71
3
 72
9
 73
5
 74
0
 42
0.0000001
 43
0.0000001
 44
0.0000000001
 40
0.0
 40
0.0
 40
0.0
 40
0.0
 40
0.4889043226
 40
1.0
 40
1.0
 40
1.0
 40
1.0
 10
4.5048730658
 20
4.5894922142
 30
0.0
 10
4.5052050151
 20
4.5876965536
 30
0.0
 10
4.506228453
 20
4.5840805535
 30
0.0
 10
4.5078590226
 20
4.5806998749
 30
0.0
 10
4.5088135082
 20
4.5790466573
 30
0.0
  0
SPLINE
  5
50F
100
AcDbEntity
  8
ALL_ASSEMBLY_MEMBERS
100
AcDbSpline
 62
7
  6
CONTINUOUS
 70
0
 71
3
 72
13
 73
9
 74
0
 42
0.0000001
 43
0.0000001
 44
0.0000000001
 40
0.0
 40
0.0
 40
0.0
 40
0.0
 40
0.1245282808
 40
0.249395832
 40
0.3744615452
 40
0.499551342
 40
0.7497575217
 40
1.0
 40
1.0
 40
1.0
 40
1.0
 10
4.5965617863
 20
5.0680848642
 30
0.0
 10
4.5970393456
 20
5.0683628835
 30
0.0
 10
4.5978477324
 20
5.0691559647
 30
0.0
 10
4.5988104107
 20
5.0705075333
 30
0.0
 10
4.5996467852
 20
5.0719497185
 30
0.0
 10
4.6006474606
 20
5.0739320524
 30
0.0
 10
4.6017525578
 20
5.0764807652
 30
0.0
 10
4.6025460796
 20
5.0785551834
 30
0.0
 10
4.6029275196
 20
5.0795980612
 30
0.0
  0
SPLINE
  5
510
100
AcDbEntity
  8
ALL_ASSEMBLY_MEMBERS
100
AcDbSpline
 62
7
  6
CONTINUOUS
 70
0
 71
3
 72
12
 73
8
 74
0
 42
0.0000001
 43
0.0000001
 44
0.0000000001
 40
0.0
 40
0.0
 40
0.0
 40
0.0
 40
0.2491617573
 40
0.3738852691
 40
0.4986936592
 40
0.7490499257
 40
1.0
 40
1.0
 40
1.0
 40
1.0
 10
4.5850076661
 20
5.0680239304
 30
0.0
 10
4.5859443217
 20
5.0677195925
 30
0.0
 10
4.5873749723
 20
5.0673320469
 30
0.0
 10
4.5893203618
 20
5.0670056563
 30
0.0
 10
4.5912900308
 20
5.0668257
 30
0.0
 10
4.5937781878
 20
5.0669504408
 30
0.0
 10
4.5957045462
 20
5.0675858071
 30
0.0
 10
4.5965617863
 20
5.0680848642
 30
0.0
  0
LINE
  5
511
100
AcDbEntity
  8
ALL_ASSEMBLY_MEMBERS
100
AcDbLine
 62
7
  6
CONTINUOUS
 10
4.4954856234
 20
5.0747161284
 11
4.4915375498
 21
5.0983942122
  0
SPLINE
  5
512
100
AcDbEntity
  8
ALL_ASSEMBLY_MEMBERS
100
AcDbSpline
 62
7
  6
CONTINUOUS
 70
0
 71
3
 72
9
 73
5
 74
0
 42
0.0000001
 43
0.0000001
 44
0.0000000001
 40
0.0
 40
0.0
 40
0.0
 40
0.0
 40
0.5126844247
 40
1.0
 40
1.0
 40
1.0
 40
1.0
 10
4.5092337146
 20
4.5783356024
 30
0.0
 10
4.5102182133
 20
4.576708011
 30
0.0
 10
4.5123701636
 20
4.5736646488
 30
0.0
 10
4.5150081914
 20
4.5710243581
 30
0.0
 10
4.5163985416
 20
4.5698685062
 30
0.0
  0
SPLINE
  5
513
100
AcDbEntity
  8
ALL_ASSEMBLY_MEMBERS
100
AcDbSpline
 62
7
  6
CONTINUOUS
 70
0
 71
3
 72
10
 73
6
 74
0
 42
0.0000001
 43
0.0000001
 44
0.0000000001
 40
0.0
 40
0.0
 40
0.0
 40
0.0
 40
0.2345865689
 40
0.4772344338
 40
1.0
 40
1.0
 40
1.0
 40
1.0
 10
4.5224673713
 20
4.5659799699
 30
0.0
 10
4.5236737679
 20
4.5654026447
 30
0.0
 10
4.5262107215
 20
4.5643933594
 30
0.0
 10
4.5317433655
 20
4.5629715488
 30
0.0
 10
4.5361394681
 20
4.5626540551
 30
0.0
 10
4.5391195226
 20
4.5626983848
 30
0.0
  0
SPLINE
  5
514
100
AcDbEntity
  8
ALL_ASSEMBLY_MEMBERS
100
AcDbSpline
 62
7
  6
CONTINUOUS
 70
0
 71
3
 72
12
 73
8
 74
0
 42
0.0000001
 43
0.0000001
 44
0.0000000001
 40
0.0
 40
0.0
 40
0.0
 40
0.0
 40
0.2504531109
 40
0.3756639921
 40
0.5007035234
 40
0.7503941338
 40
1.0
 40
1.0
 40
1.0
 40
1.0
 10
4.6160348707
 20
5.1511956843
 30
0.0
 10
4.615106904
 20
5.1526636818
 30
0.0
 10
4.6135124978
 20
5.1547478958
 30
0.0
 10
4.6110346147
 20
5.1571854882
 30
0.0
 10
4.6083399525
 20
5.1593741804
 30
0.0
 10
4.6046196443
 20
5.1616335465
 30
0.0
 10
4.6013933472
 20
5.1629293154
 30
0.0
 10
4.5997472315
 20
5.1634641708
 30
0.0
  0
SPLINE
  5
515
100
AcDbEntity
  8
ALL_ASSEMBLY_MEMBERS
100
AcDbSpline
 62
7
  6
CONTINUOUS
 70
0
 71
3
 72
13
 73
9
 74
0
 42
0.0000001
 43
0.0000001
 44
0.0000000001
 40
0.0
 40
0.0
 40
0.0
 40
0.0
 40
0.2511660843
 40
0.3767438637
 40
0.5019715378
 40
0.6270096122
 40
0.7517038884
 40
1.0
 40
1.0
 40
1.0
 40
1.0
 10
4.6186971332
 20
5.1339937059
 30
0.0
 10
4.6191694754
 20
5.135425181
 30
0.0
 10
4.6196313158
 20
5.1376681366
 30
0.0
 10
4.6196759981
 20
5.1406867272
 30
0.0
 10
4.6194166362
 20
5.1429336889
 30
0.0
 10
4.6188973298
 20
5.1451283042
 30
0.0
 10
4.6178916619
 20
5.1479479705
 30
0.0
 10
4.6168311064
 20
5.1499360789
 30
0.0
 10
4.6160348707
 20
5.1511956843
 30
0.0
  0
SPLINE
  5
516
100
AcDbEntity
  8
ALL_ASSEMBLY_MEMBERS
100
AcDbSpline
 62
7
  6
CONTINUOUS
 70
0
 71
3
 72
9
 73
5
 74
0
 42
0.0000001
 43
0.0000001
 44
0.0000000001
 40
0.0
 40
0.0
 40
0.0
 40
0.0
 40
0.4996813317
 40
1.0
 40
1.0
 40
1.0
 40
1.0
 10
4.6139733374
 20
5.1264668409
 30
0.0
 10
4.6146140633
 20
5.1270772714
 30
0.0
 10
4.6158135898
 20
5.1283900546
 30
0.0
 10
4.6167969559
 20
5.1298726307
 30
0.0
 10
4.6172299081
 20
5.1306457455
 30
0.0
  0
LINE
  5
517
100
AcDbEntity
  8
ALL_ASSEMBLY_MEMBERS
100
AcDbLine
 62
7
  6
CONTINUOUS
 10
4.6172299081
 20
5.1306457455
 11
4.6186971332
 21
5.1339937059
  0
LINE
  5
518
100
AcDbEntity
  8
ALL_ASSEMBLY_MEMBERS
100
AcDbLine
 62
7
  6
CONTINUOUS
 10
4.605598809
 20
5.1195218918
 11
4.6126110166
 21
5.1252859582
  0
SPLINE
  5
519
100
AcDbEntity
  8
ALL_ASSEMBLY_MEMBERS
100
AcDbSpline
 62
7
  6
CONTINUOUS
 70
0
 71
3
 72
9
 73
5
 74
0
 42
0.0000001
 43
0.0000001
 44
0.0000000001
 40
0.0
 40
0.0
 40
0.0
 40
0.0
 40
0.5004167042
 40
1.0
 40
1.0
 40
1.0
 40
1.0
 10
4.6007698377
 20
5.1127927119
 30
0.0
 10
4.6012042526
 20
5.1141158062
 30
0.0
 10
4.6026311864
 20
5.1165765809
 30
0.0
 10
4.6045709134
 20
5.1185857983
 30
0.0
 10
4.605598809
 20
5.1195218918
 30
0.0
  0
LINE
  5
51A
100
AcDbEntity
  8
ALL_ASSEMBLY_MEMBERS
100
AcDbLine
 62
7
  6
CONTINUOUS
 10
4.6010332502
 20
5.1061735689
 11
4.600571657
 21
5.1072012947
  0
SPLINE
  5
51B
100
AcDbEntity
  8
ALL_ASSEMBLY_MEMBERS
100
AcDbSpline
 62
7
  6
CONTINUOUS
 70
0
 71
3
 72
9
 73
5
 74
0
 42
0.0000001
 43
0.0000001
 44
0.0000000001
 40
0.0
 40
0.0
 40
0.0
 40
0.0
 40
0.5000896401
 40
1.0
 40
1.0
 40
1.0
 40
1.0
 10
4.600571657
 20
5.1072012947
 30
0.0
 10
4.6003928767
 20
5.1077244052
 30
0.0
 10
4.6001682977
 20
5.108819232
 30
0.0
 10
4.600188105
 20
5.1099325039
 30
0.0
 10
4.6002487504
 20
5.1104817852
 30
0.0
  0
LINE
  5
51C
100
AcDbEntity
  8
ALL_ASSEMBLY_MEMBERS
100
AcDbLine
 62
7
  6
CONTINUOUS
 10
4.6002487504
 20
5.1104817852
 11
4.6007698377
 21
5.1127927119
  0
SPLINE
  5
51D
100
AcDbEntity
  8
ALL_ASSEMBLY_MEMBERS
100
AcDbSpline
 62
7
  6
CONTINUOUS
 70
0
 71
3
 72
9
 73
5
 74
0
 42
0.0000001
 43
0.0000001
 44
0.0000000001
 40
0.0
 40
0.0
 40
0.0
 40
0.0
 40
0.4990707131
 40
1.0
 40
1.0
 40
1.0
 40
1.0
 10
4.6053479996
 20
5.1026547258
 30
0.0
 10
4.6044508794
 20
5.1029462178
 30
0.0
 10
4.6027282591
 20
5.1038449104
 30
0.0
 10
4.601503737
 20
5.10535194
 30
0.0
 10
4.6010332502
 20
5.1061735689
 30
0.0
  0
SPLINE
  5
51E
100
AcDbEntity
  8
ALL_ASSEMBLY_MEMBERS
100
AcDbSpline
 62
7
  6
CONTINUOUS
 70
0
 71
3
 72
13
 73
9
 74
0
 42
0.0000001
 43
0.0000001
 44
0.0000000001
 40
0.0
 40
0.0
 40
0.0
 40
0.0
 40
0.2508850945
 40
0.3762291278
 40
0.5013712721
 40
0.6263310074
 40
0.7511308571
 40
1.0
 40
1.0
 40
1.0
 40
1.0
 10
4.5656529245
 20
5.1773679409
 30
0.0
 10
4.5680424099
 20
5.1784454914
 30
0.0
 10
4.5717686488
 20
5.1797772035
 30
0.0
 10
4.576905233
 20
5.1808364394
 30
0.0
 10
4.5808129005
 20
5.1812469931
 30
0.0
 10
4.5847363047
 20
5.1812761233
 30
0.0
 10
4.5899304605
 20
5.1807991564
 30
0.0
 10
4.5937553849
 20
5.1798935364
 30
0.0
 10
4.5962282747
 20
5.1790900458
 30
0.0
  0
SPLINE
  5
51F
100
AcDbEntity
  8
ALL_ASSEMBLY_MEMBERS
100
AcDbSpline
 62
7
  6
CONTINUOUS
 70
0
 71
3
 72
13
 73
9
 74
0
 42
0.0000001
 43
0.0000001
 44
0.0000000001
 40
0.0
 40
0.0
 40
0.0
 40
0.0
 40
0.250371527
 40
0.5005842034
 40
0.6256725407
 40
0.750645802
 40
0.875459891
 40
1.0
 40
1.0
 40
1.0
 40
1.0
 10
4.5386649258
 20
5.1456035645
 30
0.0
 10
4.5401849528
 20
5.1488070788
 30
0.0
 10
4.5434662398
 20
5.1551012513
 30
0.0
 10
4.5483710333
 20
5.1625136613
 30
0.0
 10
4.5529390074
 20
5.1679401676
 30
0.0
 10
4.5567378458
 20
5.1716637943
 30
0.0
 10
4.5609478232
 20
5.1749087333
 30
0.0
 10
4.5640450741
 20
5.1766428726
 30
0.0
 10
4.5656529245
 20
5.1773679409
 30
0.0
  0
SPLINE
  5
520
100
AcDbEntity
  8
ALL_ASSEMBLY_MEMBERS
100
AcDbSpline
 62
7
  6
CONTINUOUS
 70
0
 71
3
 72
11
 73
7
 74
0
 42
0.0000001
 43
0.0000001
 44
0.0000000001
 40
0.0
 40
0.0
 40
0.0
 40
0.0
 40
0.2526629425
 40
0.4973136619
 40
0.7433851468
 40
1.0
 40
1.0
 40
1.0
 40
1.0
 10
4.5486097018
 20
4.5274466005
 30
0.0
 10
4.5481086029
 20
4.5255083305
 30
0.0
 10
4.5474601423
 20
4.5215925335
 30
0.0
 10
4.5476863766
 20
4.5156659087
 30
0.0
 10
4.5491311436
 20
4.5098824753
 30
0.0
 10
4.5508395579
 20
4.506255404
 30
0.0
 10
4.5518562129
 20
4.5044945059
 30
0.0
  0
SPLINE
  5
521
100
AcDbEntity
  8
ALL_ASSEMBLY_MEMBERS
100
AcDbSpline
 62
7
  6
CONTINUOUS
 70
0
 71
3
 72
11
 73
7
 74
0
 42
0.0000001
 43
0.0000001
 44
0.0000000001
 40
0.0
 40
0.0
 40
0.0
 40
0.0
 40
0.2560462331
 40
0.5060167619
 40
0.7529535814
 40
1.0
 40
1.0
 40
1.0
 40
1.0
 10
4.5518562129
 20
4.5044945059
 30
0.0
 10
4.5525806601
 20
4.5032397266
 30
0.0
 10
4.554145156
 20
4.500833338
 30
0.0
 10
4.5568642832
 20
4.4975409568
 30
0.0
 10
4.5599148396
 20
4.4946259456
 30
0.0
 10
4.562157166
 20
4.4929440698
 30
0.0
 10
4.5633224869
 20
4.4921718402
 30
0.0
  0
SPLINE
  5
522
100
AcDbEntity
  8
ALL_ASSEMBLY_MEMBERS
100
AcDbSpline
 62
7
  6
CONTINUOUS
 70
0
 71
3
 72
9
 73
5
 74
0
 42
0.0000001
 43
0.0000001
 44
0.0000000001
 40
0.0
 40
0.0
 40
0.0
 40
0.0
 40
0.4936337713
 40
1.0
 40
1.0
 40
1.0
 40
1.0
 10
4.5633224869
 20
4.4921718402
 30
0.0
 10
4.5645309652
 20
4.4913710113
 30
0.0
 10
4.5670793323
 20
4.4898956426
 30
0.0
 10
4.5697800612
 20
4.4887245599
 30
0.0
 10
4.57117406
 20
4.4882065499
 30
0.0
  0
SPLINE
  5
523
100
AcDbEntity
  8
ALL_ASSEMBLY_MEMBERS
100
AcDbSpline
 62
7
  6
CONTINUOUS
 70
0
 71
3
 72
13
 73
9
 74
0
 42
0.0000001
 43
0.0000001
 44
0.0000000001
 40
0.0
 40
0.0
 40
0.0
 40
0.0
 40
0.1261982345
 40
0.251862487
 40
0.3770657699
 40
0.5019777977
 40
0.7510912298
 40
1.0
 40
1.0
 40
1.0
 40
1.0
 10
4.6941410133
 20
4.4763782262
 30
0.0
 10
4.6936847538
 20
4.476681122
 30
0.0
 10
4.6926737115
 20
4.4771451542
 30
0.0
 10
4.6910425209
 20
4.4773992874
 30
0.0
 10
4.6894058655
 20
4.4773238436
 30
0.0
 10
4.6872726103
 20
4.4769196308
 30
0.0
 10
4.6847087402
 20
4.4760254521
 30
0.0
 10
4.6827580651
 20
4.4750900477
 30
0.0
 10
4.6818017031
 20
4.4745879318
 30
0.0
  0
SPLINE
  5
524
100
AcDbEntity
  8
ALL_ASSEMBLY_MEMBERS
100
AcDbSpline
 62
7
  6
CONTINUOUS
 70
0
 71
3
 72
13
 73
9
 74
0
 42
0.0000001
 43
0.0000001
 44
0.0000000001
 40
0.0
 40
0.0
 40
0.0
 40
0.0
 40
0.2498720582
 40
0.499779765
 40
0.6247985508
 40
0.7497808385
 40
0.874727622
 40
1.0
 40
1.0
 40
1.0
 40
1.0
 10
4.701807543
 20
4.4670335629
 30
0.0
 10
4.7013163791
 20
4.4678725124
 30
0.0
 10
4.7003100055
 20
4.4695365897
 30
0.0
 10
4.6989632466
 20
4.4715622173
 30
0.0
 10
4.6977968966
 20
4.4731192277
 30
0.0
 10
4.6968604341
 20
4.4742395327
 30
0.0
 10
4.6958359716
 20
4.4752806743
 30
0.0
 10
4.6950615343
 20
4.4758839548
 30
0.0
 10
4.6946396643
 20
4.4761280228
 30
0.0
  0
LINE
  5
525
100
AcDbEntity
  8
ALL_ASSEMBLY_MEMBERS
100
AcDbLine
 62
7
  6
CONTINUOUS
 10
4.6946396643
 20
4.4761280228
 11
4.6941410133
 21
4.4763782262
  0
SPLINE
  5
526
100
AcDbEntity
  8
ALL_ASSEMBLY_MEMBERS
100
AcDbSpline
 62
7
  6
CONTINUOUS
 70
0
 71
3
 72
13
 73
9
 74
0
 42
0.0000001
 43
0.0000001
 44
0.0000000001
 40
0.0
 40
0.0
 40
0.0
 40
0.0
 40
0.2486584491
 40
0.373458016
 40
0.49854396
 40
0.6237891311
 40
0.7492410274
 40
1.0
 40
1.0
 40
1.0
 40
1.0
 10
5.7909546363
 20
4.9750622205
 30
0.0
 10
5.7895953077
 20
4.9756842484
 30
0.0
 10
5.7876153332
 20
4.9767733611
 30
0.0
 10
5.7852232998
 20
4.9785869456
 30
0.0
 10
5.7835844915
 20
4.9801434388
 30
0.0
 10
5.7821353593
 20
4.9818844205
 30
0.0
 10
5.7805135805
 20
4.9844331637
 30
0.0
 10
5.7796715601
 20
4.9865636868
 30
0.0
 10
5.779281386
 20
4.9880198363
 30
0.0
  0
SPLINE
  5
527
100
AcDbEntity
  8
ALL_ASSEMBLY_MEMBERS
100
AcDbSpline
 62
7
  6
CONTINUOUS
 70
0
 71
3
 72
11
 73
7
 74
0
 42
0.0000001
 43
0.0000001
 44
0.0000000001
 40
0.0
 40
0.0
 40
0.0
 40
0.0
 40
0.2504402171
 40
0.5007219418
 40
0.7506273355
 40
1.0
 40
1.0
 40
1.0
 40
1.0
 10
5.779281386
 20
4.9880198363
 30
0.0
 10
5.7790488734
 20
4.9888875853
 30
0.0
 10
5.7786971558
 20
4.9906559349
 30
0.0
 10
5.7785674218
 20
4.9933558179
 30
0.0
 10
5.7788574983
 20
4.9960394342
 30
0.0
 10
5.7793153484
 20
4.9977781606
 30
0.0
 10
5.7796003591
 20
4.998626072
 30
0.0
  0
LINE
  5
528
100
AcDbEntity
  8
ALL_ASSEMBLY_MEMBERS
100
AcDbLine
 62
7
  6
CONTINUOUS
 10
5.7796003591
 20
4.998626072
 11
5.7823132619
 21
5.0072716627
  0
SPLINE
  5
529
100
AcDbEntity
  8
ALL_ASSEMBLY_MEMBERS
100
AcDbSpline
 62
7
  6
CONTINUOUS
 70
0
 71
3
 72
9
 73
5
 74
0
 42
0.0000001
 43
0.0000001
 44
0.0000000001
 40
0.0
 40
0.0
 40
0.0
 40
0.0
 40
0.4991538743
 40
1.0
 40
1.0
 40
1.0
 40
1.0
 10
4.6820671335
 20
4.4959020093
 30
0.0
 10
4.6821704143
 20
4.4964030683
 30
0.0
 10
4.6821375305
 20
4.4974495268
 30
0.0
 10
4.6819264332
 20
4.4984510745
 30
0.0
 10
4.6817967073
 20
4.4989477393
 30
0.0
  0
SPLINE
  5
52A
100
AcDbEntity
  8
ALL_ASSEMBLY_MEMBERS
100
AcDbSpline
 62
7
  6
CONTINUOUS
 70
0
 71
3
 72
10
 73
6
 74
0
 42
0.0000001
 43
0.0000001
 44
0.0000000001
 40
0.0
 40
0.0
 40
0.0
 40
0.0
 40
0.2497696988
 40
0.4997726215
 40
1.0
 40
1.0
 40
1.0
 40
1.0
 10
4.6817967073
 20
4.4989477393
 30
0.0
 10
4.6815815347
 20
4.4997715429
 30
0.0
 10
4.6810267176
 20
4.5013869768
 30
0.0
 10
4.6796846263
 20
4.5045212748
 30
0.0
 10
4.6785226528
 20
4.5068027002
 30
0.0
 10
4.6777172182
 20
4.5083057221
 30
0.0
  0
SPLINE
  5
52B
100
AcDbEntity
  8
ALL_ASSEMBLY_MEMBERS
100
AcDbSpline
 62
7
  6
CONTINUOUS
 70
0
 71
3
 72
12
 73
8
 74
0
 42
0.0000001
 43
0.0000001
 44
0.0000000001
 40
0.0
 40
0.0
 40
0.0
 40
0.0
 40
0.2494302583
 40
0.3742324542
 40
0.4990753595
 40
0.7493411782
 40
1.0
 40
1.0
 40
1.0
 40
1.0
 10
4.6743937919
 20
4.4872821951
 30
0.0
 10
4.6752467197
 20
4.4877746332
 30
0.0
 10
4.6764918807
 20
4.488578351
 30
0.0
 10
4.6780356391
 20
4.4898053869
 30
0.0
 10
4.6794856397
 20
4.4911476153
 30
0.0
 10
4.6810545573
 20
4.4930777354
 30
0.0
 10
4.6818673265
 20
4.4949326606
 30
0.0
 10
4.6820671335
 20
4.4959020093
 30
0.0
  0
SPLINE
  5
52C
100
AcDbEntity
  8
ALL_ASSEMBLY_MEMBERS
100
AcDbSpline
 62
7
  6
CONTINUOUS
 70
0
 71
3
 72
10
 73
6
 74
0
 42
0.0000001
 43
0.0000001
 44
0.0000000001
 40
0.0
 40
0.0
 40
0.0
 40
0.0
 40
0.2876765656
 40
0.5473526881
 40
1.0
 40
1.0
 40
1.0
 40
1.0
 10
5.7823132619
 20
5.0072716627
 30
0.0
 10
5.7825138769
 20
5.0080463329
 30
0.0
 10
5.7828377285
 20
5.0095376922
 30
0.0
 10
5.7831468151
 20
5.0123024994
 30
0.0
 10
5.7829988141
 20
5.0143186149
 30
0.0
 10
5.7826729295
 20
5.015534833
 30
0.0
  0
LINE
  5
52D
100
AcDbEntity
  8
ALL_ASSEMBLY_MEMBERS
100
AcDbLine
 62
7
  6
CONTINUOUS
 10
4.6095566254
 20
4.4252796948
 11
4.5892615056
 21
4.4381310467
  0
SPLINE
  5
52E
100
AcDbEntity
  8
ALL_ASSEMBLY_MEMBERS
100
AcDbSpline
 62
7
  6
CONTINUOUS
 70
0
 71
3
 72
11
 73
7
 74
0
 42
0.0000001
 43
0.0000001
 44
0.0000000001
 40
0.0
 40
0.0
 40
0.0
 40
0.0
 40
0.2870410772
 40
0.5435909377
 40
0.7778844208
 40
1.0
 40
1.0
 40
1.0
 40
1.0
 10
5.7826729295
 20
5.015534833
 30
0.0
 10
5.782504069
 20
5.016165029
 30
0.0
 10
5.7821004408
 20
5.0173394311
 30
0.0
 10
5.7812309285
 20
5.0188917947
 30
0.0
 10
5.7801476893
 20
5.0201154057
 30
0.0
 10
5.779281868
 20
5.0207097412
 30
0.0
 10
5.7788325812
 20
5.0209400021
 30
0.0
  0
SPLINE
  5
52F
100
AcDbEntity
  8
ALL_ASSEMBLY_MEMBERS
100
AcDbSpline
 62
7
  6
CONTINUOUS
 70
0
 71
3
 72
13
 73
9
 74
0
 42
0.0000001
 43
0.0000001
 44
0.0000000001
 40
0.0
 40
0.0
 40
0.0
 40
0.0
 40
0.2509003574
 40
0.3762453079
 40
0.5013360879
 40
0.6262814569
 40
0.7510592731
 40
1.0
 40
1.0
 40
1.0
 40
1.0
 10
4.5478125201
 20
4.526985953
 30
0.0
 10
4.5483265172
 20
4.5289699498
 30
0.0
 10
4.549388447
 20
4.5318838195
 30
0.0
 10
4.5513904172
 20
4.5354635872
 30
0.0
 10
4.553179354
 20
4.5379618718
 30
0.0
 10
4.5552172995
 20
4.5402543361
 30
0.0
 10
4.558225693
 20
4.5430087488
 30
0.0
 10
4.5607622115
 20
4.5447425826
 30
0.0
 10
4.5625232649
 20
4.5457593273
 30
0.0
  0
SPLINE
  5
530
100
AcDbEntity
  8
ALL_ASSEMBLY_MEMBERS
100
AcDbSpline
 62
7
  6
CONTINUOUS
 70
0
 71
3
 72
13
 73
9
 74
0
 42
0.0000001
 43
0.0000001
 44
0.0000000001
 40
0.0
 40
0.0
 40
0.0
 40
0.0
 40
0.2504831503
 40
0.375843604
 40
0.5011025062
 40
0.626208175
 40
0.7511407368
 40
1.0
 40
1.0
 40
1.0
 40
1.0
 10
4.5510505742
 20
4.5040291837
 30
0.0
 10
4.550057303
 20
4.5057493646
 30
0.0
 10
4.5487744466
 20
4.5084629921
 30
0.0
 10
4.5476117464
 20
4.5122684715
 30
0.0
 10
4.5470383121
 20
4.5151978783
 30
0.0
 10
4.5467678046
 20
4.5181673763
 30
0.0
 10
4.5468259888
 20
4.5221287775
 30
0.0
 10
4.5473175878
 20
4.5250755449
 30
0.0
 10
4.5478125201
 20
4.526985953
 30
0.0
  0
SPLINE
  5
531
100
AcDbEntity
  8
ALL_ASSEMBLY_MEMBERS
100
AcDbSpline
 62
7
  6
CONTINUOUS
 70
0
 71
3
 72
9
 73
5
 74
0
 42
0.0000001
 43
0.0000001
 44
0.0000000001
 40
0.0
 40
0.0
 40
0.0
 40
0.0
 40
0.4993241826
 40
1.0
 40
1.0
 40
1.0
 40
1.0
 10
4.5703810332
 20
4.487748949
 30
0.0
 10
4.5685914997
 20
4.4884124638
 30
0.0
 10
4.5650937638
 20
4.4899902984
 30
0.0
 10
4.5618754937
 20
4.4920870025
 30
0.0
 10
4.5603629027
 20
4.4932593926
 30
0.0
  0
SPLINE
  5
532
100
AcDbEntity
  8
ALL_ASSEMBLY_MEMBERS
100
AcDbSpline
 62
7
  6
CONTINUOUS
 70
0
 71
3
 72
10
 73
6
 74
0
 42
0.0000001
 43
0.0000001
 44
0.0000000001
 40
0.0
 40
0.0
 40
0.0
 40
0.0
 40
0.2499061065
 40
0.500064382
 40
1.0
 40
1.0
 40
1.0
 40
1.0
 10
4.5603629027
 20
4.4932593926
 30
0.0
 10
4.5594203965
 20
4.4939899172
 30
0.0
 10
4.5576058895
 20
4.4955473756
 30
0.0
 10
4.5543143382
 20
4.4990099432
 30
0.0
 10
4.5522434503
 20
4.50196332
 30
0.0
 10
4.5510505742
 20
4.5040291837
 30
0.0
  0
SPLINE
  5
533
100
AcDbEntity
  8
ALL_ASSEMBLY_MEMBERS
100
AcDbSpline
 62
7
  6
CONTINUOUS
 70
0
 71
3
 72
9
 73
5
 74
0
 42
0.0000001
 43
0.0000001
 44
0.0000000001
 40
0.0
 40
0.0
 40
0.0
 40
0.0
 40
0.249789032
 40
1.0
 40
1.0
 40
1.0
 40
1.0
 10
4.598578328
 20
4.4876352887
 30
0.0
 10
4.5977841134
 20
4.487400207
 30
0.0
 10
4.5945874119
 20
4.4865196787
 30
0.0
 10
4.5913142164
 20
4.4859034905
 30
0.0
 10
4.5888411828
 20
4.4856344532
 30
0.0
  0
SPLINE
  5
534
100
AcDbEntity
  8
ALL_ASSEMBLY_MEMBERS
100
AcDbSpline
 62
7
  6
CONTINUOUS
 70
0
 71
3
 72
10
 73
6
 74
0
 42
0.0000001
 43
0.0000001
 44
0.0000000001
 40
0.0
 40
0.0
 40
0.0
 40
0.0
 40
0.4987943249
 40
0.7491463557
 40
1.0
 40
1.0
 40
1.0
 40
1.0
 10
4.5888411828
 20
4.4856344532
 30
0.0
 10
4.58624609
 20
4.4853521373
 30
0.0
 10
4.5822986307
 20
4.4852450511
 30
0.0
 10
4.5770964038
 20
4.485873733
 30
0.0
 10
4.5745324687
 20
4.4864542211
 30
0.0
 10
4.5732686926
 20
4.4868097177
 30
0.0
  0
SPLINE
  5
535
100
AcDbEntity
  8
ALL_ASSEMBLY_MEMBERS
100
AcDbSpline
 62
7
  6
CONTINUOUS
 70
0
 71
3
 72
11
 73
7
 74
0
 42
0.0000001
 43
0.0000001
 44
0.0000000001
 40
0.0
 40
0.0
 40
0.0
 40
0.0
 40
0.2091302647
 40
0.4409573991
 40
0.7028457312
 40
1.0
 40
1.0
 40
1.0
 40
1.0
 10
5.8474886185
 20
4.9805591704
 30
0.0
 10
5.8488274057
 20
4.9826545751
 30
0.0
 10
5.8511065805
 20
4.9874325573
 30
0.0
 10
5.8531359203
 20
4.9955813963
 30
0.0
 10
5.8539453843
 20
5.0049805856
 30
0.0
 10
5.8536931703
 20
5.0116378921
 30
0.0
 10
5.8533994166
 20
5.0151588515
 30
0.0
  0
SPLINE
  5
536
100
AcDbEntity
  8
ALL_ASSEMBLY_MEMBERS
100
AcDbSpline
 62
7
  6
CONTINUOUS
 70
0
 71
3
 72
9
 73
5
 74
0
 42
0.0000001
 43
0.0000001
 44
0.0000000001
 40
0.0
 40
0.0
 40
0.0
 40
0.0
 40
0.5001683058
 40
1.0
 40
1.0
 40
1.0
 40
1.0
 10
4.5881544941
 20
4.5386100804
 30
0.0
 10
4.5860420757
 20
4.5381487143
 30
0.0
 10
4.58188629
 20
4.536885465
 30
0.0
 10
4.5779780348
 20
4.5349955063
 30
0.0
 10
4.5761067625
 20
4.5339151267
 30
0.0
  0
SPLINE
  5
537
100
AcDbEntity
  8
ALL_ASSEMBLY_MEMBERS
100
AcDbSpline
 62
7
  6
CONTINUOUS
 70
0
 71
3
 72
9
 73
5
 74
0
 42
0.0000001
 43
0.0000001
 44
0.0000000001
 40
0.0
 40
0.0
 40
0.0
 40
0.0
 40
0.5004118931
 40
1.0
 40
1.0
 40
1.0
 40
1.0
 10
4.6003559745
 20
4.5397758236
 30
0.0
 10
4.598308986
 20
4.5398604463
 30
0.0
 10
4.5942013435
 20
4.5397158907
 30
0.0
 10
4.5901527536
 20
4.5390465135
 30
0.0
 10
4.5881544941
 20
4.5386100804
 30
0.0
  0
SPLINE
  5
538
100
AcDbEntity
  8
ALL_ASSEMBLY_MEMBERS
100
AcDbSpline
 62
7
  6
CONTINUOUS
 70
0
 71
3
 72
9
 73
5
 74
0
 42
0.0000001
 43
0.0000001
 44
0.0000000001
 40
0.0
 40
0.0
 40
0.0
 40
0.0
 40
0.2525909608
 40
1.0
 40
1.0
 40
1.0
 40
1.0
 10
4.619829226
 20
4.5377260722
 30
0.0
 10
4.6182020171
 20
4.537994834
 30
0.0
 10
4.6117459576
 20
4.5389704326
 30
0.0
 10
4.6052313166
 20
4.5395742783
 30
0.0
 10
4.6003553704
 20
4.5397754752
 30
0.0
  0
LINE
  5
539
100
AcDbEntity
  8
ALL_ASSEMBLY_MEMBERS
100
AcDbLine
 62
7
  6
CONTINUOUS
 10
4.6435166344
 20
4.5329036141
 11
4.63815349
 21
4.5340619697
  0
SPLINE
  5
53A
100
AcDbEntity
  8
ALL_ASSEMBLY_MEMBERS
100
AcDbSpline
 62
7
  6
CONTINUOUS
 70
0
 71
3
 72
10
 73
6
 74
0
 42
0.0000001
 43
0.0000001
 44
0.0000000001
 40
0.0
 40
0.0
 40
0.0
 40
0.0
 40
0.5001326893
 40
0.7501186985
 40
1.0
 40
1.0
 40
1.0
 40
1.0
 10
4.63815349
 20
4.5340619697
 30
0.0
 10
4.6351077583
 20
4.5347173
 30
0.0
 10
4.6305380325
 20
4.5356933569
 30
0.0
 10
4.6244296697
 20
4.5369147767
 30
0.0
 10
4.6213659489
 20
4.5374731641
 30
0.0
 10
4.6198301558
 20
4.5377266102
 30
0.0
  0
LINE
  5
53B
100
AcDbEntity
  8
ALL_ASSEMBLY_MEMBERS
100
AcDbLine
 62
7
  6
CONTINUOUS
 10
4.6612534448
 20
4.5290728977
 11
4.6470911683
 21
4.5321305242
  0
SPLINE
  5
53C
100
AcDbEntity
  8
ALL_ASSEMBLY_MEMBERS
100
AcDbSpline
 62
7
  6
CONTINUOUS
 70
0
 71
3
 72
9
 73
5
 74
0
 42
0.0000001
 43
0.0000001
 44
0.0000000001
 40
0.0
 40
0.0
 40
0.0
 40
0.0
 40
0.4991929526
 40
1.0
 40
1.0
 40
1.0
 40
1.0
 10
5.8341091697
 20
5.0709472251
 30
0.0
 10
5.8328073402
 20
5.0712680888
 30
0.0
 10
5.8302924413
 20
5.072275861
 30
0.0
 10
5.8279554122
 20
5.0736037032
 30
0.0
 10
5.8268158731
 20
5.074318412
 30
0.0
  0
LINE
  5
53D
100
AcDbEntity
  8
ALL_ASSEMBLY_MEMBERS
100
AcDbLine
 62
7
  6
CONTINUOUS
 10
5.8268158731
 20
5.074318412
 11
5.8210615919
 21
5.0784287292
  0
SPLINE
  5
53E
100
AcDbEntity
  8
ALL_ASSEMBLY_MEMBERS
100
AcDbSpline
 62
7
  6
CONTINUOUS
 70
0
 71
3
 72
14
 73
10
 74
0
 42
0.0000001
 43
0.0000001
 44
0.0000000001
 40
0.0
 40
0.0
 40
0.0
 40
0.0
 40
0.2508668863
 40
0.3762262036
 40
0.5015102721
 40
0.6264909869
 40
0.7513894805
 40
0.8758839818
 40
1.0
 40
1.0
 40
1.0
 40
1.0
 10
5.8185853875
 20
5.0804567673
 30
0.0
 10
5.8194634308
 20
5.0831488205
 30
0.0
 10
5.8209193084
 20
5.0871465751
 30
0.0
 10
5.823297107
 20
5.0922868594
 30
0.0
 10
5.8253338114
 20
5.0960109801
 30
0.0
 10
5.8277215728
 20
5.099517578
 30
0.0
 10
5.8305255485
 20
5.1027011735
 30
0.0
 10
5.8338707155
 20
5.1053157499
 30
0.0
 10
5.8364781321
 20
5.1064665401
 30
0.0
 10
5.8378313393
 20
5.1068291309
 30
0.0
  0
LINE
  5
53F
100
AcDbEntity
  8
ALL_ASSEMBLY_MEMBERS
100
AcDbLine
 62
7
  6
CONTINUOUS
 10
4.6116445639
 20
4.5805200867
 11
4.6111263541
 21
4.5839060694
  0
SPLINE
  5
540
100
AcDbEntity
  8
ALL_ASSEMBLY_MEMBERS
100
AcDbSpline
 62
7
  6
CONTINUOUS
 70
0
 71
3
 72
13
 73
9
 74
0
 42
0.0000001
 43
0.0000001
 44
0.0000000001
 40
0.0
 40
0.0
 40
0.0
 40
0.0
 40
0.1256913308
 40
0.2513935855
 40
0.3763969538
 40
0.5013082729
 40
0.7507909401
 40
1.0
 40
1.0
 40
1.0
 40
1.0
 10
4.6240702789
 20
4.5771228916
 30
0.0
 10
4.6236600227
 20
4.5774840223
 30
0.0
 10
4.622732692
 20
4.5780848643
 30
0.0
 10
4.6212280548
 20
4.578735915
 30
0.0
 10
4.6196691924
 20
4.5792305678
 30
0.0
 10
4.6175584419
 20
4.5797452898
 30
0.0
 10
4.6148807185
 20
4.5801925613
 30
0.0
 10
4.6127240784
 20
4.5804253424
 30
0.0
 10
4.6116445639
 20
4.5805200867
 30
0.0
  0
SPLINE
  5
541
100
AcDbEntity
  8
ALL_ASSEMBLY_MEMBERS
100
AcDbSpline
 62
7
  6
CONTINUOUS
 70
0
 71
3
 72
12
 73
8
 74
0
 42
0.0000001
 43
0.0000001
 44
0.0000000001
 40
0.0
 40
0.0
 40
0.0
 40
0.0
 40
0.2501126143
 40
0.500196131
 40
0.7501907886
 40
0.8751458122
 40
1.0
 40
1.0
 40
1.0
 40
1.0
 10
4.631429125
 20
4.5668251819
 30
0.0
 10
4.6309004267
 20
4.5677424521
 30
0.0
 10
4.6298210593
 20
4.5695644894
 30
0.0
 10
4.6281094984
 20
4.5722398466
 30
0.0
 10
4.6265676601
 20
4.57439376
 30
0.0
 10
4.6252095617
 20
4.5760170242
 30
0.0
 10
4.6244669871
 20
4.5767736866
 30
0.0
 10
4.6240702789
 20
4.5771228916
 30
0.0
  0
LINE
  5
542
100
AcDbEntity
  8
ALL_ASSEMBLY_MEMBERS
100
AcDbLine
 62
7
  6
CONTINUOUS
 10
4.6481060422
 20
4.5379532937
 11
4.6314290755
 21
4.5668252677
  0
SPLINE
  5
543
100
AcDbEntity
  8
ALL_ASSEMBLY_MEMBERS
100
AcDbSpline
 62
7
  6
CONTINUOUS
 70
0
 71
3
 72
11
 73
7
 74
0
 42
0.0000001
 43
0.0000001
 44
0.0000000001
 40
0.0
 40
0.0
 40
0.0
 40
0.0
 40
0.2490428994
 40
0.498878139
 40
0.7493317655
 40
1.0
 40
1.0
 40
1.0
 40
1.0
 10
5.7652019781
 20
5.0517177152
 30
0.0
 10
5.7641988799
 20
5.0523604716
 30
0.0
 10
5.7623047797
 20
5.0538428947
 30
0.0
 10
5.7599836875
 20
5.0566075517
 30
0.0
 10
5.7582547309
 20
5.0597801049
 30
0.0
 10
5.7574777506
 20
5.0620590531
 30
0.0
 10
5.7571673913
 20
5.0632173301
 30
0.0
  0
SPLINE
  5
544
100
AcDbEntity
  8
ALL_ASSEMBLY_MEMBERS
100
AcDbSpline
 62
7
  6
CONTINUOUS
 70
0
 71
3
 72
9
 73
5
 74
0
 42
0.0000001
 43
0.0000001
 44
0.0000000001
 40
0.0
 40
0.0
 40
0.0
 40
0.0
 40
0.749809036
 40
1.0
 40
1.0
 40
1.0
 40
1.0
 10
5.7571673913
 20
5.0632173301
 30
0.0
 10
5.7567467696
 20
5.0647871117
 30
0.0
 10
5.756361139
 20
5.0669373564
 30
0.0
 10
5.756267943
 20
5.0691039557
 30
0.0
 10
5.756264169
 20
5.0696462136
 30
0.0
  0
SPLINE
  5
545
100
AcDbEntity
  8
ALL_ASSEMBLY_MEMBERS
100
AcDbSpline
 62
7
  6
CONTINUOUS
 70
0
 71
3
 72
9
 73
5
 74
0
 42
0.0000001
 43
0.0000001
 44
0.0000000001
 40
0.0
 40
0.0
 40
0.0
 40
0.0
 40
0.2507351926
 40
1.0
 40
1.0
 40
1.0
 40
1.0
 10
5.7570042351
 20
5.0755428652
 30
0.0
 10
5.7571409497
 20
5.0760626931
 30
0.0
 10
5.7577610396
 20
5.0781159641
 30
0.0
 10
5.7586593373
 20
5.0800814921
 30
0.0
 10
5.759450158
 20
5.0814795331
 30
0.0
  0
SPLINE
  5
546
100
AcDbEntity
  8
ALL_ASSEMBLY_MEMBERS
100
AcDbSpline
 62
7
  6
CONTINUOUS
 70
0
 71
3
 72
11
 73
7
 74
0
 42
0.0000001
 43
0.0000001
 44
0.0000000001
 40
0.0
 40
0.0
 40
0.0
 40
0.0
 40
0.2506996057
 40
0.5008591606
 40
0.7505971276
 40
1.0
 40
1.0
 40
1.0
 40
1.0
 10
4.5084801834
 20
4.6115977917
 30
0.0
 10
4.5101778026
 20
4.6147868331
 30
0.0
 10
4.5141674065
 20
4.620855237
 30
0.0
 10
4.5215442325
 20
4.6288200285
 30
0.0
 10
4.5299356889
 20
4.6356608457
 30
0.0
 10
4.5360040759
 20
4.6395491594
 30
0.0
 10
4.539116618
 20
4.6413461864
 30
0.0
  0
SPLINE
  5
547
100
AcDbEntity
  8
ALL_ASSEMBLY_MEMBERS
100
AcDbSpline
 62
7
  6
CONTINUOUS
 70
0
 71
3
 72
9
 73
5
 74
0
 42
0.0000001
 43
0.0000001
 44
0.0000000001
 40
0.0
 40
0.0
 40
0.0
 40
0.0
 40
0.2499756266
 40
1.0
 40
1.0
 40
1.0
 40
1.0
 10
4.5081568173
 20
4.5786675167
 30
0.0
 10
4.5076778267
 20
4.5795049463
 30
0.0
 10
4.5058937661
 20
4.5829267853
 30
0.0
 10
4.5046686792
 20
4.5866562653
 30
0.0
 10
4.5041926995
 20
4.5895114544
 30
0.0
  0
SPLINE
  5
548
100
AcDbEntity
  8
ALL_ASSEMBLY_MEMBERS
100
AcDbSpline
 62
7
  6
CONTINUOUS
 70
0
 71
3
 72
11
 73
7
 74
0
 42
0.0000001
 43
0.0000001
 44
0.0000000001
 40
0.0
 40
0.0
 40
0.0
 40
0.0
 40
0.2510033726
 40
0.5016631634
 40
0.7512403839
 40
1.0
 40
1.0
 40
1.0
 40
1.0
 10
4.5041926995
 20
4.5895114544
 30
0.0
 10
4.5038777627
 20
4.5914006194
 30
0.0
 10
4.5036319533
 20
4.595248886
 30
0.0
 10
4.5043243356
 20
4.6009687141
 30
0.0
 10
4.5059851026
 20
4.606462215
 30
0.0
 10
4.5075882628
 20
4.6099222856
 30
0.0
 10
4.5084801834
 20
4.6115977917
 30
0.0
  0
ENDSEC
  0
SECTION
  2
OBJECTS
  0
DICTIONARY
  5
C
100
AcDbDictionary
280
0
281
1
  3
ACAD_GROUP
350
D
  3
ACAD_MLINESTYLE
350
17
  3
ACAD_LAYOUT
350
1A
  3
ACAD_PLOTSETTINGS
350
19
  3
ACAD_PLOTSTYLENAME
350
E
  0
DICTIONARY
  5
D
102
{ACAD_REACTORS
330
C
102
}
100
AcDbDictionary
280
0
281
1
  0
ACDBDICTIONARYWDFLT
  5
E
102
{ACAD_REACTORS
330
C
102
}
100
AcDbDictionary
281
1
  3
Normal
350
F
100
AcDbDictionaryWithDefault
340
F
  0
DICTIONARY
  5
17
102
{ACAD_REACTORS
330
C
102
}
100
AcDbDictionary
280
0
281
1
  3
Standard
350
18
  0
DICTIONARY
  5
19
102
{ACAD_REACTORS
330
C
102
}
100
AcDbDictionary
281
1
  0
DICTIONARY
  5
1A
102
{ACAD_REACTORS
330
C
102
}
100
AcDbDictionary
281
1
  3
Model
350
549
  3
Layout1
350
54A
  0
ACDBPLACEHOLDER
  5
F
102
{ACAD_REACTORS
330
E
102
}
  0
MLINESTYLE
  5
18
102
{ACAD_REACTORS
330
17
102
}
100
AcDbMlineStyle
  2
STANDARD
 70
0
  3

 62
256
 51
90.0
 52
90.0
 71
2
 49
0.5
 62
256
  6
BYLAYER
 49
-0.5
 62
256
  6
BYLAYER
  0
LAYOUT
  5
549
102
{ACAD_REACTORS
330
1A
102
}
100
AcDbPlotSettings
  1

  2
none_device
  4
ANSI_A_(11.00_x_8.50_Inches)
  6

 40
0.0
 41
0.0
 42
0.0
 43
0.0
 44
279.4
 45
215.9
 46
0.0
 47
0.0
 48
0.0
 49
0.0
140
0.0
141
0.0
142
1.0
143
1.0
 70
1024
 72
0
 73
0
 74
0
  7

 75
0
147
1.0
148
0.0
149
0.0
100
AcDbLayout
  1
Model
 70
0
 71
0
 10
0.0
 20
0.0
 11
11.0
 21
8.5
 12
0.0
 22
0.0
 32
0.0
 14
0.0
 24
0.0
 34
0.0
 15
0.0
 25
0.0
 35
0.0
146
0.0
 13
0.0
 23
0.0
 33
0.0
 16
1.0
 26
0.0
 36
0.0
 17
0.0
 27
1.0
 37
0.0
 76
0
330
21E
345
0
346
0
  0
LAYOUT
  5
54A
102
{ACAD_REACTORS
330
1A
102
}
100
AcDbPlotSettings
  1

  2
none_device
  4
ANSI_A_(11.00_x_8.50_Inches)
  6

 40
0.0
 41
0.0
 42
0.0
 43
0.0
 44
279.4
 45
215.9
 46
0.0
 47
0.0
 48
0.0
 49
0.0
140
0.0
141
0.0
142
1.0
143
1.0
 70
0
 72
0
 73
0
 74
0
  7

 75
0
147
1.0
148
0.0
149
0.0
100
AcDbLayout
  1
Layout1
 70
0
 71
1
 10
0.0
 20
0.0
 11
11.0
 21
8.5
 12
0.0
 22
0.0
 32
0.0
 14
0.0
 24
0.0
 34
0.0
 15
0.0
 25
0.0
 35
0.0
146
0.0
 13
0.0
 23
0.0
 33
0.0
 16
1.0
 26
0.0
 36
0.0
 17
0.0
 27
1.0
 37
0.0
 76
0
330
21F
345
0
346
0
  0
ENDSEC
  0
EOF
