999
DXF file: 3-2524ts_RIGHT.dxf
999
Pro/ENGINEER 2018400 by Parametric Technology Corporation
  0
SECTION
  2
HEADER
  9
$ACADVER
  1
AC1027
  9
$DWGCODEPAGE
  3
ANSI_1252
  9
$EXTMAX
 10
11.0
 20
8.5
 30
0.0
  9
$EXTMIN
 10
0.0
 20
0.0
 30
0.0
  9
$LIMMIN
 10
0.0
 20
0.0
  9
$LIMMAX
 10
11.0
 20
8.5
  9
$VIEWCTR
 10
5.5
 20
4.25
  9
$VIEWSIZE
 40
8.5
  9
$CLAYER
  8
0
  9
$LTSCALE
 40
0.605
  9
$CELTYPE
  6
BYLAYER
  9
$DIMSCALE
 40
1.0
  9
$DIMASZ
 40
0.1
  9
$DIMEXO
 40
0.0625
  9
$DIMDLI
 40
0.418
  9
$DIMEXE
 40
0.125
  9
$DIMCEN
 40
0.099
  9
$DIMLFAC
 40
1.0
  9
$DIMBLK
  1
_FILLED
  9
$DIMALT
 70
1
  9
$DIMALTD
 70
2
  9
$DIMALTTD
 70
2
  9
$DIMALTF
 40
25.4
  9
$DIMTXT
 40
0.08
  9
$DIMTOL
 70
1
  9
$DIMLIM
 70
0
  9
$DIMTFAC
 40
1.0
  9
$DIMTP
 40
0.001
  9
$DIMTM
 40
0.001
  9
$DIMGAP
 40
0.09
  9
$DIMDSEP
 70
46
  9
$AUNITS
 70
0
  9
$PDMODE
 70
3
  9
$PDSIZE
 40
0.3125
  9
$HANDSEED
  5
565
  9
$TILEMODE
 70
1
  9
$MEASUREMENT
 70
0
  9
$INSUNITS
 70
1
  0
ENDSEC
  0
SECTION
  2
CLASSES
  0
CLASS
  1
ACDBDICTIONARYWDFLT
  2
AcDbDictionaryWithDefault
  3
AutoCAD 2000
 90
0
 91
1
280
0
281
0
  0
CLASS
  1
ACDBPLACEHOLDER
  2
AcDbPlaceHolder
  3
AutoCAD 2000
 90
0
 91
1
280
0
281
0
  0
CLASS
  1
LAYOUT
  2
AcDbLayout
  3
AutoCAD 2000
 90
0
 91
0
280
0
281
0
  0
ENDSEC
  0
SECTION
  2
TABLES
  0
TABLE
  2
VPORT
  5
8
100
AcDbSymbolTable
 70
2
  0
VPORT
  5
1F4
100
AcDbSymbolTableRecord
100
AcDbViewportTableRecord
  2
*ACTIVE
 70
0
 10
0.0
 20
0.0
 11
1.0
 21
1.0
 12
5.5
 22
4.25
 13
0.0
 23
0.0
 14
1.0
 24
1.0
 15
0.0
 25
0.0
 16
0.0
 26
0.0
 36
1.0
 17
0.0
 27
0.0
 37
0.0
 40
8.5
 41
1.2941176471
 42
50.0
 43
0.0
 44
0.0
 50
0.0
 51
0.0
 71
0
 72
100
 73
1
 74
1
 75
0
 76
0
 77
0
 78
0
  0
ENDTAB
  0
TABLE
  2
LTYPE
  5
5
100
AcDbSymbolTable
 70
6
  0
LTYPE
  5
14
100
AcDbSymbolTableRecord
100
AcDbLinetypeTableRecord
  2
BYBLOCK
 70
0
  3

 72
65
 73
0
 40
0.0
  0
LTYPE
  5
15
100
AcDbSymbolTableRecord
100
AcDbLinetypeTableRecord
  2
BYLAYER
 70
0
  3

 72
65
 73
0
 40
0.0
  0
LTYPE
  5
16
100
AcDbSymbolTableRecord
100
AcDbLinetypeTableRecord
  2
CONTINUOUS
 70
64
  3
Solid line
 72
65
 73
0
 40
0.0
  0
LTYPE
  5
1F5
100
AcDbSymbolTableRecord
100
AcDbLinetypeTableRecord
  2
CENTER
 70
64
  3
____ _ ____ _ ____ _ ____ _ ____ _ ____ _ ____
 72
65
 73
4
 40
0.6
 49
0.375
 74
0
 49
-0.075
 74
0
 49
0.075
 74
0
 49
-0.075
 74
0
  0
LTYPE
  5
1F6
100
AcDbSymbolTableRecord
100
AcDbLinetypeTableRecord
  2
HIDDEN
 70
64
  3
- - - - - - - - - - - - - - - - - - - -
 72
65
 73
2
 40
0.2
 49
0.1
 74
0
 49
-0.1
 74
0
  0
LTYPE
  5
1F7
100
AcDbSymbolTableRecord
100
AcDbLinetypeTableRecord
  2
PHANTOM
 70
64
  3
_____ _ _ _____ _ _ _____ _ _ _____
 72
65
 73
6
 40
0.8
 49
0.45
 74
0
 49
-0.05
 74
0
 49
0.1
 74
0
 49
-0.05
 74
0
 49
0.1
 74
0
 49
-0.05
 74
0
  0
LTYPE
  5
1F8
100
AcDbSymbolTableRecord
100
AcDbLinetypeTableRecord
  2
DOT
 70
64
  3
. . . . . . . . . . . . . . . . . . . .
 72
65
 73
2
 40
0.2
 49
0.1
 74
0
 49
-0.1
 74
0
  0
LTYPE
  5
1F9
100
AcDbSymbolTableRecord
100
AcDbLinetypeTableRecord
  2
DASHED
 70
64
  3
- - - - - - - - - - - - - - - - - - - -
 72
65
 73
2
 40
0.2
 49
0.1
 74
0
 49
-0.1
 74
0
  0
ENDTAB
  0
TABLE
  2
LAYER
  5
2
100
AcDbSymbolTable
 70
36
  0
LAYER
  5
10
100
AcDbSymbolTableRecord
100
AcDbLayerTableRecord
  2
0
 70
0
 62
7
  6
CONTINUOUS
370
-3
390
F
  0
LAYER
  5
1FA
100
AcDbSymbolTableRecord
100
AcDbLayerTableRecord
  2
DEFAULT_1
 70
0
 62
7
  6
CENTER
370
-3
390
F
  0
LAYER
  5
1FB
100
AcDbSymbolTableRecord
100
AcDbLayerTableRecord
  2
DEFAULT_2
 70
0
 62
8
  6
HIDDEN
370
-3
390
F
  0
LAYER
  5
1FC
100
AcDbSymbolTableRecord
100
AcDbLayerTableRecord
  2
DEFAULT_3
 70
0
 62
7
  6
PHANTOM
370
-3
390
F
  0
LAYER
  5
1FD
100
AcDbSymbolTableRecord
100
AcDbLayerTableRecord
  2
ALL_ASSEMBLY_MEMBERS
 70
0
 62
7
  6
CONTINUOUS
370
-3
390
F
  0
LAYER
  5
1FE
100
AcDbSymbolTableRecord
100
AcDbLayerTableRecord
  2
ALL_FEATURES
 70
0
 62
7
  6
CONTINUOUS
370
-3
390
F
  0
LAYER
  5
1FF
100
AcDbSymbolTableRecord
100
AcDbLayerTableRecord
  2
AXES_FEATURES
 70
0
 62
7
  6
CONTINUOUS
370
-3
390
F
  0
LAYER
  5
200
100
AcDbSymbolTableRecord
100
AcDbLayerTableRecord
  2
CHAMFER_FEATURES
 70
0
 62
7
  6
CONTINUOUS
370
-3
390
F
  0
LAYER
  5
201
100
AcDbSymbolTableRecord
100
AcDbLayerTableRecord
  2
COSMETIC_SKETCHES
 70
0
 62
7
  6
CONTINUOUS
370
-3
390
F
  0
LAYER
  5
202
100
AcDbSymbolTableRecord
100
AcDbLayerTableRecord
  2
CUT_FEATURES
 70
0
 62
7
  6
CONTINUOUS
370
-3
390
F
  0
LAYER
  5
203
100
AcDbSymbolTableRecord
100
AcDbLayerTableRecord
  2
DATUM_CURVES
 70
0
 62
7
  6
CONTINUOUS
370
-3
390
F
  0
LAYER
  5
204
100
AcDbSymbolTableRecord
100
AcDbLayerTableRecord
  2
DATUM_PLANES
 70
0
 62
7
  6
CONTINUOUS
370
-3
390
F
  0
LAYER
  5
205
100
AcDbSymbolTableRecord
100
AcDbLayerTableRecord
  2
DATUM_POINTS
 70
0
 62
7
  6
CONTINUOUS
370
-3
390
F
  0
LAYER
  5
206
100
AcDbSymbolTableRecord
100
AcDbLayerTableRecord
  2
DEFAULT_COORDINATE_SYSTEM
 70
0
 62
7
  6
CONTINUOUS
370
-3
390
F
  0
LAYER
  5
207
100
AcDbSymbolTableRecord
100
AcDbLayerTableRecord
  2
DEFAULT_DATUM_AXES
 70
0
 62
7
  6
CONTINUOUS
370
-3
390
F
  0
LAYER
  5
208
100
AcDbSymbolTableRecord
100
AcDbLayerTableRecord
  2
DEFAULT_DATUM_CURVES
 70
0
 62
7
  6
CONTINUOUS
370
-3
390
F
  0
LAYER
  5
209
100
AcDbSymbolTableRecord
100
AcDbLayerTableRecord
  2
DEFAULT_DATUM_PLANES
 70
0
 62
7
  6
CONTINUOUS
370
-3
390
F
  0
LAYER
  5
20A
100
AcDbSymbolTableRecord
100
AcDbLayerTableRecord
  2
DEFAULT_SURFACES
 70
0
 62
7
  6
CONTINUOUS
370
-3
390
F
  0
LAYER
  5
20B
100
AcDbSymbolTableRecord
100
AcDbLayerTableRecord
  2
DIMENSIONS
 70
0
 62
7
  6
CONTINUOUS
370
-3
390
F
  0
LAYER
  5
20C
100
AcDbSymbolTableRecord
100
AcDbLayerTableRecord
  2
HOLE_FEATURES
 70
0
 62
7
  6
CONTINUOUS
370
-3
390
F
  0
LAYER
  5
20D
100
AcDbSymbolTableRecord
100
AcDbLayerTableRecord
  2
HOLE_PATTERN
 70
0
 62
7
  6
CONTINUOUS
370
-3
390
F
  0
LAYER
  5
20E
100
AcDbSymbolTableRecord
100
AcDbLayerTableRecord
  2
NONE
 70
0
 62
7
  6
CONTINUOUS
370
-3
390
F
  0
LAYER
  5
20F
100
AcDbSymbolTableRecord
100
AcDbLayerTableRecord
  2
PART_REFERENCE_DIMENSIONS
 70
0
 62
7
  6
CONTINUOUS
370
-3
390
F
  0
LAYER
  5
210
100
AcDbSymbolTableRecord
100
AcDbLayerTableRecord
  2
PLATED_SURFACE_AREA
 70
0
 62
7
  6
CONTINUOUS
370
-3
390
F
  0
LAYER
  5
211
100
AcDbSymbolTableRecord
100
AcDbLayerTableRecord
  2
POINTS
 70
0
 62
7
  6
CONTINUOUS
370
-3
390
F
  0
LAYER
  5
212
100
AcDbSymbolTableRecord
100
AcDbLayerTableRecord
  2
PROTRUSION
 70
0
 62
7
  6
CONTINUOUS
370
-3
390
F
  0
LAYER
  5
213
100
AcDbSymbolTableRecord
100
AcDbLayerTableRecord
  2
PROTRUSION_FEATURES
 70
0
 62
7
  6
CONTINUOUS
370
-3
390
F
  0
LAYER
  5
214
100
AcDbSymbolTableRecord
100
AcDbLayerTableRecord
  2
QUILT
 70
0
 62
7
  6
CONTINUOUS
370
-3
390
F
  0
LAYER
  5
215
100
AcDbSymbolTableRecord
100
AcDbLayerTableRecord
  2
QUILTS
 70
0
 62
7
  6
CONTINUOUS
370
-3
390
F
  0
LAYER
  5
216
100
AcDbSymbolTableRecord
100
AcDbLayerTableRecord
  2
REFERENCE_DIMENSIONS
 70
0
 62
7
  6
CONTINUOUS
370
-3
390
F
  0
LAYER
  5
217
100
AcDbSymbolTableRecord
100
AcDbLayerTableRecord
  2
ROUND_FEATURES
 70
0
 62
7
  6
CONTINUOUS
370
-3
390
F
  0
LAYER
  5
218
100
AcDbSymbolTableRecord
100
AcDbLayerTableRecord
  2
SATIN_DIRECTION
 70
0
 62
7
  6
CONTINUOUS
370
-3
390
F
  0
LAYER
  5
219
100
AcDbSymbolTableRecord
100
AcDbLayerTableRecord
  2
SHELL_FEATURES
 70
0
 62
7
  6
CONTINUOUS
370
-3
390
F
  0
LAYER
  5
21A
100
AcDbSymbolTableRecord
100
AcDbLayerTableRecord
  2
SURFACE_FEATURES
 70
0
 62
7
  6
CONTINUOUS
370
-3
390
F
  0
LAYER
  5
21B
100
AcDbSymbolTableRecord
100
AcDbLayerTableRecord
  2
XSEC_DATUMS
 70
0
 62
7
  6
CONTINUOUS
370
-3
390
F
  0
ENDTAB
  0
TABLE
  2
STYLE
  5
3
100
AcDbSymbolTable
 70
1
  0
STYLE
  5
11
100
AcDbSymbolTableRecord
100
AcDbTextStyleTableRecord
  2
STANDARD
 70
0
 40
0.0
 41
0.8
 50
0.0
 71
0
 42
0.2
  3
txt
  4

  0
STYLE
  5
21C
100
AcDbSymbolTableRecord
100
AcDbTextStyleTableRecord
  2
TEXTSTYLE_1
 70
0
 40
0.0
 41
0.8
 50
0.0
 71
0
 42
0.2
  3
gdt
  4

  0
ENDTAB
  0
TABLE
  2
VIEW
  5
6
100
AcDbSymbolTable
 70
0
  0
ENDTAB
  0
TABLE
  2
UCS
  5
7
100
AcDbSymbolTable
 70
0
  0
ENDTAB
  0
TABLE
  2
APPID
  5
9
100
AcDbSymbolTable
 70
1
  0
APPID
  5
21D
100
AcDbSymbolTableRecord
100
AcDbRegAppTableRecord
  2
ACAD
 70
0
  0
ENDTAB
  0
TABLE
  2
BLOCK_RECORD
  5
1
100
AcDbSymbolTable
 70
0
  0
BLOCK_RECORD
  5
21E
100
AcDbSymbolTableRecord
100
AcDbBlockTableRecord
  2
*Model_Space
  0
BLOCK_RECORD
  5
21F
100
AcDbSymbolTableRecord
100
AcDbBlockTableRecord
  2
*Paper_Space
  0
BLOCK_RECORD
  5
220
100
AcDbSymbolTableRecord
100
AcDbBlockTableRecord
  2
_FILLED
  0
ENDTAB
  0
TABLE
  2
DIMSTYLE
  5
A
100
AcDbSymbolTable
 70
1
100
AcDbDimStyleTable
 71
0
  0
DIMSTYLE
105
221
100
AcDbSymbolTableRecord
100
AcDbDimStyleTableRecord
  2
STANDARD
 70
0
  3

  4

 40
1.0
 41
0.1
 42
0.0625
 43
0.38
 44
0.125
 45
0.0
 46
0.0
 47
0.001
 48
0.001
140
0.08
141
0.09
142
0.0
143
25.4
144
1.0
145
0.0
146
1.0
147
0.09
 71
1.0
 72
0.0
 73
1
 74
1
 75
0
 76
0
 77
0
 78
4
 79
1
170
1
171
2
172
0
173
0
174
0
175
0
176
0
177
0
178
0
270
2
179
3
271
3
272
3
273
2
274
2
275
0
280
0
281
0
282
0
283
1
284
4
285
0
286
0
287
3
288
0
340
11
278
46
341
220
342
220
343
220
344
220
  0
ENDTAB
  0
ENDSEC
  0
SECTION
  2
BLOCKS
  0
BLOCK
  5
20
100
AcDbEntity
  8
0
100
AcDbBlockBegin
  2
*Model_Space
 70
0
 10
0.0
 20
0.0
 30
0.0
  3
*Model_Space
  1

  0
ENDBLK
  5
21
100
AcDbEntity
  8
0
100
AcDbBlockEnd
  0
BLOCK
  5
1C
100
AcDbEntity
  8
0
100
AcDbBlockBegin
  2
*Paper_Space
 70
0
 10
0.0
 20
0.0
 30
0.0
  3
*Paper_Space
  1

  0
ENDBLK
  5
1D
100
AcDbEntity
  8
0
100
AcDbBlockEnd
  0
BLOCK
  5
222
100
AcDbEntity
  8
0
100
AcDbBlockBegin
  2
_FILLED
 70
64
 10
0.0
 20
0.0
  3
_FILLED
  1

  0
SOLID
  5
223
100
AcDbEntity
  8
0
  6
BYBLOCK
 62
0
100
AcDbTrace
 10
0.0
 20
0.0
 11
-1.0
 21
0.2
 12
-1.0
 22
-0.2
 13
-1.0
 23
-0.2
  0
ENDBLK
  5
224
100
AcDbEntity
  8
0
  6
BYBLOCK
 62
0
100
AcDbBlockEnd
  0
ENDSEC
  0
SECTION
  2
ENTITIES
  0
MTEXT
  5
225
100
AcDbEntity
  8
0
100
AcDbMText
 62
2
  6
CONTINUOUS
  7
STANDARD
 71
3
 72
1
 10
5.177173913
 20
3.0843284161
 30
0.0
 11
1.0
 21
0.0
 31
0.0
 73
2
 44
0.9
  1
SCALE  .500
 40
0.08
 41
0.704
  0
LINE
  5
226
100
AcDbEntity
  8
0
100
AcDbLine
 62
7
  6
CONTINUOUS
 10
0.0
 20
0.0
 11
0.0
 21
8.5
  0
LINE
  5
227
100
AcDbEntity
  8
0
100
AcDbLine
 62
7
  6
CONTINUOUS
 10
0.0
 20
0.0
 11
11.0
 21
0.0
  0
LINE
  5
228
100
AcDbEntity
  8
0
100
AcDbLine
 62
7
  6
CONTINUOUS
 10
0.0
 20
8.5
 11
11.0
 21
8.5
  0
LINE
  5
229
100
AcDbEntity
  8
0
100
AcDbLine
 62
7
  6
CONTINUOUS
 10
11.0
 20
0.0
 11
11.0
 21
8.5
  0
LINE
  5
22A
100
AcDbEntity
  8
ALL_ASSEMBLY_MEMBERS
100
AcDbLine
 62
7
  6
CONTINUOUS
 10
5.9441935981
 20
3.1793284161
 11
6.0591935981
 21
3.1793284161
  0
LINE
  5
22B
100
AcDbEntity
  8
ALL_ASSEMBLY_MEMBERS
100
AcDbLine
 62
7
  6
CONTINUOUS
 10
5.9441935981
 20
3.2418284161
 11
5.8876935981
 21
3.2418284161
  0
LINE
  5
22C
100
AcDbEntity
  8
ALL_ASSEMBLY_MEMBERS
100
AcDbLine
 62
7
  6
CONTINUOUS
 10
5.8876935981
 20
3.3868284161
 11
6.0591935981
 21
3.3868284161
  0
LINE
  5
22D
100
AcDbEntity
  8
ALL_ASSEMBLY_MEMBERS
100
AcDbLine
 62
7
  6
CONTINUOUS
 10
6.0591935981
 20
3.4093284161
 11
5.8876935981
 21
3.4093284161
  0
LINE
  5
22E
100
AcDbEntity
  8
ALL_ASSEMBLY_MEMBERS
100
AcDbLine
 62
7
  6
CONTINUOUS
 10
5.9441935981
 20
3.4293284161
 11
6.0591935981
 21
3.4293284161
  0
LINE
  5
22F
100
AcDbEntity
  8
ALL_ASSEMBLY_MEMBERS
100
AcDbLine
 62
7
  6
CONTINUOUS
 10
5.9441935981
 20
3.4918284161
 11
5.8876935981
 21
3.4918284161
  0
LINE
  5
230
100
AcDbEntity
  8
ALL_ASSEMBLY_MEMBERS
100
AcDbLine
 62
7
  6
CONTINUOUS
 10
5.8876935981
 20
3.6368284161
 11
6.0591935981
 21
3.6368284161
  0
LINE
  5
231
100
AcDbEntity
  8
ALL_ASSEMBLY_MEMBERS
100
AcDbLine
 62
7
  6
CONTINUOUS
 10
4.201441169
 20
5.4991472741
 11
4.201441169
 21
5.4991152853
  0
LINE
  5
232
100
AcDbEntity
  8
ALL_ASSEMBLY_MEMBERS
100
AcDbLine
 62
7
  6
CONTINUOUS
 10
4.201441169
 20
4.2345095582
 11
4.201441169
 21
4.234541547
  0
LINE
  5
233
100
AcDbEntity
  8
ALL_ASSEMBLY_MEMBERS
100
AcDbLine
 62
7
  6
CONTINUOUS
 10
4.201441169
 20
4.8604681341
 11
4.201441169
 21
4.8731886979
  0
LWPOLYLINE
  5
234
100
AcDbEntity
  8
ALL_ASSEMBLY_MEMBERS
100
AcDbPolyline
 62
7
  6
CONTINUOUS
 90
3
 70
0
 10
4.3575893076
 20
5.2891341123
 10
4.358213124
 20
5.2908610291
 10
4.3589905133
 20
5.2925189498
  0
LINE
  5
235
100
AcDbEntity
  8
ALL_ASSEMBLY_MEMBERS
100
AcDbLine
 62
7
  6
CONTINUOUS
 10
4.3589905133
 20
5.2925189498
 11
4.3599137794
 21
5.2940945674
  0
LINE
  5
236
100
AcDbEntity
  8
ALL_ASSEMBLY_MEMBERS
100
AcDbLine
 62
7
  6
CONTINUOUS
 10
4.3598934398
 20
5.2940630641
 11
4.3607364321
 21
5.2952674215
  0
LINE
  5
237
100
AcDbEntity
  8
ALL_ASSEMBLY_MEMBERS
100
AcDbLine
 62
7
  6
CONTINUOUS
 10
4.3606954834
 20
4.4384444312
 11
4.359862165
 21
4.4396425958
  0
LWPOLYLINE
  5
238
100
AcDbEntity
  8
ALL_ASSEMBLY_MEMBERS
100
AcDbPolyline
 62
7
  6
CONTINUOUS
 90
7
 70
0
 10
4.359862165
 20
4.4396425958
 10
4.3589503036
 20
4.4412147046
 10
4.3581835832
 20
4.4428669828
 10
4.3575693249
 20
4.4445862293
 10
4.3571137718
 20
4.4463581529
 10
4.356821828
 20
4.4481674684
 10
4.3566936981
 20
4.4501722626
  0
LINE
  5
239
100
AcDbEntity
  8
ALL_ASSEMBLY_MEMBERS
100
AcDbLine
 62
7
  6
CONTINUOUS
 10
4.3566728443
 20
4.4533728388
 11
4.3566945646
 21
4.4501708752
  0
LINE
  5
23A
100
AcDbEntity
  8
ALL_ASSEMBLY_MEMBERS
100
AcDbLine
 62
7
  6
CONTINUOUS
 10
4.3395615637
 20
4.4088987324
 11
4.3395618148
 21
4.3969911452
  0
LINE
  5
23B
100
AcDbEntity
  8
ALL_ASSEMBLY_MEMBERS
100
AcDbLine
 62
7
  6
CONTINUOUS
 10
4.3395614791
 20
5.3366656871
 11
4.3395614791
 21
5.3247583099
  0
LINE
  5
23C
100
AcDbEntity
  8
ALL_ASSEMBLY_MEMBERS
100
AcDbLine
 62
7
  6
CONTINUOUS
 10
4.3538218419
 20
4.363363293
 11
4.353823117
 21
4.4179933453
  0
LINE
  5
23D
100
AcDbEntity
  8
ALL_ASSEMBLY_MEMBERS
100
AcDbLine
 62
7
  6
CONTINUOUS
 10
4.3566945671
 20
5.2834896828
 11
4.3566945672
 21
5.2834861471
  0
LINE
  5
23E
100
AcDbEntity
  8
ALL_ASSEMBLY_MEMBERS
100
AcDbLine
 62
7
  6
CONTINUOUS
 10
4.3538231178
 20
5.3156634736
 11
4.3538218413
 21
5.3702935393
  0
LINE
  5
23F
100
AcDbEntity
  8
ALL_ASSEMBLY_MEMBERS
100
AcDbLine
 62
7
  6
CONTINUOUS
 10
4.3566945646
 20
4.4501708752
 11
4.3566945643
 21
4.4501674868
  0
LINE
  5
240
100
AcDbEntity
  8
ALL_ASSEMBLY_MEMBERS
100
AcDbLine
 62
7
  6
CONTINUOUS
 10
4.3566945672
 20
5.2834861471
 11
4.3566728443
 21
5.2802839917
  0
LINE
  5
241
100
AcDbEntity
  8
ALL_ASSEMBLY_MEMBERS
100
AcDbLine
 62
7
  6
CONTINUOUS
 10
4.3566944876
 20
5.2834854126
 11
4.3566982515
 21
5.2836877184
  0
LINE
  5
242
100
AcDbEntity
  8
ALL_ASSEMBLY_MEMBERS
100
AcDbLine
 62
7
  6
CONTINUOUS
 10
4.3566728443
 20
4.4533728388
 11
4.3568511971
 21
4.4625468342
  0
LWPOLYLINE
  5
243
100
AcDbEntity
  8
ALL_ASSEMBLY_MEMBERS
100
AcDbPolyline
 62
7
  6
CONTINUOUS
 90
3
 70
0
 10
4.3566982515
 20
5.2836877184
 10
4.3568274277
 20
5.285531968
 10
4.3571256607
 20
5.2873526166
  0
LINE
  5
244
100
AcDbEntity
  8
ALL_ASSEMBLY_MEMBERS
100
AcDbLine
 62
7
  6
CONTINUOUS
 10
4.3571256607
 20
5.2873526166
 11
4.3575893076
 21
5.2891341123
  0
LWPOLYLINE
  5
245
100
AcDbEntity
  8
ALL_ASSEMBLY_MEMBERS
100
AcDbPolyline
 62
7
  6
CONTINUOUS
 90
3
 70
0
 10
4.4967714606
 20
5.3930454068
 10
4.5009558206
 20
5.4029502359
 10
4.5016899177
 20
5.4049070105
  0
LINE
  5
246
100
AcDbEntity
  8
ALL_ASSEMBLY_MEMBERS
100
AcDbLine
 62
7
  6
CONTINUOUS
 10
4.3607122245
 20
5.2952353498
 11
4.3607364321
 21
5.2952674215
  0
LINE
  5
247
100
AcDbEntity
  8
ALL_ASSEMBLY_MEMBERS
100
AcDbLine
 62
7
  6
CONTINUOUS
 10
4.3607364321
 20
5.2952674215
 11
4.3609743738
 21
5.2955757131
  0
LINE
  5
248
100
AcDbEntity
  8
ALL_ASSEMBLY_MEMBERS
100
AcDbLine
 62
7
  6
CONTINUOUS
 10
4.3607116092
 20
5.2952358143
 11
4.3611645002
 21
5.2958146807
  0
LINE
  5
249
100
AcDbEntity
  8
ALL_ASSEMBLY_MEMBERS
100
AcDbLine
 62
7
  6
CONTINUOUS
 10
4.3611645002
 20
5.2958146807
 11
4.3625395534
 21
5.297339764
  0
LWPOLYLINE
  5
24A
100
AcDbEntity
  8
ALL_ASSEMBLY_MEMBERS
100
AcDbPolyline
 62
7
  6
CONTINUOUS
 90
8
 70
0
 10
4.361816799
 20
5.296577134
 10
4.3633649368
 20
5.2981195229
 10
4.365070114
 20
5.2994820467
 10
4.3669115868
 20
5.3006491881
 10
4.3688667327
 20
5.3016075956
 10
4.3709087109
 20
5.3023456825
 10
4.3730114227
 20
5.3028562972
 10
4.3731834786
 20
5.3028834352
  0
LWPOLYLINE
  5
24B
100
AcDbEntity
  8
ALL_ASSEMBLY_MEMBERS
100
AcDbPolyline
 62
7
  6
CONTINUOUS
 90
6
 70
0
 10
4.3625395534
 20
5.297339764
 10
4.3640642373
 20
5.2987159249
 10
4.3657202027
 20
5.2999269837
 10
4.3674898848
 20
5.3009608981
 10
4.3693539204
 20
5.3018071141
 10
4.371288467
 20
5.3024562811
  0
LINE
  5
24C
100
AcDbEntity
  8
ALL_ASSEMBLY_MEMBERS
100
AcDbLine
 62
7
  6
CONTINUOUS
 10
5.8226642597
 20
4.1432565198
 11
5.8223158712
 21
4.1431905393
  0
LINE
  5
24D
100
AcDbEntity
  8
ALL_ASSEMBLY_MEMBERS
100
AcDbLine
 62
7
  6
CONTINUOUS
 10
5.8160796529
 20
4.1815006284
 11
5.8159843268
 21
4.1814825748
  0
LINE
  5
24E
100
AcDbEntity
  8
ALL_ASSEMBLY_MEMBERS
100
AcDbLine
 62
7
  6
CONTINUOUS
 10
5.8876935981
 20
3.9955784161
 11
5.8476935981
 21
3.9955784161
  0
LINE
  5
24F
100
AcDbEntity
  8
ALL_ASSEMBLY_MEMBERS
100
AcDbLine
 62
7
  6
CONTINUOUS
 10
5.8476935981
 20
4.0355784161
 11
5.8426935981
 21
4.0355784161
  0
LINE
  5
250
100
AcDbEntity
  8
ALL_ASSEMBLY_MEMBERS
100
AcDbLine
 62
7
  6
CONTINUOUS
 10
4.3618167234
 20
4.4370797039
 11
4.3606995258
 21
4.4384374205
  0
LINE
  5
251
100
AcDbEntity
  8
ALL_ASSEMBLY_MEMBERS
100
AcDbLine
 62
7
  6
CONTINUOUS
 10
4.3606995258
 20
4.4384374205
 11
4.3609101351
 21
4.4381621927
  0
LINE
  5
252
100
AcDbEntity
  8
ALL_ASSEMBLY_MEMBERS
100
AcDbLine
 62
7
  6
CONTINUOUS
 10
4.3606947014
 20
4.4384438424
 11
4.3606995258
 21
4.4384374205
  0
LWPOLYLINE
  5
253
100
AcDbEntity
  8
ALL_ASSEMBLY_MEMBERS
100
AcDbPolyline
 62
7
  6
CONTINUOUS
 90
16
 70
0
 10
4.5043962882
 20
4.3207262001
 10
4.5008825602
 20
4.3308972568
 10
4.4966826735
 20
4.3408036427
 10
4.491816673
 20
4.3503993726
 10
4.4863089079
 20
4.3596397016
 10
4.4801838886
 20
4.3684809095
 10
4.473470961
 20
4.3768822735
 10
4.4662032877
 20
4.3848047287
 10
4.4584136492
 20
4.3922107915
 10
4.4501391898
 20
4.3990669197
 10
4.4414205922
 20
4.4053412551
 10
4.4322980633
 20
4.4110037011
 10
4.4228145814
 20
4.4160300545
 10
4.4130153553
 20
4.4203982176
 10
4.4029454312
 20
4.4240870672
 10
4.3926503827
 20
4.4270814254
  0
LINE
  5
254
100
AcDbEntity
  8
ALL_ASSEMBLY_MEMBERS
100
AcDbLine
 62
7
  6
CONTINUOUS
 10
4.5072086935
 20
4.3103384664
 11
4.5043962882
 21
4.3207262001
  0
LWPOLYLINE
  5
255
100
AcDbEntity
  8
ALL_ASSEMBLY_MEMBERS
100
AcDbPolyline
 62
7
  6
CONTINUOUS
 90
22
 70
0
 10
4.5113654632
 20
4.8732856644
 10
4.5113607586
 20
4.87385957
 10
4.5112213651
 20
4.876458649
 10
4.5108951551
 20
4.8790045768
 10
4.5103918469
 20
4.8814842481
 10
4.5097222163
 20
4.8838850357
 10
4.5088974277
 20
4.8861969431
 10
4.5079290241
 20
4.8884112644
 10
4.5068294447
 20
4.8905194244
 10
4.5056107815
 20
4.8925154539
 10
4.5042851974
 20
4.8943944569
 10
4.502865734
 20
4.8961515825
 10
4.5013647705
 20
4.8977841142
 10
4.4997937087
 20
4.8992911439
 10
4.498163902
 20
4.9006723027
 10
4.4964839729
 20
4.9019297318
 10
4.4947663293
 20
4.9030629768
 10
4.4930279734
 20
4.9040702666
 10
4.4912679784
 20
4.9049606889
 10
4.4895055403
 20
4.905732629
 10
4.4877898291
 20
4.906377107
 10
4.4854359192
 20
4.907126223
  0
LINE
  5
256
100
AcDbEntity
  8
ALL_ASSEMBLY_MEMBERS
100
AcDbLine
 62
7
  6
CONTINUOUS
 10
4.5113654688
 20
4.8732856821
 11
4.5113654688
 21
4.8603711197
  0
LWPOLYLINE
  5
257
100
AcDbEntity
  8
ALL_ASSEMBLY_MEMBERS
100
AcDbPolyline
 62
7
  6
CONTINUOUS
 90
13
 70
0
 10
4.4726084738
 20
4.8131238382
 10
4.4728225371
 20
4.8138180182
 10
4.4734829108
 20
4.8155529317
 10
4.4743012771
 20
4.8172191069
 10
4.4752705743
 20
4.8188021935
 10
4.4763824419
 20
4.8202885606
 10
4.4776272926
 20
4.8216654121
 10
4.4789943932
 20
4.8229208956
 10
4.4804719556
 20
4.8240442038
 10
4.4820472501
 20
4.8250256764
 10
4.4837067163
 20
4.8258568773
 10
4.4854360633
 20
4.8265306578
 10
4.4877881376
 20
4.8272792725
  0
LINE
  5
258
100
AcDbEntity
  8
ALL_ASSEMBLY_MEMBERS
100
AcDbLine
 62
7
  6
CONTINUOUS
 10
4.3426321383
 20
5.1048284163
 11
4.3689685155
 21
5.1257383661
  0
LINE
  5
259
100
AcDbEntity
  8
ALL_ASSEMBLY_MEMBERS
100
AcDbLine
 62
7
  6
CONTINUOUS
 10
5.8087001778
 20
4.2207908996
 11
5.8085991449
 21
4.2207717652
  0
LINE
  5
25A
100
AcDbEntity
  8
ALL_ASSEMBLY_MEMBERS
100
AcDbLine
 62
7
  6
CONTINUOUS
 10
5.8069062185
 20
4.2318198143
 11
5.8067911768
 21
4.2317980268
  0
LINE
  5
25B
100
AcDbEntity
  8
ALL_ASSEMBLY_MEMBERS
100
AcDbLine
 62
7
  6
CONTINUOUS
 10
5.8023939118
 20
4.2499415029
 11
5.8034523324
 21
4.2501419548
  0
LINE
  5
25C
100
AcDbEntity
  8
ALL_ASSEMBLY_MEMBERS
100
AcDbLine
 62
7
  6
CONTINUOUS
 10
5.8015153712
 20
4.2530233081
 11
5.8028650792
 21
4.2532789263
  0
LINE
  5
25D
100
AcDbEntity
  8
ALL_ASSEMBLY_MEMBERS
100
AcDbLine
 62
7
  6
CONTINUOUS
 10
5.8020524196
 20
4.2575699094
 11
5.8007027332
 21
4.2573142953
  0
LINE
  5
25E
100
AcDbEntity
  8
ALL_ASSEMBLY_MEMBERS
100
AcDbLine
 62
7
  6
CONTINUOUS
 10
4.3426321382
 20
4.6288284161
 11
4.3689684499
 21
4.6079185182
  0
LINE
  5
25F
100
AcDbEntity
  8
ALL_ASSEMBLY_MEMBERS
100
AcDbLine
 62
7
  6
CONTINUOUS
 10
4.5083909497
 20
4.304857544
 11
4.5072086935
 21
4.3103384664
  0
LINE
  5
260
100
AcDbEntity
  8
ALL_ASSEMBLY_MEMBERS
100
AcDbLine
 62
7
  6
CONTINUOUS
 10
4.5516344955
 20
4.8187656155
 11
4.5516344955
 21
4.6950039214
  0
LINE
  5
261
100
AcDbEntity
  8
ALL_ASSEMBLY_MEMBERS
100
AcDbLine
 62
7
  6
CONTINUOUS
 10
4.5516344955
 20
4.9148912172
 11
4.5516344955
 21
5.0386529112
  0
LINE
  5
262
100
AcDbEntity
  8
ALL_ASSEMBLY_MEMBERS
100
AcDbLine
 62
7
  6
CONTINUOUS
 10
4.5926728443
 20
5.0443284161
 11
4.5926728443
 21
5.036152623
  0
LINE
  5
263
100
AcDbEntity
  8
ALL_ASSEMBLY_MEMBERS
100
AcDbLine
 62
7
  6
CONTINUOUS
 10
4.5926728443
 20
4.9200784161
 11
4.5926728443
 21
4.8135784118
  0
LINE
  5
264
100
AcDbEntity
  8
ALL_ASSEMBLY_MEMBERS
100
AcDbLine
 62
7
  6
CONTINUOUS
 10
4.5926728443
 20
4.6975042079
 11
4.5926728443
 21
4.6893284161
  0
LINE
  5
265
100
AcDbEntity
  8
ALL_ASSEMBLY_MEMBERS
100
AcDbLine
 62
7
  6
CONTINUOUS
 10
4.614154228
 20
4.6893315186
 11
4.614154228
 21
5.0443253137
  0
LINE
  5
266
100
AcDbEntity
  8
ALL_ASSEMBLY_MEMBERS
100
AcDbLine
 62
7
  6
CONTINUOUS
 10
5.8197597703
 20
4.4047059856
 11
5.8224028787
 21
4.4049931021
  0
LWPOLYLINE
  5
267
100
AcDbEntity
  8
ALL_ASSEMBLY_MEMBERS
100
AcDbPolyline
 62
7
  6
CONTINUOUS
 90
8
 70
0
 10
4.3821759715
 20
4.4293683567
 10
4.3730113493
 20
4.4308005431
 10
4.3709086338
 20
4.4313111584
 10
4.368866654
 20
4.4320492457
 10
4.3669115082
 20
4.4330076531
 10
4.365070036
 20
4.4341747941
 10
4.3633648599
 20
4.4355373168
 10
4.3618167234
 20
4.4370797039
  0
LINE
  5
268
100
AcDbEntity
  8
ALL_ASSEMBLY_MEMBERS
100
AcDbLine
 62
7
  6
CONTINUOUS
 10
4.3926503827
 20
4.4270814254
 11
4.3821759715
 21
4.4293683567
  0
LINE
  5
269
100
AcDbEntity
  8
ALL_ASSEMBLY_MEMBERS
100
AcDbLine
 62
7
  6
CONTINUOUS
 10
5.8090315749
 20
4.4332416822
 11
5.8131606803
 21
4.4336902202
  0
LINE
  5
26A
100
AcDbEntity
  8
ALL_ASSEMBLY_MEMBERS
100
AcDbLine
 62
7
  6
CONTINUOUS
 10
5.8192729047
 20
4.4351990094
 11
5.8205693748
 21
4.4353398428
  0
LINE
  5
26B
100
AcDbEntity
  8
ALL_ASSEMBLY_MEMBERS
100
AcDbLine
 62
7
  6
CONTINUOUS
 10
5.8105788256
 20
4.4434636394
 11
5.8150708396
 21
4.4439515995
  0
LINE
  5
26C
100
AcDbEntity
  8
ALL_ASSEMBLY_MEMBERS
100
AcDbLine
 62
7
  6
CONTINUOUS
 10
5.8115002197
 20
4.444301174
 11
5.8160636084
 21
4.4447968874
  0
LINE
  5
26D
100
AcDbEntity
  8
ALL_ASSEMBLY_MEMBERS
100
AcDbLine
 62
7
  6
CONTINUOUS
 10
5.8166919471
 20
4.4485026378
 11
5.8179450317
 21
4.4486387583
  0
LINE
  5
26E
100
AcDbEntity
  8
ALL_ASSEMBLY_MEMBERS
100
AcDbLine
 62
7
  6
CONTINUOUS
 10
5.8029523894
 20
4.4621319225
 11
5.8038413369
 21
4.4622284874
  0
LINE
  5
26F
100
AcDbEntity
  8
ALL_ASSEMBLY_MEMBERS
100
AcDbLine
 62
7
  6
CONTINUOUS
 10
5.8192088981
 20
4.4801853691
 11
5.822117795
 21
4.4805013578
  0
LINE
  5
270
100
AcDbEntity
  8
ALL_ASSEMBLY_MEMBERS
100
AcDbLine
 62
7
  6
CONTINUOUS
 10
5.800123463
 20
4.4970512324
 11
5.8035891671
 21
4.4974277062
  0
LINE
  5
271
100
AcDbEntity
  8
ALL_ASSEMBLY_MEMBERS
100
AcDbLine
 62
7
  6
CONTINUOUS
 10
5.8195610654
 20
4.5081552511
 11
5.823013242
 21
4.5085302554
  0
LINE
  5
272
100
AcDbEntity
  8
ALL_ASSEMBLY_MEMBERS
100
AcDbLine
 62
7
  6
CONTINUOUS
 10
5.8005768077
 20
4.5087311166
 11
5.8020996171
 21
4.5088965369
  0
LINE
  5
273
100
AcDbEntity
  8
ALL_ASSEMBLY_MEMBERS
100
AcDbLine
 62
7
  6
CONTINUOUS
 10
5.8192927425
 20
4.5209094515
 11
5.8208044432
 21
4.521073665
  0
LINE
  5
274
100
AcDbEntity
  8
ALL_ASSEMBLY_MEMBERS
100
AcDbLine
 62
7
  6
CONTINUOUS
 10
5.8174115512
 20
4.5344688591
 11
5.8180880291
 21
4.5345423438
  0
LINE
  5
275
100
AcDbEntity
  8
ALL_ASSEMBLY_MEMBERS
100
AcDbLine
 62
7
  6
CONTINUOUS
 10
4.3538218419
 20
4.363363293
 11
4.2996003589
 21
4.3633633394
  0
LINE
  5
276
100
AcDbEntity
  8
ALL_ASSEMBLY_MEMBERS
100
AcDbLine
 62
7
  6
CONTINUOUS
 10
5.6041935981
 20
4.3743284161
 11
5.7846935981
 21
4.3743284161
  0
LINE
  5
277
100
AcDbEntity
  8
ALL_ASSEMBLY_MEMBERS
100
AcDbLine
 62
7
  6
CONTINUOUS
 10
5.356654228
 20
4.3768284161
 11
5.6041935981
 21
4.3768284161
  0
LINE
  5
278
100
AcDbEntity
  8
ALL_ASSEMBLY_MEMBERS
100
AcDbLine
 62
7
  6
CONTINUOUS
 10
4.3538245961
 20
4.3969911395
 11
4.3395618148
 21
4.3969911452
  0
LINE
  5
279
100
AcDbEntity
  8
ALL_ASSEMBLY_MEMBERS
100
AcDbLine
 62
7
  6
CONTINUOUS
 10
5.297154228
 20
4.4068284161
 11
5.326654228
 21
4.4068284161
  0
LINE
  5
27A
100
AcDbEntity
  8
ALL_ASSEMBLY_MEMBERS
100
AcDbLine
 62
7
  6
CONTINUOUS
 10
5.134154228
 20
5.2469418221
 11
5.1339995126
 21
5.2467850623
  0
LINE
  5
27B
100
AcDbEntity
  8
ALL_ASSEMBLY_MEMBERS
100
AcDbLine
 62
7
  6
CONTINUOUS
 10
5.1341531027
 20
5.246933939
 11
5.1340327348
 21
5.2468147825
  0
LINE
  5
27C
100
AcDbEntity
  8
ALL_ASSEMBLY_MEMBERS
100
AcDbLine
 62
7
  6
CONTINUOUS
 10
4.2007635118
 20
4.2371395989
 11
4.2389087993
 21
4.2470675195
  0
LINE
  5
27D
100
AcDbEntity
  8
ALL_ASSEMBLY_MEMBERS
100
AcDbLine
 62
7
  6
CONTINUOUS
 10
4.2714513012
 20
4.2555402066
 11
4.2389091286
 21
4.2470665345
  0
LINE
  5
27E
100
AcDbEntity
  8
ALL_ASSEMBLY_MEMBERS
100
AcDbLine
 62
7
  6
CONTINUOUS
 10
5.8006561143
 20
4.5549207916
 11
5.8028900714
 21
4.5551634626
  0
LINE
  5
27F
100
AcDbEntity
  8
ALL_ASSEMBLY_MEMBERS
100
AcDbLine
 62
7
  6
CONTINUOUS
 10
5.0815567655
 20
4.5247899474
 11
5.081154228
 21
4.5250053752
  0
LINE
  5
280
100
AcDbEntity
  8
ALL_ASSEMBLY_MEMBERS
100
AcDbLine
 62
7
  6
CONTINUOUS
 10
4.975404228
 20
5.1448973966
 11
4.975404228
 21
5.2750159161
  0
LINE
  5
281
100
AcDbEntity
  8
ALL_ASSEMBLY_MEMBERS
100
AcDbLine
 62
7
  6
CONTINUOUS
 10
4.989154228
 20
5.2750159161
 11
4.989154228
 21
5.3750159161
  0
LWPOLYLINE
  5
282
100
AcDbEntity
  8
ALL_ASSEMBLY_MEMBERS
100
AcDbPolyline
 62
7
  6
CONTINUOUS
 90
21
 70
0
 10
4.4877881376
 20
4.8272792725
 10
4.4895037253
 20
4.8279236255
 10
4.4912661742
 20
4.8286954802
 10
4.4930262166
 20
4.8295858309
 10
4.494764634
 20
4.8305930571
 10
4.4964823721
 20
4.8317262621
 10
4.4981624005
 20
4.8329836614
 10
4.4997923023
 20
4.8343647946
 10
4.5013634625
 20
4.8358718098
 10
4.5028645271
 20
4.8375043395
 10
4.5042840928
 20
4.8392614766
 10
4.5056097786
 20
4.841140505
 10
4.5068285405
 20
4.843136573
 10
4.5079282134
 20
4.8452447844
 10
4.5088967042
 20
4.8474591703
 10
4.5097215716
 20
4.8497711556
 10
4.5103912708
 20
4.8521720334
 10
4.5108946353
 20
4.8546518067
 10
4.5112208876
 20
4.8571978477
 10
4.5113603071
 20
4.8597970495
 10
4.5113650151
 20
4.8603711837
  0
LINE
  5
283
100
AcDbEntity
  8
ALL_ASSEMBLY_MEMBERS
100
AcDbLine
 62
7
  6
CONTINUOUS
 10
4.2049034697
 20
4.6288284161
 11
4.171437863
 21
4.625530699
  0
LINE
  5
284
100
AcDbEntity
  8
ALL_ASSEMBLY_MEMBERS
100
AcDbLine
 62
7
  6
CONTINUOUS
 10
4.131678768
 20
4.6271425301
 11
4.1571425636
 21
4.6295939726
  0
LINE
  5
285
100
AcDbEntity
  8
ALL_ASSEMBLY_MEMBERS
100
AcDbLine
 62
7
  6
CONTINUOUS
 10
4.1571425381
 20
4.6295944077
 11
4.1709203123
 21
4.6309214645
  0
LINE
  5
286
100
AcDbEntity
  8
ALL_ASSEMBLY_MEMBERS
100
AcDbLine
 62
7
  6
CONTINUOUS
 10
5.8050134786
 20
4.7508822961
 11
5.8099205039
 21
4.7510436727
  0
LINE
  5
287
100
AcDbEntity
  8
ALL_ASSEMBLY_MEMBERS
100
AcDbLine
 62
7
  6
CONTINUOUS
 10
4.3426321383
 20
4.6288284161
 11
4.2049034697
 21
4.6288284161
  0
LINE
  5
288
100
AcDbEntity
  8
ALL_ASSEMBLY_MEMBERS
100
AcDbLine
 62
7
  6
CONTINUOUS
 10
4.5926728443
 20
4.6893284161
 11
4.614154228
 21
4.6893284161
  0
LINE
  5
289
100
AcDbEntity
  8
ALL_ASSEMBLY_MEMBERS
100
AcDbLine
 62
7
  6
CONTINUOUS
 10
4.5516344903
 20
4.6975042079
 11
4.5926728443
 21
4.6975042079
  0
LWPOLYLINE
  5
28A
100
AcDbEntity
  8
ALL_ASSEMBLY_MEMBERS
100
AcDbPolyline
 62
7
  6
CONTINUOUS
 90
12
 70
0
 10
4.4854359192
 20
4.907126223
 10
4.4837065248
 20
4.9078000401
 10
4.4820470173
 20
4.9086312864
 10
4.4804716885
 20
4.9096128126
 10
4.4789941003
 20
4.9107361817
 10
4.4776269832
 20
4.9119917321
 10
4.4763821262
 20
4.9133686553
 10
4.4752702632
 20
4.9148550975
 10
4.4743009823
 20
4.9164382613
 10
4.473482644
 20
4.9181045143
 10
4.4728223105
 20
4.9198395044
 10
4.4726084763
 20
4.9205329854
  0
LINE
  5
28B
100
AcDbEntity
  8
ALL_ASSEMBLY_MEMBERS
100
AcDbLine
 62
7
  6
CONTINUOUS
 10
5.114154228
 20
5.2750159161
 11
5.114154228
 21
5.3750159161
  0
LINE
  5
28C
100
AcDbEntity
  8
ALL_ASSEMBLY_MEMBERS
100
AcDbLine
 62
7
  6
CONTINUOUS
 10
5.127904228
 20
5.2408140892
 11
5.127904228
 21
5.2750159161
  0
LINE
  5
28D
100
AcDbEntity
  8
ALL_ASSEMBLY_MEMBERS
100
AcDbLine
 62
7
  6
CONTINUOUS
 10
4.4389779692
 20
4.7878284161
 11
4.2049034697
 21
4.7878284161
  0
LINE
  5
28E
100
AcDbEntity
  8
ALL_ASSEMBLY_MEMBERS
100
AcDbLine
 62
7
  6
CONTINUOUS
 10
4.4726084523
 20
4.8131238704
 11
4.1714378626
 21
4.8131238707
  0
LINE
  5
28F
100
AcDbEntity
  8
ALL_ASSEMBLY_MEMBERS
100
AcDbLine
 62
7
  6
CONTINUOUS
 10
4.4661761832
 20
4.8131239353
 11
4.4632253348
 21
4.8131238379
  0
LINE
  5
290
100
AcDbEntity
  8
ALL_ASSEMBLY_MEMBERS
100
AcDbLine
 62
7
  6
CONTINUOUS
 10
4.2769667377
 20
4.8131240214
 11
4.2709532055
 21
4.8131237988
  0
LWPOLYLINE
  5
291
100
AcDbEntity
  8
ALL_ASSEMBLY_MEMBERS
100
AcDbPolyline
 62
7
  6
CONTINUOUS
 90
3
 70
0
 10
4.2603111522
 20
4.8131241031
 10
4.2557569726
 20
4.8131238769
 10
4.2517211152
 20
4.8131237907
  0
LINE
  5
292
100
AcDbEntity
  8
ALL_ASSEMBLY_MEMBERS
100
AcDbLine
 62
7
  6
CONTINUOUS
 10
4.2426586728
 20
4.8131229141
 11
4.2405838547
 21
4.8131227284
  0
LINE
  5
293
100
AcDbEntity
  8
ALL_ASSEMBLY_MEMBERS
100
AcDbLine
 62
7
  6
CONTINUOUS
 10
4.2481861337
 20
4.8131241334
 11
4.245173971
 21
4.8131238079
  0
LINE
  5
294
100
AcDbEntity
  8
ALL_ASSEMBLY_MEMBERS
100
AcDbLine
 62
7
  6
CONTINUOUS
 10
4.5926728443
 20
4.8135784118
 11
4.5516344903
 21
4.8135784161
  0
LINE
  5
295
100
AcDbEntity
  8
ALL_ASSEMBLY_MEMBERS
100
AcDbLine
 62
7
  6
CONTINUOUS
 10
4.157142531
 20
4.826840685
 11
4.2255203231
 21
4.8268406781
  0
LINE
  5
296
100
AcDbEntity
  8
ALL_ASSEMBLY_MEMBERS
100
AcDbLine
 62
7
  6
CONTINUOUS
 10
4.1316788382
 20
4.860460504
 11
4.2007635109
 21
4.8604605237
  0
LINE
  5
297
100
AcDbEntity
  8
ALL_ASSEMBLY_MEMBERS
100
AcDbLine
 62
7
  6
CONTINUOUS
 10
4.2007635107
 20
4.8731963085
 11
4.131678766
 21
4.8731963874
  0
LINE
  5
298
100
AcDbEntity
  8
ALL_ASSEMBLY_MEMBERS
100
AcDbLine
 62
7
  6
CONTINUOUS
 10
4.1852188013
 20
4.8731926744
 11
4.1664836126
 21
4.8731942159
  0
LINE
  5
299
100
AcDbEntity
  8
ALL_ASSEMBLY_MEMBERS
100
AcDbLine
 62
7
  6
CONTINUOUS
 10
4.1664836126
 20
4.8731942159
 11
4.1612913975
 21
4.8731963274
  0
LINE
  5
29A
100
AcDbEntity
  8
ALL_ASSEMBLY_MEMBERS
100
AcDbLine
 62
7
  6
CONTINUOUS
 10
4.1522585858
 20
4.8731931356
 11
4.1448028459
 21
4.8731959947
  0
LWPOLYLINE
  5
29B
100
AcDbEntity
  8
ALL_ASSEMBLY_MEMBERS
100
AcDbPolyline
 62
7
  6
CONTINUOUS
 90
5
 70
0
 10
4.1416002828
 20
4.8731910408
 10
4.138706508
 20
4.8731963275
 10
4.13609871
 20
4.8732082952
 10
4.1337621993
 20
4.8732109765
 10
4.131678766
 20
4.8731963874
  0
LWPOLYLINE
  5
29C
100
AcDbEntity
  8
ALL_ASSEMBLY_MEMBERS
100
AcDbPolyline
 62
7
  6
CONTINUOUS
 90
4
 70
0
 10
4.1316788382
 20
4.860460504
 10
4.1337554836
 20
4.8604461325
 10
4.1360849727
 20
4.8604487442
 10
4.1386856678
 20
4.8604605049
  0
LINE
  5
29D
100
AcDbEntity
  8
ALL_ASSEMBLY_MEMBERS
100
AcDbLine
 62
7
  6
CONTINUOUS
 10
5.2454020082
 20
4.3861682871
 11
5.2454020082
 21
5.3474885452
  0
LINE
  5
29E
100
AcDbEntity
  8
ALL_ASSEMBLY_MEMBERS
100
AcDbLine
 62
7
  6
CONTINUOUS
 10
5.297154228
 20
5.3268284161
 11
5.297154228
 21
4.4068284161
  0
LINE
  5
29F
100
AcDbEntity
  8
ALL_ASSEMBLY_MEMBERS
100
AcDbLine
 62
7
  6
CONTINUOUS
 10
5.326654228
 20
5.3268284161
 11
5.326654228
 21
4.4068284161
  0
LINE
  5
2A0
100
AcDbEntity
  8
ALL_ASSEMBLY_MEMBERS
100
AcDbLine
 62
7
  6
CONTINUOUS
 10
4.4725905891
 20
4.9205329939
 11
4.4726084381
 21
4.920533118
  0
LINE
  5
2A1
100
AcDbEntity
  8
ALL_ASSEMBLY_MEMBERS
100
AcDbLine
 62
7
  6
CONTINUOUS
 10
4.225520323
 20
4.9068161542
 11
4.1571425381
 21
4.9068161493
  0
LINE
  5
2A2
100
AcDbEntity
  8
ALL_ASSEMBLY_MEMBERS
100
AcDbLine
 62
7
  6
CONTINUOUS
 10
4.5516344903
 20
4.9200784161
 11
4.5926728443
 21
4.9200784161
  0
LWPOLYLINE
  5
2A3
100
AcDbEntity
  8
ALL_ASSEMBLY_MEMBERS
100
AcDbPolyline
 62
7
  6
CONTINUOUS
 90
3
 70
0
 10
4.2570593508
 20
4.9205329558
 10
4.26191175
 20
4.920532736
 10
4.2673018144
 20
4.9205329494
  0
LINE
  5
2A4
100
AcDbEntity
  8
ALL_ASSEMBLY_MEMBERS
100
AcDbLine
 62
7
  6
CONTINUOUS
 10
4.2731536124
 20
4.920532978
 11
4.2794464898
 21
4.920532816
  0
LINE
  5
2A5
100
AcDbEntity
  8
ALL_ASSEMBLY_MEMBERS
100
AcDbLine
 62
7
  6
CONTINUOUS
 10
4.1714378626
 20
4.9205329616
 11
4.4726085537
 21
4.9205329945
  0
LINE
  5
2A6
100
AcDbEntity
  8
ALL_ASSEMBLY_MEMBERS
100
AcDbLine
 62
7
  6
CONTINUOUS
 10
4.2049034697
 20
4.9458284161
 11
4.4389800611
 21
4.9458284161
  0
LINE
  5
2A7
100
AcDbEntity
  8
ALL_ASSEMBLY_MEMBERS
100
AcDbLine
 62
7
  6
CONTINUOUS
 10
4.2407188386
 20
4.9205340791
 11
4.2527387194
 21
4.9205330007
  0
LINE
  5
2A8
100
AcDbEntity
  8
ALL_ASSEMBLY_MEMBERS
100
AcDbLine
 62
7
  6
CONTINUOUS
 10
4.4647232899
 20
4.9205330218
 11
4.4725905891
 21
4.9205329939
  0
LINE
  5
2A9
100
AcDbEntity
  8
ALL_ASSEMBLY_MEMBERS
100
AcDbLine
 62
7
  6
CONTINUOUS
 10
5.8029523894
 20
4.9679318741
 11
5.8073157816
 21
4.967717993
  0
LINE
  5
2AA
100
AcDbEntity
  8
ALL_ASSEMBLY_MEMBERS
100
AcDbLine
 62
7
  6
CONTINUOUS
 10
5.8055332601
 20
4.9726943991
 11
5.8099299908
 21
4.9724788838
  0
LINE
  5
2AB
100
AcDbEntity
  8
ALL_ASSEMBLY_MEMBERS
100
AcDbLine
 62
7
  6
CONTINUOUS
 10
5.8072137373
 20
4.9738659632
 11
5.8115978729
 21
4.9736510653
  0
LINE
  5
2AC
100
AcDbEntity
  8
ALL_ASSEMBLY_MEMBERS
100
AcDbLine
 62
7
  6
CONTINUOUS
 10
5.8197597703
 20
4.9828521588
 11
5.8228760881
 21
4.9826994058
  0
LINE
  5
2AD
100
AcDbEntity
  8
ALL_ASSEMBLY_MEMBERS
100
AcDbLine
 62
7
  6
CONTINUOUS
 10
4.1316788384
 20
5.106515053
 11
4.1709203112
 21
5.1027353679
  0
LINE
  5
2AE
100
AcDbEntity
  8
ALL_ASSEMBLY_MEMBERS
100
AcDbLine
 62
7
  6
CONTINUOUS
 10
4.2049034697
 20
5.1048284161
 11
4.1714378627
 21
5.1081261336
  0
LINE
  5
2AF
100
AcDbEntity
  8
ALL_ASSEMBLY_MEMBERS
100
AcDbLine
 62
7
  6
CONTINUOUS
 10
5.356654228
 20
4.3768284161
 11
5.356654228
 21
5.3568284161
  0
LINE
  5
2B0
100
AcDbEntity
  8
ALL_ASSEMBLY_MEMBERS
100
AcDbLine
 62
7
  6
CONTINUOUS
 10
4.5926728443
 20
5.036152623
 11
4.5516344903
 21
5.0361526244
  0
LINE
  5
2B1
100
AcDbEntity
  8
ALL_ASSEMBLY_MEMBERS
100
AcDbLine
 62
7
  6
CONTINUOUS
 10
4.5926728443
 20
5.0443284161
 11
4.614154228
 21
5.0443284161
  0
LINE
  5
2B2
100
AcDbEntity
  8
ALL_ASSEMBLY_MEMBERS
100
AcDbLine
 62
7
  6
CONTINUOUS
 10
4.3426321384
 20
5.1048284161
 11
4.2049034697
 21
5.1048284161
  0
LINE
  5
2B3
100
AcDbEntity
  8
ALL_ASSEMBLY_MEMBERS
100
AcDbLine
 62
7
  6
CONTINUOUS
 10
5.8115002197
 20
4.9901370966
 11
5.8152514777
 21
4.9899532206
  0
LINE
  5
2B4
100
AcDbEntity
  8
ALL_ASSEMBLY_MEMBERS
100
AcDbLine
 62
7
  6
CONTINUOUS
 10
5.800123463
 20
4.9973786263
 11
5.8021499468
 21
4.9972792938
  0
LINE
  5
2B5
100
AcDbEntity
  8
ALL_ASSEMBLY_MEMBERS
100
AcDbLine
 62
7
  6
CONTINUOUS
 10
5.8005768077
 20
5.0138687851
 11
5.8034218546
 21
5.013729329
  0
LINE
  5
2B6
100
AcDbEntity
  8
ALL_ASSEMBLY_MEMBERS
100
AcDbLine
 62
7
  6
CONTINUOUS
 10
5.8192729047
 20
5.018895081
 11
5.8218335462
 21
5.0187695656
  0
LINE
  5
2B7
100
AcDbEntity
  8
ALL_ASSEMBLY_MEMBERS
100
AcDbLine
 62
7
  6
CONTINUOUS
 10
5.8166919471
 20
5.022089756
 11
5.821521699
 21
5.0218530153
  0
LINE
  5
2B8
100
AcDbEntity
  8
ALL_ASSEMBLY_MEMBERS
100
AcDbLine
 62
7
  6
CONTINUOUS
 10
5.8016783654
 20
5.0419485711
 11
5.8065497808
 21
5.0417097882
  0
LINE
  5
2B9
100
AcDbEntity
  8
ALL_ASSEMBLY_MEMBERS
100
AcDbLine
 62
7
  6
CONTINUOUS
 10
5.803542392
 20
5.0495587945
 11
5.8083845914
 21
5.0493214437
  0
LINE
  5
2BA
100
AcDbEntity
  8
ALL_ASSEMBLY_MEMBERS
100
AcDbLine
 62
7
  6
CONTINUOUS
 10
5.8046561739
 20
5.0503660666
 11
5.8095037112
 21
5.0501284541
  0
LINE
  5
2BB
100
AcDbEntity
  8
ALL_ASSEMBLY_MEMBERS
100
AcDbLine
 62
7
  6
CONTINUOUS
 10
5.8077358899
 20
5.0618227869
 11
5.8111527037
 21
5.0616553044
  0
LINE
  5
2BC
100
AcDbEntity
  8
ALL_ASSEMBLY_MEMBERS
100
AcDbLine
 62
7
  6
CONTINUOUS
 10
5.8002866705
 20
5.064865809
 11
5.8014691348
 21
5.064807848
  0
LINE
  5
2BD
100
AcDbEntity
  8
ALL_ASSEMBLY_MEMBERS
100
AcDbLine
 62
7
  6
CONTINUOUS
 10
5.81664497
 20
5.0705177923
 11
5.821474476
 21
5.0702810636
  0
LINE
  5
2BE
100
AcDbEntity
  8
ALL_ASSEMBLY_MEMBERS
100
AcDbLine
 62
7
  6
CONTINUOUS
 10
5.8179358083
 20
5.0714184628
 11
5.8215216125
 21
5.0712426969
  0
LINE
  5
2BF
100
AcDbEntity
  8
ALL_ASSEMBLY_MEMBERS
100
AcDbLine
 62
7
  6
CONTINUOUS
 10
5.8125425314
 20
5.0729443658
 11
5.8150468573
 21
5.0728216108
  0
LINE
  5
2C0
100
AcDbEntity
  8
ALL_ASSEMBLY_MEMBERS
100
AcDbLine
 62
7
  6
CONTINUOUS
 10
5.8203450973
 20
5.0796117052
 11
5.8219456741
 21
5.0795332495
  0
LINE
  5
2C1
100
AcDbEntity
  8
ALL_ASSEMBLY_MEMBERS
100
AcDbLine
 62
7
  6
CONTINUOUS
 10
5.8106827962
 20
5.0834859272
 11
5.8135991361
 21
5.0833429765
  0
LINE
  5
2C2
100
AcDbEntity
  8
ALL_ASSEMBLY_MEMBERS
100
AcDbLine
 62
7
  6
CONTINUOUS
 10
5.8022066615
 20
5.0906521411
 11
5.8050794358
 21
5.0905113259
  0
LINE
  5
2C3
100
AcDbEntity
  8
ALL_ASSEMBLY_MEMBERS
100
AcDbLine
 62
7
  6
CONTINUOUS
 10
5.8116392551
 20
5.0905188926
 11
5.814724997
 21
5.0903676383
  0
LINE
  5
2C4
100
AcDbEntity
  8
ALL_ASSEMBLY_MEMBERS
100
AcDbLine
 62
7
  6
CONTINUOUS
 10
5.8117575013
 20
5.0933382411
 11
5.8074038512
 21
5.0935516447
  0
LINE
  5
2C5
100
AcDbEntity
  8
ALL_ASSEMBLY_MEMBERS
100
AcDbLine
 62
7
  6
CONTINUOUS
 10
5.8213887965
 20
5.0937645538
 11
5.8224786612
 21
5.0937111317
  0
LINE
  5
2C6
100
AcDbEntity
  8
ALL_ASSEMBLY_MEMBERS
100
AcDbLine
 62
7
  6
CONTINUOUS
 10
5.8206454616
 20
5.1049298013
 11
5.8224403172
 21
5.1048418226
  0
LINE
  5
2C7
100
AcDbEntity
  8
ALL_ASSEMBLY_MEMBERS
100
AcDbLine
 62
7
  6
CONTINUOUS
 10
5.80626354
 20
5.1057096706
 11
5.8093431329
 21
5.1055587177
  0
LINE
  5
2C8
100
AcDbEntity
  8
ALL_ASSEMBLY_MEMBERS
100
AcDbLine
 62
7
  6
CONTINUOUS
 10
5.8223216499
 20
5.1074508873
 11
5.8193255675
 21
5.1075977467
  0
LINE
  5
2C9
100
AcDbEntity
  8
ALL_ASSEMBLY_MEMBERS
100
AcDbLine
 62
7
  6
CONTINUOUS
 10
5.8151277068
 20
5.1120003857
 11
5.8193650247
 21
5.1117926844
  0
LINE
  5
2CA
100
AcDbEntity
  8
ALL_ASSEMBLY_MEMBERS
100
AcDbLine
 62
7
  6
CONTINUOUS
 10
5.817729281
 20
5.1188862052
 11
5.8203449033
 21
5.1187579949
  0
LINE
  5
2CB
100
AcDbEntity
  8
ALL_ASSEMBLY_MEMBERS
100
AcDbLine
 62
7
  6
CONTINUOUS
 10
4.9695615021
 20
5.1436247292
 11
4.969154228
 21
5.1435456484
  0
LINE
  5
2CC
100
AcDbEntity
  8
ALL_ASSEMBLY_MEMBERS
100
AcDbLine
 62
7
  6
CONTINUOUS
 10
5.127904228
 20
5.2750159161
 11
4.975404228
 21
5.2750159161
  0
LINE
  5
2CD
100
AcDbEntity
  8
ALL_ASSEMBLY_MEMBERS
100
AcDbLine
 62
7
  6
CONTINUOUS
 10
4.3206893868
 20
5.3210680493
 11
4.3341378302
 21
5.3184896784
  0
LINE
  5
2CE
100
AcDbEntity
  8
ALL_ASSEMBLY_MEMBERS
100
AcDbLine
 62
7
  6
CONTINUOUS
 10
4.2714513011
 20
5.4781166267
 11
4.2389078499
 21
5.4865880916
  0
LINE
  5
2CF
100
AcDbEntity
  8
ALL_ASSEMBLY_MEMBERS
100
AcDbLine
 62
7
  6
CONTINUOUS
 10
4.2007635109
 20
5.4965172344
 11
4.2389082077
 21
5.4865894669
  0
LINE
  5
2D0
100
AcDbEntity
  8
ALL_ASSEMBLY_MEMBERS
100
AcDbLine
 62
7
  6
CONTINUOUS
 10
5.8096497263
 20
4.7466311565
 11
5.8050134786
 21
4.7508822961
  0
LINE
  5
2D1
100
AcDbEntity
  8
ALL_ASSEMBLY_MEMBERS
100
AcDbLine
 62
7
  6
CONTINUOUS
 10
5.8099205039
 20
4.7510436727
 11
5.8189642405
 21
4.7427515401
  0
LINE
  5
2D2
100
AcDbEntity
  8
ALL_ASSEMBLY_MEMBERS
100
AcDbLine
 62
7
  6
CONTINUOUS
 10
5.6041935981
 20
5.3593284161
 11
5.6041935981
 21
4.3743284161
  0
LINE
  5
2D3
100
AcDbEntity
  8
ALL_ASSEMBLY_MEMBERS
100
AcDbLine
 62
7
  6
CONTINUOUS
 10
5.82231202
 20
5.59046017
 11
5.821205711
 21
5.5843872671
  0
LINE
  5
2D4
100
AcDbEntity
  8
ALL_ASSEMBLY_MEMBERS
100
AcDbLine
 62
7
  6
CONTINUOUS
 10
5.8426935981
 20
5.6980784161
 11
5.82231202
 21
5.59046017
  0
LINE
  5
2D5
100
AcDbEntity
  8
ALL_ASSEMBLY_MEMBERS
100
AcDbLine
 62
7
  6
CONTINUOUS
 10
5.8000158089
 20
5.4727323312
 11
5.7846935981
 21
5.3918284161
  0
LINE
  5
2D6
100
AcDbEntity
  8
ALL_ASSEMBLY_MEMBERS
100
AcDbLine
 62
7
  6
CONTINUOUS
 10
5.8010860258
 20
5.4781375787
 11
5.8000158089
 21
5.4727323312
  0
LINE
  5
2D7
100
AcDbEntity
  8
ALL_ASSEMBLY_MEMBERS
100
AcDbLine
 62
7
  6
CONTINUOUS
 10
5.8143007491
 20
5.3927535995
 11
5.8189688907
 21
5.4116362833
  0
LINE
  5
2D8
100
AcDbEntity
  8
ALL_ASSEMBLY_MEMBERS
100
AcDbLine
 62
7
  6
CONTINUOUS
 10
5.7492033189
 20
5.3593284161
 11
5.7488273175
 21
5.3593211147
  0
LINE
  5
2D9
100
AcDbEntity
  8
ALL_ASSEMBLY_MEMBERS
100
AcDbLine
 62
7
  6
CONTINUOUS
 10
5.7488324579
 20
5.3593212322
 11
5.7492033189
 21
5.3593284161
  0
LINE
  5
2DA
100
AcDbEntity
  8
ALL_ASSEMBLY_MEMBERS
100
AcDbLine
 62
7
  6
CONTINUOUS
 10
5.297154228
 20
5.3268284161
 11
5.326654228
 21
5.3268284161
  0
LINE
  5
2DB
100
AcDbEntity
  8
ALL_ASSEMBLY_MEMBERS
100
AcDbLine
 62
7
  6
CONTINUOUS
 10
4.3395614791
 20
5.3366656871
 11
4.3538245961
 21
5.3366656928
  0
LINE
  5
2DC
100
AcDbEntity
  8
ALL_ASSEMBLY_MEMBERS
100
AcDbLine
 62
7
  6
CONTINUOUS
 10
5.356654228
 20
5.3568284161
 11
5.6041935981
 21
5.3568284161
  0
LINE
  5
2DD
100
AcDbEntity
  8
ALL_ASSEMBLY_MEMBERS
100
AcDbLine
 62
7
  6
CONTINUOUS
 10
5.7391935981
 20
5.3592268933
 11
5.6591935981
 21
5.3592268933
  0
LINE
  5
2DE
100
AcDbEntity
  8
ALL_ASSEMBLY_MEMBERS
100
AcDbLine
 62
7
  6
CONTINUOUS
 10
5.6041935981
 20
5.3593284161
 11
5.6491935981
 21
5.3593284161
  0
LINE
  5
2DF
100
AcDbEntity
  8
ALL_ASSEMBLY_MEMBERS
100
AcDbLine
 62
7
  6
CONTINUOUS
 10
5.7491935981
 20
5.3593284161
 11
5.7846935981
 21
5.3593284161
  0
LINE
  5
2E0
100
AcDbEntity
  8
ALL_ASSEMBLY_MEMBERS
100
AcDbLine
 62
7
  6
CONTINUOUS
 10
4.2996007014
 20
5.370293381
 11
4.3538218413
 21
5.3702935393
  0
LINE
  5
2E1
100
AcDbEntity
  8
ALL_ASSEMBLY_MEMBERS
100
AcDbLine
 62
7
  6
CONTINUOUS
 10
4.989154228
 20
5.3750159161
 11
5.114154228
 21
5.3750159161
  0
LINE
  5
2E2
100
AcDbEntity
  8
ALL_ASSEMBLY_MEMBERS
100
AcDbLine
 62
7
  6
CONTINUOUS
 10
5.0091549661
 20
5.3950159161
 11
5.0941534899
 21
5.3950159161
  0
LINE
  5
2E3
100
AcDbEntity
  8
ALL_ASSEMBLY_MEMBERS
100
AcDbLine
 62
7
  6
CONTINUOUS
 10
5.6491838824
 20
5.3593284161
 11
5.6495535446
 21
5.3593212555
  0
LINE
  5
2E4
100
AcDbEntity
  8
ALL_ASSEMBLY_MEMBERS
100
AcDbLine
 62
7
  6
CONTINUOUS
 10
5.6491839844
 20
5.3593284161
 11
5.6495591674
 21
5.3593211319
  0
LINE
  5
2E5
100
AcDbEntity
  8
ALL_ASSEMBLY_MEMBERS
100
AcDbLine
 62
7
  6
CONTINUOUS
 10
5.8171965294
 20
4.4797390158
 11
5.8219750745
 21
4.4582650428
  0
LINE
  5
2E6
100
AcDbEntity
  8
ALL_ASSEMBLY_MEMBERS
100
AcDbLine
 62
7
  6
CONTINUOUS
 10
5.8126994334
 20
4.5099040338
 11
5.8192088981
 21
4.4801853691
  0
LINE
  5
2E7
100
AcDbEntity
  8
ALL_ASSEMBLY_MEMBERS
100
AcDbLine
 62
7
  6
CONTINUOUS
 10
5.8015443306
 20
4.2528826432
 11
5.8015153712
 21
4.2530233081
  0
LINE
  5
2E8
100
AcDbEntity
  8
ALL_ASSEMBLY_MEMBERS
100
AcDbLine
 62
7
  6
CONTINUOUS
 10
5.8179239259
 20
4.4487455009
 11
5.8220888618
 21
4.4276626897
  0
LINE
  5
2E9
100
AcDbEntity
  8
ALL_ASSEMBLY_MEMBERS
100
AcDbLine
 62
7
  6
CONTINUOUS
 10
5.8137611575
 20
4.4699527542
 11
5.816478995
 21
4.4560905795
  0
LINE
  5
2EA
100
AcDbEntity
  8
ALL_ASSEMBLY_MEMBERS
100
AcDbLine
 62
7
  6
CONTINUOUS
 10
5.8215032269
 20
4.1474815261
 11
5.8426935981
 21
4.0355784161
  0
LINE
  5
2EB
100
AcDbEntity
  8
ALL_ASSEMBLY_MEMBERS
100
AcDbLine
 62
7
  6
CONTINUOUS
 10
5.7846935981
 20
4.3418284161
 11
5.8015153712
 21
4.2530233081
  0
LINE
  5
2EC
100
AcDbEntity
  8
ALL_ASSEMBLY_MEMBERS
100
AcDbLine
 62
7
  6
CONTINUOUS
 10
5.805052726
 20
4.2346314974
 11
5.8180654846
 21
4.1658922067
  0
LINE
  5
2ED
100
AcDbEntity
  8
ALL_ASSEMBLY_MEMBERS
100
AcDbLine
 62
7
  6
CONTINUOUS
 10
5.8162173593
 20
4.1764065678
 11
5.8182008825
 21
4.1659178494
  0
LINE
  5
2EE
100
AcDbEntity
  8
ALL_ASSEMBLY_MEMBERS
100
AcDbLine
 62
7
  6
CONTINUOUS
 10
5.8122708818
 20
4.1972766783
 11
5.81325493
 21
4.1920725665
  0
LINE
  5
2EF
100
AcDbEntity
  8
ALL_ASSEMBLY_MEMBERS
100
AcDbLine
 62
7
  6
CONTINUOUS
 10
5.8067200193
 20
4.2266347657
 11
5.8108665273
 21
4.2047037952
  0
LINE
  5
2F0
100
AcDbEntity
  8
ALL_ASSEMBLY_MEMBERS
100
AcDbLine
 62
7
  6
CONTINUOUS
 10
5.8034243136
 20
4.2440676661
 11
5.8042464452
 21
4.2397187766
  0
LINE
  5
2F1
100
AcDbEntity
  8
ALL_ASSEMBLY_MEMBERS
100
AcDbLine
 62
7
  6
CONTINUOUS
 10
5.8215032269
 20
4.1474815261
 11
5.8213293667
 21
4.1484774483
  0
LINE
  5
2F2
100
AcDbEntity
  8
ALL_ASSEMBLY_MEMBERS
100
AcDbLine
 62
7
  6
CONTINUOUS
 10
5.8215032269
 20
4.1474815261
 11
5.8214905399
 21
4.147557518
  0
LINE
  5
2F3
100
AcDbEntity
  8
ALL_ASSEMBLY_MEMBERS
100
AcDbLine
 62
7
  6
CONTINUOUS
 10
5.81965393
 20
4.9888565559
 11
5.8197597703
 21
4.9828521588
  0
LINE
  5
2F4
100
AcDbEntity
  8
ALL_ASSEMBLY_MEMBERS
100
AcDbLine
 62
7
  6
CONTINUOUS
 10
5.8193955765
 20
4.4250249804
 11
5.8194718053
 21
4.4199416031
  0
LINE
  5
2F5
100
AcDbEntity
  8
ALL_ASSEMBLY_MEMBERS
100
AcDbLine
 62
7
  6
CONTINUOUS
 10
5.8192729047
 20
5.018895081
 11
5.819329269
 21
5.0128851736
  0
LINE
  5
2F6
100
AcDbEntity
  8
ALL_ASSEMBLY_MEMBERS
100
AcDbLine
 62
7
  6
CONTINUOUS
 10
5.7846935981
 20
5.3918284161
 11
5.7846935981
 21
4.3418284161
  0
LINE
  5
2F7
100
AcDbEntity
  8
ALL_ASSEMBLY_MEMBERS
100
AcDbLine
 62
7
  6
CONTINUOUS
 10
5.8099205039
 20
4.7586929685
 11
5.8099205039
 21
4.7510436727
  0
LINE
  5
2F8
100
AcDbEntity
  8
ALL_ASSEMBLY_MEMBERS
100
AcDbLine
 62
7
  6
CONTINUOUS
 10
5.8426935981
 20
5.6980784161
 11
5.8426935981
 21
4.0355784161
  0
LINE
  5
2F9
100
AcDbEntity
  8
ALL_ASSEMBLY_MEMBERS
100
AcDbLine
 62
7
  6
CONTINUOUS
 10
5.8476935981
 20
5.7380784161
 11
5.8476935981
 21
3.9955784161
  0
LINE
  5
2FA
100
AcDbEntity
  8
ALL_ASSEMBLY_MEMBERS
100
AcDbLine
 62
7
  6
CONTINUOUS
 10
5.8195610654
 20
4.5081552511
 11
5.8194816083
 21
4.5034920123
  0
LWPOLYLINE
  5
2FB
100
AcDbEntity
  8
ALL_ASSEMBLY_MEMBERS
100
AcDbPolyline
 62
7
  6
CONTINUOUS
 90
3
 70
0
 10
4.371288467
 20
5.3024562811
 10
4.373271174
 20
5.3029032026
 10
4.3740974124
 20
5.303027929
  0
LWPOLYLINE
  5
2FC
100
AcDbEntity
  8
ALL_ASSEMBLY_MEMBERS
100
AcDbPolyline
 62
7
  6
CONTINUOUS
 90
16
 70
0
 10
4.3740978561
 20
5.3030279843
 10
4.3824415044
 20
5.3043374089
 10
4.392905347
 20
5.3066404
 10
4.4031896564
 20
5.3096501846
 10
4.4132485107
 20
5.3133532343
 10
4.4230364165
 20
5.3177349998
 10
4.4325085929
 20
5.3227746747
 10
4.4416199319
 20
5.3284491805
 10
4.4503269303
 20
5.3347350314
 10
4.4585891453
 20
5.3416024123
 10
4.4663662113
 20
5.3490180703
 10
4.4736203629
 20
5.3569490769
 10
4.4803188586
 20
5.3653581291
 10
4.4864294174
 20
5.3742045637
 10
4.4919217442
 20
5.3834481518
 10
4.4967714606
 20
5.3930454068
  0
LWPOLYLINE
  5
2FD
100
AcDbEntity
  8
ALL_ASSEMBLY_MEMBERS
100
AcDbPolyline
 62
7
  6
CONTINUOUS
 90
3
 70
0
 10
4.3740980445
 20
5.3030276733
 10
4.3821758263
 20
5.3042884488
 10
4.3822941629
 20
5.3043142857
  0
LINE
  5
2FE
100
AcDbEntity
  8
ALL_ASSEMBLY_MEMBERS
100
AcDbLine
 62
7
  6
CONTINUOUS
 10
5.8050134786
 20
5.3551863104
 11
5.8069310481
 21
5.3549081105
  0
LINE
  5
2FF
100
AcDbEntity
  8
ALL_ASSEMBLY_MEMBERS
100
AcDbLine
 62
7
  6
CONTINUOUS
 10
5.8206646367
 20
5.0255602799
 11
5.8220888618
 21
5.0239782648
  0
LINE
  5
300
100
AcDbEntity
  8
ALL_ASSEMBLY_MEMBERS
100
AcDbLine
 62
7
  6
CONTINUOUS
 10
5.8188391796
 20
5.019431075
 11
5.8192729047
 21
5.018895081
  0
LINE
  5
301
100
AcDbEntity
  8
ALL_ASSEMBLY_MEMBERS
100
AcDbLine
 62
7
  6
CONTINUOUS
 10
5.821521699
 20
5.0218530153
 11
5.8221148879
 21
5.0211050677
  0
LINE
  5
302
100
AcDbEntity
  8
ALL_ASSEMBLY_MEMBERS
100
AcDbLine
 62
7
  6
CONTINUOUS
 10
5.8876935981
 20
3.2418284161
 11
5.8876935981
 21
6.4918284161
  0
LINE
  5
303
100
AcDbEntity
  8
ALL_ASSEMBLY_MEMBERS
100
AcDbLine
 62
7
  6
CONTINUOUS
 10
5.9441935981
 20
3.1793284161
 11
5.9441935981
 21
6.5543284161
  0
LINE
  5
304
100
AcDbEntity
  8
ALL_ASSEMBLY_MEMBERS
100
AcDbLine
 62
7
  6
CONTINUOUS
 10
6.0591935981
 20
3.1793284161
 11
6.0591935981
 21
6.5543284161
  0
LINE
  5
305
100
AcDbEntity
  8
ALL_ASSEMBLY_MEMBERS
100
AcDbLine
 62
7
  6
CONTINUOUS
 10
5.8476935981
 20
5.6980784161
 11
5.8426935981
 21
5.6980784161
  0
LINE
  5
306
100
AcDbEntity
  8
ALL_ASSEMBLY_MEMBERS
100
AcDbLine
 62
7
  6
CONTINUOUS
 10
5.8876935981
 20
5.7380784161
 11
5.8476935981
 21
5.7380784161
  0
LINE
  5
307
100
AcDbEntity
  8
ALL_ASSEMBLY_MEMBERS
100
AcDbLine
 62
7
  6
CONTINUOUS
 10
5.8876935981
 20
6.0968284161
 11
6.0591935981
 21
6.0968284161
  0
LINE
  5
308
100
AcDbEntity
  8
ALL_ASSEMBLY_MEMBERS
100
AcDbLine
 62
7
  6
CONTINUOUS
 10
5.9441935981
 20
6.2418284161
 11
5.8876935981
 21
6.2418284161
  0
LINE
  5
309
100
AcDbEntity
  8
ALL_ASSEMBLY_MEMBERS
100
AcDbLine
 62
7
  6
CONTINUOUS
 10
5.9441935981
 20
6.3043284161
 11
6.0591935981
 21
6.3043284161
  0
LINE
  5
30A
100
AcDbEntity
  8
ALL_ASSEMBLY_MEMBERS
100
AcDbLine
 62
7
  6
CONTINUOUS
 10
6.0591935981
 20
6.3243284161
 11
5.8876935981
 21
6.3243284161
  0
LINE
  5
30B
100
AcDbEntity
  8
ALL_ASSEMBLY_MEMBERS
100
AcDbLine
 62
7
  6
CONTINUOUS
 10
5.8876935981
 20
6.3468284161
 11
6.0591935981
 21
6.3468284161
  0
LINE
  5
30C
100
AcDbEntity
  8
ALL_ASSEMBLY_MEMBERS
100
AcDbLine
 62
7
  6
CONTINUOUS
 10
5.9441935981
 20
6.4918284161
 11
5.8876935981
 21
6.4918284161
  0
LINE
  5
30D
100
AcDbEntity
  8
ALL_ASSEMBLY_MEMBERS
100
AcDbLine
 62
7
  6
CONTINUOUS
 10
5.9441935981
 20
6.5543284161
 11
6.0591935981
 21
6.5543284161
  0
ARC
  5
30E
100
AcDbEntity
  8
ALL_ASSEMBLY_MEMBERS
100
AcDbCircle
 62
7
  6
CONTINUOUS
 10
3.4536396456
 20
3.7958867132
 40
2.3919842356
100
AcDbArc
 50
10.7689854665
 51
10.9186429243
  0
ARC
  5
30F
100
AcDbEntity
  8
ALL_ASSEMBLY_MEMBERS
100
AcDbCircle
 62
7
  6
CONTINUOUS
 10
4.394274561
 20
2.7596892024
 40
2.0659262798
100
AcDbArc
 50
87.4538560821
 51
87.6177823206
  0
ARC
  5
310
100
AcDbEntity
  8
ALL_ASSEMBLY_MEMBERS
100
AcDbCircle
 62
7
  6
CONTINUOUS
 10
4.753203988
 20
3.9801105489
 40
1.081689762
100
AcDbArc
 50
10.7290216512
 51
11.3280237525
  0
ARC
  5
311
100
AcDbEntity
  8
ALL_ASSEMBLY_MEMBERS
100
AcDbCircle
 62
7
  6
CONTINUOUS
 10
4.6369290359
 20
3.6330663026
 40
1.0653575291
100
AcDbArc
 50
92.3808184595
 51
94.592123351
  0
ARC
  5
312
100
AcDbEntity
  8
ALL_ASSEMBLY_MEMBERS
100
AcDbCircle
 62
7
  6
CONTINUOUS
 10
4.5312041251
 20
3.7078273818
 40
0.985
100
AcDbArc
 50
56.0599622452
 51
85.1692117801
  0
ARC
  5
313
100
AcDbEntity
  8
ALL_ASSEMBLY_MEMBERS
100
AcDbCircle
 62
7
  6
CONTINUOUS
 10
4.5312041251
 20
3.7078273818
 40
0.985
100
AcDbArc
 50
43.5249964731
 51
48.9656192099
  0
ARC
  5
314
100
AcDbEntity
  8
ALL_ASSEMBLY_MEMBERS
100
AcDbCircle
 62
7
  6
CONTINUOUS
 10
4.3538200329
 20
4.0717950076
 40
0.3374051351
100
AcDbArc
 50
89.999225099
 51
92.4219947376
  0
ARC
  5
315
100
AcDbEntity
  8
ALL_ASSEMBLY_MEMBERS
100
AcDbCircle
 62
7
  6
CONTINUOUS
 10
5.4898819099
 20
4.0893508141
 40
0.3366799303
100
AcDbArc
 50
10.1145509663
 51
10.5037831431
  0
ARC
  5
316
100
AcDbEntity
  8
ALL_ASSEMBLY_MEMBERS
100
AcDbCircle
 62
7
  6
CONTINUOUS
 10
4.3535534386
 20
4.2743411111
 40
0.1578154077
100
AcDbArc
 50
9.0641924435
 51
11.1497280026
  0
ARC
  5
317
100
AcDbEntity
  8
ALL_ASSEMBLY_MEMBERS
100
AcDbCircle
 62
7
  6
CONTINUOUS
 10
4.3535628147
 20
4.2743916501
 40
0.1578021115
100
AcDbArc
 50
358.3298761334
 51
359.9981914058
  0
ARC
  5
318
100
AcDbEntity
  8
ALL_ASSEMBLY_MEMBERS
100
AcDbCircle
 62
7
  6
CONTINUOUS
 10
4.353572697
 20
4.2743828051
 40
0.1577922597
100
AcDbArc
 50
0.0014028226
 51
1.3184901884
  0
ARC
  5
319
100
AcDbEntity
  8
ALL_ASSEMBLY_MEMBERS
100
AcDbCircle
 62
7
  6
CONTINUOUS
 10
4.3535837149
 20
4.2744276436
 40
0.157784808
100
AcDbArc
 50
348.900339375
 51
350.6578240722
  0
ARC
  5
31A
100
AcDbEntity
  8
ALL_ASSEMBLY_MEMBERS
100
AcDbCircle
 62
7
  6
CONTINUOUS
 10
4.3536018878
 20
4.2744699745
 40
0.1577785238
100
AcDbArc
 50
337.8631031004
 51
339.6142602292
  0
ARC
  5
31B
100
AcDbEntity
  8
ALL_ASSEMBLY_MEMBERS
100
AcDbCircle
 62
7
  6
CONTINUOUS
 10
4.3536197466
 20
4.2743898066
 40
0.1577451501
100
AcDbArc
 50
356.2574808023
 51
358.3299427684
  0
ARC
  5
31C
100
AcDbEntity
  8
ALL_ASSEMBLY_MEMBERS
100
AcDbCircle
 62
7
  6
CONTINUOUS
 10
4.3536243764
 20
4.2743842229
 40
0.1577405613
100
AcDbArc
 50
1.3184072742
 51
3.6082389249
  0
ARC
  5
31D
100
AcDbEntity
  8
ALL_ASSEMBLY_MEMBERS
100
AcDbCircle
 62
7
  6
CONTINUOUS
 10
4.3536309896
 20
4.2744264923
 40
0.1577380979
100
AcDbArc
 50
345.2227834946
 51
346.9780284015
  0
ARC
  5
31E
100
AcDbEntity
  8
ALL_ASSEMBLY_MEMBERS
100
AcDbCircle
 62
7
  6
CONTINUOUS
 10
4.3536298663
 20
4.2743561711
 40
0.1577375094
100
AcDbArc
 50
11.6668291022
 51
11.8909633321
  0
ARC
  5
31F
100
AcDbEntity
  8
ALL_ASSEMBLY_MEMBERS
100
AcDbCircle
 62
7
  6
CONTINUOUS
 10
4.3536435524
 20
4.274454638
 40
0.1577341264
100
AcDbArc
 50
339.6142103051
 51
341.5364739347
  0
ARC
  5
320
100
AcDbEntity
  8
ALL_ASSEMBLY_MEMBERS
100
AcDbCircle
 62
7
  6
CONTINUOUS
 10
4.3536395428
 20
4.2743498092
 40
0.1577292811
100
AcDbArc
 50
7.296690442
 51
11.1523929392
  0
ARC
  5
321
100
AcDbEntity
  8
ALL_ASSEMBLY_MEMBERS
100
AcDbCircle
 62
7
  6
CONTINUOUS
 10
4.3536401488
 20
4.2744185017
 40
0.1577276386
100
AcDbArc
 50
350.6577731363
 51
352.5735270652
  0
ARC
  5
322
100
AcDbEntity
  8
ALL_ASSEMBLY_MEMBERS
100
AcDbCircle
 62
7
  6
CONTINUOUS
 10
4.3536397776
 20
4.2743916278
 40
0.1577251487
100
AcDbArc
 50
359.9981986267
 51
1.3158460733
  0
ARC
  5
323
100
AcDbEntity
  8
ALL_ASSEMBLY_MEMBERS
100
AcDbCircle
 62
7
  6
CONTINUOUS
 10
4.3536463476
 20
4.2743826728
 40
0.1577186091
100
AcDbArc
 50
358.332252293
 51
0.001451566
  0
ARC
  5
324
100
AcDbEntity
  8
ALL_ASSEMBLY_MEMBERS
100
AcDbCircle
 62
7
  6
CONTINUOUS
 10
4.3536579274
 20
4.2744473899
 40
0.1577181048
100
AcDbArc
 50
337.2647344432
 51
337.8630315091
  0
ARC
  5
325
100
AcDbEntity
  8
ALL_ASSEMBLY_MEMBERS
100
AcDbCircle
 62
7
  6
CONTINUOUS
 10
4.3536533886
 20
4.2743611301
 40
0.15771347
100
AcDbArc
 50
11.8909612151
 51
12.1940272808
  0
ARC
  5
326
100
AcDbEntity
  8
ALL_ASSEMBLY_MEMBERS
100
AcDbCircle
 62
7
  6
CONTINUOUS
 10
4.3536629905
 20
4.2743281859
 40
0.1577130758
100
AcDbArc
 50
18.1578981982
 51
20.1859997728
  0
ARC
  5
327
100
AcDbEntity
  8
ALL_ASSEMBLY_MEMBERS
100
AcDbCircle
 62
7
  6
CONTINUOUS
 10
4.3536736872
 20
4.2744203735
 40
0.1576950586
100
AcDbArc
 50
348.8966370835
 51
350.6551228534
  0
ARC
  5
328
100
AcDbEntity
  8
ALL_ASSEMBLY_MEMBERS
100
AcDbCircle
 62
7
  6
CONTINUOUS
 10
4.3536880611
 20
4.2744070058
 40
0.1576784406
100
AcDbArc
 50
346.9802551957
 51
348.900398762
  0
ARC
  5
329
100
AcDbEntity
  8
ALL_ASSEMBLY_MEMBERS
100
AcDbCircle
 62
7
  6
CONTINUOUS
 10
4.353697237
 20
4.2744309497
 40
0.1576754957
100
AcDbArc
 50
336.9149623111
 51
337.2647237902
  0
ARC
  5
32A
100
AcDbEntity
  8
ALL_ASSEMBLY_MEMBERS
100
AcDbCircle
 62
7
  6
CONTINUOUS
 10
4.3537340683
 20
4.2744290144
 40
0.1576406126
100
AcDbArc
 50
338.3723154019
 51
339.6114789053
  0
ARC
  5
32B
100
AcDbEntity
  8
ALL_ASSEMBLY_MEMBERS
100
AcDbCircle
 62
7
  6
CONTINUOUS
 10
4.3539546473
 20
4.2744145566
 40
0.1576395686
100
AcDbArc
 50
196.2406113932
 51
198.2197458244
  0
ARC
  5
32C
100
AcDbEntity
  8
ALL_ASSEMBLY_MEMBERS
100
AcDbCircle
 62
7
  6
CONTINUOUS
 10
4.3539326439
 20
4.2744258746
 40
0.157623691
100
AcDbArc
 50
209.1248874108
 51
209.9535193121
  0
ARC
  5
32D
100
AcDbEntity
  8
ALL_ASSEMBLY_MEMBERS
100
AcDbCircle
 62
7
  6
CONTINUOUS
 10
4.3539240973
 20
4.2744334995
 40
0.1576205518
100
AcDbArc
 50
214.0181211934
 51
216.8660541717
  0
ARC
  5
32E
100
AcDbEntity
  8
ALL_ASSEMBLY_MEMBERS
100
AcDbCircle
 62
7
  6
CONTINUOUS
 10
4.353917382
 20
4.2744174945
 40
0.15760628
100
AcDbArc
 50
206.3653269121
 51
209.1249265458
  0
ARC
  5
32F
100
AcDbEntity
  8
ALL_ASSEMBLY_MEMBERS
100
AcDbCircle
 62
7
  6
CONTINUOUS
 10
4.3539108677
 20
4.2744236028
 40
0.1576040301
100
AcDbArc
 50
216.8660611474
 51
217.0668824705
  0
ARC
  5
330
100
AcDbEntity
  8
ALL_ASSEMBLY_MEMBERS
100
AcDbCircle
 62
7
  6
CONTINUOUS
 10
4.3539086867
 20
4.2743995434
 40
0.1575912182
100
AcDbArc
 50
198.2197857051
 51
198.7729705228
  0
ARC
  5
331
100
AcDbEntity
  8
ALL_ASSEMBLY_MEMBERS
100
AcDbCircle
 62
7
  6
CONTINUOUS
 10
4.3538919938
 20
4.274398616
 40
0.1575752224
100
AcDbArc
 50
201.9435847452
 51
202.6101166322
  0
ARC
  5
332
100
AcDbEntity
  8
ALL_ASSEMBLY_MEMBERS
100
AcDbCircle
 62
7
  6
CONTINUOUS
 10
4.3537994548
 20
4.274393471
 40
0.1575638682
100
AcDbArc
 50
12.193751393
 51
14.317045253
  0
ARC
  5
333
100
AcDbEntity
  8
ALL_ASSEMBLY_MEMBERS
100
AcDbCircle
 62
7
  6
CONTINUOUS
 10
4.3538701013
 20
4.2743894622
 40
0.1575514933
100
AcDbArc
 50
202.6101044606
 51
205.7643631785
  0
ARC
  5
334
100
AcDbEntity
  8
ALL_ASSEMBLY_MEMBERS
100
AcDbCircle
 62
7
  6
CONTINUOUS
 10
4.3538458896
 20
4.2743794337
 40
0.1575252901
100
AcDbArc
 50
198.7733958637
 51
201.9433797012
  0
ARC
  5
335
100
AcDbEntity
  8
ALL_ASSEMBLY_MEMBERS
100
AcDbCircle
 62
7
  6
CONTINUOUS
 10
4.3538428412
 20
4.2743881076
 40
0.1575240257
100
AcDbArc
 50
341.5364706264
 51
343.293003807
  0
ARC
  5
336
100
AcDbEntity
  8
ALL_ASSEMBLY_MEMBERS
100
AcDbCircle
 62
7
  6
CONTINUOUS
 10
4.3538424053
 20
4.2743514796
 40
0.1575230635
100
AcDbArc
 50
194.6508169847
 51
360.0
  0
ARC
  5
337
100
AcDbEntity
  8
ALL_ASSEMBLY_MEMBERS
100
AcDbCircle
 62
7
  6
CONTINUOUS
 10
4.3538423905
 20
4.2743726998
 40
0.1575188103
100
AcDbArc
 50
217.0671215446
 51
336.9137515182
  0
ARC
  5
338
100
AcDbEntity
  8
ALL_ASSEMBLY_MEMBERS
100
AcDbCircle
 62
7
  6
CONTINUOUS
 10
4.3538483807
 20
4.2743689206
 40
0.1575132126
100
AcDbArc
 50
343.2991117414
 51
345.2228633308
  0
ARC
  5
339
100
AcDbEntity
  8
ALL_ASSEMBLY_MEMBERS
100
AcDbCircle
 62
7
  6
CONTINUOUS
 10
4.3538313052
 20
4.2743787056
 40
0.1575111218
100
AcDbArc
 50
194.8304852526
 51
196.2406386665
  0
ARC
  5
33A
100
AcDbEntity
  8
ALL_ASSEMBLY_MEMBERS
100
AcDbCircle
 62
7
  6
CONTINUOUS
 10
4.3538605289
 20
4.2743897868
 40
0.1575053956
100
AcDbArc
 50
352.5735230553
 51
354.3383734723
  0
ARC
  5
33B
100
AcDbEntity
  8
ALL_ASSEMBLY_MEMBERS
100
AcDbCircle
 62
7
  6
CONTINUOUS
 10
4.3538248426
 20
4.2743631877
 40
0.1574989892
100
AcDbArc
 50
209.9533414072
 51
212.9378837316
  0
ARC
  5
33C
100
AcDbEntity
  8
ALL_ASSEMBLY_MEMBERS
100
AcDbCircle
 62
7
  6
CONTINUOUS
 10
4.3538685506
 20
4.2743735093
 40
0.1574958129
100
AcDbArc
 50
354.3439804353
 51
356.2574889451
  0
ARC
  5
33D
100
AcDbEntity
  8
ALL_ASSEMBLY_MEMBERS
100
AcDbCircle
 62
7
  6
CONTINUOUS
 10
4.353815512
 20
4.274359712
 40
0.1574892685
100
AcDbArc
 50
212.9386682556
 51
214.01797361
  0
ARC
  5
33E
100
AcDbEntity
  8
ALL_ASSEMBLY_MEMBERS
100
AcDbCircle
 62
7
  6
CONTINUOUS
 10
4.3538767386
 20
4.2743998936
 40
0.1574877132
100
AcDbArc
 50
1.3155796332
 51
5.3792075045
  0
ARC
  5
33F
100
AcDbEntity
  8
ALL_ASSEMBLY_MEMBERS
100
AcDbCircle
 62
7
  6
CONTINUOUS
 10
4.35388933
 20
4.2743897785
 40
0.1574763164
100
AcDbArc
 50
5.3845386926
 51
9.0659601224
  0
ARC
  5
340
100
AcDbEntity
  8
ALL_ASSEMBLY_MEMBERS
100
AcDbCircle
 62
7
  6
CONTINUOUS
 10
4.35389074
 20
4.2743751587
 40
0.1574741015
100
AcDbArc
 50
356.2563626681
 51
358.3323971808
  0
ARC
  5
341
100
AcDbEntity
  8
ALL_ASSEMBLY_MEMBERS
100
AcDbCircle
 62
7
  6
CONTINUOUS
 10
4.353923084
 20
4.2744135931
 40
0.1574393187
100
AcDbArc
 50
16.3979170257
 51
18.1578620467
  0
ARC
  5
342
100
AcDbEntity
  8
ALL_ASSEMBLY_MEMBERS
100
AcDbCircle
 62
7
  6
CONTINUOUS
 10
4.3537622149
 20
4.2743393319
 40
0.1574325418
100
AcDbArc
 50
205.7649994474
 51
206.3649180221
  0
ARC
  5
343
100
AcDbEntity
  8
ALL_ASSEMBLY_MEMBERS
100
AcDbCircle
 62
7
  6
CONTINUOUS
 10
4.3539372321
 20
4.2743772388
 40
0.1574280072
100
AcDbArc
 50
350.655038666
 51
352.5744436644
  0
ARC
  5
344
100
AcDbEntity
  8
ALL_ASSEMBLY_MEMBERS
100
AcDbCircle
 62
7
  6
CONTINUOUS
 10
4.3539515831
 20
4.2743460936
 40
0.1574079704
100
AcDbArc
 50
345.2213155414
 51
346.9802472941
  0
ARC
  5
345
100
AcDbEntity
  8
ALL_ASSEMBLY_MEMBERS
100
AcDbCircle
 62
7
  6
CONTINUOUS
 10
4.3539658244
 20
4.2743434622
 40
0.1573935706
100
AcDbArc
 50
339.6112795356
 51
341.5377080955
  0
ARC
  5
346
100
AcDbEntity
  8
ALL_ASSEMBLY_MEMBERS
100
AcDbCircle
 62
7
  6
CONTINUOUS
 10
4.3536993398
 20
4.2743432741
 40
0.1573744835
100
AcDbArc
 50
194.6498331791
 51
194.8303129117
  0
ARC
  5
347
100
AcDbEntity
  8
ALL_ASSEMBLY_MEMBERS
100
AcDbCircle
 62
7
  6
CONTINUOUS
 10
4.3541430037
 20
4.2744801585
 40
0.1572095526
100
AcDbArc
 50
14.3173951755
 51
16.3972708469
  0
ARC
  5
348
100
AcDbEntity
  8
ALL_ASSEMBLY_MEMBERS
100
AcDbCircle
 62
7
  6
CONTINUOUS
 10
4.3541462877
 20
4.2742965934
 40
0.1572070802
100
AcDbArc
 50
343.2931558211
 51
345.2206581312
  0
ARC
  5
349
100
AcDbEntity
  8
ALL_ASSEMBLY_MEMBERS
100
AcDbCircle
 62
7
  6
CONTINUOUS
 10
4.3541563566
 20
4.2744251757
 40
0.1572069565
100
AcDbArc
 50
5.3795874676
 51
7.2951555262
  0
ARC
  5
34A
100
AcDbEntity
  8
ALL_ASSEMBLY_MEMBERS
100
AcDbCircle
 62
7
  6
CONTINUOUS
 10
4.354158799
 20
4.274359485
 40
0.1572055912
100
AcDbArc
 50
354.3386390498
 51
356.2556840371
  0
ARC
  5
34B
100
AcDbEntity
  8
ALL_ASSEMBLY_MEMBERS
100
AcDbCircle
 62
7
  6
CONTINUOUS
 10
4.3541892494
 20
4.2744158127
 40
0.1571750875
100
AcDbArc
 50
3.609705556
 51
5.3841115167
  0
ARC
  5
34C
100
AcDbEntity
  8
ALL_ASSEMBLY_MEMBERS
100
AcDbCircle
 62
7
  6
CONTINUOUS
 10
4.354173933
 20
4.2742719319
 40
0.1571735206
100
AcDbArc
 50
341.5384170685
 51
343.2988717747
  0
ARC
  5
34D
100
AcDbEntity
  8
ALL_ASSEMBLY_MEMBERS
100
AcDbCircle
 62
7
  6
CONTINUOUS
 10
4.3541905714
 20
4.2743425252
 40
0.1571723061
100
AcDbArc
 50
352.5750565963
 51
354.3436509537
  0
ARC
  5
34E
100
AcDbEntity
  8
ALL_ASSEMBLY_MEMBERS
100
AcDbCircle
 62
7
  6
CONTINUOUS
 10
4.4163368088
 20
4.2932691194
 40
0.1971788161
100
AcDbArc
 50
194.5949987813
 51
195.422484809
  0
ARC
  5
34F
100
AcDbEntity
  8
ALL_ASSEMBLY_MEMBERS
100
AcDbCircle
 62
7
  6
CONTINUOUS
 10
4.3973012552
 20
4.4642950748
 40
0.0800173536
100
AcDbArc
 50
217.8768895166
 51
223.813832233
  0
ARC
  5
350
100
AcDbEntity
  8
ALL_ASSEMBLY_MEMBERS
100
AcDbCircle
 62
7
  6
CONTINUOUS
 10
4.3768944683
 20
4.4504839809
 40
0.0202041218
100
AcDbArc
 50
188.827286617
 51
193.4180604365
  0
ARC
  5
351
100
AcDbEntity
  8
ALL_ASSEMBLY_MEMBERS
100
AcDbCircle
 62
7
  6
CONTINUOUS
 10
4.3768532456
 20
4.450474154
 40
0.020161744
100
AcDbArc
 50
193.4180810962
 51
195.461102391
  0
ARC
  5
352
100
AcDbEntity
  8
ALL_ASSEMBLY_MEMBERS
100
AcDbCircle
 62
7
  6
CONTINUOUS
 10
4.3768232014
 20
4.4504796856
 40
0.0201353277
100
AcDbArc
 50
187.1270306356
 51
188.963474907
  0
ARC
  5
353
100
AcDbEntity
  8
ALL_ASSEMBLY_MEMBERS
100
AcDbCircle
 62
7
  6
CONTINUOUS
 10
4.3768231873
 20
4.4504743791
 40
0.020134264
100
AcDbArc
 50
193.3171996229
 51
196.8495482499
  0
ARC
  5
354
100
AcDbEntity
  8
ALL_ASSEMBLY_MEMBERS
100
AcDbCircle
 62
7
  6
CONTINUOUS
 10
4.3767444896
 20
4.4504894113
 40
0.0200669358
100
AcDbArc
 50
208.8438530544
 51
214.2566407307
  0
ARC
  5
355
100
AcDbEntity
  8
ALL_ASSEMBLY_MEMBERS
100
AcDbCircle
 62
7
  6
CONTINUOUS
 10
4.3767251449
 20
4.4505037213
 40
0.0200613008
100
AcDbArc
 50
229.8815304957
 51
235.3212709278
  0
ARC
  5
356
100
AcDbEntity
  8
ALL_ASSEMBLY_MEMBERS
100
AcDbCircle
 62
7
  6
CONTINUOUS
 10
4.376725889
 20
4.4504769243
 40
0.020044533
100
AcDbArc
 50
214.2570680002
 51
216.8920587198
  0
ARC
  5
357
100
AcDbEntity
  8
ALL_ASSEMBLY_MEMBERS
100
AcDbCircle
 62
7
  6
CONTINUOUS
 10
4.3767184051
 20
4.4504434494
 40
0.020025015
100
AcDbArc
 50
196.8517521236
 51
197.744250453
  0
ARC
  5
358
100
AcDbEntity
  8
ALL_ASSEMBLY_MEMBERS
100
AcDbCircle
 62
7
  6
CONTINUOUS
 10
4.3766986412
 20
4.450463271
 40
0.0200141647
100
AcDbArc
 50
207.9157950236
 51
208.8416231684
  0
ARC
  5
359
100
AcDbEntity
  8
ALL_ASSEMBLY_MEMBERS
100
AcDbCircle
 62
7
  6
CONTINUOUS
 10
4.3767033266
 20
4.4504313009
 40
0.0200058264
100
AcDbArc
 50
195.4572752498
 51
199.9143513891
  0
ARC
  5
35A
100
AcDbEntity
  8
ALL_ASSEMBLY_MEMBERS
100
AcDbCircle
 62
7
  6
CONTINUOUS
 10
4.3766780975
 20
4.4504371997
 40
0.0199798277
100
AcDbArc
 50
235.3236813617
 51
237.3372660212
  0
ARC
  5
35B
100
AcDbEntity
  8
ALL_ASSEMBLY_MEMBERS
100
AcDbCircle
 62
7
  6
CONTINUOUS
 10
4.3766018588
 20
4.4504136384
 40
0.0199054077
100
AcDbArc
 50
201.7957529784
 51
207.9199796585
  0
ARC
  5
35C
100
AcDbEntity
  8
ALL_ASSEMBLY_MEMBERS
100
AcDbCircle
 62
7
  6
CONTINUOUS
 10
4.3765559785
 20
4.4503899251
 40
0.0198540031
100
AcDbArc
 50
197.739992603
 51
201.7813731283
  0
ARC
  5
35D
100
AcDbEntity
  8
ALL_ASSEMBLY_MEMBERS
100
AcDbCircle
 62
7
  6
CONTINUOUS
 10
4.3765334076
 20
4.4504427241
 40
0.0198407055
100
AcDbArc
 50
180.7850666519
 51
187.2541330122
  0
ARC
  5
35E
100
AcDbEntity
  8
ALL_ASSEMBLY_MEMBERS
100
AcDbCircle
 62
7
  6
CONTINUOUS
 10
4.3765255288
 20
4.4504490522
 40
0.0198361556
100
AcDbArc
 50
180.7701326418
 51
187.1459077789
  0
ARC
  5
35F
100
AcDbEntity
  8
ALL_ASSEMBLY_MEMBERS
100
AcDbCircle
 62
7
  6
CONTINUOUS
 10
4.6635969626
 20
4.2658938778
 40
0.437398797
100
AcDbArc
 50
99.3316991663
 51
104.1143459012
  0
ARC
  5
360
100
AcDbEntity
  8
ALL_ASSEMBLY_MEMBERS
100
AcDbCircle
 62
7
  6
CONTINUOUS
 10
4.5926728443
 20
4.4533284161
 40
0.236
100
AcDbArc
 50
90.0
 51
180.0
  0
ARC
  5
361
100
AcDbEntity
  8
ALL_ASSEMBLY_MEMBERS
100
AcDbCircle
 62
7
  6
CONTINUOUS
 10
4.561877647
 20
4.6717459235
 40
0.3595448174
100
AcDbArc
 50
186.1563838788
 51
186.8555270165
  0
ARC
  5
362
100
AcDbEntity
  8
ALL_ASSEMBLY_MEMBERS
100
AcDbCircle
 62
7
  6
CONTINUOUS
 10
4.341001639
 20
4.5886953272
 40
0.1991647325
100
AcDbArc
 50
85.7272930504
 51
87.643911796
  0
ARC
  5
363
100
AcDbEntity
  8
ALL_ASSEMBLY_MEMBERS
100
AcDbCircle
 62
7
  6
CONTINUOUS
 10
4.2255184865
 20
4.8033415942
 40
0.1034746381
100
AcDbArc
 50
89.5904139302
 51
89.9987618907
  0
ARC
  5
364
100
AcDbEntity
  8
ALL_ASSEMBLY_MEMBERS
100
AcDbCircle
 62
7
  6
CONTINUOUS
 10
4.4389808503
 20
4.8228284161
 40
0.035
100
AcDbArc
 50
270.0
 51
343.9024172261
  0
ARC
  5
365
100
AcDbEntity
  8
ALL_ASSEMBLY_MEMBERS
100
AcDbCircle
 62
7
  6
CONTINUOUS
 10
4.2007611455
 20
4.8428122207
 40
0.0303840879
100
AcDbArc
 50
88.7175612653
 51
89.995539863
  0
ARC
  5
366
100
AcDbEntity
  8
ALL_ASSEMBLY_MEMBERS
100
AcDbCircle
 62
7
  6
CONTINUOUS
 10
4.1517277667
 20
4.8076371249
 40
0.0199532483
100
AcDbArc
 50
15.8809201073
 51
74.253314953
  0
ARC
  5
367
100
AcDbEntity
  8
ALL_ASSEMBLY_MEMBERS
100
AcDbCircle
 62
7
  6
CONTINUOUS
 10
5.6630916654
 20
4.4650409073
 40
0.1503428589
100
AcDbArc
 50
355.4207378681
 51
355.8198957519
  0
ARC
  5
368
100
AcDbEntity
  8
ALL_ASSEMBLY_MEMBERS
100
AcDbCircle
 62
7
  6
CONTINUOUS
 10
5.8721383765
 20
4.2608613362
 40
0.0706261929
100
AcDbArc
 50
189.7705067172
 51
190.0754227738
  0
ARC
  5
369
100
AcDbEntity
  8
ALL_ASSEMBLY_MEMBERS
100
AcDbCircle
 62
7
  6
CONTINUOUS
 10
5.7738415528
 20
4.5165778064
 40
0.045657133
100
AcDbArc
 50
4.4568299885
 51
5.4440302859
  0
ARC
  5
36A
100
AcDbEntity
  8
ALL_ASSEMBLY_MEMBERS
100
AcDbCircle
 62
7
  6
CONTINUOUS
 10
5.356654228
 20
4.4068284161
 40
0.03
100
AcDbArc
 50
180.0
 51
270.0
  0
ARC
  5
36B
100
AcDbEntity
  8
ALL_ASSEMBLY_MEMBERS
100
AcDbCircle
 62
7
  6
CONTINUOUS
 10
5.267154228
 20
4.4068284161
 40
0.03
100
AcDbArc
 50
223.5249964731
 51
360.0
  0
ARC
  5
36C
100
AcDbEntity
  8
ALL_ASSEMBLY_MEMBERS
100
AcDbCircle
 62
7
  6
CONTINUOUS
 10
5.8213423001
 20
4.5055059158
 40
0.0210144615
100
AcDbArc
 50
171.1715443524
 51
172.7549890896
  0
ARC
  5
36D
100
AcDbEntity
  8
ALL_ASSEMBLY_MEMBERS
100
AcDbCircle
 62
7
  6
CONTINUOUS
 10
5.81498366
 20
4.4447249995
 40
0.0007776843
100
AcDbArc
 50
276.4307934136
 51
285.1875834247
  0
ARC
  5
36E
100
AcDbEntity
  8
ALL_ASSEMBLY_MEMBERS
100
AcDbCircle
 62
7
  6
CONTINUOUS
 10
5.246402955
 20
4.7314548984
 40
1.08017123
100
AcDbArc
 50
185.3403478524
 51
185.6276066073
  0
ARC
  5
36F
100
AcDbEntity
  8
ALL_ASSEMBLY_MEMBERS
100
AcDbCircle
 62
7
  6
CONTINUOUS
 10
4.3402837293
 20
5.0655576929
 40
1.4738310542
100
AcDbArc
 50
358.4929567333
 51
358.7448531524
  0
ARC
  5
370
100
AcDbEntity
  8
ALL_ASSEMBLY_MEMBERS
100
AcDbCircle
 62
7
  6
CONTINUOUS
 10
4.8513179393
 20
5.0561212517
 40
0.9676177827
100
AcDbArc
 50
358.1967279575
 51
358.3323671175
  0
ARC
  5
371
100
AcDbEntity
  8
ALL_ASSEMBLY_MEMBERS
100
AcDbCircle
 62
7
  6
CONTINUOUS
 10
4.9492029547
 20
5.0530163939
 40
0.8696835405
100
AcDbArc
 50
357.9571842616
 51
358.1982491746
  0
ARC
  5
372
100
AcDbEntity
  8
ALL_ASSEMBLY_MEMBERS
100
AcDbCircle
 62
7
  6
CONTINUOUS
 10
4.9995894481
 20
5.1663674409
 40
0.8183034808
100
AcDbArc
 50
353.0883501815
 51
353.444431338
  0
ARC
  5
373
100
AcDbEntity
  8
ALL_ASSEMBLY_MEMBERS
100
AcDbCircle
 62
7
  6
CONTINUOUS
 10
5.0389793141
 20
5.1765872959
 40
0.7772929134
100
AcDbArc
 50
352.279702242
 51
352.5523834562
  0
ARC
  5
374
100
AcDbEntity
  8
ALL_ASSEMBLY_MEMBERS
100
AcDbCircle
 62
7
  6
CONTINUOUS
 10
4.5618505708
 20
5.0619149056
 40
0.3595174577
100
AcDbArc
 50
173.1445903218
 51
173.8437656809
  0
ARC
  5
375
100
AcDbEntity
  8
ALL_ASSEMBLY_MEMBERS
100
AcDbCircle
 62
7
  6
CONTINUOUS
 10
4.3414064596
 20
5.1378901552
 40
0.1920828078
100
AcDbArc
 50
272.2807978614
 51
274.2412535601
  0
ARC
  5
376
100
AcDbEntity
  8
ALL_ASSEMBLY_MEMBERS
100
AcDbCircle
 62
7
  6
CONTINUOUS
 10
4.2255275318
 20
4.9277946005
 40
0.1009540008
100
AcDbArc
 50
269.9961351461
 51
270.4146788331
  0
ARC
  5
377
100
AcDbEntity
  8
ALL_ASSEMBLY_MEMBERS
100
AcDbCircle
 62
7
  6
CONTINUOUS
 10
4.4389807879
 20
4.9108284161
 40
0.035
100
AcDbArc
 50
16.0975398527
 51
89.9999999814
  0
ARC
  5
378
100
AcDbEntity
  8
ALL_ASSEMBLY_MEMBERS
100
AcDbCircle
 62
7
  6
CONTINUOUS
 10
4.200761158
 20
4.8908442162
 40
0.0303836926
100
AcDbArc
 50
270.0044368182
 51
271.282431698
  0
ARC
  5
379
100
AcDbEntity
  8
ALL_ASSEMBLY_MEMBERS
100
AcDbCircle
 62
7
  6
CONTINUOUS
 10
4.1517277664
 20
4.9260197061
 40
0.0199532484
100
AcDbArc
 50
285.7467071178
 51
344.1190936029
  0
ARC
  5
37A
100
AcDbEntity
  8
ALL_ASSEMBLY_MEMBERS
100
AcDbCircle
 62
7
  6
CONTINUOUS
 10
4.5930232597
 20
5.2803060882
 40
0.2363504445
100
AcDbArc
 50
181.9850127603
 51
182.2076629464
  0
ARC
  5
37B
100
AcDbEntity
  8
ALL_ASSEMBLY_MEMBERS
100
AcDbCircle
 62
7
  6
CONTINUOUS
 10
4.5927147537
 20
5.2802970546
 40
0.2360418108
100
AcDbArc
 50
180.0031720909
 51
181.9854152041
  0
ARC
  5
37C
100
AcDbEntity
  8
ALL_ASSEMBLY_MEMBERS
100
AcDbCircle
 62
7
  6
CONTINUOUS
 10
4.5926728443
 20
5.2803284161
 40
0.236
100
AcDbArc
 50
180.0
 51
270.0
  0
ARC
  5
37D
100
AcDbEntity
  8
ALL_ASSEMBLY_MEMBERS
100
AcDbCircle
 62
7
  6
CONTINUOUS
 10
4.3768882251
 20
5.2831656503
 40
0.0202012321
100
AcDbArc
 50
166.6481100442
 51
170.9840068685
  0
ARC
  5
37E
100
AcDbEntity
  8
ALL_ASSEMBLY_MEMBERS
100
AcDbCircle
 62
7
  6
CONTINUOUS
 10
4.37684547
 20
5.2831758179
 40
0.0201572847
100
AcDbArc
 50
164.4777616867
 51
166.6481647091
  0
ARC
  5
37F
100
AcDbEntity
  8
ALL_ASSEMBLY_MEMBERS
100
AcDbCircle
 62
7
  6
CONTINUOUS
 10
4.3768246227
 20
5.2831759586
 40
0.0201368002
100
AcDbArc
 50
170.9846152089
 51
172.8383147903
  0
ARC
  5
380
100
AcDbEntity
  8
ALL_ASSEMBLY_MEMBERS
100
AcDbCircle
 62
7
  6
CONTINUOUS
 10
4.3767444435
 20
5.2831664418
 40
0.020066923
100
AcDbArc
 50
145.7179576454
 51
151.2227664674
  0
ARC
  5
381
100
AcDbEntity
  8
ALL_ASSEMBLY_MEMBERS
100
AcDbCircle
 62
7
  6
CONTINUOUS
 10
4.3767251775
 20
5.2831793869
 40
0.0200437124
100
AcDbArc
 50
143.0243418172
 51
145.717512478
  0
ARC
  5
382
100
AcDbEntity
  8
ALL_ASSEMBLY_MEMBERS
100
AcDbCircle
 62
7
  6
CONTINUOUS
 10
4.3766979775
 20
5.2831929045
 40
0.0200134564
100
AcDbArc
 50
151.2251297358
 51
152.0699014867
  0
ARC
  5
383
100
AcDbEntity
  8
ALL_ASSEMBLY_MEMBERS
100
AcDbCircle
 62
7
  6
CONTINUOUS
 10
4.3766941594
 20
5.2832191365
 40
0.0199999003
100
AcDbArc
 50
160.1337985851
 51
164.481331298
  0
ARC
  5
384
100
AcDbEntity
  8
ALL_ASSEMBLY_MEMBERS
100
AcDbCircle
 62
7
  6
CONTINUOUS
 10
4.3766018881
 20
5.2832421849
 40
0.0199054769
100
AcDbArc
 50
152.0656773961
 51
158.2135503175
  0
ARC
  5
385
100
AcDbEntity
  8
ALL_ASSEMBLY_MEMBERS
100
AcDbCircle
 62
7
  6
CONTINUOUS
 10
4.3765264985
 20
5.2832067823
 40
0.0198371602
100
AcDbArc
 50
172.8192984079
 51
179.2265216928
  0
ARC
  5
386
100
AcDbEntity
  8
ALL_ASSEMBLY_MEMBERS
100
AcDbCircle
 62
7
  6
CONTINUOUS
 10
4.3765272665
 20
5.2832149421
 40
0.0198345646
100
AcDbArc
 50
172.7469237114
 51
179.2142334187
  0
ARC
  5
387
100
AcDbEntity
  8
ALL_ASSEMBLY_MEMBERS
100
AcDbCircle
 62
7
  6
CONTINUOUS
 10
4.3764754838
 20
5.2832963117
 40
0.0197680124
100
AcDbArc
 50
158.2232484314
 51
160.1287874411
  0
ARC
  5
388
100
AcDbEntity
  8
ALL_ASSEMBLY_MEMBERS
100
AcDbCircle
 62
7
  6
CONTINUOUS
 10
4.4163340826
 20
5.4403884389
 40
0.1971759954
100
AcDbArc
 50
164.5775079994
 51
165.4050057497
  0
ARC
  5
389
100
AcDbEntity
  8
ALL_ASSEMBLY_MEMBERS
100
AcDbCircle
 62
7
  6
CONTINUOUS
 10
4.3535536579
 20
5.4593157754
 40
0.1578151997
100
AcDbArc
 50
348.3286901743
 51
350.9305899471
  0
ARC
  5
38A
100
AcDbEntity
  8
ALL_ASSEMBLY_MEMBERS
100
AcDbCircle
 62
7
  6
CONTINUOUS
 10
4.3535629308
 20
5.4592651842
 40
0.1578019954
100
AcDbArc
 50
0.0018078553
 51
1.6590833604
  0
ARC
  5
38B
100
AcDbEntity
  8
ALL_ASSEMBLY_MEMBERS
100
AcDbCircle
 62
7
  6
CONTINUOUS
 10
4.3535709605
 20
5.4592163684
 40
0.1577997314
100
AcDbArc
 50
11.0961018414
 51
13.0157248385
  0
ARC
  5
38C
100
AcDbEntity
  8
ALL_ASSEMBLY_MEMBERS
100
AcDbCircle
 62
7
  6
CONTINUOUS
 10
4.3535770075
 20
5.4593191054
 40
0.1577929734
100
AcDbArc
 50
347.633654164
 51
348.8342618846
  0
ARC
  5
38D
100
AcDbEntity
  8
ALL_ASSEMBLY_MEMBERS
100
AcDbCircle
 62
7
  6
CONTINUOUS
 10
4.3535728686
 20
5.4592740773
 40
0.1577920893
100
AcDbArc
 50
358.6746722036
 51
359.9985789589
  0
ARC
  5
38E
100
AcDbEntity
  8
ALL_ASSEMBLY_MEMBERS
100
AcDbCircle
 62
7
  6
CONTINUOUS
 10
4.3535838937
 20
5.459229281
 40
0.1577846163
100
AcDbArc
 50
9.3360072136
 51
11.0924034002
  0
ARC
  5
38F
100
AcDbEntity
  8
ALL_ASSEMBLY_MEMBERS
100
AcDbCircle
 62
7
  6
CONTINUOUS
 10
4.3536020908
 20
5.4591870081
 40
0.1577782808
100
AcDbArc
 50
20.379228593
 51
22.1287584799
  0
ARC
  5
390
100
AcDbEntity
  8
ALL_ASSEMBLY_MEMBERS
100
AcDbCircle
 62
7
  6
CONTINUOUS
 10
4.3536190507
 20
5.4592669938
 40
0.1577458467
100
AcDbArc
 50
1.659016523
 51
3.7358648924
  0
ARC
  5
391
100
AcDbEntity
  8
ALL_ASSEMBLY_MEMBERS
100
AcDbCircle
 62
7
  6
CONTINUOUS
 10
4.353623974
 20
5.4592726685
 40
0.1577409649
100
AcDbArc
 50
356.3856714239
 51
358.6747544617
  0
ARC
  5
392
100
AcDbEntity
  8
ALL_ASSEMBLY_MEMBERS
100
AcDbCircle
 62
7
  6
CONTINUOUS
 10
4.3536304689
 20
5.4592302125
 40
0.1577386339
100
AcDbArc
 50
13.0156935791
 51
14.7696742013
  0
ARC
  5
393
100
AcDbEntity
  8
ALL_ASSEMBLY_MEMBERS
100
AcDbCircle
 62
7
  6
CONTINUOUS
 10
4.3536334905
 20
5.4593063634
 40
0.1577350724
100
AcDbArc
 50
345.3417452193
 51
347.633759103
  0
ARC
  5
394
100
AcDbEntity
  8
ALL_ASSEMBLY_MEMBERS
100
AcDbCircle
 62
7
  6
CONTINUOUS
 10
4.3536429854
 20
5.4592020533
 40
0.1577347067
100
AcDbArc
 50
18.4556764475
 51
20.3792784889
  0
ARC
  5
395
100
AcDbEntity
  8
ALL_ASSEMBLY_MEMBERS
100
AcDbCircle
 62
7
  6
CONTINUOUS
 10
4.353639735
 20
5.4593070173
 40
0.1577290924
100
AcDbArc
 50
348.8341573663
 51
352.6975207187
  0
ARC
  5
396
100
AcDbEntity
  8
ALL_ASSEMBLY_MEMBERS
100
AcDbCircle
 62
7
  6
CONTINUOUS
 10
4.3536396197
 20
5.4592383004
 40
0.1577281654
100
AcDbArc
 50
7.4195179143
 51
9.3360581255
  0
ARC
  5
397
100
AcDbEntity
  8
ALL_ASSEMBLY_MEMBERS
100
AcDbCircle
 62
7
  6
CONTINUOUS
 10
4.3536400588
 20
5.4592652027
 40
0.1577248675
100
AcDbArc
 50
358.6773313762
 51
0.0018020381
  0
ARC
  5
398
100
AcDbEntity
  8
ALL_ASSEMBLY_MEMBERS
100
AcDbCircle
 62
7
  6
CONTINUOUS
 10
4.3536428319
 20
5.459297955
 40
0.1577242644
100
AcDbArc
 50
347.8100918316
 51
348.3284767179
  0
ARC
  5
399
100
AcDbEntity
  8
ALL_ASSEMBLY_MEMBERS
100
AcDbCircle
 62
7
  6
CONTINUOUS
 10
4.3536470678
 20
5.4592742064
 40
0.1577178901
100
AcDbArc
 50
359.9985314009
 51
1.6566913968
  0
ARC
  5
39A
100
AcDbEntity
  8
ALL_ASSEMBLY_MEMBERS
100
AcDbCircle
 62
7
  6
CONTINUOUS
 10
4.353658878
 20
5.4592098875
 40
0.1577170582
100
AcDbArc
 50
22.1288300828
 51
22.7365675729
  0
ARC
  5
39B
100
AcDbEntity
  8
ALL_ASSEMBLY_MEMBERS
100
AcDbCircle
 62
7
  6
CONTINUOUS
 10
4.3536629787
 20
5.4593286506
 40
0.1577130884
100
AcDbArc
 50
339.8140124792
 51
341.8418346574
  0
ARC
  5
39C
100
AcDbEntity
  8
ALL_ASSEMBLY_MEMBERS
100
AcDbCircle
 62
7
  6
CONTINUOUS
 10
4.3536743618
 20
5.4592365812
 40
0.157694373
100
AcDbArc
 50
9.3387233858
 51
11.0961255206
  0
ARC
  5
39D
100
AcDbEntity
  8
ALL_ASSEMBLY_MEMBERS
100
AcDbCircle
 62
7
  6
CONTINUOUS
 10
4.3537271442
 20
5.4591630608
 40
0.1576853116
100
AcDbArc
 50
42.9922824879
 51
44.7249154447
  0
ARC
  5
39E
100
AcDbEntity
  8
ALL_ASSEMBLY_MEMBERS
100
AcDbCircle
 62
7
  6
CONTINUOUS
 10
4.3536918164
 20
5.4593219533
 40
0.1576839327
100
AcDbArc
 50
339.0863608074
 51
339.8125219513
  0
ARC
  5
39F
100
AcDbEntity
  8
ALL_ASSEMBLY_MEMBERS
100
AcDbCircle
 62
7
  6
CONTINUOUS
 10
4.3536889119
 20
5.4592500378
 40
0.1576775667
100
AcDbArc
 50
11.092343685
 51
13.0134566845
  0
ARC
  5
3A0
100
AcDbEntity
  8
ALL_ASSEMBLY_MEMBERS
100
AcDbCircle
 62
7
  6
CONTINUOUS
 10
4.3536979961
 20
5.4592262445
 40
0.157674658
100
AcDbArc
 50
22.7365795482
 51
23.06646247
  0
ARC
  5
3A1
100
AcDbEntity
  8
ALL_ASSEMBLY_MEMBERS
100
AcDbCircle
 62
7
  6
CONTINUOUS
 10
4.353706145
 20
5.4592171295
 40
0.1576705102
100
AcDbArc
 50
20.3821366257
 51
22.1328633885
  0
ARC
  5
3A2
100
AcDbEntity
  8
ALL_ASSEMBLY_MEMBERS
100
AcDbCircle
 62
7
  6
CONTINUOUS
 10
4.3539259801
 20
5.4592101796
 40
0.1576302258
100
AcDbArc
 50
138.0196707009
 51
138.5884480006
  0
ARC
  5
3A3
100
AcDbEntity
  8
ALL_ASSEMBLY_MEMBERS
100
AcDbCircle
 62
7
  6
CONTINUOUS
 10
4.3537991508
 20
5.4592634346
 40
0.1575641809
100
AcDbArc
 50
345.6826367445
 51
347.8103590603
  0
ARC
  5
3A4
100
AcDbEntity
  8
ALL_ASSEMBLY_MEMBERS
100
AcDbCircle
 62
7
  6
CONTINUOUS
 10
4.3538556326
 20
5.459273352
 40
0.1575358277
100
AcDbArc
 50
143.7250282008
 51
163.7596683395
  0
ARC
  5
3A5
100
AcDbEntity
  8
ALL_ASSEMBLY_MEMBERS
100
AcDbCircle
 62
7
  6
CONTINUOUS
 10
4.3538317206
 20
5.4592750733
 40
0.1575324848
100
AcDbArc
 50
22.1305492251
 51
42.9884197777
  0
ARC
  5
3A6
100
AcDbEntity
  8
ALL_ASSEMBLY_MEMBERS
100
AcDbCircle
 62
7
  6
CONTINUOUS
 10
4.3538484366
 20
5.4592770382
 40
0.1575278454
100
AcDbArc
 50
138.5880298201
 51
143.7245605343
  0
ARC
  5
3A7
100
AcDbEntity
  8
ALL_ASSEMBLY_MEMBERS
100
AcDbCircle
 62
7
  6
CONTINUOUS
 10
4.3538415226
 20
5.4592683039
 40
0.1575254075
100
AcDbArc
 50
16.7005879662
 51
18.4556792865
  0
ARC
  5
3A8
100
AcDbEntity
  8
ALL_ASSEMBLY_MEMBERS
100
AcDbCircle
 62
7
  6
CONTINUOUS
 10
4.3538424053
 20
5.4593053527
 40
0.1575230635
100
AcDbArc
 50
0.0
 51
165.3491830153
  0
ARC
  5
3A9
100
AcDbEntity
  8
ALL_ASSEMBLY_MEMBERS
100
AcDbCircle
 62
7
  6
CONTINUOUS
 10
4.3538422617
 20
5.4592863365
 40
0.1575167962
100
AcDbArc
 50
44.7225227467
 51
138.0198947402
  0
ARC
  5
3AA
100
AcDbEntity
  8
ALL_ASSEMBLY_MEMBERS
100
AcDbCircle
 62
7
  6
CONTINUOUS
 10
4.3538472546
 20
5.4592875953
 40
0.1575143823
100
AcDbArc
 50
14.7695939137
 51
16.6944633779
  0
ARC
  5
3AB
100
AcDbEntity
  8
ALL_ASSEMBLY_MEMBERS
100
AcDbCircle
 62
7
  6
CONTINUOUS
 10
4.3538331466
 20
5.4592781486
 40
0.1575128975
100
AcDbArc
 50
163.7590560183
 51
165.180392373
  0
ARC
  5
3AC
100
AcDbEntity
  8
ALL_ASSEMBLY_MEMBERS
100
AcDbCircle
 62
7
  6
CONTINUOUS
 10
4.3538533503
 20
5.4592631663
 40
0.157512035
100
AcDbArc
 50
339.8123151125
 51
341.6550222328
  0
ARC
  5
3AD
100
AcDbEntity
  8
ALL_ASSEMBLY_MEMBERS
100
AcDbCircle
 62
7
  6
CONTINUOUS
 10
4.3538592955
 20
5.4592668971
 40
0.1575066361
100
AcDbArc
 50
5.6556189423
 51
7.419521634
  0
ARC
  5
3AE
100
AcDbEntity
  8
ALL_ASSEMBLY_MEMBERS
100
AcDbCircle
 62
7
  6
CONTINUOUS
 10
4.3538674579
 20
5.4592832342
 40
0.1574969092
100
AcDbArc
 50
3.7358574753
 51
5.6499951459
  0
ARC
  5
3AF
100
AcDbEntity
  8
ALL_ASSEMBLY_MEMBERS
100
AcDbCircle
 62
7
  6
CONTINUOUS
 10
4.3538756029
 20
5.4592570161
 40
0.1574888498
100
AcDbArc
 50
354.6153701709
 51
358.677597146
  0
ARC
  5
3B0
100
AcDbEntity
  8
ALL_ASSEMBLY_MEMBERS
100
AcDbCircle
 62
7
  6
CONTINUOUS
 10
4.353883618
 20
5.4592710219
 40
0.1574821858
100
AcDbArc
 50
352.6974432293
 51
354.6100215648
  0
ARC
  5
3B1
100
AcDbEntity
  8
ALL_ASSEMBLY_MEMBERS
100
AcDbCircle
 62
7
  6
CONTINUOUS
 10
4.3538914687
 20
5.4592816835
 40
0.1574733752
100
AcDbArc
 50
1.6565428819
 51
3.7369901672
  0
ARC
  5
3B2
100
AcDbEntity
  8
ALL_ASSEMBLY_MEMBERS
100
AcDbCircle
 62
7
  6
CONTINUOUS
 10
4.3538912254
 20
5.4592392244
 40
0.1574687365
100
AcDbArc
 50
343.5717926358
 51
345.3416481346
  0
ARC
  5
3B3
100
AcDbEntity
  8
ALL_ASSEMBLY_MEMBERS
100
AcDbCircle
 62
7
  6
CONTINUOUS
 10
4.3539230371
 20
5.4592432538
 40
0.1574393678
100
AcDbArc
 50
341.8418707127
 51
343.601852736
  0
ARC
  5
3B4
100
AcDbEntity
  8
ALL_ASSEMBLY_MEMBERS
100
AcDbCircle
 62
7
  6
CONTINUOUS
 10
4.3539384601
 20
5.4592797762
 40
0.1574267657
100
AcDbArc
 50
7.4185938116
 51
9.3388081724
  0
ARC
  5
3B5
100
AcDbEntity
  8
ALL_ASSEMBLY_MEMBERS
100
AcDbCircle
 62
7
  6
CONTINUOUS
 10
4.3539530787
 20
5.4593110664
 40
0.157406442
100
AcDbArc
 50
13.0134653692
 51
14.7711532497
  0
ARC
  5
3B6
100
AcDbEntity
  8
ALL_ASSEMBLY_MEMBERS
100
AcDbCircle
 62
7
  6
CONTINUOUS
 10
4.3539671412
 20
5.4593138367
 40
0.1573921736
100
AcDbArc
 50
18.4544325726
 51
20.3822266745
  0
ARC
  5
3B7
100
AcDbEntity
  8
ALL_ASSEMBLY_MEMBERS
100
AcDbCircle
 62
7
  6
CONTINUOUS
 10
4.3537110293
 20
5.459310919
 40
0.1573864604
100
AcDbArc
 50
165.1805545902
 51
165.3503135341
  0
ARC
  5
3B8
100
AcDbEntity
  8
ALL_ASSEMBLY_MEMBERS
100
AcDbCircle
 62
7
  6
CONTINUOUS
 10
4.3541352433
 20
5.4591686771
 40
0.1572147289
100
AcDbArc
 50
341.6553738766
 51
343.5713026807
  0
ARC
  5
3B9
100
AcDbEntity
  8
ALL_ASSEMBLY_MEMBERS
100
AcDbCircle
 62
7
  6
CONTINUOUS
 10
4.3541430249
 20
5.4591766681
 40
0.1572095306
100
AcDbArc
 50
343.602498687
 51
345.6822847108
  0
ARC
  5
3BA
100
AcDbEntity
  8
ALL_ASSEMBLY_MEMBERS
100
AcDbCircle
 62
7
  6
CONTINUOUS
 10
4.3541561322
 20
5.4592316071
 40
0.157207174
100
AcDbArc
 50
352.6990678217
 51
354.6149953994
  0
ARC
  5
3BB
100
AcDbEntity
  8
ALL_ASSEMBLY_MEMBERS
100
AcDbCircle
 62
7
  6
CONTINUOUS
 10
4.3541583219
 20
5.4592972262
 40
0.1572060764
100
AcDbArc
 50
3.7376764368
 51
5.655359202
  0
ARC
  5
3BC
100
AcDbEntity
  8
ALL_ASSEMBLY_MEMBERS
100
AcDbCircle
 62
7
  6
CONTINUOUS
 10
4.3541892037
 20
5.4592410242
 40
0.1571751334
100
AcDbArc
 50
354.6104444652
 51
356.3841944668
  0
ARC
  5
3BD
100
AcDbEntity
  8
ALL_ASSEMBLY_MEMBERS
100
AcDbCircle
 62
7
  6
CONTINUOUS
 10
4.3541734407
 20
5.4593847462
 40
0.1571740365
100
AcDbArc
 50
16.6946991678
 51
18.4537184809
  0
ARC
  5
3BE
100
AcDbEntity
  8
ALL_ASSEMBLY_MEMBERS
100
AcDbCircle
 62
7
  6
CONTINUOUS
 10
4.3541903194
 20
5.4593142795
 40
0.1571725597
100
AcDbArc
 50
5.6503201595
 51
7.4179758756
  0
ARC
  5
3BF
100
AcDbEntity
  8
ALL_ASSEMBLY_MEMBERS
100
AcDbCircle
 62
7
  6
CONTINUOUS
 10
4.6636069059
 20
5.4678108344
 40
0.4374476555
100
AcDbArc
 50
255.8859206937
 51
260.668032585
  0
ARC
  5
3C0
100
AcDbEntity
  8
ALL_ASSEMBLY_MEMBERS
100
AcDbCircle
 62
7
  6
CONTINUOUS
 10
4.7608278077
 20
5.2121974636
 40
1.0577155366
100
AcDbArc
 50
352.8784614869
 51
353.0104545812
  0
ARC
  5
3C1
100
AcDbEntity
  8
ALL_ASSEMBLY_MEMBERS
100
AcDbCircle
 62
7
  6
CONTINUOUS
 10
4.9323451204
 20
5.19057133
 40
0.8848401251
100
AcDbArc
 50
352.549523332
 51
352.7958456317
  0
ARC
  5
3C2
100
AcDbEntity
  8
ALL_ASSEMBLY_MEMBERS
100
AcDbCircle
 62
7
  6
CONTINUOUS
 10
5.009154228
 20
5.3750159161
 40
0.02
100
AcDbArc
 50
90.0
 51
180.0
  0
ARC
  5
3C3
100
AcDbEntity
  8
ALL_ASSEMBLY_MEMBERS
100
AcDbCircle
 62
7
  6
CONTINUOUS
 10
5.2463080011
 20
5.0022108059
 40
1.0800758636
100
AcDbArc
 50
174.3723678048
 51
174.6596519359
  0
ARC
  5
3C4
100
AcDbEntity
  8
ALL_ASSEMBLY_MEMBERS
100
AcDbCircle
 62
7
  6
CONTINUOUS
 10
5.1874386218
 20
5.1437646504
 40
0.6290994588
100
AcDbArc
 50
352.8524290355
 51
353.0731414197
  0
ARC
  5
3C5
100
AcDbEntity
  8
ALL_ASSEMBLY_MEMBERS
100
AcDbCircle
 62
7
  6
CONTINUOUS
 10
5.2563672272
 20
5.1465531895
 40
0.5578410563
100
AcDbArc
 50
351.2634753316
 51
352.3370733065
  0
ARC
  5
3C6
100
AcDbEntity
  8
ALL_ASSEMBLY_MEMBERS
100
AcDbCircle
 62
7
  6
CONTINUOUS
 10
5.3331350885
 20
5.1254518247
 40
0.4822566255
100
AcDbArc
 50
352.3107298738
 51
352.8574408334
  0
ARC
  5
3C7
100
AcDbEntity
  8
ALL_ASSEMBLY_MEMBERS
100
AcDbCircle
 62
7
  6
CONTINUOUS
 10
5.5332813382
 20
5.0600163056
 40
0.2800241735
100
AcDbArc
 50
6.2535466083
 51
6.4662524436
  0
ARC
  5
3C8
100
AcDbEntity
  8
ALL_ASSEMBLY_MEMBERS
100
AcDbCircle
 62
7
  6
CONTINUOUS
 10
5.6767883785
 20
5.0079138959
 40
0.1358797488
100
AcDbArc
 50
351.364355443
 51
352.4831821945
  0
ARC
  5
3C9
100
AcDbEntity
  8
ALL_ASSEMBLY_MEMBERS
100
AcDbCircle
 62
7
  6
CONTINUOUS
 10
5.9266575735
 20
5.0040407739
 40
0.1264637207
100
AcDbArc
 50
176.041080355
 51
176.5400436468
  0
ARC
  5
3CA
100
AcDbEntity
  8
ALL_ASSEMBLY_MEMBERS
100
AcDbCircle
 62
7
  6
CONTINUOUS
 10
5.9353554092
 20
5.0840704737
 40
0.1233056269
100
AcDbArc
 50
186.4920826995
 51
187.7088888969
  0
ARC
  5
3CB
100
AcDbEntity
  8
ALL_ASSEMBLY_MEMBERS
100
AcDbCircle
 62
7
  6
CONTINUOUS
 10
5.9386200365
 20
5.0847829133
 40
0.1219020734
100
AcDbArc
 50
187.3642427269
 51
188.810634278
  0
ARC
  5
3CC
100
AcDbEntity
  8
ALL_ASSEMBLY_MEMBERS
100
AcDbCircle
 62
7
  6
CONTINUOUS
 10
5.914701288
 20
5.0048695749
 40
0.1144787438
100
AcDbArc
 50
175.491281219
 51
176.0417544125
  0
ARC
  5
3CD
100
AcDbEntity
  8
ALL_ASSEMBLY_MEMBERS
100
AcDbCircle
 62
7
  6
CONTINUOUS
 10
5.6992257275
 20
5.078409743
 40
0.1097705904
100
AcDbArc
 50
349.8620755539
 51
351.3086802736
  0
ARC
  5
3CE
100
AcDbEntity
  8
ALL_ASSEMBLY_MEMBERS
100
AcDbCircle
 62
7
  6
CONTINUOUS
 10
5.7054193408
 20
5.003508512
 40
0.1069119157
100
AcDbArc
 50
350.068852192
 51
351.3946289722
  0
ARC
  5
3CF
100
AcDbEntity
  8
ALL_ASSEMBLY_MEMBERS
100
AcDbCircle
 62
7
  6
CONTINUOUS
 10
5.9048774231
 20
4.9899652275
 40
0.1044030087
100
AcDbArc
 50
186.0709630497
 51
187.8047521168
  0
ARC
  5
3D0
100
AcDbEntity
  8
ALL_ASSEMBLY_MEMBERS
100
AcDbCircle
 62
7
  6
CONTINUOUS
 10
5.9053105221
 20
5.0784449834
 40
0.0995782801
100
AcDbArc
 50
170.1660508238
 51
171.54791109
  0
ARC
  5
3D1
100
AcDbEntity
  8
ALL_ASSEMBLY_MEMBERS
100
AcDbCircle
 62
7
  6
CONTINUOUS
 10
5.9006241322
 20
5.0574023803
 40
0.0955233643
100
AcDbArc
 50
184.771765114
 51
185.0734466136
  0
ARC
  5
3D2
100
AcDbEntity
  8
ALL_ASSEMBLY_MEMBERS
100
AcDbCircle
 62
7
  6
CONTINUOUS
 10
5.8940646485
 20
4.9894266729
 40
0.0923205359
100
AcDbArc
 50
174.1340871714
 51
180.7290486872
  0
ARC
  5
3D3
100
AcDbEntity
  8
ALL_ASSEMBLY_MEMBERS
100
AcDbCircle
 62
7
  6
CONTINUOUS
 10
5.8749479286
 20
4.983150824
 40
0.0693851108
100
AcDbArc
 50
188.7092272213
 51
190.9366820176
  0
ARC
  5
3D4
100
AcDbEntity
  8
ALL_ASSEMBLY_MEMBERS
100
AcDbCircle
 62
7
  6
CONTINUOUS
 10
5.7605215273
 20
5.0888853841
 40
0.0605380936
100
AcDbArc
 50
349.8317433746
 51
351.1878131912
  0
ARC
  5
3D5
100
AcDbEntity
  8
ALL_ASSEMBLY_MEMBERS
100
AcDbCircle
 62
7
  6
CONTINUOUS
 10
5.8689940611
 20
5.1002053671
 40
0.050963783
100
AcDbArc
 50
165.6253060901
 51
166.8580852542
  0
ARC
  5
3D6
100
AcDbEntity
  8
ALL_ASSEMBLY_MEMBERS
100
AcDbCircle
 62
7
  6
CONTINUOUS
 10
5.8524566074
 20
5.1028344676
 40
0.0384377533
100
AcDbArc
 50
166.2042548578
 51
167.175779352
  0
ARC
  5
3D7
100
AcDbEntity
  8
ALL_ASSEMBLY_MEMBERS
100
AcDbCircle
 62
7
  6
CONTINUOUS
 10
5.356654228
 20
5.3268284161
 40
0.03
100
AcDbArc
 50
90.0
 51
180.0
  0
ARC
  5
3D8
100
AcDbEntity
  8
ALL_ASSEMBLY_MEMBERS
100
AcDbCircle
 62
7
  6
CONTINUOUS
 10
5.267154228
 20
5.3268284161
 40
0.03
100
AcDbArc
 50
0.0
 51
136.4750035269
  0
ARC
  5
3D9
100
AcDbEntity
  8
ALL_ASSEMBLY_MEMBERS
100
AcDbCircle
 62
7
  6
CONTINUOUS
 10
5.094154228
 20
5.3750159161
 40
0.02
100
AcDbArc
 50
0.0
 51
90.0
  0
ARC
  5
3DA
100
AcDbEntity
  8
ALL_ASSEMBLY_MEMBERS
100
AcDbCircle
 62
7
  6
CONTINUOUS
 10
6.1245727935
 20
4.5080488351
 40
0.3248815895
100
AcDbArc
 50
188.125063905
 51
188.8161181602
  0
ARC
  5
3DB
100
AcDbEntity
  8
ALL_ASSEMBLY_MEMBERS
100
AcDbCircle
 62
7
  6
CONTINUOUS
 10
6.1181187943
 20
4.5071867173
 40
0.3183705346
100
AcDbArc
 50
186.6389426357
 51
188.1356292637
  0
ARC
  5
3DC
100
AcDbEntity
  8
ALL_ASSEMBLY_MEMBERS
100
AcDbCircle
 62
7
  6
CONTINUOUS
 10
6.0944973735
 20
4.504385136
 40
0.2945836166
100
AcDbArc
 50
185.8378445583
 51
186.6288543786
  0
ARC
  5
3DD
100
AcDbEntity
  8
ALL_ASSEMBLY_MEMBERS
100
AcDbCircle
 62
7
  6
CONTINUOUS
 10
6.086772098
 20
4.5021382271
 40
0.2866216192
100
AcDbArc
 50
188.8066635644
 51
189.5628633108
  0
ARC
  5
3DE
100
AcDbEntity
  8
ALL_ASSEMBLY_MEMBERS
100
AcDbCircle
 62
7
  6
CONTINUOUS
 10
6.0787850223
 20
4.5027406384
 40
0.2787854888
100
AcDbArc
 50
184.9989257975
 51
185.8300734411
  0
ARC
  5
3DF
100
AcDbEntity
  8
ALL_ASSEMBLY_MEMBERS
100
AcDbCircle
 62
7
  6
CONTINUOUS
 10
6.0577322737
 20
4.5009709811
 40
0.257658625
100
AcDbArc
 50
182.4464523976
 51
185.0148361371
  0
ARC
  5
3E0
100
AcDbEntity
  8
ALL_ASSEMBLY_MEMBERS
100
AcDbCircle
 62
7
  6
CONTINUOUS
 10
6.0451388956
 20
4.4950668144
 40
0.2443921904
100
AcDbArc
 50
189.5495846931
 51
190.4050631548
  0
ARC
  5
3E1
100
AcDbEntity
  8
ALL_ASSEMBLY_MEMBERS
100
AcDbCircle
 62
7
  6
CONTINUOUS
 10
6.0308150411
 20
4.4995924526
 40
0.2307071956
100
AcDbArc
 50
181.4990691504
 51
182.3897564795
  0
ARC
  5
3E2
100
AcDbEntity
  8
ALL_ASSEMBLY_MEMBERS
100
AcDbCircle
 62
7
  6
CONTINUOUS
 10
6.0234893509
 20
4.4992967894
 40
0.2233771791
100
AcDbArc
 50
180.3342724566
 51
180.5759480649
  0
ARC
  5
3E3
100
AcDbEntity
  8
ALL_ASSEMBLY_MEMBERS
100
AcDbCircle
 62
7
  6
CONTINUOUS
 10
6.0189776484
 20
4.4992710665
 40
0.2188654469
100
AcDbArc
 50
180.5810869694
 51
181.496032046
  0
ARC
  5
3E4
100
AcDbEntity
  8
ALL_ASSEMBLY_MEMBERS
100
AcDbCircle
 62
7
  6
CONTINUOUS
 10
6.0129540534
 20
4.4891275665
 40
0.2116639491
100
AcDbArc
 50
190.3972665685
 51
191.3549785377
  0
ARC
  5
3E5
100
AcDbEntity
  8
ALL_ASSEMBLY_MEMBERS
100
AcDbCircle
 62
7
  6
CONTINUOUS
 10
6.620154228
 20
4.8668284161
 40
2.5
100
AcDbArc
 50
165.3491830153
 51
194.6508169847
  0
ARC
  5
3E6
100
AcDbEntity
  8
ALL_ASSEMBLY_MEMBERS
100
AcDbCircle
 62
7
  6
CONTINUOUS
 10
6.6201526002
 20
4.8668285434
 40
2.4744087205
100
AcDbArc
 50
165.4114196449
 51
174.4983177492
  0
ARC
  5
3E7
100
AcDbEntity
  8
ALL_ASSEMBLY_MEMBERS
100
AcDbCircle
 62
7
  6
CONTINUOUS
 10
6.6201516585
 20
4.8668280757
 40
2.4744077554
100
AcDbArc
 50
185.5016794283
 51
194.5885810692
  0
ARC
  5
3E8
100
AcDbEntity
  8
ALL_ASSEMBLY_MEMBERS
100
AcDbCircle
 62
7
  6
CONTINUOUS
 10
6.6201530322
 20
4.8668285537
 40
2.4605752384
100
AcDbArc
 50
165.4114223769
 51
174.3722148738
  0
ARC
  5
3E9
100
AcDbEntity
  8
ALL_ASSEMBLY_MEMBERS
100
AcDbCircle
 62
7
  6
CONTINUOUS
 10
6.6201527291
 20
4.8668282239
 40
2.4605749314
100
AcDbArc
 50
185.6277845453
 51
194.5885781652
  0
ARC
  5
3EA
100
AcDbEntity
  8
ALL_ASSEMBLY_MEMBERS
100
AcDbCircle
 62
7
  6
CONTINUOUS
 10
6.6201035617
 20
4.8668354255
 40
2.4268976385
100
AcDbArc
 50
165.4113520776
 51
174.3722617985
  0
ARC
  5
3EB
100
AcDbEntity
  8
ALL_ASSEMBLY_MEMBERS
100
AcDbCircle
 62
7
  6
CONTINUOUS
 10
6.620103175
 20
4.8668213401
 40
2.4268972472
100
AcDbArc
 50
185.6277375297
 51
194.5886486755
  0
ARC
  5
3EC
100
AcDbEntity
  8
ALL_ASSEMBLY_MEMBERS
100
AcDbCircle
 62
7
  6
CONTINUOUS
 10
7.7266938993
 20
5.146699618
 40
1.9530942596
100
AcDbArc
 50
169.5550442066
 51
169.8551889741
  0
ARC
  5
3ED
100
AcDbEntity
  8
ALL_ASSEMBLY_MEMBERS
100
AcDbCircle
 62
7
  6
CONTINUOUS
 10
7.4678572491
 20
5.1942702874
 40
1.6901706427
100
AcDbArc
 50
169.7468122534
 51
169.9620227545
  0
ARC
  5
3EE
100
AcDbEntity
  8
ALL_ASSEMBLY_MEMBERS
100
AcDbCircle
 62
7
  6
CONTINUOUS
 10
7.4144053086
 20
5.4076188607
 40
1.5954414761
100
AcDbArc
 50
179.8557254503
 51
180.1442745497
  0
ARC
  5
3EF
100
AcDbEntity
  8
ALL_ASSEMBLY_MEMBERS
100
AcDbCircle
 62
7
  6
CONTINUOUS
 10
7.2339254034
 20
5.3511688878
 40
1.4289175723
100
AcDbArc
 50
179.8389118694
 51
180.1610881306
  0
ARC
  5
3F0
100
AcDbEntity
  8
ALL_ASSEMBLY_MEMBERS
100
AcDbCircle
 62
7
  6
CONTINUOUS
 10
6.6765641671
 20
5.3354562783
 40
0.886135976
100
AcDbArc
 50
169.9094532878
 51
170.2287822818
  0
ARC
  5
3F1
100
AcDbEntity
  8
ALL_ASSEMBLY_MEMBERS
100
AcDbCircle
 62
7
  6
CONTINUOUS
 10
6.5538952898
 20
4.9901328367
 40
0.7490136055
100
AcDbArc
 50
171.8733929173
 51
172.2977938675
  0
ARC
  5
3F2
100
AcDbEntity
  8
ALL_ASSEMBLY_MEMBERS
100
AcDbCircle
 62
7
  6
CONTINUOUS
 10
6.0932933537
 20
5.0609530431
 40
0.293032832
100
AcDbArc
 50
179.2352680342
 51
179.5118406123
  0
ARC
  5
3F3
100
AcDbEntity
  8
ALL_ASSEMBLY_MEMBERS
100
AcDbCircle
 62
7
  6
CONTINUOUS
 10
6.0759706782
 20
4.9998024227
 40
0.2758578677
100
AcDbArc
 50
179.1319110429
 51
180.5033936193
  0
ARC
  5
3F4
100
AcDbEntity
  8
ALL_ASSEMBLY_MEMBERS
100
AcDbCircle
 62
7
  6
CONTINUOUS
 10
6.0639556942
 20
5.0611874668
 40
0.2636942405
100
AcDbArc
 50
179.5084644327
 51
179.9020381825
  0
ARC
  5
3F5
100
AcDbEntity
  8
ALL_ASSEMBLY_MEMBERS
100
AcDbCircle
 62
7
  6
CONTINUOUS
 10
6.0624436298
 20
4.9995387949
 40
0.2623290652
100
AcDbArc
 50
180.4717736651
 51
181.3446653643
  0
ARC
  5
3F6
100
AcDbEntity
  8
ALL_ASSEMBLY_MEMBERS
100
AcDbCircle
 62
7
  6
CONTINUOUS
 10
6.0374775707
 20
5.0617095688
 40
0.2372119237
100
AcDbArc
 50
178.5255021016
 51
179.2380462308
  0
ARC
  5
3F7
100
AcDbEntity
  8
ALL_ASSEMBLY_MEMBERS
100
AcDbCircle
 62
7
  6
CONTINUOUS
 10
6.0290345414
 20
5.0619203037
 40
0.2287662676
100
AcDbArc
 50
177.7909350035
 51
178.5238513619
  0
ARC
  5
3F8
100
AcDbEntity
  8
ALL_ASSEMBLY_MEMBERS
100
AcDbCircle
 62
7
  6
CONTINUOUS
 10
6.0261257547
 20
4.9986322194
 40
0.2259999234
100
AcDbArc
 50
181.3309585538
 51
182.3037456888
  0
ARC
  5
3F9
100
AcDbEntity
  8
ALL_ASSEMBLY_MEMBERS
100
AcDbCircle
 62
7
  6
CONTINUOUS
 10
6.0190925836
 20
5.0004384464
 40
0.2189767816
100
AcDbArc
 50
178.7868244386
 51
179.0728359821
  0
ARC
  5
3FA
100
AcDbEntity
  8
ALL_ASSEMBLY_MEMBERS
100
AcDbCircle
 62
7
  6
CONTINUOUS
 10
6.0185069647
 20
5.0623172533
 40
0.2182312141
100
AcDbArc
 50
177.024810926
 51
177.7885352391
  0
ARC
  5
3FB
100
AcDbEntity
  8
ALL_ASSEMBLY_MEMBERS
100
AcDbCircle
 62
7
  6
CONTINUOUS
 10
6.0028162734
 20
5.0631546426
 40
0.2025182099
100
AcDbArc
 50
174.5809007697
 51
177.0309950852
  0
ARC
  5
3FC
100
AcDbEntity
  8
ALL_ASSEMBLY_MEMBERS
100
AcDbCircle
 62
7
  6
CONTINUOUS
 10
6.0006634862
 20
5.061024305
 40
0.2004025877
100
AcDbArc
 50
179.8244509158
 51
181.5295772424
  0
ARC
  5
3FD
100
AcDbEntity
  8
ALL_ASSEMBLY_MEMBERS
100
AcDbCircle
 62
7
  6
CONTINUOUS
 10
5.9896688645
 20
4.9971043876
 40
0.1895110942
100
AcDbArc
 50
182.2852624006
 51
183.399471545
  0
ARC
  5
3FE
100
AcDbEntity
  8
ALL_ASSEMBLY_MEMBERS
100
AcDbCircle
 62
7
  6
CONTINUOUS
 10
5.9884022021
 20
5.0011317097
 40
0.1882786066
100
AcDbArc
 50
177.461305723
 51
178.8000076679
  0
ARC
  5
3FF
100
AcDbEntity
  8
ALL_ASSEMBLY_MEMBERS
100
AcDbCircle
 62
7
  6
CONTINUOUS
 10
5.9793207547
 20
5.0652354244
 40
0.1789312548
100
AcDbArc
 50
172.7258723369
 51
174.5336891371
  0
ARC
  5
400
100
AcDbEntity
  8
ALL_ASSEMBLY_MEMBERS
100
AcDbCircle
 62
7
  6
CONTINUOUS
 10
5.9874956764
 20
5.0900172004
 40
0.175784199
100
AcDbArc
 50
185.5735716906
 51
186.2540415014
  0
ARC
  5
401
100
AcDbEntity
  8
ALL_ASSEMBLY_MEMBERS
100
AcDbCircle
 62
7
  6
CONTINUOUS
 10
5.9642357243
 20
5.0671176631
 40
0.1637293158
100
AcDbArc
 50
171.7356685668
 51
172.7108504448
  0
ARC
  5
402
100
AcDbEntity
  8
ALL_ASSEMBLY_MEMBERS
100
AcDbCircle
 62
7
  6
CONTINUOUS
 10
5.9734169858
 20
5.0893228383
 40
0.1569939131
100
AcDbArc
 50
186.9127450209
 51
187.379687316
  0
ARC
  5
403
100
AcDbEntity
  8
ALL_ASSEMBLY_MEMBERS
100
AcDbCircle
 62
7
  6
CONTINUOUS
 10
5.9657220679
 20
5.0876432231
 40
0.1538815593
100
AcDbArc
 50
186.2585477032
 51
186.5354245571
  0
ARC
  5
404
100
AcDbEntity
  8
ALL_ASSEMBLY_MEMBERS
100
AcDbCircle
 62
7
  6
CONTINUOUS
 10
5.9483154292
 20
5.0596253869
 40
0.1480358422
100
AcDbArc
 50
181.5291539797
 51
182.5917001053
  0
ARC
  5
405
100
AcDbEntity
  8
ALL_ASSEMBLY_MEMBERS
100
AcDbCircle
 62
7
  6
CONTINUOUS
 10
5.9450062342
 20
5.0029524315
 40
0.1448446199
100
AcDbArc
 50
176.5483506387
 51
177.4204635921
  0
ARC
  5
406
100
AcDbEntity
  8
ALL_ASSEMBLY_MEMBERS
100
AcDbCircle
 62
7
  6
CONTINUOUS
 10
12.1692441627
 20
4.3421160929
 40
6.4678318431
100
AcDbArc
 50
169.116203058
 51
169.3044980427
  0
ARC
  5
407
100
AcDbEntity
  8
ALL_ASSEMBLY_MEMBERS
100
AcDbCircle
 62
7
  6
CONTINUOUS
 10
11.3154118447
 20
4.4957536771
 40
5.6005710228
100
AcDbArc
 50
169.0020470928
 51
169.1940465268
  0
ARC
  5
408
100
AcDbEntity
  8
ALL_ASSEMBLY_MEMBERS
100
AcDbCircle
 62
7
  6
CONTINUOUS
 10
10.3318589745
 20
4.6707295088
 40
4.6016337619
100
AcDbArc
 50
169.3276878259
 51
169.5957787042
  0
ARC
  5
409
100
AcDbEntity
  8
ALL_ASSEMBLY_MEMBERS
100
AcDbCircle
 62
7
  6
CONTINUOUS
 10
9.5639280604
 20
4.7442411746
 40
3.7449642278
100
AcDbArc
 50
179.9058312879
 51
180.0941687121
  0
ARC
  5
40A
100
AcDbEntity
  8
ALL_ASSEMBLY_MEMBERS
100
AcDbCircle
 62
7
  6
CONTINUOUS
 10
9.5392958837
 20
5.0539030724
 40
3.7173274725
100
AcDbArc
 50
180.4612409605
 51
181.1482431984
  0
ARC
  5
40B
100
AcDbEntity
  8
ALL_ASSEMBLY_MEMBERS
100
AcDbCircle
 62
7
  6
CONTINUOUS
 10
9.4611905656
 20
5.050075428
 40
3.6420511829
100
AcDbArc
 50
180.5850773475
 51
180.9631243534
  0
ARC
  5
40C
100
AcDbEntity
  8
ALL_ASSEMBLY_MEMBERS
100
AcDbCircle
 62
7
  6
CONTINUOUS
 10
9.3129074416
 20
4.884097895
 40
3.5607587582
100
AcDbArc
 50
168.8651046693
 51
168.9889534021
  0
ARC
  5
40D
100
AcDbEntity
  8
ALL_ASSEMBLY_MEMBERS
100
AcDbCircle
 62
7
  6
CONTINUOUS
 10
9.1590899739
 20
4.7570373446
 40
3.3540821428
100
AcDbArc
 50
179.8948569289
 51
180.1051430711
  0
ARC
  5
40E
100
AcDbEntity
  8
ALL_ASSEMBLY_MEMBERS
100
AcDbCircle
 62
7
  6
CONTINUOUS
 10
8.5132357392
 20
4.4523613516
 40
2.6912690048
100
AcDbArc
 50
178.7287999134
 51
179.3016205738
  0
ARC
  5
40F
100
AcDbEntity
  8
ALL_ASSEMBLY_MEMBERS
100
AcDbCircle
 62
7
  6
CONTINUOUS
 10
8.488705052
 20
4.4527037296
 40
2.666735967
100
AcDbArc
 50
179.3025520705
 51
179.4952175245
  0
ARC
  5
410
100
AcDbEntity
  8
ALL_ASSEMBLY_MEMBERS
100
AcDbCircle
 62
7
  6
CONTINUOUS
 10
8.4797403594
 20
4.4527808201
 40
2.6577709431
100
AcDbArc
 50
179.4951767473
 51
179.8817719644
  0
ARC
  5
411
100
AcDbEntity
  8
ALL_ASSEMBLY_MEMBERS
100
AcDbCircle
 62
7
  6
CONTINUOUS
 10
8.4772093106
 20
4.4528934171
 40
2.6552403257
100
AcDbArc
 50
180.5444463662
 51
181.3581049183
  0
ARC
  5
412
100
AcDbEntity
  8
ALL_ASSEMBLY_MEMBERS
100
AcDbCircle
 62
7
  6
CONTINUOUS
 10
8.4371358845
 20
4.4612080188
 40
2.6179957689
100
AcDbArc
 50
179.0745593463
 51
179.5846702221
  0
ARC
  5
413
100
AcDbEntity
  8
ALL_ASSEMBLY_MEMBERS
100
AcDbCircle
 62
7
  6
CONTINUOUS
 10
8.4251357199
 20
4.4615701368
 40
2.6059964257
100
AcDbArc
 50
180.9152893345
 51
181.2503219258
  0
ARC
  5
414
100
AcDbEntity
  8
ALL_ASSEMBLY_MEMBERS
100
AcDbCircle
 62
7
  6
CONTINUOUS
 10
8.4145923146
 20
4.4614039173
 40
2.5954517018
100
AcDbArc
 50
180.578495116
 51
180.8031079131
  0
ARC
  5
415
100
AcDbEntity
  8
ALL_ASSEMBLY_MEMBERS
100
AcDbCircle
 62
7
  6
CONTINUOUS
 10
8.0672812508
 20
4.5178574356
 40
2.2669281421
100
AcDbArc
 50
178.8157427292
 51
179.0631954973
  0
ARC
  5
416
100
AcDbEntity
  8
ALL_ASSEMBLY_MEMBERS
100
AcDbCircle
 62
7
  6
CONTINUOUS
 10
1.2063498931
 20
6.3977537582
 40
4.6871458123
100
AcDbArc
 50
349.4800596078
 51
349.7464211606
  0
ARC
  5
417
100
AcDbEntity
  8
ALL_ASSEMBLY_MEMBERS
100
AcDbCircle
 62
7
  6
CONTINUOUS
 10
1.659163538
 20
6.3013242024
 40
4.2243204431
100
AcDbArc
 50
349.0823325075
 51
349.3618308573
  0
ARC
  5
418
100
AcDbEntity
  8
ALL_ASSEMBLY_MEMBERS
100
AcDbCircle
 62
7
  6
CONTINUOUS
 10
4.1805109798
 20
8.0159527125
 40
3.1231898856
100
AcDbArc
 50
276.824488437
 51
277.5833440685
  0
ARC
  5
419
100
AcDbEntity
  8
ALL_ASSEMBLY_MEMBERS
100
AcDbCircle
 62
7
  6
CONTINUOUS
 10
3.4929362028
 20
5.98288986
 40
2.3632297036
100
AcDbArc
 50
349.775866999
 51
349.9440131616
  0
ARC
  5
41A
100
AcDbEntity
  8
ALL_ASSEMBLY_MEMBERS
100
AcDbCircle
 62
7
  6
CONTINUOUS
 10
3.730298869
 20
5.9018784958
 40
2.1150176137
100
AcDbArc
 50
348.8829415459
 51
349.0808838154
  0
ARC
  5
41B
100
AcDbEntity
  8
ALL_ASSEMBLY_MEMBERS
100
AcDbCircle
 62
7
  6
CONTINUOUS
 10
7.3286508694
 20
6.382122571
 40
2.0283697002
100
AcDbArc
 50
221.6816765286
 51
221.9740839236
  0
ARC
  5
41C
100
AcDbEntity
  8
ALL_ASSEMBLY_MEMBERS
100
AcDbCircle
 62
7
  6
CONTINUOUS
 10
4.3971515696
 20
6.912920456
 40
2.0048141399
100
AcDbArc
 50
272.3731108272
 51
272.5409908926
  0
ARC
  5
41D
100
AcDbEntity
  8
ALL_ASSEMBLY_MEMBERS
100
AcDbCircle
 62
7
  6
CONTINUOUS
 10
4.7502404662
 20
5.7538320973
 40
1.0856517528
100
AcDbArc
 50
350.4412208937
 51
350.6157692722
  0
ARC
  5
41E
100
AcDbEntity
  8
ALL_ASSEMBLY_MEMBERS
100
AcDbCircle
 62
7
  6
CONTINUOUS
 10
4.6369257125
 20
6.1005358721
 40
1.0653027806
100
AcDbArc
 50
265.4078194651
 51
267.6192397794
  0
ARC
  5
41F
100
AcDbEntity
  8
ALL_ASSEMBLY_MEMBERS
100
AcDbCircle
 62
7
  6
CONTINUOUS
 10
4.5312041251
 20
6.0258294505
 40
0.985
100
AcDbArc
 50
274.8307882199
 51
296.3989902659
  0
ARC
  5
420
100
AcDbEntity
  8
ALL_ASSEMBLY_MEMBERS
100
AcDbCircle
 62
7
  6
CONTINUOUS
 10
4.5312041251
 20
6.0258294505
 40
0.985
100
AcDbArc
 50
307.7438267057
 51
316.4750035269
  0
ARC
  5
421
100
AcDbEntity
  8
ALL_ASSEMBLY_MEMBERS
100
AcDbCircle
 62
7
  6
CONTINUOUS
 10
5.0587744042
 20
5.7029409273
 40
0.7729488768
100
AcDbArc
 50
350.608525155
 51
350.83118772
  0
ARC
  5
422
100
AcDbEntity
  8
ALL_ASSEMBLY_MEMBERS
100
AcDbCircle
 62
7
  6
CONTINUOUS
 10
5.3163101619
 20
5.6614819675
 40
0.5120973971
100
AcDbArc
 50
350.8191611108
 51
351.1200021258
  0
ARC
  5
423
100
AcDbEntity
  8
ALL_ASSEMBLY_MEMBERS
100
AcDbCircle
 62
7
  6
CONTINUOUS
 10
5.7391931108
 20
5.8517378008
 40
0.4925109075
100
AcDbArc
 50
270.0000566929
 51
271.1214557203
  0
ARC
  5
424
100
AcDbEntity
  8
ALL_ASSEMBLY_MEMBERS
100
AcDbCircle
 62
7
  6
CONTINUOUS
 10
5.6591869294
 20
5.8510074512
 40
0.4917805579
100
AcDbArc
 50
268.8775733667
 51
270.0007769503
  0
ARC
  5
425
100
AcDbEntity
  8
ALL_ASSEMBLY_MEMBERS
100
AcDbCircle
 62
7
  6
CONTINUOUS
 10
4.3538271731
 20
5.6619687795
 40
0.3375120899
100
AcDbArc
 50
267.5775456512
 51
269.9995625418
  0
ARC
  5
426
100
AcDbEntity
  8
ALL_ASSEMBLY_MEMBERS
100
AcDbCircle
 62
7
  6
CONTINUOUS
 10
12.9400309176
 20
4.1828229314
 40
7.2547863537
100
AcDbArc
 50
169.3629766422
 51
169.5331312153
  0
ARC
  5
427
100
AcDbEntity
  8
ALL_ASSEMBLY_MEMBERS
100
AcDbCircle
 62
7
  6
CONTINUOUS
 10
23.3755248625
 20
8.382080749
 40
17.9867497023
100
AcDbArc
 50
192.2851195845
 51
192.530334494
  0
ARC
  5
428
100
AcDbEntity
  8
ALL_ASSEMBLY_MEMBERS
100
AcDbCircle
 62
7
  6
CONTINUOUS
 10
20.8836320566
 20
7.8005371625
 40
15.4259935343
100
AcDbArc
 50
192.1085580755
 51
192.3168326845
  0
SPLINE
  5
429
100
AcDbEntity
  8
ALL_ASSEMBLY_MEMBERS
100
AcDbSpline
 62
7
  6
CONTINUOUS
 70
0
 71
3
 72
25
 73
21
 74
0
 42
0.0000001
 43
0.0000001
 44
0.0000000001
 40
0.0
 40
0.0
 40
0.0
 40
0.0
 40
0.0013788061
 40
0.0033811249
 40
0.0093368442
 40
0.0179160556
 40
0.0290958994
 40
0.0428109855
 40
0.05895805
 40
0.077429894
 40
0.0981182815
 40
0.1456992354
 40
0.2007743788
 40
0.2624055354
 40
0.329747403
 40
0.4020597863
 40
0.4786214918
 40
0.642318344
 40
0.8170807354
 40
1.0
 40
1.0
 40
1.0
 40
1.0
 10
4.3740968051
 20
4.4306292893
 30
0.0
 10
4.3740858911
 20
4.4306305989
 30
0.0
 10
4.3740586685
 20
4.4306281729
 30
0.0
 10
4.3739862263
 20
4.4306113303
 30
0.0
 10
4.3738620702
 20
4.4305656326
 30
0.0
 10
4.3736739731
 20
4.4304843879
 30
0.0
 10
4.3734329121
 20
4.4303696547
 30
0.0
 10
4.3731406212
 20
4.4302226199
 30
0.0
 10
4.3727991779
 20
4.4300439728
 30
0.0
 10
4.3724109545
 20
4.4298349192
 30
0.0
 10
4.371805258
 20
4.4295012202
 30
0.0
 10
4.3709498235
 20
4.4290161869
 30
0.0
 10
4.3698180642
 20
4.4283569308
 30
0.0
 10
4.3685575688
 20
4.4276058306
 30
0.0
 10
4.3671863455
 20
4.4267722258
 30
0.0
 10
4.3657207488
 20
4.4258648278
 30
0.0
 10
4.3636124614
 20
4.424536351
 30
0.0
 10
4.3608334005
 20
4.4227405157
 30
0.0
 10
4.3573746016
 20
4.4204351048
 30
0.0
 10
4.3550218171
 20
4.418823841
 30
0.0
 10
4.353823117
 20
4.4179933453
 30
0.0
  0
SPLINE
  5
42A
100
AcDbEntity
  8
ALL_ASSEMBLY_MEMBERS
100
AcDbSpline
 62
7
  6
CONTINUOUS
 70
0
 71
3
 72
47
 73
43
 74
0
 42
0.0000001
 43
0.0000001
 44
0.0000000001
 40
0.0
 40
0.0
 40
0.0
 40
0.0
 40
0.0000164769
 40
0.0000232587
 40
0.0000416478
 40
0.0000755341
 40
0.0001252889
 40
0.0001910088
 40
0.0003704576
 40
0.0009215346
 40
0.0017286487
 40
0.0022280814
 40
0.0027913469
 40
0.0034183802
 40
0.0041091148
 40
0.0056814193
 40
0.0075077193
 40
0.011920047
 40
0.0173382331
 40
0.0237495031
 40
0.0311406952
 40
0.0394986433
 40
0.0488086113
 40
0.0590503669
 40
0.0702024738
 40
0.0951514568
 40
0.1234590875
 40
0.1548948043
 40
0.1892101269
 40
0.2261244064
 40
0.2653438812
 40
0.3065464527
 40
0.349400585
 40
0.4386546655
 40
0.5302059064
 40
0.6210725336
 40
0.7082955218
 40
0.7890377991
 40
0.8606797198
 40
0.9209257504
 40
0.9678603494
 40
1.0
 40
1.0
 40
1.0
 40
1.0
 10
4.4861903308
 20
4.9068884279
 30
0.0
 10
4.4861917013
 20
4.9068880277
 30
0.0
 10
4.4861947379
 20
4.9068878802
 30
0.0
 10
4.4861938851
 20
4.9068835509
 30
0.0
 10
4.4861877299
 20
4.9068832279
 30
0.0
 10
4.4861797877
 20
4.9068809258
 30
0.0
 10
4.4861665899
 20
4.9068796181
 30
0.0
 10
4.4861413499
 20
4.9068769451
 30
0.0
 10
4.4860723059
 20
4.9068724364
 30
0.0
 10
4.4859393538
 20
4.906866663
 30
0.0
 10
4.4857783947
 20
4.9068618369
 30
0.0
 10
4.4856164437
 20
4.9068577704
 30
0.0
 10
4.4854700639
 20
4.9068545462
 30
0.0
 10
4.4853071088
 20
4.9068513406
 30
0.0
 10
4.4850567288
 20
4.9068469068
 30
0.0
 10
4.484702437
 20
4.906841517
 30
0.0
 10
4.484025692
 20
4.9068327814
 30
0.0
 10
4.4830157046
 20
4.9068224891
 30
0.0
 10
4.4816084338
 20
4.9068111084
 30
0.0
 10
4.4799430409
 20
4.9068001166
 30
0.0
 10
4.4780229171
 20
4.9067895229
 30
0.0
 10
4.4758516219
 20
4.9067793472
 30
0.0
 10
4.4734333272
 20
4.9067695976
 30
0.0
 10
4.4707729213
 20
4.9067602717
 30
0.0
 10
4.4667574303
 20
4.9067479386
 30
0.0
 10
4.4611765677
 20
4.9067339046
 30
0.0
 10
4.4538381703
 20
4.9067192353
 30
0.0
 10
4.4456881952
 20
4.9067061594
 30
0.0
 10
4.4367924691
 20
4.90669465
 30
0.0
 10
4.4272222946
 20
4.9066846776
 30
0.0
 10
4.4170553529
 20
4.9066762151
 30
0.0
 10
4.4063737342
 20
4.9066692269
 30
0.0
 10
4.391356722
 20
4.9066617362
 30
0.0
 10
4.3719771026
 20
4.9066561369
 30
0.0
 10
4.348437301
 20
4.9066549411
 30
0.0
 10
4.3250734895
 20
4.9066591376
 30
0.0
 10
4.3026462537
 20
4.9066688283
 30
0.0
 10
4.2818848011
 20
4.9066839652
 30
0.0
 10
4.2634608525
 20
4.9067051249
 30
0.0
 10
4.2479662747
 20
4.9067316787
 30
0.0
 10
4.2358945126
 20
4.9067640062
 30
0.0
 10
4.2290429445
 20
4.9067938339
 30
0.0
 10
4.2262581817
 20
4.9068135884
 30
0.0
  0
SPLINE
  5
42B
100
AcDbEntity
  8
ALL_ASSEMBLY_MEMBERS
100
AcDbSpline
 62
7
  6
CONTINUOUS
 70
0
 71
3
 72
51
 73
47
 74
0
 42
0.0000001
 43
0.0000001
 44
0.0000000001
 40
0.0
 40
0.0
 40
0.0
 40
0.0
 40
0.0135598145
 40
0.0309993634
 40
0.07692597
 40
0.1362999769
 40
0.2072106855
 40
0.2873678535
 40
0.3741731208
 40
0.4648064415
 40
0.5563187428
 40
0.6014726332
 40
0.6457339571
 40
0.6887422668
 40
0.7301493869
 40
0.769615994
 40
0.8068246861
 40
0.8414684481
 40
0.8732704884
 40
0.9019673881
 40
0.9150789209
 40
0.9273304004
 40
0.9386952888
 40
0.9491495453
 40
0.9586740113
 40
0.967250095
 40
0.974859207
 40
0.9814839077
 40
0.9844233316
 40
0.9871124822
 40
0.9895501193
 40
0.9917350036
 40
0.9936658984
 40
0.9953415699
 40
0.9967607919
 40
0.9979226708
 40
0.9984070504
 40
0.9988270498
 40
0.9991826706
 40
0.9994739253
 40
0.9997008487
 40
0.9998635348
 40
0.9999208745
 40
0.9999623273
 40
0.9999881891
 40
1.0
 40
1.0
 40
1.0
 40
1.0
 10
4.201441169
 20
4.8604681341
 30
0.0
 10
4.2028419608
 20
4.8604814247
 30
0.0
 10
4.2060444023
 20
4.8605049809
 30
0.0
 10
4.2139914571
 20
4.860547599
 30
0.0
 10
4.2266715951
 20
4.8605902095
 30
0.0
 10
4.2448758186
 20
4.8606301499
 30
0.0
 10
4.2666164008
 20
4.8606614079
 30
0.0
 10
4.291190897
 20
4.8606844356
 30
0.0
 10
4.3178029291
 20
4.8606993473
 30
0.0
 10
4.3455880551
 20
4.8607063707
 30
0.0
 10
4.3690702076
 20
4.8607057128
 30
0.0
 10
4.387761701
 20
4.8607011082
 30
0.0
 10
4.4014422807
 20
4.860695624
 30
0.0
 10
4.4147357832
 20
4.8606880714
 30
0.0
 10
4.4275339455
 20
4.8606784049
 30
0.0
 10
4.4397329512
 20
4.8606665799
 30
0.0
 10
4.4512332364
 20
4.8606525432
 30
0.0
 10
4.4619416968
 20
4.8606362385
 30
0.0
 10
4.4717708048
 20
4.8606176081
 30
0.0
 10
4.4793754299
 20
4.8605996028
 30
0.0
 10
4.4849602987
 20
4.8605836844
 30
0.0
 10
4.4887546126
 20
4.8605714745
 30
0.0
 10
4.4922744015
 20
4.860558626
 30
0.0
 10
4.4955124598
 20
4.8605451308
 30
0.0
 10
4.498462403
 20
4.8605309898
 30
0.0
 10
4.5011184092
 20
4.8605162056
 30
0.0
 10
4.5034748335
 20
4.8605007791
 30
0.0
 10
4.5052489349
 20
4.8604869028
 30
0.0
 10
4.5065147589
 20
4.860475276
 30
0.0
 10
4.5073480301
 20
4.8604667429
 30
0.0
 10
4.5081033439
 20
4.8604580488
 30
0.0
 10
4.5087803152
 20
4.8604491973
 30
0.0
 10
4.5093785586
 20
4.8604401932
 30
0.0
 10
4.5098976897
 20
4.8604310498
 30
0.0
 10
4.5103373565
 20
4.860421773
 30
0.0
 10
4.5106539457
 20
4.8604135476
 30
0.0
 10
4.5108672985
 20
4.8604066941
 30
0.0
 10
4.5109973819
 20
4.8604018416
 30
0.0
 10
4.5111074834
 20
4.8603969723
 30
0.0
 10
4.5111976533
 20
4.8603920923
 30
0.0
 10
4.5112677576
 20
4.860387256
 30
0.0
 10
4.5113138851
 20
4.8603828926
 30
0.0
 10
4.5113404599
 20
4.8603792666
 30
0.0
 10
4.5113534297
 20
4.8603766751
 30
0.0
 10
4.5113607069
 20
4.8603747205
 30
0.0
 10
4.5113648822
 20
4.86037231
 30
0.0
 10
4.5113649254
 20
4.8603710906
 30
0.0
  0
SPLINE
  5
42C
100
AcDbEntity
  8
ALL_ASSEMBLY_MEMBERS
100
AcDbSpline
 62
7
  6
CONTINUOUS
 70
0
 71
3
 72
29
 73
25
 74
0
 42
0.0000001
 43
0.0000001
 44
0.0000000001
 40
0.0
 40
0.0
 40
0.0
 40
0.0
 40
0.0591158868
 40
0.0895340554
 40
0.1202183496
 40
0.1511001212
 40
0.1821295291
 40
0.2132708089
 40
0.2444955431
 40
0.3071114751
 40
0.3698869173
 40
0.4013226985
 40
0.4327790994
 40
0.4642519682
 40
0.4957376452
 40
0.558722358
 40
0.6217320192
 40
0.6532503971
 40
0.6847719248
 40
0.7478073192
 40
0.8108479847
 40
0.8738876387
 40
0.9369387181
 40
1.0
 40
1.0
 40
1.0
 40
1.0
 10
4.5569338378
 20
5.0435687951
 30
0.0
 10
4.5506898063
 20
5.045149123
 30
0.0
 10
4.5412375537
 20
5.0475723985
 30
0.0
 10
4.5286988307
 20
5.0513679467
 30
0.0
 10
4.5192043826
 20
5.0545827031
 30
0.0
 10
4.5097665666
 20
5.0581539755
 30
0.0
 10
4.5004223846
 20
5.0620938429
 30
0.0
 10
4.4912023753
 20
5.0664059705
 30
0.0
 10
4.4791051326
 20
5.0726645223
 30
0.0
 10
4.4644362598
 20
5.0814225248
 30
0.0
 10
4.4505314437
 20
5.0913905879
 30
0.0
 10
4.4399295397
 20
5.1000603879
 30
0.0
 10
4.4322538166
 20
5.1069057001
 30
0.0
 10
4.4248743011
 20
5.1140771548
 30
0.0
 10
4.4154510764
 20
5.1240568628
 30
0.0
 10
4.4044904466
 20
5.1372874457
 30
0.0
 10
4.3947132159
 20
5.1514194875
 30
0.0
 10
4.3876510487
 20
5.1632026414
 30
0.0
 10
4.38110574
 20
5.1752836145
 30
0.0
 10
4.3739195936
 20
5.190904493
 30
0.0
 10
4.3669617674
 20
5.2103261366
 30
0.0
 10
4.3617218447
 20
5.2302829688
 30
0.0
 10
4.3582410326
 20
5.2506210561
 30
0.0
 10
4.3571129128
 20
5.264335845
 30
0.0
 10
4.3568482408
 20
5.2712015254
 30
0.0
  0
LINE
  5
42D
100
AcDbEntity
  8
ALL_ASSEMBLY_MEMBERS
100
AcDbLine
 62
7
  6
CONTINUOUS
 10
4.2007635109
 20
5.4965172344
 11
4.201441169
 21
5.4991152853
  0
SPLINE
  5
42E
100
AcDbEntity
  8
ALL_ASSEMBLY_MEMBERS
100
AcDbSpline
 62
7
  6
CONTINUOUS
 70
0
 71
3
 72
34
 73
30
 74
0
 42
0.0000001
 43
0.0000001
 44
0.0000000001
 40
0.0
 40
0.0
 40
0.0
 40
0.0
 40
0.002321225
 40
0.0047362414
 40
0.0073780423
 40
0.0103491194
 40
0.0137219028
 40
0.0175458584
 40
0.021853861
 40
0.0266675178
 40
0.0320014262
 40
0.0378655267
 40
0.0512064185
 40
0.0667145228
 40
0.0843879503
 40
0.1042076777
 40
0.1261431936
 40
0.1501535969
 40
0.1761905081
 40
0.2341128035
 40
0.2993919186
 40
0.3714172071
 40
0.4495032333
 40
0.5329002633
 40
0.6208033623
 40
0.7123636609
 40
0.806694938
 40
0.9028885476
 40
1.0
 40
1.0
 40
1.0
 40
1.0
 10
4.131678766
 20
4.8731963874
 30
0.0
 10
4.1314962496
 20
4.873196498
 30
0.0
 10
4.1311220772
 20
4.8732454098
 30
0.0
 10
4.1305798601
 20
4.8734663047
 30
0.0
 10
4.1300582027
 20
4.8738290876
 30
0.0
 10
4.1295559347
 20
4.8743299453
 30
0.0
 10
4.1290708863
 20
4.8749678794
 30
0.0
 10
4.1286020293
 20
4.8757430259
 30
0.0
 10
4.1281488367
 20
4.8766554993
 30
0.0
 10
4.1277111744
 20
4.8777052003
 30
0.0
 10
4.1272891171
 20
4.8788918539
 30
0.0
 10
4.1267230053
 20
4.8807369333
 30
0.0
 10
4.126070545
 20
4.8833893746
 30
0.0
 10
4.1253814693
 20
4.8869829812
 30
0.0
 10
4.1247594248
 20
4.8911046582
 30
0.0
 10
4.1242061342
 20
4.8957452108
 30
0.0
 10
4.1237235224
 20
4.9008942063
 30
0.0
 10
4.1233129048
 20
4.9065396027
 30
0.0
 10
4.1228467568
 20
4.9150167354
 30
0.0
 10
4.1224748751
 20
4.9267469284
 30
0.0
 10
4.1223393228
 20
4.94209784
 30
0.0
 10
4.1225045995
 20
4.9590338886
 30
0.0
 10
4.1229699221
 20
4.9773892323
 30
0.0
 10
4.1237316737
 20
4.9969840382
 30
0.0
 10
4.1247828945
 20
5.0176262901
 30
0.0
 10
4.126113728
 20
5.0391138209
 30
0.0
 10
4.1277114114
 20
5.0612367581
 30
0.0
 10
4.129560528
 20
5.0837780376
 30
0.0
 10
4.1309467743
 20
5.0989144137
 30
0.0
 10
4.1316788382
 20
5.106515053
 30
0.0
  0
SPLINE
  5
42F
100
AcDbEntity
  8
ALL_ASSEMBLY_MEMBERS
100
AcDbSpline
 62
7
  6
CONTINUOUS
 70
0
 71
3
 72
31
 73
27
 74
0
 42
0.0000001
 43
0.0000001
 44
0.0000000001
 40
0.0
 40
0.0
 40
0.0
 40
0.0
 40
0.031064616
 40
0.0622524523
 40
0.0934964968
 40
0.1247510438
 40
0.1560079773
 40
0.1872695715
 40
0.2497859765
 40
0.2810576863
 40
0.31232948
 40
0.3436013401
 40
0.3748726604
 40
0.4373920842
 40
0.4999082549
 40
0.5311756418
 40
0.5624421846
 40
0.6249517851
 40
0.6874584263
 40
0.7187212941
 40
0.7499835768
 40
0.8124851623
 40
0.8749846682
 40
0.9062443932
 40
0.9375037547
 40
1.0
 40
1.0
 40
1.0
 40
1.0
 10
4.5516344955
 20
4.6950034983
 30
0.0
 10
4.5475227933
 20
4.6946258998
 30
0.0
 10
4.5392975658
 20
4.6936982585
 30
0.0
 10
4.527018853
 20
4.6917554407
 30
0.0
 10
4.5148220053
 20
4.6892185197
 30
0.0
 10
4.5027660007
 20
4.6860421019
 30
0.0
 10
4.4908917859
 20
4.6822333699
 30
0.0
 10
4.4753481471
 20
4.676335877
 30
0.0
 10
4.4602827143
 20
4.6692295711
 30
0.0
 10
4.4458452028
 20
4.6609798221
 30
0.0
 10
4.4353532821
 20
4.6542298896
 30
0.0
 10
4.425228523
 20
4.6469412485
 30
0.0
 10
4.4122573562
 20
4.6365355093
 30
0.0
 10
4.3970847747
 20
4.6222846955
 30
0.0
 10
4.3834722252
 20
4.6065380273
 30
0.0
 10
4.3736083579
 20
4.593151983
 30
0.0
 10
4.3644509831
 20
4.5792740984
 30
0.0
 10
4.3543737716
 20
4.5610642622
 30
0.0
 10
4.3462385314
 20
4.5419082704
 30
0.0
 10
4.3409530277
 20
4.5261454252
 30
0.0
 10
4.3364952103
 20
4.5101295508
 30
0.0
 10
4.3324976891
 20
4.4897069579
 30
0.0
 10
4.3306548692
 20
4.4689788222
 30
0.0
 10
4.330487421
 20
4.4523556259
 30
0.0
 10
4.3311919621
 20
4.435748542
 30
0.0
 10
4.3327014539
 20
4.4233481678
 30
0.0
 10
4.3341378123
 20
4.4151665026
 30
0.0
  0
SPLINE
  5
430
100
AcDbEntity
  8
ALL_ASSEMBLY_MEMBERS
100
AcDbSpline
 62
7
  6
CONTINUOUS
 70
0
 71
3
 72
20
 73
16
 74
0
 42
0.0000001
 43
0.0000001
 44
0.0000000001
 40
0.0
 40
0.0
 40
0.0
 40
0.0
 40
0.1731495989
 40
0.2567726326
 40
0.337647032
 40
0.415446543
 40
0.4900978347
 40
0.5612890748
 40
0.6285755084
 40
0.7503014648
 40
0.8539907597
 40
0.8985042071
 40
0.9377542755
 40
0.9715389687
 40
1.0
 40
1.0
 40
1.0
 40
1.0
 10
4.3341378123
 20
4.4151665026
 30
0.0
 10
4.3333686795
 20
4.4149791505
 30
0.0
 10
4.3322036772
 20
4.414808191
 30
0.0
 10
4.3306716329
 20
4.4146254944
 30
0.0
 10
4.3295744774
 20
4.4144676565
 30
0.0
 10
4.3285316503
 20
4.414239243
 30
0.0
 10
4.3275447882
 20
4.4139711184
 30
0.0
 10
4.3266100189
 20
4.4136961593
 30
0.0
 10
4.3254650618
 20
4.4133725206
 30
0.0
 10
4.3241522655
 20
4.4131023805
 30
0.0
 10
4.3229276488
 20
4.412945068
 30
0.0
 10
4.3220749346
 20
4.4128600391
 30
0.0
 10
4.3215406907
 20
4.4128002283
 30
0.0
 10
4.3210829079
 20
4.4127233994
 30
0.0
 10
4.3208083251
 20
4.4126414253
 30
0.0
 10
4.3206894292
 20
4.4125885553
 30
0.0
  0
SPLINE
  5
431
100
AcDbEntity
  8
ALL_ASSEMBLY_MEMBERS
100
AcDbSpline
 62
7
  6
CONTINUOUS
 70
0
 71
3
 72
17
 73
13
 74
0
 42
0.0000001
 43
0.0000001
 44
0.0000000001
 40
0.0
 40
0.0
 40
0.0
 40
0.0
 40
0.1249762657
 40
0.2499822313
 40
0.3124947875
 40
0.3750084711
 40
0.4375255875
 40
0.5000442561
 40
0.6250348881
 40
0.75001671
 40
0.8750235783
 40
1.0
 40
1.0
 40
1.0
 40
1.0
 10
4.3206894292
 20
4.4125885553
 30
0.0
 10
4.3190620611
 20
4.4210766261
 30
0.0
 10
4.3167310145
 20
4.4382458218
 30
0.0
 10
4.3161576282
 20
4.4598925003
 30
0.0
 10
4.317101515
 20
4.4771647549
 30
0.0
 10
4.3185076708
 20
4.4900642625
 30
0.0
 10
4.3206063909
 20
4.5028697836
 30
0.0
 10
4.3243166105
 20
4.5197644999
 30
0.0
 10
4.3306499694
 20
4.5404729177
 30
0.0
 10
4.3408598936
 20
4.5643631011
 30
0.0
 10
4.3535608344
 20
4.5870244296
 30
0.0
 10
4.3635945246
 20
4.6011497085
 30
0.0
 10
4.3689684113
 20
4.6079185488
 30
0.0
  0
SPLINE
  5
432
100
AcDbEntity
  8
ALL_ASSEMBLY_MEMBERS
100
AcDbSpline
 62
7
  6
CONTINUOUS
 70
0
 71
3
 72
9
 73
5
 74
0
 42
0.0000001
 43
0.0000001
 44
0.0000000001
 40
0.0
 40
0.0
 40
0.0
 40
0.0
 40
0.2502898697
 40
1.0
 40
1.0
 40
1.0
 40
1.0
 10
4.3689684113
 20
4.6079185488
 30
0.0
 10
4.3716570456
 20
4.6113049274
 30
0.0
 10
4.3827198518
 20
4.6245753043
 30
0.0
 10
4.3950872209
 20
4.6367716904
 30
0.0
 10
4.4050173491
 20
4.6450867437
 30
0.0
  0
SPLINE
  5
433
100
AcDbEntity
  8
ALL_ASSEMBLY_MEMBERS
100
AcDbSpline
 62
7
  6
CONTINUOUS
 70
0
 71
3
 72
39
 73
35
 74
0
 42
0.0000001
 43
0.0000001
 44
0.0000000001
 40
0.0
 40
0.0
 40
0.0
 40
0.0
 40
0.0312225384
 40
0.0624683615
 40
0.0937106496
 40
0.1249541617
 40
0.1562035442
 40
0.1874554081
 40
0.2187083943
 40
0.2499611277
 40
0.2812135782
 40
0.312465443
 40
0.3437168665
 40
0.3749682344
 40
0.4062195637
 40
0.4374713114
 40
0.4687228418
 40
0.4999747856
 40
0.5312262789
 40
0.5624781459
 40
0.5937295505
 40
0.6249813495
 40
0.656232787
 40
0.687484557
 40
0.7187360716
 40
0.7499877333
 40
0.7812392689
 40
0.8124907637
 40
0.8437423099
 40
0.8749937201
 40
0.9062453794
 40
0.9374968987
 40
0.9687486662
 40
1.0
 40
1.0
 40
1.0
 40
1.0
 10
4.2389087993
 20
4.2470675195
 30
0.0
 10
4.2398917467
 20
4.2432935538
 30
0.0
 10
4.2422281322
 20
4.235833628
 30
0.0
 10
4.2468046467
 20
4.2250410147
 30
0.0
 10
4.2524199666
 20
4.2147461867
 30
0.0
 10
4.2590165012
 20
4.2050506101
 30
0.0
 10
4.2665339704
 20
4.1960485932
 30
0.0
 10
4.2748988212
 20
4.1878261661
 30
0.0
 10
4.2840343432
 20
4.1804687718
 30
0.0
 10
4.2938484834
 20
4.1740442169
 30
0.0
 10
4.3042497701
 20
4.1686217936
 30
0.0
 10
4.3151339117
 20
4.1642489532
 30
0.0
 10
4.326397538
 20
4.160975633
 30
0.0
 10
4.3379287771
 20
4.1588278953
 30
0.0
 10
4.3496161603
 20
4.1578333562
 30
0.0
 10
4.3613446416
 20
4.1579961321
 30
0.0
 10
4.3729994469
 20
4.1593197566
 30
0.0
 10
4.3844667078
 20
4.1617867853
 30
0.0
 10
4.3956338409
 20
4.1653758321
 30
0.0
 10
4.4063922459
 20
4.1700490924
 30
0.0
 10
4.4166370892
 20
4.1757611265
 30
0.0
 10
4.4262686514
 20
4.1824554304
 30
0.0
 10
4.43519493
 20
4.1900648744
 30
0.0
 10
4.4433282756
 20
4.1985163618
 30
0.0
 10
4.4505937584
 20
4.2077246357
 30
0.0
 10
4.4569186379
 20
4.2176025208
 30
0.0
 10
4.4622480442
 20
4.2280511355
 30
0.0
 10
4.466526708
 20
4.2389720859
 30
0.0
 10
4.4697212573
 20
4.2502578055
 30
0.0
 10
4.4717961457
 20
4.2618019579
 30
0.0
 10
4.4727394457
 20
4.2734929566
 30
0.0
 10
4.4725370513
 20
4.2852205522
 30
0.0
 10
4.4711976041
 20
4.2968718875
 30
0.0
 10
4.469551708
 20
4.3045183955
 30
0.0
 10
4.4685455872
 20
4.3082899721
 30
0.0
  0
SPLINE
  5
434
100
AcDbEntity
  8
ALL_ASSEMBLY_MEMBERS
100
AcDbSpline
 62
7
  6
CONTINUOUS
 70
0
 71
3
 72
38
 73
34
 74
0
 42
0.0000001
 43
0.0000001
 44
0.0000000001
 40
0.0
 40
0.0
 40
0.0
 40
0.0
 40
0.0312406445
 40
0.0625132882
 40
0.0937736366
 40
0.125026202
 40
0.1874614886
 40
0.2498958618
 40
0.281151212
 40
0.3124064454
 40
0.3436614019
 40
0.3749160468
 40
0.4061704375
 40
0.4374246169
 40
0.4686788998
 40
0.4999328471
 40
0.5311866799
 40
0.562440316
 40
0.5936943076
 40
0.6249479001
 40
0.6562014674
 40
0.6874548713
 40
0.7187087635
 40
0.7499621889
 40
0.781215644
 40
0.8124689851
 40
0.843722842
 40
0.8749761917
 40
0.906229606
 40
0.937482936
 40
0.953114734
 40
0.9687465105
 40
1.0
 40
1.0
 40
1.0
 40
1.0
 10
4.3538245962
 20
4.4091996391
 30
0.0
 10
4.358223792
 20
4.4091992323
 30
0.0
 10
4.3670329053
 20
4.4087550513
 30
0.0
 10
4.3801097204
 20
4.4067760466
 30
0.0
 10
4.3929253097
 20
4.4034904403
 30
0.0
 10
4.409470037
 20
4.3974317002
 30
0.0
 10
4.4288903779
 20
4.3867979892
 30
0.0
 10
4.4458127052
 20
4.372521188
 30
0.0
 10
4.4574418866
 20
4.3592860261
 30
0.0
 10
4.4651473177
 20
4.3485359872
 30
0.0
 10
4.4717468774
 20
4.3370753055
 30
0.0
 10
4.4771828571
 20
4.3250189463
 30
0.0
 10
4.4813970841
 20
4.3124833662
 30
0.0
 10
4.4843537617
 20
4.2995931574
 30
0.0
 10
4.4860186173
 20
4.2864734668
 30
0.0
 10
4.4863801696
 20
4.2732535501
 30
0.0
 10
4.4854292552
 20
4.260062976
 30
0.0
 10
4.4831791231
 20
4.2470309787
 30
0.0
 10
4.4796466295
 20
4.2342866529
 30
0.0
 10
4.4748696689
 20
4.2219546941
 30
0.0
 10
4.4688907422
 20
4.2101585778
 30
0.0
 10
4.4617709644
 20
4.1990137957
 30
0.0
 10
4.4535774433
 20
4.1886328253
 30
0.0
 10
4.4443926555
 20
4.1791176552
 30
0.0
 10
4.4343055808
 20
4.170564925
 30
0.0
 10
4.4234168566
 20
4.1630592056
 30
0.0
 10
4.4118340207
 20
4.1566765886
 30
0.0
 10
4.3996722296
 20
4.1514808894
 30
0.0
 10
4.3870534134
 20
4.1475245794
 30
0.0
 10
4.3762584772
 20
4.1452934851
 30
0.0
 10
4.3675246882
 20
4.1441626258
 30
0.0
 10
4.3587460582
 20
4.1434683113
 30
0.0
 10
4.3521293617
 20
4.1434433098
 30
0.0
 10
4.3477330595
 20
4.1436467047
 30
0.0
  0
SPLINE
  5
435
100
AcDbEntity
  8
ALL_ASSEMBLY_MEMBERS
100
AcDbSpline
 62
7
  6
CONTINUOUS
 70
0
 71
3
 72
31
 73
27
 74
0
 42
0.0000001
 43
0.0000001
 44
0.0000000001
 40
0.0
 40
0.0
 40
0.0
 40
0.0
 40
0.002291692
 40
0.0047368319
 40
0.0074542685
 40
0.0105313203
 40
0.0140282429
 40
0.0179852449
 40
0.0224292062
 40
0.0273784442
 40
0.0388368337
 40
0.0524187018
 40
0.068140589
 40
0.0860002184
 40
0.1059763461
 40
0.1280390344
 40
0.1521515143
 40
0.1782626964
 40
0.236255023
 40
0.3015078424
 40
0.3734205962
 40
0.4513166354
 40
0.5344593717
 40
0.6220574367
 40
0.8072711475
 40
1.0
 40
1.0
 40
1.0
 40
1.0
 10
4.1709203112
 20
4.8130973558
 30
0.0
 10
4.1707806343
 20
4.8130818983
 30
0.0
 10
4.1704950737
 20
4.8130110673
 30
0.0
 10
4.170088216
 20
4.8127948805
 30
0.0
 10
4.1696964754
 20
4.8124714701
 30
0.0
 10
4.1693185515
 20
4.8120426994
 30
0.0
 10
4.1689530665
 20
4.8115088151
 30
0.0
 10
4.1685993612
 20
4.8108697317
 30
0.0
 10
4.1682571496
 20
4.8101253725
 30
0.0
 10
4.1677934893
 20
4.808933109
 30
0.0
 10
4.1672571947
 20
4.8071715865
 30
0.0
 10
4.1666873939
 20
4.8047367173
 30
0.0
 10
4.1661662139
 20
4.8018909969
 30
0.0
 10
4.1656955239
 20
4.7986401038
 30
0.0
 10
4.1652767446
 20
4.7949905653
 30
0.0
 10
4.1649112893
 20
4.7909502566
 30
0.0
 10
4.1646004562
 20
4.7865282212
 30
0.0
 10
4.1642475473
 20
4.7799014071
 30
0.0
 10
4.1639656967
 20
4.7707458691
 30
0.0
 10
4.1638628691
 20
4.7587782639
 30
0.0
 10
4.1639880691
 20
4.7455903758
 30
0.0
 10
4.1643404171
 20
4.7313093654
 30
0.0
 10
4.1649171247
 20
4.7160731378
 30
0.0
 10
4.1659982632
 20
4.6942719152
 30
0.0
 10
4.1678723471
 20
4.665783908
 30
0.0
 10
4.1698219767
 20
4.6426887055
 30
0.0
 10
4.1709203101
 20
4.6309214643
 30
0.0
  0
SPLINE
  5
436
100
AcDbEntity
  8
ALL_ASSEMBLY_MEMBERS
100
AcDbSpline
 62
7
  6
CONTINUOUS
 70
0
 71
3
 72
32
 73
28
 74
0
 42
0.0000001
 43
0.0000001
 44
0.0000000001
 40
0.0
 40
0.0
 40
0.0
 40
0.0
 40
0.1933160416
 40
0.287656483
 40
0.3792281299
 40
0.4671433977
 40
0.5505521696
 40
0.6286472742
 40
0.7006784921
 40
0.7659583437
 40
0.8238762078
 40
0.8499091767
 40
0.8739142481
 40
0.8958433385
 40
0.9156559214
 40
0.9333217524
 40
0.9488220271
 40
0.9621552583
 40
0.9733434346
 40
0.9781540303
 40
0.9824594498
 40
0.9862814031
 40
0.9896527372
 40
0.9926228353
 40
0.995264052
 40
0.9976788015
 40
1.0
 40
1.0
 40
1.0
 40
1.0
 10
4.157142532
 20
4.6295944071
 30
0.0
 10
4.1559105512
 20
4.6423855334
 30
0.0
 10
4.1542532309
 20
4.6614365426
 30
0.0
 10
4.1524367442
 20
4.6865797796
 30
0.0
 10
4.1513111926
 20
4.704747466
 30
0.0
 10
4.1504219899
 20
4.7222006981
 30
0.0
 10
4.1497776004
 20
4.7387682872
 30
0.0
 10
4.1493839685
 20
4.7542876294
 30
0.0
 10
4.149244134
 20
4.7686063764
 30
0.0
 10
4.1493588134
 20
4.7815841542
 30
0.0
 10
4.1496734311
 20
4.7915003225
 30
0.0
 10
4.1500677699
 20
4.7986659459
 30
0.0
 10
4.1504151203
 20
4.8034374936
 30
0.0
 10
4.1508233663
 20
4.8077891505
 30
0.0
 10
4.1512913515
 20
4.8117108475
 30
0.0
 10
4.1518175434
 20
4.815193656
 30
0.0
 10
4.1524001659
 20
4.8182303598
 30
0.0
 10
4.1530372655
 20
4.8208146443
 30
0.0
 10
4.1536379605
 20
4.8226727122
 30
0.0
 10
4.1541578722
 20
4.8239190682
 30
0.0
 10
4.1545411445
 20
4.8246898379
 30
0.0
 10
4.1549375919
 20
4.8253446275
 30
0.0
 10
4.1553477302
 20
4.8258835061
 30
0.0
 10
4.1557724155
 20
4.8263065768
 30
0.0
 10
4.1562134809
 20
4.8266129762
 30
0.0
 10
4.1566719101
 20
4.8267994644
 30
0.0
 10
4.1569882337
 20
4.8268406601
 30
0.0
 10
4.157142531
 20
4.8268406836
 30
0.0
  0
LINE
  5
437
100
AcDbEntity
  8
ALL_ASSEMBLY_MEMBERS
100
AcDbLine
 62
7
  6
CONTINUOUS
 10
4.1714378626
 20
4.8131238707
 11
4.1709203111
 21
4.8130973566
  0
SPLINE
  5
438
100
AcDbEntity
  8
ALL_ASSEMBLY_MEMBERS
100
AcDbSpline
 62
7
  6
CONTINUOUS
 70
0
 71
3
 72
11
 73
7
 74
0
 42
0.0000001
 43
0.0000001
 44
0.0000000001
 40
0.0
 40
0.0
 40
0.0
 40
0.0
 40
0.2471664025
 40
0.496138461
 40
0.7471717606
 40
1.0
 40
1.0
 40
1.0
 40
1.0
 10
4.2255203231
 20
4.8268406781
 30
0.0
 10
4.2271007047
 20
4.8263844038
 30
0.0
 10
4.2301667306
 20
4.8250444462
 30
0.0
 10
4.234101889
 20
4.821918949
 30
0.0
 10
4.2371485965
 20
4.8178767096
 30
0.0
 10
4.2384556055
 20
4.8147444267
 30
0.0
 10
4.2389082077
 20
4.8131238323
 30
0.0
  0
SPLINE
  5
439
100
AcDbEntity
  8
ALL_ASSEMBLY_MEMBERS
100
AcDbSpline
 62
7
  6
CONTINUOUS
 70
0
 71
3
 72
47
 73
43
 74
0
 42
0.0000001
 43
0.0000001
 44
0.0000000001
 40
0.0
 40
0.0
 40
0.0
 40
0.0
 40
0.0321361868
 40
0.0790657955
 40
0.1393013895
 40
0.2109331546
 40
0.2916621493
 40
0.3788781394
 40
0.4697467247
 40
0.5613044274
 40
0.6505659261
 40
0.6934224973
 40
0.7346300943
 40
0.7738515395
 40
0.8107709673
 40
0.845089072
 40
0.8765285
 40
0.9048391076
 40
0.9297899934
 40
0.9409448376
 40
0.9511878825
 40
0.9604970533
 40
0.9688558757
 40
0.9762492059
 40
0.9826619023
 40
0.9880791514
 40
0.9924909315
 40
0.99431778
 40
0.9958908942
 40
0.9965820589
 40
0.9972095002
 40
0.9977731228
 40
0.9982728326
 40
0.9990801444
 40
0.9996307581
 40
0.9998097533
 40
0.9998752334
 40
0.9999247589
 40
0.9999584416
 40
0.9999766722
 40
0.9999834385
 40
1.0
 40
1.0
 40
1.0
 40
1.0
 10
4.2262581811
 20
4.8268432438
 30
0.0
 10
4.229042643
 20
4.8268629936
 30
0.0
 10
4.2358934758
 20
4.8268929028
 30
0.0
 10
4.2479635975
 20
4.8269250237
 30
0.0
 10
4.2634559527
 20
4.8269519056
 30
0.0
 10
4.2818769604
 20
4.8269726415
 30
0.0
 10
4.3026357685
 20
4.8269879178
 30
0.0
 10
4.3250614091
 20
4.8269976292
 30
0.0
 10
4.3484253357
 20
4.8270018711
 30
0.0
 10
4.3719665016
 20
4.8270007117
 30
0.0
 10
4.3913475285
 20
4.8269951393
 30
0.0
 10
4.4063658251
 20
4.8269876689
 30
0.0
 10
4.4170482576
 20
4.8269806892
 30
0.0
 10
4.4272162482
 20
4.8269722327
 30
0.0
 10
4.4367872773
 20
4.8269622686
 30
0.0
 10
4.445684009
 20
4.8269507632
 30
0.0
 10
4.4538348019
 20
4.8269376872
 30
0.0
 10
4.4611739412
 20
4.8269230141
 30
0.0
 10
4.4667554618
 20
4.8269089748
 30
0.0
 10
4.4707714652
 20
4.8268966414
 30
0.0
 10
4.4734321501
 20
4.8268873135
 30
0.0
 10
4.4758505623
 20
4.8268775567
 30
0.0
 10
4.4780220487
 20
4.8268673768
 30
0.0
 10
4.4799425565
 20
4.8268567797
 30
0.0
 10
4.4816081765
 20
4.8268457855
 30
0.0
 10
4.4830154417
 20
4.8268343954
 30
0.0
 10
4.4840253475
 20
4.8268240952
 30
0.0
 10
4.4847021625
 20
4.8268153583
 30
0.0
 10
4.4850566092
 20
4.8268099672
 30
0.0
 10
4.4853071319
 20
4.8268055323
 30
0.0
 10
4.4854701904
 20
4.8268023258
 30
0.0
 10
4.4856166606
 20
4.8267991006
 30
0.0
 10
4.485778683
 20
4.8267950333
 30
0.0
 10
4.4859396459
 20
4.8267902064
 30
0.0
 10
4.4860725291
 20
4.826784434
 30
0.0
 10
4.4861414798
 20
4.8267799176
 30
0.0
 10
4.4861666325
 20
4.8267772444
 30
0.0
 10
4.4861797832
 20
4.8267759316
 30
0.0
 10
4.4861876497
 20
4.82677364
 30
0.0
 10
4.4861938067
 20
4.8267732956
 30
0.0
 10
4.4861945606
 20
4.8267689627
 30
0.0
 10
4.4861915371
 20
4.8267688293
 30
0.0
 10
4.4861901593
 20
4.8267684281
 30
0.0
  0
LINE
  5
43A
100
AcDbEntity
  8
ALL_ASSEMBLY_MEMBERS
100
AcDbLine
 62
7
  6
CONTINUOUS
 10
4.2049034697
 20
4.7878284161
 11
4.2044063892
 21
4.787768657
  0
LINE
  5
43B
100
AcDbEntity
  8
ALL_ASSEMBLY_MEMBERS
100
AcDbLine
 62
7
  6
CONTINUOUS
 10
4.5926728769
 20
4.8135784118
 11
4.5516344955
 21
4.8187656155
  0
SPLINE
  5
43C
100
AcDbEntity
  8
ALL_ASSEMBLY_MEMBERS
100
AcDbSpline
 62
7
  6
CONTINUOUS
 70
0
 71
3
 72
14
 73
10
 74
0
 42
0.0000001
 43
0.0000001
 44
0.0000000001
 40
0.0
 40
0.0
 40
0.0
 40
0.0
 40
0.2548773394
 40
0.3815932122
 40
0.5075650534
 40
0.6325682119
 40
0.756405681
 40
0.8789308353
 40
1.0
 40
1.0
 40
1.0
 40
1.0
 10
4.5516344955
 20
4.9148911649
 30
0.0
 10
4.5460953487
 20
4.9141387414
 30
0.0
 10
4.5377703945
 20
4.9132428467
 30
0.0
 10
4.5266743444
 20
4.91234916
 30
0.0
 10
4.5184093104
 20
4.9117916067
 30
0.0
 10
4.510203499
 20
4.9113009303
 30
0.0
 10
4.5020710507
 20
4.9108508093
 30
0.0
 10
4.4940227705
 20
4.910442969
 30
0.0
 10
4.4886859426
 20
4.9101952645
 30
0.0
 10
4.4860332427
 20
4.9100775307
 30
0.0
  0
SPLINE
  5
43D
100
AcDbEntity
  8
ALL_ASSEMBLY_MEMBERS
100
AcDbSpline
 62
7
  6
CONTINUOUS
 70
0
 71
3
 72
9
 73
5
 74
0
 42
0.0000001
 43
0.0000001
 44
0.0000000001
 40
0.0
 40
0.0
 40
0.0
 40
0.0
 40
0.5129753789
 40
1.0
 40
1.0
 40
1.0
 40
1.0
 10
4.3832731622
 20
4.7838985892
 30
0.0
 10
4.3786051986
 20
4.7846492477
 30
0.0
 10
4.3694869453
 20
4.7860025031
 30
0.0
 10
4.3603165153
 20
4.7869732515
 30
0.0
 10
4.3558401496
 20
4.7873065285
 30
0.0
  0
SPLINE
  5
43E
100
AcDbEntity
  8
ALL_ASSEMBLY_MEMBERS
100
AcDbSpline
 62
7
  6
CONTINUOUS
 70
0
 71
3
 72
31
 73
27
 74
0
 42
0.0000001
 43
0.0000001
 44
0.0000000001
 40
0.0
 40
0.0
 40
0.0
 40
0.0
 40
0.062493397
 40
0.0937515301
 40
0.1250101461
 40
0.1875076366
 40
0.2500075831
 40
0.2812692709
 40
0.3125316594
 40
0.3750379346
 40
0.4375478564
 40
0.4688148573
 40
0.5000828446
 40
0.5626010604
 40
0.6251233982
 40
0.656396525
 40
0.6876704132
 40
0.7189449508
 40
0.7502200895
 40
0.8127420157
 40
0.8440057487
 40
0.8752635915
 40
0.9065157769
 40
0.937754793
 40
0.9689378481
 40
1.0
 40
1.0
 40
1.0
 40
1.0
 10
4.334137767
 20
5.3184896905
 30
0.0
 10
4.3327014888
 20
5.3103084128
 30
0.0
 10
4.3311919988
 20
5.2979086132
 30
0.0
 10
4.3304874505
 20
5.2813022529
 30
0.0
 10
4.3306547949
 20
5.2646796694
 30
0.0
 10
4.3324973801
 20
5.2439521935
 30
0.0
 10
4.3364945552
 20
5.2235301573
 30
0.0
 10
4.3409520327
 20
5.2075145948
 30
0.0
 10
4.3462373572
 20
5.191751934
 30
0.0
 10
4.3543719212
 20
5.1725957579
 30
0.0
 10
4.3644493922
 20
5.1543860599
 30
0.0
 10
4.3736062046
 20
5.1405076358
 30
0.0
 10
4.3834700751
 20
5.1271211024
 30
0.0
 10
4.3970832741
 20
5.1113741039
 30
0.0
 10
4.4122559347
 20
5.0971221036
 30
0.0
 10
4.4252280524
 20
5.0867161598
 30
0.0
 10
4.4353534766
 20
5.0794269907
 30
0.0
 10
4.445846448
 20
5.0726767263
 30
0.0
 10
4.4602846177
 20
5.064425166
 30
0.0
 10
4.4753508447
 20
5.0573167349
 30
0.0
 10
4.4908972225
 20
5.0514231818
 30
0.0
 10
4.5027723754
 20
5.0476173519
 30
0.0
 10
4.5148270789
 20
5.0444397497
 30
0.0
 10
4.5270217014
 20
5.0419001415
 30
0.0
 10
4.5392986568
 20
5.0399565908
 30
0.0
 10
4.5475230372
 20
5.0390299125
 30
0.0
 10
4.5516344955
 20
5.0386533323
 30
0.0
  0
SPLINE
  5
43F
100
AcDbEntity
  8
ALL_ASSEMBLY_MEMBERS
100
AcDbSpline
 62
7
  6
CONTINUOUS
 70
0
 71
3
 72
9
 73
5
 74
0
 42
0.0000001
 43
0.0000001
 44
0.0000000001
 40
0.0
 40
0.0
 40
0.0
 40
0.0
 40
0.2498952474
 40
1.0
 40
1.0
 40
1.0
 40
1.0
 10
4.4050173493
 20
5.0885700885
 30
0.0
 10
4.4017072817
 20
5.0913418047
 30
0.0
 10
4.3887650227
 20
5.1027927994
 30
0.0
 10
4.3770264348
 20
5.115589074
 30
0.0
 10
4.3689684114
 20
5.1257382834
 30
0.0
  0
SPLINE
  5
440
100
AcDbEntity
  8
ALL_ASSEMBLY_MEMBERS
100
AcDbSpline
 62
7
  6
CONTINUOUS
 70
0
 71
3
 72
17
 73
13
 74
0
 42
0.0000001
 43
0.0000001
 44
0.0000000001
 40
0.0
 40
0.0
 40
0.0
 40
0.0
 40
0.1249764535
 40
0.2499834129
 40
0.3749652464
 40
0.4999558204
 40
0.5624744386
 40
0.6249914973
 40
0.6875051214
 40
0.7500176289
 40
0.8750236294
 40
1.0
 40
1.0
 40
1.0
 40
1.0
 10
4.3689684114
 20
5.1257382834
 30
0.0
 10
4.3635945104
 20
5.132507103
 30
0.0
 10
4.3535608389
 20
5.1466323848
 30
0.0
 10
4.3408599191
 20
5.1692937
 30
0.0
 10
4.3306499863
 20
5.1931838514
 30
0.0
 10
4.3243166318
 20
5.2138922386
 30
0.0
 10
4.3206064137
 20
5.2307869236
 30
0.0
 10
4.3185076933
 20
5.2435924181
 30
0.0
 10
4.3171015302
 20
5.2564918986
 30
0.0
 10
4.3161576168
 20
5.2737641272
 30
0.0
 10
4.3167310161
 20
5.2954107908
 30
0.0
 10
4.3190620759
 20
5.31257997
 30
0.0
 10
4.3206893947
 20
5.3210680478
 30
0.0
  0
SPLINE
  5
441
100
AcDbEntity
  8
ALL_ASSEMBLY_MEMBERS
100
AcDbSpline
 62
7
  6
CONTINUOUS
 70
0
 71
3
 72
73
 73
69
 74
0
 42
0.0000001
 43
0.0000001
 44
0.0000000001
 40
0.0
 40
0.0
 40
0.0
 40
0.0
 40
0.0658993425
 40
0.1314693033
 40
0.1641433004
 40
0.1967469522
 40
0.2292839506
 40
0.2617570716
 40
0.2941680469
 40
0.3265173258
 40
0.3588037436
 40
0.3749225128
 40
0.3910240248
 40
0.4071072197
 40
0.4231705118
 40
0.4392113946
 40
0.4552255223
 40
0.4632201657
 40
0.4712042669
 40
0.4791748091
 40
0.4871264238
 40
0.4910922207
 40
0.4950484379
 40
0.4989916388
 40
0.5029151724
 40
0.5048656571
 40
0.5068064607
 40
0.5087352505
 40
0.5106398582
 40
0.5125052882
 40
0.5134216551
 40
0.5143286129
 40
0.5152178568
 40
0.5160567115
 40
0.5168337073
 40
0.5175817459
 40
0.5183366721
 40
0.5191161444
 40
0.5199392273
 40
0.5208142147
 40
0.521723843
 40
0.5226430623
 40
0.5244989865
 40
0.526387249
 40
0.5283029214
 40
0.5302319878
 40
0.5321693574
 40
0.5360651153
 40
0.5399782945
 40
0.5439023147
 40
0.5478333847
 40
0.5557079617
 40
0.5635909295
 40
0.5714766205
 40
0.579361771
 40
0.5951228172
 40
0.61086389
 40
0.6265790601
 40
0.6422641186
 40
0.6735303805
 40
0.7046378889
 40
0.7355621173
 40
0.766276669
 40
0.796752193
 40
0.8269556643
 40
0.8863916944
 40
0.9442245321
 40
1.0
 40
1.0
 40
1.0
 40
1.0
 10
4.3832731622
 20
4.6639601885
 30
0.0
 10
4.3895013843
 20
4.6683823319
 30
0.0
 10
4.4022169448
 20
4.6768012915
 30
0.0
 10
4.4186617381
 20
4.6863873609
 30
0.0
 10
4.432039385
 20
4.6935358749
 30
0.0
 10
4.4421593404
 20
4.698649985
 30
0.0
 10
4.4523637375
 20
4.7035393263
 30
0.0
 10
4.4626408099
 20
4.7082201339
 30
0.0
 10
4.4729797164
 20
4.7127080933
 30
0.0
 10
4.4833703871
 20
4.7170184421
 30
0.0
 10
4.4920688336
 20
4.7204766306
 30
0.0
 10
4.4990441253
 20
4.7231695846
 30
0.0
 10
4.5042797628
 20
4.7251535853
 30
0.0
 10
4.5095206975
 20
4.7271051747
 30
0.0
 10
4.5147651081
 20
4.7290270597
 30
0.0
 10
4.5200105138
 20
4.7309227798
 30
0.0
 10
4.5243816817
 20
4.7324857679
 30
0.0
 10
4.5278748156
 20
4.7337306388
 30
0.0
 10
4.5304895419
 20
4.7346630089
 30
0.0
 10
4.5330981523
 20
4.7355976706
 30
0.0
 10
4.5352653741
 20
4.7363833706
 30
0.0
 10
4.5369912636
 20
4.7370210775
 30
0.0
 10
4.5382783951
 20
4.7375056449
 30
0.0
 10
4.5395565071
 20
4.7380001327
 30
0.0
 10
4.5406119273
 20
4.7384257168
 30
0.0
 10
4.5414460801
 20
4.7387789345
 30
0.0
 10
4.5420628704
 20
4.7390522677
 30
0.0
 10
4.5426690964
 20
4.7393361124
 30
0.0
 10
4.543257778
 20
4.7396359936
 30
0.0
 10
4.5437302772
 20
4.7399048962
 30
0.0
 10
4.5440873464
 20
4.7401404333
 30
0.0
 10
4.5443397571
 20
4.7403281897
 30
0.0
 10
4.5445716231
 20
4.7405277164
 30
0.0
 10
4.5447654737
 20
4.7407456834
 30
0.0
 10
4.544897253
 20
4.7409908523
 30
0.0
 10
4.544935331
 20
4.7412576656
 30
0.0
 10
4.5448893604
 20
4.7415221911
 30
0.0
 10
4.5447653121
 20
4.7417696541
 30
0.0
 10
4.5445759268
 20
4.7419881212
 30
0.0
 10
4.5443449924
 20
4.7421840936
 30
0.0
 10
4.5440882825
 20
4.7423642551
 30
0.0
 10
4.5437282802
 20
4.7425942241
 30
0.0
 10
4.54325637
 20
4.7428587318
 30
0.0
 10
4.5426680383
 20
4.743149363
 30
0.0
 10
4.5420622323
 20
4.7434226856
 30
0.0
 10
4.5414452782
 20
4.7436845968
 30
0.0
 10
4.5406112861
 20
4.7440222645
 30
0.0
 10
4.5395559629
 20
4.7444256735
 30
0.0
 10
4.5382779146
 20
4.744890671
 30
0.0
 10
4.5369908109
 20
4.7453424679
 30
0.0
 10
4.5352654951
 20
4.745932001
 30
0.0
 10
4.5330990191
 20
4.7466494287
 30
0.0
 10
4.5304904707
 20
4.7474896542
 30
0.0
 10
4.5278757896
 20
4.7483146649
 30
0.0
 10
4.5243852006
 20
4.749398228
 30
0.0
 10
4.5200173723
 20
4.7507269399
 30
0.0
 10
4.5147722456
 20
4.7522898461
 30
0.0
 10
4.5095281274
 20
4.7538250641
 30
0.0
 10
4.5025483372
 20
4.7558362017
 30
0.0
 10
4.4938396152
 20
4.7582905756
 30
0.0
 10
4.4834104057
 20
4.7611509491
 30
0.0
 10
4.4730239687
 20
4.7639245848
 30
0.0
 10
4.4626900734
 20
4.766610103
 30
0.0
 10
4.4524188469
 20
4.7692037
 30
0.0
 10
4.438895066
 20
4.7725127783
 30
0.0
 10
4.4222430201
 20
4.7763777642
 30
0.0
 10
4.4026150366
 20
4.7805147526
 30
0.0
 10
4.3896561081
 20
4.7828718774
 30
0.0
 10
4.3832731622
 20
4.7838985892
 30
0.0
  0
SPLINE
  5
442
100
AcDbEntity
  8
ALL_ASSEMBLY_MEMBERS
100
AcDbSpline
 62
7
  6
CONTINUOUS
 70
0
 71
3
 72
9
 73
5
 74
0
 42
0.0000001
 43
0.0000001
 44
0.0000000001
 40
0.0
 40
0.0
 40
0.0
 40
0.0
 40
0.5011986034
 40
1.0
 40
1.0
 40
1.0
 40
1.0
 10
4.3426321383
 20
4.6288284161
 30
0.0
 10
4.3488821306
 20
4.63528258
 30
0.0
 10
4.3618965209
 20
4.6476449118
 30
0.0
 10
4.3759824457
 20
4.658783917
 30
0.0
 10
4.3832731622
 20
4.6639601885
 30
0.0
  0
SPLINE
  5
443
100
AcDbEntity
  8
ALL_ASSEMBLY_MEMBERS
100
AcDbSpline
 62
7
  6
CONTINUOUS
 70
0
 71
3
 72
11
 73
7
 74
0
 42
0.0000001
 43
0.0000001
 44
0.0000000001
 40
0.0
 40
0.0
 40
0.0
 40
0.0
 40
0.2185728689
 40
0.4532780382
 40
0.7118240813
 40
1.0
 40
1.0
 40
1.0
 40
1.0
 10
4.2044063892
 20
4.787768657
 30
0.0
 10
4.2042630639
 20
4.7877322091
 30
0.0
 10
4.2039737524
 20
4.7876224578
 30
0.0
 10
4.2035643324
 20
4.7873640207
 30
0.0
 10
4.2031687945
 20
4.7870102214
 30
0.0
 10
4.2029281217
 20
4.7867279581
 30
0.0
 10
4.2028093339
 20
4.7865733394
 30
0.0
  0
SPLINE
  5
444
100
AcDbEntity
  8
ALL_ASSEMBLY_MEMBERS
100
AcDbSpline
 62
7
  6
CONTINUOUS
 70
0
 71
3
 72
25
 73
21
 74
0
 42
0.0000001
 43
0.0000001
 44
0.0000000001
 40
0.0
 40
0.0
 40
0.0
 40
0.0
 40
0.0079432467
 40
0.0175131486
 40
0.0288158327
 40
0.0419052946
 40
0.0568042384
 40
0.0735194674
 40
0.092042304
 40
0.1123539103
 40
0.1582385379
 40
0.2108871875
 40
0.2699346577
 40
0.334933117
 40
0.4053849768
 40
0.4807301159
 40
0.560371081
 40
0.6436739596
 40
0.8185979012
 40
1.0
 40
1.0
 40
1.0
 40
1.0
 10
4.2028093339
 20
4.7865733394
 30
0.0
 10
4.2025603965
 20
4.786249313
 30
0.0
 10
4.2020864033
 20
4.7854776046
 30
0.0
 10
4.2014776493
 20
4.784123704
 30
0.0
 10
4.2009079605
 20
4.7824701123
 30
0.0
 10
4.2003787585
 20
4.7805183455
 30
0.0
 10
4.1998910381
 20
4.7782702312
 30
0.0
 10
4.1994464616
 20
4.7757291654
 30
0.0
 10
4.1990460517
 20
4.772899387
 30
0.0
 10
4.1985524248
 20
4.7685689466
 30
0.0
 10
4.1980733606
 20
4.7624724043
 30
0.0
 10
4.1977053303
 20
4.7543736071
 30
0.0
 10
4.1975303483
 20
4.7452850182
 30
0.0
 10
4.1975500326
 20
4.7352792097
 30
0.0
 10
4.1977656074
 20
4.7244372594
 30
0.0
 10
4.1981750422
 20
4.712847267
 30
0.0
 10
4.1987749214
 20
4.7006037101
 30
0.0
 10
4.1998391772
 20
4.6832555998
 30
0.0
 10
4.2016098025
 20
4.6607081255
 30
0.0
 10
4.2034055071
 20
4.6424651583
 30
0.0
 10
4.2044063642
 20
4.6331874269
 30
0.0
  0
SPLINE
  5
445
100
AcDbEntity
  8
ALL_ASSEMBLY_MEMBERS
100
AcDbSpline
 62
7
  6
CONTINUOUS
 70
0
 71
3
 72
11
 73
7
 74
0
 42
0.0000001
 43
0.0000001
 44
0.0000000001
 40
0.0
 40
0.0
 40
0.0
 40
0.0
 40
0.2471663119
 40
0.4961383477
 40
0.7471716749
 40
1.0
 40
1.0
 40
1.0
 40
1.0
 10
4.2255207225
 20
4.9068162323
 30
0.0
 10
4.2271011169
 20
4.9072724816
 30
0.0
 10
4.2301671751
 20
4.9086123954
 30
0.0
 10
4.2341023899
 20
4.9117378518
 30
0.0
 10
4.2371491514
 20
4.9157800759
 30
0.0
 10
4.2384561873
 20
4.9189123631
 30
0.0
 10
4.2389087993
 20
4.9205329617
 30
0.0
  0
LINE
  5
446
100
AcDbEntity
  8
ALL_ASSEMBLY_MEMBERS
100
AcDbLine
 62
7
  6
CONTINUOUS
 10
4.1709203123
 20
4.9205594797
 11
4.1714378626
 21
4.9205329616
  0
SPLINE
  5
447
100
AcDbEntity
  8
ALL_ASSEMBLY_MEMBERS
100
AcDbSpline
 62
7
  6
CONTINUOUS
 70
0
 71
3
 72
31
 73
27
 74
0
 42
0.0000001
 43
0.0000001
 44
0.0000000001
 40
0.0
 40
0.0
 40
0.0
 40
0.0
 40
0.1927432254
 40
0.3779726337
 40
0.4655797296
 40
0.5487312753
 40
0.6266336475
 40
0.6985440194
 40
0.7637885229
 40
0.8217722262
 40
0.8478761532
 40
0.8719815209
 40
0.8940409735
 40
0.9140127252
 40
0.9318687317
 40
0.9475889976
 40
0.9611685223
 40
0.9726255118
 40
0.9775739698
 40
0.9820169408
 40
0.9859729971
 40
0.9894692418
 40
0.9925458839
 40
0.9952630966
 40
0.9977082168
 40
1.0
 40
1.0
 40
1.0
 40
1.0
 10
4.1709203112
 20
5.1027353679
 30
0.0
 10
4.1698218875
 20
5.0909672591
 30
0.0
 10
4.1678721143
 20
5.0678702351
 30
0.0
 10
4.1659979857
 20
5.0393798507
 30
0.0
 10
4.1649167478
 20
5.0175765899
 30
0.0
 10
4.1643402263
 20
5.0023388837
 30
0.0
 10
4.1639878515
 20
4.9880571027
 30
0.0
 10
4.1638628505
 20
4.9748694888
 30
0.0
 10
4.1639659264
 20
4.9629030814
 30
0.0
 10
4.1642477284
 20
4.9537490334
 30
0.0
 10
4.1646007188
 20
4.9471236393
 30
0.0
 10
4.1649116812
 20
4.9427026995
 30
0.0
 10
4.1652770087
 20
4.9386632895
 30
0.0
 10
4.165695825
 20
4.9350144496
 30
0.0
 10
4.1661665584
 20
4.9317641641
 30
0.0
 10
4.1666875973
 20
4.9289188919
 30
0.0
 10
4.1672574515
 20
4.9264843746
 30
0.0
 10
4.1677936886
 20
4.9247231274
 30
0.0
 10
4.168257315
 20
4.9235310595
 30
0.0
 10
4.1685995126
 20
4.9227868773
 30
0.0
 10
4.1689532023
 20
4.9221479692
 30
0.0
 10
4.1693186514
 20
4.921614214
 30
0.0
 10
4.1696965305
 20
4.9211855119
 30
0.0
 10
4.170088252
 20
4.9208621428
 30
0.0
 10
4.1704950901
 20
4.9206459486
 30
0.0
 10
4.1707806332
 20
4.9205750564
 30
0.0
 10
4.1709203101
 20
4.9205595501
 30
0.0
  0
SPLINE
  5
448
100
AcDbEntity
  8
ALL_ASSEMBLY_MEMBERS
100
AcDbSpline
 62
7
  6
CONTINUOUS
 70
0
 71
3
 72
32
 73
28
 74
0
 42
0.0000001
 43
0.0000001
 44
0.0000000001
 40
0.0
 40
0.0
 40
0.0
 40
0.0
 40
0.0023212511
 40
0.0047360577
 40
0.0073771629
 40
0.0103469771
 40
0.0137179629
 40
0.017539673
 40
0.021845068
 40
0.0266558026
 40
0.0378444125
 40
0.0511778575
 40
0.0666781988
 40
0.0843440732
 40
0.10415681
 40
0.1260860927
 40
0.1500912416
 40
0.1761240608
 40
0.2340419851
 40
0.2993221768
 40
0.3713532656
 40
0.4494487952
 40
0.5328574114
 40
0.6207725891
 40
0.7123440171
 40
0.8066844866
 40
1.0
 40
1.0
 40
1.0
 40
1.0
 10
4.157142532
 20
4.9068162654
 30
0.0
 10
4.1569882314
 20
4.906816361
 30
0.0
 10
4.1566719234
 20
4.906857654
 30
0.0
 10
4.1562135074
 20
4.9070441524
 30
0.0
 10
4.1557724299
 20
4.9073504893
 30
0.0
 10
4.1553477226
 20
4.9077734674
 30
0.0
 10
4.154937561
 20
4.9083122557
 30
0.0
 10
4.1545410981
 20
4.9089669888
 30
0.0
 10
4.1541578269
 20
4.9097377494
 30
0.0
 10
4.1536379187
 20
4.9109841453
 30
0.0
 10
4.1530372434
 20
4.9128422725
 30
0.0
 10
4.1524001438
 20
4.9154266028
 30
0.0
 10
4.1518175251
 20
4.9184633266
 30
0.0
 10
4.1512913316
 20
4.9219461495
 30
0.0
 10
4.1508233513
 20
4.9258678697
 30
0.0
 10
4.1504151121
 20
4.9302195517
 30
0.0
 10
4.1500677657
 20
4.9349911034
 30
0.0
 10
4.1496734143
 20
4.942156719
 30
0.0
 10
4.1493588045
 20
4.9520728958
 30
0.0
 10
4.149244146
 20
4.9650506803
 30
0.0
 10
4.1493839593
 20
4.9793694572
 30
0.0
 10
4.149777619
 20
4.9948887945
 30
0.0
 10
4.1504219983
 20
5.0114563813
 30
0.0
 10
4.1513111961
 20
5.0289095674
 30
0.0
 10
4.1524367457
 20
5.0470772194
 30
0.0
 10
4.1542532491
 20
5.0722203848
 30
0.0
 10
4.1559105159
 20
5.0912713489
 30
0.0
 10
4.157142531
 20
5.1040624253
 30
0.0
  0
SPLINE
  5
449
100
AcDbEntity
  8
ALL_ASSEMBLY_MEMBERS
100
AcDbSpline
 62
7
  6
CONTINUOUS
 70
0
 71
3
 72
39
 73
35
 74
0
 42
0.0000001
 43
0.0000001
 44
0.0000000001
 40
0.0
 40
0.0
 40
0.0
 40
0.0
 40
0.0312166552
 40
0.0624415364
 40
0.0936668779
 40
0.1248985345
 40
0.1561347522
 40
0.1873753027
 40
0.218620423
 40
0.249870439
 40
0.2811245512
 40
0.3123808
 40
0.3436363933
 40
0.3748917348
 40
0.4061468451
 40
0.4374023383
 40
0.468657652
 40
0.499913307
 40
0.5311685609
 40
0.5624240915
 40
0.5936792009
 40
0.624934712
 40
0.6561898713
 40
0.6874454589
 40
0.7187007442
 40
0.7499563305
 40
0.7812117029
 40
0.8124672178
 40
0.8437226712
 40
0.8749781038
 40
0.9062336569
 40
0.9374890425
 40
0.9687446929
 40
1.0
 40
1.0
 40
1.0
 40
1.0
 10
4.3538245961
 20
5.3366660043
 30
0.0
 10
4.3577298847
 20
5.3366665942
 30
0.0
 10
4.3655469944
 20
5.3370569316
 30
0.0
 10
4.3771526805
 20
5.3388038268
 30
0.0
 10
4.3885301556
 20
5.3416966249
 30
0.0
 10
4.3995652341
 20
5.3457049584
 30
0.0
 10
4.410150706
 20
5.350787301
 30
0.0
 10
4.4201847553
 20
5.3568896731
 30
0.0
 10
4.4295687008
 20
5.3639536688
 30
0.0
 10
4.4382159245
 20
5.3719049281
 30
0.0
 10
4.4460406361
 20
5.3806685355
 30
0.0
 10
4.4529736676
 20
5.3901540439
 30
0.0
 10
4.4589445896
 20
5.4002729718
 30
0.0
 10
4.463902567
 20
5.4109246364
 30
0.0
 10
4.467796814
 20
5.4220095018
 30
0.0
 10
4.4705949626
 20
5.4334203969
 30
0.0
 10
4.4722669396
 20
5.4450499108
 30
0.0
 10
4.4727989234
 20
5.4567868851
 30
0.0
 10
4.4721836906
 20
5.4685199047
 30
0.0
 10
4.4704262476
 20
5.4801367733
 30
0.0
 10
4.4675430412
 20
5.4915267026
 30
0.0
 10
4.4635582372
 20
5.502579465
 30
0.0
 10
4.4585115878
 20
5.5131897116
 30
0.0
 10
4.4524464771
 20
5.5232525155
 30
0.0
 10
4.4454244049
 20
5.5326726759
 30
0.0
 10
4.4375074884
 20
5.5413543396
 30
0.0
 10
4.4287761954
 20
5.5492166265
 30
0.0
 10
4.4193101069
 20
5.5561768496
 30
0.0
 10
4.4092049523
 20
5.562171701
 30
0.0
 10
4.3985554325
 20
5.5671357551
 30
0.0
 10
4.3874684145
 20
5.5710254935
 30
0.0
 10
4.3760498604
 20
5.5737964146
 30
0.0
 10
4.364414729
 20
5.5754259558
 30
0.0
 10
4.3565854273
 20
5.5757378224
 30
0.0
 10
4.3526754898
 20
5.5756996205
 30
0.0
  0
SPLINE
  5
44A
100
AcDbEntity
  8
ALL_ASSEMBLY_MEMBERS
100
AcDbSpline
 62
7
  6
CONTINUOUS
 70
0
 71
3
 72
40
 73
36
 74
0
 42
0.0000001
 43
0.0000001
 44
0.0000000001
 40
0.0
 40
0.0
 40
0.0
 40
0.0
 40
0.0312168704
 40
0.0624363161
 40
0.0936590061
 40
0.1248843833
 40
0.1561129112
 40
0.1873453776
 40
0.2185826756
 40
0.2498248655
 40
0.2810712747
 40
0.3123216621
 40
0.3435749972
 40
0.374831103
 40
0.4060883871
 40
0.4373466538
 40
0.4686045488
 40
0.4998624496
 40
0.5311199892
 40
0.5623779194
 40
0.5936355981
 40
0.6248935988
 40
0.6561512522
 40
0.6874091756
 40
0.7186668952
 40
0.7499250033
 40
0.7811827786
 40
0.8124407916
 40
0.8436986813
 40
0.8593325267
 40
0.8749664523
 40
0.9062245238
 40
0.9374828354
 40
0.9687411316
 40
1.0
 40
1.0
 40
1.0
 40
1.0
 10
4.2262581811
 20
5.4928243509
 30
0.0
 10
4.2274168402
 20
5.497024593
 30
0.0
 10
4.2301481917
 20
5.5053175463
 30
0.0
 10
4.2354454822
 20
5.5172907243
 30
0.0
 10
4.2418964953
 20
5.5286867164
 30
0.0
 10
4.2494382947
 20
5.5393932244
 30
0.0
 10
4.2579982072
 20
5.5493066188
 30
0.0
 10
4.2674950424
 20
5.5583289249
 30
0.0
 10
4.2778372535
 20
5.56637145
 30
0.0
 10
4.288925059
 20
5.5733539164
 30
0.0
 10
4.3006495739
 20
5.5792087545
 30
0.0
 10
4.3128973491
 20
5.5838753505
 30
0.0
 10
4.3255477183
 20
5.5873088531
 30
0.0
 10
4.3384768364
 20
5.5894732295
 30
0.0
 10
4.3515573303
 20
5.5903481615
 30
0.0
 10
4.3646604185
 20
5.5899233602
 30
0.0
 10
4.3776573119
 20
5.5882045335
 30
0.0
 10
4.3904200064
 20
5.5852071351
 30
0.0
 10
4.4028237557
 20
5.5809624354
 30
0.0
 10
4.4147465132
 20
5.5755110953
 30
0.0
 10
4.4260723457
 20
5.5689083735
 30
0.0
 10
4.436689823
 20
5.561218255
 30
0.0
 10
4.4464965194
 20
5.5525178148
 30
0.0
 10
4.4553961109
 20
5.5428915845
 30
0.0
 10
4.4633037215
 20
5.532435109
 30
0.0
 10
4.4701417765
 20
5.521250007
 30
0.0
 10
4.4758462461
 20
5.5094462293
 30
0.0
 10
4.480360759
 20
5.4971388709
 30
0.0
 10
4.4830980486
 20
5.4865602971
 30
0.0
 10
4.4846547462
 20
5.477970095
 30
0.0
 10
4.4857886982
 20
5.4693139228
 30
0.0
 10
4.4864057831
 20
5.4584043854
 30
0.0
 10
4.4858573817
 20
5.44530635
 30
0.0
 10
4.4840290264
 20
5.4323254976
 30
0.0
 10
4.4819654144
 20
5.4238300893
 30
0.0
 10
4.4807293904
 20
5.4196458468
 30
0.0
  0
SPLINE
  5
44B
100
AcDbEntity
  8
ALL_ASSEMBLY_MEMBERS
100
AcDbSpline
 62
7
  6
CONTINUOUS
 70
0
 71
3
 72
32
 73
28
 74
0
 42
0.0000001
 43
0.0000001
 44
0.0000000001
 40
0.0
 40
0.0
 40
0.0
 40
0.0
 40
0.0624272907
 40
0.1248711657
 40
0.1873299683
 40
0.24979272
 40
0.3122536786
 40
0.3747128175
 40
0.4371721135
 40
0.4684401841
 40
0.4997086783
 40
0.5309767138
 40
0.5622451445
 40
0.5935131053
 40
0.6247814862
 40
0.6560495044
 40
0.6873178748
 40
0.7185860019
 40
0.7498542817
 40
0.781122466
 40
0.812390599
 40
0.843658828
 40
0.8749269029
 40
0.9061952652
 40
0.9374634761
 40
0.9687319474
 40
1.0
 40
1.0
 40
1.0
 40
1.0
 10
4.2714513012
 20
4.2555402066
 30
0.0
 10
4.272861233
 20
4.2501278349
 30
0.0
 10
4.2767438523
 20
4.2395461325
 30
0.0
 10
4.2855406108
 20
4.2251318178
 30
0.0
 10
4.2969855228
 20
4.212701939
 30
0.0
 10
4.3106459974
 20
4.2027566528
 30
0.0
 10
4.3259962438
 20
4.1956897787
 30
0.0
 10
4.3424344038
 20
4.1917843105
 30
0.0
 10
4.3565195822
 20
4.1912967057
 30
0.0
 10
4.3676601067
 20
4.192576
 30
0.0
 10
4.3758878988
 20
4.1943582258
 30
0.0
 10
4.3838976481
 20
4.1969473776
 30
0.0
 10
4.3916123453
 20
4.2003156058
 30
0.0
 10
4.3989562186
 20
4.2044300666
 30
0.0
 10
4.4058579168
 20
4.2092494163
 30
0.0
 10
4.4122513618
 20
4.2147251771
 30
0.0
 10
4.4180741107
 20
4.2208041489
 30
0.0
 10
4.4232726064
 20
4.2274248811
 30
0.0
 10
4.4277953387
 20
4.2345242952
 30
0.0
 10
4.4316033802
 20
4.2420313007
 30
0.0
 10
4.4346578411
 20
4.2498751113
 30
0.0
 10
4.436935365
 20
4.2579786309
 30
0.0
 10
4.4384111192
 20
4.2662657388
 30
0.0
 10
4.4390771055
 20
4.2746567215
 30
0.0
 10
4.4389236428
 20
4.283072937
 30
0.0
 10
4.4379572413
 20
4.2914339783
 30
0.0
 10
4.4367747636
 20
4.2969212342
 30
0.0
 10
4.4360525851
 20
4.299627923
 30
0.0
  0
SPLINE
  5
44C
100
AcDbEntity
  8
ALL_ASSEMBLY_MEMBERS
100
AcDbSpline
 62
7
  6
CONTINUOUS
 70
0
 71
3
 72
19
 73
15
 74
0
 42
0.0000001
 43
0.0000001
 44
0.0000000001
 40
0.0
 40
0.0
 40
0.0
 40
0.0
 40
0.1249618668
 40
0.2499364175
 40
0.3124487397
 40
0.3749651206
 40
0.4374822756
 40
0.499998185
 40
0.562514342
 40
0.6250314233
 40
0.6875477441
 40
0.750060065
 40
0.8750368909
 40
1.0
 40
1.0
 40
1.0
 40
1.0
 10
4.2996003589
 20
4.3633633394
 30
0.0
 10
4.2955483148
 20
4.3743413807
 30
0.0
 10
4.2888621829
 20
4.3968500727
 30
0.0
 10
4.2842033341
 20
4.4258214032
 30
0.0
 10
4.2827325056
 20
4.4492003614
 30
0.0
 10
4.2827581412
 20
4.4667755146
 30
0.0
 10
4.2839101376
 20
4.484312621
 30
0.0
 10
4.2861846413
 20
4.5017397938
 30
0.0
 10
4.2895671517
 20
4.5189861415
 30
0.0
 10
4.2940449525
 20
4.5359809199
 30
0.0
 10
4.2995954558
 20
4.5526563692
 30
0.0
 10
4.3083927645
 20
4.5743668047
 30
0.0
 10
4.3219530431
 20
4.6003869448
 30
0.0
 10
4.335356179
 20
4.619663287
 30
0.0
 10
4.3426321383
 20
4.6288284161
 30
0.0
  0
SPLINE
  5
44D
100
AcDbEntity
  8
ALL_ASSEMBLY_MEMBERS
100
AcDbSpline
 62
7
  6
CONTINUOUS
 70
0
 71
3
 72
19
 73
15
 74
0
 42
0.0000001
 43
0.0000001
 44
0.0000000001
 40
0.0
 40
0.0
 40
0.0
 40
0.0
 40
0.1249630851
 40
0.2499398872
 40
0.3124521924
 40
0.3749684594
 40
0.437485445
 40
0.500001499
 40
0.5625173262
 40
0.6250344163
 40
0.6875507229
 40
0.7500629824
 40
0.87503776
 40
1.0
 40
1.0
 40
1.0
 40
1.0
 10
4.3426321384
 20
5.1048284161
 30
0.0
 10
4.3353561378
 20
5.113993508
 30
0.0
 10
4.3219529965
 20
5.1332698472
 30
0.0
 10
4.3083927819
 20
5.1592900067
 30
0.0
 10
4.2995954436
 20
5.1810004161
 30
0.0
 10
4.294044876
 20
5.1976758253
 30
0.0
 10
4.289567042
 20
5.2146705699
 30
0.0
 10
4.2861845621
 20
5.231916896
 30
0.0
 10
4.2839101175
 20
5.249344051
 30
0.0
 10
4.2827581649
 20
5.2668811368
 30
0.0
 10
4.2827325466
 20
5.2844562693
 30
0.0
 10
4.2842034171
 20
5.3078352302
 30
0.0
 10
4.28886243
 20
5.3368065984
 30
0.0
 10
4.2955487886
 20
5.3593152553
 30
0.0
 10
4.2996007014
 20
5.370293381
 30
0.0
  0
SPLINE
  5
44E
100
AcDbEntity
  8
ALL_ASSEMBLY_MEMBERS
100
AcDbSpline
 62
7
  6
CONTINUOUS
 70
0
 71
3
 72
35
 73
31
 74
0
 42
0.0000001
 43
0.0000001
 44
0.0000000001
 40
0.0
 40
0.0
 40
0.0
 40
0.0
 40
0.0312258828
 40
0.0624599502
 40
0.0936945023
 40
0.1249355228
 40
0.1873544567
 40
0.2497929235
 40
0.281056466
 40
0.3123221633
 40
0.3435871615
 40
0.3748519493
 40
0.4373077261
 40
0.4997637421
 40
0.5310284406
 40
0.5622933976
 40
0.5935579153
 40
0.6248228385
 40
0.6560873698
 40
0.6873523471
 40
0.7186169738
 40
0.7498819221
 40
0.7811466135
 40
0.812411461
 40
0.8436762172
 40
0.8749409556
 40
0.9062058017
 40
0.9374704751
 40
0.9687354143
 40
1.0
 40
1.0
 40
1.0
 40
1.0
 10
4.3538218413
 20
5.3702935393
 30
0.0
 10
4.3566250198
 20
5.3702940831
 30
0.0
 10
4.3622361122
 20
5.3705758619
 30
0.0
 10
4.3705656438
 20
5.3718355394
 30
0.0
 10
4.3787305341
 20
5.3739218024
 30
0.0
 10
4.3892774253
 20
5.3777712153
 30
0.0
 10
4.4016681233
 20
5.3845240117
 30
0.0
 10
4.4124897202
 20
5.3935813336
 30
0.0
 10
4.4199542368
 20
5.401975983
 30
0.0
 10
4.4249187655
 20
5.4087938423
 30
0.0
 10
4.4291934258
 20
5.416064174
 30
0.0
 10
4.4339222448
 20
5.4262553934
 30
0.0
 10
4.4379393354
 20
5.4397862138
 30
0.0
 10
4.4392630226
 20
5.4538385144
 30
0.0
 10
4.4386798469
 20
5.465058307
 30
0.0
 10
4.4374251283
 20
5.4733983581
 30
0.0
 10
4.4353641675
 20
5.4815759392
 30
0.0
 10
4.4325137909
 20
5.4895130939
 30
0.0
 10
4.4289020132
 20
5.4971340851
 30
0.0
 10
4.4245592619
 20
5.5043635449
 30
0.0
 10
4.4195292448
 20
5.5111329905
 30
0.0
 10
4.4138559786
 20
5.5173732349
 30
0.0
 10
4.4075969311
 20
5.5230258654
 30
0.0
 10
4.4008089411
 20
5.5280310137
 30
0.0
 10
4.393560641
 20
5.5323427472
 30
0.0
 10
4.3859200384
 20
5.5359136146
 30
0.0
 10
4.3779639991
 20
5.538711894
 30
0.0
 10
4.3697688673
 20
5.5407052975
 30
0.0
 10
4.361417525
 20
5.5418773007
 30
0.0
 10
4.355797661
 20
5.5421012014
 30
0.0
 10
4.3529911457
 20
5.5420734114
 30
0.0
  0
SPLINE
  5
44F
100
AcDbEntity
  8
ALL_ASSEMBLY_MEMBERS
100
AcDbSpline
 62
7
  6
CONTINUOUS
 70
0
 71
3
 72
9
 73
5
 74
0
 42
0.0000001
 43
0.0000001
 44
0.0000000001
 40
0.0
 40
0.0
 40
0.0
 40
0.0
 40
0.4868970016
 40
1.0
 40
1.0
 40
1.0
 40
1.0
 10
4.3556121847
 20
4.9463333687
 30
0.0
 10
4.3601247161
 20
4.9466645416
 30
0.0
 10
4.3693716552
 20
4.9476378067
 30
0.0
 10
4.3785654395
 20
4.9490012491
 30
0.0
 10
4.3832731622
 20
4.9497582431
 30
0.0
  0
LINE
  5
450
100
AcDbEntity
  8
ALL_ASSEMBLY_MEMBERS
100
AcDbLine
 62
7
  6
CONTINUOUS
 10
4.2044063642
 20
4.9458881789
 11
4.2049034697
 21
4.9458284161
  0
SPLINE
  5
451
100
AcDbEntity
  8
ALL_ASSEMBLY_MEMBERS
100
AcDbSpline
 62
7
  6
CONTINUOUS
 70
0
 71
3
 72
29
 73
25
 74
0
 42
0.0000001
 43
0.0000001
 44
0.0000000001
 40
0.0
 40
0.0
 40
0.0
 40
0.0
 40
0.1913486291
 40
0.3749453632
 40
0.4617569196
 40
0.5441815367
 40
0.6214649102
 40
0.6929017537
 40
0.7578539179
 40
0.8157611903
 40
0.8419190892
 40
0.8661456044
 40
0.888397902
 40
0.9086391813
 40
0.9268463574
 40
0.9430050792
 40
0.9571171919
 40
0.96920859
 40
0.9793393833
 40
0.9876370802
 40
0.9911752685
 40
0.9943658015
 40
0.9972773668
 40
1.0
 40
1.0
 40
1.0
 40
1.0
 10
4.2044063892
 20
5.1004695351
 30
0.0
 10
4.2033368782
 20
5.0905543752
 30
0.0
 10
4.2014345462
 20
5.0711043197
 30
0.0
 10
4.1996005533
 20
5.047106263
 30
0.0
 10
4.1985422075
 20
5.0287473891
 30
0.0
 10
4.1979776738
 20
5.0159112805
 30
0.0
 10
4.1976325458
 20
5.0038689323
 30
0.0
 10
4.1975102223
 20
4.9927327564
 30
0.0
 10
4.1976115115
 20
4.9826061589
 30
0.0
 10
4.1978878681
 20
4.9748433354
 30
0.0
 10
4.1982333036
 20
4.9692097035
 30
0.0
 10
4.1985379135
 20
4.9654360356
 30
0.0
 10
4.1988957314
 20
4.9619768404
 30
0.0
 10
4.1993058966
 20
4.9588394872
 30
0.0
 10
4.1997668817
 20
4.9560304451
 30
0.0
 10
4.2002773217
 20
4.9535550539
 30
0.0
 10
4.2008355993
 20
4.9514177403
 30
0.0
 10
4.2014398984
 20
4.9496207144
 30
0.0
 10
4.2020889763
 20
4.9481657209
 30
0.0
 10
4.2026972919
 20
4.9471877612
 30
0.0
 10
4.2032167042
 20
4.9465992134
 30
0.0
 10
4.2035978207
 20
4.9462689755
 30
0.0
 10
4.2039915232
 20
4.9460268451
 30
0.0
 10
4.2042688426
 20
4.9459231471
 30
0.0
 10
4.2044063642
 20
4.9458881789
 30
0.0
  0
SPLINE
  5
452
100
AcDbEntity
  8
ALL_ASSEMBLY_MEMBERS
100
AcDbSpline
 62
7
  6
CONTINUOUS
 70
0
 71
3
 72
9
 73
5
 74
0
 42
0.0000001
 43
0.0000001
 44
0.0000000001
 40
0.0
 40
0.0
 40
0.0
 40
0.0
 40
0.4987965035
 40
1.0
 40
1.0
 40
1.0
 40
1.0
 10
4.3832731622
 20
5.0696966438
 30
0.0
 10
4.3759825751
 20
5.0748729448
 30
0.0
 10
4.3618966737
 20
5.0860119459
 30
0.0
 10
4.3488820962
 20
5.098374098
 30
0.0
 10
4.3426321384
 20
5.1048284161
 30
0.0
  0
SPLINE
  5
453
100
AcDbEntity
  8
ALL_ASSEMBLY_MEMBERS
100
AcDbSpline
 62
7
  6
CONTINUOUS
 70
0
 71
3
 72
73
 73
69
 74
0
 42
0.0000001
 43
0.0000001
 44
0.0000000001
 40
0.0
 40
0.0
 40
0.0
 40
0.0
 40
0.0557768174
 40
0.1136102961
 40
0.1730466355
 40
0.2032501909
 40
0.2337257667
 40
0.2644403471
 40
0.295364599
 40
0.326472121
 40
0.3577383928
 40
0.3734234563
 40
0.3891386298
 40
0.4048797076
 40
0.4206407563
 40
0.4285259087
 40
0.4364116009
 40
0.4442945728
 40
0.4521691448
 40
0.45610025
 40
0.4600242227
 40
0.4639375148
 40
0.4678333156
 40
0.469770688
 40
0.471698808
 40
0.4736152906
 40
0.4755078931
 40
0.4773615668
 40
0.478272101
 40
0.4791732489
 40
0.4800567898
 40
0.4808904066
 40
0.4816634818
 40
0.4824101674
 40
0.4831666447
 40
0.4839499895
 40
0.4847782288
 40
0.4856588588
 40
0.4865742714
 40
0.4874993292
 40
0.4893670574
 40
0.4912673267
 40
0.4931952982
 40
0.4951370429
 40
0.4970875315
 40
0.5010110233
 40
0.5049541119
 40
0.5089103787
 40
0.5128761425
 40
0.520827765
 40
0.5287983065
 40
0.5367824098
 40
0.5447770546
 40
0.5607911867
 40
0.5768320718
 40
0.5928953677
 40
0.6089785653
 40
0.6250800806
 40
0.6411988527
 40
0.6734852742
 40
0.7058345504
 40
0.738245515
 40
0.7707186074
 40
0.8032555471
 40
0.835859116
 40
0.8685329177
 40
0.9341022127
 40
1.0
 40
1.0
 40
1.0
 40
1.0
 10
4.3832731622
 20
4.9497582431
 30
0.0
 10
4.3896562637
 20
4.9507849731
 30
0.0
 10
4.4026154176
 20
4.9531421515
 30
0.0
 10
4.4222436605
 20
4.9572792029
 30
0.0
 10
4.4388958207
 20
4.9611442281
 30
0.0
 10
4.4524196488
 20
4.964453332
 30
0.0
 10
4.4626908919
 20
4.9670469416
 30
0.0
 10
4.473024799
 20
4.9697324632
 30
0.0
 10
4.4834112409
 20
4.9725061109
 30
0.0
 10
4.4938404547
 20
4.9753664897
 30
0.0
 10
4.5025491781
 20
4.9778208716
 30
0.0
 10
4.5095289701
 20
4.9798320113
 30
0.0
 10
4.514773088
 20
4.9813672359
 30
0.0
 10
4.5200182156
 20
4.9829301435
 30
0.0
 10
4.524386043
 20
4.9842588628
 30
0.0
 10
4.5278766318
 20
4.9853424289
 30
0.0
 10
4.5304913122
 20
4.9861674447
 30
0.0
 10
4.5330998607
 20
4.9870076702
 30
0.0
 10
4.5352663336
 20
4.9877251195
 30
0.0
 10
4.5369916525
 20
4.9883146385
 30
0.0
 10
4.5382787617
 20
4.9887664526
 30
0.0
 10
4.5395568385
 20
4.9892314163
 30
0.0
 10
4.540612099
 20
4.9896350265
 30
0.0
 10
4.5414461381
 20
4.9899723073
 30
0.0
 10
4.5420629193
 20
4.9902345832
 30
0.0
 10
4.5426691192
 20
4.9905082381
 30
0.0
 10
4.5432577792
 20
4.9907988563
 30
0.0
 10
4.5437302629
 20
4.9910608218
 30
0.0
 10
4.5440873408
 20
4.991291394
 30
0.0
 10
4.5443397567
 20
4.9914757649
 30
0.0
 10
4.5445716352
 20
4.9916723015
 30
0.0
 10
4.5447655796
 20
4.9918879214
 30
0.0
 10
4.5448974128
 20
4.9921317618
 30
0.0
 10
4.5449353162
 20
4.9923982044
 30
0.0
 10
4.544889221
 20
4.9926631483
 30
0.0
 10
4.5447652033
 20
4.9929119313
 30
0.0
 10
4.5445759117
 20
4.9931326683
 30
0.0
 10
4.5443450058
 20
4.9933316105
 30
0.0
 10
4.5440882822
 20
4.9935152036
 30
0.0
 10
4.5437282784
 20
4.99375017
 30
0.0
 10
4.5432563723
 20
4.9940216072
 30
0.0
 10
4.5426680205
 20
4.9943215071
 30
0.0
 10
4.5420621849
 20
4.9946050144
 30
0.0
 10
4.5414452165
 20
4.9948779839
 30
0.0
 10
4.5406111173
 20
4.9952315898
 30
0.0
 10
4.5395556307
 20
4.9956569753
 30
0.0
 10
4.5382775483
 20
4.9961514992
 30
0.0
 10
4.5369904219
 20
4.9966360508
 30
0.0
 10
4.535264536
 20
4.997273775
 30
0.0
 10
4.5330973104
 20
4.9980594565
 30
0.0
 10
4.5304887005
 20
4.9989941224
 30
0.0
 10
4.5278739734
 20
4.9999264915
 30
0.0
 10
4.5243808393
 20
5.001171365
 30
0.0
 10
4.5200096703
 20
5.0027343528
 30
0.0
 10
4.5147642657
 20
5.00463008
 30
0.0
 10
4.5095198548
 20
5.0065519672
 30
0.0
 10
4.5042789215
 20
5.0085035638
 30
0.0
 10
4.4990432846
 20
5.0104875693
 30
0.0
 10
4.4920679945
 20
5.013180531
 30
0.0
 10
4.483369551
 20
5.016638729
 30
0.0
 10
4.4729788869
 20
5.0209490911
 30
0.0
 10
4.4626399901
 20
5.0254370612
 30
0.0
 10
4.452362935
 20
5.0301178799
 30
0.0
 10
4.4421585634
 20
5.0350072293
 30
0.0
 10
4.4320386523
 20
5.0401213409
 30
0.0
 10
4.418661111
 20
5.0472698205
 30
0.0
 10
4.4022165708
 20
5.0568557695
 30
0.0
 10
4.3895012422
 20
5.0652746116
 30
0.0
 10
4.3832731622
 20
5.0696966438
 30
0.0
  0
SPLINE
  5
454
100
AcDbEntity
  8
ALL_ASSEMBLY_MEMBERS
100
AcDbSpline
 62
7
  6
CONTINUOUS
 70
0
 71
3
 72
15
 73
11
 74
0
 42
0.0000001
 43
0.0000001
 44
0.0000000001
 40
0.0
 40
0.0
 40
0.0
 40
0.0
 40
0.1218829985
 40
0.2448455283
 40
0.3688008278
 40
0.493686202
 40
0.6194655113
 40
0.745972112
 40
0.872871432
 40
1.0
 40
1.0
 40
1.0
 40
1.0
 10
4.5083054337
 20
4.8875365481
 30
0.0
 10
4.5103319061
 20
4.8879438213
 30
0.0
 10
4.5143969463
 20
4.8887914339
 30
0.0
 10
4.520499497
 20
4.8901626816
 30
0.0
 10
4.5266250144
 20
4.8916596956
 30
0.0
 10
4.532762039
 20
4.8933048657
 30
0.0
 10
4.5388976807
 20
4.8951151051
 30
0.0
 10
4.545008232
 20
4.8971230596
 30
0.0
 10
4.5510484259
 20
4.8994018918
 30
0.0
 10
4.5549921591
 20
4.9011437914
 30
0.0
 10
4.556933835
 20
4.9020808208
 30
0.0
  0
SPLINE
  5
455
100
AcDbEntity
  8
ALL_ASSEMBLY_MEMBERS
100
AcDbSpline
 62
7
  6
CONTINUOUS
 70
0
 71
3
 72
67
 73
63
 74
0
 42
0.0000001
 43
0.0000001
 44
0.0000000001
 40
0.0
 40
0.0
 40
0.0
 40
0.0
 40
0.0296144954
 40
0.0594721595
 40
0.0895383446
 40
0.1197822262
 40
0.1501763953
 40
0.1806963348
 40
0.1959964437
 40
0.2113197104
 40
0.2266634512
 40
0.2420248688
 40
0.2574008814
 40
0.2727878237
 40
0.2881808863
 40
0.3035729964
 40
0.3189522379
 40
0.3342952159
 40
0.3419383133
 40
0.3495459886
 40
0.3570914849
 40
0.3608263276
 40
0.3645192144
 40
0.3681485596
 40
0.3699317669
 40
0.3716859019
 40
0.375062858
 40
0.3766749615
 40
0.3782354185
 40
0.3813035564
 40
0.3845192036
 40
0.3862216451
 40
0.3879625066
 40
0.3915353193
 40
0.3951968871
 40
0.398917676
 40
0.4026775264
 40
0.4064648964
 40
0.4140964763
 40
0.4217778629
 40
0.4294918202
 40
0.4372287833
 40
0.4449829997
 40
0.4527508395
 40
0.4683185388
 40
0.483920303
 40
0.4995503652
 40
0.5152057708
 40
0.5308850944
 40
0.5465878089
 40
0.5623139571
 40
0.578063966
 40
0.6096385369
 40
0.641319292
 40
0.673116002
 40
0.7050397271
 40
0.7371023535
 40
0.76931623
 40
0.8016938433
 40
0.8669864428
 40
0.9330684183
 40
1.0
 40
1.0
 40
1.0
 40
1.0
 10
4.4547094243
 20
4.9420836194
 30
0.0
 10
4.457180671
 20
4.9432248737
 30
0.0
 10
4.4621300677
 20
4.9455458374
 30
0.0
 10
4.469544893
 20
4.9491172888
 30
0.0
 10
4.4769781915
 20
4.9527828479
 30
0.0
 10
4.4844248713
 20
4.9565320707
 30
0.0
 10
4.4918804704
 20
4.9603557695
 30
0.0
 10
4.4980920342
 20
4.9635948204
 30
0.0
 10
4.5030629405
 20
4.9662168549
 30
0.0
 10
4.5067939343
 20
4.968199605
 30
0.0
 10
4.5105238144
 20
4.9701964158
 30
0.0
 10
4.5142517611
 20
4.9722070683
 30
0.0
 10
4.5179766898
 20
4.9742316365
 30
0.0
 10
4.5216970643
 20
4.976270625
 30
0.0
 10
4.5254105187
 20
4.9783252523
 30
0.0
 10
4.5291131821
 20
4.9803978427
 30
0.0
 10
4.5327977631
 20
4.9824931227
 30
0.0
 10
4.5358453748
 20
4.984267499
 30
0.0
 10
4.5382549389
 20
4.9857173418
 30
0.0
 10
4.5400344923
 20
4.9868236711
 30
0.0
 10
4.5414872327
 20
4.9877749017
 30
0.0
 10
4.5426143261
 20
4.9885649582
 30
0.0
 10
4.5434279991
 20
4.9891743356
 30
0.0
 10
4.5440726014
 20
4.9897089765
 30
0.0
 10
4.5445559659
 20
4.9901569621
 30
0.0
 10
4.5450009572
 20
4.9906104302
 30
0.0
 10
4.54538844
 20
4.9911010496
 30
0.0
 10
4.545659117
 20
4.9916417095
 30
0.0
 10
4.5458190761
 20
4.9921960417
 30
0.0
 10
4.5457814625
 20
4.9929426917
 30
0.0
 10
4.5454336448
 20
4.9936062939
 30
0.0
 10
4.5450611597
 20
4.994091564
 30
0.0
 10
4.5446291611
 20
4.9945714563
 30
0.0
 10
4.5440229207
 20
4.9951326788
 30
0.0
 10
4.5432427445
 20
4.9957697931
 30
0.0
 10
4.5424210963
 20
4.9963815757
 30
0.0
 10
4.5415739054
 20
4.9969774775
 30
0.0
 10
4.5404174068
 20
4.9977579956
 30
0.0
 10
4.5389416629
 20
4.9987092785
 30
0.0
 10
4.5371452186
 20
4.9998285091
 30
0.0
 10
4.5353296862
 20
5.0009352114
 30
0.0
 10
4.5335015228
 20
5.0020339404
 30
0.0
 10
4.5316645105
 20
5.0031275175
 30
0.0
 10
4.5292048635
 20
5.0045822605
 30
0.0
 10
4.5261192032
 20
5.0063954556
 30
0.0
 10
4.5224072111
 20
5.0085691756
 30
0.0
 10
4.5186876767
 20
5.0107459699
 30
0.0
 10
4.514963191
 20
5.0129284172
 30
0.0
 10
4.511235407
 20
5.015118441
 30
0.0
 10
4.5075054781
 20
5.0173176413
 30
0.0
 10
4.503774263
 20
5.0195274391
 30
0.0
 10
4.498794583
 20
5.0224920801
 30
0.0
 10
4.4925694073
 20
5.0262313653
 30
0.0
 10
4.4851090393
 20
5.030778426
 30
0.0
 10
4.4776566832
 20
5.0353998512
 30
0.0
 10
4.4702167384
 20
5.0401072821
 30
0.0
 10
4.4627942126
 20
5.0449131203
 30
0.0
 10
4.4553948672
 20
5.04983052
 30
0.0
 10
4.4455420796
 20
5.0565725365
 30
0.0
 10
4.4333154307
 20
5.0653559457
 30
0.0
 10
4.4189158733
 20
5.0765390938
 30
0.0
 10
4.409599355
 20
5.0844649313
 30
0.0
 10
4.4050172852
 20
5.0885701353
 30
0.0
  0
SPLINE
  5
456
100
AcDbEntity
  8
ALL_ASSEMBLY_MEMBERS
100
AcDbSpline
 62
7
  6
CONTINUOUS
 70
0
 71
3
 72
15
 73
11
 74
0
 42
0.0000001
 43
0.0000001
 44
0.0000000001
 40
0.0
 40
0.0
 40
0.0
 40
0.0
 40
0.1249951595
 40
0.2500309564
 40
0.3750345783
 40
0.5000359167
 40
0.6250311406
 40
0.750018976
 40
0.8750329736
 40
1.0
 40
1.0
 40
1.0
 40
1.0
 10
4.5516344903
 20
5.0361561166
 30
0.0
 10
4.5450217697
 20
5.0361563711
 30
0.0
 10
4.5317870663
 20
5.0367294361
 30
0.0
 10
4.5120898818
 20
5.0393016854
 30
0.0
 10
4.4926874318
 20
5.0435683638
 30
0.0
 10
4.4737251019
 20
5.0494819027
 30
0.0
 10
4.4553354728
 20
5.0569863614
 30
0.0
 10
4.4376458933
 20
5.0660197925
 30
0.0
 10
4.4207798366
 20
5.0765044898
 30
0.0
 10
4.4101537847
 20
5.0844078325
 30
0.0
 10
4.4050172852
 20
5.0885701353
 30
0.0
  0
SPLINE
  5
457
100
AcDbEntity
  8
ALL_ASSEMBLY_MEMBERS
100
AcDbSpline
 62
7
  6
CONTINUOUS
 70
0
 71
3
 72
11
 73
7
 74
0
 42
0.0000001
 43
0.0000001
 44
0.0000000001
 40
0.0
 40
0.0
 40
0.0
 40
0.0
 40
0.2432001945
 40
0.4921851753
 40
0.7451487696
 40
1.0
 40
1.0
 40
1.0
 40
1.0
 10
4.4725941941
 20
4.9207602913
 30
0.0
 10
4.4790011448
 20
4.9206528836
 30
0.0
 10
4.4919678578
 20
4.9204592147
 30
0.0
 10
4.5115999759
 20
4.9202468192
 30
0.0
 10
4.5315397133
 20
4.9201049874
 30
0.0
 10
4.5449196573
 20
4.9200672363
 30
0.0
 10
4.5516344903
 20
4.9200673104
 30
0.0
  0
SPLINE
  5
458
100
AcDbEntity
  8
ALL_ASSEMBLY_MEMBERS
100
AcDbSpline
 62
7
  6
CONTINUOUS
 70
0
 71
3
 72
9
 73
5
 74
0
 42
0.0000001
 43
0.0000001
 44
0.0000000001
 40
0.0
 40
0.0
 40
0.0
 40
0.0
 40
0.4816258577
 40
1.0
 40
1.0
 40
1.0
 40
1.0
 10
4.5516350234
 20
4.8187656725
 30
0.0
 10
4.5525954097
 20
4.8207741018
 30
0.0
 10
4.5544610956
 20
4.8250059962
 30
0.0
 10
4.5561217754
 20
4.829321502
 30
0.0
 10
4.5569340759
 20
4.8315757118
 30
0.0
  0
SPLINE
  5
459
100
AcDbEntity
  8
ALL_ASSEMBLY_MEMBERS
100
AcDbSpline
 62
7
  6
CONTINUOUS
 70
0
 71
3
 72
9
 73
5
 74
0
 42
0.0000001
 43
0.0000001
 44
0.0000000001
 40
0.0
 40
0.0
 40
0.0
 40
0.0
 40
0.498186705
 40
1.0
 40
1.0
 40
1.0
 40
1.0
 10
4.556933835
 20
4.9020808208
 30
0.0
 10
4.5629254764
 20
4.9049546432
 30
0.0
 10
4.5748825916
 20
4.9108690285
 30
0.0
 10
4.5867394389
 20
4.9169802595
 30
0.0
 10
4.5926728443
 20
4.9200784161
 30
0.0
  0
SPLINE
  5
45A
100
AcDbEntity
  8
ALL_ASSEMBLY_MEMBERS
100
AcDbSpline
 62
7
  6
CONTINUOUS
 70
0
 71
3
 72
11
 73
7
 74
0
 42
0.0000001
 43
0.0000001
 44
0.0000000001
 40
0.0
 40
0.0
 40
0.0
 40
0.0
 40
0.3043957695
 40
0.5717163239
 40
0.8025450335
 40
1.0
 40
1.0
 40
1.0
 40
1.0
 10
4.5516340269
 20
4.6950039019
 30
0.0
 10
4.5520631088
 20
4.6943984785
 30
0.0
 10
4.5529115558
 20
4.6932902533
 30
0.0
 10
4.5542519805
 20
4.6918592182
 30
0.0
 10
4.5555666343
 20
4.6907795326
 30
0.0
 10
4.5564864894
 20
4.6902657877
 30
0.0
 10
4.5569338321
 20
4.690088056
 30
0.0
  0
SPLINE
  5
45B
100
AcDbEntity
  8
ALL_ASSEMBLY_MEMBERS
100
AcDbSpline
 62
7
  6
CONTINUOUS
 70
0
 71
3
 72
12
 73
8
 74
0
 42
0.0000001
 43
0.0000001
 44
0.0000000001
 40
0.0
 40
0.0
 40
0.0
 40
0.0
 40
0.2444547172
 40
0.4931640201
 40
0.6188204105
 40
0.7452671321
 40
1.0
 40
1.0
 40
1.0
 40
1.0
 10
4.3426167197
 20
4.4287538046
 30
0.0
 10
4.3419517793
 20
4.427630286
 30
0.0
 10
4.3406147547
 20
4.4253610827
 30
0.0
 10
4.3389287398
 20
4.4225185803
 30
0.0
 10
4.3375350494
 20
4.42023557
 30
0.0
 10
4.3360950932
 20
4.4179438349
 30
0.0
 10
4.3349551794
 20
4.4162542798
 30
0.0
 10
4.3341379418
 20
4.4151666665
 30
0.0
  0
SPLINE
  5
45C
100
AcDbEntity
  8
ALL_ASSEMBLY_MEMBERS
100
AcDbSpline
 62
7
  6
CONTINUOUS
 70
0
 71
3
 72
8
 73
4
 74
0
 42
0.0000001
 43
0.0000001
 44
0.0000000001
 40
0.0
 40
0.0
 40
0.0
 40
0.0
 40
1.0
 40
1.0
 40
1.0
 40
1.0
 10
4.3566945283
 20
4.4501710232
 30
0.0
 10
4.3566944964
 20
4.4501749892
 30
0.0
 10
4.3566929484
 20
4.4501788942
 30
0.0
 10
4.3566911627
 20
4.4501824355
 30
0.0
  0
SPLINE
  5
45D
100
AcDbEntity
  8
ALL_ASSEMBLY_MEMBERS
100
AcDbSpline
 62
7
  6
CONTINUOUS
 70
0
 71
3
 72
31
 73
27
 74
0
 42
0.0000001
 43
0.0000001
 44
0.0000000001
 40
0.0
 40
0.0
 40
0.0
 40
0.0
 40
0.000343602
 40
0.0006944232
 40
0.0011539951
 40
0.0017712847
 40
0.0035440905
 40
0.0060726908
 40
0.0093669897
 40
0.0134259403
 40
0.0182445332
 40
0.0238159264
 40
0.0371597988
 40
0.0533002425
 40
0.072066053
 40
0.0932845491
 40
0.1423972566
 40
0.1993233747
 40
0.2627734944
 40
0.3316717127
 40
0.4051831795
 40
0.4825059298
 40
0.5630580688
 40
0.6463937482
 40
0.8197463728
 40
1.0
 40
1.0
 40
1.0
 40
1.0
 10
4.3566911627
 20
4.4501824355
 30
0.0
 10
4.3566898406
 20
4.4501850632
 30
0.0
 10
4.3566857607
 20
4.4501899912
 30
0.0
 10
4.3566755161
 20
4.4501919697
 30
0.0
 10
4.3566634913
 20
4.4501890036
 30
0.0
 10
4.3566414439
 20
4.4501783643
 30
0.0
 10
4.3566076147
 20
4.4501528372
 30
0.0
 10
4.3565595465
 20
4.4501090882
 30
0.0
 10
4.3565004209
 20
4.4500484894
 30
0.0
 10
4.356430364
 20
4.4499713466
 30
0.0
 10
4.3563495455
 20
4.4498776791
 30
0.0
 10
4.3562196791
 20
4.4497213991
 30
0.0
 10
4.3560329232
 20
4.4494864267
 30
0.0
 10
4.3557814992
 20
4.4491586649
 30
0.0
 10
4.3554938797
 20
4.4487737487
 30
0.0
 10
4.3550432519
 20
4.448158302
 30
0.0
 10
4.3544103439
 20
4.4472714749
 30
0.0
 10
4.3535806561
 20
4.4460810315
 30
0.0
 10
4.352666675
 20
4.4447429544
 30
0.0
 10
4.3516848132
 20
4.4432793704
 30
0.0
 10
4.3506487789
 20
4.4417091796
 30
0.0
 10
4.3495700342
 20
4.4400477026
 30
0.0
 10
4.348457785
 20
4.4383077617
 30
0.0
 10
4.3469192804
 20
4.4358646258
 30
0.0
 10
4.3449584969
 20
4.4326788302
 30
0.0
 10
4.3434027433
 20
4.430081805
 30
0.0
 10
4.3426167197
 20
4.4287538046
 30
0.0
  0
SPLINE
  5
45E
100
AcDbEntity
  8
ALL_ASSEMBLY_MEMBERS
100
AcDbSpline
 62
7
  6
CONTINUOUS
 70
0
 71
3
 72
11
 73
7
 74
0
 42
0.0000001
 43
0.0000001
 44
0.0000000001
 40
0.0
 40
0.0
 40
0.0
 40
0.0
 40
0.2529755668
 40
0.5044681101
 40
0.7534780767
 40
1.0
 40
1.0
 40
1.0
 40
1.0
 10
4.2014411976
 20
4.8604681342
 30
0.0
 10
4.2014558293
 20
4.8567060217
 30
0.0
 10
4.2026721315
 20
4.8491554573
 30
0.0
 10
4.2078845311
 20
4.8390296433
 30
0.0
 10
4.2159468348
 20
4.8311141176
 30
0.0
 10
4.2227352272
 20
4.8278579181
 30
0.0
 10
4.2262581828
 20
4.8268432501
 30
0.0
  0
SPLINE
  5
45F
100
AcDbEntity
  8
ALL_ASSEMBLY_MEMBERS
100
AcDbSpline
 62
7
  6
CONTINUOUS
 70
0
 71
3
 72
11
 73
7
 74
0
 42
0.0000001
 43
0.0000001
 44
0.0000000001
 40
0.0
 40
0.0
 40
0.0
 40
0.0
 40
0.2530241376
 40
0.504488613
 40
0.7534588729
 40
1.0
 40
1.0
 40
1.0
 40
1.0
 10
4.2007635109
 20
4.8604605237
 30
0.0
 10
4.2007727833
 20
4.8567008037
 30
0.0
 10
4.2019769714
 20
4.8491543599
 30
0.0
 10
4.2071722833
 20
4.8390303343
 30
0.0
 10
4.2152204688
 20
4.8311143039
 30
0.0
 10
4.222001068
 20
4.8278567106
 30
0.0
 10
4.2255207289
 20
4.8268406001
 30
0.0
  0
SPLINE
  5
460
100
AcDbEntity
  8
ALL_ASSEMBLY_MEMBERS
100
AcDbSpline
 62
7
  6
CONTINUOUS
 70
0
 71
3
 72
11
 73
7
 74
0
 42
0.0000001
 43
0.0000001
 44
0.0000000001
 40
0.0
 40
0.0
 40
0.0
 40
0.0
 40
0.2504293414
 40
0.5006359355
 40
0.7504887728
 40
1.0
 40
1.0
 40
1.0
 40
1.0
 10
4.1316788384
 20
4.860460504
 30
0.0
 10
4.1316883779
 20
4.8566980817
 30
0.0
 10
4.1329350488
 20
4.8491239324
 30
0.0
 10
4.1383001252
 20
4.8389899816
 30
0.0
 10
4.146590303
 20
4.8310869682
 30
0.0
 10
4.1535333768
 20
4.8278537563
 30
0.0
 10
4.1571425309
 20
4.826840685
 30
0.0
  0
LINE
  5
461
100
AcDbEntity
  8
ALL_ASSEMBLY_MEMBERS
100
AcDbLine
 62
7
  6
CONTINUOUS
 10
4.201441169
 20
4.234541547
 11
4.2262581818
 21
4.2408324813
  0
SPLINE
  5
462
100
AcDbEntity
  8
ALL_ASSEMBLY_MEMBERS
100
AcDbSpline
 62
7
  6
CONTINUOUS
 70
0
 71
3
 72
70
 73
66
 74
0
 42
0.0000001
 43
0.0000001
 44
0.0000000001
 40
0.0
 40
0.0
 40
0.0
 40
0.0
 40
0.0669311891
 40
0.1330120314
 40
0.1983027805
 40
0.2306793307
 40
0.2628921445
 40
0.2949536838
 40
0.3268763135
 40
0.358671924
 40
0.3903515799
 40
0.4219250542
 40
0.4376745163
 40
0.4534001178
 40
0.4691022867
 40
0.4847810664
 40
0.5004359295
 40
0.5160654483
 40
0.531666672
 40
0.5472338358
 40
0.5550014105
 40
0.5627553645
 40
0.570492064
 40
0.5782057884
 40
0.5858869142
 40
0.5935182772
 40
0.59730558
 40
0.6010655525
 40
0.6047864819
 40
0.6084477098
 40
0.6102484674
 40
0.6120243343
 40
0.6154558018
 40
0.6170991407
 40
0.6186839379
 40
0.6202299774
 40
0.6217694434
 40
0.6233298044
 40
0.6249398579
 40
0.62661208
 40
0.6283309551
 40
0.6300829335
 40
0.6318646986
 40
0.6354939691
 40
0.6391867566
 40
0.6429211164
 40
0.6504663225
 40
0.658073575
 40
0.6657163984
 40
0.6810588244
 40
0.6964375275
 40
0.7118290957
 40
0.7272216267
 40
0.742608034
 40
0.7579835136
 40
0.7733444007
 40
0.7886876127
 40
0.8040103518
 40
0.8193099335
 40
0.8498288264
 40
0.8802219492
 40
0.9104647886
 40
0.9405299367
 40
0.9703865615
 40
1.0
 40
1.0
 40
1.0
 40
1.0
 10
4.405017286
 20
4.6450866977
 30
0.0
 10
4.4095994567
 20
4.6491919767
 30
0.0
 10
4.4189161137
 20
4.6571179295
 30
0.0
 10
4.4333158117
 20
4.668301171
 30
0.0
 10
4.4455424873
 20
4.6770845821
 30
0.0
 10
4.4553952346
 20
4.6838265651
 30
0.0
 10
4.4627945316
 20
4.6887439251
 30
0.0
 10
4.4702170046
 20
4.693549723
 30
0.0
 10
4.4776568916
 20
4.698257113
 30
0.0
 10
4.4851091877
 20
4.702878497
 30
0.0
 10
4.4925694935
 20
4.7074255183
 30
0.0
 10
4.498794616
 20
4.7111647723
 30
0.0
 10
4.5037742543
 20
4.7141293873
 30
0.0
 10
4.5075054375
 20
4.7163391663
 30
0.0
 10
4.5112353347
 20
4.7185383481
 30
0.0
 10
4.5149630872
 20
4.7207283532
 30
0.0
 10
4.518687542
 20
4.722910781
 30
0.0
 10
4.522407044
 20
4.7250875586
 30
0.0
 10
4.5261190051
 20
4.7272612605
 30
0.0
 10
4.5292046411
 20
4.729074439
 30
0.0
 10
4.5316642697
 20
4.7305291683
 30
0.0
 10
4.5335012706
 20
4.731622732
 30
0.0
 10
4.5353294189
 20
4.7327214593
 30
0.0
 10
4.5371449537
 20
4.7338281313
 30
0.0
 10
4.5389413888
 20
4.7349473569
 30
0.0
 10
4.5404171106
 20
4.7358986719
 30
0.0
 10
4.5415736595
 20
4.7366791415
 30
0.0
 10
4.5424209526
 20
4.7372750118
 30
0.0
 10
4.5432425126
 20
4.7378868267
 30
0.0
 10
4.5438971457
 20
4.7384203808
 30
0.0
 10
4.5443911158
 20
4.7388664016
 30
0.0
 10
4.5448516425
 20
4.7393165128
 30
0.0
 10
4.5452641162
 20
4.7397977575
 30
0.0
 10
4.5455747248
 20
4.7403273123
 30
0.0
 10
4.5457353411
 20
4.7407384827
 30
0.0
 10
4.5458047818
 20
4.7411656072
 30
0.0
 10
4.5457806054
 20
4.7415952971
 30
0.0
 10
4.5456638062
 20
4.7420155273
 30
0.0
 10
4.5454616362
 20
4.7424145246
 30
0.0
 10
4.5451986132
 20
4.7427926747
 30
0.0
 10
4.5448928238
 20
4.7431538479
 30
0.0
 10
4.5445561452
 20
4.7435003075
 30
0.0
 10
4.5440726954
 20
4.743947573
 30
0.0
 10
4.543428091
 20
4.7444820709
 30
0.0
 10
4.5426145822
 20
4.7450915859
 30
0.0
 10
4.5414875397
 20
4.7458816509
 30
0.0
 10
4.5400348357
 20
4.7468328127
 30
0.0
 10
4.5382553917
 20
4.7479392516
 30
0.0
 10
4.5358458347
 20
4.7493890275
 30
0.0
 10
4.5327982732
 20
4.7511634235
 30
0.0
 10
4.5291137209
 20
4.7532586759
 30
0.0
 10
4.5254110972
 20
4.7553312616
 30
0.0
 10
4.5216976726
 20
4.7573858675
 30
0.0
 10
4.5179773326
 20
4.7594248447
 30
0.0
 10
4.5142524367
 20
4.7614493985
 30
0.0
 10
4.5105245223
 20
4.7634600366
 30
0.0
 10
4.506794674
 20
4.765456833
 30
0.0
 10
4.5030637117
 20
4.7674395683
 30
0.0
 10
4.4980928471
 20
4.7700615842
 30
0.0
 10
4.4918813377
 20
4.773300616
 30
0.0
 10
4.4844258017
 20
4.7771242879
 30
0.0
 10
4.4769791864
 20
4.7808734867
 30
0.0
 10
4.4695459544
 20
4.7845390241
 30
0.0
 10
4.4621311992
 20
4.7881104549
 30
0.0
 10
4.4571818496
 20
4.790431403
 30
0.0
 10
4.4547106287
 20
4.7915726518
 30
0.0
  0
SPLINE
  5
463
100
AcDbEntity
  8
ALL_ASSEMBLY_MEMBERS
100
AcDbSpline
 62
7
  6
CONTINUOUS
 70
0
 71
3
 72
12
 73
8
 74
0
 42
0.0000001
 43
0.0000001
 44
0.0000000001
 40
0.0
 40
0.0
 40
0.0
 40
0.0
 40
0.243726975
 40
0.4924710529
 40
0.6182861618
 40
0.7448952768
 40
1.0
 40
1.0
 40
1.0
 40
1.0
 10
4.3538231172
 20
4.4179926102
 30
0.0
 10
4.3526806867
 20
4.4172284049
 30
0.0
 10
4.3503726658
 20
4.4156837315
 30
0.0
 10
4.3474625809
 20
4.4137629995
 30
0.0
 10
4.3450865862
 20
4.4122323594
 30
0.0
 10
4.3426667077
 20
4.410704144
 30
0.0
 10
4.3408195074
 20
4.4095966453
 30
0.0
 10
4.3395617245
 20
4.4088983353
 30
0.0
  0
SPLINE
  5
464
100
AcDbEntity
  8
ALL_ASSEMBLY_MEMBERS
100
AcDbSpline
 62
7
  6
CONTINUOUS
 70
0
 71
3
 72
11
 73
7
 74
0
 42
0.0000001
 43
0.0000001
 44
0.0000000001
 40
0.0
 40
0.0
 40
0.0
 40
0.0
 40
0.2548512323
 40
0.5078148277
 40
0.7567998079
 40
1.0
 40
1.0
 40
1.0
 40
1.0
 10
4.5516344903
 20
4.8135895219
 30
0.0
 10
4.544919656
 20
4.8135895958
 30
0.0
 10
4.5315397093
 20
4.8135518446
 30
0.0
 10
4.5115999681
 20
4.8134100132
 30
0.0
 10
4.4919678462
 20
4.813197618
 30
0.0
 10
4.4790011308
 20
4.8130039487
 30
0.0
 10
4.472594179
 20
4.8128965408
 30
0.0
  0
SPLINE
  5
465
100
AcDbEntity
  8
ALL_ASSEMBLY_MEMBERS
100
AcDbSpline
 62
7
  6
CONTINUOUS
 70
0
 71
3
 72
8
 73
4
 74
0
 42
0.0000001
 43
0.0000001
 44
0.0000000001
 40
0.0
 40
0.0
 40
0.0
 40
0.0
 40
1.0
 40
1.0
 40
1.0
 40
1.0
 10
4.3566911673
 20
5.2834745704
 30
0.0
 10
4.3566929129
 20
5.2834780189
 30
0.0
 10
4.3566944829
 20
5.2834818028
 30
0.0
 10
4.3566945295
 20
5.2834856676
 30
0.0
  0
SPLINE
  5
466
100
AcDbEntity
  8
ALL_ASSEMBLY_MEMBERS
100
AcDbSpline
 62
7
  6
CONTINUOUS
 70
0
 71
3
 72
11
 73
7
 74
0
 42
0.0000001
 43
0.0000001
 44
0.0000000001
 40
0.0
 40
0.0
 40
0.0
 40
0.0
 40
0.3043887802
 40
0.5717079983
 40
0.8025399765
 40
1.0
 40
1.0
 40
1.0
 40
1.0
 10
4.5516350234
 20
5.0386532274
 30
0.0
 10
4.5520640264
 20
5.0392586986
 30
0.0
 10
4.5529123206
 20
5.0403670382
 30
0.0
 10
4.5542525227
 20
5.0417982995
 30
0.0
 10
4.555566991
 20
5.0428782695
 30
0.0
 10
4.5564867406
 20
5.0433922638
 30
0.0
 10
4.5569340493
 20
5.0435701327
 30
0.0
  0
SPLINE
  5
467
100
AcDbEntity
  8
ALL_ASSEMBLY_MEMBERS
100
AcDbSpline
 62
7
  6
CONTINUOUS
 70
0
 71
3
 72
13
 73
9
 74
0
 42
0.0000001
 43
0.0000001
 44
0.0000000001
 40
0.0
 40
0.0
 40
0.0
 40
0.0
 40
0.2547315853
 40
0.3811776569
 40
0.5068368093
 40
0.6316532805
 40
0.7555478826
 40
1.0
 40
1.0
 40
1.0
 40
1.0
 10
4.3341379931
 20
5.3184900636
 30
0.0
 10
4.3349548156
 20
5.3174021668
 30
0.0
 10
4.3360955123
 20
5.3157132277
 30
0.0
 10
4.3375354984
 20
5.3134215269
 30
0.0
 10
4.3385841799
 20
5.3117031628
 30
0.0
 10
4.3396101232
 20
5.3099871162
 30
0.0
 10
4.3409532923
 20
5.3077215735
 30
0.0
 10
4.3419519578
 20
5.3060267384
 30
0.0
 10
4.3426167041
 20
5.3049031387
 30
0.0
  0
SPLINE
  5
468
100
AcDbEntity
  8
ALL_ASSEMBLY_MEMBERS
100
AcDbSpline
 62
7
  6
CONTINUOUS
 70
0
 71
3
 72
31
 73
27
 74
0
 42
0.0000001
 43
0.0000001
 44
0.0000000001
 40
0.0
 40
0.0
 40
0.0
 40
0.0
 40
0.1802548178
 40
0.3536097304
 40
0.4369449266
 40
0.5174958181
 40
0.5948167394
 40
0.6683265703
 40
0.7372231327
 40
0.8006712881
 40
0.8575959558
 40
0.9067075967
 40
0.9279257219
 40
0.9466915257
 40
0.9628325578
 40
0.9761778313
 40
0.9817502667
 40
0.9865700198
 40
0.9906301369
 40
0.9939255002
 40
0.9964549563
 40
0.99822831
 40
0.9988457367
 40
0.999305364
 40
0.9996562256
 40
1.0
 40
1.0
 40
1.0
 40
1.0
 10
4.3426167041
 20
5.3049031387
 30
0.0
 10
4.3434028904
 20
5.3035752274
 30
0.0
 10
4.3449585464
 20
5.3009781214
 30
0.0
 10
4.3469190227
 20
5.2977921157
 30
0.0
 10
4.3484575894
 20
5.2953490214
 30
0.0
 10
4.349569921
 20
5.2936091756
 30
0.0
 10
4.350648745
 20
5.2919478042
 30
0.0
 10
4.3516848195
 20
5.2903776982
 30
0.0
 10
4.3526667003
 20
5.2889141867
 30
0.0
 10
4.3535806901
 20
5.2875761731
 30
0.0
 10
4.354410383
 20
5.2863857845
 30
0.0
 10
4.3550432907
 20
5.285498991
 30
0.0
 10
4.3554939141
 20
5.2848835588
 30
0.0
 10
4.3557815304
 20
5.2844986396
 30
0.0
 10
4.356032951
 20
5.2841708551
 30
0.0
 10
4.3562197013
 20
5.2839358463
 30
0.0
 10
4.3563495599
 20
5.2837795206
 30
0.0
 10
4.356430375
 20
5.2836858125
 30
0.0
 10
4.3565004284
 20
5.2836086278
 30
0.0
 10
4.3565595507
 20
5.2835479892
 30
0.0
 10
4.3566076162
 20
5.2835042064
 30
0.0
 10
4.3566414438
 20
5.2834786552
 30
0.0
 10
4.3566634918
 20
5.2834680029
 30
0.0
 10
4.3566755176
 20
5.2834650312
 30
0.0
 10
4.3566857653
 20
5.2834670101
 30
0.0
 10
4.3566898449
 20
5.2834719411
 30
0.0
 10
4.3566911673
 20
5.2834745704
 30
0.0
  0
SPLINE
  5
469
100
AcDbEntity
  8
ALL_ASSEMBLY_MEMBERS
100
AcDbSpline
 62
7
  6
CONTINUOUS
 70
0
 71
3
 72
9
 73
5
 74
0
 42
0.0000001
 43
0.0000001
 44
0.0000000001
 40
0.0
 40
0.0
 40
0.0
 40
0.0
 40
0.4816285391
 40
1.0
 40
1.0
 40
1.0
 40
1.0
 10
4.5516340269
 20
4.914891153
 30
0.0
 10
4.5525945936
 20
4.9128826955
 30
0.0
 10
4.554460595
 20
4.9086507315
 30
0.0
 10
4.5561214702
 20
4.9043350962
 30
0.0
 10
4.5569338329
 20
4.9020808181
 30
0.0
  0
SPLINE
  5
46A
100
AcDbEntity
  8
ALL_ASSEMBLY_MEMBERS
100
AcDbSpline
 62
7
  6
CONTINUOUS
 70
0
 71
3
 72
15
 73
11
 74
0
 42
0.0000001
 43
0.0000001
 44
0.0000000001
 40
0.0
 40
0.0
 40
0.0
 40
0.0
 40
0.1249670267
 40
0.2499810246
 40
0.37496886
 40
0.4999640837
 40
0.6249654221
 40
0.7499690441
 40
0.8750048404
 40
1.0
 40
1.0
 40
1.0
 40
1.0
 10
4.405017286
 20
4.6450866977
 30
0.0
 10
4.4101537854
 20
4.6492490005
 30
0.0
 10
4.4207798373
 20
4.6571523431
 30
0.0
 10
4.437645894
 20
4.6676370402
 30
0.0
 10
4.4553354734
 20
4.6766704711
 30
0.0
 10
4.4737251025
 20
4.6841749298
 30
0.0
 10
4.4926874322
 20
4.6900884687
 30
0.0
 10
4.512089882
 20
4.6943551473
 30
0.0
 10
4.5317870665
 20
4.6969273956
 30
0.0
 10
4.5450217697
 20
4.6975004604
 30
0.0
 10
4.5516344903
 20
4.6975007157
 30
0.0
  0
SPLINE
  5
46B
100
AcDbEntity
  8
ALL_ASSEMBLY_MEMBERS
100
AcDbSpline
 62
7
  6
CONTINUOUS
 70
0
 71
3
 72
25
 73
21
 74
0
 42
0.0000001
 43
0.0000001
 44
0.0000000001
 40
0.0
 40
0.0
 40
0.0
 40
0.0
 40
0.1829224467
 40
0.3576868809
 40
0.5213851029
 40
0.5979470029
 40
0.670259474
 40
0.7376011336
 40
0.7992315113
 40
0.8543056245
 40
0.9018853455
 40
0.9225730395
 40
0.9410442174
 40
0.9571907531
 40
0.9709055613
 40
0.9820854603
 40
0.9906647569
 40
0.9966201093
 40
0.9986219354
 40
1.0
 40
1.0
 40
1.0
 40
1.0
 10
4.3538231178
 20
5.3156634736
 30
0.0
 10
4.3550217861
 20
5.3148329084
 30
0.0
 10
4.3573745398
 20
5.3132215661
 30
0.0
 10
4.3608333495
 20
5.3109161367
 30
0.0
 10
4.3636124381
 20
5.3091203404
 30
0.0
 10
4.3657207436
 20
5.3077919055
 30
0.0
 10
4.3671863456
 20
5.3068845414
 30
0.0
 10
4.3685575674
 20
5.3060509732
 30
0.0
 10
4.3698180528
 20
5.3052999108
 30
0.0
 10
4.3709497956
 20
5.3046406956
 30
0.0
 10
4.3718052152
 20
5.3041557
 30
0.0
 10
4.3724109003
 20
5.3038220347
 30
0.0
 10
4.3727991165
 20
5.3036130071
 30
0.0
 10
4.3731405571
 20
5.3034343867
 30
0.0
 10
4.3734328518
 20
5.3032873787
 30
0.0
 10
4.3736739228
 20
5.3031726735
 30
0.0
 10
4.373862029
 20
5.3030914593
 30
0.0
 10
4.3739861873
 20
5.3030457863
 30
0.0
 10
4.3740586203
 20
5.3030289652
 30
0.0
 10
4.3740858347
 20
5.3030265493
 30
0.0
 10
4.3740967418
 20
5.3030278659
 30
0.0
  0
LINE
  5
46C
100
AcDbEntity
  8
ALL_ASSEMBLY_MEMBERS
100
AcDbLine
 62
7
  6
CONTINUOUS
 10
4.2014411976
 20
5.4991152778
 11
4.2262581828
 21
5.4928243504
  0
SPLINE
  5
46D
100
AcDbEntity
  8
ALL_ASSEMBLY_MEMBERS
100
AcDbSpline
 62
7
  6
CONTINUOUS
 70
0
 71
3
 72
11
 73
7
 74
0
 42
0.0000001
 43
0.0000001
 44
0.0000000001
 40
0.0
 40
0.0
 40
0.0
 40
0.0
 40
0.2504291769
 40
0.5006358276
 40
0.7504887852
 40
1.0
 40
1.0
 40
1.0
 40
1.0
 10
4.1316787648
 20
4.8731963874
 30
0.0
 10
4.1316883048
 20
4.8769588205
 30
0.0
 10
4.1329349844
 20
4.8845329947
 30
0.0
 10
4.1383000848
 20
4.8946669784
 30
0.0
 10
4.1465902927
 20
4.9025700216
 30
0.0
 10
4.1535333907
 20
4.9058032494
 30
0.0
 10
4.157142557
 20
4.9068163258
 30
0.0
  0
SPLINE
  5
46E
100
AcDbEntity
  8
ALL_ASSEMBLY_MEMBERS
100
AcDbSpline
 62
7
  6
CONTINUOUS
 70
0
 71
3
 72
11
 73
7
 74
0
 42
0.0000001
 43
0.0000001
 44
0.0000000001
 40
0.0
 40
0.0
 40
0.0
 40
0.0
 40
0.2530241099
 40
0.5044885576
 40
0.7534588235
 40
1.0
 40
1.0
 40
1.0
 40
1.0
 10
4.2007635118
 20
4.8731963085
 30
0.0
 10
4.2007727782
 20
4.8769559961
 30
0.0
 10
4.2019769335
 20
4.8845023759
 30
0.0
 10
4.2071721432
 20
4.8946263407
 30
0.0
 10
4.2152201933
 20
4.9025423678
 30
0.0
 10
4.2220006968
 20
4.9058000076
 30
0.0
 10
4.2255203157
 20
4.9068161539
 30
0.0
  0
SPLINE
  5
46F
100
AcDbEntity
  8
ALL_ASSEMBLY_MEMBERS
100
AcDbSpline
 62
7
  6
CONTINUOUS
 70
0
 71
3
 72
11
 73
7
 74
0
 42
0.0000001
 43
0.0000001
 44
0.0000000001
 40
0.0
 40
0.0
 40
0.0
 40
0.0
 40
0.2529755696
 40
0.5044681136
 40
0.7534780785
 40
1.0
 40
1.0
 40
1.0
 40
1.0
 10
4.201441169
 20
4.8731886979
 30
0.0
 10
4.201455801
 20
4.8769508126
 30
0.0
 10
4.2026721056
 20
4.8845013813
 30
0.0
 10
4.2078845123
 20
4.8946271991
 30
0.0
 10
4.2159468249
 20
4.902542725
 30
0.0
 10
4.2227352235
 20
4.9057989219
 30
0.0
 10
4.2262581818
 20
4.906813588
 30
0.0
  0
SPLINE
  5
470
100
AcDbEntity
  8
ALL_ASSEMBLY_MEMBERS
100
AcDbSpline
 62
7
  6
CONTINUOUS
 70
0
 71
3
 72
12
 73
8
 74
0
 42
0.0000001
 43
0.0000001
 44
0.0000000001
 40
0.0
 40
0.0
 40
0.0
 40
0.0
 40
0.2551076631
 40
0.381716843
 40
0.5075320413
 40
0.7562782054
 40
1.0
 40
1.0
 40
1.0
 40
1.0
 10
4.3395640253
 20
5.3247582039
 30
0.0
 10
4.3408208665
 20
5.3240585378
 30
0.0
 10
4.342668136
 20
5.3229517843
 30
0.0
 10
4.3450882435
 20
5.3214245408
 30
0.0
 10
4.3474639105
 20
5.3198940268
 30
0.0
 10
4.3503733416
 20
5.3179731274
 30
0.0
 10
4.352680989
 20
5.3164285555
 30
0.0
 10
4.3538231179
 20
5.3156642625
 30
0.0
  0
SPLINE
  5
471
100
AcDbEntity
  8
ALL_ASSEMBLY_MEMBERS
100
AcDbSpline
 62
7
  6
CONTINUOUS
 70
0
 71
3
 72
11
 73
7
 74
0
 42
0.0000001
 43
0.0000001
 44
0.0000000001
 40
0.0
 40
0.0
 40
0.0
 40
0.0
 40
0.2469486109
 40
0.4954828935
 40
0.7465308706
 40
1.0
 40
1.0
 40
1.0
 40
1.0
 10
4.2714513011
 20
4.7878284162
 30
0.0
 10
4.2678231503
 20
4.7878283829
 30
0.0
 10
4.2604868214
 20
4.7890613093
 30
0.0
 10
4.2506893276
 20
4.7944061137
 30
0.0
 10
4.2430451117
 20
4.802660417
 30
0.0
 10
4.2399095314
 20
4.8095371297
 30
0.0
 10
4.2389078499
 20
4.8131238323
 30
0.0
  0
SPLINE
  5
472
100
AcDbEntity
  8
ALL_ASSEMBLY_MEMBERS
100
AcDbSpline
 62
7
  6
CONTINUOUS
 70
0
 71
3
 72
11
 73
7
 74
0
 42
0.0000001
 43
0.0000001
 44
0.0000000001
 40
0.0
 40
0.0
 40
0.0
 40
0.0
 40
0.2495535118
 40
0.4993376717
 40
0.7494900337
 40
1.0
 40
1.0
 40
1.0
 40
1.0
 10
4.2049034697
 20
4.7878284162
 30
0.0
 10
4.201175297
 20
4.7878284162
 30
0.0
 10
4.1936598729
 20
4.7890529354
 30
0.0
 10
4.1835936359
 20
4.7943763469
 30
0.0
 10
4.1757187824
 20
4.8026201216
 30
0.0
 10
4.1724709255
 20
4.8095268164
 30
0.0
 10
4.1714378627
 20
4.8131238707
 30
0.0
  0
SPLINE
  5
473
100
AcDbEntity
  8
ALL_ASSEMBLY_MEMBERS
100
AcDbSpline
 62
7
  6
CONTINUOUS
 70
0
 71
3
 72
11
 73
7
 74
0
 42
0.0000001
 43
0.0000001
 44
0.0000000001
 40
0.0
 40
0.0
 40
0.0
 40
0.0
 40
0.2495519068
 40
0.4994241266
 40
0.7496163072
 40
1.0
 40
1.0
 40
1.0
 40
1.0
 10
4.2044063892
 20
4.787768646
 30
0.0
 10
4.2006766721
 20
4.7877776823
 30
0.0
 10
4.1931602582
 20
4.7890186343
 30
0.0
 10
4.1830943587
 20
4.7943539047
 30
0.0
 10
4.1752146742
 20
4.8025979291
 30
0.0
 10
4.1719579712
 20
4.8095019391
 30
0.0
 10
4.1709203115
 20
4.8130973559
 30
0.0
  0
SPLINE
  5
474
100
AcDbEntity
  8
ALL_ASSEMBLY_MEMBERS
100
AcDbSpline
 62
7
  6
CONTINUOUS
 70
0
 71
3
 72
15
 73
11
 74
0
 42
0.0000001
 43
0.0000001
 44
0.0000000001
 40
0.0
 40
0.0
 40
0.0
 40
0.0
 40
0.3300067396
 40
0.4842628358
 40
0.6258249609
 40
0.751130598
 40
0.8570539487
 40
0.9407428846
 40
0.9735516977
 40
1.0
 40
1.0
 40
1.0
 40
1.0
 10
4.2044063642
 20
4.6331874269
 30
0.0
 10
4.2007280923
 20
4.6328624755
 30
0.0
 10
4.1953284303
 20
4.6324081687
 30
0.0
 10
4.188346324
 20
4.6318719214
 30
0.0
 10
4.1836460647
 20
4.6315370231
 30
0.0
 10
4.1794833369
 20
4.631268463
 30
0.0
 10
4.1759649848
 20
4.63107272
 30
0.0
 10
4.1734783535
 20
4.6309655811
 30
0.0
 10
4.1718793392
 20
4.6309253405
 30
0.0
 10
4.1712162414
 20
4.6309195882
 30
0.0
 10
4.1709203056
 20
4.6309215445
 30
0.0
  0
SPLINE
  5
475
100
AcDbEntity
  8
ALL_ASSEMBLY_MEMBERS
100
AcDbSpline
 62
7
  6
CONTINUOUS
 70
0
 71
3
 72
13
 73
9
 74
0
 42
0.0000001
 43
0.0000001
 44
0.0000000001
 40
0.0
 40
0.0
 40
0.0
 40
0.0
 40
0.0791942334
 40
0.183439081
 40
0.3033202017
 40
0.4332678413
 40
0.7109594614
 40
1.0
 40
1.0
 40
1.0
 40
1.0
 10
4.3395616543
 20
4.3969911452
 30
0.0
 10
4.3384683293
 20
4.3961505777
 30
0.0
 10
4.3359460139
 20
4.3941903303
 30
0.0
 10
4.3317988026
 20
4.3909190276
 30
0.0
 10
4.3269975096
 20
4.3870502636
 30
0.0
 10
4.3199071862
 20
4.3812091562
 30
0.0
 10
4.3106775731
 20
4.3733333268
 30
0.0
 10
4.3033169562
 20
4.3667575946
 30
0.0
 10
4.2996002314
 20
4.3633633394
 30
0.0
  0
SPLINE
  5
476
100
AcDbEntity
  8
ALL_ASSEMBLY_MEMBERS
100
AcDbSpline
 62
7
  6
CONTINUOUS
 70
0
 71
3
 72
9
 73
5
 74
0
 42
0.0000001
 43
0.0000001
 44
0.0000000001
 40
0.0
 40
0.0
 40
0.0
 40
0.0
 40
0.4812203243
 40
1.0
 40
1.0
 40
1.0
 40
1.0
 10
4.3832731622
 20
4.7838983899
 30
0.0
 10
4.384632694
 20
4.7842365764
 30
0.0
 10
4.3873765912
 20
4.7852889222
 30
0.0
 10
4.3898427177
 20
4.7868711259
 30
0.0
 10
4.3910397085
 20
4.7877921276
 30
0.0
  0
SPLINE
  5
477
100
AcDbEntity
  8
ALL_ASSEMBLY_MEMBERS
100
AcDbSpline
 62
7
  6
CONTINUOUS
 70
0
 71
3
 72
18
 73
14
 74
0
 42
0.0000001
 43
0.0000001
 44
0.0000000001
 40
0.0
 40
0.0
 40
0.0
 40
0.0
 40
0.1768985585
 40
0.3458002766
 40
0.502345721
 40
0.6431952726
 40
0.7654195502
 40
0.8187954057
 40
0.8666512741
 40
0.9087639999
 40
0.9450231702
 40
0.9754011421
 40
1.0
 40
1.0
 40
1.0
 40
1.0
 10
4.3832731622
 20
4.6639601947
 30
0.0
 10
4.3844241964
 20
4.6626964045
 30
0.0
 10
4.3867021839
 20
4.6602512199
 30
0.0
 10
4.3900956342
 20
4.656779475
 30
0.0
 10
4.3933332343
 20
4.653644605
 30
0.0
 10
4.3963367158
 20
4.650919366
 30
0.0
 10
4.3986845386
 20
4.6489579261
 30
0.0
 10
4.4004019162
 20
4.647648488
 30
0.0
 10
4.4015329075
 20
4.6468481208
 30
0.0
 10
4.4025597608
 20
4.6461889222
 30
0.0
 10
4.403476591
 20
4.6456734642
 30
0.0
 10
4.4042778463
 20
4.6453036093
 30
0.0
 10
4.4047850138
 20
4.6451371398
 30
0.0
 10
4.4050173028
 20
4.6450866978
 30
0.0
  0
SPLINE
  5
478
100
AcDbEntity
  8
ALL_ASSEMBLY_MEMBERS
100
AcDbSpline
 62
7
  6
CONTINUOUS
 70
0
 71
3
 72
14
 73
10
 74
0
 42
0.0000001
 43
0.0000001
 44
0.0000000001
 40
0.0
 40
0.0
 40
0.0
 40
0.0
 40
0.0814890539
 40
0.1871897498
 40
0.3075143853
 40
0.4371577321
 40
0.7131028482
 40
0.8558732988
 40
1.0
 40
1.0
 40
1.0
 40
1.0
 10
4.320689693
 20
4.4125887533
 30
0.0
 10
4.3200881062
 20
4.4112642218
 30
0.0
 10
4.3187101227
 20
4.4082198275
 30
0.0
 10
4.3164729561
 20
4.403206552
 30
0.0
 10
4.3139160352
 20
4.3973946962
 30
0.0
 10
4.3101818824
 20
4.3887805662
 30
0.0
 10
4.3063623736
 20
4.3797668662
 30
0.0
 10
4.3025113534
 20
4.3704862308
 30
0.0
 10
4.300569143
 20
4.3657470363
 30
0.0
 10
4.2996003111
 20
4.3633634506
 30
0.0
  0
SPLINE
  5
479
100
AcDbEntity
  8
ALL_ASSEMBLY_MEMBERS
100
AcDbSpline
 62
7
  6
CONTINUOUS
 70
0
 71
3
 72
9
 73
5
 74
0
 42
0.0000001
 43
0.0000001
 44
0.0000000001
 40
0.0
 40
0.0
 40
0.0
 40
0.0
 40
0.4812210527
 40
1.0
 40
1.0
 40
1.0
 40
1.0
 10
4.3832731622
 20
4.9497582159
 30
0.0
 10
4.38463265
 20
4.949420047
 30
0.0
 10
4.3873764586
 20
4.9483677629
 30
0.0
 10
4.3898425207
 20
4.9467856505
 30
0.0
 10
4.3910394822
 20
4.9458647011
 30
0.0
  0
SPLINE
  5
47A
100
AcDbEntity
  8
ALL_ASSEMBLY_MEMBERS
100
AcDbSpline
 62
7
  6
CONTINUOUS
 70
0
 71
3
 72
18
 73
14
 74
0
 42
0.0000001
 43
0.0000001
 44
0.0000000001
 40
0.0
 40
0.0
 40
0.0
 40
0.0
 40
0.1768990597
 40
0.3458011106
 40
0.5023466822
 40
0.643196159
 40
0.7654201883
 40
0.8187958758
 40
0.8666515636
 40
0.9087641156
 40
0.9450231468
 40
0.9754010569
 40
1.0
 40
1.0
 40
1.0
 40
1.0
 10
4.3832731622
 20
5.0696966889
 30
0.0
 10
4.3844241993
 20
5.0709604835
 30
0.0
 10
4.3867021908
 20
5.0734056762
 30
0.0
 10
4.3900956455
 20
5.0768774312
 30
0.0
 10
4.3933332481
 20
5.0800123053
 30
0.0
 10
4.3963367318
 20
5.0827375405
 30
0.0
 10
4.3986845586
 20
5.0846989695
 30
0.0
 10
4.4004019413
 20
5.0860083921
 30
0.0
 10
4.4015329369
 20
5.086808745
 30
0.0
 10
4.4025597962
 20
5.0874679262
 30
0.0
 10
4.4034766341
 20
5.0879833639
 30
0.0
 10
4.4042778993
 20
5.0883531955
 30
0.0
 10
4.4047850744
 20
5.0885196445
 30
0.0
 10
4.4050173668
 20
5.0885700752
 30
0.0
  0
SPLINE
  5
47B
100
AcDbEntity
  8
ALL_ASSEMBLY_MEMBERS
100
AcDbSpline
 62
7
  6
CONTINUOUS
 70
0
 71
3
 72
15
 73
11
 74
0
 42
0.0000001
 43
0.0000001
 44
0.0000000001
 40
0.0
 40
0.0
 40
0.0
 40
0.0
 40
0.144125795
 40
0.2868928318
 40
0.4269674071
 40
0.562832172
 40
0.6924753109
 40
0.8128035465
 40
0.9185078125
 40
1.0
 40
1.0
 40
1.0
 40
1.0
 10
4.2996007138
 20
5.3702934213
 30
0.0
 10
4.3005689942
 20
5.3679096196
 30
0.0
 10
4.3025116321
 20
5.3631706646
 30
0.0
 10
4.3054329567
 20
5.3561304039
 30
0.0
 10
4.3083327681
 20
5.3492409765
 30
0.0
 10
4.3111763584
 20
5.3425821903
 30
0.0
 10
4.3139159301
 20
5.3362624052
 30
0.0
 10
4.316472779
 20
5.3304503602
 30
0.0
 10
4.3187101794
 20
5.3254369661
 30
0.0
 10
4.3200883608
 20
5.3223925179
 30
0.0
 10
4.3206899691
 20
5.3210679292
 30
0.0
  0
SPLINE
  5
47C
100
AcDbEntity
  8
ALL_ASSEMBLY_MEMBERS
100
AcDbSpline
 62
7
  6
CONTINUOUS
 70
0
 71
3
 72
11
 73
7
 74
0
 42
0.0000001
 43
0.0000001
 44
0.0000000001
 40
0.0
 40
0.0
 40
0.0
 40
0.0
 40
0.246945313
 40
0.4954783479
 40
0.7465276521
 40
1.0
 40
1.0
 40
1.0
 40
1.0
 10
4.2714513012
 20
4.9458284161
 30
0.0
 10
4.2678232941
 20
4.9458283766
 30
0.0
 10
4.2604872499
 20
4.9445953223
 30
0.0
 10
4.250690191
 20
4.9392504393
 30
0.0
 10
4.2430463024
 20
4.9309961844
 30
0.0
 10
4.2399108127
 20
4.92411959
 30
0.0
 10
4.2389091286
 20
4.9205329405
 30
0.0
  0
SPLINE
  5
47D
100
AcDbEntity
  8
ALL_ASSEMBLY_MEMBERS
100
AcDbSpline
 62
7
  6
CONTINUOUS
 70
0
 71
3
 72
11
 73
7
 74
0
 42
0.0000001
 43
0.0000001
 44
0.0000000001
 40
0.0
 40
0.0
 40
0.0
 40
0.0
 40
0.2495535119
 40
0.4993376718
 40
0.7494900338
 40
1.0
 40
1.0
 40
1.0
 40
1.0
 10
4.2049034697
 20
4.9458284161
 30
0.0
 10
4.201175297
 20
4.9458284161
 30
0.0
 10
4.193659873
 20
4.9446038968
 30
0.0
 10
4.183593636
 20
4.9392804852
 30
0.0
 10
4.1757187826
 20
4.9310367105
 30
0.0
 10
4.1724709257
 20
4.9241300158
 30
0.0
 10
4.171437863
 20
4.9205329615
 30
0.0
  0
SPLINE
  5
47E
100
AcDbEntity
  8
ALL_ASSEMBLY_MEMBERS
100
AcDbSpline
 62
7
  6
CONTINUOUS
 70
0
 71
3
 72
11
 73
7
 74
0
 42
0.0000001
 43
0.0000001
 44
0.0000000001
 40
0.0
 40
0.0
 40
0.0
 40
0.0
 40
0.2495518983
 40
0.499424115
 40
0.7496162977
 40
1.0
 40
1.0
 40
1.0
 40
1.0
 10
4.2044063642
 20
4.9458881789
 30
0.0
 10
4.2006766494
 20
4.9458791411
 30
0.0
 10
4.1931602407
 20
4.9446381875
 30
0.0
 10
4.1830943483
 20
4.9393029189
 30
0.0
 10
4.1752146682
 20
4.9310588998
 30
0.0
 10
4.1719579658
 20
4.9241548946
 30
0.0
 10
4.1709203056
 20
4.9205594801
 30
0.0
  0
SPLINE
  5
47F
100
AcDbEntity
  8
ALL_ASSEMBLY_MEMBERS
100
AcDbSpline
 62
7
  6
CONTINUOUS
 70
0
 71
3
 72
15
 73
11
 74
0
 42
0.0000001
 43
0.0000001
 44
0.0000000001
 40
0.0
 40
0.0
 40
0.0
 40
0.0
 40
0.3300067759
 40
0.4842628921
 40
0.6258250311
 40
0.7511306717
 40
0.8570540123
 40
0.9407429231
 40
0.9735517183
 40
1.0
 40
1.0
 40
1.0
 40
1.0
 10
4.2044063892
 20
5.1004695354
 30
0.0
 10
4.2007281148
 20
5.1007944828
 30
0.0
 10
4.1953284491
 20
5.1012487841
 30
0.0
 10
4.1883463381
 20
5.101785024
 30
0.0
 10
4.1836460756
 20
5.1021199168
 30
0.0
 10
4.1794833454
 20
5.1023884711
 30
0.0
 10
4.1759649916
 20
5.1025842079
 30
0.0
 10
4.1734783595
 20
5.1026913409
 30
0.0
 10
4.1718793449
 20
5.1027315762
 30
0.0
 10
4.1712162472
 20
5.1027373257
 30
0.0
 10
4.1709203115
 20
5.1027353679
 30
0.0
  0
SPLINE
  5
480
100
AcDbEntity
  8
ALL_ASSEMBLY_MEMBERS
100
AcDbSpline
 62
7
  6
CONTINUOUS
 70
0
 71
3
 72
13
 73
9
 74
0
 42
0.0000001
 43
0.0000001
 44
0.0000000001
 40
0.0
 40
0.0
 40
0.0
 40
0.0
 40
0.289036987
 40
0.5667221829
 40
0.6966692642
 40
0.8165536227
 40
0.9208028182
 40
1.0
 40
1.0
 40
1.0
 40
1.0
 10
4.2996007746
 20
5.370293381
 30
0.0
 10
4.303316736
 20
5.3668984332
 30
0.0
 10
4.3106781085
 20
5.3603238859
 30
0.0
 10
4.3199070986
 20
5.3524477639
 30
0.0
 10
4.3269973536
 20
5.3466067695
 30
0.0
 10
4.3317987818
 20
5.3427380468
 30
0.0
 10
4.3359461138
 20
5.3394666603
 30
0.0
 10
4.3384684651
 20
5.3375062877
 30
0.0
 10
4.3395618175
 20
5.3366656871
 30
0.0
  0
SPLINE
  5
481
100
AcDbEntity
  8
ALL_ASSEMBLY_MEMBERS
100
AcDbSpline
 62
7
  6
CONTINUOUS
 70
0
 71
3
 72
34
 73
30
 74
0
 42
0.0000001
 43
0.0000001
 44
0.0000000001
 40
0.0
 40
0.0
 40
0.0
 40
0.0
 40
0.0971120275
 40
0.1933061403
 40
0.2876376262
 40
0.3791983433
 40
0.4671017146
 40
0.5504989441
 40
0.6285846272
 40
0.7006100649
 40
0.7658888353
 40
0.8238109886
 40
0.8498479935
 40
0.8738582707
 40
0.8957935781
 40
0.9156131494
 40
0.9332864124
 40
0.9487942293
 40
0.9621348422
 40
0.9679988045
 40
0.9733325836
 40
0.9781461573
 40
0.9824541577
 40
0.9862782131
 40
0.9896511214
 40
0.9926222724
 40
0.9952640502
 40
0.9976789412
 40
1.0
 40
1.0
 40
1.0
 40
1.0
 10
4.131678766
 20
4.6271425299
 30
0.0
 10
4.1309466551
 20
4.6347431919
 30
0.0
 10
4.1295604675
 20
4.6498796225
 30
0.0
 10
4.127711347
 20
4.6724209488
 30
0.0
 10
4.126113665
 20
4.6945439224
 30
0.0
 10
4.1247828435
 20
4.7160314734
 30
0.0
 10
4.1237316313
 20
4.7366737465
 30
0.0
 10
4.1229698898
 20
4.7562685162
 30
0.0
 10
4.1225045881
 20
4.7746238171
 30
0.0
 10
4.1223393179
 20
4.791559783
 30
0.0
 10
4.1224748908
 20
4.8069106315
 30
0.0
 10
4.1228467892
 20
4.8186407649
 30
0.0
 10
4.1233129396
 20
4.8271178636
 30
0.0
 10
4.1237235667
 20
4.8327632268
 30
0.0
 10
4.1242061886
 20
4.8379121703
 30
0.0
 10
4.1247594866
 20
4.8425526688
 30
0.0
 10
4.1253815339
 20
4.8466742871
 30
0.0
 10
4.1260706252
 20
4.8502678235
 30
0.0
 10
4.1267230932
 20
4.8529201991
 30
0.0
 10
4.1272892077
 20
4.854765228
 30
0.0
 10
4.1277112677
 20
4.8559518482
 30
0.0
 10
4.1281489322
 20
4.857001527
 30
0.0
 10
4.1286021287
 20
4.8579139967
 30
0.0
 10
4.129070982
 20
4.8586891629
 30
0.0
 10
4.129556031
 20
4.8593271236
 30
0.0
 10
4.1300583002
 20
4.8598279979
 30
0.0
 10
4.1305799564
 20
4.8601907726
 30
0.0
 10
4.1311221708
 20
4.8604116162
 30
0.0
 10
4.1314963352
 20
4.8604604464
 30
0.0
 10
4.1316788382
 20
4.860460504
 30
0.0
  0
SPLINE
  5
482
100
AcDbEntity
  8
ALL_ASSEMBLY_MEMBERS
100
AcDbSpline
 62
7
  6
CONTINUOUS
 70
0
 71
3
 72
11
 73
7
 74
0
 42
0.0000001
 43
0.0000001
 44
0.0000000001
 40
0.0
 40
0.0
 40
0.0
 40
0.0
 40
0.2483207512
 40
0.5030618553
 40
0.756242365
 40
1.0
 40
1.0
 40
1.0
 40
1.0
 10
4.3426167775
 20
5.3049031304
 30
0.0
 10
4.3433596826
 20
5.3059617881
 30
0.0
 10
4.3449789614
 20
5.3080279669
 30
0.0
 10
4.3476928481
 20
5.3108899721
 30
0.0
 10
4.3506437665
 20
5.3134710087
 30
0.0
 10
4.3527512073
 20
5.3149827009
 30
0.0
 10
4.3538224681
 20
5.3156639907
 30
0.0
  0
SPLINE
  5
483
100
AcDbEntity
  8
ALL_ASSEMBLY_MEMBERS
100
AcDbSpline
 62
7
  6
CONTINUOUS
 70
0
 71
3
 72
11
 73
7
 74
0
 42
0.0000001
 43
0.0000001
 44
0.0000000001
 40
0.0
 40
0.0
 40
0.0
 40
0.0
 40
0.251472845
 40
0.5037190345
 40
0.7540977038
 40
1.0
 40
1.0
 40
1.0
 40
1.0
 10
4.3341378302
 20
5.3184896784
 30
0.0
 10
4.3345663898
 20
5.3190369768
 30
0.0
 10
4.3354355359
 20
5.3201249783
 30
0.0
 10
4.336779727
 20
5.3217184978
 30
0.0
 10
4.3381536364
 20
5.3232658239
 30
0.0
 10
4.339089401
 20
5.3242692589
 30
0.0
 10
4.3395614791
 20
5.3247583099
 30
0.0
  0
SPLINE
  5
484
100
AcDbEntity
  8
ALL_ASSEMBLY_MEMBERS
100
AcDbSpline
 62
7
  6
CONTINUOUS
 70
0
 71
3
 72
15
 73
11
 74
0
 42
0.0000001
 43
0.0000001
 44
0.0000000001
 40
0.0
 40
0.0
 40
0.0
 40
0.0
 40
0.1232706622
 40
0.2482789556
 40
0.3740509597
 40
0.5000004163
 40
0.6259497898
 40
0.7517215438
 40
0.8767295639
 40
1.0
 40
1.0
 40
1.0
 40
1.0
 10
4.3206893868
 20
5.3210680493
 30
0.0
 10
4.3209577338
 20
5.3221065227
 30
0.0
 10
4.3216740985
 20
5.3241561971
 30
0.0
 10
4.3232167986
 20
5.3270357823
 30
0.0
 10
4.3251997276
 20
5.329663037
 30
0.0
 10
4.3275745046
 20
5.3319533363
 30
0.0
 10
4.3302709873
 20
5.333854389
 30
0.0
 10
4.3332246118
 20
5.3353071594
 30
0.0
 10
4.336343162
 20
5.3362800611
 30
0.0
 10
4.3384910552
 20
5.3365976752
 30
0.0
 10
4.3395614791
 20
5.3366656871
 30
0.0
  0
LINE
  5
485
100
AcDbEntity
  8
ALL_ASSEMBLY_MEMBERS
100
AcDbLine
 62
7
  6
CONTINUOUS
 10
4.201441169
 20
4.234541547
 11
4.2007635107
 21
4.2371395986
  0
SPLINE
  5
486
100
AcDbEntity
  8
ALL_ASSEMBLY_MEMBERS
100
AcDbSpline
 62
7
  6
CONTINUOUS
 70
0
 71
3
 72
11
 73
7
 74
0
 42
0.0000001
 43
0.0000001
 44
0.0000000001
 40
0.0
 40
0.0
 40
0.0
 40
0.0
 40
0.2484549634
 40
0.4999997448
 40
0.7515449095
 40
1.0
 40
1.0
 40
1.0
 40
1.0
 10
4.3206897576
 20
4.4125887657
 30
0.0
 10
4.3212288748
 20
4.4105019059
 30
0.0
 10
4.3230129917
 20
4.4064537955
 30
0.0
 10
4.3274141633
 20
4.4015090246
 30
0.0
 10
4.333098992
 20
4.3981172894
 30
0.0
 10
4.337410601
 20
4.3971271121
 30
0.0
 10
4.3395616417
 20
4.3969905111
 30
0.0
  0
SPLINE
  5
487
100
AcDbEntity
  8
ALL_ASSEMBLY_MEMBERS
100
AcDbSpline
 62
7
  6
CONTINUOUS
 70
0
 71
3
 72
15
 73
11
 74
0
 42
0.0000001
 43
0.0000001
 44
0.0000000001
 40
0.0
 40
0.0
 40
0.0
 40
0.0
 40
0.0791205069
 40
0.1736038467
 40
0.2834208334
 40
0.4073860741
 40
0.5436736879
 40
0.689890438
 40
0.8432261683
 40
1.0
 40
1.0
 40
1.0
 40
1.0
 10
4.3206896983
 20
4.4125887301
 30
0.0
 10
4.3210554986
 20
4.4122219047
 30
0.0
 10
4.3219746848
 20
4.4115337614
 30
0.0
 10
4.323639808
 20
4.4107020645
 30
0.0
 10
4.3256768982
 20
4.4100008052
 30
0.0
 10
4.3280380675
 20
4.4094434059
 30
0.0
 10
4.3306718707
 20
4.4090442463
 30
0.0
 10
4.3335180932
 20
4.40881175
 30
0.0
 10
4.3365070426
 20
4.4087544083
 30
0.0
 10
4.3385373209
 20
4.4088311602
 30
0.0
 10
4.3395615636
 20
4.4088989506
 30
0.0
  0
SPLINE
  5
488
100
AcDbEntity
  8
ALL_ASSEMBLY_MEMBERS
100
AcDbSpline
 62
7
  6
CONTINUOUS
 70
0
 71
3
 72
11
 73
7
 74
0
 42
0.0000001
 43
0.0000001
 44
0.0000000001
 40
0.0
 40
0.0
 40
0.0
 40
0.0
 40
0.2483192734
 40
0.5030612098
 40
0.7562429769
 40
1.0
 40
1.0
 40
1.0
 40
1.0
 10
4.3426168481
 20
4.4287538191
 30
0.0
 10
4.3433598489
 20
4.4276951474
 30
0.0
 10
4.3449793393
 20
4.4256289468
 30
0.0
 10
4.3476935497
 20
4.4227669333
 30
0.0
 10
4.3506447781
 20
4.4201858991
 30
0.0
 10
4.352752405
 20
4.4186742077
 30
0.0
 10
4.3538237484
 20
4.417992918
 30
0.0
  0
SPLINE
  5
489
100
AcDbEntity
  8
ALL_ASSEMBLY_MEMBERS
100
AcDbSpline
 62
7
  6
CONTINUOUS
 70
0
 71
3
 72
51
 73
47
 74
0
 42
0.0000001
 43
0.0000001
 44
0.0000000001
 40
0.0
 40
0.0
 40
0.0
 40
0.0
 40
0.0000116038
 40
0.0000371867
 40
0.0000783559
 40
0.0001354175
 40
0.0002975831
 40
0.0005240584
 40
0.0008149643
 40
0.0011703627
 40
0.0015902923
 40
0.0020747578
 40
0.0032368978
 40
0.0046558511
 40
0.0063306368
 40
0.0082602634
 40
0.0104437337
 40
0.012880047
 40
0.0155682007
 40
0.0185071908
 40
0.0251320659
 40
0.0327393379
 40
0.041312394
 40
0.050834618
 40
0.06128866
 40
0.0726521188
 40
0.0849004626
 40
0.0980091515
 40
0.1267044502
 40
0.1585007706
 40
0.1931423382
 40
0.2303456868
 40
0.2698096389
 40
0.3112129018
 40
0.3542181295
 40
0.3984764409
 40
0.4436272658
 40
0.5351355696
 40
0.6257695877
 40
0.7125837159
 40
0.7927556521
 40
0.8636793281
 40
0.9230636481
 40
0.9689970568
 40
0.9864388974
 40
1.0
 40
1.0
 40
1.0
 40
1.0
 10
4.5113649567
 20
4.8732857645
 30
0.0
 10
4.5113649569
 20
4.8732845658
 30
0.0
 10
4.5113608429
 20
4.8732820994
 30
0.0
 10
4.511353647
 20
4.8732801917
 30
0.0
 10
4.511340764
 20
4.8732775768
 30
0.0
 10
4.5113143036
 20
4.8732739638
 30
0.0
 10
4.511268304
 20
4.8732695893
 30
0.0
 10
4.5111983369
 20
4.8732647582
 30
0.0
 10
4.5111082721
 20
4.8732598761
 30
0.0
 10
4.510998237
 20
4.8732550076
 30
0.0
 10
4.5108681748
 20
4.8732501552
 30
0.0
 10
4.5106547933
 20
4.8732433036
 30
0.0
 10
4.5103381958
 20
4.8732350823
 30
0.0
 10
4.5098986212
 20
4.8732258067
 30
0.0
 10
4.5093797402
 20
4.8732166642
 30
0.0
 10
4.5087818654
 20
4.8732076613
 30
0.0
 10
4.5081053078
 20
4.8731988109
 30
0.0
 10
4.5073503796
 20
4.8731901181
 30
0.0
 10
4.5065173929
 20
4.8731815862
 30
0.0
 10
4.5052516984
 20
4.8731699614
 30
0.0
 10
4.5034778134
 20
4.8731560916
 30
0.0
 10
4.5011218735
 20
4.873140661
 30
0.0
 10
4.4984666013
 20
4.8731258723
 30
0.0
 10
4.495517224
 20
4.8731117284
 30
0.0
 10
4.4922795663
 20
4.8730982378
 30
0.0
 10
4.4887602705
 20
4.8730853929
 30
0.0
 10
4.4849667212
 20
4.8730731859
 30
0.0
 10
4.4793826343
 20
4.8730572708
 30
0.0
 10
4.4717790576
 20
4.8730392701
 30
0.0
 10
4.4619509305
 20
4.8730206312
 30
0.0
 10
4.4512438373
 20
4.8730043293
 30
0.0
 10
4.4397446026
 20
4.8729902976
 30
0.0
 10
4.4275468189
 20
4.872978472
 30
0.0
 10
4.414749645
 20
4.8729688007
 30
0.0
 10
4.4014571677
 20
4.8729612423
 30
0.0
 10
4.3877775312
 20
4.8729557575
 30
0.0
 10
4.3690870746
 20
4.872951148
 30
0.0
 10
4.3456055745
 20
4.8729504735
 30
0.0
 10
4.3178198678
 20
4.872957488
 30
0.0
 10
4.2912053166
 20
4.8729723923
 30
0.0
 10
4.2666270342
 20
4.8729954279
 30
0.0
 10
4.2448825163
 20
4.8730266242
 30
0.0
 10
4.2266751812
 20
4.8730666376
 30
0.0
 10
4.2139930353
 20
4.87310922
 30
0.0
 10
4.2060449062
 20
4.87315185
 30
0.0
 10
4.2028420942
 20
4.8731754088
 30
0.0
 10
4.201441169
 20
4.8731886979
 30
0.0
  0
SPLINE
  5
48A
100
AcDbEntity
  8
ALL_ASSEMBLY_MEMBERS
100
AcDbSpline
 62
7
  6
CONTINUOUS
 70
0
 71
3
 72
9
 73
5
 74
0
 42
0.0000001
 43
0.0000001
 44
0.0000000001
 40
0.0
 40
0.0
 40
0.0
 40
0.0
 40
0.5018132915
 40
1.0
 40
1.0
 40
1.0
 40
1.0
 10
4.5926728443
 20
4.8135784162
 30
0.0
 10
4.5867394395
 20
4.8166765732
 30
0.0
 10
4.5748825902
 20
4.8227877987
 30
0.0
 10
4.5629254811
 20
4.8287021952
 30
0.0
 10
4.5569338378
 20
4.8315760132
 30
0.0
  0
SPLINE
  5
48B
100
AcDbEntity
  8
ALL_ASSEMBLY_MEMBERS
100
AcDbSpline
 62
7
  6
CONTINUOUS
 70
0
 71
3
 72
13
 73
9
 74
0
 42
0.0000001
 43
0.0000001
 44
0.0000000001
 40
0.0
 40
0.0
 40
0.0
 40
0.0
 40
0.2538616637
 40
0.3803725849
 40
0.5062559766
 40
0.631219714
 40
0.7552000904
 40
1.0
 40
1.0
 40
1.0
 40
1.0
 10
4.5569338378
 20
4.8315760132
 30
0.0
 10
4.5530559314
 20
4.833444939
 30
0.0
 10
4.5470620427
 20
4.8358720034
 30
0.0
 10
4.5389102331
 20
4.8385641118
 30
0.0
 10
4.5327692732
 20
4.8403669545
 30
0.0
 10
4.5266283079
 20
4.8420080293
 30
0.0
 10
4.5184933702
 20
4.8439906325
 30
0.0
 10
4.5123766282
 20
4.8452980379
 30
0.0
 10
4.5083060192
 20
4.8461115747
 30
0.0
  0
SPLINE
  5
48C
100
AcDbEntity
  8
ALL_ASSEMBLY_MEMBERS
100
AcDbSpline
 62
7
  6
CONTINUOUS
 70
0
 71
3
 72
30
 73
26
 74
0
 42
0.0000001
 43
0.0000001
 44
0.0000000001
 40
0.0
 40
0.0
 40
0.0
 40
0.0
 40
0.0630513954
 40
0.126091964
 40
0.1891220605
 40
0.2521531606
 40
0.3151785409
 40
0.3781934528
 40
0.4411932191
 40
0.5041680138
 40
0.5356491104
 40
0.5671184213
 40
0.5985731352
 40
0.6300097731
 40
0.661422928
 40
0.6928053938
 40
0.7554278545
 40
0.7866539776
 40
0.8177946329
 40
0.8488276339
 40
0.8797257297
 40
0.9104557802
 40
0.9409419629
 40
0.9709085377
 40
1.0
 40
1.0
 40
1.0
 40
1.0
 10
4.3568517638
 20
4.4625468189
 30
0.0
 10
4.3571189611
 20
4.46940939
 30
0.0
 10
4.3582516429
 20
4.4831176597
 30
0.0
 10
4.3617376598
 20
4.5034456787
 30
0.0
 10
4.3669811214
 20
4.5233920372
 30
0.0
 10
4.3739408924
 20
4.54280409
 30
0.0
 10
4.3825630324
 20
4.5615352336
 30
0.0
 10
4.3927786391
 20
4.5794434426
 30
0.0
 10
4.4045074437
 20
4.5963913702
 30
0.0
 10
4.4154650192
 20
4.6096154223
 30
0.0
 10
4.424884743
 20
4.6195902985
 30
0.0
 10
4.4322616268
 20
4.6267588414
 30
0.0
 10
4.4399351395
 20
4.6336013808
 30
0.0
 10
4.4478896795
 20
4.6401053604
 30
0.0
 10
4.4561064614
 20
4.6462618391
 30
0.0
 10
4.4673759226
 20
4.6539887853
 30
0.0
 10
4.47910434
 20
4.6609899053
 30
0.0
 10
4.4911978534
 20
4.6672481447
 30
0.0
 10
4.5004138602
 20
4.6715633865
 30
0.0
 10
4.5097575133
 20
4.6755026648
 30
0.0
 10
4.5191993405
 20
4.679075411
 30
0.0
 10
4.5287062129
 20
4.6822897546
 30
0.0
 10
4.5382210865
 20
4.6851431283
 30
0.0
 10
4.5476312359
 20
4.6877103792
 30
0.0
 10
4.5538623854
 20
4.689308863
 30
0.0
 10
4.556933835
 20
4.6900880371
 30
0.0
  0
LINE
  5
48D
100
AcDbEntity
  8
ALL_ASSEMBLY_MEMBERS
100
AcDbLine
 62
7
  6
CONTINUOUS
 10
4.4860512079
 20
4.823575934
 11
4.4866831178
 21
4.8235477258
  0
SPLINE
  5
48E
100
AcDbEntity
  8
ALL_ASSEMBLY_MEMBERS
100
AcDbSpline
 62
7
  6
CONTINUOUS
 70
0
 71
3
 72
14
 73
10
 74
0
 42
0.0000001
 43
0.0000001
 44
0.0000000001
 40
0.0
 40
0.0
 40
0.0
 40
0.0
 40
0.1211525665
 40
0.2437339142
 40
0.3676024887
 40
0.4926116285
 40
0.6185620223
 40
0.7452364051
 40
1.0
 40
1.0
 40
1.0
 40
1.0
 10
4.4866831178
 20
4.8235477258
 30
0.0
 10
4.4893113497
 20
4.8234299891
 30
0.0
 10
4.4945983484
 20
4.8231827093
 30
0.0
 10
4.5025706563
 20
4.8227768434
 30
0.0
 10
4.5106246734
 20
4.8223303343
 30
0.0
 10
4.5187497053
 20
4.8218447175
 30
0.0
 10
4.5269315984
 20
4.821289933
 30
0.0
 10
4.5379137324
 20
4.8204005513
 30
0.0
 10
4.5461526048
 20
4.8195106108
 30
0.0
 10
4.5516344955
 20
4.8187656676
 30
0.0
  0
SPLINE
  5
48F
100
AcDbEntity
  8
ALL_ASSEMBLY_MEMBERS
100
AcDbSpline
 62
7
  6
CONTINUOUS
 70
0
 71
3
 72
15
 73
11
 74
0
 42
0.0000001
 43
0.0000001
 44
0.0000000001
 40
0.0
 40
0.0
 40
0.0
 40
0.0
 40
0.1250606656
 40
0.2501224809
 40
0.3751791817
 40
0.5002094876
 40
0.6252037751
 40
0.7501663965
 40
0.8750930199
 40
1.0
 40
1.0
 40
1.0
 40
1.0
 10
4.4360525851
 20
4.299627923
 30
0.0
 10
4.4348517546
 20
4.304128575
 30
0.0
 10
4.4317179988
 20
4.3129527535
 30
0.0
 10
4.4249536624
 20
4.3252471838
 30
0.0
 10
4.4162938582
 20
4.3362923386
 30
0.0
 10
4.4059613065
 20
4.3457870732
 30
0.0
 10
4.3942225863
 20
4.3534704302
 30
0.0
 10
4.3813857007
 20
4.3591261417
 30
0.0
 10
4.3677980397
 20
4.3625858731
 30
0.0
 10
4.3584742141
 20
4.3633624111
 30
0.0
 10
4.3538218419
 20
4.363363293
 30
0.0
  0
SPLINE
  5
490
100
AcDbEntity
  8
ALL_ASSEMBLY_MEMBERS
100
AcDbSpline
 62
7
  6
CONTINUOUS
 70
0
 71
3
 72
19
 73
15
 74
0
 42
0.0000001
 43
0.0000001
 44
0.0000000001
 40
0.0
 40
0.0
 40
0.0
 40
0.0
 40
0.0625372592
 40
0.125073568
 40
0.1876103751
 40
0.250147422
 40
0.3751169341
 40
0.4376538345
 40
0.5001902765
 40
0.5627258126
 40
0.6252581929
 40
0.7502022305
 40
0.8751209545
 40
1.0
 40
1.0
 40
1.0
 40
1.0
 10
4.3529911457
 20
5.5420734114
 30
0.0
 10
4.3506708413
 20
5.5420504358
 30
0.0
 10
4.34602987
 20
5.5418139797
 30
0.0
 10
4.3391229243
 20
5.5408893182
 30
0.0
 10
4.3323144703
 20
5.5393991588
 30
0.0
 10
4.3234361823
 20
5.5366792768
 30
0.0
 10
4.3149219182
 20
5.532869642
 30
0.0
 10
4.3069743398
 20
5.5280678481
 30
0.0
 10
4.3013245209
 20
5.5239872687
 30
0.0
 10
4.2960261501
 20
5.5194602773
 30
0.0
 10
4.2894830664
 20
5.5128724363
 30
0.0
 10
4.2823428317
 20
5.5036698499
 30
0.0
 10
4.2756828301
 20
5.4913990527
 30
0.0
 10
4.2726192826
 20
5.4826005883
 30
0.0
 10
4.2714513011
 20
5.4781166267
 30
0.0
  0
SPLINE
  5
491
100
AcDbEntity
  8
ALL_ASSEMBLY_MEMBERS
100
AcDbSpline
 62
7
  6
CONTINUOUS
 70
0
 71
3
 72
23
 73
19
 74
0
 42
0.0000001
 43
0.0000001
 44
0.0000000001
 40
0.0
 40
0.0
 40
0.0
 40
0.0
 40
0.0625289118
 40
0.1250575156
 40
0.187587108
 40
0.2501164372
 40
0.3126449388
 40
0.3751710429
 40
0.4376899377
 40
0.5002006131
 40
0.5627021715
 40
0.6251953899
 40
0.6876810524
 40
0.7501596833
 40
0.8126288977
 40
0.8750897398
 40
0.9375541891
 40
1.0
 40
1.0
 40
1.0
 40
1.0
 10
4.4685455872
 20
4.3082899721
 30
0.0
 10
4.4677081538
 20
4.3114292015
 30
0.0
 10
4.4657784131
 20
4.3176428309
 30
0.0
 10
4.4621396272
 20
4.3266961891
 30
0.0
 10
4.4577775526
 20
4.3354247975
 30
0.0
 10
4.4527241619
 20
4.3437720461
 30
0.0
 10
4.4470083272
 20
4.3516803712
 30
0.0
 10
4.440669347
 20
4.3590977583
 30
0.0
 10
4.4337487851
 20
4.3659745669
 30
0.0
 10
4.4262899755
 20
4.3722615384
 30
0.0
 10
4.4183443484
 20
4.3779185416
 30
0.0
 10
4.409962197
 20
4.3829035278
 30
0.0
 10
4.4012007694
 20
4.3871843017
 30
0.0
 10
4.3921176456
 20
4.3907285408
 30
0.0
 10
4.382774767
 20
4.3935124402
 30
0.0
 10
4.3732341524
 20
4.3955139956
 30
0.0
 10
4.3635627888
 20
4.3967207413
 30
0.0
 10
4.3570692866
 20
4.3969904141
 30
0.0
 10
4.3538245961
 20
4.3969908282
 30
0.0
  0
SPLINE
  5
492
100
AcDbEntity
  8
ALL_ASSEMBLY_MEMBERS
100
AcDbSpline
 62
7
  6
CONTINUOUS
 70
0
 71
3
 72
17
 73
13
 74
0
 42
0.0000001
 43
0.0000001
 44
0.0000000001
 40
0.0
 40
0.0
 40
0.0
 40
0.0
 40
0.0625691345
 40
0.1251365082
 40
0.250169959
 40
0.3751912171
 40
0.5001864395
 40
0.6251499025
 40
0.7500880781
 40
0.8750054013
 40
0.9375070832
 40
1.0
 40
1.0
 40
1.0
 40
1.0
 10
4.3477330595
 20
4.1436467047
 30
0.0
 10
4.3442716568
 20
4.1438068465
 30
0.0
 10
4.337358024
 20
4.1443995243
 30
0.0
 10
4.3236789952
 20
4.1466663526
 30
0.0
 10
4.306975641
 20
4.1515103601
 30
0.0
 10
4.2881053562
 20
4.1603877349
 30
0.0
 10
4.2708578327
 20
4.1721075618
 30
0.0
 10
4.255660321
 20
4.1863785649
 30
0.0
 10
4.2428794817
 20
4.2028401375
 30
0.0
 10
4.2344967276
 20
4.2180603206
 30
0.0
 10
4.2292803013
 20
4.2308916075
 30
0.0
 10
4.2271785159
 20
4.2374962101
 30
0.0
 10
4.2262581817
 20
4.2408324812
 30
0.0
  0
SPLINE
  5
493
100
AcDbEntity
  8
ALL_ASSEMBLY_MEMBERS
100
AcDbSpline
 62
7
  6
CONTINUOUS
 70
0
 71
3
 72
20
 73
16
 74
0
 42
0.0000001
 43
0.0000001
 44
0.0000000001
 40
0.0
 40
0.0
 40
0.0
 40
0.0
 40
0.0625307521
 40
0.1250605741
 40
0.187590893
 40
0.2501214117
 40
0.3126516897
 40
0.3751829623
 40
0.4377133311
 40
0.5002432979
 40
0.5627722863
 40
0.6252982011
 40
0.7502289607
 40
0.8751343272
 40
1.0
 40
1.0
 40
1.0
 40
1.0
 10
4.3526754898
 20
5.5756996205
 30
0.0
 10
4.3494398627
 20
5.575668007
 30
0.0
 10
4.3429681127
 20
5.5753396245
 30
0.0
 10
4.3333359053
 20
5.574053502
 30
0.0
 10
4.3238412949
 20
5.5719805439
 30
0.0
 10
4.3145478264
 20
5.5691391972
 30
0.0
 10
4.3055188712
 20
5.5655443911
 30
0.0
 10
4.2968141684
 20
5.5612235216
 30
0.0
 10
4.2884913901
 20
5.5562060069
 30
0.0
 10
4.280608095
 20
5.5505235219
 30
0.0
 10
4.2732132627
 20
5.5442178578
 30
0.0
 10
4.2640802388
 20
5.5350400963
 30
0.0
 10
4.2541117394
 20
5.5222160277
 30
0.0
 10
4.2448132335
 20
5.5051105238
 30
0.0
 10
4.240537196
 20
5.4928421835
 30
0.0
 10
4.2389087985
 20
5.4865893131
 30
0.0
  0
SPLINE
  5
494
100
AcDbEntity
  8
ALL_ASSEMBLY_MEMBERS
100
AcDbSpline
 62
7
  6
CONTINUOUS
 70
0
 71
3
 72
22
 73
18
 74
0
 42
0.0000001
 43
0.0000001
 44
0.0000000001
 40
0.0
 40
0.0
 40
0.0
 40
0.0
 40
0.0625033049
 40
0.1250068977
 40
0.187510902
 40
0.2500153625
 40
0.3125211004
 40
0.3750262779
 40
0.4375317681
 40
0.5000381654
 40
0.5625466129
 40
0.625056356
 40
0.6875607526
 40
0.7500598285
 40
0.8125684077
 40
0.8751036123
 40
1.0
 40
1.0
 40
1.0
 40
1.0
 10
4.4807293904
 20
5.4196458468
 30
0.0
 10
4.4797259408
 20
5.4162489251
 30
0.0
 10
4.477447386
 20
5.4095318826
 30
0.0
 10
4.4732370984
 20
5.3997637625
 30
0.0
 10
4.4682638477
 20
5.3903602766
 30
0.0
 10
4.4625555888
 20
5.381383919
 30
0.0
 10
4.4561497974
 20
5.3728912301
 30
0.0
 10
4.4490875489
 20
5.3649358697
 30
0.0
 10
4.4414105955
 20
5.357571884
 30
0.0
 10
4.4331703758
 20
5.3508438295
 30
0.0
 10
4.4244163341
 20
5.3447988011
 30
0.0
 10
4.4152057566
 20
5.3394756437
 30
0.0
 10
4.4055987354
 20
5.3349074363
 30
0.0
 10
4.3956551412
 20
5.3311285044
 30
0.0
 10
4.3854369291
 20
5.3281605235
 30
0.0
 10
4.3715500058
 20
5.3253204732
 30
0.0
 10
4.3609024132
 20
5.3244578027
 30
0.0
 10
4.3538245962
 20
5.3244571588
 30
0.0
  0
SPLINE
  5
495
100
AcDbEntity
  8
ALL_ASSEMBLY_MEMBERS
100
AcDbSpline
 62
7
  6
CONTINUOUS
 70
0
 71
3
 72
15
 73
11
 74
0
 42
0.0000001
 43
0.0000001
 44
0.0000000001
 40
0.0
 40
0.0
 40
0.0
 40
0.0
 40
0.0894130084
 40
0.178435092
 40
0.2664767311
 40
0.3529024348
 40
0.6678676294
 40
0.7958529805
 40
0.8963609241
 40
1.0
 40
1.0
 40
1.0
 40
1.0
 10
5.051654228
 20
5.1788308662
 30
0.0
 10
5.0494019657
 20
5.1773810129
 30
0.0
 10
5.044873366
 20
5.1745398854
 30
0.0
 10
5.0380088553
 20
5.1704634372
 30
0.0
 10
5.0311168757
 20
5.166612816
 30
0.0
 10
5.0181267311
 20
5.1598139806
 30
0.0
 10
5.0035677604
 20
5.153407489
 30
0.0
 10
4.9881193041
 20
5.1482475077
 30
0.0
 10
4.9785296276
 20
5.1455820145
 30
0.0
 10
4.9725627865
 20
5.1442272295
 30
0.0
 10
4.9695184453
 20
5.1436177592
 30
0.0
  0
SPLINE
  5
496
100
AcDbEntity
  8
ALL_ASSEMBLY_MEMBERS
100
AcDbSpline
 62
7
  6
CONTINUOUS
 70
0
 71
3
 72
15
 73
11
 74
0
 42
0.0000001
 43
0.0000001
 44
0.0000000001
 40
0.0
 40
0.0
 40
0.0
 40
0.0
 40
0.167801683
 40
0.3321787396
 40
0.4898738431
 40
0.637494145
 40
0.7704593902
 40
0.8820322185
 40
0.9624329979
 40
1.0
 40
1.0
 40
1.0
 40
1.0
 10
5.051654228
 20
5.1788308662
 30
0.0
 10
5.0566863265
 20
5.1820701888
 30
0.0
 10
5.066483616
 20
5.1887406256
 30
0.0
 10
5.0804841761
 20
5.1991990126
 30
0.0
 10
5.0935258551
 20
5.209717317
 30
0.0
 10
5.1053863409
 20
5.2199017954
 30
0.0
 10
5.115763741
 20
5.2292803335
 30
0.0
 10
5.1242040788
 20
5.2372223078
 30
0.0
 10
5.1300843849
 20
5.2429182458
 30
0.0
 10
5.1330804335
 20
5.2458720565
 30
0.0
 10
5.1340325999
 20
5.2468146472
 30
0.0
  0
SPLINE
  5
497
100
AcDbEntity
  8
ALL_ASSEMBLY_MEMBERS
100
AcDbSpline
 62
7
  6
CONTINUOUS
 70
0
 71
3
 72
10
 73
6
 74
0
 42
0.0000001
 43
0.0000001
 44
0.0000000001
 40
0.0
 40
0.0
 40
0.0
 40
0.0
 40
0.3226795887
 40
0.6225601041
 40
1.0
 40
1.0
 40
1.0
 40
1.0
 10
5.129654228
 20
4.4933200773
 30
0.0
 10
5.1351327098
 20
4.4890942282
 30
0.0
 10
5.1455071406
 20
4.4806849838
 30
0.0
 10
5.1616100948
 20
4.4665208655
 30
0.0
 10
5.1721403783
 20
4.4565119718
 30
0.0
 10
5.1779019341
 20
4.4508284161
 30
0.0
  0
SPLINE
  5
498
100
AcDbEntity
  8
ALL_ASSEMBLY_MEMBERS
100
AcDbSpline
 62
7
  6
CONTINUOUS
 70
0
 71
3
 72
11
 73
7
 74
0
 42
0.0000001
 43
0.0000001
 44
0.0000000001
 40
0.0
 40
0.0
 40
0.0
 40
0.0
 40
0.1202471712
 40
0.3582149869
 40
0.6651883386
 40
1.0
 40
1.0
 40
1.0
 40
1.0
 10
5.0815379116
 20
4.5248014063
 30
0.0
 10
5.0835737374
 20
4.5237157469
 30
0.0
 10
5.0895992057
 20
4.5204076551
 30
0.0
 10
5.1005686754
 20
4.5138744818
 30
0.0
 10
5.1146465595
 20
4.5045477487
 30
0.0
 10
5.124567538
 20
4.4972437163
 30
0.0
 10
5.129654228
 20
4.4933200773
 30
0.0
  0
SPLINE
  5
499
100
AcDbEntity
  8
ALL_ASSEMBLY_MEMBERS
100
AcDbSpline
 62
7
  6
CONTINUOUS
 70
0
 71
3
 72
14
 73
10
 74
0
 42
0.0000001
 43
0.0000001
 44
0.0000000001
 40
0.0
 40
0.0
 40
0.0
 40
0.0
 40
0.0554441525
 40
0.1232486656
 40
0.2112387938
 40
0.3224275269
 40
0.4578445402
 40
0.6172110948
 40
1.0
 40
1.0
 40
1.0
 40
1.0
 10
5.8012365916
 20
4.5104906866
 30
0.0
 10
5.8012677831
 20
4.5104941547
 30
0.0
 10
5.8013397941
 20
4.51048247
 30
0.0
 10
5.8014403286
 20
4.5104137922
 30
0.0
 10
5.8015414676
 20
4.5103005489
 30
0.0
 10
5.8016457243
 20
4.5101418703
 30
0.0
 10
5.8017526957
 20
4.5099382254
 30
0.0
 10
5.801907469
 20
4.509587096
 30
0.0
 10
5.8020104673
 20
4.5092975949
 30
0.0
 10
5.802078401
 20
4.5090918457
 30
0.0
  0
SPLINE
  5
49A
100
AcDbEntity
  8
ALL_ASSEMBLY_MEMBERS
100
AcDbSpline
 62
7
  6
CONTINUOUS
 70
0
 71
3
 72
11
 73
7
 74
0
 42
0.0000001
 43
0.0000001
 44
0.0000000001
 40
0.0
 40
0.0
 40
0.0
 40
0.0
 40
0.15605347
 40
0.3656305727
 40
0.6470321484
 40
1.0
 40
1.0
 40
1.0
 40
1.0
 10
5.8024769662
 20
5.0220572776
 30
0.0
 10
5.8025342874
 20
5.0220549792
 30
0.0
 10
5.8026654031
 20
5.0219951301
 30
0.0
 10
5.80281207
 20
5.0218032922
 30
0.0
 10
5.8029508788
 20
5.0215251906
 30
0.0
 10
5.8030278754
 20
5.0213044073
 30
0.0
 10
5.8030663896
 20
5.0211804995
 30
0.0
  0
SPLINE
  5
49B
100
AcDbEntity
  8
ALL_ASSEMBLY_MEMBERS
100
AcDbSpline
 62
7
  6
CONTINUOUS
 70
0
 71
3
 72
11
 73
7
 74
0
 42
0.0000001
 43
0.0000001
 44
0.0000000001
 40
0.0
 40
0.0
 40
0.0
 40
0.0
 40
0.1948448131
 40
0.4179212199
 40
0.684316684
 40
1.0
 40
1.0
 40
1.0
 40
1.0
 10
5.8193255688
 20
5.1075977709
 30
0.0
 10
5.8192612923
 20
5.1076009058
 30
0.0
 10
5.81912122
 20
5.1075760842
 30
0.0
 10
5.8189230257
 20
5.1074619213
 30
0.0
 10
5.8187263753
 20
5.1072808923
 30
0.0
 10
5.8186055197
 20
5.1071306674
 30
0.0
 10
5.8185441
 20
5.1070464153
 30
0.0
  0
LINE
  5
49C
100
AcDbEntity
  8
ALL_ASSEMBLY_MEMBERS
100
AcDbLine
 62
7
  6
CONTINUOUS
 10
5.8074029612
 20
5.0935372711
 11
5.8068668286
 21
5.0933795048
  0
LINE
  5
49D
100
AcDbEntity
  8
ALL_ASSEMBLY_MEMBERS
100
AcDbLine
 62
7
  6
CONTINUOUS
 10
5.8068668286
 20
5.0933795048
 11
5.8062030579
 21
5.0927180247
  0
SPLINE
  5
49E
100
AcDbEntity
  8
ALL_ASSEMBLY_MEMBERS
100
AcDbSpline
 62
7
  6
CONTINUOUS
 70
0
 71
3
 72
14
 73
10
 74
0
 42
0.0000001
 43
0.0000001
 44
0.0000000001
 40
0.0
 40
0.0
 40
0.0
 40
0.0
 40
0.0679878905
 40
0.1451297321
 40
0.2379322367
 40
0.350004233
 40
0.4829277413
 40
0.6363728914
 40
1.0
 40
1.0
 40
1.0
 40
1.0
 10
5.8191334224
 20
5.1198837177
 30
0.0
 10
5.8192412092
 20
5.1198780506
 30
0.0
 10
5.8194702172
 20
5.1198157701
 30
0.0
 10
5.8197809133
 20
5.1195917667
 30
0.0
 10
5.820072661
 20
5.1192484275
 30
0.0
 10
5.8203491351
 20
5.1187870221
 30
0.0
 10
5.8206109726
 20
5.1182101954
 30
0.0
 10
5.8209626834
 20
5.1172393498
 30
0.0
 10
5.8211734437
 20
5.1164443273
 30
0.0
 10
5.8213052152
 20
5.1158822837
 30
0.0
  0
SPLINE
  5
49F
100
AcDbEntity
  8
ALL_ASSEMBLY_MEMBERS
100
AcDbSpline
 62
7
  6
CONTINUOUS
 70
0
 71
3
 72
13
 73
9
 74
0
 42
0.0000001
 43
0.0000001
 44
0.0000000001
 40
0.0
 40
0.0
 40
0.0
 40
0.0
 40
0.0804849435
 40
0.1670000005
 40
0.2646705814
 40
0.3768572242
 40
0.6517379633
 40
1.0
 40
1.0
 40
1.0
 40
1.0
 10
5.8077011593
 20
5.1067452648
 30
0.0
 10
5.8077759351
 20
5.1067415331
 30
0.0
 10
5.8079308089
 20
5.1067105027
 30
0.0
 10
5.8081512161
 20
5.1065951897
 30
0.0
 10
5.8083626909
 20
5.1064156759
 30
0.0
 10
5.808653834
 20
5.1060693489
 30
0.0
 10
5.8089874985
 20
5.1054664375
 30
0.0
 10
5.8091944965
 20
5.1049240754
 30
0.0
 10
5.80929696
 20
5.1046167447
 30
0.0
  0
LINE
  5
4A0
100
AcDbEntity
  8
ALL_ASSEMBLY_MEMBERS
100
AcDbLine
 62
7
  6
CONTINUOUS
 10
5.8042464447
 20
4.2397187765
 11
5.8067200193
 21
4.2266347657
  0
LINE
  5
4A1
100
AcDbEntity
  8
ALL_ASSEMBLY_MEMBERS
100
AcDbLine
 62
7
  6
CONTINUOUS
 10
5.8019773158
 20
5.4826766046
 11
5.8013563342
 21
5.4795104958
  0
LINE
  5
4A2
100
AcDbEntity
  8
ALL_ASSEMBLY_MEMBERS
100
AcDbLine
 62
7
  6
CONTINUOUS
 10
5.8013563342
 20
5.4795104958
 11
5.8010853793
 21
5.4781340697
  0
LINE
  5
4A3
100
AcDbEntity
  8
ALL_ASSEMBLY_MEMBERS
100
AcDbLine
 62
7
  6
CONTINUOUS
 10
5.8052534323
 20
5.4900875928
 11
5.8032198135
 21
5.4805037624
  0
LINE
  5
4A4
100
AcDbEntity
  8
ALL_ASSEMBLY_MEMBERS
100
AcDbLine
 62
7
  6
CONTINUOUS
 10
5.8032198135
 20
5.4805037624
 11
5.801557881
 21
5.4736608232
  0
LINE
  5
4A5
100
AcDbEntity
  8
ALL_ASSEMBLY_MEMBERS
100
AcDbLine
 62
7
  6
CONTINUOUS
 10
5.801557881
 20
5.4736608232
 11
5.8012588654
 21
5.4727717993
  0
LINE
  5
4A6
100
AcDbEntity
  8
ALL_ASSEMBLY_MEMBERS
100
AcDbLine
 62
7
  6
CONTINUOUS
 10
5.8012588654
 20
5.4727717993
 11
5.8010811089
 21
5.4725098132
  0
LINE
  5
4A7
100
AcDbEntity
  8
ALL_ASSEMBLY_MEMBERS
100
AcDbLine
 62
7
  6
CONTINUOUS
 10
5.8134288221
 20
5.5321433576
 11
5.8052534323
 21
5.4900875928
  0
LINE
  5
4A8
100
AcDbEntity
  8
ALL_ASSEMBLY_MEMBERS
100
AcDbLine
 62
7
  6
CONTINUOUS
 10
5.8208187717
 20
5.5735494856
 11
5.8134288221
 21
5.5321433576
  0
SPLINE
  5
4A9
100
AcDbEntity
  8
ALL_ASSEMBLY_MEMBERS
100
AcDbSpline
 62
7
  6
CONTINUOUS
 70
0
 71
3
 72
18
 73
14
 74
0
 42
0.0000001
 43
0.0000001
 44
0.0000000001
 40
0.0
 40
0.0
 40
0.0
 40
0.0
 40
0.0053261242
 40
0.0169020144
 40
0.0356853588
 40
0.0620251564
 40
0.0961738641
 40
0.1383558918
 40
0.2476662246
 40
0.3909390856
 40
0.5660709538
 40
0.7700855802
 40
1.0
 40
1.0
 40
1.0
 40
1.0
 10
5.8232220898
 20
5.5902946663
 30
0.0
 10
5.8232359421
 20
5.5902920429
 30
0.0
 10
5.8232572444
 20
5.5902412287
 30
0.0
 10
5.8232653023
 20
5.5901538389
 30
0.0
 10
5.8232700167
 20
5.5900000905
 30
0.0
 10
5.8232619729
 20
5.589791902
 30
0.0
 10
5.8232442
 20
5.589520084
 30
0.0
 10
5.8232006908
 20
5.5890308742
 30
0.0
 10
5.823113218
 20
5.5882552574
 30
0.0
 10
5.822967281
 20
5.5871325871
 30
0.0
 10
5.8227745596
 20
5.5857631614
 30
0.0
 10
5.8225381232
 20
5.5841683819
 30
0.0
 10
5.8223633481
 20
5.5830331177
 30
0.0
 10
5.8222694651
 20
5.5824318084
 30
0.0
  0
LINE
  5
4AA
100
AcDbEntity
  8
ALL_ASSEMBLY_MEMBERS
100
AcDbLine
 62
7
  6
CONTINUOUS
 10
5.8189688907
 20
5.4036014382
 11
5.8050134786
 21
5.3471514653
  0
SPLINE
  5
4AB
100
AcDbEntity
  8
ALL_ASSEMBLY_MEMBERS
100
AcDbSpline
 62
7
  6
CONTINUOUS
 70
0
 71
3
 72
12
 73
8
 74
0
 42
0.0000001
 43
0.0000001
 44
0.0000000001
 40
0.0
 40
0.0
 40
0.0
 40
0.0
 40
0.094368952
 40
0.2013228422
 40
0.4433708379
 40
0.712321417
 40
1.0
 40
1.0
 40
1.0
 40
1.0
 10
5.80929696
 20
5.1046167447
 30
0.0
 10
5.809428982
 20
5.1042207563
 30
0.0
 10
5.8096722922
 20
5.1033632574
 30
0.0
 10
5.8101118684
 20
5.1014516598
 30
0.0
 10
5.8105880402
 20
5.0987586485
 30
0.0
 10
5.8110863303
 20
5.0952610721
 30
0.0
 10
5.8113807506
 20
5.0928164325
 30
0.0
 10
5.8115240989
 20
5.0915520608
 30
0.0
  0
SPLINE
  5
4AC
100
AcDbEntity
  8
ALL_ASSEMBLY_MEMBERS
100
AcDbSpline
 62
7
  6
CONTINUOUS
 70
0
 71
3
 72
11
 73
7
 74
0
 42
0.0000001
 43
0.0000001
 44
0.0000000001
 40
0.0
 40
0.0
 40
0.0
 40
0.0
 40
0.3136575875
 40
0.579516824
 40
0.8032857473
 40
1.0
 40
1.0
 40
1.0
 40
1.0
 10
5.8056304388
 20
5.0384741901
 30
0.0
 10
5.8055136111
 20
5.0383145214
 30
0.0
 10
5.8052832187
 20
5.0380293508
 30
0.0
 10
5.8049075177
 20
5.0376854758
 30
0.0
 10
5.8045268955
 20
5.0374683798
 30
0.0
 10
5.804257528
 20
5.0374220717
 30
0.0
 10
5.8041336147
 20
5.0374285262
 30
0.0
  0
SPLINE
  5
4AD
100
AcDbEntity
  8
ALL_ASSEMBLY_MEMBERS
100
AcDbSpline
 62
7
  6
CONTINUOUS
 70
0
 71
3
 72
12
 73
8
 74
0
 42
0.0000001
 43
0.0000001
 44
0.0000000001
 40
0.0
 40
0.0
 40
0.0
 40
0.0
 40
0.3169850106
 40
0.5957352768
 40
0.8260520357
 40
0.9204467549
 40
1.0
 40
1.0
 40
1.0
 40
1.0
 10
5.8088762337
 20
5.0478684999
 30
0.0
 10
5.8086406282
 20
5.0468400329
 30
0.0
 10
5.8081694902
 20
5.0449131526
 30
0.0
 10
5.8073940919
 20
5.0422744156
 30
0.0
 10
5.8066891629
 20
5.0403889085
 30
0.0
 10
5.806091897
 20
5.0391819899
 30
0.0
 10
5.8057868027
 20
5.0386878929
 30
0.0
 10
5.8056304388
 20
5.0384741901
 30
0.0
  0
SPLINE
  5
4AE
100
AcDbEntity
  8
ALL_ASSEMBLY_MEMBERS
100
AcDbSpline
 62
7
  6
CONTINUOUS
 70
0
 71
3
 72
10
 73
6
 74
0
 42
0.0000001
 43
0.0000001
 44
0.0000000001
 40
0.0
 40
0.0
 40
0.0
 40
0.0
 40
0.5253812447
 40
0.7725527893
 40
1.0
 40
1.0
 40
1.0
 40
1.0
 10
5.8110553947
 20
5.0609255989
 30
0.0
 10
5.8107439732
 20
5.0586277225
 30
0.0
 10
5.8102589376
 20
5.0552519587
 30
0.0
 10
5.8095132659
 20
5.0509014953
 30
0.0
 10
5.8091004015
 20
5.0488470388
 30
0.0
 10
5.8088762337
 20
5.0478684999
 30
0.0
  0
SPLINE
  5
4AF
100
AcDbEntity
  8
ALL_ASSEMBLY_MEMBERS
100
AcDbSpline
 62
7
  6
CONTINUOUS
 70
0
 71
3
 72
11
 73
7
 74
0
 42
0.0000001
 43
0.0000001
 44
0.0000000001
 40
0.0
 40
0.0
 40
0.0
 40
0.0
 40
0.3138285974
 40
0.578027067
 40
0.80143109
 40
1.0
 40
1.0
 40
1.0
 40
1.0
 10
5.8177172325
 20
5.0579036063
 30
0.0
 10
5.817626178
 20
5.0577791565
 30
0.0
 10
5.8174459502
 20
5.0575583595
 30
0.0
 10
5.8171493114
 20
5.0572958268
 30
0.0
 10
5.816848769
 20
5.0571341309
 30
0.0
 10
5.8166388083
 20
5.0570999392
 30
0.0
 10
5.8165413081
 20
5.0571036053
 30
0.0
  0
LINE
  5
4B0
100
AcDbEntity
  8
ALL_ASSEMBLY_MEMBERS
100
AcDbLine
 62
7
  6
CONTINUOUS
 10
5.8210690318
 20
5.0706686218
 11
5.8204720043
 21
5.0667294174
  0
SPLINE
  5
4B1
100
AcDbEntity
  8
ALL_ASSEMBLY_MEMBERS
100
AcDbSpline
 62
7
  6
CONTINUOUS
 70
0
 71
3
 72
12
 73
8
 74
0
 42
0.0000001
 43
0.0000001
 44
0.0000000001
 40
0.0
 40
0.0
 40
0.0
 40
0.0
 40
0.3360328102
 40
0.6183181806
 40
0.8386766806
 40
0.9262144535
 40
1.0
 40
1.0
 40
1.0
 40
1.0
 10
5.8204720043
 20
5.0667294174
 30
0.0
 10
5.8202931917
 20
5.0657026306
 30
0.0
 10
5.8199254893
 20
5.0638192513
 30
0.0
 10
5.8192723283
 20
5.0612998313
 30
0.0
 10
5.818651143
 20
5.0595720108
 30
0.0
 10
5.8181197269
 20
5.0585127742
 30
0.0
 10
5.8178523666
 20
5.0580883024
 30
0.0
 10
5.8177172325
 20
5.0579036063
 30
0.0
  0
SPLINE
  5
4B2
100
AcDbEntity
  8
ALL_ASSEMBLY_MEMBERS
100
AcDbSpline
 62
7
  6
CONTINUOUS
 70
0
 71
3
 72
10
 73
6
 74
0
 42
0.0000001
 43
0.0000001
 44
0.0000000001
 40
0.0
 40
0.0
 40
0.0
 40
0.0
 40
0.5025766887
 40
0.7562440957
 40
1.0
 40
1.0
 40
1.0
 40
1.0
 10
5.822538829
 20
5.0949386158
 30
0.0
 10
5.8224938195
 20
5.0908634883
 30
0.0
 10
5.8223229905
 20
5.0847306803
 30
0.0
 10
5.8217574637
 20
5.0766403757
 30
0.0
 10
5.8213284439
 20
5.0726281328
 30
0.0
 10
5.8210690318
 20
5.0706686218
 30
0.0
  0
SPLINE
  5
4B3
100
AcDbEntity
  8
ALL_ASSEMBLY_MEMBERS
100
AcDbSpline
 62
7
  6
CONTINUOUS
 70
0
 71
3
 72
11
 73
7
 74
0
 42
0.0000001
 43
0.0000001
 44
0.0000000001
 40
0.0
 40
0.0
 40
0.0
 40
0.0
 40
0.1977177757
 40
0.4357084312
 40
0.7058745791
 40
1.0
 40
1.0
 40
1.0
 40
1.0
 10
5.8213052152
 20
5.1158822837
 30
0.0
 10
5.8214947649
 20
5.1150737998
 30
0.0
 10
5.8218106898
 20
5.113268684
 30
0.0
 10
5.8221436331
 20
5.1103219674
 30
0.0
 10
5.8223718291
 20
5.1069592241
 30
0.0
 10
5.8224596714
 20
5.1045905963
 30
0.0
 10
5.8224919033
 20
5.1033557019
 30
0.0
  0
LINE
  5
4B4
100
AcDbEntity
  8
ALL_ASSEMBLY_MEMBERS
100
AcDbLine
 62
7
  6
CONTINUOUS
 10
5.8224919033
 20
5.1033557019
 11
5.822538829
 21
5.0949386158
  0
SPLINE
  5
4B5
100
AcDbEntity
  8
ALL_ASSEMBLY_MEMBERS
100
AcDbSpline
 62
7
  6
CONTINUOUS
 70
0
 71
3
 72
13
 73
9
 74
0
 42
0.0000001
 43
0.0000001
 44
0.0000000001
 40
0.0
 40
0.0
 40
0.0
 40
0.0
 40
0.346824145
 40
0.6221696184
 40
0.7345019233
 40
0.8322432235
 40
0.9191136718
 40
1.0
 40
1.0
 40
1.0
 40
1.0
 10
5.8034607886
 20
4.9752824148
 30
0.0
 10
5.8036011937
 20
4.9749064132
 30
0.0
 10
5.8038816049
 20
4.97424222
 30
0.0
 10
5.8043197735
 20
4.9735066014
 30
0.0
 10
5.8046962824
 20
4.9730870552
 30
0.0
 10
5.8049675682
 20
4.9728726431
 30
0.0
 10
5.805246397
 20
4.9727370453
 30
0.0
 10
5.8054397887
 20
4.9726998023
 30
0.0
 10
5.8055332745
 20
4.972695071
 30
0.0
  0
SPLINE
  5
4B6
100
AcDbEntity
  8
ALL_ASSEMBLY_MEMBERS
100
AcDbSpline
 62
7
  6
CONTINUOUS
 70
0
 71
3
 72
11
 73
7
 74
0
 42
0.0000001
 43
0.0000001
 44
0.0000000001
 40
0.0
 40
0.0
 40
0.0
 40
0.0
 40
0.3202587353
 40
0.5996594736
 40
0.8258223089
 40
1.0
 40
1.0
 40
1.0
 40
1.0
 10
5.8017515861
 20
4.9882519904
 30
0.0
 10
5.8017683067
 20
4.986849918
 30
0.0
 10
5.8018566027
 20
4.984224617
 30
0.0
 10
5.8021955012
 20
4.980621867
 30
0.0
 10
5.8027091178
 20
4.9776867983
 30
0.0
 10
5.8031940165
 20
4.9759968242
 30
0.0
 10
5.8034607886
 20
4.9752824148
 30
0.0
  0
LINE
  5
4B7
100
AcDbEntity
  8
ALL_ASSEMBLY_MEMBERS
100
AcDbLine
 62
7
  6
CONTINUOUS
 10
5.803090865
 20
5.0075096357
 11
5.8022275217
 21
4.9988618997
  0
LINE
  5
4B8
100
AcDbEntity
  8
ALL_ASSEMBLY_MEMBERS
100
AcDbLine
 62
7
  6
CONTINUOUS
 10
5.8035221044
 20
5.0157745277
 11
5.803090865
 21
5.0075096357
  0
SPLINE
  5
4B9
100
AcDbEntity
  8
ALL_ASSEMBLY_MEMBERS
100
AcDbSpline
 62
7
  6
CONTINUOUS
 70
0
 71
3
 72
12
 73
8
 74
0
 42
0.0000001
 43
0.0000001
 44
0.0000000001
 40
0.0
 40
0.0
 40
0.0
 40
0.0
 40
0.0834291719
 40
0.1842214672
 40
0.4261009548
 40
0.70320465
 40
1.0
 40
1.0
 40
1.0
 40
1.0
 10
5.8030663896
 20
5.0211804995
 30
0.0
 10
5.8031112809
 20
5.0210360751
 30
0.0
 10
5.8031898828
 20
5.0207108902
 30
0.0
 10
5.8033209365
 20
5.019949433
 30
0.0
 10
5.8034336763
 20
5.0188303488
 30
0.0
 10
5.8035050308
 20
5.0173529922
 30
0.0
 10
5.8035199724
 20
5.0163125537
 30
0.0
 10
5.8035221044
 20
5.0157745277
 30
0.0
  0
SPLINE
  5
4BA
100
AcDbEntity
  8
ALL_ASSEMBLY_MEMBERS
100
AcDbSpline
 62
7
  6
CONTINUOUS
 70
0
 71
3
 72
12
 73
8
 74
0
 42
0.0000001
 43
0.0000001
 44
0.0000000001
 40
0.0
 40
0.0
 40
0.0
 40
0.0
 40
0.310784393
 40
0.5133200274
 40
0.6919339288
 40
0.8513828127
 40
1.0
 40
1.0
 40
1.0
 40
1.0
 10
5.8090315749
 20
4.962684863
 30
0.0
 10
5.8088634619
 20
4.9624536016
 30
0.0
 10
5.8085661177
 20
4.9620844888
 30
0.0
 10
5.8081007283
 20
4.9616475684
 30
0.0
 10
5.8076868271
 20
4.9613668197
 30
0.0
 10
5.8072677514
 20
4.961197672
 30
0.0
 10
5.8069810266
 20
4.9611672205
 30
0.0
 10
5.8068444857
 20
4.9611742488
 30
0.0
  0
SPLINE
  5
4BB
100
AcDbEntity
  8
ALL_ASSEMBLY_MEMBERS
100
AcDbSpline
 62
7
  6
CONTINUOUS
 70
0
 71
3
 72
13
 73
9
 74
0
 42
0.0000001
 43
0.0000001
 44
0.0000000001
 40
0.0
 40
0.0
 40
0.0
 40
0.0
 40
0.3339645726
 40
0.6176635346
 40
0.73692562
 40
0.8400524895
 40
0.9273749504
 40
1.0
 40
1.0
 40
1.0
 40
1.0
 10
5.8141846857
 20
4.9807732616
 30
0.0
 10
5.8138691471
 20
4.9786891782
 30
0.0
 10
5.8132155161
 20
4.9748448187
 30
0.0
 10
5.8121728295
 20
4.9703066506
 30
0.0
 10
5.81123186
 20
4.9672526732
 30
0.0
 10
5.8105405161
 20
4.9654223563
 30
0.0
 10
5.8098290332
 20
4.9639199851
 30
0.0
 10
5.8093010983
 20
4.9630556277
 30
0.0
 10
5.8090315749
 20
4.962684863
 30
0.0
  0
SPLINE
  5
4BC
100
AcDbEntity
  8
ALL_ASSEMBLY_MEMBERS
100
AcDbSpline
 62
7
  6
CONTINUOUS
 70
0
 71
3
 72
12
 73
8
 74
0
 42
0.0000001
 43
0.0000001
 44
0.0000000001
 40
0.0
 40
0.0
 40
0.0
 40
0.0
 40
0.2557121679
 40
0.5124278796
 40
0.7651856919
 40
0.8863073913
 40
1.0
 40
1.0
 40
1.0
 40
1.0
 10
5.8166919471
 20
5.022089756
 30
0.0
 10
5.8166309004
 20
5.0185599822
 30
0.0
 10
5.8164688345
 20
5.0114870913
 30
0.0
 10
5.8160523614
 20
5.0009308792
 30
0.0
 10
5.8154903705
 20
4.992241133
 30
0.0
 10
5.8148334878
 20
4.9855413556
 30
0.0
 10
5.8144196536
 20
4.9823251881
 30
0.0
 10
5.8141846857
 20
4.9807732616
 30
0.0
  0
LINE
  5
4BD
100
AcDbEntity
  8
ALL_ASSEMBLY_MEMBERS
100
AcDbLine
 62
7
  6
CONTINUOUS
 10
5.8050134786
 20
4.763192393
 11
5.8189688907
 21
4.750396223
  0
LINE
  5
4BE
100
AcDbEntity
  8
ALL_ASSEMBLY_MEMBERS
100
AcDbLine
 62
7
  6
CONTINUOUS
 10
5.8177278331
 20
4.5363330508
 11
5.822629091
 21
4.5120666345
  0
SPLINE
  5
4BF
100
AcDbEntity
  8
ALL_ASSEMBLY_MEMBERS
100
AcDbSpline
 62
7
  6
CONTINUOUS
 70
0
 71
3
 72
15
 73
11
 74
0
 42
0.0000001
 43
0.0000001
 44
0.0000000001
 40
0.0
 40
0.0
 40
0.0
 40
0.0
 40
0.2028086995
 40
0.3854253927
 40
0.5456993844
 40
0.6817211162
 40
0.7928027493
 40
0.8801376219
 40
0.9467700066
 40
1.0
 40
1.0
 40
1.0
 40
1.0
 10
5.8072137373
 20
4.4492298022
 30
0.0
 10
5.8073599282
 20
4.4487850545
 30
0.0
 10
5.8076485081
 20
4.4479432858
 30
0.0
 10
5.8080970977
 20
4.4467658842
 30
0.0
 10
5.8085365951
 20
4.4457509106
 30
0.0
 10
5.8089644832
 20
4.444912632
 30
0.0
 10
5.8093791617
 20
4.4442591977
 30
0.0
 10
5.8097792905
 20
4.4437930956
 30
0.0
 10
5.8101711155
 20
4.4435049703
 30
0.0
 10
5.8104566967
 20
4.4434501484
 30
0.0
 10
5.8105788234
 20
4.4434636862
 30
0.0
  0
SPLINE
  5
4C0
100
AcDbEntity
  8
ALL_ASSEMBLY_MEMBERS
100
AcDbSpline
 62
7
  6
CONTINUOUS
 70
0
 71
3
 72
10
 73
6
 74
0
 42
0.0000001
 43
0.0000001
 44
0.0000000001
 40
0.0
 40
0.0
 40
0.0
 40
0.0
 40
0.5612879089
 40
0.7979191537
 40
1.0
 40
1.0
 40
1.0
 40
1.0
 10
5.8034607886
 20
4.465731701
 30
0.0
 10
5.8039661226
 20
4.4626033219
 30
0.0
 10
5.8047917861
 20
4.458170115
 30
0.0
 10
5.8061520215
 20
4.4526892705
 30
0.0
 10
5.8068574672
 20
4.4503136618
 30
0.0
 10
5.8072137373
 20
4.4492298022
 30
0.0
  0
SPLINE
  5
4C1
100
AcDbEntity
  8
ALL_ASSEMBLY_MEMBERS
100
AcDbSpline
 62
7
  6
CONTINUOUS
 70
0
 71
3
 72
10
 73
6
 74
0
 42
0.0000001
 43
0.0000001
 44
0.0000000001
 40
0.0
 40
0.0
 40
0.0
 40
0.0
 40
0.2297222471
 40
0.4828071672
 40
1.0
 40
1.0
 40
1.0
 40
1.0
 10
5.8017515861
 20
4.4829802871
 30
0.0
 10
5.8017703022
 20
4.4816521672
 30
0.0
 10
5.8018860386
 20
4.4788616765
 30
0.0
 10
5.8023744831
 20
4.4730991715
 30
0.0
 10
5.8029839233
 20
4.4686838385
 30
0.0
 10
5.8034607886
 20
4.465731701
 30
0.0
  0
LINE
  5
4C2
100
AcDbEntity
  8
ALL_ASSEMBLY_MEMBERS
100
AcDbLine
 62
7
  6
CONTINUOUS
 10
5.8022275217
 20
4.4895407714
 11
5.8019367873
 21
4.4879364645
  0
LINE
  5
4C3
100
AcDbEntity
  8
ALL_ASSEMBLY_MEMBERS
100
AcDbLine
 62
7
  6
CONTINUOUS
 10
5.8019367873
 20
4.4879364645
 11
5.8017515861
 21
4.4829802871
  0
LINE
  5
4C4
100
AcDbEntity
  8
ALL_ASSEMBLY_MEMBERS
100
AcDbLine
 62
7
  6
CONTINUOUS
 10
5.803090865
 20
4.4930134689
 11
5.8022275217
 21
4.4895407714
  0
SPLINE
  5
4C5
100
AcDbEntity
  8
ALL_ASSEMBLY_MEMBERS
100
AcDbSpline
 62
7
  6
CONTINUOUS
 70
0
 71
3
 72
9
 73
5
 74
0
 42
0.0000001
 43
0.0000001
 44
0.0000000001
 40
0.0
 40
0.0
 40
0.0
 40
0.0
 40
0.580799636
 40
1.0
 40
1.0
 40
1.0
 40
1.0
 10
5.8035221044
 20
4.4980450647
 30
0.0
 10
5.8035266822
 20
4.497066096
 30
0.0
 10
5.803468713
 20
4.4953783248
 30
0.0
 10
5.8032324987
 20
4.4937057207
 30
0.0
 10
5.803090865
 20
4.4930134689
 30
0.0
  0
SPLINE
  5
4C6
100
AcDbEntity
  8
ALL_ASSEMBLY_MEMBERS
100
AcDbSpline
 62
7
  6
CONTINUOUS
 70
0
 71
3
 72
10
 73
6
 74
0
 42
0.0000001
 43
0.0000001
 44
0.0000000001
 40
0.0
 40
0.0
 40
0.0
 40
0.0
 40
0.2641130361
 40
0.5275956361
 40
1.0
 40
1.0
 40
1.0
 40
1.0
 10
5.8030663896
 20
4.5044593373
 30
0.0
 10
5.8031479356
 20
4.5038987293
 30
0.0
 10
5.8032837594
 20
4.5027748397
 30
0.0
 10
5.8034647764
 20
4.5006372391
 30
0.0
 10
5.8035173663
 20
4.4990583348
 30
0.0
 10
5.8035221044
 20
4.4980450647
 30
0.0
  0
LINE
  5
4C7
100
AcDbEntity
  8
ALL_ASSEMBLY_MEMBERS
100
AcDbLine
 62
7
  6
CONTINUOUS
 10
5.802078401
 20
4.5090918457
 11
5.8030663896
 21
4.5044593373
  0
LINE
  5
4C8
100
AcDbEntity
  8
ALL_ASSEMBLY_MEMBERS
100
AcDbLine
 62
7
  6
CONTINUOUS
 10
5.8141846857
 20
4.4259678267
 11
5.8134816464
 21
4.4255893369
  0
LINE
  5
4C9
100
AcDbEntity
  8
ALL_ASSEMBLY_MEMBERS
100
AcDbLine
 62
7
  6
CONTINUOUS
 10
5.8166919471
 20
4.4485026378
 11
5.8163647062
 21
4.4394182031
  0
SPLINE
  5
4CA
100
AcDbEntity
  8
ALL_ASSEMBLY_MEMBERS
100
AcDbSpline
 62
7
  6
CONTINUOUS
 70
0
 71
3
 72
15
 73
11
 74
0
 42
0.0000001
 43
0.0000001
 44
0.0000000001
 40
0.0
 40
0.0
 40
0.0
 40
0.0
 40
0.3377375931
 40
0.4906457329
 40
0.6301655861
 40
0.7536596013
 40
0.8581912731
 40
0.9407723908
 40
0.9732699596
 40
1.0
 40
1.0
 40
1.0
 40
1.0
 10
5.8163647062
 20
4.4394182031
 30
0.0
 10
5.8162828271
 20
4.4378729749
 30
0.0
 10
5.8161398874
 20
4.4356290524
 30
0.0
 10
5.8158682067
 20
4.4327543767
 30
0.0
 10
5.8156365513
 20
4.4308626893
 30
0.0
 10
5.8153663878
 20
4.429199527
 30
0.0
 10
5.8150536957
 20
4.4278109773
 30
0.0
 10
5.8147366195
 20
4.4268507737
 30
0.0
 10
5.8144353542
 20
4.4262737171
 30
0.0
 10
5.8142712046
 20
4.4260545032
 30
0.0
 10
5.8141846857
 20
4.4259678267
 30
0.0
  0
LINE
  5
4CB
100
AcDbEntity
  8
ALL_ASSEMBLY_MEMBERS
100
AcDbLine
 62
7
  6
CONTINUOUS
 10
5.816478995
 20
4.4560905795
 11
5.8179239259
 21
4.4487455009
  0
LINE
  5
4CC
100
AcDbEntity
  8
ALL_ASSEMBLY_MEMBERS
100
AcDbLine
 62
7
  6
CONTINUOUS
 10
5.8218536883
 20
4.1475478992
 11
5.8226642597
 21
4.1432565198
  0
LINE
  5
4CD
100
AcDbEntity
  8
ALL_ASSEMBLY_MEMBERS
100
AcDbLine
 62
7
  6
CONTINUOUS
 10
5.8209629493
 20
4.1514834755
 11
5.8218536883
 21
4.1475478992
  0
LINE
  5
4CE
100
AcDbEntity
  8
ALL_ASSEMBLY_MEMBERS
100
AcDbLine
 62
7
  6
CONTINUOUS
 10
5.8182008919
 20
4.1659177998
 11
5.8209629493
 21
4.1514834755
  0
LINE
  5
4CF
100
AcDbEntity
  8
ALL_ASSEMBLY_MEMBERS
100
AcDbLine
 62
7
  6
CONTINUOUS
 10
5.8132549294
 20
4.1920725663
 11
5.8162173598
 21
4.1764065679
  0
LINE
  5
4D0
100
AcDbEntity
  8
ALL_ASSEMBLY_MEMBERS
100
AcDbLine
 62
7
  6
CONTINUOUS
 10
5.8087001778
 20
4.2207908996
 11
5.8160796529
 21
4.1815006284
  0
LINE
  5
4D1
100
AcDbEntity
  8
ALL_ASSEMBLY_MEMBERS
100
AcDbLine
 62
7
  6
CONTINUOUS
 10
5.8026013586
 20
4.248505679
 11
5.803268969
 21
4.2448908686
  0
LINE
  5
4D2
100
AcDbEntity
  8
ALL_ASSEMBLY_MEMBERS
100
AcDbLine
 62
7
  6
CONTINUOUS
 10
5.803268969
 20
4.2448908686
 11
5.8034243381
 21
4.2440675369
  0
LINE
  5
4D3
100
AcDbEntity
  8
ALL_ASSEMBLY_MEMBERS
100
AcDbLine
 62
7
  6
CONTINUOUS
 10
5.8023938564
 20
4.2499414924
 11
5.8025365894
 21
4.2488759136
  0
LINE
  5
4D4
100
AcDbEntity
  8
ALL_ASSEMBLY_MEMBERS
100
AcDbLine
 62
7
  6
CONTINUOUS
 10
5.8020524196
 20
4.2575699094
 11
5.8069062185
 21
4.2318198143
  0
LINE
  5
4D5
100
AcDbEntity
  8
ALL_ASSEMBLY_MEMBERS
100
AcDbLine
 62
7
  6
CONTINUOUS
 10
5.8185441
 20
5.1070464153
 11
5.8181769098
 21
5.1064156637
  0
LINE
  5
4D6
100
AcDbEntity
  8
ALL_ASSEMBLY_MEMBERS
100
AcDbLine
 62
7
  6
CONTINUOUS
 10
5.8181769098
 20
5.1064156637
 11
5.8170975271
 21
5.1032499514
  0
LINE
  5
4D7
100
AcDbEntity
  8
ALL_ASSEMBLY_MEMBERS
100
AcDbLine
 62
7
  6
CONTINUOUS
 10
5.8170975271
 20
5.1032499514
 11
5.8157222297
 21
5.0966867824
  0
SPLINE
  5
4D8
100
AcDbEntity
  8
ALL_ASSEMBLY_MEMBERS
100
AcDbSpline
 62
7
  6
CONTINUOUS
 70
0
 71
3
 72
9
 73
5
 74
0
 42
0.0000001
 43
0.0000001
 44
0.0000000001
 40
0.0
 40
0.0
 40
0.0
 40
0.0
 40
0.4870402842
 40
1.0
 40
1.0
 40
1.0
 40
1.0
 10
5.8157222297
 20
5.0966867824
 30
0.0
 10
5.8152690935
 20
5.0941028022
 30
0.0
 10
5.8144674776
 20
5.0887749363
 30
0.0
 10
5.8137931503
 20
5.0834307284
 30
0.0
 10
5.8134689374
 20
5.0806867913
 30
0.0
  0
SPLINE
  5
4D9
100
AcDbEntity
  8
ALL_ASSEMBLY_MEMBERS
100
AcDbSpline
 62
7
  6
CONTINUOUS
 70
0
 71
3
 72
11
 73
7
 74
0
 42
0.0000001
 43
0.0000001
 44
0.0000000001
 40
0.0
 40
0.0
 40
0.0
 40
0.0
 40
0.3042833565
 40
0.5647706589
 40
0.7916896458
 40
1.0
 40
1.0
 40
1.0
 40
1.0
 10
5.8157205085
 20
5.0711831672
 30
0.0
 10
5.8157875712
 20
5.0710843504
 30
0.0
 10
5.8159230787
 20
5.0709077926
 30
0.0
 10
5.8161529603
 20
5.0706957793
 30
0.0
 10
5.8163933077
 20
5.0705599246
 30
0.0
 10
5.8165633521
 20
5.0705225192
 30
0.0
 10
5.8166449957
 20
5.0705182132
 30
0.0
  0
SPLINE
  5
4DA
100
AcDbEntity
  8
ALL_ASSEMBLY_MEMBERS
100
AcDbSpline
 62
7
  6
CONTINUOUS
 70
0
 71
3
 72
10
 73
6
 74
0
 42
0.0000001
 43
0.0000001
 44
0.0000000001
 40
0.0
 40
0.0
 40
0.0
 40
0.0
 40
0.5373445931
 40
0.7816866755
 40
1.0
 40
1.0
 40
1.0
 40
1.0
 10
5.8134689374
 20
5.0806867913
 30
0.0
 10
5.8136869844
 20
5.079265349
 30
0.0
 10
5.8140290892
 20
5.0772006028
 30
0.0
 10
5.814574062
 20
5.0745802911
 30
0.0
 10
5.8148772681
 20
5.0733786649
 30
0.0
 10
5.8150465315
 20
5.0728194591
 30
0.0
  0
LINE
  5
4DB
100
AcDbEntity
  8
ALL_ASSEMBLY_MEMBERS
100
AcDbLine
 62
7
  6
CONTINUOUS
 10
5.8150465315
 20
5.0728194591
 11
5.8155576825
 21
5.0714626603
  0
LINE
  5
4DC
100
AcDbEntity
  8
ALL_ASSEMBLY_MEMBERS
100
AcDbLine
 62
7
  6
CONTINUOUS
 10
5.8155576825
 20
5.0714626603
 11
5.8157205085
 21
5.0711831672
  0
SPLINE
  5
4DD
100
AcDbEntity
  8
ALL_ASSEMBLY_MEMBERS
100
AcDbSpline
 62
7
  6
CONTINUOUS
 70
0
 71
3
 72
13
 73
9
 74
0
 42
0.0000001
 43
0.0000001
 44
0.0000000001
 40
0.0
 40
0.0
 40
0.0
 40
0.0
 40
0.3729347021
 40
0.6563751198
 40
0.7653017467
 40
0.8552436385
 40
0.9312584352
 40
1.0
 40
1.0
 40
1.0
 40
1.0
 10
5.8021779171
 20
5.0519531309
 30
0.0
 10
5.8022572203
 20
5.0516017289
 30
0.0
 10
5.8024204169
 20
5.0509886532
 30
0.0
 10
5.8026987959
 20
5.0502982097
 30
0.0
 10
5.8029552946
 20
5.0499071582
 30
0.0
 10
5.8031408766
 20
5.04971435
 30
0.0
 10
5.8033366746
 20
5.0495940394
 30
0.0
 10
5.8034760907
 20
5.0495624663
 30
0.0
 10
5.8035424084
 20
5.0495591324
 30
0.0
  0
SPLINE
  5
4DE
100
AcDbEntity
  8
ALL_ASSEMBLY_MEMBERS
100
AcDbSpline
 62
7
  6
CONTINUOUS
 70
0
 71
3
 72
11
 73
7
 74
0
 42
0.0000001
 43
0.0000001
 44
0.0000000001
 40
0.0
 40
0.0
 40
0.0
 40
0.0
 40
0.2940778411
 40
0.5668726512
 40
0.805478693
 40
1.0
 40
1.0
 40
1.0
 40
1.0
 10
5.801402278
 20
5.0634438998
 30
0.0
 10
5.8013884518
 20
5.0623129542
 30
0.0
 10
5.8013899258
 20
5.0601323872
 30
0.0
 10
5.801505239
 20
5.0570355837
 30
0.0
 10
5.8017451936
 20
5.0543299554
 30
0.0
 10
5.8020132226
 20
5.0526829113
 30
0.0
 10
5.8021779171
 20
5.0519531309
 30
0.0
  0
SPLINE
  5
4DF
100
AcDbEntity
  8
ALL_ASSEMBLY_MEMBERS
100
AcDbSpline
 62
7
  6
CONTINUOUS
 70
0
 71
3
 72
9
 73
5
 74
0
 42
0.0000001
 43
0.0000001
 44
0.0000000001
 40
0.0
 40
0.0
 40
0.0
 40
0.0
 40
0.4875020676
 40
1.0
 40
1.0
 40
1.0
 40
1.0
 10
5.8029536824
 20
5.081695333
 30
0.0
 10
5.8024668998
 20
5.078756649
 30
0.0
 10
5.8017196846
 20
5.0726848698
 30
0.0
 10
5.8014405583
 20
5.0665751233
 30
0.0
 10
5.801402278
 20
5.0634438998
 30
0.0
  0
SPLINE
  5
4E0
100
AcDbEntity
  8
ALL_ASSEMBLY_MEMBERS
100
AcDbSpline
 62
7
  6
CONTINUOUS
 70
0
 71
3
 72
11
 73
7
 74
0
 42
0.0000001
 43
0.0000001
 44
0.0000000001
 40
0.0
 40
0.0
 40
0.0
 40
0.0
 40
0.1824296812
 40
0.4081011538
 40
0.6806845315
 40
1.0
 40
1.0
 40
1.0
 40
1.0
 10
5.8062030579
 20
5.0927180247
 30
0.0
 10
5.8060247253
 20
5.0924730957
 30
0.0
 10
5.8056737081
 20
5.091890403
 30
0.0
 10
5.8051990974
 20
5.0908629484
 30
0.0
 10
5.8047324143
 20
5.0895865916
 30
0.0
 10
5.8044505742
 20
5.088644371
 30
0.0
 10
5.8043093332
 20
5.0881332172
 30
0.0
  0
LINE
  5
4E1
100
AcDbEntity
  8
ALL_ASSEMBLY_MEMBERS
100
AcDbLine
 62
7
  6
CONTINUOUS
 10
5.8043093332
 20
5.0881332172
 11
5.8029536824
 21
5.081695333
  0
LINE
  5
4E2
100
AcDbEntity
  8
ALL_ASSEMBLY_MEMBERS
100
AcDbLine
 62
7
  6
CONTINUOUS
 10
5.8193735436
 20
5.5717053524
 11
5.8187301607
 21
5.568404981
  0
LINE
  5
4E3
100
AcDbEntity
  8
ALL_ASSEMBLY_MEMBERS
100
AcDbLine
 62
7
  6
CONTINUOUS
 10
5.8187301607
 20
5.568404981
 11
5.8177547151
 21
5.563357489
  0
LINE
  5
4E4
100
AcDbEntity
  8
ALL_ASSEMBLY_MEMBERS
100
AcDbLine
 62
7
  6
CONTINUOUS
 10
5.813775573
 20
5.5424776036
 11
5.8122375438
 21
5.534334975
  0
LINE
  5
4E5
100
AcDbEntity
  8
ALL_ASSEMBLY_MEMBERS
100
AcDbLine
 62
7
  6
CONTINUOUS
 10
5.8197324827
 20
5.5735319753
 11
5.8193735436
 21
5.5717053524
  0
LINE
  5
4E6
100
AcDbEntity
  8
ALL_ASSEMBLY_MEMBERS
100
AcDbLine
 62
7
  6
CONTINUOUS
 10
5.8022212169
 20
5.4787137884
 11
5.8022480984
 21
5.4786142226
  0
LINE
  5
4E7
100
AcDbEntity
  8
ALL_ASSEMBLY_MEMBERS
100
AcDbLine
 62
7
  6
CONTINUOUS
 10
5.8122375438
 20
5.534334975
 11
5.8110167342
 21
5.5278538563
  0
LINE
  5
4E8
100
AcDbEntity
  8
ALL_ASSEMBLY_MEMBERS
100
AcDbLine
 62
7
  6
CONTINUOUS
 10
5.8110167342
 20
5.5278538563
 11
5.8099087932
 21
5.5219582975
  0
SPLINE
  5
4E9
100
AcDbEntity
  8
ALL_ASSEMBLY_MEMBERS
100
AcDbSpline
 62
7
  6
CONTINUOUS
 70
0
 71
3
 72
11
 73
7
 74
0
 42
0.0000001
 43
0.0000001
 44
0.0000000001
 40
0.0
 40
0.0
 40
0.0
 40
0.0
 40
0.3163631229
 40
0.583198653
 40
0.8060548109
 40
1.0
 40
1.0
 40
1.0
 40
1.0
 10
5.817729281
 20
5.1188862052
 30
0.0
 10
5.817840001
 20
5.1190383844
 30
0.0
 10
5.818057553
 20
5.119309875
 30
0.0
 10
5.8184108157
 20
5.1196376298
 30
0.0
 10
5.8187663891
 20
5.1198449015
 30
0.0
 10
5.8190182093
 20
5.1198897753
 30
0.0
 10
5.8191334224
 20
5.1198837177
 30
0.0
  0
SPLINE
  5
4EA
100
AcDbEntity
  8
ALL_ASSEMBLY_MEMBERS
100
AcDbSpline
 62
7
  6
CONTINUOUS
 70
0
 71
3
 72
11
 73
7
 74
0
 42
0.0000001
 43
0.0000001
 44
0.0000000001
 40
0.0
 40
0.0
 40
0.0
 40
0.0
 40
0.3103049377
 40
0.5823805644
 40
0.8124482949
 40
1.0
 40
1.0
 40
1.0
 40
1.0
 10
5.8151277068
 20
5.1120003857
 30
0.0
 10
5.8152958609
 20
5.1126831702
 30
0.0
 10
5.8156345806
 20
5.1139591262
 30
0.0
 10
5.8161911059
 20
5.1157151759
 30
0.0
 10
5.8167599144
 20
5.1171721479
 30
0.0
 10
5.8171836486
 20
5.1180211806
 30
0.0
 10
5.8174014183
 20
5.1183861637
 30
0.0
  0
LINE
  5
4EB
100
AcDbEntity
  8
ALL_ASSEMBLY_MEMBERS
100
AcDbLine
 62
7
  6
CONTINUOUS
 10
5.8174014183
 20
5.1183861637
 11
5.817729281
 21
5.1188862052
  0
SPLINE
  5
4EC
100
AcDbEntity
  8
ALL_ASSEMBLY_MEMBERS
100
AcDbSpline
 62
7
  6
CONTINUOUS
 70
0
 71
3
 72
12
 73
8
 74
0
 42
0.0000001
 43
0.0000001
 44
0.0000000001
 40
0.0
 40
0.0
 40
0.0
 40
0.0
 40
0.262107522
 40
0.5192934326
 40
0.768209898
 40
0.8872773398
 40
1.0
 40
1.0
 40
1.0
 40
1.0
 10
5.8124031897
 20
5.0960141229
 30
0.0
 10
5.8125959072
 20
5.0973606947
 30
0.0
 10
5.8129863931
 20
5.1000273372
 30
0.0
 10
5.8135995904
 20
5.1039668096
 30
0.0
 10
5.8141404262
 20
5.1071661874
 30
0.0
 10
5.8146025955
 20
5.1096178356
 30
0.0
 10
5.814847689
 20
5.1107957478
 30
0.0
 10
5.8149776604
 20
5.1113661383
 30
0.0
  0
SPLINE
  5
4ED
100
AcDbEntity
  8
ALL_ASSEMBLY_MEMBERS
100
AcDbSpline
 62
7
  6
CONTINUOUS
 70
0
 71
3
 72
10
 73
6
 74
0
 42
0.0000001
 43
0.0000001
 44
0.0000000001
 40
0.0
 40
0.0
 40
0.0
 40
0.0
 40
0.2385317801
 40
0.488797928
 40
1.0
 40
1.0
 40
1.0
 40
1.0
 10
5.8115004455
 20
4.9901384874
 30
0.0
 10
5.8117297222
 20
4.991869362
 30
0.0
 10
5.8121049302
 20
4.9954287011
 30
0.0
 10
5.8126684253
 20
5.0027270242
 30
0.0
 10
5.8129504071
 20
5.0082945867
 30
0.0
 10
5.8131099408
 20
5.0120330574
 30
0.0
  0
LINE
  5
4EE
100
AcDbEntity
  8
ALL_ASSEMBLY_MEMBERS
100
AcDbLine
 62
7
  6
CONTINUOUS
 10
5.8131099408
 20
5.0120330574
 11
5.8136049846
 21
5.0267961806
  0
SPLINE
  5
4EF
100
AcDbEntity
  8
ALL_ASSEMBLY_MEMBERS
100
AcDbSpline
 62
7
  6
CONTINUOUS
 70
0
 71
3
 72
9
 73
5
 74
0
 42
0.0000001
 43
0.0000001
 44
0.0000000001
 40
0.0
 40
0.0
 40
0.0
 40
0.0
 40
0.434665068
 40
1.0
 40
1.0
 40
1.0
 40
1.0
 10
5.8072137373
 20
4.9738659632
 30
0.0
 10
5.8075355828
 20
4.9743077837
 30
0.0
 10
5.8081507694
 20
4.9754137376
 30
0.0
 10
5.8086122657
 20
4.9765854739
 30
0.0
 10
5.8088455171
 20
4.9772570629
 30
0.0
  0
LINE
  5
4F0
100
AcDbEntity
  8
ALL_ASSEMBLY_MEMBERS
100
AcDbLine
 62
7
  6
CONTINUOUS
 10
5.8088455171
 20
4.9772570629
 11
5.8093546245
 21
4.9788759044
  0
LINE
  5
4F1
100
AcDbEntity
  8
ALL_ASSEMBLY_MEMBERS
100
AcDbLine
 62
7
  6
CONTINUOUS
 10
5.8093546245
 20
4.9788759044
 11
5.8107292578
 21
4.98506999
  0
LINE
  5
4F2
100
AcDbEntity
  8
ALL_ASSEMBLY_MEMBERS
100
AcDbLine
 62
7
  6
CONTINUOUS
 10
5.802078401
 20
5.0217821014
 11
5.8024769662
 21
5.0220572776
  0
SPLINE
  5
4F3
100
AcDbEntity
  8
ALL_ASSEMBLY_MEMBERS
100
AcDbSpline
 62
7
  6
CONTINUOUS
 70
0
 71
3
 72
11
 73
7
 74
0
 42
0.0000001
 43
0.0000001
 44
0.0000000001
 40
0.0
 40
0.0
 40
0.0
 40
0.0
 40
0.2847783597
 40
0.5567504442
 40
0.8019155591
 40
1.0
 40
1.0
 40
1.0
 40
1.0
 10
5.800576812
 20
5.0138688402
 30
0.0
 10
5.8006288828
 20
5.0145284871
 30
0.0
 10
5.8007433433
 20
5.0158171433
 30
0.0
 10
5.8009607215
 20
5.0176682618
 30
0.0
 10
5.8012269456
 20
5.0193089135
 30
0.0
 10
5.8014644064
 20
5.0203136993
 30
0.0
 10
5.8016054835
 20
5.0207518055
 30
0.0
  0
LINE
  5
4F4
100
AcDbEntity
  8
ALL_ASSEMBLY_MEMBERS
100
AcDbLine
 62
7
  6
CONTINUOUS
 10
5.8016054835
 20
5.0207518055
 11
5.801959352
 21
5.021597251
  0
LINE
  5
4F5
100
AcDbEntity
  8
ALL_ASSEMBLY_MEMBERS
100
AcDbLine
 62
7
  6
CONTINUOUS
 10
5.801959352
 20
5.021597251
 11
5.802078401
 21
5.0217821014
  0
SPLINE
  5
4F6
100
AcDbEntity
  8
ALL_ASSEMBLY_MEMBERS
100
AcDbSpline
 62
7
  6
CONTINUOUS
 70
0
 71
3
 72
9
 73
5
 74
0
 42
0.0000001
 43
0.0000001
 44
0.0000000001
 40
0.0
 40
0.0
 40
0.0
 40
0.0
 40
0.4621110355
 40
1.0
 40
1.0
 40
1.0
 40
1.0
 10
5.8029523894
 20
4.9679318741
 30
0.0
 10
5.802636087
 20
4.9691234034
 30
0.0
 10
5.8020600227
 20
4.9717307387
 30
0.0
 10
5.8016368902
 20
4.9743659393
 30
0.0
 10
5.8014415433
 20
4.9757875344
 30
0.0
  0
LINE
  5
4F7
100
AcDbEntity
  8
ALL_ASSEMBLY_MEMBERS
100
AcDbLine
 62
7
  6
CONTINUOUS
 10
5.801059941
 20
4.9789235511
 11
5.8004912387
 21
4.9858669167
  0
LINE
  5
4F8
100
AcDbEntity
  8
ALL_ASSEMBLY_MEMBERS
100
AcDbLine
 62
7
  6
CONTINUOUS
 10
5.8166919471
 20
5.022089756
 11
5.8188391805
 21
5.019431075
  0
LINE
  5
4F9
100
AcDbEntity
  8
ALL_ASSEMBLY_MEMBERS
100
AcDbLine
 62
7
  6
CONTINUOUS
 10
5.8197597703
 20
4.9828521588
 11
5.8227148751
 21
4.9794104952
  0
LINE
  5
4FA
100
AcDbEntity
  8
ALL_ASSEMBLY_MEMBERS
100
AcDbLine
 62
7
  6
CONTINUOUS
 10
5.8189688907
 20
4.7380861261
 11
5.8096497261
 21
4.7466311565
  0
SPLINE
  5
4FB
100
AcDbEntity
  8
ALL_ASSEMBLY_MEMBERS
100
AcDbSpline
 62
7
  6
CONTINUOUS
 70
0
 71
3
 72
10
 73
6
 74
0
 42
0.0000001
 43
0.0000001
 44
0.0000000001
 40
0.0
 40
0.0
 40
0.0
 40
0.0
 40
0.2048997019
 40
0.5590791096
 40
1.0
 40
1.0
 40
1.0
 40
1.0
 10
5.8035424084
 20
5.0495591324
 30
0.0
 10
5.8036191402
 20
5.0495552749
 30
0.0
 10
5.8038316073
 20
5.0495875028
 30
0.0
 10
5.8041581207
 20
5.0497890872
 30
0.0
 10
5.8043654904
 20
5.0500050018
 30
0.0
 10
5.804472221
 20
5.0501312614
 30
0.0
  0
LINE
  5
4FC
100
AcDbEntity
  8
ALL_ASSEMBLY_MEMBERS
100
AcDbLine
 62
7
  6
CONTINUOUS
 10
5.804472221
 20
5.0501312614
 11
5.804656179
 21
5.0503660737
  0
LINE
  5
4FD
100
AcDbEntity
  8
ALL_ASSEMBLY_MEMBERS
100
AcDbLine
 62
7
  6
CONTINUOUS
 10
5.8177278331
 20
4.5363330508
 11
5.8174115512
 21
4.5344688591
  0
LINE
  5
4FE
100
AcDbEntity
  8
ALL_ASSEMBLY_MEMBERS
100
AcDbLine
 62
7
  6
CONTINUOUS
 10
5.8192927425
 20
4.5209094515
 11
5.8188136373
 21
4.5250148645
  0
LINE
  5
4FF
100
AcDbEntity
  8
ALL_ASSEMBLY_MEMBERS
100
AcDbLine
 62
7
  6
CONTINUOUS
 10
5.8188136373
 20
4.5250148645
 11
5.8174115512
 21
4.5344688591
  0
LINE
  5
500
100
AcDbEntity
  8
ALL_ASSEMBLY_MEMBERS
100
AcDbLine
 62
7
  6
CONTINUOUS
 10
5.8195611573
 20
4.508161377
 11
5.8195331806
 21
4.5168572722
  0
LINE
  5
501
100
AcDbEntity
  8
ALL_ASSEMBLY_MEMBERS
100
AcDbLine
 62
7
  6
CONTINUOUS
 10
5.8195331806
 20
4.5168572722
 11
5.8193606262
 21
4.520125728
  0
SPLINE
  5
502
100
AcDbEntity
  8
ALL_ASSEMBLY_MEMBERS
100
AcDbSpline
 62
7
  6
CONTINUOUS
 70
0
 71
3
 72
15
 73
11
 74
0
 42
0.0000001
 43
0.0000001
 44
0.0000000001
 40
0.0
 40
0.0
 40
0.0
 40
0.0
 40
0.0579406211
 40
0.1270371275
 40
0.2149066479
 40
0.3249693346
 40
0.4585819417
 40
0.6162121763
 40
0.7972364097
 40
1.0
 40
1.0
 40
1.0
 40
1.0
 10
5.8134816464
 20
4.4255893369
 30
0.0
 10
5.8133438956
 20
4.425574334
 30
0.0
 10
5.8130313479
 20
4.4256175492
 30
0.0
 10
5.8125840421
 20
4.4258877504
 30
0.0
 10
5.8121327086
 20
4.4263445873
 30
0.0
 10
5.8116662452
 20
4.4269881506
 30
0.0
 10
5.811183863
 20
4.4278191098
 30
0.0
 10
5.810688039
 20
4.4288346567
 30
0.0
 10
5.8101810177
 20
4.4300265025
 30
0.0
 10
5.8098541987
 20
4.4308843864
 30
0.0
 10
5.8096880031
 20
4.431339927
 30
0.0
  0
LINE
  5
503
100
AcDbEntity
  8
ALL_ASSEMBLY_MEMBERS
100
AcDbLine
 62
7
  6
CONTINUOUS
 10
5.8096880031
 20
4.431339927
 11
5.8090315749
 21
4.4332416822
  0
SPLINE
  5
504
100
AcDbEntity
  8
ALL_ASSEMBLY_MEMBERS
100
AcDbSpline
 62
7
  6
CONTINUOUS
 70
0
 71
3
 72
12
 73
8
 74
0
 42
0.0000001
 43
0.0000001
 44
0.0000000001
 40
0.0
 40
0.0
 40
0.0
 40
0.0
 40
0.0823312545
 40
0.179570327
 40
0.4131458928
 40
0.6895066421
 40
1.0
 40
1.0
 40
1.0
 40
1.0
 10
5.8115004455
 20
4.4443013394
 30
0.0
 10
5.8115661709
 20
4.4444213112
 30
0.0
 10
5.8116881199
 20
4.4446946159
 30
0.0
 10
5.8119089368
 20
4.4453450379
 30
0.0
 10
5.8121427169
 20
4.4463282145
 30
0.0
 10
5.8123781244
 20
4.4476710637
 30
0.0
 10
5.8125087637
 20
4.4486376182
 30
0.0
 10
5.8125716761
 20
4.4491496613
 30
0.0
  0
LINE
  5
505
100
AcDbEntity
  8
ALL_ASSEMBLY_MEMBERS
100
AcDbLine
 62
7
  6
CONTINUOUS
 10
5.8125716761
 20
4.4491496613
 11
5.812954606
 21
4.4530378129
  0
LINE
  5
506
100
AcDbEntity
  8
ALL_ASSEMBLY_MEMBERS
100
AcDbLine
 62
7
  6
CONTINUOUS
 10
5.8130345896
 20
4.4540821338
 11
5.8137611575
 21
4.4699527542
  0
SPLINE
  5
507
100
AcDbEntity
  8
ALL_ASSEMBLY_MEMBERS
100
AcDbSpline
 62
7
  6
CONTINUOUS
 70
0
 71
3
 72
13
 73
9
 74
0
 42
0.0000001
 43
0.0000001
 44
0.0000000001
 40
0.0
 40
0.0
 40
0.0
 40
0.0
 40
0.0839117311
 40
0.1737425374
 40
0.2737860478
 40
0.3870315576
 40
0.6598534894
 40
1.0
 40
1.0
 40
1.0
 40
1.0
 10
5.8068444857
 20
4.9611742488
 30
0.0
 10
5.8067234215
 20
4.9611804804
 30
0.0
 10
5.8064735434
 20
4.9612285623
 30
0.0
 10
5.8061130256
 20
4.9613989301
 30
0.0
 10
5.8057610751
 20
4.9616634859
 30
0.0
 10
5.8052721045
 20
4.9621706274
 30
0.0
 10
5.8046948566
 20
4.9630558736
 30
0.0
 10
5.8043218273
 20
4.9638605332
 30
0.0
 10
5.8041333951
 20
4.9643143676
 30
0.0
  0
LINE
  5
508
100
AcDbEntity
  8
ALL_ASSEMBLY_MEMBERS
100
AcDbLine
 62
7
  6
CONTINUOUS
 10
5.8041333951
 20
4.9643143676
 11
5.8029523894
 21
4.9679318741
  0
LINE
  5
509
100
AcDbEntity
  8
ALL_ASSEMBLY_MEMBERS
100
AcDbLine
 62
7
  6
CONTINUOUS
 10
5.800576812
 20
4.5087311442
 11
5.8007194226
 21
4.5094877301
  0
SPLINE
  5
50A
100
AcDbEntity
  8
ALL_ASSEMBLY_MEMBERS
100
AcDbSpline
 62
7
  6
CONTINUOUS
 70
0
 71
3
 72
12
 73
8
 74
0
 42
0.0000001
 43
0.0000001
 44
0.0000000001
 40
0.0
 40
0.0
 40
0.0
 40
0.0
 40
0.3514004173
 40
0.6374889405
 40
0.7533013625
 40
0.8506992582
 40
1.0
 40
1.0
 40
1.0
 40
1.0
 10
5.8007194226
 20
4.5094877301
 30
0.0
 10
5.8007503036
 20
4.509621366
 30
0.0
 10
5.8008132748
 20
4.5098622594
 30
0.0
 10
5.8009134702
 20
4.5101396259
 30
0.0
 10
5.8010074781
 20
4.5103114934
 30
0.0
 10
5.8010910296
 20
4.5104244387
 30
0.0
 10
5.8011786739
 20
4.510484247
 30
0.0
 10
5.8012365916
 20
4.5104906866
 30
0.0
  0
LINE
  5
50B
100
AcDbEntity
  8
ALL_ASSEMBLY_MEMBERS
100
AcDbLine
 62
7
  6
CONTINUOUS
 10
5.8001159733
 20
4.4979935797
 11
5.8001648876
 21
4.5031659165
  0
LINE
  5
50C
100
AcDbEntity
  8
ALL_ASSEMBLY_MEMBERS
100
AcDbLine
 62
7
  6
CONTINUOUS
 10
5.8001648876
 20
4.5031659165
 11
5.8004956194
 21
4.508156104
  0
LINE
  5
50D
100
AcDbEntity
  8
ALL_ASSEMBLY_MEMBERS
100
AcDbLine
 62
7
  6
CONTINUOUS
 10
5.8090315749
 20
4.4332416822
 11
5.8075599784
 21
4.4382286043
  0
LINE
  5
50E
100
AcDbEntity
  8
ALL_ASSEMBLY_MEMBERS
100
AcDbLine
 62
7
  6
CONTINUOUS
 10
5.8075599784
 20
4.4382286043
 11
5.8054331751
 21
4.4474536846
  0
LINE
  5
50F
100
AcDbEntity
  8
ALL_ASSEMBLY_MEMBERS
100
AcDbLine
 62
7
  6
CONTINUOUS
 10
5.8166919471
 20
4.4485026378
 11
5.8192729047
 21
4.4351990094
  0
LINE
  5
510
100
AcDbEntity
  8
ALL_ASSEMBLY_MEMBERS
100
AcDbLine
 62
7
  6
CONTINUOUS
 10
5.8197597703
 20
4.4047059856
 11
5.8227148751
 21
4.3899610806
  0
SPLINE
  5
511
100
AcDbEntity
  8
ALL_ASSEMBLY_MEMBERS
100
AcDbSpline
 62
7
  6
CONTINUOUS
 70
0
 71
3
 72
15
 73
11
 74
0
 42
0.0000001
 43
0.0000001
 44
0.0000000001
 40
0.0
 40
0.0
 40
0.0
 40
0.0
 40
0.3208633466
 40
0.5565418572
 40
0.7224334404
 40
0.8369656129
 40
0.9138509947
 40
0.9624089061
 40
0.989182808
 40
1.0
 40
1.0
 40
1.0
 40
1.0
 10
5.8138210301
 20
4.1925822674
 30
0.0
 10
5.8137167558
 20
4.1930991142
 30
0.0
 10
5.8135321815
 20
4.1939947377
 30
0.0
 10
5.8132775599
 20
4.1951546828
 30
0.0
 10
5.8130830309
 20
4.1959793354
 30
0.0
 10
5.812934095
 20
4.1965492843
 30
0.0
 10
5.8128258324
 20
4.1969244371
 30
0.0
 10
5.8127377344
 20
4.1971670668
 30
0.0
 10
5.812686981
 20
4.1972856337
 30
0.0
 10
5.8126378013
 20
4.1973461684
 30
0.0
 10
5.8126203364
 20
4.1973428607
 30
0.0
  0
LINE
  5
512
100
AcDbEntity
  8
ALL_ASSEMBLY_MEMBERS
100
AcDbLine
 62
7
  6
CONTINUOUS
 10
5.8108193254
 20
4.2084573619
 11
5.8085991449
 21
4.2207717652
  0
SPLINE
  5
513
100
AcDbEntity
  8
ALL_ASSEMBLY_MEMBERS
100
AcDbSpline
 62
7
  6
CONTINUOUS
 70
0
 71
3
 72
15
 73
11
 74
0
 42
0.0000001
 43
0.0000001
 44
0.0000000001
 40
0.0
 40
0.0
 40
0.0
 40
0.0
 40
0.0119347319
 40
0.0231341688
 40
0.0389507872
 40
0.0870930895
 40
0.1629211267
 40
0.2745181683
 40
0.4380634078
 40
1.0
 40
1.0
 40
1.0
 40
1.0
 10
5.8112198791
 20
4.2047707157
 30
0.0
 10
5.8112344605
 20
4.2047734772
 30
0.0
 10
5.8112509804
 20
4.2048049529
 30
0.0
 10
5.8112605701
 20
4.2048501086
 30
0.0
 10
5.8112713471
 20
4.2049443555
 30
0.0
 10
5.811270566
 20
4.2051175373
 30
0.0
 10
5.8112529441
 20
4.2054104572
 30
0.0
 10
5.8112097006
 20
4.2058446118
 30
0.0
 10
5.8110774752
 20
4.2068772958
 30
0.0
 10
5.8109344827
 20
4.207768158
 30
0.0
 10
5.8108193254
 20
4.2084573619
 30
0.0
  0
SPLINE
  5
514
100
AcDbEntity
  8
ALL_ASSEMBLY_MEMBERS
100
AcDbSpline
 62
7
  6
CONTINUOUS
 70
0
 71
3
 72
16
 73
12
 74
0
 42
0.0000001
 43
0.0000001
 44
0.0000000001
 40
0.0
 40
0.0
 40
0.0
 40
0.0
 40
0.30708363
 40
0.5390812904
 40
0.7061692787
 40
0.8239704387
 40
0.9052534345
 40
0.9575177107
 40
0.9748315749
 40
0.9871192356
 40
1.0
 40
1.0
 40
1.0
 40
1.0
 10
5.8041224317
 20
4.2452718345
 30
0.0
 10
5.8040177949
 20
4.2457680849
 30
0.0
 10
5.803829544
 20
4.2466383206
 30
0.0
 10
5.8035668609
 20
4.2477746063
 30
0.0
 10
5.8033588593
 20
4.2486027611
 30
0.0
 10
5.8031964136
 20
4.2491850342
 30
0.0
 10
5.8030695372
 20
4.24958119
 30
0.0
 10
5.8029813883
 20
4.2498129792
 30
0.0
 10
5.8029185413
 20
4.2499352285
 30
0.0
 10
5.8028827948
 20
4.2499912249
 30
0.0
 10
5.8028449646
 20
4.2500269268
 30
0.0
 10
5.802824063
 20
4.2500229683
 30
0.0
  0
LINE
  5
515
100
AcDbEntity
  8
ALL_ASSEMBLY_MEMBERS
100
AcDbLine
 62
7
  6
CONTINUOUS
 10
5.8067911768
 20
4.2317980268
 11
5.8041224317
 21
4.2452718345
  0
LINE
  5
516
100
AcDbEntity
  8
ALL_ASSEMBLY_MEMBERS
100
AcDbLine
 62
7
  6
CONTINUOUS
 10
5.8022253383
 20
4.2494613993
 11
5.8015443306
 21
4.2528826432
  0
LINE
  5
517
100
AcDbEntity
  8
ALL_ASSEMBLY_MEMBERS
100
AcDbLine
 62
7
  6
CONTINUOUS
 10
5.8050527269
 20
4.2346314927
 11
5.8047106106
 21
4.2364380757
  0
LINE
  5
518
100
AcDbEntity
  8
ALL_ASSEMBLY_MEMBERS
100
AcDbLine
 62
7
  6
CONTINUOUS
 10
5.8047106106
 20
4.2364380757
 11
5.8034975402
 21
4.2428279378
  0
LINE
  5
519
100
AcDbEntity
  8
ALL_ASSEMBLY_MEMBERS
100
AcDbLine
 62
7
  6
CONTINUOUS
 10
5.8207865338
 20
4.1514486622
 11
5.820655715
 21
4.1521512167
  0
LINE
  5
51A
100
AcDbEntity
  8
ALL_ASSEMBLY_MEMBERS
100
AcDbLine
 62
7
  6
CONTINUOUS
 10
5.820655715
 20
4.1521512167
 11
5.8198544167
 21
4.1564218819
  0
LINE
  5
51B
100
AcDbEntity
  8
ALL_ASSEMBLY_MEMBERS
100
AcDbLine
 62
7
  6
CONTINUOUS
 10
5.8198544167
 20
4.1564218819
 11
5.8180654853
 21
4.1658922029
  0
LINE
  5
51C
100
AcDbEntity
  8
ALL_ASSEMBLY_MEMBERS
100
AcDbLine
 62
7
  6
CONTINUOUS
 10
5.8209200518
 20
4.1507277162
 11
5.8207865338
 21
4.1514486622
  0
SPLINE
  5
51D
100
AcDbEntity
  8
ALL_ASSEMBLY_MEMBERS
100
AcDbSpline
 62
7
  6
CONTINUOUS
 70
0
 71
3
 72
13
 73
9
 74
0
 42
0.0000001
 43
0.0000001
 44
0.0000000001
 40
0.0
 40
0.0
 40
0.0
 40
0.0
 40
0.3670522258
 40
0.6560522762
 40
0.7684728921
 40
0.8604994604
 40
0.9354283074
 40
1.0
 40
1.0
 40
1.0
 40
1.0
 10
5.8206459671
 20
5.1049273803
 30
0.0
 10
5.8205680992
 20
5.105299907
 30
0.0
 10
5.8204096392
 20
5.1059615077
 30
0.0
 10
5.8201496213
 20
5.1067187613
 30
0.0
 10
5.8199048734
 20
5.1071696961
 30
0.0
 10
5.8197267347
 20
5.1074002758
 30
0.0
 10
5.8195361397
 20
5.1075520588
 30
0.0
 10
5.8193924404
 20
5.1075945095
 30
0.0
 10
5.8193255688
 20
5.1075977709
 30
0.0
  0
LINE
  5
51E
100
AcDbEntity
  8
ALL_ASSEMBLY_MEMBERS
100
AcDbLine
 62
7
  6
CONTINUOUS
 10
5.8213887719
 20
5.0937620459
 11
5.8212906229
 21
5.0993685983
  0
LINE
  5
51F
100
AcDbEntity
  8
ALL_ASSEMBLY_MEMBERS
100
AcDbLine
 62
7
  6
CONTINUOUS
 10
5.8212906229
 20
5.0993685983
 11
5.8208252148
 21
5.1039652058
  0
LINE
  5
520
100
AcDbEntity
  8
ALL_ASSEMBLY_MEMBERS
100
AcDbLine
 62
7
  6
CONTINUOUS
 10
5.8208252148
 20
5.1039652058
 11
5.8206459671
 21
5.1049273803
  0
LINE
  5
521
100
AcDbEntity
  8
ALL_ASSEMBLY_MEMBERS
100
AcDbLine
 62
7
  6
CONTINUOUS
 10
5.8203450184
 20
5.0796111886
 11
5.8209025079
 21
5.0840906922
  0
SPLINE
  5
522
100
AcDbEntity
  8
ALL_ASSEMBLY_MEMBERS
100
AcDbSpline
 62
7
  6
CONTINUOUS
 70
0
 71
3
 72
9
 73
5
 74
0
 42
0.0000001
 43
0.0000001
 44
0.0000000001
 40
0.0
 40
0.0
 40
0.0
 40
0.0
 40
0.2501272662
 40
1.0
 40
1.0
 40
1.0
 40
1.0
 10
5.8209025079
 20
5.0840906922
 30
0.0
 10
5.8209800463
 20
5.0848944811
 30
0.0
 10
5.821245606
 20
5.088112273
 30
0.0
 10
5.8213615416
 20
5.0913412819
 30
0.0
 10
5.8213887719
 20
5.0937620459
 30
0.0
  0
SPLINE
  5
523
100
AcDbEntity
  8
ALL_ASSEMBLY_MEMBERS
100
AcDbSpline
 62
7
  6
CONTINUOUS
 70
0
 71
3
 72
11
 73
7
 74
0
 42
0.0000001
 43
0.0000001
 44
0.0000000001
 40
0.0
 40
0.0
 40
0.0
 40
0.0
 40
0.1762896857
 40
0.3992541494
 40
0.6737928814
 40
1.0
 40
1.0
 40
1.0
 40
1.0
 10
5.8179358174
 20
5.0714184774
 30
0.0
 10
5.81809825
 20
5.0716405921
 30
0.0
 10
5.8184165712
 20
5.0721796762
 30
0.0
 10
5.8188379723
 20
5.0731448823
 30
0.0
 10
5.8192465483
 20
5.0743653418
 30
0.0
 10
5.8194870055
 20
5.0752722358
 30
0.0
 10
5.8196059173
 20
5.0757673342
 30
0.0
  0
LINE
  5
524
100
AcDbEntity
  8
ALL_ASSEMBLY_MEMBERS
100
AcDbLine
 62
7
  6
CONTINUOUS
 10
5.8196059173
 20
5.0757673342
 11
5.8201087834
 21
5.0781980228
  0
LINE
  5
525
100
AcDbEntity
  8
ALL_ASSEMBLY_MEMBERS
100
AcDbLine
 62
7
  6
CONTINUOUS
 10
5.8101999735
 20
5.0796078046
 11
5.810383496
 21
5.0810677052
  0
LINE
  5
526
100
AcDbEntity
  8
ALL_ASSEMBLY_MEMBERS
100
AcDbLine
 62
7
  6
CONTINUOUS
 10
5.804656179
 20
5.0503660737
 11
5.8057891999
 21
5.0527888081
  0
LINE
  5
527
100
AcDbEntity
  8
ALL_ASSEMBLY_MEMBERS
100
AcDbLine
 62
7
  6
CONTINUOUS
 10
5.8057891999
 20
5.0527888081
 11
5.8063169949
 21
5.0545734855
  0
LINE
  5
528
100
AcDbEntity
  8
ALL_ASSEMBLY_MEMBERS
100
AcDbLine
 62
7
  6
CONTINUOUS
 10
5.8063169949
 20
5.0545734855
 11
5.8068108261
 21
5.0566702559
  0
LINE
  5
529
100
AcDbEntity
  8
ALL_ASSEMBLY_MEMBERS
100
AcDbLine
 62
7
  6
CONTINUOUS
 10
5.8068108261
 20
5.0566702559
 11
5.8072824573
 21
5.0590881063
  0
SPLINE
  5
52A
100
AcDbEntity
  8
ALL_ASSEMBLY_MEMBERS
100
AcDbSpline
 62
7
  6
CONTINUOUS
 70
0
 71
3
 72
13
 73
9
 74
0
 42
0.0000001
 43
0.0000001
 44
0.0000000001
 40
0.0
 40
0.0
 40
0.0
 40
0.0
 40
0.0761377229
 40
0.1598962845
 40
0.2573298013
 40
0.3713608735
 40
0.6518820024
 40
1.0
 40
1.0
 40
1.0
 40
1.0
 10
5.8165413081
 20
5.0571036053
 30
0.0
 10
5.8164547777
 20
5.057106859
 30
0.0
 10
5.8162730364
 20
5.0571462732
 30
0.0
 10
5.8160185353
 20
5.057298162
 30
0.0
 10
5.8157772158
 20
5.057534643
 30
0.0
 10
5.8154445757
 20
5.0579865202
 30
0.0
 10
5.8150663898
 20
5.0587471015
 30
0.0
 10
5.8148230536
 20
5.0594198785
 30
0.0
 10
5.8147013634
 20
5.0597966283
 30
0.0
  0
SPLINE
  5
52B
100
AcDbEntity
  8
ALL_ASSEMBLY_MEMBERS
100
AcDbSpline
 62
7
  6
CONTINUOUS
 70
0
 71
3
 72
10
 73
6
 74
0
 42
0.0000001
 43
0.0000001
 44
0.0000000001
 40
0.0
 40
0.0
 40
0.0
 40
0.0
 40
0.2098678472
 40
0.4502913674
 40
1.0
 40
1.0
 40
1.0
 40
1.0
 10
5.8147013634
 20
5.0597966283
 30
0.0
 10
5.8145316518
 20
5.0603220515
 30
0.0
 10
5.8142213468
 20
5.0614667241
 30
0.0
 10
5.8136745363
 20
5.0640407936
 30
0.0
 10
5.8133585797
 20
5.0660971366
 30
0.0
 10
5.8131641691
 20
5.0675302661
 30
0.0
  0
LINE
  5
52C
100
AcDbEntity
  8
ALL_ASSEMBLY_MEMBERS
100
AcDbLine
 62
7
  6
CONTINUOUS
 10
5.8106827962
 20
5.0834859272
 11
5.8103247021
 21
5.0858440151
  0
SPLINE
  5
52D
100
AcDbEntity
  8
ALL_ASSEMBLY_MEMBERS
100
AcDbSpline
 62
7
  6
CONTINUOUS
 70
0
 71
3
 72
10
 73
6
 74
0
 42
0.0000001
 43
0.0000001
 44
0.0000000001
 40
0.0
 40
0.0
 40
0.0
 40
0.0
 40
0.5476884368
 40
0.7875031286
 40
1.0
 40
1.0
 40
1.0
 40
1.0
 10
5.8103247021
 20
5.0858440151
 30
0.0
 10
5.8101581326
 20
5.0868482134
 30
0.0
 10
5.8098917687
 20
5.0882886447
 30
0.0
 10
5.8094494424
 20
5.0900942352
 30
0.0
 10
5.8092073253
 20
5.090900038
 30
0.0
 10
5.8090780213
 20
5.0912732121
 30
0.0
  0
LINE
  5
52E
100
AcDbEntity
  8
ALL_ASSEMBLY_MEMBERS
100
AcDbLine
 62
7
  6
CONTINUOUS
 10
5.8090780213
 20
5.0912732121
 11
5.8085871626
 21
5.0924481367
  0
SPLINE
  5
52F
100
AcDbEntity
  8
ALL_ASSEMBLY_MEMBERS
100
AcDbSpline
 62
7
  6
CONTINUOUS
 70
0
 71
3
 72
11
 73
7
 74
0
 42
0.0000001
 43
0.0000001
 44
0.0000000001
 40
0.0
 40
0.0
 40
0.0
 40
0.0
 40
0.3216258816
 40
0.5880549175
 40
0.8074432628
 40
1.0
 40
1.0
 40
1.0
 40
1.0
 10
5.8085871626
 20
5.0924481367
 30
0.0
 10
5.808504088
 20
5.0926076206
 30
0.0
 10
5.8083381626
 20
5.092892565
 30
0.0
 10
5.8080509059
 20
5.0932445159
 30
0.0
 10
5.8077404556
 20
5.0934725966
 30
0.0
 10
5.8075105399
 20
5.093533091
 30
0.0
 10
5.8074029612
 20
5.0935372711
 30
0.0
  0
LINE
  5
530
100
AcDbEntity
  8
ALL_ASSEMBLY_MEMBERS
100
AcDbLine
 62
7
  6
CONTINUOUS
 10
5.8128658034
 20
5.5320790267
 11
5.8136292128
 21
5.5361673786
  0
LINE
  5
531
100
AcDbEntity
  8
ALL_ASSEMBLY_MEMBERS
100
AcDbLine
 62
7
  6
CONTINUOUS
 10
5.8136292128
 20
5.5361673786
 11
5.8147114654
 21
5.5419853989
  0
LINE
  5
532
100
AcDbEntity
  8
ALL_ASSEMBLY_MEMBERS
100
AcDbLine
 62
7
  6
CONTINUOUS
 10
5.8052811777
 20
5.4923100848
 11
5.8056288152
 21
5.4940732474
  0
LINE
  5
533
100
AcDbEntity
  8
ALL_ASSEMBLY_MEMBERS
100
AcDbLine
 62
7
  6
CONTINUOUS
 10
5.8108788404
 20
5.5214888005
 11
5.8128658034
 21
5.5320790267
  0
LINE
  5
534
100
AcDbEntity
  8
ALL_ASSEMBLY_MEMBERS
100
AcDbLine
 62
7
  6
CONTINUOUS
 10
5.804897458
 20
5.4903791761
 11
5.8052811777
 21
5.4923100848
  0
SPLINE
  5
535
100
AcDbEntity
  8
ALL_ASSEMBLY_MEMBERS
100
AcDbSpline
 62
7
  6
CONTINUOUS
 70
0
 71
3
 72
9
 73
5
 74
0
 42
0.0000001
 43
0.0000001
 44
0.0000000001
 40
0.0
 40
0.0
 40
0.0
 40
0.0
 40
0.5650658137
 40
1.0
 40
1.0
 40
1.0
 40
1.0
 10
5.8160636084
 20
4.4447968874
 30
0.0
 10
5.8159460042
 20
4.4445988451
 30
0.0
 10
5.8157116895
 20
4.4442615123
 30
0.0
 10
5.8153585197
 20
4.4440208179
 30
0.0
 10
5.8151873978
 20
4.4439744771
 30
0.0
  0
LINE
  5
536
100
AcDbEntity
  8
ALL_ASSEMBLY_MEMBERS
100
AcDbLine
 62
7
  6
CONTINUOUS
 10
5.8105459432
 20
4.4434423633
 11
5.8116619815
 21
4.4387975751
  0
LINE
  5
537
100
AcDbEntity
  8
ALL_ASSEMBLY_MEMBERS
100
AcDbLine
 62
7
  6
CONTINUOUS
 10
5.8116619815
 20
4.4387975751
 11
5.8131606803
 21
4.4336902202
  0
LINE
  5
538
100
AcDbEntity
  8
ALL_ASSEMBLY_MEMBERS
100
AcDbLine
 62
7
  6
CONTINUOUS
 10
5.8139283051
 20
4.9791573622
 11
5.8127421542
 21
4.9757339077
  0
LINE
  5
539
100
AcDbEntity
  8
ALL_ASSEMBLY_MEMBERS
100
AcDbLine
 62
7
  6
CONTINUOUS
 10
5.8127421542
 20
4.9757339077
 11
5.812182655
 21
4.9745824476
  0
LINE
  5
53A
100
AcDbEntity
  8
ALL_ASSEMBLY_MEMBERS
100
AcDbLine
 62
7
  6
CONTINUOUS
 10
5.812182655
 20
4.9745824476
 11
5.8115978729
 21
4.9736510653
  0
SPLINE
  5
53B
100
AcDbEntity
  8
ALL_ASSEMBLY_MEMBERS
100
AcDbSpline
 62
7
  6
CONTINUOUS
 70
0
 71
3
 72
9
 73
5
 74
0
 42
0.0000001
 43
0.0000001
 44
0.0000000001
 40
0.0
 40
0.0
 40
0.0
 40
0.0
 40
0.5599915773
 40
1.0
 40
1.0
 40
1.0
 40
1.0
 10
5.8131606803
 20
4.4336902202
 30
0.0
 10
5.8134844964
 20
4.4327095165
 30
0.0
 10
5.8141006671
 20
4.4309705869
 30
0.0
 10
5.8148413811
 20
4.4292774093
 30
0.0
 10
5.8152183383
 20
4.4285587766
 30
0.0
  0
SPLINE
  5
53C
100
AcDbEntity
  8
ALL_ASSEMBLY_MEMBERS
100
AcDbSpline
 62
7
  6
CONTINUOUS
 70
0
 71
3
 72
11
 73
7
 74
0
 42
0.0000001
 43
0.0000001
 44
0.0000000001
 40
0.0
 40
0.0
 40
0.0
 40
0.0
 40
0.3133049644
 40
0.5794114097
 40
0.8033531749
 40
1.0
 40
1.0
 40
1.0
 40
1.0
 10
5.8115978729
 20
4.9736510653
 30
0.0
 10
5.8114676036
 20
4.9734730381
 30
0.0
 10
5.8112108673
 20
4.9731545004
 30
0.0
 10
5.8107929493
 20
4.972769181
 30
0.0
 10
5.8103691128
 20
4.9725243171
 30
0.0
 10
5.8100682962
 20
4.9724722418
 30
0.0
 10
5.8099300156
 20
4.9724792764
 30
0.0
  0
LINE
  5
53D
100
AcDbEntity
  8
ALL_ASSEMBLY_MEMBERS
100
AcDbLine
 62
7
  6
CONTINUOUS
 10
5.8068230285
 20
4.969986798
 11
5.8073157816
 21
4.967717993
  0
SPLINE
  5
53E
100
AcDbEntity
  8
ALL_ASSEMBLY_MEMBERS
100
AcDbSpline
 62
7
  6
CONTINUOUS
 70
0
 71
3
 72
10
 73
6
 74
0
 42
0.0000001
 43
0.0000001
 44
0.0000000001
 40
0.0
 40
0.0
 40
0.0
 40
0.0
 40
0.5704855168
 40
0.8024094167
 40
1.0
 40
1.0
 40
1.0
 40
1.0
 10
5.8073157816
 20
4.967717993
 30
0.0
 10
5.8075539644
 20
4.9667343797
 30
0.0
 10
5.807929233
 20
4.9653580514
 30
0.0
 10
5.8085521971
 20
4.9636959377
 30
0.0
 10
5.8088766193
 20
4.963004857
 30
0.0
 10
5.8090447308
 20
4.962697275
 30
0.0
  0
LINE
  5
53F
100
AcDbEntity
  8
ALL_ASSEMBLY_MEMBERS
100
AcDbLine
 62
7
  6
CONTINUOUS
 10
5.8174578366
 20
4.4511170265
 11
5.8170934167
 21
4.4485341596
  0
LINE
  5
540
100
AcDbEntity
  8
ALL_ASSEMBLY_MEMBERS
100
AcDbLine
 62
7
  6
CONTINUOUS
 10
5.8166312857
 20
4.4463050151
 11
5.8163993696
 21
4.4455461778
  0
LINE
  5
541
100
AcDbEntity
  8
ALL_ASSEMBLY_MEMBERS
100
AcDbLine
 62
7
  6
CONTINUOUS
 10
5.8163993696
 20
4.4455461778
 11
5.8160636084
 21
4.4447968874
  0
SPLINE
  5
542
100
AcDbEntity
  8
ALL_ASSEMBLY_MEMBERS
100
AcDbSpline
 62
7
  6
CONTINUOUS
 70
0
 71
3
 72
11
 73
7
 74
0
 42
0.0000001
 43
0.0000001
 44
0.0000000001
 40
0.0
 40
0.0
 40
0.0
 40
0.0
 40
0.1988803001
 40
0.423291373
 40
0.6885333028
 40
1.0
 40
1.0
 40
1.0
 40
1.0
 10
5.8055332745
 20
4.972695071
 30
0.0
 10
5.8056739
 20
4.9726879541
 30
0.0
 10
5.8059784242
 20
4.972738533
 30
0.0
 10
5.8064074388
 20
4.972982905
 30
0.0
 10
5.806827269
 20
4.9733686045
 30
0.0
 10
5.8070838987
 20
4.9736877243
 30
0.0
 10
5.8072137373
 20
4.9738659632
 30
0.0
  0
SPLINE
  5
543
100
AcDbEntity
  8
ALL_ASSEMBLY_MEMBERS
100
AcDbSpline
 62
7
  6
CONTINUOUS
 70
0
 71
3
 72
10
 73
6
 74
0
 42
0.0000001
 43
0.0000001
 44
0.0000000001
 40
0.0
 40
0.0
 40
0.0
 40
0.0
 40
0.2013130668
 40
0.5521877797
 40
1.0
 40
1.0
 40
1.0
 40
1.0
 10
5.8105788234
 20
4.4434636862
 30
0.0
 10
5.8106646502
 20
4.4434732002
 30
0.0
 10
5.8108959141
 20
4.443548143
 30
0.0
 10
5.8112229628
 20
4.4438426007
 30
0.0
 10
5.8114081544
 20
4.444132876
 30
0.0
 10
5.8115004455
 20
4.4443013394
 30
0.0
  0
SPLINE
  5
544
100
AcDbEntity
  8
ALL_ASSEMBLY_MEMBERS
100
AcDbSpline
 62
7
  6
CONTINUOUS
 70
0
 71
3
 72
10
 73
6
 74
0
 42
0.0000001
 43
0.0000001
 44
0.0000000001
 40
0.0
 40
0.0
 40
0.0
 40
0.0
 40
0.302667552
 40
0.683844774
 40
1.0
 40
1.0
 40
1.0
 40
1.0
 10
5.8092972201
 20
5.0498675638
 30
0.0
 10
5.809225046
 20
5.0497840391
 30
0.0
 10
5.8090525363
 20
5.0496035
 30
0.0
 10
5.8087578147
 20
5.0493814596
 30
0.0
 10
5.8084997553
 20
5.049315582
 30
0.0
 10
5.808384606
 20
5.0493216096
 30
0.0
  0
LINE
  5
545
100
AcDbEntity
  8
ALL_ASSEMBLY_MEMBERS
100
AcDbLine
 62
7
  6
CONTINUOUS
 10
5.8094825612
 20
5.1040420154
 11
5.8084013539
 21
5.1009761359
  0
LINE
  5
546
100
AcDbEntity
  8
ALL_ASSEMBLY_MEMBERS
100
AcDbLine
 62
7
  6
CONTINUOUS
 10
5.8084013539
 20
5.1009761359
 11
5.8079910925
 21
5.099386903
  0
LINE
  5
547
100
AcDbEntity
  8
ALL_ASSEMBLY_MEMBERS
100
AcDbLine
 62
7
  6
CONTINUOUS
 10
5.8079910925
 20
5.099386903
 11
5.8071953584
 21
5.0954522913
  0
SPLINE
  5
548
100
AcDbEntity
  8
ALL_ASSEMBLY_MEMBERS
100
AcDbSpline
 62
7
  6
CONTINUOUS
 70
0
 71
3
 72
13
 73
9
 74
0
 42
0.0000001
 43
0.0000001
 44
0.0000000001
 40
0.0
 40
0.0
 40
0.0
 40
0.0
 40
0.0746944214
 40
0.1568959761
 40
0.2521785425
 40
0.3640307348
 40
0.6441167137
 40
1.0
 40
1.0
 40
1.0
 40
1.0
 10
5.8041336147
 20
5.0374285262
 30
0.0
 10
5.8040341753
 20
5.0374337059
 30
0.0
 10
5.8038260445
 20
5.0374820313
 30
0.0
 10
5.8035341161
 20
5.0376563638
 30
0.0
 10
5.803254972
 20
5.0379260775
 30
0.0
 10
5.8028682929
 20
5.038450592
 30
0.0
 10
5.8024351105
 20
5.0393558763
 30
0.0
 10
5.8021652099
 20
5.0401601304
 30
0.0
 10
5.8020301571
 20
5.0406149254
 30
0.0
  0
LINE
  5
549
100
AcDbEntity
  8
ALL_ASSEMBLY_MEMBERS
100
AcDbLine
 62
7
  6
CONTINUOUS
 10
5.8020301571
 20
5.0406149254
 11
5.8016783955
 21
5.0419483818
  0
LINE
  5
54A
100
AcDbEntity
  8
ALL_ASSEMBLY_MEMBERS
100
AcDbLine
 62
7
  6
CONTINUOUS
 10
5.8054750136
 20
5.0489549934
 11
5.80595146
 21
5.0448521715
  0
LINE
  5
54B
100
AcDbEntity
  8
ALL_ASSEMBLY_MEMBERS
100
AcDbLine
 62
7
  6
CONTINUOUS
 10
5.80595146
 20
5.0448521715
 11
5.8062365431
 21
5.0431665382
  0
LINE
  5
54C
100
AcDbEntity
  8
ALL_ASSEMBLY_MEMBERS
100
AcDbLine
 62
7
  6
CONTINUOUS
 10
5.8062365431
 20
5.0431665382
 11
5.8065497808
 21
5.0417097882
  0
LINE
  5
54D
100
AcDbEntity
  8
ALL_ASSEMBLY_MEMBERS
100
AcDbLine
 62
7
  6
CONTINUOUS
 10
5.8065497808
 20
5.0417097882
 11
5.8068023077
 21
5.0407443331
  0
LINE
  5
54E
100
AcDbEntity
  8
ALL_ASSEMBLY_MEMBERS
100
AcDbLine
 62
7
  6
CONTINUOUS
 10
5.8181564112
 20
5.0661112639
 11
5.8191492203
 21
5.0610444612
  0
LINE
  5
54F
100
AcDbEntity
  8
ALL_ASSEMBLY_MEMBERS
100
AcDbLine
 62
7
  6
CONTINUOUS
 10
5.8210046602
 20
5.1170461643
 11
5.8196258061
 21
5.1128577411
  0
LINE
  5
550
100
AcDbEntity
  8
ALL_ASSEMBLY_MEMBERS
100
AcDbLine
 62
7
  6
CONTINUOUS
 10
5.8137395247
 20
5.0904290548
 11
5.8143977479
 21
5.0880066657
  0
LINE
  5
551
100
AcDbEntity
  8
ALL_ASSEMBLY_MEMBERS
100
AcDbLine
 62
7
  6
CONTINUOUS
 10
5.8193650247
 20
5.1117926844
 11
5.8191255785
 21
5.1106931076
  0
LINE
  5
552
100
AcDbEntity
  8
ALL_ASSEMBLY_MEMBERS
100
AcDbLine
 62
7
  6
CONTINUOUS
 10
5.8191255785
 20
5.1106931076
 11
5.8184371291
 21
5.1068662811
  0
SPLINE
  5
553
100
AcDbEntity
  8
ALL_ASSEMBLY_MEMBERS
100
AcDbSpline
 62
7
  6
CONTINUOUS
 70
0
 71
3
 72
9
 73
5
 74
0
 42
0.0000001
 43
0.0000001
 44
0.0000000001
 40
0.0
 40
0.0
 40
0.0
 40
0.0
 40
0.4468060523
 40
1.0
 40
1.0
 40
1.0
 40
1.0
 10
5.8166449957
 20
5.0705182132
 30
0.0
 10
5.8167965506
 20
5.0705102198
 30
0.0
 10
5.8171414588
 20
5.0706035311
 30
0.0
 10
5.8174075876
 20
5.0708231563
 30
0.0
 10
5.8175417105
 20
5.0709547552
 30
0.0
  0
LINE
  5
554
100
AcDbEntity
  8
ALL_ASSEMBLY_MEMBERS
100
AcDbLine
 62
7
  6
CONTINUOUS
 10
5.8175417105
 20
5.0709547552
 11
5.8179358174
 21
5.0714184774
  0
LINE
  5
555
100
AcDbEntity
  8
ALL_ASSEMBLY_MEMBERS
100
AcDbLine
 62
7
  6
CONTINUOUS
 10
5.8046772863
 20
5.4951177783
 11
5.8054744116
 21
5.4995051152
  0
LINE
  5
556
100
AcDbEntity
  8
ALL_ASSEMBLY_MEMBERS
100
AcDbLine
 62
7
  6
CONTINUOUS
 10
5.8054744116
 20
5.4995051152
 11
5.8058845004
 21
5.501745958
  0
LINE
  5
557
100
AcDbEntity
  8
ALL_ASSEMBLY_MEMBERS
100
AcDbLine
 62
7
  6
CONTINUOUS
 10
5.8098224141
 20
5.5229141284
 11
5.8112685393
 21
5.5305866054
  0
SPLINE
  5
558
100
AcDbEntity
  8
ALL_ASSEMBLY_MEMBERS
100
AcDbSpline
 62
7
  6
CONTINUOUS
 70
0
 71
3
 72
18
 73
14
 74
0
 42
0.0000001
 43
0.0000001
 44
0.0000000001
 40
0.0
 40
0.0
 40
0.0
 40
0.0
 40
0.0058295107
 40
0.0179736096
 40
0.0375784404
 40
0.0650522346
 40
0.1006800206
 40
0.1446146466
 40
0.2569769332
 40
0.4010592436
 40
0.5750906746
 40
0.7758689666
 40
1.0
 40
1.0
 40
1.0
 40
1.0
 10
5.8010811089
 20
5.4725098132
 30
0.0
 10
5.8010659672
 20
5.4725126808
 30
0.0
 10
5.8010404384
 20
5.4725643073
 30
0.0
 10
5.8010314014
 20
5.4726576467
 30
0.0
 10
5.8010257774
 20
5.4728172283
 30
0.0
 10
5.801035077
 20
5.4730345004
 30
0.0
 10
5.8010553966
 20
5.4733172394
 30
0.0
 10
5.8011046354
 20
5.4738220215
 30
0.0
 10
5.801200875
 20
5.474610485
 30
0.0
 10
5.8013578775
 20
5.4757375613
 30
0.0
 10
5.8015624329
 20
5.4770940088
 30
0.0
 10
5.8018102163
 20
5.4786578552
 30
0.0
 10
5.8019920945
 20
5.4797663266
 30
0.0
 10
5.8020891674
 20
5.4803508314
 30
0.0
  0
LINE
  5
559
100
AcDbEntity
  8
ALL_ASSEMBLY_MEMBERS
100
AcDbLine
 62
7
  6
CONTINUOUS
 10
5.8212389699
 20
5.5820220496
 11
5.822795016
 21
5.5890793479
  0
LINE
  5
55A
100
AcDbEntity
  8
ALL_ASSEMBLY_MEMBERS
100
AcDbLine
 62
7
  6
CONTINUOUS
 10
5.8112685393
 20
5.5305866054
 11
5.8122487485
 21
5.5357660113
  0
LINE
  5
55B
100
AcDbEntity
  8
ALL_ASSEMBLY_MEMBERS
100
AcDbLine
 62
7
  6
CONTINUOUS
 10
5.8122487485
 20
5.5357660113
 11
5.8132097264
 21
5.5408265774
  0
LINE
  5
55C
100
AcDbEntity
  8
ALL_ASSEMBLY_MEMBERS
100
AcDbLine
 62
7
  6
CONTINUOUS
 10
5.8132097264
 20
5.5408265774
 11
5.8141514071
 21
5.5457676668
  0
LINE
  5
55D
100
AcDbEntity
  8
ALL_ASSEMBLY_MEMBERS
100
AcDbLine
 62
7
  6
CONTINUOUS
 10
5.8050134786
 20
5.3551863104
 11
5.8143007491
 21
5.3927535995
  0
SPLINE
  5
55E
100
AcDbEntity
  8
ALL_ASSEMBLY_MEMBERS
100
AcDbSpline
 62
7
  6
CONTINUOUS
 70
0
 71
3
 72
11
 73
7
 74
0
 42
0.0000001
 43
0.0000001
 44
0.0000000001
 40
0.0
 40
0.0
 40
0.0
 40
0.0
 40
0.3162230172
 40
0.5836588638
 40
0.8067748157
 40
1.0
 40
1.0
 40
1.0
 40
1.0
 10
5.80626354
 20
5.1057096706
 30
0.0
 10
5.8063771947
 20
5.105866144
 30
0.0
 10
5.8066003191
 20
5.1061459651
 30
0.0
 10
5.8069615298
 20
5.1064855085
 30
0.0
 10
5.8073247142
 20
5.1067024951
 30
0.0
 10
5.8075831344
 20
5.1067511549
 30
0.0
 10
5.8077011593
 20
5.1067452648
 30
0.0
  0
LINE
  5
55F
100
AcDbEntity
  8
ALL_ASSEMBLY_MEMBERS
100
AcDbLine
 62
7
  6
CONTINUOUS
 10
5.8022066615
 20
5.0906521411
 11
5.8033812497
 21
5.0973906416
  0
SPLINE
  5
560
100
AcDbEntity
  8
ALL_ASSEMBLY_MEMBERS
100
AcDbSpline
 62
7
  6
CONTINUOUS
 70
0
 71
3
 72
11
 73
7
 74
0
 42
0.0000001
 43
0.0000001
 44
0.0000000001
 40
0.0
 40
0.0
 40
0.0
 40
0.0
 40
0.3318456997
 40
0.6116941422
 40
0.8333053278
 40
1.0
 40
1.0
 40
1.0
 40
1.0
 10
5.8033812497
 20
5.0973906416
 30
0.0
 10
5.8035845173
 20
5.0983484107
 30
0.0
 10
5.8039954839
 20
5.1001064379
 30
0.0
 10
5.804691825
 20
5.1024670836
 30
0.0
 10
5.8054165143
 20
5.1043028651
 30
0.0
 10
5.8059745005
 20
5.1053117374
 30
0.0
 10
5.80626354
 20
5.1057096706
 30
0.0
  0
LINE
  5
561
100
AcDbEntity
  8
ALL_ASSEMBLY_MEMBERS
100
AcDbLine
 62
7
  6
CONTINUOUS
 10
5.8016783955
 20
5.0419483818
 11
5.8007684379
 21
5.0479606814
  0
LINE
  5
562
100
AcDbEntity
  8
ALL_ASSEMBLY_MEMBERS
100
AcDbLine
 62
7
  6
CONTINUOUS
 10
5.8007684379
 20
5.0479606814
 11
5.8004310084
 21
5.0529314613
  0
ENDSEC
  0
SECTION
  2
OBJECTS
  0
DICTIONARY
  5
C
100
AcDbDictionary
280
0
281
1
  3
ACAD_GROUP
350
D
  3
ACAD_MLINESTYLE
350
17
  3
ACAD_LAYOUT
350
1A
  3
ACAD_PLOTSETTINGS
350
19
  3
ACAD_PLOTSTYLENAME
350
E
  0
DICTIONARY
  5
D
102
{ACAD_REACTORS
330
C
102
}
100
AcDbDictionary
280
0
281
1
  0
ACDBDICTIONARYWDFLT
  5
E
102
{ACAD_REACTORS
330
C
102
}
100
AcDbDictionary
281
1
  3
Normal
350
F
100
AcDbDictionaryWithDefault
340
F
  0
DICTIONARY
  5
17
102
{ACAD_REACTORS
330
C
102
}
100
AcDbDictionary
280
0
281
1
  3
Standard
350
18
  0
DICTIONARY
  5
19
102
{ACAD_REACTORS
330
C
102
}
100
AcDbDictionary
281
1
  0
DICTIONARY
  5
1A
102
{ACAD_REACTORS
330
C
102
}
100
AcDbDictionary
281
1
  3
Model
350
563
  3
Layout1
350
564
  0
ACDBPLACEHOLDER
  5
F
102
{ACAD_REACTORS
330
E
102
}
  0
MLINESTYLE
  5
18
102
{ACAD_REACTORS
330
17
102
}
100
AcDbMlineStyle
  2
STANDARD
 70
0
  3

 62
256
 51
90.0
 52
90.0
 71
2
 49
0.5
 62
256
  6
BYLAYER
 49
-0.5
 62
256
  6
BYLAYER
  0
LAYOUT
  5
563
102
{ACAD_REACTORS
330
1A
102
}
100
AcDbPlotSettings
  1

  2
none_device
  4
ANSI_A_(11.00_x_8.50_Inches)
  6

 40
0.0
 41
0.0
 42
0.0
 43
0.0
 44
279.4
 45
215.9
 46
0.0
 47
0.0
 48
0.0
 49
0.0
140
0.0
141
0.0
142
1.0
143
1.0
 70
1024
 72
0
 73
0
 74
0
  7

 75
0
147
1.0
148
0.0
149
0.0
100
AcDbLayout
  1
Model
 70
0
 71
0
 10
0.0
 20
0.0
 11
11.0
 21
8.5
 12
0.0
 22
0.0
 32
0.0
 14
0.0
 24
0.0
 34
0.0
 15
0.0
 25
0.0
 35
0.0
146
0.0
 13
0.0
 23
0.0
 33
0.0
 16
1.0
 26
0.0
 36
0.0
 17
0.0
 27
1.0
 37
0.0
 76
0
330
21E
345
0
346
0
  0
LAYOUT
  5
564
102
{ACAD_REACTORS
330
1A
102
}
100
AcDbPlotSettings
  1

  2
none_device
  4
ANSI_A_(11.00_x_8.50_Inches)
  6

 40
0.0
 41
0.0
 42
0.0
 43
0.0
 44
279.4
 45
215.9
 46
0.0
 47
0.0
 48
0.0
 49
0.0
140
0.0
141
0.0
142
1.0
143
1.0
 70
0
 72
0
 73
0
 74
0
  7

 75
0
147
1.0
148
0.0
149
0.0
100
AcDbLayout
  1
Layout1
 70
0
 71
1
 10
0.0
 20
0.0
 11
11.0
 21
8.5
 12
0.0
 22
0.0
 32
0.0
 14
0.0
 24
0.0
 34
0.0
 15
0.0
 25
0.0
 35
0.0
146
0.0
 13
0.0
 23
0.0
 33
0.0
 16
1.0
 26
0.0
 36
0.0
 17
0.0
 27
1.0
 37
0.0
 76
0
330
21F
345
0
346
0
  0
ENDSEC
  0
EOF
