999
DXF file: 3-2524ts_TOP.dxf
999
Pro/ENGINEER 2018400 by Parametric Technology Corporation
  0
SECTION
  2
HEADER
  9
$ACADVER
  1
AC1027
  9
$DWGCODEPAGE
  3
ANSI_1252
  9
$EXTMAX
 10
11.0
 20
8.5
 30
0.0
  9
$EXTMIN
 10
0.0
 20
0.0
 30
0.0
  9
$LIMMIN
 10
0.0
 20
0.0
  9
$LIMMAX
 10
11.0
 20
8.5
  9
$VIEWCTR
 10
5.5
 20
4.25
  9
$VIEWSIZE
 40
8.5
  9
$CLAYER
  8
0
  9
$LTSCALE
 40
0.605
  9
$CELTYPE
  6
BYLAYER
  9
$DIMSCALE
 40
1.0
  9
$DIMASZ
 40
0.1
  9
$DIMEXO
 40
0.0625
  9
$DIMDLI
 40
0.418
  9
$DIMEXE
 40
0.125
  9
$DIMCEN
 40
0.099
  9
$DIMLFAC
 40
1.0
  9
$DIMBLK
  1
_FILLED
  9
$DIMALT
 70
1
  9
$DIMALTD
 70
2
  9
$DIMALTTD
 70
2
  9
$DIMALTF
 40
25.4
  9
$DIMTXT
 40
0.08
  9
$DIMTOL
 70
1
  9
$DIMLIM
 70
0
  9
$DIMTFAC
 40
1.0
  9
$DIMTP
 40
0.001
  9
$DIMTM
 40
0.001
  9
$DIMGAP
 40
0.09
  9
$DIMDSEP
 70
46
  9
$AUNITS
 70
0
  9
$PDMODE
 70
3
  9
$PDSIZE
 40
0.3125
  9
$HANDSEED
  5
5B3
  9
$TILEMODE
 70
1
  9
$MEASUREMENT
 70
0
  9
$INSUNITS
 70
1
  0
ENDSEC
  0
SECTION
  2
CLASSES
  0
CLASS
  1
ACDBDICTIONARYWDFLT
  2
AcDbDictionaryWithDefault
  3
AutoCAD 2000
 90
0
 91
1
280
0
281
0
  0
CLASS
  1
ACDBPLACEHOLDER
  2
AcDbPlaceHolder
  3
AutoCAD 2000
 90
0
 91
1
280
0
281
0
  0
CLASS
  1
LAYOUT
  2
AcDbLayout
  3
AutoCAD 2000
 90
0
 91
0
280
0
281
0
  0
ENDSEC
  0
SECTION
  2
TABLES
  0
TABLE
  2
VPORT
  5
8
100
AcDbSymbolTable
 70
2
  0
VPORT
  5
1F4
100
AcDbSymbolTableRecord
100
AcDbViewportTableRecord
  2
*ACTIVE
 70
0
 10
0.0
 20
0.0
 11
1.0
 21
1.0
 12
5.5
 22
4.25
 13
0.0
 23
0.0
 14
1.0
 24
1.0
 15
0.0
 25
0.0
 16
0.0
 26
0.0
 36
1.0
 17
0.0
 27
0.0
 37
0.0
 40
8.5
 41
1.2941176471
 42
50.0
 43
0.0
 44
0.0
 50
0.0
 51
0.0
 71
0
 72
100
 73
1
 74
1
 75
0
 76
0
 77
0
 78
0
  0
ENDTAB
  0
TABLE
  2
LTYPE
  5
5
100
AcDbSymbolTable
 70
6
  0
LTYPE
  5
14
100
AcDbSymbolTableRecord
100
AcDbLinetypeTableRecord
  2
BYBLOCK
 70
0
  3

 72
65
 73
0
 40
0.0
  0
LTYPE
  5
15
100
AcDbSymbolTableRecord
100
AcDbLinetypeTableRecord
  2
BYLAYER
 70
0
  3

 72
65
 73
0
 40
0.0
  0
LTYPE
  5
16
100
AcDbSymbolTableRecord
100
AcDbLinetypeTableRecord
  2
CONTINUOUS
 70
64
  3
Solid line
 72
65
 73
0
 40
0.0
  0
LTYPE
  5
1F5
100
AcDbSymbolTableRecord
100
AcDbLinetypeTableRecord
  2
CENTER
 70
64
  3
____ _ ____ _ ____ _ ____ _ ____ _ ____ _ ____
 72
65
 73
4
 40
0.6
 49
0.375
 74
0
 49
-0.075
 74
0
 49
0.075
 74
0
 49
-0.075
 74
0
  0
LTYPE
  5
1F6
100
AcDbSymbolTableRecord
100
AcDbLinetypeTableRecord
  2
HIDDEN
 70
64
  3
- - - - - - - - - - - - - - - - - - - -
 72
65
 73
2
 40
0.2
 49
0.1
 74
0
 49
-0.1
 74
0
  0
LTYPE
  5
1F7
100
AcDbSymbolTableRecord
100
AcDbLinetypeTableRecord
  2
PHANTOM
 70
64
  3
_____ _ _ _____ _ _ _____ _ _ _____
 72
65
 73
6
 40
0.8
 49
0.45
 74
0
 49
-0.05
 74
0
 49
0.1
 74
0
 49
-0.05
 74
0
 49
0.1
 74
0
 49
-0.05
 74
0
  0
LTYPE
  5
1F8
100
AcDbSymbolTableRecord
100
AcDbLinetypeTableRecord
  2
DOT
 70
64
  3
. . . . . . . . . . . . . . . . . . . .
 72
65
 73
2
 40
0.2
 49
0.1
 74
0
 49
-0.1
 74
0
  0
LTYPE
  5
1F9
100
AcDbSymbolTableRecord
100
AcDbLinetypeTableRecord
  2
DASHED
 70
64
  3
- - - - - - - - - - - - - - - - - - - -
 72
65
 73
2
 40
0.2
 49
0.1
 74
0
 49
-0.1
 74
0
  0
ENDTAB
  0
TABLE
  2
LAYER
  5
2
100
AcDbSymbolTable
 70
36
  0
LAYER
  5
10
100
AcDbSymbolTableRecord
100
AcDbLayerTableRecord
  2
0
 70
0
 62
7
  6
CONTINUOUS
370
-3
390
F
  0
LAYER
  5
1FA
100
AcDbSymbolTableRecord
100
AcDbLayerTableRecord
  2
DEFAULT_1
 70
0
 62
7
  6
CENTER
370
-3
390
F
  0
LAYER
  5
1FB
100
AcDbSymbolTableRecord
100
AcDbLayerTableRecord
  2
DEFAULT_2
 70
0
 62
8
  6
HIDDEN
370
-3
390
F
  0
LAYER
  5
1FC
100
AcDbSymbolTableRecord
100
AcDbLayerTableRecord
  2
DEFAULT_3
 70
0
 62
7
  6
PHANTOM
370
-3
390
F
  0
LAYER
  5
1FD
100
AcDbSymbolTableRecord
100
AcDbLayerTableRecord
  2
ALL_ASSEMBLY_MEMBERS
 70
0
 62
7
  6
CONTINUOUS
370
-3
390
F
  0
LAYER
  5
1FE
100
AcDbSymbolTableRecord
100
AcDbLayerTableRecord
  2
ALL_FEATURES
 70
0
 62
7
  6
CONTINUOUS
370
-3
390
F
  0
LAYER
  5
1FF
100
AcDbSymbolTableRecord
100
AcDbLayerTableRecord
  2
AXES_FEATURES
 70
0
 62
7
  6
CONTINUOUS
370
-3
390
F
  0
LAYER
  5
200
100
AcDbSymbolTableRecord
100
AcDbLayerTableRecord
  2
CHAMFER_FEATURES
 70
0
 62
7
  6
CONTINUOUS
370
-3
390
F
  0
LAYER
  5
201
100
AcDbSymbolTableRecord
100
AcDbLayerTableRecord
  2
COSMETIC_SKETCHES
 70
0
 62
7
  6
CONTINUOUS
370
-3
390
F
  0
LAYER
  5
202
100
AcDbSymbolTableRecord
100
AcDbLayerTableRecord
  2
CUT_FEATURES
 70
0
 62
7
  6
CONTINUOUS
370
-3
390
F
  0
LAYER
  5
203
100
AcDbSymbolTableRecord
100
AcDbLayerTableRecord
  2
DATUM_CURVES
 70
0
 62
7
  6
CONTINUOUS
370
-3
390
F
  0
LAYER
  5
204
100
AcDbSymbolTableRecord
100
AcDbLayerTableRecord
  2
DATUM_PLANES
 70
0
 62
7
  6
CONTINUOUS
370
-3
390
F
  0
LAYER
  5
205
100
AcDbSymbolTableRecord
100
AcDbLayerTableRecord
  2
DATUM_POINTS
 70
0
 62
7
  6
CONTINUOUS
370
-3
390
F
  0
LAYER
  5
206
100
AcDbSymbolTableRecord
100
AcDbLayerTableRecord
  2
DEFAULT_COORDINATE_SYSTEM
 70
0
 62
7
  6
CONTINUOUS
370
-3
390
F
  0
LAYER
  5
207
100
AcDbSymbolTableRecord
100
AcDbLayerTableRecord
  2
DEFAULT_DATUM_AXES
 70
0
 62
7
  6
CONTINUOUS
370
-3
390
F
  0
LAYER
  5
208
100
AcDbSymbolTableRecord
100
AcDbLayerTableRecord
  2
DEFAULT_DATUM_CURVES
 70
0
 62
7
  6
CONTINUOUS
370
-3
390
F
  0
LAYER
  5
209
100
AcDbSymbolTableRecord
100
AcDbLayerTableRecord
  2
DEFAULT_DATUM_PLANES
 70
0
 62
7
  6
CONTINUOUS
370
-3
390
F
  0
LAYER
  5
20A
100
AcDbSymbolTableRecord
100
AcDbLayerTableRecord
  2
DEFAULT_SURFACES
 70
0
 62
7
  6
CONTINUOUS
370
-3
390
F
  0
LAYER
  5
20B
100
AcDbSymbolTableRecord
100
AcDbLayerTableRecord
  2
DIMENSIONS
 70
0
 62
7
  6
CONTINUOUS
370
-3
390
F
  0
LAYER
  5
20C
100
AcDbSymbolTableRecord
100
AcDbLayerTableRecord
  2
HOLE_FEATURES
 70
0
 62
7
  6
CONTINUOUS
370
-3
390
F
  0
LAYER
  5
20D
100
AcDbSymbolTableRecord
100
AcDbLayerTableRecord
  2
HOLE_PATTERN
 70
0
 62
7
  6
CONTINUOUS
370
-3
390
F
  0
LAYER
  5
20E
100
AcDbSymbolTableRecord
100
AcDbLayerTableRecord
  2
NONE
 70
0
 62
7
  6
CONTINUOUS
370
-3
390
F
  0
LAYER
  5
20F
100
AcDbSymbolTableRecord
100
AcDbLayerTableRecord
  2
PART_REFERENCE_DIMENSIONS
 70
0
 62
7
  6
CONTINUOUS
370
-3
390
F
  0
LAYER
  5
210
100
AcDbSymbolTableRecord
100
AcDbLayerTableRecord
  2
PLATED_SURFACE_AREA
 70
0
 62
7
  6
CONTINUOUS
370
-3
390
F
  0
LAYER
  5
211
100
AcDbSymbolTableRecord
100
AcDbLayerTableRecord
  2
POINTS
 70
0
 62
7
  6
CONTINUOUS
370
-3
390
F
  0
LAYER
  5
212
100
AcDbSymbolTableRecord
100
AcDbLayerTableRecord
  2
PROTRUSION
 70
0
 62
7
  6
CONTINUOUS
370
-3
390
F
  0
LAYER
  5
213
100
AcDbSymbolTableRecord
100
AcDbLayerTableRecord
  2
PROTRUSION_FEATURES
 70
0
 62
7
  6
CONTINUOUS
370
-3
390
F
  0
LAYER
  5
214
100
AcDbSymbolTableRecord
100
AcDbLayerTableRecord
  2
QUILT
 70
0
 62
7
  6
CONTINUOUS
370
-3
390
F
  0
LAYER
  5
215
100
AcDbSymbolTableRecord
100
AcDbLayerTableRecord
  2
QUILTS
 70
0
 62
7
  6
CONTINUOUS
370
-3
390
F
  0
LAYER
  5
216
100
AcDbSymbolTableRecord
100
AcDbLayerTableRecord
  2
REFERENCE_DIMENSIONS
 70
0
 62
7
  6
CONTINUOUS
370
-3
390
F
  0
LAYER
  5
217
100
AcDbSymbolTableRecord
100
AcDbLayerTableRecord
  2
ROUND_FEATURES
 70
0
 62
7
  6
CONTINUOUS
370
-3
390
F
  0
LAYER
  5
218
100
AcDbSymbolTableRecord
100
AcDbLayerTableRecord
  2
SATIN_DIRECTION
 70
0
 62
7
  6
CONTINUOUS
370
-3
390
F
  0
LAYER
  5
219
100
AcDbSymbolTableRecord
100
AcDbLayerTableRecord
  2
SHELL_FEATURES
 70
0
 62
7
  6
CONTINUOUS
370
-3
390
F
  0
LAYER
  5
21A
100
AcDbSymbolTableRecord
100
AcDbLayerTableRecord
  2
SURFACE_FEATURES
 70
0
 62
7
  6
CONTINUOUS
370
-3
390
F
  0
LAYER
  5
21B
100
AcDbSymbolTableRecord
100
AcDbLayerTableRecord
  2
XSEC_DATUMS
 70
0
 62
7
  6
CONTINUOUS
370
-3
390
F
  0
ENDTAB
  0
TABLE
  2
STYLE
  5
3
100
AcDbSymbolTable
 70
1
  0
STYLE
  5
11
100
AcDbSymbolTableRecord
100
AcDbTextStyleTableRecord
  2
STANDARD
 70
0
 40
0.0
 41
0.8
 50
0.0
 71
0
 42
0.2
  3
txt
  4

  0
STYLE
  5
21C
100
AcDbSymbolTableRecord
100
AcDbTextStyleTableRecord
  2
TEXTSTYLE_1
 70
0
 40
0.0
 41
0.8
 50
0.0
 71
0
 42
0.2
  3
gdt
  4

  0
ENDTAB
  0
TABLE
  2
VIEW
  5
6
100
AcDbSymbolTable
 70
0
  0
ENDTAB
  0
TABLE
  2
UCS
  5
7
100
AcDbSymbolTable
 70
0
  0
ENDTAB
  0
TABLE
  2
APPID
  5
9
100
AcDbSymbolTable
 70
1
  0
APPID
  5
21D
100
AcDbSymbolTableRecord
100
AcDbRegAppTableRecord
  2
ACAD
 70
0
  0
ENDTAB
  0
TABLE
  2
BLOCK_RECORD
  5
1
100
AcDbSymbolTable
 70
0
  0
BLOCK_RECORD
  5
21E
100
AcDbSymbolTableRecord
100
AcDbBlockTableRecord
  2
*Model_Space
  0
BLOCK_RECORD
  5
21F
100
AcDbSymbolTableRecord
100
AcDbBlockTableRecord
  2
*Paper_Space
  0
BLOCK_RECORD
  5
220
100
AcDbSymbolTableRecord
100
AcDbBlockTableRecord
  2
_FILLED
  0
ENDTAB
  0
TABLE
  2
DIMSTYLE
  5
A
100
AcDbSymbolTable
 70
1
100
AcDbDimStyleTable
 71
0
  0
DIMSTYLE
105
221
100
AcDbSymbolTableRecord
100
AcDbDimStyleTableRecord
  2
STANDARD
 70
0
  3

  4

 40
1.0
 41
0.1
 42
0.0625
 43
0.38
 44
0.125
 45
0.0
 46
0.0
 47
0.001
 48
0.001
140
0.08
141
0.09
142
0.0
143
25.4
144
1.0
145
0.0
146
1.0
147
0.09
 71
1.0
 72
0.0
 73
1
 74
1
 75
0
 76
0
 77
0
 78
4
 79
1
170
1
171
2
172
0
173
0
174
0
175
0
176
0
177
0
178
0
270
2
179
3
271
3
272
3
273
2
274
2
275
0
280
0
281
0
282
0
283
1
284
4
285
0
286
0
287
3
288
0
340
11
278
46
341
220
342
220
343
220
344
220
  0
ENDTAB
  0
ENDSEC
  0
SECTION
  2
BLOCKS
  0
BLOCK
  5
20
100
AcDbEntity
  8
0
100
AcDbBlockBegin
  2
*Model_Space
 70
0
 10
0.0
 20
0.0
 30
0.0
  3
*Model_Space
  1

  0
ENDBLK
  5
21
100
AcDbEntity
  8
0
100
AcDbBlockEnd
  0
BLOCK
  5
1C
100
AcDbEntity
  8
0
100
AcDbBlockBegin
  2
*Paper_Space
 70
0
 10
0.0
 20
0.0
 30
0.0
  3
*Paper_Space
  1

  0
ENDBLK
  5
1D
100
AcDbEntity
  8
0
100
AcDbBlockEnd
  0
BLOCK
  5
222
100
AcDbEntity
  8
0
100
AcDbBlockBegin
  2
_FILLED
 70
64
 10
0.0
 20
0.0
  3
_FILLED
  1

  0
SOLID
  5
223
100
AcDbEntity
  8
0
  6
BYBLOCK
 62
0
100
AcDbTrace
 10
0.0
 20
0.0
 11
-1.0
 21
0.2
 12
-1.0
 22
-0.2
 13
-1.0
 23
-0.2
  0
ENDBLK
  5
224
100
AcDbEntity
  8
0
  6
BYBLOCK
 62
0
100
AcDbBlockEnd
  0
ENDSEC
  0
SECTION
  2
ENTITIES
  0
MTEXT
  5
225
100
AcDbEntity
  8
0
100
AcDbMText
 62
2
  6
CONTINUOUS
  7
STANDARD
 71
3
 72
1
 10
5.177173913
 20
3.7148087311
 30
0.0
 11
1.0
 21
0.0
 31
0.0
 73
2
 44
0.9
  1
SCALE  .500
 40
0.08
 41
0.704
  0
LINE
  5
226
100
AcDbEntity
  8
0
100
AcDbLine
 62
7
  6
CONTINUOUS
 10
0.0
 20
0.0
 11
0.0
 21
8.5
  0
LINE
  5
227
100
AcDbEntity
  8
0
100
AcDbLine
 62
7
  6
CONTINUOUS
 10
0.0
 20
0.0
 11
11.0
 21
0.0
  0
LINE
  5
228
100
AcDbEntity
  8
0
100
AcDbLine
 62
7
  6
CONTINUOUS
 10
0.0
 20
8.5
 11
11.0
 21
8.5
  0
LINE
  5
229
100
AcDbEntity
  8
0
100
AcDbLine
 62
7
  6
CONTINUOUS
 10
11.0
 20
0.0
 11
11.0
 21
8.5
  0
LINE
  5
22A
100
AcDbEntity
  8
ALL_ASSEMBLY_MEMBERS
100
AcDbLine
 62
7
  6
CONTINUOUS
 10
3.489673913
 20
5.6338481012
 11
3.489673913
 21
5.7488481012
  0
LINE
  5
22B
100
AcDbEntity
  8
ALL_ASSEMBLY_MEMBERS
100
AcDbLine
 62
7
  6
CONTINUOUS
 10
3.552173913
 20
5.6338481012
 11
3.552173913
 21
5.5773481012
  0
LINE
  5
22C
100
AcDbEntity
  8
ALL_ASSEMBLY_MEMBERS
100
AcDbLine
 62
7
  6
CONTINUOUS
 10
3.697173913
 20
5.5773481012
 11
3.697173913
 21
5.7488481012
  0
LINE
  5
22D
100
AcDbEntity
  8
ALL_ASSEMBLY_MEMBERS
100
AcDbLine
 62
7
  6
CONTINUOUS
 10
3.719673913
 20
5.7488481012
 11
3.719673913
 21
5.5773481012
  0
LINE
  5
22E
100
AcDbEntity
  8
ALL_ASSEMBLY_MEMBERS
100
AcDbLine
 62
7
  6
CONTINUOUS
 10
3.739673913
 20
5.6338481012
 11
3.739673913
 21
5.7488481012
  0
LINE
  5
22F
100
AcDbEntity
  8
ALL_ASSEMBLY_MEMBERS
100
AcDbLine
 62
7
  6
CONTINUOUS
 10
3.802173913
 20
5.6338481012
 11
3.802173913
 21
5.5773481012
  0
LINE
  5
230
100
AcDbEntity
  8
ALL_ASSEMBLY_MEMBERS
100
AcDbLine
 62
7
  6
CONTINUOUS
 10
3.947173913
 20
5.5773481012
 11
3.947173913
 21
5.7488481012
  0
LINE
  5
231
100
AcDbEntity
  8
ALL_ASSEMBLY_MEMBERS
100
AcDbLine
 62
7
  6
CONTINUOUS
 10
4.5448550551
 20
3.8910956721
 11
4.5448870439
 21
3.8910956721
  0
LINE
  5
232
100
AcDbEntity
  8
ALL_ASSEMBLY_MEMBERS
100
AcDbLine
 62
7
  6
CONTINUOUS
 10
5.1708136313
 20
3.8910956721
 11
5.1835341951
 21
3.8910956721
  0
LINE
  5
233
100
AcDbEntity
  8
ALL_ASSEMBLY_MEMBERS
100
AcDbLine
 62
7
  6
CONTINUOUS
 10
5.8094607822
 20
3.8910956721
 11
5.809492771
 21
3.8910956721
  0
LWPOLYLINE
  5
234
100
AcDbEntity
  8
ALL_ASSEMBLY_MEMBERS
100
AcDbPolyline
 62
7
  6
CONTINUOUS
 90
3
 70
0
 10
4.7548817211
 20
4.0472396509
 10
4.7531550348
 20
4.0478619609
 10
4.7514966241
 20
4.0486380634
  0
LINE
  5
235
100
AcDbEntity
  8
ALL_ASSEMBLY_MEMBERS
100
AcDbLine
 62
7
  6
CONTINUOUS
 10
4.7514966241
 20
4.0486380634
 11
4.749925007
 21
4.049557427
  0
LINE
  5
236
100
AcDbEntity
  8
ALL_ASSEMBLY_MEMBERS
100
AcDbLine
 62
7
  6
CONTINUOUS
 10
4.749925007
 20
4.049557427
 11
4.7487328659
 21
4.0503924777
  0
LINE
  5
237
100
AcDbEntity
  8
ALL_ASSEMBLY_MEMBERS
100
AcDbLine
 62
7
  6
CONTINUOUS
 10
4.305923913
 20
5.5373481012
 11
4.305923913
 21
5.5773481012
  0
LINE
  5
238
100
AcDbEntity
  8
ALL_ASSEMBLY_MEMBERS
100
AcDbLine
 62
7
  6
CONTINUOUS
 10
4.345923913
 20
5.5323481012
 11
4.345923913
 21
5.5373481012
  0
LINE
  5
239
100
AcDbEntity
  8
ALL_ASSEMBLY_MEMBERS
100
AcDbLine
 62
7
  6
CONTINUOUS
 10
4.4712525105
 20
5.5103604031
 11
4.4714545911
 21
5.5114823348
  0
LINE
  5
23A
100
AcDbEntity
  8
ALL_ASSEMBLY_MEMBERS
100
AcDbLine
 62
7
  6
CONTINUOUS
 10
4.4742412381
 20
5.5109306201
 11
4.4740875466
 21
5.5100773402
  0
LINE
  5
23B
100
AcDbEntity
  8
ALL_ASSEMBLY_MEMBERS
100
AcDbLine
 62
7
  6
CONTINUOUS
 10
4.4746693342
 20
5.5100986847
 11
4.4747992809
 21
5.5108201359
  0
LINE
  5
23C
100
AcDbEntity
  8
ALL_ASSEMBLY_MEMBERS
100
AcDbLine
 62
7
  6
CONTINUOUS
 10
4.4974612396
 20
5.5088982542
 11
4.4977914104
 21
5.5107313301
  0
LINE
  5
23D
100
AcDbEntity
  8
ALL_ASSEMBLY_MEMBERS
100
AcDbLine
 62
7
  6
CONTINUOUS
 10
4.5005775077
 20
5.5101765608
 11
4.5003290378
 21
5.5087970801
  0
LINE
  5
23E
100
AcDbEntity
  8
ALL_ASSEMBLY_MEMBERS
100
AcDbLine
 62
7
  6
CONTINUOUS
 10
4.5009265147
 20
5.5089055273
 11
4.5011354409
 21
5.5100654649
  0
LINE
  5
23F
100
AcDbEntity
  8
ALL_ASSEMBLY_MEMBERS
100
AcDbLine
 62
7
  6
CONTINUOUS
 10
5.7336638643
 20
4.1968631969
 11
5.7232761305
 21
4.1940507918
  0
LINE
  5
240
100
AcDbEntity
  8
ALL_ASSEMBLY_MEMBERS
100
AcDbLine
 62
7
  6
CONTINUOUS
 10
4.7726580929
 20
4.0464967058
 11
4.7637183357
 21
4.0463273474
  0
LINE
  5
241
100
AcDbEntity
  8
ALL_ASSEMBLY_MEMBERS
100
AcDbLine
 62
7
  6
CONTINUOUS
 10
5.5906294887
 20
4.0463273474
 11
5.5938316491
 21
4.0463490704
  0
LINE
  5
242
100
AcDbEntity
  8
ALL_ASSEMBLY_MEMBERS
100
AcDbLine
 62
7
  6
CONTINUOUS
 10
5.6351035797
 20
4.0292164294
 11
5.647011184
 21
4.0292166687
  0
LINE
  5
243
100
AcDbEntity
  8
ALL_ASSEMBLY_MEMBERS
100
AcDbLine
 62
7
  6
CONTINUOUS
 10
4.7073366421
 20
4.0292159822
 11
4.7192440868
 21
4.0292159822
  0
LINE
  5
244
100
AcDbEntity
  8
ALL_ASSEMBLY_MEMBERS
100
AcDbLine
 62
7
  6
CONTINUOUS
 10
5.6806390362
 20
4.0434763451
 11
5.6260089841
 21
4.0434776201
  0
LINE
  5
245
100
AcDbEntity
  8
ALL_ASSEMBLY_MEMBERS
100
AcDbLine
 62
7
  6
CONTINUOUS
 10
4.7605125917
 20
4.0463490674
 11
4.7605163684
 21
4.0463490678
  0
LINE
  5
246
100
AcDbEntity
  8
ALL_ASSEMBLY_MEMBERS
100
AcDbLine
 62
7
  6
CONTINUOUS
 10
4.7283388797
 20
4.0434776209
 11
4.6737087898
 21
4.0434763444
  0
LINE
  5
247
100
AcDbEntity
  8
ALL_ASSEMBLY_MEMBERS
100
AcDbLine
 62
7
  6
CONTINUOUS
 10
5.5938316491
 20
4.0463490704
 11
5.5938353698
 21
4.0463490696
  0
LINE
  5
248
100
AcDbEntity
  8
ALL_ASSEMBLY_MEMBERS
100
AcDbLine
 62
7
  6
CONTINUOUS
 10
4.7637183357
 20
4.0463273474
 11
4.7605163721
 21
4.0463490677
  0
LWPOLYLINE
  5
249
100
AcDbEntity
  8
ALL_ASSEMBLY_MEMBERS
100
AcDbPolyline
 62
7
  6
CONTINUOUS
 90
4
 70
0
 10
4.7605168263
 20
4.0463490341
 10
4.7603224131
 20
4.0463526131
 10
4.7584809455
 20
4.0464807339
 10
4.7566621956
 20
4.0467775556
  0
LINE
  5
24A
100
AcDbEntity
  8
ALL_ASSEMBLY_MEMBERS
100
AcDbLine
 62
7
  6
CONTINUOUS
 10
4.7566621956
 20
4.0467775556
 11
4.7548817211
 21
4.0472396509
  0
LWPOLYLINE
  5
24B
100
AcDbEntity
  8
ALL_ASSEMBLY_MEMBERS
100
AcDbPolyline
 62
7
  6
CONTINUOUS
 90
3
 70
0
 10
4.650956288
 20
4.1864262592
 10
4.6410513769
 20
4.1906105989
 10
4.6391243564
 20
4.1913337433
  0
LINE
  5
24C
100
AcDbEntity
  8
ALL_ASSEMBLY_MEMBERS
100
AcDbLine
 62
7
  6
CONTINUOUS
 10
4.7487670387
 20
4.0503666816
 11
4.7487445117
 21
4.0503836741
  0
LINE
  5
24D
100
AcDbEntity
  8
ALL_ASSEMBLY_MEMBERS
100
AcDbLine
 62
7
  6
CONTINUOUS
 10
4.7487445117
 20
4.0503836741
 11
4.7484370003
 21
4.0506207024
  0
LINE
  5
24E
100
AcDbEntity
  8
ALL_ASSEMBLY_MEMBERS
100
AcDbLine
 62
7
  6
CONTINUOUS
 10
4.7487665768
 20
4.0503660698
 11
4.7481876517
 21
4.0508190049
  0
LINE
  5
24F
100
AcDbEntity
  8
ALL_ASSEMBLY_MEMBERS
100
AcDbLine
 62
7
  6
CONTINUOUS
 10
4.7481876517
 20
4.0508190049
 11
4.7466625678
 21
4.0521940582
  0
LWPOLYLINE
  5
250
100
AcDbEntity
  8
ALL_ASSEMBLY_MEMBERS
100
AcDbPolyline
 62
7
  6
CONTINUOUS
 90
8
 70
0
 10
4.7474252012
 20
4.0514712261
 10
4.7458828142
 20
4.0530193625
 10
4.7445202914
 20
4.0547245385
 10
4.7433531504
 20
4.0565660106
 10
4.742394743
 20
4.0585211563
 10
4.7416566555
 20
4.0605631359
 10
4.7411460402
 20
4.0626658514
 10
4.7411188789
 20
4.0628380559
  0
LWPOLYLINE
  5
251
100
AcDbEntity
  8
ALL_ASSEMBLY_MEMBERS
100
AcDbPolyline
 62
7
  6
CONTINUOUS
 90
6
 70
0
 10
4.7466625678
 20
4.0521940582
 10
4.7452864063
 20
4.0537187424
 10
4.7440753471
 20
4.0553747081
 10
4.7430414324
 20
4.0571443905
 10
4.7421952162
 20
4.0590084264
 10
4.7415460491
 20
4.0609429731
  0
LINE
  5
252
100
AcDbEntity
  8
ALL_ASSEMBLY_MEMBERS
100
AcDbLine
 62
7
  6
CONTINUOUS
 10
4.5094404541
 20
5.5075033932
 11
4.5095984042
 21
5.5083803167
  0
LINE
  5
253
100
AcDbEntity
  8
ALL_ASSEMBLY_MEMBERS
100
AcDbLine
 62
7
  6
CONTINUOUS
 10
4.5280999908
 20
5.5095151787
 11
4.5288551863
 21
5.5137079502
  0
LINE
  5
254
100
AcDbEntity
  8
ALL_ASSEMBLY_MEMBERS
100
AcDbLine
 62
7
  6
CONTINUOUS
 10
4.5481566072
 20
5.5037702452
 11
4.5486441556
 21
5.5064770662
  0
LINE
  5
255
100
AcDbEntity
  8
ALL_ASSEMBLY_MEMBERS
100
AcDbLine
 62
7
  6
CONTINUOUS
 10
4.5638007777
 20
5.4925493199
 11
4.5639325822
 21
5.4932810859
  0
LINE
  5
256
100
AcDbEntity
  8
ALL_ASSEMBLY_MEMBERS
100
AcDbLine
 62
7
  6
CONTINUOUS
 10
4.5640871167
 20
5.4924332463
 11
4.564217602
 21
5.4931576879
  0
LINE
  5
257
100
AcDbEntity
  8
ALL_ASSEMBLY_MEMBERS
100
AcDbLine
 62
7
  6
CONTINUOUS
 10
4.5659908853
 20
5.491769853
 11
4.5661786822
 21
5.4928124831
  0
LINE
  5
258
100
AcDbEntity
  8
ALL_ASSEMBLY_MEMBERS
100
AcDbLine
 62
7
  6
CONTINUOUS
 10
4.5740108747
 20
5.5019937375
 11
4.574300936
 21
5.5036041294
  0
LINE
  5
259
100
AcDbEntity
  8
ALL_ASSEMBLY_MEMBERS
100
AcDbLine
 62
7
  6
CONTINUOUS
 10
4.580465105
 20
5.4933606144
 11
4.5806086039
 21
5.4941573066
  0
LINE
  5
25A
100
AcDbEntity
  8
ALL_ASSEMBLY_MEMBERS
100
AcDbLine
 62
7
  6
CONTINUOUS
 10
4.5900270722
 20
5.4911846926
 11
4.5902497117
 21
5.4924207651
  0
LINE
  5
25B
100
AcDbEntity
  8
ALL_ASSEMBLY_MEMBERS
100
AcDbLine
 62
7
  6
CONTINUOUS
 10
4.5903042911
 20
5.4910179853
 11
4.5905362971
 21
5.49230606
  0
LINE
  5
25C
100
AcDbEntity
  8
ALL_ASSEMBLY_MEMBERS
100
AcDbLine
 62
7
  6
CONTINUOUS
 10
4.5921602376
 20
5.4900890822
 11
4.5925096246
 21
5.4920288446
  0
LINE
  5
25D
100
AcDbEntity
  8
ALL_ASSEMBLY_MEMBERS
100
AcDbLine
 62
7
  6
CONTINUOUS
 10
4.5997472315
 20
5.4978633073
 11
4.5999797739
 21
5.4991543597
  0
LINE
  5
25E
100
AcDbEntity
  8
ALL_ASSEMBLY_MEMBERS
100
AcDbLine
 62
7
  6
CONTINUOUS
 10
4.6010314695
 20
5.4930749708
 11
4.6012100315
 21
5.4940663297
  0
LINE
  5
25F
100
AcDbEntity
  8
ALL_ASSEMBLY_MEMBERS
100
AcDbLine
 62
7
  6
CONTINUOUS
 10
4.6053481798
 20
5.4920644974
 11
4.6054733993
 21
5.492759704
  0
LINE
  5
260
100
AcDbEntity
  8
ALL_ASSEMBLY_MEMBERS
100
AcDbLine
 62
7
  6
CONTINUOUS
 10
4.614846665
 20
5.4906445717
 11
4.6151023137
 21
5.4920639086
  0
LINE
  5
261
100
AcDbEntity
  8
ALL_ASSEMBLY_MEMBERS
100
AcDbLine
 62
7
  6
CONTINUOUS
 10
4.6160348707
 20
5.494059597
 11
4.616245599
 21
5.4952295398
  0
LINE
  5
262
100
AcDbEntity
  8
ALL_ASSEMBLY_MEMBERS
100
AcDbLine
 62
7
  6
CONTINUOUS
 10
4.6196476169
 20
5.4924626984
 11
4.6199424246
 21
5.4940994418
  0
LINE
  5
263
100
AcDbEntity
  8
ALL_ASSEMBLY_MEMBERS
100
AcDbLine
 62
7
  6
CONTINUOUS
 10
4.6226831619
 20
5.4904018705
 11
4.6232039953
 21
5.4932934862
  0
LINE
  5
264
100
AcDbEntity
  8
ALL_ASSEMBLY_MEMBERS
100
AcDbLine
 62
7
  6
CONTINUOUS
 10
5.7391448268
 20
4.198045461
 11
5.7336638643
 21
4.1968631969
  0
LWPOLYLINE
  5
265
100
AcDbEntity
  8
ALL_ASSEMBLY_MEMBERS
100
AcDbPolyline
 62
7
  6
CONTINUOUS
 90
22
 70
0
 10
5.1707166638
 20
4.2010199669
 10
5.1701427573
 20
4.2010152622
 10
5.1675436796
 20
4.2008758688
 10
5.1649977529
 20
4.2005496589
 10
5.1625180827
 20
4.2000463511
 10
5.1601172961
 20
4.199376721
 10
5.1578053896
 20
4.1985519331
 10
5.155591069
 20
4.1975835301
 10
5.1534829096
 20
4.1964839515
 10
5.1514868807
 20
4.1952652891
 10
5.149607878
 20
4.1939397059
 10
5.1478507527
 20
4.1925202434
 10
5.1462182211
 20
4.1910192808
 10
5.1447111916
 20
4.1894482199
 10
5.1433300326
 20
4.1878184141
 10
5.1420726035
 20
4.1861384859
 10
5.1409393582
 20
4.1844208432
 10
5.1399320681
 20
4.1826824879
 10
5.1390416453
 20
4.1809224935
 10
5.1382697045
 20
4.1791600558
 10
5.1376252256
 20
4.1774443437
 10
5.1368761062
 20
4.1750904225
  0
LINE
  5
266
100
AcDbEntity
  8
ALL_ASSEMBLY_MEMBERS
100
AcDbLine
 62
7
  6
CONTINUOUS
 10
5.1707166468
 20
4.2010199719
 11
5.1836312095
 21
4.2010199719
  0
LWPOLYLINE
  5
267
100
AcDbEntity
  8
ALL_ASSEMBLY_MEMBERS
100
AcDbPolyline
 62
7
  6
CONTINUOUS
 90
13
 70
0
 10
5.230878491
 20
4.1622629769
 10
5.230184311
 20
4.1624770403
 10
5.2284493975
 20
4.1631374139
 10
5.2267832222
 20
4.1639557802
 10
5.2252001357
 20
4.1649250774
 10
5.2237137686
 20
4.166036945
 10
5.2223369171
 20
4.1672817957
 10
5.2210814336
 20
4.1686488963
 10
5.2199581254
 20
4.1701264587
 10
5.2189766528
 20
4.1717017533
 10
5.2181454519
 20
4.1733612194
 10
5.2174716714
 20
4.1750905664
 10
5.2167230567
 20
4.1774426407
  0
LINE
  5
268
100
AcDbEntity
  8
ALL_ASSEMBLY_MEMBERS
100
AcDbLine
 62
7
  6
CONTINUOUS
 10
4.9391739129
 20
4.0322866414
 11
4.9182639633
 21
4.0586230184
  0
LINE
  5
269
100
AcDbEntity
  8
ALL_ASSEMBLY_MEMBERS
100
AcDbLine
 62
7
  6
CONTINUOUS
 10
5.129111112
 20
4.2412889986
 11
5.0053494179
 21
4.2412889986
  0
LINE
  5
26A
100
AcDbEntity
  8
ALL_ASSEMBLY_MEMBERS
100
AcDbLine
 62
7
  6
CONTINUOUS
 10
5.2252367137
 20
4.2412889986
 11
5.3489984078
 21
4.2412889986
  0
LINE
  5
26B
100
AcDbEntity
  8
ALL_ASSEMBLY_MEMBERS
100
AcDbLine
 62
7
  6
CONTINUOUS
 10
4.999673913
 20
4.2823273474
 11
5.0078497048
 21
4.2823273474
  0
LINE
  5
26C
100
AcDbEntity
  8
ALL_ASSEMBLY_MEMBERS
100
AcDbLine
 62
7
  6
CONTINUOUS
 10
5.123923913
 20
4.2823273474
 11
5.2304239174
 21
4.2823273474
  0
LINE
  5
26D
100
AcDbEntity
  8
ALL_ASSEMBLY_MEMBERS
100
AcDbLine
 62
7
  6
CONTINUOUS
 10
5.3464981213
 20
4.2823273474
 11
5.354673913
 21
4.2823273474
  0
LINE
  5
26E
100
AcDbEntity
  8
ALL_ASSEMBLY_MEMBERS
100
AcDbLine
 62
7
  6
CONTINUOUS
 10
4.999673913
 20
4.3038087311
 11
5.354673913
 21
4.3038087311
  0
LWPOLYLINE
  5
26F
100
AcDbEntity
  8
ALL_ASSEMBLY_MEMBERS
100
AcDbPolyline
 62
7
  6
CONTINUOUS
 90
3
 70
0
 10
4.7415460491
 20
4.0609429731
 10
4.7410991276
 20
4.0629256798
 10
4.7409744011
 20
4.0637519186
  0
LINE
  5
270
100
AcDbEntity
  8
ALL_ASSEMBLY_MEMBERS
100
AcDbLine
 62
7
  6
CONTINUOUS
 10
4.5005125614
 20
5.5083347649
 11
4.5005220242
 21
5.5082890873
  0
LINE
  5
271
100
AcDbEntity
  8
ALL_ASSEMBLY_MEMBERS
100
AcDbLine
 62
7
  6
CONTINUOUS
 10
4.5005134832
 20
5.5083345982
 11
4.5005220242
 21
5.5082890873
  0
LWPOLYLINE
  5
272
100
AcDbEntity
  8
ALL_ASSEMBLY_MEMBERS
100
AcDbPolyline
 62
7
  6
CONTINUOUS
 90
16
 70
0
 10
4.7409743459
 20
4.0637523621
 10
4.7396649407
 20
4.0720958999
 10
4.7373619567
 20
4.0825597416
 10
4.7343521747
 20
4.092844069
 10
4.7306491192
 20
4.1029029533
 10
4.7262673389
 20
4.1126908994
 10
4.7212276399
 20
4.1221631244
 10
4.715553098
 20
4.1312745118
 10
4.7092671997
 20
4.1399815586
 10
4.7023997627
 20
4.148243823
 10
4.6949840383
 20
4.1560209311
 10
4.6870529564
 20
4.1632751174
 10
4.6786438244
 20
4.1699736428
 10
4.6697973052
 20
4.1760842168
 10
4.660553629
 20
4.1815765465
 10
4.650956288
 20
4.1864262592
  0
LWPOLYLINE
  5
273
100
AcDbEntity
  8
ALL_ASSEMBLY_MEMBERS
100
AcDbPolyline
 62
7
  6
CONTINUOUS
 90
3
 70
0
 10
4.7409746636
 20
4.0637524796
 10
4.7397138536
 20
4.0718304746
 10
4.7396880439
 20
4.0719486861
  0
LINE
  5
274
100
AcDbEntity
  8
ALL_ASSEMBLY_MEMBERS
100
AcDbLine
 62
7
  6
CONTINUOUS
 10
4.6737089482
 20
3.9892552108
 11
4.6737087898
 21
4.0434763444
  0
LINE
  5
275
100
AcDbEntity
  8
ALL_ASSEMBLY_MEMBERS
100
AcDbLine
 62
7
  6
CONTINUOUS
 10
4.684673913
 20
5.2938481012
 11
4.684673913
 21
5.4743481012
  0
LINE
  5
276
100
AcDbEntity
  8
ALL_ASSEMBLY_MEMBERS
100
AcDbLine
 62
7
  6
CONTINUOUS
 10
4.687173913
 20
5.2938481012
 11
4.687173913
 21
5.0463087311
  0
LINE
  5
277
100
AcDbEntity
  8
ALL_ASSEMBLY_MEMBERS
100
AcDbLine
 62
7
  6
CONTINUOUS
 10
4.7073366421
 20
4.0292159822
 11
4.7073366364
 21
4.0434790992
  0
LINE
  5
278
100
AcDbEntity
  8
ALL_ASSEMBLY_MEMBERS
100
AcDbLine
 62
7
  6
CONTINUOUS
 10
4.717173913
 20
5.0163087311
 11
4.717173913
 21
4.9868087311
  0
LINE
  5
279
100
AcDbEntity
  8
ALL_ASSEMBLY_MEMBERS
100
AcDbLine
 62
7
  6
CONTINUOUS
 10
4.7916779223
 20
5.4946679817
 11
4.7920235737
 21
5.4977006389
  0
LINE
  5
27A
100
AcDbEntity
  8
ALL_ASSEMBLY_MEMBERS
100
AcDbLine
 62
7
  6
CONTINUOUS
 10
5.7807037142
 20
5.4919512051
 11
5.7804772021
 21
5.4918820248
  0
LINE
  5
27B
100
AcDbEntity
  8
ALL_ASSEMBLY_MEMBERS
100
AcDbLine
 62
7
  6
CONTINUOUS
 10
5.6357387534
 20
5.5086233938
 11
5.6198969528
 21
5.5039560337
  0
LINE
  5
27C
100
AcDbEntity
  8
ALL_ASSEMBLY_MEMBERS
100
AcDbLine
 62
7
  6
CONTINUOUS
 10
4.7229342799
 20
4.01034389
 11
4.7255126498
 21
4.0237923283
  0
LINE
  5
27D
100
AcDbEntity
  8
ALL_ASSEMBLY_MEMBERS
100
AcDbLine
 62
7
  6
CONTINUOUS
 10
4.5474850948
 20
3.890418014
 11
4.5574128623
 21
3.9285627108
  0
LINE
  5
27E
100
AcDbEntity
  8
ALL_ASSEMBLY_MEMBERS
100
AcDbLine
 62
7
  6
CONTINUOUS
 10
4.5658857025
 20
3.9611058042
 11
4.5574142376
 21
3.928562353
  0
LINE
  5
27F
100
AcDbEntity
  8
ALL_ASSEMBLY_MEMBERS
100
AcDbLine
 62
7
  6
CONTINUOUS
 10
4.939173913
 20
4.0322866415
 11
4.939173913
 21
3.8945579728
  0
LINE
  5
280
100
AcDbEntity
  8
ALL_ASSEMBLY_MEMBERS
100
AcDbLine
 62
7
  6
CONTINUOUS
 10
4.999673913
 20
4.3038087311
 11
4.999673913
 21
4.2823273474
  0
LINE
  5
281
100
AcDbEntity
  8
ALL_ASSEMBLY_MEMBERS
100
AcDbLine
 62
7
  6
CONTINUOUS
 10
5.0078497048
 20
4.2823273474
 11
5.0078497048
 21
4.2412889934
  0
LINE
  5
282
100
AcDbEntity
  8
ALL_ASSEMBLY_MEMBERS
100
AcDbLine
 62
7
  6
CONTINUOUS
 10
4.9374872762
 20
3.8213333415
 11
4.9412669613
 21
3.8605748143
  0
LINE
  5
283
100
AcDbEntity
  8
ALL_ASSEMBLY_MEMBERS
100
AcDbLine
 62
7
  6
CONTINUOUS
 10
4.939173913
 20
3.8945579728
 11
4.9358761956
 21
3.8610923658
  0
LWPOLYLINE
  5
284
100
AcDbEntity
  8
ALL_ASSEMBLY_MEMBERS
100
AcDbPolyline
 62
7
  6
CONTINUOUS
 90
21
 70
0
 10
5.2167230567
 20
4.1774426407
 10
5.2160787037
 20
4.1791582284
 10
5.215306849
 20
4.1809206773
 10
5.2144164983
 20
4.1826807197
 10
5.2134092721
 20
4.1844191371
 10
5.2122760671
 20
4.1861368752
 10
5.2110186678
 20
4.1878169036
 10
5.2096375346
 20
4.1894468054
 10
5.2081305194
 20
4.1910179656
 10
5.2064979897
 20
4.1925190301
 10
5.2047408526
 20
4.1939385959
 10
5.2028618242
 20
4.1952642817
 10
5.2008657562
 20
4.1964830435
 10
5.1987575448
 20
4.1975827165
 10
5.1965431589
 20
4.1985512073
 10
5.1942311737
 20
4.1993760747
 10
5.1918302958
 20
4.2000457739
 10
5.1893505225
 20
4.2005491384
 10
5.1868044816
 20
4.2008753907
 10
5.1842052797
 20
4.2010148102
 10
5.1836311455
 20
4.2010195182
  0
LINE
  5
285
100
AcDbEntity
  8
ALL_ASSEMBLY_MEMBERS
100
AcDbLine
 62
7
  6
CONTINUOUS
 10
5.1234693353
 20
4.1622450922
 11
5.1234692112
 21
4.1622629412
  0
LINE
  5
286
100
AcDbEntity
  8
ALL_ASSEMBLY_MEMBERS
100
AcDbLine
 62
7
  6
CONTINUOUS
 10
5.0679527137
 20
5.5097578447
 11
5.0679527137
 21
5.5103604031
  0
LINE
  5
287
100
AcDbEntity
  8
ALL_ASSEMBLY_MEMBERS
100
AcDbLine
 62
7
  6
CONTINUOUS
 10
5.0686245989
 20
5.491769853
 11
5.0686245989
 21
5.4925549574
  0
LINE
  5
288
100
AcDbEntity
  8
ALL_ASSEMBLY_MEMBERS
100
AcDbLine
 62
7
  6
CONTINUOUS
 10
5.0753378486
 20
5.510039766
 11
5.0753378486
 21
5.5108817721
  0
LINE
  5
289
100
AcDbEntity
  8
ALL_ASSEMBLY_MEMBERS
100
AcDbLine
 62
7
  6
CONTINUOUS
 10
5.0802146352
 20
5.5100986847
 11
5.0802146352
 21
5.5112338358
  0
LINE
  5
28A
100
AcDbEntity
  8
ALL_ASSEMBLY_MEMBERS
100
AcDbLine
 62
7
  6
CONTINUOUS
 10
5.0851697942
 20
5.4945859515
 11
5.0851697942
 21
5.5115984685
  0
LINE
  5
28B
100
AcDbEntity
  8
ALL_ASSEMBLY_MEMBERS
100
AcDbLine
 62
7
  6
CONTINUOUS
 10
5.098173913
 20
3.8945579728
 11
5.098173913
 21
4.1286345642
  0
LINE
  5
28C
100
AcDbEntity
  8
ALL_ASSEMBLY_MEMBERS
100
AcDbLine
 62
7
  6
CONTINUOUS
 10
5.0998673043
 20
5.4942252753
 11
5.0998673043
 21
5.5127207509
  0
LINE
  5
28D
100
AcDbEntity
  8
ALL_ASSEMBLY_MEMBERS
100
AcDbLine
 62
7
  6
CONTINUOUS
 10
5.1164124996
 20
5.4905644204
 11
5.1164124996
 21
5.4913576587
  0
LINE
  5
28E
100
AcDbEntity
  8
ALL_ASSEMBLY_MEMBERS
100
AcDbLine
 62
7
  6
CONTINUOUS
 10
5.1234693676
 20
3.8610923657
 11
5.1234693347
 21
4.1622630568
  0
LINE
  5
28F
100
AcDbEntity
  8
ALL_ASSEMBLY_MEMBERS
100
AcDbLine
 62
7
  6
CONTINUOUS
 10
5.1234693512
 20
3.9628081158
 11
5.1234695132
 21
3.9691009933
  0
LWPOLYLINE
  5
290
100
AcDbEntity
  8
ALL_ASSEMBLY_MEMBERS
100
AcDbPolyline
 62
7
  6
CONTINUOUS
 90
3
 70
0
 10
5.1234693734
 20
3.9467138541
 10
5.1234695932
 20
3.9515662533
 10
5.1234693798
 20
3.9569563177
  0
LINE
  5
291
100
AcDbEntity
  8
ALL_ASSEMBLY_MEMBERS
100
AcDbLine
 62
7
  6
CONTINUOUS
 10
5.123923913
 20
4.2412889934
 11
5.123923913
 21
4.2823273474
  0
LINE
  5
292
100
AcDbEntity
  8
ALL_ASSEMBLY_MEMBERS
100
AcDbLine
 62
7
  6
CONTINUOUS
 10
5.137186175
 20
3.9151748261
 11
5.1371861799
 21
3.8467970412
  0
LINE
  5
293
100
AcDbEntity
  8
ALL_ASSEMBLY_MEMBERS
100
AcDbLine
 62
7
  6
CONTINUOUS
 10
5.138939388
 20
4.8072459262
 11
5.138939388
 21
4.8143642103
  0
LINE
  5
294
100
AcDbEntity
  8
ALL_ASSEMBLY_MEMBERS
100
AcDbLine
 62
7
  6
CONTINUOUS
 10
5.1481396988
 20
5.4928666376
 11
5.1481396988
 21
5.4976555055
  0
LINE
  5
295
100
AcDbEntity
  8
ALL_ASSEMBLY_MEMBERS
100
AcDbLine
 62
7
  6
CONTINUOUS
 10
5.1541221048
 20
5.5014290561
 11
5.1541221048
 21
5.5062689869
  0
LINE
  5
296
100
AcDbEntity
  8
ALL_ASSEMBLY_MEMBERS
100
AcDbLine
 62
7
  6
CONTINUOUS
 10
5.1591612525
 20
5.5084778967
 11
5.1591612525
 21
5.51110555
  0
LINE
  5
297
100
AcDbEntity
  8
ALL_ASSEMBLY_MEMBERS
100
AcDbLine
 62
7
  6
CONTINUOUS
 10
5.1671744284
 20
5.4288481012
 11
5.1671744284
 21
5.3488481012
  0
LINE
  5
298
100
AcDbEntity
  8
ALL_ASSEMBLY_MEMBERS
100
AcDbLine
 62
7
  6
CONTINUOUS
 10
5.1708060207
 20
3.8904180138
 11
5.1708059418
 21
3.8213332691
  0
LINE
  5
299
100
AcDbEntity
  8
ALL_ASSEMBLY_MEMBERS
100
AcDbLine
 62
7
  6
CONTINUOUS
 10
5.1758744217
 20
5.4896667707
 11
5.1758744217
 21
5.4908240641
  0
LINE
  5
29A
100
AcDbEntity
  8
ALL_ASSEMBLY_MEMBERS
100
AcDbLine
 62
7
  6
CONTINUOUS
 10
5.175958414
 20
5.5108114866
 11
5.175958414
 21
5.5119665231
  0
LINE
  5
29B
100
AcDbEntity
  8
ALL_ASSEMBLY_MEMBERS
100
AcDbLine
 62
7
  6
CONTINUOUS
 10
5.1835418251
 20
3.8213333413
 11
5.1835418055
 21
3.890418014
  0
LINE
  5
29C
100
AcDbEntity
  8
ALL_ASSEMBLY_MEMBERS
100
AcDbLine
 62
7
  6
CONTINUOUS
 10
5.1871733977
 20
5.4288481012
 11
5.1871733977
 21
5.3488481012
  0
LINE
  5
29D
100
AcDbEntity
  8
ALL_ASSEMBLY_MEMBERS
100
AcDbLine
 62
7
  6
CONTINUOUS
 10
5.1929235309
 20
5.5082180039
 11
5.1929235309
 21
5.5111648595
  0
LINE
  5
29E
100
AcDbEntity
  8
ALL_ASSEMBLY_MEMBERS
100
AcDbLine
 62
7
  6
CONTINUOUS
 10
5.1234693073
 20
4.1543777935
 11
5.1234695379
 21
4.1618109343
  0
LINE
  5
29F
100
AcDbEntity
  8
ALL_ASSEMBLY_MEMBERS
100
AcDbLine
 62
7
  6
CONTINUOUS
 10
5.1234682501
 20
3.9303733417
 11
5.1234693285
 21
3.9423932227
  0
LINE
  5
2A0
100
AcDbEntity
  8
ALL_ASSEMBLY_MEMBERS
100
AcDbLine
 62
7
  6
CONTINUOUS
 10
5.1708081133
 20
3.8561381157
 11
5.1708091936
 21
3.8419130889
  0
LINE
  5
2A1
100
AcDbEntity
  8
ALL_ASSEMBLY_MEMBERS
100
AcDbLine
 62
7
  6
CONTINUOUS
 10
5.1708096548
 20
3.8748733044
 11
5.1708081133
 21
3.8561381157
  0
LWPOLYLINE
  5
2A2
100
AcDbEntity
  8
ALL_ASSEMBLY_MEMBERS
100
AcDbPolyline
 62
7
  6
CONTINUOUS
 90
3
 70
0
 10
5.1708091936
 20
3.8419130889
 10
5.1708060017
 20
3.8380025521
 10
5.1708112884
 20
3.8312547859
  0
LWPOLYLINE
  5
2A3
100
AcDbEntity
  8
ALL_ASSEMBLY_MEMBERS
100
AcDbPolyline
 62
7
  6
CONTINUOUS
 90
5
 70
0
 10
5.1708112884
 20
3.8312547859
 10
5.1708060017
 20
3.8283610111
 10
5.170794034
 20
3.8257532131
 10
5.1707913527
 20
3.8234167024
 10
5.1708059418
 20
3.8213332691
  0
LWPOLYLINE
  5
2A4
100
AcDbEntity
  8
ALL_ASSEMBLY_MEMBERS
100
AcDbPolyline
 62
7
  6
CONTINUOUS
 90
4
 70
0
 10
5.1835418251
 20
3.8213333413
 10
5.1835561967
 20
3.8234099868
 10
5.183553585
 20
3.8257394758
 10
5.1835418243
 20
3.8283401709
  0
LINE
  5
2A5
100
AcDbEntity
  8
ALL_ASSEMBLY_MEMBERS
100
AcDbLine
 62
7
  6
CONTINUOUS
 10
5.415173913
 20
3.8945579728
 11
5.4184716302
 21
3.8610923661
  0
LINE
  5
2A6
100
AcDbEntity
  8
ALL_ASSEMBLY_MEMBERS
100
AcDbLine
 62
7
  6
CONTINUOUS
 10
5.4144079215
 20
3.8467970412
 11
5.4130808646
 21
3.8605748154
  0
LINE
  5
2A7
100
AcDbEntity
  8
ALL_ASSEMBLY_MEMBERS
100
AcDbLine
 62
7
  6
CONTINUOUS
 10
5.4168597994
 20
3.8213332679
 11
5.4144083573
 21
3.8467970601
  0
LINE
  5
2A8
100
AcDbEntity
  8
ALL_ASSEMBLY_MEMBERS
100
AcDbLine
 62
7
  6
CONTINUOUS
 10
5.1982146281
 20
5.5010264067
 11
5.1982146281
 21
5.5058782857
  0
LINE
  5
2A9
100
AcDbEntity
  8
ALL_ASSEMBLY_MEMBERS
100
AcDbLine
 62
7
  6
CONTINUOUS
 10
5.2052871706
 20
5.4931405345
 11
5.2052871706
 21
5.4979374052
  0
LINE
  5
2AA
100
AcDbEntity
  8
ALL_ASSEMBLY_MEMBERS
100
AcDbLine
 62
7
  6
CONTINUOUS
 10
5.216236413
 20
4.8067676487
 11
5.216236413
 21
4.8139307877
  0
LINE
  5
2AB
100
AcDbEntity
  8
ALL_ASSEMBLY_MEMBERS
100
AcDbLine
 62
7
  6
CONTINUOUS
 10
5.2171616442
 20
3.8467970341
 11
5.2171616511
 21
3.9151748262
  0
LINE
  5
2AC
100
AcDbEntity
  8
ALL_ASSEMBLY_MEMBERS
100
AcDbLine
 62
7
  6
CONTINUOUS
 10
5.2304239174
 20
4.2823273474
 11
5.230423913
 21
4.2412889934
  0
LINE
  5
2AD
100
AcDbEntity
  8
ALL_ASSEMBLY_MEMBERS
100
AcDbLine
 62
7
  6
CONTINUOUS
 10
5.2308783078
 20
3.9666212408
 11
5.2308785304
 21
3.9606077086
  0
LINE
  5
2AE
100
AcDbEntity
  8
ALL_ASSEMBLY_MEMBERS
100
AcDbLine
 62
7
  6
CONTINUOUS
 10
5.2308783939
 20
4.1558306863
 11
5.2308784913
 21
4.1528798379
  0
LINE
  5
2AF
100
AcDbEntity
  8
ALL_ASSEMBLY_MEMBERS
100
AcDbLine
 62
7
  6
CONTINUOUS
 10
5.2308784588
 20
4.1622629554
 11
5.2308784585
 21
3.8610923657
  0
LINE
  5
2B0
100
AcDbEntity
  8
ALL_ASSEMBLY_MEMBERS
100
AcDbLine
 62
7
  6
CONTINUOUS
 10
5.23380518
 20
5.4932131775
 11
5.23380518
 21
5.4976555061
  0
LINE
  5
2B1
100
AcDbEntity
  8
ALL_ASSEMBLY_MEMBERS
100
AcDbLine
 62
7
  6
CONTINUOUS
 10
5.2448267298
 20
5.5090280467
 11
5.2448267298
 21
5.5116450884
  0
LINE
  5
2B2
100
AcDbEntity
  8
ALL_ASSEMBLY_MEMBERS
100
AcDbLine
 62
7
  6
CONTINUOUS
 10
5.256173913
 20
4.1286324723
 11
5.256173913
 21
3.8945579728
  0
LINE
  5
2B3
100
AcDbEntity
  8
ALL_ASSEMBLY_MEMBERS
100
AcDbLine
 62
7
  6
CONTINUOUS
 10
5.2615398981
 20
5.490735612
 11
5.2615398981
 21
5.4919026015
  0
LINE
  5
2B4
100
AcDbEntity
  8
ALL_ASSEMBLY_MEMBERS
100
AcDbLine
 62
7
  6
CONTINUOUS
 10
5.2616238903
 20
5.5117169941
 11
5.2616238903
 21
5.5128765929
  0
LINE
  5
2B5
100
AcDbEntity
  8
ALL_ASSEMBLY_MEMBERS
100
AcDbLine
 62
7
  6
CONTINUOUS
 10
5.278589009
 20
5.5095155336
 11
5.278589009
 21
5.5124185763
  0
LINE
  5
2B6
100
AcDbEntity
  8
ALL_ASSEMBLY_MEMBERS
100
AcDbLine
 62
7
  6
CONTINUOUS
 10
5.2909526469
 20
5.4949079354
 11
5.2909526469
 21
5.4979374052
  0
LINE
  5
2B7
100
AcDbEntity
  8
ALL_ASSEMBLY_MEMBERS
100
AcDbLine
 62
7
  6
CONTINUOUS
 10
4.6965137839
 20
4.9350565113
 11
5.6578340421
 21
4.9350565113
  0
LINE
  5
2B8
100
AcDbEntity
  8
ALL_ASSEMBLY_MEMBERS
100
AcDbLine
 62
7
  6
CONTINUOUS
 10
4.717173913
 20
4.9868087311
 11
5.637173913
 21
4.9868087311
  0
LINE
  5
2B9
100
AcDbEntity
  8
ALL_ASSEMBLY_MEMBERS
100
AcDbLine
 62
7
  6
CONTINUOUS
 10
5.637173913
 20
5.0163087311
 11
4.717173913
 21
5.0163087311
  0
LINE
  5
2BA
100
AcDbEntity
  8
ALL_ASSEMBLY_MEMBERS
100
AcDbLine
 62
7
  6
CONTINUOUS
 10
5.3464981213
 20
4.2412889934
 11
5.3464981213
 21
4.2823273474
  0
LINE
  5
2BB
100
AcDbEntity
  8
ALL_ASSEMBLY_MEMBERS
100
AcDbLine
 62
7
  6
CONTINUOUS
 10
5.354673913
 20
4.3038087311
 11
5.354673913
 21
4.2823273474
  0
LINE
  5
2BC
100
AcDbEntity
  8
ALL_ASSEMBLY_MEMBERS
100
AcDbLine
 62
7
  6
CONTINUOUS
 10
5.415173913
 20
4.0322866414
 11
5.415173913
 21
3.8945579728
  0
LWPOLYLINE
  5
2BD
100
AcDbEntity
  8
ALL_ASSEMBLY_MEMBERS
100
AcDbPolyline
 62
7
  6
CONTINUOUS
 90
12
 70
0
 10
5.1368761062
 20
4.1750904225
 10
5.1362022892
 20
4.173361028
 10
5.1353710428
 20
4.1717015205
 10
5.1343895166
 20
4.1701261917
 10
5.1332661476
 20
4.1686486034
 10
5.1320105972
 20
4.1672814863
 10
5.1306336739
 20
4.1660366293
 10
5.1291472317
 20
4.1649247664
 10
5.1275640679
 20
4.1639554854
 10
5.125897815
 20
4.1631371471
 10
5.1241628248
 20
4.1624768136
 10
5.1234693438
 20
4.1622629794
  0
LINE
  5
2BE
100
AcDbEntity
  8
ALL_ASSEMBLY_MEMBERS
100
AcDbLine
 62
7
  6
CONTINUOUS
 10
5.667173913
 20
5.0463087311
 11
4.687173913
 21
5.0463087311
  0
LINE
  5
2BF
100
AcDbEntity
  8
ALL_ASSEMBLY_MEMBERS
100
AcDbLine
 62
7
  6
CONTINUOUS
 10
4.4974612396
 20
5.5088982542
 11
4.4954856234
 21
5.5098928525
  0
LINE
  5
2C0
100
AcDbEntity
  8
ALL_ASSEMBLY_MEMBERS
100
AcDbLine
 62
7
  6
CONTINUOUS
 10
4.4964733088
 20
5.5093916633
 11
4.4954856377
 21
5.5098929319
  0
LINE
  5
2C1
100
AcDbEntity
  8
ALL_ASSEMBLY_MEMBERS
100
AcDbLine
 62
7
  6
CONTINUOUS
 10
4.4712525105
 20
5.5103604031
 11
4.4692291657
 21
5.5111148287
  0
LINE
  5
2C2
100
AcDbEntity
  8
ALL_ASSEMBLY_MEMBERS
100
AcDbLine
 62
7
  6
CONTINUOUS
 10
4.4702401391
 20
5.5107336291
 11
4.469229182
 21
5.5111149212
  0
LINE
  5
2C3
100
AcDbEntity
  8
ALL_ASSEMBLY_MEMBERS
100
AcDbLine
 62
7
  6
CONTINUOUS
 10
5.7884621226
 20
3.9611058043
 11
5.7969357947
 21
3.9285636317
  0
LINE
  5
2C4
100
AcDbEntity
  8
ALL_ASSEMBLY_MEMBERS
100
AcDbLine
 62
7
  6
CONTINUOUS
 10
5.8068627303
 20
3.8904180149
 11
5.7969348096
 21
3.9285633024
  0
LINE
  5
2C5
100
AcDbEntity
  8
ALL_ASSEMBLY_MEMBERS
100
AcDbLine
 62
7
  6
CONTINUOUS
 10
5.637173913
 20
5.0163087311
 11
5.637173913
 21
4.9868087311
  0
LINE
  5
2C6
100
AcDbEntity
  8
ALL_ASSEMBLY_MEMBERS
100
AcDbLine
 62
7
  6
CONTINUOUS
 10
5.6470111897
 20
4.0434790992
 11
5.647011184
 21
4.0292166687
  0
LINE
  5
2C7
100
AcDbEntity
  8
ALL_ASSEMBLY_MEMBERS
100
AcDbLine
 62
7
  6
CONTINUOUS
 10
5.667173913
 20
5.2938481012
 11
5.667173913
 21
5.0463087311
  0
LINE
  5
2C8
100
AcDbEntity
  8
ALL_ASSEMBLY_MEMBERS
100
AcDbLine
 62
7
  6
CONTINUOUS
 10
5.669673913
 20
5.2938481012
 11
5.669673913
 21
5.4743481012
  0
LINE
  5
2C9
100
AcDbEntity
  8
ALL_ASSEMBLY_MEMBERS
100
AcDbLine
 62
7
  6
CONTINUOUS
 10
5.6806390362
 20
4.0434763451
 11
5.6806389898
 21
3.98925532
  0
LINE
  5
2CA
100
AcDbEntity
  8
ALL_ASSEMBLY_MEMBERS
100
AcDbLine
 62
7
  6
CONTINUOUS
 10
5.702173913
 20
5.4743481012
 11
6.008423913
 21
5.5323481012
  0
LINE
  5
2CB
100
AcDbEntity
  8
ALL_ASSEMBLY_MEMBERS
100
AcDbLine
 62
7
  6
CONTINUOUS
 10
5.8777873821
 20
5.5094142734
 11
5.8941475899
 21
5.5123693782
  0
LINE
  5
2CC
100
AcDbEntity
  8
ALL_ASSEMBLY_MEMBERS
100
AcDbLine
 62
7
  6
CONTINUOUS
 10
5.8674899865
 20
5.5087979499
 11
5.8682251693
 21
5.5089274079
  0
LINE
  5
2CD
100
AcDbEntity
  8
ALL_ASSEMBLY_MEMBERS
100
AcDbLine
 62
7
  6
CONTINUOUS
 10
5.8658228285
 20
5.5085044816
 11
5.8682251693
 21
5.5089274079
  0
LINE
  5
2CE
100
AcDbEntity
  8
ALL_ASSEMBLY_MEMBERS
100
AcDbLine
 62
7
  6
CONTINUOUS
 10
5.8535391664
 20
5.5063464502
 11
5.8658228285
 21
5.5085044816
  0
LINE
  5
2CF
100
AcDbEntity
  8
ALL_ASSEMBLY_MEMBERS
100
AcDbLine
 62
7
  6
CONTINUOUS
 10
5.8349226192
 20
5.5034156606
 11
5.8823284336
 21
5.5117433649
  0
LINE
  5
2D0
100
AcDbEntity
  8
ALL_ASSEMBLY_MEMBERS
100
AcDbLine
 62
7
  6
CONTINUOUS
 10
4.684673913
 20
5.2938481012
 11
5.669673913
 21
5.2938481012
  0
LINE
  5
2D1
100
AcDbEntity
  8
ALL_ASSEMBLY_MEMBERS
100
AcDbLine
 62
7
  6
CONTINUOUS
 10
5.1871733977
 20
5.3488481012
 11
5.1671744284
 21
5.3488481012
  0
LINE
  5
2D2
100
AcDbEntity
  8
ALL_ASSEMBLY_MEMBERS
100
AcDbLine
 62
7
  6
CONTINUOUS
 10
4.652173913
 20
5.4743481012
 11
4.345923913
 21
5.5323481012
  0
LINE
  5
2D3
100
AcDbEntity
  8
ALL_ASSEMBLY_MEMBERS
100
AcDbLine
 62
7
  6
CONTINUOUS
 10
4.5659908853
 20
5.491769853
 11
4.5653242195
 21
5.4919005405
  0
LINE
  5
2D4
100
AcDbEntity
  8
ALL_ASSEMBLY_MEMBERS
100
AcDbLine
 62
7
  6
CONTINUOUS
 10
4.4952142362
 20
5.5062206418
 11
4.4831657228
 21
5.5085991165
  0
LINE
  5
2D5
100
AcDbEntity
  8
ALL_ASSEMBLY_MEMBERS
100
AcDbLine
 62
7
  6
CONTINUOUS
 10
4.4742566982
 20
5.5109274966
 11
4.4651994956
 21
5.5127207509
  0
LINE
  5
2D6
100
AcDbEntity
  8
ALL_ASSEMBLY_MEMBERS
100
AcDbLine
 62
7
  6
CONTINUOUS
 10
4.4997528832
 20
5.5058810024
 11
4.474256709
 21
5.5109275571
  0
LINE
  5
2D7
100
AcDbEntity
  8
ALL_ASSEMBLY_MEMBERS
100
AcDbLine
 62
7
  6
CONTINUOUS
 10
4.4997528794
 20
5.5058809813
 11
4.4968788725
 21
5.5064497216
  0
LINE
  5
2D8
100
AcDbEntity
  8
ALL_ASSEMBLY_MEMBERS
100
AcDbLine
 62
7
  6
CONTINUOUS
 10
4.5772056045
 20
5.4912253411
 11
4.576537867
 21
5.4913576587
  0
LINE
  5
2D9
100
AcDbEntity
  8
ALL_ASSEMBLY_MEMBERS
100
AcDbLine
 62
7
  6
CONTINUOUS
 10
4.5805410381
 20
5.4905644204
 11
4.5798743852
 21
5.4906965155
  0
LINE
  5
2DA
100
AcDbEntity
  8
ALL_ASSEMBLY_MEMBERS
100
AcDbLine
 62
7
  6
CONTINUOUS
 10
4.5888250803
 20
5.4907527579
 11
4.5881576524
 21
5.4908855726
  0
LINE
  5
2DB
100
AcDbEntity
  8
ALL_ASSEMBLY_MEMBERS
100
AcDbLine
 62
7
  6
CONTINUOUS
 10
4.5921602376
 20
5.4900890822
 11
4.5914934704
 21
5.4902217643
  0
LINE
  5
2DC
100
AcDbEntity
  8
ALL_ASSEMBLY_MEMBERS
100
AcDbLine
 62
7
  6
CONTINUOUS
 10
4.580465105
 20
5.4933606144
 11
4.5094404541
 21
5.5075033932
  0
LINE
  5
2DD
100
AcDbEntity
  8
ALL_ASSEMBLY_MEMBERS
100
AcDbLine
 62
7
  6
CONTINUOUS
 10
4.4915375498
 20
5.5119766022
 11
4.5850076649
 21
5.4933649545
  0
LINE
  5
2DE
100
AcDbEntity
  8
ALL_ASSEMBLY_MEMBERS
100
AcDbLine
 62
7
  6
CONTINUOUS
 10
4.6055964506
 20
5.4903689518
 11
4.6069301228
 21
5.4901035944
  0
LINE
  5
2DF
100
AcDbEntity
  8
ALL_ASSEMBLY_MEMBERS
100
AcDbLine
 62
7
  6
CONTINUOUS
 10
4.5279197943
 20
5.5133022308
 11
4.5289395796
 21
5.513060746
  0
LINE
  5
2E0
100
AcDbEntity
  8
ALL_ASSEMBLY_MEMBERS
100
AcDbLine
 62
7
  6
CONTINUOUS
 10
4.5481566072
 20
5.5037702452
 11
4.5367806521
 21
5.5065627762
  0
LINE
  5
2E1
100
AcDbEntity
  8
ALL_ASSEMBLY_MEMBERS
100
AcDbLine
 62
7
  6
CONTINUOUS
 10
4.5367806521
 20
5.5065627762
 11
4.5252280868
 21
5.5094079176
  0
LINE
  5
2E2
100
AcDbEntity
  8
ALL_ASSEMBLY_MEMBERS
100
AcDbLine
 62
7
  6
CONTINUOUS
 10
4.5252280822
 20
5.5094078924
 11
4.513498883
 21
5.5123055154
  0
LINE
  5
2E3
100
AcDbEntity
  8
ALL_ASSEMBLY_MEMBERS
100
AcDbLine
 62
7
  6
CONTINUOUS
 10
4.7621645437
 20
5.5039552526
 11
4.7473300492
 21
5.5086233938
  0
LINE
  5
2E4
100
AcDbEntity
  8
ALL_ASSEMBLY_MEMBERS
100
AcDbLine
 62
7
  6
CONTINUOUS
 10
5.588371602
 20
5.4946679817
 11
5.5880400562
 21
5.4973914614
  0
LWPOLYLINE
  5
2E5
100
AcDbEntity
  8
ALL_ASSEMBLY_MEMBERS
100
AcDbPolyline
 62
7
  6
CONTINUOUS
 90
8
 70
0
 10
5.6146339725
 20
4.0718304748
 10
5.6132017858
 20
4.0626658509
 10
5.6126911705
 20
4.0605631355
 10
5.6119530831
 20
4.058521156
 10
5.6109946758
 20
4.0565660106
 10
5.6098275351
 20
4.0547245388
 10
5.6084650126
 20
4.053019363
 10
5.606922626
 20
4.0514712268
  0
LINE
  5
2E6
100
AcDbEntity
  8
ALL_ASSEMBLY_MEMBERS
100
AcDbLine
 62
7
  6
CONTINUOUS
 10
5.6169209038
 20
4.082304886
 11
5.6146339725
 21
4.0718304748
  0
LINE
  5
2E7
100
AcDbEntity
  8
ALL_ASSEMBLY_MEMBERS
100
AcDbLine
 62
7
  6
CONTINUOUS
 10
5.0892283524
 20
5.5119017973
 11
5.0998673043
 21
5.5127207509
  0
LINE
  5
2E8
100
AcDbEntity
  8
ALL_ASSEMBLY_MEMBERS
100
AcDbLine
 62
7
  6
CONTINUOUS
 10
5.8698244678
 20
5.5089837721
 11
5.871421522
 21
5.5090500796
  0
LINE
  5
2E9
100
AcDbEntity
  8
ALL_ASSEMBLY_MEMBERS
100
AcDbLine
 62
7
  6
CONTINUOUS
 10
5.8682251693
 20
5.5089274079
 11
5.8698244604
 21
5.508983812
  0
LINE
  5
2EA
100
AcDbEntity
  8
ALL_ASSEMBLY_MEMBERS
100
AcDbLine
 62
7
  6
CONTINUOUS
 10
4.6044599243
 20
5.4900534806
 11
4.6069301228
 21
5.4901035944
  0
LINE
  5
2EB
100
AcDbEntity
  8
ALL_ASSEMBLY_MEMBERS
100
AcDbLine
 62
7
  6
CONTINUOUS
 10
5.1671744284
 20
5.4288481012
 11
5.1871733977
 21
5.4288481012
  0
LINE
  5
2EC
100
AcDbEntity
  8
ALL_ASSEMBLY_MEMBERS
100
AcDbLine
 62
7
  6
CONTINUOUS
 10
4.652188223
 20
5.4743481012
 11
5.7021596031
 21
5.4743481012
  0
LINE
  5
2ED
100
AcDbEntity
  8
ALL_ASSEMBLY_MEMBERS
100
AcDbLine
 62
7
  6
CONTINUOUS
 10
5.0851697942
 20
5.4949230065
 11
5.0998673043
 21
5.4949230065
  0
LINE
  5
2EE
100
AcDbEntity
  8
ALL_ASSEMBLY_MEMBERS
100
AcDbLine
 62
7
  6
CONTINUOUS
 10
4.345923913
 20
5.5323481012
 11
6.008423913
 21
5.5323481012
  0
LINE
  5
2EF
100
AcDbEntity
  8
ALL_ASSEMBLY_MEMBERS
100
AcDbLine
 62
7
  6
CONTINUOUS
 10
4.3059391413
 20
5.5373481012
 11
6.0484086848
 21
5.5373481012
  0
LINE
  5
2F0
100
AcDbEntity
  8
ALL_ASSEMBLY_MEMBERS
100
AcDbLine
 62
7
  6
CONTINUOUS
 10
4.5921602376
 20
5.4900890822
 11
4.5946133341
 21
5.4900438057
  0
LINE
  5
2F1
100
AcDbEntity
  8
ALL_ASSEMBLY_MEMBERS
100
AcDbLine
 62
7
  6
CONTINUOUS
 10
5.1084362006
 20
5.4907191864
 11
5.1164124996
 21
5.4905644204
  0
LINE
  5
2F2
100
AcDbEntity
  8
ALL_ASSEMBLY_MEMBERS
100
AcDbLine
 62
7
  6
CONTINUOUS
 10
5.1004645573
 20
5.490892245
 11
5.1084361963
 21
5.4907189852
  0
LINE
  5
2F3
100
AcDbEntity
  8
ALL_ASSEMBLY_MEMBERS
100
AcDbLine
 62
7
  6
CONTINUOUS
 10
5.0765776068
 20
5.4915230248
 11
5.0850825287
 21
5.4912793433
  0
LINE
  5
2F4
100
AcDbEntity
  8
ALL_ASSEMBLY_MEMBERS
100
AcDbLine
 62
7
  6
CONTINUOUS
 10
5.0686245989
 20
5.491769853
 11
5.0765776001
 21
5.4915228082
  0
LINE
  5
2F5
100
AcDbEntity
  8
ALL_ASSEMBLY_MEMBERS
100
AcDbLine
 62
7
  6
CONTINUOUS
 10
4.5781040453
 20
5.4907189865
 11
4.5805410381
 21
5.4905644204
  0
LINE
  5
2F6
100
AcDbEntity
  8
ALL_ASSEMBLY_MEMBERS
100
AcDbLine
 62
7
  6
CONTINUOUS
 10
4.5756718691
 20
5.4908922473
 11
4.5781040453
 21
5.4907189865
  0
LINE
  5
2F7
100
AcDbEntity
  8
ALL_ASSEMBLY_MEMBERS
100
AcDbLine
 62
7
  6
CONTINUOUS
 10
4.5732444883
 20
5.4910840887
 11
4.5756718691
 21
5.4908922473
  0
LINE
  5
2F8
100
AcDbEntity
  8
ALL_ASSEMBLY_MEMBERS
100
AcDbLine
 62
7
  6
CONTINUOUS
 10
4.5732444883
 20
5.4910840887
 11
4.5756718997
 21
5.4908924108
  0
LINE
  5
2F9
100
AcDbEntity
  8
ALL_ASSEMBLY_MEMBERS
100
AcDbLine
 62
7
  6
CONTINUOUS
 10
4.5659908853
 20
5.491769853
 11
4.5684040223
 21
5.4915230267
  0
LINE
  5
2FA
100
AcDbEntity
  8
ALL_ASSEMBLY_MEMBERS
100
AcDbLine
 62
7
  6
CONTINUOUS
 10
5.7513132413
 20
5.4899411736
 11
5.7510167209
 21
5.4915620831
  0
LINE
  5
2FB
100
AcDbEntity
  8
ALL_ASSEMBLY_MEMBERS
100
AcDbLine
 62
7
  6
CONTINUOUS
 10
5.4151739131
 20
4.0322866414
 11
5.436083811
 21
4.058622953
  0
LWPOLYLINE
  5
2FC
100
AcDbEntity
  8
ALL_ASSEMBLY_MEMBERS
100
AcDbPolyline
 62
7
  6
CONTINUOUS
 90
16
 70
0
 10
5.7232761305
 20
4.1940507918
 10
5.7131050737
 20
4.1905370638
 10
5.7031986877
 20
4.1863371772
 10
5.6936029577
 20
4.1814711767
 10
5.6843626285
 20
4.1759634116
 10
5.6755214206
 20
4.1698383924
 10
5.6671200564
 20
4.1631254648
 10
5.6591976011
 20
4.1558577914
 10
5.6517915382
 20
4.1480681529
 10
5.6449354099
 20
4.1397936935
 10
5.6386610745
 20
4.1310750958
 10
5.6329986284
 20
4.1219525669
 10
5.6279722749
 20
4.1124690849
 10
5.6236041117
 20
4.1026698588
 10
5.6199152621
 20
4.0925999346
 10
5.6169209038
 20
4.082304886
  0
LINE
  5
2FD
100
AcDbEntity
  8
ALL_ASSEMBLY_MEMBERS
100
AcDbLine
 62
7
  6
CONTINUOUS
 10
4.5277412444
 20
5.5134031174
 11
4.527948336
 21
5.5134227618
  0
LINE
  5
2FE
100
AcDbEntity
  8
ALL_ASSEMBLY_MEMBERS
100
AcDbLine
 62
7
  6
CONTINUOUS
 10
4.5383618443
 20
5.510280938
 11
4.5397839522
 21
5.5104080303
  0
LINE
  5
2FF
100
AcDbEntity
  8
ALL_ASSEMBLY_MEMBERS
100
AcDbLine
 62
7
  6
CONTINUOUS
 10
6.802173913
 20
5.5773481012
 11
3.552173913
 21
5.5773481012
  0
LINE
  5
300
100
AcDbEntity
  8
ALL_ASSEMBLY_MEMBERS
100
AcDbLine
 62
7
  6
CONTINUOUS
 10
6.864673913
 20
5.6338481012
 11
3.489673913
 21
5.6338481012
  0
LINE
  5
301
100
AcDbEntity
  8
ALL_ASSEMBLY_MEMBERS
100
AcDbLine
 62
7
  6
CONTINUOUS
 10
5.7568595268
 20
5.492630934
 11
5.7571054792
 21
5.4912864511
  0
LINE
  5
302
100
AcDbEntity
  8
ALL_ASSEMBLY_MEMBERS
100
AcDbLine
 62
7
  6
CONTINUOUS
 10
5.7602623645
 20
5.4926085492
 11
5.760032388
 21
5.4938657009
  0
LINE
  5
303
100
AcDbEntity
  8
ALL_ASSEMBLY_MEMBERS
100
AcDbLine
 62
7
  6
CONTINUOUS
 10
5.7694283772
 20
5.4897779661
 11
5.7693024682
 21
5.4904662398
  0
LINE
  5
304
100
AcDbEntity
  8
ALL_ASSEMBLY_MEMBERS
100
AcDbLine
 62
7
  6
CONTINUOUS
 10
5.7744596065
 20
5.495857561
 11
5.7742956758
 21
5.4967536779
  0
LINE
  5
305
100
AcDbEntity
  8
ALL_ASSEMBLY_MEMBERS
100
AcDbLine
 62
7
  6
CONTINUOUS
 10
5.7793258441
 20
5.4924007509
 11
5.7794970746
 21
5.4914647302
  0
LINE
  5
306
100
AcDbEntity
  8
ALL_ASSEMBLY_MEMBERS
100
AcDbLine
 62
7
  6
CONTINUOUS
 10
5.7804768763
 20
5.491881925
 11
5.7803477664
 21
5.4925876958
  0
LINE
  5
307
100
AcDbEntity
  8
ALL_ASSEMBLY_MEMBERS
100
AcDbLine
 62
7
  6
CONTINUOUS
 10
5.7832001429
 20
5.4927453375
 11
5.7830920994
 21
5.4933359502
  0
LINE
  5
308
100
AcDbEntity
  8
ALL_ASSEMBLY_MEMBERS
100
AcDbLine
 62
7
  6
CONTINUOUS
 10
5.7891064952
 20
5.4952849073
 11
5.7888838996
 21
5.4965017119
  0
LINE
  5
309
100
AcDbEntity
  8
ALL_ASSEMBLY_MEMBERS
100
AcDbLine
 62
7
  6
CONTINUOUS
 10
5.8029571935
 20
5.5003372993
 11
5.8028450525
 21
5.500950311
  0
LINE
  5
30A
100
AcDbEntity
  8
ALL_ASSEMBLY_MEMBERS
100
AcDbLine
 62
7
  6
CONTINUOUS
 10
5.8042517623
 20
5.4985307156
 11
5.8038141308
 21
5.500923001
  0
LINE
  5
30B
100
AcDbEntity
  8
ALL_ASSEMBLY_MEMBERS
100
AcDbLine
 62
7
  6
CONTINUOUS
 10
5.8168328949
 20
5.5021970345
 11
5.8163982593
 21
5.5045729428
  0
LINE
  5
30C
100
AcDbEntity
  8
ALL_ASSEMBLY_MEMBERS
100
AcDbLine
 62
7
  6
CONTINUOUS
 10
5.8194438491
 20
5.5031234405
 11
5.819088651
 21
5.5050651083
  0
LINE
  5
30D
100
AcDbEntity
  8
ALL_ASSEMBLY_MEMBERS
100
AcDbLine
 62
7
  6
CONTINUOUS
 10
5.8364177265
 20
5.5028410427
 11
5.8362675993
 21
5.5036617039
  0
LINE
  5
30E
100
AcDbEntity
  8
ALL_ASSEMBLY_MEMBERS
100
AcDbLine
 62
7
  6
CONTINUOUS
 10
5.8386419351
 20
5.508198543
 11
5.8384923448
 21
5.5090162691
  0
LINE
  5
30F
100
AcDbEntity
  8
ALL_ASSEMBLY_MEMBERS
100
AcDbLine
 62
7
  6
CONTINUOUS
 10
5.848287618
 20
5.5038391888
 11
5.8479484281
 21
5.5056933485
  0
LINE
  5
310
100
AcDbEntity
  8
ALL_ASSEMBLY_MEMBERS
100
AcDbLine
 62
7
  6
CONTINUOUS
 10
5.8499364338
 20
5.5073717442
 11
5.84980775
 21
5.5080751858
  0
LINE
  5
311
100
AcDbEntity
  8
ALL_ASSEMBLY_MEMBERS
100
AcDbLine
 62
7
  6
CONTINUOUS
 10
5.8511861999
 20
5.5102999647
 11
5.851061175
 21
5.5109834052
  0
LINE
  5
312
100
AcDbEntity
  8
ALL_ASSEMBLY_MEMBERS
100
AcDbLine
 62
7
  6
CONTINUOUS
 10
5.8591648251
 20
5.5110432996
 11
5.859004714
 21
5.5119185369
  0
LINE
  5
313
100
AcDbEntity
  8
ALL_ASSEMBLY_MEMBERS
100
AcDbLine
 62
7
  6
CONTINUOUS
 10
5.8600017765
 20
5.5108548492
 11
5.8597949509
 21
5.5119854482
  0
LINE
  5
314
100
AcDbEntity
  8
ALL_ASSEMBLY_MEMBERS
100
AcDbLine
 62
7
  6
CONTINUOUS
 10
5.8646595288
 20
5.5107235337
 11
5.86448546
 21
5.5116750697
  0
LINE
  5
315
100
AcDbEntity
  8
ALL_ASSEMBLY_MEMBERS
100
AcDbLine
 62
7
  6
CONTINUOUS
 10
5.8777873821
 20
5.5094142734
 11
5.8775221532
 21
5.5108641303
  0
LINE
  5
316
100
AcDbEntity
  8
ALL_ASSEMBLY_MEMBERS
100
AcDbLine
 62
7
  6
CONTINUOUS
 10
6.008423913
 20
5.5323481012
 11
6.008423913
 21
5.5373481012
  0
LINE
  5
317
100
AcDbEntity
  8
ALL_ASSEMBLY_MEMBERS
100
AcDbLine
 62
7
  6
CONTINUOUS
 10
6.048423913
 20
5.5373481012
 11
6.048423913
 21
5.5773481012
  0
LINE
  5
318
100
AcDbEntity
  8
ALL_ASSEMBLY_MEMBERS
100
AcDbLine
 62
7
  6
CONTINUOUS
 10
5.606922626
 20
4.0514712268
 11
5.6055648965
 21
4.0503540195
  0
LINE
  5
319
100
AcDbEntity
  8
ALL_ASSEMBLY_MEMBERS
100
AcDbLine
 62
7
  6
CONTINUOUS
 10
5.6055810897
 20
4.0503674961
 11
5.6058993704
 21
4.0506109637
  0
LINE
  5
31A
100
AcDbEntity
  8
ALL_ASSEMBLY_MEMBERS
100
AcDbLine
 62
7
  6
CONTINUOUS
 10
5.6055648965
 20
4.0503540195
 11
5.6056153019
 21
4.050392027
  0
LINE
  5
31B
100
AcDbEntity
  8
ALL_ASSEMBLY_MEMBERS
100
AcDbLine
 62
7
  6
CONTINUOUS
 10
5.6055656546
 20
4.0503558778
 11
5.6046870278
 21
4.0497316032
  0
LINE
  5
31C
100
AcDbEntity
  8
ALL_ASSEMBLY_MEMBERS
100
AcDbLine
 62
7
  6
CONTINUOUS
 10
5.6056149603
 20
4.0503924776
 11
5.6044166168
 21
4.0495530823
  0
LINE
  5
31D
100
AcDbEntity
  8
ALL_ASSEMBLY_MEMBERS
100
AcDbLine
 62
7
  6
CONTINUOUS
 10
5.6046870278
 20
4.0497316032
 11
5.6034503942
 21
4.0489660678
  0
LWPOLYLINE
  5
31E
100
AcDbEntity
  8
ALL_ASSEMBLY_MEMBERS
100
AcDbPolyline
 62
7
  6
CONTINUOUS
 90
3
 70
0
 10
5.6044166168
 20
4.0495530823
 10
5.6028405544
 20
4.0486324648
 10
5.601183121
 20
4.0478579497
  0
LWPOLYLINE
  5
31F
100
AcDbEntity
  8
ALL_ASSEMBLY_MEMBERS
100
AcDbPolyline
 62
7
  6
CONTINUOUS
 90
6
 70
0
 10
5.601183121
 20
4.0478579497
 10
5.599457657
 20
4.0472370148
 10
5.5976786157
 20
4.0467760454
 10
5.5958614658
 20
4.0464800672
 10
5.5940217219
 20
4.0463524831
 10
5.5938309188
 20
4.0463489881
  0
LINE
  5
320
100
AcDbEntity
  8
ALL_ASSEMBLY_MEMBERS
100
AcDbLine
 62
7
  6
CONTINUOUS
 10
3.489673913
 20
5.7488481012
 11
6.864673913
 21
5.7488481012
  0
LINE
  5
321
100
AcDbEntity
  8
ALL_ASSEMBLY_MEMBERS
100
AcDbLine
 62
7
  6
CONTINUOUS
 10
6.407173913
 20
5.5773481012
 11
6.407173913
 21
5.7488481012
  0
LINE
  5
322
100
AcDbEntity
  8
ALL_ASSEMBLY_MEMBERS
100
AcDbLine
 62
7
  6
CONTINUOUS
 10
6.552173913
 20
5.6338481012
 11
6.552173913
 21
5.5773481012
  0
LINE
  5
323
100
AcDbEntity
  8
ALL_ASSEMBLY_MEMBERS
100
AcDbLine
 62
7
  6
CONTINUOUS
 10
6.614673913
 20
5.6338481012
 11
6.614673913
 21
5.7488481012
  0
LINE
  5
324
100
AcDbEntity
  8
ALL_ASSEMBLY_MEMBERS
100
AcDbLine
 62
7
  6
CONTINUOUS
 10
6.634673913
 20
5.7488481012
 11
6.634673913
 21
5.5773481012
  0
LINE
  5
325
100
AcDbEntity
  8
ALL_ASSEMBLY_MEMBERS
100
AcDbLine
 62
7
  6
CONTINUOUS
 10
6.657173913
 20
5.5773481012
 11
6.657173913
 21
5.7488481012
  0
LINE
  5
326
100
AcDbEntity
  8
ALL_ASSEMBLY_MEMBERS
100
AcDbLine
 62
7
  6
CONTINUOUS
 10
6.802173913
 20
5.6338481012
 11
6.802173913
 21
5.5773481012
  0
LINE
  5
327
100
AcDbEntity
  8
ALL_ASSEMBLY_MEMBERS
100
AcDbLine
 62
7
  6
CONTINUOUS
 10
6.864673913
 20
5.6338481012
 11
6.864673913
 21
5.7488481012
  0
ARC
  5
328
100
AcDbEntity
  8
ALL_ASSEMBLY_MEMBERS
100
AcDbCircle
 62
7
  6
CONTINUOUS
 10
2.0280496167
 20
3.8701654829
 40
3.1231898856
100
AcDbArc
 50
6.824488437
 51
7.5833440685
  0
ARC
  5
329
100
AcDbEntity
  8
ALL_ASSEMBLY_MEMBERS
100
AcDbCircle
 62
7
  6
CONTINUOUS
 10
3.1293679283
 20
4.0864796226
 40
2.0065400897
100
AcDbArc
 50
2.3802226708
 51
2.5483004103
  0
ARC
  5
32A
100
AcDbEntity
  8
ALL_ASSEMBLY_MEMBERS
100
AcDbCircle
 62
7
  6
CONTINUOUS
 10
3.943411432
 20
4.3265835693
 40
1.0653578975
100
AcDbArc
 50
355.4078766096
 51
357.6191807358
  0
ARC
  5
32B
100
AcDbEntity
  8
ALL_ASSEMBLY_MEMBERS
100
AcDbCircle
 62
7
  6
CONTINUOUS
 10
4.0181728787
 20
4.2208586282
 40
0.985
100
AcDbArc
 50
4.8307882199
 51
46.4750035269
  0
ARC
  5
32C
100
AcDbEntity
  8
ALL_ASSEMBLY_MEMBERS
100
AcDbCircle
 62
7
  6
CONTINUOUS
 10
4.3820674894
 20
4.0434793622
 40
0.3374781502
100
AcDbArc
 50
357.577695102
 51
359.9999553652
  0
ARC
  5
32D
100
AcDbEntity
  8
ALL_ASSEMBLY_MEMBERS
100
AcDbCircle
 62
7
  6
CONTINUOUS
 10
4.5846864928
 20
4.0432081004
 40
0.1578152704
100
AcDbArc
 50
78.3249235684
 51
80.92957567
  0
ARC
  5
32E
100
AcDbEntity
  8
ALL_ASSEMBLY_MEMBERS
100
AcDbCircle
 62
7
  6
CONTINUOUS
 10
4.584737091
 20
4.0432172845
 40
0.157802144
100
AcDbArc
 50
90.0017882455
 51
91.6609876324
  0
ARC
  5
32F
100
AcDbEntity
  8
ALL_ASSEMBLY_MEMBERS
100
AcDbCircle
 62
7
  6
CONTINUOUS
 10
4.5847859108
 20
4.0432253876
 40
0.1577997955
100
AcDbArc
 50
101.0959411697
 51
103.0133544435
  0
ARC
  5
330
100
AcDbEntity
  8
ALL_ASSEMBLY_MEMBERS
100
AcDbCircle
 62
7
  6
CONTINUOUS
 10
4.5846832241
 20
4.0432312805
 40
0.1577931982
100
AcDbArc
 50
77.6208723193
 51
78.8477103418
  0
ARC
  5
331
100
AcDbEntity
  8
ALL_ASSEMBLY_MEMBERS
100
AcDbCircle
 62
7
  6
CONTINUOUS
 10
4.5847283011
 20
4.0432270746
 40
0.1577923852
100
AcDbArc
 50
88.6681361225
 51
89.9985968555
  0
ARC
  5
332
100
AcDbEntity
  8
ALL_ASSEMBLY_MEMBERS
100
AcDbCircle
 62
7
  6
CONTINUOUS
 10
4.584773159
 20
4.0432381126
 40
0.1577849151
100
AcDbArc
 50
99.3340300229
 51
101.0922854818
  0
ARC
  5
333
100
AcDbEntity
  8
ALL_ASSEMBLY_MEMBERS
100
AcDbCircle
 62
7
  6
CONTINUOUS
 10
4.5848155389
 20
4.0432562156
 40
0.1577787116
100
AcDbArc
 50
110.3761615712
 51
112.1286319899
  0
ARC
  5
334
100
AcDbEntity
  8
ALL_ASSEMBLY_MEMBERS
100
AcDbCircle
 62
7
  6
CONTINUOUS
 10
4.584735241
 20
4.0432746993
 40
0.1577446997
100
AcDbArc
 50
91.6609204355
 51
93.735738122
  0
ARC
  5
335
100
AcDbEntity
  8
ALL_ASSEMBLY_MEMBERS
100
AcDbCircle
 62
7
  6
CONTINUOUS
 10
4.5847297531
 20
4.0432796582
 40
0.1577397821
100
AcDbArc
 50
86.3855716105
 51
88.6682194215
  0
ARC
  5
336
100
AcDbEntity
  8
ALL_ASSEMBLY_MEMBERS
100
AcDbCircle
 62
7
  6
CONTINUOUS
 10
4.584771795
 20
4.0432860816
 40
0.1577374816
100
AcDbArc
 50
103.0133231006
 51
104.7695211143
  0
ARC
  5
337
100
AcDbEntity
  8
ALL_ASSEMBLY_MEMBERS
100
AcDbCircle
 62
7
  6
CONTINUOUS
 10
4.5846963321
 20
4.0432893647
 40
0.1577336548
100
AcDbArc
 50
75.3416601344
 51
77.6209785234
  0
ARC
  5
338
100
AcDbEntity
  8
ALL_ASSEMBLY_MEMBERS
100
AcDbCircle
 62
7
  6
CONTINUOUS
 10
4.5847999245
 20
4.0432986498
 40
0.157733496
100
AcDbArc
 50
108.4555439941
 51
110.3762115014
  0
ARC
  5
339
100
AcDbEntity
  8
ALL_ASSEMBLY_MEMBERS
100
AcDbCircle
 62
7
  6
CONTINUOUS
 10
4.5847001432
 20
4.0432933588
 40
0.1577289262
100
AcDbArc
 50
78.8476075044
 51
82.6974144201
  0
ARC
  5
33A
100
AcDbEntity
  8
ALL_ASSEMBLY_MEMBERS
100
AcDbCircle
 62
7
  6
CONTINUOUS
 10
4.5847639104
 20
4.0432952454
 40
0.1577270387
100
AcDbArc
 50
97.4193986437
 51
99.3340809564
  0
ARC
  5
33B
100
AcDbEntity
  8
ALL_ASSEMBLY_MEMBERS
100
AcDbCircle
 62
7
  6
CONTINUOUS
 10
4.5847370748
 20
4.0432937447
 40
0.1577256838
100
AcDbArc
 50
88.6707602001
 51
90.0017832559
  0
ARC
  5
33C
100
AcDbEntity
  8
ALL_ASSEMBLY_MEMBERS
100
AcDbCircle
 62
7
  6
CONTINUOUS
 10
4.5847043147
 20
4.0432972325
 40
0.1577243759
100
AcDbArc
 50
77.795048313
 51
78.3247115152
  0
ARC
  5
33D
100
AcDbEntity
  8
ALL_ASSEMBLY_MEMBERS
100
AcDbCircle
 62
7
  6
CONTINUOUS
 10
4.5847281732
 20
4.0433004704
 40
0.1577189894
100
AcDbArc
 50
89.9985497206
 51
91.6586246179
  0
ARC
  5
33E
100
AcDbEntity
  8
ALL_ASSEMBLY_MEMBERS
100
AcDbCircle
 62
7
  6
CONTINUOUS
 10
4.5847930194
 20
4.043312112
 40
0.1577184497
100
AcDbArc
 50
112.1287027403
 51
112.7352458203
  0
ARC
  5
33F
100
AcDbEntity
  8
ALL_ASSEMBLY_MEMBERS
100
AcDbCircle
 62
7
  6
CONTINUOUS
 10
4.5846737425
 20
4.0433177277
 40
0.1577128367
100
AcDbArc
 50
69.8027636789
 51
71.8381138887
  0
ARC
  5
340
100
AcDbEntity
  8
ALL_ASSEMBLY_MEMBERS
100
AcDbCircle
 62
7
  6
CONTINUOUS
 10
4.5847659438
 20
4.0433275468
 40
0.1576957032
100
AcDbArc
 50
99.3367145405
 51
101.0959655222
  0
ARC
  5
341
100
AcDbEntity
  8
ALL_ASSEMBLY_MEMBERS
100
AcDbCircle
 62
7
  6
CONTINUOUS
 10
4.584839254
 20
4.0433815805
 40
0.1576853475
100
AcDbArc
 50
132.9766535854
 51
134.7021487812
  0
ARC
  5
342
100
AcDbEntity
  8
ALL_ASSEMBLY_MEMBERS
100
AcDbCircle
 62
7
  6
CONTINUOUS
 10
4.5846799991
 20
4.0433452709
 40
0.1576850453
100
AcDbArc
 50
69.0961108083
 51
69.801284163
  0
ARC
  5
343
100
AcDbEntity
  8
ALL_ASSEMBLY_MEMBERS
100
AcDbCircle
 62
7
  6
CONTINUOUS
 10
4.5847526757
 20
4.0433417469
 40
0.157679276
100
AcDbArc
 50
101.0922264484
 51
103.0111079776
  0
ARC
  5
344
100
AcDbEntity
  8
ALL_ASSEMBLY_MEMBERS
100
AcDbCircle
 62
7
  6
CONTINUOUS
 10
4.5847764541
 20
4.0433517235
 40
0.157675514
100
AcDbArc
 50
112.7352569267
 51
113.0850378346
  0
ARC
  5
345
100
AcDbEntity
  8
ALL_ASSEMBLY_MEMBERS
100
AcDbCircle
 62
7
  6
CONTINUOUS
 10
4.5847857366
 20
4.0433591582
 40
0.1576720913
100
AcDbArc
 50
110.3790354855
 51
112.1326920202
  0
ARC
  5
346
100
AcDbEntity
  8
ALL_ASSEMBLY_MEMBERS
100
AcDbCircle
 62
7
  6
CONTINUOUS
 10
4.5847922807
 20
4.0435805959
 40
0.1576303968
100
AcDbArc
 50
228.0031334655
 51
228.5844199564
  0
ARC
  5
347
100
AcDbEntity
  8
ALL_ASSEMBLY_MEMBERS
100
AcDbCircle
 62
7
  6
CONTINUOUS
 10
4.5847388501
 20
4.0434534664
 40
0.1575643722
100
AcDbArc
 50
75.6790069717
 51
77.7953121253
  0
ARC
  5
348
100
AcDbEntity
  8
ALL_ASSEMBLY_MEMBERS
100
AcDbCircle
 62
7
  6
CONTINUOUS
 10
4.5847289637
 20
4.043510105
 40
0.1575357944
100
AcDbArc
 50
233.7312938807
 51
253.7597839043
  0
ARC
  5
349
100
AcDbEntity
  8
ALL_ASSEMBLY_MEMBERS
100
AcDbCircle
 62
7
  6
CONTINUOUS
 10
4.5847272612
 20
4.0434862126
 40
0.1575324971
100
AcDbArc
 50
112.1304012418
 51
132.9727947548
  0
ARC
  5
34A
100
AcDbEntity
  8
ALL_ASSEMBLY_MEMBERS
100
AcDbCircle
 62
7
  6
CONTINUOUS
 10
4.5847248366
 20
4.0435023846
 40
0.1575271284
100
AcDbArc
 50
228.5839981902
 51
233.7308429802
  0
ARC
  5
34B
100
AcDbEntity
  8
ALL_ASSEMBLY_MEMBERS
100
AcDbCircle
 62
7
  6
CONTINUOUS
 10
4.5846969765
 20
4.0434969084
 40
0.1575230635
100
AcDbArc
 50
90.0
 51
255.3491830153
  0
ARC
  5
34C
100
AcDbEntity
  8
ALL_ASSEMBLY_MEMBERS
100
AcDbCircle
 62
7
  6
CONTINUOUS
 10
4.5847331863
 20
4.0434986576
 40
0.1575226475
100
AcDbArc
 50
106.6978757433
 51
108.4555477588
  0
ARC
  5
34D
100
AcDbEntity
  8
ALL_ASSEMBLY_MEMBERS
100
AcDbCircle
 62
7
  6
CONTINUOUS
 10
4.5847159933
 20
4.0434967661
 40
0.1575167989
100
AcDbArc
 50
134.6997530185
 51
228.003353773
  0
ARC
  5
34E
100
AcDbEntity
  8
ALL_ASSEMBLY_MEMBERS
100
AcDbCircle
 62
7
  6
CONTINUOUS
 10
4.5847382866
 20
4.0435053764
 40
0.1575146608
100
AcDbArc
 50
69.8010739738
 51
71.6549230596
  0
ARC
  5
34F
100
AcDbEntity
  8
ALL_ASSEMBLY_MEMBERS
100
AcDbCircle
 62
7
  6
CONTINUOUS
 10
4.5847241643
 20
4.0434875833
 40
0.1575128292
100
AcDbArc
 50
253.7591689322
 51
255.1803289195
  0
ARC
  5
350
100
AcDbEntity
  8
ALL_ASSEMBLY_MEMBERS
100
AcDbCircle
 62
7
  6
CONTINUOUS
 10
4.5847141091
 20
4.0435040297
 40
0.1575120288
100
AcDbArc
 50
104.7694417609
 51
106.6917879079
  0
ARC
  5
351
100
AcDbEntity
  8
ALL_ASSEMBLY_MEMBERS
100
AcDbCircle
 62
7
  6
CONTINUOUS
 10
4.5847351402
 20
4.0435162695
 40
0.1575041499
100
AcDbArc
 50
95.6539206323
 51
97.419402928
  0
ARC
  5
352
100
AcDbEntity
  8
ALL_ASSEMBLY_MEMBERS
100
AcDbCircle
 62
7
  6
CONTINUOUS
 10
4.5847189343
 20
4.0435241395
 40
0.1574947271
100
AcDbArc
 50
93.7357309173
 51
95.6483336821
  0
ARC
  5
353
100
AcDbEntity
  8
ALL_ASSEMBLY_MEMBERS
100
AcDbCircle
 62
7
  6
CONTINUOUS
 10
4.5847431813
 20
4.0435258618
 40
0.1574934876
100
AcDbArc
 50
86.3848002336
 51
88.6710222407
  0
ARC
  5
354
100
AcDbEntity
  8
ALL_ASSEMBLY_MEMBERS
100
AcDbCircle
 62
7
  6
CONTINUOUS
 10
4.5847454777
 20
4.0435323701
 40
0.1574865815
100
AcDbArc
 50
84.6142297241
 51
86.3854849908
  0
ARC
  5
355
100
AcDbEntity
  8
ALL_ASSEMBLY_MEMBERS
100
AcDbCircle
 62
7
  6
CONTINUOUS
 10
4.5847315527
 20
4.0435401281
 40
0.1574801661
100
AcDbArc
 50
82.6973373068
 51
84.6089190896
  0
ARC
  5
356
100
AcDbEntity
  8
ALL_ASSEMBLY_MEMBERS
100
AcDbCircle
 62
7
  6
CONTINUOUS
 10
4.5847207228
 20
4.0435438012
 40
0.1574755449
100
AcDbArc
 50
91.6584775513
 51
93.7368468223
  0
ARC
  5
357
100
AcDbEntity
  8
ALL_ASSEMBLY_MEMBERS
100
AcDbCircle
 62
7
  6
CONTINUOUS
 10
4.5847636276
 20
4.0435476627
 40
0.1574667343
100
AcDbArc
 50
73.5710191966
 51
75.3415661651
  0
ARC
  5
358
100
AcDbEntity
  8
ALL_ASSEMBLY_MEMBERS
100
AcDbCircle
 62
7
  6
CONTINUOUS
 10
4.5847594242
 20
4.0435785748
 40
0.1574382779
100
AcDbArc
 50
71.8381525064
 51
73.59711212
  0
ARC
  5
359
100
AcDbEntity
  8
ALL_ASSEMBLY_MEMBERS
100
AcDbCircle
 62
7
  6
CONTINUOUS
 10
4.5847229521
 20
4.0435904454
 40
0.1574293127
100
AcDbArc
 50
97.4184899952
 51
99.3367981007
  0
ARC
  5
35A
100
AcDbEntity
  8
ALL_ASSEMBLY_MEMBERS
100
AcDbCircle
 62
7
  6
CONTINUOUS
 10
4.5846919715
 20
4.0436045406
 40
0.1574095621
100
AcDbArc
 50
103.0111151086
 51
104.770977266
  0
ARC
  5
35B
100
AcDbEntity
  8
ALL_ASSEMBLY_MEMBERS
100
AcDbCircle
 62
7
  6
CONTINUOUS
 10
4.5846894909
 20
4.0436189404
 40
0.1573950534
100
AcDbArc
 50
108.4543204927
 51
110.3791236159
  0
ARC
  5
35C
100
AcDbEntity
  8
ALL_ASSEMBLY_MEMBERS
100
AcDbCircle
 62
7
  6
CONTINUOUS
 10
4.5846913755
 20
4.0433653978
 40
0.1573863215
100
AcDbArc
 50
255.1804911979
 51
255.350313332
  0
ARC
  5
35D
100
AcDbEntity
  8
ALL_ASSEMBLY_MEMBERS
100
AcDbCircle
 62
7
  6
CONTINUOUS
 10
4.5848335651
 20
4.0437896829
 40
0.1572148154
100
AcDbArc
 50
71.6552706538
 51
73.5705207089
  0
ARC
  5
35E
100
AcDbEntity
  8
ALL_ASSEMBLY_MEMBERS
100
AcDbCircle
 62
7
  6
CONTINUOUS
 10
4.5848255716
 20
4.043796961
 40
0.1572101007
100
AcDbArc
 50
73.5977627482
 51
75.6786650804
  0
ARC
  5
35F
100
AcDbEntity
  8
ALL_ASSEMBLY_MEMBERS
100
AcDbCircle
 62
7
  6
CONTINUOUS
 10
4.5847706802
 20
4.0438109508
 40
0.1572068651
100
AcDbArc
 50
82.6989362059
 51
84.6138446396
  0
ARC
  5
360
100
AcDbEntity
  8
ALL_ASSEMBLY_MEMBERS
100
AcDbCircle
 62
7
  6
CONTINUOUS
 10
4.5847049505
 20
4.0438136543
 40
0.1572052376
100
AcDbArc
 50
93.7375206065
 51
95.6536492484
  0
ARC
  5
361
100
AcDbEntity
  8
ALL_ASSEMBLY_MEMBERS
100
AcDbCircle
 62
7
  6
CONTINUOUS
 10
4.5847613859
 20
4.043843661
 40
0.1571751729
100
AcDbArc
 50
84.6093504518
 51
86.3841183569
  0
ARC
  5
362
100
AcDbEntity
  8
ALL_ASSEMBLY_MEMBERS
100
AcDbCircle
 62
7
  6
CONTINUOUS
 10
4.5846174112
 20
4.0438288401
 40
0.1571731308
100
AcDbArc
 50
106.6920320651
 51
108.4536170731
  0
ARC
  5
363
100
AcDbEntity
  8
ALL_ASSEMBLY_MEMBERS
100
AcDbCircle
 62
7
  6
CONTINUOUS
 10
4.5846881009
 20
4.0438452019
 40
0.1571721889
100
AcDbArc
 50
95.648667595
 51
97.4178824704
  0
ARC
  5
364
100
AcDbEntity
  8
ALL_ASSEMBLY_MEMBERS
100
AcDbCircle
 62
7
  6
CONTINUOUS
 10
4.6036138903
 20
4.1059885857
 40
0.1971759954
100
AcDbArc
 50
254.5775079994
 51
255.4050057497
  0
ARC
  5
365
100
AcDbEntity
  8
ALL_ASSEMBLY_MEMBERS
100
AcDbCircle
 62
7
  6
CONTINUOUS
 10
4.5762403497
 20
4.3532512704
 40
0.4373978032
100
AcDbArc
 50
345.8856481158
 51
350.6683053623
  0
ARC
  5
366
100
AcDbEntity
  8
ALL_ASSEMBLY_MEMBERS
100
AcDbCircle
 62
7
  6
CONTINUOUS
 10
4.3921148548
 20
4.6759269531
 40
0.8345527076
100
AcDbArc
 50
78.579893571
 51
78.7424945592
  0
ARC
  5
367
100
AcDbEntity
  8
ALL_ASSEMBLY_MEMBERS
100
AcDbCircle
 62
7
  6
CONTINUOUS
 10
4.4585473389
 20
5.0042932618
 40
0.4995337666
100
AcDbArc
 50
78.3473326115
 51
78.5913946143
  0
ARC
  5
368
100
AcDbEntity
  8
ALL_ASSEMBLY_MEMBERS
100
AcDbCircle
 62
7
  6
CONTINUOUS
 10
4.503400872
 20
5.0263886644
 40
0.4824558995
100
AcDbArc
 50
78.9067718409
 51
82.5863647148
  0
ARC
  5
369
100
AcDbEntity
  8
ALL_ASSEMBLY_MEMBERS
100
AcDbCircle
 62
7
  6
CONTINUOUS
 10
4.4903027727
 20
5.0445208445
 40
0.4578056407
100
AcDbArc
 50
78.2404653153
 51
78.5368571118
  0
ARC
  5
36A
100
AcDbEntity
  8
ALL_ASSEMBLY_MEMBERS
100
AcDbCircle
 62
7
  6
CONTINUOUS
 10
4.4895075868
 20
5.9165663606
 40
0.4049721142
100
AcDbArc
 50
273.3962964007
 51
275.4173968146
  0
ARC
  5
36B
100
AcDbEntity
  8
ALL_ASSEMBLY_MEMBERS
100
AcDbCircle
 62
7
  6
CONTINUOUS
 10
4.5035448019
 20
5.9075488096
 40
0.3987906571
100
AcDbArc
 50
274.0904542583
 51
275.0086745336
  0
ARC
  5
36C
100
AcDbEntity
  8
ALL_ASSEMBLY_MEMBERS
100
AcDbCircle
 62
7
  6
CONTINUOUS
 10
4.503999431
 20
5.9012155948
 40
0.3924411458
100
AcDbArc
 50
273.5208586517
 51
274.0902039066
  0
ARC
  5
36D
100
AcDbEntity
  8
ALL_ASSEMBLY_MEMBERS
100
AcDbCircle
 62
7
  6
CONTINUOUS
 10
4.5263187625
 20
5.1242920668
 40
0.3807193346
100
AcDbArc
 50
78.8798115867
 51
80.2064914575
  0
ARC
  5
36E
100
AcDbEntity
  8
ALL_ASSEMBLY_MEMBERS
100
AcDbCircle
 62
7
  6
CONTINUOUS
 10
4.5279698446
 20
5.1334461131
 40
0.3714178497
100
AcDbArc
 50
80.2172801824
 51
81.1376415896
  0
ARC
  5
36F
100
AcDbEntity
  8
ALL_ASSEMBLY_MEMBERS
100
AcDbCircle
 62
7
  6
CONTINUOUS
 10
4.5301206577
 20
5.1475128295
 40
0.3571877171
100
AcDbArc
 50
81.1309042385
 51
82.9418183185
  0
ARC
  5
370
100
AcDbEntity
  8
ALL_ASSEMBLY_MEMBERS
100
AcDbCircle
 62
7
  6
CONTINUOUS
 10
4.5402478145
 20
5.1685628994
 40
0.3353006318
100
AcDbArc
 50
87.5141432909
 51
88.6484294169
  0
ARC
  5
371
100
AcDbEntity
  8
ALL_ASSEMBLY_MEMBERS
100
AcDbCircle
 62
7
  6
CONTINUOUS
 10
4.4466110397
 20
5.1920238309
 40
0.3216751305
100
AcDbArc
 50
78.736614239
 51
78.8631044121
  0
ARC
  5
372
100
AcDbEntity
  8
ALL_ASSEMBLY_MEMBERS
100
AcDbCircle
 62
7
  6
CONTINUOUS
 10
4.599214143
 20
5.8088138056
 40
0.3188034748
100
AcDbArc
 50
270.0567282084
 51
270.9428216249
  0
ARC
  5
373
100
AcDbEntity
  8
ALL_ASSEMBLY_MEMBERS
100
AcDbCircle
 62
7
  6
CONTINUOUS
 10
4.5992146669
 20
5.8061970712
 40
0.3161867412
100
AcDbArc
 50
269.1661693961
 51
270.0571027652
  0
ARC
  5
374
100
AcDbEntity
  8
ALL_ASSEMBLY_MEMBERS
100
AcDbCircle
 62
7
  6
CONTINUOUS
 10
4.5993712295
 20
5.8061103309
 40
0.3161077979
100
AcDbArc
 50
264.3780552635
 51
265.2590172907
  0
ARC
  5
375
100
AcDbEntity
  8
ALL_ASSEMBLY_MEMBERS
100
AcDbCircle
 62
7
  6
CONTINUOUS
 10
4.5411646925
 20
5.1979611968
 40
0.3055702697
100
AcDbArc
 50
77.7326399787
 51
78.9470876847
  0
ARC
  5
376
100
AcDbEntity
  8
ALL_ASSEMBLY_MEMBERS
100
AcDbCircle
 62
7
  6
CONTINUOUS
 10
4.5426922596
 20
5.2237677848
 40
0.2800416782
100
AcDbArc
 50
86.3613925513
 51
87.5239139927
  0
ARC
  5
377
100
AcDbEntity
  8
ALL_ASSEMBLY_MEMBERS
100
AcDbCircle
 62
7
  6
CONTINUOUS
 10
4.5281788845
 20
5.225969135
 40
0.2724463551
100
AcDbArc
 50
77.814200248
 51
78.2617356411
  0
ARC
  5
378
100
AcDbEntity
  8
ALL_ASSEMBLY_MEMBERS
100
AcDbCircle
 62
7
  6
CONTINUOUS
 10
4.5359391304
 20
5.3121818802
 40
0.194705683
100
AcDbArc
 50
87.3885052407
 51
89.1978576533
  0
ARC
  5
379
100
AcDbEntity
  8
ALL_ASSEMBLY_MEMBERS
100
AcDbCircle
 62
7
  6
CONTINUOUS
 10
4.5759147509
 20
5.6670637273
 40
0.1765546047
100
AcDbArc
 50
241.4510141266
 51
242.8997898571
  0
ARC
  5
37A
100
AcDbEntity
  8
ALL_ASSEMBLY_MEMBERS
100
AcDbCircle
 62
7
  6
CONTINUOUS
 10
4.5217535509
 20
5.6487706625
 40
0.147336145
100
AcDbArc
 50
247.4280236972
 51
249.114991663
  0
ARC
  5
37B
100
AcDbEntity
  8
ALL_ASSEMBLY_MEMBERS
100
AcDbCircle
 62
7
  6
CONTINUOUS
 10
4.627062546
 20
5.60143226
 40
0.1115025618
100
AcDbArc
 50
258.7701828909
 51
259.0868501737
  0
ARC
  5
37C
100
AcDbEntity
  8
ALL_ASSEMBLY_MEMBERS
100
AcDbCircle
 62
7
  6
CONTINUOUS
 10
4.6259620895
 20
5.5956129917
 40
0.105580196
100
AcDbArc
 50
259.0753707112
 51
260.1210746365
  0
ARC
  5
37D
100
AcDbEntity
  8
ALL_ASSEMBLY_MEMBERS
100
AcDbCircle
 62
7
  6
CONTINUOUS
 10
4.6230137306
 20
5.5758274345
 40
0.0855735098
100
AcDbArc
 50
264.5220011879
 51
265.0216687069
  0
ARC
  5
37E
100
AcDbEntity
  8
ALL_ASSEMBLY_MEMBERS
100
AcDbCircle
 62
7
  6
CONTINUOUS
 10
4.6227821167
 20
5.5734888954
 40
0.0832235406
100
AcDbArc
 50
263.697669919
 51
264.5270344474
  0
ARC
  5
37F
100
AcDbEntity
  8
ALL_ASSEMBLY_MEMBERS
100
AcDbCircle
 62
7
  6
CONTINUOUS
 10
4.6223898481
 20
5.5686065404
 40
0.0783257162
100
AcDbArc
 50
265.0179431924
 51
265.5315717647
  0
ARC
  5
380
100
AcDbEntity
  8
ALL_ASSEMBLY_MEMBERS
100
AcDbCircle
 62
7
  6
CONTINUOUS
 10
4.6027931372
 20
5.54871065
 40
0.057810821
100
AcDbArc
 50
269.8544284015
 51
270.1331852565
  0
ARC
  5
381
100
AcDbEntity
  8
ALL_ASSEMBLY_MEMBERS
100
AcDbCircle
 62
7
  6
CONTINUOUS
 10
4.6023432502
 20
5.4488612105
 40
0.0472266304
100
AcDbArc
 50
71.8127852123
 51
73.1472442909
  0
ARC
  5
382
100
AcDbEntity
  8
ALL_ASSEMBLY_MEMBERS
100
AcDbCircle
 62
7
  6
CONTINUOUS
 10
4.9820874236
 20
4.2515050739
 40
0.3595174577
100
AcDbArc
 50
263.1445903218
 51
263.8437656809
  0
ARC
  5
383
100
AcDbEntity
  8
ALL_ASSEMBLY_MEMBERS
100
AcDbCircle
 62
7
  6
CONTINUOUS
 10
4.763673913
 20
4.2823273474
 40
0.236
100
AcDbArc
 50
270.0
 51
360.0
  0
ARC
  5
384
100
AcDbEntity
  8
ALL_ASSEMBLY_MEMBERS
100
AcDbCircle
 62
7
  6
CONTINUOUS
 10
4.9061121735
 20
4.0310609627
 40
0.1920828083
100
AcDbArc
 50
2.2807978842
 51
4.2412535913
  0
ARC
  5
385
100
AcDbEntity
  8
ALL_ASSEMBLY_MEMBERS
100
AcDbCircle
 62
7
  6
CONTINUOUS
 10
5.240660735
 20
3.9151729896
 40
0.103474638
100
AcDbArc
 50
179.5904139302
 51
179.9987618908
  0
ARC
  5
386
100
AcDbEntity
  8
ALL_ASSEMBLY_MEMBERS
100
AcDbCircle
 62
7
  6
CONTINUOUS
 10
5.1162077287
 20
3.9151820349
 40
0.1009540008
100
AcDbArc
 50
359.9961351461
 51
0.4146788331
  0
ARC
  5
387
100
AcDbEntity
  8
ALL_ASSEMBLY_MEMBERS
100
AcDbCircle
 62
7
  6
CONTINUOUS
 10
5.221173913
 20
4.1286353534
 40
0.035
100
AcDbArc
 50
0.0
 51
73.9024172261
  0
ARC
  5
388
100
AcDbEntity
  8
ALL_ASSEMBLY_MEMBERS
100
AcDbCircle
 62
7
  6
CONTINUOUS
 10
5.133173913
 20
4.128635291
 40
0.035
100
AcDbArc
 50
106.0975398526
 51
179.9999999814
  0
ARC
  5
389
100
AcDbEntity
  8
ALL_ASSEMBLY_MEMBERS
100
AcDbCircle
 62
7
  6
CONTINUOUS
 10
5.2011901085
 20
3.8904156486
 40
0.0303840879
100
AcDbArc
 50
178.7175612653
 51
179.995539863
  0
ARC
  5
38A
100
AcDbEntity
  8
ALL_ASSEMBLY_MEMBERS
100
AcDbCircle
 62
7
  6
CONTINUOUS
 10
5.153158113
 20
3.8904156611
 40
0.0303836926
100
AcDbArc
 50
0.0044368182
 51
1.282431698
  0
ARC
  5
38B
100
AcDbEntity
  8
ALL_ASSEMBLY_MEMBERS
100
AcDbCircle
 62
7
  6
CONTINUOUS
 10
4.7608366558
 20
4.0665427885
 40
0.0202012672
100
AcDbArc
 50
256.6601678748
 51
260.9815163108
  0
ARC
  5
38C
100
AcDbEntity
  8
ALL_ASSEMBLY_MEMBERS
100
AcDbCircle
 62
7
  6
CONTINUOUS
 10
4.7608265862
 20
4.0665004165
 40
0.0201577151
100
AcDbArc
 50
254.4905017914
 51
256.6602293572
  0
ARC
  5
38D
100
AcDbEntity
  8
ALL_ASSEMBLY_MEMBERS
100
AcDbCircle
 62
7
  6
CONTINUOUS
 10
4.7608263191
 20
4.0664789924
 40
0.0201366394
100
AcDbArc
 50
260.9821101808
 51
262.8515375473
  0
ARC
  5
38E
100
AcDbEntity
  8
ALL_ASSEMBLY_MEMBERS
100
AcDbCircle
 62
7
  6
CONTINUOUS
 10
4.7608358963
 20
4.0663990448
 40
0.0200670077
100
AcDbArc
 50
235.7279158873
 51
241.1620655526
  0
ARC
  5
38F
100
AcDbEntity
  8
ALL_ASSEMBLY_MEMBERS
100
AcDbCircle
 62
7
  6
CONTINUOUS
 10
4.7608229677
 20
4.0663798097
 40
0.0200438319
100
AcDbArc
 50
233.0247202038
 51
235.7274929972
  0
ARC
  5
390
100
AcDbEntity
  8
ALL_ASSEMBLY_MEMBERS
100
AcDbCircle
 62
7
  6
CONTINUOUS
 10
4.7608096511
 20
4.0663530107
 40
0.0200140234
100
AcDbArc
 50
241.1643175926
 51
242.0884403918
  0
ARC
  5
391
100
AcDbEntity
  8
ALL_ASSEMBLY_MEMBERS
100
AcDbCircle
 62
7
  6
CONTINUOUS
 10
4.7607832782
 20
4.0663490467
 40
0.0200002769
100
AcDbArc
 50
250.131759715
 51
254.494096871
  0
ARC
  5
392
100
AcDbEntity
  8
ALL_ASSEMBLY_MEMBERS
100
AcDbCircle
 62
7
  6
CONTINUOUS
 10
5.1179826231
 20
3.8413822695
 40
0.0199532484
100
AcDbArc
 50
15.746707118
 51
74.1190936031
  0
ARC
  5
393
100
AcDbEntity
  8
ALL_ASSEMBLY_MEMBERS
100
AcDbCircle
 62
7
  6
CONTINUOUS
 10
5.2363652043
 20
3.8413822698
 40
0.0199532483
100
AcDbArc
 50
105.8809201071
 51
164.2533149529
  0
ARC
  5
394
100
AcDbEntity
  8
ALL_ASSEMBLY_MEMBERS
100
AcDbCircle
 62
7
  6
CONTINUOUS
 10
4.7607598082
 20
4.0662557875
 40
0.0199047783
100
AcDbArc
 50
242.0842197802
 51
248.2310320155
  0
ARC
  5
395
100
AcDbEntity
  8
ALL_ASSEMBLY_MEMBERS
100
AcDbCircle
 62
7
  6
CONTINUOUS
 10
4.7607882047
 20
4.0661874843
 40
0.0198402788
100
AcDbArc
 50
262.7591411128
 51
269.2149523857
  0
ARC
  5
396
100
AcDbEntity
  8
ALL_ASSEMBLY_MEMBERS
100
AcDbCircle
 62
7
  6
CONTINUOUS
 10
4.7607955108
 20
4.0661806393
 40
0.0198367727
100
AcDbArc
 50
262.8325943401
 51
269.2266197091
  0
ARC
  5
397
100
AcDbEntity
  8
ALL_ASSEMBLY_MEMBERS
100
AcDbCircle
 62
7
  6
CONTINUOUS
 10
4.7607060071
 20
4.0661300912
 40
0.0197680931
100
AcDbArc
 50
248.240735948
 51
250.1267102724
  0
ARC
  5
398
100
AcDbEntity
  8
ALL_ASSEMBLY_MEMBERS
100
AcDbCircle
 62
7
  6
CONTINUOUS
 10
5.3125474308
 20
4.9360574581
 40
1.08017123
100
AcDbArc
 50
275.3403478524
 51
275.6276066073
  0
ARC
  5
399
100
AcDbEntity
  8
ALL_ASSEMBLY_MEMBERS
100
AcDbCircle
 62
7
  6
CONTINUOUS
 10
5.0417915233
 20
4.9359625043
 40
1.0800758638
100
AcDbArc
 50
264.3723678048
 51
264.6596519359
  0
CIRCLE
  5
39A
100
AcDbEntity
  8
ALL_ASSEMBLY_MEMBERS
100
AcDbCircle
 62
7
  6
CONTINUOUS
 10
5.177173913
 20
4.7413087311
 40
0.0825
  0
CIRCLE
  5
39B
100
AcDbEntity
  8
ALL_ASSEMBLY_MEMBERS
100
AcDbCircle
 62
7
  6
CONTINUOUS
 10
5.177173913
 20
4.7413087311
 40
0.07625
  0
CIRCLE
  5
39C
100
AcDbEntity
  8
ALL_ASSEMBLY_MEMBERS
100
AcDbCircle
 62
7
  6
CONTINUOUS
 10
5.177173913
 20
4.7413087311
 40
0.0625
  0
CIRCLE
  5
39D
100
AcDbEntity
  8
ALL_ASSEMBLY_MEMBERS
100
AcDbCircle
 62
7
  6
CONTINUOUS
 10
5.177173913
 20
4.7413087311
 40
0.0424999995
  0
ARC
  5
39E
100
AcDbEntity
  8
ALL_ASSEMBLY_MEMBERS
100
AcDbCircle
 62
7
  6
CONTINUOUS
 10
4.717173913
 20
4.9568087311
 40
0.03
100
AcDbArc
 50
90.0
 51
226.4750035269
  0
ARC
  5
39F
100
AcDbEntity
  8
ALL_ASSEMBLY_MEMBERS
100
AcDbCircle
 62
7
  6
CONTINUOUS
 10
4.717173913
 20
5.0463087311
 40
0.03
100
AcDbArc
 50
180.0
 51
270.0
  0
ARC
  5
3A0
100
AcDbEntity
  8
ALL_ASSEMBLY_MEMBERS
100
AcDbCircle
 62
7
  6
CONTINUOUS
 10
5.4553070022
 20
4.0306561421
 40
0.1991647327
100
AcDbArc
 50
175.7272930405
 51
177.6439117886
  0
ARC
  5
3A1
100
AcDbEntity
  8
ALL_ASSEMBLY_MEMBERS
100
AcDbCircle
 62
7
  6
CONTINUOUS
 10
5.5797070623
 20
4.0869555515
 40
0.0800173057
100
AcDbArc
 50
307.8770856745
 51
313.8142719634
  0
ARC
  5
3A2
100
AcDbEntity
  8
ALL_ASSEMBLY_MEMBERS
100
AcDbCircle
 62
7
  6
CONTINUOUS
 10
5.593512122
 20
4.0665428416
 40
0.0202013093
100
AcDbArc
 50
279.0245216161
 51
283.323198564
  0
ARC
  5
3A3
100
AcDbEntity
  8
ALL_ASSEMBLY_MEMBERS
100
AcDbCircle
 62
7
  6
CONTINUOUS
 10
5.5933750237
 20
4.0663903733
 40
0.0201737958
100
AcDbArc
 50
338.1259902582
 51
340.7963052027
  0
ARC
  5
3A4
100
AcDbEntity
  8
ALL_ASSEMBLY_MEMBERS
100
AcDbCircle
 62
7
  6
CONTINUOUS
 10
5.5935224596
 20
4.0664790345
 40
0.0201366706
100
AcDbArc
 50
277.1370698148
 51
279.0239495119
  0
ARC
  5
3A5
100
AcDbEntity
  8
ALL_ASSEMBLY_MEMBERS
100
AcDbCircle
 62
7
  6
CONTINUOUS
 10
5.5935279748
 20
4.0664776018
 40
0.0201341722
100
AcDbArc
 50
283.3220831459
 51
286.8495625946
  0
ARC
  5
3A6
100
AcDbEntity
  8
ALL_ASSEMBLY_MEMBERS
100
AcDbCircle
 62
7
  6
CONTINUOUS
 10
5.593512325
 20
4.0663999892
 40
0.0200680915
100
AcDbArc
 50
298.6373620604
 51
304.5566272998
  0
ARC
  5
3A7
100
AcDbEntity
  8
ALL_ASSEMBLY_MEMBERS
100
AcDbCircle
 62
7
  6
CONTINUOUS
 10
5.593498205
 20
4.066376557
 40
0.0200585585
100
AcDbArc
 50
318.4356028522
 51
325.3264849835
  0
ARC
  5
3A8
100
AcDbEntity
  8
ALL_ASSEMBLY_MEMBERS
100
AcDbCircle
 62
7
  6
CONTINUOUS
 10
5.5935270842
 20
4.0663780679
 40
0.0200416662
100
AcDbArc
 50
304.5574248086
 51
306.9151261176
  0
ARC
  5
3A9
100
AcDbEntity
  8
ALL_ASSEMBLY_MEMBERS
100
AcDbCircle
 62
7
  6
CONTINUOUS
 10
5.5935104051
 20
4.0663350788
 40
0.0200275602
100
AcDbArc
 50
334.1021430116
 51
338.1284933913
  0
ARC
  5
3AA
100
AcDbEntity
  8
ALL_ASSEMBLY_MEMBERS
100
AcDbCircle
 62
7
  6
CONTINUOUS
 10
5.5935437863
 20
4.066344358
 40
0.0200041874
100
AcDbArc
 50
297.3108819645
 51
298.6346392735
  0
ARC
  5
3AB
100
AcDbEntity
  8
ALL_ASSEMBLY_MEMBERS
100
AcDbCircle
 62
7
  6
CONTINUOUS
 10
5.593567484
 20
4.0663452719
 40
0.0199960712
100
AcDbArc
 50
286.85112132
 51
288.6639094196
  0
ARC
  5
3AC
100
AcDbEntity
  8
ALL_ASSEMBLY_MEMBERS
100
AcDbCircle
 62
7
  6
CONTINUOUS
 10
5.5935521918
 20
4.0663273516
 40
0.0199855191
100
AcDbArc
 50
311.7090894481
 51
318.4384635719
  0
ARC
  5
3AD
100
AcDbEntity
  8
ALL_ASSEMBLY_MEMBERS
100
AcDbCircle
 62
7
  6
CONTINUOUS
 10
5.5935604284
 20
4.0663326607
 40
0.0199824192
100
AcDbArc
 50
325.3292921012
 51
327.1370279488
  0
ARC
  5
3AE
100
AcDbEntity
  8
ALL_ASSEMBLY_MEMBERS
100
AcDbCircle
 62
7
  6
CONTINUOUS
 10
5.5935939074
 20
4.066286517
 40
0.0199272797
100
AcDbArc
 50
307.9970595693
 51
311.6976665427
  0
ARC
  5
3AF
100
AcDbEntity
  8
ALL_ASSEMBLY_MEMBERS
100
AcDbCircle
 62
7
  6
CONTINUOUS
 10
5.5935987954
 20
4.0662345174
 40
0.0198813516
100
AcDbArc
 50
291.2707772682
 51
297.3152612533
  0
ARC
  5
3B0
100
AcDbEntity
  8
ALL_ASSEMBLY_MEMBERS
100
AcDbCircle
 62
7
  6
CONTINUOUS
 10
5.5936564911
 20
4.0662715838
 40
0.0198685871
100
AcDbArc
 50
327.1346522981
 51
331.5533512697
  0
ARC
  5
3B1
100
AcDbEntity
  8
ALL_ASSEMBLY_MEMBERS
100
AcDbCircle
 62
7
  6
CONTINUOUS
 10
5.5935532648
 20
4.066180363
 40
0.019836487
100
AcDbArc
 50
270.7701550297
 51
277.1559642577
  0
ARC
  5
3B2
100
AcDbEntity
  8
ALL_ASSEMBLY_MEMBERS
100
AcDbCircle
 62
7
  6
CONTINUOUS
 10
5.5935607685
 20
4.066178883
 40
0.019831674
100
AcDbArc
 50
270.784996558
 51
276.9796914564
  0
ARC
  5
3B3
100
AcDbEntity
  8
ALL_ASSEMBLY_MEMBERS
100
AcDbCircle
 62
7
  6
CONTINUOUS
 10
5.5936207485
 20
4.0661889635
 40
0.0198309373
100
AcDbArc
 50
288.6626319656
 51
291.2594178833
  0
ARC
  5
3B4
100
AcDbEntity
  8
ALL_ASSEMBLY_MEMBERS
100
AcDbCircle
 62
7
  6
CONTINUOUS
 10
5.5937228369
 20
4.0662331117
 40
0.0197919261
100
AcDbArc
 50
331.559788879
 51
334.0990843564
  0
ARC
  5
3B5
100
AcDbEntity
  8
ALL_ASSEMBLY_MEMBERS
100
AcDbCircle
 62
7
  6
CONTINUOUS
 10
5.3722564057
 20
4.2515321502
 40
0.3595448175
100
AcDbArc
 50
276.1563838788
 51
276.8555270165
  0
ARC
  5
3B6
100
AcDbEntity
  8
ALL_ASSEMBLY_MEMBERS
100
AcDbCircle
 62
7
  6
CONTINUOUS
 10
5.5906515696
 20
4.2826808342
 40
0.2363535187
100
AcDbArc
 50
267.7717200249
 51
268.0007710817
  0
ARC
  5
3B7
100
AcDbEntity
  8
ALL_ASSEMBLY_MEMBERS
100
AcDbCircle
 62
7
  6
CONTINUOUS
 10
5.5906424798
 20
4.2823726787
 40
0.2360452337
100
AcDbArc
 50
268.0003666745
 51
269.9968453583
  0
ARC
  5
3B8
100
AcDbEntity
  8
ALL_ASSEMBLY_MEMBERS
100
AcDbCircle
 62
7
  6
CONTINUOUS
 10
5.590673913
 20
4.2823273474
 40
0.236
100
AcDbArc
 50
180.0
 51
270.0
  0
ARC
  5
3B9
100
AcDbEntity
  8
ALL_ASSEMBLY_MEMBERS
100
AcDbCircle
 62
7
  6
CONTINUOUS
 10
5.7696612191
 20
4.0432079406
 40
0.1578154089
100
AcDbArc
 50
99.0641865119
 51
101.1497129103
  0
ARC
  5
3BA
100
AcDbEntity
  8
ALL_ASSEMBLY_MEMBERS
100
AcDbCircle
 62
7
  6
CONTINUOUS
 10
5.7696106798
 20
4.043217314
 40
0.1578021153
100
AcDbArc
 50
88.3298182181
 51
89.9981916694
  0
ARC
  5
3BB
100
AcDbEntity
  8
ALL_ASSEMBLY_MEMBERS
100
AcDbCircle
 62
7
  6
CONTINUOUS
 10
5.7696195232
 20
4.0432271972
 40
0.1577922626
100
AcDbArc
 50
90.0014025107
 51
91.3185645845
  0
ARC
  5
3BC
100
AcDbEntity
  8
ALL_ASSEMBLY_MEMBERS
100
AcDbCircle
 62
7
  6
CONTINUOUS
 10
5.7695746843
 20
4.0432382158
 40
0.1577848104
100
AcDbArc
 50
78.9003315358
 51
80.6578230414
  0
ARC
  5
3BD
100
AcDbEntity
  8
ALL_ASSEMBLY_MEMBERS
100
AcDbCircle
 62
7
  6
CONTINUOUS
 10
5.7695323527
 20
4.0432563882
 40
0.157778527
100
AcDbArc
 50
67.8630927301
 51
69.614264356
  0
ARC
  5
3BE
100
AcDbEntity
  8
ALL_ASSEMBLY_MEMBERS
100
AcDbCircle
 62
7
  6
CONTINUOUS
 10
5.769612524
 20
4.043274266
 40
0.1577451337
100
AcDbArc
 50
86.2574751888
 51
88.3298848561
  0
ARC
  5
3BF
100
AcDbEntity
  8
ALL_ASSEMBLY_MEMBERS
100
AcDbCircle
 62
7
  6
CONTINUOUS
 10
5.7696181048
 20
4.0432788994
 40
0.1577405415
100
AcDbArc
 50
91.3184816525
 51
93.6082350839
  0
ARC
  5
3C0
100
AcDbEntity
  8
ALL_ASSEMBLY_MEMBERS
100
AcDbCircle
 62
7
  6
CONTINUOUS
 10
5.7695758406
 20
4.0432855054
 40
0.1577380847
100
AcDbArc
 50
75.2227750091
 51
76.9780296505
  0
ARC
  5
3C1
100
AcDbEntity
  8
ALL_ASSEMBLY_MEMBERS
100
AcDbCircle
 62
7
  6
CONTINUOUS
 10
5.7696461591
 20
4.0432843674
 40
0.1577375116
100
AcDbArc
 50
101.6669751765
 51
101.8911609913
  0
ARC
  5
3C2
100
AcDbEntity
  8
ALL_ASSEMBLY_MEMBERS
100
AcDbCircle
 62
7
  6
CONTINUOUS
 10
5.7695476954
 20
4.0432980693
 40
0.1577341121
100
AcDbArc
 50
69.6142144302
 51
71.5364642678
  0
ARC
  5
3C3
100
AcDbEntity
  8
ALL_ASSEMBLY_MEMBERS
100
AcDbCircle
 62
7
  6
CONTINUOUS
 10
5.7696525224
 20
4.0432940283
 40
0.1577292989
100
AcDbArc
 50
97.29668841
 51
101.1523771844
  0
ARC
  5
3C4
100
AcDbEntity
  8
ALL_ASSEMBLY_MEMBERS
100
AcDbCircle
 62
7
  6
CONTINUOUS
 10
5.7695838292
 20
4.0432946677
 40
0.1577276227
100
AcDbArc
 50
80.6577721032
 51
82.5735203987
  0
ARC
  5
3C5
100
AcDbEntity
  8
ALL_ASSEMBLY_MEMBERS
100
AcDbCircle
 62
7
  6
CONTINUOUS
 10
5.7696107021
 20
4.0432942671
 40
0.1577251622
100
AcDbArc
 50
89.9981988823
 51
91.3159209791
  0
ARC
  5
3C6
100
AcDbEntity
  8
ALL_ASSEMBLY_MEMBERS
100
AcDbCircle
 62
7
  6
CONTINUOUS
 10
5.7696196556
 20
4.0433008351
 40
0.1577186247
100
AcDbArc
 50
88.3321938934
 51
90.0014512511
  0
ARC
  5
3C7
100
AcDbEntity
  8
ALL_ASSEMBLY_MEMBERS
100
AcDbCircle
 62
7
  6
CONTINUOUS
 10
5.769554933
 20
4.0433124169
 40
0.1577181197
100
AcDbArc
 50
67.2647553636
 51
67.8630211493
  0
ARC
  5
3C8
100
AcDbEntity
  8
ALL_ASSEMBLY_MEMBERS
100
AcDbCircle
 62
7
  6
CONTINUOUS
 10
5.7696411996
 20
4.0433078916
 40
0.1577134702
100
AcDbArc
 50
101.8911588749
 51
102.1942261911
  0
ARC
  5
3C9
100
AcDbEntity
  8
ALL_ASSEMBLY_MEMBERS
100
AcDbCircle
 62
7
  6
CONTINUOUS
 10
5.7696741386
 20
4.0433175088
 40
0.15771306
100
AcDbArc
 50
108.1579864856
 51
110.1860000813
  0
ARC
  5
3CA
100
AcDbEntity
  8
ALL_ASSEMBLY_MEMBERS
100
AcDbCircle
 62
7
  6
CONTINUOUS
 10
5.7695819528
 20
4.0433281717
 40
0.1576950774
100
AcDbArc
 50
78.8966297843
 51
80.6551221836
  0
ARC
  5
3CB
100
AcDbEntity
  8
ALL_ASSEMBLY_MEMBERS
100
AcDbCircle
 62
7
  6
CONTINUOUS
 10
5.7695953186
 20
4.0433425442
 40
0.1576784612
100
AcDbArc
 50
76.9802561207
 51
78.9003909182
  0
ARC
  5
3CC
100
AcDbEntity
  8
ALL_ASSEMBLY_MEMBERS
100
AcDbCircle
 62
7
  6
CONTINUOUS
 10
5.7695713715
 20
4.0433517225
 40
0.157675515
100
AcDbArc
 50
66.9149408701
 51
67.264744715
  0
ARC
  5
3CD
100
AcDbEntity
  8
ALL_ASSEMBLY_MEMBERS
100
AcDbCircle
 62
7
  6
CONTINUOUS
 10
5.7695733116
 20
4.0433885624
 40
0.1576406222
100
AcDbArc
 50
68.3724810907
 51
69.6114833941
  0
ARC
  5
3CE
100
AcDbEntity
  8
ALL_ASSEMBLY_MEMBERS
100
AcDbCircle
 62
7
  6
CONTINUOUS
 10
5.7695877727
 20
4.0436091501
 40
0.1576395683
100
AcDbArc
 50
286.2406105458
 51
288.2197441528
  0
ARC
  5
3CF
100
AcDbEntity
  8
ALL_ASSEMBLY_MEMBERS
100
AcDbCircle
 62
7
  6
CONTINUOUS
 10
5.7695764551
 20
4.0435871461
 40
0.1576236898
100
AcDbArc
 50
299.1248916748
 51
299.9535087087
  0
ARC
  5
3D0
100
AcDbEntity
  8
ALL_ASSEMBLY_MEMBERS
100
AcDbCircle
 62
7
  6
CONTINUOUS
 10
5.769568831
 20
4.0435785987
 40
0.1576205496
100
AcDbArc
 50
304.0181104697
 51
306.8660781077
  0
ARC
  5
3D1
100
AcDbEntity
  8
ALL_ASSEMBLY_MEMBERS
100
AcDbCircle
 62
7
  6
CONTINUOUS
 10
5.769584834
 20
4.0435718864
 40
0.1576062815
100
AcDbArc
 50
296.3653360747
 51
299.1249308039
  0
ARC
  5
3D2
100
AcDbEntity
  8
ALL_ASSEMBLY_MEMBERS
100
AcDbCircle
 62
7
  6
CONTINUOUS
 10
5.7695787279
 20
4.043565369
 40
0.1576040278
100
AcDbArc
 50
306.8660850847
 51
307.0668658502
  0
ARC
  5
3D3
100
AcDbEntity
  8
ALL_ASSEMBLY_MEMBERS
100
AcDbCircle
 62
7
  6
CONTINUOUS
 10
5.769602786
 20
4.0435631892
 40
0.1575912176
100
AcDbArc
 50
288.219784034
 51
288.7729704119
  0
ARC
  5
3D4
100
AcDbEntity
  8
ALL_ASSEMBLY_MEMBERS
100
AcDbCircle
 62
7
  6
CONTINUOUS
 10
5.7696037132
 20
4.043546497
 40
0.1575752226
100
AcDbArc
 50
291.9435807462
 51
292.6101167582
  0
ARC
  5
3D5
100
AcDbEntity
  8
ALL_ASSEMBLY_MEMBERS
100
AcDbCircle
 62
7
  6
CONTINUOUS
 10
5.7696088601
 20
4.0434539496
 40
0.1575638768
100
AcDbArc
 50
102.1939503352
 51
104.3171279413
  0
ARC
  5
3D6
100
AcDbEntity
  8
ALL_ASSEMBLY_MEMBERS
100
AcDbCircle
 62
7
  6
CONTINUOUS
 10
5.7696128676
 20
4.0435246029
 40
0.1575514917
100
AcDbArc
 50
292.6101045829
 51
295.7643912947
  0
ARC
  5
3D7
100
AcDbEntity
  8
ALL_ASSEMBLY_MEMBERS
100
AcDbCircle
 62
7
  6
CONTINUOUS
 10
5.7696228954
 20
4.0435003928
 40
0.1575252903
100
AcDbArc
 50
288.7733957547
 51
291.9433757062
  0
ARC
  5
3D8
100
AcDbEntity
  8
ALL_ASSEMBLY_MEMBERS
100
AcDbCircle
 62
7
  6
CONTINUOUS
 10
5.7696142312
 20
4.0434973741
 40
0.1575239943
100
AcDbArc
 50
71.5364609571
 51
73.2930064141
  0
ARC
  5
3D9
100
AcDbEntity
  8
ALL_ASSEMBLY_MEMBERS
100
AcDbCircle
 62
7
  6
CONTINUOUS
 10
5.7696508496
 20
4.0434969084
 40
0.1575230635
100
AcDbArc
 50
284.6508169847
 51
90.0
  0
ARC
  5
3DA
100
AcDbEntity
  8
ALL_ASSEMBLY_MEMBERS
100
AcDbCircle
 62
7
  6
CONTINUOUS
 10
5.7696296216
 20
4.0434968927
 40
0.1575188103
100
AcDbArc
 50
307.067107416
 51
66.9137277196
  0
ARC
  5
3DB
100
AcDbEntity
  8
ALL_ASSEMBLY_MEMBERS
100
AcDbCircle
 62
7
  6
CONTINUOUS
 10
5.7696334164
 20
4.0435029118
 40
0.1575131836
100
AcDbArc
 50
73.2991139193
 51
75.222854843
  0
ARC
  5
3DC
100
AcDbEntity
  8
ALL_ASSEMBLY_MEMBERS
100
AcDbCircle
 62
7
  6
CONTINUOUS
 10
5.7696236235
 20
4.0434858085
 40
0.1575111221
100
AcDbArc
 50
284.8304850038
 51
286.2406378193
  0
ARC
  5
3DD
100
AcDbEntity
  8
ALL_ASSEMBLY_MEMBERS
100
AcDbCircle
 62
7
  6
CONTINUOUS
 10
5.7696125464
 20
4.0435150655
 40
0.1575053619
100
AcDbArc
 50
82.5735163897
 51
84.3383711252
  0
ARC
  5
3DE
100
AcDbEntity
  8
ALL_ASSEMBLY_MEMBERS
100
AcDbCircle
 62
7
  6
CONTINUOUS
 10
5.769639142
 20
4.0434793449
 40
0.1574989882
100
AcDbArc
 50
299.9533308105
 51
302.9378742519
  0
ARC
  5
3DF
100
AcDbEntity
  8
ALL_ASSEMBLY_MEMBERS
100
AcDbCircle
 62
7
  6
CONTINUOUS
 10
5.7696288223
 20
4.0435230858
 40
0.1574957808
100
AcDbArc
 50
84.3439775652
 51
86.2574833396
  0
ARC
  5
3E0
100
AcDbEntity
  8
ALL_ASSEMBLY_MEMBERS
100
AcDbCircle
 62
7
  6
CONTINUOUS
 10
5.7696426154
 20
4.0434700176
 40
0.1574892716
100
AcDbArc
 50
302.9386587683
 51
304.0179628851
  0
ARC
  5
3E1
100
AcDbEntity
  8
ALL_ASSEMBLY_MEMBERS
100
AcDbCircle
 62
7
  6
CONTINUOUS
 10
5.769602433
 20
4.0435312788
 40
0.157487676
100
AcDbArc
 50
91.3156545863
 51
95.3792019156
  0
ARC
  5
3E2
100
AcDbEntity
  8
ALL_ASSEMBLY_MEMBERS
100
AcDbCircle
 62
7
  6
CONTINUOUS
 10
5.7696125565
 20
4.0435437947
 40
0.1574763552
100
AcDbArc
 50
95.3845324681
 51
99.0659537713
  0
ARC
  5
3E3
100
AcDbEntity
  8
ALL_ASSEMBLY_MEMBERS
100
AcDbCircle
 62
7
  6
CONTINUOUS
 10
5.7696271694
 20
4.0435452115
 40
0.1574741331
100
AcDbArc
 50
86.2563572559
 51
88.3323387472
  0
ARC
  5
3E4
100
AcDbEntity
  8
ALL_ASSEMBLY_MEMBERS
100
AcDbCircle
 62
7
  6
CONTINUOUS
 10
5.7695887293
 20
4.0435776075
 40
0.1574392972
100
AcDbArc
 50
106.3980097471
 51
108.1579503537
  0
ARC
  5
3E5
100
AcDbEntity
  8
ALL_ASSEMBLY_MEMBERS
100
AcDbCircle
 62
7
  6
CONTINUOUS
 10
5.7696629949
 20
4.0434167227
 40
0.1574325471
100
AcDbArc
 50
295.7650275819
 51
296.3649271925
  0
ARC
  5
3E6
100
AcDbEntity
  8
ALL_ASSEMBLY_MEMBERS
100
AcDbCircle
 62
7
  6
CONTINUOUS
 10
5.769625085
 20
4.0435917012
 40
0.1574280416
100
AcDbArc
 50
80.6550380021
 51
82.5744367435
  0
ARC
  5
3E7
100
AcDbEntity
  8
ALL_ASSEMBLY_MEMBERS
100
AcDbCircle
 62
7
  6
CONTINUOUS
 10
5.7696562269
 20
4.0436060488
 40
0.1574080088
100
AcDbArc
 50
75.2213072968
 51
76.9802482279
  0
ARC
  5
3E8
100
AcDbEntity
  8
ALL_ASSEMBLY_MEMBERS
100
AcDbCircle
 62
7
  6
CONTINUOUS
 10
5.7696588555
 20
4.0436202966
 40
0.1573936035
100
AcDbArc
 50
69.6112840085
 51
71.5376981678
  0
ARC
  5
3E9
100
AcDbEntity
  8
ALL_ASSEMBLY_MEMBERS
100
AcDbCircle
 62
7
  6
CONTINUOUS
 10
5.769659055
 20
4.0433538435
 40
0.1573744841
100
AcDbArc
 50
284.6498331785
 51
284.8303126633
  0
ARC
  5
3EA
100
AcDbEntity
  8
ALL_ASSEMBLY_MEMBERS
100
AcDbCircle
 62
7
  6
CONTINUOUS
 10
5.7695221711
 20
4.0437975006
 40
0.1572095586
100
AcDbArc
 50
104.3174777206
 51
106.3973634774
  0
ARC
  5
3EB
100
AcDbEntity
  8
ALL_ASSEMBLY_MEMBERS
100
AcDbCircle
 62
7
  6
CONTINUOUS
 10
5.7697057411
 20
4.0438008049
 40
0.1572070651
100
AcDbArc
 50
73.2931585699
 51
75.2206500224
  0
ARC
  5
3EC
100
AcDbEntity
  8
ALL_ASSEMBLY_MEMBERS
100
AcDbCircle
 62
7
  6
CONTINUOUS
 10
5.7695771548
 20
4.0438108607
 40
0.1572069556
100
AcDbArc
 50
95.3795820478
 51
97.2951538931
  0
ARC
  5
3ED
100
AcDbEntity
  8
ALL_ASSEMBLY_MEMBERS
100
AcDbCircle
 62
7
  6
CONTINUOUS
 10
5.7696428461
 20
4.0438133099
 40
0.1572055833
100
AcDbArc
 50
84.3386368598
 51
86.255678812
  0
ARC
  5
3EE
100
AcDbEntity
  8
ALL_ASSEMBLY_MEMBERS
100
AcDbCircle
 62
7
  6
CONTINUOUS
 10
5.7695865149
 20
4.0438437562
 40
0.1571750837
100
AcDbArc
 50
93.6097012998
 51
95.3841051409
  0
ARC
  5
3EF
100
AcDbEntity
  8
ALL_ASSEMBLY_MEMBERS
100
AcDbCircle
 62
7
  6
CONTINUOUS
 10
5.7697304006
 20
4.0438284502
 40
0.1571735062
100
AcDbArc
 50
71.5384070223
 51
73.2988738427
  0
ARC
  5
3F0
100
AcDbEntity
  8
ALL_ASSEMBLY_MEMBERS
100
AcDbCircle
 62
7
  6
CONTINUOUS
 10
5.7696598038
 20
4.0438450839
 40
0.1571722968
100
AcDbArc
 50
82.5750495387
 51
84.3436479494
  0
ARC
  5
3F1
100
AcDbEntity
  8
ALL_ASSEMBLY_MEMBERS
100
AcDbCircle
 62
7
  6
CONTINUOUS
 10
5.7507332098
 20
4.1059913119
 40
0.1971788161
100
AcDbArc
 50
284.5949987812
 51
285.4224848091
  0
ARC
  5
3F2
100
AcDbEntity
  8
ALL_ASSEMBLY_MEMBERS
100
AcDbCircle
 62
7
  6
CONTINUOUS
 10
5.9722041112
 20
4.0434744274
 40
0.3374019247
100
AcDbArc
 50
179.9992066375
 51
182.4219376969
  0
ARC
  5
3F3
100
AcDbEntity
  8
ALL_ASSEMBLY_MEMBERS
100
AcDbCircle
 62
7
  6
CONTINUOUS
 10
5.7781568446
 20
4.3532615084
 40
0.4374481782
100
AcDbArc
 50
189.3319693627
 51
194.1140758976
  0
ARC
  5
3F4
100
AcDbEntity
  8
ALL_ASSEMBLY_MEMBERS
100
AcDbCircle
 62
7
  6
CONTINUOUS
 10
5.9026255437
 20
4.6435978333
 40
0.8631392899
100
AcDbArc
 50
96.50594164
 51
96.6383328323
  0
ARC
  5
3F5
100
AcDbEntity
  8
ALL_ASSEMBLY_MEMBERS
100
AcDbCircle
 62
7
  6
CONTINUOUS
 10
5.8691419915
 20
4.9250744305
 40
0.579679502
100
AcDbArc
 50
96.5671789196
 51
97.6603208905
  0
ARC
  5
3F6
100
AcDbEntity
  8
ALL_ASSEMBLY_MEMBERS
100
AcDbCircle
 62
7
  6
CONTINUOUS
 10
5.8646316872
 20
5.0025826131
 40
0.501561034
100
AcDbArc
 50
97.0632569757
 51
97.7211493847
  0
ARC
  5
3F7
100
AcDbEntity
  8
ALL_ASSEMBLY_MEMBERS
100
AcDbCircle
 62
7
  6
CONTINUOUS
 10
5.8511715404
 20
5.0992814414
 40
0.4039306599
100
AcDbArc
 50
97.6720092237
 51
100.4429588506
  0
ARC
  5
3F8
100
AcDbEntity
  8
ALL_ASSEMBLY_MEMBERS
100
AcDbCircle
 62
7
  6
CONTINUOUS
 10
5.8455366359
 20
5.1011866347
 40
0.4019923841
100
AcDbArc
 50
97.6718711596
 51
98.3167707561
  0
ARC
  5
3F9
100
AcDbEntity
  8
ALL_ASSEMBLY_MEMBERS
100
AcDbCircle
 62
7
  6
CONTINUOUS
 10
5.637173913
 20
4.9568087311
 40
0.03
100
AcDbArc
 50
313.5249964731
 51
90.0
  0
ARC
  5
3FA
100
AcDbEntity
  8
ALL_ASSEMBLY_MEMBERS
100
AcDbCircle
 62
7
  6
CONTINUOUS
 10
5.637173913
 20
5.0463087311
 40
0.03
100
AcDbArc
 50
270.0
 51
360.0
  0
ARC
  5
3FB
100
AcDbEntity
  8
ALL_ASSEMBLY_MEMBERS
100
AcDbCircle
 62
7
  6
CONTINUOUS
 10
5.175882475
 20
5.7093317181
 40
0.2196651392
100
AcDbArc
 50
269.9979020128
 51
270.3368507906
  0
ARC
  5
3FC
100
AcDbEntity
  8
ALL_ASSEMBLY_MEMBERS
100
AcDbCircle
 62
7
  6
CONTINUOUS
 10
5.2562347475
 20
5.7010736747
 40
0.2104049554
100
AcDbArc
 50
271.4448089052
 51
271.6828669814
  0
ARC
  5
3FD
100
AcDbEntity
  8
ALL_ASSEMBLY_MEMBERS
100
AcDbCircle
 62
7
  6
CONTINUOUS
 10
5.1764637857
 20
5.3107098465
 40
0.2012579454
100
AcDbArc
 50
89.7978346566
 51
90.000416004
  0
ARC
  5
3FE
100
AcDbEntity
  8
ALL_ASSEMBLY_MEMBERS
100
AcDbCircle
 62
7
  6
CONTINUOUS
 10
5.176494881
 20
5.3141563652
 40
0.1978113234
100
AcDbArc
 50
88.9774500011
 51
89.8033189221
  0
ARC
  5
3FF
100
AcDbEntity
  8
ALL_ASSEMBLY_MEMBERS
100
AcDbCircle
 62
7
  6
CONTINUOUS
 10
5.2572919677
 20
5.671385424
 40
0.1806985565
100
AcDbArc
 50
271.6242393063
 51
273.6137031829
  0
ARC
  5
400
100
AcDbEntity
  8
ALL_ASSEMBLY_MEMBERS
100
AcDbCircle
 62
7
  6
CONTINUOUS
 10
5.1763818734
 20
5.6622539342
 40
0.1725854396
100
AcDbArc
 50
270.2629462111
 51
272.5312775387
  0
ARC
  5
401
100
AcDbEntity
  8
ALL_ASSEMBLY_MEMBERS
100
AcDbCircle
 62
7
  6
CONTINUOUS
 10
5.2573067568
 20
5.6581308766
 40
0.1674487805
100
AcDbArc
 50
270.6692457056
 51
271.4486039775
  0
ARC
  5
402
100
AcDbEntity
  8
ALL_ASSEMBLY_MEMBERS
100
AcDbCircle
 62
7
  6
CONTINUOUS
 10
5.1759297548
 20
5.6551168574
 40
0.165450096
100
AcDbArc
 50
269.1539431456
 51
269.9808414228
  0
ARC
  5
403
100
AcDbEntity
  8
ALL_ASSEMBLY_MEMBERS
100
AcDbCircle
 62
7
  6
CONTINUOUS
 10
5.2574145757
 20
5.6491299738
 40
0.1584472324
100
AcDbArc
 50
269.8612382437
 51
270.6682771228
  0
ARC
  5
404
100
AcDbEntity
  8
ALL_ASSEMBLY_MEMBERS
100
AcDbCircle
 62
7
  6
CONTINUOUS
 10
5.1758031327
 20
5.64637316
 40
0.1567054821
100
AcDbArc
 50
268.3047282626
 51
269.1530288403
  0
ARC
  5
405
100
AcDbEntity
  8
ALL_ASSEMBLY_MEMBERS
100
AcDbCircle
 62
7
  6
CONTINUOUS
 10
5.2595573623
 20
5.6362847354
 40
0.1455248812
100
AcDbArc
 50
273.5945993522
 51
275.4303427358
  0
ARC
  5
406
100
AcDbEntity
  8
ALL_ASSEMBLY_MEMBERS
100
AcDbCircle
 62
7
  6
CONTINUOUS
 10
5.2573597395
 20
5.6315829926
 40
0.1409001704
100
AcDbArc
 50
268.097239986
 51
269.8662561881
  0
ARC
  5
407
100
AcDbEntity
  8
ALL_ASSEMBLY_MEMBERS
100
AcDbCircle
 62
7
  6
CONTINUOUS
 10
5.1752730069
 20
5.6288870309
 40
0.1392113241
100
AcDbArc
 50
266.4760119616
 51
268.3099093356
  0
ARC
  5
408
100
AcDbEntity
  8
ALL_ASSEMBLY_MEMBERS
100
AcDbCircle
 62
7
  6
CONTINUOUS
 10
5.1779900201
 20
5.6265440537
 40
0.1368393823
100
AcDbArc
 50
272.5189426657
 51
274.3747659566
  0
ARC
  5
409
100
AcDbEntity
  8
ALL_ASSEMBLY_MEMBERS
100
AcDbCircle
 62
7
  6
CONTINUOUS
 10
5.2617168603
 20
5.6135884635
 40
0.1227261053
100
AcDbArc
 50
275.4294405982
 51
276.4739714342
  0
ARC
  5
40A
100
AcDbEntity
  8
ALL_ASSEMBLY_MEMBERS
100
AcDbCircle
 62
7
  6
CONTINUOUS
 10
5.1758965139
 20
5.4013032894
 40
0.1095082139
100
AcDbArc
 50
89.9676169715
 51
91.5370651482
  0
ARC
  5
40B
100
AcDbEntity
  8
ALL_ASSEMBLY_MEMBERS
100
AcDbCircle
 62
7
  6
CONTINUOUS
 10
5.1754084077
 20
5.422104406
 40
0.0887015168
100
AcDbArc
 50
91.582300813
 51
92.5161946789
  0
ARC
  5
40C
100
AcDbEntity
  8
ALL_ASSEMBLY_MEMBERS
100
AcDbCircle
 62
7
  6
CONTINUOUS
 10
5.1689126081
 20
5.5767093881
 40
0.0817676904
100
AcDbArc
 50
259.3501496085
 51
260.8409091002
  0
ARC
  5
40D
100
AcDbEntity
  8
ALL_ASSEMBLY_MEMBERS
100
AcDbCircle
 62
7
  6
CONTINUOUS
 10
5.2544209857
 20
5.5757259921
 40
0.080772203
100
AcDbArc
 50
258.6965709434
 51
261.2963775332
  0
ARC
  5
40E
100
AcDbEntity
  8
ALL_ASSEMBLY_MEMBERS
100
AcDbCircle
 62
7
  6
CONTINUOUS
 10
5.1671481117
 20
5.5675572288
 40
0.0724470999
100
AcDbArc
 50
257.0541923439
 51
259.3839387711
  0
ARC
  5
40F
100
AcDbEntity
  8
ALL_ASSEMBLY_MEMBERS
100
AcDbCircle
 62
7
  6
CONTINUOUS
 10
5.2525433849
 20
5.5663437726
 40
0.0712039522
100
AcDbArc
 50
257.0473455178
 51
258.6983577255
  0
ARC
  5
410
100
AcDbEntity
  8
ALL_ASSEMBLY_MEMBERS
100
AcDbCircle
 62
7
  6
CONTINUOUS
 10
5.2506455552
 20
5.5582824925
 40
0.0629224103
100
AcDbArc
 50
254.4762876497
 51
257.0861710748
  0
ARC
  5
411
100
AcDbEntity
  8
ALL_ASSEMBLY_MEMBERS
100
AcDbCircle
 62
7
  6
CONTINUOUS
 10
5.1649800648
 20
5.5582824587
 40
0.0629223758
100
AcDbArc
 50
254.476287662
 51
257.0861714697
  0
ARC
  5
412
100
AcDbEntity
  8
ALL_ASSEMBLY_MEMBERS
100
AcDbCircle
 62
7
  6
CONTINUOUS
 10
5.1649731546
 20
5.5516971805
 40
0.0611914864
100
AcDbArc
 50
254.0326570773
 51
255.2604616503
  0
ARC
  5
413
100
AcDbEntity
  8
ALL_ASSEMBLY_MEMBERS
100
AcDbCircle
 62
7
  6
CONTINUOUS
 10
5.2489131909
 20
5.5512842734
 40
0.060004256
100
AcDbArc
 50
255.4155497969
 51
256.7241893748
  0
ARC
  5
414
100
AcDbEntity
  8
ALL_ASSEMBLY_MEMBERS
100
AcDbCircle
 62
7
  6
CONTINUOUS
 10
5.177173913
 20
6.3098087311
 40
2.5
100
AcDbArc
 50
255.3491830153
 51
284.6508169847
  0
ARC
  5
415
100
AcDbEntity
  8
ALL_ASSEMBLY_MEMBERS
100
AcDbCircle
 62
7
  6
CONTINUOUS
 10
5.1771737858
 20
6.3098071033
 40
2.4744087205
100
AcDbArc
 50
255.4114196449
 51
264.4983177492
  0
ARC
  5
416
100
AcDbEntity
  8
ALL_ASSEMBLY_MEMBERS
100
AcDbCircle
 62
7
  6
CONTINUOUS
 10
5.1771742534
 20
6.3098061616
 40
2.4744077554
100
AcDbArc
 50
275.5016794283
 51
284.5885810692
  0
ARC
  5
417
100
AcDbEntity
  8
ALL_ASSEMBLY_MEMBERS
100
AcDbCircle
 62
7
  6
CONTINUOUS
 10
5.1771737755
 20
6.3098075353
 40
2.4605752384
100
AcDbArc
 50
255.4114223769
 51
264.3722148738
  0
ARC
  5
418
100
AcDbEntity
  8
ALL_ASSEMBLY_MEMBERS
100
AcDbCircle
 62
7
  6
CONTINUOUS
 10
5.1771741053
 20
6.3098072322
 40
2.4605749314
100
AcDbArc
 50
275.6277845453
 51
284.5885781652
  0
ARC
  5
419
100
AcDbEntity
  8
ALL_ASSEMBLY_MEMBERS
100
AcDbCircle
 62
7
  6
CONTINUOUS
 10
5.1771669037
 20
6.3097580648
 40
2.4268976385
100
AcDbArc
 50
255.4113520776
 51
264.3722617985
  0
ARC
  5
41A
100
AcDbEntity
  8
ALL_ASSEMBLY_MEMBERS
100
AcDbCircle
 62
7
  6
CONTINUOUS
 10
5.1771809891
 20
6.3097576781
 40
2.4268972472
100
AcDbArc
 50
275.6277375297
 51
284.5886486755
  0
ARC
  5
41B
100
AcDbEntity
  8
ALL_ASSEMBLY_MEMBERS
100
AcDbCircle
 62
7
  6
CONTINUOUS
 10
5.8439737478
 20
5.1391882058
 40
0.3633803033
100
AcDbArc
 50
100.4673660882
 51
101.0285783954
  0
ARC
  5
41C
100
AcDbEntity
  8
ALL_ASSEMBLY_MEMBERS
100
AcDbCircle
 62
7
  6
CONTINUOUS
 10
5.8872905527
 20
5.2591400572
 40
0.2537652794
100
AcDbArc
 50
100.7115929789
 51
101.0523566309
  0
ARC
  5
41D
100
AcDbEntity
  8
ALL_ASSEMBLY_MEMBERS
100
AcDbCircle
 62
7
  6
CONTINUOUS
 10
5.7941247867
 20
5.7501018777
 40
0.2481153513
100
AcDbArc
 50
279.2489340978
 51
279.4800168966
  0
ARC
  5
41E
100
AcDbEntity
  8
ALL_ASSEMBLY_MEMBERS
100
AcDbCircle
 62
7
  6
CONTINUOUS
 10
5.8048827855
 20
5.7476867303
 40
0.2444827732
100
AcDbArc
 50
281.6739163795
 51
282.5764396953
  0
ARC
  5
41F
100
AcDbEntity
  8
ALL_ASSEMBLY_MEMBERS
100
AcDbCircle
 62
7
  6
CONTINUOUS
 10
5.8827547994
 20
5.2725140343
 40
0.2413626264
100
AcDbArc
 50
108.0044858078
 51
108.5822405971
  0
ARC
  5
420
100
AcDbEntity
  8
ALL_ASSEMBLY_MEMBERS
100
AcDbCircle
 62
7
  6
CONTINUOUS
 10
5.8836653956
 20
5.2788062145
 40
0.2337680281
100
AcDbArc
 50
99.3005260628
 51
100.7344529677
  0
ARC
  5
421
100
AcDbEntity
  8
ALL_ASSEMBLY_MEMBERS
100
AcDbCircle
 62
7
  6
CONTINUOUS
 10
5.7476203795
 20
5.7080729229
 40
0.2195028442
100
AcDbArc
 50
277.3947907479
 51
278.0153250727
  0
ARC
  5
422
100
AcDbEntity
  8
ALL_ASSEMBLY_MEMBERS
100
AcDbCircle
 62
7
  6
CONTINUOUS
 10
5.7342585423
 20
5.7054643757
 40
0.2165252043
100
AcDbArc
 50
277.2479770984
 51
277.8563101856
  0
ARC
  5
423
100
AcDbEntity
  8
ALL_ASSEMBLY_MEMBERS
100
AcDbCircle
 62
7
  6
CONTINUOUS
 10
5.879089847
 20
5.3071433267
 40
0.2050639714
100
AcDbArc
 50
97.8196228304
 51
99.3184758243
  0
ARC
  5
424
100
AcDbEntity
  8
ALL_ASSEMBLY_MEMBERS
100
AcDbCircle
 62
7
  6
CONTINUOUS
 10
5.7857668238
 20
5.6877954148
 40
0.1923356811
100
AcDbArc
 50
282.9926830787
 51
283.5104596448
  0
ARC
  5
425
100
AcDbEntity
  8
ALL_ASSEMBLY_MEMBERS
100
AcDbCircle
 62
7
  6
CONTINUOUS
 10
5.740943341
 20
5.6814264911
 40
0.1914600367
100
AcDbArc
 50
286.0076099094
 51
286.5437937169
  0
ARC
  5
426
100
AcDbEntity
  8
ALL_ASSEMBLY_MEMBERS
100
AcDbCircle
 62
7
  6
CONTINUOUS
 10
5.805856676
 20
5.3301576996
 40
0.164649593
100
AcDbArc
 50
101.0895717634
 51
101.3029281045
  0
ARC
  5
427
100
AcDbEntity
  8
ALL_ASSEMBLY_MEMBERS
100
AcDbCircle
 62
7
  6
CONTINUOUS
 10
5.805731284
 20
5.3309549108
 40
0.1638431521
100
AcDbArc
 50
99.4524331952
 51
101.100163306
  0
ARC
  5
428
100
AcDbEntity
  8
ALL_ASSEMBLY_MEMBERS
100
AcDbCircle
 62
7
  6
CONTINUOUS
 10
5.7409749117
 20
5.6529040148
 40
0.1635374714
100
AcDbArc
 50
276.5159352591
 51
277.2369483106
  0
ARC
  5
429
100
AcDbEntity
  8
ALL_ASSEMBLY_MEMBERS
100
AcDbCircle
 62
7
  6
CONTINUOUS
 10
5.7612075002
 20
5.6482220082
 40
0.1580164875
100
AcDbArc
 50
278.1981989394
 51
278.6940949633
  0
ARC
  5
42A
100
AcDbEntity
  8
ALL_ASSEMBLY_MEMBERS
100
AcDbCircle
 62
7
  6
CONTINUOUS
 10
5.8727444186
 20
5.3541809163
 40
0.1576004844
100
AcDbArc
 50
96.9202544516
 51
97.8608019939
  0
ARC
  5
42B
100
AcDbEntity
  8
ALL_ASSEMBLY_MEMBERS
100
AcDbCircle
 62
7
  6
CONTINUOUS
 10
5.7685898743
 20
5.6496559248
 40
0.1552758817
100
AcDbArc
 50
283.2775570544
 51
283.7941968175
  0
ARC
  5
42C
100
AcDbEntity
  8
ALL_ASSEMBLY_MEMBERS
100
AcDbCircle
 62
7
  6
CONTINUOUS
 10
5.7569352008
 20
5.6366342134
 40
0.1474594379
100
AcDbArc
 50
276.578729514
 51
277.3781612389
  0
ARC
  5
42D
100
AcDbEntity
  8
ALL_ASSEMBLY_MEMBERS
100
AcDbCircle
 62
7
  6
CONTINUOUS
 10
5.8027568683
 20
5.3483071055
 40
0.1462381003
100
AcDbArc
 50
99.0596115291
 51
99.419404279
  0
ARC
  5
42E
100
AcDbEntity
  8
ALL_ASSEMBLY_MEMBERS
100
AcDbCircle
 62
7
  6
CONTINUOUS
 10
5.7715538794
 20
5.637611727
 40
0.1428723347
100
AcDbArc
 50
283.7914862535
 51
284.3198230472
  0
ARC
  5
42F
100
AcDbEntity
  8
ALL_ASSEMBLY_MEMBERS
100
AcDbCircle
 62
7
  6
CONTINUOUS
 10
5.8635751023
 20
5.3718417032
 40
0.1385799257
100
AcDbArc
 50
103.8401044256
 51
104.9804370842
  0
ARC
  5
430
100
AcDbEntity
  8
ALL_ASSEMBLY_MEMBERS
100
AcDbCircle
 62
7
  6
CONTINUOUS
 10
5.7984561041
 20
5.6348648609
 40
0.137905356
100
AcDbArc
 50
283.5219493045
 51
284.169131548
  0
ARC
  5
431
100
AcDbEntity
  8
ALL_ASSEMBLY_MEMBERS
100
AcDbCircle
 62
7
  6
CONTINUOUS
 10
5.8184562233
 20
5.6302962216
 40
0.129928031
100
AcDbArc
 50
283.2734863971
 51
283.7328630377
  0
ARC
  5
432
100
AcDbEntity
  8
ALL_ASSEMBLY_MEMBERS
100
AcDbCircle
 62
7
  6
CONTINUOUS
 10
5.8587025458
 20
5.3901468594
 40
0.1196373852
100
AcDbArc
 50
104.9922792388
 51
106.1802988093
  0
ARC
  5
433
100
AcDbEntity
  8
ALL_ASSEMBLY_MEMBERS
100
AcDbCircle
 62
7
  6
CONTINUOUS
 10
5.8666032255
 20
5.404805533
 40
0.1066047389
100
AcDbArc
 50
96.3238934843
 51
96.921971231
  0
ARC
  5
434
100
AcDbEntity
  8
ALL_ASSEMBLY_MEMBERS
100
AcDbCircle
 62
7
  6
CONTINUOUS
 10
5.7697844027
 20
5.5882914181
 40
0.0974753142
100
AcDbArc
 50
277.5341430972
 51
278.23153813
  0
ARC
  5
435
100
AcDbEntity
  8
ALL_ASSEMBLY_MEMBERS
100
AcDbCircle
 62
7
  6
CONTINUOUS
 10
5.7841408063
 20
5.5930238255
 40
0.0965352711
100
AcDbArc
 50
287.0065173214
 51
288.1730327444
  0
ARC
  5
436
100
AcDbEntity
  8
ALL_ASSEMBLY_MEMBERS
100
AcDbCircle
 62
7
  6
CONTINUOUS
 10
5.7696419144
 20
5.5820002109
 40
0.0879758679
100
AcDbArc
 50
284.7843793924
 51
285.3575019894
  0
ARC
  5
437
100
AcDbEntity
  8
ALL_ASSEMBLY_MEMBERS
100
AcDbCircle
 62
7
  6
CONTINUOUS
 10
5.7881008866
 20
5.5811312006
 40
0.084000779
100
AcDbArc
 50
288.1366207818
 51
290.0014878926
  0
ARC
  5
438
100
AcDbEntity
  8
ALL_ASSEMBLY_MEMBERS
100
AcDbCircle
 62
7
  6
CONTINUOUS
 10
5.8471121582
 20
5.4271058172
 40
0.0808963188
100
AcDbArc
 50
109.3438455531
 51
110.0001044462
  0
ARC
  5
439
100
AcDbEntity
  8
ALL_ASSEMBLY_MEMBERS
100
AcDbCircle
 62
7
  6
CONTINUOUS
 10
5.7730122606
 20
5.5696934287
 40
0.0752159298
100
AcDbArc
 50
285.3646179399
 51
285.9974185762
  0
ARC
  5
43A
100
AcDbEntity
  8
ALL_ASSEMBLY_MEMBERS
100
AcDbCircle
 62
7
  6
CONTINUOUS
 10
5.8388545939
 20
5.5791424664
 40
0.0717316214
100
AcDbArc
 50
283.9171752954
 51
284.7141715538
  0
ARC
  5
43B
100
AcDbEntity
  8
ALL_ASSEMBLY_MEMBERS
100
AcDbCircle
 62
7
  6
CONTINUOUS
 10
5.7794892967
 20
5.4270147036
 40
0.0683537311
100
AcDbArc
 50
105.3507678236
 51
106.3381571554
  0
ARC
  5
43C
100
AcDbEntity
  8
ALL_ASSEMBLY_MEMBERS
100
AcDbCircle
 62
7
  6
CONTINUOUS
 10
5.8446316077
 20
5.55708443
 40
0.0489296363
100
AcDbArc
 50
284.7318800141
 51
285.7830806906
  0
ARC
  5
43D
100
AcDbEntity
  8
ALL_ASSEMBLY_MEMBERS
100
AcDbCircle
 62
7
  6
CONTINUOUS
 10
5.7519229344
 20
5.5376582142
 40
0.047749631
100
AcDbArc
 50
271.7581596113
 51
273.2801044552
  0
ARC
  5
43E
100
AcDbEntity
  8
ALL_ASSEMBLY_MEMBERS
100
AcDbCircle
 62
7
  6
CONTINUOUS
 10
5.7679351264
 20
5.5287687316
 40
0.0390210692
100
AcDbArc
 50
273.0440683625
 51
273.9702595988
  0
ARC
  5
43F
100
AcDbEntity
  8
ALL_ASSEMBLY_MEMBERS
100
AcDbCircle
 62
7
  6
CONTINUOUS
 10
5.7684856368
 20
5.5186023491
 40
0.0288397991
100
AcDbArc
 50
271.873131364
 51
273.0244840745
  0
ARC
  5
440
100
AcDbEntity
  8
ALL_ASSEMBLY_MEMBERS
100
AcDbCircle
 62
7
  6
CONTINUOUS
 10
5.7686664889
 20
5.5136011158
 40
0.023835333
100
AcDbArc
 50
271.1370686695
 51
271.831586782
  0
ARC
  5
441
100
AcDbEntity
  8
ALL_ASSEMBLY_MEMBERS
100
AcDbCircle
 62
7
  6
CONTINUOUS
 10
5.6946889532
 20
6.059178717
 40
0.5743282669
100
AcDbArc
 50
279.5445535365
 51
279.7318854203
  0
ARC
  5
442
100
AcDbEntity
  8
ALL_ASSEMBLY_MEMBERS
100
AcDbCircle
 62
7
  6
CONTINUOUS
 10
5.7244236548
 20
6.0465105653
 40
0.556644993
100
AcDbArc
 50
281.8823707462
 51
282.1574856139
  0
ARC
  5
443
100
AcDbEntity
  8
ALL_ASSEMBLY_MEMBERS
100
AcDbCircle
 62
7
  6
CONTINUOUS
 10
5.6852894324
 20
6.0214925598
 40
0.5363478451
100
AcDbArc
 50
280.0280846804
 51
280.5932697036
  0
ARC
  5
444
100
AcDbEntity
  8
ALL_ASSEMBLY_MEMBERS
100
AcDbCircle
 62
7
  6
CONTINUOUS
 10
5.7531185008
 20
6.0210012132
 40
0.5221056488
100
AcDbArc
 50
277.6632554267
 51
278.3582329035
  0
ARC
  5
445
100
AcDbEntity
  8
ALL_ASSEMBLY_MEMBERS
100
AcDbCircle
 62
7
  6
CONTINUOUS
 10
5.6897333723
 20
5.9964053487
 40
0.5108700764
100
AcDbArc
 50
279.7309912644
 51
280.0272334932
  0
ARC
  5
446
100
AcDbEntity
  8
ALL_ASSEMBLY_MEMBERS
100
AcDbCircle
 62
7
  6
CONTINUOUS
 10
5.6946641764
 20
5.9770500675
 40
0.490934843
100
AcDbArc
 50
281.0912881803
 51
281.4159893942
  0
ARC
  5
447
100
AcDbEntity
  8
ALL_ASSEMBLY_MEMBERS
100
AcDbCircle
 62
7
  6
CONTINUOUS
 10
5.7569533959
 20
5.9675820087
 40
0.4687526972
100
AcDbArc
 50
280.3370326808
 51
281.0948528978
  0
ARC
  5
448
100
AcDbEntity
  8
ALL_ASSEMBLY_MEMBERS
100
AcDbCircle
 62
7
  6
CONTINUOUS
 10
5.6995882294
 20
5.9527542458
 40
0.4661450686
100
AcDbArc
 50
281.413808691
 51
281.7457666879
  0
ARC
  5
449
100
AcDbEntity
  8
ALL_ASSEMBLY_MEMBERS
100
AcDbCircle
 62
7
  6
CONTINUOUS
 10
5.6988310851
 20
5.943248982
 40
0.4569407954
100
AcDbArc
 50
279.1000236677
 51
279.7332240193
  0
ARC
  5
44A
100
AcDbEntity
  8
ALL_ASSEMBLY_MEMBERS
100
AcDbCircle
 62
7
  6
CONTINUOUS
 10
5.6926239999
 20
5.9414838449
 40
0.4556816277
100
AcDbArc
 50
280.8792984583
 51
281.0894641295
  0
ARC
  5
44B
100
AcDbEntity
  8
ALL_ASSEMBLY_MEMBERS
100
AcDbCircle
 62
7
  6
CONTINUOUS
 10
5.730296246
 20
5.9385223712
 40
0.4491293153
100
AcDbArc
 50
281.8776002977
 51
282.1772516686
  0
ARC
  5
44C
100
AcDbEntity
  8
ALL_ASSEMBLY_MEMBERS
100
AcDbCircle
 62
7
  6
CONTINUOUS
 10
5.7492155793
 20
5.9316265243
 40
0.4391163572
100
AcDbArc
 50
282.1520860217
 51
282.4724843692
  0
ARC
  5
44D
100
AcDbEntity
  8
ALL_ASSEMBLY_MEMBERS
100
AcDbCircle
 62
7
  6
CONTINUOUS
 10
5.7176469292
 20
5.9223757165
 40
0.4356122725
100
AcDbArc
 50
279.3196993564
 51
279.5503083313
  0
ARC
  5
44E
100
AcDbEntity
  8
ALL_ASSEMBLY_MEMBERS
100
AcDbCircle
 62
7
  6
CONTINUOUS
 10
5.7172693137
 20
5.9148934462
 40
0.4285404835
100
AcDbArc
 50
278.5324445764
 51
278.9215577686
  0
ARC
  5
44F
100
AcDbEntity
  8
ALL_ASSEMBLY_MEMBERS
100
AcDbCircle
 62
7
  6
CONTINUOUS
 10
5.7079874966
 20
5.9124924501
 40
0.4250165011
100
AcDbArc
 50
281.7420836185
 51
282.0952321952
  0
ARC
  5
450
100
AcDbEntity
  8
ALL_ASSEMBLY_MEMBERS
100
AcDbCircle
 62
7
  6
CONTINUOUS
 10
5.7051644511
 20
5.9041457181
 40
0.4173280255
100
AcDbArc
 50
278.7589300429
 51
279.0905312985
  0
ARC
  5
451
100
AcDbEntity
  8
ALL_ASSEMBLY_MEMBERS
100
AcDbCircle
 62
7
  6
CONTINUOUS
 10
5.7099505106
 20
5.8731480947
 40
0.3859630943
100
AcDbArc
 50
278.4075312485
 51
278.7574447968
  0
ARC
  5
452
100
AcDbEntity
  8
ALL_ASSEMBLY_MEMBERS
100
AcDbCircle
 62
7
  6
CONTINUOUS
 10
5.7082297821
 20
5.8594320824
 40
0.3721591734
100
AcDbArc
 50
280.1406701577
 51
280.9041164854
  0
ARC
  5
453
100
AcDbEntity
  8
ALL_ASSEMBLY_MEMBERS
100
AcDbCircle
 62
7
  6
CONTINUOUS
 10
5.7201313277
 20
5.8562512955
 40
0.3674792887
100
AcDbArc
 50
282.0812570978
 51
282.8606053988
  0
ARC
  5
454
100
AcDbEntity
  8
ALL_ASSEMBLY_MEMBERS
100
AcDbCircle
 62
7
  6
CONTINUOUS
 10
5.7295893296
 20
5.8148083197
 40
0.3249707715
100
AcDbArc
 50
282.8612451526
 51
283.2824428281
  0
ARC
  5
455
100
AcDbEntity
  8
ALL_ASSEMBLY_MEMBERS
100
AcDbCircle
 62
7
  6
CONTINUOUS
 10
5.7353162437
 20
5.7950209382
 40
0.3073171172
100
AcDbArc
 50
278.0265263042
 51
278.5209281287
  0
ARC
  5
456
100
AcDbEntity
  8
ALL_ASSEMBLY_MEMBERS
100
AcDbCircle
 62
7
  6
CONTINUOUS
 10
5.7269972575
 20
5.7578198613
 40
0.2693818221
100
AcDbArc
 50
277.8641160903
 51
278.40730721
  0
ARC
  5
457
100
AcDbEntity
  8
ALL_ASSEMBLY_MEMBERS
100
AcDbCircle
 62
7
  6
CONTINUOUS
 10
5.7450268074
 20
5.7541845661
 40
0.2652073369
100
AcDbArc
 50
278.689251268
 51
279.3669976792
  0
ARC
  5
458
100
AcDbEntity
  8
ALL_ASSEMBLY_MEMBERS
100
AcDbCircle
 62
7
  6
CONTINUOUS
 10
5.6403500885
 20
6.3687006237
 40
0.8885860932
100
AcDbArc
 50
280.2475739143
 51
280.5470793724
  0
ARC
  5
459
100
AcDbEntity
  8
ALL_ASSEMBLY_MEMBERS
100
AcDbCircle
 62
7
  6
CONTINUOUS
 10
5.6607855919
 20
6.3512969018
 40
0.8680047362
100
AcDbArc
 50
281.4613266862
 51
281.6607590495
  0
ARC
  5
45A
100
AcDbEntity
  8
ALL_ASSEMBLY_MEMBERS
100
AcDbCircle
 62
7
  6
CONTINUOUS
 10
5.6552950484
 20
6.2861261242
 40
0.8046700668
100
AcDbArc
 50
280.0841299942
 51
280.2464059703
  0
ARC
  5
45B
100
AcDbEntity
  8
ALL_ASSEMBLY_MEMBERS
100
AcDbCircle
 62
7
  6
CONTINUOUS
 10
5.6648744052
 20
6.2415499835
 40
0.7593735717
100
AcDbArc
 50
279.2453425773
 51
279.5073705259
  0
ARC
  5
45C
100
AcDbEntity
  8
ALL_ASSEMBLY_MEMBERS
100
AcDbCircle
 62
7
  6
CONTINUOUS
 10
5.6930365851
 20
6.1953016601
 40
0.7087105488
100
AcDbArc
 50
281.6562193532
 51
281.8886744047
  0
ARC
  5
45D
100
AcDbEntity
  8
ALL_ASSEMBLY_MEMBERS
100
AcDbCircle
 62
7
  6
CONTINUOUS
 10
5.6721471447
 20
6.1907925928
 40
0.7078585806
100
AcDbArc
 50
279.7294319097
 51
280.0922705044
  0
ARC
  5
45E
100
AcDbEntity
  8
ALL_ASSEMBLY_MEMBERS
100
AcDbCircle
 62
7
  6
CONTINUOUS
 10
5.6725737418
 20
6.0896184645
 40
0.6056502775
100
AcDbArc
 50
280.5909037312
 51
281.0934389263
  0
ARC
  5
45F
100
AcDbEntity
  8
ALL_ASSEMBLY_MEMBERS
100
AcDbCircle
 62
7
  6
CONTINUOUS
 10
5.6929830818
 20
6.0691696836
 40
0.5847165867
100
AcDbArc
 50
278.9281156
 51
279.2405893784
  0
ARC
  5
460
100
AcDbEntity
  8
ALL_ASSEMBLY_MEMBERS
100
AcDbCircle
 62
7
  6
CONTINUOUS
 10
5.7600594917
 20
5.9663872085
 40
0.4677320533
100
AcDbArc
 50
280.370362768
 51
280.7244664251
  0
ARC
  5
461
100
AcDbEntity
  8
ALL_ASSEMBLY_MEMBERS
100
AcDbCircle
 62
7
  6
CONTINUOUS
 10
5.7618971268
 20
5.9565737536
 40
0.4577481448
100
AcDbArc
 50
281.0888628554
 51
281.2997525107
  0
ARC
  5
462
100
AcDbEntity
  8
ALL_ASSEMBLY_MEMBERS
100
AcDbCircle
 62
7
  6
CONTINUOUS
 10
5.762715723
 20
5.9518456141
 40
0.4529498508
100
AcDbArc
 50
280.0047458844
 51
280.3709694966
  0
ARC
  5
463
100
AcDbEntity
  8
ALL_ASSEMBLY_MEMBERS
100
AcDbCircle
 62
7
  6
CONTINUOUS
 10
5.7636294442
 20
5.9476643041
 40
0.4486718556
100
AcDbArc
 50
280.7214624326
 51
281.0905983228
  0
ARC
  5
464
100
AcDbEntity
  8
ALL_ASSEMBLY_MEMBERS
100
AcDbCircle
 62
7
  6
CONTINUOUS
 10
5.7655149717
 20
5.9361579583
 40
0.4370144398
100
AcDbArc
 50
279.6177837155
 51
280.0006462851
  0
ARC
  5
465
100
AcDbEntity
  8
ALL_ASSEMBLY_MEMBERS
100
AcDbCircle
 62
7
  6
CONTINUOUS
 10
5.7660031825
 20
5.9330863802
 40
0.4339044686
100
AcDbArc
 50
278.4865540549
 51
279.621987388
  0
ARC
  5
466
100
AcDbEntity
  8
ALL_ASSEMBLY_MEMBERS
100
AcDbCircle
 62
7
  6
CONTINUOUS
 10
5.7670578023
 20
5.9117019717
 40
0.4119665279
100
AcDbArc
 50
279.4913121705
 51
280.3490773754
  0
ARC
  5
467
100
AcDbEntity
  8
ALL_ASSEMBLY_MEMBERS
100
AcDbCircle
 62
7
  6
CONTINUOUS
 10
5.770956621
 20
5.9006513071
 40
0.4010935432
100
AcDbArc
 50
278.0753797629
 51
278.4704806653
  0
ARC
  5
468
100
AcDbEntity
  8
ALL_ASSEMBLY_MEMBERS
100
AcDbCircle
 62
7
  6
CONTINUOUS
 10
5.7719400668
 20
5.8937676033
 40
0.3941399471
100
AcDbArc
 50
277.6808942292
 51
278.074405759
  0
ARC
  5
469
100
AcDbEntity
  8
ALL_ASSEMBLY_MEMBERS
100
AcDbCircle
 62
7
  6
CONTINUOUS
 10
5.7744299382
 20
5.8751357538
 40
0.3753424811
100
AcDbArc
 50
276.8808906712
 51
277.6843626508
  0
ARC
  5
46A
100
AcDbEntity
  8
ALL_ASSEMBLY_MEMBERS
100
AcDbCircle
 62
7
  6
CONTINUOUS
 10
5.780743443
 20
5.8629846415
 40
0.3622802738
100
AcDbArc
 50
281.3797740903
 51
281.7230182087
  0
ARC
  5
46B
100
AcDbEntity
  8
ALL_ASSEMBLY_MEMBERS
100
AcDbCircle
 62
7
  6
CONTINUOUS
 10
5.7768148022
 20
5.8558399593
 40
0.3558999513
100
AcDbArc
 50
276.6157084859
 51
276.8718849859
  0
ARC
  5
46C
100
AcDbEntity
  8
ALL_ASSEMBLY_MEMBERS
100
AcDbCircle
 62
7
  6
CONTINUOUS
 10
5.7770467262
 20
5.8538567523
 40
0.3539032302
100
AcDbArc
 50
276.4548967453
 51
276.6154016282
  0
ARC
  5
46D
100
AcDbEntity
  8
ALL_ASSEMBLY_MEMBERS
100
AcDbCircle
 62
7
  6
CONTINUOUS
 10
5.777520942
 20
5.8542005958
 40
0.3535295254
100
AcDbArc
 50
278.3749570013
 51
279.1933124747
  0
ARC
  5
46E
100
AcDbEntity
  8
ALL_ASSEMBLY_MEMBERS
100
AcDbCircle
 62
7
  6
CONTINUOUS
 10
5.7693947774
 20
5.8406309624
 40
0.3459101929
100
AcDbArc
 50
282.4641051823
 51
282.8391267317
  0
ARC
  5
46F
100
AcDbEntity
  8
ALL_ASSEMBLY_MEMBERS
100
AcDbCircle
 62
7
  6
CONTINUOUS
 10
5.7613077905
 20
5.7950319985
 40
0.3023260465
100
AcDbArc
 50
282.1684602871
 51
282.9402274661
  0
ARC
  5
470
100
AcDbEntity
  8
ALL_ASSEMBLY_MEMBERS
100
AcDbCircle
 62
7
  6
CONTINUOUS
 10
5.7880770827
 20
5.7589070541
 40
0.2620780884
100
AcDbArc
 50
282.8271067945
 51
283.2819256175
  0
ARC
  5
471
100
AcDbEntity
  8
ALL_ASSEMBLY_MEMBERS
100
AcDbCircle
 62
7
  6
CONTINUOUS
 10
5.8744776178
 20
5.7718531769
 40
0.2602282645
100
AcDbArc
 50
271.728816339
 51
274.3349723758
  0
ARC
  5
472
100
AcDbEntity
  8
ALL_ASSEMBLY_MEMBERS
100
AcDbCircle
 62
7
  6
CONTINUOUS
 10
5.8600631436
 20
5.7634044074
 40
0.2546078098
100
AcDbArc
 50
272.5568862287
 51
273.9918102967
  0
ARC
  5
473
100
AcDbEntity
  8
ALL_ASSEMBLY_MEMBERS
100
AcDbCircle
 62
7
  6
CONTINUOUS
 10
7.2634363491
 20
4.0851211339
 40
2.0450190873
100
AcDbArc
 50
177.4616679084
 51
177.6266469778
  0
ARC
  5
474
100
AcDbEntity
  8
ALL_ASSEMBLY_MEMBERS
100
AcDbCircle
 62
7
  6
CONTINUOUS
 10
6.4108817542
 20
4.326580231
 40
1.0653031661
100
AcDbArc
 50
182.3807619437
 51
184.5921797042
  0
ARC
  5
475
100
AcDbEntity
  8
ALL_ASSEMBLY_MEMBERS
100
AcDbCircle
 62
7
  6
CONTINUOUS
 10
6.3361749474
 20
4.2208586282
 40
0.985
100
AcDbArc
 50
133.5249964731
 51
175.1692117801
  0
ARC
  5
476
100
AcDbEntity
  8
ALL_ASSEMBLY_MEMBERS
100
AcDbCircle
 62
7
  6
CONTINUOUS
 10
4.8248993507
 20
9.0127932842
 40
3.5108561668
100
AcDbArc
 50
273.9697096715
 51
274.3178302188
  0
ARC
  5
477
100
AcDbEntity
  8
ALL_ASSEMBLY_MEMBERS
100
AcDbCircle
 62
7
  6
CONTINUOUS
 10
5.1787361836
 20
8.9069617318
 40
3.4169660792
100
AcDbArc
 50
268.4294163006
 51
268.6874244496
  0
ARC
  5
478
100
AcDbEntity
  8
ALL_ASSEMBLY_MEMBERS
100
AcDbCircle
 62
7
  6
CONTINUOUS
 10
4.7523215212
 20
7.9714936447
 40
2.462875309
100
AcDbArc
 50
269.8838794354
 51
270.1161205646
  0
ARC
  5
479
100
AcDbEntity
  8
ALL_ASSEMBLY_MEMBERS
100
AcDbCircle
 62
7
  6
CONTINUOUS
 10
5.6309509756
 20
7.7745835354
 40
2.2659651997
100
AcDbArc
 50
269.8789391542
 51
270.1210608458
  0
ARC
  5
47A
100
AcDbEntity
  8
ALL_ASSEMBLY_MEMBERS
100
AcDbCircle
 62
7
  6
CONTINUOUS
 10
4.7966693943
 20
7.7004746298
 40
2.2058122957
100
AcDbArc
 50
269.8703468467
 51
270.1296531533
  0
ARC
  5
47B
100
AcDbEntity
  8
ALL_ASSEMBLY_MEMBERS
100
AcDbCircle
 62
7
  6
CONTINUOUS
 10
5.5835838242
 20
7.5241171722
 40
2.029454838
100
AcDbArc
 50
269.864830836
 51
270.135169164
  0
ARC
  5
47C
100
AcDbEntity
  8
ALL_ASSEMBLY_MEMBERS
100
AcDbCircle
 62
7
  6
CONTINUOUS
 10
5.512148582
 20
7.097722448
 40
1.6290881527
100
AcDbArc
 50
280.8848518327
 51
281.0222522574
  0
ARC
  5
47D
100
AcDbEntity
  8
ALL_ASSEMBLY_MEMBERS
100
AcDbCircle
 62
7
  6
CONTINUOUS
 10
5.5198828993
 20
7.0575054879
 40
1.588134233
100
AcDbArc
 50
280.7446027113
 51
280.8848242681
  0
ARC
  5
47E
100
AcDbEntity
  8
ALL_ASSEMBLY_MEMBERS
100
AcDbCircle
 62
7
  6
CONTINUOUS
 10
5.5371682833
 20
6.9695964002
 40
1.4985421247
100
AcDbArc
 50
281.0198925992
 51
281.1504298228
  0
ARC
  5
47F
100
AcDbEntity
  8
ALL_ASSEMBLY_MEMBERS
100
AcDbCircle
 62
7
  6
CONTINUOUS
 10
5.548543565
 20
6.9061307885
 40
1.4340701911
100
AcDbArc
 50
280.2814582006
 51
280.7471127593
  0
ARC
  5
480
100
AcDbEntity
  8
ALL_ASSEMBLY_MEMBERS
100
AcDbCircle
 62
7
  6
CONTINUOUS
 10
5.5808698062
 20
6.7481423825
 40
1.2728172877
100
AcDbArc
 50
281.1481545214
 51
281.2957876836
  0
ARC
  5
481
100
AcDbEntity
  8
ALL_ASSEMBLY_MEMBERS
100
AcDbCircle
 62
7
  6
CONTINUOUS
 10
5.5857464643
 20
6.7019419068
 40
1.2265198846
100
AcDbArc
 50
280.0975841923
 51
280.2459204157
  0
ARC
  5
482
100
AcDbEntity
  8
ALL_ASSEMBLY_MEMBERS
100
AcDbCircle
 62
7
  6
CONTINUOUS
 10
5.6027788228
 20
6.6064540488
 40
1.1295248772
100
AcDbArc
 50
279.9116000717
 51
280.0962091363
  0
ARC
  5
483
100
AcDbEntity
  8
ALL_ASSEMBLY_MEMBERS
100
AcDbCircle
 62
7
  6
CONTINUOUS
 10
5.5959636842
 20
6.6042752747
 40
1.1283067877
100
AcDbArc
 50
280.9272426606
 51
281.045039477
  0
ARC
  5
484
100
AcDbEntity
  8
ALL_ASSEMBLY_MEMBERS
100
AcDbCircle
 62
7
  6
CONTINUOUS
 10
5.6039814217
 20
6.5626975391
 40
1.0859630499
100
AcDbArc
 50
280.805441971
 51
280.927728399
  0
ARC
  5
485
100
AcDbEntity
  8
ALL_ASSEMBLY_MEMBERS
100
AcDbCircle
 62
7
  6
CONTINUOUS
 10
5.6244890246
 20
6.5300566331
 40
1.0504121924
100
AcDbArc
 50
281.2926821522
 51
281.4641666447
  0
ARC
  5
486
100
AcDbEntity
  8
ALL_ASSEMBLY_MEMBERS
100
AcDbCircle
 62
7
  6
CONTINUOUS
 10
5.616465275
 20
6.5282162894
 40
1.0500990268
100
AcDbArc
 50
279.717486886
 51
279.9107694373
  0
ARC
  5
487
100
AcDbEntity
  8
ALL_ASSEMBLY_MEMBERS
100
AcDbCircle
 62
7
  6
CONTINUOUS
 10
5.619516445
 20
6.4810184059
 40
1.0028197117
100
AcDbArc
 50
280.5426587206
 51
280.8084806783
  0
ARC
  5
488
100
AcDbEntity
  8
ALL_ASSEMBLY_MEMBERS
100
AcDbCircle
 62
7
  6
CONTINUOUS
 10
5.6298281478
 20
6.4503735414
 40
0.9711176449
100
AcDbArc
 50
279.6011961895
 51
279.7155960399
  0
SPLINE
  5
489
100
AcDbEntity
  8
ALL_ASSEMBLY_MEMBERS
100
AcDbSpline
 62
7
  6
CONTINUOUS
 70
0
 71
3
 72
19
 73
15
 74
0
 42
0.0000001
 43
0.0000001
 44
0.0000000001
 40
0.0
 40
0.0
 40
0.0
 40
0.0
 40
0.1249158798
 40
0.1874766357
 40
0.2500078059
 40
0.3749226349
 40
0.4998388355
 40
0.5623760549
 40
0.624922107
 40
0.6874570601
 40
0.7499641082
 40
0.8124888753
 40
0.8750775682
 40
1.0
 40
1.0
 40
1.0
 40
1.0
 10
5.1871733977
 20
5.4288481012
 30
0.0
 10
5.1871733977
 20
5.4295017901
 30
0.0
 10
5.1870762833
 20
5.4304863825
 30
0.0
 10
5.1867578631
 20
5.4317568917
 30
0.0
 10
5.1863164057
 20
5.4329904994
 30
0.0
 10
5.1855405435
 20
5.4344419054
 30
0.0
 10
5.1844957677
 20
5.4357136579
 30
0.0
 10
5.1835248542
 20
5.43659312
 30
0.0
 10
5.1827347974
 20
5.4371787684
 30
0.0
 10
5.1818913413
 20
5.4376840964
 30
0.0
 10
5.1810019837
 20
5.438103118
 30
0.0
 10
5.1800754433
 20
5.438432973
 30
0.0
 10
5.178805736
 20
5.4387535977
 30
0.0
 10
5.1778214029
 20
5.438857822
 30
0.0
 10
5.1771676798
 20
5.438857822
 30
0.0
  0
SPLINE
  5
48A
100
AcDbEntity
  8
ALL_ASSEMBLY_MEMBERS
100
AcDbSpline
 62
7
  6
CONTINUOUS
 70
0
 71
3
 72
19
 73
15
 74
0
 42
0.0000001
 43
0.0000001
 44
0.0000000001
 40
0.0
 40
0.0
 40
0.0
 40
0.0
 40
0.1249852322
 40
0.1876498082
 40
0.2502234468
 40
0.3127340834
 40
0.3752485557
 40
0.4377807889
 40
0.5003042382
 40
0.6251763742
 40
0.750059398
 40
0.8125725634
 40
0.8751106733
 40
1.0
 40
1.0
 40
1.0
 40
1.0
 10
5.1771676798
 20
5.438857822
 30
0.0
 10
5.1765141356
 20
5.438857822
 30
0.0
 10
5.175529689
 20
5.43875365
 30
0.0
 10
5.1742607119
 20
5.4384300723
 30
0.0
 10
5.1733350882
 20
5.4380980249
 30
0.0
 10
5.172446688
 20
5.4376784544
 30
0.0
 10
5.1716043527
 20
5.4371730336
 30
0.0
 10
5.1708157128
 20
5.4365871729
 30
0.0
 10
5.1698466036
 20
5.4357078034
 30
0.0
 10
5.1688038963
 20
5.4344366447
 30
0.0
 10
5.1680296434
 20
5.4329864128
 30
0.0
 10
5.1675891283
 20
5.4317539578
 30
0.0
 10
5.1672712922
 20
5.430484716
 30
0.0
 10
5.1671744284
 20
5.4295011439
 30
0.0
 10
5.1671744284
 20
5.4288481012
 30
0.0
  0
SPLINE
  5
48B
100
AcDbEntity
  8
ALL_ASSEMBLY_MEMBERS
100
AcDbSpline
 62
7
  6
CONTINUOUS
 70
0
 71
3
 72
19
 73
15
 74
0
 42
0.0000001
 43
0.0000001
 44
0.0000000001
 40
0.0
 40
0.0
 40
0.0
 40
0.0
 40
0.1248897374
 40
0.1874284864
 40
0.2499423405
 40
0.3748263175
 40
0.4996987803
 40
0.5622219563
 40
0.6247539668
 40
0.6872683074
 40
0.7497784126
 40
0.8123512284
 40
0.8750150897
 40
1.0
 40
1.0
 40
1.0
 40
1.0
 10
5.1671744284
 20
5.3488481012
 30
0.0
 10
5.1671744284
 20
5.3481950541
 30
0.0
 10
5.1672712938
 20
5.347211473
 30
0.0
 10
5.1675891363
 20
5.3459422186
 30
0.0
 10
5.1680296605
 20
5.3447097493
 30
0.0
 10
5.1688039302
 20
5.3432595077
 30
0.0
 10
5.1698466528
 20
5.3419883475
 30
0.0
 10
5.1708157708
 20
5.341108982
 30
0.0
 10
5.1716044162
 20
5.3405231288
 30
0.0
 10
5.1724467495
 20
5.3400177072
 30
0.0
 10
5.1733351497
 20
5.3395981457
 30
0.0
 10
5.1742607727
 20
5.3392661181
 30
0.0
 10
5.1755297485
 20
5.3389425583
 30
0.0
 10
5.176514192
 20
5.3388383833
 30
0.0
 10
5.1771677368
 20
5.3388383833
 30
0.0
  0
SPLINE
  5
48C
100
AcDbEntity
  8
ALL_ASSEMBLY_MEMBERS
100
AcDbSpline
 62
7
  6
CONTINUOUS
 70
0
 71
3
 72
19
 73
15
 74
0
 42
0.0000001
 43
0.0000001
 44
0.0000000001
 40
0.0
 40
0.0
 40
0.0
 40
0.0
 40
0.1249225465
 40
0.1875115499
 40
0.2500366903
 40
0.3125439719
 40
0.3750791332
 40
0.4376254688
 40
0.5001629066
 40
0.625079081
 40
0.7499938268
 40
0.8125248195
 40
0.8750850005
 40
1.0
 40
1.0
 40
1.0
 40
1.0
 10
5.1771677368
 20
5.3388383833
 30
0.0
 10
5.1778214582
 20
5.3388383833
 30
0.0
 10
5.1788057906
 20
5.3389426071
 30
0.0
 10
5.1800754942
 20
5.3392632453
 30
0.0
 10
5.1810020321
 20
5.3395931102
 30
0.0
 10
5.1818913903
 20
5.3400121322
 30
0.0
 10
5.1827348441
 20
5.3405174646
 30
0.0
 10
5.1835248985
 20
5.3411031167
 30
0.0
 10
5.1844958032
 20
5.341982585
 30
0.0
 10
5.1855405715
 20
5.3432543364
 30
0.0
 10
5.1863164226
 20
5.3447057404
 30
0.0
 10
5.1867578704
 20
5.3459393415
 30
0.0
 10
5.1870762889
 20
5.3472098375
 30
0.0
 10
5.1871733977
 20
5.3481944193
 30
0.0
 10
5.1871733977
 20
5.3488481012
 30
0.0
  0
SPLINE
  5
48D
100
AcDbEntity
  8
ALL_ASSEMBLY_MEMBERS
100
AcDbSpline
 62
7
  6
CONTINUOUS
 70
0
 71
3
 72
19
 73
15
 74
0
 42
0.0000001
 43
0.0000001
 44
0.0000000001
 40
0.0
 40
0.0
 40
0.0
 40
0.0
 40
0.1249630347
 40
0.2499398137
 40
0.3124521414
 40
0.3749684332
 40
0.4374854369
 40
0.5000014973
 40
0.5625173184
 40
0.6250343892
 40
0.6875506678
 40
0.7500628996
 40
0.8750376985
 40
1.0
 40
1.0
 40
1.0
 40
1.0
 10
4.939173913
 20
4.0322866415
 30
0.0
 10
4.9300088257
 20
4.0250106427
 30
0.0
 10
4.9107324938
 20
4.0116075025
 30
0.0
 10
4.8847123374
 20
3.9980472918
 30
0.0
 10
4.8630019262
 20
3.9892499518
 30
0.0
 10
4.8463265115
 20
3.9836993809
 30
0.0
 10
4.8293317626
 20
3.9792215446
 30
0.0
 10
4.8120854346
 20
3.9758390648
 30
0.0
 10
4.7946582812
 20
3.973564621
 30
0.0
 10
4.7771212004
 20
3.9724126681
 30
0.0
 10
4.7595460748
 20
3.972387049
 30
0.0
 10
4.736167117
 20
3.9738579187
 30
0.0
 10
4.7071957438
 20
3.9785169358
 30
0.0
 10
4.6846870802
 20
3.9852032984
 30
0.0
 10
4.6737089482
 20
3.9892552108
 30
0.0
  0
SPLINE
  5
48E
100
AcDbEntity
  8
ALL_ASSEMBLY_MEMBERS
100
AcDbSpline
 62
7
  6
CONTINUOUS
 70
0
 71
3
 72
28
 73
24
 74
0
 42
0.0000001
 43
0.0000001
 44
0.0000000001
 40
0.0
 40
0.0
 40
0.0
 40
0.0
 40
0.0630621471
 40
0.1261138368
 40
0.1891543448
 40
0.2521958635
 40
0.3152320215
 40
0.3782577904
 40
0.4412682394
 40
0.5042537649
 40
0.5357398923
 40
0.56721323
 40
0.5986701283
 40
0.6301064688
 40
0.6928830775
 40
0.7555000188
 40
0.7867253996
 40
0.8178674949
 40
0.8488973433
 40
0.8797786062
 40
0.910462172
 40
0.9408821861
 40
1.0
 40
1.0
 40
1.0
 40
1.0
 10
5.5814619039
 20
4.0465060349
 30
0.0
 10
5.5745981149
 20
4.0467731075
 30
0.0
 10
5.5608873555
 20
4.0479057129
 30
0.0
 10
5.5405557245
 20
4.0513922693
 30
0.0
 10
5.520605907
 20
4.0566368138
 30
0.0
 10
5.5011907192
 20
4.0635984422
 30
0.0
 10
5.4824565962
 20
4.0722227819
 30
0.0
 10
5.4645458296
 20
4.0824412916
 30
0.0
 10
5.4475957216
 20
4.0941733515
 30
0.0
 10
5.4343702555
 20
4.1051339174
 30
0.0
 10
5.4243948157
 20
4.1145563271
 30
0.0
 10
5.4172263448
 20
4.1219350247
 30
0.0
 10
5.4103839482
 20
4.1296097712
 30
0.0
 10
5.4017178583
 20
4.1402101502
 30
0.0
 10
5.3917539625
 20
4.1541125053
 30
0.0
 10
5.3829995253
 20
4.1687783773
 30
0.0
 10
5.3767435404
 20
4.1808730303
 30
0.0
 10
5.3724332551
 20
4.1900910347
 30
0.0
 10
5.3684949167
 20
4.1994329157
 30
0.0
 10
5.3649248241
 20
4.2088681091
 30
0.0
 10
5.361710728
 20
4.2183599384
 30
0.0
 10
5.3579168815
 20
4.2308957759
 30
0.0
 10
5.3554955224
 20
4.2403461476
 30
0.0
 10
5.3539142921
 20
4.2465883382
 30
0.0
  0
SPLINE
  5
48F
100
AcDbEntity
  8
ALL_ASSEMBLY_MEMBERS
100
AcDbSpline
 62
7
  6
CONTINUOUS
 70
0
 71
3
 72
13
 73
9
 74
0
 42
0.0000001
 43
0.0000001
 44
0.0000000001
 40
0.0
 40
0.0
 40
0.0
 40
0.0
 40
0.2436207691
 40
0.3674632225
 40
0.4924630739
 40
0.6184279735
 40
0.7451355967
 40
1.0
 40
1.0
 40
1.0
 40
1.0
 10
5.2204238024
 20
4.1756904525
 30
0.0
 10
5.2206605268
 20
4.1810281076
 30
0.0
 10
5.2210497936
 20
4.1890777528
 30
0.0
 10
5.2216472148
 20
4.199861571
 30
0.0
 10
5.2221395289
 20
4.20806681
 30
0.0
 10
5.2226971833
 20
4.2163310624
 30
0.0
 10
5.2235900855
 20
4.2274260638
 30
0.0
 10
5.2244847879
 20
4.2357503102
 30
0.0
 10
5.2252366612
 20
4.2412889986
 30
0.0
  0
SPLINE
  5
490
100
AcDbEntity
  8
ALL_ASSEMBLY_MEMBERS
100
AcDbSpline
 62
7
  6
CONTINUOUS
 70
0
 71
3
 72
35
 73
31
 74
0
 42
0.0000001
 43
0.0000001
 44
0.0000000001
 40
0.0
 40
0.0
 40
0.0
 40
0.0
 40
0.0312258828
 40
0.0624599502
 40
0.0936945023
 40
0.1249355227
 40
0.1873544567
 40
0.2497929235
 40
0.281056466
 40
0.3123221633
 40
0.3435871615
 40
0.3748519493
 40
0.437307726
 40
0.4997637421
 40
0.5310284406
 40
0.5622933976
 40
0.5935579153
 40
0.6248228385
 40
0.6560873698
 40
0.6873523471
 40
0.7186169738
 40
0.7498819221
 40
0.7811466135
 40
0.812411461
 40
0.8436762172
 40
0.8749409556
 40
0.9062058017
 40
0.9374704751
 40
0.9687354143
 40
1.0
 40
1.0
 40
1.0
 40
1.0
 10
4.6737087898
 20
4.0434763444
 30
0.0
 10
4.6737082461
 20
4.0462795229
 30
0.0
 10
4.6734264673
 20
4.0518906153
 30
0.0
 10
4.6721667898
 20
4.0602201469
 30
0.0
 10
4.6700805268
 20
4.0683850372
 30
0.0
 10
4.6662311139
 20
4.0789319284
 30
0.0
 10
4.6594783176
 20
4.0913226263
 30
0.0
 10
4.6504209956
 20
4.1021442233
 30
0.0
 10
4.6420263462
 20
4.1096087399
 30
0.0
 10
4.635208487
 20
4.1145732686
 30
0.0
 10
4.6279381553
 20
4.1188479289
 30
0.0
 10
4.6177469359
 20
4.1235767479
 30
0.0
 10
4.6042161156
 20
4.1275938384
 30
0.0
 10
4.5901638149
 20
4.1289175257
 30
0.0
 10
4.5789440224
 20
4.12833435
 30
0.0
 10
4.5706039713
 20
4.1270796315
 30
0.0
 10
4.5624263902
 20
4.1250186707
 30
0.0
 10
4.5544892354
 20
4.122168294
 30
0.0
 10
4.5468682443
 20
4.1185565165
 30
0.0
 10
4.5396387845
 20
4.1142137651
 30
0.0
 10
4.5328693388
 20
4.109183748
 30
0.0
 10
4.5266290945
 20
4.1035104819
 30
0.0
 10
4.5209764639
 20
4.0972514344
 30
0.0
 10
4.5159713157
 20
4.0904634445
 30
0.0
 10
4.5116595821
 20
4.0832151443
 30
0.0
 10
4.5080887147
 20
4.0755745417
 30
0.0
 10
4.5052904353
 20
4.0676185025
 30
0.0
 10
4.5032970317
 20
4.0594233708
 30
0.0
 10
4.5021250285
 20
4.0510720284
 30
0.0
 10
4.5019011278
 20
4.0454521645
 30
0.0
 10
4.5019289178
 20
4.0426456491
 30
0.0
  0
SPLINE
  5
491
100
AcDbEntity
  8
ALL_ASSEMBLY_MEMBERS
100
AcDbSpline
 62
7
  6
CONTINUOUS
 70
0
 71
3
 72
9
 73
5
 74
0
 42
0.0000001
 43
0.0000001
 44
0.0000000001
 40
0.0
 40
0.0
 40
0.0
 40
0.0
 40
0.4868970017
 40
1.0
 40
1.0
 40
1.0
 40
1.0
 10
5.0976689605
 20
4.045266688
 30
0.0
 10
5.0973377876
 20
4.0497792193
 30
0.0
 10
5.0963645225
 20
4.0590261583
 30
0.0
 10
5.0950010801
 20
4.0682199426
 30
0.0
 10
5.0942440861
 20
4.0729276654
 30
0.0
  0
LINE
  5
492
100
AcDbEntity
  8
ALL_ASSEMBLY_MEMBERS
100
AcDbLine
 62
7
  6
CONTINUOUS
 10
5.0981141503
 20
3.8940608673
 11
5.098173913
 21
3.8945579728
  0
SPLINE
  5
493
100
AcDbEntity
  8
ALL_ASSEMBLY_MEMBERS
100
AcDbSpline
 62
7
  6
CONTINUOUS
 70
0
 71
3
 72
29
 73
25
 74
0
 42
0.0000001
 43
0.0000001
 44
0.0000000001
 40
0.0
 40
0.0
 40
0.0
 40
0.0
 40
0.1913486291
 40
0.3749453632
 40
0.4617569196
 40
0.5441815367
 40
0.6214649102
 40
0.6929017537
 40
0.7578539179
 40
0.8157611903
 40
0.8419190892
 40
0.8661456044
 40
0.888397902
 40
0.9086391813
 40
0.9268463574
 40
0.9430050792
 40
0.9571171919
 40
0.96920859
 40
0.9793393833
 40
0.9876370802
 40
0.9911752685
 40
0.9943658015
 40
0.9972773668
 40
1.0
 40
1.0
 40
1.0
 40
1.0
 10
4.9435327941
 20
3.8940608923
 30
0.0
 10
4.953447954
 20
3.8929913813
 30
0.0
 10
4.9728980095
 20
3.8910890493
 30
0.0
 10
4.9968960662
 20
3.8892550564
 30
0.0
 10
5.0152549401
 20
3.8881967106
 30
0.0
 10
5.0280910487
 20
3.8876321769
 30
0.0
 10
5.0401333969
 20
3.8872870489
 30
0.0
 10
5.0512695728
 20
3.8871647254
 30
0.0
 10
5.0613961703
 20
3.8872660146
 30
0.0
 10
5.0691589938
 20
3.8875423712
 30
0.0
 10
5.0747926257
 20
3.8878878067
 30
0.0
 10
5.0785662936
 20
3.8881924166
 30
0.0
 10
5.0820254888
 20
3.8885502345
 30
0.0
 10
5.085162842
 20
3.8889603997
 30
0.0
 10
5.0879718841
 20
3.8894213848
 30
0.0
 10
5.0904472753
 20
3.8899318248
 30
0.0
 10
5.0925845889
 20
3.8904901024
 30
0.0
 10
5.0943816148
 20
3.8910944015
 30
0.0
 10
5.0958366083
 20
3.8917434794
 30
0.0
 10
5.096814568
 20
3.892351795
 30
0.0
 10
5.0974031158
 20
3.8928712073
 30
0.0
 10
5.0977333537
 20
3.8932523239
 30
0.0
 10
5.0979754841
 20
3.8936460263
 30
0.0
 10
5.0980791821
 20
3.8939233457
 30
0.0
 10
5.0981141503
 20
3.8940608673
 30
0.0
  0
SPLINE
  5
494
100
AcDbEntity
  8
ALL_ASSEMBLY_MEMBERS
100
AcDbSpline
 62
7
  6
CONTINUOUS
 70
0
 71
3
 72
9
 73
5
 74
0
 42
0.0000001
 43
0.0000001
 44
0.0000000001
 40
0.0
 40
0.0
 40
0.0
 40
0.0
 40
0.4987965035
 40
1.0
 40
1.0
 40
1.0
 40
1.0
 10
4.9743056854
 20
4.0729276653
 30
0.0
 10
4.9691293844
 20
4.0656370782
 30
0.0
 10
4.9579903833
 20
4.0515511768
 30
0.0
 10
4.9456282312
 20
4.0385365993
 30
0.0
 10
4.939173913
 20
4.0322866415
 30
0.0
  0
SPLINE
  5
495
100
AcDbEntity
  8
ALL_ASSEMBLY_MEMBERS
100
AcDbSpline
 62
7
  6
CONTINUOUS
 70
0
 71
3
 72
73
 73
69
 74
0
 42
0.0000001
 43
0.0000001
 44
0.0000000001
 40
0.0
 40
0.0
 40
0.0
 40
0.0
 40
0.0557768174
 40
0.1136102961
 40
0.1730466355
 40
0.2032501909
 40
0.2337257667
 40
0.2644403471
 40
0.295364599
 40
0.326472121
 40
0.3577383928
 40
0.3734234563
 40
0.3891386298
 40
0.4048797076
 40
0.4206407563
 40
0.4285259087
 40
0.4364116009
 40
0.4442945728
 40
0.4521691448
 40
0.45610025
 40
0.4600242227
 40
0.4639375148
 40
0.4678333156
 40
0.469770688
 40
0.471698808
 40
0.4736152906
 40
0.4755078931
 40
0.4773615668
 40
0.478272101
 40
0.4791732489
 40
0.4800567898
 40
0.4808904066
 40
0.4816634818
 40
0.4824101674
 40
0.4831666447
 40
0.4839499895
 40
0.4847782288
 40
0.4856588588
 40
0.4865742714
 40
0.4874993292
 40
0.4893670574
 40
0.4912673267
 40
0.4931952982
 40
0.4951370429
 40
0.4970875315
 40
0.5010110233
 40
0.5049541119
 40
0.5089103787
 40
0.5128761425
 40
0.520827765
 40
0.5287983065
 40
0.5367824098
 40
0.5447770546
 40
0.5607911867
 40
0.5768320718
 40
0.5928953677
 40
0.6089785653
 40
0.6250800806
 40
0.6411988527
 40
0.6734852742
 40
0.7058345504
 40
0.738245515
 40
0.7707186074
 40
0.8032555471
 40
0.835859116
 40
0.8685329177
 40
0.9341022127
 40
1.0
 40
1.0
 40
1.0
 40
1.0
 10
5.0942440861
 20
4.0729276654
 30
0.0
 10
5.093217356
 20
4.0793107668
 30
0.0
 10
5.0908601777
 20
4.0922699207
 30
0.0
 10
5.0867231263
 20
4.1118981636
 30
0.0
 10
5.0828581011
 20
4.1285503238
 30
0.0
 10
5.0795489972
 20
4.1420741519
 30
0.0
 10
5.0769553876
 20
4.152345395
 30
0.0
 10
5.074269866
 20
4.1626793021
 30
0.0
 10
5.0714962183
 20
4.173065744
 30
0.0
 10
5.0686358395
 20
4.1834949578
 30
0.0
 10
5.0661814576
 20
4.1922036812
 30
0.0
 10
5.0641703179
 20
4.1991834732
 30
0.0
 10
5.0626350933
 20
4.2044275911
 30
0.0
 10
5.0610721857
 20
4.2096727187
 30
0.0
 10
5.0597434664
 20
4.2140405461
 30
0.0
 10
5.0586599003
 20
4.2175311349
 30
0.0
 10
5.0578348845
 20
4.2201458153
 30
0.0
 10
5.056994659
 20
4.2227543638
 30
0.0
 10
5.0562772097
 20
4.2249208367
 30
0.0
 10
5.0556876907
 20
4.2266461556
 30
0.0
 10
5.0552358766
 20
4.2279332648
 30
0.0
 10
5.0547709129
 20
4.2292113416
 30
0.0
 10
5.0543673027
 20
4.2302666021
 30
0.0
 10
5.0540300219
 20
4.2311006412
 30
0.0
 10
5.053767746
 20
4.2317174224
 30
0.0
 10
5.0534940911
 20
4.2323236223
 30
0.0
 10
5.0532034729
 20
4.2329122824
 30
0.0
 10
5.0529415073
 20
4.233384766
 30
0.0
 10
5.0527109352
 20
4.2337418439
 30
0.0
 10
5.0525265642
 20
4.2339942598
 30
0.0
 10
5.0523300277
 20
4.2342261383
 30
0.0
 10
5.0521144078
 20
4.2344200827
 30
0.0
 10
5.0518705674
 20
4.2345519159
 30
0.0
 10
5.0516041248
 20
4.2345898193
 30
0.0
 10
5.0513391809
 20
4.2345437241
 30
0.0
 10
5.0510903979
 20
4.2344197064
 30
0.0
 10
5.0508696609
 20
4.2342304148
 30
0.0
 10
5.0506707187
 20
4.2339995089
 30
0.0
 10
5.0504871255
 20
4.2337427853
 30
0.0
 10
5.0502521592
 20
4.2333827815
 30
0.0
 10
5.049980722
 20
4.2329108754
 30
0.0
 10
5.049680822
 20
4.2323225236
 30
0.0
 10
5.0493973148
 20
4.231716688
 30
0.0
 10
5.0491243453
 20
4.2310997196
 30
0.0
 10
5.0487707394
 20
4.2302656204
 30
0.0
 10
5.0483453539
 20
4.2292101338
 30
0.0
 10
5.04785083
 20
4.2279320514
 30
0.0
 10
5.0473662784
 20
4.226644925
 30
0.0
 10
5.0467285542
 20
4.2249190391
 30
0.0
 10
5.0459428727
 20
4.2227518135
 30
0.0
 10
5.0450082068
 20
4.2201432036
 30
0.0
 10
5.0440758377
 20
4.2175284765
 30
0.0
 10
5.0428309642
 20
4.2140353424
 30
0.0
 10
5.0412679764
 20
4.2096641734
 30
0.0
 10
5.0393722492
 20
4.2044187688
 30
0.0
 10
5.037450362
 20
4.1991743579
 30
0.0
 10
5.0354987654
 20
4.1939334246
 30
0.0
 10
5.0335147599
 20
4.1886977877
 30
0.0
 10
5.0308217981
 20
4.1817224976
 30
0.0
 10
5.0273636002
 20
4.1730240542
 30
0.0
 10
5.0230532381
 20
4.16263339
 30
0.0
 10
5.018565268
 20
4.1522944932
 30
0.0
 10
5.0138844492
 20
4.1420174381
 30
0.0
 10
5.0089950999
 20
4.1318130665
 30
0.0
 10
5.0038809883
 20
4.1216931554
 30
0.0
 10
4.9967325087
 20
4.1083156141
 30
0.0
 10
4.9871465597
 20
4.0918710739
 30
0.0
 10
4.9787277176
 20
4.0791557453
 30
0.0
 10
4.9743056854
 20
4.0729276653
 30
0.0
  0
SPLINE
  5
496
100
AcDbEntity
  8
ALL_ASSEMBLY_MEMBERS
100
AcDbSpline
 62
7
  6
CONTINUOUS
 70
0
 71
3
 72
30
 73
26
 74
0
 42
0.0000001
 43
0.0000001
 44
0.0000000001
 40
0.0
 40
0.0
 40
0.0
 40
0.0
 40
0.0290951522
 40
0.0590591641
 40
0.0895424764
 40
0.1202726181
 40
0.151172449
 40
0.1822073828
 40
0.2133490216
 40
0.2445752494
 40
0.3071971683
 40
0.3385795983
 40
0.3699928208
 40
0.4014295292
 40
0.4328842497
 40
0.4643535131
 40
0.4958345325
 40
0.5588091265
 40
0.6218086472
 40
0.6848232743
 40
0.747848343
 40
0.8108790787
 40
0.8739088128
 40
0.9369491988
 40
1.0
 40
1.0
 40
1.0
 40
1.0
 10
5.0004335341
 20
4.2465883409
 30
0.0
 10
4.9996545198
 20
4.2435140925
 30
0.0
 10
4.9980553373
 20
4.2372782269
 30
0.0
 10
4.9954851076
 20
4.2278618305
 30
0.0
 10
4.9926283067
 20
4.218341163
 30
0.0
 10
4.9894108296
 20
4.2088278827
 30
0.0
 10
4.9858346042
 20
4.1993791955
 30
0.0
 10
4.9818914191
 20
4.1900287457
 30
0.0
 10
4.9775715067
 20
4.1808064965
 30
0.0
 10
4.9713060861
 20
4.1687056315
 30
0.0
 10
4.9642966135
 20
4.1569708257
 30
0.0
 10
4.9565606117
 20
4.145695763
 30
0.0
 10
4.9503968942
 20
4.1374751887
 30
0.0
 10
4.9438852682
 20
4.1295173607
 30
0.0
 10
4.9370346796
 20
4.1218411408
 30
0.0
 10
4.9298577354
 20
4.1144621514
 30
0.0
 10
4.9198712431
 20
4.1050404501
 30
0.0
 10
4.9066319936
 20
4.0940819604
 30
0.0
 10
4.8896650798
 20
4.0823547097
 30
0.0
 10
4.87173745
 20
4.0721434367
 30
0.0
 10
4.8529867923
 20
4.0635285132
 30
0.0
 10
4.8335555137
 20
4.0565788087
 30
0.0
 10
4.8135905265
 20
4.0513483255
 30
0.0
 10
4.7932448895
 20
4.0478781477
 30
0.0
 10
4.7795257663
 20
4.0467578394
 30
0.0
 10
4.7726580787
 20
4.0464972641
 30
0.0
  0
SPLINE
  5
497
100
AcDbEntity
  8
ALL_ASSEMBLY_MEMBERS
100
AcDbSpline
 62
7
  6
CONTINUOUS
 70
0
 71
3
 72
51
 73
47
 74
0
 42
0.0000001
 43
0.0000001
 44
0.0000000001
 40
0.0
 40
0.0
 40
0.0
 40
0.0
 40
0.0000116017
 40
0.0000371818
 40
0.0000783482
 40
0.0001354072
 40
0.0002975678
 40
0.0005240389
 40
0.0008149415
 40
0.0011703377
 40
0.0015902663
 40
0.0020747307
 40
0.0032368646
 40
0.0046558079
 40
0.0063305812
 40
0.0082601945
 40
0.0104436519
 40
0.0128799544
 40
0.0155681008
 40
0.0185070884
 40
0.0251319519
 40
0.0327391991
 40
0.0413122296
 40
0.0508344399
 40
0.0612884743
 40
0.0726519104
 40
0.0849002284
 40
0.0980089009
 40
0.1267041776
 40
0.1585004555
 40
0.193142005
 40
0.2303453148
 40
0.2698092551
 40
0.3112124869
 40
0.3542177028
 40
0.3984759926
 40
0.4436268099
 40
0.5351350981
 40
0.6257691292
 40
0.7125833316
 40
0.7927553799
 40
0.8636791613
 40
0.9230635649
 40
0.9689970269
 40
0.9864388866
 40
1.0
 40
1.0
 40
1.0
 40
1.0
 10
5.1707165644
 20
4.201019461
 30
0.0
 10
5.170717763
 20
4.2010194616
 30
0.0
 10
5.1707202299
 20
4.2010153482
 30
0.0
 10
5.1707221371
 20
4.2010081531
 30
0.0
 10
5.1707247523
 20
4.200995271
 30
0.0
 10
5.1707283651
 20
4.2009688117
 30
0.0
 10
5.1707327397
 20
4.2009228133
 30
0.0
 10
5.1707375708
 20
4.2008528475
 30
0.0
 10
5.1707424529
 20
4.2007627837
 30
0.0
 10
5.1707473214
 20
4.2006527493
 30
0.0
 10
5.1707521737
 20
4.2005226875
 30
0.0
 10
5.1707590253
 20
4.2003093068
 30
0.0
 10
5.1707672466
 20
4.1999927111
 30
0.0
 10
5.1707765222
 20
4.1995531394
 30
0.0
 10
5.1707856647
 20
4.1990342622
 30
0.0
 10
5.1707946676
 20
4.1984363914
 30
0.0
 10
5.170803518
 20
4.1977598376
 30
0.0
 10
5.1708122108
 20
4.1970049126
 30
0.0
 10
5.1708207427
 20
4.196171928
 30
0.0
 10
5.1708323675
 20
4.1949062357
 30
0.0
 10
5.1708462373
 20
4.1931323547
 30
0.0
 10
5.1708616679
 20
4.1907764212
 30
0.0
 10
5.1708764566
 20
4.1881211556
 30
0.0
 10
5.1708906006
 20
4.1851717831
 30
0.0
 10
5.1709040911
 20
4.18193413
 30
0.0
 10
5.1709169359
 20
4.17841484
 30
0.0
 10
5.170929143
 20
4.1746212973
 30
0.0
 10
5.170945058
 20
4.169037217
 30
0.0
 10
5.1709630588
 20
4.1614336487
 30
0.0
 10
5.1709816977
 20
4.15160553
 30
0.0
 10
5.1709979996
 20
4.1408984471
 30
0.0
 10
5.1710120313
 20
4.1293992194
 30
0.0
 10
5.171023857
 20
4.1172014441
 30
0.0
 10
5.1710335282
 20
4.1044042758
 30
0.0
 10
5.1710410867
 20
4.091111805
 30
0.0
 10
5.1710465715
 20
4.0774321727
 30
0.0
 10
5.171051181
 20
4.0587417206
 30
0.0
 10
5.1710518557
 20
4.0352602215
 30
0.0
 10
5.1710448413
 20
4.0074745073
 30
0.0
 10
5.1710299371
 20
3.9808599354
 30
0.0
 10
5.1710069016
 20
3.9562816227
 30
0.0
 10
5.1709757052
 20
3.9345370736
 30
0.0
 10
5.1709356916
 20
3.9163297133
 30
0.0
 10
5.1708931092
 20
3.9036475512
 30
0.0
 10
5.1708504792
 20
3.8956994135
 30
0.0
 10
5.1708269204
 20
3.8924965984
 30
0.0
 10
5.1708136313
 20
3.8910956721
 30
0.0
  0
SPLINE
  5
498
100
AcDbEntity
  8
ALL_ASSEMBLY_MEMBERS
100
AcDbSpline
 62
7
  6
CONTINUOUS
 70
0
 71
3
 72
9
 73
5
 74
0
 42
0.0000001
 43
0.0000001
 44
0.0000000001
 40
0.0
 40
0.0
 40
0.0
 40
0.0
 40
0.498186705
 40
1.0
 40
1.0
 40
1.0
 40
1.0
 10
5.1419215084
 20
4.2465883382
 30
0.0
 10
5.139047686
 20
4.2525799795
 30
0.0
 10
5.1331333007
 20
4.2645370947
 30
0.0
 10
5.1270220697
 20
4.276393942
 30
0.0
 10
5.123923913
 20
4.2823273474
 30
0.0
  0
SPLINE
  5
499
100
AcDbEntity
  8
ALL_ASSEMBLY_MEMBERS
100
AcDbSpline
 62
7
  6
CONTINUOUS
 70
0
 71
3
 72
51
 73
47
 74
0
 42
0.0000001
 43
0.0000001
 44
0.0000000001
 40
0.0
 40
0.0
 40
0.0
 40
0.0
 40
0.0135598146
 40
0.0309993635
 40
0.0769259701
 40
0.1362999771
 40
0.2072106857
 40
0.2873678537
 40
0.374173121
 40
0.4648064416
 40
0.5563187429
 40
0.6014726333
 40
0.6457339572
 40
0.6887422669
 40
0.730149387
 40
0.7696159941
 40
0.8068246862
 40
0.8414684481
 40
0.8732704885
 40
0.9019673881
 40
0.9150789209
 40
0.9273304005
 40
0.9386952888
 40
0.9491495452
 40
0.9586740113
 40
0.9672500951
 40
0.974859207
 40
0.9814839076
 40
0.9844233315
 40
0.9871124822
 40
0.9895501193
 40
0.9917350037
 40
0.9936658985
 40
0.99534157
 40
0.9967607918
 40
0.9979226707
 40
0.9984070502
 40
0.9988270496
 40
0.9991826705
 40
0.9994739251
 40
0.9997008486
 40
0.9998635347
 40
0.9999208745
 40
0.9999623273
 40
0.999988189
 40
1.0
 40
1.0
 40
1.0
 40
1.0
 10
5.1835341951
 20
3.8910956721
 30
0.0
 10
5.1835209045
 20
3.8924964639
 30
0.0
 10
5.1834973483
 20
3.8956989054
 30
0.0
 10
5.1834547302
 20
3.9036459602
 30
0.0
 10
5.1834121197
 20
3.9163260983
 30
0.0
 10
5.1833721793
 20
3.9345303218
 30
0.0
 10
5.1833409213
 20
3.9562709039
 30
0.0
 10
5.1833178936
 20
3.9808454002
 30
0.0
 10
5.1833029819
 20
4.0074574323
 30
0.0
 10
5.1832959584
 20
4.0352425582
 30
0.0
 10
5.1832966164
 20
4.0587247107
 30
0.0
 10
5.183301221
 20
4.0774162041
 30
0.0
 10
5.1833067052
 20
4.0910967839
 30
0.0
 10
5.1833142578
 20
4.1043902864
 30
0.0
 10
5.1833239243
 20
4.1171884486
 30
0.0
 10
5.1833357493
 20
4.1293874544
 30
0.0
 10
5.183349786
 20
4.1408877395
 30
0.0
 10
5.1833660907
 20
4.1515962
 30
0.0
 10
5.1833847211
 20
4.1614253079
 30
0.0
 10
5.1834027264
 20
4.1690299331
 30
0.0
 10
5.1834186448
 20
4.1746148018
 30
0.0
 10
5.1834308547
 20
4.1784091158
 30
0.0
 10
5.1834437032
 20
4.1819289046
 30
0.0
 10
5.1834571984
 20
4.1851669629
 30
0.0
 10
5.1834713394
 20
4.1881169062
 30
0.0
 10
5.1834861236
 20
4.1907729124
 30
0.0
 10
5.1835015501
 20
4.1931293366
 30
0.0
 10
5.1835154264
 20
4.194903438
 30
0.0
 10
5.1835270532
 20
4.196169262
 30
0.0
 10
5.1835355863
 20
4.1970025332
 30
0.0
 10
5.1835442804
 20
4.1977578471
 30
0.0
 10
5.1835531319
 20
4.1984348184
 30
0.0
 10
5.183562136
 20
4.1990330617
 30
0.0
 10
5.1835712793
 20
4.1995521928
 30
0.0
 10
5.1835805562
 20
4.1999918596
 30
0.0
 10
5.1835887816
 20
4.2003084488
 30
0.0
 10
5.1835956351
 20
4.2005218016
 30
0.0
 10
5.1836004876
 20
4.200651885
 30
0.0
 10
5.1836053569
 20
4.2007619865
 30
0.0
 10
5.1836102369
 20
4.2008521564
 30
0.0
 10
5.1836150732
 20
4.2009222607
 30
0.0
 10
5.1836194366
 20
4.2009683882
 30
0.0
 10
5.1836230626
 20
4.200994963
 30
0.0
 10
5.1836256541
 20
4.2010079328
 30
0.0
 10
5.1836276087
 20
4.20101521
 30
0.0
 10
5.1836300192
 20
4.2010193853
 30
0.0
 10
5.1836312386
 20
4.2010194285
 30
0.0
  0
SPLINE
  5
49A
100
AcDbEntity
  8
ALL_ASSEMBLY_MEMBERS
100
AcDbSpline
 62
7
  6
CONTINUOUS
 70
0
 71
3
 72
9
 73
5
 74
0
 42
0.0000001
 43
0.0000001
 44
0.0000000001
 40
0.0
 40
0.0
 40
0.0
 40
0.0
 40
0.5018132915
 40
1.0
 40
1.0
 40
1.0
 40
1.0
 10
5.230423913
 20
4.2823273474
 30
0.0
 10
5.227325756
 20
4.2763939426
 30
0.0
 10
5.2212145305
 20
4.2645370933
 30
0.0
 10
5.215300134
 20
4.2525799842
 30
0.0
 10
5.212426316
 20
4.2465883409
 30
0.0
  0
SPLINE
  5
49B
100
AcDbEntity
  8
ALL_ASSEMBLY_MEMBERS
100
AcDbSpline
 62
7
  6
CONTINUOUS
 70
0
 71
3
 72
8
 73
4
 74
0
 42
0.0000001
 43
0.0000001
 44
0.0000000001
 40
0.0
 40
0.0
 40
0.0
 40
0.0
 40
1.0
 40
1.0
 40
1.0
 40
1.0
 10
5.5938311705
 20
4.0463490301
 30
0.0
 10
5.5938272482
 20
4.0463489827
 30
0.0
 10
5.5938233936
 20
4.0463474371
 30
0.0
 10
5.5938198938
 20
4.0463456656
 30
0.0
  0
SPLINE
  5
49C
100
AcDbEntity
  8
ALL_ASSEMBLY_MEMBERS
100
AcDbSpline
 62
7
  6
CONTINUOUS
 70
0
 71
3
 72
15
 73
11
 74
0
 42
0.0000001
 43
0.0000001
 44
0.0000000001
 40
0.0
 40
0.0
 40
0.0
 40
0.0
 40
0.1271331659
 40
0.2540324556
 40
0.380533503
 40
0.506306715
 40
0.6311908582
 40
0.7551486114
 40
0.8781147265
 40
1.0
 40
1.0
 40
1.0
 40
1.0
 10
5.212426316
 20
4.2465883409
 30
0.0
 10
5.2114903661
 20
4.2446460882
 30
0.0
 10
5.209749372
 20
4.2407019947
 30
0.0
 10
5.2074694753
 20
4.2346623337
 30
0.0
 10
5.2054595715
 20
4.2285527168
 30
0.0
 10
5.2036483926
 20
4.2224176483
 30
0.0
 10
5.2020037531
 20
4.2162806415
 30
0.0
 10
5.2005077652
 20
4.2101548713
 30
0.0
 10
5.199137317
 20
4.2040520809
 30
0.0
 10
5.1982898205
 20
4.1999869706
 30
0.0
 10
5.1978825678
 20
4.1979604815
 30
0.0
  0
SPLINE
  5
49D
100
AcDbEntity
  8
ALL_ASSEMBLY_MEMBERS
100
AcDbSpline
 62
7
  6
CONTINUOUS
 70
0
 71
3
 72
25
 73
21
 74
0
 42
0.0000001
 43
0.0000001
 44
0.0000000001
 40
0.0
 40
0.0
 40
0.0
 40
0.0
 40
0.0013788067
 40
0.0033811267
 40
0.0093368494
 40
0.017916065
 40
0.0290959125
 40
0.0428110016
 40
0.0589580683
 40
0.0774299138
 40
0.0981183025
 40
0.1456992579
 40
0.2007744014
 40
0.2624055565
 40
0.3297474206
 40
0.4020597994
 40
0.4786214998
 40
0.6423183439
 40
0.8170807358
 40
1.0
 40
1.0
 40
1.0
 40
1.0
 10
5.6133730399
 20
4.0637513079
 30
0.0
 10
5.6133717302
 20
4.0637403939
 30
0.0
 10
5.6133741563
 20
4.0637131712
 30
0.0
 10
5.6133909989
 20
4.063640729
 30
0.0
 10
5.6134366967
 20
4.0635165729
 30
0.0
 10
5.6135179414
 20
4.0633284756
 30
0.0
 10
5.6136326747
 20
4.0630874146
 30
0.0
 10
5.6137797095
 20
4.0627951237
 30
0.0
 10
5.6139583566
 20
4.0624536803
 30
0.0
 10
5.6141674103
 20
4.0620654569
 30
0.0
 10
5.6145011093
 20
4.0614597604
 30
0.0
 10
5.6149861427
 20
4.0606043259
 30
0.0
 10
5.6156453988
 20
4.0594725666
 30
0.0
 10
5.6163964991
 20
4.0582120713
 30
0.0
 10
5.6172301039
 20
4.0568408482
 30
0.0
 10
5.618137502
 20
4.0553752516
 30
0.0
 10
5.619465979
 20
4.0532669645
 30
0.0
 10
5.6212618146
 20
4.050487904
 30
0.0
 10
5.623567225
 20
4.0470291049
 30
0.0
 10
5.6251784885
 20
4.0446763202
 30
0.0
 10
5.6260089841
 20
4.0434776201
 30
0.0
  0
SPLINE
  5
49E
100
AcDbEntity
  8
ALL_ASSEMBLY_MEMBERS
100
AcDbSpline
 62
7
  6
CONTINUOUS
 70
0
 71
3
 72
47
 73
43
 74
0
 42
0.0000001
 43
0.0000001
 44
0.0000000001
 40
0.0
 40
0.0
 40
0.0
 40
0.0
 40
0.0000164756
 40
0.0000232576
 40
0.0000416486
 40
0.0000755365
 40
0.0001252927
 40
0.0001910136
 40
0.0003704635
 40
0.0009215397
 40
0.0017286501
 40
0.0022280804
 40
0.0027913433
 40
0.0034183739
 40
0.0041091061
 40
0.0056814071
 40
0.0075077064
 40
0.011920044
 40
0.0173382275
 40
0.0237494842
 40
0.0311406647
 40
0.0394986156
 40
0.0488085833
 40
0.0590503238
 40
0.0702024141
 40
0.0951513961
 40
0.1234589944
 40
0.1548946992
 40
0.1892099901
 40
0.2261242506
 40
0.2653437019
 40
0.3065462452
 40
0.3494003575
 40
0.4386543961
 40
0.5302055975
 40
0.6210722064
 40
0.7082952373
 40
0.7890375943
 40
0.8606795904
 40
0.9209256965
 40
0.9678603258
 40
1.0
 40
1.0
 40
1.0
 40
1.0
 10
5.1371139009
 20
4.1758448336
 30
0.0
 10
5.1371143011
 20
4.175846204
 30
0.0
 10
5.1371144488
 20
4.1758492408
 30
0.0
 10
5.137118778
 20
4.1758483866
 30
0.0
 10
5.1371191008
 20
4.1758422316
 30
0.0
 10
5.1371214031
 20
4.1758342886
 30
0.0
 10
5.1371227106
 20
4.1758210907
 30
0.0
 10
5.1371253836
 20
4.1757958503
 30
0.0
 10
5.1371298924
 20
4.1757268063
 30
0.0
 10
5.1371356658
 20
4.1755938543
 30
0.0
 10
5.1371404918
 20
4.1754328958
 30
0.0
 10
5.1371445583
 20
4.1752709457
 30
0.0
 10
5.1371477825
 20
4.1751245665
 30
0.0
 10
5.1371509881
 20
4.1749616121
 30
0.0
 10
5.1371554219
 20
4.1747112329
 30
0.0
 10
5.1371608117
 20
4.1743569415
 30
0.0
 10
5.1371695473
 20
4.1736801961
 30
0.0
 10
5.1371798396
 20
4.1726702081
 30
0.0
 10
5.1371912203
 20
4.1712629379
 30
0.0
 10
5.137202212
 20
4.1695975474
 30
0.0
 10
5.1372128057
 20
4.1676774255
 30
0.0
 10
5.1372229814
 20
4.165506131
 30
0.0
 10
5.137232731
 20
4.1630878375
 30
0.0
 10
5.137242057
 20
4.1604274343
 30
0.0
 10
5.1372543901
 20
4.1564119462
 30
0.0
 10
5.1372684242
 20
4.150831088
 30
0.0
 10
5.1372830935
 20
4.1434926945
 30
0.0
 10
5.1372961695
 20
4.1353427261
 30
0.0
 10
5.137307679
 20
4.1264470055
 30
0.0
 10
5.1373176516
 20
4.1168768375
 30
0.0
 10
5.1373261142
 20
4.1067099019
 30
0.0
 10
5.1373331025
 20
4.0960282895
 30
0.0
 10
5.1373405934
 20
4.0810112853
 30
0.0
 10
5.137346193
 20
4.0616316747
 30
0.0
 10
5.1373473891
 20
4.0380918819
 30
0.0
 10
5.1373431928
 20
4.0147280718
 30
0.0
 10
5.137333502
 20
3.9923008271
 30
0.0
 10
5.1373183645
 20
3.9715393575
 30
0.0
 10
5.1372972025
 20
3.953115389
 30
0.0
 10
5.1372706517
 20
3.9376207956
 30
0.0
 10
5.1372383225
 20
3.9255490224
 30
0.0
 10
5.1372084953
 20
3.9186974497
 30
0.0
 10
5.1371887408
 20
3.9159126848
 30
0.0
  0
SPLINE
  5
49F
100
AcDbEntity
  8
ALL_ASSEMBLY_MEMBERS
100
AcDbSpline
 62
7
  6
CONTINUOUS
 70
0
 71
3
 72
33
 73
29
 74
0
 42
0.0000001
 43
0.0000001
 44
0.0000000001
 40
0.0
 40
0.0
 40
0.0
 40
0.0
 40
0.0971286949
 40
0.1933420322
 40
0.2876738302
 40
0.3792354545
 40
0.4671370776
 40
0.5505322938
 40
0.6286164481
 40
0.7006391397
 40
0.7659152619
 40
0.823834327
 40
0.8498694827
 40
0.8738783062
 40
0.8958120307
 40
0.9156298475
 40
0.9333013139
 40
0.9488070398
 40
0.962145569
 40
0.9733387171
 40
0.978150965
 40
0.9824577989
 40
0.9862811205
 40
0.9896534075
 40
0.9926237063
 40
0.9952646761
 40
0.9976790547
 40
1.0
 40
1.0
 40
1.0
 40
1.0
 10
5.4168597993
 20
3.8213332691
 30
0.0
 10
5.4092578475
 20
3.8206010468
 30
0.0
 10
5.3941186344
 20
3.8192146468
 30
0.0
 10
5.3715745184
 20
3.817365291
 30
0.0
 10
5.3494499794
 20
3.8157676104
 30
0.0
 10
5.3279625104
 20
3.8144368682
 30
0.0
 10
5.3073204992
 20
3.8133857719
 30
0.0
 10
5.2877261822
 20
3.8126241519
 30
0.0
 10
5.2693714115
 20
3.8121589571
 30
0.0
 10
5.2524360238
 20
3.8119938178
 30
0.0
 10
5.237085876
 20
3.8121295142
 30
0.0
 10
5.2253563652
 20
3.8125014944
 30
0.0
 10
5.2168797946
 20
3.8129677495
 30
0.0
 10
5.2112348282
 20
3.8133784184
 30
0.0
 10
5.2060862907
 20
3.8138611106
 30
0.0
 10
5.2014461804
 20
3.814414446
 30
0.0
 10
5.197325134
 20
3.8150365846
 30
0.0
 10
5.1937317453
 20
3.8157254806
 30
0.0
 10
5.1906735559
 20
3.816478888
 30
0.0
 10
5.188474634
 20
3.8171891631
 30
0.0
 10
5.186999615
 20
3.8178040132
 30
0.0
 10
5.1860874388
 20
3.8182572342
 30
0.0
 10
5.1853124277
 20
3.8187259419
 30
0.0
 10
5.1846745365
 20
3.8192107966
 30
0.0
 10
5.1841738051
 20
3.8197129613
 30
0.0
 10
5.1838112257
 20
3.8202345495
 30
0.0
 10
5.1835905903
 20
3.8207767273
 30
0.0
 10
5.1835418614
 20
3.8211508476
 30
0.0
 10
5.1835418251
 20
3.8213333413
 30
0.0
  0
LINE
  5
4A0
100
AcDbEntity
  8
ALL_ASSEMBLY_MEMBERS
100
AcDbLine
 62
7
  6
CONTINUOUS
 10
5.8094607822
 20
3.8910956721
 11
5.8068627306
 21
3.8904180138
  0
SPLINE
  5
4A1
100
AcDbEntity
  8
ALL_ASSEMBLY_MEMBERS
100
AcDbSpline
 62
7
  6
CONTINUOUS
 70
0
 71
3
 72
29
 73
25
 74
0
 42
0.0000001
 43
0.0000001
 44
0.0000000001
 40
0.0
 40
0.0
 40
0.0
 40
0.0
 40
0.0310662299
 40
0.0622541212
 40
0.0934975312
 40
0.1247519012
 40
0.1560096362
 40
0.1872723528
 40
0.2497919869
 40
0.2810655889
 40
0.3123389864
 40
0.3748637863
 40
0.4373862039
 40
0.4999054001
 40
0.5624213215
 40
0.6249339119
 40
0.6874435403
 40
0.7187079009
 40
0.7499716748
 40
0.8124762394
 40
0.8749787209
 40
0.9062399335
 40
0.9375007822
 40
1.0
 40
1.0
 40
1.0
 40
1.0
 10
5.3489988311
 20
4.2412889986
 30
0.0
 10
5.3493756663
 20
4.2371771895
 30
0.0
 10
5.3503029839
 20
4.2289520281
 30
0.0
 10
5.3522473594
 20
4.2166739392
 30
0.0
 10
5.3547867856
 20
4.2044782677
 30
0.0
 10
5.3579637815
 20
4.1924230317
 30
0.0
 10
5.3617699234
 20
4.1805483521
 30
0.0
 10
5.3676638187
 20
4.1650033233
 30
0.0
 10
5.3747705096
 20
4.1499379103
 30
0.0
 10
5.3830219643
 20
4.1355008218
 30
0.0
 10
5.3920199746
 20
4.1215152281
 30
0.0
 10
5.4046191079
 20
4.104943194
 30
0.0
 10
5.4217166674
 20
4.0867401212
 30
0.0
 10
5.4406091763
 20
4.0704078268
 30
0.0
 10
5.4610893241
 20
4.0561191579
 30
0.0
 10
5.4829367337
 20
4.0440289877
 30
0.0
 10
5.5020935843
 20
4.0358931796
 30
0.0
 10
5.5178563939
 20
4.0306076933
 30
0.0
 10
5.5338723591
 20
4.0261498094
 30
0.0
 10
5.5542950257
 20
4.0221522373
 30
0.0
 10
5.5750232581
 20
4.0203093828
 30
0.0
 10
5.5916465292
 20
4.0201419198
 30
0.0
 10
5.6082536886
 20
4.020846455
 30
0.0
 10
5.6206541193
 20
4.0223559503
 30
0.0
 10
5.6288358214
 20
4.0237923147
 30
0.0
  0
SPLINE
  5
4A2
100
AcDbEntity
  8
ALL_ASSEMBLY_MEMBERS
100
AcDbSpline
 62
7
  6
CONTINUOUS
 70
0
 71
3
 72
20
 73
16
 74
0
 42
0.0000001
 43
0.0000001
 44
0.0000000001
 40
0.0
 40
0.0
 40
0.0
 40
0.0
 40
0.1731494324
 40
0.2567723894
 40
0.3376467049
 40
0.4154461257
 40
0.4900973449
 40
0.5612885539
 40
0.6285750231
 40
0.7503012214
 40
0.8539903384
 40
0.8985033136
 40
0.9377529732
 40
0.9715377919
 40
1.0
 40
1.0
 40
1.0
 40
1.0
 10
5.6288358214
 20
4.0237923147
 30
0.0
 10
5.6290231732
 20
4.0230231832
 30
0.0
 10
5.6291941317
 20
4.0218581827
 30
0.0
 10
5.6293768272
 20
4.0203261409
 30
0.0
 10
5.6295346645
 20
4.0192289873
 30
0.0
 10
5.6297630781
 20
4.0181861622
 30
0.0
 10
5.6300312029
 20
4.0171993018
 30
0.0
 10
5.6303061618
 20
4.0162645336
 30
0.0
 10
5.6306297991
 20
4.0151195758
 30
0.0
 10
5.6308999332
 20
4.0138067787
 30
0.0
 10
5.6310572472
 20
4.0125821653
 30
0.0
 10
5.6311422919
 20
4.0117294583
 30
0.0
 10
5.6312021197
 20
4.0111952201
 30
0.0
 10
5.6312789705
 20
4.0107374369
 30
0.0
 10
5.6313609628
 20
4.0104628535
 30
0.0
 10
5.6314138408
 20
4.0103439555
 30
0.0
  0
SPLINE
  5
4A3
100
AcDbEntity
  8
ALL_ASSEMBLY_MEMBERS
100
AcDbSpline
 62
7
  6
CONTINUOUS
 70
0
 71
3
 72
17
 73
13
 74
0
 42
0.0000001
 43
0.0000001
 44
0.0000000001
 40
0.0
 40
0.0
 40
0.0
 40
0.0
 40
0.124976319
 40
0.2499821115
 40
0.3124945466
 40
0.3750081665
 40
0.4375252782
 40
0.5000439987
 40
0.6250348906
 40
0.7500169833
 40
0.8750237678
 40
1.0
 40
1.0
 40
1.0
 40
1.0
 10
5.6314138408
 20
4.0103439555
 30
0.0
 10
5.622925754
 20
4.0087166361
 30
0.0
 10
5.6057565729
 20
4.0063855456
 30
0.0
 10
5.584109901
 20
4.0058121135
 30
0.0
 10
5.5668376659
 20
4.00675601
 30
0.0
 10
5.5539381673
 20
4.0081621649
 30
0.0
 10
5.5411326409
 20
4.0102608722
 30
0.0
 10
5.5242378961
 20
4.0139710885
 30
0.0
 10
5.5035294314
 20
4.0203044594
 30
0.0
 10
5.4796392181
 20
4.0305144133
 30
0.0
 10
5.4569778702
 20
4.0432153343
 30
0.0
 10
5.4428525999
 20
4.0532490178
 30
0.0
 10
5.4360837803
 20
4.0586229144
 30
0.0
  0
SPLINE
  5
4A4
100
AcDbEntity
  8
ALL_ASSEMBLY_MEMBERS
100
AcDbSpline
 62
7
  6
CONTINUOUS
 70
0
 71
3
 72
9
 73
5
 74
0
 42
0.0000001
 43
0.0000001
 44
0.0000000001
 40
0.0
 40
0.0
 40
0.0
 40
0.0
 40
0.2502898697
 40
1.0
 40
1.0
 40
1.0
 40
1.0
 10
5.4360837803
 20
4.0586229144
 30
0.0
 10
5.4326974018
 20
4.0613115487
 30
0.0
 10
5.4194270249
 20
4.0723743549
 30
0.0
 10
5.4072306387
 20
4.084741724
 30
0.0
 10
5.3989155855
 20
4.0946718522
 30
0.0
  0
LINE
  5
4A5
100
AcDbEntity
  8
ALL_ASSEMBLY_MEMBERS
100
AcDbLine
 62
7
  6
CONTINUOUS
 10
4.5474850948
 20
3.890418014
 11
4.5448870439
 21
3.8910956721
  0
SPLINE
  5
4A6
100
AcDbEntity
  8
ALL_ASSEMBLY_MEMBERS
100
AcDbSpline
 62
7
  6
CONTINUOUS
 70
0
 71
3
 72
39
 73
35
 74
0
 42
0.0000001
 43
0.0000001
 44
0.0000000001
 40
0.0
 40
0.0
 40
0.0
 40
0.0
 40
0.0312225384
 40
0.0624683615
 40
0.0937106496
 40
0.1249541617
 40
0.1562035442
 40
0.1874554081
 40
0.2187083943
 40
0.2499611277
 40
0.2812135782
 40
0.312465443
 40
0.3437168665
 40
0.3749682344
 40
0.4062195637
 40
0.4374713114
 40
0.4687228418
 40
0.4999747856
 40
0.5312262789
 40
0.5624781459
 40
0.5937295505
 40
0.6249813495
 40
0.656232787
 40
0.687484557
 40
0.7187360716
 40
0.7499877333
 40
0.7812392689
 40
0.8124907637
 40
0.8437423099
 40
0.8749937201
 40
0.9062453794
 40
0.9374968987
 40
0.9687486662
 40
1.0
 40
1.0
 40
1.0
 40
1.0
 10
5.7969348096
 20
3.9285633024
 30
0.0
 10
5.8007087754
 20
3.9295462498
 30
0.0
 10
5.8081687012
 20
3.9318826353
 30
0.0
 10
5.8189613145
 20
3.9364591498
 30
0.0
 10
5.8292561425
 20
3.9420744697
 30
0.0
 10
5.838951719
 20
3.9486710044
 30
0.0
 10
5.847953736
 20
3.9561884735
 30
0.0
 10
5.8561761631
 20
3.9645533243
 30
0.0
 10
5.8635335574
 20
3.9736888463
 30
0.0
 10
5.8699581123
 20
3.9835029865
 30
0.0
 10
5.8753805356
 20
3.9939042732
 30
0.0
 10
5.879753376
 20
4.0047884148
 30
0.0
 10
5.8830266962
 20
4.0160520411
 30
0.0
 10
5.8851744338
 20
4.0275832802
 30
0.0
 10
5.886168973
 20
4.0392706634
 30
0.0
 10
5.8860061971
 20
4.0509991447
 30
0.0
 10
5.8846825726
 20
4.06265395
 30
0.0
 10
5.8822155439
 20
4.0741212109
 30
0.0
 10
5.8786264971
 20
4.085288344
 30
0.0
 10
5.8739532368
 20
4.096046749
 30
0.0
 10
5.8682412027
 20
4.1062915923
 30
0.0
 10
5.8615468988
 20
4.1159231545
 30
0.0
 10
5.8539374548
 20
4.1248494331
 30
0.0
 10
5.8454859674
 20
4.1329827787
 30
0.0
 10
5.8362776935
 20
4.1402482616
 30
0.0
 10
5.8263998084
 20
4.146573141
 30
0.0
 10
5.8159511936
 20
4.1519025473
 30
0.0
 10
5.8050302433
 20
4.1561812111
 30
0.0
 10
5.7937445237
 20
4.1593757604
 30
0.0
 10
5.7822003712
 20
4.1614506488
 30
0.0
 10
5.7705093726
 20
4.1623939488
 30
0.0
 10
5.758781777
 20
4.1621915544
 30
0.0
 10
5.7471304417
 20
4.1608521072
 30
0.0
 10
5.7394839337
 20
4.1592062111
 30
0.0
 10
5.7357123571
 20
4.1582000903
 30
0.0
  0
SPLINE
  5
4A7
100
AcDbEntity
  8
ALL_ASSEMBLY_MEMBERS
100
AcDbSpline
 62
7
  6
CONTINUOUS
 70
0
 71
3
 72
38
 73
34
 74
0
 42
0.0000001
 43
0.0000001
 44
0.0000000001
 40
0.0
 40
0.0
 40
0.0
 40
0.0
 40
0.0312406445
 40
0.0625132882
 40
0.0937736366
 40
0.125026202
 40
0.1874614886
 40
0.2498958618
 40
0.2811512119
 40
0.3124064453
 40
0.3436614019
 40
0.3749160468
 40
0.4061704375
 40
0.4374246169
 40
0.4686788997
 40
0.4999328471
 40
0.5311866798
 40
0.562440316
 40
0.5936943076
 40
0.6249479
 40
0.6562014674
 40
0.6874548713
 40
0.7187087635
 40
0.7499621889
 40
0.781215644
 40
0.8124689851
 40
0.843722842
 40
0.8749761917
 40
0.906229606
 40
0.937482936
 40
0.953114734
 40
0.9687465105
 40
1.0
 40
1.0
 40
1.0
 40
1.0
 10
5.6348026901
 20
4.0434790993
 30
0.0
 10
5.6348030969
 20
4.0478782959
 30
0.0
 10
5.6352472781
 20
4.0566874107
 30
0.0
 10
5.6372262834
 20
4.069764228
 30
0.0
 10
5.6405118909
 20
4.0825798195
 30
0.0
 10
5.6465706331
 20
4.0991245494
 30
0.0
 10
5.6572043477
 20
4.1185448927
 30
0.0
 10
5.6714811535
 20
4.1354672213
 30
0.0
 10
5.6847163195
 20
4.1470964028
 30
0.0
 10
5.6954663615
 20
4.1548018335
 30
0.0
 10
5.7069270465
 20
4.1614013922
 30
0.0
 10
5.7189834089
 20
4.1668373705
 30
0.0
 10
5.731518992
 20
4.1710515955
 30
0.0
 10
5.7444092038
 20
4.1740082706
 30
0.0
 10
5.7575288972
 20
4.1756731231
 30
0.0
 10
5.7707488163
 20
4.1760346719
 30
0.0
 10
5.7839393925
 20
4.1750837536
 30
0.0
 10
5.7969713913
 20
4.1728336171
 30
0.0
 10
5.8097157182
 20
4.1693011188
 30
0.0
 10
5.8220476776
 20
4.1645241531
 30
0.0
 10
5.8338437938
 20
4.1585452211
 30
0.0
 10
5.8449885752
 20
4.1514254379
 30
0.0
 10
5.8553695443
 20
4.1432319113
 30
0.0
 10
5.8648847122
 20
4.1340471179
 30
0.0
 10
5.8734374396
 20
4.1239600378
 30
0.0
 10
5.8809431554
 20
4.1130713083
 30
0.0
 10
5.8873257682
 20
4.1014884674
 30
0.0
 10
5.8925214624
 20
4.0893266716
 30
0.0
 10
5.8964777668
 20
4.0767078512
 30
0.0
 10
5.8987088559
 20
4.065912912
 30
0.0
 10
5.8998397108
 20
4.0571791209
 30
0.0
 10
5.9005340206
 20
4.0484004889
 30
0.0
 10
5.9005590185
 20
4.0417837912
 30
0.0
 10
5.9003556211
 20
4.0373874884
 30
0.0
  0
SPLINE
  5
4A8
100
AcDbEntity
  8
ALL_ASSEMBLY_MEMBERS
100
AcDbSpline
 62
7
  6
CONTINUOUS
 70
0
 71
3
 72
31
 73
27
 74
0
 42
0.0000001
 43
0.0000001
 44
0.0000000001
 40
0.0
 40
0.0
 40
0.0
 40
0.0
 40
0.002291692
 40
0.0047368319
 40
0.0074542685
 40
0.0105313203
 40
0.0140282429
 40
0.0179852449
 40
0.0224292062
 40
0.0273784442
 40
0.0388368337
 40
0.0524187018
 40
0.068140589
 40
0.0860002184
 40
0.1059763461
 40
0.1280390344
 40
0.1521515143
 40
0.1782626964
 40
0.236255023
 40
0.3015078424
 40
0.3734205962
 40
0.4513166354
 40
0.5344593717
 40
0.6220574367
 40
0.8072711475
 40
1.0
 40
1.0
 40
1.0
 40
1.0
 10
5.2309049734
 20
3.8605748143
 30
0.0
 10
5.2309204308
 20
3.8604351374
 30
0.0
 10
5.2309912619
 20
3.8601495768
 30
0.0
 10
5.2312074487
 20
3.8597427191
 30
0.0
 10
5.2315308591
 20
3.8593509785
 30
0.0
 10
5.2319596298
 20
3.8589730546
 30
0.0
 10
5.2324935141
 20
3.8586075696
 30
0.0
 10
5.2331325975
 20
3.8582538643
 30
0.0
 10
5.2338769567
 20
3.8579116527
 30
0.0
 10
5.2350692202
 20
3.8574479924
 30
0.0
 10
5.2368307427
 20
3.8569116978
 30
0.0
 10
5.2392656119
 20
3.8563418971
 30
0.0
 10
5.2421113323
 20
3.855820717
 30
0.0
 10
5.2453622254
 20
3.855350027
 30
0.0
 10
5.2490117639
 20
3.8549312477
 30
0.0
 10
5.2530520726
 20
3.8545657924
 30
0.0
 10
5.257474108
 20
3.8542549593
 30
0.0
 10
5.2641009221
 20
3.8539020505
 30
0.0
 10
5.2732564601
 20
3.8536201998
 30
0.0
 10
5.2852240653
 20
3.8535173722
 30
0.0
 10
5.2984119534
 20
3.8536425722
 30
0.0
 10
5.3126929637
 20
3.8539949202
 30
0.0
 10
5.3279291914
 20
3.8545716278
 30
0.0
 10
5.349730414
 20
3.8556527663
 30
0.0
 10
5.3782184212
 20
3.8575268502
 30
0.0
 10
5.4013136237
 20
3.8594764798
 30
0.0
 10
5.4130808649
 20
3.8605748133
 30
0.0
  0
SPLINE
  5
4A9
100
AcDbEntity
  8
ALL_ASSEMBLY_MEMBERS
100
AcDbSpline
 62
7
  6
CONTINUOUS
 70
0
 71
3
 72
33
 73
29
 74
0
 42
0.0000001
 43
0.0000001
 44
0.0000000001
 40
0.0
 40
0.0
 40
0.0
 40
0.0
 40
0.0971335439
 40
0.1933532897
 40
0.2876935705
 40
0.3792657139
 40
0.467178795
 40
0.5505850647
 40
0.6286783002
 40
0.7007063975
 40
0.7659832726
 40
0.8238977681
 40
0.849928736
 40
0.8739322323
 40
0.8958596433
 40
0.9156703782
 40
0.933334305
 40
0.9488323798
 40
0.9621635107
 40
0.9733498795
 40
0.9781591403
 40
0.9824633585
 40
0.9862845118
 40
0.9896551458
 40
0.9926243375
 40
0.9952647187
 40
0.9976789427
 40
1.0
 40
1.0
 40
1.0
 40
1.0
 10
5.4144079221
 20
3.8467970351
 30
0.0
 10
5.4079808772
 20
3.8461780136
 30
0.0
 10
5.3951813897
 20
3.8450057767
 30
0.0
 10
5.3761212176
 20
3.8434419391
 30
0.0
 10
5.3574153815
 20
3.8420908068
 30
0.0
 10
5.3392477915
 20
3.8409652744
 30
0.0
 10
5.3217947774
 20
3.8400761892
 30
0.0
 10
5.3052275762
 20
3.8394319068
 30
0.0
 10
5.2897086868
 20
3.8390383473
 30
0.0
 10
5.2753904283
 20
3.8388986426
 30
0.0
 10
5.2624132449
 20
3.8390134155
 30
0.0
 10
5.2524976057
 20
3.8393281021
 30
0.0
 10
5.2453324299
 20
3.8397225346
 30
0.0
 10
5.2405612219
 20
3.8400699219
 30
0.0
 10
5.2362098982
 20
3.8404782206
 30
0.0
 10
5.2322885598
 20
3.8409462558
 30
0.0
 10
5.2288061443
 20
3.8414724633
 30
0.0
 10
5.225769854
 20
3.842055108
 30
0.0
 10
5.2231859993
 20
3.84269228
 30
0.0
 10
5.221328283
 20
3.8432929543
 30
0.0
 10
5.2200822485
 20
3.8438128987
 30
0.0
 10
5.2193117152
 20
3.8441961499
 30
0.0
 10
5.2186570711
 20
3.8445924866
 30
0.0
 10
5.2181182676
 20
3.8450024646
 30
0.0
 10
5.2176953314
 20
3.8454270643
 30
0.0
 10
5.2173891034
 20
3.8458680712
 30
0.0
 10
5.2172027861
 20
3.8463264637
 30
0.0
 10
5.2171616609
 20
3.8466427457
 30
0.0
 10
5.2171616456
 20
3.8467970341
 30
0.0
  0
LINE
  5
4AA
100
AcDbEntity
  8
ALL_ASSEMBLY_MEMBERS
100
AcDbLine
 62
7
  6
CONTINUOUS
 10
5.2308784585
 20
3.8610923657
 11
5.2309049726
 21
3.8605748142
  0
SPLINE
  5
4AB
100
AcDbEntity
  8
ALL_ASSEMBLY_MEMBERS
100
AcDbSpline
 62
7
  6
CONTINUOUS
 70
0
 71
3
 72
11
 73
7
 74
0
 42
0.0000001
 43
0.0000001
 44
0.0000000001
 40
0.0
 40
0.0
 40
0.0
 40
0.0
 40
0.2471664025
 40
0.496138461
 40
0.7471717606
 40
1.0
 40
1.0
 40
1.0
 40
1.0
 10
5.2171616511
 20
3.9151748262
 30
0.0
 10
5.2176179254
 20
3.9167552078
 30
0.0
 10
5.218957883
 20
3.9198212337
 30
0.0
 10
5.2220833802
 20
3.9237563921
 30
0.0
 10
5.2261256195
 20
3.9268030996
 30
0.0
 10
5.2292579025
 20
3.9281101086
 30
0.0
 10
5.2308784969
 20
3.9285627108
 30
0.0
  0
SPLINE
  5
4AC
100
AcDbEntity
  8
ALL_ASSEMBLY_MEMBERS
100
AcDbSpline
 62
7
  6
CONTINUOUS
 70
0
 71
3
 72
47
 73
43
 74
0
 42
0.0000001
 43
0.0000001
 44
0.0000000001
 40
0.0
 40
0.0
 40
0.0
 40
0.0
 40
0.0321361868
 40
0.0790657954
 40
0.1393013893
 40
0.2109331544
 40
0.291662149
 40
0.3788781391
 40
0.4697467244
 40
0.5613044271
 40
0.6505659258
 40
0.6934224971
 40
0.7346300941
 40
0.7738515393
 40
0.8107709671
 40
0.8450890718
 40
0.8765285
 40
0.9048391075
 40
0.9297899934
 40
0.9409448376
 40
0.9511878825
 40
0.9604970533
 40
0.9688558757
 40
0.9762492059
 40
0.9826619023
 40
0.9880791514
 40
0.9924909315
 40
0.99431778
 40
0.9958908942
 40
0.9965820589
 40
0.9972095002
 40
0.9977731229
 40
0.9982728326
 40
0.9990801444
 40
0.9996307581
 40
0.9998097533
 40
0.9998752334
 40
0.9999247589
 40
0.9999584416
 40
0.9999766722
 40
0.9999834385
 40
1.0
 40
1.0
 40
1.0
 40
1.0
 10
5.2171590854
 20
3.9159126842
 30
0.0
 10
5.2171393356
 20
3.9186971461
 30
0.0
 10
5.2171094264
 20
3.9255479789
 30
0.0
 10
5.2170773054
 20
3.9376181006
 30
0.0
 10
5.2170504236
 20
3.9531104558
 30
0.0
 10
5.2170296877
 20
3.9715314635
 30
0.0
 10
5.2170144114
 20
3.9922902716
 30
0.0
 10
5.2170046999
 20
4.0147159121
 30
0.0
 10
5.2170004581
 20
4.0380798387
 30
0.0
 10
5.2170016174
 20
4.0616210047
 30
0.0
 10
5.2170071899
 20
4.0810020315
 30
0.0
 10
5.2170146603
 20
4.0960203281
 30
0.0
 10
5.21702164
 20
4.1067027607
 30
0.0
 10
5.2170300965
 20
4.1168707512
 30
0.0
 10
5.2170400606
 20
4.1264417803
 30
0.0
 10
5.217051566
 20
4.1353385121
 30
0.0
 10
5.217064642
 20
4.143489305
 30
0.0
 10
5.217079315
 20
4.1508284443
 30
0.0
 10
5.2170933544
 20
4.1564099649
 30
0.0
 10
5.2171056877
 20
4.1604259683
 30
0.0
 10
5.2171150156
 20
4.1630866532
 30
0.0
 10
5.2171247725
 20
4.1655050654
 30
0.0
 10
5.2171349524
 20
4.1676765518
 30
0.0
 10
5.2171455495
 20
4.1695970596
 30
0.0
 10
5.2171565437
 20
4.1712626796
 30
0.0
 10
5.2171679338
 20
4.1726699448
 30
0.0
 10
5.2171782339
 20
4.1736798506
 30
0.0
 10
5.2171869709
 20
4.1743566656
 30
0.0
 10
5.217192362
 20
4.1747111123
 30
0.0
 10
5.2171967969
 20
4.174961635
 30
0.0
 10
5.2172000034
 20
4.1751246935
 30
0.0
 10
5.2172032286
 20
4.1752711637
 30
0.0
 10
5.2172072959
 20
4.1754331861
 30
0.0
 10
5.2172121228
 20
4.175594149
 30
0.0
 10
5.2172178952
 20
4.1757270323
 30
0.0
 10
5.2172224116
 20
4.1757959829
 30
0.0
 10
5.2172250848
 20
4.1758211356
 30
0.0
 10
5.2172263976
 20
4.1758342863
 30
0.0
 10
5.2172286892
 20
4.1758421528
 30
0.0
 10
5.2172290336
 20
4.1758483098
 30
0.0
 10
5.2172333665
 20
4.1758490637
 30
0.0
 10
5.2172334999
 20
4.1758460402
 30
0.0
 10
5.2172339011
 20
4.1758446624
 30
0.0
  0
SPLINE
  5
4AD
100
AcDbEntity
  8
ALL_ASSEMBLY_MEMBERS
100
AcDbSpline
 62
7
  6
CONTINUOUS
 70
0
 71
3
 72
33
 73
29
 74
0
 42
0.0000001
 43
0.0000001
 44
0.0000000001
 40
0.0
 40
0.0
 40
0.0
 40
0.0
 40
0.0023211114
 40
0.0047356752
 40
0.0073767882
 40
0.0103471266
 40
0.0137193
 40
0.0175423771
 40
0.021848911
 40
0.026660894
 40
0.0378540027
 40
0.0511931945
 40
0.0666994395
 40
0.084370864
 40
0.1041885883
 40
0.1261224915
 40
0.1501314023
 40
0.1761666255
 40
0.2340862642
 40
0.2993623156
 40
0.3713854473
 40
0.4494697915
 40
0.5328650502
 40
0.6207668183
 40
0.7123285704
 40
0.8066605573
 40
0.902872482
 40
1.0
 40
1.0
 40
1.0
 40
1.0
 10
5.1708059418
 20
3.8213332691
 30
0.0
 10
5.1708058527
 20
3.8211507621
 30
0.0
 10
5.1707570216
 20
3.8207766286
 30
0.0
 10
5.1705362731
 20
3.8202344574
 30
0.0
 10
5.1701736251
 20
3.8197128837
 30
0.0
 10
5.1696728724
 20
3.8192107335
 30
0.0
 10
5.1690350099
 20
3.8187258821
 30
0.0
 10
5.1682600592
 20
3.8182571712
 30
0.0
 10
5.1673479539
 20
3.8178039458
 30
0.0
 10
5.1658729902
 20
3.8171890771
 30
0.0
 10
5.1636740319
 20
3.8164788
 30
0.0
 10
5.1606157344
 20
3.8157254308
 30
0.0
 10
5.1570222463
 20
3.8150365425
 30
0.0
 10
5.1529011626
 20
3.8144143935
 30
0.0
 10
5.1482610392
 20
3.8138610579
 30
0.0
 10
5.1431124763
 20
3.8133783784
 30
0.0
 10
5.1374674722
 20
3.8129677118
 30
0.0
 10
5.1289908269
 20
3.8125014627
 30
0.0
 10
5.1172612469
 20
3.8121295084
 30
0.0
 10
5.1019109944
 20
3.8119938128
 30
0.0
 10
5.084975529
 20
3.8121589755
 30
0.0
 10
5.066620669
 20
3.812624183
 30
0.0
 10
5.0470262837
 20
3.8133858186
 30
0.0
 10
5.0263842069
 20
3.8144369285
 30
0.0
 10
5.00489666
 20
3.8157676964
 30
0.0
 10
4.9827721622
 20
3.817365367
 30
0.0
 10
4.9602281914
 20
3.8192147421
 30
0.0
 10
4.9450891556
 20
3.8206011729
 30
0.0
 10
4.9374872761
 20
3.8213333413
 30
0.0
  0
LINE
  5
4AE
100
AcDbEntity
  8
ALL_ASSEMBLY_MEMBERS
100
AcDbLine
 62
7
  6
CONTINUOUS
 10
5.2304239174
 20
4.28232738
 11
5.2252367137
 21
4.2412889986
  0
SPLINE
  5
4AF
100
AcDbEntity
  8
ALL_ASSEMBLY_MEMBERS
100
AcDbSpline
 62
7
  6
CONTINUOUS
 70
0
 71
3
 72
8
 73
4
 74
0
 42
0.0000001
 43
0.0000001
 44
0.0000000001
 40
0.0
 40
0.0
 40
0.0
 40
0.0
 40
1.0
 40
1.0
 40
1.0
 40
1.0
 10
4.7605277615
 20
4.0463456738
 30
0.0
 10
4.760524305
 20
4.0463474223
 30
0.0
 10
4.7605205111
 20
4.0463489929
 30
0.0
 10
4.7605166378
 20
4.0463490363
 30
0.0
  0
SPLINE
  5
4B0
100
AcDbEntity
  8
ALL_ASSEMBLY_MEMBERS
100
AcDbSpline
 62
7
  6
CONTINUOUS
 70
0
 71
3
 72
11
 73
7
 74
0
 42
0.0000001
 43
0.0000001
 44
0.0000000001
 40
0.0
 40
0.0
 40
0.0
 40
0.0
 40
0.3043863475
 40
0.5717051677
 40
0.8025382955
 40
1.0
 40
1.0
 40
1.0
 40
1.0
 10
5.0053491148
 20
4.2412895265
 30
0.0
 10
5.0047436216
 20
4.2417185328
 30
0.0
 10
5.0036352356
 20
4.2425668342
 30
0.0
 10
5.0022038972
 20
4.2439070466
 30
0.0
 10
5.0011238419
 20
4.2452215276
 30
0.0
 10
5.0006097798
 20
4.2461412872
 30
0.0
 10
5.0004318748
 20
4.2465886039
 30
0.0
  0
SPLINE
  5
4B1
100
AcDbEntity
  8
ALL_ASSEMBLY_MEMBERS
100
AcDbSpline
 62
7
  6
CONTINUOUS
 70
0
 71
3
 72
13
 73
9
 74
0
 42
0.0000001
 43
0.0000001
 44
0.0000000001
 40
0.0
 40
0.0
 40
0.0
 40
0.0
 40
0.2547319204
 40
0.3811781431
 40
0.5068372195
 40
0.6316535258
 40
0.7555480376
 40
1.0
 40
1.0
 40
1.0
 40
1.0
 10
4.7255122414
 20
4.0237924947
 30
0.0
 10
4.7266001511
 20
4.0246093142
 30
0.0
 10
4.7282891468
 20
4.0257499517
 30
0.0
 10
4.7305808748
 20
4.0271899222
 30
0.0
 10
4.7322992339
 20
4.02823863
 30
0.0
 10
4.73401527
 20
4.0292646067
 30
0.0
 10
4.7362808134
 20
4.0306077959
 30
0.0
 10
4.7379756576
 20
4.0316064625
 30
0.0
 10
4.7390992572
 20
4.0322712199
 30
0.0
  0
SPLINE
  5
4B2
100
AcDbEntity
  8
ALL_ASSEMBLY_MEMBERS
100
AcDbSpline
 62
7
  6
CONTINUOUS
 70
0
 71
3
 72
31
 73
27
 74
0
 42
0.0000001
 43
0.0000001
 44
0.0000000001
 40
0.0
 40
0.0
 40
0.0
 40
0.0
 40
0.1802548951
 40
0.3536099544
 40
0.4369452791
 40
0.5174962878
 40
0.5948172698
 40
0.6683270916
 40
0.7372236007
 40
0.800671685
 40
0.8575962783
 40
0.9067078411
 40
0.9279259259
 40
0.9466916893
 40
0.9628326816
 40
0.9761779167
 40
0.9817503336
 40
0.9865700693
 40
0.9906301704
 40
0.99392552
 40
0.9964549652
 40
0.9982283115
 40
0.9988457362
 40
0.9993053629
 40
0.9996562249
 40
1.0
 40
1.0
 40
1.0
 40
1.0
 10
4.7390992572
 20
4.0322712199
 30
0.0
 10
4.7404271665
 20
4.0330574042
 30
0.0
 10
4.7430242672
 20
4.0346130596
 30
0.0
 10
4.7462102677
 20
4.0365735341
 30
0.0
 10
4.7486533611
 20
4.0381120964
 30
0.0
 10
4.7503932061
 20
4.0392244256
 30
0.0
 10
4.7520545743
 20
4.040303249
 30
0.0
 10
4.7536246738
 20
4.0413393255
 30
0.0
 10
4.7550881776
 20
4.0423212089
 30
0.0
 10
4.7564261838
 20
4.0432352
 30
0.0
 10
4.7576165661
 20
4.0440648928
 30
0.0
 10
4.7585033551
 20
4.0446977999
 30
0.0
 10
4.7591187839
 20
4.0451484227
 30
0.0
 10
4.7595037008
 20
4.0454360385
 30
0.0
 10
4.7598314831
 20
4.0456874587
 30
0.0
 10
4.7600664903
 20
4.0458742087
 30
0.0
 10
4.7602228148
 20
4.0460040671
 30
0.0
 10
4.760316522
 20
4.0460848821
 30
0.0
 10
4.760393706
 20
4.0461549353
 30
0.0
 10
4.760454344
 20
4.0462140575
 30
0.0
 10
4.7604981263
 20
4.0462621229
 30
0.0
 10
4.7605236771
 20
4.0462959504
 30
0.0
 10
4.7605343292
 20
4.0463179983
 30
0.0
 10
4.7605373008
 20
4.0463300241
 30
0.0
 10
4.7605353219
 20
4.0463402718
 30
0.0
 10
4.7605303908
 20
4.0463443514
 30
0.0
 10
4.7605277615
 20
4.0463456738
 30
0.0
  0
SPLINE
  5
4B3
100
AcDbEntity
  8
ALL_ASSEMBLY_MEMBERS
100
AcDbSpline
 62
7
  6
CONTINUOUS
 70
0
 71
3
 72
9
 73
5
 74
0
 42
0.0000001
 43
0.0000001
 44
0.0000000001
 40
0.0
 40
0.0
 40
0.0
 40
0.0
 40
0.4816285397
 40
1.0
 40
1.0
 40
1.0
 40
1.0
 10
5.1291111762
 20
4.24128853
 30
0.0
 10
5.1311196337
 20
4.2422490967
 30
0.0
 10
5.1353515977
 20
4.2441150983
 30
0.0
 10
5.1396672329
 20
4.2457759735
 30
0.0
 10
5.1419215111
 20
4.246588336
 30
0.0
  0
SPLINE
  5
4B4
100
AcDbEntity
  8
ALL_ASSEMBLY_MEMBERS
100
AcDbSpline
 62
7
  6
CONTINUOUS
 70
0
 71
3
 72
25
 73
21
 74
0
 42
0.0000001
 43
0.0000001
 44
0.0000000001
 40
0.0
 40
0.0
 40
0.0
 40
0.0
 40
0.1829224668
 40
0.357686961
 40
0.5213851825
 40
0.5979470824
 40
0.6702595645
 40
0.7376012363
 40
0.7992316154
 40
0.8543057177
 40
0.9018854211
 40
0.9225731054
 40
0.9410442732
 40
0.9571907986
 40
0.9709055965
 40
0.982085485
 40
0.9906647714
 40
0.9966201151
 40
0.9986219378
 40
1.0
 40
1.0
 40
1.0
 40
1.0
 10
4.7283388797
 20
4.0434776209
 30
0.0
 10
4.7291694445
 20
4.044676289
 30
0.0
 10
4.7307807819
 20
4.0470290453
 30
0.0
 10
4.7330862029
 20
4.0504878593
 30
0.0
 10
4.734881998
 20
4.0532669475
 30
0.0
 10
4.7362104315
 20
4.0553752527
 30
0.0
 10
4.7371177941
 20
4.056840855
 30
0.0
 10
4.7379513609
 20
4.0582120771
 30
0.0
 10
4.7387024222
 20
4.0594725625
 30
0.0
 10
4.7393616367
 20
4.0606043048
 30
0.0
 10
4.7398466318
 20
4.0614597239
 30
0.0
 10
4.7401802967
 20
4.0620654085
 30
0.0
 10
4.7403893241
 20
4.0624536244
 30
0.0
 10
4.7405679443
 20
4.0627950647
 30
0.0
 10
4.740714952
 20
4.063087359
 30
0.0
 10
4.740829657
 20
4.0633284297
 30
0.0
 10
4.740910871
 20
4.0635165356
 30
0.0
 10
4.7409565439
 20
4.0636406938
 30
0.0
 10
4.7409733649
 20
4.0637131266
 30
0.0
 10
4.7409757808
 20
4.0637403409
 30
0.0
 10
4.7409744642
 20
4.063751248
 30
0.0
  0
LINE
  5
4B5
100
AcDbEntity
  8
ALL_ASSEMBLY_MEMBERS
100
AcDbLine
 62
7
  6
CONTINUOUS
 10
4.5448870514
 20
3.8910957008
 11
4.5511779788
 21
3.9159126859
  0
SPLINE
  5
4B6
100
AcDbEntity
  8
ALL_ASSEMBLY_MEMBERS
100
AcDbSpline
 62
7
  6
CONTINUOUS
 70
0
 71
3
 72
11
 73
7
 74
0
 42
0.0000001
 43
0.0000001
 44
0.0000000001
 40
0.0
 40
0.0
 40
0.0
 40
0.0
 40
0.2504291798
 40
0.5006358349
 40
0.7504887938
 40
1.0
 40
1.0
 40
1.0
 40
1.0
 10
5.1708059418
 20
3.8213332711
 30
0.0
 10
5.1670435103
 20
3.8213428133
 30
0.0
 10
5.1594693401
 20
3.8225894964
 30
0.0
 10
5.1493353634
 20
3.8279545993
 30
0.0
 10
5.141432327
 20
3.8362448064
 30
0.0
 10
5.1381991024
 20
3.8431879019
 30
0.0
 10
5.1371860272
 20
3.8467970667
 30
0.0
  0
SPLINE
  5
4B7
100
AcDbEntity
  8
ALL_ASSEMBLY_MEMBERS
100
AcDbSpline
 62
7
  6
CONTINUOUS
 70
0
 71
3
 72
11
 73
7
 74
0
 42
0.0000001
 43
0.0000001
 44
0.0000000001
 40
0.0
 40
0.0
 40
0.0
 40
0.0
 40
0.2530241099
 40
0.5044885576
 40
0.7534588235
 40
1.0
 40
1.0
 40
1.0
 40
1.0
 10
5.1708060207
 20
3.8904180149
 30
0.0
 10
5.1670463331
 20
3.8904272813
 30
0.0
 10
5.1594999533
 20
3.8916314366
 30
0.0
 10
5.1493759885
 20
3.8968266464
 30
0.0
 10
5.1414599614
 20
3.9048746964
 30
0.0
 10
5.1382023216
 20
3.9116551999
 30
0.0
 10
5.1371861752
 20
3.9151748188
 30
0.0
  0
SPLINE
  5
4B8
100
AcDbEntity
  8
ALL_ASSEMBLY_MEMBERS
100
AcDbSpline
 62
7
  6
CONTINUOUS
 70
0
 71
3
 72
11
 73
7
 74
0
 42
0.0000001
 43
0.0000001
 44
0.0000000001
 40
0.0
 40
0.0
 40
0.0
 40
0.0
 40
0.2529755696
 40
0.5044681136
 40
0.7534780785
 40
1.0
 40
1.0
 40
1.0
 40
1.0
 10
5.1708136313
 20
3.8910956721
 30
0.0
 10
5.1670515166
 20
3.8911103041
 30
0.0
 10
5.1595009479
 20
3.8923266087
 30
0.0
 10
5.1493751301
 20
3.8975390154
 30
0.0
 10
5.1414596042
 20
3.9056013281
 30
0.0
 10
5.1382034072
 20
3.9123897266
 30
0.0
 10
5.1371887412
 20
3.9159126849
 30
0.0
  0
SPLINE
  5
4B9
100
AcDbEntity
  8
ALL_ASSEMBLY_MEMBERS
100
AcDbSpline
 62
7
  6
CONTINUOUS
 70
0
 71
3
 72
9
 73
5
 74
0
 42
0.0000001
 43
0.0000001
 44
0.0000000001
 40
0.0
 40
0.0
 40
0.0
 40
0.0
 40
0.5011986034
 40
1.0
 40
1.0
 40
1.0
 40
1.0
 10
5.415173913
 20
4.0322866414
 30
0.0
 10
5.4087197492
 20
4.0385366337
 30
0.0
 10
5.3963574174
 20
4.051551024
 30
0.0
 10
5.3852184122
 20
4.0656369488
 30
0.0
 10
5.3800421407
 20
4.0729276654
 30
0.0
  0
SPLINE
  5
4BA
100
AcDbEntity
  8
ALL_ASSEMBLY_MEMBERS
100
AcDbSpline
 62
7
  6
CONTINUOUS
 70
0
 71
3
 72
12
 73
8
 74
0
 42
0.0000001
 43
0.0000001
 44
0.0000000001
 40
0.0
 40
0.0
 40
0.0
 40
0.0
 40
0.2551078871
 40
0.3817170714
 40
0.5075321714
 40
0.7562779721
 40
1.0
 40
1.0
 40
1.0
 40
1.0
 10
4.7192441982
 20
4.0292187325
 30
0.0
 10
4.7199437829
 20
4.0304756021
 30
0.0
 10
4.7210506274
 20
4.0323227966
 30
0.0
 10
4.7225779621
 20
4.034742808
 30
0.0
 10
4.7241084707
 20
4.0371184379
 30
0.0
 10
4.7260293075
 20
4.040027862
 30
0.0
 10
4.7275738451
 20
4.0423354943
 30
0.0
 10
4.7283381162
 20
4.043477621
 30
0.0
  0
SPLINE
  5
4BB
100
AcDbEntity
  8
ALL_ASSEMBLY_MEMBERS
100
AcDbSpline
 62
7
  6
CONTINUOUS
 70
0
 71
3
 72
9
 73
5
 74
0
 42
0.0000001
 43
0.0000001
 44
0.0000000001
 40
0.0
 40
0.0
 40
0.0
 40
0.0
 40
0.4812210527
 40
1.0
 40
1.0
 40
1.0
 40
1.0
 10
5.0942441133
 20
4.0729276654
 30
0.0
 10
5.0945822822
 20
4.0742871531
 30
0.0
 10
5.0956345663
 20
4.0770309617
 30
0.0
 10
5.0972166787
 20
4.0794970238
 30
0.0
 10
5.0981376281
 20
4.0806939853
 30
0.0
  0
SPLINE
  5
4BC
100
AcDbEntity
  8
ALL_ASSEMBLY_MEMBERS
100
AcDbSpline
 62
7
  6
CONTINUOUS
 70
0
 71
3
 72
18
 73
14
 74
0
 42
0.0000001
 43
0.0000001
 44
0.0000000001
 40
0.0
 40
0.0
 40
0.0
 40
0.0
 40
0.1768990597
 40
0.3458011106
 40
0.5023466822
 40
0.643196159
 40
0.7654201883
 40
0.8187958758
 40
0.8666515636
 40
0.9087641156
 40
0.9450231468
 40
0.9754010569
 40
1.0
 40
1.0
 40
1.0
 40
1.0
 10
4.9743056403
 20
4.0729276653
 30
0.0
 10
4.9730418457
 20
4.0740787024
 30
0.0
 10
4.970596653
 20
4.076356694
 30
0.0
 10
4.967124898
 20
4.0797501486
 30
0.0
 10
4.9639900239
 20
4.0829877512
 30
0.0
 10
4.9612647887
 20
4.0859912349
 30
0.0
 10
4.9593033597
 20
4.0883390617
 30
0.0
 10
4.9579939371
 20
4.0900564444
 30
0.0
 10
4.9571935841
 20
4.09118744
 30
0.0
 10
4.956534403
 20
4.0922142993
 30
0.0
 10
4.9560189653
 20
4.0931311372
 30
0.0
 10
4.9556491337
 20
4.0939324024
 30
0.0
 10
4.9554826847
 20
4.0944395775
 30
0.0
 10
4.955432254
 20
4.0946718699
 30
0.0
  0
SPLINE
  5
4BD
100
AcDbEntity
  8
ALL_ASSEMBLY_MEMBERS
100
AcDbSpline
 62
7
  6
CONTINUOUS
 70
0
 71
3
 72
15
 73
11
 74
0
 42
0.0000001
 43
0.0000001
 44
0.0000000001
 40
0.0
 40
0.0
 40
0.0
 40
0.0
 40
0.1441257819
 40
0.2868928036
 40
0.426967363
 40
0.5628321176
 40
0.6924752603
 40
0.8128035196
 40
0.9185078114
 40
1.0
 40
1.0
 40
1.0
 40
1.0
 10
4.6737089076
 20
3.9892552232
 30
0.0
 10
4.6760927127
 20
3.9902234953
 30
0.0
 10
4.6808316649
 20
3.9921661395
 30
0.0
 10
4.6878719248
 20
3.9950874649
 30
0.0
 10
4.6947613521
 20
3.9979872757
 30
0.0
 10
4.7014201396
 20
4.0008308628
 30
0.0
 10
4.707739926
 20
4.0035704333
 30
0.0
 10
4.7135519723
 20
4.0061272824
 30
0.0
 10
4.7185653676
 20
4.0083646833
 30
0.0
 10
4.7216098152
 20
4.0097428677
 30
0.0
 10
4.7229344037
 20
4.0103444765
 30
0.0
  0
SPLINE
  5
4BE
100
AcDbEntity
  8
ALL_ASSEMBLY_MEMBERS
100
AcDbSpline
 62
7
  6
CONTINUOUS
 70
0
 71
3
 72
13
 73
9
 74
0
 42
0.0000001
 43
0.0000001
 44
0.0000000001
 40
0.0
 40
0.0
 40
0.0
 40
0.0
 40
0.244789811
 40
0.3687709239
 40
0.4937420704
 40
0.6196357442
 40
0.7461505213
 40
1.0
 40
1.0
 40
1.0
 40
1.0
 10
5.1564575265
 20
4.1979581482
 30
0.0
 10
5.1556437957
 20
4.2020287485
 30
0.0
 10
5.154335161
 20
4.2081453798
 30
0.0
 10
5.1523517422
 20
4.2162804928
 30
0.0
 10
5.1507111285
 20
4.2224222076
 30
0.0
 10
5.1489102839
 20
4.2285644573
 30
0.0
 10
5.146220426
 20
4.2367174616
 30
0.0
 10
5.1437929489
 20
4.2427116429
 30
0.0
 10
5.1419215084
 20
4.2465883382
 30
0.0
  0
SPLINE
  5
4BF
100
AcDbEntity
  8
ALL_ASSEMBLY_MEMBERS
100
AcDbSpline
 62
7
  6
CONTINUOUS
 70
0
 71
3
 72
11
 73
7
 74
0
 42
0.0000001
 43
0.0000001
 44
0.0000000001
 40
0.0
 40
0.0
 40
0.0
 40
0.0
 40
0.2185728689
 40
0.4532780382
 40
0.7118240813
 40
1.0
 40
1.0
 40
1.0
 40
1.0
 10
5.2562336722
 20
3.8940608923
 30
0.0
 10
5.2562701201
 20
3.893917567
 30
0.0
 10
5.2563798714
 20
3.8936282555
 30
0.0
 10
5.2566383085
 20
3.8932188356
 30
0.0
 10
5.2569921078
 20
3.8928232976
 30
0.0
 10
5.2572743711
 20
3.8925826248
 30
0.0
 10
5.2574289898
 20
3.892463837
 30
0.0
  0
SPLINE
  5
4C0
100
AcDbEntity
  8
ALL_ASSEMBLY_MEMBERS
100
AcDbSpline
 62
7
  6
CONTINUOUS
 70
0
 71
3
 72
25
 73
21
 74
0
 42
0.0000001
 43
0.0000001
 44
0.0000000001
 40
0.0
 40
0.0
 40
0.0
 40
0.0
 40
0.0079432467
 40
0.0175131486
 40
0.0288158327
 40
0.0419052946
 40
0.0568042384
 40
0.0735194674
 40
0.092042304
 40
0.1123539103
 40
0.1582385379
 40
0.2108871875
 40
0.2699346577
 40
0.334933117
 40
0.4053849768
 40
0.4807301159
 40
0.560371081
 40
0.6436739596
 40
0.8185979012
 40
1.0
 40
1.0
 40
1.0
 40
1.0
 10
5.2574289898
 20
3.892463837
 30
0.0
 10
5.2577530162
 20
3.8922148996
 30
0.0
 10
5.2585247246
 20
3.8917409064
 30
0.0
 10
5.2598786252
 20
3.8911321524
 30
0.0
 10
5.2615322169
 20
3.8905624636
 30
0.0
 10
5.2634839837
 20
3.8900332616
 30
0.0
 10
5.265732098
 20
3.8895455412
 30
0.0
 10
5.2682731638
 20
3.8891009647
 30
0.0
 10
5.2711029422
 20
3.8887005548
 30
0.0
 10
5.2754333826
 20
3.8882069279
 30
0.0
 10
5.2815299249
 20
3.8877278637
 30
0.0
 10
5.2896287221
 20
3.8873598334
 30
0.0
 10
5.298717311
 20
3.8871848514
 30
0.0
 10
5.3087231195
 20
3.8872045358
 30
0.0
 10
5.3195650698
 20
3.8874201105
 30
0.0
 10
5.3311550622
 20
3.8878295453
 30
0.0
 10
5.3433986191
 20
3.8884294245
 30
0.0
 10
5.3607467294
 20
3.8894936803
 30
0.0
 10
5.3832942037
 20
3.8912643056
 30
0.0
 10
5.4015371708
 20
3.8930600102
 30
0.0
 10
5.4108149023
 20
3.8940608673
 30
0.0
  0
SPLINE
  5
4C1
100
AcDbEntity
  8
ALL_ASSEMBLY_MEMBERS
100
AcDbSpline
 62
7
  6
CONTINUOUS
 70
0
 71
3
 72
11
 73
7
 74
0
 42
0.0000001
 43
0.0000001
 44
0.0000000001
 40
0.0
 40
0.0
 40
0.0
 40
0.0
 40
0.246945313
 40
0.4954783479
 40
0.7465276521
 40
1.0
 40
1.0
 40
1.0
 40
1.0
 10
5.098173913
 20
3.9611058043
 30
0.0
 10
5.0981739526
 20
3.9574777972
 30
0.0
 10
5.0994070069
 20
3.950141753
 30
0.0
 10
5.1047518899
 20
3.9403446941
 30
0.0
 10
5.1130061448
 20
3.9327008055
 30
0.0
 10
5.1198827391
 20
3.9295653158
 30
0.0
 10
5.1234693887
 20
3.9285636317
 30
0.0
  0
SPLINE
  5
4C2
100
AcDbEntity
  8
ALL_ASSEMBLY_MEMBERS
100
AcDbSpline
 62
7
  6
CONTINUOUS
 70
0
 71
3
 72
11
 73
7
 74
0
 42
0.0000001
 43
0.0000001
 44
0.0000000001
 40
0.0
 40
0.0
 40
0.0
 40
0.0
 40
0.2495535119
 40
0.4993376718
 40
0.7494900338
 40
1.0
 40
1.0
 40
1.0
 40
1.0
 10
5.098173913
 20
3.8945579728
 30
0.0
 10
5.0981739131
 20
3.8908298001
 30
0.0
 10
5.0993984324
 20
3.8833143761
 30
0.0
 10
5.104721844
 20
3.8732481391
 30
0.0
 10
5.1129656187
 20
3.8653732857
 30
0.0
 10
5.1198723134
 20
3.8621254289
 30
0.0
 10
5.1234693677
 20
3.8610923661
 30
0.0
  0
SPLINE
  5
4C3
100
AcDbEntity
  8
ALL_ASSEMBLY_MEMBERS
100
AcDbSpline
 62
7
  6
CONTINUOUS
 70
0
 71
3
 72
11
 73
7
 74
0
 42
0.0000001
 43
0.0000001
 44
0.0000000001
 40
0.0
 40
0.0
 40
0.0
 40
0.0
 40
0.2495518983
 40
0.499424115
 40
0.7496162977
 40
1.0
 40
1.0
 40
1.0
 40
1.0
 10
5.0981141503
 20
3.8940608673
 30
0.0
 10
5.0981231881
 20
3.8903311525
 30
0.0
 10
5.0993641417
 20
3.8828147438
 30
0.0
 10
5.1046994103
 20
3.8727488514
 30
0.0
 10
5.1129434294
 20
3.8648691713
 30
0.0
 10
5.1198474346
 20
3.8616124689
 30
0.0
 10
5.1234428491
 20
3.8605748087
 30
0.0
  0
SPLINE
  5
4C4
100
AcDbEntity
  8
ALL_ASSEMBLY_MEMBERS
100
AcDbSpline
 62
7
  6
CONTINUOUS
 70
0
 71
3
 72
15
 73
11
 74
0
 42
0.0000001
 43
0.0000001
 44
0.0000000001
 40
0.0
 40
0.0
 40
0.0
 40
0.0
 40
0.3300067759
 40
0.4842628921
 40
0.6258250311
 40
0.7511306717
 40
0.8570540123
 40
0.9407429231
 40
0.9735517183
 40
1.0
 40
1.0
 40
1.0
 40
1.0
 10
4.9435327938
 20
3.8940608923
 30
0.0
 10
4.9432078464
 20
3.890382618
 30
0.0
 10
4.9427535451
 20
3.8849829522
 30
0.0
 10
4.9422173052
 20
3.8780008412
 30
0.0
 10
4.9418824124
 20
3.8733005788
 30
0.0
 10
4.9416138581
 20
3.8691378485
 30
0.0
 10
4.9414181213
 20
3.8656194947
 30
0.0
 10
4.9413109883
 20
3.8631328626
 30
0.0
 10
4.9412707529
 20
3.861533848
 30
0.0
 10
4.9412650035
 20
3.8608707503
 30
0.0
 10
4.9412669613
 20
3.8605748146
 30
0.0
  0
SPLINE
  5
4C5
100
AcDbEntity
  8
ALL_ASSEMBLY_MEMBERS
100
AcDbSpline
 62
7
  6
CONTINUOUS
 70
0
 71
3
 72
13
 73
9
 74
0
 42
0.0000001
 43
0.0000001
 44
0.0000000001
 40
0.0
 40
0.0
 40
0.0
 40
0.0
 40
0.2890369674
 40
0.5667221431
 40
0.6966692227
 40
0.8165535982
 40
0.9208028176
 40
1.0
 40
1.0
 40
1.0
 40
1.0
 10
4.6737089482
 20
3.9892552841
 30
0.0
 10
4.6771039086
 20
3.9929712332
 30
0.0
 10
4.6836784374
 20
4.000332621
 30
0.0
 10
4.6915545664
 20
4.0095616029
 30
0.0
 10
4.6973955598
 20
4.016651858
 30
0.0
 10
4.7012642823
 20
4.0214532869
 30
0.0
 10
4.7045356672
 20
4.0256006206
 30
0.0
 10
4.7064960418
 20
4.0281229707
 30
0.0
 10
4.7073366421
 20
4.0292163232
 30
0.0
  0
LINE
  5
4C6
100
AcDbEntity
  8
ALL_ASSEMBLY_MEMBERS
100
AcDbLine
 62
7
  6
CONTINUOUS
 10
5.256173913
 20
3.8945579728
 11
5.2562336722
 21
3.8940608923
  0
SPLINE
  5
4C7
100
AcDbEntity
  8
ALL_ASSEMBLY_MEMBERS
100
AcDbSpline
 62
7
  6
CONTINUOUS
 70
0
 71
3
 72
9
 73
5
 74
0
 42
0.0000001
 43
0.0000001
 44
0.0000000001
 40
0.0
 40
0.0
 40
0.0
 40
0.0
 40
0.5129753789
 40
1.0
 40
1.0
 40
1.0
 40
1.0
 10
5.26010374
 20
4.0729276653
 30
0.0
 10
5.2593530815
 20
4.0682597018
 30
0.0
 10
5.2579998261
 20
4.0591414485
 30
0.0
 10
5.2570290777
 20
4.0499710184
 30
0.0
 10
5.2566958007
 20
4.0454946527
 30
0.0
  0
SPLINE
  5
4C8
100
AcDbEntity
  8
ALL_ASSEMBLY_MEMBERS
100
AcDbSpline
 62
7
  6
CONTINUOUS
 70
0
 71
3
 72
73
 73
69
 74
0
 42
0.0000001
 43
0.0000001
 44
0.0000000001
 40
0.0
 40
0.0
 40
0.0
 40
0.0
 40
0.0658993425
 40
0.1314693033
 40
0.1641433004
 40
0.1967469522
 40
0.2292839506
 40
0.2617570716
 40
0.2941680469
 40
0.3265173258
 40
0.3588037436
 40
0.3749225128
 40
0.3910240248
 40
0.4071072197
 40
0.4231705118
 40
0.4392113946
 40
0.4552255223
 40
0.4632201657
 40
0.4712042669
 40
0.4791748091
 40
0.4871264238
 40
0.4910922207
 40
0.4950484379
 40
0.4989916388
 40
0.5029151724
 40
0.5048656571
 40
0.5068064607
 40
0.5087352505
 40
0.5106398582
 40
0.5125052882
 40
0.5134216551
 40
0.5143286129
 40
0.5152178568
 40
0.5160567115
 40
0.5168337073
 40
0.5175817459
 40
0.5183366721
 40
0.5191161444
 40
0.5199392273
 40
0.5208142147
 40
0.521723843
 40
0.5226430623
 40
0.5244989865
 40
0.526387249
 40
0.5283029214
 40
0.5302319878
 40
0.5321693574
 40
0.5360651153
 40
0.5399782945
 40
0.5439023147
 40
0.5478333847
 40
0.5557079617
 40
0.5635909295
 40
0.5714766205
 40
0.579361771
 40
0.5951228172
 40
0.61086389
 40
0.6265790601
 40
0.6422641186
 40
0.6735303805
 40
0.7046378889
 40
0.7355621173
 40
0.766276669
 40
0.796752193
 40
0.8269556643
 40
0.8863916944
 40
0.9442245321
 40
1.0
 40
1.0
 40
1.0
 40
1.0
 10
5.3800421407
 20
4.0729276654
 30
0.0
 10
5.3756199973
 20
4.0791558874
 30
0.0
 10
5.3672010377
 20
4.0918714479
 30
0.0
 10
5.3576149683
 20
4.1083162412
 30
0.0
 10
5.3504664543
 20
4.1216938881
 30
0.0
 10
5.3453523442
 20
4.1318138435
 30
0.0
 10
5.3404630029
 20
4.1420182406
 30
0.0
 10
5.3357821953
 20
4.152295313
 30
0.0
 10
5.3312942359
 20
4.1626342195
 30
0.0
 10
5.3269838871
 20
4.1730248902
 30
0.0
 10
5.3235256986
 20
4.1817233367
 30
0.0
 10
5.3208327446
 20
4.1886986284
 30
0.0
 10
5.3188487439
 20
4.1939342659
 30
0.0
 10
5.3168971545
 20
4.1991752006
 30
0.0
 10
5.3149752695
 20
4.2044196112
 30
0.0
 10
5.3130795494
 20
4.2096650169
 30
0.0
 10
5.3115165613
 20
4.2140361848
 30
0.0
 10
5.3102716904
 20
4.2175293187
 30
0.0
 10
5.3093393203
 20
4.220144045
 30
0.0
 10
5.3084046586
 20
4.2227526554
 30
0.0
 10
5.3076189586
 20
4.2249198773
 30
0.0
 10
5.3069812517
 20
4.2266457668
 30
0.0
 10
5.3064966843
 20
4.2279328982
 30
0.0
 10
5.3060021965
 20
4.2292110102
 30
0.0
 10
5.3055766123
 20
4.2302664304
 30
0.0
 10
5.3052233947
 20
4.2311005832
 30
0.0
 10
5.3049500615
 20
4.2317173735
 30
0.0
 10
5.3046662168
 20
4.2323235995
 30
0.0
 10
5.3043663356
 20
4.2329122811
 30
0.0
 10
5.3040974329
 20
4.2333847803
 30
0.0
 10
5.3038618959
 20
4.2337418495
 30
0.0
 10
5.3036741395
 20
4.2339942602
 30
0.0
 10
5.3034746128
 20
4.2342261262
 30
0.0
 10
5.3032566458
 20
4.2344199768
 30
0.0
 10
5.3030114769
 20
4.2345517561
 30
0.0
 10
5.3027446636
 20
4.2345898341
 30
0.0
 10
5.3024801381
 20
4.2345438635
 30
0.0
 10
5.3022326751
 20
4.2344198152
 30
0.0
 10
5.302014208
 20
4.2342304299
 30
0.0
 10
5.3018182356
 20
4.2339994955
 30
0.0
 10
5.3016380741
 20
4.2337427856
 30
0.0
 10
5.3014081051
 20
4.2333827833
 30
0.0
 10
5.3011435973
 20
4.2329108731
 30
0.0
 10
5.3008529662
 20
4.2323225414
 30
0.0
 10
5.3005796436
 20
4.2317167354
 30
0.0
 10
5.3003177324
 20
4.2310997813
 30
0.0
 10
5.2999800647
 20
4.2302657892
 30
0.0
 10
5.2995766557
 20
4.229210466
 30
0.0
 10
5.2991116582
 20
4.2279324177
 30
0.0
 10
5.2986598613
 20
4.226645314
 30
0.0
 10
5.2980703282
 20
4.2249199982
 30
0.0
 10
5.2973529005
 20
4.2227535222
 30
0.0
 10
5.296512675
 20
4.2201449738
 30
0.0
 10
5.2956876643
 20
4.2175302927
 30
0.0
 10
5.2946041012
 20
4.2140397037
 30
0.0
 10
5.2932753893
 20
4.2096718754
 30
0.0
 10
5.2917124831
 20
4.2044267487
 30
0.0
 10
5.2901772651
 20
4.1991826305
 30
0.0
 10
5.2881661275
 20
4.1922028403
 30
0.0
 10
5.2857117536
 20
4.1834941183
 30
0.0
 10
5.2828513801
 20
4.1730649088
 30
0.0
 10
5.2800777444
 20
4.1626784718
 30
0.0
 10
5.2773922262
 20
4.1523445765
 30
0.0
 10
5.2747986292
 20
4.14207335
 30
0.0
 10
5.2714895509
 20
4.1285495691
 30
0.0
 10
5.267624565
 20
4.1118975232
 30
0.0
 10
5.2634875765
 20
4.0922695397
 30
0.0
 10
5.2611304518
 20
4.0793106112
 30
0.0
 10
5.26010374
 20
4.0729276653
 30
0.0
  0
SPLINE
  5
4C9
100
AcDbEntity
  8
ALL_ASSEMBLY_MEMBERS
100
AcDbSpline
 62
7
  6
CONTINUOUS
 70
0
 71
3
 72
19
 73
15
 74
0
 42
0.0000001
 43
0.0000001
 44
0.0000000001
 40
0.0
 40
0.0
 40
0.0
 40
0.0
 40
0.1249624082
 40
0.2499371651
 40
0.3124493132
 40
0.374965514
 40
0.4374825408
 40
0.4999983749
 40
0.562514499
 40
0.6250316105
 40
0.6875480396
 40
0.7500604987
 40
0.8750371996
 40
1.0
 40
1.0
 40
1.0
 40
1.0
 10
5.6806389898
 20
3.98925532
 30
0.0
 10
5.6696608383
 20
3.9852034149
 30
0.0
 10
5.647152183
 20
3.9785169729
 30
0.0
 10
5.618180796
 20
3.9738579311
 30
0.0
 10
5.5948018461
 20
3.9723870626
 30
0.0
 10
5.5772267311
 20
3.9724126697
 30
0.0
 10
5.5596896511
 20
3.9735646131
 30
0.0
 10
5.5422624841
 20
3.9758390428
 30
0.0
 10
5.525016128
 20
3.9792215164
 30
0.0
 10
5.5080213443
 20
3.9836993693
 30
0.0
 10
5.4913458901
 20
3.9892499603
 30
0.0
 10
5.4696354469
 20
3.9980472969
 30
0.0
 10
5.443615269
 20
4.0116074704
 30
0.0
 10
5.4243389919
 20
4.0250106579
 30
0.0
 10
5.415173913
 20
4.0322866414
 30
0.0
  0
SPLINE
  5
4CA
100
AcDbEntity
  8
ALL_ASSEMBLY_MEMBERS
100
AcDbSpline
 62
7
  6
CONTINUOUS
 70
0
 71
3
 72
32
 73
28
 74
0
 42
0.0000001
 43
0.0000001
 44
0.0000000001
 40
0.0
 40
0.0
 40
0.0
 40
0.0
 40
0.0624272907
 40
0.1248711657
 40
0.1873299683
 40
0.24979272
 40
0.3122536786
 40
0.3747128175
 40
0.4371721135
 40
0.4684401841
 40
0.4997086783
 40
0.5309767138
 40
0.5622451445
 40
0.5935131053
 40
0.6247814862
 40
0.6560495044
 40
0.6873178748
 40
0.7185860019
 40
0.7498542817
 40
0.781122466
 40
0.812390599
 40
0.843658828
 40
0.8749269029
 40
0.9061952652
 40
0.9374634761
 40
0.9687319474
 40
1.0
 40
1.0
 40
1.0
 40
1.0
 10
5.7884621226
 20
3.9611058043
 30
0.0
 10
5.7938744943
 20
3.9625157362
 30
0.0
 10
5.8044561967
 20
3.9663983554
 30
0.0
 10
5.8188705114
 20
3.9751951139
 30
0.0
 10
5.8313003902
 20
3.9866400259
 30
0.0
 10
5.8412456764
 20
4.0003005005
 30
0.0
 10
5.8483125505
 20
4.0156507469
 30
0.0
 10
5.8522180187
 20
4.0320889069
 30
0.0
 10
5.8527056235
 20
4.0461740853
 30
0.0
 10
5.8514263292
 20
4.0573146098
 30
0.0
 10
5.8496441034
 20
4.0655424019
 30
0.0
 10
5.8470549516
 20
4.0735521512
 30
0.0
 10
5.8436867234
 20
4.0812668484
 30
0.0
 10
5.8395722626
 20
4.0886107217
 30
0.0
 10
5.8347529129
 20
4.0955124199
 30
0.0
 10
5.8292771521
 20
4.1019058649
 30
0.0
 10
5.8231981803
 20
4.1077286138
 30
0.0
 10
5.8165774481
 20
4.1129271095
 30
0.0
 10
5.809478034
 20
4.1174498418
 30
0.0
 10
5.8019710285
 20
4.1212578833
 30
0.0
 10
5.7941272179
 20
4.1243123442
 30
0.0
 10
5.7860236983
 20
4.1265898681
 30
0.0
 10
5.7777365904
 20
4.1280656223
 30
0.0
 10
5.7693456077
 20
4.1287316086
 30
0.0
 10
5.7609293922
 20
4.1285781459
 30
0.0
 10
5.7525683509
 20
4.1276117444
 30
0.0
 10
5.7470810949
 20
4.1264292667
 30
0.0
 10
5.7443744062
 20
4.1257070882
 30
0.0
  0
SPLINE
  5
4CB
100
AcDbEntity
  8
ALL_ASSEMBLY_MEMBERS
100
AcDbSpline
 62
7
  6
CONTINUOUS
 70
0
 71
3
 72
70
 73
66
 74
0
 42
0.0000001
 43
0.0000001
 44
0.0000000001
 40
0.0
 40
0.0
 40
0.0
 40
0.0
 40
0.0669311891
 40
0.1330120314
 40
0.1983027805
 40
0.2306793307
 40
0.2628921445
 40
0.2949536838
 40
0.3268763135
 40
0.358671924
 40
0.3903515799
 40
0.4219250542
 40
0.4376745163
 40
0.4534001178
 40
0.4691022867
 40
0.4847810664
 40
0.5004359295
 40
0.5160654483
 40
0.531666672
 40
0.5472338358
 40
0.5550014105
 40
0.5627553645
 40
0.570492064
 40
0.5782057884
 40
0.5858869141
 40
0.5935182772
 40
0.59730558
 40
0.6010655525
 40
0.6047864819
 40
0.6084477098
 40
0.6102484674
 40
0.6120243343
 40
0.6154558018
 40
0.6170991406
 40
0.6186839379
 40
0.6202299774
 40
0.6217694434
 40
0.6233298044
 40
0.6249398579
 40
0.62661208
 40
0.6283309551
 40
0.6300829335
 40
0.6318646986
 40
0.6354939691
 40
0.6391867566
 40
0.6429211164
 40
0.6504663225
 40
0.658073575
 40
0.6657163984
 40
0.6810588244
 40
0.6964375275
 40
0.7118290957
 40
0.7272216267
 40
0.742608034
 40
0.7579835136
 40
0.7733444007
 40
0.7886876127
 40
0.8040103518
 40
0.8193099335
 40
0.8498288264
 40
0.8802219492
 40
0.9104647886
 40
0.9405299367
 40
0.9703865615
 40
1.0
 40
1.0
 40
1.0
 40
1.0
 10
5.3989156315
 20
4.0946717891
 30
0.0
 10
5.3948103525
 20
4.0992539598
 30
0.0
 10
5.3868843997
 20
4.1085706168
 30
0.0
 10
5.3757011582
 20
4.1229703148
 30
0.0
 10
5.3669177471
 20
4.1351969904
 30
0.0
 10
5.3601757641
 20
4.1450497377
 30
0.0
 10
5.3552584041
 20
4.1524490347
 30
0.0
 10
5.3504526062
 20
4.1598715077
 30
0.0
 10
5.3457452162
 20
4.1673113947
 30
0.0
 10
5.3411238322
 20
4.1747636908
 30
0.0
 10
5.3365768109
 20
4.1822239966
 30
0.0
 10
5.3328375569
 20
4.1884491191
 30
0.0
 10
5.3298729419
 20
4.1934287574
 30
0.0
 10
5.3276631628
 20
4.1971599407
 30
0.0
 10
5.3254639811
 20
4.2008898379
 30
0.0
 10
5.323273976
 20
4.2046175903
 30
0.0
 10
5.3210915482
 20
4.2083420451
 30
0.0
 10
5.3189147706
 20
4.2120615471
 30
0.0
 10
5.3167410687
 20
4.2157735082
 30
0.0
 10
5.3149278902
 20
4.2188591442
 30
0.0
 10
5.3134731609
 20
4.2213187728
 30
0.0
 10
5.3123795972
 20
4.2231557737
 30
0.0
 10
5.3112808699
 20
4.224983922
 30
0.0
 10
5.3101741979
 20
4.2267994568
 30
0.0
 10
5.3090549723
 20
4.228595892
 30
0.0
 10
5.3081036573
 20
4.2300716137
 30
0.0
 10
5.3073231877
 20
4.2312281626
 30
0.0
 10
5.3067273174
 20
4.2320754557
 30
0.0
 10
5.3061155025
 20
4.2328970157
 30
0.0
 10
5.3055819484
 20
4.2335516488
 30
0.0
 10
5.3051359276
 20
4.2340456189
 30
0.0
 10
5.3046858164
 20
4.2345061456
 30
0.0
 10
5.3042045717
 20
4.2349186193
 30
0.0
 10
5.3036750169
 20
4.2352292279
 30
0.0
 10
5.3032638465
 20
4.2353898442
 30
0.0
 10
5.302836722
 20
4.2354592849
 30
0.0
 10
5.3024070321
 20
4.2354351085
 30
0.0
 10
5.3019868019
 20
4.2353183093
 30
0.0
 10
5.3015878045
 20
4.2351161393
 30
0.0
 10
5.3012096545
 20
4.2348531163
 30
0.0
 10
5.3008484813
 20
4.2345473269
 30
0.0
 10
5.3005020217
 20
4.2342106483
 30
0.0
 10
5.3000547562
 20
4.2337271985
 30
0.0
 10
5.2995202583
 20
4.2330825942
 30
0.0
 10
5.2989107433
 20
4.2322690853
 30
0.0
 10
5.2981206783
 20
4.2311420429
 30
0.0
 10
5.2971695164
 20
4.2296893388
 30
0.0
 10
5.2960630776
 20
4.2279098948
 30
0.0
 10
5.2946133017
 20
4.2255003378
 30
0.0
 10
5.2928389057
 20
4.2224527763
 30
0.0
 10
5.2907436533
 20
4.218768224
 30
0.0
 10
5.2886710676
 20
4.2150656003
 30
0.0
 10
5.2866164617
 20
4.2113521757
 30
0.0
 10
5.2845774845
 20
4.2076318357
 30
0.0
 10
5.2825529307
 20
4.2039069398
 30
0.0
 10
5.2805422926
 20
4.2001790254
 30
0.0
 10
5.2785454962
 20
4.1964491771
 30
0.0
 10
5.2765627608
 20
4.1927182148
 30
0.0
 10
5.273940745
 20
4.1877473503
 30
0.0
 10
5.2707017132
 20
4.1815358408
 30
0.0
 10
5.2668780413
 20
4.1740803048
 30
0.0
 10
5.2631288425
 20
4.1666336895
 30
0.0
 10
5.2594633051
 20
4.1592004575
 30
0.0
 10
5.2558918743
 20
4.1517857023
 30
0.0
 10
5.2535709262
 20
4.1468363527
 30
0.0
 10
5.2524296774
 20
4.1443651318
 30
0.0
  0
SPLINE
  5
4CC
100
AcDbEntity
  8
ALL_ASSEMBLY_MEMBERS
100
AcDbSpline
 62
7
  6
CONTINUOUS
 70
0
 71
3
 72
11
 73
7
 74
0
 42
0.0000001
 43
0.0000001
 44
0.0000000001
 40
0.0
 40
0.0
 40
0.0
 40
0.0
 40
0.2548512323
 40
0.5078148277
 40
0.7567998079
 40
1.0
 40
1.0
 40
1.0
 40
1.0
 10
5.2304128073
 20
4.2412889934
 30
0.0
 10
5.2304127334
 20
4.2345741591
 30
0.0
 10
5.2304504846
 20
4.2211942124
 30
0.0
 10
5.230592316
 20
4.2012544712
 30
0.0
 10
5.2308047112
 20
4.1816223493
 30
0.0
 10
5.2309983805
 20
4.1686556339
 30
0.0
 10
5.2311057884
 20
4.1622486821
 30
0.0
  0
SPLINE
  5
4CD
100
AcDbEntity
  8
ALL_ASSEMBLY_MEMBERS
100
AcDbSpline
 62
7
  6
CONTINUOUS
 70
0
 71
3
 72
9
 73
5
 74
0
 42
0.0000001
 43
0.0000001
 44
0.0000000001
 40
0.0
 40
0.0
 40
0.0
 40
0.0
 40
0.4816263401
 40
1.0
 40
1.0
 40
1.0
 40
1.0
 10
5.2252366632
 20
4.2412895265
 30
0.0
 10
5.2232282252
 20
4.2422499098
 30
0.0
 10
5.2189963176
 20
4.2441155879
 30
0.0
 10
5.2146807985
 20
4.2457762582
 30
0.0
 10
5.2124265839
 20
4.2465885524
 30
0.0
  0
SPLINE
  5
4CE
100
AcDbEntity
  8
ALL_ASSEMBLY_MEMBERS
100
AcDbSpline
 62
7
  6
CONTINUOUS
 70
0
 71
3
 72
15
 73
11
 74
0
 42
0.0000001
 43
0.0000001
 44
0.0000000001
 40
0.0
 40
0.0
 40
0.0
 40
0.0
 40
0.1249670267
 40
0.2499810246
 40
0.37496886
 40
0.4999640837
 40
0.6249654221
 40
0.7499690441
 40
0.8750048404
 40
1.0
 40
1.0
 40
1.0
 40
1.0
 10
5.3989156315
 20
4.0946717891
 30
0.0
 10
5.3947533287
 20
4.0998082885
 30
0.0
 10
5.3868499861
 20
4.1104343404
 30
0.0
 10
5.376365289
 20
4.1273003971
 30
0.0
 10
5.3673318581
 20
4.1449899765
 30
0.0
 10
5.3598273994
 20
4.1633796056
 30
0.0
 10
5.3539138605
 20
4.1823419353
 30
0.0
 10
5.3496471819
 20
4.2017443851
 30
0.0
 10
5.3470749336
 20
4.2214415696
 30
0.0
 10
5.3465018688
 20
4.2346762729
 30
0.0
 10
5.3465016135
 20
4.2412889934
 30
0.0
  0
SPLINE
  5
4CF
100
AcDbEntity
  8
ALL_ASSEMBLY_MEMBERS
100
AcDbSpline
 62
7
  6
CONTINUOUS
 70
0
 71
3
 72
67
 73
63
 74
0
 42
0.0000001
 43
0.0000001
 44
0.0000000001
 40
0.0
 40
0.0
 40
0.0
 40
0.0
 40
0.0296144954
 40
0.0594721595
 40
0.0895383446
 40
0.1197822262
 40
0.1501763953
 40
0.1806963348
 40
0.1959964437
 40
0.2113197104
 40
0.2266634512
 40
0.2420248688
 40
0.2574008814
 40
0.2727878237
 40
0.2881808863
 40
0.3035729964
 40
0.3189522379
 40
0.3342952159
 40
0.3419383133
 40
0.3495459886
 40
0.3570914849
 40
0.3608263276
 40
0.3645192144
 40
0.3681485596
 40
0.3699317669
 40
0.3716859019
 40
0.375062858
 40
0.3766749615
 40
0.3782354185
 40
0.3813035564
 40
0.3845192036
 40
0.3862216451
 40
0.3879625066
 40
0.3915353193
 40
0.3951968871
 40
0.398917676
 40
0.4026775264
 40
0.4064648964
 40
0.4140964763
 40
0.4217778629
 40
0.4294918202
 40
0.4372287833
 40
0.4449829997
 40
0.4527508395
 40
0.4683185388
 40
0.483920303
 40
0.4995503652
 40
0.5152057708
 40
0.5308850944
 40
0.5465878089
 40
0.5623139571
 40
0.578063966
 40
0.6096385369
 40
0.641319292
 40
0.673116002
 40
0.7050397271
 40
0.7371023535
 40
0.76931623
 40
0.8016938433
 40
0.8669864428
 40
0.9330684183
 40
1.0
 40
1.0
 40
1.0
 40
1.0
 10
5.1019187098
 20
4.1443639274
 30
0.0
 10
5.1007774555
 20
4.1468351741
 30
0.0
 10
5.0984564918
 20
4.1517845708
 30
0.0
 10
5.0948850404
 20
4.1591993961
 30
0.0
 10
5.0912194813
 20
4.1666326946
 30
0.0
 10
5.0874702585
 20
4.1740793745
 30
0.0
 10
5.0836465597
 20
4.1815349735
 30
0.0
 10
5.0804075088
 20
4.1877465373
 30
0.0
 10
5.0777854743
 20
4.1927174437
 30
0.0
 10
5.0758027242
 20
4.1964484374
 30
0.0
 10
5.0738059134
 20
4.2001783175
 30
0.0
 10
5.0717952609
 20
4.2039062642
 30
0.0
 10
5.0697706927
 20
4.2076311929
 30
0.0
 10
5.0677317042
 20
4.2113515674
 30
0.0
 10
5.0656770768
 20
4.2150650218
 30
0.0
 10
5.0636044865
 20
4.2187676852
 30
0.0
 10
5.0615092065
 20
4.2224522662
 30
0.0
 10
5.0597348302
 20
4.2254998779
 30
0.0
 10
5.0582849874
 20
4.227909442
 30
0.0
 10
5.0571786581
 20
4.2296889954
 30
0.0
 10
5.0562274275
 20
4.2311417358
 30
0.0
 10
5.055437371
 20
4.2322688292
 30
0.0
 10
5.0548279936
 20
4.2330825022
 30
0.0
 10
5.0542933527
 20
4.2337271045
 30
0.0
 10
5.0538453671
 20
4.234210469
 30
0.0
 10
5.0533918989
 20
4.2346554603
 30
0.0
 10
5.0529012796
 20
4.2350429431
 30
0.0
 10
5.0523606197
 20
4.2353136201
 30
0.0
 10
5.0518062875
 20
4.2354735792
 30
0.0
 10
5.0510596375
 20
4.2354359656
 30
0.0
 10
5.0503960353
 20
4.2350881479
 30
0.0
 10
5.0499107652
 20
4.2347156628
 30
0.0
 10
5.0494308729
 20
4.2342836642
 30
0.0
 10
5.0488696504
 20
4.2336774238
 30
0.0
 10
5.0482325361
 20
4.2328972476
 30
0.0
 10
5.0476207535
 20
4.2320755994
 30
0.0
 10
5.0470248517
 20
4.2312284085
 30
0.0
 10
5.0462443336
 20
4.2300719099
 30
0.0
 10
5.0452930507
 20
4.228596166
 30
0.0
 10
5.0441738201
 20
4.2267997217
 30
0.0
 10
5.0430671178
 20
4.2249841893
 30
0.0
 10
5.0419683888
 20
4.2231560259
 30
0.0
 10
5.0408748117
 20
4.2213190136
 30
0.0
 10
5.0394200687
 20
4.2188593666
 30
0.0
 10
5.0376068736
 20
4.2157737063
 30
0.0
 10
5.0354331536
 20
4.2120617142
 30
0.0
 10
5.0332563592
 20
4.2083421798
 30
0.0
 10
5.0310739119
 20
4.2046176941
 30
0.0
 10
5.0288838882
 20
4.2008899101
 30
0.0
 10
5.0266846879
 20
4.1971599812
 30
0.0
 10
5.0244748901
 20
4.1934287661
 30
0.0
 10
5.0215102491
 20
4.1884490861
 30
0.0
 10
5.0177709639
 20
4.1822239104
 30
0.0
 10
5.0132239032
 20
4.1747635424
 30
0.0
 10
5.008602478
 20
4.1673111863
 30
0.0
 10
5.0038950471
 20
4.1598712415
 30
0.0
 10
4.9990892089
 20
4.1524487157
 30
0.0
 10
4.9941718092
 20
4.1450493703
 30
0.0
 10
4.9874297927
 20
4.1351965827
 30
0.0
 10
4.9786463835
 20
4.1229699338
 30
0.0
 10
4.9674632354
 20
4.1085703764
 30
0.0
 10
4.9595373979
 20
4.0992538581
 30
0.0
 10
4.9554321939
 20
4.0946717883
 30
0.0
  0
SPLINE
  5
4D0
100
AcDbEntity
  8
ALL_ASSEMBLY_MEMBERS
100
AcDbSpline
 62
7
  6
CONTINUOUS
 70
0
 71
3
 72
11
 73
7
 74
0
 42
0.0000001
 43
0.0000001
 44
0.0000000001
 40
0.0
 40
0.0
 40
0.0
 40
0.0
 40
0.3043957799
 40
0.5717163218
 40
0.8025450157
 40
1.0
 40
1.0
 40
1.0
 40
1.0
 10
5.3489984323
 20
4.24128853
 30
0.0
 10
5.3496038558
 20
4.241717612
 30
0.0
 10
5.3507120811
 20
4.2425660591
 30
0.0
 10
5.3521431165
 20
4.2439064838
 30
0.0
 10
5.3532228023
 20
4.2452211378
 30
0.0
 10
5.353736547
 20
4.2461409931
 30
0.0
 10
5.3539142785
 20
4.246588336
 30
0.0
  0
SPLINE
  5
4D1
100
AcDbEntity
  8
ALL_ASSEMBLY_MEMBERS
100
AcDbSpline
 62
7
  6
CONTINUOUS
 70
0
 71
3
 72
12
 73
8
 74
0
 42
0.0000001
 43
0.0000001
 44
0.0000000001
 40
0.0
 40
0.0
 40
0.0
 40
0.0
 40
0.2444547
 40
0.493163984
 40
0.6188203711
 40
0.7452670947
 40
1.0
 40
1.0
 40
1.0
 40
1.0
 10
5.6152485225
 20
4.0322712259
 30
0.0
 10
5.6163720407
 20
4.0316062852
 30
0.0
 10
5.6186412428
 20
4.0302692593
 30
0.0
 10
5.6214837424
 20
4.0285832406
 30
0.0
 10
5.6237667506
 20
4.0271895475
 30
0.0
 10
5.6260584849
 20
4.02574959
 30
0.0
 10
5.6277480411
 20
4.0246096782
 30
0.0
 10
5.6288356573
 20
4.0237924444
 30
0.0
  0
SPLINE
  5
4D2
100
AcDbEntity
  8
ALL_ASSEMBLY_MEMBERS
100
AcDbSpline
 62
7
  6
CONTINUOUS
 70
0
 71
3
 72
15
 73
11
 74
0
 42
0.0000001
 43
0.0000001
 44
0.0000000001
 40
0.0
 40
0.0
 40
0.0
 40
0.0
 40
0.1249951595
 40
0.2500309564
 40
0.3750345783
 40
0.5000359167
 40
0.6250311406
 40
0.750018976
 40
0.8750329736
 40
1.0
 40
1.0
 40
1.0
 40
1.0
 10
5.0078462126
 20
4.2412889934
 30
0.0
 10
5.0078459581
 20
4.2346762728
 30
0.0
 10
5.0072728931
 20
4.2214415694
 30
0.0
 10
5.0047006438
 20
4.2017443849
 30
0.0
 10
5.0004339654
 20
4.1823419349
 30
0.0
 10
4.9945204265
 20
4.1633796051
 30
0.0
 10
4.9870159678
 20
4.1449899759
 30
0.0
 10
4.9779825367
 20
4.1273003964
 30
0.0
 10
4.9674978394
 20
4.1104343397
 30
0.0
 10
4.9595944967
 20
4.0998082878
 30
0.0
 10
4.9554321939
 20
4.0946717883
 30
0.0
  0
SPLINE
  5
4D3
100
AcDbEntity
  8
ALL_ASSEMBLY_MEMBERS
100
AcDbSpline
 62
7
  6
CONTINUOUS
 70
0
 71
3
 72
31
 73
27
 74
0
 42
0.0000001
 43
0.0000001
 44
0.0000000001
 40
0.0
 40
0.0
 40
0.0
 40
0.0
 40
0.0003436024
 40
0.0006944239
 40
0.0011539957
 40
0.0017712853
 40
0.0035440912
 40
0.006072692
 40
0.0093669916
 40
0.0134259432
 40
0.0182445374
 40
0.023815932
 40
0.0371598073
 40
0.053300254
 40
0.0720660677
 40
0.0932845669
 40
0.1423972807
 40
0.1993234052
 40
0.2627735315
 40
0.3316717551
 40
0.4051832233
 40
0.4825059686
 40
0.5630580968
 40
0.6463937639
 40
0.8197463746
 40
1.0
 40
1.0
 40
1.0
 40
1.0
 10
5.5938198938
 20
4.0463456656
 30
0.0
 10
5.593817266
 20
4.0463443434
 30
0.0
 10
5.593812338
 20
4.0463402635
 30
0.0
 10
5.5938103596
 20
4.046330019
 30
0.0
 10
5.5938133256
 20
4.0463179941
 30
0.0
 10
5.593823965
 20
4.0462959468
 30
0.0
 10
5.593849492
 20
4.0462621176
 30
0.0
 10
5.593893241
 20
4.0462140494
 30
0.0
 10
5.5939538399
 20
4.0461549238
 30
0.0
 10
5.5940309827
 20
4.0460848669
 30
0.0
 10
5.5941246502
 20
4.0460040485
 30
0.0
 10
5.5942809302
 20
4.0458741821
 30
0.0
 10
5.5945159027
 20
4.0456874262
 30
0.0
 10
5.5948436647
 20
4.0454360024
 30
0.0
 10
5.5952285809
 20
4.0451483829
 30
0.0
 10
5.5958440277
 20
4.0446977553
 30
0.0
 10
5.5967308549
 20
4.0440648474
 30
0.0
 10
5.5979212985
 20
4.04323516
 30
0.0
 10
5.5992593759
 20
4.0423211794
 30
0.0
 10
5.6007229601
 20
4.0413393183
 30
0.0
 10
5.602293151
 20
4.0403032846
 30
0.0
 10
5.6039546278
 20
4.0392245403
 30
0.0
 10
5.6056945682
 20
4.0381122913
 30
0.0
 10
5.6081377032
 20
4.0365737867
 30
0.0
 10
5.6113234978
 20
4.034613003
 30
0.0
 10
5.6139205224
 20
4.0330572494
 30
0.0
 10
5.6152485225
 20
4.0322712259
 30
0.0
  0
SPLINE
  5
4D4
100
AcDbEntity
  8
ALL_ASSEMBLY_MEMBERS
100
AcDbSpline
 62
7
  6
CONTINUOUS
 70
0
 71
3
 72
11
 73
7
 74
0
 42
0.0000001
 43
0.0000001
 44
0.0000000001
 40
0.0
 40
0.0
 40
0.0
 40
0.0
 40
0.2432001945
 40
0.4921851753
 40
0.7451487696
 40
1.0
 40
1.0
 40
1.0
 40
1.0
 10
5.1232420379
 20
4.1622486972
 30
0.0
 10
5.1233494456
 20
4.1686556479
 30
0.0
 10
5.1235431145
 20
4.1816223609
 30
0.0
 10
5.12375551
 20
4.201254479
 30
0.0
 10
5.1238973418
 20
4.2211942164
 30
0.0
 10
5.1239350929
 20
4.2345741604
 30
0.0
 10
5.1239350188
 20
4.2412889934
 30
0.0
  0
SPLINE
  5
4D5
100
AcDbEntity
  8
ALL_ASSEMBLY_MEMBERS
100
AcDbSpline
 62
7
  6
CONTINUOUS
 70
0
 71
3
 72
11
 73
7
 74
0
 42
0.0000001
 43
0.0000001
 44
0.0000000001
 40
0.0
 40
0.0
 40
0.0
 40
0.0
 40
0.2529755668
 40
0.5044681101
 40
0.7534780767
 40
1.0
 40
1.0
 40
1.0
 40
1.0
 10
5.183534195
 20
3.8910957007
 30
0.0
 10
5.1872963075
 20
3.8911103324
 30
0.0
 10
5.1948468719
 20
3.8923266346
 30
0.0
 10
5.2049726859
 20
3.8975390342
 30
0.0
 10
5.2128882116
 20
3.9056013379
 30
0.0
 10
5.2161444111
 20
3.9123897303
 30
0.0
 10
5.2171590791
 20
3.9159126859
 30
0.0
  0
SPLINE
  5
4D6
100
AcDbEntity
  8
ALL_ASSEMBLY_MEMBERS
100
AcDbSpline
 62
7
  6
CONTINUOUS
 70
0
 71
3
 72
11
 73
7
 74
0
 42
0.0000001
 43
0.0000001
 44
0.0000000001
 40
0.0
 40
0.0
 40
0.0
 40
0.0
 40
0.2530241376
 40
0.504488613
 40
0.7534588729
 40
1.0
 40
1.0
 40
1.0
 40
1.0
 10
5.1835418055
 20
3.890418014
 30
0.0
 10
5.1873015255
 20
3.8904272864
 30
0.0
 10
5.1948479693
 20
3.8916314745
 30
0.0
 10
5.2049719949
 20
3.8968267864
 30
0.0
 10
5.2128880253
 20
3.9048749719
 30
0.0
 10
5.2161456185
 20
3.9116555711
 30
0.0
 10
5.2171617291
 20
3.915175232
 30
0.0
  0
SPLINE
  5
4D7
100
AcDbEntity
  8
ALL_ASSEMBLY_MEMBERS
100
AcDbSpline
 62
7
  6
CONTINUOUS
 70
0
 71
3
 72
11
 73
7
 74
0
 42
0.0000001
 43
0.0000001
 44
0.0000000001
 40
0.0
 40
0.0
 40
0.0
 40
0.0
 40
0.2504293414
 40
0.5006359355
 40
0.7504887728
 40
1.0
 40
1.0
 40
1.0
 40
1.0
 10
5.1835418251
 20
3.8213333415
 30
0.0
 10
5.1873042475
 20
3.821342881
 30
0.0
 10
5.1948783968
 20
3.8225895519
 30
0.0
 10
5.2050123476
 20
3.8279546283
 30
0.0
 10
5.212915361
 20
3.8362448061
 30
0.0
 10
5.2161485729
 20
3.8431878799
 30
0.0
 10
5.2171616441
 20
3.8467970341
 30
0.0
  0
LINE
  5
4D8
100
AcDbEntity
  8
ALL_ASSEMBLY_MEMBERS
100
AcDbLine
 62
7
  6
CONTINUOUS
 10
5.8094607822
 20
3.8910956721
 11
5.8031698479
 21
3.9159126849
  0
SPLINE
  5
4D9
100
AcDbEntity
  8
ALL_ASSEMBLY_MEMBERS
100
AcDbSpline
 62
7
  6
CONTINUOUS
 70
0
 71
3
 72
12
 73
8
 74
0
 42
0.0000001
 43
0.0000001
 44
0.0000000001
 40
0.0
 40
0.0
 40
0.0
 40
0.0
 40
0.2437270052
 40
0.4924710812
 40
0.6182861784
 40
0.7448952785
 40
1.0
 40
1.0
 40
1.0
 40
1.0
 10
5.6260097165
 20
4.0434776203
 30
0.0
 10
5.6267739198
 20
4.0423351909
 30
0.0
 10
5.6283185878
 20
4.0400271713
 30
0.0
 10
5.6302393132
 20
4.0371170884
 30
0.0
 10
5.6317699516
 20
4.0347410981
 30
0.0
 10
5.63329817
 20
4.032321227
 30
0.0
 10
5.6344056757
 20
4.0304740349
 30
0.0
 10
5.6351039903
 20
4.0292162572
 30
0.0
  0
SPLINE
  5
4DA
100
AcDbEntity
  8
ALL_ASSEMBLY_MEMBERS
100
AcDbSpline
 62
7
  6
CONTINUOUS
 70
0
 71
3
 72
14
 73
10
 74
0
 42
0.0000001
 43
0.0000001
 44
0.0000000001
 40
0.0
 40
0.0
 40
0.0
 40
0.0
 40
0.2546000468
 40
0.3812179564
 40
0.5071379925
 40
0.632150613
 40
0.7560579207
 40
0.8787187204
 40
1.0
 40
1.0
 40
1.0
 40
1.0
 10
5.1291111642
 20
4.2412889986
 30
0.0
 10
5.1298408089
 20
4.2359241532
 30
0.0
 10
5.130716614
 20
4.2278611655
 30
0.0
 10
5.1315958888
 20
4.2171124554
 30
0.0
 10
5.1321456056
 20
4.2091022039
 30
0.0
 10
5.1326254003
 20
4.2011454216
 30
0.0
 10
5.1330674453
 20
4.193255863
 30
0.0
 10
5.1334706395
 20
4.1854436815
 30
0.0
 10
5.1337167892
 20
4.1802619214
 30
0.0
 10
5.1338340754
 20
4.1776854642
 30
0.0
  0
LINE
  5
4DB
100
AcDbEntity
  8
ALL_ASSEMBLY_MEMBERS
100
AcDbLine
 62
7
  6
CONTINUOUS
 10
5.1338340754
 20
4.1776854642
 11
5.1339237413
 21
4.1756935465
  0
SPLINE
  5
4DC
100
AcDbEntity
  8
ALL_ASSEMBLY_MEMBERS
100
AcDbSpline
 62
7
  6
CONTINUOUS
 70
0
 71
3
 72
15
 73
11
 74
0
 42
0.0000001
 43
0.0000001
 44
0.0000000001
 40
0.0
 40
0.0
 40
0.0
 40
0.0
 40
0.0814884193
 40
0.1871899074
 40
0.3075153653
 40
0.437158893
 40
0.5730261815
 40
0.7131039219
 40
0.8558737919
 40
1.0
 40
1.0
 40
1.0
 40
1.0
 10
5.6314134048
 20
4.0103444975
 30
0.0
 10
5.6327379125
 20
4.0097428756
 30
0.0
 10
5.6357822607
 20
4.0083647603
 30
0.0
 10
5.6407955456
 20
4.0061275314
 30
0.0
 10
5.6466074499
 20
4.0035706007
 30
0.0
 10
5.6529272418
 20
4.0008310472
 30
0.0
 10
5.659586139
 20
3.9979874507
 30
0.0
 10
5.666475698
 20
3.9950875702
 30
0.0
 10
5.6735160602
 20
3.9921662027
 30
0.0
 10
5.6782550426
 20
3.9902234854
 30
0.0
 10
5.6806388759
 20
3.9892552667
 30
0.0
  0
SPLINE
  5
4DD
100
AcDbEntity
  8
ALL_ASSEMBLY_MEMBERS
100
AcDbSpline
 62
7
  6
CONTINUOUS
 70
0
 71
3
 72
18
 73
14
 74
0
 42
0.0000001
 43
0.0000001
 44
0.0000000001
 40
0.0
 40
0.0
 40
0.0
 40
0.0
 40
0.1768985585
 40
0.3458002766
 40
0.502345721
 40
0.6431952726
 40
0.7654195502
 40
0.8187954057
 40
0.8666512741
 40
0.9087639999
 40
0.9450231702
 40
0.9754011421
 40
1.0
 40
1.0
 40
1.0
 40
1.0
 10
5.3800421345
 20
4.0729276654
 30
0.0
 10
5.3813059247
 20
4.0740786995
 30
0.0
 10
5.3837511093
 20
4.076356687
 30
0.0
 10
5.3872228542
 20
4.0797501373
 30
0.0
 10
5.3903577242
 20
4.0829877374
 30
0.0
 10
5.3930829632
 20
4.0859912189
 30
0.0
 10
5.3950444031
 20
4.0883390417
 30
0.0
 10
5.3963538411
 20
4.0900564193
 30
0.0
 10
5.3971542084
 20
4.0911874106
 30
0.0
 10
5.397813407
 20
4.0922142639
 30
0.0
 10
5.398328865
 20
4.0931310941
 30
0.0
 10
5.3986987199
 20
4.0939323494
 30
0.0
 10
5.3988651893
 20
4.0944395169
 30
0.0
 10
5.3989156314
 20
4.0946718059
 30
0.0
  0
SPLINE
  5
4DE
100
AcDbEntity
  8
ALL_ASSEMBLY_MEMBERS
100
AcDbSpline
 62
7
  6
CONTINUOUS
 70
0
 71
3
 72
9
 73
5
 74
0
 42
0.0000001
 43
0.0000001
 44
0.0000000001
 40
0.0
 40
0.0
 40
0.0
 40
0.0
 40
0.4812203243
 40
1.0
 40
1.0
 40
1.0
 40
1.0
 10
5.2601039393
 20
4.0729276653
 30
0.0
 10
5.2597657528
 20
4.0742871971
 30
0.0
 10
5.258713407
 20
4.0770310943
 30
0.0
 10
5.2571312033
 20
4.0794972208
 30
0.0
 10
5.2562102016
 20
4.0806942116
 30
0.0
  0
SPLINE
  5
4DF
100
AcDbEntity
  8
ALL_ASSEMBLY_MEMBERS
100
AcDbSpline
 62
7
  6
CONTINUOUS
 70
0
 71
3
 72
13
 73
9
 74
0
 42
0.0000001
 43
0.0000001
 44
0.0000000001
 40
0.0
 40
0.0
 40
0.0
 40
0.0
 40
0.0791934284
 40
0.1834393437
 40
0.3033210998
 40
0.4332687105
 40
0.7109597957
 40
1.0
 40
1.0
 40
1.0
 40
1.0
 10
5.647011184
 20
4.0292163363
 30
0.0
 10
5.6478517297
 20
4.028123019
 30
0.0
 10
5.6498120955
 20
4.0256008056
 30
0.0
 10
5.6530832746
 20
4.0214535042
 30
0.0
 10
5.6569520239
 20
4.0166521932
 30
0.0
 10
5.6627930372
 20
4.0095618324
 30
0.0
 10
5.6706693991
 20
4.0003327839
 30
0.0
 10
5.6772438178
 20
3.9929710401
 30
0.0
 10
5.6806389898
 20
3.9892551875
 30
0.0
  0
SPLINE
  5
4E0
100
AcDbEntity
  8
ALL_ASSEMBLY_MEMBERS
100
AcDbSpline
 62
7
  6
CONTINUOUS
 70
0
 71
3
 72
15
 73
11
 74
0
 42
0.0000001
 43
0.0000001
 44
0.0000000001
 40
0.0
 40
0.0
 40
0.0
 40
0.0
 40
0.3300067396
 40
0.4842628358
 40
0.6258249609
 40
0.751130598
 40
0.8570539487
 40
0.9407428846
 40
0.9735516977
 40
1.0
 40
1.0
 40
1.0
 40
1.0
 10
5.4108149023
 20
3.8940608673
 30
0.0
 10
5.4111398537
 20
3.8903825954
 30
0.0
 10
5.4115941605
 20
3.8849829334
 30
0.0
 10
5.4121304078
 20
3.8780008271
 30
0.0
 10
5.4124653061
 20
3.8733005678
 30
0.0
 10
5.4127338662
 20
3.86913784
 30
0.0
 10
5.4129296092
 20
3.8656194879
 30
0.0
 10
5.4130367481
 20
3.8631328566
 30
0.0
 10
5.4130769887
 20
3.8615338423
 30
0.0
 10
5.413082741
 20
3.8608707445
 30
0.0
 10
5.4130807847
 20
3.8605748087
 30
0.0
  0
SPLINE
  5
4E1
100
AcDbEntity
  8
ALL_ASSEMBLY_MEMBERS
100
AcDbSpline
 62
7
  6
CONTINUOUS
 70
0
 71
3
 72
11
 73
7
 74
0
 42
0.0000001
 43
0.0000001
 44
0.0000000001
 40
0.0
 40
0.0
 40
0.0
 40
0.0
 40
0.2495519068
 40
0.4994241266
 40
0.7496163072
 40
1.0
 40
1.0
 40
1.0
 40
1.0
 10
5.2562336832
 20
3.8940608923
 30
0.0
 10
5.2562246469
 20
3.8903311752
 30
0.0
 10
5.2549836949
 20
3.8828147613
 30
0.0
 10
5.2496484244
 20
3.8727488618
 30
0.0
 10
5.2414044001
 20
3.8648691773
 30
0.0
 10
5.2345003901
 20
3.8616124743
 30
0.0
 10
5.2309049733
 20
3.8605748146
 30
0.0
  0
SPLINE
  5
4E2
100
AcDbEntity
  8
ALL_ASSEMBLY_MEMBERS
100
AcDbSpline
 62
7
  6
CONTINUOUS
 70
0
 71
3
 72
11
 73
7
 74
0
 42
0.0000001
 43
0.0000001
 44
0.0000000001
 40
0.0
 40
0.0
 40
0.0
 40
0.0
 40
0.2495535118
 40
0.4993376717
 40
0.7494900337
 40
1.0
 40
1.0
 40
1.0
 40
1.0
 10
5.256173913
 20
3.8945579728
 30
0.0
 10
5.256173913
 20
3.8908298001
 30
0.0
 10
5.2549493938
 20
3.883314376
 30
0.0
 10
5.2496259822
 20
3.873248139
 30
0.0
 10
5.2413822076
 20
3.8653732855
 30
0.0
 10
5.2344755128
 20
3.8621254286
 30
0.0
 10
5.2308784585
 20
3.8610923658
 30
0.0
  0
SPLINE
  5
4E3
100
AcDbEntity
  8
ALL_ASSEMBLY_MEMBERS
100
AcDbSpline
 62
7
  6
CONTINUOUS
 70
0
 71
3
 72
11
 73
7
 74
0
 42
0.0000001
 43
0.0000001
 44
0.0000000001
 40
0.0
 40
0.0
 40
0.0
 40
0.0
 40
0.2469486109
 40
0.4954828935
 40
0.7465308706
 40
1.0
 40
1.0
 40
1.0
 40
1.0
 10
5.256173913
 20
3.9611058042
 30
0.0
 10
5.2561739463
 20
3.9574776534
 30
0.0
 10
5.2549410199
 20
3.9501413245
 30
0.0
 10
5.2495962155
 20
3.9403438307
 30
0.0
 10
5.2413419122
 20
3.9326996148
 30
0.0
 10
5.2344651995
 20
3.9295640345
 30
0.0
 10
5.2308784969
 20
3.928562353
 30
0.0
  0
SPLINE
  5
4E4
100
AcDbEntity
  8
ALL_ASSEMBLY_MEMBERS
100
AcDbSpline
 62
7
  6
CONTINUOUS
 70
0
 71
3
 72
11
 73
7
 74
0
 42
0.0000001
 43
0.0000001
 44
0.0000000001
 40
0.0
 40
0.0
 40
0.0
 40
0.0
 40
0.2483207359
 40
0.5030618452
 40
0.7562423662
 40
1.0
 40
1.0
 40
1.0
 40
1.0
 10
4.7390992655
 20
4.0322712934
 30
0.0
 10
4.7380406048
 20
4.0330141975
 30
0.0
 10
4.73597442
 20
4.0346334753
 30
0.0
 10
4.7331124068
 20
4.0373473625
 30
0.0
 10
4.7305313633
 20
4.0402982831
 30
0.0
 10
4.7290196673
 20
4.0424057263
 30
0.0
 10
4.7283383759
 20
4.0434769884
 30
0.0
  0
SPLINE
  5
4E5
100
AcDbEntity
  8
ALL_ASSEMBLY_MEMBERS
100
AcDbSpline
 62
7
  6
CONTINUOUS
 70
0
 71
3
 72
11
 73
7
 74
0
 42
0.0000001
 43
0.0000001
 44
0.0000000001
 40
0.0
 40
0.0
 40
0.0
 40
0.0
 40
0.2514727664
 40
0.5037189665
 40
0.754097718
 40
1.0
 40
1.0
 40
1.0
 40
1.0
 10
4.7255126498
 20
4.0237923283
 30
0.0
 10
4.7249653586
 20
4.0242208899
 30
0.0
 10
4.7238773704
 20
4.025090039
 30
0.0
 10
4.7222838821
 20
4.0264342478
 30
0.0
 10
4.7207365801
 20
4.0278081654
 30
0.0
 10
4.7197331419
 20
4.0287439143
 30
0.0
 10
4.7192440868
 20
4.0292159822
 30
0.0
  0
SPLINE
  5
4E6
100
AcDbEntity
  8
ALL_ASSEMBLY_MEMBERS
100
AcDbSpline
 62
7
  6
CONTINUOUS
 70
0
 71
3
 72
15
 73
11
 74
0
 42
0.0000001
 43
0.0000001
 44
0.0000000001
 40
0.0
 40
0.0
 40
0.0
 40
0.0
 40
0.1232706609
 40
0.2482789542
 40
0.3740509591
 40
0.5000004173
 40
0.6259497919
 40
0.7517215459
 40
0.8767295651
 40
1.0
 40
1.0
 40
1.0
 40
1.0
 10
4.7229342799
 20
4.01034389
 30
0.0
 10
4.7218958066
 20
4.0106122371
 30
0.0
 10
4.7198461322
 20
4.0113286018
 30
0.0
 10
4.7169665471
 20
4.012871302
 30
0.0
 10
4.7143392924
 20
4.014854231
 30
0.0
 10
4.7120489932
 20
4.017229008
 30
0.0
 10
4.7101479404
 20
4.0199254906
 30
0.0
 10
4.7086951699
 20
4.0228791151
 30
0.0
 10
4.7077222682
 20
4.0259976652
 30
0.0
 10
4.707404654
 20
4.0281455583
 30
0.0
 10
4.7073366421
 20
4.0292159822
 30
0.0
  0
SPLINE
  5
4E7
100
AcDbEntity
  8
ALL_ASSEMBLY_MEMBERS
100
AcDbSpline
 62
7
  6
CONTINUOUS
 70
0
 71
3
 72
11
 73
7
 74
0
 42
0.0000001
 43
0.0000001
 44
0.0000000001
 40
0.0
 40
0.0
 40
0.0
 40
0.0
 40
0.2484548853
 40
0.4999996858
 40
0.7515449025
 40
1.0
 40
1.0
 40
1.0
 40
1.0
 10
5.6314133925
 20
4.0103445621
 30
0.0
 10
5.6335002572
 20
4.0108836604
 30
0.0
 10
5.6375483843
 20
4.0126677414
 30
0.0
 10
5.6424931967
 20
4.0170688691
 30
0.0
 10
5.6458849867
 20
4.022753668
 30
0.0
 10
5.6468752063
 20
4.0270652692
 30
0.0
 10
5.6470118282
 20
4.0292163093
 30
0.0
  0
SPLINE
  5
4E8
100
AcDbEntity
  8
ALL_ASSEMBLY_MEMBERS
100
AcDbSpline
 62
7
  6
CONTINUOUS
 70
0
 71
3
 72
15
 73
11
 74
0
 42
0.0000001
 43
0.0000001
 44
0.0000000001
 40
0.0
 40
0.0
 40
0.0
 40
0.0
 40
0.0791205508
 40
0.1736039731
 40
0.2834210531
 40
0.4073863701
 40
0.5436740194
 40
0.6898907447
 40
0.8432263708
 40
1.0
 40
1.0
 40
1.0
 40
1.0
 10
5.6314133791
 20
4.0103445228
 30
0.0
 10
5.6317802088
 20
4.010710322
 30
0.0
 10
5.6324683626
 20
4.011629507
 30
0.0
 10
5.6333000781
 20
4.0132946308
 30
0.0
 10
5.6340013597
 20
4.015331724
 30
0.0
 10
5.6345587848
 20
4.0176928985
 30
0.0
 10
5.6349579726
 20
4.0203267087
 30
0.0
 10
5.635190499
 20
4.0231729395
 30
0.0
 10
5.6352478719
 20
4.026161898
 30
0.0
 10
5.635171141
 20
4.0281921831
 30
0.0
 10
5.6351033611
 20
4.0292164293
 30
0.0
  0
SPLINE
  5
4E9
100
AcDbEntity
  8
ALL_ASSEMBLY_MEMBERS
100
AcDbSpline
 62
7
  6
CONTINUOUS
 70
0
 71
3
 72
11
 73
7
 74
0
 42
0.0000001
 43
0.0000001
 44
0.0000000001
 40
0.0
 40
0.0
 40
0.0
 40
0.0
 40
0.2483192779
 40
0.5030612126
 40
0.7562429764
 40
1.0
 40
1.0
 40
1.0
 40
1.0
 10
5.615248508
 20
4.0322713543
 30
0.0
 10
5.6163071797
 20
4.0330143547
 30
0.0
 10
5.6183733803
 20
4.0346338442
 30
0.0
 10
5.621235394
 20
4.0373480534
 30
0.0
 10
5.6238164284
 20
4.0402992805
 30
0.0
 10
5.62532812
 20
4.0424069067
 30
0.0
 10
5.6260094098
 20
4.0434782497
 30
0.0
  0
SPLINE
  5
4EA
100
AcDbEntity
  8
ALL_ASSEMBLY_MEMBERS
100
AcDbSpline
 62
7
  6
CONTINUOUS
 70
0
 71
3
 72
29
 73
25
 74
0
 42
0.0000001
 43
0.0000001
 44
0.0000000001
 40
0.0
 40
0.0
 40
0.0
 40
0.0
 40
0.062495929
 40
0.0937553278
 40
0.1250152081
 40
0.1875152202
 40
0.2500176787
 40
0.2812806183
 40
0.312544257
 40
0.3750530161
 40
0.4375653989
 40
0.5000818184
 40
0.562602463
 40
0.6251271213
 40
0.6876552788
 40
0.7189308631
 40
0.7502070332
 40
0.8127316315
 40
0.8439965393
 40
0.8752554732
 40
0.9065094767
 40
0.9377511418
 40
0.9689366576
 40
1.0
 40
1.0
 40
1.0
 40
1.0
 10
4.7255126378
 20
4.0237922657
 30
0.0
 10
4.7336939068
 20
4.0223559864
 30
0.0
 10
4.7460936943
 20
4.0208465002
 30
0.0
 10
4.7627000374
 20
4.0201419574
 30
0.0
 10
4.7793226021
 20
4.0203092926
 30
0.0
 10
4.8000500545
 20
4.022151885
 30
0.0
 10
4.820472059
 20
4.026149011
 30
0.0
 10
4.8364876214
 20
4.0306065073
 30
0.0
 10
4.8522501549
 20
4.0358917567
 30
0.0
 10
4.8714070711
 20
4.0440268052
 30
0.0
 10
4.8932543742
 20
4.0561169318
 30
0.0
 10
4.9137354998
 20
4.0704046396
 30
0.0
 10
4.9326277353
 20
4.0867380832
 30
0.0
 10
4.9497272717
 20
4.1049404418
 30
0.0
 10
4.9623279037
 20
4.1215127685
 30
0.0
 10
4.97132514
 20
4.1355001611
 30
0.0
 10
4.9795754048
 20
4.1499393954
 30
0.0
 10
4.9866832334
 20
4.1650055322
 30
0.0
 10
4.9925801228
 20
4.1805506003
 30
0.0
 10
4.9963882801
 20
4.1924250607
 30
0.0
 10
4.9995657399
 20
4.2044800873
 30
0.0
 10
5.002103016
 20
4.2166756201
 30
0.0
 10
5.0040448926
 20
4.2289531436
 30
0.0
 10
5.0049717353
 20
4.2371776161
 30
0.0
 10
5.0053489971
 20
4.2412889986
 30
0.0
  0
SPLINE
  5
4EB
100
AcDbEntity
  8
ALL_ASSEMBLY_MEMBERS
100
AcDbSpline
 62
7
  6
CONTINUOUS
 70
0
 71
3
 72
9
 73
5
 74
0
 42
0.0000001
 43
0.0000001
 44
0.0000000001
 40
0.0
 40
0.0
 40
0.0
 40
0.0
 40
0.2498952474
 40
1.0
 40
1.0
 40
1.0
 40
1.0
 10
4.9554322407
 20
4.0946718524
 30
0.0
 10
4.9526605245
 20
4.0913617848
 30
0.0
 10
4.9412095298
 20
4.0784195258
 30
0.0
 10
4.9284132552
 20
4.0666809379
 30
0.0
 10
4.9182640458
 20
4.0586229145
 30
0.0
  0
SPLINE
  5
4EC
100
AcDbEntity
  8
ALL_ASSEMBLY_MEMBERS
100
AcDbSpline
 62
7
  6
CONTINUOUS
 70
0
 71
3
 72
17
 73
13
 74
0
 42
0.0000001
 43
0.0000001
 44
0.0000000001
 40
0.0
 40
0.0
 40
0.0
 40
0.0
 40
0.1249764169
 40
0.2499833487
 40
0.3749652269
 40
0.4999558565
 40
0.5624744917
 40
0.624991557
 40
0.6875051746
 40
0.750017662
 40
0.8750236279
 40
1.0
 40
1.0
 40
1.0
 40
1.0
 10
4.9182640458
 20
4.0586229145
 30
0.0
 10
4.9114952285
 20
4.0532490147
 30
0.0
 10
4.8973699514
 20
4.0432153441
 30
0.0
 10
4.8747086364
 20
4.0305144267
 30
0.0
 10
4.850818481
 20
4.0203044906
 30
0.0
 10
4.8301100861
 20
4.0139711332
 30
0.0
 10
4.8132153956
 20
4.0102609145
 30
0.0
 10
4.8004098997
 20
4.0081621954
 30
0.0
 10
4.7875104206
 20
4.0067560323
 30
0.0
 10
4.7702381962
 20
4.005812119
 30
0.0
 10
4.7485915363
 20
4.0063855204
 30
0.0
 10
4.7314223596
 20
4.0087165803
 30
0.0
 10
4.7229342814
 20
4.0103438979
 30
0.0
  0
SPLINE
  5
4ED
100
AcDbEntity
  8
ALL_ASSEMBLY_MEMBERS
100
AcDbSpline
 62
7
  6
CONTINUOUS
 70
0
 71
3
 72
11
 73
7
 74
0
 42
0.0000001
 43
0.0000001
 44
0.0000000001
 40
0.0
 40
0.0
 40
0.0
 40
0.0
 40
0.2471663119
 40
0.4961383477
 40
0.7471716749
 40
1.0
 40
1.0
 40
1.0
 40
1.0
 10
5.1371860969
 20
3.9151752256
 30
0.0
 10
5.1367298476
 20
3.91675562
 30
0.0
 10
5.1353899338
 20
3.9198216782
 30
0.0
 10
5.1322644774
 20
3.923756893
 30
0.0
 10
5.1282222533
 20
3.9268036545
 30
0.0
 10
5.1250899661
 20
3.9281106904
 30
0.0
 10
5.1234693675
 20
3.9285633024
 30
0.0
  0
LINE
  5
4EE
100
AcDbEntity
  8
ALL_ASSEMBLY_MEMBERS
100
AcDbLine
 62
7
  6
CONTINUOUS
 10
5.1234428494
 20
3.8605748154
 11
5.1234693676
 21
3.8610923657
  0
SPLINE
  5
4EF
100
AcDbEntity
  8
ALL_ASSEMBLY_MEMBERS
100
AcDbSpline
 62
7
  6
CONTINUOUS
 70
0
 71
3
 72
31
 73
27
 74
0
 42
0.0000001
 43
0.0000001
 44
0.0000000001
 40
0.0
 40
0.0
 40
0.0
 40
0.0
 40
0.1927432254
 40
0.3779726337
 40
0.4655797296
 40
0.5487312753
 40
0.6266336475
 40
0.6985440194
 40
0.7637885229
 40
0.8217722262
 40
0.8478761532
 40
0.8719815209
 40
0.8940409735
 40
0.9140127252
 40
0.9318687317
 40
0.9475889976
 40
0.9611685223
 40
0.9726255118
 40
0.9775739698
 40
0.9820169408
 40
0.9859729971
 40
0.9894692418
 40
0.9925458839
 40
0.9952630966
 40
0.9977082168
 40
1.0
 40
1.0
 40
1.0
 40
1.0
 10
4.9412669613
 20
3.8605748143
 30
0.0
 10
4.9530350701
 20
3.8594763906
 30
0.0
 10
4.976132094
 20
3.8575266174
 30
0.0
 10
5.0046224785
 20
3.8556524888
 30
0.0
 10
5.0264257393
 20
3.8545712509
 30
0.0
 10
5.0416634455
 20
3.8539947294
 30
0.0
 10
5.0559452265
 20
3.8536423546
 30
0.0
 10
5.0691328404
 20
3.8535173536
 30
0.0
 10
5.0810992478
 20
3.8536204295
 30
0.0
 10
5.0902532958
 20
3.8539022315
 30
0.0
 10
5.0968786899
 20
3.8542552219
 30
0.0
 10
5.1012996297
 20
3.8545661843
 30
0.0
 10
5.1053390397
 20
3.8549315118
 30
0.0
 10
5.1089878796
 20
3.8553503281
 30
0.0
 10
5.1122381651
 20
3.8558210615
 30
0.0
 10
5.1150834373
 20
3.8563421004
 30
0.0
 10
5.1175179546
 20
3.8569119546
 30
0.0
 10
5.1192792018
 20
3.8574481917
 30
0.0
 10
5.1204712697
 20
3.8579118181
 30
0.0
 10
5.1212154519
 20
3.8582540157
 30
0.0
 10
5.12185436
 20
3.8586077054
 30
0.0
 10
5.1223881152
 20
3.8589731546
 30
0.0
 10
5.1228168172
 20
3.8593510336
 30
0.0
 10
5.1231401864
 20
3.8597427551
 30
0.0
 10
5.1233563806
 20
3.8601495932
 30
0.0
 10
5.1234272728
 20
3.8604351363
 30
0.0
 10
5.1234427791
 20
3.8605748133
 30
0.0
  0
SPLINE
  5
4F0
100
AcDbEntity
  8
ALL_ASSEMBLY_MEMBERS
100
AcDbSpline
 62
7
  6
CONTINUOUS
 70
0
 71
3
 72
33
 73
29
 74
0
 42
0.0000001
 43
0.0000001
 44
0.0000000001
 40
0.0
 40
0.0
 40
0.0
 40
0.0
 40
0.0023210982
 40
0.004735378
 40
0.0073756762
 40
0.0103446367
 40
0.0137149792
 40
0.017535878
 40
0.0218399086
 40
0.0266490693
 40
0.0378355712
 40
0.0511671908
 40
0.0666655842
 40
0.0843294461
 40
0.1041400976
 40
0.1260676248
 40
0.1500711025
 40
0.176102041
 40
0.234017071
 40
0.2992938562
 40
0.3713224176
 40
0.4494158743
 40
0.5328222823
 40
0.6207356977
 40
0.7123081115
 40
0.8066488302
 40
0.9028674267
 40
1.0
 40
1.0
 40
1.0
 40
1.0
 10
5.1371860638
 20
3.8467970351
 30
0.0
 10
5.137185978
 20
3.8466427443
 30
0.0
 10
5.1371447525
 20
3.846326478
 30
0.0
 10
5.1369584063
 20
3.8458681045
 30
0.0
 10
5.1366522169
 20
3.8454270958
 30
0.0
 10
5.1362293506
 20
3.8450024845
 30
0.0
 10
5.1356906218
 20
3.8445924939
 30
0.0
 10
5.1350360395
 20
3.8441961497
 30
0.0
 10
5.1342655508
 20
3.8438128911
 30
0.0
 10
5.1330195345
 20
3.8432929325
 30
0.0
 10
5.1311617823
 20
3.8426922591
 30
0.0
 10
5.12857786
 20
3.8420551137
 30
0.0
 10
5.1255415226
 20
3.8414724735
 30
0.0
 10
5.1220591021
 20
3.84094625
 30
0.0
 10
5.118137771
 20
3.8404782066
 30
0.0
 10
5.1137864504
 20
3.8400699153
 30
0.0
 10
5.1090152436
 20
3.8397225221
 30
0.0
 10
5.1018500436
 20
3.8393280836
 30
0.0
 10
5.0919343867
 20
3.8390134293
 30
0.0
 10
5.0789571575
 20
3.8388986287
 30
0.0
 10
5.0646388751
 20
3.8390383594
 30
0.0
 10
5.0491199482
 20
3.8394319177
 30
0.0
 10
5.0325527188
 20
3.8400761975
 30
0.0
 10
5.0150996751
 20
3.8409652934
 30
0.0
 10
4.9969320359
 20
3.8420908303
 30
0.0
 10
4.9782262508
 20
3.8434419761
 30
0.0
 10
4.9591662096
 20
3.8450057847
 30
0.0
 10
4.9463668758
 20
3.8461780012
 30
0.0
 10
4.9399399039
 20
3.8467970341
 30
0.0
  0
SPLINE
  5
4F1
100
AcDbEntity
  8
ALL_ASSEMBLY_MEMBERS
100
AcDbSpline
 62
7
  6
CONTINUOUS
 70
0
 71
3
 72
39
 73
35
 74
0
 42
0.0000001
 43
0.0000001
 44
0.0000000001
 40
0.0
 40
0.0
 40
0.0
 40
0.0
 40
0.0312166552
 40
0.0624415364
 40
0.0936668779
 40
0.1248985345
 40
0.1561347522
 40
0.1873753027
 40
0.218620423
 40
0.249870439
 40
0.2811245512
 40
0.3123808
 40
0.3436363933
 40
0.3748917348
 40
0.4061468451
 40
0.4374023383
 40
0.468657652
 40
0.499913307
 40
0.5311685609
 40
0.5624240915
 40
0.5936792009
 40
0.624934712
 40
0.6561898713
 40
0.6874454589
 40
0.7187007442
 40
0.7499563305
 40
0.7812117029
 40
0.8124672178
 40
0.8437226712
 40
0.8749781038
 40
0.9062336569
 40
0.9374890425
 40
0.9687446929
 40
1.0
 40
1.0
 40
1.0
 40
1.0
 10
4.7073363249
 20
4.0434790992
 30
0.0
 10
4.707335735
 20
4.0473843878
 30
0.0
 10
4.7069453976
 20
4.0552014975
 30
0.0
 10
4.7051985024
 20
4.0668071836
 30
0.0
 10
4.7023057043
 20
4.0781846587
 30
0.0
 10
4.6982973708
 20
4.0892197371
 30
0.0
 10
4.6932150282
 20
4.0998052091
 30
0.0
 10
4.6871126562
 20
4.1098392584
 30
0.0
 10
4.6800486605
 20
4.1192232038
 30
0.0
 10
4.6720974011
 20
4.1278704275
 30
0.0
 10
4.6633337938
 20
4.1356951391
 30
0.0
 10
4.6538482854
 20
4.1426281706
 30
0.0
 10
4.6437293576
 20
4.1485990926
 30
0.0
 10
4.6330776929
 20
4.15355707
 30
0.0
 10
4.6219928276
 20
4.157451317
 30
0.0
 10
4.6105819325
 20
4.1602494657
 30
0.0
 10
4.5989524187
 20
4.1619214427
 30
0.0
 10
4.5872154443
 20
4.1624534265
 30
0.0
 10
4.5754824247
 20
4.1618381938
 30
0.0
 10
4.5638655562
 20
4.1600807508
 30
0.0
 10
4.5524756269
 20
4.1571975444
 30
0.0
 10
4.5414228645
 20
4.1532127404
 30
0.0
 10
4.5308126179
 20
4.148166091
 30
0.0
 10
4.520749814
 20
4.1421009804
 30
0.0
 10
4.5113296535
 20
4.1350789083
 30
0.0
 10
4.5026479898
 20
4.1271619918
 30
0.0
 10
4.4947857029
 20
4.1184306988
 30
0.0
 10
4.4878254798
 20
4.1089646104
 30
0.0
 10
4.4818306283
 20
4.0988594557
 30
0.0
 10
4.4768665742
 20
4.088209936
 30
0.0
 10
4.4729768359
 20
4.077122918
 30
0.0
 10
4.4702059147
 20
4.0657043639
 30
0.0
 10
4.4685763734
 20
4.0540692325
 30
0.0
 10
4.4682645068
 20
4.0462399308
 30
0.0
 10
4.4683027086
 20
4.0423299933
 30
0.0
  0
SPLINE
  5
4F2
100
AcDbEntity
  8
ALL_ASSEMBLY_MEMBERS
100
AcDbSpline
 62
7
  6
CONTINUOUS
 70
0
 71
3
 72
40
 73
36
 74
0
 42
0.0000001
 43
0.0000001
 44
0.0000000001
 40
0.0
 40
0.0
 40
0.0
 40
0.0
 40
0.031216885
 40
0.0624363472
 40
0.0936590539
 40
0.1248844503
 40
0.1561129992
 40
0.1873454883
 40
0.2185828127
 40
0.2498250284
 40
0.2810714615
 40
0.3123218643
 40
0.343575207
 40
0.3748313117
 40
0.4060885883
 40
0.4373468413
 40
0.4686047246
 40
0.4998626138
 40
0.5311201441
 40
0.5623780646
 40
0.5936357334
 40
0.6248937215
 40
0.6561513651
 40
0.6874092791
 40
0.7186669889
 40
0.7499250845
 40
0.7811828499
 40
0.8124408535
 40
0.8436987333
 40
0.8593325731
 40
0.8749664934
 40
0.9062245546
 40
0.9374828569
 40
0.9687411432
 40
1.0
 40
1.0
 40
1.0
 40
1.0
 10
4.5511779783
 20
3.9159126842
 30
0.0
 10
4.546977477
 20
3.9170714148
 30
0.0
 10
4.5386840178
 20
3.9198029603
 30
0.0
 10
4.526710147
 20
3.9251006897
 30
0.0
 10
4.5153135448
 20
3.9315522735
 30
0.0
 10
4.5046065356
 20
3.9390947727
 30
0.0
 10
4.4946927608
 20
3.9476554893
 30
0.0
 10
4.4856702083
 20
3.9571532142
 30
0.0
 10
4.4776275943
 20
3.9674963898
 30
0.0
 10
4.4706452079
 20
3.9785852093
 30
0.0
 10
4.4647906086
 20
3.9903107542
 30
0.0
 10
4.4601244518
 20
4.0025595653
 30
0.0
 10
4.4566915354
 20
4.0152109316
 30
0.0
 10
4.4545279568
 20
4.0281409998
 30
0.0
 10
4.4536539529
 20
4.0412223599
 30
0.0
 10
4.4540798817
 20
4.054326213
 30
0.0
 10
4.4557999485
 20
4.0673237496
 30
0.0
 10
4.458798754
 20
4.0800869365
 30
0.0
 10
4.4630449477
 20
4.0924910213
 30
0.0
 10
4.4684979061
 20
4.1044139202
 30
0.0
 10
4.4751022956
 20
4.1157397076
 30
0.0
 10
4.4827941536
 20
4.126356914
 30
0.0
 10
4.491496339
 20
4.1361631327
 30
0.0
 10
4.5011243262
 20
4.1450620045
 30
0.0
 10
4.5115825136
 20
4.1529686791
 30
0.0
 10
4.5227692766
 20
4.1598055527
 30
0.0
 10
4.5345746181
 20
4.1655086269
 30
0.0
 10
4.5468834265
 20
4.1700215134
 30
0.0
 10
4.5574630837
 20
4.1727572819
 30
0.0
 10
4.5660540656
 20
4.1743126612
 30
0.0
 10
4.5747109552
 20
4.1754452319
 30
0.0
 10
4.5856212653
 20
4.1760604829
 30
0.0
 10
4.5987200036
 20
4.1755097188
 30
0.0
 10
4.6117013134
 20
4.1736788699
 30
0.0
 10
4.6201968498
 20
4.1716135211
 30
0.0
 10
4.6243811089
 20
4.1703766161
 30
0.0
  0
SPLINE
  5
4F3
100
AcDbEntity
  8
ALL_ASSEMBLY_MEMBERS
100
AcDbSpline
 62
7
  6
CONTINUOUS
 70
0
 71
3
 72
19
 73
15
 74
0
 42
0.0000001
 43
0.0000001
 44
0.0000000001
 40
0.0
 40
0.0
 40
0.0
 40
0.0
 40
0.0625372592
 40
0.125073568
 40
0.1876103751
 40
0.250147422
 40
0.3751169341
 40
0.4376538345
 40
0.5001902765
 40
0.5627258126
 40
0.625258193
 40
0.7502022305
 40
0.8751209545
 40
1.0
 40
1.0
 40
1.0
 40
1.0
 10
4.5019289178
 20
4.0426456491
 30
0.0
 10
4.5019518933
 20
4.0403253448
 30
0.0
 10
4.5021883495
 20
4.0356843734
 30
0.0
 10
4.503113011
 20
4.0287774277
 30
0.0
 10
4.5046031703
 20
4.0219689737
 30
0.0
 10
4.5073230523
 20
4.0130906857
 30
0.0
 10
4.5111326871
 20
4.0045764215
 30
0.0
 10
4.515934481
 20
3.9966288431
 30
0.0
 10
4.5200150604
 20
3.9909790241
 30
0.0
 10
4.5245420518
 20
3.9856806534
 30
0.0
 10
4.5311298928
 20
3.9791375696
 30
0.0
 10
4.5403324792
 20
3.9719973348
 30
0.0
 10
4.5526032764
 20
3.9653373332
 30
0.0
 10
4.5614017408
 20
3.9622737858
 30
0.0
 10
4.5658857025
 20
3.9611058042
 30
0.0
  0
SPLINE
  5
4F4
100
AcDbEntity
  8
ALL_ASSEMBLY_MEMBERS
100
AcDbSpline
 62
7
  6
CONTINUOUS
 70
0
 71
3
 72
15
 73
11
 74
0
 42
0.0000001
 43
0.0000001
 44
0.0000000001
 40
0.0
 40
0.0
 40
0.0
 40
0.0
 40
0.1250606656
 40
0.2501224809
 40
0.3751791817
 40
0.5002094876
 40
0.6252037751
 40
0.7501663965
 40
0.8750930199
 40
1.0
 40
1.0
 40
1.0
 40
1.0
 10
5.7443744062
 20
4.1257070882
 30
0.0
 10
5.7398737541
 20
4.1245062577
 30
0.0
 10
5.7310495757
 20
4.1213725019
 30
0.0
 10
5.7187551454
 20
4.1146081655
 30
0.0
 10
5.7077099906
 20
4.1059483613
 30
0.0
 10
5.698215256
 20
4.0956158096
 30
0.0
 10
5.690531899
 20
4.0838770894
 30
0.0
 10
5.6848761874
 20
4.0710402038
 30
0.0
 10
5.6814164561
 20
4.0574525428
 30
0.0
 10
5.6806399181
 20
4.0481287172
 30
0.0
 10
5.6806390362
 20
4.0434763451
 30
0.0
  0
SPLINE
  5
4F5
100
AcDbEntity
  8
ALL_ASSEMBLY_MEMBERS
100
AcDbSpline
 62
7
  6
CONTINUOUS
 70
0
 71
3
 72
20
 73
16
 74
0
 42
0.0000001
 43
0.0000001
 44
0.0000000001
 40
0.0
 40
0.0
 40
0.0
 40
0.0
 40
0.0625307521
 40
0.1250605741
 40
0.187590893
 40
0.2501214117
 40
0.3126516897
 40
0.3751829623
 40
0.4377133311
 40
0.5002432979
 40
0.5627722863
 40
0.6252982011
 40
0.7502289607
 40
0.8751343272
 40
1.0
 40
1.0
 40
1.0
 40
1.0
 10
4.4683027086
 20
4.0423299933
 30
0.0
 10
4.4683343222
 20
4.0390943663
 30
0.0
 10
4.4686627047
 20
4.0326226162
 30
0.0
 10
4.4699488271
 20
4.0229904088
 30
0.0
 10
4.4720217852
 20
4.0134957984
 30
0.0
 10
4.4748631318
 20
4.0042023299
 30
0.0
 10
4.4784579379
 20
3.9951733746
 30
0.0
 10
4.4827788075
 20
3.9864686718
 30
0.0
 10
4.4877963222
 20
3.9781458935
 30
0.0
 10
4.4934788071
 20
3.9702625983
 30
0.0
 10
4.4997844712
 20
3.962867766
 30
0.0
 10
4.5089622328
 20
3.953734742
 30
0.0
 10
4.5217863014
 20
3.9437662425
 30
0.0
 10
4.5388918053
 20
3.9344677366
 30
0.0
 10
4.5511601456
 20
3.9301916991
 30
0.0
 10
4.5574130161
 20
3.9285633016
 30
0.0
  0
SPLINE
  5
4F6
100
AcDbEntity
  8
ALL_ASSEMBLY_MEMBERS
100
AcDbSpline
 62
7
  6
CONTINUOUS
 70
0
 71
3
 72
22
 73
18
 74
0
 42
0.0000001
 43
0.0000001
 44
0.0000000001
 40
0.0
 40
0.0
 40
0.0
 40
0.0
 40
0.0625033023
 40
0.1250068953
 40
0.1875109001
 40
0.2500153594
 40
0.3125210941
 40
0.3750262694
 40
0.4375317592
 40
0.5000381565
 40
0.5625466024
 40
0.6250563422
 40
0.6875607368
 40
0.7500598123
 40
0.8125683886
 40
0.8751035822
 40
1.0
 40
1.0
 40
1.0
 40
1.0
 10
4.6243811089
 20
4.1703766161
 30
0.0
 10
4.6277773247
 20
4.1693726638
 30
0.0
 10
4.6344929258
 20
4.1670932004
 30
0.0
 10
4.6442588343
 20
4.1628818452
 30
0.0
 10
4.6536600896
 20
4.1579078174
 30
0.0
 10
4.6626342303
 20
4.1521990701
 30
0.0
 10
4.6711247465
 20
4.1457930699
 30
0.0
 10
4.6790780082
 20
4.1387308807
 30
0.0
 10
4.6864399993
 20
4.131054243
 30
0.0
 10
4.6931661885
 20
4.1228145769
 30
0.0
 10
4.6992095076
 20
4.1140613101
 30
0.0
 10
4.7045311339
 20
4.1048517058
 30
0.0
 10
4.7090980078
 20
4.0952458321
 30
0.0
 10
4.7128758239
 20
4.0853035347
 30
0.0
 10
4.7158429196
 20
4.075086742
 30
0.0
 10
4.7186821186
 20
4.0612018297
 30
0.0
 10
4.7195445268
 20
4.0505558501
 30
0.0
 10
4.7195451705
 20
4.0434790993
 30
0.0
  0
SPLINE
  5
4F7
100
AcDbEntity
  8
ALL_ASSEMBLY_MEMBERS
100
AcDbSpline
 62
7
  6
CONTINUOUS
 70
0
 71
3
 72
23
 73
19
 74
0
 42
0.0000001
 43
0.0000001
 44
0.0000000001
 40
0.0
 40
0.0
 40
0.0
 40
0.0
 40
0.0625289118
 40
0.1250575156
 40
0.187587108
 40
0.2501164372
 40
0.3126449388
 40
0.3751710429
 40
0.4376899377
 40
0.5002006131
 40
0.5627021715
 40
0.6251953899
 40
0.6876810524
 40
0.7501596833
 40
0.8126288977
 40
0.8750897398
 40
0.9375541891
 40
1.0
 40
1.0
 40
1.0
 40
1.0
 10
5.7357123571
 20
4.1582000903
 30
0.0
 10
5.7325731277
 20
4.1573626569
 30
0.0
 10
5.7263594983
 20
4.1554329162
 30
0.0
 10
5.7173061401
 20
4.1517941303
 30
0.0
 10
5.7085775317
 20
4.1474320557
 30
0.0
 10
5.7002302831
 20
4.142378665
 30
0.0
 10
5.692321958
 20
4.1366628303
 30
0.0
 10
5.6849045709
 20
4.1303238501
 30
0.0
 10
5.6780277623
 20
4.1234032882
 30
0.0
 10
5.6717407908
 20
4.1159444786
 30
0.0
 10
5.6660837876
 20
4.1079988515
 30
0.0
 10
5.6610988014
 20
4.0996167001
 30
0.0
 10
5.6568180275
 20
4.0908552725
 30
0.0
 10
5.6532737884
 20
4.0817721487
 30
0.0
 10
5.650489889
 20
4.0724292701
 30
0.0
 10
5.6484883336
 20
4.0628886555
 30
0.0
 10
5.6472815879
 20
4.053217292
 30
0.0
 10
5.6470119151
 20
4.0467237898
 30
0.0
 10
5.647011501
 20
4.0434790992
 30
0.0
  0
SPLINE
  5
4F8
100
AcDbEntity
  8
ALL_ASSEMBLY_MEMBERS
100
AcDbSpline
 62
7
  6
CONTINUOUS
 70
0
 71
3
 72
17
 73
13
 74
0
 42
0.0000001
 43
0.0000001
 44
0.0000000001
 40
0.0
 40
0.0
 40
0.0
 40
0.0
 40
0.0625691346
 40
0.1251365082
 40
0.2501699592
 40
0.3751912172
 40
0.5001864396
 40
0.6251499025
 40
0.7500880781
 40
0.8750054014
 40
0.9375070833
 40
1.0
 40
1.0
 40
1.0
 40
1.0
 10
5.9003556211
 20
4.0373874884
 30
0.0
 10
5.9001954774
 20
4.0339260873
 30
0.0
 10
5.8996027961
 20
4.0270124579
 30
0.0
 10
5.8973359618
 20
4.0133334364
 30
0.0
 10
5.8924919489
 20
3.996630092
 30
0.0
 10
5.8836145707
 20
3.9777598191
 30
0.0
 10
5.8718947437
 20
3.960512307
 30
0.0
 10
5.8576237433
 20
3.9453148056
 30
0.0
 10
5.8411621759
 20
3.932533975
 30
0.0
 10
5.8259419987
 20
3.9241512263
 30
0.0
 10
5.8131107173
 20
3.9189348029
 30
0.0
 10
5.8065061176
 20
3.9168330186
 30
0.0
 10
5.803169848
 20
3.9159126848
 30
0.0
  0
LINE
  5
4F9
100
AcDbEntity
  8
ALL_ASSEMBLY_MEMBERS
100
AcDbLine
 62
7
  6
CONTINUOUS
 10
4.6001962016
 20
5.4934715741
 11
4.6007698377
 21
5.4936069022
  0
SPLINE
  5
4FA
100
AcDbEntity
  8
ALL_ASSEMBLY_MEMBERS
100
AcDbSpline
 62
7
  6
CONTINUOUS
 70
0
 71
3
 72
9
 73
5
 74
0
 42
0.0000001
 43
0.0000001
 44
0.0000000001
 40
0.0
 40
0.0
 40
0.0
 40
0.0
 40
0.2133923638
 40
1.0
 40
1.0
 40
1.0
 40
1.0
 10
4.5003289156
 20
5.5087971024
 30
0.0
 10
4.5003281112
 20
5.5087925918
 30
0.0
 10
4.500327753
 20
5.508770736
 30
0.0
 10
4.5003403714
 20
5.5087510275
 30
0.0
 10
4.500351115
 20
5.5087379956
 30
0.0
  0
SPLINE
  5
4FB
100
AcDbEntity
  8
ALL_ASSEMBLY_MEMBERS
100
AcDbSpline
 62
7
  6
CONTINUOUS
 70
0
 71
3
 72
9
 73
5
 74
0
 42
0.0000001
 43
0.0000001
 44
0.0000000001
 40
0.0
 40
0.0
 40
0.0
 40
0.0
 40
0.1771147896
 40
1.0
 40
1.0
 40
1.0
 40
1.0
 10
4.4740874275
 20
5.5100773627
 30
0.0
 10
4.4740869419
 20
5.5100746217
 30
0.0
 10
4.4740889465
 20
5.5100583628
 30
0.0
 10
4.4741031965
 20
5.5100475734
 30
0.0
 10
4.4741135071
 20
5.510039766
 30
0.0
  0
LINE
  5
4FC
100
AcDbEntity
  8
ALL_ASSEMBLY_MEMBERS
100
AcDbLine
 62
7
  6
CONTINUOUS
 10
5.767637956
 20
5.489946421
 11
5.7678485569
 21
5.4901501225
  0
LINE
  5
4FD
100
AcDbEntity
  8
ALL_ASSEMBLY_MEMBERS
100
AcDbLine
 62
7
  6
CONTINUOUS
 10
5.7678485569
 20
5.4901501225
 11
5.7680182676
 21
5.4902313151
  0
LINE
  5
4FE
100
AcDbEntity
  8
ALL_ASSEMBLY_MEMBERS
100
AcDbLine
 62
7
  6
CONTINUOUS
 10
5.7794974618
 20
5.4914648062
 11
5.7797476782
 21
5.4914017962
  0
LINE
  5
4FF
100
AcDbEntity
  8
ALL_ASSEMBLY_MEMBERS
100
AcDbLine
 62
7
  6
CONTINUOUS
 10
5.7797476782
 20
5.4914017962
 11
5.780138535
 21
5.4914060892
  0
LINE
  5
500
100
AcDbEntity
  8
ALL_ASSEMBLY_MEMBERS
100
AcDbLine
 62
7
  6
CONTINUOUS
 10
5.7571058878
 20
5.4912865264
 11
5.7576308588
 21
5.4910867008
  0
LINE
  5
501
100
AcDbEntity
  8
ALL_ASSEMBLY_MEMBERS
100
AcDbLine
 62
7
  6
CONTINUOUS
 10
5.7576308588
 20
5.4910867008
 11
5.7580240635
 21
5.4910567811
  0
SPLINE
  5
502
100
AcDbEntity
  8
ALL_ASSEMBLY_MEMBERS
100
AcDbSpline
 62
7
  6
CONTINUOUS
 70
0
 71
3
 72
14
 73
10
 74
0
 42
0.0000001
 43
0.0000001
 44
0.0000000001
 40
0.0
 40
0.0
 40
0.0
 40
0.0
 40
0.0919719212
 40
0.1729260528
 40
0.2818078556
 40
0.4194192113
 40
0.5854024378
 40
0.7791626113
 40
1.0
 40
1.0
 40
1.0
 40
1.0
 10
5.7497086542
 20
5.4903551749
 30
0.0
 10
5.7496904377
 20
5.4904571586
 30
0.0
 10
5.7498459423
 20
5.4906392339
 30
0.0
 10
5.7500951388
 20
5.4908118527
 30
0.0
 10
5.7504223958
 20
5.4909942349
 30
0.0
 10
5.7508424814
 20
5.4911885705
 30
0.0
 10
5.7513613917
 20
5.4914018953
 30
0.0
 10
5.7519740984
 20
5.4916300853
 30
0.0
 10
5.7524157106
 20
5.4917823004
 30
0.0
 10
5.7526516309
 20
5.4918611646
 30
0.0
  0
SPLINE
  5
503
100
AcDbEntity
  8
ALL_ASSEMBLY_MEMBERS
100
AcDbSpline
 62
7
  6
CONTINUOUS
 70
0
 71
3
 72
15
 73
11
 74
0
 42
0.0000001
 43
0.0000001
 44
0.0000000001
 40
0.0
 40
0.0
 40
0.0
 40
0.0
 40
0.2030676504
 40
0.3783997832
 40
0.52723084
 40
0.6521482438
 40
0.757043909
 40
0.8464644111
 40
0.9256294535
 40
1.0
 40
1.0
 40
1.0
 40
1.0
 10
5.2048189181
 20
5.5089218702
 30
0.0
 10
5.2057138012
 20
5.5086579936
 30
0.0
 10
5.2073691266
 20
5.5081223904
 30
0.0
 10
5.2096187495
 20
5.5072177646
 30
0.0
 10
5.2114596931
 20
5.5062781913
 30
0.0
 10
5.2129098043
 20
5.5053078776
 30
0.0
 10
5.2139957996
 20
5.5043114131
 30
0.0
 10
5.2147443198
 20
5.5032895888
 30
0.0
 10
5.2151743446
 20
5.502246693
 30
0.0
 10
5.2152637469
 20
5.501537642
 30
0.0
 10
5.2152637469
 20
5.5011959528
 30
0.0
  0
SPLINE
  5
504
100
AcDbEntity
  8
ALL_ASSEMBLY_MEMBERS
100
AcDbSpline
 62
7
  6
CONTINUOUS
 70
0
 71
3
 72
11
 73
7
 74
0
 42
0.0000001
 43
0.0000001
 44
0.0000000001
 40
0.0
 40
0.0
 40
0.0
 40
0.0
 40
0.3022403325
 40
0.5775276522
 40
0.8107886133
 40
1.0
 40
1.0
 40
1.0
 40
1.0
 10
5.1800250055
 20
5.511936187
 30
0.0
 10
5.1825475148
 20
5.511890903
 30
0.0
 10
5.1873668365
 20
5.5117083447
 30
0.0
 10
5.1941113454
 20
5.5110988512
 30
0.0
 10
5.1998696663
 20
5.5101926851
 30
0.0
 10
5.2033039871
 20
5.509368582
 30
0.0
 10
5.2048189181
 20
5.5089218702
 30
0.0
  0
SPLINE
  5
505
100
AcDbEntity
  8
ALL_ASSEMBLY_MEMBERS
100
AcDbSpline
 62
7
  6
CONTINUOUS
 70
0
 71
3
 72
15
 73
11
 74
0
 42
0.0000001
 43
0.0000001
 44
0.0000000001
 40
0.0
 40
0.0
 40
0.0
 40
0.0
 40
0.2042422148
 40
0.3802645833
 40
0.5293329582
 40
0.6540908311
 40
0.7585278888
 40
0.8473369137
 40
0.9259364583
 40
1.0
 40
1.0
 40
1.0
 40
1.0
 10
5.2904845733
 20
5.5104732748
 30
0.0
 10
5.2913786835
 20
5.5102322215
 30
0.0
 10
5.293032328
 20
5.5097398254
 30
0.0
 10
5.2952817174
 20
5.5088962775
 30
0.0
 10
5.2971226694
 20
5.5080099528
 30
0.0
 10
5.2985731814
 20
5.507085142
 30
0.0
 10
5.2996600343
 20
5.5061265783
 30
0.0
 10
5.3004097119
 20
5.5051350406
 30
0.0
 10
5.300840328
 20
5.5041151147
 30
0.0
 10
5.3009292215
 20
5.5034191294
 30
0.0
 10
5.3009292215
 20
5.5030833252
 30
0.0
  0
SPLINE
  5
506
100
AcDbEntity
  8
ALL_ASSEMBLY_MEMBERS
100
AcDbSpline
 62
7
  6
CONTINUOUS
 70
0
 71
3
 72
11
 73
7
 74
0
 42
0.0000001
 43
0.0000001
 44
0.0000000001
 40
0.0
 40
0.0
 40
0.0
 40
0.0
 40
0.3003623707
 40
0.5784224241
 40
0.8137223156
 40
1.0
 40
1.0
 40
1.0
 40
1.0
 10
5.2621278016
 20
5.5128765929
 30
0.0
 10
5.2649846772
 20
5.5129375231
 30
0.0
 10
5.2704897886
 20
5.512948121
 30
0.0
 10
5.2782256143
 20
5.5125485803
 30
0.0
 10
5.2848407304
 20
5.5117580405
 30
0.0
 10
5.2887734972
 20
5.5109345832
 30
0.0
 10
5.2904845733
 20
5.5104732748
 30
0.0
  0
SPLINE
  5
507
100
AcDbEntity
  8
ALL_ASSEMBLY_MEMBERS
100
AcDbSpline
 62
7
  6
CONTINUOUS
 70
0
 71
3
 72
11
 73
7
 74
0
 42
0.0000001
 43
0.0000001
 44
0.0000000001
 40
0.0
 40
0.0
 40
0.0
 40
0.0
 40
0.1802871637
 40
0.4139162409
 40
0.6953638131
 40
1.0
 40
1.0
 40
1.0
 40
1.0
 10
5.2328160248
 20
5.5089455666
 30
0.0
 10
5.2344978835
 20
5.5095391919
 30
0.0
 10
5.2384544006
 20
5.5106336541
 30
0.0
 10
5.2452409496
 20
5.5118047805
 30
0.0
 10
5.2533192866
 20
5.5125773536
 30
0.0
 10
5.2591147784
 20
5.5128123324
 30
0.0
 10
5.2621278016
 20
5.5128765929
 30
0.0
  0
SPLINE
  5
508
100
AcDbEntity
  8
ALL_ASSEMBLY_MEMBERS
100
AcDbSpline
 62
7
  6
CONTINUOUS
 70
0
 71
3
 72
15
 73
11
 74
0
 42
0.0000001
 43
0.0000001
 44
0.0000000001
 40
0.0
 40
0.0
 40
0.0
 40
0.0
 40
0.0761090114
 40
0.1577363418
 40
0.2501863951
 40
0.3580904963
 40
0.484949244
 40
0.6334453134
 40
0.8050185096
 40
1.0
 40
1.0
 40
1.0
 40
1.0
 10
5.2227384779
 20
5.5009230424
 30
0.0
 10
5.2227384779
 20
5.5012677014
 30
0.0
 10
5.2228337601
 20
5.5019855526
 30
0.0
 10
5.2232768226
 20
5.5030407243
 30
0.0
 10
5.2240341842
 20
5.5040804139
 30
0.0
 10
5.2251161816
 20
5.505101943
 30
0.0
 10
5.2265356404
 20
5.5061080586
 30
0.0
 10
5.2283058919
 20
5.5070951955
 30
0.0
 10
5.2304308854
 20
5.5080613277
 30
0.0
 10
5.2319833949
 20
5.5086516834
 30
0.0
 10
5.2328160248
 20
5.5089455666
 30
0.0
  0
LINE
  5
509
100
AcDbEntity
  8
ALL_ASSEMBLY_MEMBERS
100
AcDbLine
 62
7
  6
CONTINUOUS
 10
5.5787960464
 20
5.4946679817
 11
5.6261631979
 21
5.5086233938
  0
LINE
  5
50A
100
AcDbEntity
  8
ALL_ASSEMBLY_MEMBERS
100
AcDbLine
 62
7
  6
CONTINUOUS
 10
5.8048264695
 20
5.501178602
 11
5.8058408517
 21
5.5012937582
  0
SPLINE
  5
50B
100
AcDbEntity
  8
ALL_ASSEMBLY_MEMBERS
100
AcDbSpline
 62
7
  6
CONTINUOUS
 70
0
 71
3
 72
9
 73
5
 74
0
 42
0.0000001
 43
0.0000001
 44
0.0000000001
 40
0.0
 40
0.0
 40
0.0
 40
0.0
 40
0.2502637747
 40
1.0
 40
1.0
 40
1.0
 40
1.0
 10
5.769727731
 20
5.4959180431
 30
0.0
 10
5.7711952578
 20
5.496203661
 30
0.0
 10
5.7770647654
 20
5.4973156907
 30
0.0
 10
5.7829583974
 20
5.4983031454
 30
0.0
 10
5.7873901123
 20
5.4989514631
 30
0.0
  0
SPLINE
  5
50C
100
AcDbEntity
  8
ALL_ASSEMBLY_MEMBERS
100
AcDbSpline
 62
7
  6
CONTINUOUS
 70
0
 71
3
 72
11
 73
7
 74
0
 42
0.0000001
 43
0.0000001
 44
0.0000000001
 40
0.0
 40
0.0
 40
0.0
 40
0.0
 40
0.169669996
 40
0.3986509609
 40
0.6812491954
 40
1.0
 40
1.0
 40
1.0
 40
1.0
 10
5.7526516309
 20
5.4918611646
 30
0.0
 10
5.7535935758
 20
5.4921760411
 30
0.0
 10
5.7558326625
 20
5.4928377742
 30
0.0
 10
5.7597003125
 20
5.4938113542
 30
0.0
 10
5.7644453822
 20
5.4948662819
 30
0.0
 10
5.7678962557
 20
5.4955615916
 30
0.0
 10
5.769727731
 20
5.4959180431
 30
0.0
  0
SPLINE
  5
50D
100
AcDbEntity
  8
ALL_ASSEMBLY_MEMBERS
100
AcDbSpline
 62
7
  6
CONTINUOUS
 70
0
 71
3
 72
13
 73
9
 74
0
 42
0.0000001
 43
0.0000001
 44
0.0000000001
 40
0.0
 40
0.0
 40
0.0
 40
0.0
 40
0.3845096797
 40
0.5455663852
 40
0.6838890882
 40
0.798320162
 40
0.8882764494
 40
1.0
 40
1.0
 40
1.0
 40
1.0
 10
5.8651734153
 20
5.5121933321
 30
0.0
 10
5.8654141912
 20
5.5121834868
 30
0.0
 10
5.8657556183
 20
5.5121643079
 30
0.0
 10
5.8661822026
 20
5.512118063
 30
0.0
 10
5.8664377683
 20
5.5120786075
 30
0.0
 10
5.8666497775
 20
5.5120297189
 30
0.0
 10
5.866830516
 20
5.5119686624
 30
0.0
 10
5.8669582505
 20
5.5118867382
 30
0.0
 10
5.8669711812
 20
5.511817924
 30
0.0
  0
SPLINE
  5
50E
100
AcDbEntity
  8
ALL_ASSEMBLY_MEMBERS
100
AcDbSpline
 62
7
  6
CONTINUOUS
 70
0
 71
3
 72
11
 73
7
 74
0
 42
0.0000001
 43
0.0000001
 44
0.0000000001
 40
0.0
 40
0.0
 40
0.0
 40
0.0
 40
0.3421458439
 40
0.623339807
 40
0.8400382602
 40
1.0
 40
1.0
 40
1.0
 40
1.0
 10
5.8509316924
 20
5.5109597183
 30
0.0
 10
5.8524482105
 20
5.5111701697
 30
0.0
 10
5.8552144154
 20
5.511530235
 30
0.0
 10
5.8589524571
 20
5.5119317528
 30
0.0
 10
5.8618882721
 20
5.5121544272
 30
0.0
 10
5.8635737331
 20
5.5122123125
 30
0.0
 10
5.8642895365
 20
5.5122110044
 30
0.0
  0
LINE
  5
50F
100
AcDbEntity
  8
ALL_ASSEMBLY_MEMBERS
100
AcDbLine
 62
7
  6
CONTINUOUS
 10
5.8642895365
 20
5.5122110044
 11
5.8651734153
 21
5.5121933321
  0
SPLINE
  5
510
100
AcDbEntity
  8
ALL_ASSEMBLY_MEMBERS
100
AcDbSpline
 62
7
  6
CONTINUOUS
 70
0
 71
3
 72
9
 73
5
 74
0
 42
0.0000001
 43
0.0000001
 44
0.0000000001
 40
0.0
 40
0.0
 40
0.0
 40
0.0
 40
0.2554495031
 40
1.0
 40
1.0
 40
1.0
 40
1.0
 10
5.8296115988
 20
5.5073837841
 30
0.0
 10
5.8314184707
 20
5.5077360339
 30
0.0
 10
5.8385001914
 20
5.5090711561
 30
0.0
 10
5.8456170475
 20
5.5102221906
 30
0.0
 10
5.8509316924
 20
5.5109597183
 30
0.0
  0
LINE
  5
511
100
AcDbEntity
  8
ALL_ASSEMBLY_MEMBERS
100
AcDbLine
 62
7
  6
CONTINUOUS
 10
5.8175422047
 20
5.5047822099
 11
5.8296115988
 21
5.5073837841
  0
LINE
  5
512
100
AcDbEntity
  8
ALL_ASSEMBLY_MEMBERS
100
AcDbLine
 62
7
  6
CONTINUOUS
 10
5.8081516743
 20
5.5020576928
 11
5.8175422047
 21
5.5047822099
  0
LINE
  5
513
100
AcDbEntity
  8
ALL_ASSEMBLY_MEMBERS
100
AcDbLine
 62
7
  6
CONTINUOUS
 10
5.8322132743
 20
5.5011549486
 11
5.8346684121
 21
5.501847299
  0
SPLINE
  5
514
100
AcDbEntity
  8
ALL_ASSEMBLY_MEMBERS
100
AcDbSpline
 62
7
  6
CONTINUOUS
 70
0
 71
3
 72
14
 73
10
 74
0
 42
0.0000001
 43
0.0000001
 44
0.0000000001
 40
0.0
 40
0.0
 40
0.0
 40
0.0
 40
0.4480549256
 40
0.6089975636
 40
0.7351824553
 40
0.8317555282
 40
0.9036149401
 40
0.9568736767
 40
1.0
 40
1.0
 40
1.0
 40
1.0
 10
5.8346684121
 20
5.501847299
 30
0.0
 10
5.834964899
 20
5.5019444091
 30
0.0
 10
5.8353657192
 20
5.5020848232
 30
0.0
 10
5.8358338306
 20
5.5022927463
 30
0.0
 10
5.8360698227
 20
5.5024186128
 30
0.0
 10
5.8362405057
 20
5.5025334698
 30
0.0
 10
5.8363536618
 20
5.5026397552
 30
0.0
 10
5.8364165628
 20
5.5027414685
 30
0.0
 10
5.8364231869
 20
5.5028115143
 30
0.0
 10
5.8364177657
 20
5.5028410502
 30
0.0
  0
LINE
  5
515
100
AcDbEntity
  8
ALL_ASSEMBLY_MEMBERS
100
AcDbLine
 62
7
  6
CONTINUOUS
 10
5.812125354
 20
5.4968682404
 11
5.8227367706
 21
5.4990091276
  0
LINE
  5
516
100
AcDbEntity
  8
ALL_ASSEMBLY_MEMBERS
100
AcDbLine
 62
7
  6
CONTINUOUS
 10
5.780138535
 20
5.4914060892
 11
5.7825650716
 21
5.4916576178
  0
LINE
  5
517
100
AcDbEntity
  8
ALL_ASSEMBLY_MEMBERS
100
AcDbLine
 62
7
  6
CONTINUOUS
 10
5.7835670155
 20
5.4931766076
 11
5.7839433912
 21
5.4931134175
  0
LINE
  5
518
100
AcDbEntity
  8
ALL_ASSEMBLY_MEMBERS
100
AcDbLine
 62
7
  6
CONTINUOUS
 10
5.7797299262
 20
5.4927208927
 11
5.7832013159
 21
5.4931619164
  0
LINE
  5
519
100
AcDbEntity
  8
ALL_ASSEMBLY_MEMBERS
100
AcDbLine
 62
7
  6
CONTINUOUS
 10
5.7832013159
 20
5.4931619164
 11
5.7835670155
 21
5.4931766076
  0
LINE
  5
51A
100
AcDbEntity
  8
ALL_ASSEMBLY_MEMBERS
100
AcDbLine
 62
7
  6
CONTINUOUS
 10
5.7680182676
 20
5.4902313151
 11
5.7708389501
 21
5.491030285
  0
LINE
  5
51B
100
AcDbEntity
  8
ALL_ASSEMBLY_MEMBERS
100
AcDbLine
 62
7
  6
CONTINUOUS
 10
5.7708389501
 20
5.491030285
 11
5.7735859718
 21
5.4916138551
  0
SPLINE
  5
51C
100
AcDbEntity
  8
ALL_ASSEMBLY_MEMBERS
100
AcDbSpline
 62
7
  6
CONTINUOUS
 70
0
 71
3
 72
8
 73
4
 74
0
 42
0.0000001
 43
0.0000001
 44
0.0000000001
 40
0.0
 40
0.0
 40
0.0
 40
0.0
 40
1.0
 40
1.0
 40
1.0
 40
1.0
 10
5.8545994543
 20
5.5060192093
 30
0.0
 10
5.8546086521
 20
5.5060043819
 30
0.0
 10
5.8546156044
 20
5.5059877144
 30
0.0
 10
5.8546187585
 20
5.5059705534
 30
0.0
  0
SPLINE
  5
51D
100
AcDbEntity
  8
ALL_ASSEMBLY_MEMBERS
100
AcDbSpline
 62
7
  6
CONTINUOUS
 70
0
 71
3
 72
14
 73
10
 74
0
 42
0.0000001
 43
0.0000001
 44
0.0000000001
 40
0.0
 40
0.0
 40
0.0
 40
0.0
 40
0.4233340231
 40
0.5922422806
 40
0.7312001908
 40
0.839389823
 40
0.9176645776
 40
0.968863787
 40
1.0
 40
1.0
 40
1.0
 40
1.0
 10
5.8579402776
 20
5.5099995215
 30
0.0
 10
5.8582486821
 20
5.5100870593
 30
0.0
 10
5.8586788169
 20
5.5102146591
 30
0.0
 10
5.859203246
 20
5.5103926482
 30
0.0
 10
5.8594977501
 20
5.5105048948
 30
0.0
 10
5.859723437
 20
5.5106042566
 30
0.0
 10
5.8598801101
 20
5.5106942483
 30
0.0
 10
5.8599767285
 20
5.5107679219
 30
0.0
 10
5.8600054603
 20
5.5108315568
 30
0.0
 10
5.8600014029
 20
5.5108547843
 30
0.0
  0
LINE
  5
51E
100
AcDbEntity
  8
ALL_ASSEMBLY_MEMBERS
100
AcDbLine
 62
7
  6
CONTINUOUS
 10
5.8471572645
 20
5.5075903205
 11
5.8561074131
 21
5.509516568
  0
LINE
  5
51F
100
AcDbEntity
  8
ALL_ASSEMBLY_MEMBERS
100
AcDbLine
 62
7
  6
CONTINUOUS
 10
5.7954612285
 20
5.4978924463
 11
5.8029571935
 21
5.5003372993
  0
LINE
  5
520
100
AcDbEntity
  8
ALL_ASSEMBLY_MEMBERS
100
AcDbLine
 62
7
  6
CONTINUOUS
 10
5.7802704957
 20
5.4943106821
 11
5.7920917866
 21
5.4969369604
  0
LINE
  5
521
100
AcDbEntity
  8
ALL_ASSEMBLY_MEMBERS
100
AcDbLine
 62
7
  6
CONTINUOUS
 10
5.7660823036
 20
5.4918324202
 11
5.7737541767
 21
5.4930866114
  0
LINE
  5
522
100
AcDbEntity
  8
ALL_ASSEMBLY_MEMBERS
100
AcDbLine
 62
7
  6
CONTINUOUS
 10
5.7580240635
 20
5.4910567811
 11
5.7584788393
 21
5.4910476621
  0
LINE
  5
523
100
AcDbEntity
  8
ALL_ASSEMBLY_MEMBERS
100
AcDbLine
 62
7
  6
CONTINUOUS
 10
5.7584788393
 20
5.4910476621
 11
5.7623273957
 21
5.4913379863
  0
LINE
  5
524
100
AcDbEntity
  8
ALL_ASSEMBLY_MEMBERS
100
AcDbLine
 62
7
  6
CONTINUOUS
 10
5.7623273957
 20
5.4913379863
 11
5.7660823036
 21
5.4918324202
  0
SPLINE
  5
525
100
AcDbEntity
  8
ALL_ASSEMBLY_MEMBERS
100
AcDbSpline
 62
7
  6
CONTINUOUS
 70
0
 71
3
 72
11
 73
7
 74
0
 42
0.0000001
 43
0.0000001
 44
0.0000000001
 40
0.0
 40
0.0
 40
0.0
 40
0.0
 40
0.3363609257
 40
0.587330022
 40
0.8004622199
 40
1.0
 40
1.0
 40
1.0
 40
1.0
 10
5.2789380461
 20
5.4949356808
 30
0.0
 10
5.2798709538
 20
5.4954531675
 30
0.0
 10
5.2814204025
 20
5.4965389621
 30
0.0
 10
5.2829970818
 20
5.4985764984
 30
0.0
 10
5.2837463396
 20
5.5005724411
 30
0.0
 10
5.2838801185
 20
5.5018874408
 30
0.0
 10
5.2838801185
 20
5.5025203065
 30
0.0
  0
SPLINE
  5
526
100
AcDbEntity
  8
ALL_ASSEMBLY_MEMBERS
100
AcDbSpline
 62
7
  6
CONTINUOUS
 70
0
 71
3
 72
13
 73
9
 74
0
 42
0.0000001
 43
0.0000001
 44
0.0000000001
 40
0.0
 40
0.0
 40
0.0
 40
0.0
 40
0.1715468321
 40
0.3382705609
 40
0.4930076502
 40
0.6306393402
 40
0.8468961466
 40
1.0
 40
1.0
 40
1.0
 40
1.0
 10
5.2623797642
 20
5.4919026015
 30
0.0
 10
5.2633495658
 20
5.4919270681
 30
0.0
 10
5.2652613409
 20
5.4920033364
 30
0.0
 10
5.2680424565
 20
5.4922083132
 30
0.0
 10
5.2706217273
 20
5.4925137839
 30
0.0
 10
5.2734589185
 20
5.492991505
 30
0.0
 10
5.2762451529
 20
5.4937000842
 30
0.0
 10
5.2781809148
 20
5.4945156979
 30
0.0
 10
5.2789380461
 20
5.4949356808
 30
0.0
  0
SPLINE
  5
527
100
AcDbEntity
  8
ALL_ASSEMBLY_MEMBERS
100
AcDbSpline
 62
7
  6
CONTINUOUS
 70
0
 71
3
 72
11
 73
7
 74
0
 42
0.0000001
 43
0.0000001
 44
0.0000000001
 40
0.0
 40
0.0
 40
0.0
 40
0.0
 40
0.173698802
 40
0.3979298629
 40
0.6801333804
 40
1.0
 40
1.0
 40
1.0
 40
1.0
 10
5.2458682165
 20
5.4937893564
 30
0.0
 10
5.2467802696
 20
5.4934684105
 30
0.0
 10
5.2489174612
 20
5.4928666596
 30
0.0
 10
5.2526545541
 20
5.4922257834
 30
0.0
 10
5.2572457029
 20
5.4918677604
 30
0.0
 10
5.2605998288
 20
5.4918576966
 30
0.0
 10
5.2623797642
 20
5.4919026015
 30
0.0
  0
SPLINE
  5
528
100
AcDbEntity
  8
ALL_ASSEMBLY_MEMBERS
100
AcDbSpline
 62
7
  6
CONTINUOUS
 70
0
 71
3
 72
12
 73
8
 74
0
 42
0.0000001
 43
0.0000001
 44
0.0000000001
 40
0.0
 40
0.0
 40
0.0
 40
0.0
 40
0.1925094228
 40
0.3951040776
 40
0.5081339248
 40
0.637157631
 40
1.0
 40
1.0
 40
1.0
 40
1.0
 10
5.2397875952
 20
5.5018920469
 30
0.0
 10
5.2397875952
 20
5.5011936918
 30
0.0
 10
5.2399144268
 20
5.499754535
 30
0.0
 10
5.2405442294
 20
5.4979916291
 30
0.0
 10
5.2414440335
 20
5.4966434389
 30
0.0
 10
5.2429822193
 20
5.4950616846
 30
0.0
 10
5.2446265867
 20
5.4942262783
 30
0.0
 10
5.2458682165
 20
5.4937893564
 30
0.0
  0
SPLINE
  5
529
100
AcDbEntity
  8
ALL_ASSEMBLY_MEMBERS
100
AcDbSpline
 62
7
  6
CONTINUOUS
 70
0
 71
3
 72
12
 73
8
 74
0
 42
0.0000001
 43
0.0000001
 44
0.0000000001
 40
0.0
 40
0.0
 40
0.0
 40
0.0
 40
0.340107792
 40
0.4945444497
 40
0.6314831948
 40
0.8468052916
 40
1.0
 40
1.0
 40
1.0
 40
1.0
 10
5.1771751303
 20
5.4908240641
 30
0.0
 10
5.1790393625
 20
5.4908240648
 30
0.0
 10
5.1817521576
 20
5.4909187418
 30
0.0
 10
5.1851976399
 20
5.4912609459
 30
0.0
 10
5.1879454659
 20
5.4916711133
 30
0.0
 10
5.1906489063
 20
5.492312028
 30
0.0
 10
5.1925326249
 20
5.4930728838
 30
0.0
 10
5.1932725573
 20
5.4934698799
 30
0.0
  0
SPLINE
  5
52A
100
AcDbEntity
  8
ALL_ASSEMBLY_MEMBERS
100
AcDbSpline
 62
7
  6
CONTINUOUS
 70
0
 71
3
 72
11
 73
7
 74
0
 42
0.0000001
 43
0.0000001
 44
0.0000000001
 40
0.0
 40
0.0
 40
0.0
 40
0.0
 40
0.1737795664
 40
0.3987452569
 40
0.6816557299
 40
1.0
 40
1.0
 40
1.0
 40
1.0
 10
5.1602025891
 20
5.4931422268
 30
0.0
 10
5.1611350584
 20
5.4927888997
 30
0.0
 10
5.1633276129
 20
5.4921156112
 30
0.0
 10
5.1671730302
 20
5.4913684371
 30
0.0
 10
5.1718964543
 20
5.4908934402
 30
0.0
 10
5.1753484373
 20
5.4908240634
 30
0.0
 10
5.1771751303
 20
5.4908240641
 30
0.0
  0
SPLINE
  5
52B
100
AcDbEntity
  8
ALL_ASSEMBLY_MEMBERS
100
AcDbSpline
 62
7
  6
CONTINUOUS
 70
0
 71
3
 72
12
 73
8
 74
0
 42
0.0000001
 43
0.0000001
 44
0.0000000001
 40
0.0
 40
0.0
 40
0.0
 40
0.0
 40
0.1915139522
 40
0.3941071971
 40
0.5074620665
 40
0.6369176901
 40
1.0
 40
1.0
 40
1.0
 40
1.0
 10
5.1541221048
 20
5.5014290576
 30
0.0
 10
5.1541221048
 20
5.50072648
 30
0.0
 10
5.1542501519
 20
5.4992749007
 30
0.0
 10
5.1548800882
 20
5.4974934815
 30
0.0
 10
5.1557787264
 20
5.4961197848
 30
0.0
 10
5.157313731
 20
5.4944963859
 30
0.0
 10
5.1589570246
 20
5.4936141905
 30
0.0
 10
5.1602025891
 20
5.4931422268
 30
0.0
  0
SPLINE
  5
52C
100
AcDbEntity
  8
ALL_ASSEMBLY_MEMBERS
100
AcDbSpline
 62
7
  6
CONTINUOUS
 70
0
 71
3
 72
11
 73
7
 74
0
 42
0.0000001
 43
0.0000001
 44
0.0000000001
 40
0.0
 40
0.0
 40
0.0
 40
0.0
 40
0.3341991529
 40
0.5844570552
 40
0.7984037571
 40
1.0
 40
1.0
 40
1.0
 40
1.0
 10
5.1932725573
 20
5.4934698799
 30
0.0
 10
5.1942056375
 20
5.4939705057
 30
0.0
 10
5.195758895
 20
5.4950344358
 30
0.0
 10
5.1973354126
 20
5.4970624912
 30
0.0
 10
5.1980822016
 20
5.4990648591
 30
0.0
 10
5.1982146281
 20
5.5003876574
 30
0.0
 10
5.1982146281
 20
5.5010264078
 30
0.0
  0
SPLINE
  5
52D
100
AcDbEntity
  8
ALL_ASSEMBLY_MEMBERS
100
AcDbSpline
 62
7
  6
CONTINUOUS
 70
0
 71
3
 72
13
 73
9
 74
0
 42
0.0000001
 43
0.0000001
 44
0.0000000001
 40
0.0
 40
0.0
 40
0.0
 40
0.0
 40
0.2526161074
 40
0.4510621328
 40
0.6009742081
 40
0.7150859311
 40
0.8776350874
 40
1.0
 40
1.0
 40
1.0
 40
1.0
 10
5.0805505795
 20
5.4925493199
 30
0.0
 10
5.0810005353
 20
5.4925778885
 30
0.0
 10
5.0818030268
 20
5.4926543684
 30
0.0
 10
5.0828586507
 20
5.4928531321
 30
0.0
 10
5.0836492781
 20
5.4931007196
 30
0.0
 10
5.0843362217
 20
5.4934308625
 30
0.0
 10
5.0849048017
 20
5.4938933056
 30
0.0
 10
5.0851237727
 20
5.4943724622
 30
0.0
 10
5.0851697942
 20
5.4945859515
 30
0.0
  0
SPLINE
  5
52E
100
AcDbEntity
  8
ALL_ASSEMBLY_MEMBERS
100
AcDbSpline
 62
7
  6
CONTINUOUS
 70
0
 71
3
 72
13
 73
9
 74
0
 42
0.0000001
 43
0.0000001
 44
0.0000000001
 40
0.0
 40
0.0
 40
0.0
 40
0.0
 40
0.2561849271
 40
0.5117348947
 40
0.6387868649
 40
0.7644274483
 40
0.8870043665
 40
1.0
 40
1.0
 40
1.0
 40
1.0
 10
5.0686245989
 20
5.4925549574
 30
0.0
 10
5.0696429832
 20
5.4925224013
 30
0.0
 10
5.0716774392
 20
5.492463965
 30
0.0
 10
5.0742176581
 20
5.4924149064
 30
0.0
 10
5.0762390086
 20
5.492401189
 30
0.0
 10
5.0777316533
 20
5.4924087608
 30
0.0
 10
5.0791676945
 20
5.4924449614
 30
0.0
 10
5.0801039461
 20
5.4924994516
 30
0.0
 10
5.0805505795
 20
5.4925493199
 30
0.0
  0
LINE
  5
52F
100
AcDbEntity
  8
ALL_ASSEMBLY_MEMBERS
100
AcDbLine
 62
7
  6
CONTINUOUS
 10
5.1034956116
 20
5.4920826266
 11
5.1047526447
 21
5.4919107718
  0
LINE
  5
530
100
AcDbEntity
  8
ALL_ASSEMBLY_MEMBERS
100
AcDbLine
 62
7
  6
CONTINUOUS
 10
5.1047526447
 20
5.4919107718
 11
5.1164124996
 21
5.4913576587
  0
SPLINE
  5
531
100
AcDbEntity
  8
ALL_ASSEMBLY_MEMBERS
100
AcDbSpline
 62
7
  6
CONTINUOUS
 70
0
 71
3
 72
14
 73
10
 74
0
 42
0.0000001
 43
0.0000001
 44
0.0000000001
 40
0.0
 40
0.0
 40
0.0
 40
0.0
 40
0.0627203477
 40
0.1309356625
 40
0.2103849275
 40
0.3070564878
 40
0.4280348823
 40
0.5804505213
 40
1.0
 40
1.0
 40
1.0
 40
1.0
 10
5.0998673043
 20
5.4942252753
 30
0.0
 10
5.0998673043
 20
5.4941315476
 30
0.0
 10
5.0998944037
 20
5.4939346808
 30
0.0
 10
5.1000263079
 20
5.4936450304
 30
0.0
 10
5.1002584825
 20
5.4933591295
 30
0.0
 10
5.1006040269
 20
5.4930765032
 30
0.0
 10
5.1010859844
 20
5.4928013
 30
0.0
 10
5.1020437383
 20
5.4924029716
 30
0.0
 10
5.1028796418
 20
5.4921995259
 30
0.0
 10
5.1034956116
 20
5.4920826266
 30
0.0
  0
SPLINE
  5
532
100
AcDbEntity
  8
ALL_ASSEMBLY_MEMBERS
100
AcDbSpline
 62
7
  6
CONTINUOUS
 70
0
 71
3
 72
11
 73
7
 74
0
 42
0.0000001
 43
0.0000001
 44
0.0000000001
 40
0.0
 40
0.0
 40
0.0
 40
0.0
 40
0.1797498143
 40
0.413145622
 40
0.6947767521
 40
1.0
 40
1.0
 40
1.0
 40
1.0
 10
5.1471515358
 20
5.5086620416
 30
0.0
 10
5.1488350689
 20
5.5092201778
 30
0.0
 10
5.1527952802
 20
5.5102306293
 30
0.0
 10
5.1595814347
 20
5.5112570751
 30
0.0
 10
5.1676587553
 20
5.5118575704
 30
0.0
 10
5.1734506039
 20
5.5119683814
 30
0.0
 10
5.1764623245
 20
5.5119678399
 30
0.0
  0
SPLINE
  5
533
100
AcDbEntity
  8
ALL_ASSEMBLY_MEMBERS
100
AcDbSpline
 62
7
  6
CONTINUOUS
 70
0
 71
3
 72
15
 73
11
 74
0
 42
0.0000001
 43
0.0000001
 44
0.0000000001
 40
0.0
 40
0.0
 40
0.0
 40
0.0
 40
0.0765577763
 40
0.1582438064
 40
0.2505026125
 40
0.358122125
 40
0.4847325378
 40
0.633109015
 40
0.804745573
 40
1.0
 40
1.0
 40
1.0
 40
1.0
 10
5.1370729947
 20
5.5008587018
 30
0.0
 10
5.1370729947
 20
5.5012025053
 30
0.0
 10
5.1371674824
 20
5.5019168218
 30
0.0
 10
5.1376105035
 20
5.5029636717
 30
0.0
 10
5.1383685537
 20
5.5039877464
 30
0.0
 10
5.1394513034
 20
5.5049859256
 30
0.0
 10
5.140871366
 20
5.5059610149
 30
0.0
 10
5.1426420732
 20
5.5069094726
 30
0.0
 10
5.1447673902
 20
5.5078294674
 30
0.0
 10
5.1463192393
 20
5.508386113
 30
0.0
 10
5.1471515358
 20
5.5086620416
 30
0.0
  0
LINE
  5
534
100
AcDbEntity
  8
ALL_ASSEMBLY_MEMBERS
100
AcDbLine
 62
7
  6
CONTINUOUS
 10
4.7573129931
 20
5.5086233938
 11
4.8016608662
 21
5.4946679817
  0
LINE
  5
535
100
AcDbEntity
  8
ALL_ASSEMBLY_MEMBERS
100
AcDbLine
 62
7
  6
CONTINUOUS
 10
4.4741135071
 20
5.510039766
 11
4.4743017951
 21
5.5097855865
  0
LINE
  5
536
100
AcDbEntity
  8
ALL_ASSEMBLY_MEMBERS
100
AcDbLine
 62
7
  6
CONTINUOUS
 10
4.563919683
 20
5.4924044393
 11
4.5640873358
 21
5.4924332044
  0
LINE
  5
537
100
AcDbEntity
  8
ALL_ASSEMBLY_MEMBERS
100
AcDbLine
 62
7
  6
CONTINUOUS
 10
4.5798743852
 20
5.4906965155
 11
4.5772056045
 21
5.4912253411
  0
LINE
  5
538
100
AcDbEntity
  8
ALL_ASSEMBLY_MEMBERS
100
AcDbLine
 62
7
  6
CONTINUOUS
 10
4.5702307736
 20
5.4920826266
 11
4.576537867
 21
5.4913576587
  0
LINE
  5
539
100
AcDbEntity
  8
ALL_ASSEMBLY_MEMBERS
100
AcDbLine
 62
7
  6
CONTINUOUS
 10
4.5586905355
 20
5.4942252753
 11
4.5702307736
 21
5.4920826266
  0
LINE
  5
53A
100
AcDbEntity
  8
ALL_ASSEMBLY_MEMBERS
100
AcDbLine
 62
7
  6
CONTINUOUS
 10
4.5586905355
 20
5.4942252753
 11
4.4997528794
 21
5.5058809813
  0
LINE
  5
53B
100
AcDbEntity
  8
ALL_ASSEMBLY_MEMBERS
100
AcDbLine
 62
7
  6
CONTINUOUS
 10
4.500351115
 20
5.5087379956
 11
4.5005125614
 21
5.5083347649
  0
LINE
  5
53C
100
AcDbEntity
  8
ALL_ASSEMBLY_MEMBERS
100
AcDbLine
 62
7
  6
CONTINUOUS
 10
4.5881576524
 20
5.4908855726
 11
4.5902107043
 21
5.4909566413
  0
LINE
  5
53D
100
AcDbEntity
  8
ALL_ASSEMBLY_MEMBERS
100
AcDbLine
 62
7
  6
CONTINUOUS
 10
4.5902107043
 20
5.4909566413
 11
4.590304512
 21
5.4910179444
  0
LINE
  5
53E
100
AcDbEntity
  8
ALL_ASSEMBLY_MEMBERS
100
AcDbLine
 62
7
  6
CONTINUOUS
 10
4.6029275196
 20
5.4908999852
 11
4.6055964506
 21
5.4903689518
  0
SPLINE
  5
53F
100
AcDbEntity
  8
ALL_ASSEMBLY_MEMBERS
100
AcDbSpline
 62
7
  6
CONTINUOUS
 70
0
 71
3
 72
9
 73
5
 74
0
 42
0.0000001
 43
0.0000001
 44
0.0000000001
 40
0.0
 40
0.0
 40
0.0
 40
0.0
 40
0.6005862442
 40
1.0
 40
1.0
 40
1.0
 40
1.0
 10
4.5965617863
 20
5.4912989755
 30
0.0
 10
4.5977708765
 20
5.4911262779
 30
0.0
 10
4.5998006194
 20
5.4909506139
 30
0.0
 10
4.601834006
 20
5.4909020891
 30
0.0
 10
4.6026462572
 20
5.4909000156
 30
0.0
  0
LINE
  5
540
100
AcDbEntity
  8
ALL_ASSEMBLY_MEMBERS
100
AcDbLine
 62
7
  6
CONTINUOUS
 10
4.5850076661
 20
5.4933649543
 11
4.5965617863
 21
5.4912989755
  0
SPLINE
  5
541
100
AcDbEntity
  8
ALL_ASSEMBLY_MEMBERS
100
AcDbSpline
 62
7
  6
CONTINUOUS
 70
0
 71
3
 72
12
 73
8
 74
0
 42
0.0000001
 43
0.0000001
 44
0.0000000001
 40
0.0
 40
0.0
 40
0.0
 40
0.0
 40
0.3833093502
 40
0.6738094032
 40
0.7846928013
 40
0.8738922004
 40
1.0
 40
1.0
 40
1.0
 40
1.0
 10
4.6186971332
 20
5.4921677752
 30
0.0
 10
4.618828274
 20
5.4921778524
 30
0.0
 10
4.6190584247
 20
5.4922018776
 30
0.0
 10
4.6193233682
 20
5.4922530953
 30
0.0
 10
4.6194829516
 20
5.4923100072
 30
0.0
 10
4.6195813463
 20
5.4923603194
 30
0.0
 10
4.6196389647
 20
5.4924202948
 30
0.0
 10
4.6196472543
 20
5.4924627655
 30
0.0
  0
SPLINE
  5
542
100
AcDbEntity
  8
ALL_ASSEMBLY_MEMBERS
100
AcDbSpline
 62
7
  6
CONTINUOUS
 70
0
 71
3
 72
11
 73
7
 74
0
 42
0.0000001
 43
0.0000001
 44
0.0000000001
 40
0.0
 40
0.0
 40
0.0
 40
0.0
 40
0.3275027615
 40
0.6084466309
 40
0.8330748408
 40
1.0
 40
1.0
 40
1.0
 40
1.0
 10
4.6126110166
 20
5.4925126372
 30
0.0
 10
4.6132731612
 20
5.4924397762
 30
0.0
 10
4.6145044651
 20
5.4923147173
 30
0.0
 10
4.6161941878
 20
5.4921831871
 30
0.0
 10
4.6175611631
 20
5.4921291389
 30
0.0
 10
4.6183586051
 20
5.4921417618
 30
0.0
 10
4.6186971332
 20
5.4921677752
 30
0.0
  0
LINE
  5
543
100
AcDbEntity
  8
ALL_ASSEMBLY_MEMBERS
100
AcDbLine
 62
7
  6
CONTINUOUS
 10
4.605598809
 20
5.4932758299
 11
4.6059839333
 21
5.4932357016
  0
LINE
  5
544
100
AcDbEntity
  8
ALL_ASSEMBLY_MEMBERS
100
AcDbLine
 62
7
  6
CONTINUOUS
 10
4.6059839333
 20
5.4932357016
 11
4.6126110166
 21
5.4925126372
  0
LINE
  5
545
100
AcDbEntity
  8
ALL_ASSEMBLY_MEMBERS
100
AcDbLine
 62
7
  6
CONTINUOUS
 10
4.6007698377
 20
5.4936069022
 11
4.605598809
 21
5.4932758299
  0
LINE
  5
546
100
AcDbEntity
  8
ALL_ASSEMBLY_MEMBERS
100
AcDbLine
 62
7
  6
CONTINUOUS
 10
4.6212871125
 20
5.4936387522
 11
4.6228600459
 21
5.4930382298
  0
LINE
  5
547
100
AcDbEntity
  8
ALL_ASSEMBLY_MEMBERS
100
AcDbLine
 62
7
  6
CONTINUOUS
 10
4.6228600459
 20
5.4930382298
 11
4.62406792
 21
5.4924969146
  0
LINE
  5
548
100
AcDbEntity
  8
ALL_ASSEMBLY_MEMBERS
100
AcDbLine
 62
7
  6
CONTINUOUS
 10
4.62406792
 20
5.4924969146
 11
4.6254000589
 21
5.4915888036
  0
LINE
  5
549
100
AcDbEntity
  8
ALL_ASSEMBLY_MEMBERS
100
AcDbLine
 62
7
  6
CONTINUOUS
 10
4.6254000589
 20
5.4915888036
 11
4.6255216524
 21
5.4912233975
  0
SPLINE
  5
54A
100
AcDbEntity
  8
ALL_ASSEMBLY_MEMBERS
100
AcDbSpline
 62
7
  6
CONTINUOUS
 70
0
 71
3
 72
11
 73
7
 74
0
 42
0.0000001
 43
0.0000001
 44
0.0000000001
 40
0.0
 40
0.0
 40
0.0
 40
0.0
 40
0.3137689799
 40
0.5932498284
 40
0.8239525143
 40
1.0
 40
1.0
 40
1.0
 40
1.0
 10
4.5962282747
 20
5.499830074
 30
0.0
 10
4.598879532
 20
5.4993105577
 30
0.0
 10
4.6038846857
 20
5.4982883626
 30
0.0
 10
4.6108014332
 20
5.4967054426
 30
0.0
 10
4.6165163415
 20
5.4952001663
 30
0.0
 10
4.6198601
 20
5.494150031
 30
0.0
 10
4.6212871125
 20
5.4936387522
 30
0.0
  0
SPLINE
  5
54B
100
AcDbEntity
  8
ALL_ASSEMBLY_MEMBERS
100
AcDbSpline
 62
7
  6
CONTINUOUS
 70
0
 71
3
 72
9
 73
5
 74
0
 42
0.0000001
 43
0.0000001
 44
0.0000000001
 40
0.0
 40
0.0
 40
0.0
 40
0.0
 40
0.2000389476
 40
1.0
 40
1.0
 40
1.0
 40
1.0
 10
4.5448105837
 20
5.5066853515
 30
0.0
 10
4.5462047417
 20
5.5066224364
 30
0.0
 10
4.5531709058
 20
5.5062379653
 30
0.0
 10
4.5601186814
 20
5.5055319835
 30
0.0
 10
4.5656529245
 20
5.5048114658
 30
0.0
  0
LINE
  5
54C
100
AcDbEntity
  8
ALL_ASSEMBLY_MEMBERS
100
AcDbLine
 62
7
  6
CONTINUOUS
 10
4.5386649258
 20
5.5068684823
 11
4.5298712944
 21
5.5090708674
  0
LINE
  5
54D
100
AcDbEntity
  8
ALL_ASSEMBLY_MEMBERS
100
AcDbLine
 62
7
  6
CONTINUOUS
 10
4.5397839522
 20
5.5104080303
 11
4.527948336
 21
5.5134227618
  0
LINE
  5
54E
100
AcDbEntity
  8
ALL_ASSEMBLY_MEMBERS
100
AcDbLine
 62
7
  6
CONTINUOUS
 10
5.6198969528
 20
5.5039560337
 11
5.588371602
 21
5.4946679817
  0
LINE
  5
54F
100
AcDbEntity
  8
ALL_ASSEMBLY_MEMBERS
100
AcDbLine
 62
7
  6
CONTINUOUS
 10
5.8546187585
 20
5.5059705534
 11
5.8545221489
 21
5.5057765432
  0
LINE
  5
550
100
AcDbEntity
  8
ALL_ASSEMBLY_MEMBERS
100
AcDbLine
 62
7
  6
CONTINUOUS
 10
5.8545221489
 20
5.5057765432
 11
5.8528510702
 21
5.5050478683
  0
LINE
  5
551
100
AcDbEntity
  8
ALL_ASSEMBLY_MEMBERS
100
AcDbLine
 62
7
  6
CONTINUOUS
 10
5.8528510702
 20
5.5050478683
 11
5.8493005346
 21
5.5040824279
  0
LINE
  5
552
100
AcDbEntity
  8
ALL_ASSEMBLY_MEMBERS
100
AcDbLine
 62
7
  6
CONTINUOUS
 10
5.7513135273
 20
5.4899411256
 11
5.749800093
 21
5.4902244067
  0
LINE
  5
553
100
AcDbEntity
  8
ALL_ASSEMBLY_MEMBERS
100
AcDbLine
 62
7
  6
CONTINUOUS
 10
5.749800093
 20
5.4902244067
 11
5.7497086542
 21
5.4903551749
  0
LINE
  5
554
100
AcDbEntity
  8
ALL_ASSEMBLY_MEMBERS
100
AcDbLine
 62
7
  6
CONTINUOUS
 10
5.7595330694
 20
5.490422941
 11
5.7546550421
 21
5.4899868093
  0
LINE
  5
555
100
AcDbEntity
  8
ALL_ASSEMBLY_MEMBERS
100
AcDbLine
 62
7
  6
CONTINUOUS
 10
5.7533879341
 20
5.4899310622
 11
5.7522778436
 21
5.4899163422
  0
LINE
  5
556
100
AcDbEntity
  8
ALL_ASSEMBLY_MEMBERS
100
AcDbLine
 62
7
  6
CONTINUOUS
 10
5.7522778436
 20
5.4899163422
 11
5.7513135273
 21
5.4899411256
  0
LINE
  5
557
100
AcDbEntity
  8
ALL_ASSEMBLY_MEMBERS
100
AcDbLine
 62
7
  6
CONTINUOUS
 10
5.8123754888
 20
5.5007098978
 11
5.8068911019
 21
5.4991784047
  0
LINE
  5
558
100
AcDbEntity
  8
ALL_ASSEMBLY_MEMBERS
100
AcDbLine
 62
7
  6
CONTINUOUS
 10
5.8646595437
 20
5.5107235349
 11
5.861233467
 21
5.5097976127
  0
LINE
  5
559
100
AcDbEntity
  8
ALL_ASSEMBLY_MEMBERS
100
AcDbLine
 62
7
  6
CONTINUOUS
 10
5.861233467
 20
5.5097976127
 11
5.8581169343
 21
5.5090699836
  0
LINE
  5
55A
100
AcDbEntity
  8
ALL_ASSEMBLY_MEMBERS
100
AcDbLine
 62
7
  6
CONTINUOUS
 10
5.8522254289
 20
5.5078264761
 11
5.8515891719
 21
5.5076988254
  0
LINE
  5
55B
100
AcDbEntity
  8
ALL_ASSEMBLY_MEMBERS
100
AcDbLine
 62
7
  6
CONTINUOUS
 10
5.7804772021
 20
5.4918820248
 11
5.7795068297
 21
5.4914944137
  0
SPLINE
  5
55C
100
AcDbEntity
  8
ALL_ASSEMBLY_MEMBERS
100
AcDbSpline
 62
7
  6
CONTINUOUS
 70
0
 71
3
 72
9
 73
5
 74
0
 42
0.0000001
 43
0.0000001
 44
0.0000000001
 40
0.0
 40
0.0
 40
0.0
 40
0.0
 40
0.3001320585
 40
1.0
 40
1.0
 40
1.0
 40
1.0
 10
5.7795068297
 20
5.4914944137
 30
0.0
 10
5.7795049315
 20
5.4914918927
 30
0.0
 10
5.7794990858
 20
5.4914832663
 30
0.0
 10
5.7794959625
 20
5.4914720105
 30
0.0
 10
5.7794974618
 20
5.4914648062
 30
0.0
  0
LINE
  5
55D
100
AcDbEntity
  8
ALL_ASSEMBLY_MEMBERS
100
AcDbLine
 62
7
  6
CONTINUOUS
 10
5.7832002294
 20
5.4927453681
 11
5.7807037142
 21
5.4919512051
  0
LINE
  5
55E
100
AcDbEntity
  8
ALL_ASSEMBLY_MEMBERS
100
AcDbLine
 62
7
  6
CONTINUOUS
 10
5.7691394841
 20
5.4897704764
 11
5.767652054
 21
5.4899167319
  0
SPLINE
  5
55F
100
AcDbEntity
  8
ALL_ASSEMBLY_MEMBERS
100
AcDbSpline
 62
7
  6
CONTINUOUS
 70
0
 71
3
 72
8
 73
4
 74
0
 42
0.0000001
 43
0.0000001
 44
0.0000000001
 40
0.0
 40
0.0
 40
0.0
 40
0.0
 40
1.0
 40
1.0
 40
1.0
 40
1.0
 10
5.767652054
 20
5.4899167319
 30
0.0
 10
5.7676452405
 20
5.4899253108
 30
0.0
 10
5.7676399251
 20
5.4899356439
 30
0.0
 10
5.767637956
 20
5.489946421
 30
0.0
  0
LINE
  5
560
100
AcDbEntity
  8
ALL_ASSEMBLY_MEMBERS
100
AcDbLine
 62
7
  6
CONTINUOUS
 10
5.7738293872
 20
5.4901457418
 11
5.770636893
 21
5.4898413081
  0
LINE
  5
561
100
AcDbEntity
  8
ALL_ASSEMBLY_MEMBERS
100
AcDbLine
 62
7
  6
CONTINUOUS
 10
5.8045018698
 20
5.4950876782
 11
5.8039118235
 21
5.494980887
  0
LINE
  5
562
100
AcDbEntity
  8
ALL_ASSEMBLY_MEMBERS
100
AcDbLine
 62
7
  6
CONTINUOUS
 10
5.7918002109
 20
5.4928587733
 11
5.7903035402
 21
5.4926068925
  0
SPLINE
  5
563
100
AcDbEntity
  8
ALL_ASSEMBLY_MEMBERS
100
AcDbSpline
 62
7
  6
CONTINUOUS
 70
0
 71
3
 72
12
 73
8
 74
0
 42
0.0000001
 43
0.0000001
 44
0.0000000001
 40
0.0
 40
0.0
 40
0.0
 40
0.0
 40
0.1362586301
 40
0.2320097584
 40
0.3480192321
 40
0.6384674269
 40
1.0
 40
1.0
 40
1.0
 40
1.0
 10
5.8364177657
 20
5.5028410502
 30
0.0
 10
5.8364042523
 20
5.502914673
 30
0.0
 10
5.8363019284
 20
5.5030161224
 30
0.0
 10
5.8361367146
 20
5.5031056818
 30
0.0
 10
5.8358790993
 20
5.5032095622
 30
0.0
 10
5.835470816
 20
5.5033167475
 30
0.0
 10
5.8351185437
 20
5.5033831389
 30
0.0
 10
5.8349226192
 20
5.5034156606
 30
0.0
  0
LINE
  5
564
100
AcDbEntity
  8
ALL_ASSEMBLY_MEMBERS
100
AcDbLine
 62
7
  6
CONTINUOUS
 10
5.8386422458
 20
5.5081986031
 11
5.8304249619
 21
5.506398249
  0
LINE
  5
565
100
AcDbEntity
  8
ALL_ASSEMBLY_MEMBERS
100
AcDbLine
 62
7
  6
CONTINUOUS
 10
5.8253642853
 20
5.5050453552
 11
5.8203163416
 21
5.5034353567
  0
LINE
  5
566
100
AcDbEntity
  8
ALL_ASSEMBLY_MEMBERS
100
AcDbLine
 62
7
  6
CONTINUOUS
 10
5.8591655033
 20
5.511043275
 11
5.8548608412
 21
5.5107615936
  0
LINE
  5
567
100
AcDbEntity
  8
ALL_ASSEMBLY_MEMBERS
100
AcDbLine
 62
7
  6
CONTINUOUS
 10
4.5640873358
 20
5.4924332044
 11
4.5638007777
 21
5.4925493199
  0
SPLINE
  5
568
100
AcDbEntity
  8
ALL_ASSEMBLY_MEMBERS
100
AcDbSpline
 62
7
  6
CONTINUOUS
 70
0
 71
3
 72
9
 73
5
 74
0
 42
0.0000001
 43
0.0000001
 44
0.0000000001
 40
0.0
 40
0.0
 40
0.0
 40
0.0
 40
0.723983543
 40
1.0
 40
1.0
 40
1.0
 40
1.0
 10
5.8600014029
 20
5.5108547843
 30
0.0
 10
5.8599993122
 20
5.5108667525
 30
0.0
 10
5.8599911774
 20
5.5108825129
 30
0.0
 10
5.8599797424
 20
5.5108947489
 30
0.0
 10
5.8599764067
 20
5.5108979626
 30
0.0
  0
LINE
  5
569
100
AcDbEntity
  8
ALL_ASSEMBLY_MEMBERS
100
AcDbLine
 62
7
  6
CONTINUOUS
 10
5.8599764067
 20
5.5108979626
 11
5.859557658
 21
5.5110148953
  0
LINE
  5
56A
100
AcDbEntity
  8
ALL_ASSEMBLY_MEMBERS
100
AcDbLine
 62
7
  6
CONTINUOUS
 10
5.859557658
 20
5.5110148953
 11
5.8591655033
 21
5.511043275
  0
SPLINE
  5
56B
100
AcDbEntity
  8
ALL_ASSEMBLY_MEMBERS
100
AcDbSpline
 62
7
  6
CONTINUOUS
 70
0
 71
3
 72
13
 73
9
 74
0
 42
0.0000001
 43
0.0000001
 44
0.0000000001
 40
0.0
 40
0.0
 40
0.0
 40
0.0
 40
0.3803382422
 40
0.6795899149
 40
0.7952464485
 40
0.8871892121
 40
0.9550696237
 40
1.0
 40
1.0
 40
1.0
 40
1.0
 10
5.7602609925
 20
5.4926081855
 30
0.0
 10
5.759849033
 20
5.4924871155
 30
0.0
 10
5.7591153149
 20
5.492262968
 30
0.0
 10
5.7582656592
 20
5.4919707918
 30
0.0
 10
5.7577362156
 20
5.4917538742
 30
0.0
 10
5.7574548333
 20
5.4916197504
 30
0.0
 10
5.7572567928
 20
5.4915016773
 30
0.0
 10
5.7571578921
 20
5.4914167303
 30
0.0
 10
5.7571299152
 20
5.4913744193
 30
0.0
  0
SPLINE
  5
56C
100
AcDbEntity
  8
ALL_ASSEMBLY_MEMBERS
100
AcDbSpline
 62
7
  6
CONTINUOUS
 70
0
 71
3
 72
9
 73
5
 74
0
 42
0.0000001
 43
0.0000001
 44
0.0000000001
 40
0.0
 40
0.0
 40
0.0
 40
0.0
 40
0.2904436657
 40
1.0
 40
1.0
 40
1.0
 40
1.0
 10
5.7571299152
 20
5.4913744193
 30
0.0
 10
5.7571249868
 20
5.4913669659
 30
0.0
 10
5.7571094661
 20
5.4913405943
 30
0.0
 10
5.7571020386
 20
5.4913080137
 30
0.0
 10
5.7571058878
 20
5.4912865264
 30
0.0
  0
LINE
  5
56D
100
AcDbEntity
  8
ALL_ASSEMBLY_MEMBERS
100
AcDbLine
 62
7
  6
CONTINUOUS
 10
5.7744596065
 20
5.495857561
 11
5.7655021413
 21
5.4939638363
  0
LINE
  5
56E
100
AcDbEntity
  8
ALL_ASSEMBLY_MEMBERS
100
AcDbLine
 62
7
  6
CONTINUOUS
 10
5.7655021413
 20
5.4939638363
 11
5.761394177
 21
5.4929297944
  0
SPLINE
  5
56F
100
AcDbEntity
  8
ALL_ASSEMBLY_MEMBERS
100
AcDbSpline
 62
7
  6
CONTINUOUS
 70
0
 71
3
 72
11
 73
7
 74
0
 42
0.0000001
 43
0.0000001
 44
0.0000000001
 40
0.0
 40
0.0
 40
0.0
 40
0.0
 40
0.3464796191
 40
0.5962249626
 40
0.8050217473
 40
1.0
 40
1.0
 40
1.0
 40
1.0
 10
5.2448267298
 20
5.5090280467
 30
0.0
 10
5.2438667671
 20
5.5085622274
 30
0.0
 10
5.2422796015
 20
5.5075780152
 30
0.0
 10
5.2406632144
 20
5.5056431527
 30
0.0
 10
5.2399169172
 20
5.5037423973
 30
0.0
 10
5.2397875952
 20
5.5024924986
 30
0.0
 10
5.2397875952
 20
5.5018920469
 30
0.0
  0
LINE
  5
570
100
AcDbEntity
  8
ALL_ASSEMBLY_MEMBERS
100
AcDbLine
 62
7
  6
CONTINUOUS
 10
5.2616238903
 20
5.5117169941
 11
5.2577946945
 21
5.5115681715
  0
LINE
  5
571
100
AcDbEntity
  8
ALL_ASSEMBLY_MEMBERS
100
AcDbLine
 62
7
  6
CONTINUOUS
 10
5.2577946945
 20
5.5115681715
 11
5.2512620586
 21
5.5108782103
  0
SPLINE
  5
572
100
AcDbEntity
  8
ALL_ASSEMBLY_MEMBERS
100
AcDbSpline
 62
7
  6
CONTINUOUS
 70
0
 71
3
 72
9
 73
5
 74
0
 42
0.0000001
 43
0.0000001
 44
0.0000000001
 40
0.0
 40
0.0
 40
0.0
 40
0.0
 40
0.5842259357
 40
1.0
 40
1.0
 40
1.0
 40
1.0
 10
5.2512620586
 20
5.5108782103
 30
0.0
 10
5.2499725053
 20
5.5106641774
 30
0.0
 10
5.2477781802
 20
5.5102000186
 30
0.0
 10
5.2456636839
 20
5.5094341763
 30
0.0
 10
5.2448267298
 20
5.5090280467
 30
0.0
  0
SPLINE
  5
573
100
AcDbEntity
  8
ALL_ASSEMBLY_MEMBERS
100
AcDbSpline
 62
7
  6
CONTINUOUS
 70
0
 71
3
 72
9
 73
5
 74
0
 42
0.0000001
 43
0.0000001
 44
0.0000000001
 40
0.0
 40
0.0
 40
0.0
 40
0.0
 40
0.4281861409
 40
1.0
 40
1.0
 40
1.0
 40
1.0
 10
5.278589009
 20
5.5095155336
 30
0.0
 10
5.2778960695
 20
5.5098378965
 30
0.0
 10
5.2762133557
 20
5.5104530105
 30
0.0
 10
5.2744681867
 20
5.5108473601
 30
0.0
 10
5.273463498
 20
5.5110269237
 30
0.0
  0
SPLINE
  5
574
100
AcDbEntity
  8
ALL_ASSEMBLY_MEMBERS
100
AcDbSpline
 62
7
  6
CONTINUOUS
 70
0
 71
3
 72
10
 73
6
 74
0
 42
0.0000001
 43
0.0000001
 44
0.0000000001
 40
0.0
 40
0.0
 40
0.0
 40
0.0
 40
0.2096182999
 40
0.4530557247
 40
1.0
 40
1.0
 40
1.0
 40
1.0
 10
5.273463498
 20
5.5110269237
 30
0.0
 10
5.2726466603
 20
5.5111729135
 30
0.0
 10
5.2708688042
 20
5.5114200872
 30
0.0
 10
5.2669218781
 20
5.5117414914
 30
0.0
 10
5.2637884933
 20
5.5117632751
 30
0.0
 10
5.2616238903
 20
5.5117169941
 30
0.0
  0
SPLINE
  5
575
100
AcDbEntity
  8
ALL_ASSEMBLY_MEMBERS
100
AcDbSpline
 62
7
  6
CONTINUOUS
 70
0
 71
3
 72
11
 73
7
 74
0
 42
0.0000001
 43
0.0000001
 44
0.0000000001
 40
0.0
 40
0.0
 40
0.0
 40
0.0
 40
0.1955526503
 40
0.4053491524
 40
0.6577040662
 40
1.0
 40
1.0
 40
1.0
 40
1.0
 10
5.2838801185
 20
5.5025203065
 30
0.0
 10
5.2838801185
 20
5.503125675
 30
0.0
 10
5.2837312757
 20
5.5043889773
 30
0.0
 10
5.2828881168
 20
5.5062799153
 30
0.0
 10
5.2811625217
 20
5.5081316204
 30
0.0
 10
5.2795497713
 20
5.5090685768
 30
0.0
 10
5.278589009
 20
5.5095155336
 30
0.0
  0
LINE
  5
576
100
AcDbEntity
  8
ALL_ASSEMBLY_MEMBERS
100
AcDbLine
 62
7
  6
CONTINUOUS
 10
5.7839433912
 20
5.4931134175
 11
5.7832002294
 21
5.4927453681
  0
SPLINE
  5
577
100
AcDbEntity
  8
ALL_ASSEMBLY_MEMBERS
100
AcDbSpline
 62
7
  6
CONTINUOUS
 70
0
 71
3
 72
11
 73
7
 74
0
 42
0.0000001
 43
0.0000001
 44
0.0000000001
 40
0.0
 40
0.0
 40
0.0
 40
0.0
 40
0.3454817897
 40
0.5945431222
 40
0.8036304781
 40
1.0
 40
1.0
 40
1.0
 40
1.0
 10
5.15916128
 20
5.5084779096
 30
0.0
 10
5.158202446
 20
5.5080320189
 30
0.0
 10
5.1566139319
 20
5.5070792499
 30
0.0
 10
5.1549952156
 20
5.5051696873
 30
0.0
 10
5.1542501588
 20
5.5032776352
 30
0.0
 10
5.1541221048
 20
5.5020300999
 30
0.0
 10
5.1541221048
 20
5.5014290576
 30
0.0
  0
LINE
  5
578
100
AcDbEntity
  8
ALL_ASSEMBLY_MEMBERS
100
AcDbLine
 62
7
  6
CONTINUOUS
 10
5.1715142543
 20
5.5107204015
 11
5.1650716974
 21
5.5101144955
  0
SPLINE
  5
579
100
AcDbEntity
  8
ALL_ASSEMBLY_MEMBERS
100
AcDbSpline
 62
7
  6
CONTINUOUS
 70
0
 71
3
 72
9
 73
5
 74
0
 42
0.0000001
 43
0.0000001
 44
0.0000000001
 40
0.0
 40
0.0
 40
0.0
 40
0.0
 40
0.5801773815
 40
1.0
 40
1.0
 40
1.0
 40
1.0
 10
5.1650716974
 20
5.5101144955
 30
0.0
 10
5.1638975822
 20
5.5099282929
 30
0.0
 10
5.1618848892
 20
5.5095194923
 30
0.0
 10
5.1599412842
 20
5.5088406383
 30
0.0
 10
5.15916128
 20
5.5084779096
 30
0.0
  0
LINE
  5
57A
100
AcDbEntity
  8
ALL_ASSEMBLY_MEMBERS
100
AcDbLine
 62
7
  6
CONTINUOUS
 10
5.1759584069
 20
5.5108114858
 11
5.1814592072
 21
5.5106462139
  0
LINE
  5
57B
100
AcDbEntity
  8
ALL_ASSEMBLY_MEMBERS
100
AcDbLine
 62
7
  6
CONTINUOUS
 10
5.1814592072
 20
5.5106462139
 11
5.18754933
 21
5.5099058122
  0
SPLINE
  5
57C
100
AcDbEntity
  8
ALL_ASSEMBLY_MEMBERS
100
AcDbSpline
 62
7
  6
CONTINUOUS
 70
0
 71
3
 72
9
 73
5
 74
0
 42
0.0000001
 43
0.0000001
 44
0.0000000001
 40
0.0
 40
0.0
 40
0.0
 40
0.0
 40
0.5737393781
 40
1.0
 40
1.0
 40
1.0
 40
1.0
 10
5.18754933
 20
5.5099058122
 30
0.0
 10
5.1886090753
 20
5.5096997
 30
0.0
 10
5.1904424665
 20
5.5092553059
 30
0.0
 10
5.1922038202
 20
5.5085721034
 30
0.0
 10
5.1929235213
 20
5.5082180086
 30
0.0
  0
SPLINE
  5
57D
100
AcDbEntity
  8
ALL_ASSEMBLY_MEMBERS
100
AcDbSpline
 62
7
  6
CONTINUOUS
 70
0
 71
3
 72
11
 73
7
 74
0
 42
0.0000001
 43
0.0000001
 44
0.0000000001
 40
0.0
 40
0.0
 40
0.0
 40
0.0
 40
0.1953557523
 40
0.405675738
 40
0.6585102992
 40
1.0
 40
1.0
 40
1.0
 40
1.0
 10
5.1982146281
 20
5.5010264078
 30
0.0
 10
5.1982146281
 20
5.5016404914
 30
0.0
 10
5.1980646954
 20
5.5029238681
 30
0.0
 10
5.1972228125
 20
5.5048512052
 30
0.0
 10
5.195501998
 20
5.5067584969
 30
0.0
 10
5.1938866991
 20
5.5077441225
 30
0.0
 10
5.1929235213
 20
5.5082180086
 30
0.0
  0
SPLINE
  5
57E
100
AcDbEntity
  8
ALL_ASSEMBLY_MEMBERS
100
AcDbSpline
 62
7
  6
CONTINUOUS
 70
0
 71
3
 72
12
 73
8
 74
0
 42
0.0000001
 43
0.0000001
 44
0.0000000001
 40
0.0
 40
0.0
 40
0.0
 40
0.0
 40
0.097168212
 40
0.1760531751
 40
0.2812842109
 40
0.5792825096
 40
1.0
 40
1.0
 40
1.0
 40
1.0
 10
5.8669711812
 20
5.511817924
 30
0.0
 10
5.8669813623
 20
5.5117637424
 30
0.0
 10
5.866919401
 20
5.5116631182
 30
0.0
 10
5.8667981263
 20
5.51156589
 30
0.0
 10
5.8665644156
 20
5.5114187309
 30
0.0
 10
5.8661379847
 20
5.5112274289
 30
0.0
 10
5.8657554854
 20
5.511084817
 30
0.0
 10
5.865530073
 20
5.5110062863
 30
0.0
  0
LINE
  5
57F
100
AcDbEntity
  8
ALL_ASSEMBLY_MEMBERS
100
AcDbLine
 62
7
  6
CONTINUOUS
 10
5.865530073
 20
5.5110062863
 11
5.8646595437
 21
5.5107235349
  0
LINE
  5
580
100
AcDbEntity
  8
ALL_ASSEMBLY_MEMBERS
100
AcDbLine
 62
7
  6
CONTINUOUS
 10
5.0753378486
 20
5.510039766
 11
5.0679527137
 21
5.5097578447
  0
LINE
  5
581
100
AcDbEntity
  8
ALL_ASSEMBLY_MEMBERS
100
AcDbLine
 62
7
  6
CONTINUOUS
 10
5.0802146352
 20
5.5100986847
 11
5.0753378486
 21
5.510039766
  0
SPLINE
  5
582
100
AcDbEntity
  8
ALL_ASSEMBLY_MEMBERS
100
AcDbSpline
 62
7
  6
CONTINUOUS
 70
0
 71
3
 72
14
 73
10
 74
0
 42
0.0000001
 43
0.0000001
 44
0.0000000001
 40
0.0
 40
0.0
 40
0.0
 40
0.0
 40
0.0432540708
 40
0.0926995051
 40
0.1570390707
 40
0.2475862248
 40
0.3778229492
 40
0.5558235348
 40
1.0
 40
1.0
 40
1.0
 40
1.0
 10
5.0851697942
 20
5.5085991165
 30
0.0
 10
5.0851697942
 20
5.5086782638
 30
0.0
 10
5.0851416803
 20
5.5088496914
 30
0.0
 10
5.0849902644
 20
5.5091011594
 30
0.0
 10
5.0846994456
 20
5.5093441046
 30
0.0
 10
5.0842285898
 20
5.5095764194
 30
0.0
 10
5.08352575
 20
5.509781794
 30
0.0
 10
5.0821674797
 20
5.5100169053
 30
0.0
 10
5.0810271486
 20
5.5100784987
 30
0.0
 10
5.0802146352
 20
5.5100986847
 30
0.0
  0
SPLINE
  5
583
100
AcDbEntity
  8
ALL_ASSEMBLY_MEMBERS
100
AcDbSpline
 62
7
  6
CONTINUOUS
 70
0
 71
3
 72
15
 73
11
 74
0
 42
0.0000001
 43
0.0000001
 44
0.0000000001
 40
0.0
 40
0.0
 40
0.0
 40
0.0
 40
0.2072279329
 40
0.384902125
 40
0.5346210898
 40
0.6593932753
 40
0.7632112256
 40
0.8509308868
 40
0.928014025
 40
1.0
 40
1.0
 40
1.0
 40
1.0
 10
5.1481400243
 20
5.4928665445
 30
0.0
 10
5.1471784059
 20
5.4931418508
 30
0.0
 10
5.1454048529
 20
5.4936998241
 30
0.0
 10
5.143001474
 20
5.494646625
 30
0.0
 10
5.1410481378
 20
5.4956287234
 30
0.0
 10
5.139519715
 20
5.4966377414
 30
0.0
 10
5.1383836119
 20
5.4976690663
 30
0.0
 10
5.1376075062
 20
5.4987209913
 30
0.0
 10
5.1371650077
 20
5.4997880161
 30
0.0
 10
5.1370729947
 20
5.5005112385
 30
0.0
 10
5.1370729947
 20
5.5008587018
 30
0.0
  0
SPLINE
  5
584
100
AcDbEntity
  8
ALL_ASSEMBLY_MEMBERS
100
AcDbSpline
 62
7
  6
CONTINUOUS
 70
0
 71
3
 72
9
 73
5
 74
0
 42
0.0000001
 43
0.0000001
 44
0.0000000001
 40
0.0
 40
0.0
 40
0.0
 40
0.0
 40
0.5581886797
 40
1.0
 40
1.0
 40
1.0
 40
1.0
 10
5.1667161847
 20
5.4899389343
 30
0.0
 10
5.1634619887
 20
5.4901411306
 30
0.0
 10
5.1576409451
 20
5.4907201086
 30
0.0
 10
5.1519002211
 20
5.4918626325
 30
0.0
 10
5.149404488
 20
5.4925193584
 30
0.0
  0
LINE
  5
585
100
AcDbEntity
  8
ALL_ASSEMBLY_MEMBERS
100
AcDbLine
 62
7
  6
CONTINUOUS
 10
4.7916779223
 20
5.4946679817
 11
4.7621645437
 21
5.5039552526
  0
LINE
  5
586
100
AcDbEntity
  8
ALL_ASSEMBLY_MEMBERS
100
AcDbLine
 62
7
  6
CONTINUOUS
 10
4.4743144854
 20
5.5097578447
 11
4.4712525105
 21
5.5103604031
  0
LINE
  5
587
100
AcDbEntity
  8
ALL_ASSEMBLY_MEMBERS
100
AcDbLine
 62
7
  6
CONTINUOUS
 10
4.4746693342
 20
5.5100986847
 11
4.4740874275
 21
5.5100773627
  0
LINE
  5
588
100
AcDbEntity
  8
ALL_ASSEMBLY_MEMBERS
100
AcDbLine
 62
7
  6
CONTINUOUS
 10
4.4831657228
 20
5.5085991165
 11
4.4746693342
 21
5.5100986847
  0
LINE
  5
589
100
AcDbEntity
  8
ALL_ASSEMBLY_MEMBERS
100
AcDbLine
 62
7
  6
CONTINUOUS
 10
4.5542137195
 20
5.4945859515
 11
4.4952142441
 21
5.5062206862
  0
LINE
  5
58A
100
AcDbEntity
  8
ALL_ASSEMBLY_MEMBERS
100
AcDbLine
 62
7
  6
CONTINUOUS
 10
4.5638007777
 20
5.4925493199
 11
4.5594423101
 21
5.493531638
  0
LINE
  5
58B
100
AcDbEntity
  8
ALL_ASSEMBLY_MEMBERS
100
AcDbLine
 62
7
  6
CONTINUOUS
 10
4.5550352312
 20
5.4944226298
 11
4.5542137195
 21
5.4945859515
  0
LINE
  5
58C
100
AcDbEntity
  8
ALL_ASSEMBLY_MEMBERS
100
AcDbLine
 62
7
  6
CONTINUOUS
 10
4.5005220242
 20
5.5082890873
 11
4.4974612396
 21
5.5088982542
  0
LINE
  5
58D
100
AcDbEntity
  8
ALL_ASSEMBLY_MEMBERS
100
AcDbLine
 62
7
  6
CONTINUOUS
 10
4.5009265394
 20
5.5089055279
 11
4.5003289156
 21
5.5087971024
  0
SPLINE
  5
58E
100
AcDbEntity
  8
ALL_ASSEMBLY_MEMBERS
100
AcDbSpline
 62
7
  6
CONTINUOUS
 70
0
 71
3
 72
13
 73
9
 74
0
 42
0.0000001
 43
0.0000001
 44
0.0000000001
 40
0.0
 40
0.0
 40
0.0
 40
0.0
 40
0.2897054765
 40
0.5850650873
 40
0.7253467454
 40
0.8478685672
 40
0.9399328053
 40
1.0
 40
1.0
 40
1.0
 40
1.0
 10
4.508743823
 20
5.5076413316
 30
0.0
 10
4.5079930216
 20
5.5077891132
 30
0.0
 10
4.5064756113
 20
5.5080816535
 30
0.0
 10
4.5045903451
 20
5.5084235134
 30
0.0
 10
4.5031350926
 20
5.5086598399
 30
0.0
 10
4.5022072721
 20
5.508793897
 30
0.0
 10
4.5014865627
 20
5.5088768254
 30
0.0
 10
4.5010851895
 20
5.5089040269
 30
0.0
 10
4.5009265394
 20
5.5089055279
 30
0.0
  0
LINE
  5
58F
100
AcDbEntity
  8
ALL_ASSEMBLY_MEMBERS
100
AcDbLine
 62
7
  6
CONTINUOUS
 10
4.5900270444
 20
5.4911847042
 11
4.5856875548
 21
5.4922767939
  0
LINE
  5
590
100
AcDbEntity
  8
ALL_ASSEMBLY_MEMBERS
100
AcDbLine
 62
7
  6
CONTINUOUS
 10
4.5812859346
 20
5.493194522
 11
4.5804651047
 21
5.4933606144
  0
SPLINE
  5
591
100
AcDbEntity
  8
ALL_ASSEMBLY_MEMBERS
100
AcDbSpline
 62
7
  6
CONTINUOUS
 70
0
 71
3
 72
9
 73
5
 74
0
 42
0.0000001
 43
0.0000001
 44
0.0000000001
 40
0.0
 40
0.0
 40
0.0
 40
0.0
 40
0.2906403922
 40
1.0
 40
1.0
 40
1.0
 40
1.0
 10
4.5740108747
 20
5.5019937375
 30
0.0
 10
4.5727027637
 20
5.5021555487
 30
0.0
 10
4.568196578
 20
5.5026686858
 30
0.0
 10
4.5636750449
 20
5.5030403718
 30
0.0
 10
4.5604645454
 20
5.5032449527
 30
0.0
  0
LINE
  5
592
100
AcDbEntity
  8
ALL_ASSEMBLY_MEMBERS
100
AcDbLine
 62
7
  6
CONTINUOUS
 10
4.6160348707
 20
5.494059597
 11
4.6060903546
 21
5.4965543115
  0
LINE
  5
593
100
AcDbEntity
  8
ALL_ASSEMBLY_MEMBERS
100
AcDbLine
 62
7
  6
CONTINUOUS
 10
4.6010332502
 20
5.4930744454
 11
4.600571657
 21
5.4932299438
  0
LINE
  5
594
100
AcDbEntity
  8
ALL_ASSEMBLY_MEMBERS
100
AcDbLine
 62
7
  6
CONTINUOUS
 10
4.600571657
 20
5.4932299438
 11
4.6001962016
 21
5.4934715741
  0
LINE
  5
595
100
AcDbEntity
  8
ALL_ASSEMBLY_MEMBERS
100
AcDbLine
 62
7
  6
CONTINUOUS
 10
4.6053479996
 20
5.4920645328
 11
4.6015741442
 21
5.4929197457
  0
LINE
  5
596
100
AcDbEntity
  8
ALL_ASSEMBLY_MEMBERS
100
AcDbLine
 62
7
  6
CONTINUOUS
 10
4.6015741442
 20
5.4929197457
 11
4.6010332502
 21
5.4930744454
  0
LINE
  5
597
100
AcDbEntity
  8
ALL_ASSEMBLY_MEMBERS
100
AcDbLine
 62
7
  6
CONTINUOUS
 10
4.6136462747
 20
5.4907683169
 11
4.607848039
 21
5.4915982862
  0
SPLINE
  5
598
100
AcDbEntity
  8
ALL_ASSEMBLY_MEMBERS
100
AcDbSpline
 62
7
  6
CONTINUOUS
 70
0
 71
3
 72
9
 73
5
 74
0
 42
0.0000001
 43
0.0000001
 44
0.0000000001
 40
0.0
 40
0.0
 40
0.0
 40
0.0
 40
0.4157773902
 40
1.0
 40
1.0
 40
1.0
 40
1.0
 10
4.6226831619
 20
5.4904018705
 30
0.0
 10
4.6217980516
 20
5.4903425334
 30
0.0
 10
4.619662165
 20
5.4903060198
 30
0.0
 10
4.6175302148
 20
5.4904218286
 30
0.0
 10
4.616287511
 20
5.4905189018
 30
0.0
  0
SPLINE
  5
599
100
AcDbEntity
  8
ALL_ASSEMBLY_MEMBERS
100
AcDbSpline
 62
7
  6
CONTINUOUS
 70
0
 71
3
 72
15
 73
11
 74
0
 42
0.0000001
 43
0.0000001
 44
0.0000000001
 40
0.0
 40
0.0
 40
0.0
 40
0.0
 40
0.0396367045
 40
0.0668195009
 40
0.1002971492
 40
0.1872916909
 40
0.3012133068
 40
0.4411380782
 40
0.6055913053
 40
1.0
 40
1.0
 40
1.0
 40
1.0
 10
4.6196472543
 20
5.4924627655
 30
0.0
 10
4.6196546559
 20
5.4925006861
 30
0.0
 10
4.6196299864
 20
5.4925693248
 30
0.0
 10
4.6195672512
 20
5.4926431329
 30
0.0
 10
4.6194593514
 20
5.4927396539
 30
0.0
 10
4.6192663769
 20
5.4928632765
 30
0.0
 10
4.6189712118
 20
5.4930162183
 30
0.0
 10
4.6185980967
 20
5.4931811555
 30
0.0
 10
4.6179643413
 20
5.4934310507
 30
0.0
 10
4.6174489491
 20
5.4936082971
 30
0.0
 10
4.6170837645
 20
5.4937284798
 30
0.0
  0
SPLINE
  5
59A
100
AcDbEntity
  8
ALL_ASSEMBLY_MEMBERS
100
AcDbSpline
 62
7
  6
CONTINUOUS
 70
0
 71
3
 72
14
 73
10
 74
0
 42
0.0000001
 43
0.0000001
 44
0.0000000001
 40
0.0
 40
0.0
 40
0.0
 40
0.0
 40
0.0567571096
 40
0.1264073464
 40
0.2160516754
 40
0.3281622029
 40
0.4631761214
 40
0.6207085469
 40
1.0
 40
1.0
 40
1.0
 40
1.0
 10
4.6255216524
 20
5.4912233975
 30
0.0
 10
4.6255116569
 20
5.4911662894
 30
0.0
 10
4.6254508377
 20
5.4910454009
 30
0.0
 10
4.6252765231
 20
5.4909045498
 30
0.0
 10
4.6250260017
 20
5.4907830073
 30
0.0
 10
4.6246978951
 20
5.4906772422
 30
0.0
 10
4.6242943888
 20
5.4905859961
 30
0.0
 10
4.6236165619
 20
5.4904767793
 30
0.0
 10
4.6230697327
 20
5.4904277859
 30
0.0
 10
4.6226831619
 20
5.4904018705
 30
0.0
  0
LINE
  5
59B
100
AcDbEntity
  8
ALL_ASSEMBLY_MEMBERS
100
AcDbLine
 62
7
  6
CONTINUOUS
 10
4.590304512
 20
5.4910179444
 11
4.5900270444
 21
5.4911847042
  0
SPLINE
  5
59C
100
AcDbEntity
  8
ALL_ASSEMBLY_MEMBERS
100
AcDbSpline
 62
7
  6
CONTINUOUS
 70
0
 71
3
 72
11
 73
7
 74
0
 42
0.0000001
 43
0.0000001
 44
0.0000000001
 40
0.0
 40
0.0
 40
0.0
 40
0.0
 40
0.1923778299
 40
0.422984916
 40
0.6938081878
 40
1.0
 40
1.0
 40
1.0
 40
1.0
 10
5.2052869419
 20
5.4931404558
 30
0.0
 10
5.20424629
 20
5.4927804845
 30
0.0
 10
5.2019211831
 20
5.4920945801
 30
0.0
 10
5.1980371906
 20
5.4912529956
 30
0.0
 10
5.1934640445
 20
5.490560124
 30
0.0
 10
5.1901755814
 20
5.4902375597
 30
0.0
 10
5.1884281147
 20
5.4901033605
 30
0.0
  0
SPLINE
  5
59D
100
AcDbEntity
  8
ALL_ASSEMBLY_MEMBERS
100
AcDbSpline
 62
7
  6
CONTINUOUS
 70
0
 71
3
 72
15
 73
11
 74
0
 42
0.0000001
 43
0.0000001
 44
0.0000000001
 40
0.0
 40
0.0
 40
0.0
 40
0.0
 40
0.0768360467
 40
0.1588021338
 40
0.2510202881
 40
0.3581741421
 40
0.4840829077
 40
0.6318714221
 40
0.803547966
 40
1.0
 40
1.0
 40
1.0
 40
1.0
 10
5.2152637469
 20
5.5011959528
 30
0.0
 10
5.2152637469
 20
5.5008489277
 30
0.0
 10
5.2151728505
 20
5.5001283357
 30
0.0
 10
5.2147458824
 20
5.4990662704
 30
0.0
 10
5.2140110765
 20
5.4980182919
 30
0.0
 10
5.212954703
 20
5.4969879953
 30
0.0
 10
5.2115589294
 20
5.495974852
 30
0.0
 10
5.209805354
 20
5.4949827316
 30
0.0
 10
5.2076830965
 20
5.4940154286
 30
0.0
 10
5.2061254563
 20
5.4934305059
 30
0.0
 10
5.2052869419
 20
5.4931404558
 30
0.0
  0
SPLINE
  5
59E
100
AcDbEntity
  8
ALL_ASSEMBLY_MEMBERS
100
AcDbSpline
 62
7
  6
CONTINUOUS
 70
0
 71
3
 72
15
 73
11
 74
0
 42
0.0000001
 43
0.0000001
 44
0.0000000001
 40
0.0
 40
0.0
 40
0.0
 40
0.0
 40
0.2076403031
 40
0.3854195306
 40
0.5350076719
 40
0.6594894457
 40
0.7629766548
 40
0.8504709758
 40
0.9275925694
 40
1.0
 40
1.0
 40
1.0
 40
1.0
 10
5.2338037162
 20
5.4932135018
 30
0.0
 10
5.2328428851
 20
5.4934636816
 30
0.0
 10
5.2310709138
 20
5.4939754376
 30
0.0
 10
5.2286678016
 20
5.4948605597
 30
0.0
 10
5.2267143578
 20
5.495792897
 30
0.0
 10
5.2251854901
 20
5.4967635579
 30
0.0
 10
5.2240486505
 20
5.4977670443
 30
0.0
 10
5.2232719302
 20
5.4988008352
 30
0.0
 10
5.2228296665
 20
5.4998579912
 30
0.0
 10
5.2227384779
 20
5.5005768138
 30
0.0
 10
5.2227384779
 20
5.5009230424
 30
0.0
  0
SPLINE
  5
59F
100
AcDbEntity
  8
ALL_ASSEMBLY_MEMBERS
100
AcDbSpline
 62
7
  6
CONTINUOUS
 70
0
 71
3
 72
9
 73
5
 74
0
 42
0.0000001
 43
0.0000001
 44
0.0000000001
 40
0.0
 40
0.0
 40
0.0
 40
0.0
 40
0.5588864426
 40
1.0
 40
1.0
 40
1.0
 40
1.0
 10
5.2526813856
 20
5.4907605121
 30
0.0
 10
5.2493864317
 20
5.4908717279
 30
0.0
 10
5.2434935331
 20
5.4912894563
 30
0.0
 10
5.2376664039
 20
5.49228588
 30
0.0
 10
5.2351338822
 20
5.4928835765
 30
0.0
  0
SPLINE
  5
5A0
100
AcDbEntity
  8
ALL_ASSEMBLY_MEMBERS
100
AcDbSpline
 62
7
  6
CONTINUOUS
 70
0
 71
3
 72
11
 73
7
 74
0
 42
0.0000001
 43
0.0000001
 44
0.0000000001
 40
0.0
 40
0.0
 40
0.0
 40
0.0
 40
0.1952261615
 40
0.4264466789
 40
0.6957189663
 40
1.0
 40
1.0
 40
1.0
 40
1.0
 10
5.2909526469
 20
5.4949079354
 30
0.0
 10
5.2899886004
 20
5.4945555277
 30
0.0
 10
5.287850421
 20
5.4938730574
 30
0.0
 10
5.2842966048
 20
5.4929974076
 30
0.0
 10
5.280134081
 20
5.4922264453
 30
0.0
 10
5.2771440483
 20
5.4918255192
 30
0.0
 10
5.2755544542
 20
5.4916449606
 30
0.0
  0
SPLINE
  5
5A1
100
AcDbEntity
  8
ALL_ASSEMBLY_MEMBERS
100
AcDbSpline
 62
7
  6
CONTINUOUS
 70
0
 71
3
 72
15
 73
11
 74
0
 42
0.0000001
 43
0.0000001
 44
0.0000000001
 40
0.0
 40
0.0
 40
0.0
 40
0.0
 40
0.0756788437
 40
0.1569563601
 40
0.248926417
 40
0.3561803463
 40
0.4824326575
 40
0.6307162734
 40
0.8029624957
 40
1.0
 40
1.0
 40
1.0
 40
1.0
 10
5.3009292215
 20
5.5030833252
 30
0.0
 10
5.3009292215
 20
5.5027403709
 30
0.0
 10
5.300837378
 20
5.5020257971
 30
0.0
 10
5.3004096337
 20
5.5009703606
 30
0.0
 10
5.2996749088
 20
5.4999221204
 30
0.0
 10
5.2986190768
 20
5.4988833494
 30
0.0
 10
5.2972239083
 20
5.4978527416
 30
0.0
 10
5.2954708589
 20
5.4968335643
 30
0.0
 10
5.2933490326
 20
5.4958291734
 30
0.0
 10
5.2917912869
 20
5.4952145007
 30
0.0
 10
5.2909526469
 20
5.4949079354
 30
0.0
  0
SPLINE
  5
5A2
100
AcDbEntity
  8
ALL_ASSEMBLY_MEMBERS
100
AcDbSpline
 62
7
  6
CONTINUOUS
 70
0
 71
3
 72
11
 73
7
 74
0
 42
0.0000001
 43
0.0000001
 44
0.0000000001
 40
0.0
 40
0.0
 40
0.0
 40
0.0
 40
0.1863152501
 40
0.4102888079
 40
0.679985406
 40
1.0
 40
1.0
 40
1.0
 40
1.0
 10
5.1377950332
 20
5.5032005183
 30
0.0
 10
5.1381240091
 20
5.5026914552
 30
0.0
 10
5.1390411112
 20
5.5016946553
 30
0.0
 10
5.1408698889
 20
5.5004325993
 30
0.0
 10
5.1432538003
 20
5.4992659045
 30
0.0
 10
5.1450585099
 20
5.4986072118
 30
0.0
 10
5.1460482972
 20
5.4982845427
 30
0.0
  0
LINE
  5
5A3
100
AcDbEntity
  8
ALL_ASSEMBLY_MEMBERS
100
AcDbLine
 62
7
  6
CONTINUOUS
 10
5.1460482972
 20
5.4982845427
 11
5.1481396988
 21
5.4976555055
  0
SPLINE
  5
5A4
100
AcDbEntity
  8
ALL_ASSEMBLY_MEMBERS
100
AcDbSpline
 62
7
  6
CONTINUOUS
 70
0
 71
3
 72
11
 73
7
 74
0
 42
0.0000001
 43
0.0000001
 44
0.0000000001
 40
0.0
 40
0.0
 40
0.0
 40
0.0
 40
0.3226447514
 40
0.5934486008
 40
0.8166151288
 40
1.0
 40
1.0
 40
1.0
 40
1.0
 10
5.2052871706
 20
5.4979374052
 30
0.0
 10
5.2064077316
 20
5.4983161618
 30
0.0
 10
5.2084468933
 20
5.4990828467
 30
0.0
 10
5.2111334038
 20
5.5004215198
 30
0.0
 10
5.2131786467
 20
5.5018485373
 30
0.0
 10
5.2141955002
 20
5.5029701561
 30
0.0
 10
5.2145514628
 20
5.5035404917
 30
0.0
  0
LINE
  5
5A5
100
AcDbEntity
  8
ALL_ASSEMBLY_MEMBERS
100
AcDbLine
 62
7
  6
CONTINUOUS
 10
5.1963921284
 20
5.4958750265
 11
5.2028089301
 21
5.4971913992
  0
LINE
  5
5A6
100
AcDbEntity
  8
ALL_ASSEMBLY_MEMBERS
100
AcDbLine
 62
7
  6
CONTINUOUS
 10
5.2028089301
 20
5.4971913992
 11
5.2052871706
 21
5.4979374052
  0
SPLINE
  5
5A7
100
AcDbEntity
  8
ALL_ASSEMBLY_MEMBERS
100
AcDbSpline
 62
7
  6
CONTINUOUS
 70
0
 71
3
 72
9
 73
5
 74
0
 42
0.0000001
 43
0.0000001
 44
0.0000000001
 40
0.0
 40
0.0
 40
0.0
 40
0.0
 40
0.4741085748
 40
1.0
 40
1.0
 40
1.0
 40
1.0
 10
5.1541221048
 20
5.5062689869
 30
0.0
 10
5.1541221048
 20
5.5070023651
 30
0.0
 10
5.1543168551
 20
5.5085615868
 30
0.0
 10
5.1550465673
 20
5.5099741953
 30
0.0
 10
5.1555446236
 20
5.5106173809
 30
0.0
  0
SPLINE
  5
5A8
100
AcDbEntity
  8
ALL_ASSEMBLY_MEMBERS
100
AcDbSpline
 62
7
  6
CONTINUOUS
 70
0
 71
3
 72
12
 73
8
 74
0
 42
0.0000001
 43
0.0000001
 44
0.0000000001
 40
0.0
 40
0.0
 40
0.0
 40
0.0
 40
0.3185816149
 40
0.4511064033
 40
0.5718669825
 40
0.7919945927
 40
1.0
 40
1.0
 40
1.0
 40
1.0
 10
5.2800194008
 20
5.5122917856
 30
0.0
 10
5.2807177565
 20
5.5118419566
 30
0.0
 10
5.2816524749
 20
5.5111018609
 30
0.0
 10
5.2826083463
 20
5.509952045
 30
0.0
 10
5.283259834
 20
5.5088996385
 30
0.0
 10
5.2837670657
 20
5.5075424681
 30
0.0
 10
5.2838801185
 20
5.5064206526
 30
0.0
 10
5.2838801185
 20
5.5058782857
 30
0.0
  0
SPLINE
  5
5A9
100
AcDbEntity
  8
ALL_ASSEMBLY_MEMBERS
100
AcDbSpline
 62
7
  6
CONTINUOUS
 70
0
 71
3
 72
11
 73
7
 74
0
 42
0.0000001
 43
0.0000001
 44
0.0000000001
 40
0.0
 40
0.0
 40
0.0
 40
0.0
 40
0.2291001315
 40
0.4643105188
 40
0.7155502587
 40
1.0
 40
1.0
 40
1.0
 40
1.0
 10
5.2397875952
 20
5.5062689869
 30
0.0
 10
5.2397875952
 20
5.506679617
 30
0.0
 10
5.2398435833
 20
5.5075138018
 30
0.0
 10
5.2401521157
 20
5.5087660352
 30
0.0
 10
5.2407389066
 20
5.510027344
 30
0.0
 10
5.2413304405
 20
5.5107956497
 30
0.0
 10
5.2416810197
 20
5.5111658219
 30
0.0
  0
SPLINE
  5
5AA
100
AcDbEntity
  8
ALL_ASSEMBLY_MEMBERS
100
AcDbSpline
 62
7
  6
CONTINUOUS
 70
0
 71
3
 72
11
 73
7
 74
0
 42
0.0000001
 43
0.0000001
 44
0.0000000001
 40
0.0
 40
0.0
 40
0.0
 40
0.0
 40
0.2848495924
 40
0.5369915875
 40
0.7719481655
 40
1.0
 40
1.0
 40
1.0
 40
1.0
 10
5.1962637698
 20
5.5107330739
 30
0.0
 10
5.1966138024
 20
5.5103637509
 30
0.0
 10
5.1972116128
 20
5.509603286
 30
0.0
 10
5.1978238636
 20
5.5083573924
 30
0.0
 10
5.1981526196
 20
5.5071149151
 30
0.0
 10
5.1982146281
 20
5.5062856685
 30
0.0
 10
5.1982146281
 20
5.5058782857
 30
0.0
  0
SPLINE
  5
5AB
100
AcDbEntity
  8
ALL_ASSEMBLY_MEMBERS
100
AcDbSpline
 62
7
  6
CONTINUOUS
 70
0
 71
3
 72
11
 73
7
 74
0
 42
0.0000001
 43
0.0000001
 44
0.0000000001
 40
0.0
 40
0.0
 40
0.0
 40
0.0
 40
0.1859662628
 40
0.4097042279
 40
0.6794842401
 40
1.0
 40
1.0
 40
1.0
 40
1.0
 10
5.2234363993
 20
5.5032381872
 30
0.0
 10
5.2237619027
 20
5.5027249825
 30
0.0
 10
5.224676232
 20
5.5017191378
 30
0.0
 10
5.2265087081
 20
5.5004470996
 30
0.0
 10
5.2289033101
 20
5.499271896
 30
0.0
 10
5.2307179339
 20
5.498609187
 30
0.0
 10
5.2317137792
 20
5.4982845431
 30
0.0
  0
LINE
  5
5AC
100
AcDbEntity
  8
ALL_ASSEMBLY_MEMBERS
100
AcDbLine
 62
7
  6
CONTINUOUS
 10
5.2317137792
 20
5.4982845431
 11
5.23380518
 21
5.4976555061
  0
SPLINE
  5
5AD
100
AcDbEntity
  8
ALL_ASSEMBLY_MEMBERS
100
AcDbSpline
 62
7
  6
CONTINUOUS
 70
0
 71
3
 72
9
 73
5
 74
0
 42
0.0000001
 43
0.0000001
 44
0.0000000001
 40
0.0
 40
0.0
 40
0.0
 40
0.0
 40
0.5282131363
 40
1.0
 40
1.0
 40
1.0
 40
1.0
 10
5.2799284732
 20
5.4955754389
 30
0.0
 10
5.2814482532
 20
5.4957701379
 30
0.0
 10
5.2843170626
 20
5.4962103371
 30
0.0
 10
5.2871524635
 20
5.496837388
 30
0.0
 10
5.2884744065
 20
5.4971913992
 30
0.0
  0
LINE
  5
5AE
100
AcDbEntity
  8
ALL_ASSEMBLY_MEMBERS
100
AcDbLine
 62
7
  6
CONTINUOUS
 10
5.2884744065
 20
5.4971913992
 11
5.2909526469
 21
5.4979374052
  0
LINE
  5
5AF
100
AcDbEntity
  8
ALL_ASSEMBLY_MEMBERS
100
AcDbLine
 62
7
  6
CONTINUOUS
 10
5.2909526469
 20
5.4979374052
 11
5.2946353805
 21
5.4993772477
  0
SPLINE
  5
5B0
100
AcDbEntity
  8
ALL_ASSEMBLY_MEMBERS
100
AcDbSpline
 62
7
  6
CONTINUOUS
 70
0
 71
3
 72
11
 73
7
 74
0
 42
0.0000001
 43
0.0000001
 44
0.0000000001
 40
0.0
 40
0.0
 40
0.0
 40
0.0
 40
0.3156169845
 40
0.5822356899
 40
0.8065496703
 40
1.0
 40
1.0
 40
1.0
 40
1.0
 10
5.2946353805
 20
5.4993772477
 30
0.0
 10
5.2954132083
 20
5.4997332021
 30
0.0
 10
5.2968217205
 20
5.5004525742
 30
0.0
 10
5.298629574
 20
5.5016966446
 30
0.0
 10
5.2999487153
 20
5.5030200273
 30
0.0
 10
5.3005178176
 20
5.5040233038
 30
0.0
 10
5.3006909322
 20
5.5045182017
 30
0.0
  0
ENDSEC
  0
SECTION
  2
OBJECTS
  0
DICTIONARY
  5
C
100
AcDbDictionary
280
0
281
1
  3
ACAD_GROUP
350
D
  3
ACAD_MLINESTYLE
350
17
  3
ACAD_LAYOUT
350
1A
  3
ACAD_PLOTSETTINGS
350
19
  3
ACAD_PLOTSTYLENAME
350
E
  0
DICTIONARY
  5
D
102
{ACAD_REACTORS
330
C
102
}
100
AcDbDictionary
280
0
281
1
  0
ACDBDICTIONARYWDFLT
  5
E
102
{ACAD_REACTORS
330
C
102
}
100
AcDbDictionary
281
1
  3
Normal
350
F
100
AcDbDictionaryWithDefault
340
F
  0
DICTIONARY
  5
17
102
{ACAD_REACTORS
330
C
102
}
100
AcDbDictionary
280
0
281
1
  3
Standard
350
18
  0
DICTIONARY
  5
19
102
{ACAD_REACTORS
330
C
102
}
100
AcDbDictionary
281
1
  0
DICTIONARY
  5
1A
102
{ACAD_REACTORS
330
C
102
}
100
AcDbDictionary
281
1
  3
Model
350
5B1
  3
Layout1
350
5B2
  0
ACDBPLACEHOLDER
  5
F
102
{ACAD_REACTORS
330
E
102
}
  0
MLINESTYLE
  5
18
102
{ACAD_REACTORS
330
17
102
}
100
AcDbMlineStyle
  2
STANDARD
 70
0
  3

 62
256
 51
90.0
 52
90.0
 71
2
 49
0.5
 62
256
  6
BYLAYER
 49
-0.5
 62
256
  6
BYLAYER
  0
LAYOUT
  5
5B1
102
{ACAD_REACTORS
330
1A
102
}
100
AcDbPlotSettings
  1

  2
none_device
  4
ANSI_A_(11.00_x_8.50_Inches)
  6

 40
0.0
 41
0.0
 42
0.0
 43
0.0
 44
279.4
 45
215.9
 46
0.0
 47
0.0
 48
0.0
 49
0.0
140
0.0
141
0.0
142
1.0
143
1.0
 70
1024
 72
0
 73
0
 74
0
  7

 75
0
147
1.0
148
0.0
149
0.0
100
AcDbLayout
  1
Model
 70
0
 71
0
 10
0.0
 20
0.0
 11
11.0
 21
8.5
 12
0.0
 22
0.0
 32
0.0
 14
0.0
 24
0.0
 34
0.0
 15
0.0
 25
0.0
 35
0.0
146
0.0
 13
0.0
 23
0.0
 33
0.0
 16
1.0
 26
0.0
 36
0.0
 17
0.0
 27
1.0
 37
0.0
 76
0
330
21E
345
0
346
0
  0
LAYOUT
  5
5B2
102
{ACAD_REACTORS
330
1A
102
}
100
AcDbPlotSettings
  1

  2
none_device
  4
ANSI_A_(11.00_x_8.50_Inches)
  6

 40
0.0
 41
0.0
 42
0.0
 43
0.0
 44
279.4
 45
215.9
 46
0.0
 47
0.0
 48
0.0
 49
0.0
140
0.0
141
0.0
142
1.0
143
1.0
 70
0
 72
0
 73
0
 74
0
  7

 75
0
147
1.0
148
0.0
149
0.0
100
AcDbLayout
  1
Layout1
 70
0
 71
1
 10
0.0
 20
0.0
 11
11.0
 21
8.5
 12
0.0
 22
0.0
 32
0.0
 14
0.0
 24
0.0
 34
0.0
 15
0.0
 25
0.0
 35
0.0
146
0.0
 13
0.0
 23
0.0
 33
0.0
 16
1.0
 26
0.0
 36
0.0
 17
0.0
 27
1.0
 37
0.0
 76
0
330
21F
345
0
346
0
  0
ENDSEC
  0
EOF
