999
DXF file: 3-2533ts_FRONT.dxf
999
Pro/ENGINEER 2013150 by Parametric Technology Corporation
  0
SECTION
  2
HEADER
  9
$ACADVER
  1
AC1021
  9
$DWGCODEPAGE
  3
ANSI_1252
  9
$EXTMAX
 10
11.0
 20
8.5
 30
0.0
  9
$EXTMIN
 10
0.0
 20
0.0
 30
0.0
  9
$LIMMIN
 10
0.0
 20
0.0
  9
$LIMMAX
 10
11.0
 20
8.5
  9
$VIEWCTR
 10
5.5
 20
4.25
  9
$VIEWSIZE
 40
8.5
  9
$CLAYER
  8
0
  9
$LTSCALE
 40
0.605
  9
$CELTYPE
  6
BYLAYER
  9
$DIMSCALE
 40
1.0
  9
$DIMASZ
 40
0.1
  9
$DIMEXO
 40
0.0625
  9
$DIMDLI
 40
0.418
  9
$DIMEXE
 40
0.125
  9
$DIMCEN
 40
0.099
  9
$DIMLFAC
 40
1.0
  9
$DIMBLK
  1
_FILLED
  9
$DIMTXT
 40
0.08
  9
$DIMTOL
 70
1
  9
$DIMLIM
 70
0
  9
$DIMTFAC
 40
1.0
  9
$DIMTP
 40
0.001
  9
$DIMTM
 40
0.001
  9
$DIMGAP
 40
0.09
  9
$DIMDSEP
 70
46
  9
$PDMODE
 70
3
  9
$PDSIZE
 40
0.06
  9
$HANDSEED
  5
50C
  9
$TILEMODE
 70
1
  9
$MEASUREMENT
 70
0
  9
$INSUNITS
 70
1
  0
ENDSEC
  0
SECTION
  2
CLASSES
  0
CLASS
  1
ACDBDICTIONARYWDFLT
  2
AcDbDictionaryWithDefault
  3
AutoCAD 2000
 90
0
 91
1
280
0
281
0
  0
CLASS
  1
ACDBPLACEHOLDER
  2
AcDbPlaceHolder
  3
AutoCAD 2000
 90
0
 91
1
280
0
281
0
  0
CLASS
  1
LAYOUT
  2
AcDbLayout
  3
AutoCAD 2000
 90
0
 91
0
280
0
281
0
  0
ENDSEC
  0
SECTION
  2
TABLES
  0
TABLE
  2
VPORT
  5
8
100
AcDbSymbolTable
 70
2
  0
VPORT
  5
1F4
100
AcDbSymbolTableRecord
100
AcDbViewportTableRecord
  2
*ACTIVE
 70
0
 10
0.0
 20
0.0
 11
1.0
 21
1.0
 12
5.5
 22
4.25
 13
0.0
 23
0.0
 14
1.0
 24
1.0
 15
0.0
 25
0.0
 16
0.0
 26
0.0
 36
1.0
 17
0.0
 27
0.0
 37
0.0
 40
8.5
 41
1.2941176471
 42
50.0
 43
0.0
 44
0.0
 50
0.0
 51
0.0
 71
0
 72
100
 73
1
 74
1
 75
0
 76
0
 77
0
 78
0
  0
ENDTAB
  0
TABLE
  2
LTYPE
  5
5
100
AcDbSymbolTable
 70
6
  0
LTYPE
  5
14
100
AcDbSymbolTableRecord
100
AcDbLinetypeTableRecord
  2
BYBLOCK
 70
0
  3

 72
65
 73
0
 40
0.0
  0
LTYPE
  5
15
100
AcDbSymbolTableRecord
100
AcDbLinetypeTableRecord
  2
BYLAYER
 70
0
  3

 72
65
 73
0
 40
0.0
  0
LTYPE
  5
16
100
AcDbSymbolTableRecord
100
AcDbLinetypeTableRecord
  2
CONTINUOUS
 70
64
  3
Solid line
 72
65
 73
0
 40
0.0
  0
LTYPE
  5
1F5
100
AcDbSymbolTableRecord
100
AcDbLinetypeTableRecord
  2
CENTER
 70
64
  3
____ _ ____ _ ____ _ ____ _ ____ _ ____ _ ____
 72
65
 73
4
 40
0.6
 49
0.375
 74
0
 49
-0.075
 74
0
 49
0.075
 74
0
 49
-0.075
 74
0
  0
LTYPE
  5
1F6
100
AcDbSymbolTableRecord
100
AcDbLinetypeTableRecord
  2
HIDDEN
 70
64
  3
- - - - - - - - - - - - - - - - - - - -
 72
65
 73
2
 40
0.2
 49
0.1
 74
0
 49
-0.1
 74
0
  0
LTYPE
  5
1F7
100
AcDbSymbolTableRecord
100
AcDbLinetypeTableRecord
  2
PHANTOM
 70
64
  3
_____ _ _ _____ _ _ _____ _ _ _____
 72
65
 73
6
 40
0.8
 49
0.45
 74
0
 49
-0.05
 74
0
 49
0.1
 74
0
 49
-0.05
 74
0
 49
0.1
 74
0
 49
-0.05
 74
0
  0
LTYPE
  5
1F8
100
AcDbSymbolTableRecord
100
AcDbLinetypeTableRecord
  2
DOT
 70
64
  3
. . . . . . . . . . . . . . . . . . . .
 72
65
 73
2
 40
0.2
 49
0.1
 74
0
 49
-0.1
 74
0
  0
LTYPE
  5
1F9
100
AcDbSymbolTableRecord
100
AcDbLinetypeTableRecord
  2
DASHED
 70
64
  3
- - - - - - - - - - - - - - - - - - - -
 72
65
 73
2
 40
0.2
 49
0.1
 74
0
 49
-0.1
 74
0
  0
ENDTAB
  0
TABLE
  2
LAYER
  5
2
100
AcDbSymbolTable
 70
36
  0
LAYER
  5
10
100
AcDbSymbolTableRecord
100
AcDbLayerTableRecord
  2
0
 70
0
 62
7
  6
CONTINUOUS
370
-3
390
F
  0
LAYER
  5
1FA
100
AcDbSymbolTableRecord
100
AcDbLayerTableRecord
  2
DEFAULT_1
 70
0
 62
7
  6
CENTER
370
-3
390
F
  0
LAYER
  5
1FB
100
AcDbSymbolTableRecord
100
AcDbLayerTableRecord
  2
DEFAULT_2
 70
0
 62
8
  6
HIDDEN
370
-3
390
F
  0
LAYER
  5
1FC
100
AcDbSymbolTableRecord
100
AcDbLayerTableRecord
  2
DEFAULT_3
 70
0
 62
7
  6
PHANTOM
370
-3
390
F
  0
LAYER
  5
1FD
100
AcDbSymbolTableRecord
100
AcDbLayerTableRecord
  2
ALL_FEATURES
 70
0
 62
7
  6
CONTINUOUS
370
-3
390
F
  0
LAYER
  5
1FE
100
AcDbSymbolTableRecord
100
AcDbLayerTableRecord
  2
AXES_FEATURES
 70
0
 62
7
  6
CONTINUOUS
370
-3
390
F
  0
LAYER
  5
1FF
100
AcDbSymbolTableRecord
100
AcDbLayerTableRecord
  2
CHAMFER_FEATURES
 70
0
 62
7
  6
CONTINUOUS
370
-3
390
F
  0
LAYER
  5
200
100
AcDbSymbolTableRecord
100
AcDbLayerTableRecord
  2
COSMETIC_SKETCHES
 70
0
 62
7
  6
CONTINUOUS
370
-3
390
F
  0
LAYER
  5
201
100
AcDbSymbolTableRecord
100
AcDbLayerTableRecord
  2
CUT_FEATURES
 70
0
 62
7
  6
CONTINUOUS
370
-3
390
F
  0
LAYER
  5
202
100
AcDbSymbolTableRecord
100
AcDbLayerTableRecord
  2
DATUM_CURVES
 70
0
 62
7
  6
CONTINUOUS
370
-3
390
F
  0
LAYER
  5
203
100
AcDbSymbolTableRecord
100
AcDbLayerTableRecord
  2
DATUM_PLANES
 70
0
 62
7
  6
CONTINUOUS
370
-3
390
F
  0
LAYER
  5
204
100
AcDbSymbolTableRecord
100
AcDbLayerTableRecord
  2
DATUM_POINTS
 70
0
 62
7
  6
CONTINUOUS
370
-3
390
F
  0
LAYER
  5
205
100
AcDbSymbolTableRecord
100
AcDbLayerTableRecord
  2
DEFAULT_COORDINATE_SYSTEM
 70
0
 62
7
  6
CONTINUOUS
370
-3
390
F
  0
LAYER
  5
206
100
AcDbSymbolTableRecord
100
AcDbLayerTableRecord
  2
DEFAULT_DATUM_AXES
 70
0
 62
7
  6
CONTINUOUS
370
-3
390
F
  0
LAYER
  5
207
100
AcDbSymbolTableRecord
100
AcDbLayerTableRecord
  2
DEFAULT_DATUM_CURVES
 70
0
 62
7
  6
CONTINUOUS
370
-3
390
F
  0
LAYER
  5
208
100
AcDbSymbolTableRecord
100
AcDbLayerTableRecord
  2
DEFAULT_DATUM_PLANES
 70
0
 62
7
  6
CONTINUOUS
370
-3
390
F
  0
LAYER
  5
209
100
AcDbSymbolTableRecord
100
AcDbLayerTableRecord
  2
DEFAULT_SURFACES
 70
0
 62
7
  6
CONTINUOUS
370
-3
390
F
  0
LAYER
  5
20A
100
AcDbSymbolTableRecord
100
AcDbLayerTableRecord
  2
DIMENSIONS
 70
0
 62
7
  6
CONTINUOUS
370
-3
390
F
  0
LAYER
  5
20B
100
AcDbSymbolTableRecord
100
AcDbLayerTableRecord
  2
HOLE_FEATURES
 70
0
 62
7
  6
CONTINUOUS
370
-3
390
F
  0
LAYER
  5
20C
100
AcDbSymbolTableRecord
100
AcDbLayerTableRecord
  2
HOLE_PATTERN
 70
0
 62
7
  6
CONTINUOUS
370
-3
390
F
  0
LAYER
  5
20D
100
AcDbSymbolTableRecord
100
AcDbLayerTableRecord
  2
INTFCLR_1
 70
0
 62
7
  6
CONTINUOUS
370
-3
390
F
  0
LAYER
  5
20E
100
AcDbSymbolTableRecord
100
AcDbLayerTableRecord
  2
NOTES
 70
0
 62
7
  6
CONTINUOUS
370
-3
390
F
  0
LAYER
  5
20F
100
AcDbSymbolTableRecord
100
AcDbLayerTableRecord
  2
PART_REFERENCE_DIMENSIONS
 70
0
 62
7
  6
CONTINUOUS
370
-3
390
F
  0
LAYER
  5
210
100
AcDbSymbolTableRecord
100
AcDbLayerTableRecord
  2
PLATED_SURFACE_AREA
 70
0
 62
7
  6
CONTINUOUS
370
-3
390
F
  0
LAYER
  5
211
100
AcDbSymbolTableRecord
100
AcDbLayerTableRecord
  2
POINTS
 70
0
 62
7
  6
CONTINUOUS
370
-3
390
F
  0
LAYER
  5
212
100
AcDbSymbolTableRecord
100
AcDbLayerTableRecord
  2
PROTRUSION
 70
0
 62
7
  6
CONTINUOUS
370
-3
390
F
  0
LAYER
  5
213
100
AcDbSymbolTableRecord
100
AcDbLayerTableRecord
  2
PROTRUSION_FEATURES
 70
0
 62
7
  6
CONTINUOUS
370
-3
390
F
  0
LAYER
  5
214
100
AcDbSymbolTableRecord
100
AcDbLayerTableRecord
  2
QUILTS
 70
0
 62
7
  6
CONTINUOUS
370
-3
390
F
  0
LAYER
  5
215
100
AcDbSymbolTableRecord
100
AcDbLayerTableRecord
  2
REFERENCE_DIMENSIONS
 70
0
 62
7
  6
CONTINUOUS
370
-3
390
F
  0
LAYER
  5
216
100
AcDbSymbolTableRecord
100
AcDbLayerTableRecord
  2
ROUND_FEATURES
 70
0
 62
7
  6
CONTINUOUS
370
-3
390
F
  0
LAYER
  5
217
100
AcDbSymbolTableRecord
100
AcDbLayerTableRecord
  2
SATIN_DIRECTION
 70
0
 62
7
  6
CONTINUOUS
370
-3
390
F
  0
LAYER
  5
218
100
AcDbSymbolTableRecord
100
AcDbLayerTableRecord
  2
SHELL_FEATURES
 70
0
 62
7
  6
CONTINUOUS
370
-3
390
F
  0
LAYER
  5
219
100
AcDbSymbolTableRecord
100
AcDbLayerTableRecord
  2
SIZE_REF
 70
0
 62
7
  6
CONTINUOUS
370
-3
390
F
  0
LAYER
  5
21A
100
AcDbSymbolTableRecord
100
AcDbLayerTableRecord
  2
SURFACE_FEATURES
 70
0
 62
7
  6
CONTINUOUS
370
-3
390
F
  0
ENDTAB
  0
TABLE
  2
STYLE
  5
3
100
AcDbSymbolTable
 70
1
  0
STYLE
  5
11
100
AcDbSymbolTableRecord
100
AcDbTextStyleTableRecord
  2
STANDARD
 70
0
 40
0.0
 41
0.8
 50
0.0
 71
0
 42
0.2
  3
txt
  4

  0
STYLE
  5
21B
100
AcDbSymbolTableRecord
100
AcDbTextStyleTableRecord
  2
TEXTSTYLE_1
 70
0
 40
0.0
 41
0.8
 50
0.0
 71
0
 42
0.2
  3
gdt
  4

  0
ENDTAB
  0
TABLE
  2
VIEW
  5
6
100
AcDbSymbolTable
 70
0
  0
ENDTAB
  0
TABLE
  2
UCS
  5
7
100
AcDbSymbolTable
 70
0
  0
ENDTAB
  0
TABLE
  2
APPID
  5
9
100
AcDbSymbolTable
 70
1
  0
APPID
  5
21C
100
AcDbSymbolTableRecord
100
AcDbRegAppTableRecord
  2
ACAD
 70
0
  0
ENDTAB
  0
TABLE
  2
BLOCK_RECORD
  5
1
100
AcDbSymbolTable
 70
0
  0
BLOCK_RECORD
  5
21D
100
AcDbSymbolTableRecord
100
AcDbBlockTableRecord
  2
*Model_Space
  0
BLOCK_RECORD
  5
21E
100
AcDbSymbolTableRecord
100
AcDbBlockTableRecord
  2
*Paper_Space
  0
ENDTAB
  0
TABLE
  2
DIMSTYLE
  5
A
100
AcDbSymbolTable
 70
1
100
AcDbDimStyleTable
 71
0
  0
DIMSTYLE
105
21F
100
AcDbSymbolTableRecord
100
AcDbDimStyleTableRecord
  2
STANDARD
 70
0
  3

  4

 40
1.0
 41
0.1
 42
0.0625
 43
0.38
 44
0.125
 45
0.0
 46
0.0
 47
0.001
 48
0.001
140
0.08
141
0.09
142
0.0
143
25.4
144
1.0
145
0.0
146
1.0
147
0.09
 71
1.0
 72
0.0
 73
1
 74
1
 75
0
 76
0
 77
0
 78
4
170
0
171
2
172
0
173
0
174
0
175
0
176
0
177
0
178
0
270
2
271
3
272
3
273
2
274
2
275
0
280
0
281
0
282
0
283
1
284
4
285
0
286
0
287
3
288
0
340
11
278
46
  0
ENDTAB
  0
ENDSEC
  0
SECTION
  2
BLOCKS
  0
BLOCK
  5
20
100
AcDbEntity
  8
0
100
AcDbBlockBegin
  2
*Model_Space
 70
0
 10
0.0
 20
0.0
 30
0.0
  3
*Model_Space
  1

  0
ENDBLK
  5
21
100
AcDbEntity
  8
0
100
AcDbBlockEnd
  0
BLOCK
  5
1C
100
AcDbEntity
  8
0
100
AcDbBlockBegin
  2
*Paper_Space
 70
0
 10
0.0
 20
0.0
 30
0.0
  3
*Paper_Space
  1

  0
ENDBLK
  5
1D
100
AcDbEntity
  8
0
100
AcDbBlockEnd
  0
ENDSEC
  0
SECTION
  2
ENTITIES
  0
LINE
  5
220
100
AcDbEntity
  8
0
100
AcDbLine
 62
7
  6
CONTINUOUS
 10
0.0
 20
0.0
 11
0.0
 21
8.5
  0
LINE
  5
221
100
AcDbEntity
  8
0
100
AcDbLine
 62
7
  6
CONTINUOUS
 10
0.0
 20
0.0
 11
11.0
 21
0.0
  0
LINE
  5
222
100
AcDbEntity
  8
0
100
AcDbLine
 62
7
  6
CONTINUOUS
 10
0.0
 20
8.5
 11
11.0
 21
8.5
  0
LINE
  5
223
100
AcDbEntity
  8
0
100
AcDbLine
 62
7
  6
CONTINUOUS
 10
11.0
 20
0.0
 11
11.0
 21
8.5
  0
LINE
  5
224
100
AcDbEntity
  8
ALL_FEATURES
100
AcDbLine
 62
7
  6
CONTINUOUS
 10
3.361739299
 20
1.5137788722
 11
6.106739299
 21
1.5137788722
  0
LINE
  5
225
100
AcDbEntity
  8
ALL_FEATURES
100
AcDbLine
 62
7
  6
CONTINUOUS
 10
3.361739299
 20
1.6075288722
 11
6.106739299
 21
1.6075288722
  0
LINE
  5
226
100
AcDbEntity
  8
ALL_FEATURES
100
AcDbLine
 62
7
  6
CONTINUOUS
 10
2.671739299
 20
7.0112788722
 11
2.671739299
 21
2.2037788722
  0
LINE
  5
227
100
AcDbEntity
  8
ALL_FEATURES
100
AcDbLine
 62
7
  6
CONTINUOUS
 10
2.986739299
 20
1.8887788722
 11
3.016739299
 21
1.8887788722
  0
LINE
  5
228
100
AcDbEntity
  8
ALL_FEATURES
100
AcDbLine
 62
7
  6
CONTINUOUS
 10
6.451739299
 20
1.8887788722
 11
6.481739299
 21
1.8887788722
  0
LINE
  5
229
100
AcDbEntity
  8
ALL_FEATURES
100
AcDbLine
 62
7
  6
CONTINUOUS
 10
2.765489299
 20
7.0112788722
 11
2.765489299
 21
2.2037788722
  0
LINE
  5
22A
100
AcDbEntity
  8
ALL_FEATURES
100
AcDbLine
 62
7
  6
CONTINUOUS
 10
2.986739299
 20
1.9825288722
 11
3.016739299
 21
1.9825288722
  0
LINE
  5
22B
100
AcDbEntity
  8
ALL_FEATURES
100
AcDbLine
 62
7
  6
CONTINUOUS
 10
6.451739299
 20
1.9825288722
 11
6.481739299
 21
1.9825288722
  0
LINE
  5
22C
100
AcDbEntity
  8
ALL_FEATURES
100
AcDbLine
 62
7
  6
CONTINUOUS
 10
3.046739299
 20
7.3862788722
 11
3.046739299
 21
7.3562788722
  0
LINE
  5
22D
100
AcDbEntity
  8
ALL_FEATURES
100
AcDbLine
 62
7
  6
CONTINUOUS
 10
3.046739299
 20
1.8587788722
 11
3.046739299
 21
1.8287788722
  0
LINE
  5
22E
100
AcDbEntity
  8
ALL_FEATURES
100
AcDbLine
 62
7
  6
CONTINUOUS
 10
3.140489299
 20
7.3862788722
 11
3.140489299
 21
7.3562788722
  0
LINE
  5
22F
100
AcDbEntity
  8
ALL_FEATURES
100
AcDbLine
 62
7
  6
CONTINUOUS
 10
3.140489299
 20
1.8587788722
 11
3.140489299
 21
1.8287788722
  0
LINE
  5
230
100
AcDbEntity
  8
ALL_FEATURES
100
AcDbLine
 62
9
  6
CONTINUOUS
 10
4.4415616343
 20
5.620305076
 11
4.46643754
 21
5.6394052966
  0
LINE
  5
231
100
AcDbEntity
  8
ALL_FEATURES
100
AcDbLine
 62
9
  6
CONTINUOUS
 10
4.4744991531
 20
5.6476555815
 11
4.5291168976
 21
5.6891589229
  0
LINE
  5
232
100
AcDbEntity
  8
ALL_FEATURES
100
AcDbLine
 62
9
  6
CONTINUOUS
 10
4.5818160863
 20
5.6113449741
 11
4.5496671169
 21
5.5920396959
  0
LINE
  5
233
100
AcDbEntity
  8
ALL_FEATURES
100
AcDbLine
 62
7
  6
CONTINUOUS
 10
4.7495110017
 20
2.4476415473
 11
4.7189675963
 21
2.4476415473
  0
LINE
  5
234
100
AcDbEntity
  8
ALL_FEATURES
100
AcDbLine
 62
7
  6
CONTINUOUS
 10
4.8141922978
 20
2.5251114708
 11
4.8207263173
 21
2.5256795851
  0
LINE
  5
235
100
AcDbEntity
  8
ALL_FEATURES
100
AcDbLine
 62
7
  6
CONTINUOUS
 10
4.6477522807
 20
2.5256795851
 11
4.6542863002
 21
2.5251114708
  0
LINE
  5
236
100
AcDbEntity
  8
0
100
AcDbLine
 62
7
  6
CONTINUOUS
 10
3.9026331616
 20
3.8275806053
 11
3.9021382951
 21
3.8260575627
  0
LINE
  5
237
100
AcDbEntity
  8
0
100
AcDbLine
 62
7
  6
CONTINUOUS
 10
3.852285371
 20
3.598099499
 11
3.8483263691
 21
3.5993858566
  0
LINE
  5
238
100
AcDbEntity
  8
0
100
AcDbLine
 62
7
  6
CONTINUOUS
 10
3.9708118868
 20
3.5604859442
 11
3.9656347162
 21
3.5621681089
  0
LINE
  5
239
100
AcDbEntity
  8
0
100
AcDbLine
 62
7
  6
CONTINUOUS
 10
3.9555854988
 20
3.5875476804
 11
3.8637164447
 21
3.6173977456
  0
LINE
  5
23A
100
AcDbEntity
  8
0
100
AcDbLine
 62
7
  6
CONTINUOUS
 10
3.9021382951
 20
3.8260575627
 11
3.9140650346
 21
3.8146631669
  0
LINE
  5
23B
100
AcDbEntity
  8
0
100
AcDbLine
 62
9
  6
CONTINUOUS
 10
5.5623239066
 20
3.6410072563
 11
5.5621667452
 21
3.640965145
  0
LINE
  5
23C
100
AcDbEntity
  8
0
100
AcDbLine
 62
7
  6
CONTINUOUS
 10
5.6064449721
 20
3.6961563171
 11
5.6062868813
 21
3.6961139568
  0
LINE
  5
23D
100
AcDbEntity
  8
0
100
AcDbLine
 62
9
  6
CONTINUOUS
 10
5.474715148
 20
3.66362261
 11
5.4745570453
 21
3.6635802465
  0
LINE
  5
23E
100
AcDbEntity
  8
0
100
AcDbLine
 62
9
  6
CONTINUOUS
 10
5.4782684109
 20
3.6746408107
 11
5.4781102384
 21
3.6745984284
  0
LINE
  5
23F
100
AcDbEntity
  8
0
100
AcDbLine
 62
9
  6
CONTINUOUS
 10
5.4787791491
 20
3.685159185
 11
5.4786209646
 21
3.6851167996
  0
LINE
  5
240
100
AcDbEntity
  8
0
100
AcDbLine
 62
9
  6
CONTINUOUS
 10
5.5056811996
 20
3.7261195552
 11
5.5055233738
 21
3.7260772659
  0
LINE
  5
241
100
AcDbEntity
  8
0
100
AcDbLine
 62
9
  6
CONTINUOUS
 10
5.5455417859
 20
3.7559677895
 11
5.5453843879
 21
3.7559256148
  0
LINE
  5
242
100
AcDbEntity
  8
0
100
AcDbLine
 62
7
  6
CONTINUOUS
 10
5.5255377448
 20
3.7679837318
 11
5.5253809371
 21
3.7679417153
  0
LINE
  5
243
100
AcDbEntity
  8
0
100
AcDbLine
 62
9
  6
CONTINUOUS
 10
5.4491406866
 20
3.7689555782
 11
5.4489850191
 21
3.7689138672
  0
LINE
  5
244
100
AcDbEntity
  8
0
100
AcDbLine
 62
9
  6
CONTINUOUS
 10
5.5664943133
 20
3.8129728631
 11
5.5663389051
 21
3.8129312216
  0
LINE
  5
245
100
AcDbEntity
  8
0
100
AcDbLine
 62
9
  6
CONTINUOUS
 10
5.4843746406
 20
3.7982914752
 11
5.4842199464
 21
3.798250025
  0
LINE
  5
246
100
AcDbEntity
  8
0
100
AcDbLine
 62
7
  6
CONTINUOUS
 10
3.9877501032
 20
3.4078087191
 11
3.8757049169
 21
3.3980060355
  0
LINE
  5
247
100
AcDbEntity
  8
0
100
AcDbLine
 62
7
  6
CONTINUOUS
 10
3.8740707468
 20
3.4166846861
 11
3.986115933
 21
3.4264873697
  0
LINE
  5
248
100
AcDbEntity
  8
0
100
AcDbLine
 62
7
  6
CONTINUOUS
 10
5.582140048
 20
3.3235014687
 11
5.4713755876
 21
3.3430322315
  0
LINE
  5
249
100
AcDbEntity
  8
0
100
AcDbLine
 62
7
  6
CONTINUOUS
 10
5.474631491
 20
3.3614973769
 11
5.5853959513
 21
3.3419666141
  0
LINE
  5
24A
100
AcDbEntity
  8
0
100
AcDbLine
 62
7
  6
CONTINUOUS
 10
3.9613575288
 20
3.6053169927
 11
3.8404560422
 21
3.644600267
  0
LINE
  5
24B
100
AcDbEntity
  8
0
100
AcDbLine
 62
7
  6
CONTINUOUS
 10
3.9895790955
 20
3.6182616326
 11
3.984401958
 21
3.6199437866
  0
LINE
  5
24C
100
AcDbEntity
  8
0
100
AcDbLine
 62
7
  6
CONTINUOUS
 10
3.8859302809
 20
3.7016684728
 11
3.8819713071
 21
3.7029548213
  0
LINE
  5
24D
100
AcDbEntity
  8
0
100
AcDbLine
 62
7
  6
CONTINUOUS
 10
4.004455873
 20
3.6640552229
 11
3.9992787514
 21
3.6657373717
  0
LINE
  5
24E
100
AcDbEntity
  8
0
100
AcDbLine
 62
7
  6
CONTINUOUS
 10
3.9892309972
 20
3.6911164725
 11
3.8973625415
 21
3.7209663432
  0
LINE
  5
24F
100
AcDbEntity
  8
0
100
AcDbLine
 62
7
  6
CONTINUOUS
 10
3.8741033111
 20
3.7481684743
 11
3.9950041976
 21
3.708885395
  0
LINE
  5
250
100
AcDbEntity
  8
0
100
AcDbLine
 62
7
  6
CONTINUOUS
 10
4.0180498872
 20
3.7235117747
 11
4.0232270028
 21
3.7218296279
  0
LINE
  5
251
100
AcDbEntity
  8
ALL_FEATURES
100
AcDbLine
 62
9
  6
CONTINUOUS
 10
4.8866625117
 20
3.2488449741
 11
4.9188114811
 21
3.2295396959
  0
LINE
  5
252
100
AcDbEntity
  8
0
100
AcDbLine
 62
9
  6
CONTINUOUS
 10
5.3395901509
 20
3.0183525278
 11
5.3394562796
 21
3.0184462655
  0
LINE
  5
253
100
AcDbEntity
  8
0
100
AcDbLine
 62
9
  6
CONTINUOUS
 10
5.3503146577
 20
3.0227128758
 11
5.3501806451
 21
3.0228067125
  0
LINE
  5
254
100
AcDbEntity
  8
0
100
AcDbLine
 62
9
  6
CONTINUOUS
 10
5.3587005793
 20
3.0290826501
 11
5.3585664734
 21
3.0291765521
  0
LINE
  5
255
100
AcDbEntity
  8
ALL_FEATURES
100
AcDbLine
 62
9
  6
CONTINUOUS
 10
4.9393617004
 20
3.3266589229
 11
4.9939794449
 21
3.2851555815
  0
LINE
  5
256
100
AcDbEntity
  8
ALL_FEATURES
100
AcDbLine
 62
9
  6
CONTINUOUS
 10
5.0269169638
 20
3.257805076
 11
5.002041058
 21
3.2769052966
  0
LINE
  5
257
100
AcDbEntity
  8
0
100
AcDbLine
 62
7
  6
CONTINUOUS
 10
4.27529401
 20
4.075991965
 11
4.2076059602
 21
4.165817041
  0
LINE
  5
258
100
AcDbEntity
  8
0
100
AcDbLine
 62
7
  6
CONTINUOUS
 10
4.5791147447
 20
4.3570308294
 11
4.5791147447
 21
4.3611935674
  0
LINE
  5
259
100
AcDbEntity
  8
0
100
AcDbLine
 62
7
  6
CONTINUOUS
 10
4.579968836
 20
4.2326822845
 11
4.579968836
 21
4.2381258787
  0
LINE
  5
25A
100
AcDbEntity
  8
0
100
AcDbLine
 62
7
  6
CONTINUOUS
 10
4.589864299
 20
4.0856984149
 11
4.589864299
 21
4.2002788722
  0
LINE
  5
25B
100
AcDbEntity
  8
0
100
AcDbLine
 62
7
  6
CONTINUOUS
 10
4.6010008639
 20
4.2555258633
 11
4.6010008639
 21
4.3521226357
  0
LINE
  5
25C
100
AcDbEntity
  8
0
100
AcDbLine
 62
7
  6
CONTINUOUS
 10
4.6196841395
 20
4.255527273
 11
4.6196841395
 21
4.382650544
  0
LINE
  5
25D
100
AcDbEntity
  8
0
100
AcDbLine
 62
9
  6
CONTINUOUS
 10
4.6242963945
 20
4.2413411798
 11
4.6242963945
 21
4.2411811901
  0
LINE
  5
25E
100
AcDbEntity
  8
0
100
AcDbLine
 62
7
  6
CONTINUOUS
 10
4.6407161674
 20
4.2326870007
 11
4.6407161674
 21
4.2381305619
  0
LINE
  5
25F
100
AcDbEntity
  8
0
100
AcDbLine
 62
9
  6
CONTINUOUS
 10
4.6797909031
 20
4.3592779936
 11
4.6797909031
 21
4.3591150315
  0
LINE
  5
260
100
AcDbEntity
  8
0
100
AcDbLine
 62
9
  6
CONTINUOUS
 10
4.7530974174
 20
4.3611760709
 11
4.7530974174
 21
4.3610123999
  0
LINE
  5
261
100
AcDbEntity
  8
0
100
AcDbLine
 62
7
  6
CONTINUOUS
 10
5.6062868813
 20
3.6961139568
 11
5.5900070474
 21
3.699187816
  0
LINE
  5
262
100
AcDbEntity
  8
0
100
AcDbLine
 62
7
  6
CONTINUOUS
 10
4.222580376
 20
4.1771010727
 11
4.2902684259
 21
4.0872759967
  0
LINE
  5
263
100
AcDbEntity
  8
0
100
AcDbLine
 62
7
  6
CONTINUOUS
 10
4.8770990898
 20
2.7416007482
 11
4.8788627898
 21
2.7023046185
  0
LINE
  5
264
100
AcDbEntity
  8
0
100
AcDbLine
 62
9
  6
CONTINUOUS
 10
4.788687704
 20
4.3592779936
 11
4.788687704
 21
4.3591150315
  0
LINE
  5
265
100
AcDbEntity
  8
0
100
AcDbLine
 62
9
  6
CONTINUOUS
 10
4.8619942272
 20
4.3611717622
 11
4.8619942272
 21
4.3610123999
  0
LINE
  5
266
100
AcDbEntity
  8
0
100
AcDbLine
 62
7
  6
CONTINUOUS
 10
4.8634933909
 20
2.6855520761
 11
4.8634933909
 21
2.6256001951
  0
LINE
  5
267
100
AcDbEntity
  8
0
100
AcDbLine
 62
9
  6
CONTINUOUS
 10
4.8644337757
 20
2.722901274
 11
4.8644337757
 21
2.7230597603
  0
LINE
  5
268
100
AcDbEntity
  8
0
100
AcDbLine
 62
7
  6
CONTINUOUS
 10
4.878614299
 20
4.0856985078
 11
4.878614299
 21
4.2002788722
  0
LINE
  5
269
100
AcDbEntity
  8
0
100
AcDbLine
 62
7
  6
CONTINUOUS
 10
5.2092517445
 20
4.0632115716
 11
5.2815481115
 21
4.1493710266
  0
LINE
  5
26A
100
AcDbEntity
  8
0
100
AcDbLine
 62
7
  6
CONTINUOUS
 10
5.2959114448
 20
4.1373187589
 11
5.2236150779
 21
4.0511593039
  0
LINE
  5
26B
100
AcDbEntity
  8
0
100
AcDbLine
 62
9
  6
CONTINUOUS
 10
4.0115568008
 20
3.187197917
 11
4.0116956662
 21
3.187278091
  0
LINE
  5
26C
100
AcDbEntity
  8
0
100
AcDbLine
 62
9
  6
CONTINUOUS
 10
4.0345377791
 20
3.1519247834
 11
4.0346785271
 21
3.1520060442
  0
LINE
  5
26D
100
AcDbEntity
  8
0
100
AcDbLine
 62
9
  6
CONTINUOUS
 10
4.589864299
 20
4.2002788722
 11
4.878614299
 21
4.2002788722
  0
LINE
  5
26E
100
AcDbEntity
  8
0
100
AcDbLine
 62
7
  6
CONTINUOUS
 10
4.597364299
 20
4.2077788722
 11
4.871114299
 21
4.2077788722
  0
LINE
  5
26F
100
AcDbEntity
  8
ALL_FEATURES
100
AcDbLine
 62
9
  6
CONTINUOUS
 10
4.4415616343
 20
3.257805076
 11
4.46643754
 21
3.2769052966
  0
LINE
  5
270
100
AcDbEntity
  8
ALL_FEATURES
100
AcDbLine
 62
9
  6
CONTINUOUS
 10
4.4744991531
 20
3.2851555815
 11
4.5291168976
 21
3.3266589229
  0
LINE
  5
271
100
AcDbEntity
  8
ALL_FEATURES
100
AcDbLine
 62
9
  6
CONTINUOUS
 10
4.5818160863
 20
3.2488449741
 11
4.5496671169
 21
3.2295396959
  0
LINE
  5
272
100
AcDbEntity
  8
0
100
AcDbLine
 62
9
  6
CONTINUOUS
 10
3.9633595989
 20
3.0398959973
 11
3.9635014246
 21
3.0399778805
  0
LINE
  5
273
100
AcDbEntity
  8
0
100
AcDbLine
 62
9
  6
CONTINUOUS
 10
3.9673194231
 20
3.0106231326
 11
3.967461104
 21
3.0107049321
  0
LINE
  5
274
100
AcDbEntity
  8
0
100
AcDbLine
 62
7
  6
CONTINUOUS
 10
4.121481867
 20
3.0435375355
 11
4.1184314661
 21
3.0417763857
  0
LINE
  5
275
100
AcDbEntity
  8
0
100
AcDbLine
 62
7
  6
CONTINUOUS
 10
4.1350952669
 20
3.0199614395
 11
4.1303810018
 21
3.0172396573
  0
LINE
  5
276
100
AcDbEntity
  8
0
100
AcDbLine
 62
7
  6
CONTINUOUS
 10
4.1258310951
 20
2.9903270735
 11
4.015739048
 21
2.9267654005
  0
LINE
  5
277
100
AcDbEntity
  8
0
100
AcDbLine
 62
7
  6
CONTINUOUS
 10
4.1351740256
 20
2.9741476285
 11
4.0515187083
 21
2.9258492086
  0
LINE
  5
278
100
AcDbEntity
  8
0
100
AcDbLine
 62
7
  6
CONTINUOUS
 10
4.165473257
 20
2.967355204
 11
4.1607589617
 21
2.9646334044
  0
LINE
  5
279
100
AcDbEntity
  8
0
100
AcDbLine
 62
7
  6
CONTINUOUS
 10
4.0582112191
 20
2.9044412178
 11
4.0546061797
 21
2.9023598474
  0
LINE
  5
27A
100
AcDbEntity
  8
0
100
AcDbLine
 62
7
  6
CONTINUOUS
 10
5.6189699327
 20
3.6487801648
 11
5.6062868813
 21
3.6961139568
  0
LINE
  5
27B
100
AcDbEntity
  8
ALL_FEATURES
100
AcDbLine
 62
7
  6
CONTINUOUS
 10
4.8141922978
 20
4.8876114708
 11
4.8207263173
 21
4.8881795851
  0
LINE
  5
27C
100
AcDbEntity
  8
ALL_FEATURES
100
AcDbLine
 62
7
  6
CONTINUOUS
 10
4.7495110017
 20
4.8101415473
 11
4.7189675963
 21
4.8101415473
  0
LINE
  5
27D
100
AcDbEntity
  8
ALL_FEATURES
100
AcDbLine
 62
7
  6
CONTINUOUS
 10
4.6477522807
 20
4.8881795851
 11
4.6542863002
 21
4.8876114708
  0
LINE
  5
27E
100
AcDbEntity
  8
ALL_FEATURES
100
AcDbLine
 62
7
  6
CONTINUOUS
 10
6.327989299
 20
1.8287788722
 11
6.327989299
 21
1.8587788722
  0
LINE
  5
27F
100
AcDbEntity
  8
ALL_FEATURES
100
AcDbLine
 62
7
  6
CONTINUOUS
 10
6.327989299
 20
7.3562788722
 11
6.327989299
 21
7.3862788722
  0
LINE
  5
280
100
AcDbEntity
  8
ALL_FEATURES
100
AcDbLine
 62
7
  6
CONTINUOUS
 10
6.421739299
 20
1.8287788722
 11
6.421739299
 21
1.8587788722
  0
LINE
  5
281
100
AcDbEntity
  8
ALL_FEATURES
100
AcDbLine
 62
7
  6
CONTINUOUS
 10
6.421739299
 20
7.3562788722
 11
6.421739299
 21
7.3862788722
  0
LINE
  5
282
100
AcDbEntity
  8
ALL_FEATURES
100
AcDbLine
 62
9
  6
CONTINUOUS
 10
4.8866625117
 20
5.6113449741
 11
4.9188114811
 21
5.5920396959
  0
LINE
  5
283
100
AcDbEntity
  8
ALL_FEATURES
100
AcDbLine
 62
9
  6
CONTINUOUS
 10
4.9393617004
 20
5.6891589229
 11
4.9939794449
 21
5.6476555815
  0
LINE
  5
284
100
AcDbEntity
  8
ALL_FEATURES
100
AcDbLine
 62
9
  6
CONTINUOUS
 10
5.0269169638
 20
5.620305076
 11
5.002041058
 21
5.6394052966
  0
LINE
  5
285
100
AcDbEntity
  8
ALL_FEATURES
100
AcDbLine
 62
7
  6
CONTINUOUS
 10
6.702989299
 20
2.2037788722
 11
6.702989299
 21
7.0112788722
  0
LINE
  5
286
100
AcDbEntity
  8
ALL_FEATURES
100
AcDbLine
 62
7
  6
CONTINUOUS
 10
6.796739299
 20
2.2037788722
 11
6.796739299
 21
7.0112788722
  0
LINE
  5
287
100
AcDbEntity
  8
ALL_FEATURES
100
AcDbLine
 62
7
  6
CONTINUOUS
 10
6.481739299
 20
7.2325288722
 11
6.451739299
 21
7.2325288722
  0
LINE
  5
288
100
AcDbEntity
  8
ALL_FEATURES
100
AcDbLine
 62
7
  6
CONTINUOUS
 10
3.016739299
 20
7.2325288722
 11
2.986739299
 21
7.2325288722
  0
LINE
  5
289
100
AcDbEntity
  8
ALL_FEATURES
100
AcDbLine
 62
7
  6
CONTINUOUS
 10
6.481739299
 20
7.3262788722
 11
6.451739299
 21
7.3262788722
  0
LINE
  5
28A
100
AcDbEntity
  8
ALL_FEATURES
100
AcDbLine
 62
7
  6
CONTINUOUS
 10
3.016739299
 20
7.3262788722
 11
2.986739299
 21
7.3262788722
  0
LINE
  5
28B
100
AcDbEntity
  8
ALL_FEATURES
100
AcDbLine
 62
7
  6
CONTINUOUS
 10
6.106739299
 20
7.6075288722
 11
3.361739299
 21
7.6075288722
  0
LINE
  5
28C
100
AcDbEntity
  8
ALL_FEATURES
100
AcDbLine
 62
7
  6
CONTINUOUS
 10
6.106739299
 20
7.7012788722
 11
3.361739299
 21
7.7012788722
  0
ARC
  5
28D
100
AcDbEntity
  8
ALL_FEATURES
100
AcDbCircle
 62
9
  6
CONTINUOUS
 10
-1.3795859292
 20
2.3023433141
 40
6.0357672974
100
AcDbArc
 50
2.8363974349
 51
3.5602876791
  0
ARC
  5
28E
100
AcDbEntity
  8
ALL_FEATURES
100
AcDbCircle
 62
7
  6
CONTINUOUS
 10
-1.3690823851
 20
2.202521342
 40
6.0
100
AcDbArc
 50
3.3563061913
 51
6.5462580927
  0
ARC
  5
28F
100
AcDbEntity
  8
ALL_FEATURES
100
AcDbCircle
 62
9
  6
CONTINUOUS
 10
-0.9967869868
 20
2.235654884
 40
5.6585694734
100
AcDbArc
 50
4.4749733097
 51
6.7138950702
  0
ARC
  5
290
100
AcDbEntity
  8
ALL_FEATURES
100
AcDbCircle
 62
9
  6
CONTINUOUS
 10
-1.7727022998
 20
2.384162603
 40
6.4239198954
100
AcDbArc
 50
2.6141626068
 51
4.2212611337
  0
ARC
  5
291
100
AcDbEntity
  8
ALL_FEATURES
100
AcDbCircle
 62
7
  6
CONTINUOUS
 10
-1.3924722983
 20
2.4064281444
 40
6.075
100
AcDbArc
 50
0.7378055641
 51
4.3520650345
  0
ARC
  5
292
100
AcDbEntity
  8
ALL_FEATURES
100
AcDbCircle
 62
9
  6
CONTINUOUS
 10
-1.0578063366
 20
2.4324694123
 40
5.7781048264
100
AcDbArc
 50
1.5423679928
 51
4.4446683954
  0
ARC
  5
293
100
AcDbEntity
  8
ALL_FEATURES
100
AcDbCircle
 62
9
  6
CONTINUOUS
 10
0.9765705686
 20
2.4632596143
 40
3.6747994446
100
AcDbArc
 50
1.9604938589
 51
2.1483772159
  0
ARC
  5
294
100
AcDbEntity
  8
0
100
AcDbCircle
 62
7
  6
CONTINUOUS
 10
3.2761796008
 20
-0.8436830815
 40
3.9755491315
100
AcDbArc
 50
78.2363721803
 51
78.404997662
  0
ARC
  5
295
100
AcDbEntity
  8
0
100
AcDbCircle
 62
7
  6
CONTINUOUS
 10
3.6959072671
 20
1.5310481148
 40
1.574613986
100
AcDbArc
 50
75.4070310106
 51
76.0415308946
  0
ARC
  5
296
100
AcDbEntity
  8
ALL_FEATURES
100
AcDbCircle
 62
9
  6
CONTINUOUS
 10
3.4452048795
 20
2.4322285996
 40
1.2141757779
100
AcDbArc
 50
5.3850073076
 51
7.4174312377
  0
ARC
  5
297
100
AcDbEntity
  8
0
100
AcDbCircle
 62
7
  6
CONTINUOUS
 10
3.8227595534
 20
2.0449109717
 40
1.0453240063
100
AcDbArc
 50
76.1879158122
 51
76.7730431885
  0
ARC
  5
298
100
AcDbEntity
  8
ALL_FEATURES
100
AcDbCircle
 62
9
  6
CONTINUOUS
 10
3.8423897897
 20
2.8048235761
 40
0.8624999992
100
AcDbArc
 50
30.9845834398
 51
37.2307480333
  0
ARC
  5
299
100
AcDbEntity
  8
ALL_FEATURES
100
AcDbCircle
 62
7
  6
CONTINUOUS
 10
3.8423897897
 20
2.8048235761
 40
0.825
100
AcDbArc
 50
4.3520650345
 51
37.2307480333
  0
ARC
  5
29A
100
AcDbEntity
  8
ALL_FEATURES
100
AcDbCircle
 62
7
  6
CONTINUOUS
 10
3.8466883319
 20
2.8010493928
 40
0.75
100
AcDbArc
 50
6.5462580927
 51
37.5177789101
  0
ARC
  5
29B
100
AcDbEntity
  8
0
100
AcDbCircle
 62
7
  6
CONTINUOUS
 10
3.9017154387
 20
2.3841464848
 40
0.6970225541
100
AcDbArc
 50
76.7106683111
 51
77.9135613767
  0
ARC
  5
29C
100
AcDbEntity
  8
0
100
AcDbCircle
 62
7
  6
CONTINUOUS
 10
3.6096920801
 20
2.3919012188
 40
0.681077579
100
AcDbArc
 50
48.8111220309
 51
49.2669839164
  0
ARC
  5
29D
100
AcDbEntity
  8
ALL_FEATURES
100
AcDbCircle
 62
7
  6
CONTINUOUS
 10
3.361739299
 20
1.8287788722
 40
0.315
100
AcDbArc
 50
180.0
 51
270.0
  0
ARC
  5
29E
100
AcDbEntity
  8
ALL_FEATURES
100
AcDbCircle
 62
7
  6
CONTINUOUS
 10
2.986739299
 20
2.2037788722
 40
0.315
100
AcDbArc
 50
180.0
 51
270.0
  0
ARC
  5
29F
100
AcDbEntity
  8
ALL_FEATURES
100
AcDbCircle
 62
7
  6
CONTINUOUS
 10
3.361739299
 20
1.8287788722
 40
0.22125
100
AcDbArc
 50
180.0
 51
270.0
  0
ARC
  5
2A0
100
AcDbEntity
  8
ALL_FEATURES
100
AcDbCircle
 62
7
  6
CONTINUOUS
 10
2.986739299
 20
2.2037788722
 40
0.22125
100
AcDbArc
 50
180.0
 51
270.0
  0
ARC
  5
2A1
100
AcDbEntity
  8
ALL_FEATURES
100
AcDbCircle
 62
7
  6
CONTINUOUS
 10
3.016739299
 20
1.8587788722
 40
0.12375
100
AcDbArc
 50
0.0
 51
90.0
  0
ARC
  5
2A2
100
AcDbEntity
  8
0
100
AcDbCircle
 62
7
  6
CONTINUOUS
 10
4.008869101
 20
3.0473856648
 40
0.0603007897
100
AcDbArc
 50
272.7152769447
 51
276.6712426468
  0
ARC
  5
2A3
100
AcDbEntity
  8
0
100
AcDbCircle
 62
7
  6
CONTINUOUS
 10
3.999451148
 20
3.1546785421
 40
0.0524598277
100
AcDbArc
 50
29.9932192113
 51
31.3446056353
  0
ARC
  5
2A4
100
AcDbEntity
  8
0
100
AcDbCircle
 62
7
  6
CONTINUOUS
 10
4.009254513
 20
3.0376018085
 40
0.0506048386
100
AcDbArc
 50
243.7957263773
 51
250.1153650342
  0
ARC
  5
2A5
100
AcDbEntity
  8
0
100
AcDbCircle
 62
7
  6
CONTINUOUS
 10
4.0083687211
 20
3.0351607953
 40
0.0480080781
100
AcDbArc
 50
250.1186172724
 51
254.8021951329
  0
ARC
  5
2A6
100
AcDbEntity
  8
0
100
AcDbCircle
 62
7
  6
CONTINUOUS
 10
4.0212685211
 20
3.0296735106
 40
0.039808946
100
AcDbArc
 50
209.9801220797
 51
213.2024451921
  0
ARC
  5
2A7
100
AcDbEntity
  8
ALL_FEATURES
100
AcDbCircle
 62
7
  6
CONTINUOUS
 10
4.7195209194
 20
2.4851374649
 40
0.0375
100
AcDbArc
 50
180.7378814699
 51
269.1545547502
  0
ARC
  5
2A8
100
AcDbEntity
  8
0
100
AcDbCircle
 62
7
  6
CONTINUOUS
 10
3.9454763951
 20
3.1219405119
 40
0.0365053823
100
AcDbArc
 50
235.5438047657
 51
240.3584823239
  0
ARC
  5
2A9
100
AcDbEntity
  8
ALL_FEATURES
100
AcDbCircle
 62
9
  6
CONTINUOUS
 10
4.7162932692
 20
2.5204128736
 40
0.0348289062
100
AcDbArc
 50
181.0737897529
 51
184.8122227723
  0
ARC
  5
2AA
100
AcDbEntity
  8
ALL_FEATURES
100
AcDbCircle
 62
7
  6
CONTINUOUS
 10
4.6505748832
 20
2.5555469887
 40
0.0300000003
100
AcDbArc
 50
183.3562938473
 51
264.8427598312
  0
ARC
  5
2AB
100
AcDbEntity
  8
ALL_FEATURES
100
AcDbCircle
 62
7
  6
CONTINUOUS
 10
3.016739299
 20
1.8587788722
 40
0.03
100
AcDbArc
 50
0.0
 51
90.0
  0
ARC
  5
2AC
100
AcDbEntity
  8
ALL_FEATURES
100
AcDbCircle
 62
7
  6
CONTINUOUS
 10
4.6518757942
 20
2.4952085876
 40
0.0299999928
100
AcDbArc
 50
0.8636390205
 51
85.231355111
  0
ARC
  5
2AD
100
AcDbEntity
  8
ALL_FEATURES
100
AcDbCircle
 62
9
  6
CONTINUOUS
 10
4.6526584945
 20
2.5169387031
 40
0.0288598558
100
AcDbArc
 50
5.5999949795
 51
10.5996372393
  0
ARC
  5
2AE
100
AcDbEntity
  8
ALL_FEATURES
100
AcDbCircle
 62
9
  6
CONTINUOUS
 10
4.6528699323
 20
2.5169595613
 40
0.0286473917
100
AcDbArc
 50
1.055161223
 51
5.5997430468
  0
ARC
  5
2AF
100
AcDbEntity
  8
0
100
AcDbCircle
 62
7
  6
CONTINUOUS
 10
4.0120120976
 20
3.0217297968
 40
0.027521378
100
AcDbArc
 50
243.4704595619
 51
248.5740886575
  0
ARC
  5
2B0
100
AcDbEntity
  8
0
100
AcDbCircle
 62
7
  6
CONTINUOUS
 10
3.9421735884
 20
3.1216968095
 40
0.0258597518
100
AcDbArc
 50
209.9461151753
 51
215.4058400454
  0
ARC
  5
2B1
100
AcDbEntity
  8
ALL_FEATURES
100
AcDbCircle
 62
9
  6
CONTINUOUS
 10
-1.3795859292
 20
4.6648433141
 40
6.0357672974
100
AcDbArc
 50
2.8363974349
 51
3.5602876791
  0
ARC
  5
2B2
100
AcDbEntity
  8
ALL_FEATURES
100
AcDbCircle
 62
7
  6
CONTINUOUS
 10
-1.3690823851
 20
4.565021342
 40
6.0
100
AcDbArc
 50
3.3563061913
 51
6.5462580927
  0
ARC
  5
2B3
100
AcDbEntity
  8
ALL_FEATURES
100
AcDbCircle
 62
9
  6
CONTINUOUS
 10
-0.9967869868
 20
4.598154884
 40
5.6585694734
100
AcDbArc
 50
4.4749733097
 51
6.7138950702
  0
ARC
  5
2B4
100
AcDbEntity
  8
ALL_FEATURES
100
AcDbCircle
 62
9
  6
CONTINUOUS
 10
-1.7727022998
 20
4.746662603
 40
6.4239198954
100
AcDbArc
 50
2.6141626068
 51
4.2212611337
  0
ARC
  5
2B5
100
AcDbEntity
  8
ALL_FEATURES
100
AcDbCircle
 62
7
  6
CONTINUOUS
 10
-1.3924722983
 20
4.7689281444
 40
6.075
100
AcDbArc
 50
0.7378055641
 51
4.3520650345
  0
ARC
  5
2B6
100
AcDbEntity
  8
ALL_FEATURES
100
AcDbCircle
 62
9
  6
CONTINUOUS
 10
-1.0578063366
 20
4.7949694123
 40
5.7781048264
100
AcDbArc
 50
1.5423679928
 51
4.4446683954
  0
ARC
  5
2B7
100
AcDbEntity
  8
ALL_FEATURES
100
AcDbCircle
 62
9
  6
CONTINUOUS
 10
0.9765705686
 20
4.8257596143
 40
3.6747994447
100
AcDbArc
 50
1.960493859
 51
2.1483772159
  0
ARC
  5
2B8
100
AcDbEntity
  8
0
100
AcDbCircle
 62
7
  6
CONTINUOUS
 10
3.961228852
 20
3.8021318344
 40
0.0861280315
100
AcDbArc
 50
340.8079799316
 51
342.0073550418
  0
ARC
  5
2B9
100
AcDbEntity
  8
0
100
AcDbCircle
 62
7
  6
CONTINUOUS
 10
3.7671248069
 20
3.6031900151
 40
0.0850361138
100
AcDbArc
 50
2.2914118957
 51
3.2812564879
  0
ARC
  5
2BA
100
AcDbEntity
  8
0
100
AcDbCircle
 62
7
  6
CONTINUOUS
 10
3.8036738959
 20
3.7069118574
 40
0.0821285803
100
AcDbArc
 50
2.2650071885
 51
3.2898682506
  0
ARC
  5
2BB
100
AcDbEntity
  8
0
100
AcDbCircle
 62
7
  6
CONTINUOUS
 10
3.9702804573
 20
3.7992439674
 40
0.0766270528
100
AcDbArc
 50
341.9704508173
 51
345.9428907652
  0
ARC
  5
2BC
100
AcDbEntity
  8
0
100
AcDbCircle
 62
7
  6
CONTINUOUS
 10
3.9763657759
 20
3.7977221979
 40
0.0703543435
100
AcDbArc
 50
345.9413779279
 51
350.1934501263
  0
ARC
  5
2BD
100
AcDbEntity
  8
0
100
AcDbCircle
 62
7
  6
CONTINUOUS
 10
3.9853830471
 20
3.7951750807
 40
0.0614486622
100
AcDbArc
 50
21.935481056
 51
25.3579076061
  0
ARC
  5
2BE
100
AcDbEntity
  8
0
100
AcDbCircle
 62
7
  6
CONTINUOUS
 10
3.9897541704
 20
3.7965767389
 40
0.0568568867
100
AcDbArc
 50
4.7816929004
 51
10.0365962137
  0
ARC
  5
2BF
100
AcDbEntity
  8
0
100
AcDbCircle
 62
7
  6
CONTINUOUS
 10
4.0030056779
 20
3.7944607696
 40
0.0371883248
100
AcDbArc
 50
35.1023521017
 51
53.6383749994
  0
ARC
  5
2C0
100
AcDbEntity
  8
0
100
AcDbCircle
 62
7
  6
CONTINUOUS
 10
4.0035276372
 20
3.7948378336
 40
0.0365444708
100
AcDbArc
 50
32.9002699997
 51
35.0892779202
  0
ARC
  5
2C1
100
AcDbEntity
  8
0
100
AcDbCircle
 62
7
  6
CONTINUOUS
 10
4.0146238952
 20
3.8002788579
 40
0.0244209353
100
AcDbArc
 50
336.4677566331
 51
342.0142185393
  0
ARC
  5
2C2
100
AcDbEntity
  8
ALL_FEATURES
100
AcDbCircle
 62
9
  6
CONTINUOUS
 10
3.4452048795
 20
4.7947285996
 40
1.2141757779
100
AcDbArc
 50
5.3850073076
 51
7.4174312377
  0
ARC
  5
2C3
100
AcDbEntity
  8
ALL_FEATURES
100
AcDbCircle
 62
9
  6
CONTINUOUS
 10
3.8423897897
 20
5.1673235761
 40
0.8624999992
100
AcDbArc
 50
30.9845834398
 51
37.2307480333
  0
ARC
  5
2C4
100
AcDbEntity
  8
ALL_FEATURES
100
AcDbCircle
 62
7
  6
CONTINUOUS
 10
3.8423897897
 20
5.1673235761
 40
0.825
100
AcDbArc
 50
4.3520650345
 51
37.2307480333
  0
ARC
  5
2C5
100
AcDbEntity
  8
ALL_FEATURES
100
AcDbCircle
 62
7
  6
CONTINUOUS
 10
3.8466883319
 20
5.1635493928
 40
0.75
100
AcDbArc
 50
6.5462580927
 51
37.5177789101
  0
ARC
  5
2C6
100
AcDbEntity
  8
0
100
AcDbCircle
 62
7
  6
CONTINUOUS
 10
4.597364299
 20
4.2002788722
 40
0.0075
100
AcDbArc
 50
90.0
 51
180.0
  0
ARC
  5
2C7
100
AcDbEntity
  8
0
100
AcDbCircle
 62
7
  6
CONTINUOUS
 10
4.734239299
 20
3.4825288722
 40
1.012875
100
AcDbArc
 50
272.8055696934
 51
267.1944303067
  0
ARC
  5
2C8
100
AcDbEntity
  8
ALL_FEATURES
100
AcDbCircle
 62
9
  6
CONTINUOUS
 10
4.734239299
 20
3.4825288722
 40
0.9983619957
100
AcDbArc
 50
269.0903570579
 51
270.9096429421
  0
ARC
  5
2C9
100
AcDbEntity
  8
0
100
AcDbCircle
 62
7
  6
CONTINUOUS
 10
4.734239299
 20
3.4825288722
 40
0.952875
100
AcDbArc
 50
276.4074029499
 51
263.5925970491
  0
ARC
  5
2CA
100
AcDbEntity
  8
ALL_FEATURES
100
AcDbCircle
 62
9
  6
CONTINUOUS
 10
4.734239299
 20
3.4825288722
 40
0.939782322
100
AcDbArc
 50
264.6491312163
 51
265.1034436895
  0
ARC
  5
2CB
100
AcDbEntity
  8
ALL_FEATURES
100
AcDbCircle
 62
9
  6
CONTINUOUS
 10
4.734239299
 20
3.4825288722
 40
0.939782322
100
AcDbArc
 50
274.8965563105
 51
275.3508687837
  0
ARC
  5
2CC
100
AcDbEntity
  8
ALL_FEATURES
100
AcDbCircle
 62
9
  6
CONTINUOUS
 10
4.734239299
 20
3.4825288722
 40
0.8946788241
100
AcDbArc
 50
268.9731020653
 51
271.0268979347
  0
ARC
  5
2CD
100
AcDbEntity
  8
0
100
AcDbCircle
 62
7
  6
CONTINUOUS
 10
4.734239299
 20
3.4825288722
 40
0.7125
100
AcDbArc
 50
101.6919089867
 51
259.3678030804
  0
ARC
  5
2CE
100
AcDbEntity
  8
0
100
AcDbCircle
 62
7
  6
CONTINUOUS
 10
4.734239299
 20
3.4825288722
 40
0.7125
100
AcDbArc
 50
280.6321898895
 51
78.3080910133
  0
ARC
  5
2CF
100
AcDbEntity
  8
0
100
AcDbCircle
 62
7
  6
CONTINUOUS
 10
4.734239299
 20
3.4825288722
 40
0.627375
100
AcDbArc
 50
282.9632588255
 51
76.6939832715
  0
ARC
  5
2D0
100
AcDbEntity
  8
0
100
AcDbCircle
 62
7
  6
CONTINUOUS
 10
4.734239299
 20
3.4825288722
 40
0.627375
100
AcDbArc
 50
103.3060167285
 51
257.0367360012
  0
ARC
  5
2D1
100
AcDbEntity
  8
0
100
AcDbCircle
 62
7
  6
CONTINUOUS
 10
4.734239299
 20
3.4825288722
 40
0.62025
100
AcDbArc
 50
283.1939399433
 51
256.8060550787
  0
ARC
  5
2D2
100
AcDbEntity
  8
0
100
AcDbCircle
 62
9
  6
CONTINUOUS
 10
4.734239299
 20
3.4825288722
 40
0.5920146153
100
AcDbArc
 50
284.2131272875
 51
255.7868420777
  0
ARC
  5
2D3
100
AcDbEntity
  8
0
100
AcDbCircle
 62
9
  6
CONTINUOUS
 10
4.734239299
 20
3.4825288722
 40
0.5840009741
100
AcDbArc
 50
284.5405582183
 51
255.4573051361
  0
ARC
  5
2D4
100
AcDbEntity
  8
0
100
AcDbCircle
 62
9
  6
CONTINUOUS
 10
4.734239299
 20
3.4825288722
 40
0.5680586424
100
AcDbArc
 50
285.2658998097
 51
254.7359754299
  0
ARC
  5
2D5
100
AcDbEntity
  8
0
100
AcDbCircle
 62
9
  6
CONTINUOUS
 10
4.734239299
 20
3.4825288722
 40
0.5658198696
100
AcDbArc
 50
285.376471132
 51
254.6263114118
  0
ARC
  5
2D6
100
AcDbEntity
  8
0
100
AcDbCircle
 62
9
  6
CONTINUOUS
 10
4.734239299
 20
3.4825288722
 40
0.5373898192
100
AcDbArc
 50
286.9328261601
 51
253.0617466633
  0
ARC
  5
2D7
100
AcDbEntity
  8
ALL_FEATURES
100
AcDbCircle
 62
7
  6
CONTINUOUS
 10
4.734239299
 20
3.4825288722
 40
0.369
100
AcDbArc
 50
322.4822210897
 51
217.5177789101
  0
ARC
  5
2D8
100
AcDbEntity
  8
ALL_FEATURES
100
AcDbCircle
 62
9
  6
CONTINUOUS
 10
4.734239299
 20
3.4825288722
 40
0.3376371352
100
AcDbArc
 50
322.4822210899
 51
217.5177789101
  0
ARC
  5
2D9
100
AcDbEntity
  8
ALL_FEATURES
100
AcDbCircle
 62
9
  6
CONTINUOUS
 10
4.734239299
 20
3.4825288722
 40
0.3262225524
100
AcDbArc
 50
322.7692519667
 51
217.2307480333
  0
ARC
  5
2DA
100
AcDbEntity
  8
ALL_FEATURES
100
AcDbCircle
 62
7
  6
CONTINUOUS
 10
4.734239299
 20
3.4825288722
 40
0.295125
100
AcDbArc
 50
322.7692519662
 51
217.2307480342
  0
ARC
  5
2DB
100
AcDbEntity
  8
ALL_FEATURES
100
AcDbCircle
 62
9
  6
CONTINUOUS
 10
4.734239299
 20
3.4825288722
 40
0.279
100
AcDbArc
 50
236.8851023546
 51
303.1148976466
  0
ARC
  5
2DC
100
AcDbEntity
  8
ALL_FEATURES
100
AcDbCircle
 62
9
  6
CONTINUOUS
 10
4.734239299
 20
3.4825288722
 40
0.257624993
100
AcDbArc
 50
322.7692519667
 51
217.2307480333
  0
ARC
  5
2DD
100
AcDbEntity
  8
0
100
AcDbCircle
 62
7
  6
CONTINUOUS
 10
4.7163076087
 20
4.2827944668
 40
0.0524529079
100
AcDbArc
 50
269.9964204419
 51
271.420236758
  0
ARC
  5
2DE
100
AcDbEntity
  8
0
100
AcDbCircle
 62
7
  6
CONTINUOUS
 10
4.716302018
 20
4.2704223094
 40
0.0400807504
100
AcDbArc
 50
262.7833844503
 51
270.0033074648
  0
ARC
  5
2DF
100
AcDbEntity
  8
0
100
AcDbCircle
 62
7
  6
CONTINUOUS
 10
4.7173975713
 20
4.2609896116
 40
0.0227496288
100
AcDbArc
 50
269.9324031821
 51
276.0693707551
  0
ARC
  5
2E0
100
AcDbEntity
  8
0
100
AcDbCircle
 62
7
  6
CONTINUOUS
 10
4.5576440055
 20
4.4395867214
 40
0.0850257014
100
AcDbArc
 50
290.2910746696
 51
291.2810319574
  0
ARC
  5
2E1
100
AcDbEntity
  8
0
100
AcDbCircle
 62
7
  6
CONTINUOUS
 10
4.702062587
 20
4.3298431498
 40
0.0598858089
100
AcDbArc
 50
31.5477114136
 51
35.9919043275
  0
ARC
  5
2E2
100
AcDbEntity
  8
ALL_FEATURES
100
AcDbCircle
 62
7
  6
CONTINUOUS
 10
4.7195209194
 20
4.8476374649
 40
0.0375
100
AcDbArc
 50
180.7378814699
 51
269.1545547502
  0
ARC
  5
2E3
100
AcDbEntity
  8
0
100
AcDbCircle
 62
7
  6
CONTINUOUS
 10
4.7152556979
 20
4.345334332
 40
0.0371609946
100
AcDbArc
 50
115.5805645709
 51
125.0673308781
  0
ARC
  5
2E4
100
AcDbEntity
  8
0
100
AcDbCircle
 62
7
  6
CONTINUOUS
 10
4.7184774644
 20
4.3454499462
 40
0.0370617777
100
AcDbArc
 50
64.8312675305
 51
69.2022843165
  0
ARC
  5
2E5
100
AcDbEntity
  8
ALL_FEATURES
100
AcDbCircle
 62
9
  6
CONTINUOUS
 10
4.7162932692
 20
4.8829128736
 40
0.0348289062
100
AcDbArc
 50
181.0737897529
 51
184.8122227723
  0
ARC
  5
2E6
100
AcDbEntity
  8
ALL_FEATURES
100
AcDbCircle
 62
7
  6
CONTINUOUS
 10
4.6505748832
 20
4.9180469887
 40
0.0300000003
100
AcDbArc
 50
183.3562938473
 51
264.8427598312
  0
ARC
  5
2E7
100
AcDbEntity
  8
ALL_FEATURES
100
AcDbCircle
 62
7
  6
CONTINUOUS
 10
4.6518757942
 20
4.8577085876
 40
0.0299999928
100
AcDbArc
 50
0.8636390205
 51
85.231355111
  0
ARC
  5
2E8
100
AcDbEntity
  8
ALL_FEATURES
100
AcDbCircle
 62
9
  6
CONTINUOUS
 10
4.6526584945
 20
4.8794387031
 40
0.0288598558
100
AcDbArc
 50
5.5999949794
 51
10.5996372394
  0
ARC
  5
2E9
100
AcDbEntity
  8
ALL_FEATURES
100
AcDbCircle
 62
9
  6
CONTINUOUS
 10
4.6528699323
 20
4.8794595613
 40
0.0286473917
100
AcDbArc
 50
1.0551612229
 51
5.5997430469
  0
ARC
  5
2EA
100
AcDbEntity
  8
0
100
AcDbCircle
 62
7
  6
CONTINUOUS
 10
4.7163872017
 20
4.3488934948
 40
0.0258619631
100
AcDbArc
 50
89.9492111544
 51
95.4079636796
  0
ARC
  5
2EB
100
AcDbEntity
  8
0
100
AcDbCircle
 62
7
  6
CONTINUOUS
 10
4.7164180038
 20
4.3515944919
 40
0.0231609572
100
AcDbArc
 50
83.8676267028
 51
90.0194865881
  0
ARC
  5
2EC
100
AcDbEntity
  8
ALL_FEATURES
100
AcDbCircle
 62
7
  6
CONTINUOUS
 10
2.986739299
 20
7.0112788722
 40
0.315
100
AcDbArc
 50
90.0
 51
180.0
  0
ARC
  5
2ED
100
AcDbEntity
  8
ALL_FEATURES
100
AcDbCircle
 62
7
  6
CONTINUOUS
 10
3.361739299
 20
7.3862788722
 40
0.315
100
AcDbArc
 50
90.0
 51
180.0
  0
ARC
  5
2EE
100
AcDbEntity
  8
ALL_FEATURES
100
AcDbCircle
 62
7
  6
CONTINUOUS
 10
2.986739299
 20
7.0112788722
 40
0.22125
100
AcDbArc
 50
90.0
 51
180.0
  0
ARC
  5
2EF
100
AcDbEntity
  8
ALL_FEATURES
100
AcDbCircle
 62
7
  6
CONTINUOUS
 10
3.361739299
 20
7.3862788722
 40
0.22125
100
AcDbArc
 50
90.0
 51
180.0
  0
ARC
  5
2F0
100
AcDbEntity
  8
ALL_FEATURES
100
AcDbCircle
 62
7
  6
CONTINUOUS
 10
3.016739299
 20
7.3562788722
 40
0.12375
100
AcDbArc
 50
270.0
 51
360.0
  0
ARC
  5
2F1
100
AcDbEntity
  8
ALL_FEATURES
100
AcDbCircle
 62
7
  6
CONTINUOUS
 10
3.016739299
 20
7.3562788722
 40
0.03
100
AcDbArc
 50
270.0
 51
360.0
  0
ARC
  5
2F2
100
AcDbEntity
  8
ALL_FEATURES
100
AcDbCircle
 62
9
  6
CONTINUOUS
 10
4.734239299
 20
5.8450288722
 40
0.9983619957
100
AcDbArc
 50
269.0903570579
 51
270.9096429421
  0
ARC
  5
2F3
100
AcDbEntity
  8
ALL_FEATURES
100
AcDbCircle
 62
9
  6
CONTINUOUS
 10
4.734239299
 20
5.8450288722
 40
0.939782322
100
AcDbArc
 50
264.6491312163
 51
265.1034436895
  0
ARC
  5
2F4
100
AcDbEntity
  8
ALL_FEATURES
100
AcDbCircle
 62
9
  6
CONTINUOUS
 10
4.734239299
 20
5.8450288722
 40
0.939782322
100
AcDbArc
 50
274.8965563105
 51
275.3508687837
  0
ARC
  5
2F5
100
AcDbEntity
  8
ALL_FEATURES
100
AcDbCircle
 62
9
  6
CONTINUOUS
 10
4.734239299
 20
5.8450288722
 40
0.8946788241
100
AcDbArc
 50
268.9731020653
 51
271.0268979347
  0
ARC
  5
2F6
100
AcDbEntity
  8
0
100
AcDbCircle
 62
7
  6
CONTINUOUS
 10
4.734239299
 20
5.8450288722
 40
0.6200775
100
AcDbArc
 50
283.199611668
 51
256.8003854377
  0
ARC
  5
2F7
100
AcDbEntity
  8
0
100
AcDbCircle
 62
9
  6
CONTINUOUS
 10
4.734239299
 20
5.8450288722
 40
0.5075775
100
AcDbArc
 50
288.9952914049
 51
251.0064948839
  0
ARC
  5
2F8
100
AcDbEntity
  8
0
100
AcDbCircle
 62
7
  6
CONTINUOUS
 10
4.734239299
 20
5.8450288722
 40
0.50325
100
AcDbArc
 50
289.3350601232
 51
250.6643861963
  0
ARC
  5
2F9
100
AcDbEntity
  8
ALL_FEATURES
100
AcDbCircle
 62
7
  6
CONTINUOUS
 10
4.734239299
 20
5.8450288722
 40
0.4886988938
100
AcDbArc
 50
290.5904768334
 51
249.4116440333
  0
ARC
  5
2FA
100
AcDbEntity
  8
0
100
AcDbCircle
 62
7
  6
CONTINUOUS
 10
4.734239299
 20
5.8450288722
 40
0.485625
100
AcDbArc
 50
290.8785031597
 51
249.1220011406
  0
ARC
  5
2FB
100
AcDbEntity
  8
0
100
AcDbCircle
 62
9
  6
CONTINUOUS
 10
4.734239299
 20
5.8450288722
 40
0.4549122041
100
AcDbArc
 50
294.213486567
 51
245.7843528544
  0
ARC
  5
2FC
100
AcDbEntity
  8
ALL_FEATURES
100
AcDbCircle
 62
7
  6
CONTINUOUS
 10
4.734239299
 20
5.8450288722
 40
0.369
100
AcDbArc
 50
322.4822210897
 51
217.5177789101
  0
ARC
  5
2FD
100
AcDbEntity
  8
ALL_FEATURES
100
AcDbCircle
 62
9
  6
CONTINUOUS
 10
4.734239299
 20
5.8450288722
 40
0.3376371352
100
AcDbArc
 50
322.4822210899
 51
217.5177789101
  0
ARC
  5
2FE
100
AcDbEntity
  8
ALL_FEATURES
100
AcDbCircle
 62
9
  6
CONTINUOUS
 10
4.734239299
 20
5.8450288722
 40
0.3262225524
100
AcDbArc
 50
322.7692519667
 51
217.2307480333
  0
ARC
  5
2FF
100
AcDbEntity
  8
ALL_FEATURES
100
AcDbCircle
 62
7
  6
CONTINUOUS
 10
4.734239299
 20
5.8450288722
 40
0.295125
100
AcDbArc
 50
322.7692519662
 51
217.2307480342
  0
ARC
  5
300
100
AcDbEntity
  8
ALL_FEATURES
100
AcDbCircle
 62
9
  6
CONTINUOUS
 10
4.734239299
 20
5.8450288722
 40
0.279
100
AcDbArc
 50
236.8851023546
 51
303.1148976466
  0
ARC
  5
301
100
AcDbEntity
  8
ALL_FEATURES
100
AcDbCircle
 62
9
  6
CONTINUOUS
 10
4.734239299
 20
5.8450288722
 40
0.257624993
100
AcDbArc
 50
322.7692519667
 51
217.2307480333
  0
ARC
  5
302
100
AcDbEntity
  8
ALL_FEATURES
100
AcDbCircle
 62
7
  6
CONTINUOUS
 10
6.106739299
 20
1.8287788722
 40
0.315
100
AcDbArc
 50
270.0
 51
360.0
  0
ARC
  5
303
100
AcDbEntity
  8
ALL_FEATURES
100
AcDbCircle
 62
7
  6
CONTINUOUS
 10
6.481739299
 20
2.2037788722
 40
0.315
100
AcDbArc
 50
270.0
 51
360.0
  0
ARC
  5
304
100
AcDbEntity
  8
ALL_FEATURES
100
AcDbCircle
 62
7
  6
CONTINUOUS
 10
6.106739299
 20
1.8287788722
 40
0.22125
100
AcDbArc
 50
270.0
 51
360.0
  0
ARC
  5
305
100
AcDbEntity
  8
ALL_FEATURES
100
AcDbCircle
 62
7
  6
CONTINUOUS
 10
6.481739299
 20
2.2037788722
 40
0.22125
100
AcDbArc
 50
270.0
 51
360.0
  0
ARC
  5
306
100
AcDbEntity
  8
ALL_FEATURES
100
AcDbCircle
 62
7
  6
CONTINUOUS
 10
6.451739299
 20
1.8587788722
 40
0.12375
100
AcDbArc
 50
90.0
 51
180.0
  0
ARC
  5
307
100
AcDbEntity
  8
ALL_FEATURES
100
AcDbCircle
 62
7
  6
CONTINUOUS
 10
6.451739299
 20
1.8587788722
 40
0.03
100
AcDbArc
 50
90.0
 51
180.0
  0
ARC
  5
308
100
AcDbEntity
  8
ALL_FEATURES
100
AcDbCircle
 62
9
  6
CONTINUOUS
 10
6.0230817437
 20
2.4322346284
 40
1.2139841346
100
AcDbArc
 50
172.5816812234
 51
174.614425662
  0
ARC
  5
309
100
AcDbEntity
  8
ALL_FEATURES
100
AcDbCircle
 62
9
  6
CONTINUOUS
 10
5.6260888083
 20
2.8048235761
 40
0.8624999994
100
AcDbArc
 50
142.7692519667
 51
149.0154165597
  0
ARC
  5
30A
100
AcDbEntity
  8
ALL_FEATURES
100
AcDbCircle
 62
7
  6
CONTINUOUS
 10
5.6260888083
 20
2.8048235761
 40
0.825
100
AcDbArc
 50
142.7692519667
 51
175.6479349655
  0
ARC
  5
30B
100
AcDbEntity
  8
ALL_FEATURES
100
AcDbCircle
 62
7
  6
CONTINUOUS
 10
5.6217902661
 20
2.8010493928
 40
0.75
100
AcDbArc
 50
142.4822210899
 51
173.4537419073
  0
ARC
  5
30C
100
AcDbEntity
  8
0
100
AcDbCircle
 62
7
  6
CONTINUOUS
 10
5.3916539125
 20
2.9840662284
 40
0.0766165769
100
AcDbArc
 50
144.9716795398
 51
148.9503296564
  0
ARC
  5
30D
100
AcDbEntity
  8
0
100
AcDbCircle
 62
7
  6
CONTINUOUS
 10
4.7824253599
 20
2.6919235092
 40
0.0749145958
100
AcDbArc
 50
353.5774106147
 51
355.1207735165
  0
ARC
  5
30E
100
AcDbEntity
  8
0
100
AcDbCircle
 62
7
  6
CONTINUOUS
 10
5.3776553059
 20
2.9922712258
 40
0.0606891873
100
AcDbArc
 50
178.2828628362
 51
188.3740260285
  0
ARC
  5
30F
100
AcDbEntity
  8
0
100
AcDbCircle
 62
7
  6
CONTINUOUS
 10
5.3770552618
 20
2.9915507203
 40
0.0601793001
100
AcDbArc
 50
157.7722697134
 51
167.6765324365
  0
ARC
  5
310
100
AcDbEntity
  8
0
100
AcDbCircle
 62
7
  6
CONTINUOUS
 10
5.3734796034
 20
2.992363298
 40
0.0565126106
100
AcDbArc
 50
167.707657635
 51
178.2493093329
  0
ARC
  5
311
100
AcDbEntity
  8
0
100
AcDbCircle
 62
7
  6
CONTINUOUS
 10
5.3688243872
 20
2.9890814079
 40
0.0513303471
100
AcDbArc
 50
208.4809078543
 51
214.0502515835
  0
ARC
  5
312
100
AcDbEntity
  8
ALL_FEATURES
100
AcDbCircle
 62
7
  6
CONTINUOUS
 10
4.7489576786
 20
2.4851374649
 40
0.0375
100
AcDbArc
 50
270.8454452498
 51
359.2621183862
  0
ARC
  5
313
100
AcDbEntity
  8
ALL_FEATURES
100
AcDbCircle
 62
9
  6
CONTINUOUS
 10
4.7521855375
 20
2.5204130026
 40
0.0348287004
100
AcDbArc
 50
355.1875371529
 51
358.9259917337
  0
ARC
  5
314
100
AcDbEntity
  8
ALL_FEATURES
100
AcDbCircle
 62
7
  6
CONTINUOUS
 10
4.8179037148
 20
2.5555469887
 40
0.0300000003
100
AcDbArc
 50
275.1572401688
 51
356.6437061527
  0
ARC
  5
315
100
AcDbEntity
  8
ALL_FEATURES
100
AcDbCircle
 62
7
  6
CONTINUOUS
 10
4.8166028038
 20
2.4952085876
 40
0.0299999928
100
AcDbArc
 50
94.768644889
 51
179.1363609209
  0
ARC
  5
316
100
AcDbEntity
  8
ALL_FEATURES
100
AcDbCircle
 62
9
  6
CONTINUOUS
 10
4.8158203508
 20
2.5169390838
 40
0.0288597979
100
AcDbArc
 50
169.4010891669
 51
174.4007827435
  0
ARC
  5
317
100
AcDbEntity
  8
ALL_FEATURES
100
AcDbCircle
 62
9
  6
CONTINUOUS
 10
4.8156089292
 20
2.5169599374
 40
0.0286473503
100
AcDbArc
 50
174.4010344462
 51
178.9456004917
  0
ARC
  5
318
100
AcDbEntity
  8
ALL_FEATURES
100
AcDbCircle
 62
9
  6
CONTINUOUS
 10
10.8476736777
 20
2.3023651527
 40
6.0353758461
100
AcDbArc
 50
176.4396888319
 51
177.1636260098
  0
ARC
  5
319
100
AcDbEntity
  8
ALL_FEATURES
100
AcDbCircle
 62
7
  6
CONTINUOUS
 10
10.8375609831
 20
2.202521342
 40
6.0
100
AcDbArc
 50
173.4537419073
 51
176.6436938087
  0
ARC
  5
31A
100
AcDbEntity
  8
ALL_FEATURES
100
AcDbCircle
 62
9
  6
CONTINUOUS
 10
10.4652650599
 20
2.2356549401
 40
5.6585689455
100
AcDbArc
 50
173.2861048722
 51
175.5250269267
  0
ARC
  5
31B
100
AcDbEntity
  8
ALL_FEATURES
100
AcDbCircle
 62
9
  6
CONTINUOUS
 10
11.2412348939
 20
2.3841593749
 40
6.4239739826
100
AcDbArc
 50
175.7787456029
 51
177.3858306728
  0
ARC
  5
31C
100
AcDbEntity
  8
ALL_FEATURES
100
AcDbCircle
 62
7
  6
CONTINUOUS
 10
10.8609508963
 20
2.4064281444
 40
6.075
100
AcDbArc
 50
175.6479349655
 51
179.2621944359
  0
ARC
  5
31D
100
AcDbEntity
  8
ALL_FEATURES
100
AcDbCircle
 62
9
  6
CONTINUOUS
 10
10.5262851129
 20
2.432469403
 40
5.7781050048
100
AcDbArc
 50
175.5553316495
 51
178.4576319624
  0
ARC
  5
31E
100
AcDbEntity
  8
ALL_FEATURES
100
AcDbCircle
 62
9
  6
CONTINUOUS
 10
8.5305797996
 20
2.4618723796
 40
3.7134960368
100
AcDbArc
 50
177.8526016953
 51
178.0385272268
  0
ARC
  5
31F
100
AcDbEntity
  8
0
100
AcDbCircle
 62
7
  6
CONTINUOUS
 10
4.825206832
 20
4.2828010366
 40
0.0524620361
100
AcDbArc
 50
269.9929526705
 51
271.3437028126
  0
ARC
  5
320
100
AcDbEntity
  8
0
100
AcDbCircle
 62
7
  6
CONTINUOUS
 10
4.8259575961
 20
4.3375527299
 40
0.0450990471
100
AcDbArc
 50
83.6123667791
 51
90.0132617249
  0
ARC
  5
321
100
AcDbEntity
  8
0
100
AcDbCircle
 62
7
  6
CONTINUOUS
 10
4.8252003549
 20
4.2704845961
 40
0.0401455952
100
AcDbArc
 50
262.9295875985
 51
270.000034588
  0
ARC
  5
322
100
AcDbEntity
  8
0
100
AcDbCircle
 62
7
  6
CONTINUOUS
 10
4.8241501277
 20
4.3453343156
 40
0.0371589819
100
AcDbArc
 50
115.5864870825
 51
125.0764292739
  0
ARC
  5
323
100
AcDbEntity
  8
0
100
AcDbCircle
 62
7
  6
CONTINUOUS
 10
4.8252822706
 20
4.3488941528
 40
0.0258591811
100
AcDbArc
 50
89.9458923157
 51
95.4057750423
  0
ARC
  5
324
100
AcDbEntity
  8
0
100
AcDbCircle
 62
7
  6
CONTINUOUS
 10
4.871114299
 20
4.2002788722
 40
0.0075
100
AcDbArc
 50
0.0
 51
90.0
  0
ARC
  5
325
100
AcDbEntity
  8
ALL_FEATURES
100
AcDbCircle
 62
7
  6
CONTINUOUS
 10
4.7489576786
 20
4.8476374649
 40
0.0375
100
AcDbArc
 50
270.8454452498
 51
359.2621183862
  0
ARC
  5
326
100
AcDbEntity
  8
ALL_FEATURES
100
AcDbCircle
 62
9
  6
CONTINUOUS
 10
4.7521855375
 20
4.8829130026
 40
0.0348287004
100
AcDbArc
 50
355.1875371529
 51
358.9259917337
  0
ARC
  5
327
100
AcDbEntity
  8
ALL_FEATURES
100
AcDbCircle
 62
7
  6
CONTINUOUS
 10
4.8179037148
 20
4.9180469887
 40
0.0300000003
100
AcDbArc
 50
275.1572401688
 51
356.6437061527
  0
ARC
  5
328
100
AcDbEntity
  8
ALL_FEATURES
100
AcDbCircle
 62
7
  6
CONTINUOUS
 10
4.8166028038
 20
4.8577085876
 40
0.0299999928
100
AcDbArc
 50
94.768644889
 51
179.1363609209
  0
ARC
  5
329
100
AcDbEntity
  8
ALL_FEATURES
100
AcDbCircle
 62
9
  6
CONTINUOUS
 10
4.8158203508
 20
4.8794390838
 40
0.0288597979
100
AcDbArc
 50
169.4010891669
 51
174.4007827434
  0
ARC
  5
32A
100
AcDbEntity
  8
ALL_FEATURES
100
AcDbCircle
 62
9
  6
CONTINUOUS
 10
4.8156089292
 20
4.8794599374
 40
0.0286473503
100
AcDbArc
 50
174.4010344464
 51
178.9456004916
  0
ARC
  5
32B
100
AcDbEntity
  8
0
100
AcDbCircle
 62
7
  6
CONTINUOUS
 10
5.6028950531
 20
3.8608582064
 40
0.1208710932
100
AcDbArc
 50
230.2082985595
 51
232.7334180964
  0
ARC
  5
32C
100
AcDbEntity
  8
0
100
AcDbCircle
 62
7
  6
CONTINUOUS
 10
5.5140667675
 20
3.7679788725
 40
0.0793244262
100
AcDbArc
 50
194.9819835114
 51
197.194860473
  0
ARC
  5
32D
100
AcDbEntity
  8
0
100
AcDbCircle
 62
7
  6
CONTINUOUS
 10
5.4560738557
 20
3.7165770828
 40
0.0730433808
100
AcDbArc
 50
48.7093621078
 51
53.0819266951
  0
ARC
  5
32E
100
AcDbEntity
  8
0
100
AcDbCircle
 62
7
  6
CONTINUOUS
 10
5.5063181951
 20
3.7655811697
 40
0.0712133626
100
AcDbArc
 50
197.1949522406
 51
199.633747726
  0
ARC
  5
32F
100
AcDbEntity
  8
0
100
AcDbCircle
 62
7
  6
CONTINUOUS
 10
5.5184081383
 20
3.7686288331
 40
0.0686266579
100
AcDbArc
 50
14.9891559644
 51
16.9091342448
  0
ARC
  5
330
100
AcDbEntity
  8
0
100
AcDbCircle
 62
7
  6
CONTINUOUS
 10
5.5195132843
 20
3.6765562875
 40
0.0613316793
100
AcDbArc
 50
233.3126214541
 51
238.3591826109
  0
ARC
  5
331
100
AcDbEntity
  8
0
100
AcDbCircle
 62
7
  6
CONTINUOUS
 10
5.5193290395
 20
3.6750957471
 40
0.0601800144
100
AcDbArc
 50
207.7724568746
 51
217.68496911
  0
ARC
  5
332
100
AcDbEntity
  8
0
100
AcDbCircle
 62
7
  6
CONTINUOUS
 10
5.5166710035
 20
3.6731015719
 40
0.0568574285
100
AcDbArc
 50
217.7320804046
 51
222.9718367349
  0
ARC
  5
333
100
AcDbEntity
  8
0
100
AcDbCircle
 62
7
  6
CONTINUOUS
 10
5.4785709626
 20
3.7518918688
 40
0.0401272194
100
AcDbArc
 50
215.7974103124
 51
222.9251082447
  0
ARC
  5
334
100
AcDbEntity
  8
0
100
AcDbCircle
 62
7
  6
CONTINUOUS
 10
5.5465148068
 20
3.7812684194
 40
0.0376447071
100
AcDbArc
 50
34.4258141387
 51
41.7086251441
  0
ARC
  5
335
100
AcDbEntity
  8
0
100
AcDbCircle
 62
7
  6
CONTINUOUS
 10
5.5043666861
 20
3.6674340654
 40
0.0369640327
100
AcDbArc
 50
252.9452970106
 51
266.680197556
  0
ARC
  5
336
100
AcDbEntity
  8
0
100
AcDbCircle
 62
7
  6
CONTINUOUS
 10
5.5042869428
 20
3.6673195166
 40
0.0368311583
100
AcDbArc
 50
245.9080559826
 51
253.0116311605
  0
ARC
  5
337
100
AcDbEntity
  8
0
100
AcDbCircle
 62
7
  6
CONTINUOUS
 10
5.4796051711
 20
3.7547001169
 40
0.0347015918
100
AcDbArc
 50
190.4167016686
 51
195.0304392998
  0
ARC
  5
338
100
AcDbEntity
  8
0
100
AcDbCircle
 62
7
  6
CONTINUOUS
 10
5.5507072485
 20
3.7778285294
 40
0.0271485261
100
AcDbArc
 50
14.9874500157
 51
21.2884589419
  0
ARC
  5
339
100
AcDbEntity
  8
0
100
AcDbCircle
 62
7
  6
CONTINUOUS
 10
5.5532529789
 20
3.7781667022
 40
0.0248302014
100
AcDbArc
 50
49.943079059
 51
57.1449569745
  0
ARC
  5
33A
100
AcDbEntity
  8
0
100
AcDbCircle
 62
7
  6
CONTINUOUS
 10
5.5565990382
 20
3.7772696039
 40
0.0213714631
100
AcDbArc
 50
330.7380291487
 51
336.2285169961
  0
ARC
  5
33B
100
AcDbEntity
  8
ALL_FEATURES
100
AcDbCircle
 62
9
  6
CONTINUOUS
 10
6.0230817437
 20
4.7947346284
 40
1.2139841346
100
AcDbArc
 50
172.5816812234
 51
174.614425662
  0
ARC
  5
33C
100
AcDbEntity
  8
ALL_FEATURES
100
AcDbCircle
 62
9
  6
CONTINUOUS
 10
5.6260888083
 20
5.1673235761
 40
0.8624999994
100
AcDbArc
 50
142.7692519667
 51
149.0154165597
  0
ARC
  5
33D
100
AcDbEntity
  8
ALL_FEATURES
100
AcDbCircle
 62
7
  6
CONTINUOUS
 10
5.6260888083
 20
5.1673235761
 40
0.825
100
AcDbArc
 50
142.7692519667
 51
175.6479349655
  0
ARC
  5
33E
100
AcDbEntity
  8
ALL_FEATURES
100
AcDbCircle
 62
7
  6
CONTINUOUS
 10
5.6217902661
 20
5.1635493928
 40
0.75
100
AcDbArc
 50
142.4822210899
 51
173.4537419073
  0
ARC
  5
33F
100
AcDbEntity
  8
ALL_FEATURES
100
AcDbCircle
 62
7
  6
CONTINUOUS
 10
6.106739299
 20
7.3862788722
 40
0.315
100
AcDbArc
 50
0.0
 51
90.0
  0
ARC
  5
340
100
AcDbEntity
  8
ALL_FEATURES
100
AcDbCircle
 62
7
  6
CONTINUOUS
 10
6.481739299
 20
7.0112788722
 40
0.315
100
AcDbArc
 50
0.0
 51
90.0
  0
ARC
  5
341
100
AcDbEntity
  8
ALL_FEATURES
100
AcDbCircle
 62
7
  6
CONTINUOUS
 10
6.106739299
 20
7.3862788722
 40
0.22125
100
AcDbArc
 50
0.0
 51
90.0
  0
ARC
  5
342
100
AcDbEntity
  8
ALL_FEATURES
100
AcDbCircle
 62
7
  6
CONTINUOUS
 10
6.481739299
 20
7.0112788722
 40
0.22125
100
AcDbArc
 50
0.0
 51
90.0
  0
ARC
  5
343
100
AcDbEntity
  8
ALL_FEATURES
100
AcDbCircle
 62
7
  6
CONTINUOUS
 10
6.451739299
 20
7.3562788722
 40
0.12375
100
AcDbArc
 50
180.0
 51
270.0
  0
ARC
  5
344
100
AcDbEntity
  8
ALL_FEATURES
100
AcDbCircle
 62
7
  6
CONTINUOUS
 10
6.451739299
 20
7.3562788722
 40
0.03
100
AcDbArc
 50
180.0
 51
270.0
  0
ARC
  5
345
100
AcDbEntity
  8
ALL_FEATURES
100
AcDbCircle
 62
9
  6
CONTINUOUS
 10
8.5305797996
 20
4.8243723796
 40
3.7134960368
100
AcDbArc
 50
177.8526016953
 51
178.0385272268
  0
ARC
  5
346
100
AcDbEntity
  8
ALL_FEATURES
100
AcDbCircle
 62
9
  6
CONTINUOUS
 10
10.8476736777
 20
4.6648651527
 40
6.0353758461
100
AcDbArc
 50
176.4396888319
 51
177.1636260098
  0
ARC
  5
347
100
AcDbEntity
  8
ALL_FEATURES
100
AcDbCircle
 62
7
  6
CONTINUOUS
 10
10.8375609831
 20
4.565021342
 40
6.0
100
AcDbArc
 50
173.4537419073
 51
176.6436938087
  0
ARC
  5
348
100
AcDbEntity
  8
ALL_FEATURES
100
AcDbCircle
 62
9
  6
CONTINUOUS
 10
10.4652650599
 20
4.5981549401
 40
5.6585689455
100
AcDbArc
 50
173.2861048722
 51
175.5250269267
  0
ARC
  5
349
100
AcDbEntity
  8
ALL_FEATURES
100
AcDbCircle
 62
7
  6
CONTINUOUS
 10
10.8609508963
 20
4.7689281444
 40
6.075
100
AcDbArc
 50
175.6479349655
 51
179.2621944359
  0
ARC
  5
34A
100
AcDbEntity
  8
ALL_FEATURES
100
AcDbCircle
 62
9
  6
CONTINUOUS
 10
10.5262851129
 20
4.794969403
 40
5.7781050048
100
AcDbArc
 50
175.5553316495
 51
178.4576319624
  0
ARC
  5
34B
100
AcDbEntity
  8
ALL_FEATURES
100
AcDbCircle
 62
9
  6
CONTINUOUS
 10
11.2412348939
 20
4.7466593749
 40
6.4239739826
100
AcDbArc
 50
175.7787456029
 51
177.3858306728
  0
LINE
  5
34C
100
AcDbEntity
  8
ALL_FEATURES
100
AcDbLine
 62
9
  6
CONTINUOUS
 10
4.7183897059
 20
4.8467926953
 11
4.7189675968
 21
4.8101415473
  0
LINE
  5
34D
100
AcDbEntity
  8
ALL_FEATURES
100
AcDbLine
 62
9
  6
CONTINUOUS
 10
4.7182050525
 20
4.9504937408
 11
4.7183897059
 21
4.8467926953
  0
LINE
  5
34E
100
AcDbEntity
  8
ALL_FEATURES
100
AcDbLine
 62
9
  6
CONTINUOUS
 10
4.7500888921
 20
4.8467926953
 11
4.7502735455
 21
4.9504937408
  0
SPLINE
  5
34F
100
AcDbEntity
  8
ALL_FEATURES
100
AcDbSpline
 62
9
  6
CONTINUOUS
 70
0
 71
3
 72
15
 73
11
 74
0
 42
0.0000001
 43
0.0000001
 44
0.0000000001
 40
0.0
 40
0.0
 40
0.0
 40
0.0
 40
0.1224082
 40
0.2460118038
 40
0.3705685999
 40
0.4958447737
 40
0.6216051802
 40
0.7476440773
 40
0.8738053978
 40
1.0
 40
1.0
 40
1.0
 40
1.0
 10
4.7655569596
 20
5.2427512591
 30
0.0
 10
4.7667980961
 20
5.2586834661
 30
0.0
 10
4.7702272811
 20
5.2906385856
 30
0.0
 10
4.7782140754
 20
5.3383801305
 30
0.0
 10
4.7891158244
 20
5.3859283774
 30
0.0
 10
4.8029410368
 20
5.4330041495
 30
0.0
 10
4.8196639052
 20
5.4793364105
 30
0.0
 10
4.8392168869
 20
5.5246732731
 30
0.0
 10
4.8614820161
 20
5.5688020038
 30
0.0
 10
4.8780148601
 20
5.5973222436
 30
0.0
 10
4.8866625117
 20
5.6113449741
 30
0.0
  0
SPLINE
  5
350
100
AcDbEntity
  8
ALL_FEATURES
100
AcDbSpline
 62
9
  6
CONTINUOUS
 70
0
 71
3
 72
22
 73
18
 74
0
 42
0.0000001
 43
0.0000001
 44
0.0000000001
 40
0.0
 40
0.0
 40
0.0
 40
0.0
 40
0.0804057023
 40
0.1604701752
 40
0.3167694817
 40
0.3919722629
 40
0.4645473479
 40
0.5340480964
 40
0.6000913693
 40
0.6624044115
 40
0.7208039094
 40
0.7752556431
 40
0.8258707652
 40
0.8729804217
 40
0.9171541787
 40
0.9591778086
 40
1.0
 40
1.0
 40
1.0
 40
1.0
 10
4.7182050502
 20
4.9504936121
 30
0.0
 10
4.7169622992
 20
4.9504747114
 30
0.0
 10
4.7144824606
 20
4.9503742239
 30
0.0
 10
4.709604758
 20
4.9499307413
 30
0.0
 10
4.7048445367
 20
4.9491292871
 30
0.0
 10
4.700289449
 20
4.947961209
 30
0.0
 10
4.6970893333
 20
4.946934267
 30
0.0
 10
4.6940930888
 20
4.9457563488
 30
0.0
 10
4.6913305477
 20
4.9444374047
 30
0.0
 10
4.6888279484
 20
4.9429916628
 30
0.0
 10
4.6866102517
 20
4.9414311266
 30
0.0
 10
4.6846981522
 20
4.9397716012
 30
0.0
 10
4.683110856
 20
4.9380270258
 30
0.0
 10
4.6818649343
 20
4.9362123324
 30
0.0
 10
4.6809752648
 20
4.9343427062
 30
0.0
 10
4.6804562908
 20
4.932437957
 30
0.0
 10
4.6803614025
 20
4.9311511024
 30
0.0
 10
4.6803781823
 20
4.9305203045
 30
0.0
  0
SPLINE
  5
351
100
AcDbEntity
  8
ALL_FEATURES
100
AcDbSpline
 62
9
  6
CONTINUOUS
 70
0
 71
3
 72
19
 73
15
 74
0
 42
0.0000001
 43
0.0000001
 44
0.0000000001
 40
0.0
 40
0.0
 40
0.0
 40
0.0
 40
0.1270424714
 40
0.190549857
 40
0.2539081888
 40
0.3171117877
 40
0.3801525766
 40
0.4430071226
 40
0.5056570859
 40
0.5680994469
 40
0.6303368309
 40
0.7540971541
 40
0.8772175434
 40
1.0
 40
1.0
 40
1.0
 40
1.0
 10
4.7183897062
 20
4.8467927135
 30
0.0
 10
4.7160906654
 20
4.8468236883
 30
0.0
 10
4.7126361891
 20
4.8471787237
 30
0.0
 10
4.7081642366
 20
4.8482540716
 30
0.0
 10
4.7049002349
 20
4.8493558165
 30
0.0
 10
4.7017563086
 20
4.8507421958
 30
0.0
 10
4.6987583414
 20
4.8524025778
 30
0.0
 10
4.6959308812
 20
4.8543213969
 30
0.0
 10
4.6932993741
 20
4.8564841736
 30
0.0
 10
4.6908850539
 20
4.8588716023
 30
0.0
 10
4.687990716
 20
4.8623193193
 30
0.0
 10
4.6850055036
 20
4.8670934859
 30
0.0
 10
4.6825723112
 20
4.8733659144
 30
0.0
 10
4.6817734994
 20
4.8777767402
 30
0.0
 10
4.6815871354
 20
4.879991062
 30
0.0
  0
SPLINE
  5
352
100
AcDbEntity
  8
ALL_FEATURES
100
AcDbSpline
 62
9
  6
CONTINUOUS
 70
0
 71
3
 72
19
 73
15
 74
0
 42
0.0000001
 43
0.0000001
 44
0.0000000001
 40
0.0
 40
0.0
 40
0.0
 40
0.0
 40
0.1270424615
 40
0.190549843
 40
0.2539081723
 40
0.3171117702
 40
0.3801525599
 40
0.443007108
 40
0.5056570747
 40
0.5680994397
 40
0.6303368278
 40
0.7540971581
 40
0.8772175488
 40
1.0
 40
1.0
 40
1.0
 40
1.0
 10
4.750088888
 20
4.8467929538
 30
0.0
 10
4.7523879198
 20
4.8468239278
 30
0.0
 10
4.7558423828
 20
4.8471789585
 30
0.0
 10
4.7603143197
 20
4.8482542942
 30
0.0
 10
4.7635783114
 20
4.8493560271
 30
0.0
 10
4.7667222296
 20
4.850742392
 30
0.0
 10
4.7697201908
 20
4.8524027576
 30
0.0
 10
4.7725476475
 20
4.854321559
 30
0.0
 10
4.7751791535
 20
4.8564843168
 30
0.0
 10
4.7775934749
 20
4.858871726
 30
0.0
 10
4.7804878175
 20
4.862319417
 30
0.0
 10
4.783473041
 20
4.8670935515
 30
0.0
 10
4.7859062534
 20
4.8733659448
 30
0.0
 10
4.7867050814
 20
4.8777767503
 30
0.0
 10
4.786891454
 20
4.8799910628
 30
0.0
  0
SPLINE
  5
353
100
AcDbEntity
  8
ALL_FEATURES
100
AcDbSpline
 62
9
  6
CONTINUOUS
 70
0
 71
3
 72
22
 73
18
 74
0
 42
0.0000001
 43
0.0000001
 44
0.0000000001
 40
0.0
 40
0.0
 40
0.0
 40
0.0
 40
0.080405824
 40
0.1604704133
 40
0.3167698982
 40
0.3919727301
 40
0.4645478348
 40
0.5340485714
 40
0.6000918023
 40
0.6624047773
 40
0.7208041895
 40
0.7752558289
 40
0.8258708595
 40
0.8729804398
 40
0.917154149
 40
0.9591777704
 40
1.0
 40
1.0
 40
1.0
 40
1.0
 10
4.7502735455
 20
4.950493742
 30
0.0
 10
4.7515163015
 20
4.9504748413
 30
0.0
 10
4.75399615
 20
4.9503743534
 30
0.0
 10
4.758873871
 20
4.9499308671
 30
0.0
 10
4.7636341088
 20
4.9491294057
 30
0.0
 10
4.7681892099
 20
4.9479613169
 30
0.0
 10
4.7713893325
 20
4.9469343658
 30
0.0
 10
4.7743855812
 20
4.9457564376
 30
0.0
 10
4.7771481237
 20
4.944437483
 30
0.0
 10
4.7796507215
 20
4.9429917302
 30
0.0
 10
4.7818684142
 20
4.9414311829
 30
0.0
 10
4.7837805071
 20
4.9397716467
 30
0.0
 10
4.7853677945
 20
4.9380270607
 30
0.0
 10
4.7866137054
 20
4.9362123572
 30
0.0
 10
4.7875033622
 20
4.9343427215
 30
0.0
 10
4.7880223221
 20
4.9324379634
 30
0.0
 10
4.7881172
 20
4.9311511044
 30
0.0
 10
4.788100415
 20
4.9305203045
 30
0.0
  0
SPLINE
  5
354
100
AcDbEntity
  8
ALL_FEATURES
100
AcDbSpline
 62
9
  6
CONTINUOUS
 70
0
 71
3
 72
23
 73
19
 74
0
 42
0.0000001
 43
0.0000001
 44
0.0000000001
 40
0.0
 40
0.0
 40
0.0
 40
0.0
 40
0.1795910599
 40
0.3536744108
 40
0.4365911008
 40
0.5157690133
 40
0.5904998821
 40
0.66012697
 40
0.7241041563
 40
0.7819540279
 40
0.8333519413
 40
0.8781151116
 40
0.9163280353
 40
0.9484673767
 40
0.9625993814
 40
0.9756999952
 40
0.9880523982
 40
1.0
 40
1.0
 40
1.0
 40
1.0
 10
4.7655569592
 20
5.2427512665
 30
0.0
 10
4.7680492815
 20
5.2425841115
 30
0.0
 10
4.7729497183
 20
5.242125916
 30
0.0
 10
4.7789604765
 20
5.2412381459
 30
0.0
 10
4.7835511069
 20
5.2403457325
 30
0.0
 10
4.786763026
 20
5.2396121031
 30
0.0
 10
4.789768071
 20
5.23881136
 30
0.0
 10
4.7925360311
 20
5.2379508021
 30
0.0
 10
4.7950396954
 20
5.2370402406
 30
0.0
 10
4.7972546006
 20
5.2360878381
 30
0.0
 10
4.7991599474
 20
5.235104196
 30
0.0
 10
4.8007390373
 20
5.2340976604
 30
0.0
 10
4.8019783719
 20
5.2330768304
 30
0.0
 10
4.8027525333
 20
5.2321797128
 30
0.0
 10
4.8031640446
 20
5.2314609367
 30
0.0
 10
4.8033660112
 20
5.230946265
 30
0.0
 10
4.8034731884
 20
5.2304345866
 30
0.0
 10
4.8034802694
 20
5.2300942691
 30
0.0
 10
4.8034676584
 20
5.2299285698
 30
0.0
  0
SPLINE
  5
355
100
AcDbEntity
  8
ALL_FEATURES
100
AcDbSpline
 62
9
  6
CONTINUOUS
 70
0
 71
3
 72
23
 73
19
 74
0
 42
0.0000001
 43
0.0000001
 44
0.0000000001
 40
0.0
 40
0.0
 40
0.0
 40
0.0
 40
0.1795910419
 40
0.3536743545
 40
0.4365910228
 40
0.5157689145
 40
0.5904997655
 40
0.6601268404
 40
0.7241040202
 40
0.7819538932
 40
0.8333518168
 40
0.8781150066
 40
0.9163279579
 40
0.948467332
 40
0.9625993525
 40
0.9756999803
 40
0.9880523936
 40
1.0
 40
1.0
 40
1.0
 40
1.0
 10
4.7029216384
 20
5.2427512592
 30
0.0
 10
4.7004293191
 20
5.2425841038
 30
0.0
 10
4.6955288883
 20
5.2421259081
 30
0.0
 10
4.6895181376
 20
5.2412381381
 30
0.0
 10
4.6849275133
 20
5.2403457252
 30
0.0
 10
4.6817155985
 20
5.2396120963
 30
0.0
 10
4.6787105574
 20
5.2388113539
 30
0.0
 10
4.6759426008
 20
5.237950797
 30
0.0
 10
4.6734389394
 20
5.2370402363
 30
0.0
 10
4.6712240365
 20
5.2360878348
 30
0.0
 10
4.6693186913
 20
5.2351041937
 30
0.0
 10
4.6677396022
 20
5.2340976592
 30
0.0
 10
4.6665002675
 20
5.2330768302
 30
0.0
 10
4.6657261053
 20
5.2321797135
 30
0.0
 10
4.6653145928
 20
5.2314609381
 30
0.0
 10
4.665112625
 20
5.230946267
 30
0.0
 10
4.6650054465
 20
5.230434589
 30
0.0
 10
4.6649983644
 20
5.2300942717
 30
0.0
 10
4.6650109748
 20
5.2299285725
 30
0.0
  0
LINE
  5
356
100
AcDbEntity
  8
ALL_FEATURES
100
AcDbLine
 62
9
  6
CONTINUOUS
 10
4.6466002905
 20
4.9093418428
 11
4.6492189342
 21
4.9514752165
  0
LINE
  5
357
100
AcDbEntity
  8
ALL_FEATURES
100
AcDbLine
 62
9
  6
CONTINUOUS
 10
4.8192596638
 20
4.9514752165
 11
4.8218783075
 21
4.9093418428
  0
SPLINE
  5
358
100
AcDbEntity
  8
ALL_FEATURES
100
AcDbSpline
 62
9
  6
CONTINUOUS
 70
0
 71
3
 72
25
 73
21
 74
0
 42
0.0000001
 43
0.0000001
 44
0.0000000001
 40
0.0
 40
0.0
 40
0.0
 40
0.0
 40
0.0106464683
 40
0.0217720754
 40
0.0337751952
 40
0.0469680236
 40
0.0615805278
 40
0.0777700022
 40
0.0956336129
 40
0.1152300864
 40
0.1597178554
 40
0.2112436196
 40
0.2695373928
 40
0.3341979767
 40
0.4046733961
 40
0.480347994
 40
0.5604950648
 40
0.6443380408
 40
0.8198888233
 40
1.0
 40
1.0
 40
1.0
 40
1.0
 10
4.8766801637
 20
5.2490534
 30
0.0
 10
4.8766939798
 20
5.2491737974
 30
0.0
 10
4.8766945151
 20
5.2494239613
 30
0.0
 10
4.8766138045
 20
5.2498023264
 30
0.0
 10
4.8764537432
 20
5.2501857173
 30
0.0
 10
4.8762159319
 20
5.2505731568
 30
0.0
 10
4.8759012756
 20
5.2509641487
 30
0.0
 10
4.8755107323
 20
5.2513581241
 30
0.0
 10
4.8750455218
 20
5.251754655
 30
0.0
 10
4.874294813
 20
5.2523093432
 30
0.0
 10
4.8731685583
 20
5.2529948281
 30
0.0
 10
4.8715968699
 20
5.2537819011
 30
0.0
 10
4.8697670485
 20
5.2545569859
 30
0.0
 10
4.867697613
 20
5.2553110835
 30
0.0
 10
4.865409737
 20
5.2560368985
 30
0.0
 10
4.862927152
 20
5.2567258415
 30
0.0
 10
4.8602760714
 20
5.2573711978
 30
0.0
 10
4.8564953975
 20
5.2581761013
 30
0.0
 10
4.8515618081
 20
5.2590192004
 30
0.0
 10
4.8475412732
 20
5.259508588
 30
0.0
 10
4.8455007364
 20
5.2597072507
 30
0.0
  0
SPLINE
  5
359
100
AcDbEntity
  8
ALL_FEATURES
100
AcDbSpline
 62
9
  6
CONTINUOUS
 70
0
 71
3
 72
20
 73
16
 74
0
 42
0.0000001
 43
0.0000001
 44
0.0000000001
 40
0.0
 40
0.0
 40
0.0
 40
0.0
 40
0.0382843943
 40
0.0779704976
 40
0.1201670037
 40
0.165749144
 40
0.2153165449
 40
0.269191572
 40
0.3274534012
 40
0.3900253868
 40
0.4566732018
 40
0.5270720903
 40
0.6772481906
 40
0.8365265405
 40
1.0
 40
1.0
 40
1.0
 40
1.0
 10
4.849771878
 20
4.9476198653
 30
0.0
 10
4.8498017347
 20
4.948087196
 30
0.0
 10
4.8497572152
 20
4.9490485622
 30
0.0
 10
4.8493827365
 20
4.950479579
 30
0.0
 10
4.8487067023
 20
4.9518936842
 30
0.0
 10
4.847741346
 20
4.9532762404
 30
0.0
 10
4.84649852
 20
4.9546163437
 30
0.0
 10
4.8449911763
 20
4.955902786
 30
0.0
 10
4.8432343962
 20
4.9571247594
 30
0.0
 10
4.8412446825
 20
4.9582697175
 30
0.0
 10
4.839042005
 20
4.9593279952
 30
0.0
 10
4.8357790418
 20
4.960635888
 30
0.0
 10
4.8313168275
 20
4.9619685771
 30
0.0
 10
4.8256260682
 20
4.9630516687
 30
0.0
 10
4.8216888864
 20
4.9634230402
 30
0.0
 10
4.8196916096
 20
4.9635185502
 30
0.0
  0
SPLINE
  5
35A
100
AcDbEntity
  8
ALL_FEATURES
100
AcDbSpline
 62
9
  6
CONTINUOUS
 70
0
 71
3
 72
15
 73
11
 74
0
 42
0.0000001
 43
0.0000001
 44
0.0000000001
 40
0.0
 40
0.0
 40
0.0
 40
0.0
 40
0.1237217919
 40
0.2476964934
 40
0.3719333185
 40
0.4966330717
 40
0.6218273628
 40
0.7474847864
 40
0.8736307283
 40
1.0
 40
1.0
 40
1.0
 40
1.0
 10
4.8490841532
 20
4.9367003574
 30
0.0
 10
4.848976892
 20
4.9349721933
 30
0.0
 10
4.8484457049
 20
4.9315238824
 30
0.0
 10
4.8467310249
 20
4.926580449
 30
0.0
 10
4.844148315
 20
4.9220125539
 30
0.0
 10
4.8407826824
 20
4.9179652852
 30
0.0
 10
4.8367381473
 20
4.9145659084
 30
0.0
 10
4.832142618
 20
4.9119183014
 30
0.0
 10
4.8271418667
 20
4.9101082336
 30
0.0
 10
4.8236402153
 20
4.9094948728
 30
0.0
 10
4.8218783051
 20
4.9093418681
 30
0.0
  0
SPLINE
  5
35B
100
AcDbEntity
  8
ALL_FEATURES
100
AcDbSpline
 62
9
  6
CONTINUOUS
 70
0
 71
3
 72
15
 73
11
 74
0
 42
0.0000001
 43
0.0000001
 44
0.0000000001
 40
0.0
 40
0.0
 40
0.0
 40
0.0
 40
0.1237217897
 40
0.2476964916
 40
0.3719333217
 40
0.4966330838
 40
0.6218273818
 40
0.7474848073
 40
0.8736307429
 40
1.0
 40
1.0
 40
1.0
 40
1.0
 10
4.6193944422
 20
4.9367003573
 30
0.0
 10
4.6195017071
 20
4.9349722036
 30
0.0
 10
4.6200329042
 20
4.9315239143
 30
0.0
 10
4.6217476056
 20
4.9265805201
 30
0.0
 10
4.6243303384
 20
4.9220126725
 30
0.0
 10
4.6276959898
 20
4.9179654588
 30
0.0
 10
4.631740534
 20
4.9145661409
 30
0.0
 10
4.6363360596
 20
4.9119185905
 30
0.0
 10
4.6413367938
 20
4.9101085697
 30
0.0
 10
4.6448384269
 20
4.90949523
 30
0.0
 10
4.646600327
 20
4.9093422325
 30
0.0
  0
LINE
  5
35C
100
AcDbEntity
  8
ALL_FEATURES
100
AcDbLine
 62
9
  6
CONTINUOUS
 10
4.7495110012
 20
4.8101415473
 11
4.7500888921
 21
4.8467926953
  0
LINE
  5
35D
100
AcDbEntity
  8
ALL_FEATURES
100
AcDbLine
 62
9
  6
CONTINUOUS
 10
4.6478781997
 20
4.8881684589
 11
4.6466002905
 21
4.9093418428
  0
SPLINE
  5
35E
100
AcDbEntity
  8
ALL_FEATURES
100
AcDbSpline
 62
9
  6
CONTINUOUS
 70
0
 71
3
 72
20
 73
16
 74
0
 42
0.0000001
 43
0.0000001
 44
0.0000000001
 40
0.0
 40
0.0
 40
0.0
 40
0.0
 40
0.0382844054
 40
0.0779704529
 40
0.1201668299
 40
0.1657487756
 40
0.2153159378
 40
0.269190711
 40
0.3274523016
 40
0.390024094
 40
0.4566717835
 40
0.5270706338
 40
0.6772469395
 40
0.8365258274
 40
1.0
 40
1.0
 40
1.0
 40
1.0
 10
4.6187067194
 20
4.9476198653
 30
0.0
 10
4.6186768584
 20
4.9480871977
 30
0.0
 10
4.618721368
 20
4.9490485674
 30
0.0
 10
4.6190958301
 20
4.9504795921
 30
0.0
 10
4.6197718467
 20
4.9518937074
 30
0.0
 10
4.6207371853
 20
4.9532762757
 30
0.0
 10
4.6219799944
 20
4.9546163931
 30
0.0
 10
4.6234873231
 20
4.9559028513
 30
0.0
 10
4.625244091
 20
4.9571248422
 30
0.0
 10
4.6272337965
 20
4.9582698191
 30
0.0
 10
4.6294364705
 20
4.9593281165
 30
0.0
 10
4.632699438
 20
4.9606360369
 30
0.0
 10
4.6371616714
 20
4.9619687576
 30
0.0
 10
4.642852467
 20
4.9630518772
 30
0.0
 10
4.6467896791
 20
4.9634232589
 30
0.0
 10
4.6487869723
 20
4.9635187716
 30
0.0
  0
SPLINE
  5
35F
100
AcDbEntity
  8
ALL_FEATURES
100
AcDbSpline
 62
9
  6
CONTINUOUS
 70
0
 71
3
 72
25
 73
21
 74
0
 42
0.0000001
 43
0.0000001
 44
0.0000000001
 40
0.0
 40
0.0
 40
0.0
 40
0.0
 40
0.0106464679
 40
0.0217720742
 40
0.033775193
 40
0.0469680201
 40
0.0615805232
 40
0.0777699965
 40
0.0956336062
 40
0.1152300789
 40
0.1597178467
 40
0.2112436104
 40
0.2695373838
 40
0.3341979684
 40
0.4046733889
 40
0.4803479882
 40
0.5604950605
 40
0.6443380381
 40
0.8198888229
 40
1.0
 40
1.0
 40
1.0
 40
1.0
 10
4.5917984321
 20
5.2490533998
 30
0.0
 10
4.591784616
 20
5.2491737972
 30
0.0
 10
4.5917840806
 20
5.249423961
 30
0.0
 10
4.5918647911
 20
5.2498023261
 30
0.0
 10
4.5920248524
 20
5.2501857171
 30
0.0
 10
4.5922626636
 20
5.2505731567
 30
0.0
 10
4.5925773199
 20
5.2509641485
 30
0.0
 10
4.5929678632
 20
5.251358124
 30
0.0
 10
4.5934330737
 20
5.2517546549
 30
0.0
 10
4.5941837826
 20
5.2523093431
 30
0.0
 10
4.5953100373
 20
5.2529948281
 30
0.0
 10
4.5968817258
 20
5.2537819012
 30
0.0
 10
4.5987115473
 20
5.2545569861
 30
0.0
 10
4.600780983
 20
5.2553110837
 30
0.0
 10
4.6030688592
 20
5.2560368987
 30
0.0
 10
4.6055514445
 20
5.2567258418
 30
0.0
 10
4.6082025253
 20
5.2573711981
 30
0.0
 10
4.6119831996
 20
5.2581761016
 30
0.0
 10
4.6169167894
 20
5.2590192008
 30
0.0
 10
4.6209373247
 20
5.2595085883
 30
0.0
 10
4.6229778617
 20
5.259707251
 30
0.0
  0
SPLINE
  5
360
100
AcDbEntity
  8
ALL_FEATURES
100
AcDbSpline
 62
9
  6
CONTINUOUS
 70
0
 71
3
 72
23
 73
19
 74
0
 42
0.0000001
 43
0.0000001
 44
0.0000000001
 40
0.0
 40
0.0
 40
0.0
 40
0.0
 40
0.1781405013
 40
0.3516097035
 40
0.4344645984
 40
0.5137070091
 40
0.5885995983
 40
0.6584572121
 40
0.7227072224
 40
0.7808466027
 40
0.8325284725
 40
0.8775495708
 40
0.9159786087
 40
0.9482819614
 40
0.9624757523
 40
0.9756259771
 40
0.9880183036
 40
1.0
 40
1.0
 40
1.0
 40
1.0
 10
4.8346876092
 20
5.2195162505
 30
0.0
 10
4.8326527127
 20
5.2196360275
 30
0.0
 10
4.8286419756
 20
5.2199818699
 30
0.0
 10
4.8237167157
 20
5.2206792871
 30
0.0
 10
4.8199430579
 20
5.221392078
 30
0.0
 10
4.8172958508
 20
5.2219830088
 30
0.0
 10
4.8148155505
 20
5.2226316952
 30
0.0
 10
4.8125280397
 20
5.2233320194
 30
0.0
 10
4.8104566702
 20
5.22407568
 30
0.0
 10
4.8086224694
 20
5.2248557683
 30
0.0
 10
4.8070433513
 20
5.2256632545
 30
0.0
 10
4.8057337398
 20
5.2264909917
 30
0.0
 10
4.8047053132
 20
5.2273315841
 30
0.0
 10
4.8040623469
 20
5.2280711665
 30
0.0
 10
4.8037203682
 20
5.2286641859
 30
0.0
 10
4.8035524742
 20
5.229088803
 30
0.0
 10
4.8034632571
 20
5.229511013
 30
0.0
 10
4.8034572297
 20
5.2297918634
 30
0.0
 10
4.8034676337
 20
5.2299285717
 30
0.0
  0
SPLINE
  5
361
100
AcDbEntity
  8
ALL_FEATURES
100
AcDbSpline
 62
9
  6
CONTINUOUS
 70
0
 71
3
 72
23
 73
19
 74
0
 42
0.0000001
 43
0.0000001
 44
0.0000000001
 40
0.0
 40
0.0
 40
0.0
 40
0.0
 40
0.1781405029
 40
0.3516097136
 40
0.4344646139
 40
0.51370703
 40
0.5885996241
 40
0.6584572416
 40
0.722707254
 40
0.7808466344
 40
0.8325285018
 40
0.8775495954
 40
0.9159786264
 40
0.948281971
 40
0.962475758
 40
0.9756259796
 40
0.988018304
 40
1.0
 40
1.0
 40
1.0
 40
1.0
 10
4.6337909885
 20
5.2195162485
 30
0.0
 10
4.6358258858
 20
5.2196360254
 30
0.0
 10
4.6398366245
 20
5.2199818676
 30
0.0
 10
4.6447618865
 20
5.2206792847
 30
0.0
 10
4.6485355459
 20
5.2213920757
 30
0.0
 10
4.6511827542
 20
5.2219830066
 30
0.0
 10
4.6536630556
 20
5.2226316932
 30
0.0
 10
4.6559505674
 20
5.2233320176
 30
0.0
 10
4.6580219377
 20
5.2240756784
 30
0.0
 10
4.6598561392
 20
5.2248557671
 30
0.0
 10
4.6614352578
 20
5.2256632536
 30
0.0
 10
4.6627448696
 20
5.2264909911
 30
0.0
 10
4.6637732963
 20
5.2273315839
 30
0.0
 10
4.6644162624
 20
5.2280711666
 30
0.0
 10
4.6647582409
 20
5.2286641862
 30
0.0
 10
4.6649261346
 20
5.2290888035
 30
0.0
 10
4.6650153515
 20
5.2295110137
 30
0.0
 10
4.6650213785
 20
5.2297918641
 30
0.0
 10
4.6650109745
 20
5.2299285725
 30
0.0
  0
SPLINE
  5
362
100
AcDbEntity
  8
ALL_FEATURES
100
AcDbSpline
 62
9
  6
CONTINUOUS
 70
0
 71
3
 72
21
 73
17
 74
0
 42
0.0000001
 43
0.0000001
 44
0.0000000001
 40
0.0
 40
0.0
 40
0.0
 40
0.0
 40
0.1673026936
 40
0.3306893851
 40
0.4091399236
 40
0.4845783859
 40
0.5564103283
 40
0.6241027096
 40
0.687239435
 40
0.7454930913
 40
0.7987028683
 40
0.8468733234
 40
0.8902822838
 40
0.9295444979
 40
0.9656578201
 40
1.0
 40
1.0
 40
1.0
 40
1.0
 10
4.6445323961
 20
5.0396570013
 30
0.0
 10
4.6465714051
 20
5.0396986751
 30
0.0
 10
4.6506000265
 20
5.0399483658
 30
0.0
 10
4.6555416631
 20
5.0406707146
 30
0.0
 10
4.6593220294
 20
5.0414937634
 30
0.0
 10
4.6619797856
 20
5.042210772
 30
0.0
 10
4.6644710851
 20
5.0430276261
 30
0.0
 10
4.6667698764
 20
5.0439369337
 30
0.0
 10
4.6688530413
 20
5.0449281447
 30
0.0
 10
4.6706991478
 20
5.0459925152
 30
0.0
 10
4.6722903126
 20
5.0471185385
 30
0.0
 10
4.6736106983
 20
5.0482966151
 30
0.0
 10
4.6746469089
 20
5.0495172483
 30
0.0
 10
4.6753865542
 20
5.0507723687
 30
0.0
 10
4.6758149463
 20
5.0520507689
 30
0.0
 10
4.6758862334
 20
5.0529172458
 30
0.0
 10
4.6758666358
 20
5.0533354211
 30
0.0
  0
SPLINE
  5
363
100
AcDbEntity
  8
ALL_FEATURES
100
AcDbSpline
 62
9
  6
CONTINUOUS
 70
0
 71
3
 72
20
 73
16
 74
0
 42
0.0000001
 43
0.0000001
 44
0.0000000001
 40
0.0
 40
0.0
 40
0.0
 40
0.0
 40
0.163743995
 40
0.323024442
 40
0.4730352035
 40
0.5433211689
 40
0.6098536126
 40
0.6723201604
 40
0.7304984321
 40
0.7843219459
 40
0.8338784638
 40
0.8794952193
 40
0.9217715095
 40
0.9615752261
 40
1.0
 40
1.0
 40
1.0
 40
1.0
 10
4.6487869938
 20
4.9635182455
 30
0.0
 10
4.6507676237
 20
4.9635674482
 30
0.0
 10
4.654673023
 20
4.9638440154
 30
0.0
 10
4.6603273917
 20
4.9647818807
 30
0.0
 10
4.6647683379
 20
4.9659937851
 30
0.0
 10
4.6680214209
 20
4.9672088743
 30
0.0
 10
4.6702208189
 20
4.9682021588
 30
0.0
 10
4.6722119951
 20
4.9692862269
 30
0.0
 10
4.6739753425
 20
4.9704521686
 30
0.0
 10
4.6754945432
 20
4.9716881928
 30
0.0
 10
4.6767546797
 20
4.9729841548
 30
0.0
 10
4.6777428748
 20
4.9743294494
 30
0.0
 10
4.6784473236
 20
4.9757136987
 30
0.0
 10
4.6788558063
 20
4.9771228786
 30
0.0
 10
4.6789268032
 20
4.9780752227
 30
0.0
 10
4.6789107508
 20
4.9785398709
 30
0.0
  0
SPLINE
  5
364
100
AcDbEntity
  8
ALL_FEATURES
100
AcDbSpline
 62
9
  6
CONTINUOUS
 70
0
 71
3
 72
25
 73
21
 74
0
 42
0.0000001
 43
0.0000001
 44
0.0000000001
 40
0.0
 40
0.0
 40
0.0
 40
0.0
 40
0.1885526803
 40
0.370571996
 40
0.4568887507
 40
0.5389968563
 40
0.6161117207
 40
0.6874914891
 40
0.7524962044
 40
0.8105325276
 40
0.8611327611
 40
0.9039180735
 40
0.9223147024
 40
0.9387083504
 40
0.9531178903
 40
0.9655925665
 40
0.9762416454
 40
0.9852654789
 40
0.9930038868
 40
1.0
 40
1.0
 40
1.0
 40
1.0
 10
4.6492189114
 20
4.9514753623
 30
0.0
 10
4.6511948693
 20
4.9515311662
 30
0.0
 10
4.6550769563
 20
4.951696439
 30
0.0
 10
4.6598553439
 20
4.9520404377
 30
0.0
 10
4.6635121997
 20
4.9523965
 30
0.0
 10
4.6660694666
 20
4.9526925321
 30
0.0
 10
4.6684650987
 20
4.9530190106
 30
0.0
 10
4.6706754555
 20
4.9533729782
 30
0.0
 10
4.672678789
 20
4.9537503197
 30
0.0
 10
4.674455835
 20
4.9541474621
 30
0.0
 10
4.6759893427
 20
4.9545598294
 30
0.0
 10
4.6771029789
 20
4.9549283896
 30
0.0
 10
4.6778568681
 20
4.9552342697
 30
0.0
 10
4.6783241553
 20
4.9554533629
 30
0.0
 10
4.6787215009
 20
4.9556732949
 30
0.0
 10
4.6790481594
 20
4.955893887
 30
0.0
 10
4.6793038509
 20
4.9561150773
 30
0.0
 10
4.6794885483
 20
4.9563375797
 30
0.0
 10
4.6796009611
 20
4.956563085
 30
0.0
 10
4.6796243064
 20
4.9567192537
 30
0.0
 10
4.6796220348
 20
4.9567925643
 30
0.0
  0
SPLINE
  5
365
100
AcDbEntity
  8
ALL_FEATURES
100
AcDbSpline
 62
9
  6
CONTINUOUS
 70
0
 71
3
 72
20
 73
16
 74
0
 42
0.0000001
 43
0.0000001
 44
0.0000000001
 40
0.0
 40
0.0
 40
0.0
 40
0.0
 40
0.1261087159
 40
0.1892148831
 40
0.2522169417
 40
0.3777934134
 40
0.4404832731
 40
0.5030705706
 40
0.5655462726
 40
0.6279084309
 40
0.7521930641
 40
0.8142296021
 40
0.87619053
 40
0.9381067074
 40
1.0
 40
1.0
 40
1.0
 40
1.0
 10
4.6540222641
 20
4.9086763686
 30
0.0
 10
4.6556457489
 20
4.9085446388
 30
0.0
 10
4.6580714258
 20
4.9081502684
 30
0.0
 10
4.6612041857
 20
4.9072476592
 30
0.0
 10
4.6642480145
 20
4.9060981226
 30
0.0
 10
4.6671392046
 20
4.9045872666
 30
0.0
 10
4.6698094475
 20
4.9027473572
 30
0.0
 10
4.6716907617
 20
4.9012128254
 30
0.0
 10
4.6734381606
 20
4.8995333625
 30
0.0
 10
4.6755690396
 20
4.8971188092
 30
0.0
 10
4.6773935953
 20
4.8944542365
 30
0.0
 10
4.6788644181
 20
4.8916014872
 30
0.0
 10
4.6797858752
 20
4.8893808675
 30
0.0
 10
4.6805192359
 20
4.8870935354
 30
0.0
 10
4.6808788545
 20
4.8855331064
 30
0.0
 10
4.6810259005
 20
4.8847473329
 30
0.0
  0
SPLINE
  5
366
100
AcDbEntity
  8
ALL_FEATURES
100
AcDbSpline
 62
9
  6
CONTINUOUS
 70
0
 71
3
 72
20
 73
16
 74
0
 42
0.0000001
 43
0.0000001
 44
0.0000000001
 40
0.0
 40
0.0
 40
0.0
 40
0.0
 40
0.1261087302
 40
0.1892149055
 40
0.2522169693
 40
0.3777934422
 40
0.4404833006
 40
0.5030705955
 40
0.5655462937
 40
0.6279084468
 40
0.7521930688
 40
0.8142296025
 40
0.8761905279
 40
0.9381067052
 40
1.0
 40
1.0
 40
1.0
 40
1.0
 10
4.8144563178
 20
4.9086765573
 30
0.0
 10
4.8128328339
 20
4.9085448258
 30
0.0
 10
4.8104071588
 20
4.9081504503
 30
0.0
 10
4.807274404
 20
4.9072478295
 30
0.0
 10
4.8042305826
 20
4.9060982783
 30
0.0
 10
4.8013394038
 20
4.9045874043
 30
0.0
 10
4.7986691772
 20
4.9027474749
 30
0.0
 10
4.7967878778
 20
4.9012129276
 30
0.0
 10
4.7950404961
 20
4.8995334493
 30
0.0
 10
4.7929096433
 20
4.8971188758
 30
0.0
 10
4.7910851185
 20
4.8944542845
 30
0.0
 10
4.7896143305
 20
4.8916015199
 30
0.0
 10
4.7886929009
 20
4.8893808905
 30
0.0
 10
4.787959569
 20
4.8870935507
 30
0.0
 10
4.7875999703
 20
4.8855331182
 30
0.0
 10
4.7874529344
 20
4.8847473433
 30
0.0
  0
SPLINE
  5
367
100
AcDbEntity
  8
ALL_FEATURES
100
AcDbSpline
 62
9
  6
CONTINUOUS
 70
0
 71
3
 72
25
 73
21
 74
0
 42
0.0000001
 43
0.0000001
 44
0.0000000001
 40
0.0
 40
0.0
 40
0.0
 40
0.0
 40
0.1885541965
 40
0.3705749157
 40
0.4568923381
 40
0.5390010809
 40
0.6161165366
 40
0.6874968274
 40
0.7525019636
 40
0.8105385656
 40
0.8611388832
 40
0.9039240168
 40
0.9223204276
 40
0.9387137527
 40
0.9531228446
 40
0.9655969214
 40
0.9762452191
 40
0.9852680599
 40
0.9930052558
 40
1.0
 40
1.0
 40
1.0
 40
1.0
 10
4.819259631
 20
4.9514761195
 30
0.0
 10
4.8172836517
 20
4.9515318896
 30
0.0
 10
4.8134015223
 20
4.9516971053
 30
0.0
 10
4.8086230816
 20
4.9520410464
 30
0.0
 10
4.8049661846
 20
4.9523970659
 30
0.0
 10
4.802408888
 20
4.9526930672
 30
0.0
 10
4.8000132275
 20
4.9530195143
 30
0.0
 10
4.7978028439
 20
4.9533734487
 30
0.0
 10
4.7957994858
 20
4.9537507543
 30
0.0
 10
4.7940224182
 20
4.9541478566
 30
0.0
 10
4.7924888927
 20
4.9545601788
 30
0.0
 10
4.7913752429
 20
4.9549286952
 30
0.0
 10
4.7906213441
 20
4.9552345362
 30
0.0
 10
4.790154053
 20
4.9554535992
 30
0.0
 10
4.7897567048
 20
4.9556734989
 30
0.0
 10
4.7894300452
 20
4.9558940565
 30
0.0
 10
4.7891743538
 20
4.9561152097
 30
0.0
 10
4.7889896571
 20
4.9563376727
 30
0.0
 10
4.7888772448
 20
4.9565631373
 30
0.0
 10
4.788853901
 20
4.9567192801
 30
0.0
 10
4.7888561743
 20
4.9567925764
 30
0.0
  0
SPLINE
  5
368
100
AcDbEntity
  8
ALL_FEATURES
100
AcDbSpline
 62
9
  6
CONTINUOUS
 70
0
 71
3
 72
20
 73
16
 74
0
 42
0.0000001
 43
0.0000001
 44
0.0000000001
 40
0.0
 40
0.0
 40
0.0
 40
0.0
 40
0.1637440954
 40
0.32302462
 40
0.4730355511
 40
0.5433216566
 40
0.6098542802
 40
0.6723210426
 40
0.7304995477
 40
0.7843232848
 40
0.833879969
 40
0.8794967653
 40
0.9217728812
 40
0.9615761088
 40
1.0
 40
1.0
 40
1.0
 40
1.0
 10
4.8196916306
 20
4.9635188735
 30
0.0
 10
4.8177110409
 20
4.9635680512
 30
0.0
 10
4.8138057189
 20
4.9638445752
 30
0.0
 10
4.8081514596
 20
4.9647823868
 30
0.0
 10
4.8037105976
 20
4.9659942472
 30
0.0
 10
4.8004575723
 20
4.9672092973
 30
0.0
 10
4.7982582093
 20
4.9682025508
 30
0.0
 10
4.7962670606
 20
4.9692865846
 30
0.0
 10
4.794503732
 20
4.9704524878
 30
0.0
 10
4.7929845405
 20
4.971688469
 30
0.0
 10
4.7917244022
 20
4.9729843826
 30
0.0
 10
4.7907361935
 20
4.9743296231
 30
0.0
 10
4.790031718
 20
4.9757138126
 30
0.0
 10
4.7896231944
 20
4.9771229282
 30
0.0
 10
4.7895521606
 20
4.9780752325
 30
0.0
 10
4.7895681936
 20
4.9785398608
 30
0.0
  0
SPLINE
  5
369
100
AcDbEntity
  8
ALL_FEATURES
100
AcDbSpline
 62
9
  6
CONTINUOUS
 70
0
 71
3
 72
21
 73
17
 74
0
 42
0.0000001
 43
0.0000001
 44
0.0000000001
 40
0.0
 40
0.0
 40
0.0
 40
0.0
 40
0.1673027351
 40
0.3306894651
 40
0.4091400187
 40
0.4845784916
 40
0.5564104393
 40
0.6241028201
 40
0.6872395387
 40
0.7454931822
 40
0.7987029408
 40
0.8468733738
 40
0.890282311
 40
0.929544505
 40
0.965657816
 40
1.0
 40
1.0
 40
1.0
 40
1.0
 10
4.8239462035
 20
5.0396569888
 30
0.0
 10
4.8219071928
 20
5.039698662
 30
0.0
 10
4.8178785678
 20
5.0399483518
 30
0.0
 10
4.8129369269
 20
5.0406707006
 30
0.0
 10
4.8091565574
 20
5.0414937499
 30
0.0
 10
4.8064987991
 20
5.042210759
 30
0.0
 10
4.804007498
 20
5.043027614
 30
0.0
 10
4.8017087055
 20
5.0439369226
 30
0.0
 10
4.7996255398
 20
5.0449281347
 30
0.0
 10
4.7977794331
 20
5.0459925066
 30
0.0
 10
4.7961882685
 20
5.0471185312
 30
0.0
 10
4.7948678837
 20
5.0482966093
 30
0.0
 10
4.7938316744
 20
5.049517244
 30
0.0
 10
4.7930920312
 20
5.050772366
 30
0.0
 10
4.7926636418
 20
5.0520507677
 30
0.0
 10
4.792592357
 20
5.0529172452
 30
0.0
 10
4.7926119558
 20
5.0533354208
 30
0.0
  0
LINE
  5
36A
100
AcDbEntity
  8
ALL_FEATURES
100
AcDbLine
 62
9
  6
CONTINUOUS
 10
4.8141088337
 20
4.8876047492
 11
4.8144563352
 21
4.9086763531
  0
SPLINE
  5
36B
100
AcDbEntity
  8
ALL_FEATURES
100
AcDbSpline
 62
9
  6
CONTINUOUS
 70
0
 71
3
 72
15
 73
11
 74
0
 42
0.0000001
 43
0.0000001
 44
0.0000000001
 40
0.0
 40
0.0
 40
0.0
 40
0.0
 40
0.126194615
 40
0.2523559451
 40
0.3783948504
 40
0.5041552706
 40
0.6294314562
 40
0.7539882605
 40
0.8775918292
 40
1.0
 40
1.0
 40
1.0
 40
1.0
 10
4.5818160863
 20
5.6113449741
 30
0.0
 10
4.5904637389
 20
5.5973222422
 30
0.0
 10
4.6069965839
 20
5.5688019997
 30
0.0
 10
4.6292617148
 20
5.5246732654
 30
0.0
 10
4.6488146965
 20
5.4793363982
 30
0.0
 10
4.6655375651
 20
5.4330041326
 30
0.0
 10
4.6793627783
 20
5.3859283564
 30
0.0
 10
4.6902645256
 20
5.3383801105
 30
0.0
 10
4.6982513078
 20
5.2906385729
 30
0.0
 10
4.70168054
 20
5.2586834652
 30
0.0
 10
4.7029216384
 20
5.2427512591
 30
0.0
  0
SPLINE
  5
36C
100
AcDbEntity
  8
ALL_FEATURES
100
AcDbSpline
 62
9
  6
CONTINUOUS
 70
0
 71
3
 72
17
 73
13
 74
0
 42
0.0000001
 43
0.0000001
 44
0.0000000001
 40
0.0
 40
0.0
 40
0.0
 40
0.0
 40
0.1222896365
 40
0.2459240459
 40
0.3705838077
 40
0.4959524883
 40
0.6217498396
 40
0.747759112
 40
0.8108093951
 40
0.8738693631
 40
0.9369339702
 40
1.0
 40
1.0
 40
1.0
 40
1.0
 10
4.8346876096
 20
5.219516248
 30
0.0
 10
4.8360756782
 20
5.2383394133
 30
0.0
 10
4.8401666535
 20
5.2761096703
 30
0.0
 10
4.8502289753
 20
5.3324579071
 30
0.0
 10
4.8642894043
 20
5.3884376947
 30
0.0
 10
4.8823313242
 20
5.443616171
 30
0.0
 10
4.9043049124
 20
5.497575095
 30
0.0
 10
4.925849457
 20
5.5411866135
 30
0.0
 10
4.9450075739
 20
5.5750647399
 30
0.0
 10
4.9603371337
 20
5.5999229773
 30
0.0
 10
4.9766147956
 20
5.6241731351
 30
0.0
 10
4.9880903357
 20
5.6399055806
 30
0.0
 10
4.9939794449
 20
5.6476555815
 30
0.0
  0
SPLINE
  5
36D
100
AcDbEntity
  8
ALL_FEATURES
100
AcDbSpline
 62
9
  6
CONTINUOUS
 70
0
 71
3
 72
17
 73
13
 74
0
 42
0.0000001
 43
0.0000001
 44
0.0000000001
 40
0.0
 40
0.0
 40
0.0
 40
0.0
 40
0.0630660365
 40
0.1261306564
 40
0.1891906361
 40
0.2522409309
 40
0.3782502286
 40
0.5040476039
 40
0.6294163196
 40
0.7540760817
 40
0.8777104639
 40
1.0
 40
1.0
 40
1.0
 40
1.0
 10
4.4744991531
 20
5.6476555815
 30
0.0
 10
4.4803882611
 20
5.6399055784
 30
0.0
 10
4.491863806
 20
5.6241731327
 30
0.0
 10
4.5081414683
 20
5.5999229692
 30
0.0
 10
4.5234710314
 20
5.5750647274
 30
0.0
 10
4.542629151
 20
5.5411865936
 30
0.0
 10
4.5641736979
 20
5.4975750658
 30
0.0
 10
4.586147289
 20
5.4436161288
 30
0.0
 10
4.6041892077
 20
5.3884376425
 30
0.0
 10
4.6182496393
 20
5.3324578541
 30
0.0
 10
4.6283119543
 20
5.276109636
 30
0.0
 10
4.6324029247
 20
5.2383393982
 30
0.0
 10
4.6337909884
 20
5.219516248
 30
0.0
  0
SPLINE
  5
36E
100
AcDbEntity
  8
ALL_FEATURES
100
AcDbSpline
 62
9
  6
CONTINUOUS
 70
0
 71
3
 72
15
 73
11
 74
0
 42
0.0000001
 43
0.0000001
 44
0.0000000001
 40
0.0
 40
0.0
 40
0.0
 40
0.0
 40
0.1229327637
 40
0.2469107485
 40
0.3716730001
 40
0.4969640683
 40
0.6225689854
 40
0.7483307154
 40
0.8741556664
 40
1.0
 40
1.0
 40
1.0
 40
1.0
 10
4.6229778616
 20
5.2597072506
 30
0.0
 10
4.6209843889
 20
5.2766230652
 30
0.0
 10
4.6158224175
 20
5.310473541
 30
0.0
 10
4.6045876619
 20
5.3607696138
 30
0.0
 10
4.5898225767
 20
5.4104889446
 30
0.0
 10
4.5715842219
 20
5.4592819211
 30
0.0
 10
4.5499871566
 20
5.5068352896
 30
0.0
 10
4.5251987404
 20
5.552888489
 30
0.0
 10
4.4974265236
 20
5.5972402301
 30
0.0
 10
4.4770563647
 20
5.6255754555
 30
0.0
 10
4.46643754
 20
5.6394052966
 30
0.0
  0
SPLINE
  5
36F
100
AcDbEntity
  8
ALL_FEATURES
100
AcDbSpline
 62
9
  6
CONTINUOUS
 70
0
 71
3
 72
15
 73
11
 74
0
 42
0.0000001
 43
0.0000001
 44
0.0000000001
 40
0.0
 40
0.0
 40
0.0
 40
0.0
 40
0.1258445196
 40
0.2516696296
 40
0.3774315725
 40
0.5030367648
 40
0.6283281496
 40
0.7530902823
 40
0.8770674148
 40
1.0
 40
1.0
 40
1.0
 40
1.0
 10
5.002041058
 20
5.6394052966
 30
0.0
 10
4.9914222174
 20
5.6255754352
 30
0.0
 10
4.9710520313
 20
5.5972401705
 30
0.0
 10
4.9432797767
 20
5.5528883611
 30
0.0
 10
4.9184913437
 20
5.5068350697
 30
0.0
 10
4.8968942216
 20
5.4592816033
 30
0.0
 10
4.878655915
 20
5.410488539
 30
0.0
 10
4.8638908388
 20
5.3607693008
 30
0.0
 10
4.8526561582
 20
5.3104733741
 30
0.0
 10
4.8474942075
 20
5.2766230405
 30
0.0
 10
4.8455007364
 20
5.2597072506
 30
0.0
  0
LINE
  5
370
100
AcDbEntity
  8
ALL_FEATURES
100
AcDbLine
 62
9
  6
CONTINUOUS
 10
4.6540222628
 20
4.9086763531
 11
4.6543697643
 21
4.8876047492
  0
LINE
  5
371
100
AcDbEntity
  8
ALL_FEATURES
100
AcDbLine
 62
9
  6
CONTINUOUS
 10
4.8218783075
 20
4.9093418428
 11
4.8206003983
 21
4.8881684589
  0
LINE
  5
372
100
AcDbEntity
  8
ALL_FEATURES
100
AcDbLine
 62
9
  6
CONTINUOUS
 10
4.7183897059
 20
2.4842926953
 11
4.7189675968
 21
2.4476415473
  0
LINE
  5
373
100
AcDbEntity
  8
ALL_FEATURES
100
AcDbLine
 62
9
  6
CONTINUOUS
 10
4.7182050525
 20
2.5879937408
 11
4.7183897059
 21
2.4842926953
  0
LINE
  5
374
100
AcDbEntity
  8
ALL_FEATURES
100
AcDbLine
 62
9
  6
CONTINUOUS
 10
4.7500888921
 20
2.4842926953
 11
4.7502735455
 21
2.5879937408
  0
SPLINE
  5
375
100
AcDbEntity
  8
ALL_FEATURES
100
AcDbSpline
 62
9
  6
CONTINUOUS
 70
0
 71
3
 72
15
 73
11
 74
0
 42
0.0000001
 43
0.0000001
 44
0.0000000001
 40
0.0
 40
0.0
 40
0.0
 40
0.0
 40
0.1224082
 40
0.2460118038
 40
0.3705685999
 40
0.4958447737
 40
0.6216051802
 40
0.7476440773
 40
0.8738053978
 40
1.0
 40
1.0
 40
1.0
 40
1.0
 10
4.7655569596
 20
2.8802512591
 30
0.0
 10
4.7667980961
 20
2.8961834661
 30
0.0
 10
4.7702272811
 20
2.9281385856
 30
0.0
 10
4.7782140754
 20
2.9758801305
 30
0.0
 10
4.7891158244
 20
3.0234283774
 30
0.0
 10
4.8029410368
 20
3.0705041495
 30
0.0
 10
4.8196639052
 20
3.1168364105
 30
0.0
 10
4.8392168869
 20
3.1621732731
 30
0.0
 10
4.8614820161
 20
3.2063020038
 30
0.0
 10
4.8780148601
 20
3.2348222436
 30
0.0
 10
4.8866625117
 20
3.2488449741
 30
0.0
  0
SPLINE
  5
376
100
AcDbEntity
  8
ALL_FEATURES
100
AcDbSpline
 62
9
  6
CONTINUOUS
 70
0
 71
3
 72
22
 73
18
 74
0
 42
0.0000001
 43
0.0000001
 44
0.0000000001
 40
0.0
 40
0.0
 40
0.0
 40
0.0
 40
0.0804057023
 40
0.1604701752
 40
0.3167694817
 40
0.3919722629
 40
0.4645473479
 40
0.5340480964
 40
0.6000913693
 40
0.6624044115
 40
0.7208039094
 40
0.7752556431
 40
0.8258707652
 40
0.8729804217
 40
0.9171541787
 40
0.9591778086
 40
1.0
 40
1.0
 40
1.0
 40
1.0
 10
4.7182050502
 20
2.5879936121
 30
0.0
 10
4.7169622992
 20
2.5879747114
 30
0.0
 10
4.7144824606
 20
2.5878742239
 30
0.0
 10
4.709604758
 20
2.5874307413
 30
0.0
 10
4.7048445367
 20
2.5866292871
 30
0.0
 10
4.700289449
 20
2.585461209
 30
0.0
 10
4.6970893333
 20
2.584434267
 30
0.0
 10
4.6940930888
 20
2.5832563488
 30
0.0
 10
4.6913305477
 20
2.5819374047
 30
0.0
 10
4.6888279484
 20
2.5804916628
 30
0.0
 10
4.6866102517
 20
2.5789311266
 30
0.0
 10
4.6846981522
 20
2.5772716012
 30
0.0
 10
4.683110856
 20
2.5755270258
 30
0.0
 10
4.6818649343
 20
2.5737123324
 30
0.0
 10
4.6809752648
 20
2.5718427062
 30
0.0
 10
4.6804562908
 20
2.569937957
 30
0.0
 10
4.6803614025
 20
2.5686511024
 30
0.0
 10
4.6803781823
 20
2.5680203045
 30
0.0
  0
SPLINE
  5
377
100
AcDbEntity
  8
ALL_FEATURES
100
AcDbSpline
 62
9
  6
CONTINUOUS
 70
0
 71
3
 72
19
 73
15
 74
0
 42
0.0000001
 43
0.0000001
 44
0.0000000001
 40
0.0
 40
0.0
 40
0.0
 40
0.0
 40
0.1270424714
 40
0.190549857
 40
0.2539081888
 40
0.3171117877
 40
0.3801525766
 40
0.4430071226
 40
0.5056570859
 40
0.5680994469
 40
0.6303368309
 40
0.7540971541
 40
0.8772175434
 40
1.0
 40
1.0
 40
1.0
 40
1.0
 10
4.7183897062
 20
2.4842927135
 30
0.0
 10
4.7160906654
 20
2.4843236883
 30
0.0
 10
4.7126361891
 20
2.4846787237
 30
0.0
 10
4.7081642366
 20
2.4857540716
 30
0.0
 10
4.7049002349
 20
2.4868558165
 30
0.0
 10
4.7017563086
 20
2.4882421958
 30
0.0
 10
4.6987583414
 20
2.4899025778
 30
0.0
 10
4.6959308812
 20
2.4918213969
 30
0.0
 10
4.6932993741
 20
2.4939841736
 30
0.0
 10
4.6908850539
 20
2.4963716023
 30
0.0
 10
4.687990716
 20
2.4998193193
 30
0.0
 10
4.6850055036
 20
2.5045934859
 30
0.0
 10
4.6825723112
 20
2.5108659144
 30
0.0
 10
4.6817734994
 20
2.5152767402
 30
0.0
 10
4.6815871354
 20
2.517491062
 30
0.0
  0
SPLINE
  5
378
100
AcDbEntity
  8
ALL_FEATURES
100
AcDbSpline
 62
9
  6
CONTINUOUS
 70
0
 71
3
 72
19
 73
15
 74
0
 42
0.0000001
 43
0.0000001
 44
0.0000000001
 40
0.0
 40
0.0
 40
0.0
 40
0.0
 40
0.1270424615
 40
0.190549843
 40
0.2539081723
 40
0.3171117702
 40
0.3801525599
 40
0.443007108
 40
0.5056570747
 40
0.5680994397
 40
0.6303368278
 40
0.7540971581
 40
0.8772175488
 40
1.0
 40
1.0
 40
1.0
 40
1.0
 10
4.750088888
 20
2.4842929538
 30
0.0
 10
4.7523879198
 20
2.4843239278
 30
0.0
 10
4.7558423828
 20
2.4846789585
 30
0.0
 10
4.7603143197
 20
2.4857542942
 30
0.0
 10
4.7635783114
 20
2.4868560271
 30
0.0
 10
4.7667222296
 20
2.488242392
 30
0.0
 10
4.7697201908
 20
2.4899027576
 30
0.0
 10
4.7725476475
 20
2.491821559
 30
0.0
 10
4.7751791535
 20
2.4939843168
 30
0.0
 10
4.7775934749
 20
2.496371726
 30
0.0
 10
4.7804878175
 20
2.499819417
 30
0.0
 10
4.783473041
 20
2.5045935515
 30
0.0
 10
4.7859062534
 20
2.5108659448
 30
0.0
 10
4.7867050814
 20
2.5152767503
 30
0.0
 10
4.786891454
 20
2.5174910628
 30
0.0
  0
SPLINE
  5
379
100
AcDbEntity
  8
ALL_FEATURES
100
AcDbSpline
 62
9
  6
CONTINUOUS
 70
0
 71
3
 72
22
 73
18
 74
0
 42
0.0000001
 43
0.0000001
 44
0.0000000001
 40
0.0
 40
0.0
 40
0.0
 40
0.0
 40
0.080405824
 40
0.1604704133
 40
0.3167698982
 40
0.3919727301
 40
0.4645478348
 40
0.5340485714
 40
0.6000918023
 40
0.6624047773
 40
0.7208041895
 40
0.7752558289
 40
0.8258708595
 40
0.8729804398
 40
0.917154149
 40
0.9591777704
 40
1.0
 40
1.0
 40
1.0
 40
1.0
 10
4.7502735455
 20
2.587993742
 30
0.0
 10
4.7515163015
 20
2.5879748413
 30
0.0
 10
4.75399615
 20
2.5878743534
 30
0.0
 10
4.758873871
 20
2.5874308671
 30
0.0
 10
4.7636341088
 20
2.5866294057
 30
0.0
 10
4.7681892099
 20
2.5854613169
 30
0.0
 10
4.7713893325
 20
2.5844343658
 30
0.0
 10
4.7743855812
 20
2.5832564376
 30
0.0
 10
4.7771481237
 20
2.581937483
 30
0.0
 10
4.7796507215
 20
2.5804917302
 30
0.0
 10
4.7818684142
 20
2.5789311829
 30
0.0
 10
4.7837805071
 20
2.5772716467
 30
0.0
 10
4.7853677945
 20
2.5755270607
 30
0.0
 10
4.7866137054
 20
2.5737123572
 30
0.0
 10
4.7875033622
 20
2.5718427215
 30
0.0
 10
4.7880223221
 20
2.5699379634
 30
0.0
 10
4.7881172
 20
2.5686511044
 30
0.0
 10
4.788100415
 20
2.5680203045
 30
0.0
  0
SPLINE
  5
37A
100
AcDbEntity
  8
ALL_FEATURES
100
AcDbSpline
 62
9
  6
CONTINUOUS
 70
0
 71
3
 72
23
 73
19
 74
0
 42
0.0000001
 43
0.0000001
 44
0.0000000001
 40
0.0
 40
0.0
 40
0.0
 40
0.0
 40
0.1795910599
 40
0.3536744108
 40
0.4365911008
 40
0.5157690133
 40
0.5904998821
 40
0.66012697
 40
0.7241041563
 40
0.7819540279
 40
0.8333519413
 40
0.8781151116
 40
0.9163280353
 40
0.9484673767
 40
0.9625993814
 40
0.9756999952
 40
0.9880523982
 40
1.0
 40
1.0
 40
1.0
 40
1.0
 10
4.7655569592
 20
2.8802512665
 30
0.0
 10
4.7680492815
 20
2.8800841115
 30
0.0
 10
4.7729497183
 20
2.879625916
 30
0.0
 10
4.7789604765
 20
2.8787381459
 30
0.0
 10
4.7835511069
 20
2.8778457325
 30
0.0
 10
4.786763026
 20
2.8771121031
 30
0.0
 10
4.789768071
 20
2.87631136
 30
0.0
 10
4.7925360311
 20
2.8754508021
 30
0.0
 10
4.7950396954
 20
2.8745402406
 30
0.0
 10
4.7972546006
 20
2.8735878381
 30
0.0
 10
4.7991599474
 20
2.872604196
 30
0.0
 10
4.8007390373
 20
2.8715976604
 30
0.0
 10
4.8019783719
 20
2.8705768304
 30
0.0
 10
4.8027525333
 20
2.8696797128
 30
0.0
 10
4.8031640446
 20
2.8689609367
 30
0.0
 10
4.8033660112
 20
2.868446265
 30
0.0
 10
4.8034731884
 20
2.8679345866
 30
0.0
 10
4.8034802694
 20
2.8675942691
 30
0.0
 10
4.8034676584
 20
2.8674285698
 30
0.0
  0
SPLINE
  5
37B
100
AcDbEntity
  8
ALL_FEATURES
100
AcDbSpline
 62
9
  6
CONTINUOUS
 70
0
 71
3
 72
23
 73
19
 74
0
 42
0.0000001
 43
0.0000001
 44
0.0000000001
 40
0.0
 40
0.0
 40
0.0
 40
0.0
 40
0.1795910419
 40
0.3536743545
 40
0.4365910228
 40
0.5157689145
 40
0.5904997655
 40
0.6601268404
 40
0.7241040202
 40
0.7819538932
 40
0.8333518168
 40
0.8781150066
 40
0.9163279579
 40
0.948467332
 40
0.9625993525
 40
0.9756999803
 40
0.9880523936
 40
1.0
 40
1.0
 40
1.0
 40
1.0
 10
4.7029216384
 20
2.8802512592
 30
0.0
 10
4.7004293191
 20
2.8800841038
 30
0.0
 10
4.6955288883
 20
2.8796259081
 30
0.0
 10
4.6895181376
 20
2.8787381381
 30
0.0
 10
4.6849275133
 20
2.8778457252
 30
0.0
 10
4.6817155985
 20
2.8771120963
 30
0.0
 10
4.6787105574
 20
2.8763113539
 30
0.0
 10
4.6759426008
 20
2.875450797
 30
0.0
 10
4.6734389394
 20
2.8745402363
 30
0.0
 10
4.6712240365
 20
2.8735878348
 30
0.0
 10
4.6693186913
 20
2.8726041937
 30
0.0
 10
4.6677396022
 20
2.8715976592
 30
0.0
 10
4.6665002675
 20
2.8705768302
 30
0.0
 10
4.6657261053
 20
2.8696797135
 30
0.0
 10
4.6653145928
 20
2.8689609381
 30
0.0
 10
4.665112625
 20
2.868446267
 30
0.0
 10
4.6650054465
 20
2.867934589
 30
0.0
 10
4.6649983644
 20
2.8675942717
 30
0.0
 10
4.6650109748
 20
2.8674285725
 30
0.0
  0
LINE
  5
37C
100
AcDbEntity
  8
ALL_FEATURES
100
AcDbLine
 62
9
  6
CONTINUOUS
 10
4.6466002905
 20
2.5468418428
 11
4.6492189342
 21
2.5889752165
  0
LINE
  5
37D
100
AcDbEntity
  8
ALL_FEATURES
100
AcDbLine
 62
9
  6
CONTINUOUS
 10
4.8192596638
 20
2.5889752165
 11
4.8218783075
 21
2.5468418428
  0
SPLINE
  5
37E
100
AcDbEntity
  8
ALL_FEATURES
100
AcDbSpline
 62
9
  6
CONTINUOUS
 70
0
 71
3
 72
25
 73
21
 74
0
 42
0.0000001
 43
0.0000001
 44
0.0000000001
 40
0.0
 40
0.0
 40
0.0
 40
0.0
 40
0.0106464683
 40
0.0217720754
 40
0.0337751952
 40
0.0469680236
 40
0.0615805278
 40
0.0777700022
 40
0.0956336129
 40
0.1152300864
 40
0.1597178554
 40
0.2112436196
 40
0.2695373928
 40
0.3341979767
 40
0.4046733961
 40
0.480347994
 40
0.5604950648
 40
0.6443380408
 40
0.8198888233
 40
1.0
 40
1.0
 40
1.0
 40
1.0
 10
4.8766801637
 20
2.8865534
 30
0.0
 10
4.8766939798
 20
2.8866737974
 30
0.0
 10
4.8766945151
 20
2.8869239613
 30
0.0
 10
4.8766138045
 20
2.8873023264
 30
0.0
 10
4.8764537432
 20
2.8876857173
 30
0.0
 10
4.8762159319
 20
2.8880731568
 30
0.0
 10
4.8759012756
 20
2.8884641487
 30
0.0
 10
4.8755107323
 20
2.8888581241
 30
0.0
 10
4.8750455218
 20
2.889254655
 30
0.0
 10
4.874294813
 20
2.8898093432
 30
0.0
 10
4.8731685583
 20
2.8904948281
 30
0.0
 10
4.8715968699
 20
2.8912819011
 30
0.0
 10
4.8697670485
 20
2.8920569859
 30
0.0
 10
4.867697613
 20
2.8928110835
 30
0.0
 10
4.865409737
 20
2.8935368985
 30
0.0
 10
4.862927152
 20
2.8942258415
 30
0.0
 10
4.8602760714
 20
2.8948711978
 30
0.0
 10
4.8564953975
 20
2.8956761013
 30
0.0
 10
4.8515618081
 20
2.8965192004
 30
0.0
 10
4.8475412732
 20
2.897008588
 30
0.0
 10
4.8455007364
 20
2.8972072507
 30
0.0
  0
SPLINE
  5
37F
100
AcDbEntity
  8
ALL_FEATURES
100
AcDbSpline
 62
9
  6
CONTINUOUS
 70
0
 71
3
 72
20
 73
16
 74
0
 42
0.0000001
 43
0.0000001
 44
0.0000000001
 40
0.0
 40
0.0
 40
0.0
 40
0.0
 40
0.0382843943
 40
0.0779704976
 40
0.1201670037
 40
0.165749144
 40
0.2153165449
 40
0.269191572
 40
0.3274534012
 40
0.3900253868
 40
0.4566732018
 40
0.5270720903
 40
0.6772481906
 40
0.8365265405
 40
1.0
 40
1.0
 40
1.0
 40
1.0
 10
4.849771878
 20
2.5851198653
 30
0.0
 10
4.8498017347
 20
2.585587196
 30
0.0
 10
4.8497572152
 20
2.5865485622
 30
0.0
 10
4.8493827365
 20
2.587979579
 30
0.0
 10
4.8487067023
 20
2.5893936842
 30
0.0
 10
4.847741346
 20
2.5907762404
 30
0.0
 10
4.84649852
 20
2.5921163437
 30
0.0
 10
4.8449911763
 20
2.593402786
 30
0.0
 10
4.8432343962
 20
2.5946247594
 30
0.0
 10
4.8412446825
 20
2.5957697175
 30
0.0
 10
4.839042005
 20
2.5968279952
 30
0.0
 10
4.8357790418
 20
2.598135888
 30
0.0
 10
4.8313168275
 20
2.5994685771
 30
0.0
 10
4.8256260682
 20
2.6005516687
 30
0.0
 10
4.8216888864
 20
2.6009230402
 30
0.0
 10
4.8196916096
 20
2.6010185502
 30
0.0
  0
SPLINE
  5
380
100
AcDbEntity
  8
ALL_FEATURES
100
AcDbSpline
 62
9
  6
CONTINUOUS
 70
0
 71
3
 72
15
 73
11
 74
0
 42
0.0000001
 43
0.0000001
 44
0.0000000001
 40
0.0
 40
0.0
 40
0.0
 40
0.0
 40
0.1237217919
 40
0.2476964934
 40
0.3719333185
 40
0.4966330717
 40
0.6218273628
 40
0.7474847864
 40
0.8736307283
 40
1.0
 40
1.0
 40
1.0
 40
1.0
 10
4.8490841532
 20
2.5742003574
 30
0.0
 10
4.848976892
 20
2.5724721933
 30
0.0
 10
4.8484457049
 20
2.5690238824
 30
0.0
 10
4.8467310249
 20
2.564080449
 30
0.0
 10
4.844148315
 20
2.5595125539
 30
0.0
 10
4.8407826824
 20
2.5554652852
 30
0.0
 10
4.8367381473
 20
2.5520659084
 30
0.0
 10
4.832142618
 20
2.5494183014
 30
0.0
 10
4.8271418667
 20
2.5476082336
 30
0.0
 10
4.8236402153
 20
2.5469948728
 30
0.0
 10
4.8218783051
 20
2.5468418681
 30
0.0
  0
SPLINE
  5
381
100
AcDbEntity
  8
ALL_FEATURES
100
AcDbSpline
 62
9
  6
CONTINUOUS
 70
0
 71
3
 72
15
 73
11
 74
0
 42
0.0000001
 43
0.0000001
 44
0.0000000001
 40
0.0
 40
0.0
 40
0.0
 40
0.0
 40
0.1237217897
 40
0.2476964916
 40
0.3719333217
 40
0.4966330838
 40
0.6218273818
 40
0.7474848073
 40
0.8736307429
 40
1.0
 40
1.0
 40
1.0
 40
1.0
 10
4.6193944422
 20
2.5742003573
 30
0.0
 10
4.6195017071
 20
2.5724722036
 30
0.0
 10
4.6200329042
 20
2.5690239143
 30
0.0
 10
4.6217476056
 20
2.5640805201
 30
0.0
 10
4.6243303384
 20
2.5595126725
 30
0.0
 10
4.6276959898
 20
2.5554654588
 30
0.0
 10
4.631740534
 20
2.5520661409
 30
0.0
 10
4.6363360596
 20
2.5494185905
 30
0.0
 10
4.6413367938
 20
2.5476085697
 30
0.0
 10
4.6448384269
 20
2.54699523
 30
0.0
 10
4.646600327
 20
2.5468422325
 30
0.0
  0
LINE
  5
382
100
AcDbEntity
  8
ALL_FEATURES
100
AcDbLine
 62
9
  6
CONTINUOUS
 10
4.7495110012
 20
2.4476415473
 11
4.7500888921
 21
2.4842926953
  0
LINE
  5
383
100
AcDbEntity
  8
ALL_FEATURES
100
AcDbLine
 62
9
  6
CONTINUOUS
 10
4.6478781997
 20
2.5256684589
 11
4.6466002905
 21
2.5468418428
  0
SPLINE
  5
384
100
AcDbEntity
  8
ALL_FEATURES
100
AcDbSpline
 62
9
  6
CONTINUOUS
 70
0
 71
3
 72
20
 73
16
 74
0
 42
0.0000001
 43
0.0000001
 44
0.0000000001
 40
0.0
 40
0.0
 40
0.0
 40
0.0
 40
0.0382844054
 40
0.0779704529
 40
0.1201668299
 40
0.1657487756
 40
0.2153159378
 40
0.269190711
 40
0.3274523016
 40
0.390024094
 40
0.4566717835
 40
0.5270706338
 40
0.6772469395
 40
0.8365258274
 40
1.0
 40
1.0
 40
1.0
 40
1.0
 10
4.6187067194
 20
2.5851198653
 30
0.0
 10
4.6186768584
 20
2.5855871977
 30
0.0
 10
4.618721368
 20
2.5865485674
 30
0.0
 10
4.6190958301
 20
2.5879795921
 30
0.0
 10
4.6197718467
 20
2.5893937074
 30
0.0
 10
4.6207371853
 20
2.5907762757
 30
0.0
 10
4.6219799944
 20
2.5921163931
 30
0.0
 10
4.6234873231
 20
2.5934028513
 30
0.0
 10
4.625244091
 20
2.5946248422
 30
0.0
 10
4.6272337965
 20
2.5957698191
 30
0.0
 10
4.6294364705
 20
2.5968281165
 30
0.0
 10
4.632699438
 20
2.5981360369
 30
0.0
 10
4.6371616714
 20
2.5994687576
 30
0.0
 10
4.642852467
 20
2.6005518772
 30
0.0
 10
4.6467896791
 20
2.6009232589
 30
0.0
 10
4.6487869723
 20
2.6010187716
 30
0.0
  0
SPLINE
  5
385
100
AcDbEntity
  8
ALL_FEATURES
100
AcDbSpline
 62
9
  6
CONTINUOUS
 70
0
 71
3
 72
25
 73
21
 74
0
 42
0.0000001
 43
0.0000001
 44
0.0000000001
 40
0.0
 40
0.0
 40
0.0
 40
0.0
 40
0.0106464679
 40
0.0217720742
 40
0.033775193
 40
0.0469680201
 40
0.0615805232
 40
0.0777699965
 40
0.0956336062
 40
0.1152300789
 40
0.1597178467
 40
0.2112436104
 40
0.2695373838
 40
0.3341979684
 40
0.4046733889
 40
0.4803479882
 40
0.5604950605
 40
0.6443380381
 40
0.8198888229
 40
1.0
 40
1.0
 40
1.0
 40
1.0
 10
4.5917984321
 20
2.8865533998
 30
0.0
 10
4.591784616
 20
2.8866737972
 30
0.0
 10
4.5917840806
 20
2.886923961
 30
0.0
 10
4.5918647911
 20
2.8873023261
 30
0.0
 10
4.5920248524
 20
2.8876857171
 30
0.0
 10
4.5922626636
 20
2.8880731567
 30
0.0
 10
4.5925773199
 20
2.8884641485
 30
0.0
 10
4.5929678632
 20
2.888858124
 30
0.0
 10
4.5934330737
 20
2.8892546549
 30
0.0
 10
4.5941837826
 20
2.8898093431
 30
0.0
 10
4.5953100373
 20
2.8904948281
 30
0.0
 10
4.5968817258
 20
2.8912819012
 30
0.0
 10
4.5987115473
 20
2.8920569861
 30
0.0
 10
4.600780983
 20
2.8928110837
 30
0.0
 10
4.6030688592
 20
2.8935368987
 30
0.0
 10
4.6055514445
 20
2.8942258418
 30
0.0
 10
4.6082025253
 20
2.8948711981
 30
0.0
 10
4.6119831996
 20
2.8956761016
 30
0.0
 10
4.6169167894
 20
2.8965192008
 30
0.0
 10
4.6209373247
 20
2.8970085883
 30
0.0
 10
4.6229778617
 20
2.897207251
 30
0.0
  0
SPLINE
  5
386
100
AcDbEntity
  8
ALL_FEATURES
100
AcDbSpline
 62
9
  6
CONTINUOUS
 70
0
 71
3
 72
23
 73
19
 74
0
 42
0.0000001
 43
0.0000001
 44
0.0000000001
 40
0.0
 40
0.0
 40
0.0
 40
0.0
 40
0.1781405013
 40
0.3516097035
 40
0.4344645984
 40
0.5137070091
 40
0.5885995983
 40
0.6584572121
 40
0.7227072224
 40
0.7808466027
 40
0.8325284725
 40
0.8775495708
 40
0.9159786087
 40
0.9482819614
 40
0.9624757523
 40
0.9756259771
 40
0.9880183036
 40
1.0
 40
1.0
 40
1.0
 40
1.0
 10
4.8346876092
 20
2.8570162505
 30
0.0
 10
4.8326527127
 20
2.8571360275
 30
0.0
 10
4.8286419756
 20
2.8574818699
 30
0.0
 10
4.8237167157
 20
2.8581792871
 30
0.0
 10
4.8199430579
 20
2.858892078
 30
0.0
 10
4.8172958508
 20
2.8594830088
 30
0.0
 10
4.8148155505
 20
2.8601316952
 30
0.0
 10
4.8125280397
 20
2.8608320194
 30
0.0
 10
4.8104566702
 20
2.86157568
 30
0.0
 10
4.8086224694
 20
2.8623557683
 30
0.0
 10
4.8070433513
 20
2.8631632545
 30
0.0
 10
4.8057337398
 20
2.8639909917
 30
0.0
 10
4.8047053132
 20
2.8648315841
 30
0.0
 10
4.8040623469
 20
2.8655711665
 30
0.0
 10
4.8037203682
 20
2.8661641859
 30
0.0
 10
4.8035524742
 20
2.866588803
 30
0.0
 10
4.8034632571
 20
2.867011013
 30
0.0
 10
4.8034572297
 20
2.8672918634
 30
0.0
 10
4.8034676337
 20
2.8674285717
 30
0.0
  0
SPLINE
  5
387
100
AcDbEntity
  8
ALL_FEATURES
100
AcDbSpline
 62
9
  6
CONTINUOUS
 70
0
 71
3
 72
23
 73
19
 74
0
 42
0.0000001
 43
0.0000001
 44
0.0000000001
 40
0.0
 40
0.0
 40
0.0
 40
0.0
 40
0.1781405029
 40
0.3516097136
 40
0.4344646139
 40
0.51370703
 40
0.5885996241
 40
0.6584572416
 40
0.722707254
 40
0.7808466344
 40
0.8325285018
 40
0.8775495954
 40
0.9159786264
 40
0.948281971
 40
0.962475758
 40
0.9756259796
 40
0.988018304
 40
1.0
 40
1.0
 40
1.0
 40
1.0
 10
4.6337909885
 20
2.8570162485
 30
0.0
 10
4.6358258858
 20
2.8571360254
 30
0.0
 10
4.6398366245
 20
2.8574818676
 30
0.0
 10
4.6447618865
 20
2.8581792847
 30
0.0
 10
4.6485355459
 20
2.8588920757
 30
0.0
 10
4.6511827542
 20
2.8594830066
 30
0.0
 10
4.6536630556
 20
2.8601316932
 30
0.0
 10
4.6559505674
 20
2.8608320176
 30
0.0
 10
4.6580219377
 20
2.8615756784
 30
0.0
 10
4.6598561392
 20
2.8623557671
 30
0.0
 10
4.6614352578
 20
2.8631632536
 30
0.0
 10
4.6627448696
 20
2.8639909911
 30
0.0
 10
4.6637732963
 20
2.8648315839
 30
0.0
 10
4.6644162624
 20
2.8655711666
 30
0.0
 10
4.6647582409
 20
2.8661641862
 30
0.0
 10
4.6649261346
 20
2.8665888035
 30
0.0
 10
4.6650153515
 20
2.8670110137
 30
0.0
 10
4.6650213785
 20
2.8672918641
 30
0.0
 10
4.6650109745
 20
2.8674285725
 30
0.0
  0
SPLINE
  5
388
100
AcDbEntity
  8
ALL_FEATURES
100
AcDbSpline
 62
9
  6
CONTINUOUS
 70
0
 71
3
 72
21
 73
17
 74
0
 42
0.0000001
 43
0.0000001
 44
0.0000000001
 40
0.0
 40
0.0
 40
0.0
 40
0.0
 40
0.1673026936
 40
0.3306893851
 40
0.4091399236
 40
0.4845783859
 40
0.5564103283
 40
0.6241027096
 40
0.687239435
 40
0.7454930913
 40
0.7987028683
 40
0.8468733234
 40
0.8902822838
 40
0.9295444979
 40
0.9656578201
 40
1.0
 40
1.0
 40
1.0
 40
1.0
 10
4.6445323961
 20
2.6771570013
 30
0.0
 10
4.6465714051
 20
2.6771986751
 30
0.0
 10
4.6506000265
 20
2.6774483658
 30
0.0
 10
4.6555416631
 20
2.6781707146
 30
0.0
 10
4.6593220294
 20
2.6789937634
 30
0.0
 10
4.6619797856
 20
2.679710772
 30
0.0
 10
4.6644710851
 20
2.6805276261
 30
0.0
 10
4.6667698764
 20
2.6814369337
 30
0.0
 10
4.6688530413
 20
2.6824281447
 30
0.0
 10
4.6706991478
 20
2.6834925152
 30
0.0
 10
4.6722903126
 20
2.6846185385
 30
0.0
 10
4.6736106983
 20
2.6857966151
 30
0.0
 10
4.6746469089
 20
2.6870172483
 30
0.0
 10
4.6753865542
 20
2.6882723687
 30
0.0
 10
4.6758149463
 20
2.6895507689
 30
0.0
 10
4.6758862334
 20
2.6904172458
 30
0.0
 10
4.6758666358
 20
2.6908354211
 30
0.0
  0
SPLINE
  5
389
100
AcDbEntity
  8
ALL_FEATURES
100
AcDbSpline
 62
9
  6
CONTINUOUS
 70
0
 71
3
 72
20
 73
16
 74
0
 42
0.0000001
 43
0.0000001
 44
0.0000000001
 40
0.0
 40
0.0
 40
0.0
 40
0.0
 40
0.163743995
 40
0.323024442
 40
0.4730352035
 40
0.5433211689
 40
0.6098536126
 40
0.6723201604
 40
0.7304984321
 40
0.7843219459
 40
0.8338784638
 40
0.8794952193
 40
0.9217715095
 40
0.9615752261
 40
1.0
 40
1.0
 40
1.0
 40
1.0
 10
4.6487869938
 20
2.6010182455
 30
0.0
 10
4.6507676237
 20
2.6010674482
 30
0.0
 10
4.654673023
 20
2.6013440154
 30
0.0
 10
4.6603273917
 20
2.6022818807
 30
0.0
 10
4.6647683379
 20
2.6034937851
 30
0.0
 10
4.6680214209
 20
2.6047088743
 30
0.0
 10
4.6702208189
 20
2.6057021588
 30
0.0
 10
4.6722119951
 20
2.6067862269
 30
0.0
 10
4.6739753425
 20
2.6079521686
 30
0.0
 10
4.6754945432
 20
2.6091881928
 30
0.0
 10
4.6767546797
 20
2.6104841548
 30
0.0
 10
4.6777428748
 20
2.6118294494
 30
0.0
 10
4.6784473236
 20
2.6132136987
 30
0.0
 10
4.6788558063
 20
2.6146228786
 30
0.0
 10
4.6789268032
 20
2.6155752227
 30
0.0
 10
4.6789107508
 20
2.6160398709
 30
0.0
  0
SPLINE
  5
38A
100
AcDbEntity
  8
ALL_FEATURES
100
AcDbSpline
 62
9
  6
CONTINUOUS
 70
0
 71
3
 72
25
 73
21
 74
0
 42
0.0000001
 43
0.0000001
 44
0.0000000001
 40
0.0
 40
0.0
 40
0.0
 40
0.0
 40
0.1885526803
 40
0.370571996
 40
0.4568887507
 40
0.5389968563
 40
0.6161117207
 40
0.6874914891
 40
0.7524962044
 40
0.8105325276
 40
0.8611327611
 40
0.9039180735
 40
0.9223147024
 40
0.9387083504
 40
0.9531178903
 40
0.9655925665
 40
0.9762416454
 40
0.9852654789
 40
0.9930038868
 40
1.0
 40
1.0
 40
1.0
 40
1.0
 10
4.6492189114
 20
2.5889753623
 30
0.0
 10
4.6511948693
 20
2.5890311662
 30
0.0
 10
4.6550769563
 20
2.589196439
 30
0.0
 10
4.6598553439
 20
2.5895404377
 30
0.0
 10
4.6635121997
 20
2.5898965
 30
0.0
 10
4.6660694666
 20
2.5901925321
 30
0.0
 10
4.6684650987
 20
2.5905190106
 30
0.0
 10
4.6706754555
 20
2.5908729782
 30
0.0
 10
4.672678789
 20
2.5912503197
 30
0.0
 10
4.674455835
 20
2.5916474621
 30
0.0
 10
4.6759893427
 20
2.5920598294
 30
0.0
 10
4.6771029789
 20
2.5924283896
 30
0.0
 10
4.6778568681
 20
2.5927342697
 30
0.0
 10
4.6783241553
 20
2.5929533629
 30
0.0
 10
4.6787215009
 20
2.5931732949
 30
0.0
 10
4.6790481594
 20
2.593393887
 30
0.0
 10
4.6793038509
 20
2.5936150773
 30
0.0
 10
4.6794885483
 20
2.5938375797
 30
0.0
 10
4.6796009611
 20
2.594063085
 30
0.0
 10
4.6796243064
 20
2.5942192537
 30
0.0
 10
4.6796220348
 20
2.5942925643
 30
0.0
  0
SPLINE
  5
38B
100
AcDbEntity
  8
ALL_FEATURES
100
AcDbSpline
 62
9
  6
CONTINUOUS
 70
0
 71
3
 72
20
 73
16
 74
0
 42
0.0000001
 43
0.0000001
 44
0.0000000001
 40
0.0
 40
0.0
 40
0.0
 40
0.0
 40
0.1261087159
 40
0.1892148831
 40
0.2522169417
 40
0.3777934134
 40
0.4404832731
 40
0.5030705706
 40
0.5655462726
 40
0.6279084309
 40
0.7521930641
 40
0.8142296021
 40
0.87619053
 40
0.9381067074
 40
1.0
 40
1.0
 40
1.0
 40
1.0
 10
4.6540222641
 20
2.5461763686
 30
0.0
 10
4.6556457489
 20
2.5460446388
 30
0.0
 10
4.6580714258
 20
2.5456502684
 30
0.0
 10
4.6612041857
 20
2.5447476592
 30
0.0
 10
4.6642480145
 20
2.5435981226
 30
0.0
 10
4.6671392046
 20
2.5420872666
 30
0.0
 10
4.6698094475
 20
2.5402473572
 30
0.0
 10
4.6716907617
 20
2.5387128254
 30
0.0
 10
4.6734381606
 20
2.5370333625
 30
0.0
 10
4.6755690396
 20
2.5346188092
 30
0.0
 10
4.6773935953
 20
2.5319542365
 30
0.0
 10
4.6788644181
 20
2.5291014872
 30
0.0
 10
4.6797858752
 20
2.5268808675
 30
0.0
 10
4.6805192359
 20
2.5245935354
 30
0.0
 10
4.6808788545
 20
2.5230331064
 30
0.0
 10
4.6810259005
 20
2.5222473329
 30
0.0
  0
SPLINE
  5
38C
100
AcDbEntity
  8
ALL_FEATURES
100
AcDbSpline
 62
9
  6
CONTINUOUS
 70
0
 71
3
 72
20
 73
16
 74
0
 42
0.0000001
 43
0.0000001
 44
0.0000000001
 40
0.0
 40
0.0
 40
0.0
 40
0.0
 40
0.1261087302
 40
0.1892149055
 40
0.2522169693
 40
0.3777934422
 40
0.4404833006
 40
0.5030705955
 40
0.5655462937
 40
0.6279084468
 40
0.7521930688
 40
0.8142296025
 40
0.8761905279
 40
0.9381067052
 40
1.0
 40
1.0
 40
1.0
 40
1.0
 10
4.8144563178
 20
2.5461765573
 30
0.0
 10
4.8128328339
 20
2.5460448258
 30
0.0
 10
4.8104071588
 20
2.5456504503
 30
0.0
 10
4.807274404
 20
2.5447478295
 30
0.0
 10
4.8042305826
 20
2.5435982783
 30
0.0
 10
4.8013394038
 20
2.5420874043
 30
0.0
 10
4.7986691772
 20
2.5402474749
 30
0.0
 10
4.7967878778
 20
2.5387129276
 30
0.0
 10
4.7950404961
 20
2.5370334493
 30
0.0
 10
4.7929096433
 20
2.5346188758
 30
0.0
 10
4.7910851185
 20
2.5319542845
 30
0.0
 10
4.7896143305
 20
2.5291015199
 30
0.0
 10
4.7886929009
 20
2.5268808905
 30
0.0
 10
4.787959569
 20
2.5245935507
 30
0.0
 10
4.7875999703
 20
2.5230331182
 30
0.0
 10
4.7874529344
 20
2.5222473433
 30
0.0
  0
SPLINE
  5
38D
100
AcDbEntity
  8
ALL_FEATURES
100
AcDbSpline
 62
9
  6
CONTINUOUS
 70
0
 71
3
 72
25
 73
21
 74
0
 42
0.0000001
 43
0.0000001
 44
0.0000000001
 40
0.0
 40
0.0
 40
0.0
 40
0.0
 40
0.1885541965
 40
0.3705749157
 40
0.4568923381
 40
0.5390010809
 40
0.6161165366
 40
0.6874968274
 40
0.7525019636
 40
0.8105385656
 40
0.8611388832
 40
0.9039240168
 40
0.9223204276
 40
0.9387137527
 40
0.9531228446
 40
0.9655969214
 40
0.9762452191
 40
0.9852680599
 40
0.9930052558
 40
1.0
 40
1.0
 40
1.0
 40
1.0
 10
4.819259631
 20
2.5889761195
 30
0.0
 10
4.8172836517
 20
2.5890318896
 30
0.0
 10
4.8134015223
 20
2.5891971053
 30
0.0
 10
4.8086230816
 20
2.5895410464
 30
0.0
 10
4.8049661846
 20
2.5898970659
 30
0.0
 10
4.802408888
 20
2.5901930672
 30
0.0
 10
4.8000132275
 20
2.5905195143
 30
0.0
 10
4.7978028439
 20
2.5908734487
 30
0.0
 10
4.7957994858
 20
2.5912507543
 30
0.0
 10
4.7940224182
 20
2.5916478566
 30
0.0
 10
4.7924888927
 20
2.5920601788
 30
0.0
 10
4.7913752429
 20
2.5924286952
 30
0.0
 10
4.7906213441
 20
2.5927345362
 30
0.0
 10
4.790154053
 20
2.5929535992
 30
0.0
 10
4.7897567048
 20
2.5931734989
 30
0.0
 10
4.7894300452
 20
2.5933940565
 30
0.0
 10
4.7891743538
 20
2.5936152097
 30
0.0
 10
4.7889896571
 20
2.5938376727
 30
0.0
 10
4.7888772448
 20
2.5940631373
 30
0.0
 10
4.788853901
 20
2.5942192801
 30
0.0
 10
4.7888561743
 20
2.5942925764
 30
0.0
  0
SPLINE
  5
38E
100
AcDbEntity
  8
ALL_FEATURES
100
AcDbSpline
 62
9
  6
CONTINUOUS
 70
0
 71
3
 72
20
 73
16
 74
0
 42
0.0000001
 43
0.0000001
 44
0.0000000001
 40
0.0
 40
0.0
 40
0.0
 40
0.0
 40
0.1637440954
 40
0.32302462
 40
0.4730355511
 40
0.5433216566
 40
0.6098542802
 40
0.6723210426
 40
0.7304995477
 40
0.7843232848
 40
0.833879969
 40
0.8794967653
 40
0.9217728812
 40
0.9615761088
 40
1.0
 40
1.0
 40
1.0
 40
1.0
 10
4.8196916306
 20
2.6010188735
 30
0.0
 10
4.8177110409
 20
2.6010680512
 30
0.0
 10
4.8138057189
 20
2.6013445752
 30
0.0
 10
4.8081514596
 20
2.6022823868
 30
0.0
 10
4.8037105976
 20
2.6034942472
 30
0.0
 10
4.8004575723
 20
2.6047092973
 30
0.0
 10
4.7982582093
 20
2.6057025508
 30
0.0
 10
4.7962670606
 20
2.6067865846
 30
0.0
 10
4.794503732
 20
2.6079524878
 30
0.0
 10
4.7929845405
 20
2.609188469
 30
0.0
 10
4.7917244022
 20
2.6104843826
 30
0.0
 10
4.7907361935
 20
2.6118296231
 30
0.0
 10
4.790031718
 20
2.6132138126
 30
0.0
 10
4.7896231944
 20
2.6146229282
 30
0.0
 10
4.7895521606
 20
2.6155752325
 30
0.0
 10
4.7895681936
 20
2.6160398608
 30
0.0
  0
SPLINE
  5
38F
100
AcDbEntity
  8
ALL_FEATURES
100
AcDbSpline
 62
9
  6
CONTINUOUS
 70
0
 71
3
 72
21
 73
17
 74
0
 42
0.0000001
 43
0.0000001
 44
0.0000000001
 40
0.0
 40
0.0
 40
0.0
 40
0.0
 40
0.1673027351
 40
0.3306894651
 40
0.4091400187
 40
0.4845784916
 40
0.5564104393
 40
0.6241028201
 40
0.6872395387
 40
0.7454931822
 40
0.7987029408
 40
0.8468733738
 40
0.890282311
 40
0.929544505
 40
0.965657816
 40
1.0
 40
1.0
 40
1.0
 40
1.0
 10
4.8239462035
 20
2.6771569888
 30
0.0
 10
4.8219071928
 20
2.677198662
 30
0.0
 10
4.8178785678
 20
2.6774483518
 30
0.0
 10
4.8129369269
 20
2.6781707006
 30
0.0
 10
4.8091565574
 20
2.6789937499
 30
0.0
 10
4.8064987991
 20
2.679710759
 30
0.0
 10
4.804007498
 20
2.680527614
 30
0.0
 10
4.8017087055
 20
2.6814369226
 30
0.0
 10
4.7996255398
 20
2.6824281347
 30
0.0
 10
4.7977794331
 20
2.6834925066
 30
0.0
 10
4.7961882685
 20
2.6846185312
 30
0.0
 10
4.7948678837
 20
2.6857966093
 30
0.0
 10
4.7938316744
 20
2.687017244
 30
0.0
 10
4.7930920312
 20
2.688272366
 30
0.0
 10
4.7926636418
 20
2.6895507677
 30
0.0
 10
4.792592357
 20
2.6904172452
 30
0.0
 10
4.7926119558
 20
2.6908354208
 30
0.0
  0
LINE
  5
390
100
AcDbEntity
  8
ALL_FEATURES
100
AcDbLine
 62
9
  6
CONTINUOUS
 10
4.8141088337
 20
2.5251047492
 11
4.8144563352
 21
2.5461763531
  0
SPLINE
  5
391
100
AcDbEntity
  8
ALL_FEATURES
100
AcDbSpline
 62
9
  6
CONTINUOUS
 70
0
 71
3
 72
15
 73
11
 74
0
 42
0.0000001
 43
0.0000001
 44
0.0000000001
 40
0.0
 40
0.0
 40
0.0
 40
0.0
 40
0.126194615
 40
0.2523559451
 40
0.3783948504
 40
0.5041552706
 40
0.6294314562
 40
0.7539882605
 40
0.8775918292
 40
1.0
 40
1.0
 40
1.0
 40
1.0
 10
4.5818160863
 20
3.2488449741
 30
0.0
 10
4.5904637389
 20
3.2348222422
 30
0.0
 10
4.6069965839
 20
3.2063019997
 30
0.0
 10
4.6292617148
 20
3.1621732654
 30
0.0
 10
4.6488146965
 20
3.1168363982
 30
0.0
 10
4.6655375651
 20
3.0705041326
 30
0.0
 10
4.6793627783
 20
3.0234283564
 30
0.0
 10
4.6902645256
 20
2.9758801105
 30
0.0
 10
4.6982513078
 20
2.9281385729
 30
0.0
 10
4.70168054
 20
2.8961834652
 30
0.0
 10
4.7029216384
 20
2.8802512591
 30
0.0
  0
SPLINE
  5
392
100
AcDbEntity
  8
ALL_FEATURES
100
AcDbSpline
 62
9
  6
CONTINUOUS
 70
0
 71
3
 72
17
 73
13
 74
0
 42
0.0000001
 43
0.0000001
 44
0.0000000001
 40
0.0
 40
0.0
 40
0.0
 40
0.0
 40
0.1222896365
 40
0.2459240459
 40
0.3705838077
 40
0.4959524883
 40
0.6217498396
 40
0.747759112
 40
0.8108093951
 40
0.8738693631
 40
0.9369339702
 40
1.0
 40
1.0
 40
1.0
 40
1.0
 10
4.8346876096
 20
2.857016248
 30
0.0
 10
4.8360756782
 20
2.8758394133
 30
0.0
 10
4.8401666535
 20
2.9136096703
 30
0.0
 10
4.8502289753
 20
2.9699579071
 30
0.0
 10
4.8642894043
 20
3.0259376947
 30
0.0
 10
4.8823313242
 20
3.081116171
 30
0.0
 10
4.9043049124
 20
3.135075095
 30
0.0
 10
4.925849457
 20
3.1786866135
 30
0.0
 10
4.9450075739
 20
3.2125647399
 30
0.0
 10
4.9603371337
 20
3.2374229773
 30
0.0
 10
4.9766147956
 20
3.2616731351
 30
0.0
 10
4.9880903357
 20
3.2774055806
 30
0.0
 10
4.9939794449
 20
3.2851555815
 30
0.0
  0
SPLINE
  5
393
100
AcDbEntity
  8
ALL_FEATURES
100
AcDbSpline
 62
9
  6
CONTINUOUS
 70
0
 71
3
 72
17
 73
13
 74
0
 42
0.0000001
 43
0.0000001
 44
0.0000000001
 40
0.0
 40
0.0
 40
0.0
 40
0.0
 40
0.0630660365
 40
0.1261306564
 40
0.1891906361
 40
0.2522409309
 40
0.3782502286
 40
0.5040476039
 40
0.6294163196
 40
0.7540760817
 40
0.8777104639
 40
1.0
 40
1.0
 40
1.0
 40
1.0
 10
4.4744991531
 20
3.2851555815
 30
0.0
 10
4.4803882611
 20
3.2774055784
 30
0.0
 10
4.491863806
 20
3.2616731327
 30
0.0
 10
4.5081414683
 20
3.2374229692
 30
0.0
 10
4.5234710314
 20
3.2125647274
 30
0.0
 10
4.542629151
 20
3.1786865936
 30
0.0
 10
4.5641736979
 20
3.1350750658
 30
0.0
 10
4.586147289
 20
3.0811161288
 30
0.0
 10
4.6041892077
 20
3.0259376425
 30
0.0
 10
4.6182496393
 20
2.9699578541
 30
0.0
 10
4.6283119543
 20
2.913609636
 30
0.0
 10
4.6324029247
 20
2.8758393982
 30
0.0
 10
4.6337909884
 20
2.857016248
 30
0.0
  0
SPLINE
  5
394
100
AcDbEntity
  8
ALL_FEATURES
100
AcDbSpline
 62
9
  6
CONTINUOUS
 70
0
 71
3
 72
15
 73
11
 74
0
 42
0.0000001
 43
0.0000001
 44
0.0000000001
 40
0.0
 40
0.0
 40
0.0
 40
0.0
 40
0.1229327637
 40
0.2469107485
 40
0.3716730001
 40
0.4969640683
 40
0.6225689854
 40
0.7483307154
 40
0.8741556664
 40
1.0
 40
1.0
 40
1.0
 40
1.0
 10
4.6229778616
 20
2.8972072506
 30
0.0
 10
4.6209843889
 20
2.9141230652
 30
0.0
 10
4.6158224175
 20
2.947973541
 30
0.0
 10
4.6045876619
 20
2.9982696138
 30
0.0
 10
4.5898225767
 20
3.0479889446
 30
0.0
 10
4.5715842219
 20
3.0967819211
 30
0.0
 10
4.5499871566
 20
3.1443352896
 30
0.0
 10
4.5251987404
 20
3.190388489
 30
0.0
 10
4.4974265236
 20
3.2347402301
 30
0.0
 10
4.4770563647
 20
3.2630754555
 30
0.0
 10
4.46643754
 20
3.2769052966
 30
0.0
  0
SPLINE
  5
395
100
AcDbEntity
  8
ALL_FEATURES
100
AcDbSpline
 62
9
  6
CONTINUOUS
 70
0
 71
3
 72
15
 73
11
 74
0
 42
0.0000001
 43
0.0000001
 44
0.0000000001
 40
0.0
 40
0.0
 40
0.0
 40
0.0
 40
0.1258445196
 40
0.2516696296
 40
0.3774315725
 40
0.5030367648
 40
0.6283281496
 40
0.7530902823
 40
0.8770674148
 40
1.0
 40
1.0
 40
1.0
 40
1.0
 10
5.002041058
 20
3.2769052966
 30
0.0
 10
4.9914222174
 20
3.2630754352
 30
0.0
 10
4.9710520313
 20
3.2347401705
 30
0.0
 10
4.9432797767
 20
3.1903883611
 30
0.0
 10
4.9184913437
 20
3.1443350697
 30
0.0
 10
4.8968942216
 20
3.0967816033
 30
0.0
 10
4.878655915
 20
3.047988539
 30
0.0
 10
4.8638908388
 20
2.9982693008
 30
0.0
 10
4.8526561582
 20
2.9479733741
 30
0.0
 10
4.8474942075
 20
2.9141230405
 30
0.0
 10
4.8455007364
 20
2.8972072506
 30
0.0
  0
LINE
  5
396
100
AcDbEntity
  8
ALL_FEATURES
100
AcDbLine
 62
9
  6
CONTINUOUS
 10
4.6540222628
 20
2.5461763531
 11
4.6543697643
 21
2.5251047492
  0
LINE
  5
397
100
AcDbEntity
  8
ALL_FEATURES
100
AcDbLine
 62
9
  6
CONTINUOUS
 10
4.8218783075
 20
2.5468418428
 11
4.8206003983
 21
2.5256684589
  0
SPLINE
  5
398
100
AcDbEntity
  8
0
100
AcDbSpline
 62
7
  6
CONTINUOUS
 70
0
 71
3
 72
9
 73
5
 74
0
 42
0.0000001
 43
0.0000001
 44
0.0000000001
 40
0.0
 40
0.0
 40
0.0
 40
0.0
 40
0.7498483498
 40
1.0
 40
1.0
 40
1.0
 40
1.0
 10
4.7536924494
 20
4.2532773018
 30
0.0
 10
4.7528430235
 20
4.2517347348
 30
0.0
 10
4.751623291
 20
4.2497226706
 30
0.0
 10
4.7502769031
 20
4.247798156
 30
0.0
 10
4.7499318801
 20
4.247322681
 30
0.0
  0
SPLINE
  5
399
100
AcDbEntity
  8
0
100
AcDbSpline
 62
7
  6
CONTINUOUS
 70
0
 71
3
 72
9
 73
5
 74
0
 42
0.0000001
 43
0.0000001
 44
0.0000000001
 40
0.0
 40
0.0
 40
0.0
 40
0.0
 40
0.4999867936
 40
1.0
 40
1.0
 40
1.0
 40
1.0
 10
4.7499318801
 20
4.247322681
 30
0.0
 10
4.7488043659
 20
4.2457688581
 30
0.0
 10
4.7463708064
 20
4.2427856761
 30
0.0
 10
4.7435645356
 20
4.2401433261
 30
0.0
 10
4.74207213
 20
4.2389355313
 30
0.0
  0
SPLINE
  5
39A
100
AcDbEntity
  8
0
100
AcDbSpline
 62
7
  6
CONTINUOUS
 70
0
 71
3
 72
9
 73
5
 74
0
 42
0.0000001
 43
0.0000001
 44
0.0000000001
 40
0.0
 40
0.0
 40
0.0
 40
0.0
 40
0.2503922044
 40
1.0
 40
1.0
 40
1.0
 40
1.0
 10
4.74207213
 20
4.2389355313
 30
0.0
 10
4.7414720673
 20
4.2384499042
 30
0.0
 10
4.7390179205
 20
4.2365830423
 30
0.0
 10
4.7363362352
 20
4.2350131975
 30
0.0
 10
4.734239299
 20
4.2340417763
 30
0.0
  0
SPLINE
  5
39B
100
AcDbEntity
  8
0
100
AcDbSpline
 62
7
  6
CONTINUOUS
 70
0
 71
3
 72
11
 73
7
 74
0
 42
0.0000001
 43
0.0000001
 44
0.0000000001
 40
0.0
 40
0.0
 40
0.0
 40
0.0
 40
0.270070949
 40
0.5241975358
 40
0.7660998929
 40
1.0
 40
1.0
 40
1.0
 40
1.0
 10
4.7663745305
 20
4.3077249263
 30
0.0
 10
4.7663745278
 20
4.3026412575
 30
0.0
 10
4.765890547
 20
4.2927636694
 30
0.0
 10
4.7635314998
 20
4.2785019623
 30
0.0
 10
4.7595681382
 20
4.2653055577
 30
0.0
 10
4.7558161789
 20
4.2571339159
 30
0.0
 10
4.7536924476
 20
4.2532771701
 30
0.0
  0
SPLINE
  5
39C
100
AcDbEntity
  8
0
100
AcDbSpline
 62
7
  6
CONTINUOUS
 70
0
 71
3
 72
12
 73
8
 74
0
 42
0.0000001
 43
0.0000001
 44
0.0000000001
 40
0.0
 40
0.0
 40
0.0
 40
0.0
 40
0.1250645191
 40
0.2501451046
 40
0.5000465681
 40
0.7499999568
 40
1.0
 40
1.0
 40
1.0
 40
1.0
 10
4.7899440952
 20
4.2513512393
 30
0.0
 10
4.7886336814
 20
4.253308995
 30
0.0
 10
4.7862093753
 20
4.2573604073
 30
0.0
 10
4.7821673955
 20
4.2658813425
 30
0.0
 10
4.7785785603
 20
4.2771555043
 30
0.0
 10
4.7763056343
 20
4.2911334444
 30
0.0
 10
4.7758763095
 20
4.3005605695
 30
0.0
 10
4.7758763095
 20
4.3052698236
 30
0.0
  0
SPLINE
  5
39D
100
AcDbEntity
  8
0
100
AcDbSpline
 62
7
  6
CONTINUOUS
 70
0
 71
3
 72
9
 73
5
 74
0
 42
0.0000001
 43
0.0000001
 44
0.0000000001
 40
0.0
 40
0.0
 40
0.0
 40
0.0
 40
0.2503557688
 40
1.0
 40
1.0
 40
1.0
 40
1.0
 10
4.820258873
 20
4.2306442827
 30
0.0
 10
4.8194804001
 20
4.2307411085
 30
0.0
 10
4.8163834432
 20
4.2312200077
 30
0.0
 10
4.8133422145
 20
4.2320776032
 30
0.0
 10
4.8111573875
 20
4.232940227
 30
0.0
  0
SPLINE
  5
39E
100
AcDbEntity
  8
0
100
AcDbSpline
 62
7
  6
CONTINUOUS
 70
0
 71
3
 72
9
 73
5
 74
0
 42
0.0000001
 43
0.0000001
 44
0.0000000001
 40
0.0
 40
0.0
 40
0.0
 40
0.0
 40
0.2501395616
 40
1.0
 40
1.0
 40
1.0
 40
1.0
 10
4.8111573875
 20
4.232940227
 30
0.0
 10
4.8104307957
 20
4.2332271035
 30
0.0
 10
4.8075650509
 20
4.2344717713
 30
0.0
 10
4.8048640234
 20
4.2360850668
 30
0.0
 10
4.8029602018
 20
4.2374486645
 30
0.0
  0
SPLINE
  5
39F
100
AcDbEntity
  8
0
100
AcDbSpline
 62
7
  6
CONTINUOUS
 70
0
 71
3
 72
9
 73
5
 74
0
 42
0.0000001
 43
0.0000001
 44
0.0000000001
 40
0.0
 40
0.0
 40
0.0
 40
0.0
 40
0.5004454543
 40
1.0
 40
1.0
 40
1.0
 40
1.0
 10
4.8029602018
 20
4.2374486645
 30
0.0
 10
4.8010351005
 20
4.2388275035
 30
0.0
 10
4.7974168024
 20
4.2419125065
 30
0.0
 10
4.7942895212
 20
4.2454819294
 30
0.0
 10
4.7928352517
 20
4.2473453579
 30
0.0
  0
LINE
  5
3A0
100
AcDbEntity
  8
0
100
AcDbLine
 62
7
  6
CONTINUOUS
 10
4.7928352517
 20
4.2473453579
 11
4.7899440952
 21
4.2513512393
  0
SPLINE
  5
3A1
100
AcDbEntity
  8
0
100
AcDbSpline
 62
7
  6
CONTINUOUS
 70
0
 71
3
 72
9
 73
5
 74
0
 42
0.0000001
 43
0.0000001
 44
0.0000000001
 40
0.0
 40
0.0
 40
0.0
 40
0.0
 40
0.7498408641
 40
1.0
 40
1.0
 40
1.0
 40
1.0
 10
4.8625890794
 20
4.2532720681
 30
0.0
 10
4.8617368923
 20
4.2517245335
 30
0.0
 10
4.8605129566
 20
4.249706072
 30
0.0
 10
4.8591614244
 20
4.2477758721
 30
0.0
 10
4.8588150407
 20
4.2472990129
 30
0.0
  0
SPLINE
  5
3A2
100
AcDbEntity
  8
0
100
AcDbSpline
 62
7
  6
CONTINUOUS
 70
0
 71
3
 72
9
 73
5
 74
0
 42
0.0000001
 43
0.0000001
 44
0.0000000001
 40
0.0
 40
0.0
 40
0.0
 40
0.0
 40
0.5000572727
 40
1.0
 40
1.0
 40
1.0
 40
1.0
 10
4.8588150407
 20
4.2472990129
 30
0.0
 10
4.8576732278
 20
4.2457271028
 30
0.0
 10
4.8552066562
 20
4.2427115724
 30
0.0
 10
4.8523587148
 20
4.2400462633
 30
0.0
 10
4.8508438982
 20
4.2388304344
 30
0.0
  0
SPLINE
  5
3A3
100
AcDbEntity
  8
0
100
AcDbSpline
 62
7
  6
CONTINUOUS
 70
0
 71
3
 72
9
 73
5
 74
0
 42
0.0000001
 43
0.0000001
 44
0.0000000001
 40
0.0
 40
0.0
 40
0.0
 40
0.0
 40
0.2502064002
 40
1.0
 40
1.0
 40
1.0
 40
1.0
 10
4.8508438982
 20
4.2388304344
 30
0.0
 10
4.8502453706
 20
4.2383500414
 30
0.0
 10
4.8477963598
 20
4.2365022182
 30
0.0
 10
4.8451223623
 20
4.2349508973
 30
0.0
 10
4.8430326812
 20
4.2339903283
 30
0.0
  0
SPLINE
  5
3A4
100
AcDbEntity
  8
0
100
AcDbSpline
 62
7
  6
CONTINUOUS
 70
0
 71
3
 72
9
 73
5
 74
0
 42
0.0000001
 43
0.0000001
 44
0.0000000001
 40
0.0
 40
0.0
 40
0.0
 40
0.0
 40
0.499979557
 40
1.0
 40
1.0
 40
1.0
 40
1.0
 10
4.8430326812
 20
4.2339903283
 30
0.0
 10
4.8404464476
 20
4.2328015078
 30
0.0
 10
4.834979189
 20
4.2310267812
 30
0.0
 10
4.8292828898
 20
4.2304203682
 30
0.0
 10
4.8264370609
 20
4.2303534268
 30
0.0
  0
SPLINE
  5
3A5
100
AcDbEntity
  8
0
100
AcDbSpline
 62
7
  6
CONTINUOUS
 70
0
 71
3
 72
11
 73
7
 74
0
 42
0.0000001
 43
0.0000001
 44
0.0000000001
 40
0.0
 40
0.0
 40
0.0
 40
0.0
 40
0.249805003
 40
0.4998646891
 40
0.7502275112
 40
1.0
 40
1.0
 40
1.0
 40
1.0
 10
4.8752713321
 20
4.3077195382
 30
0.0
 10
4.8752713321
 20
4.303017499
 30
0.0
 10
4.8748475519
 20
4.2936008614
 30
0.0
 10
4.8726861572
 20
4.2796122358
 30
0.0
 10
4.868745682
 20
4.2660099966
 30
0.0
 10
4.864856916
 20
4.2573903608
 30
0.0
 10
4.8625890794
 20
4.2532720681
 30
0.0
  0
LINE
  5
3A6
100
AcDbEntity
  8
0
100
AcDbLine
 62
7
  6
CONTINUOUS
 10
5.2092517445
 20
4.0632115716
 11
5.2236150779
 21
4.0511593039
  0
SPLINE
  5
3A7
100
AcDbEntity
  8
0
100
AcDbSpline
 62
7
  6
CONTINUOUS
 70
0
 71
3
 72
14
 73
10
 74
0
 42
0.0000001
 43
0.0000001
 44
0.0000000001
 40
0.0
 40
0.0
 40
0.0
 40
0.0
 40
0.2496081755
 40
0.3746465198
 40
0.4997644365
 40
0.6248543935
 40
0.7499305317
 40
0.8750814968
 40
1.0
 40
1.0
 40
1.0
 40
1.0
 10
5.4394036754
 20
3.7803219384
 30
0.0
 10
5.4404389227
 20
3.7826335336
 30
0.0
 10
5.4422941782
 20
3.7859881909
 30
0.0
 10
5.4454482057
 20
3.7899714963
 30
0.0
 10
5.4481592049
 20
3.7926588346
 30
0.0
 10
5.4511732003
 20
3.7950021144
 30
0.0
 10
5.4544597364
 20
3.7969460413
 30
0.0
 10
5.4579485217
 20
3.7984877306
 30
0.0
 10
5.4603694606
 20
3.7992646405
 30
0.0
 10
5.4615938433
 20
3.7995927129
 30
0.0
  0
SPLINE
  5
3A8
100
AcDbEntity
  8
0
100
AcDbSpline
 62
7
  6
CONTINUOUS
 70
0
 71
3
 72
9
 73
5
 74
0
 42
0.0000001
 43
0.0000001
 44
0.0000000001
 40
0.0
 40
0.0
 40
0.0
 40
0.0
 40
0.4998637169
 40
1.0
 40
1.0
 40
1.0
 40
1.0
 10
5.4374388036
 20
3.7474722947
 30
0.0
 10
5.4367915443
 20
3.7498874461
 30
0.0
 10
5.4357731637
 20
3.7547992608
 30
0.0
 10
5.4354380859
 20
3.7598115302
 30
0.0
 10
5.4354675087
 20
3.7623131008
 30
0.0
  0
SPLINE
  5
3A9
100
AcDbEntity
  8
0
100
AcDbSpline
 62
7
  6
CONTINUOUS
 70
0
 71
3
 72
10
 73
6
 74
0
 42
0.0000001
 43
0.0000001
 44
0.0000000001
 40
0.0
 40
0.0
 40
0.0
 40
0.0
 40
0.2501437322
 40
0.5003580179
 40
1.0
 40
1.0
 40
1.0
 40
1.0
 10
5.4354675087
 20
3.7623131008
 30
0.0
 10
5.4354856947
 20
3.7638593011
 30
0.0
 10
5.43567032
 20
3.7669534106
 30
0.0
 10
5.4366707139
 20
3.7730611105
 30
0.0
 10
5.4381412555
 20
3.7775030917
 30
0.0
 10
5.4394036754
 20
3.7803219384
 30
0.0
  0
SPLINE
  5
3AA
100
AcDbEntity
  8
0
100
AcDbSpline
 62
7
  6
CONTINUOUS
 70
0
 71
3
 72
9
 73
5
 74
0
 42
0.0000001
 43
0.0000001
 44
0.0000000001
 40
0.0
 40
0.0
 40
0.0
 40
0.0
 40
0.7496226315
 40
1.0
 40
1.0
 40
1.0
 40
1.0
 10
5.4567270413
 20
3.7183756412
 30
0.0
 10
5.4546480085
 20
3.7196550857
 30
0.0
 10
5.4520423286
 20
3.7216590208
 30
0.0
 10
5.4497441297
 20
3.7239672585
 30
0.0
 10
5.4491880261
 20
3.7245635543
 30
0.0
  0
SPLINE
  5
3AB
100
AcDbEntity
  8
0
100
AcDbSpline
 62
7
  6
CONTINUOUS
 70
0
 71
3
 72
9
 73
5
 74
0
 42
0.0000001
 43
0.0000001
 44
0.0000000001
 40
0.0
 40
0.0
 40
0.0
 40
0.0
 40
0.4999464302
 40
1.0
 40
1.0
 40
1.0
 40
1.0
 10
5.4460241659
 20
3.7284206149
 30
0.0
 10
5.4445688078
 20
3.7304334866
 30
0.0
 10
5.4420086087
 20
3.7347201412
 30
0.0
 10
5.4400808423
 20
3.7393133529
 30
0.0
 10
5.4392451984
 20
3.7416530247
 30
0.0
  0
SPLINE
  5
3AC
100
AcDbEntity
  8
0
100
AcDbSpline
 62
7
  6
CONTINUOUS
 70
0
 71
3
 72
11
 73
7
 74
0
 42
0.0000001
 43
0.0000001
 44
0.0000000001
 40
0.0
 40
0.0
 40
0.0
 40
0.0
 40
0.249986484
 40
0.4999570833
 40
0.7499532457
 40
1.0
 40
1.0
 40
1.0
 40
1.0
 10
5.4860582043
 20
3.7140783566
 30
0.0
 10
5.4836046359
 20
3.7134209249
 30
0.0
 10
5.4785669304
 20
3.7125286712
 30
0.0
 10
5.4708899245
 20
3.7127869421
 30
0.0
 10
5.4634622102
 20
3.7147458686
 30
0.0
 10
5.4588908596
 20
3.7170440195
 30
0.0
 10
5.4567270413
 20
3.7183756412
 30
0.0
  0
SPLINE
  5
3AD
100
AcDbEntity
  8
0
100
AcDbSpline
 62
7
  6
CONTINUOUS
 70
0
 71
3
 72
16
 73
12
 74
0
 42
0.0000001
 43
0.0000001
 44
0.0000000001
 40
0.0
 40
0.0
 40
0.0
 40
0.0
 40
0.1249532793
 40
0.250260153
 40
0.3128489388
 40
0.3753851012
 40
0.5004973239
 40
0.6255268472
 40
0.7503316482
 40
0.875215979
 40
1.0
 40
1.0
 40
1.0
 40
1.0
 10
5.5647590459
 20
3.7391451802
 30
0.0
 10
5.563151808
 20
3.7387145221
 30
0.0
 10
5.5598573264
 20
3.7381126828
 30
0.0
 10
5.5556722833
 20
3.7380300542
 30
0.0
 10
5.5523531096
 20
3.7383891649
 30
0.0
 10
5.549078533
 20
3.7390242892
 30
0.0
 10
5.5450941883
 20
3.7402862876
 30
0.0
 10
5.5405631701
 20
3.7424120062
 30
0.0
 10
5.5363067828
 20
3.7450336906
 30
0.0
 10
5.5323189761
 20
3.7480367934
 30
0.0
 10
5.5298160459
 20
3.7502295825
 30
0.0
 10
5.528601325
 20
3.7513634421
 30
0.0
  0
SPLINE
  5
3AE
100
AcDbEntity
  8
0
100
AcDbSpline
 62
7
  6
CONTINUOUS
 70
0
 71
3
 72
9
 73
5
 74
0
 42
0.0000001
 43
0.0000001
 44
0.0000000001
 40
0.0
 40
0.0
 40
0.0
 40
0.0
 40
0.2501120929
 40
1.0
 40
1.0
 40
1.0
 40
1.0
 10
5.528601325
 20
3.7513634421
 30
0.0
 10
5.5280303478
 20
3.7518964107
 30
0.0
 10
5.5257791668
 20
3.7540612678
 30
0.0
 10
5.5236478315
 20
3.7563489672
 30
0.0
 10
5.5221057868
 20
3.7581114009
 30
0.0
  0
SPLINE
  5
3AF
100
AcDbEntity
  8
0
100
AcDbSpline
 62
7
  6
CONTINUOUS
 70
0
 71
3
 72
9
 73
5
 74
0
 42
0.0000001
 43
0.0000001
 44
0.0000000001
 40
0.0
 40
0.0
 40
0.0
 40
0.0
 40
0.4999944305
 40
1.0
 40
1.0
 40
1.0
 40
1.0
 10
5.523361095
 20
3.8078535771
 30
0.0
 10
5.5255237635
 20
3.8099607517
 30
0.0
 10
5.5304142426
 20
3.8136374823
 30
0.0
 10
5.5360890619
 20
3.8159062594
 30
0.0
 10
5.5390057303
 20
3.8166877783
 30
0.0
  0
SPLINE
  5
3B0
100
AcDbEntity
  8
0
100
AcDbSpline
 62
7
  6
CONTINUOUS
 70
0
 71
3
 72
13
 73
9
 74
0
 42
0.0000001
 43
0.0000001
 44
0.0000000001
 40
0.0
 40
0.0
 40
0.0
 40
0.0
 40
0.2500100126
 40
0.5000062709
 40
0.6250129748
 40
0.750020228
 40
0.8750138708
 40
1.0
 40
1.0
 40
1.0
 40
1.0
 10
5.5080573519
 20
3.7804316714
 30
0.0
 10
5.5090643259
 20
3.7828614282
 30
0.0
 10
5.5111464796
 20
3.7876928334
 30
0.0
 10
5.5139853608
 20
3.793627292
 30
0.0
 10
5.5164773089
 20
3.7982608394
 30
0.0
 10
5.518495005
 20
3.801653579
 30
0.0
 10
5.5207203895
 20
3.8049129312
 30
0.0
 10
5.522419331
 20
3.8069359786
 30
0.0
 10
5.523361095
 20
3.8078535771
 30
0.0
  0
SPLINE
  5
3B1
100
AcDbEntity
  8
0
100
AcDbSpline
 62
7
  6
CONTINUOUS
 70
0
 71
3
 72
15
 73
11
 74
0
 42
0.0000001
 43
0.0000001
 44
0.0000000001
 40
0.0
 40
0.0
 40
0.0
 40
0.0
 40
0.1249918881
 40
0.1876539703
 40
0.2501927842
 40
0.3751677042
 40
0.5001490752
 40
0.6251370252
 40
0.7501035765
 40
1.0
 40
1.0
 40
1.0
 40
1.0
 10
5.5415610343
 20
3.6528219589
 30
0.0
 10
5.542653109
 20
3.6548720961
 30
0.0
 10
5.5439431959
 20
3.6581414949
 30
0.0
 10
5.5451484558
 20
3.6626325112
 30
0.0
 10
5.5460754436
 20
3.6671917058
 30
0.0
 10
5.546778112
 20
3.6729648901
 30
0.0
 10
5.5471141538
 20
3.6799289228
 30
0.0
 10
5.5470543635
 20
3.6868995925
 30
0.0
 10
5.5465646684
 20
3.6961779559
 30
0.0
 10
5.545827737
 20
3.7031110282
 30
0.0
 10
5.5452240186
 20
3.7077157218
 30
0.0
  0
SPLINE
  5
3B2
100
AcDbEntity
  8
0
100
AcDbSpline
 62
7
  6
CONTINUOUS
 70
0
 71
3
 72
9
 73
5
 74
0
 42
0.0000001
 43
0.0000001
 44
0.0000000001
 40
0.0
 40
0.0
 40
0.0
 40
0.0
 40
0.4999582829
 40
1.0
 40
1.0
 40
1.0
 40
1.0
 10
5.5155602613
 20
3.6320138736
 30
0.0
 10
5.5210450146
 20
3.6334835088
 30
0.0
 10
5.5316539597
 20
3.6385638679
 30
0.0
 10
5.5388910135
 20
3.6478095644
 30
0.0
 10
5.5415610343
 20
3.6528219589
 30
0.0
  0
SPLINE
  5
3B3
100
AcDbEntity
  8
0
100
AcDbSpline
 62
7
  6
CONTINUOUS
 70
0
 71
3
 72
13
 73
9
 74
0
 42
0.0000001
 43
0.0000001
 44
0.0000000001
 40
0.0
 40
0.0
 40
0.0
 40
0.0
 40
0.2498584163
 40
0.4995321704
 40
0.6246594129
 40
0.7497964441
 40
0.8749452152
 40
1.0
 40
1.0
 40
1.0
 40
1.0
 10
5.4586780704
 20
3.682646848
 30
0.0
 10
5.4588873361
 20
3.6837654071
 30
0.0
 10
5.4594576017
 20
3.6859786596
 30
0.0
 10
5.4607503652
 20
3.6885547137
 30
0.0
 10
5.4622263755
 20
3.690302672
 30
0.0
 10
5.463554346
 20
3.6913953002
 30
0.0
 10
5.4650572907
 20
3.6922282692
 30
0.0
 10
5.4661390514
 20
3.6926040079
 30
0.0
 10
5.4666891992
 20
3.6927514195
 30
0.0
  0
SPLINE
  5
3B4
100
AcDbEntity
  8
0
100
AcDbSpline
 62
7
  6
CONTINUOUS
 70
0
 71
3
 72
10
 73
6
 74
0
 42
0.0000001
 43
0.0000001
 44
0.0000000001
 40
0.0
 40
0.0
 40
0.0
 40
0.0
 40
0.2933073079
 40
0.5554689595
 40
1.0
 40
1.0
 40
1.0
 40
1.0
 10
5.4604302567
 20
3.6616736884
 30
0.0
 10
5.4598941918
 20
3.6636742865
 30
0.0
 10
5.4590077207
 20
3.6675026412
 30
0.0
 10
5.4580290742
 20
3.6744947466
 30
0.0
 10
5.4581008074
 20
3.6795613519
 30
0.0
 10
5.4586780685
 20
3.6826468479
 30
0.0
  0
SPLINE
  5
3B5
100
AcDbEntity
  8
0
100
AcDbSpline
 62
7
  6
CONTINUOUS
 70
0
 71
3
 72
8
 73
4
 74
0
 42
0.0000001
 43
0.0000001
 44
0.0000000001
 40
0.0
 40
0.0
 40
0.0
 40
0.0
 40
1.0
 40
1.0
 40
1.0
 40
1.0
 10
5.4828707637
 20
3.6273739678
 30
0.0
 10
5.4800745808
 20
3.6294582728
 30
0.0
 10
5.4774471645
 20
3.6317943488
 30
0.0
 10
5.4750690573
 20
3.6343453433
 30
0.0
  0
SPLINE
  5
3B6
100
AcDbEntity
  8
0
100
AcDbSpline
 62
7
  6
CONTINUOUS
 70
0
 71
3
 72
9
 73
5
 74
0
 42
0.0000001
 43
0.0000001
 44
0.0000000001
 40
0.0
 40
0.0
 40
0.0
 40
0.0
 40
0.2503057244
 40
1.0
 40
1.0
 40
1.0
 40
1.0
 10
5.4660814574
 20
3.6470541862
 30
0.0
 10
5.4654704432
 20
3.6482122176
 30
0.0
 10
5.4631762267
 20
3.6529157341
 30
0.0
 10
5.4614451461
 20
3.6578856599
 30
0.0
 10
5.4604301903
 20
3.6616736706
 30
0.0
  0
SPLINE
  5
3B7
100
AcDbEntity
  8
0
100
AcDbSpline
 62
7
  6
CONTINUOUS
 70
0
 71
3
 72
15
 73
11
 74
0
 42
0.0000001
 43
0.0000001
 44
0.0000000001
 40
0.0
 40
0.0
 40
0.0
 40
0.0
 40
0.1248719209
 40
0.2499354666
 40
0.3749712724
 40
0.5000198244
 40
0.6250775845
 40
0.7501022412
 40
0.8751338305
 40
1.0
 40
1.0
 40
1.0
 40
1.0
 10
5.5304018169
 20
3.6178640984
 30
0.0
 10
5.5285988904
 20
3.6173810057
 30
0.0
 10
5.5249445353
 20
3.6165752229
 30
0.0
 10
5.5193714861
 20
3.6158982188
 30
0.0
 10
5.5137530058
 20
3.6158142728
 30
0.0
 10
5.5081607231
 20
3.6163605018
 30
0.0
 10
5.5026610832
 20
3.6175097486
 30
0.0
 10
5.497321016
 20
3.6192547629
 30
0.0
 10
5.492192476
 20
3.6215350428
 30
0.0
 10
5.4889280815
 20
3.6233621299
 30
0.0
 10
5.4873391428
 20
3.6243413519
 30
0.0
  0
LINE
  5
3B8
100
AcDbEntity
  8
0
100
AcDbLine
 62
7
  6
CONTINUOUS
 10
5.5692306746
 20
3.693590139
 11
5.588198485
 21
3.6896092717
  0
LINE
  5
3B9
100
AcDbEntity
  8
0
100
AcDbLine
 62
7
  6
CONTINUOUS
 10
5.588198485
 20
3.6896092717
 11
5.6004659489
 21
3.6438220373
  0
LINE
  5
3BA
100
AcDbEntity
  8
0
100
AcDbLine
 62
7
  6
CONTINUOUS
 10
5.6004659489
 20
3.6438220373
 11
5.6216134375
 21
3.639540988
  0
LINE
  5
3BB
100
AcDbEntity
  8
0
100
AcDbLine
 62
7
  6
CONTINUOUS
 10
5.474631491
 20
3.3614973769
 11
5.4713755876
 21
3.3430322315
  0
LINE
  5
3BC
100
AcDbEntity
  8
0
100
AcDbLine
 62
7
  6
CONTINUOUS
 10
5.5032098148
 20
3.0767351166
 11
5.4994841115
 21
3.0743912731
  0
LINE
  5
3BD
100
AcDbEntity
  8
0
100
AcDbLine
 62
7
  6
CONTINUOUS
 10
5.5045664498
 20
3.0570403364
 11
5.5043868041
 21
3.059115444
  0
SPLINE
  5
3BE
100
AcDbEntity
  8
0
100
AcDbSpline
 62
7
  6
CONTINUOUS
 70
0
 71
3
 72
12
 73
8
 74
0
 42
0.0000001
 43
0.0000001
 44
0.0000000001
 40
0.0
 40
0.0
 40
0.0
 40
0.0
 40
0.1251310956
 40
0.2501195604
 40
0.5000732932
 40
0.7500367327
 40
1.0
 40
1.0
 40
1.0
 40
1.0
 10
5.5043868041
 20
3.059115444
 30
0.0
 10
5.5042928237
 20
3.0597795751
 30
0.0
 10
5.504048556
 20
3.0610992665
 30
0.0
 10
5.5034099894
 20
3.0637035241
 30
0.0
 10
5.5024087535
 20
3.0669031426
 30
0.0
 10
5.5010185115
 20
3.0706755206
 30
0.0
 10
5.5000057691
 20
3.0731570985
 30
0.0
 10
5.4994841115
 20
3.0743912731
 30
0.0
  0
SPLINE
  5
3BF
100
AcDbEntity
  8
0
100
AcDbSpline
 62
7
  6
CONTINUOUS
 70
0
 71
3
 72
13
 73
9
 74
0
 42
0.0000001
 43
0.0000001
 44
0.0000000001
 40
0.0
 40
0.0
 40
0.0
 40
0.0
 40
0.2499074822
 40
0.4998137666
 40
0.6247924539
 40
0.7497406909
 40
0.8750038079
 40
1.0
 40
1.0
 40
1.0
 40
1.0
 10
5.4973517968
 20
3.0408249162
 30
0.0
 10
5.4982109553
 20
3.0420520289
 30
0.0
 10
5.4998710015
 20
3.044547638
 30
0.0
 10
5.5017362211
 20
3.0478012962
 30
0.0
 10
5.5030145751
 20
3.0505127708
 30
0.0
 10
5.5038274933
 20
3.0526129023
 30
0.0
 10
5.504420996
 20
3.0547864445
 30
0.0
 10
5.5045844909
 20
3.0562913068
 30
0.0
 10
5.5045664498
 20
3.0570403364
 30
0.0
  0
LINE
  5
3C0
100
AcDbEntity
  8
0
100
AcDbLine
 62
7
  6
CONTINUOUS
 10
5.4973518744
 20
3.040825027
 11
5.4724911342
 21
3.005317992
  0
LINE
  5
3C1
100
AcDbEntity
  8
0
100
AcDbLine
 62
7
  6
CONTINUOUS
 10
5.3919509069
 20
3.1139759188
 11
5.3832559403
 21
3.1015570858
  0
LINE
  5
3C2
100
AcDbEntity
  8
0
100
AcDbLine
 62
7
  6
CONTINUOUS
 10
5.3832559403
 20
3.1015570858
 11
5.4601297633
 21
2.9990215833
  0
LINE
  5
3C3
100
AcDbEntity
  8
0
100
AcDbLine
 62
7
  6
CONTINUOUS
 10
5.4601297633
 20
2.9990215833
 11
5.4615558106
 21
2.9971194936
  0
LINE
  5
3C4
100
AcDbEntity
  8
0
100
AcDbLine
 62
7
  6
CONTINUOUS
 10
5.4615558106
 20
2.9971194936
 11
5.476436957
 21
2.9772707193
  0
SPLINE
  5
3C5
100
AcDbEntity
  8
0
100
AcDbSpline
 62
7
  6
CONTINUOUS
 70
0
 71
3
 72
15
 73
11
 74
0
 42
0.0000001
 43
0.0000001
 44
0.0000000001
 40
0.0
 40
0.0
 40
0.0
 40
0.0
 40
0.1249921185
 40
0.1876542857
 40
0.2501931595
 40
0.3751681336
 40
0.5001494998
 40
0.6251373956
 40
0.7501038515
 40
1.0
 40
1.0
 40
1.0
 40
1.0
 10
5.3742839213
 20
2.9602032308
 30
0.0
 10
5.376556401
 20
2.9606844457
 30
0.0
 10
5.3798901754
 20
2.961797698
 30
0.0
 10
5.3841052463
 20
2.9637611659
 30
0.0
 10
5.3881936756
 20
2.9659816228
 30
0.0
 10
5.3930678947
 20
2.9691542471
 30
0.0
 10
5.3986187029
 20
2.9733731804
 30
0.0
 10
5.4039201608
 20
2.9778996039
 30
0.0
 10
5.4107130936
 20
2.9842386963
 30
0.0
 10
5.4155504949
 20
2.989259673
 30
0.0
 10
5.4186898661
 20
2.9926819627
 30
0.0
  0
SPLINE
  5
3C6
100
AcDbEntity
  8
0
100
AcDbSpline
 62
7
  6
CONTINUOUS
 70
0
 71
3
 72
9
 73
5
 74
0
 42
0.0000001
 43
0.0000001
 44
0.0000000001
 40
0.0
 40
0.0
 40
0.0
 40
0.0
 40
0.4999512892
 40
1.0
 40
1.0
 40
1.0
 40
1.0
 10
5.3416308852
 20
2.9667458587
 30
0.0
 10
5.3462821775
 20
2.9634889888
 30
0.0
 10
5.3569932817
 20
2.9586276224
 30
0.0
 10
5.3687278403
 20
2.9590266883
 30
0.0
 10
5.3742839213
 20
2.9602032308
 30
0.0
  0
SPLINE
  5
3C7
100
AcDbEntity
  8
0
100
AcDbSpline
 62
7
  6
CONTINUOUS
 70
0
 71
3
 72
13
 73
9
 74
0
 42
0.0000001
 43
0.0000001
 44
0.0000000001
 40
0.0
 40
0.0
 40
0.0
 40
0.0
 40
0.2498585642
 40
0.4995326306
 40
0.6246599834
 40
0.7497970171
 40
0.8749456045
 40
1.0
 40
1.0
 40
1.0
 40
1.0
 10
5.343855316
 20
3.0428660553
 30
0.0
 10
5.3448467045
 20
3.0434247385
 30
0.0
 10
5.3469087313
 20
3.0444105291
 30
0.0
 10
5.3497130919
 20
3.0450760573
 30
0.0
 10
5.3520008772
 20
3.0450689262
 30
0.0
 10
5.3536914874
 20
3.0447539659
 30
0.0
 10
5.3552956562
 20
3.0441380636
 30
0.0
 10
5.3562788327
 20
3.0435509061
 30
0.0
 10
5.3567453851
 20
3.0432242226
 30
0.0
  0
SPLINE
  5
3C8
100
AcDbEntity
  8
0
100
AcDbSpline
 62
7
  6
CONTINUOUS
 70
0
 71
3
 72
11
 73
7
 74
0
 42
0.0000001
 43
0.0000001
 44
0.0000000001
 40
0.0
 40
0.0
 40
0.0
 40
0.0
 40
0.2500035186
 40
0.5000049516
 40
0.7500037597
 40
1.0
 40
1.0
 40
1.0
 40
1.0
 10
5.3289150162
 20
3.0280427078
 30
0.0
 10
5.3299285596
 20
3.0294901367
 30
0.0
 10
5.3320411898
 20
3.0323267206
 30
0.0
 10
5.3355268861
 20
3.0363297309
 30
0.0
 10
5.3394047559
 20
3.0399594374
 30
0.0
 10
5.3423159611
 20
3.0419985731
 30
0.0
 10
5.343855316
 20
3.0428660553
 30
0.0
  0
SPLINE
  5
3C9
100
AcDbEntity
  8
0
100
AcDbSpline
 62
7
  6
CONTINUOUS
 70
0
 71
3
 72
9
 73
5
 74
0
 42
0.0000001
 43
0.0000001
 44
0.0000000001
 40
0.0
 40
0.0
 40
0.0
 40
0.0
 40
0.2501177982
 40
1.0
 40
1.0
 40
1.0
 40
1.0
 10
5.3213480294
 20
3.0143158786
 30
0.0
 10
5.3216748481
 20
3.015117418
 30
0.0
 10
5.3230486067
 20
3.0182945076
 30
0.0
 10
5.3246774727
 20
3.0213595844
 30
0.0
 10
5.3260149215
 20
3.0235836007
 30
0.0
  0
SPLINE
  5
3CA
100
AcDbEntity
  8
0
100
AcDbSpline
 62
7
  6
CONTINUOUS
 70
0
 71
3
 72
9
 73
5
 74
0
 42
0.0000001
 43
0.0000001
 44
0.0000000001
 40
0.0
 40
0.0
 40
0.0
 40
0.0
 40
0.2497170048
 40
1.0
 40
1.0
 40
1.0
 40
1.0
 10
5.3403313557
 20
2.9462813694
 30
0.0
 10
5.3396439217
 20
2.9467627158
 30
0.0
 10
5.3369302987
 20
2.9487453716
 30
0.0
 10
5.3343805278
 20
2.9509549637
 30
0.0
 10
5.332594453
 20
2.9527346955
 30
0.0
  0
SPLINE
  5
3CB
100
AcDbEntity
  8
0
100
AcDbSpline
 62
7
  6
CONTINUOUS
 70
0
 71
3
 72
9
 73
5
 74
0
 42
0.0000001
 43
0.0000001
 44
0.0000000001
 40
0.0
 40
0.0
 40
0.0
 40
0.0
 40
0.5000121318
 40
1.0
 40
1.0
 40
1.0
 40
1.0
 10
5.332594453
 20
2.9527346955
 30
0.0
 10
5.331427086
 20
2.9538979168
 30
0.0
 10
5.3291969562
 20
2.9563323349
 30
0.0
 10
5.3272176274
 20
2.9589752681
 30
0.0
 10
5.3262947918
 20
2.9603405301
 30
0.0
  0
SPLINE
  5
3CC
100
AcDbEntity
  8
0
100
AcDbSpline
 62
7
  6
CONTINUOUS
 70
0
 71
3
 72
9
 73
5
 74
0
 42
0.0000001
 43
0.0000001
 44
0.0000000001
 40
0.0
 40
0.0
 40
0.0
 40
0.0
 40
0.5000504492
 40
1.0
 40
1.0
 40
1.0
 40
1.0
 10
5.3237062407
 20
2.964603716
 30
0.0
 10
5.3229219646
 20
2.9660491528
 30
0.0
 10
5.3214910747
 20
2.9690166765
 30
0.0
 10
5.3203512288
 20
2.9721070452
 30
0.0
 10
5.3198504486
 20
2.9736730926
 30
0.0
  0
SPLINE
  5
3CD
100
AcDbEntity
  8
0
100
AcDbSpline
 62
7
  6
CONTINUOUS
 70
0
 71
3
 72
9
 73
5
 74
0
 42
0.0000001
 43
0.0000001
 44
0.0000000001
 40
0.0
 40
0.0
 40
0.0
 40
0.0
 40
0.2503068786
 40
1.0
 40
1.0
 40
1.0
 40
1.0
 10
5.3198504486
 20
2.9736730926
 30
0.0
 10
5.3195958299
 20
2.9744693401
 30
0.0
 10
5.3186496177
 20
2.9776729167
 30
0.0
 10
5.3179769878
 20
2.9809555574
 30
0.0
 10
5.3176131591
 20
2.9834327836
 30
0.0
  0
LINE
  5
3CE
100
AcDbEntity
  8
0
100
AcDbLine
 62
7
  6
CONTINUOUS
 10
5.4233000763
 20
2.9652121503
 11
5.4324427682
 21
2.9481231547
  0
LINE
  5
3CF
100
AcDbEntity
  8
0
100
AcDbLine
 62
7
  6
CONTINUOUS
 10
5.4324427682
 20
2.9481231547
 11
5.4052527441
 21
2.9092945041
  0
LINE
  5
3D0
100
AcDbEntity
  8
0
100
AcDbLine
 62
7
  6
CONTINUOUS
 10
5.4052527441
 20
2.9092945041
 11
5.4155665583
 21
2.8903428214
  0
LINE
  5
3D1
100
AcDbEntity
  8
0
100
AcDbLine
 62
7
  6
CONTINUOUS
 10
4.8634933909
 20
2.6855520761
 11
4.8570684802
 21
2.6855515976
  0
LINE
  5
3D2
100
AcDbEntity
  8
0
100
AcDbLine
 62
7
  6
CONTINUOUS
 10
4.8770990898
 20
2.7416007482
 11
4.8618298427
 21
2.7415994412
  0
SPLINE
  5
3D3
100
AcDbEntity
  8
0
100
AcDbSpline
 62
7
  6
CONTINUOUS
 70
0
 71
3
 72
13
 73
9
 74
0
 42
0.0000001
 43
0.0000001
 44
0.0000000001
 40
0.0
 40
0.0
 40
0.0
 40
0.0
 40
0.2497577368
 40
0.3748558925
 40
0.499981485
 40
0.6250963345
 40
0.7502157512
 40
1.0
 40
1.0
 40
1.0
 40
1.0
 10
5.5667237475
 20
3.7990252088
 30
0.0
 10
5.5655427495
 20
3.799788284
 30
0.0
 10
5.5636638011
 20
3.8007855879
 30
0.0
 10
5.5609982491
 20
3.8017038815
 30
0.0
 10
5.5589316029
 20
3.8021656529
 30
0.0
 10
5.5568261448
 20
3.8023952016
 30
0.0
 10
5.5540064915
 20
3.8023765265
 30
0.0
 10
5.5519073755
 20
3.8020182084
 30
0.0
 10
5.5505490695
 20
3.8016542514
 30
0.0
  0
SPLINE
  5
3D4
100
AcDbEntity
  8
0
100
AcDbSpline
 62
7
  6
CONTINUOUS
 70
0
 71
3
 72
9
 73
5
 74
0
 42
0.0000001
 43
0.0000001
 44
0.0000000001
 40
0.0
 40
0.0
 40
0.0
 40
0.0
 40
0.4997931398
 40
1.0
 40
1.0
 40
1.0
 40
1.0
 10
5.5760032781
 20
3.7876851698
 30
0.0
 10
5.5752908674
 20
3.7895086548
 30
0.0
 10
5.573445259
 20
3.7930167404
 30
0.0
 10
5.570731938
 20
3.7959107637
 30
0.0
 10
5.5692324135
 20
3.7971718745
 30
0.0
  0
SPLINE
  5
3D5
100
AcDbEntity
  8
0
100
AcDbSpline
 62
7
  6
CONTINUOUS
 70
0
 71
3
 72
11
 73
7
 74
0
 42
0.0000001
 43
0.0000001
 44
0.0000000001
 40
0.0
 40
0.0
 40
0.0
 40
0.0
 40
0.2502074219
 40
0.5001776003
 40
0.750178219
 40
1.0
 40
1.0
 40
1.0
 40
1.0
 10
5.5761573551
 20
3.7686549839
 30
0.0
 10
5.5767127264
 20
3.7699157602
 30
0.0
 10
5.5775827256
 20
3.7725514679
 30
0.0
 10
5.5780759095
 20
3.7766766028
 30
0.0
 10
5.5778458558
 20
3.7808162464
 30
0.0
 10
5.5772883213
 20
3.7835206721
 30
0.0
 10
5.5769322495
 20
3.7848493409
 30
0.0
  0
SPLINE
  5
3D6
100
AcDbEntity
  8
0
100
AcDbSpline
 62
7
  6
CONTINUOUS
 70
0
 71
3
 72
12
 73
8
 74
0
 42
0.0000001
 43
0.0000001
 44
0.0000000001
 40
0.0
 40
0.0
 40
0.0
 40
0.0
 40
0.2498000967
 40
0.4997287526
 40
0.6248550313
 40
0.7500594443
 40
1.0
 40
1.0
 40
1.0
 40
1.0
 10
5.5612581007
 20
3.7563336661
 30
0.0
 10
5.5627024079
 20
3.7567206671
 30
0.0
 10
5.5655401155
 20
3.757717277
 30
0.0
 10
5.5687957229
 20
3.7596136227
 30
0.0
 10
5.5711164981
 20
3.7615148875
 30
0.0
 10
5.5732112271
 20
3.76366136
 30
0.0
 10
5.5745119574
 20
3.7655180367
 30
0.0
 10
5.5752433723
 20
3.7668231575
 30
0.0
  0
SPLINE
  5
3D7
100
AcDbEntity
  8
0
100
AcDbSpline
 62
7
  6
CONTINUOUS
 70
0
 71
3
 72
9
 73
5
 74
0
 42
0.0000001
 43
0.0000001
 44
0.0000000001
 40
0.0
 40
0.0
 40
0.0
 40
0.0
 40
0.4999908831
 40
1.0
 40
1.0
 40
1.0
 40
1.0
 10
5.4922019301
 20
3.743826173
 30
0.0
 10
5.4946231156
 20
3.748235151
 30
0.0
 10
5.4989917733
 20
3.7573169174
 30
0.0
 10
5.5026128421
 20
3.7667116934
 30
0.0
 10
5.5042736417
 20
3.7714598316
 30
0.0
  0
SPLINE
  5
3D8
100
AcDbEntity
  8
0
100
AcDbSpline
 62
7
  6
CONTINUOUS
 70
0
 71
3
 72
9
 73
5
 74
0
 42
0.0000001
 43
0.0000001
 44
0.0000000001
 40
0.0
 40
0.0
 40
0.0
 40
0.0
 40
0.4999250699
 40
1.0
 40
1.0
 40
1.0
 40
1.0
 10
5.4747219476
 20
3.729167333
 30
0.0
 10
5.4784759291
 20
3.7301732093
 30
0.0
 10
5.4856333519
 20
3.7339838634
 30
0.0
 10
5.4903306629
 20
3.7404185961
 30
0.0
 10
5.4922019301
 20
3.743826173
 30
0.0
  0
SPLINE
  5
3D9
100
AcDbEntity
  8
0
100
AcDbSpline
 62
7
  6
CONTINUOUS
 70
0
 71
3
 72
9
 73
5
 74
0
 42
0.0000001
 43
0.0000001
 44
0.0000000001
 40
0.0
 40
0.0
 40
0.0
 40
0.0
 40
0.7498422215
 40
1.0
 40
1.0
 40
1.0
 40
1.0
 10
5.499949002
 20
3.7749749169
 30
0.0
 10
5.4978095249
 20
3.7765777006
 30
0.0
 10
5.4948192787
 20
3.7785495283
 30
0.0
 10
5.4916448052
 20
3.7801755698
 30
0.0
 10
5.4908390996
 20
3.7805579395
 30
0.0
  0
SPLINE
  5
3DA
100
AcDbEntity
  8
0
100
AcDbSpline
 62
7
  6
CONTINUOUS
 70
0
 71
3
 72
12
 73
8
 74
0
 42
0.0000001
 43
0.0000001
 44
0.0000000001
 40
0.0
 40
0.0
 40
0.0
 40
0.0
 40
0.2498982808
 40
0.4998058585
 40
0.6249239391
 40
0.7500903835
 40
1.0
 40
1.0
 40
1.0
 40
1.0
 10
5.4908390996
 20
3.7805579395
 30
0.0
 10
5.4890407875
 20
3.7814113778
 30
0.0
 10
5.4853226229
 20
3.7828806664
 30
0.0
 10
5.4804266699
 20
3.7839235535
 30
0.0
 10
5.4764465212
 20
3.7842046935
 30
0.0
 10
5.4724589572
 20
3.7840961725
 30
0.0
 10
5.46949258
 20
3.7835826523
 30
0.0
 10
5.4675697706
 20
3.7830674371
 30
0.0
  0
SPLINE
  5
3DB
100
AcDbEntity
  8
0
100
AcDbSpline
 62
7
  6
CONTINUOUS
 70
0
 71
3
 72
13
 73
9
 74
0
 42
0.0000001
 43
0.0000001
 44
0.0000000001
 40
0.0
 40
0.0
 40
0.0
 40
0.0
 40
0.0927677232
 40
0.1940789972
 40
0.3043684614
 40
0.4239729147
 40
0.6920814084
 40
1.0
 40
1.0
 40
1.0
 40
1.0
 10
4.8039545644
 20
4.358530388
 30
0.0
 10
4.8033962695
 20
4.3571210222
 30
0.0
 10
4.8023583891
 20
4.3541201256
 30
0.0
 10
4.8010681537
 20
4.3493134675
 30
0.0
 10
4.7999774058
 20
4.344009439
 30
0.0
 10
4.798742412
 20
4.3359630127
 30
0.0
 10
4.7977646446
 20
4.3246259108
 30
0.0
 10
4.7975489161
 20
4.3152107048
 30
0.0
 10
4.797548916
 20
4.3101790072
 30
0.0
  0
SPLINE
  5
3DC
100
AcDbEntity
  8
0
100
AcDbSpline
 62
7
  6
CONTINUOUS
 70
0
 71
3
 72
8
 73
4
 74
0
 42
0.0000001
 43
0.0000001
 44
0.0000000001
 40
0.0
 40
0.0
 40
0.0
 40
0.0
 40
1.0
 40
1.0
 40
1.0
 40
1.0
 10
4.8228461119
 20
4.3746383245
 30
0.0
 10
4.8212872098
 20
4.3744893118
 30
0.0
 10
4.8197313834
 20
4.3741876833
 30
0.0
 10
4.8182419156
 20
4.3737040861
 30
0.0
  0
SPLINE
  5
3DD
100
AcDbEntity
  8
0
100
AcDbSpline
 62
7
  6
CONTINUOUS
 70
0
 71
3
 72
10
 73
6
 74
0
 42
0.0000001
 43
0.0000001
 44
0.0000000001
 40
0.0
 40
0.0
 40
0.0
 40
0.0
 40
0.4997328351
 40
0.7497860967
 40
1.0
 40
1.0
 40
1.0
 40
1.0
 10
4.8182419156
 20
4.3737040861
 30
0.0
 10
4.8163999235
 20
4.3731060321
 30
0.0
 10
4.8137494559
 20
4.3717802898
 30
0.0
 10
4.810751447
 20
4.3693104499
 30
0.0
 10
4.8094362159
 20
4.367876631
 30
0.0
 10
4.808823542
 20
4.3671250385
 30
0.0
  0
SPLINE
  5
3DE
100
AcDbEntity
  8
0
100
AcDbSpline
 62
7
  6
CONTINUOUS
 70
0
 71
3
 72
9
 73
5
 74
0
 42
0.0000001
 43
0.0000001
 44
0.0000000001
 40
0.0
 40
0.0
 40
0.0
 40
0.0
 40
0.5004238426
 40
1.0
 40
1.0
 40
1.0
 40
1.0
 10
4.808823542
 20
4.3671250385
 30
0.0
 10
4.8077793733
 20
4.3658441135
 30
0.0
 10
4.8059465979
 20
4.3630722647
 30
0.0
 10
4.8045621735
 20
4.3600640733
 30
0.0
 10
4.8039545646
 20
4.3585302468
 30
0.0
  0
SPLINE
  5
3DF
100
AcDbEntity
  8
0
100
AcDbSpline
 62
7
  6
CONTINUOUS
 70
0
 71
3
 72
9
 73
5
 74
0
 42
0.0000001
 43
0.0000001
 44
0.0000000001
 40
0.0
 40
0.0
 40
0.0
 40
0.0
 40
0.4999531922
 40
1.0
 40
1.0
 40
1.0
 40
1.0
 10
4.8468726812
 20
4.3568205947
 30
0.0
 10
4.8462890405
 20
4.3583766414
 30
0.0
 10
4.8449765172
 20
4.3614373386
 30
0.0
 10
4.8432863865
 20
4.3643167972
 30
0.0
 10
4.8423247981
 20
4.3656726365
 30
0.0
  0
SPLINE
  5
3E0
100
AcDbEntity
  8
0
100
AcDbSpline
 62
7
  6
CONTINUOUS
 70
0
 71
3
 72
13
 73
9
 74
0
 42
0.0000001
 43
0.0000001
 44
0.0000000001
 40
0.0
 40
0.0
 40
0.0
 40
0.0
 40
0.2498465583
 40
0.3749410994
 40
0.5000973972
 40
0.6251851586
 40
0.7502989088
 40
1.0
 40
1.0
 40
1.0
 40
1.0
 10
4.8423247981
 20
4.3656726365
 30
0.0
 10
4.8413569228
 20
4.3670373402
 30
0.0
 10
4.839716758
 20
4.3689687451
 30
0.0
 10
4.8371357744
 20
4.3711136919
 30
0.0
 10
4.8350073283
 20
4.3724645897
 30
0.0
 10
4.8327158322
 20
4.3735171013
 30
0.0
 10
4.8295052222
 20
4.3744930988
 30
0.0
 10
4.8269787975
 20
4.3747532414
 30
0.0
 10
4.8253066909
 20
4.3747533224
 30
0.0
  0
SPLINE
  5
3E1
100
AcDbEntity
  8
0
100
AcDbSpline
 62
7
  6
CONTINUOUS
 70
0
 71
3
 72
12
 73
8
 74
0
 42
0.0000001
 43
0.0000001
 44
0.0000000001
 40
0.0
 40
0.0
 40
0.0
 40
0.0
 40
0.2499984462
 40
0.4999830813
 40
0.749940014
 40
0.8749768498
 40
1.0
 40
1.0
 40
1.0
 40
1.0
 10
4.8535987339
 20
4.3075077308
 30
0.0
 10
4.8535987339
 20
4.3116749822
 30
0.0
 10
4.8534226505
 20
4.320011356
 30
0.0
 10
4.8524618685
 20
4.3324822422
 30
0.0
 10
4.8508652576
 20
4.3427954089
 30
0.0
 10
4.848886946
 20
4.3508970719
 30
0.0
 10
4.8476045664
 20
4.3548693125
 30
0.0
 10
4.8468726812
 20
4.3568205947
 30
0.0
  0
SPLINE
  5
3E2
100
AcDbEntity
  8
0
100
AcDbSpline
 62
7
  6
CONTINUOUS
 70
0
 71
3
 72
13
 73
9
 74
0
 42
0.0000001
 43
0.0000001
 44
0.0000000001
 40
0.0
 40
0.0
 40
0.0
 40
0.0
 40
0.092767667
 40
0.1940789051
 40
0.30436835
 40
0.4239727987
 40
0.6920813232
 40
1.0
 40
1.0
 40
1.0
 40
1.0
 10
4.6950577857
 20
4.3585310615
 30
0.0
 10
4.6944994896
 20
4.3571216957
 30
0.0
 10
4.6934616063
 20
4.3541207989
 30
0.0
 10
4.6921713662
 20
4.3493141396
 30
0.0
 10
4.6910806132
 20
4.3440101086
 30
0.0
 10
4.6898456121
 20
4.3359636764
 30
0.0
 10
4.6888678369
 20
4.3246265637
 30
0.0
 10
4.6886521062
 20
4.3152113479
 30
0.0
 10
4.6886521062
 20
4.3101796447
 30
0.0
  0
SPLINE
  5
3E3
100
AcDbEntity
  8
0
100
AcDbSpline
 62
7
  6
CONTINUOUS
 70
0
 71
3
 72
8
 73
4
 74
0
 42
0.0000001
 43
0.0000001
 44
0.0000000001
 40
0.0
 40
0.0
 40
0.0
 40
0.0
 40
1.0
 40
1.0
 40
1.0
 40
1.0
 10
4.7139497973
 20
4.3746403431
 30
0.0
 10
4.7123906902
 20
4.3744912507
 30
0.0
 10
4.7108346631
 20
4.3741895156
 30
0.0
 10
4.7093450207
 20
4.3737057706
 30
0.0
  0
SPLINE
  5
3E4
100
AcDbEntity
  8
0
100
AcDbSpline
 62
7
  6
CONTINUOUS
 70
0
 71
3
 72
10
 73
6
 74
0
 42
0.0000001
 43
0.0000001
 44
0.0000000001
 40
0.0
 40
0.0
 40
0.0
 40
0.0
 40
0.4997315799
 40
0.7497854714
 40
1.0
 40
1.0
 40
1.0
 40
1.0
 10
4.7093450207
 20
4.3737057706
 30
0.0
 10
4.7075029799
 20
4.373107588
 30
0.0
 10
4.7048524682
 20
4.371781633
 30
0.0
 10
4.7018544381
 20
4.3693115346
 30
0.0
 10
4.7005392005
 20
4.3678775921
 30
0.0
 10
4.6999265243
 20
4.3671259397
 30
0.0
  0
SPLINE
  5
3E5
100
AcDbEntity
  8
0
100
AcDbSpline
 62
7
  6
CONTINUOUS
 70
0
 71
3
 72
9
 73
5
 74
0
 42
0.0000001
 43
0.0000001
 44
0.0000000001
 40
0.0
 40
0.0
 40
0.0
 40
0.0
 40
0.5004251432
 40
1.0
 40
1.0
 40
1.0
 40
1.0
 10
4.6999265243
 20
4.3671259397
 30
0.0
 10
4.6988824169
 20
4.3658449924
 30
0.0
 10
4.6970497426
 20
4.3630731443
 30
0.0
 10
4.6956653721
 20
4.3600649864
 30
0.0
 10
4.695057786
 20
4.3585311832
 30
0.0
  0
SPLINE
  5
3E6
100
AcDbEntity
  8
0
100
AcDbSpline
 62
7
  6
CONTINUOUS
 70
0
 71
3
 72
9
 73
5
 74
0
 42
0.0000001
 43
0.0000001
 44
0.0000000001
 40
0.0
 40
0.0
 40
0.0
 40
0.0
 40
0.2503277221
 40
1.0
 40
1.0
 40
1.0
 40
1.0
 10
4.7188921933
 20
4.3746229162
 30
0.0
 10
4.7192837343
 20
4.3745804026
 30
0.0
 10
4.7208427832
 20
4.3743688313
 30
0.0
 10
4.7223799034
 20
4.3739809274
 30
0.0
 10
4.7234895131
 20
4.3735810492
 30
0.0
  0
SPLINE
  5
3E7
100
AcDbEntity
  8
0
100
AcDbSpline
 62
7
  6
CONTINUOUS
 70
0
 71
3
 72
9
 73
5
 74
0
 42
0.0000001
 43
0.0000001
 44
0.0000000001
 40
0.0
 40
0.0
 40
0.0
 40
0.0
 40
0.7496666334
 40
1.0
 40
1.0
 40
1.0
 40
1.0
 10
4.7234895131
 20
4.3735810492
 30
0.0
 10
4.7245685102
 20
4.3731922031
 30
0.0
 10
4.7259622166
 20
4.3725328585
 30
0.0
 10
4.7272586544
 20
4.3717201515
 30
0.0
 10
4.7275771427
 20
4.3715074422
 30
0.0
  0
SPLINE
  5
3E8
100
AcDbEntity
  8
0
100
AcDbSpline
 62
7
  6
CONTINUOUS
 70
0
 71
3
 72
9
 73
5
 74
0
 42
0.0000001
 43
0.0000001
 44
0.0000000001
 40
0.0
 40
0.0
 40
0.0
 40
0.0
 40
0.5001400465
 40
1.0
 40
1.0
 40
1.0
 40
1.0
 10
4.7275771427
 20
4.3715074422
 30
0.0
 10
4.7285912022
 20
4.3708301806
 30
0.0
 10
4.7304952695
 20
4.3692825016
 30
0.0
 10
4.7321056293
 20
4.3674383276
 30
0.0
 10
4.7328446206
 20
4.3664691905
 30
0.0
  0
SPLINE
  5
3E9
100
AcDbEntity
  8
0
100
AcDbSpline
 62
7
  6
CONTINUOUS
 70
0
 71
3
 72
9
 73
5
 74
0
 42
0.0000001
 43
0.0000001
 44
0.0000000001
 40
0.0
 40
0.0
 40
0.0
 40
0.0
 40
0.2503759301
 40
1.0
 40
1.0
 40
1.0
 40
1.0
 10
4.7328446206
 20
4.3664691905
 30
0.0
 10
4.7331120027
 20
4.3661185372
 30
0.0
 10
4.7341458006
 20
4.36469209
 30
0.0
 10
4.7350527721
 20
4.3631756719
 30
0.0
 10
4.7356698262
 20
4.3620084947
 30
0.0
  0
LINE
  5
3EA
100
AcDbEntity
  8
0
100
AcDbLine
 62
7
  6
CONTINUOUS
 10
4.7356698262
 20
4.3620084947
 11
4.7379759701
 21
4.3568238111
  0
SPLINE
  5
3EB
100
AcDbEntity
  8
0
100
AcDbSpline
 62
7
  6
CONTINUOUS
 70
0
 71
3
 72
11
 73
7
 74
0
 42
0.0000001
 43
0.0000001
 44
0.0000000001
 40
0.0
 40
0.0
 40
0.0
 40
0.0
 40
0.2971063421
 40
0.5616775089
 40
0.7952366178
 40
1.0
 40
1.0
 40
1.0
 40
1.0
 10
4.744701924
 20
4.3075117625
 30
0.0
 10
4.744701924
 20
4.3124636255
 30
0.0
 10
4.7444679145
 20
4.3218282394
 30
0.0
 10
4.7432621771
 20
4.3350399183
 30
0.0
 10
4.7412224572
 20
4.3465914868
 30
0.0
 10
4.7391745294
 20
4.3536283964
 30
0.0
 10
4.7379759735
 20
4.3568237944
 30
0.0
  0
SPLINE
  5
3EC
100
AcDbEntity
  8
0
100
AcDbSpline
 62
7
  6
CONTINUOUS
 70
0
 71
3
 72
13
 73
9
 74
0
 42
0.0000001
 43
0.0000001
 44
0.0000000001
 40
0.0
 40
0.0
 40
0.0
 40
0.0
 40
0.0927677131
 40
0.1940789793
 40
0.3043684382
 40
0.4239728894
 40
0.6920813886
 40
1.0
 40
1.0
 40
1.0
 40
1.0
 10
3.9444918686
 20
3.0984079851
 30
0.0
 10
3.945991563
 20
3.0986291703
 30
0.0
 10
3.9491093564
 20
3.0992307873
 30
0.0
 10
3.9539171629
 20
3.1005167394
 30
0.0
 10
3.9590559612
 20
3.1022241382
 30
0.0
 10
3.9666418695
 20
3.1051778156
 30
0.0
 10
3.9769489743
 20
3.1099995961
 30
0.0
 10
3.9852106483
 20
3.1145203739
 30
0.0
 10
3.9895682275
 20
3.1170362234
 30
0.0
  0
SPLINE
  5
3ED
100
AcDbEntity
  8
0
100
AcDbSpline
 62
7
  6
CONTINUOUS
 70
0
 71
3
 72
10
 73
6
 74
0
 42
0.0000001
 43
0.0000001
 44
0.0000000001
 40
0.0
 40
0.0
 40
0.0
 40
0.0
 40
0.2503488813
 40
0.5006248327
 40
1.0
 40
1.0
 40
1.0
 40
1.0
 10
3.921096113
 20
3.1067145937
 30
0.0
 10
3.9216585781
 20
3.1059248893
 30
0.0
 10
3.9228791257
 20
3.1044094362
 30
0.0
 10
3.9257132175
 20
3.1017565414
 30
0.0
 10
3.9282738095
 20
3.1002701027
 30
0.0
 10
3.9300715684
 20
3.0995572032
 30
0.0
  0
SPLINE
  5
3EE
100
AcDbEntity
  8
0
100
AcDbSpline
 62
7
  6
CONTINUOUS
 70
0
 71
3
 72
9
 73
5
 74
0
 42
0.0000001
 43
0.0000001
 44
0.0000000001
 40
0.0
 40
0.0
 40
0.0
 40
0.0
 40
0.499948229
 40
1.0
 40
1.0
 40
1.0
 40
1.0
 10
3.9300715684
 20
3.0995572032
 30
0.0
 10
3.9323315984
 20
3.0986609906
 30
0.0
 10
3.9372040438
 20
3.0977250279
 30
0.0
 10
3.9420862579
 20
3.0980532514
 30
0.0
 10
3.9444919801
 20
3.0984080498
 30
0.0
  0
SPLINE
  5
3EF
100
AcDbEntity
  8
0
100
AcDbSpline
 62
7
  6
CONTINUOUS
 70
0
 71
3
 72
11
 73
7
 74
0
 42
0.0000001
 43
0.0000001
 44
0.0000000001
 40
0.0
 40
0.0
 40
0.0
 40
0.0
 40
0.2500085127
 40
0.4376111515
 40
0.625253428
 40
1.0
 40
1.0
 40
1.0
 40
1.0
 10
3.9245134055
 20
3.1364309969
 30
0.0
 10
3.9237126082
 20
3.1354574748
 30
0.0
 10
3.9223697161
 20
3.1337032929
 30
0.0
 10
3.9206536138
 20
3.1310548056
 30
0.0
 10
3.9188525081
 20
3.1277282526
 30
0.0
 10
3.9178629373
 20
3.1250370181
 30
0.0
 10
3.9174470607
 20
3.1231938492
 30
0.0
  0
SPLINE
  5
3F0
100
AcDbEntity
  8
0
100
AcDbSpline
 62
7
  6
CONTINUOUS
 70
0
 71
3
 72
11
 73
7
 74
0
 42
0.0000001
 43
0.0000001
 44
0.0000000001
 40
0.0
 40
0.0
 40
0.0
 40
0.0
 40
0.2500503331
 40
0.5000389227
 40
0.7500673005
 40
1.0
 40
1.0
 40
1.0
 40
1.0
 10
3.9174470607
 20
3.1231938492
 30
0.0
 10
3.9171731147
 20
3.1219797181
 30
0.0
 10
3.9168378278
 20
3.1194963206
 30
0.0
 10
3.9170742626
 20
3.1157450385
 30
0.0
 10
3.9180601608
 20
3.1121202553
 30
0.0
 10
3.9191442505
 20
3.1098654228
 30
0.0
 10
3.9197662363
 20
3.1087880013
 30
0.0
  0
SPLINE
  5
3F1
100
AcDbEntity
  8
0
100
AcDbSpline
 62
7
  6
CONTINUOUS
 70
0
 71
3
 72
12
 73
8
 74
0
 42
0.0000001
 43
0.0000001
 44
0.0000000001
 40
0.0
 40
0.0
 40
0.0
 40
0.0
 40
0.2499985372
 40
0.4999832133
 40
0.7499401213
 40
0.8749769159
 40
1.0
 40
1.0
 40
1.0
 40
1.0
 10
3.9638565109
 20
3.1669123117
 30
0.0
 10
3.9602475697
 20
3.1648286885
 30
0.0
 10
3.953116109
 20
3.1605080151
 30
0.0
 10
3.9427964102
 20
3.1534405209
 30
0.0
 10
3.9346632647
 20
3.1469012424
 30
0.0
 10
3.9286361854
 20
3.1411371536
 30
0.0
 10
3.9258373191
 20
3.1380404667
 30
0.0
 10
3.9245134055
 20
3.1364309969
 30
0.0
  0
LINE
  5
3F2
100
AcDbEntity
  8
0
100
AcDbLine
 62
7
  6
CONTINUOUS
 10
4.5871300299
 20
4.3598374628
 11
4.5791147447
 21
4.3570308294
  0
SPLINE
  5
3F3
100
AcDbEntity
  8
0
100
AcDbSpline
 62
7
  6
CONTINUOUS
 70
0
 71
3
 72
9
 73
5
 74
0
 42
0.0000001
 43
0.0000001
 44
0.0000000001
 40
0.0
 40
0.0
 40
0.0
 40
0.0
 40
0.4999834407
 40
1.0
 40
1.0
 40
1.0
 40
1.0
 10
4.5947026701
 20
4.3616217342
 30
0.0
 10
4.5936438551
 20
4.3616216551
 30
0.0
 10
4.5915234781
 20
4.3613665064
 30
0.0
 10
4.5894899071
 20
4.3607437394
 30
0.0
 10
4.5885034691
 20
4.3603588008
 30
0.0
  0
SPLINE
  5
3F4
100
AcDbEntity
  8
0
100
AcDbSpline
 62
7
  6
CONTINUOUS
 70
0
 71
3
 72
12
 73
8
 74
0
 42
0.0000001
 43
0.0000001
 44
0.0000000001
 40
0.0
 40
0.0
 40
0.0
 40
0.0
 40
0.2498838032
 40
0.3751399943
 40
0.5004440003
 40
0.75013596
 40
1.0
 40
1.0
 40
1.0
 40
1.0
 10
4.6010008639
 20
4.3521226865
 30
0.0
 10
4.6010008639
 20
4.3531902482
 30
0.0
 10
4.6009073455
 20
4.3547969263
 30
0.0
 10
4.6004899273
 20
4.356901127
 30
0.0
 10
4.5997657388
 20
4.3589116942
 30
0.0
 10
4.5980131609
 20
4.3611510254
 30
0.0
 10
4.5957701474
 20
4.361621814
 30
0.0
 10
4.5947026701
 20
4.3616217342
 30
0.0
  0
LINE
  5
3F5
100
AcDbEntity
  8
0
100
AcDbLine
 62
7
  6
CONTINUOUS
 10
4.579968836
 20
4.2326822845
 11
4.5900793544
 21
4.232683225
  0
LINE
  5
3F6
100
AcDbEntity
  8
0
100
AcDbLine
 62
7
  6
CONTINUOUS
 10
4.5900793544
 20
4.232683225
 11
4.6001954874
 21
4.2326841044
  0
LINE
  5
3F7
100
AcDbEntity
  8
0
100
AcDbLine
 62
7
  6
CONTINUOUS
 10
4.6001954874
 20
4.2326841044
 11
4.6305775751
 21
4.2326863708
  0
LINE
  5
3F8
100
AcDbEntity
  8
0
100
AcDbLine
 62
7
  6
CONTINUOUS
 10
4.6305775751
 20
4.2326863708
 11
4.6407161674
 21
4.2326870007
  0
SPLINE
  5
3F9
100
AcDbEntity
  8
0
100
AcDbSpline
 62
7
  6
CONTINUOUS
 70
0
 71
3
 72
12
 73
8
 74
0
 42
0.0000001
 43
0.0000001
 44
0.0000000001
 40
0.0
 40
0.0
 40
0.0
 40
0.0
 40
0.1250626417
 40
0.2501418234
 40
0.5000422255
 40
0.7499968128
 40
1.0
 40
1.0
 40
1.0
 40
1.0
 10
4.6810473351
 20
4.2513512634
 30
0.0
 10
4.6797369175
 20
4.2533089365
 30
0.0
 10
4.677312598
 20
4.257360197
 30
0.0
 10
4.6732705975
 20
4.2658808954
 30
0.0
 10
4.669681753
 20
4.2771548702
 30
0.0
 10
4.6674088296
 20
4.2911326851
 30
0.0
 10
4.6669795087
 20
4.3005597678
 30
0.0
 10
4.6669795087
 20
4.3052690189
 30
0.0
  0
SPLINE
  5
3FA
100
AcDbEntity
  8
0
100
AcDbSpline
 62
7
  6
CONTINUOUS
 70
0
 71
3
 72
9
 73
5
 74
0
 42
0.0000001
 43
0.0000001
 44
0.0000000001
 40
0.0
 40
0.0
 40
0.0
 40
0.0
 40
0.2503756454
 40
1.0
 40
1.0
 40
1.0
 40
1.0
 10
4.7112670365
 20
4.2306590661
 30
0.0
 10
4.7104815024
 20
4.2307587864
 30
0.0
 10
4.7073570753
 20
4.2312509626
 30
0.0
 10
4.7042905034
 20
4.2321287313
 30
0.0
 10
4.7020895926
 20
4.2330099288
 30
0.0
  0
SPLINE
  5
3FB
100
AcDbEntity
  8
0
100
AcDbSpline
 62
7
  6
CONTINUOUS
 70
0
 71
3
 72
9
 73
5
 74
0
 42
0.0000001
 43
0.0000001
 44
0.0000000001
 40
0.0
 40
0.0
 40
0.0
 40
0.0
 40
0.2501611756
 40
1.0
 40
1.0
 40
1.0
 40
1.0
 10
4.7020895926
 20
4.2330099288
 30
0.0
 10
4.7013740794
 20
4.2332964049
 30
0.0
 10
4.6985522633
 20
4.2345365327
 30
0.0
 10
4.6958922144
 20
4.2361346811
 30
0.0
 10
4.6940160408
 20
4.2374826574
 30
0.0
  0
SPLINE
  5
3FC
100
AcDbEntity
  8
0
100
AcDbSpline
 62
7
  6
CONTINUOUS
 70
0
 71
3
 72
9
 73
5
 74
0
 42
0.0000001
 43
0.0000001
 44
0.0000000001
 40
0.0
 40
0.0
 40
0.0
 40
0.0
 40
0.5004070138
 40
1.0
 40
1.0
 40
1.0
 40
1.0
 10
4.6940160408
 20
4.2374826574
 30
0.0
 10
4.6921032152
 20
4.2388569672
 30
0.0
 10
4.688507217
 20
4.2419291534
 30
0.0
 10
4.6853961484
 20
4.2454794091
 30
0.0
 10
4.6839487691
 20
4.2473327002
 30
0.0
  0
LINE
  5
3FD
100
AcDbEntity
  8
0
100
AcDbLine
 62
7
  6
CONTINUOUS
 10
4.6839487691
 20
4.2473327002
 11
4.6810473351
 21
4.2513512634
  0
SPLINE
  5
3FE
100
AcDbEntity
  8
0
100
AcDbSpline
 62
7
  6
CONTINUOUS
 70
0
 71
3
 72
9
 73
5
 74
0
 42
0.0000001
 43
0.0000001
 44
0.0000000001
 40
0.0
 40
0.0
 40
0.0
 40
0.0
 40
0.4999142604
 40
1.0
 40
1.0
 40
1.0
 40
1.0
 10
4.734239299
 20
4.2340417763
 30
0.0
 10
4.7316499163
 20
4.2328422255
 30
0.0
 10
4.7261726654
 20
4.2310467505
 30
0.0
 10
4.7204615035
 20
4.2304286412
 30
0.0
 10
4.7176076681
 20
4.2303576726
 30
0.0
  0
LINE
  5
3FF
100
AcDbEntity
  8
0
100
AcDbLine
 62
7
  6
CONTINUOUS
 10
4.27529401
 20
4.075991965
 11
4.2902684259
 21
4.0872759967
  0
LINE
  5
400
100
AcDbEntity
  8
0
100
AcDbLine
 62
7
  6
CONTINUOUS
 10
3.8520929258
 20
3.6065899308
 11
3.852285371
 21
3.598099499
  0
SPLINE
  5
401
100
AcDbEntity
  8
0
100
AcDbSpline
 62
7
  6
CONTINUOUS
 70
0
 71
3
 72
9
 73
5
 74
0
 42
0.0000001
 43
0.0000001
 44
0.0000000001
 40
0.0
 40
0.0
 40
0.0
 40
0.0
 40
0.4999832617
 40
1.0
 40
1.0
 40
1.0
 40
1.0
 10
3.8527360766
 20
3.614343315
 30
0.0
 10
3.8524089643
 20
3.6133362973
 30
0.0
 10
3.8519963698
 20
3.6112408618
 30
0.0
 10
3.851960236
 20
3.6091143742
 30
0.0
 10
3.852021512
 20
3.6080572637
 30
0.0
  0
SPLINE
  5
402
100
AcDbEntity
  8
0
100
AcDbSpline
 62
7
  6
CONTINUOUS
 70
0
 71
3
 72
12
 73
8
 74
0
 42
0.0000001
 43
0.0000001
 44
0.0000000001
 40
0.0
 40
0.0
 40
0.0
 40
0.0
 40
0.2498841114
 40
0.3751404098
 40
0.5004443899
 40
0.7501361424
 40
1.0
 40
1.0
 40
1.0
 40
1.0
 10
3.863716384
 20
3.6173977652
 30
0.0
 10
3.8627010836
 20
3.6177276563
 30
0.0
 10
3.8611441603
 20
3.6181352013
 30
0.0
 10
3.8590139824
 20
3.6183884476
 30
0.0
 10
3.8568780584
 20
3.6183210148
 30
0.0
 10
3.8542067867
 20
3.6173462547
 30
0.0
 10
3.8530658611
 20
3.615358559
 30
0.0
 10
3.8527360766
 20
3.614343315
 30
0.0
  0
LINE
  5
403
100
AcDbEntity
  8
0
100
AcDbLine
 62
7
  6
CONTINUOUS
 10
3.9708118868
 20
3.5604859442
 11
3.9739353337
 21
3.5701021156
  0
LINE
  5
404
100
AcDbEntity
  8
0
100
AcDbLine
 62
7
  6
CONTINUOUS
 10
3.9739353337
 20
3.5701021156
 11
3.9754954678
 21
3.5749052341
  0
LINE
  5
405
100
AcDbEntity
  8
0
100
AcDbLine
 62
7
  6
CONTINUOUS
 10
3.9754954678
 20
3.5749052341
 11
3.9845063742
 21
3.6026457516
  0
LINE
  5
406
100
AcDbEntity
  8
0
100
AcDbLine
 62
7
  6
CONTINUOUS
 10
3.9845063742
 20
3.6026457516
 11
3.9864468044
 21
3.6086192414
  0
LINE
  5
407
100
AcDbEntity
  8
0
100
AcDbLine
 62
7
  6
CONTINUOUS
 10
3.9864468044
 20
3.6086192414
 11
3.9895790955
 21
3.6182616326
  0
LINE
  5
408
100
AcDbEntity
  8
0
100
AcDbLine
 62
7
  6
CONTINUOUS
 10
3.8857383106
 20
3.7101577051
 11
3.8859301471
 21
3.7016685163
  0
SPLINE
  5
409
100
AcDbEntity
  8
0
100
AcDbSpline
 62
7
  6
CONTINUOUS
 70
0
 71
3
 72
9
 73
5
 74
0
 42
0.0000001
 43
0.0000001
 44
0.0000000001
 40
0.0
 40
0.0
 40
0.0
 40
0.0
 40
0.4999858375
 40
1.0
 40
1.0
 40
1.0
 40
1.0
 10
3.8863815855
 20
3.717911111
 30
0.0
 10
3.8860544124
 20
3.7169041051
 30
0.0
 10
3.8856419077
 20
3.7148086303
 30
0.0
 10
3.8856058005
 20
3.7126821551
 30
0.0
 10
3.8856670203
 20
3.7116250448
 30
0.0
  0
SPLINE
  5
40A
100
AcDbEntity
  8
0
100
AcDbSpline
 62
7
  6
CONTINUOUS
 70
0
 71
3
 72
12
 73
8
 74
0
 42
0.0000001
 43
0.0000001
 44
0.0000000001
 40
0.0
 40
0.0
 40
0.0
 40
0.0
 40
0.2498801125
 40
0.3751351918
 40
0.5004395337
 40
0.7501344809
 40
1.0
 40
1.0
 40
1.0
 40
1.0
 10
3.8973625438
 20
3.7209663424
 30
0.0
 10
3.8963471692
 20
3.7212962576
 30
0.0
 10
3.8947901281
 20
3.721703831
 30
0.0
 10
3.8926597748
 20
3.7219570714
 30
0.0
 10
3.8905236572
 20
3.7218895553
 30
0.0
 10
3.8878521196
 20
3.7209144827
 30
0.0
 10
3.8867114604
 20
3.7189264331
 30
0.0
 10
3.8863815855
 20
3.717911111
 30
0.0
  0
LINE
  5
40B
100
AcDbEntity
  8
0
100
AcDbLine
 62
7
  6
CONTINUOUS
 10
4.004455873
 20
3.6640552229
 11
4.0075831009
 21
3.6736808341
  0
LINE
  5
40C
100
AcDbEntity
  8
0
100
AcDbLine
 62
7
  6
CONTINUOUS
 10
4.0075831009
 20
3.6736808341
 11
4.009140258
 21
3.6784736871
  0
LINE
  5
40D
100
AcDbEntity
  8
0
100
AcDbLine
 62
7
  6
CONTINUOUS
 10
4.009140258
 20
3.6784736871
 11
4.0181530314
 21
3.7062135382
  0
LINE
  5
40E
100
AcDbEntity
  8
0
100
AcDbLine
 62
7
  6
CONTINUOUS
 10
4.0181530314
 20
3.7062135382
 11
4.0200971871
 21
3.7121971042
  0
LINE
  5
40F
100
AcDbEntity
  8
0
100
AcDbLine
 62
7
  6
CONTINUOUS
 10
4.0200971871
 20
3.7121971042
 11
4.0232270028
 21
3.7218296279
  0
SPLINE
  5
410
100
AcDbEntity
  8
0
100
AcDbSpline
 62
7
  6
CONTINUOUS
 70
0
 71
3
 72
15
 73
11
 74
0
 42
0.0000001
 43
0.0000001
 44
0.0000000001
 40
0.0
 40
0.0
 40
0.0
 40
0.0
 40
0.1249926183
 40
0.18765498
 40
0.2501939842
 40
0.3751690599
 40
0.5001504121
 40
0.625138192
 40
0.7501044408
 40
1.0
 40
1.0
 40
1.0
 40
1.0
 10
3.9799243129
 20
3.8271376507
 30
0.0
 10
3.9778917976
 20
3.8260130694
 30
0.0
 10
3.9750291437
 20
3.8239737671
 30
0.0
 10
3.9715722634
 20
3.8208637425
 30
0.0
 10
3.9683116199
 20
3.8175449976
 30
0.0
 10
3.9645778825
 20
3.8130859648
 30
0.0
 10
3.960503011
 20
3.8074285335
 30
0.0
 10
3.9567564903
 20
3.8015499535
 30
0.0
 10
3.9521135968
 20
3.7935018676
 30
0.0
 10
3.9489554404
 20
3.7872860216
 30
0.0
 10
3.9469537457
 20
3.7830954437
 30
0.0
  0
SPLINE
  5
411
100
AcDbEntity
  8
0
100
AcDbSpline
 62
7
  6
CONTINUOUS
 70
0
 71
3
 72
9
 73
5
 74
0
 42
0.0000001
 43
0.0000001
 44
0.0000000001
 40
0.0
 40
0.0
 40
0.0
 40
0.0
 40
0.4999370779
 40
1.0
 40
1.0
 40
1.0
 40
1.0
 10
4.0130638582
 20
3.8304277281
 30
0.0
 10
4.0076636784
 20
3.8321823529
 30
0.0
 10
3.9959991634
 20
3.8336997339
 30
0.0
 10
3.9848938627
 20
3.8298872795
 30
0.0
 10
3.9799243129
 20
3.8271376507
 30
0.0
  0
SPLINE
  5
412
100
AcDbEntity
  8
0
100
AcDbSpline
 62
7
  6
CONTINUOUS
 70
0
 71
3
 72
13
 73
9
 74
0
 42
0.0000001
 43
0.0000001
 44
0.0000000001
 40
0.0
 40
0.0
 40
0.0
 40
0.0
 40
0.2498587441
 40
0.4995334032
 40
0.6246609989
 40
0.7497980785
 40
0.8749463432
 40
1.0
 40
1.0
 40
1.0
 40
1.0
 10
4.0331908605
 20
3.756983608
 30
0.0
 10
4.0324061143
 20
3.756159491
 30
0.0
 10
4.0307223631
 20
3.7546139174
 30
0.0
 10
4.0282350843
 20
3.7531575774
 30
0.0
 10
4.0260451571
 20
3.7524955268
 30
0.0
 10
4.0243363223
 20
3.752302445
 30
0.0
 10
4.0226221704
 20
3.752422425
 30
0.0
 10
4.0215102839
 20
3.752696474
 30
0.0
 10
4.0209686046
 20
3.7528724763
 30
0.0
  0
SPLINE
  5
413
100
AcDbEntity
  8
0
100
AcDbSpline
 62
7
  6
CONTINUOUS
 70
0
 71
3
 72
11
 73
7
 74
0
 42
0.0000001
 43
0.0000001
 44
0.0000000001
 40
0.0
 40
0.0
 40
0.0
 40
0.0
 40
0.249998248
 40
0.4999776589
 40
0.7499958729
 40
1.0
 40
1.0
 40
1.0
 40
1.0
 10
4.0425700739
 20
3.7738185261
 30
0.0
 10
4.0420382718
 20
3.7722915509
 30
0.0
 10
4.0408847369
 20
3.7692677742
 30
0.0
 10
4.0388184567
 20
3.7648723973
 30
0.0
 10
4.0363273616
 20
3.7606995022
 30
0.0
 10
4.0343059171
 20
3.758154607
 30
0.0
 10
4.0331908605
 20
3.756983608
 30
0.0
  0
SPLINE
  5
414
100
AcDbEntity
  8
0
100
AcDbSpline
 62
7
  6
CONTINUOUS
 70
0
 71
3
 72
9
 73
5
 74
0
 42
0.0000001
 43
0.0000001
 44
0.0000000001
 40
0.0
 40
0.0
 40
0.0
 40
0.0
 40
0.7498385743
 40
1.0
 40
1.0
 40
1.0
 40
1.0
 10
4.0423831395
 20
3.8181299833
 30
0.0
 10
4.0435156449
 20
3.8153172624
 30
0.0
 10
4.0447499159
 20
3.8114435236
 30
0.0
 10
4.0455643211
 20
3.8074816442
 30
0.0
 10
4.0457409556
 20
3.8064855958
 30
0.0
  0
SPLINE
  5
415
100
AcDbEntity
  8
0
100
AcDbSpline
 62
7
  6
CONTINUOUS
 70
0
 71
3
 72
9
 73
5
 74
0
 42
0.0000001
 43
0.0000001
 44
0.0000000001
 40
0.0
 40
0.0
 40
0.0
 40
0.0
 40
0.5000379986
 40
1.0
 40
1.0
 40
1.0
 40
1.0
 10
4.0464131692
 20
3.8013162972
 30
0.0
 10
4.0466310292
 20
3.798720976
 30
0.0
 10
4.0467183615
 20
3.793495846
 30
0.0
 10
4.0461342561
 20
3.7883055413
 30
0.0
 10
4.0456921323
 20
3.7857392951
 30
0.0
  0
SPLINE
  5
416
100
AcDbEntity
  8
0
100
AcDbSpline
 62
7
  6
CONTINUOUS
 70
0
 71
3
 72
11
 73
7
 74
0
 42
0.0000001
 43
0.0000001
 44
0.0000000001
 40
0.0
 40
0.0
 40
0.0
 40
0.0
 40
0.2497632794
 40
0.4998700869
 40
0.7499115708
 40
1.0
 40
1.0
 40
1.0
 40
1.0
 10
4.0083236903
 20
3.8503778518
 30
0.0
 10
4.0102994863
 20
3.8497358768
 30
0.0
 10
4.0141928347
 20
3.8482526067
 30
0.0
 10
4.0197608395
 20
3.8454114101
 30
0.0
 10
4.0249495422
 20
3.8419168394
 30
0.0
 10
4.0280952217
 20
3.8391759979
 30
0.0
 10
4.0295785229
 20
3.8377175865
 30
0.0
  0
SPLINE
  5
417
100
AcDbEntity
  8
0
100
AcDbSpline
 62
7
  6
CONTINUOUS
 70
0
 71
3
 72
9
 73
5
 74
0
 42
0.0000001
 43
0.0000001
 44
0.0000000001
 40
0.0
 40
0.0
 40
0.0
 40
0.0
 40
0.5000507114
 40
1.0
 40
1.0
 40
1.0
 40
1.0
 10
4.0295785229
 20
3.8377175865
 30
0.0
 10
4.0307512149
 20
3.8365645721
 30
0.0
 10
4.0329873486
 20
3.8341449777
 30
0.0
 10
4.0349810386
 20
3.8315227814
 30
0.0
 10
4.0359178539
 20
3.8301715121
 30
0.0
  0
SPLINE
  5
418
100
AcDbEntity
  8
0
100
AcDbSpline
 62
7
  6
CONTINUOUS
 70
0
 71
3
 72
9
 73
5
 74
0
 42
0.0000001
 43
0.0000001
 44
0.0000000001
 40
0.0
 40
0.0
 40
0.0
 40
0.0
 40
0.2503070187
 40
1.0
 40
1.0
 40
1.0
 40
1.0
 10
4.0359178539
 20
3.8301715121
 30
0.0
 10
4.0363941812
 20
3.8294844542
 30
0.0
 10
4.0382358083
 20
3.8266973154
 30
0.0
 10
4.0398388877
 20
3.8237545569
 30
0.0
 10
4.040911141
 20
3.8214917841
 30
0.0
  0
LINE
  5
419
100
AcDbEntity
  8
0
100
AcDbLine
 62
7
  6
CONTINUOUS
 10
3.9345139267
 20
3.8080169496
 11
3.9207745219
 21
3.8216861201
  0
LINE
  5
41A
100
AcDbEntity
  8
0
100
AcDbLine
 62
7
  6
CONTINUOUS
 10
3.9207745219
 20
3.8216861201
 11
3.9354248918
 21
3.8667674708
  0
LINE
  5
41B
100
AcDbEntity
  8
0
100
AcDbLine
 62
7
  6
CONTINUOUS
 10
3.9354248918
 20
3.8667674708
 11
3.9200209356
 21
3.8818755645
  0
LINE
  5
41C
100
AcDbEntity
  8
0
100
AcDbLine
 62
7
  6
CONTINUOUS
 10
3.9877501032
 20
3.4078087191
 11
3.986115933
 21
3.4264873697
  0
LINE
  5
41D
100
AcDbEntity
  8
0
100
AcDbLine
 62
7
  6
CONTINUOUS
 10
4.0506346017
 20
2.9109081776
 11
4.0541191487
 21
2.9079935064
  0
SPLINE
  5
41E
100
AcDbEntity
  8
0
100
AcDbSpline
 62
7
  6
CONTINUOUS
 70
0
 71
3
 72
9
 73
5
 74
0
 42
0.0000001
 43
0.0000001
 44
0.0000000001
 40
0.0
 40
0.0
 40
0.0
 40
0.0
 40
0.4999832617
 40
1.0
 40
1.0
 40
1.0
 40
1.0
 10
4.0464412922
 20
2.9156453919
 30
0.0
 10
4.0469707714
 20
2.9147284737
 30
0.0
 10
4.0482519038
 20
2.9130197362
 30
0.0
 10
4.0498080138
 20
2.9115699856
 30
0.0
 10
4.0506346017
 20
2.9109081776
 30
0.0
  0
SPLINE
  5
41F
100
AcDbEntity
  8
0
100
AcDbSpline
 62
7
  6
CONTINUOUS
 70
0
 71
3
 72
12
 73
8
 74
0
 42
0.0000001
 43
0.0000001
 44
0.0000000001
 40
0.0
 40
0.0
 40
0.0
 40
0.0
 40
0.2498841114
 40
0.3751404098
 40
0.5004443899
 40
0.7501361424
 40
1.0
 40
1.0
 40
1.0
 40
1.0
 10
4.0515186531
 20
2.9258491766
 30
0.0
 10
4.0505941276
 20
2.9253154016
 30
0.0
 10
4.0492494777
 20
2.9244310829
 30
0.0
 10
4.0476359118
 20
2.9230175071
 30
0.0
 10
4.046256812
 20
2.9213850848
 30
0.0
 10
4.0451937702
 20
2.9187477013
 30
0.0
 10
4.0459074878
 20
2.9165698004
 30
0.0
 10
4.0464412922
 20
2.9156453919
 30
0.0
  0
LINE
  5
420
100
AcDbEntity
  8
0
100
AcDbLine
 62
7
  6
CONTINUOUS
 10
4.165473257
 20
2.967355204
 11
4.160417043
 21
2.976110852
  0
LINE
  5
421
100
AcDbEntity
  8
0
100
AcDbLine
 62
7
  6
CONTINUOUS
 10
4.160417043
 20
2.976110852
 11
4.157891571
 21
2.9804841588
  0
LINE
  5
422
100
AcDbEntity
  8
0
100
AcDbLine
 62
7
  6
CONTINUOUS
 10
4.157891571
 20
2.9804841588
 11
4.1549545595
 21
2.9855701584
  0
LINE
  5
423
100
AcDbEntity
  8
0
100
AcDbLine
 62
7
  6
CONTINUOUS
 10
4.1549545595
 20
2.9855701584
 11
4.1433058208
 21
3.0057425989
  0
LINE
  5
424
100
AcDbEntity
  8
0
100
AcDbLine
 62
7
  6
CONTINUOUS
 10
4.1433058208
 20
3.0057425989
 11
4.1401650482
 21
3.0111816745
  0
LINE
  5
425
100
AcDbEntity
  8
0
100
AcDbLine
 62
7
  6
CONTINUOUS
 10
4.1401650482
 20
3.0111816745
 11
4.1350952669
 21
3.0199614395
  0
SPLINE
  5
426
100
AcDbEntity
  8
0
100
AcDbSpline
 62
7
  6
CONTINUOUS
 70
0
 71
3
 72
9
 73
5
 74
0
 42
0.0000001
 43
0.0000001
 44
0.0000000001
 40
0.0
 40
0.0
 40
0.0
 40
0.0
 40
0.4593133434
 40
1.0
 40
1.0
 40
1.0
 40
1.0
 10
4.0289737923
 20
3.0692625087
 30
0.0
 10
4.031851463
 20
3.06881233
 30
0.0
 10
4.0380965923
 20
3.0677042666
 30
0.0
 10
4.044309977
 20
3.0664344132
 30
0.0
 10
4.0476629873
 20
3.0657180173
 30
0.0
  0
LINE
  5
427
100
AcDbEntity
  8
0
100
AcDbLine
 62
7
  6
CONTINUOUS
 10
4.0723184015
 20
3.0600083363
 11
4.0757333104
 21
3.0591650546
  0
SPLINE
  5
428
100
AcDbEntity
  8
0
100
AcDbSpline
 62
7
  6
CONTINUOUS
 70
0
 71
3
 72
12
 73
8
 74
0
 42
0.0000001
 43
0.0000001
 44
0.0000000001
 40
0.0
 40
0.0
 40
0.0
 40
0.0
 40
0.1053894899
 40
0.2142836224
 40
0.4472126399
 40
0.7072303319
 40
1.0
 40
1.0
 40
1.0
 40
1.0
 10
3.9824738545
 20
3.0639990463
 30
0.0
 10
3.9839235617
 20
3.0648360508
 30
0.0
 10
3.9869767862
 20
3.0663610352
 30
0.0
 10
3.9936600145
 20
3.0688040391
 30
0.0
 10
4.0031086958
 20
3.0706322201
 30
0.0
 10
4.0156263796
 20
3.070923771
 30
0.0
 10
4.0243791671
 20
3.0699811318
 30
0.0
 10
4.0289735817
 20
3.0692623871
 30
0.0
  0
LINE
  5
429
100
AcDbEntity
  8
0
100
AcDbLine
 62
7
  6
CONTINUOUS
 10
4.0283307309
 20
2.9901265324
 11
4.0278735369
 21
2.9945471216
  0
SPLINE
  5
42A
100
AcDbEntity
  8
0
100
AcDbSpline
 62
7
  6
CONTINUOUS
 70
0
 71
3
 72
9
 73
5
 74
0
 42
0.0000001
 43
0.0000001
 44
0.0000000001
 40
0.0
 40
0.0
 40
0.0
 40
0.0
 40
0.2502045084
 40
1.0
 40
1.0
 40
1.0
 40
1.0
 10
4.0019585986
 20
2.9961104017
 30
0.0
 10
4.0027593702
 20
2.9957963177
 30
0.0
 10
4.0060219635
 20
2.9946983793
 30
0.0
 10
4.0094491522
 20
2.994151462
 30
0.0
 10
4.0120181661
 20
2.9939402354
 30
0.0
  0
SPLINE
  5
42B
100
AcDbEntity
  8
0
100
AcDbSpline
 62
7
  6
CONTINUOUS
 70
0
 71
3
 72
9
 73
5
 74
0
 42
0.0000001
 43
0.0000001
 44
0.0000000001
 40
0.0
 40
0.0
 40
0.0
 40
0.0
 40
0.4999409979
 40
1.0
 40
1.0
 40
1.0
 40
1.0
 10
4.0120181661
 20
2.9939402354
 30
0.0
 10
4.0146569778
 20
2.99372327
 30
0.0
 10
4.0199704094
 20
2.9937024177
 30
0.0
 10
4.0252471084
 20
2.9942071447
 30
0.0
 10
4.0278735369
 20
2.9945471216
 30
0.0
  0
SPLINE
  5
42C
100
AcDbEntity
  8
0
100
AcDbSpline
 62
7
  6
CONTINUOUS
 70
0
 71
3
 72
11
 73
7
 74
0
 42
0.0000001
 43
0.0000001
 44
0.0000000001
 40
0.0
 40
0.0
 40
0.0
 40
0.0
 40
0.2498651627
 40
0.4997947078
 40
0.7497753005
 40
1.0
 40
1.0
 40
1.0
 40
1.0
 10
3.9879587461
 20
3.0078741742
 30
0.0
 10
3.988694608
 20
3.0067506894
 30
0.0
 10
3.9902864908
 20
3.0045784961
 30
0.0
 10
3.9930525889
 20
3.0016327098
 30
0.0
 10
3.9961933188
 20
2.9990835712
 30
0.0
 10
3.9985160118
 20
2.9977068955
 30
0.0
 10
3.9997194219
 20
2.9971063045
 30
0.0
  0
SPLINE
  5
42D
100
AcDbEntity
  8
0
100
AcDbSpline
 62
7
  6
CONTINUOUS
 70
0
 71
3
 72
14
 73
10
 74
0
 42
0.0000001
 43
0.0000001
 44
0.0000000001
 40
0.0
 40
0.0
 40
0.0
 40
0.0
 40
0.1249023451
 40
0.2500970728
 40
0.375181888
 40
0.5002646133
 40
0.6254100112
 40
0.7504459383
 40
1.0
 40
1.0
 40
1.0
 40
1.0
 10
3.9851758761
 20
3.0322449015
 30
0.0
 10
3.9847724775
 20
3.0313560954
 30
0.0
 10
3.9840655042
 20
3.0295285046
 30
0.0
 10
3.9833406243
 20
3.0266799578
 30
0.0
 10
3.9829975028
 20
3.0237572851
 30
0.0
 10
3.9830603184
 20
3.0208163964
 30
0.0
 10
3.9834968297
 20
3.0179083887
 30
0.0
 10
3.984553204
 20
3.0141405982
 30
0.0
 10
3.985810939
 20
3.0114698821
 30
0.0
 10
3.9867860591
 20
3.0097809996
 30
0.0
  0
SPLINE
  5
42E
100
AcDbEntity
  8
0
100
AcDbSpline
 62
7
  6
CONTINUOUS
 70
0
 71
3
 72
11
 73
7
 74
0
 42
0.0000001
 43
0.0000001
 44
0.0000000001
 40
0.0
 40
0.0
 40
0.0
 40
0.0
 40
0.2446398548
 40
0.4888051005
 40
0.7387574311
 40
1.0
 40
1.0
 40
1.0
 40
1.0
 10
3.9998736697
 20
3.0490194845
 30
0.0
 10
3.9982737398
 20
3.0480957826
 30
0.0
 10
3.9952218475
 20
3.0459835237
 30
0.0
 10
3.9912134041
 20
3.0420681414
 30
0.0
 10
3.9878112757
 20
3.0374618516
 30
0.0
 10
3.9859911846
 20
3.0340413224
 30
0.0
 10
3.9851758369
 20
3.0322448866
 30
0.0
  0
LINE
  5
42F
100
AcDbEntity
  8
0
100
AcDbLine
 62
7
  6
CONTINUOUS
 10
4.121481867
 20
3.0435375355
 11
4.1072001176
 21
3.0682720974
  0
LINE
  5
430
100
AcDbEntity
  8
0
100
AcDbLine
 62
7
  6
CONTINUOUS
 10
4.1072001176
 20
3.0682720974
 11
4.0881707209
 21
3.1012307125
  0
LINE
  5
431
100
AcDbEntity
  8
0
100
AcDbLine
 62
7
  6
CONTINUOUS
 10
4.0881707209
 20
3.1012307125
 11
4.0786156397
 21
3.1177806563
  0
LINE
  5
432
100
AcDbEntity
  8
0
100
AcDbLine
 62
7
  6
CONTINUOUS
 10
4.0786156397
 20
3.1177806563
 11
4.0621278796
 21
3.1154861274
  0
LINE
  5
433
100
AcDbEntity
  8
0
100
AcDbLine
 62
7
  6
CONTINUOUS
 10
4.0621278796
 20
3.1154861274
 11
4.0454179035
 21
3.113160682
  0
SPLINE
  5
434
100
AcDbEntity
  8
0
100
AcDbSpline
 62
7
  6
CONTINUOUS
 70
0
 71
3
 72
12
 73
8
 74
0
 42
0.0000001
 43
0.0000001
 44
0.0000000001
 40
0.0
 40
0.0
 40
0.0
 40
0.0
 40
0.1250644037
 40
0.2501448998
 40
0.500046288
 40
0.7499997444
 40
1.0
 40
1.0
 40
1.0
 40
1.0
 10
4.0443169975
 20
3.139864159
 30
0.0
 10
4.0432767435
 20
3.137750432
 30
0.0
 10
4.0409802815
 20
3.133625219
 30
0.0
 10
4.035621942
 20
3.1258643005
 30
0.0
 10
4.0276526626
 20
3.117119203
 30
0.0
 10
4.0166838839
 20
3.108161826
 30
0.0
 10
4.0087344201
 20
3.1030764595
 30
0.0
 10
4.0046560871
 20
3.1007218328
 30
0.0
  0
SPLINE
  5
435
100
AcDbEntity
  8
0
100
AcDbSpline
 62
7
  6
CONTINUOUS
 70
0
 71
3
 72
11
 73
7
 74
0
 42
0.0000001
 43
0.0000001
 44
0.0000000001
 40
0.0
 40
0.0
 40
0.0
 40
0.0
 40
0.249595128
 40
0.5000613693
 40
0.7502579855
 40
1.0
 40
1.0
 40
1.0
 40
1.0
 10
4.0448857954
 20
3.1809030791
 30
0.0
 10
4.0456765995
 20
3.1795331988
 30
0.0
 10
4.0471011929
 20
3.1766927077
 30
0.0
 10
4.0487132501
 20
3.1722076505
 30
0.0
 10
4.0497479483
 20
3.1675520008
 30
0.0
 10
4.0500074464
 20
3.1643834267
 30
0.0
 10
4.0500383453
 20
3.1628010443
 30
0.0
  0
SPLINE
  5
436
100
AcDbEntity
  8
0
100
AcDbSpline
 62
7
  6
CONTINUOUS
 70
0
 71
3
 72
11
 73
7
 74
0
 42
0.0000001
 43
0.0000001
 44
0.0000000001
 40
0.0
 40
0.0
 40
0.0
 40
0.0
 40
0.2503611689
 40
0.5006022755
 40
0.7504285292
 40
1.0
 40
1.0
 40
1.0
 40
1.0
 10
4.0500383453
 20
3.1628010443
 30
0.0
 10
4.05007721
 20
3.1608107262
 30
0.0
 10
4.0498444106
 20
3.1568198579
 30
0.0
 10
4.0486747347
 20
3.1509525738
 30
0.0
 10
4.0468056997
 20
3.1452798185
 30
0.0
 10
4.045193246
 20
3.1416446378
 30
0.0
 10
4.0443169975
 20
3.139864159
 30
0.0
  0
SPLINE
  5
437
100
AcDbEntity
  8
0
100
AcDbSpline
 62
7
  6
CONTINUOUS
 70
0
 71
3
 72
12
 73
8
 74
0
 42
0.0000001
 43
0.0000001
 44
0.0000000001
 40
0.0
 40
0.0
 40
0.0
 40
0.0
 40
0.2498365171
 40
0.4998179128
 40
0.6248763854
 40
0.74998113
 40
1.0
 40
1.0
 40
1.0
 40
1.0
 10
4.0063306741
 20
3.2018159676
 30
0.0
 10
4.008655465
 20
3.2018630255
 30
0.0
 10
4.0133174035
 20
3.2017023811
 30
0.0
 10
4.0190712223
 20
3.2007058025
 30
0.0
 10
4.0235322029
 20
3.1993562689
 30
0.0
 10
4.0278546562
 20
3.197616305
 30
0.0
 10
4.0309070299
 20
3.1958666191
 30
0.0
 10
4.0328059199
 20
3.1945216359
 30
0.0
  0
SPLINE
  5
438
100
AcDbEntity
  8
0
100
AcDbSpline
 62
7
  6
CONTINUOUS
 70
0
 71
3
 72
9
 73
5
 74
0
 42
0.0000001
 43
0.0000001
 44
0.0000000001
 40
0.0
 40
0.0
 40
0.0
 40
0.0
 40
0.499979378
 40
1.0
 40
1.0
 40
1.0
 40
1.0
 10
4.0328059199
 20
3.1945216359
 30
0.0
 10
4.0351288517
 20
3.1928763042
 30
0.0
 10
4.0393999463
 20
3.1890287758
 30
0.0
 10
4.0427736406
 20
3.1843985661
 30
0.0
 10
4.0442546798
 20
3.1819673137
 30
0.0
  0
SPLINE
  5
439
100
AcDbEntity
  8
0
100
AcDbSpline
 62
7
  6
CONTINUOUS
 70
0
 71
3
 72
11
 73
7
 74
0
 42
0.0000001
 43
0.0000001
 44
0.0000000001
 40
0.0
 40
0.0
 40
0.0
 40
0.0
 40
0.2498048691
 40
0.4998645117
 40
0.7502273247
 40
1.0
 40
1.0
 40
1.0
 40
1.0
 10
3.9528367075
 20
3.1855753861
 30
0.0
 10
3.9569087869
 20
3.1879264022
 30
0.0
 10
3.9652757149
 20
3.1922677084
 30
0.0
 10
3.9784709009
 20
3.1973901934
 30
0.0
 10
3.9922210102
 20
3.2007787689
 30
0.0
 10
4.0016302107
 20
3.201720822
 30
0.0
 10
4.0063306741
 20
3.2018159676
 30
0.0
  0
LINE
  5
43A
100
AcDbEntity
  8
0
100
AcDbLine
 62
7
  6
CONTINUOUS
 10
4.8634933909
 20
2.6256001951
 11
4.8570684802
 21
2.6255997493
  0
SPLINE
  5
43B
100
AcDbEntity
  8
0
100
AcDbSpline
 62
7
  6
CONTINUOUS
 70
0
 71
3
 72
9
 73
5
 74
0
 42
0.0000001
 43
0.0000001
 44
0.0000000001
 40
0.0
 40
0.0
 40
0.0
 40
0.0
 40
0.2494442637
 40
1.0
 40
1.0
 40
1.0
 40
1.0
 10
4.8644334453
 20
2.722901653
 30
0.0
 10
4.8641539903
 20
2.7232227212
 30
0.0
 10
4.8629679043
 20
2.7244526178
 30
0.0
 10
4.8615620971
 20
2.7254580546
 30
0.0
 10
4.8604524534
 20
2.7260975951
 30
0.0
  0
SPLINE
  5
43C
100
AcDbEntity
  8
0
100
AcDbSpline
 62
7
  6
CONTINUOUS
 70
0
 71
3
 72
9
 73
5
 74
0
 42
0.0000001
 43
0.0000001
 44
0.0000000001
 40
0.0
 40
0.0
 40
0.0
 40
0.0
 40
0.5000468763
 40
1.0
 40
1.0
 40
1.0
 40
1.0
 10
4.872437879
 20
2.7023040722
 30
0.0
 10
4.872159813
 20
2.7044662775
 30
0.0
 10
4.8713981669
 20
2.7087674114
 30
0.0
 10
4.8700835641
 20
2.7129458428
 30
0.0
 10
4.8692461428
 20
2.7149581539
 30
0.0
  0
SPLINE
  5
43D
100
AcDbEntity
  8
0
100
AcDbSpline
 62
7
  6
CONTINUOUS
 70
0
 71
3
 72
9
 73
5
 74
0
 42
0.0000001
 43
0.0000001
 44
0.0000000001
 40
0.0
 40
0.0
 40
0.0
 40
0.0
 40
0.5000366114
 40
1.0
 40
1.0
 40
1.0
 40
1.0
 10
4.8692461428
 20
2.7149581539
 30
0.0
 10
4.8686494382
 20
2.7163920263
 30
0.0
 10
4.8672681457
 20
2.7191864912
 30
0.0
 10
4.8654529426
 20
2.7217303437
 30
0.0
 10
4.8644334453
 20
2.722901653
 30
0.0
  0
LINE
  5
43E
100
AcDbEntity
  8
0
100
AcDbLine
 62
7
  6
CONTINUOUS
 10
4.8788627898
 20
2.7023046185
 11
4.872437879
 21
2.7023040722
  0
SPLINE
  5
43F
100
AcDbEntity
  8
0
100
AcDbSpline
 62
7
  6
CONTINUOUS
 70
0
 71
3
 72
15
 73
11
 74
0
 42
0.0000001
 43
0.0000001
 44
0.0000000001
 40
0.0
 40
0.0
 40
0.0
 40
0.0
 40
0.1249883258
 40
0.2507159164
 40
0.3757025867
 40
0.4382558694
 40
0.5007496961
 40
0.6255972283
 40
0.7504579793
 40
1.0
 40
1.0
 40
1.0
 40
1.0
 10
5.5505490695
 20
3.8016542514
 30
0.0
 10
5.5487990127
 20
3.8011853251
 30
0.0
 10
5.5454275276
 20
3.7996883283
 30
0.0
 10
5.5410751135
 20
3.796357087
 30
0.0
 10
5.5380281272
 20
3.7929618773
 30
0.0
 10
5.5358860163
 20
3.7900370592
 30
0.0
 10
5.5338990131
 20
3.7870064485
 30
0.0
 10
5.5316805945
 20
3.7830554047
 30
0.0
 10
5.5285955661
 20
3.7765047098
 30
0.0
 10
5.5266867046
 20
3.7714136931
 30
0.0
 10
5.5255377448
 20
3.7679837318
 30
0.0
  0
SPLINE
  5
440
100
AcDbEntity
  8
0
100
AcDbSpline
 62
7
  6
CONTINUOUS
 70
0
 71
3
 72
9
 73
5
 74
0
 42
0.0000001
 43
0.0000001
 44
0.0000000001
 40
0.0
 40
0.0
 40
0.0
 40
0.0
 40
0.5000004082
 40
1.0
 40
1.0
 40
1.0
 40
1.0
 10
5.5455418119
 20
3.7559677881
 30
0.0
 10
5.5481103971
 20
3.7553546091
 30
0.0
 10
5.5534371017
 20
3.7548211436
 30
0.0
 10
5.5587073256
 20
3.755650188
 30
0.0
 10
5.5612581007
 20
3.7563336661
 30
0.0
  0
SPLINE
  5
441
100
AcDbEntity
  8
0
100
AcDbSpline
 62
7
  6
CONTINUOUS
 70
0
 71
3
 72
9
 73
5
 74
0
 42
0.0000001
 43
0.0000001
 44
0.0000000001
 40
0.0
 40
0.0
 40
0.0
 40
0.0
 40
0.5000448209
 40
1.0
 40
1.0
 40
1.0
 40
1.0
 10
5.5297046651
 20
3.764665752
 30
0.0
 10
5.5311848669
 20
3.7635419328
 30
0.0
 10
5.5342045803
 20
3.7613719485
 30
0.0
 10
5.5373839364
 20
3.7594330097
 30
0.0
 10
5.5390265794
 20
3.7585644174
 30
0.0
  0
SPLINE
  5
442
100
AcDbEntity
  8
0
100
AcDbSpline
 62
7
  6
CONTINUOUS
 70
0
 71
3
 72
9
 73
5
 74
0
 42
0.0000001
 43
0.0000001
 44
0.0000000001
 40
0.0
 40
0.0
 40
0.0
 40
0.0
 40
0.5000901633
 40
1.0
 40
1.0
 40
1.0
 40
1.0
 10
5.5390265794
 20
3.7585644174
 30
0.0
 10
5.5400620799
 20
3.7580168683
 30
0.0
 10
5.5421766293
 20
3.7570031363
 30
0.0
 10
5.5444028831
 20
3.7562396759
 30
0.0
 10
5.5455418119
 20
3.7559677881
 30
0.0
  0
SPLINE
  5
443
100
AcDbEntity
  8
0
100
AcDbSpline
 62
7
  6
CONTINUOUS
 70
0
 71
3
 72
12
 73
8
 74
0
 42
0.0000001
 43
0.0000001
 44
0.0000000001
 40
0.0
 40
0.0
 40
0.0
 40
0.0
 40
0.2499541628
 40
0.3752245751
 40
0.5003325154
 40
0.7502774089
 40
1.0
 40
1.0
 40
1.0
 40
1.0
 10
5.4564077805
 20
3.7311108152
 30
0.0
 10
5.4577442224
 20
3.730270732
 30
0.0
 10
5.459919541
 20
3.7292543771
 30
0.0
 10
5.4629828956
 20
3.7284579139
 30
0.0
 10
5.4661210795
 20
3.7280339322
 30
0.0
 10
5.4700921111
 20
3.7281369234
 30
0.0
 10
5.473198599
 20
3.7287591529
 30
0.0
 10
5.4747219476
 20
3.729167333
 30
0.0
  0
SPLINE
  5
444
100
AcDbEntity
  8
0
100
AcDbSpline
 62
7
  6
CONTINUOUS
 70
0
 71
3
 72
12
 73
8
 74
0
 42
0.0000001
 43
0.0000001
 44
0.0000000001
 40
0.0
 40
0.0
 40
0.0
 40
0.0
 40
0.2498233458
 40
0.4997697048
 40
0.6248801993
 40
0.750061021
 40
1.0
 40
1.0
 40
1.0
 40
1.0
 10
5.4460907836
 20
3.7457008777
 30
0.0
 10
5.4464852138
 20
3.7442291029
 30
0.0
 10
5.4474755457
 20
3.7413319714
 30
0.0
 10
5.4493275205
 20
3.7379731549
 30
0.0
 10
5.4511856195
 20
3.7355465921
 30
0.0
 10
5.4532893009
 20
3.7333308545
 30
0.0
 10
5.4551171685
 20
3.7319220898
 30
0.0
 10
5.4564077805
 20
3.7311108152
 30
0.0
  0
SPLINE
  5
445
100
AcDbEntity
  8
0
100
AcDbSpline
 62
7
  6
CONTINUOUS
 70
0
 71
3
 72
9
 73
5
 74
0
 42
0.0000001
 43
0.0000001
 44
0.0000000001
 40
0.0
 40
0.0
 40
0.0
 40
0.0
 40
0.2497502569
 40
1.0
 40
1.0
 40
1.0
 40
1.0
 10
5.4491404511
 20
3.7689550829
 30
0.0
 10
5.4489173499
 20
3.76856853
 30
0.0
 10
5.4480530774
 20
3.7670043144
 30
0.0
 10
5.4473097518
 20
3.7653723693
 30
0.0
 10
5.4468348344
 20
3.76411857
 30
0.0
  0
SPLINE
  5
446
100
AcDbEntity
  8
0
100
AcDbSpline
 62
7
  6
CONTINUOUS
 70
0
 71
3
 72
11
 73
7
 74
0
 42
0.0000001
 43
0.0000001
 44
0.0000000001
 40
0.0
 40
0.0
 40
0.0
 40
0.0
 40
0.249961259
 40
0.4999647386
 40
0.7499526912
 40
1.0
 40
1.0
 40
1.0
 40
1.0
 10
5.4468348344
 20
3.76411857
 30
0.0
 10
5.4463643576
 20
3.7628764939
 30
0.0
 10
5.4455864937
 20
3.760326048
 30
0.0
 10
5.4449694535
 20
3.7563761108
 30
0.0
 10
5.4449109574
 20
3.7523783855
 30
0.0
 10
5.4452359543
 20
3.7497327452
 30
0.0
 10
5.4454755029
 20
3.7484258661
 30
0.0
  0
SPLINE
  5
447
100
AcDbEntity
  8
0
100
AcDbSpline
 62
7
  6
CONTINUOUS
 70
0
 71
3
 72
9
 73
5
 74
0
 42
0.0000001
 43
0.0000001
 44
0.0000000001
 40
0.0
 40
0.0
 40
0.0
 40
0.0
 40
0.4999096421
 40
1.0
 40
1.0
 40
1.0
 40
1.0
 10
5.4675697706
 20
3.7830674371
 30
0.0
 10
5.4637539922
 20
3.7820450024
 30
0.0
 10
5.4563478288
 20
3.7786365948
 30
0.0
 10
5.4511158579
 20
3.7723777412
 30
0.0
 10
5.4491404511
 20
3.7689550829
 30
0.0
  0
SPLINE
  5
448
100
AcDbEntity
  8
0
100
AcDbSpline
 62
7
  6
CONTINUOUS
 70
0
 71
3
 72
13
 73
9
 74
0
 42
0.0000001
 43
0.0000001
 44
0.0000000001
 40
0.0
 40
0.0
 40
0.0
 40
0.0
 40
0.0944648557
 40
0.1971874876
 40
0.3084724932
 40
0.4285564609
 40
0.6957860013
 40
1.0
 40
1.0
 40
1.0
 40
1.0
 10
4.8473163905
 20
4.2560549214
 30
0.0
 10
4.8478576145
 20
4.2576018872
 30
0.0
 10
4.8488656367
 20
4.2608743154
 30
0.0
 10
4.8501261422
 20
4.2660782092
 30
0.0
 10
4.8511959663
 20
4.2717772941
 30
0.0
 10
4.8524090475
 20
4.2803446007
 30
0.0
 10
4.8533797456
 20
4.292313327
 30
0.0
 10
4.8535987345
 20
4.3022297774
 30
0.0
 10
4.8535987339
 20
4.3075077132
 30
0.0
  0
SPLINE
  5
449
100
AcDbEntity
  8
0
100
AcDbSpline
 62
7
  6
CONTINUOUS
 70
0
 71
3
 72
9
 73
5
 74
0
 42
0.0000001
 43
0.0000001
 44
0.0000000001
 40
0.0
 40
0.0
 40
0.0
 40
0.0
 40
0.2494712697
 40
1.0
 40
1.0
 40
1.0
 40
1.0
 10
4.8262672103
 20
4.2382374282
 30
0.0
 10
4.8266885425
 20
4.2382374039
 30
0.0
 10
4.8283768861
 20
4.2382821921
 30
0.0
 10
4.8300623418
 20
4.2385146969
 30
0.0
 10
4.8312952578
 20
4.2388090559
 30
0.0
  0
SPLINE
  5
44A
100
AcDbEntity
  8
0
100
AcDbSpline
 62
7
  6
CONTINUOUS
 70
0
 71
3
 72
12
 73
8
 74
0
 42
0.0000001
 43
0.0000001
 44
0.0000000001
 40
0.0
 40
0.0
 40
0.0
 40
0.0
 40
0.1252042722
 40
0.2503284841
 40
0.5005204304
 40
0.7504068041
 40
1.0
 40
1.0
 40
1.0
 40
1.0
 10
4.8312952578
 20
4.2388090559
 30
0.0
 10
4.8318766585
 20
4.2389478655
 30
0.0
 10
4.8330274195
 20
4.239278914
 30
0.0
 10
4.8352478358
 20
4.2401711578
 30
0.0
 10
4.8378374994
 20
4.2416961378
 30
0.0
 10
4.8405481765
 20
4.2440608305
 30
0.0
 10
4.8420606891
 20
4.2459183453
 30
0.0
 10
4.8427506383
 20
4.2468898687
 30
0.0
  0
SPLINE
  5
44B
100
AcDbEntity
  8
0
100
AcDbSpline
 62
7
  6
CONTINUOUS
 70
0
 71
3
 72
9
 73
5
 74
0
 42
0.0000001
 43
0.0000001
 44
0.0000000001
 40
0.0
 40
0.0
 40
0.0
 40
0.0
 40
0.2507287172
 40
1.0
 40
1.0
 40
1.0
 40
1.0
 10
4.8427506383
 20
4.2468898687
 30
0.0
 10
4.8432471547
 20
4.2475890178
 30
0.0
 10
4.84509457
 20
4.2504722252
 30
0.0
 10
4.8464701297
 20
4.2536362943
 30
0.0
 10
4.8473163922
 20
4.2560551142
 30
0.0
  0
SPLINE
  5
44C
100
AcDbEntity
  8
0
100
AcDbSpline
 62
7
  6
CONTINUOUS
 70
0
 71
3
 72
9
 73
5
 74
0
 42
0.0000001
 43
0.0000001
 44
0.0000000001
 40
0.0
 40
0.0
 40
0.0
 40
0.0
 40
0.249807058
 40
1.0
 40
1.0
 40
1.0
 40
1.0
 10
4.8052782172
 20
4.2537903701
 30
0.0
 10
4.8055290717
 20
4.2532861839
 30
0.0
 10
4.8065647298
 20
4.2512841371
 30
0.0
 10
4.8077471536
 20
4.2493544337
 30
0.0
 10
4.8087385513
 20
4.2479843254
 30
0.0
  0
SPLINE
  5
44D
100
AcDbEntity
  8
0
100
AcDbSpline
 62
7
  6
CONTINUOUS
 70
0
 71
3
 72
14
 73
10
 74
0
 42
0.0000001
 43
0.0000001
 44
0.0000000001
 40
0.0
 40
0.0
 40
0.0
 40
0.0
 40
0.2496370846
 40
0.3748687031
 40
0.499772392
 40
0.6245987533
 40
0.749854885
 40
0.8752313752
 40
1.0
 40
1.0
 40
1.0
 40
1.0
 10
4.8087385513
 20
4.2479843254
 30
0.0
 10
4.8097564396
 20
4.2465776071
 30
0.0
 10
4.8114597125
 20
4.244578267
 30
0.0
 10
4.8140949952
 20
4.2423027227
 30
0.0
 10
4.816258108
 20
4.2408332556
 30
0.0
 10
4.8185996214
 20
4.2396647423
 30
0.0
 10
4.821086592
 20
4.2388407036
 30
0.0
 10
4.8236575098
 20
4.2383476606
 30
0.0
 10
4.8253993766
 20
4.2382374782
 30
0.0
 10
4.8262672103
 20
4.2382374282
 30
0.0
  0
SPLINE
  5
44E
100
AcDbEntity
  8
0
100
AcDbSpline
 62
7
  6
CONTINUOUS
 70
0
 71
3
 72
14
 73
10
 74
0
 42
0.0000001
 43
0.0000001
 44
0.0000000001
 40
0.0
 40
0.0
 40
0.0
 40
0.0
 40
0.3213725487
 40
0.4637107814
 40
0.5940055184
 40
0.7124596563
 40
0.8193424189
 40
0.915019507
 40
1.0
 40
1.0
 40
1.0
 40
1.0
 10
4.797548916
 20
4.3101789173
 30
0.0
 10
4.797548916
 20
4.3043240201
 30
0.0
 10
4.7977137197
 20
4.295872498
 30
0.0
 10
4.7984173801
 20
4.2850719506
 30
0.0
 10
4.7991300189
 20
4.2779808972
 30
0.0
 10
4.8000485962
 20
4.2715650436
 30
0.0
 10
4.8011737043
 20
4.2658225732
 30
0.0
 10
4.8025056343
 20
4.2607522573
 30
0.0
 10
4.8035946288
 20
4.2576404764
 30
0.0
 10
4.8041843506
 20
4.2562089804
 30
0.0
  0
LINE
  5
44F
100
AcDbEntity
  8
0
100
AcDbLine
 62
7
  6
CONTINUOUS
 10
4.8041843506
 20
4.2562089804
 11
4.8052782708
 21
4.253790684
  0
LINE
  5
450
100
AcDbEntity
  8
0
100
AcDbLine
 62
7
  6
CONTINUOUS
 10
4.7384196479
 20
4.2560591644
 11
4.7362522934
 21
4.2509029295
  0
SPLINE
  5
451
100
AcDbEntity
  8
0
100
AcDbSpline
 62
7
  6
CONTINUOUS
 70
0
 71
3
 72
15
 73
11
 74
0
 42
0.0000001
 43
0.0000001
 44
0.0000000001
 40
0.0
 40
0.0
 40
0.0
 40
0.0
 40
0.1248034179
 40
0.2498457311
 40
0.3747351252
 40
0.4995687156
 40
0.6246964228
 40
0.7498112448
 40
0.8748449317
 40
1.0
 40
1.0
 40
1.0
 40
1.0
 10
4.7362522934
 20
4.2509029295
 30
0.0
 10
4.7358465177
 20
4.2500995502
 30
0.0
 10
4.7349728474
 20
4.24852113
 30
0.0
 10
4.7334601519
 20
4.2462769413
 30
0.0
 10
4.7317199015
 20
4.2442013215
 30
0.0
 10
4.7297312479
 20
4.2423579419
 30
0.0
 10
4.7275014048
 20
4.240810989
 30
0.0
 10
4.7250724887
 20
4.2395945312
 30
0.0
 10
4.7224853995
 20
4.2387655853
 30
0.0
 10
4.7207004212
 20
4.23846333
 30
0.0
 10
4.7198029464
 20
4.2383675034
 30
0.0
  0
SPLINE
  5
452
100
AcDbEntity
  8
0
100
AcDbSpline
 62
7
  6
CONTINUOUS
 70
0
 71
3
 72
9
 73
5
 74
0
 42
0.0000001
 43
0.0000001
 44
0.0000000001
 40
0.0
 40
0.0
 40
0.0
 40
0.0
 40
0.2498076843
 40
1.0
 40
1.0
 40
1.0
 40
1.0
 10
4.6963814539
 20
4.2537914172
 30
0.0
 10
4.6966322161
 20
4.2532874336
 30
0.0
 10
4.6976674819
 20
4.2512861918
 30
0.0
 10
4.6988494065
 20
4.2493572453
 30
0.0
 10
4.6998403443
 20
4.2479876355
 30
0.0
  0
SPLINE
  5
453
100
AcDbEntity
  8
0
100
AcDbSpline
 62
7
  6
CONTINUOUS
 70
0
 71
3
 72
14
 73
10
 74
0
 42
0.0000001
 43
0.0000001
 44
0.0000000001
 40
0.0
 40
0.0
 40
0.0
 40
0.0
 40
0.2496343296
 40
0.3748647857
 40
0.4997674385
 40
0.6245933207
 40
0.749850113
 40
0.8752285067
 40
1.0
 40
1.0
 40
1.0
 40
1.0
 10
4.6998403443
 20
4.2479876355
 30
0.0
 10
4.7008582616
 20
4.2465807367
 30
0.0
 10
4.7025616076
 20
4.2445811288
 30
0.0
 10
4.7051970742
 20
4.2423052883
 30
0.0
 10
4.7073603835
 20
4.2408356503
 30
0.0
 10
4.7097021585
 20
4.2396670508
 30
0.0
 10
4.7121894411
 20
4.238843024
 30
0.0
 10
4.7147606957
 20
4.2383500696
 30
0.0
 10
4.7165027866
 20
4.2382399894
 30
0.0
 10
4.7173707315
 20
4.2382399987
 30
0.0
  0
SPLINE
  5
454
100
AcDbEntity
  8
0
100
AcDbSpline
 62
7
  6
CONTINUOUS
 70
0
 71
3
 72
14
 73
10
 74
0
 42
0.0000001
 43
0.0000001
 44
0.0000000001
 40
0.0
 40
0.0
 40
0.0
 40
0.0
 40
0.3213739355
 40
0.4637124899
 40
0.5940073095
 40
0.7124613002
 40
0.8193436999
 40
0.9150202296
 40
1.0
 40
1.0
 40
1.0
 40
1.0
 10
4.6886521062
 20
4.3101796136
 30
0.0
 10
4.6886521062
 20
4.3043246347
 30
0.0
 10
4.6888169155
 20
4.2958729997
 30
0.0
 10
4.6895206009
 20
4.2850723165
 30
0.0
 10
4.6902332638
 20
4.2779811917
 30
0.0
 10
4.6911518713
 20
4.271565287
 30
0.0
 10
4.6922770155
 20
4.2658227857
 30
0.0
 10
4.6936089869
 20
4.2607524592
 30
0.0
 10
4.6946980157
 20
4.2576406809
 30
0.0
 10
4.695287756
 20
4.2562091905
 30
0.0
  0
LINE
  5
455
100
AcDbEntity
  8
0
100
AcDbLine
 62
7
  6
CONTINUOUS
 10
4.695287756
 20
4.2562091905
 11
4.6963815076
 21
4.2537913161
  0
SPLINE
  5
456
100
AcDbEntity
  8
0
100
AcDbSpline
 62
7
  6
CONTINUOUS
 70
0
 71
3
 72
13
 73
9
 74
0
 42
0.0000001
 43
0.0000001
 44
0.0000000001
 40
0.0
 40
0.0
 40
0.0
 40
0.0
 40
0.0944650017
 40
0.1971877403
 40
0.3084728123
 40
0.4285568048
 40
0.6957862656
 40
1.0
 40
1.0
 40
1.0
 40
1.0
 10
4.738419646
 20
4.2560591469
 30
0.0
 10
4.7389608655
 20
4.2576061108
 30
0.0
 10
4.7399688787
 20
4.2608785333
 30
0.0
 10
4.741229372
 20
4.2660824158
 30
0.0
 10
4.7422991848
 20
4.271781485
 30
0.0
 10
4.7435122519
 20
4.2803487622
 30
0.0
 10
4.7444829376
 20
4.2923174402
 30
0.0
 10
4.744701924
 20
4.3022338487
 30
0.0
 10
4.744701924
 20
4.3075117608
 30
0.0
  0
SPLINE
  5
457
100
AcDbEntity
  8
0
100
AcDbSpline
 62
7
  6
CONTINUOUS
 70
0
 71
3
 72
13
 73
9
 74
0
 42
0.0000001
 43
0.0000001
 44
0.0000000001
 40
0.0
 40
0.0
 40
0.0
 40
0.0
 40
0.094464882
 40
0.1971875339
 40
0.3084725524
 40
0.4285565252
 40
0.6957860509
 40
1.0
 40
1.0
 40
1.0
 40
1.0
 10
4.0115570819
 20
3.1871980335
 30
0.0
 10
4.0099467589
 20
3.1868932639
 30
0.0
 10
4.0066087436
 20
3.1861300219
 30
0.0
 10
4.0014717894
 20
3.1846197043
 30
0.0
 10
3.9960013284
 20
3.1826966569
 30
0.0
 10
3.9879752882
 20
3.1794635641
 30
0.0
 10
3.9771247265
 20
3.1743198536
 30
0.0
 10
3.9684273408
 20
3.1695512822
 30
0.0
 10
3.9638565184
 20
3.166912316
 30
0.0
  0
SPLINE
  5
458
100
AcDbEntity
  8
0
100
AcDbSpline
 62
7
  6
CONTINUOUS
 70
0
 71
3
 72
12
 73
8
 74
0
 42
0.0000001
 43
0.0000001
 44
0.0000000001
 40
0.0
 40
0.0
 40
0.0
 40
0.0
 40
0.2496960297
 40
0.4998829362
 40
0.6249079989
 40
0.7499342329
 40
1.0
 40
1.0
 40
1.0
 40
1.0
 10
4.0375121406
 20
3.1778777676
 30
0.0
 10
4.0370044377
 20
3.1787572425
 30
0.0
 10
4.0358740449
 20
3.1804551778
 30
0.0
 10
4.0341720579
 20
3.1823569456
 30
0.0
 10
4.0326366665
 20
3.1836954299
 30
0.0
 10
4.0309903504
 20
3.1848931107
 30
0.0
 10
4.0296462283
 20
3.1856329551
 30
0.0
 10
4.0287196312
 20
3.1860521358
 30
0.0
  0
SPLINE
  5
459
100
AcDbEntity
  8
0
100
AcDbSpline
 62
7
  6
CONTINUOUS
 70
0
 71
3
 72
12
 73
8
 74
0
 42
0.0000001
 43
0.0000001
 44
0.0000000001
 40
0.0
 40
0.0
 40
0.0
 40
0.0
 40
0.1253760487
 40
0.2504471717
 40
0.5005143986
 40
0.7504199544
 40
1.0
 40
1.0
 40
1.0
 40
1.0
 10
4.0287196312
 20
3.1860521358
 30
0.0
 10
4.028054804
 20
3.1863528952
 30
0.0
 10
4.0266917507
 20
3.1868796447
 30
0.0
 10
4.0238710759
 20
3.1876260699
 30
0.0
 10
4.020236186
 20
3.1880344132
 30
0.0
 10
4.0158658999
 20
3.1878899968
 30
0.0
 10
4.0129841471
 20
3.1874680526
 30
0.0
 10
4.0115569183
 20
3.187197941
 30
0.0
  0
SPLINE
  5
45A
100
AcDbEntity
  8
0
100
AcDbSpline
 62
7
  6
CONTINUOUS
 70
0
 71
3
 72
9
 73
5
 74
0
 42
0.0000001
 43
0.0000001
 44
0.0000000001
 40
0.0
 40
0.0
 40
0.0
 40
0.0
 40
0.4992713562
 40
1.0
 40
1.0
 40
1.0
 40
1.0
 10
4.0345375318
 20
3.151924302
 30
0.0
 10
4.035736548
 20
3.1537325518
 30
0.0
 10
4.0379255197
 20
3.1575056059
 30
0.0
 10
4.0393515374
 20
3.1616608549
 30
0.0
 10
4.0397767195
 20
3.1637948998
 30
0.0
  0
SPLINE
  5
45B
100
AcDbEntity
  8
0
100
AcDbSpline
 62
7
  6
CONTINUOUS
 70
0
 71
3
 72
12
 73
8
 74
0
 42
0.0000001
 43
0.0000001
 44
0.0000000001
 40
0.0
 40
0.0
 40
0.0
 40
0.0
 40
0.2499463874
 40
0.3747614201
 40
0.4997709142
 40
0.7503067654
 40
1.0
 40
1.0
 40
1.0
 40
1.0
 10
4.0397767195
 20
3.1637948998
 30
0.0
 10
4.0400140316
 20
3.1649860006
 30
0.0
 10
4.0402363501
 20
3.166804394
 30
0.0
 10
4.0402040409
 20
3.1692356722
 30
0.0
 10
4.0399302681
 20
3.1716553182
 30
0.0
 10
4.0391502622
 20
3.1746104252
 30
0.0
 10
4.0381187256
 20
3.176827003
 30
0.0
 10
4.0375121406
 20
3.1778777676
 30
0.0
  0
SPLINE
  5
45C
100
AcDbEntity
  8
0
100
AcDbSpline
 62
7
  6
CONTINUOUS
 70
0
 71
3
 72
15
 73
11
 74
0
 42
0.0000001
 43
0.0000001
 44
0.0000000001
 40
0.0
 40
0.0
 40
0.0
 40
0.0
 40
0.171213044
 40
0.3287522261
 40
0.4727688577
 40
0.6034599985
 40
0.7210883365
 40
0.8260131926
 40
0.9187399634
 40
1.0
 40
1.0
 40
1.0
 40
1.0
 10
3.9895682893
 20
3.1170362591
 30
0.0
 10
3.9924007803
 20
3.1186715985
 30
0.0
 10
3.9978046338
 20
3.1218729054
 30
0.0
 10
4.0054465682
 20
3.1266883492
 30
0.0
 10
4.0122865099
 20
3.1313171158
 30
0.0
 10
4.0183253926
 20
3.1357599854
 30
0.0
 10
4.0235644797
 20
3.1400178779
 30
0.0
 10
4.0280058973
 20
3.1440928143
 30
0.0
 10
4.0316511647
 20
3.14798638
 30
0.0
 10
4.0336794026
 20
3.1506304804
 30
0.0
 10
4.0345372644
 20
3.1519242095
 30
0.0
  0
SPLINE
  5
45D
100
AcDbEntity
  8
0
100
AcDbSpline
 62
7
  6
CONTINUOUS
 70
0
 71
3
 72
11
 73
7
 74
0
 42
0.0000001
 43
0.0000001
 44
0.0000000001
 40
0.0
 40
0.0
 40
0.0
 40
0.0
 40
0.228905807
 40
0.468622721
 40
0.724226223
 40
1.0
 40
1.0
 40
1.0
 40
1.0
 10
4.7530975592
 20
4.3611757051
 30
0.0
 10
4.7553278229
 20
4.3575540513
 30
0.0
 10
4.7592748421
 20
4.349742282
 30
0.0
 10
4.7634177418
 20
4.3368900053
 30
0.0
 10
4.7658784868
 20
4.3227343824
 30
0.0
 10
4.7663745333
 20
4.3128490827
 30
0.0
 10
4.7663745305
 20
4.307724944
 30
0.0
  0
SPLINE
  5
45E
100
AcDbEntity
  8
0
100
AcDbSpline
 62
7
  6
CONTINUOUS
 70
0
 71
3
 72
9
 73
5
 74
0
 42
0.0000001
 43
0.0000001
 44
0.0000000001
 40
0.0
 40
0.0
 40
0.0
 40
0.0
 40
0.4962006493
 40
1.0
 40
1.0
 40
1.0
 40
1.0
 10
4.734239299
 20
4.3789930399
 30
0.0
 10
4.7355128912
 20
4.3783945228
 30
0.0
 10
4.7380125175
 20
4.3770403457
 30
0.0
 10
4.7403441096
 20
4.3754146929
 30
0.0
 10
4.7414710955
 20
4.3745364689
 30
0.0
  0
SPLINE
  5
45F
100
AcDbEntity
  8
0
100
AcDbSpline
 62
7
  6
CONTINUOUS
 70
0
 71
3
 72
9
 73
5
 74
0
 42
0.0000001
 43
0.0000001
 44
0.0000000001
 40
0.0
 40
0.0
 40
0.0
 40
0.0
 40
0.4856533288
 40
1.0
 40
1.0
 40
1.0
 40
1.0
 10
4.7414710955
 20
4.3745364689
 30
0.0
 10
4.7431502161
 20
4.373227984
 30
0.0
 10
4.746397298
 20
4.3702559247
 30
0.0
 10
4.7491904537
 20
4.3668598314
 30
0.0
 10
4.7505161973
 20
4.3650362991
 30
0.0
  0
SPLINE
  5
460
100
AcDbEntity
  8
0
100
AcDbSpline
 62
7
  6
CONTINUOUS
 70
0
 71
3
 72
14
 73
10
 74
0
 42
0.0000001
 43
0.0000001
 44
0.0000000001
 40
0.0
 40
0.0
 40
0.0
 40
0.0
 40
0.1250459612
 40
0.2501046258
 40
0.3751415764
 40
0.5001647498
 40
0.6251602581
 40
0.7501317056
 40
1.0
 40
1.0
 40
1.0
 40
1.0
 10
4.5951304356
 20
4.2405830538
 30
0.0
 10
4.5957551497
 20
4.2408953927
 30
0.0
 10
4.5969107727
 20
4.2417247106
 30
0.0
 10
4.5982255399
 20
4.243380072
 30
0.0
 10
4.5991810792
 20
4.2452555768
 30
0.0
 10
4.599864899
 20
4.2472405463
 30
0.0
 10
4.600347543
 20
4.2492812744
 30
0.0
 10
4.6007893911
 20
4.2520395974
 30
0.0
 10
4.6009458039
 20
4.2541313672
 30
0.0
 10
4.6010008641
 20
4.2555259186
 30
0.0
  0
SPLINE
  5
461
100
AcDbEntity
  8
0
100
AcDbSpline
 62
7
  6
CONTINUOUS
 70
0
 71
3
 72
13
 73
9
 74
0
 42
0.0000001
 43
0.0000001
 44
0.0000000001
 40
0.0
 40
0.0
 40
0.0
 40
0.0
 40
0.2499617633
 40
0.4999000543
 40
0.6249232661
 40
0.7498718024
 40
0.874993018
 40
1.0
 40
1.0
 40
1.0
 40
1.0
 10
4.579968836
 20
4.2381258787
 30
0.0
 10
4.5812639691
 20
4.2381260023
 30
0.0
 10
4.5838541967
 20
4.2381657966
 30
0.0
 10
4.5870886472
 20
4.2383667943
 30
0.0
 10
4.5896591726
 20
4.2386915241
 30
0.0
 10
4.5915711725
 20
4.239054892
 30
0.0
 10
4.5934368388
 20
4.2396040059
 30
0.0
 10
4.5946152106
 20
4.240190548
 30
0.0
 10
4.5951304356
 20
4.2405830538
 30
0.0
  0
SPLINE
  5
462
100
AcDbEntity
  8
0
100
AcDbSpline
 62
7
  6
CONTINUOUS
 70
0
 71
3
 72
13
 73
9
 74
0
 42
0.0000001
 43
0.0000001
 44
0.0000000001
 40
0.0
 40
0.0
 40
0.0
 40
0.0
 40
0.1249642577
 40
0.2499206338
 40
0.3749510971
 40
0.4999691733
 40
0.7499754651
 40
1.0
 40
1.0
 40
1.0
 40
1.0
 10
4.6242966676
 20
4.2413408869
 30
0.0
 10
4.624818751
 20
4.2408664121
 30
0.0
 10
4.6260945011
 20
4.2401893538
 30
0.0
 10
4.6281083725
 20
4.2395465412
 30
0.0
 10
4.6301809221
 20
4.2390960451
 30
0.0
 10
4.6329704694
 20
4.2386603564
 30
0.0
 10
4.6364859306
 20
4.2383239271
 30
0.0
 10
4.6393055678
 20
4.238180846
 30
0.0
 10
4.6407161674
 20
4.2381305619
 30
0.0
  0
SPLINE
  5
463
100
AcDbEntity
  8
0
100
AcDbSpline
 62
7
  6
CONTINUOUS
 70
0
 71
3
 72
12
 73
8
 74
0
 42
0.0000001
 43
0.0000001
 44
0.0000000001
 40
0.0
 40
0.0
 40
0.0
 40
0.0
 40
0.2498189133
 40
0.3748248844
 40
0.4998620475
 40
0.7501143438
 40
1.0
 40
1.0
 40
1.0
 40
1.0
 10
4.6196841396
 20
4.2555273094
 30
0.0
 10
4.6196841396
 20
4.2542532572
 30
0.0
 10
4.6197771392
 20
4.2523384642
 30
0.0
 10
4.6201476135
 20
4.2498145023
 30
0.0
 10
4.6207035281
 20
4.2473218163
 30
0.0
 10
4.621828182
 20
4.2443167193
 30
0.0
 10
4.6233535617
 20
4.2421979912
 30
0.0
 10
4.6242966676
 20
4.2413408869
 30
0.0
  0
SPLINE
  5
464
100
AcDbEntity
  8
0
100
AcDbSpline
 62
7
  6
CONTINUOUS
 70
0
 71
3
 72
11
 73
7
 74
0
 42
0.0000001
 43
0.0000001
 44
0.0000000001
 40
0.0
 40
0.0
 40
0.0
 40
0.0
 40
0.249725691
 40
0.5002794463
 40
0.7502860937
 40
1.0
 40
1.0
 40
1.0
 40
1.0
 10
4.861994099
 20
4.3611720423
 30
0.0
 10
4.8644271014
 20
4.3572210124
 30
0.0
 10
4.8685599793
 20
4.3488319814
 30
0.0
 10
4.8726594922
 20
4.3354569858
 30
0.0
 10
4.8748581335
 20
4.3216528982
 30
0.0
 10
4.8752713321
 20
4.3123593773
 30
0.0
 10
4.8752713321
 20
4.3077195382
 30
0.0
  0
LINE
  5
465
100
AcDbEntity
  8
0
100
AcDbLine
 62
7
  6
CONTINUOUS
 10
4.5791147447
 20
4.3611935674
 11
4.5926433166
 21
4.3683488812
  0
LINE
  5
466
100
AcDbEntity
  8
0
100
AcDbLine
 62
7
  6
CONTINUOUS
 10
4.5926433166
 20
4.3683488812
 11
4.6196841395
 21
4.382650544
  0
SPLINE
  5
467
100
AcDbEntity
  8
0
100
AcDbSpline
 62
7
  6
CONTINUOUS
 70
0
 71
3
 72
9
 73
5
 74
0
 42
0.0000001
 43
0.0000001
 44
0.0000000001
 40
0.0
 40
0.0
 40
0.0
 40
0.0
 40
0.2503664362
 40
1.0
 40
1.0
 40
1.0
 40
1.0
 10
4.830975065
 20
4.3823718001
 30
0.0
 10
4.8317756053
 20
4.3822813792
 30
0.0
 10
4.8349618798
 20
4.3818312445
 30
0.0
 10
4.838099453
 20
4.3810068645
 30
0.0
 10
4.8403580958
 20
4.3801600336
 30
0.0
  0
SPLINE
  5
468
100
AcDbEntity
  8
0
100
AcDbSpline
 62
7
  6
CONTINUOUS
 70
0
 71
3
 72
9
 73
5
 74
0
 42
0.0000001
 43
0.0000001
 44
0.0000000001
 40
0.0
 40
0.0
 40
0.0
 40
0.0
 40
0.4997645593
 40
1.0
 40
1.0
 40
1.0
 40
1.0
 10
4.8403580958
 20
4.3801600336
 30
0.0
 10
4.842610416
 20
4.3793155732
 30
0.0
 10
4.8469537175
 20
4.3771625367
 30
0.0
 10
4.8508234576
 20
4.3742541982
 30
0.0
 10
4.8526168474
 20
4.3726477358
 30
0.0
  0
SPLINE
  5
469
100
AcDbEntity
  8
0
100
AcDbSpline
 62
7
  6
CONTINUOUS
 70
0
 71
3
 72
9
 73
5
 74
0
 42
0.0000001
 43
0.0000001
 44
0.0000000001
 40
0.0
 40
0.0
 40
0.0
 40
0.0
 40
0.2502573402
 40
1.0
 40
1.0
 40
1.0
 40
1.0
 10
4.8526168474
 20
4.3726477358
 30
0.0
 10
4.8532502239
 20
4.372080377
 30
0.0
 10
4.8557117606
 20
4.3697360529
 30
0.0
 10
4.8579017533
 20
4.3671141657
 30
0.0
 10
4.8593994842
 20
4.3650534556
 30
0.0
  0
LINE
  5
46A
100
AcDbEntity
  8
0
100
AcDbLine
 62
7
  6
CONTINUOUS
 10
4.8593994842
 20
4.3650534556
 11
4.861994099
 21
4.3611720423
  0
SPLINE
  5
46B
100
AcDbEntity
  8
0
100
AcDbSpline
 62
7
  6
CONTINUOUS
 70
0
 71
3
 72
9
 73
5
 74
0
 42
0.0000001
 43
0.0000001
 44
0.0000000001
 40
0.0
 40
0.0
 40
0.0
 40
0.0
 40
0.7498235562
 40
1.0
 40
1.0
 40
1.0
 40
1.0
 10
4.7886876825
 20
4.3592779565
 30
0.0
 10
4.7897171545
 20
4.3611562668
 30
0.0
 10
4.7912126573
 20
4.3635989862
 30
0.0
 10
4.7928918371
 20
4.3659105953
 30
0.0
 10
4.7933239203
 20
4.3664798287
 30
0.0
  0
SPLINE
  5
46C
100
AcDbEntity
  8
0
100
AcDbSpline
 62
7
  6
CONTINUOUS
 70
0
 71
3
 72
9
 73
5
 74
0
 42
0.0000001
 43
0.0000001
 44
0.0000000001
 40
0.0
 40
0.0
 40
0.0
 40
0.0
 40
0.5000219499
 40
1.0
 40
1.0
 40
1.0
 40
1.0
 10
4.7933239203
 20
4.3664798287
 30
0.0
 10
4.7946631952
 20
4.3682442115
 30
0.0
 10
4.7975750235
 20
4.3716043624
 30
0.0
 10
4.8009823886
 20
4.3744732734
 30
0.0
 10
4.8027960266
 20
4.3757447135
 30
0.0
  0
SPLINE
  5
46D
100
AcDbEntity
  8
0
100
AcDbSpline
 62
7
  6
CONTINUOUS
 70
0
 71
3
 72
9
 73
5
 74
0
 42
0.0000001
 43
0.0000001
 44
0.0000000001
 40
0.0
 40
0.0
 40
0.0
 40
0.0
 40
0.5000004371
 40
1.0
 40
1.0
 40
1.0
 40
1.0
 10
4.8081021651
 20
4.3788492798
 30
0.0
 10
4.8108636804
 20
4.380167986
 30
0.0
 10
4.8167451366
 20
4.3821038227
 30
0.0
 10
4.8228869417
 20
4.3826519237
 30
0.0
 10
4.8259471574
 20
4.3826517758
 30
0.0
  0
SPLINE
  5
46E
100
AcDbEntity
  8
0
100
AcDbSpline
 62
7
  6
CONTINUOUS
 70
0
 71
3
 72
11
 73
7
 74
0
 42
0.0000001
 43
0.0000001
 44
0.0000000001
 40
0.0
 40
0.0
 40
0.0
 40
0.0
 40
0.2498091251
 40
0.4998803236
 40
0.7501987802
 40
1.0
 40
1.0
 40
1.0
 40
1.0
 10
4.7758763095
 20
4.3052698236
 30
0.0
 10
4.7758763095
 20
4.309938479
 30
0.0
 10
4.7763200761
 20
4.3192888107
 30
0.0
 10
4.778544224
 20
4.3331665606
 30
0.0
 10
4.782556605
 20
4.3466426017
 30
0.0
 10
4.7864438656
 20
4.3551840282
 30
0.0
 10
4.7886876825
 20
4.3592779565
 30
0.0
  0
SPLINE
  5
46F
100
AcDbEntity
  8
0
100
AcDbSpline
 62
7
  6
CONTINUOUS
 70
0
 71
3
 72
9
 73
5
 74
0
 42
0.0000001
 43
0.0000001
 44
0.0000000001
 40
0.0
 40
0.0
 40
0.0
 40
0.0
 40
0.2548385014
 40
1.0
 40
1.0
 40
1.0
 40
1.0
 10
4.717050756
 20
4.3826539881
 30
0.0
 10
4.717574301
 20
4.3826539874
 30
0.0
 10
4.7196285182
 20
4.3826205712
 30
0.0
 10
4.7216810182
 20
4.3824498362
 30
0.0
 10
4.7231972714
 20
4.3822387647
 30
0.0
  0
SPLINE
  5
470
100
AcDbEntity
  8
0
100
AcDbSpline
 62
7
  6
CONTINUOUS
 70
0
 71
3
 72
9
 73
5
 74
0
 42
0.0000001
 43
0.0000001
 44
0.0000000001
 40
0.0
 40
0.0
 40
0.0
 40
0.0
 40
0.5046467771
 40
1.0
 40
1.0
 40
1.0
 40
1.0
 10
4.7231972714
 20
4.3822387647
 30
0.0
 10
4.7246502879
 20
4.3820364961
 30
0.0
 10
4.727510746
 20
4.3814824307
 30
0.0
 10
4.7302908041
 20
4.38060809
 30
0.0
 10
4.7316369784
 20
4.3800967723
 30
0.0
  0
SPLINE
  5
471
100
AcDbEntity
  8
0
100
AcDbSpline
 62
7
  6
CONTINUOUS
 70
0
 71
3
 72
9
 73
5
 74
0
 42
0.0000001
 43
0.0000001
 44
0.0000000001
 40
0.0
 40
0.0
 40
0.0
 40
0.0
 40
0.7498231494
 40
1.0
 40
1.0
 40
1.0
 40
1.0
 10
4.6797909056
 20
4.3592779999
 30
0.0
 10
4.6808207239
 20
4.361157003
 30
0.0
 10
4.6823167728
 20
4.3636006094
 30
0.0
 10
4.6839966271
 20
4.3659130071
 30
0.0
 10
4.6844288882
 20
4.3664824316
 30
0.0
  0
SPLINE
  5
472
100
AcDbEntity
  8
0
100
AcDbSpline
 62
7
  6
CONTINUOUS
 70
0
 71
3
 72
9
 73
5
 74
0
 42
0.0000001
 43
0.0000001
 44
0.0000000001
 40
0.0
 40
0.0
 40
0.0
 40
0.0
 40
0.5000224594
 40
1.0
 40
1.0
 40
1.0
 40
1.0
 10
4.6844288882
 20
4.3664824316
 30
0.0
 10
4.6857687146
 20
4.3682474065
 30
0.0
 10
4.6886818106
 20
4.3716086076
 30
0.0
 10
4.6920907766
 20
4.3744781533
 30
0.0
 10
4.6939052698
 20
4.3757497678
 30
0.0
  0
SPLINE
  5
473
100
AcDbEntity
  8
0
100
AcDbSpline
 62
7
  6
CONTINUOUS
 70
0
 71
3
 72
9
 73
5
 74
0
 42
0.0000001
 43
0.0000001
 44
0.0000000001
 40
0.0
 40
0.0
 40
0.0
 40
0.0
 40
0.5000015903
 40
1.0
 40
1.0
 40
1.0
 40
1.0
 10
4.6992103307
 20
4.3788527703
 30
0.0
 10
4.7019712554
 20
4.380170851
 30
0.0
 10
4.707851224
 20
4.3821058125
 30
0.0
 10
4.7139913569
 20
4.3826539068
 30
0.0
 10
4.717050756
 20
4.3826539347
 30
0.0
  0
SPLINE
  5
474
100
AcDbEntity
  8
0
100
AcDbSpline
 62
7
  6
CONTINUOUS
 70
0
 71
3
 72
11
 73
7
 74
0
 42
0.0000001
 43
0.0000001
 44
0.0000000001
 40
0.0
 40
0.0
 40
0.0
 40
0.0
 40
0.2498060442
 40
0.4998760526
 40
0.7501962027
 40
1.0
 40
1.0
 40
1.0
 40
1.0
 10
4.6669795087
 20
4.3052690189
 30
0.0
 10
4.6669795087
 20
4.3099376839
 30
0.0
 10
4.6674232539
 20
4.3192880715
 30
0.0
 10
4.6696474343
 20
4.3331659735
 30
0.0
 10
4.6736598534
 20
4.3466422693
 30
0.0
 10
4.6775470891
 20
4.3551839397
 30
0.0
 10
4.6797909056
 20
4.3592779999
 30
0.0
  0
SPLINE
  5
475
100
AcDbEntity
  8
0
100
AcDbSpline
 62
7
  6
CONTINUOUS
 70
0
 71
3
 72
9
 73
5
 74
0
 42
0.0000001
 43
0.0000001
 44
0.0000000001
 40
0.0
 40
0.0
 40
0.0
 40
0.0
 40
0.2516395925
 40
1.0
 40
1.0
 40
1.0
 40
1.0
 10
4.8604687201
 20
2.7262431833
 30
0.0
 10
4.860838782
 20
2.7260291028
 30
0.0
 10
4.8622808
 20
2.7251321316
 30
0.0
 10
4.8635990709
 20
2.7240188205
 30
0.0
 10
4.8644337757
 20
2.7230597603
 30
0.0
  0
LINE
  5
476
100
AcDbEntity
  8
0
100
AcDbLine
 62
7
  6
CONTINUOUS
 10
5.2815481115
 20
4.1493710266
 11
5.2959114448
 21
4.1373187589
  0
LINE
  5
477
100
AcDbEntity
  8
0
100
AcDbLine
 62
7
  6
CONTINUOUS
 10
4.2076059602
 20
4.165817041
 11
4.222580376
 21
4.1771010727
  0
SPLINE
  5
478
100
AcDbEntity
  8
0
100
AcDbSpline
 62
7
  6
CONTINUOUS
 70
0
 71
3
 72
11
 73
7
 74
0
 42
0.0000001
 43
0.0000001
 44
0.0000000001
 40
0.0
 40
0.0
 40
0.0
 40
0.0
 40
0.2499466025
 40
0.4999324391
 40
0.7499596544
 40
1.0
 40
1.0
 40
1.0
 40
1.0
 10
5.4843748191
 20
3.7982914064
 30
0.0
 10
5.4866570993
 20
3.7973087254
 30
0.0
 10
5.4910362886
 20
3.7949063012
 30
0.0
 10
5.4970905645
 20
3.7905385012
 30
0.0
 10
5.5027519985
 20
3.785675185
 30
0.0
 10
5.5063170622
 20
3.7822066331
 30
0.0
 10
5.5080573519
 20
3.7804316714
 30
0.0
  0
SPLINE
  5
479
100
AcDbEntity
  8
0
100
AcDbSpline
 62
7
  6
CONTINUOUS
 70
0
 71
3
 72
9
 73
5
 74
0
 42
0.0000001
 43
0.0000001
 44
0.0000000001
 40
0.0
 40
0.0
 40
0.0
 40
0.0
 40
0.499958157
 40
1.0
 40
1.0
 40
1.0
 40
1.0
 10
5.4615938433
 20
3.7995927129
 30
0.0
 10
5.465321488
 20
3.8005915323
 30
0.0
 10
5.4731174467
 20
3.8016190202
 30
0.0
 10
5.4808296845
 20
3.7998178343
 30
0.0
 10
5.4843748191
 20
3.7982914064
 30
0.0
  0
SPLINE
  5
47A
100
AcDbEntity
  8
0
100
AcDbSpline
 62
7
  6
CONTINUOUS
 70
0
 71
3
 72
14
 73
10
 74
0
 42
0.0000001
 43
0.0000001
 44
0.0000000001
 40
0.0
 40
0.0
 40
0.0
 40
0.0
 40
0.1250458944
 40
0.2501046952
 40
0.3751416503
 40
0.500164894
 40
0.6251604016
 40
0.7501318252
 40
1.0
 40
1.0
 40
1.0
 40
1.0
 10
3.9679828427
 20
3.5773473349
 30
0.0
 10
3.9678788373
 20
3.5780379772
 30
0.0
 10
3.9674471443
 20
3.5793932684
 30
0.0
 10
3.966279049
 20
3.5811551387
 30
0.0
 10
3.964790614
 20
3.5826434152
 30
0.0
 10
3.9631141245
 20
3.58390711
 30
0.0
 10
3.9613224491
 20
3.5849967179
 30
0.0
 10
3.9588357107
 20
3.5862692747
 30
0.0
 10
3.956894691
 20
3.5870644058
 30
0.0
 10
3.9555854343
 20
3.5875477017
 30
0.0
  0
SPLINE
  5
47B
100
AcDbEntity
  8
0
100
AcDbSpline
 62
7
  6
CONTINUOUS
 70
0
 71
3
 72
13
 73
9
 74
0
 42
0.0000001
 43
0.0000001
 44
0.0000000001
 40
0.0
 40
0.0
 40
0.0
 40
0.0
 40
0.2499615863
 40
0.4998997688
 40
0.6249229236
 40
0.7498715476
 40
0.8749927999
 40
1.0
 40
1.0
 40
1.0
 40
1.0
 10
3.9656347162
 20
3.5621681089
 30
0.0
 10
3.9660348208
 20
3.5633999229
 30
0.0
 10
3.9667974043
 20
3.5658757357
 30
0.0
 10
3.9676057452
 20
3.5690140725
 30
0.0
 10
3.9680912291
 20
3.571559202
 30
0.0
 10
3.9683364681
 20
3.5734899585
 30
0.0
 10
3.9683907087
 20
3.5754340541
 30
0.0
 10
3.9681969322
 20
3.5767360205
 30
0.0
 10
3.9679828427
 20
3.5773473349
 30
0.0
  0
SPLINE
  5
47C
100
AcDbEntity
  8
0
100
AcDbSpline
 62
7
  6
CONTINUOUS
 70
0
 71
3
 72
9
 73
5
 74
0
 42
0.0000001
 43
0.0000001
 44
0.0000000001
 40
0.0
 40
0.0
 40
0.0
 40
0.0
 40
0.5000741224
 40
1.0
 40
1.0
 40
1.0
 40
1.0
 10
5.5056811851
 20
3.7261195385
 30
0.0
 10
5.5029630691
 20
3.7233615348
 30
0.0
 10
5.4969785332
 20
3.718335676
 30
0.0
 10
5.489797454
 20
3.7150802855
 30
0.0
 10
5.4860582043
 20
3.7140783566
 30
0.0
  0
SPLINE
  5
47D
100
AcDbEntity
  8
0
100
AcDbSpline
 62
7
  6
CONTINUOUS
 70
0
 71
3
 72
12
 73
8
 74
0
 42
0.0000001
 43
0.0000001
 44
0.0000000001
 40
0.0
 40
0.0
 40
0.0
 40
0.0
 40
0.249942288
 40
0.4998926132
 40
0.7497887417
 40
0.8750094136
 40
1.0
 40
1.0
 40
1.0
 40
1.0
 10
5.5221057868
 20
3.7581114009
 30
0.0
 10
5.5211704523
 20
3.7552409526
 30
0.0
 10
5.5191745228
 20
3.7495387715
 30
0.0
 10
5.5156681584
 20
3.7411823602
 30
0.0
 10
5.5121224376
 20
3.7344931487
 30
0.0
 10
5.508708056
 20
3.7295019573
 30
0.0
 10
5.5067409226
 20
3.7271948274
 30
0.0
 10
5.5056811851
 20
3.7261195385
 30
0.0
  0
SPLINE
  5
47E
100
AcDbEntity
  8
0
100
AcDbSpline
 62
7
  6
CONTINUOUS
 70
0
 71
3
 72
13
 73
9
 74
0
 42
0.0000001
 43
0.0000001
 44
0.0000000001
 40
0.0
 40
0.0
 40
0.0
 40
0.0
 40
0.1249641589
 40
0.249920451
 40
0.3749508963
 40
0.4999689782
 40
0.7499753397
 40
1.0
 40
1.0
 40
1.0
 40
1.0
 10
3.9762749922
 20
3.6053199763
 30
0.0
 10
3.9768875726
 20
3.6056698855
 30
0.0
 10
3.9779256892
 20
3.6066739981
 30
0.0
 10
3.9791593469
 20
3.6083906542
 30
0.0
 10
3.9802282278
 20
3.6102225535
 30
0.0
 10
3.9815045902
 20
3.6127409281
 30
0.0
 10
3.9829108675
 20
3.6159803586
 30
0.0
 10
3.9839182442
 20
3.6186177696
 30
0.0
 10
3.984401958
 20
3.6199437866
 30
0.0
  0
SPLINE
  5
47F
100
AcDbEntity
  8
0
100
AcDbSpline
 62
7
  6
CONTINUOUS
 70
0
 71
3
 72
12
 73
8
 74
0
 42
0.0000001
 43
0.0000001
 44
0.0000000001
 40
0.0
 40
0.0
 40
0.0
 40
0.0
 40
0.249819165
 40
0.3748252359
 40
0.4998624819
 40
0.7501146271
 40
1.0
 40
1.0
 40
1.0
 40
1.0
 10
3.9613574822
 20
3.6053170079
 30
0.0
 10
3.9625691855
 20
3.6049233016
 30
0.0
 10
3.9644190122
 20
3.604420043
 30
0.0
 10
3.9669339413
 20
3.6039924359
 30
0.0
 10
3.9694764273
 20
3.6037508588
 30
0.0
 10
3.9726819993
 20
3.6038918539
 30
0.0
 10
3.9751683985
 20
3.6046878841
 30
0.0
 10
3.9762749922
 20
3.6053199763
 30
0.0
  0
LINE
  5
480
100
AcDbEntity
  8
0
100
AcDbLine
 62
7
  6
CONTINUOUS
 10
3.8483263691
 20
3.5993858566
 11
3.8457015285
 21
3.6144647859
  0
LINE
  5
481
100
AcDbEntity
  8
0
100
AcDbLine
 62
7
  6
CONTINUOUS
 10
3.8457015285
 20
3.6144647859
 11
3.8443896329
 21
3.6220014533
  0
LINE
  5
482
100
AcDbEntity
  8
0
100
AcDbLine
 62
7
  6
CONTINUOUS
 10
3.8443896329
 20
3.6220014533
 11
3.8404560422
 21
3.644600267
  0
SPLINE
  5
483
100
AcDbEntity
  8
0
100
AcDbSpline
 62
7
  6
CONTINUOUS
 70
0
 71
3
 72
9
 73
5
 74
0
 42
0.0000001
 43
0.0000001
 44
0.0000000001
 40
0.0
 40
0.0
 40
0.0
 40
0.0
 40
0.4999163709
 40
1.0
 40
1.0
 40
1.0
 40
1.0
 10
5.5838594231
 20
3.7554749819
 30
0.0
 10
5.5831350588
 20
3.7538411471
 30
0.0
 10
5.5814362246
 20
3.7506749875
 30
0.0
 10
5.5791823226
 20
3.7478663802
 30
0.0
 10
5.5779290873
 20
3.7465913669
 30
0.0
  0
SPLINE
  5
484
100
AcDbEntity
  8
0
100
AcDbSpline
 62
7
  6
CONTINUOUS
 70
0
 71
3
 72
11
 73
7
 74
0
 42
0.0000001
 43
0.0000001
 44
0.0000000001
 40
0.0
 40
0.0
 40
0.0
 40
0.0
 40
0.2499545289
 40
0.500039875
 40
0.7501160751
 40
1.0
 40
1.0
 40
1.0
 40
1.0
 10
5.5779290873
 20
3.7465913669
 30
0.0
 10
5.5770353644
 20
3.7456821132
 30
0.0
 10
5.5751118173
 20
3.7439909822
 30
0.0
 10
5.5718933783
 20
3.7418991581
 30
0.0
 10
5.5684207066
 20
3.7402683204
 30
0.0
 10
5.5659901996
 20
3.7394750668
 30
0.0
 10
5.5647590459
 20
3.7391451802
 30
0.0
  0
SPLINE
  5
485
100
AcDbEntity
  8
0
100
AcDbSpline
 62
7
  6
CONTINUOUS
 70
0
 71
3
 72
9
 73
5
 74
0
 42
0.0000001
 43
0.0000001
 44
0.0000000001
 40
0.0
 40
0.0
 40
0.0
 40
0.0
 40
0.7495936488
 40
1.0
 40
1.0
 40
1.0
 40
1.0
 10
5.58469976
 20
3.7863781729
 30
0.0
 10
5.5858668828
 20
3.7820230864
 30
0.0
 10
5.5869468308
 20
3.7760384208
 30
0.0
 10
5.5869498356
 20
3.7700144729
 30
0.0
 10
5.5868711591
 20
3.7685103489
 30
0.0
  0
SPLINE
  5
486
100
AcDbEntity
  8
0
100
AcDbSpline
 62
7
  6
CONTINUOUS
 70
0
 71
3
 72
9
 73
5
 74
0
 42
0.0000001
 43
0.0000001
 44
0.0000000001
 40
0.0
 40
0.0
 40
0.0
 40
0.0
 40
0.5002491918
 40
1.0
 40
1.0
 40
1.0
 40
1.0
 10
5.5868711591
 20
3.7685103489
 30
0.0
 10
5.5867541399
 20
3.7662731953
 30
0.0
 10
5.5861616584
 20
3.7618107095
 30
0.0
 10
5.5847664865
 20
3.7575209025
 30
0.0
 10
5.5838594231
 20
3.7554749819
 30
0.0
  0
SPLINE
  5
487
100
AcDbEntity
  8
0
100
AcDbSpline
 62
7
  6
CONTINUOUS
 70
0
 71
3
 72
9
 73
5
 74
0
 42
0.0000001
 43
0.0000001
 44
0.0000000001
 40
0.0
 40
0.0
 40
0.0
 40
0.0
 40
0.4999482309
 40
1.0
 40
1.0
 40
1.0
 40
1.0
 10
5.5664946578
 20
3.8129726423
 30
0.0
 10
5.5680118323
 20
3.8120889257
 30
0.0
 10
5.5709091769
 20
3.8100737908
 30
0.0
 10
5.5734479926
 20
3.807624672
 30
0.0
 10
5.5746180124
 20
3.8063150521
 30
0.0
  0
SPLINE
  5
488
100
AcDbEntity
  8
0
100
AcDbSpline
 62
7
  6
CONTINUOUS
 70
0
 71
3
 72
9
 73
5
 74
0
 42
0.0000001
 43
0.0000001
 44
0.0000000001
 40
0.0
 40
0.0
 40
0.0
 40
0.0
 40
0.4999353872
 40
1.0
 40
1.0
 40
1.0
 40
1.0
 10
5.5775663775
 20
3.802550429
 30
0.0
 10
5.5790238336
 20
3.8004288297
 30
0.0
 10
5.5815315434
 20
3.7958973353
 30
0.0
 10
5.583318461
 20
3.7910523826
 30
0.0
 10
5.5840678755
 20
3.788589221
 30
0.0
  0
SPLINE
  5
489
100
AcDbEntity
  8
0
100
AcDbSpline
 62
7
  6
CONTINUOUS
 70
0
 71
3
 72
13
 73
9
 74
0
 42
0.0000001
 43
0.0000001
 44
0.0000000001
 40
0.0
 40
0.0
 40
0.0
 40
0.0
 40
0.2497729633
 40
0.374863336
 40
0.4999598246
 40
0.6250627705
 40
0.7501694821
 40
1.0
 40
1.0
 40
1.0
 40
1.0
 10
5.5390057303
 20
3.8166877783
 30
0.0
 10
5.5412972456
 20
3.817301788
 30
0.0
 10
5.5448296872
 20
3.8179305095
 30
0.0
 10
5.5495838316
 20
3.8180475505
 30
0.0
 10
5.5531431599
 20
3.8177528161
 30
0.0
 10
5.5566521263
 20
3.8170867006
 30
0.0
 10
5.561203788
 20
3.8157067375
 30
0.0
 10
5.5644442333
 20
3.8141669638
 30
0.0
 10
5.5664946578
 20
3.8129726423
 30
0.0
  0
SPLINE
  5
48A
100
AcDbEntity
  8
0
100
AcDbSpline
 62
7
  6
CONTINUOUS
 70
0
 71
3
 72
14
 73
10
 74
0
 42
0.0000001
 43
0.0000001
 44
0.0000000001
 40
0.0
 40
0.0
 40
0.0
 40
0.0
 40
0.1250457073
 40
0.2501027994
 40
0.3751392391
 40
0.5001618262
 40
0.6251574819
 40
0.7501294931
 40
1.0
 40
1.0
 40
1.0
 40
1.0
 10
4.0016284401
 20
3.6809138723
 30
0.0
 10
4.0015244613
 20
3.6816046017
 30
0.0
 10
4.0010932937
 20
3.6829601842
 30
0.0
 10
3.9999255
 20
3.6847225981
 30
0.0
 10
3.9984371105
 20
3.6862112561
 30
0.0
 10
3.9967605336
 20
3.6874752492
 30
0.0
 10
3.9949686966
 20
3.6885650757
 30
0.0
 10
3.9924816805
 20
3.68983786
 30
0.0
 10
3.9905404211
 20
3.6906331126
 30
0.0
 10
3.9892309969
 20
3.6911164726
 30
0.0
  0
SPLINE
  5
48B
100
AcDbEntity
  8
0
100
AcDbSpline
 62
7
  6
CONTINUOUS
 70
0
 71
3
 72
13
 73
9
 74
0
 42
0.0000001
 43
0.0000001
 44
0.0000000001
 40
0.0
 40
0.0
 40
0.0
 40
0.0
 40
0.2499640897
 40
0.4999038037
 40
0.6249274465
 40
0.7498752653
 40
0.8749956543
 40
1.0
 40
1.0
 40
1.0
 40
1.0
 10
3.9992787514
 20
3.6657373717
 30
0.0
 10
3.999678874
 20
3.6669689619
 30
0.0
 10
4.0004415083
 20
3.66944432
 30
0.0
 10
4.0012499568
 20
3.6725820832
 30
0.0
 10
4.0017356365
 20
3.6751267301
 30
0.0
 10
4.0019810657
 20
3.6770571289
 30
0.0
 10
4.0020356658
 20
3.6790008231
 30
0.0
 10
4.00184246
 20
3.6803026659
 30
0.0
 10
4.0016284401
 20
3.6809138723
 30
0.0
  0
SPLINE
  5
48C
100
AcDbEntity
  8
0
100
AcDbSpline
 62
7
  6
CONTINUOUS
 70
0
 71
3
 72
14
 73
10
 74
0
 42
0.0000001
 43
0.0000001
 44
0.0000000001
 40
0.0
 40
0.0
 40
0.0
 40
0.0
 40
0.0661402649
 40
0.1467282089
 40
0.2436232139
 40
0.3579202544
 40
0.4903081517
 40
0.6412502361
 40
1.0
 40
1.0
 40
1.0
 40
1.0
 10
4.0099214486
 20
3.7088881133
 30
0.0
 10
4.0102458255
 20
3.7090733845
 30
0.0
 10
4.0109065789
 20
3.7095867284
 30
0.0
 10
4.0118335429
 20
3.7106082955
 30
0.0
 10
4.0127921731
 20
3.7119523328
 30
0.0
 10
4.0137837096
 20
3.7136221625
 30
0.0
 10
4.0148100127
 20
3.715620965
 30
0.0
 10
4.0163130697
 20
3.7189222639
 30
0.0
 10
4.0173553774
 20
3.7216083104
 30
0.0
 10
4.018049874
 20
3.723511779
 30
0.0
  0
SPLINE
  5
48D
100
AcDbEntity
  8
0
100
AcDbSpline
 62
7
  6
CONTINUOUS
 70
0
 71
3
 72
11
 73
7
 74
0
 42
0.0000001
 43
0.0000001
 44
0.0000000001
 40
0.0
 40
0.0
 40
0.0
 40
0.0
 40
0.3177410581
 40
0.5847421661
 40
0.809112986
 40
1.0
 40
1.0
 40
1.0
 40
1.0
 10
3.9950041963
 20
3.7088853955
 30
0.0
 10
3.9965456027
 20
3.7083845625
 30
0.0
 10
3.9994454575
 20
3.7076352151
 30
0.0
 10
4.0035781376
 20
3.7072637271
 30
0.0
 10
4.0070632803
 20
3.7076490854
 30
0.0
 10
4.0090760002
 20
3.7084051966
 30
0.0
 10
4.0099214855
 20
3.7088881013
 30
0.0
  0
SPLINE
  5
48E
100
AcDbEntity
  8
0
100
AcDbSpline
 62
7
  6
CONTINUOUS
 70
0
 71
3
 72
9
 73
5
 74
0
 42
0.0000001
 43
0.0000001
 44
0.0000000001
 40
0.0
 40
0.0
 40
0.0
 40
0.0
 40
0.5004024824
 40
1.0
 40
1.0
 40
1.0
 40
1.0
 10
5.5022261334
 20
3.6305320635
 30
0.0
 10
5.504467368
 20
3.6304032383
 30
0.0
 10
5.5089767927
 20
3.6305648765
 30
0.0
 10
5.5133953099
 20
3.6314337766
 30
0.0
 10
5.5155602613
 20
3.6320138736
 30
0.0
  0
LINE
  5
48F
100
AcDbEntity
  8
0
100
AcDbLine
 62
7
  6
CONTINUOUS
 10
3.8819713071
 20
3.7029548213
 11
3.879352423
 21
3.7180037838
  0
LINE
  5
490
100
AcDbEntity
  8
0
100
AcDbLine
 62
7
  6
CONTINUOUS
 10
3.879352423
 20
3.7180037838
 11
3.8780415634
 21
3.7255366106
  0
LINE
  5
491
100
AcDbEntity
  8
0
100
AcDbLine
 62
7
  6
CONTINUOUS
 10
3.8780415634
 20
3.7255366106
 11
3.8741033111
 21
3.7481684743
  0
SPLINE
  5
492
100
AcDbEntity
  8
0
100
AcDbSpline
 62
7
  6
CONTINUOUS
 70
0
 71
3
 72
14
 73
10
 74
0
 42
0.0000001
 43
0.0000001
 44
0.0000000001
 40
0.0
 40
0.0
 40
0.0
 40
0.0
 40
0.1249381916
 40
0.2501920865
 40
0.3753173114
 40
0.5003668097
 40
0.6254855232
 40
0.7504902528
 40
1.0
 40
1.0
 40
1.0
 40
1.0
 10
5.4742438091
 20
3.6501223523
 30
0.0
 10
5.474492083
 20
3.6491957121
 30
0.0
 10
5.4751005585
 20
3.6473678906
 30
0.0
 10
5.4763368813
 20
3.6447568587
 30
0.0
 10
5.477899212
 20
3.642324144
 30
0.0
 10
5.4797641048
 20
3.6401175712
 30
0.0
 10
5.481874087
 20
3.6381468833
 30
0.0
 10
5.4849543922
 20
3.6358500142
 30
0.0
 10
5.4875035657
 20
3.6344789919
 30
0.0
 10
5.4892523863
 20
3.6336966623
 30
0.0
  0
SPLINE
  5
493
100
AcDbEntity
  8
0
100
AcDbSpline
 62
7
  6
CONTINUOUS
 70
0
 71
3
 72
9
 73
5
 74
0
 42
0.0000001
 43
0.0000001
 44
0.0000000001
 40
0.0
 40
0.0
 40
0.0
 40
0.0
 40
0.4999560132
 40
1.0
 40
1.0
 40
1.0
 40
1.0
 10
5.4747152304
 20
3.6636228484
 30
0.0
 10
5.4739721697
 20
3.6614697292
 30
0.0
 10
5.4730692768
 20
3.6569218237
 30
0.0
 10
5.473654226
 20
3.6523228702
 30
0.0
 10
5.4742438091
 20
3.6501223523
 30
0.0
  0
SPLINE
  5
494
100
AcDbEntity
  8
0
100
AcDbSpline
 62
7
  6
CONTINUOUS
 70
0
 71
3
 72
9
 73
5
 74
0
 42
0.0000001
 43
0.0000001
 44
0.0000000001
 40
0.0
 40
0.0
 40
0.0
 40
0.0
 40
0.5004012035
 40
1.0
 40
1.0
 40
1.0
 40
1.0
 10
4.0250538792
 20
3.8244081955
 30
0.0
 10
4.0232443881
 20
3.8257369027
 30
0.0
 10
4.0193744198
 20
3.8280573482
 30
0.0
 10
4.0151954921
 20
3.8297351182
 30
0.0
 10
4.0130638582
 20
3.8304277281
 30
0.0
  0
SPLINE
  5
495
100
AcDbEntity
  8
0
100
AcDbSpline
 62
7
  6
CONTINUOUS
 70
0
 71
3
 72
11
 73
7
 74
0
 42
0.0000001
 43
0.0000001
 44
0.0000000001
 40
0.0
 40
0.0
 40
0.0
 40
0.0
 40
0.2497408186
 40
0.5000571684
 40
0.7500319832
 40
1.0
 40
1.0
 40
1.0
 40
1.0
 10
4.0378514569
 20
3.7927381378
 30
0.0
 10
4.0381766872
 20
3.7937389237
 30
0.0
 10
4.0386973781
 20
3.7957878436
 30
0.0
 10
4.039064512
 20
3.7989366643
 30
0.0
 10
4.0389775806
 20
3.8021074767
 30
0.0
 10
4.0386255924
 20
3.8041917459
 30
0.0
 10
4.038385715
 20
3.8052173295
 30
0.0
  0
SPLINE
  5
496
100
AcDbEntity
  8
0
100
AcDbSpline
 62
7
  6
CONTINUOUS
 70
0
 71
3
 72
9
 73
5
 74
0
 42
0.0000001
 43
0.0000001
 44
0.0000000001
 40
0.0
 40
0.0
 40
0.0
 40
0.0
 40
0.5002539376
 40
1.0
 40
1.0
 40
1.0
 40
1.0
 10
4.038385715
 20
3.8052173295
 30
0.0
 10
4.0379911837
 20
3.8069041287
 30
0.0
 10
4.036844736
 20
3.8101987815
 30
0.0
 10
4.0351509597
 20
3.813234954
 30
0.0
 10
4.0342110073
 20
3.814688001
 30
0.0
  0
SPLINE
  5
497
100
AcDbEntity
  8
0
100
AcDbSpline
 62
7
  6
CONTINUOUS
 70
0
 71
3
 72
9
 73
5
 74
0
 42
0.0000001
 43
0.0000001
 44
0.0000000001
 40
0.0
 40
0.0
 40
0.0
 40
0.0
 40
0.2496525452
 40
1.0
 40
1.0
 40
1.0
 40
1.0
 10
4.0301027834
 20
3.7816726854
 30
0.0
 10
4.0304009833
 20
3.7819053188
 30
0.0
 10
4.0315738957
 20
3.7828643261
 30
0.0
 10
4.0326575406
 20
3.7839334391
 30
0.0
 10
4.0334042016
 20
3.7847905583
 30
0.0
  0
SPLINE
  5
498
100
AcDbEntity
  8
0
100
AcDbSpline
 62
7
  6
CONTINUOUS
 70
0
 71
3
 72
9
 73
5
 74
0
 42
0.0000001
 43
0.0000001
 44
0.0000000001
 40
0.0
 40
0.0
 40
0.0
 40
0.0
 40
0.4999696313
 40
1.0
 40
1.0
 40
1.0
 40
1.0
 10
4.0334042016
 20
3.7847905583
 30
0.0
 10
4.0341484907
 20
3.7856449548
 30
0.0
 10
4.0355073023
 20
3.7874722461
 30
0.0
 10
4.0365610378
 20
3.7894895813
 30
0.0
 10
4.0370138765
 20
3.7905284311
 30
0.0
  0
LINE
  5
499
100
AcDbEntity
  8
0
100
AcDbLine
 62
7
  6
CONTINUOUS
 10
4.021121734
 20
3.7743675364
 11
4.0301027834
 21
3.7816726854
  0
SPLINE
  5
49A
100
AcDbEntity
  8
0
100
AcDbSpline
 62
7
  6
CONTINUOUS
 70
0
 71
3
 72
9
 73
5
 74
0
 42
0.0000001
 43
0.0000001
 44
0.0000000001
 40
0.0
 40
0.0
 40
0.0
 40
0.0
 40
0.499968335
 40
1.0
 40
1.0
 40
1.0
 40
1.0
 10
4.0149644519
 20
3.7658244112
 30
0.0
 10
4.0155112839
 20
3.7675072208
 30
0.0
 10
4.0173295567
 20
3.7706376826
 30
0.0
 10
4.0198076748
 20
3.7731822453
 30
0.0
 10
4.021121734
 20
3.7743675364
 30
0.0
  0
SPLINE
  5
49B
100
AcDbEntity
  8
0
100
AcDbSpline
 62
7
  6
CONTINUOUS
 70
0
 71
3
 72
9
 73
5
 74
0
 42
0.0000001
 43
0.0000001
 44
0.0000000001
 40
0.0
 40
0.0
 40
0.0
 40
0.0
 40
0.2487835032
 40
1.0
 40
1.0
 40
1.0
 40
1.0
 10
4.0153653389
 20
3.7573871501
 30
0.0
 10
4.0152448257
 20
3.7575928973
 30
0.0
 10
4.0148024829
 20
3.7584443662
 30
0.0
 10
4.0145239223
 20
3.7593767516
 30
0.0
 10
4.0143989283
 20
3.760085813
 30
0.0
  0
SPLINE
  5
49C
100
AcDbEntity
  8
0
100
AcDbSpline
 62
7
  6
CONTINUOUS
 70
0
 71
3
 72
9
 73
5
 74
0
 42
0.0000001
 43
0.0000001
 44
0.0000000001
 40
0.0
 40
0.0
 40
0.0
 40
0.0
 40
0.5016580906
 40
1.0
 40
1.0
 40
1.0
 40
1.0
 10
4.0143989283
 20
3.760085813
 30
0.0
 10
4.0142745649
 20
3.7607912978
 30
0.0
 10
4.0141916409
 20
3.7622307496
 30
0.0
 10
4.0144012496
 20
3.7636511241
 30
0.0
 10
4.0145565403
 20
3.7643456006
 30
0.0
  0
LINE
  5
49D
100
AcDbEntity
  8
0
100
AcDbLine
 62
7
  6
CONTINUOUS
 10
4.0145565403
 20
3.7643456006
 11
4.0149644519
 21
3.7658244112
  0
SPLINE
  5
49E
100
AcDbEntity
  8
0
100
AcDbSpline
 62
7
  6
CONTINUOUS
 70
0
 71
3
 72
9
 73
5
 74
0
 42
0.0000001
 43
0.0000001
 44
0.0000000001
 40
0.0
 40
0.0
 40
0.0
 40
0.0
 40
0.4999578199
 40
1.0
 40
1.0
 40
1.0
 40
1.0
 10
4.0209686046
 20
3.7528724763
 30
0.0
 10
4.0198076744
 20
3.7532496854
 30
0.0
 10
4.0175806912
 20
3.7544024449
 30
0.0
 10
4.0159823911
 20
3.756333682
 30
0.0
 10
4.0153653389
 20
3.7573871501
 30
0.0
  0
LINE
  5
49F
100
AcDbEntity
  8
0
100
AcDbLine
 62
7
  6
CONTINUOUS
 10
5.478268394
 20
3.6746408441
 11
5.4747152723
 21
3.6636228596
  0
SPLINE
  5
4A0
100
AcDbEntity
  8
0
100
AcDbSpline
 62
7
  6
CONTINUOUS
 70
0
 71
3
 72
11
 73
7
 74
0
 42
0.0000001
 43
0.0000001
 44
0.0000000001
 40
0.0
 40
0.0
 40
0.0
 40
0.0
 40
0.2172728981
 40
0.4527777604
 40
0.7122065347
 40
1.0
 40
1.0
 40
1.0
 40
1.0
 10
5.4787791595
 20
3.6851591522
 30
0.0
 10
5.4789786442
 20
3.6844146569
 30
0.0
 10
5.4792508264
 20
3.6828224587
 30
0.0
 10
5.4792826518
 20
3.6802882105
 30
0.0
 10
5.4789585794
 20
3.6775242551
 30
0.0
 10
5.4785317687
 20
3.6756272326
 30
0.0
 10
5.4782684353
 20
3.6746408552
 30
0.0
  0
SPLINE
  5
4A1
100
AcDbEntity
  8
0
100
AcDbSpline
 62
7
  6
CONTINUOUS
 70
0
 71
3
 72
9
 73
5
 74
0
 42
0.0000001
 43
0.0000001
 44
0.0000000001
 40
0.0
 40
0.0
 40
0.0
 40
0.0
 40
0.499878429
 40
1.0
 40
1.0
 40
1.0
 40
1.0
 10
5.473847451
 20
3.6920168648
 30
0.0
 10
5.4751343605
 20
3.6913713011
 30
0.0
 10
5.4773329309
 20
3.6892779523
 30
0.0
 10
5.478406335
 20
3.6865505211
 30
0.0
 10
5.4787791543
 20
3.6851591508
 30
0.0
  0
SPLINE
  5
4A2
100
AcDbEntity
  8
0
100
AcDbSpline
 62
7
  6
CONTINUOUS
 70
0
 71
3
 72
11
 73
7
 74
0
 42
0.0000001
 43
0.0000001
 44
0.0000000001
 40
0.0
 40
0.0
 40
0.0
 40
0.0
 40
0.2539648489
 40
0.4995162131
 40
0.7453158169
 40
1.0
 40
1.0
 40
1.0
 40
1.0
 10
5.4666892068
 20
3.6927514123
 30
0.0
 10
5.4672906703
 20
3.6929125706
 30
0.0
 10
5.4685028696
 20
3.6931337288
 30
0.0
 10
5.4703410787
 20
3.693123006
 30
0.0
 10
5.4721448205
 20
3.6927596722
 30
0.0
 10
5.473289291
 20
3.692296866
 30
0.0
 10
5.4738474463
 20
3.6920168793
 30
0.0
  0
SPLINE
  5
4A3
100
AcDbEntity
  8
0
100
AcDbSpline
 62
7
  6
CONTINUOUS
 70
0
 71
3
 72
13
 73
9
 74
0
 42
0.0000001
 43
0.0000001
 44
0.0000000001
 40
0.0
 40
0.0
 40
0.0
 40
0.0
 40
0.2498326308
 40
0.3749318684
 40
0.5000228562
 40
0.6251116252
 40
0.7502002895
 40
1.0
 40
1.0
 40
1.0
 40
1.0
 10
3.9689460574
 20
3.8483543356
 30
0.0
 10
3.9720167866
 20
3.8497168663
 30
0.0
 10
3.9768068613
 20
3.8513943071
 30
0.0
 10
3.9834079091
 20
3.8527146804
 30
0.0
 10
3.9884376494
 20
3.853215763
 30
0.0
 10
3.9934920881
 20
3.8532303803
 30
0.0
 10
4.0001929213
 20
3.8525921337
 30
0.0
 10
4.0051290897
 20
3.8514158405
 30
0.0
 10
4.0083236903
 20
3.8503778518
 30
0.0
  0
SPLINE
  5
4A4
100
AcDbEntity
  8
0
100
AcDbSpline
 62
7
  6
CONTINUOUS
 70
0
 71
3
 72
14
 73
10
 74
0
 42
0.0000001
 43
0.0000001
 44
0.0000000001
 40
0.0
 40
0.0
 40
0.0
 40
0.0
 40
0.249911315
 40
0.3748977022
 40
0.4998891768
 40
0.624896315
 40
0.7499008319
 40
0.8749739644
 40
1.0
 40
1.0
 40
1.0
 40
1.0
 10
3.9345139267
 20
3.8080169496
 30
0.0
 10
3.9364409941
 20
3.8120901517
 30
0.0
 10
3.9395662434
 20
3.8180980387
 30
0.0
 10
3.9443506041
 20
3.8257418431
 30
0.0
 10
3.9483016723
 20
3.8312356072
 30
0.0
 10
3.9526726373
 20
3.8364051695
 30
0.0
 10
3.9575263789
 20
3.8411340201
 30
0.0
 10
3.9629180591
 20
3.8452475676
 30
0.0
 10
3.9668854966
 20
3.8474400325
 30
0.0
 10
3.9689460574
 20
3.8483543356
 30
0.0
  0
LINE
  5
4A5
100
AcDbEntity
  8
0
100
AcDbLine
 62
7
  6
CONTINUOUS
 10
3.9019058878
 20
3.8261330764
 11
3.9200209356
 21
3.8818755645
  0
LINE
  5
4A6
100
AcDbEntity
  8
0
100
AcDbLine
 62
7
  6
CONTINUOUS
 10
3.9469537457
 20
3.7830954437
 11
3.9280023004
 21
3.8012011737
  0
LINE
  5
4A7
100
AcDbEntity
  8
0
100
AcDbLine
 62
7
  6
CONTINUOUS
 10
3.9280023004
 20
3.8012011737
 11
3.9246970761
 21
3.8043589046
  0
LINE
  5
4A8
100
AcDbEntity
  8
0
100
AcDbLine
 62
7
  6
CONTINUOUS
 10
3.9246970761
 20
3.8043589046
 11
3.9171594044
 21
3.8115602161
  0
LINE
  5
4A9
100
AcDbEntity
  8
0
100
AcDbLine
 62
7
  6
CONTINUOUS
 10
3.9171594044
 20
3.8115602161
 11
3.9139917379
 21
3.8145865305
  0
LINE
  5
4AA
100
AcDbEntity
  8
0
100
AcDbLine
 62
7
  6
CONTINUOUS
 10
3.9139917379
 20
3.8145865305
 11
3.9019058878
 21
3.8261330764
  0
SPLINE
  5
4AB
100
AcDbEntity
  8
0
100
AcDbSpline
 62
7
  6
CONTINUOUS
 70
0
 71
3
 72
13
 73
9
 74
0
 42
0.0000001
 43
0.0000001
 44
0.0000000001
 40
0.0
 40
0.0
 40
0.0
 40
0.0
 40
0.2498316808
 40
0.3749305595
 40
0.5000213142
 40
0.6251100237
 40
0.7501989211
 40
1.0
 40
1.0
 40
1.0
 40
1.0
 10
5.5623239941
 20
3.6410074157
 30
0.0
 10
5.560490828
 20
3.6381922944
 30
0.0
 10
5.5573872198
 20
3.6341766699
 30
0.0
 10
5.5525703484
 20
3.6294742053
 30
0.0
 10
5.5486250448
 20
3.6263146149
 30
0.0
 10
5.5443940727
 20
3.6235495501
 30
0.0
 10
5.5384267439
 20
3.6204353432
 30
0.0
 10
5.5336463273
 20
3.6187334624
 30
0.0
 10
5.5304018169
 20
3.6178640984
 30
0.0
  0
SPLINE
  5
4AC
100
AcDbEntity
  8
0
100
AcDbSpline
 62
7
  6
CONTINUOUS
 70
0
 71
3
 72
14
 73
10
 74
0
 42
0.0000001
 43
0.0000001
 44
0.0000000001
 40
0.0
 40
0.0
 40
0.0
 40
0.0
 40
0.2499124255
 40
0.3748991551
 40
0.4998907899
 40
0.6248978707
 40
0.7499021171
 40
0.8749746858
 40
1.0
 40
1.0
 40
1.0
 40
1.0
 10
5.5692306746
 20
3.693590139
 30
0.0
 10
5.5698330469
 20
3.6891245249
 30
0.0
 10
5.5704843041
 20
3.6823837757
 30
0.0
 10
5.5706351489
 20
3.6733674077
 30
0.0
 10
5.5703137917
 20
3.6666080577
 30
0.0
 10
5.5694636927
 20
3.6598919137
 30
0.0
 10
5.5679686709
 20
3.6532824417
 30
0.0
 10
5.5656873409
 20
3.6468960288
 30
0.0
 10
5.5635541216
 20
3.6428964743
 30
0.0
 10
5.5623239941
 20
3.6410074157
 30
0.0
  0
LINE
  5
4AD
100
AcDbEntity
  8
0
100
AcDbLine
 62
7
  6
CONTINUOUS
 10
3.8757049169
 20
3.3980060355
 11
3.8740707468
 21
3.4166846861
  0
LINE
  5
4AE
100
AcDbEntity
  8
0
100
AcDbLine
 62
7
  6
CONTINUOUS
 10
5.6064449721
 20
3.6961563171
 11
5.6216134375
 21
3.639540988
  0
LINE
  5
4AF
100
AcDbEntity
  8
0
100
AcDbLine
 62
7
  6
CONTINUOUS
 10
5.5452240186
 20
3.7077157218
 11
5.5754447712
 21
3.7020096265
  0
LINE
  5
4B0
100
AcDbEntity
  8
0
100
AcDbLine
 62
7
  6
CONTINUOUS
 10
5.5754447712
 20
3.7020096265
 11
5.585691566
 21
3.7000748805
  0
LINE
  5
4B1
100
AcDbEntity
  8
0
100
AcDbLine
 62
7
  6
CONTINUOUS
 10
5.585691566
 20
3.7000748805
 11
5.5960249663
 21
3.6981237773
  0
LINE
  5
4B2
100
AcDbEntity
  8
0
100
AcDbLine
 62
7
  6
CONTINUOUS
 10
5.5960249663
 20
3.6981237773
 11
5.6064449721
 21
3.6961563171
  0
SPLINE
  5
4B3
100
AcDbEntity
  8
0
100
AcDbSpline
 62
7
  6
CONTINUOUS
 70
0
 71
3
 72
14
 73
10
 74
0
 42
0.0000001
 43
0.0000001
 44
0.0000000001
 40
0.0
 40
0.0
 40
0.0
 40
0.0
 40
0.1250458944
 40
0.2501046952
 40
0.3751416503
 40
0.500164894
 40
0.6251604016
 40
0.7501318252
 40
1.0
 40
1.0
 40
1.0
 40
1.0
 10
4.1510498019
 20
2.9765352871
 30
0.0
 10
4.1504669614
 20
2.976920126
 30
0.0
 10
4.1491709247
 20
2.9775061824
 30
0.0
 10
4.1470799916
 20
2.9778170398
 30
0.0
 10
4.1449780293
 20
2.9777067683
 30
0.0
 10
4.1429171305
 20
2.9773064707
 30
0.0
 10
4.1409085292
 20
2.9767040864
 30
0.0
 10
4.1382988824
 20
2.9757075863
 30
0.0
 10
4.1364091892
 20
2.9747971741
 30
0.0
 10
4.1351739666
 20
2.9741475948
 30
0.0
  0
SPLINE
  5
4B4
100
AcDbEntity
  8
0
100
AcDbSpline
 62
7
  6
CONTINUOUS
 70
0
 71
3
 72
13
 73
9
 74
0
 42
0.0000001
 43
0.0000001
 44
0.0000000001
 40
0.0
 40
0.0
 40
0.0
 40
0.0
 40
0.2499615863
 40
0.4998997688
 40
0.6249229236
 40
0.7498715476
 40
0.8749927999
 40
1.0
 40
1.0
 40
1.0
 40
1.0
 10
4.1607589617
 20
2.9646334044
 30
0.0
 10
4.1601112679
 20
2.9657549845
 30
0.0
 10
4.1587816483
 20
2.9679783366
 30
0.0
 10
4.1569902952
 20
2.9706790082
 30
0.0
 10
4.1554237475
 20
2.9727428171
 30
0.0
 10
4.1541530127
 20
2.9742169934
 30
0.0
 10
4.1527445622
 20
2.9755581559
 30
0.0
 10
4.1516473508
 20
2.9762853374
 30
0.0
 10
4.1510498019
 20
2.9765352871
 30
0.0
  0
LINE
  5
4B5
100
AcDbEntity
  8
0
100
AcDbLine
 62
7
  6
CONTINUOUS
 10
5.5853959513
 20
3.3419666141
 11
5.582140048
 21
3.3235014687
  0
LINE
  5
4B6
100
AcDbEntity
  8
0
100
AcDbLine
 62
7
  6
CONTINUOUS
 10
4.1358106092
 20
3.0014149056
 11
4.1359138503
 21
3.0026976603
  0
SPLINE
  5
4B7
100
AcDbEntity
  8
0
100
AcDbSpline
 62
7
  6
CONTINUOUS
 70
0
 71
3
 72
14
 73
10
 74
0
 42
0.0000001
 43
0.0000001
 44
0.0000000001
 40
0.0
 40
0.0
 40
0.0
 40
0.0
 40
0.0628745556
 40
0.1253903932
 40
0.250259742
 40
0.3752555752
 40
0.5002037876
 40
0.7500970422
 40
1.0
 40
1.0
 40
1.0
 40
1.0
 10
4.1359138503
 20
3.0026976603
 30
0.0
 10
4.1359037231
 20
3.0030256485
 30
0.0
 10
4.1358411092
 20
3.0036785328
 30
0.0
 10
4.135611084
 20
3.0049650449
 30
0.0
 10
4.1351778624
 20
3.0065397552
 30
0.0
 10
4.1345318619
 20
3.0083868678
 30
0.0
 10
4.1335545847
 20
3.0108063829
 30
0.0
 10
4.1321834294
 20
3.0137664525
 30
0.0
 10
4.1309924805
 20
3.0160876298
 30
0.0
 10
4.1303810018
 20
3.0172396573
 30
0.0
  0
SPLINE
  5
4B8
100
AcDbEntity
  8
0
100
AcDbSpline
 62
7
  6
CONTINUOUS
 70
0
 71
3
 72
12
 73
8
 74
0
 42
0.0000001
 43
0.0000001
 44
0.0000000001
 40
0.0
 40
0.0
 40
0.0
 40
0.0
 40
0.249819165
 40
0.3748252359
 40
0.4998624819
 40
0.7501146271
 40
1.0
 40
1.0
 40
1.0
 40
1.0
 10
4.1258310526
 20
2.990327049
 30
0.0
 10
4.1269344212
 20
2.9909640792
 30
0.0
 10
4.1285461908
 20
2.9920020225
 30
0.0
 10
4.1305467808
 20
2.993584854
 30
0.0
 10
4.1324275629
 20
2.9953126427
 30
0.0
 10
4.1344677295
 20
2.9977891912
 30
0.0
 10
4.1355398895
 20
3.000169594
 30
0.0
 10
4.1358106092
 20
3.0014149056
 30
0.0
  0
LINE
  5
4B9
100
AcDbEntity
  8
0
100
AcDbLine
 62
7
  6
CONTINUOUS
 10
4.0546061797
 20
2.9023598474
 11
4.0479079265
 21
2.9065657576
  0
LINE
  5
4BA
100
AcDbEntity
  8
0
100
AcDbLine
 62
7
  6
CONTINUOUS
 10
4.0479079265
 20
2.9065657576
 11
4.0416439902
 21
2.9104989837
  0
LINE
  5
4BB
100
AcDbEntity
  8
0
100
AcDbLine
 62
7
  6
CONTINUOUS
 10
4.0416439902
 20
2.9104989837
 11
4.015739048
 21
2.9267654005
  0
SPLINE
  5
4BC
100
AcDbEntity
  8
0
100
AcDbSpline
 62
7
  6
CONTINUOUS
 70
0
 71
3
 72
11
 73
7
 74
0
 42
0.0000001
 43
0.0000001
 44
0.0000000001
 40
0.0
 40
0.0
 40
0.0
 40
0.0
 40
0.2454638173
 40
0.4870763551
 40
0.735241856
 40
1.0
 40
1.0
 40
1.0
 40
1.0
 10
3.963359442
 20
3.0398953296
 30
0.0
 10
3.9640276229
 20
3.0423903759
 30
0.0
 10
3.9658223954
 20
3.0472342943
 30
0.0
 10
3.9699931758
 20
3.0538176351
 30
0.0
 10
3.9755867354
 20
3.0595278999
 30
0.0
 10
3.9800611279
 20
3.0626060374
 30
0.0
 10
3.9824738641
 20
3.0639990518
 30
0.0
  0
SPLINE
  5
4BD
100
AcDbEntity
  8
0
100
AcDbSpline
 62
7
  6
CONTINUOUS
 70
0
 71
3
 72
9
 73
5
 74
0
 42
0.0000001
 43
0.0000001
 44
0.0000000001
 40
0.0
 40
0.0
 40
0.0
 40
0.0
 40
0.4999898865
 40
1.0
 40
1.0
 40
1.0
 40
1.0
 10
3.9673194798
 20
3.0106229891
 30
0.0
 10
3.9648060243
 20
3.0149762875
 30
0.0
 10
3.9612057607
 20
3.0246930155
 30
0.0
 10
3.9620589222
 20
3.0350394495
 30
0.0
 10
3.9633594274
 20
3.0398953116
 30
0.0
  0
SPLINE
  5
4BE
100
AcDbEntity
  8
0
100
AcDbSpline
 62
7
  6
CONTINUOUS
 70
0
 71
3
 72
12
 73
8
 74
0
 42
0.0000001
 43
0.0000001
 44
0.0000000001
 40
0.0
 40
0.0
 40
0.0
 40
0.0
 40
0.2500617845
 40
0.3751922382
 40
0.5003380131
 40
0.750516527
 40
1.0
 40
1.0
 40
1.0
 40
1.0
 10
3.9869087939
 20
2.9921978601
 30
0.0
 10
3.9848692709
 20
2.9932031584
 30
0.0
 10
3.9819072081
 20
2.9949271601
 30
0.0
 10
3.9782547368
 20
2.9976457372
 30
0.0
 10
3.9748285759
 20
3.0006475612
 30
0.0
 10
3.9710010218
 20
3.0048757386
 30
0.0
 10
3.9684537891
 20
3.0086583684
 30
0.0
 10
3.9673194798
 20
3.0106229891
 30
0.0
  0
SPLINE
  5
4BF
100
AcDbEntity
  8
0
100
AcDbSpline
 62
7
  6
CONTINUOUS
 70
0
 71
3
 72
9
 73
5
 74
0
 42
0.0000001
 43
0.0000001
 44
0.0000000001
 40
0.0
 40
0.0
 40
0.0
 40
0.0
 40
0.7497907891
 40
1.0
 40
1.0
 40
1.0
 40
1.0
 10
4.0283307309
 20
2.9901265324
 30
0.0
 10
4.0252806951
 20
2.9892111139
 30
0.0
 10
4.0211358568
 20
2.9882149522
 30
0.0
 10
4.0169299049
 20
2.9876161574
 30
0.0
 10
4.0158743788
 20
2.9874931668
 30
0.0
  0
SPLINE
  5
4C0
100
AcDbEntity
  8
0
100
AcDbSpline
 62
7
  6
CONTINUOUS
 70
0
 71
3
 72
9
 73
5
 74
0
 42
0.0000001
 43
0.0000001
 44
0.0000000001
 40
0.0
 40
0.0
 40
0.0
 40
0.0
 40
0.4997912432
 40
1.0
 40
1.0
 40
1.0
 40
1.0
 10
4.0117257174
 20
2.987152576
 30
0.0
 10
4.0090496917
 20
2.9870268914
 30
0.0
 10
4.0036684293
 20
2.9871467719
 30
0.0
 10
3.9983706075
 20
2.9881283534
 30
0.0
 10
3.9957832975
 20
2.9888317258
 30
0.0
  0
LINE
  5
4C1
100
AcDbEntity
  8
0
100
AcDbLine
 62
7
  6
CONTINUOUS
 10
5.3919509069
 20
3.1139759188
 11
5.4724911342
 21
3.005317992
  0
SPLINE
  5
4C2
100
AcDbEntity
  8
0
100
AcDbSpline
 62
7
  6
CONTINUOUS
 70
0
 71
3
 72
9
 73
5
 74
0
 42
0.0000001
 43
0.0000001
 44
0.0000000001
 40
0.0
 40
0.0
 40
0.0
 40
0.0
 40
0.4934259694
 40
1.0
 40
1.0
 40
1.0
 40
1.0
 10
4.0154364171
 20
3.055130703
 30
0.0
 10
4.0127450009
 20
3.0545286563
 30
0.0
 10
4.0073781357
 20
3.0528803989
 30
0.0
 10
4.0023257527
 20
3.0504351792
 30
0.0
 10
3.9998736644
 20
3.0490194815
 30
0.0
  0
SPLINE
  5
4C3
100
AcDbEntity
  8
0
100
AcDbSpline
 62
7
  6
CONTINUOUS
 70
0
 71
3
 72
9
 73
5
 74
0
 42
0.0000001
 43
0.0000001
 44
0.0000000001
 40
0.0
 40
0.0
 40
0.0
 40
0.0
 40
0.4864083843
 40
1.0
 40
1.0
 40
1.0
 40
1.0
 10
4.0311642548
 20
3.0567381365
 30
0.0
 10
4.0285971818
 20
3.056823938
 30
0.0
 10
4.0233018201
 20
3.0566093918
 30
0.0
 10
4.0180830846
 20
3.0557227509
 30
0.0
 10
4.0154364437
 20
3.0551307184
 30
0.0
  0
SPLINE
  5
4C4
100
AcDbEntity
  8
0
100
AcDbSpline
 62
7
  6
CONTINUOUS
 70
0
 71
3
 72
9
 73
5
 74
0
 42
0.0000001
 43
0.0000001
 44
0.0000000001
 40
0.0
 40
0.0
 40
0.0
 40
0.0
 40
0.2524030866
 40
1.0
 40
1.0
 40
1.0
 40
1.0
 10
4.0562250011
 20
3.0543095399
 30
0.0
 10
4.0541314128
 20
3.0546370575
 30
0.0
 10
4.0458198146
 20
3.055821194
 30
0.0
 10
4.0374373079
 20
3.0565285337
 30
0.0
 10
4.0311643562
 20
3.056738195
 30
0.0
  0
LINE
  5
4C5
100
AcDbEntity
  8
0
100
AcDbLine
 62
7
  6
CONTINUOUS
 10
4.0912629421
 20
3.0474177015
 11
4.0866931361
 21
3.0483676255
  0
SPLINE
  5
4C6
100
AcDbEntity
  8
0
100
AcDbSpline
 62
7
  6
CONTINUOUS
 70
0
 71
3
 72
9
 73
5
 74
0
 42
0.0000001
 43
0.0000001
 44
0.0000000001
 40
0.0
 40
0.0
 40
0.0
 40
0.0
 40
0.5490455043
 40
1.0
 40
1.0
 40
1.0
 40
1.0
 10
4.0752350653
 20
3.0507361642
 30
0.0
 10
4.0717663913
 20
3.0514442655
 30
0.0
 10
4.0654446176
 20
3.0527131274
 30
0.0
 10
4.0590981482
 20
3.0538603329
 30
0.0
 10
4.0562253608
 20
3.0543097475
 30
0.0
  0
LINE
  5
4C7
100
AcDbEntity
  8
0
100
AcDbLine
 62
7
  6
CONTINUOUS
 10
4.1184314661
 20
3.0417763857
 11
4.1049194952
 21
3.0445821318
  0
LINE
  5
4C8
100
AcDbEntity
  8
0
100
AcDbLine
 62
7
  6
CONTINUOUS
 10
4.1049194952
 20
3.0445821318
 11
4.0912632957
 21
3.0474178699
  0
LINE
  5
4C9
100
AcDbEntity
  8
0
100
AcDbLine
 62
7
  6
CONTINUOUS
 10
5.5242602765
 20
3.0455736175
 11
5.4883167213
 21
2.9942372062
  0
LINE
  5
4CA
100
AcDbEntity
  8
0
100
AcDbLine
 62
7
  6
CONTINUOUS
 10
5.4883167213
 20
2.9942372062
 11
5.476436957
 21
2.9772707193
  0
LINE
  5
4CB
100
AcDbEntity
  8
0
100
AcDbLine
 62
7
  6
CONTINUOUS
 10
5.5032098148
 20
3.0767351166
 11
5.5066723214
 21
3.0716094929
  0
LINE
  5
4CC
100
AcDbEntity
  8
0
100
AcDbLine
 62
7
  6
CONTINUOUS
 10
5.5066723214
 20
3.0716094929
 11
5.5101531895
 21
3.0664566855
  0
LINE
  5
4CD
100
AcDbEntity
  8
0
100
AcDbLine
 62
7
  6
CONTINUOUS
 10
5.5101531895
 20
3.0664566855
 11
5.5127704154
 21
3.0625823451
  0
LINE
  5
4CE
100
AcDbEntity
  8
0
100
AcDbLine
 62
7
  6
CONTINUOUS
 10
5.5127704154
 20
3.0625823451
 11
5.5242602765
 21
3.0455736175
  0
LINE
  5
4CF
100
AcDbEntity
  8
0
100
AcDbLine
 62
7
  6
CONTINUOUS
 10
4.0460597771
 20
3.108846728
 11
4.0454179035
 21
3.113160682
  0
SPLINE
  5
4D0
100
AcDbEntity
  8
0
100
AcDbSpline
 62
7
  6
CONTINUOUS
 70
0
 71
3
 72
14
 73
10
 74
0
 42
0.0000001
 43
0.0000001
 44
0.0000000001
 40
0.0
 40
0.0
 40
0.0
 40
0.0
 40
0.1249906339
 40
0.1877993806
 40
0.2503739569
 40
0.3752803629
 40
0.5002430684
 40
0.7501261643
 40
1.0
 40
1.0
 40
1.0
 40
1.0
 10
4.0620462074
 20
3.104639181
 30
0.0
 10
4.0615196138
 20
3.1050966018
 30
0.0
 10
4.0606250167
 20
3.105666306
 30
0.0
 10
4.0593604027
 20
3.1062594214
 30
0.0
 10
4.0580603464
 20
3.1067731748
 30
0.0
 10
4.056390615
 20
3.107283251
 30
0.0
 10
4.0536739537
 20
3.1079193703
 30
0.0
 10
4.05022605
 20
3.1084621281
 30
0.0
 10
4.0474498907
 20
3.1087369539
 30
0.0
 10
4.0460597771
 20
3.108846728
 30
0.0
  0
SPLINE
  5
4D1
100
AcDbEntity
  8
0
100
AcDbSpline
 62
7
  6
CONTINUOUS
 70
0
 71
3
 72
12
 73
8
 74
0
 42
0.0000001
 43
0.0000001
 44
0.0000000001
 40
0.0
 40
0.0
 40
0.0
 40
0.0
 40
0.3260459828
 40
0.6006041659
 40
0.8246262964
 40
0.9182309403
 40
1.0
 40
1.0
 40
1.0
 40
1.0
 10
4.0714398199
 20
3.091570989
 30
0.0
 10
4.0705622178
 20
3.0930910405
 30
0.0
 10
4.0689010935
 20
3.0958662783
 30
0.0
 10
4.0664439905
 20
3.099565305
 30
0.0
 10
4.0645051396
 20
3.1021018983
 30
0.0
 10
4.0630606763
 20
3.1036960096
 30
0.0
 10
4.0623785132
 20
3.1043505072
 30
0.0
 10
4.0620461927
 20
3.1046391735
 30
0.0
  0
LINE
  5
4D2
100
AcDbEntity
  8
0
100
AcDbLine
 62
7
  6
CONTINUOUS
 10
4.0926326433
 20
3.0548654528
 11
4.0714398295
 21
3.0915709944
  0
SPLINE
  5
4D3
100
AcDbEntity
  8
0
100
AcDbSpline
 62
7
  6
CONTINUOUS
 70
0
 71
3
 72
9
 73
5
 74
0
 42
0.0000001
 43
0.0000001
 44
0.0000000001
 40
0.0
 40
0.0
 40
0.0
 40
0.0
 40
0.4999983979
 40
1.0
 40
1.0
 40
1.0
 40
1.0
 10
5.3260096235
 20
2.9879805517
 30
0.0
 10
5.3272318402
 20
2.983689523
 30
0.0
 10
5.33128322
 20
2.975468047
 30
0.0
 10
5.3379760535
 20
2.9693049994
 30
0.0
 10
5.3416308852
 20
2.9667458587
 30
0.0
  0
SPLINE
  5
4D4
100
AcDbEntity
  8
0
100
AcDbSpline
 62
7
  6
CONTINUOUS
 70
0
 71
3
 72
10
 73
6
 74
0
 42
0.0000001
 43
0.0000001
 44
0.0000000001
 40
0.0
 40
0.0
 40
0.0
 40
0.0
 40
0.4995567274
 40
0.7499302562
 40
1.0
 40
1.0
 40
1.0
 40
1.0
 10
5.3289452904
 20
3.0100358967
 30
0.0
 10
5.3279817344
 20
3.0086598806
 30
0.0
 10
5.3267445399
 20
3.0064335399
 30
0.0
 10
5.3256120817
 20
3.0032620004
 30
0.0
 10
5.3252330433
 20
3.001617694
 30
0.0
 10
5.3250887999
 20
3.0007892582
 30
0.0
  0
SPLINE
  5
4D5
100
AcDbEntity
  8
0
100
AcDbSpline
 62
7
  6
CONTINUOUS
 70
0
 71
3
 72
9
 73
5
 74
0
 42
0.0000001
 43
0.0000001
 44
0.0000000001
 40
0.0
 40
0.0
 40
0.0
 40
0.0
 40
0.5001726044
 40
1.0
 40
1.0
 40
1.0
 40
1.0
 10
5.3250887999
 20
3.0007892582
 30
0.0
 10
5.3247191723
 20
2.9986663698
 30
0.0
 10
5.3245727178
 20
2.9943046631
 30
0.0
 10
5.3254197475
 20
2.9900515222
 30
0.0
 10
5.3260096235
 20
2.9879805517
 30
0.0
  0
SPLINE
  5
4D6
100
AcDbEntity
  8
0
100
AcDbSpline
 62
7
  6
CONTINUOUS
 70
0
 71
3
 72
9
 73
5
 74
0
 42
0.0000001
 43
0.0000001
 44
0.0000000001
 40
0.0
 40
0.0
 40
0.0
 40
0.0
 40
0.4999567889
 40
1.0
 40
1.0
 40
1.0
 40
1.0
 10
5.3395903967
 20
3.0183526218
 30
0.0
 10
5.3374633694
 20
3.0175378538
 30
0.0
 10
5.3333990786
 20
3.0153062089
 30
0.0
 10
5.3302520271
 20
3.0119019956
 30
0.0
 10
5.3289452904
 20
3.0100358967
 30
0.0
  0
SPLINE
  5
4D7
100
AcDbEntity
  8
0
100
AcDbSpline
 62
7
  6
CONTINUOUS
 70
0
 71
3
 72
11
 73
7
 74
0
 42
0.0000001
 43
0.0000001
 44
0.0000000001
 40
0.0
 40
0.0
 40
0.0
 40
0.0
 40
0.2497255536
 40
0.5002791967
 40
0.7502859063
 40
1.0
 40
1.0
 40
1.0
 40
1.0
 10
3.9131841916
 20
3.1473508077
 30
0.0
 10
3.9153893707
 20
3.1514333556
 30
0.0
 10
3.9205880275
 20
3.1592070291
 30
0.0
 10
3.930121337
 20
3.1694447776
 30
0.0
 10
3.940976685
 20
3.1782508782
 30
0.0
 10
3.9488184956
 20
3.1832554704
 30
0.0
 10
3.9528367075
 20
3.1855753861
 30
0.0
  0
SPLINE
  5
4D8
100
AcDbEntity
  8
0
100
AcDbSpline
 62
7
  6
CONTINUOUS
 70
0
 71
3
 72
11
 73
7
 74
0
 42
0.0000001
 43
0.0000001
 44
0.0000000001
 40
0.0
 40
0.0
 40
0.0
 40
0.0
 40
0.2496342264
 40
0.4999848378
 40
0.750069663
 40
1.0
 40
1.0
 40
1.0
 40
1.0
 10
3.9126057423
 20
3.1053934347
 30
0.0
 10
3.9117951918
 20
3.1067974933
 30
0.0
 10
3.9103180303
 20
3.1096974502
 30
0.0
 10
3.9086030789
 20
3.1142683098
 30
0.0
 10
3.9074615606
 20
3.119019986
 30
0.0
 10
3.9071411179
 20
3.1222631036
 30
0.0
 10
3.9070853476
 20
3.1238852939
 30
0.0
  0
SPLINE
  5
4D9
100
AcDbEntity
  8
0
100
AcDbSpline
 62
7
  6
CONTINUOUS
 70
0
 71
3
 72
11
 73
7
 74
0
 42
0.0000001
 43
0.0000001
 44
0.0000000001
 40
0.0
 40
0.0
 40
0.0
 40
0.0
 40
0.2503636823
 40
0.500521606
 40
0.7504098646
 40
1.0
 40
1.0
 40
1.0
 40
1.0
 10
3.9070853476
 20
3.1238852939
 30
0.0
 10
3.9070150371
 20
3.1259304201
 30
0.0
 10
3.9072036293
 20
3.1300369737
 30
0.0
 10
3.9084133113
 20
3.1360712698
 30
0.0
 10
3.9104396011
 20
3.1418707123
 30
0.0
 10
3.9122146767
 20
3.1455559011
 30
0.0
 10
3.9131841916
 20
3.1473508077
 30
0.0
  0
SPLINE
  5
4DA
100
AcDbEntity
  8
0
100
AcDbSpline
 62
7
  6
CONTINUOUS
 70
0
 71
3
 72
11
 73
7
 74
0
 42
0.0000001
 43
0.0000001
 44
0.0000000001
 40
0.0
 40
0.0
 40
0.0
 40
0.0
 40
0.249867484
 40
0.4998897899
 40
0.7498709177
 40
1.0
 40
1.0
 40
1.0
 40
1.0
 10
3.9514779406
 20
3.0848127194
 30
0.0
 10
3.9494009949
 20
3.0847665443
 30
0.0
 10
3.9452375606
 20
3.0848675001
 30
0.0
 10
3.9390468774
 20
3.0857304287
 30
0.0
 10
3.9330224043
 20
3.0874261337
 30
0.0
 10
3.9292291076
 20
3.0891833887
 30
0.0
 10
3.9274218628
 20
3.0902123414
 30
0.0
  0
SPLINE
  5
4DB
100
AcDbEntity
  8
0
100
AcDbSpline
 62
7
  6
CONTINUOUS
 70
0
 71
3
 72
9
 73
5
 74
0
 42
0.0000001
 43
0.0000001
 44
0.0000000001
 40
0.0
 40
0.0
 40
0.0
 40
0.0
 40
0.5000003139
 40
1.0
 40
1.0
 40
1.0
 40
1.0
 10
3.924822526
 20
3.0918396708
 30
0.0
 10
3.9222994665
 20
3.0935718923
 30
0.0
 10
3.9176817532
 20
3.0976976531
 30
0.0
 10
3.9141358531
 20
3.1027429333
 30
0.0
 10
3.9126057423
 20
3.1053934347
 30
0.0
  0
SPLINE
  5
4DC
100
AcDbEntity
  8
0
100
AcDbSpline
 62
7
  6
CONTINUOUS
 70
0
 71
3
 72
11
 73
7
 74
0
 42
0.0000001
 43
0.0000001
 44
0.0000000001
 40
0.0
 40
0.0
 40
0.0
 40
0.0
 40
0.2498089075
 40
0.499880021
 40
0.7501985905
 40
1.0
 40
1.0
 40
1.0
 40
1.0
 10
4.0046560871
 20
3.1007218328
 30
0.0
 10
4.000612913
 20
3.0983875052
 30
0.0
 10
3.9922934036
 20
3.0940966502
 30
0.0
 10
3.9791628372
 20
3.0890839416
 30
0.0
 10
3.9654860377
 20
3.0858207404
 30
0.0
 10
3.9561453024
 20
3.0849164852
 30
0.0
 10
3.9514779406
 20
3.0848127194
 30
0.0
  0
LINE
  5
4DD
100
AcDbEntity
  8
0
100
AcDbLine
 62
7
  6
CONTINUOUS
 10
5.3503146371
 20
3.0227129397
 11
5.339590475
 21
3.0183525671
  0
SPLINE
  5
4DE
100
AcDbEntity
  8
0
100
AcDbSpline
 62
7
  6
CONTINUOUS
 70
0
 71
3
 72
9
 73
5
 74
0
 42
0.0000001
 43
0.0000001
 44
0.0000000001
 40
0.0
 40
0.0
 40
0.0
 40
0.0
 40
0.4999694424
 40
1.0
 40
1.0
 40
1.0
 40
1.0
 10
5.358700557
 20
3.029082625
 30
0.0
 10
5.3576856458
 20
3.0276332068
 30
0.0
 10
5.3550316154
 20
3.025171109
 30
0.0
 10
5.3519178634
 20
3.0234622226
 30
0.0
 10
5.3503147004
 20
3.022712895
 30
0.0
  0
LINE
  5
4DF
100
AcDbEntity
  8
0
100
AcDbLine
 62
7
  6
CONTINUOUS
 10
5.3607838977
 20
3.0372685359
 11
5.3609793142
 21
3.0358242224
  0
SPLINE
  5
4E0
100
AcDbEntity
  8
0
100
AcDbSpline
 62
7
  6
CONTINUOUS
 70
0
 71
3
 72
10
 73
6
 74
0
 42
0.0000001
 43
0.0000001
 44
0.0000000001
 40
0.0
 40
0.0
 40
0.0
 40
0.0
 40
0.2513881884
 40
0.5024275904
 40
1.0
 40
1.0
 40
1.0
 40
1.0
 10
5.3609793142
 20
3.0358242224
 30
0.0
 10
5.3610039726
 20
3.0352187624
 30
0.0
 10
5.360919788
 20
3.0340001875
 30
0.0
 10
5.3602929907
 20
3.0316605705
 30
0.0
 10
5.3593885011
 20
3.0300650938
 30
0.0
 10
5.358700557
 20
3.029082625
 30
0.0
  0
SPLINE
  5
4E1
100
AcDbEntity
  8
0
100
AcDbSpline
 62
7
  6
CONTINUOUS
 70
0
 71
3
 72
11
 73
7
 74
0
 42
0.0000001
 43
0.0000001
 44
0.0000000001
 40
0.0
 40
0.0
 40
0.0
 40
0.0
 40
0.4971926895
 40
0.6230114988
 40
0.7487484685
 40
1.0
 40
1.0
 40
1.0
 40
1.0
 10
4.6242963945
 20
4.2411811901
 30
0.0
 10
4.6224290073
 20
4.2428784101
 30
0.0
 10
4.6209761138
 20
4.2459547128
 30
0.0
 10
4.6201489756
 20
4.2496472717
 30
0.0
 10
4.6197746301
 20
4.2521767822
 30
0.0
 10
4.6196841395
 20
4.2540923405
 30
0.0
 10
4.6196841395
 20
4.2553675307
 30
0.0
  0
LINE
  5
4E2
100
AcDbEntity
  8
0
100
AcDbLine
 62
7
  6
CONTINUOUS
 10
4.0303353628
 20
3.7815974257
 11
4.0213544799
 21
3.7742920117
  0
SPLINE
  5
4E3
100
AcDbEntity
  8
0
100
AcDbSpline
 62
7
  6
CONTINUOUS
 70
0
 71
3
 72
11
 73
7
 74
0
 42
0.0000001
 43
0.0000001
 44
0.0000000001
 40
0.0
 40
0.0
 40
0.0
 40
0.0
 40
0.2877939463
 40
0.5472227873
 40
0.7827274372
 40
1.0
 40
1.0
 40
1.0
 40
1.0
 10
4.0213544799
 20
3.7742920117
 30
0.0
 10
4.0205964019
 20
3.7736081824
 30
0.0
 10
4.0192052413
 20
3.7722496533
 30
0.0
 10
4.0174280767
 20
3.7701080912
 30
0.0
 10
4.0160745082
 20
3.7679653424
 30
0.0
 10
4.0154356045
 20
3.7664817603
 30
0.0
 10
4.0151974258
 20
3.7657487216
 30
0.0
  0
SPLINE
  5
4E4
100
AcDbEntity
  8
0
100
AcDbSpline
 62
7
  6
CONTINUOUS
 70
0
 71
3
 72
11
 73
7
 74
0
 42
0.0000001
 43
0.0000001
 44
0.0000000001
 40
0.0
 40
0.0
 40
0.0
 40
0.0
 40
0.2501087843
 40
0.4972730997
 40
0.7442914491
 40
1.0
 40
1.0
 40
1.0
 40
1.0
 10
4.0083235501
 20
3.8503774146
 30
0.0
 10
4.0051416645
 20
3.8513977602
 30
0.0
 10
3.9986366271
 20
3.8529256875
 30
0.0
 10
3.988644871
 20
3.8533847458
 30
0.0
 10
3.9786781649
 20
3.8518932461
 30
0.0
 10
3.9722990123
 20
3.8496652084
 30
0.0
 10
3.9691767613
 20
3.8482797045
 30
0.0
  0
SPLINE
  5
4E5
100
AcDbEntity
  8
0
100
AcDbSpline
 62
7
  6
CONTINUOUS
 70
0
 71
3
 72
11
 73
7
 74
0
 42
0.0000001
 43
0.0000001
 44
0.0000000001
 40
0.0
 40
0.0
 40
0.0
 40
0.0
 40
0.2383414606
 40
0.4814886008
 40
0.7339949944
 40
1.0
 40
1.0
 40
1.0
 40
1.0
 10
4.6797909031
 20
4.3591150315
 30
0.0
 10
4.6776499732
 20
4.3552087646
 30
0.0
 10
4.6738662986
 20
4.3470072771
 30
0.0
 10
4.6698518708
 20
4.3338493993
 30
0.0
 10
4.6674696358
 20
4.3197793673
 30
0.0
 10
4.6669795087
 20
4.3100780669
 30
0.0
 10
4.6669795087
 20
4.3051065556
 30
0.0
  0
SPLINE
  5
4E6
100
AcDbEntity
  8
0
100
AcDbSpline
 62
7
  6
CONTINUOUS
 70
0
 71
3
 72
11
 73
7
 74
0
 42
0.0000001
 43
0.0000001
 44
0.0000000001
 40
0.0
 40
0.0
 40
0.0
 40
0.0
 40
0.2757738182
 40
0.531377301
 40
0.7710941824
 40
1.0
 40
1.0
 40
1.0
 40
1.0
 10
4.7663745305
 20
4.3075614923
 30
0.0
 10
4.7663745305
 20
4.3126856488
 30
0.0
 10
4.7658784746
 20
4.3225709818
 30
0.0
 10
4.7634177009
 20
4.3367266487
 30
0.0
 10
4.7592747584
 20
4.3495789587
 30
0.0
 10
4.7553277015
 20
4.3573907417
 30
0.0
 10
4.7530974174
 20
4.3610123999
 30
0.0
  0
SPLINE
  5
4E7
100
AcDbEntity
  8
0
100
AcDbSpline
 62
7
  6
CONTINUOUS
 70
0
 71
3
 72
15
 73
11
 74
0
 42
0.0000001
 43
0.0000001
 44
0.0000000001
 40
0.0
 40
0.0
 40
0.0
 40
0.0
 40
0.0993513598
 40
0.203695277
 40
0.3144602651
 40
0.4328500972
 40
0.5598589394
 40
0.6962992572
 40
0.8428328871
 40
1.0
 40
1.0
 40
1.0
 40
1.0
 10
3.9691767613
 20
3.8482797045
 30
0.0
 10
3.9675391676
 20
3.8475530196
 30
0.0
 10
3.9642813654
 20
3.8458295444
 30
0.0
 10
3.9596279699
 20
3.8425672637
 30
0.0
 10
3.9551108987
 20
3.8385798973
 30
0.0
 10
3.9507315212
 20
3.833869587
 30
0.0
 10
3.9464894976
 20
3.8284364488
 30
0.0
 10
3.9423853633
 20
3.8222798369
 30
0.0
 10
3.9384201399
 20
3.8153988682
 30
0.0
 10
3.9359585076
 20
3.8105033294
 30
0.0
 10
3.9347465302
 20
3.8079413721
 30
0.0
  0
SPLINE
  5
4E8
100
AcDbEntity
  8
0
100
AcDbSpline
 62
7
  6
CONTINUOUS
 70
0
 71
3
 72
11
 73
7
 74
0
 42
0.0000001
 43
0.0000001
 44
0.0000000001
 40
0.0
 40
0.0
 40
0.0
 40
0.0
 40
0.2383414606
 40
0.4814886008
 40
0.7339949944
 40
1.0
 40
1.0
 40
1.0
 40
1.0
 10
4.788687704
 20
4.3591150315
 30
0.0
 10
4.786546774
 20
4.3552087646
 30
0.0
 10
4.7827630995
 20
4.3470072771
 30
0.0
 10
4.7787486716
 20
4.3338493993
 30
0.0
 10
4.7763664366
 20
4.3197793673
 30
0.0
 10
4.7758763096
 20
4.3100780669
 30
0.0
 10
4.7758763096
 20
4.3051065556
 30
0.0
  0
SPLINE
  5
4E9
100
AcDbEntity
  8
0
100
AcDbSpline
 62
7
  6
CONTINUOUS
 70
0
 71
3
 72
11
 73
7
 74
0
 42
0.0000001
 43
0.0000001
 44
0.0000000001
 40
0.0
 40
0.0
 40
0.0
 40
0.0
 40
0.2757738373
 40
0.5313773209
 40
0.771094187
 40
1.0
 40
1.0
 40
1.0
 40
1.0
 10
4.8752713224
 20
4.3075614923
 30
0.0
 10
4.8752713224
 20
4.3126856488
 30
0.0
 10
4.8747752686
 20
4.3225709813
 30
0.0
 10
4.8723145016
 20
4.3367266482
 30
0.0
 10
4.8681715658
 20
4.3495789589
 30
0.0
 10
4.8642245111
 20
4.3573907421
 30
0.0
 10
4.8619942272
 20
4.3610123999
 30
0.0
  0
SPLINE
  5
4EA
100
AcDbEntity
  8
0
100
AcDbSpline
 62
7
  6
CONTINUOUS
 70
0
 71
3
 72
11
 73
7
 74
0
 42
0.0000001
 43
0.0000001
 44
0.0000000001
 40
0.0
 40
0.0
 40
0.0
 40
0.0
 40
0.2539648494
 40
0.4995162134
 40
0.7453158169
 40
1.0
 40
1.0
 40
1.0
 40
1.0
 10
5.356745379
 20
3.043224216
 30
0.0
 10
5.3572554467
 20
3.0428670588
 30
0.0
 10
5.3582040504
 20
3.042080618
 30
0.0
 10
5.3593774143
 20
3.0406655756
 30
0.0
 10
5.3602585074
 20
3.0390502827
 30
0.0
 10
5.3606396288
 20
3.0378760814
 30
0.0
 10
5.3607839218
 20
3.0372685376
 30
0.0
  0
SPLINE
  5
4EB
100
AcDbEntity
  8
0
100
AcDbSpline
 62
7
  6
CONTINUOUS
 70
0
 71
3
 72
13
 73
9
 74
0
 42
0.0000001
 43
0.0000001
 44
0.0000000001
 40
0.0
 40
0.0
 40
0.0
 40
0.0
 40
0.24983201
 40
0.374931015
 40
0.500021848
 40
0.6251105717
 40
0.7501993845
 40
1.0
 40
1.0
 40
1.0
 40
1.0
 10
5.3785795264
 20
2.936703719
 30
0.0
 10
5.3752446601
 20
2.936298493
 30
0.0
 10
5.3701735228
 20
2.9360948138
 30
0.0
 10
5.3634749628
 20
2.936762078
 30
0.0
 10
5.3585185591
 20
2.9377534221
 30
0.0
 10
5.3536807585
 20
2.939217196
 30
0.0
 10
5.3474593895
 20
2.9417866697
 30
0.0
 10
5.343082866
 20
2.9443547411
 30
0.0
 10
5.3403313557
 20
2.9462813694
 30
0.0
  0
SPLINE
  5
4EC
100
AcDbEntity
  8
0
100
AcDbSpline
 62
7
  6
CONTINUOUS
 70
0
 71
3
 72
14
 73
10
 74
0
 42
0.0000001
 43
0.0000001
 44
0.0000000001
 40
0.0
 40
0.0
 40
0.0
 40
0.0
 40
0.2499120731
 40
0.3748986951
 40
0.4998902806
 40
0.6248973807
 40
0.7499017166
 40
0.8749744604
 40
1.0
 40
1.0
 40
1.0
 40
1.0
 10
5.4233000763
 20
2.9652121503
 30
0.0
 10
5.4202663833
 20
2.9618802898
 30
0.0
 10
5.4155212435
 20
2.9570485657
 30
0.0
 10
5.4087112091
 20
2.951137454
 30
0.0
 10
5.4033266398
 20
2.9470388384
 30
0.0
 10
5.3976353019
 20
2.9433730326
 30
0.0
 10
5.3916111327
 20
2.9402698328
 30
0.0
 10
5.3852524126
 20
2.9379123526
 30
0.0
 10
5.3808173498
 20
2.9369756412
 30
0.0
 10
5.3785795264
 20
2.936703719
 30
0.0
  0
SPLINE
  5
4ED
100
AcDbEntity
  8
0
100
AcDbSpline
 62
7
  6
CONTINUOUS
 70
0
 71
3
 72
11
 73
7
 74
0
 42
0.0000001
 43
0.0000001
 44
0.0000000001
 40
0.0
 40
0.0
 40
0.0
 40
0.0
 40
0.2499929441
 40
0.5000087468
 40
0.7500205491
 40
1.0
 40
1.0
 40
1.0
 40
1.0
 10
5.3288117063
 20
3.0101295225
 30
0.0
 10
5.3294667728
 20
3.0110650545
 30
0.0
 10
5.3309042837
 20
3.0128518364
 30
0.0
 10
5.3334390515
 20
3.0151775912
 30
0.0
 10
5.3363081707
 20
3.0170755432
 30
0.0
 10
5.3383898369
 20
3.0180377419
 30
0.0
 10
5.3394562796
 20
3.0184462655
 30
0.0
  0
LINE
  5
4EE
100
AcDbEntity
  8
0
100
AcDbLine
 62
7
  6
CONTINUOUS
 10
5.3394562796
 20
3.0184462655
 11
5.3501806451
 21
3.0228067125
  0
SPLINE
  5
4EF
100
AcDbEntity
  8
0
100
AcDbSpline
 62
7
  6
CONTINUOUS
 70
0
 71
3
 72
11
 73
7
 74
0
 42
0.0000001
 43
0.0000001
 44
0.0000000001
 40
0.0
 40
0.0
 40
0.0
 40
0.0
 40
0.2877937317
 40
0.5472225502
 40
0.7827272947
 40
1.0
 40
1.0
 40
1.0
 40
1.0
 10
5.3501806451
 20
3.0228067125
 30
0.0
 10
5.3511055295
 20
3.023239021
 30
0.0
 10
5.352833096
 20
3.0241314529
 30
0.0
 10
5.3551587363
 20
3.0256598459
 30
0.0
 10
5.3570796384
 20
3.0273132214
 30
0.0
 10
5.3581243822
 20
3.0285451804
 30
0.0
 10
5.3585664734
 20
3.0291765521
 30
0.0
  0
SPLINE
  5
4F0
100
AcDbEntity
  8
0
100
AcDbSpline
 62
7
  6
CONTINUOUS
 70
0
 71
3
 72
12
 73
8
 74
0
 42
0.0000001
 43
0.0000001
 44
0.0000000001
 40
0.0
 40
0.0
 40
0.0
 40
0.0
 40
0.2499996537
 40
0.3750112033
 40
0.5000276955
 40
0.7500379009
 40
1.0
 40
1.0
 40
1.0
 40
1.0
 10
3.9639952486
 20
3.166992412
 30
0.0
 10
3.9677507711
 20
3.1691606639
 30
0.0
 10
3.9734433279
 20
3.172314124
 30
0.0
 10
3.981183026
 20
3.1762308655
 30
0.0
 10
3.9890300948
 20
3.1799298285
 30
0.0
 10
3.9990716427
 20
3.1840356505
 30
0.0
 10
4.0074354432
 20
3.1864717932
 30
0.0
 10
4.0116956662
 20
3.187278091
 30
0.0
  0
SPLINE
  5
4F1
100
AcDbEntity
  8
0
100
AcDbSpline
 62
7
  6
CONTINUOUS
 70
0
 71
3
 72
11
 73
7
 74
0
 42
0.0000001
 43
0.0000001
 44
0.0000000001
 40
0.0
 40
0.0
 40
0.0
 40
0.0
 40
0.2545979562
 40
0.5002825748
 40
0.745822157
 40
1.0
 40
1.0
 40
1.0
 40
1.0
 10
5.3401989674
 20
2.9463740612
 30
0.0
 10
5.3430016995
 20
2.944411567
 30
0.0
 10
5.3488393297
 20
2.9409940791
 30
0.0
 10
5.3583365111
 20
2.9376065822
 30
0.0
 10
5.3683037959
 20
2.9361189282
 30
0.0
 10
5.3750556284
 20
2.9363845283
 30
0.0
 10
5.3784465363
 20
2.9367966347
 30
0.0
  0
SPLINE
  5
4F2
100
AcDbEntity
  8
0
100
AcDbSpline
 62
7
  6
CONTINUOUS
 70
0
 71
3
 72
15
 73
11
 74
0
 42
0.0000001
 43
0.0000001
 44
0.0000000001
 40
0.0
 40
0.0
 40
0.0
 40
0.0
 40
0.0993513041
 40
0.2036952031
 40
0.3144602019
 40
0.4328500624
 40
0.5598589382
 40
0.6962992815
 40
0.842832916
 40
1.0
 40
1.0
 40
1.0
 40
1.0
 10
5.3784465363
 20
2.9367966347
 30
0.0
 10
5.3802250359
 20
2.9370127806
 30
0.0
 10
5.3838443814
 20
2.9377084594
 30
0.0
 10
5.3892482421
 20
2.9394676741
 30
0.0
 10
5.394733731
 20
2.9419601496
 30
0.0
 10
5.4002989119
 20
2.9451842375
 30
0.0
 10
5.4059440753
 20
2.9491397274
 30
0.0
 10
5.4116688977
 20
2.9538273927
 30
0.0
 10
5.4174726598
 20
2.9592483762
 30
0.0
 10
5.4212580471
 20
2.9632102909
 30
0.0
 10
5.4231661104
 20
2.9653059542
 30
0.0
  0
LINE
  5
4F3
100
AcDbEntity
  8
0
100
AcDbLine
 62
7
  6
CONTINUOUS
 10
5.4491867276
 20
2.9383538831
 11
5.4155665583
 21
2.8903428214
  0
LINE
  5
4F4
100
AcDbEntity
  8
0
100
AcDbLine
 62
7
  6
CONTINUOUS
 10
5.4186898661
 20
2.9926819627
 11
5.4315198372
 21
2.9698262828
  0
LINE
  5
4F5
100
AcDbEntity
  8
0
100
AcDbLine
 62
7
  6
CONTINUOUS
 10
5.4315198372
 20
2.9698262828
 11
5.4337481381
 21
2.9658567174
  0
LINE
  5
4F6
100
AcDbEntity
  8
0
100
AcDbLine
 62
7
  6
CONTINUOUS
 10
5.4337481381
 20
2.9658567174
 11
5.438852077
 21
2.9567643937
  0
LINE
  5
4F7
100
AcDbEntity
  8
0
100
AcDbLine
 62
7
  6
CONTINUOUS
 10
5.438852077
 20
2.9567643937
 11
5.4410048211
 21
2.9529294225
  0
LINE
  5
4F8
100
AcDbEntity
  8
0
100
AcDbLine
 62
7
  6
CONTINUOUS
 10
5.4410048211
 20
2.9529294225
 11
5.4491867276
 21
2.9383538831
  0
SPLINE
  5
4F9
100
AcDbEntity
  8
0
100
AcDbSpline
 62
7
  6
CONTINUOUS
 70
0
 71
3
 72
11
 73
7
 74
0
 42
0.0000001
 43
0.0000001
 44
0.0000000001
 40
0.0
 40
0.0
 40
0.0
 40
0.0
 40
0.2951082434
 40
0.5587973162
 40
0.7928918167
 40
1.0
 40
1.0
 40
1.0
 40
1.0
 10
5.5079012956
 20
3.7803898562
 30
0.0
 10
5.5058473352
 20
3.7824849026
 30
0.0
 10
5.5018464766
 20
3.7863457271
 30
0.0
 10
5.495784089
 20
3.7913980757
 30
0.0
 10
5.4900036475
 20
3.7953794242
 30
0.0
 10
5.4861111165
 20
3.7974356835
 30
0.0
 10
5.4842199464
 20
3.798250025
 30
0.0
  0
SPLINE
  5
4FA
100
AcDbEntity
  8
0
100
AcDbSpline
 62
7
  6
CONTINUOUS
 70
0
 71
3
 72
11
 73
7
 74
0
 42
0.0000001
 43
0.0000001
 44
0.0000000001
 40
0.0
 40
0.0
 40
0.0
 40
0.0
 40
0.2570045643
 40
0.50239768
 40
0.7466221646
 40
1.0
 40
1.0
 40
1.0
 40
1.0
 10
5.5663389051
 20
3.8129312216
 30
0.0
 10
5.564231104
 20
3.8141590468
 30
0.0
 10
5.5598903621
 20
3.8162127007
 30
0.0
 10
5.5529569745
 20
3.8179054766
 30
0.0
 10
5.545857153
 20
3.8180993839
 30
0.0
 10
5.5411738827
 20
3.8172687277
 30
0.0
 10
5.538850911
 20
3.8166462893
 30
0.0
  0
SPLINE
  5
4FB
100
AcDbEntity
  8
0
100
AcDbSpline
 62
7
  6
CONTINUOUS
 70
0
 71
3
 72
12
 73
8
 74
0
 42
0.0000001
 43
0.0000001
 44
0.0000000001
 40
0.0
 40
0.0
 40
0.0
 40
0.0
 40
0.192900145
 40
0.3024599368
 40
0.4214960277
 40
0.6896216386
 40
1.0
 40
1.0
 40
1.0
 40
1.0
 10
5.5055233738
 20
3.7260772659
 30
0.0
 10
5.5071587722
 20
3.7277366462
 30
0.0
 10
5.5094344066
 20
3.7306262199
 30
0.0
 10
5.5121472339
 20
3.7349342979
 30
0.0
 10
5.5150213728
 20
3.7402052456
 30
0.0
 10
5.5184437597
 20
3.747917213
 30
0.0
 10
5.520787172
 20
3.7545050722
 30
0.0
 10
5.521948671
 20
3.7580693018
 30
0.0
  0
SPLINE
  5
4FC
100
AcDbEntity
  8
0
100
AcDbSpline
 62
7
  6
CONTINUOUS
 70
0
 71
3
 72
11
 73
7
 74
0
 42
0.0000001
 43
0.0000001
 44
0.0000000001
 40
0.0
 40
0.0
 40
0.0
 40
0.0
 40
0.2378967205
 40
0.4809488548
 40
0.733719591
 40
1.0
 40
1.0
 40
1.0
 40
1.0
 10
5.4859002597
 20
3.7140360386
 30
0.0
 10
5.4876836798
 20
3.7145139045
 30
0.0
 10
5.4912202169
 20
3.7157592031
 30
0.0
 10
5.4962717743
 20
3.7184267118
 30
0.0
 10
5.5010950296
 20
3.7218775556
 30
0.0
 10
5.5040727278
 20
3.7246053472
 30
0.0
 10
5.5055233738
 20
3.7260772659
 30
0.0
  0
SPLINE
  5
4FD
100
AcDbEntity
  8
0
100
AcDbSpline
 62
7
  6
CONTINUOUS
 70
0
 71
3
 72
16
 73
12
 74
0
 42
0.0000001
 43
0.0000001
 44
0.0000000001
 40
0.0
 40
0.0
 40
0.0
 40
0.0
 40
0.1248893999
 40
0.1876013518
 40
0.2502836336
 40
0.3128380379
 40
0.3753244451
 40
0.5002385805
 40
0.6251625642
 40
0.7501068955
 40
1.0
 40
1.0
 40
1.0
 40
1.0
 10
4.0346785271
 20
3.1520060442
 30
0.0
 10
4.0333601115
 20
3.1500176907
 30
0.0
 10
4.031082474
 20
3.1472243333
 30
0.0
 10
4.027725791
 20
3.1438200483
 30
0.0
 10
4.0250932233
 20
3.1413767299
 30
0.0
 10
4.0223818864
 20
3.1390289594
 30
0.0
 10
4.0186749216
 20
3.1360182274
 30
0.0
 10
4.0138915893
 20
3.1324483665
 30
0.0
 10
4.0079997058
 20
3.1283792458
 30
0.0
 10
3.9999914944
 20
3.1231800892
 30
0.0
 10
3.9938433755
 20
3.1195044813
 30
0.0
 10
3.9897092566
 20
3.1171176466
 30
0.0
  0
SPLINE
  5
4FE
100
AcDbEntity
  8
0
100
AcDbSpline
 62
7
  6
CONTINUOUS
 70
0
 71
3
 72
11
 73
7
 74
0
 42
0.0000001
 43
0.0000001
 44
0.0000000001
 40
0.0
 40
0.0
 40
0.0
 40
0.0
 40
0.24625692
 40
0.4902530182
 40
0.7392990093
 40
1.0
 40
1.0
 40
1.0
 40
1.0
 10
5.4842199464
 20
3.798250025
 30
0.0
 10
5.4824678919
 20
3.7990044631
 30
0.0
 10
5.4788431262
 20
3.8002127072
 30
0.0
 10
5.4731449154
 20
3.8010278551
 30
0.0
 10
5.4672822577
 20
3.8008362866
 30
0.0
 10
5.4633901363
 20
3.8000740501
 30
0.0
 10
5.461439477
 20
3.7995513725
 30
0.0
  0
SPLINE
  5
4FF
100
AcDbEntity
  8
0
100
AcDbSpline
 62
7
  6
CONTINUOUS
 70
0
 71
3
 72
11
 73
7
 74
0
 42
0.0000001
 43
0.0000001
 44
0.0000000001
 40
0.0
 40
0.0
 40
0.0
 40
0.0
 40
0.2757738373
 40
0.5313773209
 40
0.771094187
 40
1.0
 40
1.0
 40
1.0
 40
1.0
 10
3.9529740793
 20
3.1856546866
 30
0.0
 10
3.9485364296
 20
3.1830926084
 30
0.0
 10
3.9402235075
 20
3.1777203469
 30
0.0
 10
3.9291947238
 20
3.1685114267
 30
0.0
 10
3.9201357642
 20
3.1584973837
 30
0.0
 10
3.9153440888
 20
3.1511732424
 30
0.0
 10
3.9133227831
 20
3.1474309311
 30
0.0
  0
SPLINE
  5
500
100
AcDbEntity
  8
0
100
AcDbSpline
 62
7
  6
CONTINUOUS
 70
0
 71
3
 72
13
 73
9
 74
0
 42
0.0000001
 43
0.0000001
 44
0.0000000001
 40
0.0
 40
0.0
 40
0.0
 40
0.0
 40
0.2498482806
 40
0.3749487878
 40
0.500020562
 40
0.6250912453
 40
0.7501804643
 40
1.0
 40
1.0
 40
1.0
 40
1.0
 10
5.4489850191
 20
3.7689138672
 30
0.0
 10
5.4499774985
 20
3.7706333654
 30
0.0
 10
5.4516934762
 20
3.773096591
 30
0.0
 10
5.4544301168
 20
3.7759851375
 30
0.0
 10
5.4567049399
 20
3.7779219384
 30
0.0
 10
5.4591699294
 20
3.7796098406
 30
0.0
 10
5.4626730619
 20
3.7814960867
 30
0.0
 10
5.4654970021
 20
3.7825120389
 30
0.0
 10
5.4674145005
 20
3.783025831
 30
0.0
  0
SPLINE
  5
501
100
AcDbEntity
  8
0
100
AcDbSpline
 62
7
  6
CONTINUOUS
 70
0
 71
3
 72
12
 73
8
 74
0
 42
0.0000001
 43
0.0000001
 44
0.0000000001
 40
0.0
 40
0.0
 40
0.0
 40
0.0
 40
0.2500175778
 40
0.3751386656
 40
0.5005366191
 40
0.7506798934
 40
1.0
 40
1.0
 40
1.0
 40
1.0
 10
5.5253809371
 20
3.7679417153
 30
0.0
 10
5.5265295065
 20
3.7713702023
 30
0.0
 10
5.5284238152
 20
3.7764646135
 30
0.0
 10
5.531525319
 20
3.7830110818
 30
0.0
 10
5.535068754
 20
3.7893294442
 30
0.0
 10
5.5405119874
 20
3.7966296815
 30
0.0
 10
5.5469104807
 20
3.8006793014
 30
0.0
 10
5.5503932954
 20
3.8016125188
 30
0.0
  0
SPLINE
  5
502
100
AcDbEntity
  8
0
100
AcDbSpline
 62
7
  6
CONTINUOUS
 70
0
 71
3
 72
10
 73
6
 74
0
 42
0.0000001
 43
0.0000001
 44
0.0000000001
 40
0.0
 40
0.0
 40
0.0
 40
0.0
 40
0.4995915402
 40
0.7498147711
 40
1.0
 40
1.0
 40
1.0
 40
1.0
 10
5.561100518
 20
3.7562914301
 30
0.0
 10
5.5585490909
 20
3.7556077773
 30
0.0
 10
5.5545843489
 20
3.754988113
 30
0.0
 10
5.5492893951
 20
3.7551758541
 30
0.0
 10
5.5466710073
 20
3.75561846
 30
0.0
 10
5.5453843879
 20
3.7559256148
 30
0.0
  0
SPLINE
  5
503
100
AcDbEntity
  8
0
100
AcDbSpline
 62
7
  6
CONTINUOUS
 70
0
 71
3
 72
15
 73
11
 74
0
 42
0.0000001
 43
0.0000001
 44
0.0000000001
 40
0.0
 40
0.0
 40
0.0
 40
0.0
 40
0.0993513041
 40
0.2036952031
 40
0.3144602019
 40
0.4328500624
 40
0.5598589382
 40
0.6962992815
 40
0.842832916
 40
1.0
 40
1.0
 40
1.0
 40
1.0
 10
5.5621667452
 20
3.640965145
 30
0.0
 10
5.5631443653
 20
3.6424664907
 30
0.0
 10
5.5649379149
 20
3.6456862438
 30
0.0
 10
5.5670638129
 20
3.6509566428
 30
0.0
 10
5.5686804702
 20
3.6567609034
 30
0.0
 10
5.5697879049
 20
3.6630964831
 30
0.0
 10
5.5703864649
 20
3.669963469
 30
0.0
 10
5.5704753499
 20
3.6773621106
 30
0.0
 10
5.570053222
 20
3.6852925913
 30
0.0
 10
5.5694514193
 20
3.6907390359
 30
0.0
 10
5.5690725274
 20
3.6935477636
 30
0.0
  0
SPLINE
  5
504
100
AcDbEntity
  8
0
100
AcDbSpline
 62
7
  6
CONTINUOUS
 70
0
 71
3
 72
11
 73
7
 74
0
 42
0.0000001
 43
0.0000001
 44
0.0000000001
 40
0.0
 40
0.0
 40
0.0
 40
0.0
 40
0.2545979562
 40
0.5002825748
 40
0.745822157
 40
1.0
 40
1.0
 40
1.0
 40
1.0
 10
5.5302449474
 20
3.6178220585
 30
0.0
 10
5.5335498667
 20
3.6187076089
 30
0.0
 10
5.5399201706
 20
3.6209827741
 30
0.0
 10
5.5486198143
 20
3.6260805962
 30
0.0
 10
5.5561662706
 20
3.6327597337
 30
0.0
 10
5.5603028034
 20
3.638102662
 30
0.0
 10
5.5621667452
 20
3.640965145
 30
0.0
  0
SPLINE
  5
505
100
AcDbEntity
  8
0
100
AcDbSpline
 62
7
  6
CONTINUOUS
 70
0
 71
3
 72
9
 73
5
 74
0
 42
0.0000001
 43
0.0000001
 44
0.0000000001
 40
0.0
 40
0.0
 40
0.0
 40
0.0
 40
0.7498406726
 40
1.0
 40
1.0
 40
1.0
 40
1.0
 10
4.8570684802
 20
2.6255997493
 30
0.0
 10
4.856917327
 20
2.6275265044
 30
0.0
 10
4.8565728592
 20
2.6300901879
 30
0.0
 10
4.8559948682
 20
2.632602717
 30
0.0
 10
4.8558348284
 20
2.633227312
 30
0.0
  0
SPLINE
  5
506
100
AcDbEntity
  8
0
100
AcDbSpline
 62
7
  6
CONTINUOUS
 70
0
 71
3
 72
9
 73
5
 74
0
 42
0.0000001
 43
0.0000001
 44
0.0000000001
 40
0.0
 40
0.0
 40
0.0
 40
0.0
 40
0.7497179392
 40
1.0
 40
1.0
 40
1.0
 40
1.0
 10
4.8558348284
 20
2.633227312
 30
0.0
 10
4.8554121547
 20
2.6348769007
 30
0.0
 10
4.8547016781
 20
2.637045398
 30
0.0
 10
4.8537789788
 20
2.6391215566
 30
0.0
 10
4.8535348172
 20
2.6396349328
 30
0.0
  0
SPLINE
  5
507
100
AcDbEntity
  8
0
100
AcDbSpline
 62
7
  6
CONTINUOUS
 70
0
 71
3
 72
11
 73
7
 74
0
 42
0.0000001
 43
0.0000001
 44
0.0000000001
 40
0.0
 40
0.0
 40
0.0
 40
0.0
 40
0.2877937317
 40
0.5472225502
 40
0.7827272947
 40
1.0
 40
1.0
 40
1.0
 40
1.0
 10
5.4781102384
 20
3.6745984284
 30
0.0
 10
5.478373575
 20
3.6755848136
 30
0.0
 10
5.4788003909
 20
3.6774818505
 30
0.0
 10
5.4791244667
 20
3.6802458264
 30
0.0
 10
5.4790926397
 20
3.682780092
 30
0.0
 10
5.4788204526
 20
3.6843723002
 30
0.0
 10
5.4786209646
 20
3.6851167996
 30
0.0
  0
LINE
  5
508
100
AcDbEntity
  8
0
100
AcDbLine
 62
7
  6
CONTINUOUS
 10
5.4745570453
 20
3.6635802465
 11
5.4781102384
 21
3.6745984284
  0
LINE
  5
509
100
AcDbEntity
  8
0
100
AcDbLine
 62
7
  6
CONTINUOUS
 10
4.008553251
 20
3.850303268
 11
4.0083235501
 21
3.8503774146
  0
ENDSEC
  0
SECTION
  2
OBJECTS
  0
DICTIONARY
  5
C
100
AcDbDictionary
280
0
281
1
  3
ACAD_GROUP
350
D
  3
ACAD_MLINESTYLE
350
17
  3
ACAD_LAYOUT
350
1A
  3
ACAD_PLOTSETTINGS
350
19
  3
ACAD_PLOTSTYLENAME
350
E
  0
DICTIONARY
  5
D
102
{ACAD_REACTORS
330
C
102
}
100
AcDbDictionary
280
0
281
1
  0
ACDBDICTIONARYWDFLT
  5
E
102
{ACAD_REACTORS
330
C
102
}
100
AcDbDictionary
281
1
  3
Normal
350
F
100
AcDbDictionaryWithDefault
340
F
  0
DICTIONARY
  5
17
102
{ACAD_REACTORS
330
C
102
}
100
AcDbDictionary
280
0
281
1
  3
Standard
350
18
  0
DICTIONARY
  5
19
102
{ACAD_REACTORS
330
C
102
}
100
AcDbDictionary
281
1
  0
DICTIONARY
  5
1A
102
{ACAD_REACTORS
330
C
102
}
100
AcDbDictionary
281
1
  3
Model
350
50A
  3
Layout1
350
50B
  0
ACDBPLACEHOLDER
  5
F
102
{ACAD_REACTORS
330
E
102
}
  0
MLINESTYLE
  5
18
102
{ACAD_REACTORS
330
17
102
}
100
AcDbMlineStyle
  2
STANDARD
 70
0
  3

 62
256
 51
90.0
 52
90.0
 71
2
 49
0.5
 62
256
  6
BYLAYER
 49
-0.5
 62
256
  6
BYLAYER
  0
LAYOUT
  5
50A
102
{ACAD_REACTORS
330
1A
102
}
100
AcDbPlotSettings
  1

  2
none_device
  4
ANSI_A_(11.00_x_8.50_Inches)
  6

 40
0.0
 41
0.0
 42
0.0
 43
0.0
 44
279.4
 45
215.9
 46
0.0
 47
0.0
 48
0.0
 49
0.0
140
0.0
141
0.0
142
1.0
143
1.0
 70
1024
 72
0
 73
0
 74
0
  7

 75
0
147
1.0
148
0.0
149
0.0
100
AcDbLayout
  1
Model
 70
0
 71
0
 10
0.0
 20
0.0
 11
11.0
 21
8.5
 12
0.0
 22
0.0
 32
0.0
 14
0.0
 24
0.0
 34
0.0
 15
0.0
 25
0.0
 35
0.0
146
0.0
 13
0.0
 23
0.0
 33
0.0
 16
1.0
 26
0.0
 36
0.0
 17
0.0
 27
1.0
 37
0.0
 76
0
330
21D
345
0
346
0
  0
LAYOUT
  5
50B
102
{ACAD_REACTORS
330
1A
102
}
100
AcDbPlotSettings
  1

  2
none_device
  4
ANSI_A_(11.00_x_8.50_Inches)
  6

 40
0.0
 41
0.0
 42
0.0
 43
0.0
 44
279.4
 45
215.9
 46
0.0
 47
0.0
 48
0.0
 49
0.0
140
0.0
141
0.0
142
1.0
143
1.0
 70
0
 72
0
 73
0
 74
0
  7

 75
0
147
1.0
148
0.0
149
0.0
100
AcDbLayout
  1
Layout1
 70
0
 71
1
 10
0.0
 20
0.0
 11
11.0
 21
8.5
 12
0.0
 22
0.0
 32
0.0
 14
0.0
 24
0.0
 34
0.0
 15
0.0
 25
0.0
 35
0.0
146
0.0
 13
0.0
 23
0.0
 33
0.0
 16
1.0
 26
0.0
 36
0.0
 17
0.0
 27
1.0
 37
0.0
 76
0
330
21E
345
0
346
0
  0
ENDSEC
  0
EOF
