999
DXF file: 3-2533ts_RIGHT.dxf
999
Pro/ENGINEER 2013150 by Parametric Technology Corporation
  0
SECTION
  2
HEADER
  9
$ACADVER
  1
AC1021
  9
$DWGCODEPAGE
  3
ANSI_1252
  9
$EXTMAX
 10
11.0
 20
8.5
 30
0.0
  9
$EXTMIN
 10
0.0
 20
0.0
 30
0.0
  9
$LIMMIN
 10
0.0
 20
0.0
  9
$LIMMAX
 10
11.0
 20
8.5
  9
$VIEWCTR
 10
5.5
 20
4.25
  9
$VIEWSIZE
 40
8.5
  9
$CLAYER
  8
0
  9
$LTSCALE
 40
0.605
  9
$CELTYPE
  6
BYLAYER
  9
$DIMSCALE
 40
1.0
  9
$DIMASZ
 40
0.1
  9
$DIMEXO
 40
0.0625
  9
$DIMDLI
 40
0.418
  9
$DIMEXE
 40
0.125
  9
$DIMCEN
 40
0.099
  9
$DIMLFAC
 40
1.0
  9
$DIMBLK
  1
_FILLED
  9
$DIMTXT
 40
0.08
  9
$DIMTOL
 70
1
  9
$DIMLIM
 70
0
  9
$DIMTFAC
 40
1.0
  9
$DIMTP
 40
0.001
  9
$DIMTM
 40
0.001
  9
$DIMGAP
 40
0.09
  9
$DIMDSEP
 70
46
  9
$PDMODE
 70
3
  9
$PDSIZE
 40
0.06
  9
$HANDSEED
  5
636
  9
$TILEMODE
 70
1
  9
$MEASUREMENT
 70
0
  9
$INSUNITS
 70
1
  0
ENDSEC
  0
SECTION
  2
CLASSES
  0
CLASS
  1
ACDBDICTIONARYWDFLT
  2
AcDbDictionaryWithDefault
  3
AutoCAD 2000
 90
0
 91
1
280
0
281
0
  0
CLASS
  1
ACDBPLACEHOLDER
  2
AcDbPlaceHolder
  3
AutoCAD 2000
 90
0
 91
1
280
0
281
0
  0
CLASS
  1
LAYOUT
  2
AcDbLayout
  3
AutoCAD 2000
 90
0
 91
0
280
0
281
0
  0
ENDSEC
  0
SECTION
  2
TABLES
  0
TABLE
  2
VPORT
  5
8
100
AcDbSymbolTable
 70
2
  0
VPORT
  5
1F4
100
AcDbSymbolTableRecord
100
AcDbViewportTableRecord
  2
*ACTIVE
 70
0
 10
0.0
 20
0.0
 11
1.0
 21
1.0
 12
5.5
 22
4.25
 13
0.0
 23
0.0
 14
1.0
 24
1.0
 15
0.0
 25
0.0
 16
0.0
 26
0.0
 36
1.0
 17
0.0
 27
0.0
 37
0.0
 40
8.5
 41
1.2941176471
 42
50.0
 43
0.0
 44
0.0
 50
0.0
 51
0.0
 71
0
 72
100
 73
1
 74
1
 75
0
 76
0
 77
0
 78
0
  0
ENDTAB
  0
TABLE
  2
LTYPE
  5
5
100
AcDbSymbolTable
 70
6
  0
LTYPE
  5
14
100
AcDbSymbolTableRecord
100
AcDbLinetypeTableRecord
  2
BYBLOCK
 70
0
  3

 72
65
 73
0
 40
0.0
  0
LTYPE
  5
15
100
AcDbSymbolTableRecord
100
AcDbLinetypeTableRecord
  2
BYLAYER
 70
0
  3

 72
65
 73
0
 40
0.0
  0
LTYPE
  5
16
100
AcDbSymbolTableRecord
100
AcDbLinetypeTableRecord
  2
CONTINUOUS
 70
64
  3
Solid line
 72
65
 73
0
 40
0.0
  0
LTYPE
  5
1F5
100
AcDbSymbolTableRecord
100
AcDbLinetypeTableRecord
  2
CENTER
 70
64
  3
____ _ ____ _ ____ _ ____ _ ____ _ ____ _ ____
 72
65
 73
4
 40
0.6
 49
0.375
 74
0
 49
-0.075
 74
0
 49
0.075
 74
0
 49
-0.075
 74
0
  0
LTYPE
  5
1F6
100
AcDbSymbolTableRecord
100
AcDbLinetypeTableRecord
  2
HIDDEN
 70
64
  3
- - - - - - - - - - - - - - - - - - - -
 72
65
 73
2
 40
0.2
 49
0.1
 74
0
 49
-0.1
 74
0
  0
LTYPE
  5
1F7
100
AcDbSymbolTableRecord
100
AcDbLinetypeTableRecord
  2
PHANTOM
 70
64
  3
_____ _ _ _____ _ _ _____ _ _ _____
 72
65
 73
6
 40
0.8
 49
0.45
 74
0
 49
-0.05
 74
0
 49
0.1
 74
0
 49
-0.05
 74
0
 49
0.1
 74
0
 49
-0.05
 74
0
  0
LTYPE
  5
1F8
100
AcDbSymbolTableRecord
100
AcDbLinetypeTableRecord
  2
DOT
 70
64
  3
. . . . . . . . . . . . . . . . . . . .
 72
65
 73
2
 40
0.2
 49
0.1
 74
0
 49
-0.1
 74
0
  0
LTYPE
  5
1F9
100
AcDbSymbolTableRecord
100
AcDbLinetypeTableRecord
  2
DASHED
 70
64
  3
- - - - - - - - - - - - - - - - - - - -
 72
65
 73
2
 40
0.2
 49
0.1
 74
0
 49
-0.1
 74
0
  0
ENDTAB
  0
TABLE
  2
LAYER
  5
2
100
AcDbSymbolTable
 70
36
  0
LAYER
  5
10
100
AcDbSymbolTableRecord
100
AcDbLayerTableRecord
  2
0
 70
0
 62
7
  6
CONTINUOUS
370
-3
390
F
  0
LAYER
  5
1FA
100
AcDbSymbolTableRecord
100
AcDbLayerTableRecord
  2
DEFAULT_1
 70
0
 62
7
  6
CENTER
370
-3
390
F
  0
LAYER
  5
1FB
100
AcDbSymbolTableRecord
100
AcDbLayerTableRecord
  2
DEFAULT_2
 70
0
 62
8
  6
HIDDEN
370
-3
390
F
  0
LAYER
  5
1FC
100
AcDbSymbolTableRecord
100
AcDbLayerTableRecord
  2
DEFAULT_3
 70
0
 62
7
  6
PHANTOM
370
-3
390
F
  0
LAYER
  5
1FD
100
AcDbSymbolTableRecord
100
AcDbLayerTableRecord
  2
ALL_FEATURES
 70
0
 62
7
  6
CONTINUOUS
370
-3
390
F
  0
LAYER
  5
1FE
100
AcDbSymbolTableRecord
100
AcDbLayerTableRecord
  2
AXES_FEATURES
 70
0
 62
7
  6
CONTINUOUS
370
-3
390
F
  0
LAYER
  5
1FF
100
AcDbSymbolTableRecord
100
AcDbLayerTableRecord
  2
CHAMFER_FEATURES
 70
0
 62
7
  6
CONTINUOUS
370
-3
390
F
  0
LAYER
  5
200
100
AcDbSymbolTableRecord
100
AcDbLayerTableRecord
  2
COSMETIC_SKETCHES
 70
0
 62
7
  6
CONTINUOUS
370
-3
390
F
  0
LAYER
  5
201
100
AcDbSymbolTableRecord
100
AcDbLayerTableRecord
  2
CUT_FEATURES
 70
0
 62
7
  6
CONTINUOUS
370
-3
390
F
  0
LAYER
  5
202
100
AcDbSymbolTableRecord
100
AcDbLayerTableRecord
  2
DATUM_CURVES
 70
0
 62
7
  6
CONTINUOUS
370
-3
390
F
  0
LAYER
  5
203
100
AcDbSymbolTableRecord
100
AcDbLayerTableRecord
  2
DATUM_PLANES
 70
0
 62
7
  6
CONTINUOUS
370
-3
390
F
  0
LAYER
  5
204
100
AcDbSymbolTableRecord
100
AcDbLayerTableRecord
  2
DATUM_POINTS
 70
0
 62
7
  6
CONTINUOUS
370
-3
390
F
  0
LAYER
  5
205
100
AcDbSymbolTableRecord
100
AcDbLayerTableRecord
  2
DEFAULT_COORDINATE_SYSTEM
 70
0
 62
7
  6
CONTINUOUS
370
-3
390
F
  0
LAYER
  5
206
100
AcDbSymbolTableRecord
100
AcDbLayerTableRecord
  2
DEFAULT_DATUM_AXES
 70
0
 62
7
  6
CONTINUOUS
370
-3
390
F
  0
LAYER
  5
207
100
AcDbSymbolTableRecord
100
AcDbLayerTableRecord
  2
DEFAULT_DATUM_CURVES
 70
0
 62
7
  6
CONTINUOUS
370
-3
390
F
  0
LAYER
  5
208
100
AcDbSymbolTableRecord
100
AcDbLayerTableRecord
  2
DEFAULT_DATUM_PLANES
 70
0
 62
7
  6
CONTINUOUS
370
-3
390
F
  0
LAYER
  5
209
100
AcDbSymbolTableRecord
100
AcDbLayerTableRecord
  2
DEFAULT_SURFACES
 70
0
 62
7
  6
CONTINUOUS
370
-3
390
F
  0
LAYER
  5
20A
100
AcDbSymbolTableRecord
100
AcDbLayerTableRecord
  2
DIMENSIONS
 70
0
 62
7
  6
CONTINUOUS
370
-3
390
F
  0
LAYER
  5
20B
100
AcDbSymbolTableRecord
100
AcDbLayerTableRecord
  2
HOLE_FEATURES
 70
0
 62
7
  6
CONTINUOUS
370
-3
390
F
  0
LAYER
  5
20C
100
AcDbSymbolTableRecord
100
AcDbLayerTableRecord
  2
HOLE_PATTERN
 70
0
 62
7
  6
CONTINUOUS
370
-3
390
F
  0
LAYER
  5
20D
100
AcDbSymbolTableRecord
100
AcDbLayerTableRecord
  2
INTFCLR_1
 70
0
 62
7
  6
CONTINUOUS
370
-3
390
F
  0
LAYER
  5
20E
100
AcDbSymbolTableRecord
100
AcDbLayerTableRecord
  2
NOTES
 70
0
 62
7
  6
CONTINUOUS
370
-3
390
F
  0
LAYER
  5
20F
100
AcDbSymbolTableRecord
100
AcDbLayerTableRecord
  2
PART_REFERENCE_DIMENSIONS
 70
0
 62
7
  6
CONTINUOUS
370
-3
390
F
  0
LAYER
  5
210
100
AcDbSymbolTableRecord
100
AcDbLayerTableRecord
  2
PLATED_SURFACE_AREA
 70
0
 62
7
  6
CONTINUOUS
370
-3
390
F
  0
LAYER
  5
211
100
AcDbSymbolTableRecord
100
AcDbLayerTableRecord
  2
POINTS
 70
0
 62
7
  6
CONTINUOUS
370
-3
390
F
  0
LAYER
  5
212
100
AcDbSymbolTableRecord
100
AcDbLayerTableRecord
  2
PROTRUSION
 70
0
 62
7
  6
CONTINUOUS
370
-3
390
F
  0
LAYER
  5
213
100
AcDbSymbolTableRecord
100
AcDbLayerTableRecord
  2
PROTRUSION_FEATURES
 70
0
 62
7
  6
CONTINUOUS
370
-3
390
F
  0
LAYER
  5
214
100
AcDbSymbolTableRecord
100
AcDbLayerTableRecord
  2
QUILTS
 70
0
 62
7
  6
CONTINUOUS
370
-3
390
F
  0
LAYER
  5
215
100
AcDbSymbolTableRecord
100
AcDbLayerTableRecord
  2
REFERENCE_DIMENSIONS
 70
0
 62
7
  6
CONTINUOUS
370
-3
390
F
  0
LAYER
  5
216
100
AcDbSymbolTableRecord
100
AcDbLayerTableRecord
  2
ROUND_FEATURES
 70
0
 62
7
  6
CONTINUOUS
370
-3
390
F
  0
LAYER
  5
217
100
AcDbSymbolTableRecord
100
AcDbLayerTableRecord
  2
SATIN_DIRECTION
 70
0
 62
7
  6
CONTINUOUS
370
-3
390
F
  0
LAYER
  5
218
100
AcDbSymbolTableRecord
100
AcDbLayerTableRecord
  2
SHELL_FEATURES
 70
0
 62
7
  6
CONTINUOUS
370
-3
390
F
  0
LAYER
  5
219
100
AcDbSymbolTableRecord
100
AcDbLayerTableRecord
  2
SIZE_REF
 70
0
 62
7
  6
CONTINUOUS
370
-3
390
F
  0
LAYER
  5
21A
100
AcDbSymbolTableRecord
100
AcDbLayerTableRecord
  2
SURFACE_FEATURES
 70
0
 62
7
  6
CONTINUOUS
370
-3
390
F
  0
ENDTAB
  0
TABLE
  2
STYLE
  5
3
100
AcDbSymbolTable
 70
1
  0
STYLE
  5
11
100
AcDbSymbolTableRecord
100
AcDbTextStyleTableRecord
  2
STANDARD
 70
0
 40
0.0
 41
0.8
 50
0.0
 71
0
 42
0.2
  3
txt
  4

  0
STYLE
  5
21B
100
AcDbSymbolTableRecord
100
AcDbTextStyleTableRecord
  2
TEXTSTYLE_1
 70
0
 40
0.0
 41
0.8
 50
0.0
 71
0
 42
0.2
  3
gdt
  4

  0
ENDTAB
  0
TABLE
  2
VIEW
  5
6
100
AcDbSymbolTable
 70
0
  0
ENDTAB
  0
TABLE
  2
UCS
  5
7
100
AcDbSymbolTable
 70
0
  0
ENDTAB
  0
TABLE
  2
APPID
  5
9
100
AcDbSymbolTable
 70
1
  0
APPID
  5
21C
100
AcDbSymbolTableRecord
100
AcDbRegAppTableRecord
  2
ACAD
 70
0
  0
ENDTAB
  0
TABLE
  2
BLOCK_RECORD
  5
1
100
AcDbSymbolTable
 70
0
  0
BLOCK_RECORD
  5
21D
100
AcDbSymbolTableRecord
100
AcDbBlockTableRecord
  2
*Model_Space
  0
BLOCK_RECORD
  5
21E
100
AcDbSymbolTableRecord
100
AcDbBlockTableRecord
  2
*Paper_Space
  0
ENDTAB
  0
TABLE
  2
DIMSTYLE
  5
A
100
AcDbSymbolTable
 70
1
100
AcDbDimStyleTable
 71
0
  0
DIMSTYLE
105
21F
100
AcDbSymbolTableRecord
100
AcDbDimStyleTableRecord
  2
STANDARD
 70
0
  3

  4

 40
1.0
 41
0.1
 42
0.0625
 43
0.38
 44
0.125
 45
0.0
 46
0.0
 47
0.001
 48
0.001
140
0.08
141
0.09
142
0.0
143
25.4
144
1.0
145
0.0
146
1.0
147
0.09
 71
1.0
 72
0.0
 73
1
 74
1
 75
0
 76
0
 77
0
 78
4
170
0
171
2
172
0
173
0
174
0
175
0
176
0
177
0
178
0
270
2
271
3
272
3
273
2
274
2
275
0
280
0
281
0
282
0
283
1
284
4
285
0
286
0
287
3
288
0
340
11
278
46
  0
ENDTAB
  0
ENDSEC
  0
SECTION
  2
BLOCKS
  0
BLOCK
  5
20
100
AcDbEntity
  8
0
100
AcDbBlockBegin
  2
*Model_Space
 70
0
 10
0.0
 20
0.0
 30
0.0
  3
*Model_Space
  1

  0
ENDBLK
  5
21
100
AcDbEntity
  8
0
100
AcDbBlockEnd
  0
BLOCK
  5
1C
100
AcDbEntity
  8
0
100
AcDbBlockBegin
  2
*Paper_Space
 70
0
 10
0.0
 20
0.0
 30
0.0
  3
*Paper_Space
  1

  0
ENDBLK
  5
1D
100
AcDbEntity
  8
0
100
AcDbBlockEnd
  0
ENDSEC
  0
SECTION
  2
ENTITIES
  0
LINE
  5
220
100
AcDbEntity
  8
0
100
AcDbLine
 62
7
  6
CONTINUOUS
 10
0.0
 20
0.0
 11
0.0
 21
8.5
  0
LINE
  5
221
100
AcDbEntity
  8
0
100
AcDbLine
 62
7
  6
CONTINUOUS
 10
0.0
 20
0.0
 11
11.0
 21
0.0
  0
LINE
  5
222
100
AcDbEntity
  8
0
100
AcDbLine
 62
7
  6
CONTINUOUS
 10
0.0
 20
8.5
 11
11.0
 21
8.5
  0
LINE
  5
223
100
AcDbEntity
  8
0
100
AcDbLine
 62
7
  6
CONTINUOUS
 10
11.0
 20
0.0
 11
11.0
 21
8.5
  0
LINE
  5
224
100
AcDbEntity
  8
0
100
AcDbLine
 62
7
  6
CONTINUOUS
 10
5.6625503226
 20
1.5137788722
 11
5.8500503226
 21
1.5137788722
  0
LINE
  5
225
100
AcDbEntity
  8
ALL_FEATURES
100
AcDbLine
 62
7
  6
CONTINUOUS
 10
5.6625503226
 20
1.6075288722
 11
5.6153003226
 21
1.6075288722
  0
LINE
  5
226
100
AcDbEntity
  8
ALL_FEATURES
100
AcDbLine
 62
7
  6
CONTINUOUS
 10
3.986235362
 20
5.680078096
 11
3.956938487
 21
5.6716208167
  0
LINE
  5
227
100
AcDbEntity
  8
ALL_FEATURES
100
AcDbLine
 62
7
  6
CONTINUOUS
 10
3.986235362
 20
5.6462489787
 11
4.015532237
 21
5.654706258
  0
LINE
  5
228
100
AcDbEntity
  8
0
100
AcDbLine
 62
9
  6
CONTINUOUS
 10
5.8500503226
 20
1.8287788722
 11
5.6625503226
 21
1.8287788722
  0
LINE
  5
229
100
AcDbEntity
  8
ALL_FEATURES
100
AcDbLine
 62
9
  6
CONTINUOUS
 10
5.6625503226
 20
1.8287788722
 11
5.6153003226
 21
1.8287788722
  0
LINE
  5
22A
100
AcDbEntity
  8
ALL_FEATURES
100
AcDbLine
 62
9
  6
CONTINUOUS
 10
5.6625503226
 20
1.8587788722
 11
5.6153003226
 21
1.8587788722
  0
LINE
  5
22B
100
AcDbEntity
  8
0
100
AcDbLine
 62
9
  6
CONTINUOUS
 10
5.6625503226
 20
1.8587788722
 11
5.8500503226
 21
1.8587788722
  0
LINE
  5
22C
100
AcDbEntity
  8
0
100
AcDbLine
 62
7
  6
CONTINUOUS
 10
5.6625503226
 20
1.8887788722
 11
5.8500503226
 21
1.8887788722
  0
LINE
  5
22D
100
AcDbEntity
  8
ALL_FEATURES
100
AcDbLine
 62
7
  6
CONTINUOUS
 10
5.6625503226
 20
1.9825288722
 11
5.6153003226
 21
1.9825288722
  0
LWPOLYLINE
  5
22E
100
AcDbEntity
  8
ALL_FEATURES
100
AcDbPolyline
 62
7
  6
CONTINUOUS
 90
7
 70
0
 10
3.4499260983
 20
4.9504876471
 10
3.4494672939
 20
4.949693304
 10
3.4473434566
 20
4.9456636616
 10
3.4454825896
 20
4.9415029816
 10
3.4438945213
 20
4.9372300556
 10
3.4425856363
 20
4.9328626982
 10
3.4415068608
 20
4.928138957
  0
LINE
  5
22F
100
AcDbEntity
  8
ALL_FEATURES
100
AcDbLine
 62
9
  6
CONTINUOUS
 10
5.6625503226
 20
2.2037788722
 11
5.6153003226
 21
2.2037788722
  0
LINE
  5
230
100
AcDbEntity
  8
0
100
AcDbLine
 62
9
  6
CONTINUOUS
 10
5.6625503226
 20
2.2037788722
 11
5.8500503226
 21
2.2037788722
  0
LINE
  5
231
100
AcDbEntity
  8
ALL_FEATURES
100
AcDbLine
 62
7
  6
CONTINUOUS
 10
3.2604808117
 20
2.5834713445
 11
3.2604843927
 21
2.5829538069
  0
LINE
  5
232
100
AcDbEntity
  8
ALL_FEATURES
100
AcDbLine
 62
7
  6
CONTINUOUS
 10
3.2604808954
 20
2.5832902211
 11
3.2604808117
 21
2.5833703909
  0
LINE
  5
233
100
AcDbEntity
  8
ALL_FEATURES
100
AcDbLine
 62
9
  6
CONTINUOUS
 10
3.216887247
 20
2.4842926953
 11
3.216887247
 21
2.4841668765
  0
LINE
  5
234
100
AcDbEntity
  8
0
100
AcDbLine
 62
7
  6
CONTINUOUS
 10
3.2604808117
 20
2.5833710711
 11
3.2604808117
 21
2.5834712972
  0
LINE
  5
235
100
AcDbEntity
  8
ALL_FEATURES
100
AcDbLine
 62
9
  6
CONTINUOUS
 10
3.2901862256
 20
2.5461763531
 11
3.2901862256
 21
2.5468418428
  0
LINE
  5
236
100
AcDbEntity
  8
ALL_FEATURES
100
AcDbLine
 62
7
  6
CONTINUOUS
 10
3.341985362
 20
3.203530665
 11
3.341985362
 21
3.7401519128
  0
LINE
  5
237
100
AcDbEntity
  8
ALL_FEATURES
100
AcDbLine
 62
9
  6
CONTINUOUS
 10
3.379485362
 20
3.2295396959
 11
3.379485362
 21
3.7776538722
  0
LINE
  5
238
100
AcDbEntity
  8
ALL_FEATURES
100
AcDbLine
 62
9
  6
CONTINUOUS
 10
3.3853913295
 20
3.3039704296
 11
3.3853913295
 21
3.7776538722
  0
LWPOLYLINE
  5
239
100
AcDbEntity
  8
ALL_FEATURES
100
AcDbPolyline
 62
7
  6
CONTINUOUS
 90
3
 70
0
 10
3.341985348
 20
3.2483593292
 10
3.3419445371
 20
3.2306215701
 10
3.341763199
 20
3.2095487301
  0
LINE
  5
23A
100
AcDbEntity
  8
ALL_FEATURES
100
AcDbLine
 62
7
  6
CONTINUOUS
 10
3.2604890602
 20
2.5842470664
 11
3.2604845518
 21
2.5829513715
  0
LWPOLYLINE
  5
23B
100
AcDbEntity
  8
ALL_FEATURES
100
AcDbPolyline
 62
7
  6
CONTINUOUS
 90
17
 70
0
 10
3.341763199
 20
3.2095487301
 10
3.3413865838
 20
3.1883864936
 10
3.340767466
 20
3.1671542632
 10
3.3398667874
 20
3.1458739971
 10
3.3386541439
 20
3.1245737922
 10
3.3371072453
 20
3.1032764329
 10
3.3352106371
 20
3.0820064745
 10
3.3329560771
 20
3.0607991781
 10
3.3303404314
 20
3.0396819358
 10
3.3273636775
 20
3.0186774048
 10
3.3240310921
 20
2.9978155002
 10
3.3203497015
 20
2.9771208624
 10
3.3163285967
 20
2.9566150454
 10
3.3119794981
 20
2.9363218343
 10
3.3073145917
 20
2.9162619215
 10
3.3023481336
 20
2.8964547717
 10
3.2980062413
 20
2.8802155537
  0
LINE
  5
23C
100
AcDbEntity
  8
ALL_FEATURES
100
AcDbLine
 62
7
  6
CONTINUOUS
 10
3.2606513168
 20
2.5870486025
 11
3.2604890602
 21
2.5842470664
  0
LWPOLYLINE
  5
23D
100
AcDbEntity
  8
ALL_FEATURES
100
AcDbPolyline
 62
7
  6
CONTINUOUS
 90
3
 70
0
 10
3.5368478857
 20
4.9550753278
 10
3.5362714486
 20
4.9523296224
 10
3.5359013168
 20
4.9495486025
  0
LINE
  5
23E
100
AcDbEntity
  8
ALL_FEATURES
100
AcDbLine
 62
7
  6
CONTINUOUS
 10
3.651936188
 20
5.2595658738
 11
3.6437715935
 21
5.2277534956
  0
LWPOLYLINE
  5
23F
100
AcDbEntity
  8
ALL_FEATURES
100
AcDbPolyline
 62
7
  6
CONTINUOUS
 90
6
 70
0
 10
3.6437715935
 20
5.2277534956
 10
3.6338690227
 20
5.1930157058
 10
3.6230178707
 20
5.1586142939
 10
3.6112273653
 20
5.1245769977
 10
3.5985088031
 20
5.0909314996
 10
3.5848753286
 20
5.0577053525
  0
LWPOLYLINE
  5
240
100
AcDbEntity
  8
ALL_FEATURES
100
AcDbPolyline
 62
7
  6
CONTINUOUS
 90
10
 70
0
 10
3.5732562632
 20
5.2427155271
 10
3.5641033809
 20
5.2111066446
 10
3.5531163634
 20
5.1768353713
 10
3.5411093347
 20
5.1428820286
 10
3.5280913241
 20
5.1092788534
 10
3.5140725505
 20
5.0760575533
 10
3.4990643055
 20
5.0432492793
 10
3.4830791597
 20
5.0108851185
 10
3.4661302721
 20
4.9789949442
 10
3.4499258823
 20
4.9504877864
  0
LWPOLYLINE
  5
241
100
AcDbEntity
  8
ALL_FEATURES
100
AcDbPolyline
 62
7
  6
CONTINUOUS
 90
3
 70
0
 10
3.5848753286
 20
5.0577053525
 10
3.5703414833
 20
5.0249251911
 10
3.5549223814
 20
4.9926156236
  0
LWPOLYLINE
  5
242
100
AcDbEntity
  8
ALL_FEATURES
100
AcDbPolyline
 62
7
  6
CONTINUOUS
 90
5
 70
0
 10
3.5549223814
 20
4.9926156236
 10
3.5397748116
 20
4.9629460165
 10
3.5386040252
 20
4.9603976469
 10
3.5376267977
 20
4.9577695459
 10
3.5368478857
 20
4.9550753278
  0
LINE
  5
243
100
AcDbEntity
  8
0
100
AcDbLine
 62
9
  6
CONTINUOUS
 10
3.9278973399
 20
5.6353791864
 11
3.9282700828
 21
5.6360296461
  0
LINE
  5
244
100
AcDbEntity
  8
0
100
AcDbLine
 62
9
  6
CONTINUOUS
 10
3.9351991957
 20
5.6481213906
 11
3.935575056
 21
5.6487772914
  0
LINE
  5
245
100
AcDbEntity
  8
0
100
AcDbLine
 62
9
  6
CONTINUOUS
 10
3.935290652
 20
5.6497375238
 11
3.9359965915
 21
5.6508905767
  0
LINE
  5
246
100
AcDbEntity
  8
0
100
AcDbLine
 62
9
  6
CONTINUOUS
 10
3.9282883505
 20
5.6383001298
 11
3.9286602632
 21
5.6389076036
  0
LINE
  5
247
100
AcDbEntity
  8
0
100
AcDbLine
 62
7
  6
CONTINUOUS
 10
5.5259800146
 20
2.5674074082
 11
5.5259763064
 21
2.5674073272
  0
LINE
  5
248
100
AcDbEntity
  8
0
100
AcDbLine
 62
7
  6
CONTINUOUS
 10
5.6153003226
 20
2.4696538722
 11
5.5553003226
 21
2.4696538722
  0
LINE
  5
249
100
AcDbEntity
  8
0
100
AcDbLine
 62
7
  6
CONTINUOUS
 10
5.5553003226
 20
2.5296538722
 11
5.5268003226
 21
2.5296538722
  0
LWPOLYLINE
  5
24A
100
AcDbEntity
  8
ALL_FEATURES
100
AcDbPolyline
 62
7
  6
CONTINUOUS
 90
10
 70
0
 10
3.8047948416
 20
2.5879877866
 10
3.7884572198
 20
2.616736939
 10
3.7715155876
 20
2.6486309713
 10
3.7555378248
 20
2.6809987346
 10
3.7405370685
 20
2.7138103747
 10
3.7265258843
 20
2.7470347942
 10
3.7135155567
 20
2.7806408326
 10
3.701516293
 20
2.8145967824
 10
3.6905371055
 20
2.8488704183
 10
3.6814644604
 20
2.8802155288
  0
LWPOLYLINE
  5
24B
100
AcDbEntity
  8
ALL_FEATURES
100
AcDbPolyline
 62
7
  6
CONTINUOUS
 90
3
 70
0
 10
3.7150290546
 20
2.6002804601
 10
3.6999208806
 20
2.6298678867
 10
3.6844947745
 20
2.6621742117
  0
LWPOLYLINE
  5
24C
100
AcDbEntity
  8
ALL_FEATURES
100
AcDbPolyline
 62
7
  6
CONTINUOUS
 90
6
 70
0
 10
3.6844947745
 20
2.6621742117
 10
3.6699538336
 20
2.6949513274
 10
3.6563131839
 20
2.7281746225
 10
3.643587366
 20
2.7618174872
 10
3.6317895298
 20
2.7958523957
 10
3.6209309851
 20
2.8302516795
  0
LWPOLYLINE
  5
24D
100
AcDbEntity
  8
ALL_FEATURES
100
AcDbPolyline
 62
7
  6
CONTINUOUS
 90
3
 70
0
 10
3.6209309851
 20
2.8302516795
 10
3.6110209817
 20
2.8649875947
 10
3.6027845369
 20
2.89706587
  0
LWPOLYLINE
  5
24E
100
AcDbEntity
  8
ALL_FEATURES
100
AcDbPolyline
 62
7
  6
CONTINUOUS
 90
4
 70
0
 10
3.7179197795
 20
2.592384901
 10
3.7171542231
 20
2.5950852724
 10
3.7161886837
 20
2.5977221217
 10
3.7150290546
 20
2.6002804601
  0
LINE
  5
24F
100
AcDbEntity
  8
ALL_FEATURES
100
AcDbLine
 62
7
  6
CONTINUOUS
 10
3.5357308117
 20
4.9459713445
 11
3.5357343927
 21
4.9454538069
  0
LINE
  5
250
100
AcDbEntity
  8
ALL_FEATURES
100
AcDbLine
 62
7
  6
CONTINUOUS
 10
3.5357308954
 20
4.9457902211
 11
3.5357308117
 21
4.9458703909
  0
LINE
  5
251
100
AcDbEntity
  8
0
100
AcDbLine
 62
7
  6
CONTINUOUS
 10
3.6374875017
 20
3.244393204
 11
3.6374875884
 21
3.2442816146
  0
LINE
  5
252
100
AcDbEntity
  8
ALL_FEATURES
100
AcDbLine
 62
7
  6
CONTINUOUS
 10
3.4148717961
 20
3.2760753034
 11
3.4148717961
 21
3.8208437256
  0
LINE
  5
253
100
AcDbEntity
  8
ALL_FEATURES
100
AcDbLine
 62
9
  6
CONTINUOUS
 10
3.4448717961
 20
3.8515288722
 11
3.4448717961
 21
3.257805076
  0
LINE
  5
254
100
AcDbEntity
  8
ALL_FEATURES
100
AcDbLine
 62
9
  6
CONTINUOUS
 10
3.492137247
 20
4.8467926953
 11
3.492137247
 21
4.8466668765
  0
LINE
  5
255
100
AcDbEntity
  8
ALL_FEATURES
100
AcDbLine
 62
9
  6
CONTINUOUS
 10
3.5345989279
 20
3.257805076
 11
3.5345989279
 21
3.8515288722
  0
LINE
  5
256
100
AcDbEntity
  8
0
100
AcDbLine
 62
7
  6
CONTINUOUS
 10
3.5357308117
 20
4.9458710711
 11
3.5357308117
 21
4.9459712972
  0
LINE
  5
257
100
AcDbEntity
  8
ALL_FEATURES
100
AcDbLine
 62
7
  6
CONTINUOUS
 10
3.5645989279
 20
3.2760753034
 11
3.5645989279
 21
3.8208437256
  0
LINE
  5
258
100
AcDbEntity
  8
ALL_FEATURES
100
AcDbLine
 62
9
  6
CONTINUOUS
 10
3.5654362256
 20
4.9086763531
 11
3.5654362256
 21
4.9093418428
  0
LINE
  5
259
100
AcDbEntity
  8
ALL_FEATURES
100
AcDbLine
 62
9
  6
CONTINUOUS
 10
3.5940793945
 20
3.7776538722
 11
3.5940793945
 21
3.3039704296
  0
LINE
  5
25A
100
AcDbEntity
  8
ALL_FEATURES
100
AcDbLine
 62
9
  6
CONTINUOUS
 10
3.599985362
 20
3.7776538722
 11
3.599985362
 21
3.2295396959
  0
LINE
  5
25B
100
AcDbEntity
  8
ALL_FEATURES
100
AcDbLine
 62
7
  6
CONTINUOUS
 10
3.617235362
 20
5.566030665
 11
3.617235362
 21
6.1026519128
  0
LINE
  5
25C
100
AcDbEntity
  8
0
100
AcDbLine
 62
9
  6
CONTINUOUS
 10
3.6359148998
 20
3.3201617635
 11
3.6359148998
 21
3.7508925085
  0
LINE
  5
25D
100
AcDbEntity
  8
ALL_FEATURES
100
AcDbLine
 62
9
  6
CONTINUOUS
 10
3.654735362
 20
5.5920396959
 11
3.654735362
 21
6.1401538722
  0
LINE
  5
25E
100
AcDbEntity
  8
ALL_FEATURES
100
AcDbLine
 62
9
  6
CONTINUOUS
 10
3.6606413295
 20
5.6664704296
 11
3.6606413295
 21
6.1401538722
  0
LWPOLYLINE
  5
25F
100
AcDbEntity
  8
ALL_FEATURES
100
AcDbPolyline
 62
7
  6
CONTINUOUS
 90
3
 70
0
 10
3.617235348
 20
5.6108593292
 10
3.6171945371
 20
5.5931215701
 10
3.617013199
 20
5.5720487301
  0
LWPOLYLINE
  5
260
100
AcDbEntity
  8
ALL_FEATURES
100
AcDbPolyline
 62
7
  6
CONTINUOUS
 90
19
 70
0
 10
3.4148717961
 20
3.2760753034
 10
3.414826379
 20
3.2587863043
 10
3.4146561341
 20
3.2384308429
 10
3.4143457527
 20
3.2177789518
 10
3.4138721497
 20
3.1968708316
 10
3.4132059732
 20
3.1757384089
 10
3.4123147002
 20
3.1544048794
 10
3.411166075
 20
3.1329001546
 10
3.4097301031
 20
3.1112570934
 10
3.407980027
 20
3.089503086
 10
3.4058935596
 20
3.0676665989
 10
3.4034532593
 20
3.0457814063
 10
3.4006472341
 20
3.0238848451
 10
3.3974675462
 20
3.0020091432
 10
3.3939099628
 20
2.9801848022
 10
3.3899749047
 20
2.9584466971
 10
3.3856654521
 20
2.93682568
 10
3.380986608
 20
2.9153478709
 10
3.3766861761
 20
2.8970658306
  0
LINE
  5
261
100
AcDbEntity
  8
ALL_FEATURES
100
AcDbLine
 62
7
  6
CONTINUOUS
 10
3.4148718083
 20
3.2760742926
 11
3.4148254874
 21
3.2586797021
  0
LINE
  5
262
100
AcDbEntity
  8
ALL_FEATURES
100
AcDbLine
 62
7
  6
CONTINUOUS
 10
3.5357390602
 20
4.9467470664
 11
3.5357345518
 21
4.9454513715
  0
LWPOLYLINE
  5
263
100
AcDbEntity
  8
ALL_FEATURES
100
AcDbPolyline
 62
7
  6
CONTINUOUS
 90
17
 70
0
 10
3.617013199
 20
5.5720487301
 10
3.6166365838
 20
5.5508864936
 10
3.616017466
 20
5.5296542632
 10
3.6151167874
 20
5.5083739971
 10
3.6139041439
 20
5.4870737922
 10
3.6123572453
 20
5.4657764329
 10
3.6104606371
 20
5.4445064745
 10
3.6082060771
 20
5.4232991781
 10
3.6055904314
 20
5.4021819358
 10
3.6026136775
 20
5.3811774048
 10
3.5992810921
 20
5.3603155002
 10
3.5955997015
 20
5.3396208624
 10
3.5915785967
 20
5.3191150454
 10
3.5872294981
 20
5.2988218343
 10
3.5825645917
 20
5.2787619215
 10
3.5775981336
 20
5.2589547717
 10
3.5732562413
 20
5.2427155537
  0
LINE
  5
264
100
AcDbEntity
  8
ALL_FEATURES
100
AcDbLine
 62
7
  6
CONTINUOUS
 10
3.5359013168
 20
4.9495486025
 11
3.5357390602
 21
4.9467470664
  0
LWPOLYLINE
  5
265
100
AcDbEntity
  8
ALL_FEATURES
100
AcDbPolyline
 62
7
  6
CONTINUOUS
 90
3
 70
0
 10
3.2615978857
 20
2.5925753278
 10
3.2610214486
 20
2.5898296224
 10
3.2606513168
 20
2.5870486025
  0
LINE
  5
266
100
AcDbEntity
  8
ALL_FEATURES
100
AcDbLine
 62
7
  6
CONTINUOUS
 10
3.376686188
 20
2.8970658738
 11
3.3685215935
 21
2.8652534956
  0
LINE
  5
267
100
AcDbEntity
  8
0
100
AcDbLine
 62
7
  6
CONTINUOUS
 10
3.9577375307
 20
5.6132962617
 11
3.964846433
 21
5.6400157771
  0
LWPOLYLINE
  5
268
100
AcDbEntity
  8
ALL_FEATURES
100
AcDbPolyline
 62
7
  6
CONTINUOUS
 90
10
 70
0
 10
3.2980062632
 20
2.8802155271
 10
3.2888533809
 20
2.8486066446
 10
3.2778663634
 20
2.8143353713
 10
3.2658593347
 20
2.7803820286
 10
3.2528413241
 20
2.7467788534
 10
3.2388225505
 20
2.7135575533
 10
3.2238143055
 20
2.6807492793
 10
3.2078291597
 20
2.6483851185
 10
3.1908802721
 20
2.6164949442
 10
3.1746758823
 20
2.5879877864
  0
LINE
  5
269
100
AcDbEntity
  8
0
100
AcDbLine
 62
7
  6
CONTINUOUS
 10
5.5249164778
 20
2.6256001951
 11
5.5248960674
 21
2.6255997493
  0
LINE
  5
26A
100
AcDbEntity
  8
0
100
AcDbLine
 62
7
  6
CONTINUOUS
 10
5.5236228034
 20
2.6855520761
 11
5.5236008939
 21
2.6855515976
  0
LINE
  5
26B
100
AcDbEntity
  8
0
100
AcDbLine
 62
7
  6
CONTINUOUS
 10
5.523319758
 20
2.7023046185
 11
5.5232947445
 21
2.7023040722
  0
LINE
  5
26C
100
AcDbEntity
  8
0
100
AcDbLine
 62
7
  6
CONTINUOUS
 10
5.522469277
 20
2.7416007482
 11
5.5221720416
 21
2.7415942563
  0
LINE
  5
26D
100
AcDbEntity
  8
0
100
AcDbLine
 62
7
  6
CONTINUOUS
 10
4.2133774208
 20
2.9144702293
 11
4.2029298151
 21
2.9167090019
  0
LINE
  5
26E
100
AcDbEntity
  8
0
100
AcDbLine
 62
7
  6
CONTINUOUS
 10
3.7459116179
 20
3.2515139812
 11
3.7376474951
 21
3.2764453528
  0
LWPOLYLINE
  5
26F
100
AcDbEntity
  8
ALL_FEATURES
100
AcDbPolyline
 62
7
  6
CONTINUOUS
 90
19
 70
0
 10
3.6814644824
 20
2.8802155503
 10
3.6770525299
 20
2.8967245155
 10
3.6720915868
 20
2.9165291293
 10
3.6674320826
 20
2.9365866574
 10
3.6630882787
 20
2.9568775918
 10
3.6590723519
 20
2.9773812768
 10
3.655396032
 20
2.9980739582
 10
3.6520683862
 20
3.0189340835
 10
3.6490964625
 20
3.0399369825
 10
3.6464855036
 20
3.0610527316
 10
3.6442354864
 20
3.0822586691
 10
3.6423432243
 20
3.1035274118
 10
3.6408004567
 20
3.1248236814
 10
3.6395916579
 20
3.1461229172
 10
3.6386944739
 20
3.1674023529
 10
3.6380784309
 20
3.188633935
 10
3.6377043775
 20
3.2097957154
 10
3.6375250067
 20
3.2308682615
 10
3.6374875015
 20
3.244393363
  0
LWPOLYLINE
  5
270
100
AcDbEntity
  8
ALL_FEATURES
100
AcDbPolyline
 62
7
  6
CONTINUOUS
 90
19
 70
0
 10
3.6027845479
 20
2.8970658311
 10
3.5985462318
 20
2.9150746068
 10
3.5938623195
 20
2.9365522996
 10
3.5895477899
 20
2.9581735233
 10
3.5856076688
 20
2.9799122047
 10
3.5820450736
 20
3.0017375199
 10
3.5788604436
 20
3.0236146092
 10
3.5760496392
 20
3.0455129519
 10
3.5736047151
 20
3.0674003431
 10
3.5715138831
 20
3.0892394009
 10
3.5697597365
 20
3.110996351
 10
3.5683200271
 20
3.1326427135
 10
3.5671680642
 20
3.1541510508
 10
3.5662738642
 20
3.1754885068
 10
3.5656051831
 20
3.1966251682
 10
3.5651294778
 20
3.217537826
 10
3.5648173276
 20
3.2381945687
 10
3.5646455636
 20
3.258555223
 10
3.5645989131
 20
3.2760742805
  0
LINE
  5
271
100
AcDbEntity
  8
ALL_FEATURES
100
AcDbLine
 62
7
  6
CONTINUOUS
 10
3.7184819634
 20
2.5896356562
 11
3.7179197795
 21
2.592384901
  0
LWPOLYLINE
  5
272
100
AcDbEntity
  8
ALL_FEATURES
100
AcDbPolyline
 62
7
  6
CONTINUOUS
 90
8
 70
0
 10
3.8131926064
 20
2.5657489189
 10
3.8130941032
 20
2.5662468011
 10
3.8120488508
 20
2.5706852599
 10
3.8107196702
 20
2.5750453345
 10
3.8091118653
 20
2.5793096782
 10
3.807231993
 20
2.5834604809
 10
3.8050900132
 20
2.5874789502
 10
3.8047946147
 20
2.5879876404
  0
LWPOLYLINE
  5
273
100
AcDbEntity
  8
ALL_FEATURES
100
AcDbPolyline
 62
7
  6
CONTINUOUS
 90
4
 70
0
 10
3.7189895858
 20
2.5835230614
 10
3.7189851762
 20
2.5840507563
 10
3.7188377476
 20
2.5868528189
 10
3.7184819634
 20
2.5896356562
  0
LINE
  5
274
100
AcDbEntity
  8
ALL_FEATURES
100
AcDbLine
 62
7
  6
CONTINUOUS
 10
3.7189899123
 20
2.5834712445
 11
3.7189898768
 21
2.5835227832
  0
LINE
  5
275
100
AcDbEntity
  8
0
100
AcDbLine
 62
7
  6
CONTINUOUS
 10
3.9127375017
 20
5.606893204
 11
3.9127375884
 21
5.6067816146
  0
LINE
  5
276
100
AcDbEntity
  8
0
100
AcDbLine
 62
9
  6
CONTINUOUS
 10
3.6790303452
 20
3.3395913641
 11
3.6790303452
 21
3.7187788722
  0
LINE
  5
277
100
AcDbEntity
  8
ALL_FEATURES
100
AcDbLine
 62
7
  6
CONTINUOUS
 10
3.681688487
 20
3.3091208167
 11
3.681688487
 21
3.292206258
  0
LINE
  5
278
100
AcDbEntity
  8
0
100
AcDbLine
 62
9
  6
CONTINUOUS
 10
3.6824875227
 20
3.2462788722
 11
3.6824875227
 21
3.2507962629
  0
LINE
  5
279
100
AcDbEntity
  8
ALL_FEATURES
100
AcDbLine
 62
9
  6
CONTINUOUS
 10
3.6892844984
 20
2.5461763531
 11
3.6892844984
 21
2.5468418428
  0
LINE
  5
27A
100
AcDbEntity
  8
ALL_FEATURES
100
AcDbLine
 62
7
  6
CONTINUOUS
 10
3.6901217961
 20
5.6385753034
 11
3.6901217961
 21
6.1833437256
  0
LINE
  5
27B
100
AcDbEntity
  8
0
100
AcDbLine
 62
9
  6
CONTINUOUS
 10
3.710985378
 20
3.2495864887
 11
3.7109853685
 21
3.2747528985
  0
LINE
  5
27C
100
AcDbEntity
  8
ALL_FEATURES
100
AcDbLine
 62
7
  6
CONTINUOUS
 10
3.710985362
 20
3.2837489787
 11
3.710985362
 21
3.317578096
  0
LINE
  5
27D
100
AcDbEntity
  8
0
100
AcDbLine
 62
7
  6
CONTINUOUS
 10
3.7189899123
 20
2.583371072
 11
3.7189899123
 21
2.5834712931
  0
LINE
  5
27E
100
AcDbEntity
  8
ALL_FEATURES
100
AcDbLine
 62
9
  6
CONTINUOUS
 10
3.7201217961
 20
6.2140288722
 11
3.7201217961
 21
5.620305076
  0
LINE
  5
27F
100
AcDbEntity
  8
ALL_FEATURES
100
AcDbLine
 62
7
  6
CONTINUOUS
 10
3.740282237
 20
3.292206258
 11
3.740282237
 21
3.3091208167
  0
LINE
  5
280
100
AcDbEntity
  8
0
100
AcDbLine
 62
9
  6
CONTINUOUS
 10
3.7459116106
 20
3.7187788722
 11
3.7459116106
 21
3.3241887674
  0
LINE
  5
281
100
AcDbEntity
  8
0
100
AcDbLine
 62
9
  6
CONTINUOUS
 10
3.7459116106
 20
3.2515139803
 11
3.7459116106
 21
3.2462788722
  0
LINE
  5
282
100
AcDbEntity
  8
ALL_FEATURES
100
AcDbLine
 62
9
  6
CONTINUOUS
 10
3.762583477
 20
2.4842926953
 11
3.762583477
 21
2.4841668765
  0
LINE
  5
283
100
AcDbEntity
  8
0
100
AcDbLine
 62
9
  6
CONTINUOUS
 10
3.7870558615
 20
3.7455538722
 11
3.7870558615
 21
3.2195038722
  0
LINE
  5
284
100
AcDbEntity
  8
ALL_FEATURES
100
AcDbLine
 62
9
  6
CONTINUOUS
 10
3.8098489279
 20
5.620305076
 11
3.8098489279
 21
6.2140288722
  0
LINE
  5
285
100
AcDbEntity
  8
ALL_FEATURES
100
AcDbLine
 62
7
  6
CONTINUOUS
 10
3.8398489279
 20
5.6385753034
 11
3.8398489279
 21
6.1833437256
  0
LINE
  5
286
100
AcDbEntity
  8
ALL_FEATURES
100
AcDbLine
 62
7
  6
CONTINUOUS
 10
3.844485362
 20
3.2316538722
 11
3.844485362
 21
3.7334038722
  0
LINE
  5
287
100
AcDbEntity
  8
ALL_FEATURES
100
AcDbLine
 62
9
  6
CONTINUOUS
 10
3.8693293945
 20
6.1401538722
 11
3.8693293945
 21
5.6664704296
  0
LINE
  5
288
100
AcDbEntity
  8
ALL_FEATURES
100
AcDbLine
 62
9
  6
CONTINUOUS
 10
3.875235362
 20
6.1401538722
 11
3.875235362
 21
5.5920396959
  0
LINE
  5
289
100
AcDbEntity
  8
ALL_FEATURES
100
AcDbLine
 62
7
  6
CONTINUOUS
 10
3.881985362
 20
3.7450288722
 11
3.881985362
 21
3.2200288722
  0
LINE
  5
28A
100
AcDbEntity
  8
0
100
AcDbLine
 62
9
  6
CONTINUOUS
 10
3.8915292816
 20
3.1886862997
 11
3.8915292816
 21
3.7763714447
  0
LINE
  5
28B
100
AcDbEntity
  8
0
100
AcDbLine
 62
9
  6
CONTINUOUS
 10
3.9073419512
 20
3.1753597466
 11
3.9073419512
 21
3.7896979978
  0
LINE
  5
28C
100
AcDbEntity
  8
0
100
AcDbLine
 62
9
  6
CONTINUOUS
 10
3.9111648998
 20
5.6826617635
 11
3.9111648998
 21
6.1133925085
  0
LINE
  5
28D
100
AcDbEntity
  8
ALL_FEATURES
100
AcDbLine
 62
7
  6
CONTINUOUS
 10
3.7189899123
 20
2.5833704402
 11
3.7189898541
 21
2.5833036145
  0
LINE
  5
28E
100
AcDbEntity
  8
ALL_FEATURES
100
AcDbLine
 62
7
  6
CONTINUOUS
 10
3.6901217961
 20
5.6385753034
 11
3.6900754874
 21
5.6211797021
  0
LWPOLYLINE
  5
28F
100
AcDbEntity
  8
ALL_FEATURES
100
AcDbPolyline
 62
7
  6
CONTINUOUS
 90
19
 70
0
 10
3.6901218107
 20
5.6385741998
 10
3.690076379
 20
5.6212863043
 10
3.6899061341
 20
5.6009308429
 10
3.6895957527
 20
5.5802789518
 10
3.6891221497
 20
5.5593708316
 10
3.6884559732
 20
5.5382384089
 10
3.6875647002
 20
5.5169048794
 10
3.686416075
 20
5.4954001546
 10
3.6849801031
 20
5.4737570934
 10
3.683230027
 20
5.452003086
 10
3.6811435596
 20
5.4301665989
 10
3.6787032593
 20
5.4082814063
 10
3.6758972341
 20
5.3863848451
 10
3.6727175462
 20
5.3645091432
 10
3.6691599628
 20
5.3426848022
 10
3.6652249047
 20
5.3209466971
 10
3.6609154521
 20
5.29932568
 10
3.656236608
 20
5.2778478709
 10
3.6519361761
 20
5.2595658306
  0
LINE
  5
290
100
AcDbEntity
  8
0
100
AcDbLine
 62
7
  6
CONTINUOUS
 10
3.6824875307
 20
3.2507962617
 11
3.689596433
 21
3.2775157771
  0
LWPOLYLINE
  5
291
100
AcDbEntity
  8
ALL_FEATURES
100
AcDbPolyline
 62
7
  6
CONTINUOUS
 90
6
 70
0
 10
3.3685215935
 20
2.8652534956
 10
3.3586190227
 20
2.8305157058
 10
3.3477678707
 20
2.7961142939
 10
3.3359773653
 20
2.7620769977
 10
3.3232588031
 20
2.7284314996
 10
3.3096253286
 20
2.6952053525
  0
LWPOLYLINE
  5
292
100
AcDbEntity
  8
ALL_FEATURES
100
AcDbPolyline
 62
7
  6
CONTINUOUS
 90
3
 70
0
 10
3.3096253286
 20
2.6952053525
 10
3.2950914833
 20
2.6624251911
 10
3.2796723814
 20
2.6301156236
  0
LINE
  5
293
100
AcDbEntity
  8
0
100
AcDbLine
 62
9
  6
CONTINUOUS
 10
5.523663736
 20
2.9462815512
 11
5.5246948071
 21
2.9462944678
  0
LINE
  5
294
100
AcDbEntity
  8
0
100
AcDbLine
 62
7
  6
CONTINUOUS
 10
5.348985362
 20
2.8622788722
 11
4.3041560178
 21
2.8622788722
  0
LINE
  5
295
100
AcDbEntity
  8
ALL_FEATURES
100
AcDbLine
 62
7
  6
CONTINUOUS
 10
4.3041560178
 20
2.8622788722
 11
5.348985362
 21
2.8622788722
  0
LINE
  5
296
100
AcDbEntity
  8
0
100
AcDbLine
 62
7
  6
CONTINUOUS
 10
5.3778042596
 20
2.862450132
 11
5.5215503226
 21
2.862450132
  0
LINE
  5
297
100
AcDbEntity
  8
ALL_FEATURES
100
AcDbLine
 62
9
  6
CONTINUOUS
 10
3.3341645419
 20
2.8674285725
 11
3.3377461375
 21
2.8674285725
  0
LINE
  5
298
100
AcDbEntity
  8
ALL_FEATURES
100
AcDbLine
 62
9
  6
CONTINUOUS
 10
3.6417245865
 20
2.8674285725
 11
3.6453061821
 21
2.8674285725
  0
LINE
  5
299
100
AcDbEntity
  8
ALL_FEATURES
100
AcDbLine
 62
9
  6
CONTINUOUS
 10
3.573634937
 20
2.8865534
 11
3.405835787
 21
2.8865534
  0
LINE
  5
29A
100
AcDbEntity
  8
ALL_FEATURES
100
AcDbLine
 62
7
  6
CONTINUOUS
 10
3.681688487
 20
3.292206258
 11
3.710985362
 21
3.2837489787
  0
LINE
  5
29B
100
AcDbEntity
  8
ALL_FEATURES
100
AcDbLine
 62
7
  6
CONTINUOUS
 10
3.740282237
 20
3.3091208167
 11
3.710985362
 21
3.317578096
  0
LINE
  5
29C
100
AcDbEntity
  8
0
100
AcDbLine
 62
7
  6
CONTINUOUS
 10
4.2455209536
 20
2.8905142568
 11
4.2391296499
 21
2.8985278906
  0
LWPOLYLINE
  5
29D
100
AcDbEntity
  8
ALL_FEATURES
100
AcDbPolyline
 62
7
  6
CONTINUOUS
 90
4
 70
0
 10
3.9942395858
 20
4.9460230614
 10
3.9942351762
 20
4.9465507563
 10
3.9940877476
 20
4.9493528189
 10
3.9937319634
 20
4.9521356562
  0
LINE
  5
29E
100
AcDbEntity
  8
ALL_FEATURES
100
AcDbLine
 62
7
  6
CONTINUOUS
 10
3.9942399123
 20
4.9459712445
 11
3.9942398768
 21
4.9460227832
  0
LINE
  5
29F
100
AcDbEntity
  8
0
100
AcDbLine
 62
9
  6
CONTINUOUS
 10
3.9542803452
 20
5.7020913641
 11
3.9542803452
 21
6.0812788722
  0
LINE
  5
2A0
100
AcDbEntity
  8
ALL_FEATURES
100
AcDbLine
 62
7
  6
CONTINUOUS
 10
3.956938487
 20
5.6716208167
 11
3.956938487
 21
5.654706258
  0
LINE
  5
2A1
100
AcDbEntity
  8
0
100
AcDbLine
 62
9
  6
CONTINUOUS
 10
3.9577375227
 20
5.6087788722
 11
3.9577375227
 21
5.6132962629
  0
LINE
  5
2A2
100
AcDbEntity
  8
ALL_FEATURES
100
AcDbLine
 62
9
  6
CONTINUOUS
 10
3.9645344984
 20
4.9086763531
 11
3.9645344984
 21
4.9093418428
  0
LINE
  5
2A3
100
AcDbEntity
  8
ALL_FEATURES
100
AcDbLine
 62
7
  6
CONTINUOUS
 10
3.986235362
 20
5.6462489787
 11
3.986235362
 21
5.680078096
  0
LINE
  5
2A4
100
AcDbEntity
  8
0
100
AcDbLine
 62
9
  6
CONTINUOUS
 10
3.986235378
 20
5.6120864887
 11
3.9862353685
 21
5.6372528985
  0
LINE
  5
2A5
100
AcDbEntity
  8
0
100
AcDbLine
 62
7
  6
CONTINUOUS
 10
3.9942399123
 20
4.945871072
 11
3.9942399123
 21
4.9459712931
  0
LINE
  5
2A6
100
AcDbEntity
  8
ALL_FEATURES
100
AcDbLine
 62
7
  6
CONTINUOUS
 10
4.015532237
 20
5.654706258
 11
4.015532237
 21
5.6716208167
  0
LINE
  5
2A7
100
AcDbEntity
  8
0
100
AcDbLine
 62
9
  6
CONTINUOUS
 10
4.0211616106
 20
6.0812788722
 11
4.0211616106
 21
5.6866887674
  0
LINE
  5
2A8
100
AcDbEntity
  8
0
100
AcDbLine
 62
9
  6
CONTINUOUS
 10
4.0211616106
 20
5.6140139803
 11
4.0211616106
 21
5.6087788722
  0
LINE
  5
2A9
100
AcDbEntity
  8
ALL_FEATURES
100
AcDbLine
 62
9
  6
CONTINUOUS
 10
4.037833477
 20
4.8467926953
 11
4.037833477
 21
4.8466668765
  0
LINE
  5
2AA
100
AcDbEntity
  8
0
100
AcDbLine
 62
9
  6
CONTINUOUS
 10
4.0623058615
 20
6.1080538722
 11
4.0623058615
 21
5.5820038722
  0
LINE
  5
2AB
100
AcDbEntity
  8
ALL_FEATURES
100
AcDbLine
 62
7
  6
CONTINUOUS
 10
4.119735362
 20
5.5941538722
 11
4.119735362
 21
6.0959038722
  0
LINE
  5
2AC
100
AcDbEntity
  8
0
100
AcDbLine
 62
7
  6
CONTINUOUS
 10
4.157235362
 20
5.602670719
 11
4.157235362
 21
6.0873870254
  0
LINE
  5
2AD
100
AcDbEntity
  8
0
100
AcDbLine
 62
9
  6
CONTINUOUS
 10
4.1636782331
 20
4.019918698
 11
4.1636782331
 21
2.9451390463
  0
LINE
  5
2AE
100
AcDbEntity
  8
0
100
AcDbLine
 62
9
  6
CONTINUOUS
 10
4.1754022394
 20
5.5751030348
 11
4.1754022394
 21
6.1149547095
  0
LINE
  5
2AF
100
AcDbEntity
  8
0
100
AcDbLine
 62
9
  6
CONTINUOUS
 10
4.2029298151
 20
4.0483487424
 11
4.2029298151
 21
2.916709002
  0
LINE
  5
2B0
100
AcDbEntity
  8
0
100
AcDbLine
 62
9
  6
CONTINUOUS
 10
4.2133774208
 20
2.9144702293
 11
4.2133774208
 21
4.0505875151
  0
LINE
  5
2B1
100
AcDbEntity
  8
ALL_FEATURES
100
AcDbLine
 62
7
  6
CONTINUOUS
 10
3.9942399123
 20
4.9458704402
 11
3.9942398541
 21
4.9458036145
  0
LWPOLYLINE
  5
2B2
100
AcDbEntity
  8
ALL_FEATURES
100
AcDbPolyline
 62
7
  6
CONTINUOUS
 90
5
 70
0
 10
3.2796723814
 20
2.6301156236
 10
3.2645248116
 20
2.6004460165
 10
3.2633540252
 20
2.5978976469
 10
3.2623767977
 20
2.5952695459
 10
3.2615978857
 20
2.5925753278
  0
LINE
  5
2B3
100
AcDbEntity
  8
0
100
AcDbLine
 62
9
  6
CONTINUOUS
 10
3.6599491957
 20
3.2856213906
 11
3.660325056
 21
3.2862772914
  0
LINE
  5
2B4
100
AcDbEntity
  8
0
100
AcDbLine
 62
9
  6
CONTINUOUS
 10
3.6526473399
 20
3.2728791864
 11
3.6530200828
 21
3.2735296461
  0
LWPOLYLINE
  5
2B5
100
AcDbEntity
  8
ALL_FEATURES
100
AcDbPolyline
 62
7
  6
CONTINUOUS
 90
7
 70
0
 10
3.1746760983
 20
2.5879876471
 10
3.1742172939
 20
2.587193304
 10
3.1720934566
 20
2.5831636616
 10
3.1702325896
 20
2.5790029816
 10
3.1686445213
 20
2.5747300556
 10
3.1673356363
 20
2.5703626982
 10
3.1662568608
 20
2.565638957
  0
LINE
  5
2B6
100
AcDbEntity
  8
0
100
AcDbLine
 62
9
  6
CONTINUOUS
 10
3.6530383505
 20
3.2758001298
 11
3.6534102632
 21
3.2764076036
  0
LINE
  5
2B7
100
AcDbEntity
  8
0
100
AcDbLine
 62
9
  6
CONTINUOUS
 10
3.660040652
 20
3.2872375238
 11
3.6607465915
 21
3.2883905767
  0
LINE
  5
2B8
100
AcDbEntity
  8
0
100
AcDbLine
 62
7
  6
CONTINUOUS
 10
5.5223741483
 20
3.3430322315
 11
5.5248264173
 21
3.3430415321
  0
LINE
  5
2B9
100
AcDbEntity
  8
ALL_FEATURES
100
AcDbLine
 62
7
  6
CONTINUOUS
 10
3.6824875227
 20
3.2462788722
 11
3.7459116106
 21
3.2462788722
  0
LINE
  5
2BA
100
AcDbEntity
  8
ALL_FEATURES
100
AcDbLine
 62
9
  6
CONTINUOUS
 10
3.5345989279
 20
3.257805076
 11
3.4448717961
 21
3.257805076
  0
LINE
  5
2BB
100
AcDbEntity
  8
ALL_FEATURES
100
AcDbLine
 62
9
  6
CONTINUOUS
 10
3.379485362
 20
3.3039704296
 11
3.3853913295
 21
3.3039704296
  0
LINE
  5
2BC
100
AcDbEntity
  8
ALL_FEATURES
100
AcDbLine
 62
9
  6
CONTINUOUS
 10
3.5940793945
 20
3.3039704296
 11
3.599985362
 21
3.3039704296
  0
LINE
  5
2BD
100
AcDbEntity
  8
0
100
AcDbLine
 62
7
  6
CONTINUOUS
 10
3.881985362
 20
3.3437788722
 11
3.844485362
 21
3.3437788722
  0
LWPOLYLINE
  5
2BE
100
AcDbEntity
  8
ALL_FEATURES
100
AcDbPolyline
 62
7
  6
CONTINUOUS
 90
19
 70
0
 10
3.8780345479
 20
5.2595658311
 10
3.8737962318
 20
5.2775746068
 10
3.8691123195
 20
5.2990522996
 10
3.8647977899
 20
5.3206735233
 10
3.8608576688
 20
5.3424122047
 10
3.8572950736
 20
5.3642375199
 10
3.8541104436
 20
5.3861146092
 10
3.8512996392
 20
5.4080129519
 10
3.8488547151
 20
5.4299003431
 10
3.8467638831
 20
5.4517394009
 10
3.8450097365
 20
5.473496351
 10
3.8435700271
 20
5.4951427135
 10
3.8424180642
 20
5.5166510508
 10
3.8415238642
 20
5.5379885068
 10
3.8408551831
 20
5.5591251682
 10
3.8403794778
 20
5.580037826
 10
3.8400673276
 20
5.6006945687
 10
3.8398955636
 20
5.621055223
 10
3.8398489131
 20
5.6385742805
  0
LINE
  5
2BF
100
AcDbEntity
  8
ALL_FEATURES
100
AcDbLine
 62
7
  6
CONTINUOUS
 10
3.9937319634
 20
4.9521356562
 11
3.9931697795
 21
4.954884901
  0
LINE
  5
2C0
100
AcDbEntity
  8
0
100
AcDbLine
 62
9
  6
CONTINUOUS
 10
4.2391296499
 20
2.8985278906
 11
4.2391296499
 21
4.0665298537
  0
LINE
  5
2C1
100
AcDbEntity
  8
0
100
AcDbLine
 62
9
  6
CONTINUOUS
 10
4.2455209536
 20
2.8905142568
 11
4.2455209536
 21
4.0745434875
  0
LINE
  5
2C2
100
AcDbEntity
  8
0
100
AcDbLine
 62
9
  6
CONTINUOUS
 10
4.3041560178
 20
4.1027788722
 11
4.3041560178
 21
2.8622788722
  0
LINE
  5
2C3
100
AcDbEntity
  8
0
100
AcDbLine
 62
9
  6
CONTINUOUS
 10
4.4078009377
 20
6.2999410763
 11
4.4078009377
 21
5.3901166681
  0
LINE
  5
2C4
100
AcDbEntity
  8
0
100
AcDbLine
 62
7
  6
CONTINUOUS
 10
4.424610362
 20
4.1008969039
 11
4.424610362
 21
4.2002788722
  0
LINE
  5
2C5
100
AcDbEntity
  8
0
100
AcDbLine
 62
9
  6
CONTINUOUS
 10
4.4683289771
 20
6.3306538722
 11
4.4683289771
 21
5.3594038722
  0
LINE
  5
2C6
100
AcDbEntity
  8
0
100
AcDbLine
 62
7
  6
CONTINUOUS
 10
4.2455209536
 20
4.0745434875
 11
4.2391296499
 21
4.0665298537
  0
LINE
  5
2C7
100
AcDbEntity
  8
0
100
AcDbLine
 62
7
  6
CONTINUOUS
 10
3.881985362
 20
3.6212788722
 11
3.844485362
 21
3.6212788722
  0
LINE
  5
2C8
100
AcDbEntity
  8
0
100
AcDbLine
 62
9
  6
CONTINUOUS
 10
5.522726136
 20
3.6243414755
 11
5.523663605
 21
3.6243361761
  0
LINE
  5
2C9
100
AcDbEntity
  8
0
100
AcDbLine
 62
7
  6
CONTINUOUS
 10
5.5231161305
 20
3.6304727119
 11
5.524171954
 21
3.6304667435
  0
LWPOLYLINE
  5
2CA
100
AcDbEntity
  8
ALL_FEATURES
100
AcDbPolyline
 62
7
  6
CONTINUOUS
 90
6
 70
0
 10
3.9597447745
 20
5.0246742117
 10
3.9452038336
 20
5.0574513274
 10
3.9315631839
 20
5.0906746225
 10
3.918837366
 20
5.1243174872
 10
3.9070395298
 20
5.1583523957
 10
3.8961809851
 20
5.1927516795
  0
LWPOLYLINE
  5
2CB
100
AcDbEntity
  8
ALL_FEATURES
100
AcDbPolyline
 62
7
  6
CONTINUOUS
 90
3
 70
0
 10
3.8961809851
 20
5.1927516795
 10
3.8862709817
 20
5.2274875947
 10
3.8780345369
 20
5.25956587
  0
LWPOLYLINE
  5
2CC
100
AcDbEntity
  8
ALL_FEATURES
100
AcDbPolyline
 62
7
  6
CONTINUOUS
 90
4
 70
0
 10
3.9931697795
 20
4.954884901
 10
3.9924042231
 20
4.9575852724
 10
3.9914386837
 20
4.9602221217
 10
3.9902790546
 20
4.9627804601
  0
LWPOLYLINE
  5
2CD
100
AcDbEntity
  8
ALL_FEATURES
100
AcDbPolyline
 62
7
  6
CONTINUOUS
 90
19
 70
0
 10
3.9567144824
 20
5.2427155503
 10
3.9523025299
 20
5.2592245155
 10
3.9473415868
 20
5.2790291293
 10
3.9426820826
 20
5.2990866574
 10
3.9383382787
 20
5.3193775918
 10
3.9343223519
 20
5.3398812768
 10
3.930646032
 20
5.3605739582
 10
3.9273183862
 20
5.3814340835
 10
3.9243464625
 20
5.4024369825
 10
3.9217355036
 20
5.4235527316
 10
3.9194854864
 20
5.4447586691
 10
3.9175932243
 20
5.4660274118
 10
3.9160504567
 20
5.4873236814
 10
3.9148416579
 20
5.5086229172
 10
3.9139444739
 20
5.5299023529
 10
3.9133284309
 20
5.551133935
 10
3.9129543775
 20
5.5722957154
 10
3.9127750067
 20
5.5933682615
 10
3.9127375015
 20
5.606893363
  0
LWPOLYLINE
  5
2CE
100
AcDbEntity
  8
ALL_FEATURES
100
AcDbPolyline
 62
7
  6
CONTINUOUS
 90
8
 70
0
 10
4.0884426064
 20
4.9282489189
 10
4.0883441032
 20
4.9287468011
 10
4.0872988508
 20
4.9331852599
 10
4.0859696702
 20
4.9375453345
 10
4.0843618653
 20
4.9418096782
 10
4.082481993
 20
4.9459604809
 10
4.0803400132
 20
4.9499789502
 10
4.0800446147
 20
4.9504876404
  0
LINE
  5
2CF
100
AcDbEntity
  8
0
100
AcDbLine
 62
7
  6
CONTINUOUS
 10
4.6313003226
 20
5.3374513722
 11
4.6313003226
 21
6.3526004151
  0
LINE
  5
2D0
100
AcDbEntity
  8
0
100
AcDbLine
 62
7
  6
CONTINUOUS
 10
4.713360362
 20
4.1008969381
 11
4.713360362
 21
4.2002788722
  0
LINE
  5
2D1
100
AcDbEntity
  8
0
100
AcDbLine
 62
9
  6
CONTINUOUS
 10
4.7438003226
 20
5.2249513722
 11
4.7438003226
 21
6.4651063722
  0
LINE
  5
2D2
100
AcDbEntity
  8
ALL_FEATURES
100
AcDbLine
 62
7
  6
CONTINUOUS
 10
3.6790303452
 20
3.7187788722
 11
3.7459116106
 21
3.7187788722
  0
LINE
  5
2D3
100
AcDbEntity
  8
ALL_FEATURES
100
AcDbLine
 62
7
  6
CONTINUOUS
 10
3.599985362
 20
3.7776538722
 11
3.5940793945
 21
3.7776538722
  0
LINE
  5
2D4
100
AcDbEntity
  8
ALL_FEATURES
100
AcDbLine
 62
7
  6
CONTINUOUS
 10
3.3853913295
 20
3.7776538722
 11
3.379485362
 21
3.7776538722
  0
LINE
  5
2D5
100
AcDbEntity
  8
ALL_FEATURES
100
AcDbLine
 62
7
  6
CONTINUOUS
 10
3.5345989279
 20
3.8515288722
 11
3.4448717961
 21
3.8515288722
  0
LINE
  5
2D6
100
AcDbEntity
  8
0
100
AcDbLine
 62
9
  6
CONTINUOUS
 10
5.5225879399
 20
3.7183756459
 11
5.5236138622
 21
3.7183698465
  0
LINE
  5
2D7
100
AcDbEntity
  8
0
100
AcDbLine
 62
9
  6
CONTINUOUS
 10
5.5246310034
 20
3.8078536692
 11
5.5256406834
 21
3.8078479616
  0
LWPOLYLINE
  5
2D8
100
AcDbEntity
  8
ALL_FEATURES
100
AcDbPolyline
 62
7
  6
CONTINUOUS
 90
10
 70
0
 10
4.0800448416
 20
4.9504877866
 10
4.0637072198
 20
4.979236939
 10
4.0467655876
 20
5.0111309713
 10
4.0307878248
 20
5.0434987346
 10
4.0157870685
 20
5.0763103747
 10
4.0017758843
 20
5.1095347942
 10
3.9887655567
 20
5.1431408326
 10
3.976766293
 20
5.1770967824
 10
3.9657871055
 20
5.2113704183
 10
3.9567144604
 20
5.2427155288
  0
LWPOLYLINE
  5
2D9
100
AcDbEntity
  8
ALL_FEATURES
100
AcDbPolyline
 62
7
  6
CONTINUOUS
 90
3
 70
0
 10
3.9902790546
 20
4.9627804601
 10
3.9751708806
 20
4.9923678867
 10
3.9597447745
 20
5.0246742117
  0
LINE
  5
2DA
100
AcDbEntity
  8
0
100
AcDbLine
 62
7
  6
CONTINUOUS
 10
4.0211616179
 20
5.6140139812
 11
4.0128974951
 21
5.6389453528
  0
LINE
  5
2DB
100
AcDbEntity
  8
ALL_FEATURES
100
AcDbLine
 62
7
  6
CONTINUOUS
 10
3.710985362
 20
3.317578096
 11
3.681688487
 21
3.3091208167
  0
LINE
  5
2DC
100
AcDbEntity
  8
0
100
AcDbLine
 62
7
  6
CONTINUOUS
 10
4.2133774208
 20
4.0505875151
 11
4.2029298151
 21
4.0483487424
  0
LINE
  5
2DD
100
AcDbEntity
  8
0
100
AcDbLine
 62
7
  6
CONTINUOUS
 10
5.5215503226
 20
4.1022120278
 11
5.4239146644
 21
4.1022120278
  0
LINE
  5
2DE
100
AcDbEntity
  8
0
100
AcDbLine
 62
7
  6
CONTINUOUS
 10
5.3778042596
 20
4.1026076123
 11
5.4014189863
 21
4.1026076123
  0
LINE
  5
2DF
100
AcDbEntity
  8
0
100
AcDbLine
 62
7
  6
CONTINUOUS
 10
4.416735362
 20
4.1027788722
 11
4.3041560178
 21
4.1027788722
  0
LINE
  5
2E0
100
AcDbEntity
  8
ALL_FEATURES
100
AcDbLine
 62
7
  6
CONTINUOUS
 10
4.3041560178
 20
4.1027788722
 11
4.416735362
 21
4.1027788722
  0
LINE
  5
2E1
100
AcDbEntity
  8
0
100
AcDbLine
 62
7
  6
CONTINUOUS
 10
4.721235362
 20
4.1027788722
 11
5.348985362
 21
4.1027788722
  0
LINE
  5
2E2
100
AcDbEntity
  8
ALL_FEATURES
100
AcDbLine
 62
7
  6
CONTINUOUS
 10
4.721235362
 20
4.1027788722
 11
5.348985362
 21
4.1027788722
  0
LINE
  5
2E3
100
AcDbEntity
  8
0
100
AcDbLine
 62
9
  6
CONTINUOUS
 10
4.424610362
 20
4.2002788722
 11
4.713360362
 21
4.2002788722
  0
LINE
  5
2E4
100
AcDbEntity
  8
0
100
AcDbLine
 62
7
  6
CONTINUOUS
 10
4.4321119662
 20
4.2077788722
 11
4.7058587578
 21
4.2077788722
  0
LINE
  5
2E5
100
AcDbEntity
  8
ALL_FEATURES
100
AcDbLine
 62
7
  6
CONTINUOUS
 10
3.710985362
 20
3.2837489787
 11
3.740282237
 21
3.292206258
  0
LINE
  5
2E6
100
AcDbEntity
  8
0
100
AcDbLine
 62
7
  6
CONTINUOUS
 10
5.5553003226
 20
4.4354038722
 11
5.5268003226
 21
4.4354038722
  0
LINE
  5
2E7
100
AcDbEntity
  8
0
100
AcDbLine
 62
7
  6
CONTINUOUS
 10
5.5224415589
 20
2.7295985672
 11
5.5223150786
 21
2.7350449295
  0
LINE
  5
2E8
100
AcDbEntity
  8
0
100
AcDbLine
 62
7
  6
CONTINUOUS
 10
5.5252589001
 20
2.6020440473
 11
5.5257459473
 21
2.5800035109
  0
LINE
  5
2E9
100
AcDbEntity
  8
0
100
AcDbLine
 62
7
  6
CONTINUOUS
 10
5.5215503226
 20
2.7700288722
 11
5.5221713598
 21
2.7415942414
  0
LINE
  5
2EA
100
AcDbEntity
  8
0
100
AcDbLine
 62
7
  6
CONTINUOUS
 10
5.5256848508
 20
2.5810984827
 11
5.525229955
 21
2.6020434166
  0
LINE
  5
2EB
100
AcDbEntity
  8
0
100
AcDbLine
 62
7
  6
CONTINUOUS
 10
5.5258332674
 20
2.5739566552
 11
5.5256848508
 21
2.5810984827
  0
LINE
  5
2EC
100
AcDbEntity
  8
0
100
AcDbLine
 62
7
  6
CONTINUOUS
 10
5.348985362
 20
4.1027788722
 11
5.348985362
 21
2.8622788722
  0
LINE
  5
2ED
100
AcDbEntity
  8
0
100
AcDbLine
 62
7
  6
CONTINUOUS
 10
5.3630404801
 20
4.0878438328
 11
5.3630404801
 21
2.8772139116
  0
LINE
  5
2EE
100
AcDbEntity
  8
0
100
AcDbLine
 62
9
  6
CONTINUOUS
 10
5.3778042596
 20
2.8624501474
 11
5.3778042596
 21
4.1026076123
  0
LINE
  5
2EF
100
AcDbEntity
  8
0
100
AcDbLine
 62
7
  6
CONTINUOUS
 10
5.5215503226
 20
4.1950288722
 11
5.5215503226
 21
3.6746408514
  0
LINE
  5
2F0
100
AcDbEntity
  8
0
100
AcDbLine
 62
7
  6
CONTINUOUS
 10
5.5215503226
 20
3.6501223523
 11
5.5215503226
 21
3.0372685359
  0
LINE
  5
2F1
100
AcDbEntity
  8
0
100
AcDbLine
 62
7
  6
CONTINUOUS
 10
5.5215503226
 20
3.0183526218
 11
5.5215503226
 21
2.7700288722
  0
LINE
  5
2F2
100
AcDbEntity
  8
0
100
AcDbLine
 62
7
  6
CONTINUOUS
 10
5.5268003226
 20
4.4354038722
 11
5.5268003226
 21
2.5296538722
  0
LINE
  5
2F3
100
AcDbEntity
  8
0
100
AcDbLine
 62
7
  6
CONTINUOUS
 10
5.5553003226
 20
4.4954038722
 11
5.5553003226
 21
2.4696538722
  0
LINE
  5
2F4
100
AcDbEntity
  8
0
100
AcDbLine
 62
7
  6
CONTINUOUS
 10
5.524194569
 20
4.3075077308
 11
5.5252418025
 21
4.3568205947
  0
LINE
  5
2F5
100
AcDbEntity
  8
0
100
AcDbLine
 62
7
  6
CONTINUOUS
 10
5.5223215841
 20
4.2303416289
 11
5.5215503226
 21
4.1950288722
  0
LINE
  5
2F6
100
AcDbEntity
  8
0
100
AcDbLine
 62
7
  6
CONTINUOUS
 10
5.5230627502
 20
4.2560551142
 11
5.524194569
 21
4.3075077308
  0
LINE
  5
2F7
100
AcDbEntity
  8
0
100
AcDbLine
 62
7
  6
CONTINUOUS
 10
5.6153003226
 20
4.4954038722
 11
5.5553003226
 21
4.4954038722
  0
LINE
  5
2F8
100
AcDbEntity
  8
ALL_FEATURES
100
AcDbLine
 62
7
  6
CONTINUOUS
 10
5.6153003226
 20
1.6075288722
 11
5.6153003226
 21
7.6075288722
  0
LINE
  5
2F9
100
AcDbEntity
  8
ALL_FEATURES
100
AcDbLine
 62
7
  6
CONTINUOUS
 10
5.6625503226
 20
1.5137788722
 11
5.6625503226
 21
7.7012788722
  0
LINE
  5
2FA
100
AcDbEntity
  8
0
100
AcDbLine
 62
7
  6
CONTINUOUS
 10
5.8500503226
 20
7.7012788722
 11
5.8500503226
 21
1.5137788722
  0
LINE
  5
2FB
100
AcDbEntity
  8
0
100
AcDbLine
 62
7
  6
CONTINUOUS
 10
5.6153003226
 20
5.2249513722
 11
4.7438003226
 21
5.2249513722
  0
LINE
  5
2FC
100
AcDbEntity
  8
ALL_FEATURES
100
AcDbLine
 62
9
  6
CONTINUOUS
 10
3.6094145419
 20
5.2299285725
 11
3.6129961375
 21
5.2299285725
  0
LINE
  5
2FD
100
AcDbEntity
  8
ALL_FEATURES
100
AcDbLine
 62
9
  6
CONTINUOUS
 10
3.9169745865
 20
5.2299285725
 11
3.9205561821
 21
5.2299285725
  0
LINE
  5
2FE
100
AcDbEntity
  8
ALL_FEATURES
100
AcDbLine
 62
9
  6
CONTINUOUS
 10
3.848884937
 20
5.2490534
 11
3.681085787
 21
5.2490534
  0
LINE
  5
2FF
100
AcDbEntity
  8
ALL_FEATURES
100
AcDbLine
 62
7
  6
CONTINUOUS
 10
4.4683289771
 20
5.3594038722
 11
4.6313003226
 21
5.3594038722
  0
LINE
  5
300
100
AcDbEntity
  8
ALL_FEATURES
100
AcDbLine
 62
7
  6
CONTINUOUS
 10
3.956938487
 20
5.654706258
 11
3.986235362
 21
5.6462489787
  0
LINE
  5
301
100
AcDbEntity
  8
ALL_FEATURES
100
AcDbLine
 62
7
  6
CONTINUOUS
 10
4.015532237
 20
5.6716208167
 11
3.986235362
 21
5.680078096
  0
LINE
  5
302
100
AcDbEntity
  8
ALL_FEATURES
100
AcDbLine
 62
7
  6
CONTINUOUS
 10
3.9577375227
 20
5.6087788722
 11
4.0211616106
 21
5.6087788722
  0
LINE
  5
303
100
AcDbEntity
  8
ALL_FEATURES
100
AcDbLine
 62
9
  6
CONTINUOUS
 10
3.8098489279
 20
5.620305076
 11
3.7201217961
 21
5.620305076
  0
LINE
  5
304
100
AcDbEntity
  8
ALL_FEATURES
100
AcDbLine
 62
9
  6
CONTINUOUS
 10
3.654735362
 20
5.6664704296
 11
3.6606413295
 21
5.6664704296
  0
LINE
  5
305
100
AcDbEntity
  8
ALL_FEATURES
100
AcDbLine
 62
9
  6
CONTINUOUS
 10
3.8693293945
 20
5.6664704296
 11
3.875235362
 21
5.6664704296
  0
LINE
  5
306
100
AcDbEntity
  8
0
100
AcDbLine
 62
7
  6
CONTINUOUS
 10
4.157235362
 20
5.7062788722
 11
4.119735362
 21
5.7062788722
  0
LINE
  5
307
100
AcDbEntity
  8
0
100
AcDbLine
 62
7
  6
CONTINUOUS
 10
4.157235362
 20
5.9837788722
 11
4.119735362
 21
5.9837788722
  0
LINE
  5
308
100
AcDbEntity
  8
ALL_FEATURES
100
AcDbLine
 62
7
  6
CONTINUOUS
 10
3.9542803452
 20
6.0812788722
 11
4.0211616106
 21
6.0812788722
  0
LINE
  5
309
100
AcDbEntity
  8
ALL_FEATURES
100
AcDbLine
 62
7
  6
CONTINUOUS
 10
3.875235362
 20
6.1401538722
 11
3.8693293945
 21
6.1401538722
  0
LINE
  5
30A
100
AcDbEntity
  8
ALL_FEATURES
100
AcDbLine
 62
7
  6
CONTINUOUS
 10
3.6606413295
 20
6.1401538722
 11
3.654735362
 21
6.1401538722
  0
LINE
  5
30B
100
AcDbEntity
  8
ALL_FEATURES
100
AcDbLine
 62
7
  6
CONTINUOUS
 10
3.8098489279
 20
6.2140288722
 11
3.7201217961
 21
6.2140288722
  0
LINE
  5
30C
100
AcDbEntity
  8
ALL_FEATURES
100
AcDbLine
 62
7
  6
CONTINUOUS
 10
4.4683289771
 20
6.3306538722
 11
4.6313003226
 21
6.3306538722
  0
LINE
  5
30D
100
AcDbEntity
  8
0
100
AcDbLine
 62
7
  6
CONTINUOUS
 10
5.6153003226
 20
6.4651063722
 11
4.7438003226
 21
6.4651063722
  0
LINE
  5
30E
100
AcDbEntity
  8
ALL_FEATURES
100
AcDbLine
 62
9
  6
CONTINUOUS
 10
5.6625503226
 20
7.0112788722
 11
5.6153003226
 21
7.0112788722
  0
LINE
  5
30F
100
AcDbEntity
  8
0
100
AcDbLine
 62
9
  6
CONTINUOUS
 10
5.6625503226
 20
7.0112788722
 11
5.8500503226
 21
7.0112788722
  0
LINE
  5
310
100
AcDbEntity
  8
ALL_FEATURES
100
AcDbLine
 62
7
  6
CONTINUOUS
 10
5.6625503226
 20
7.2325288722
 11
5.6153003226
 21
7.2325288722
  0
LINE
  5
311
100
AcDbEntity
  8
0
100
AcDbLine
 62
7
  6
CONTINUOUS
 10
5.6625503226
 20
7.3262788722
 11
5.8500503226
 21
7.3262788722
  0
LINE
  5
312
100
AcDbEntity
  8
ALL_FEATURES
100
AcDbLine
 62
7
  6
CONTINUOUS
 10
5.6625503226
 20
7.3262788722
 11
5.8500503226
 21
7.3262788722
  0
LINE
  5
313
100
AcDbEntity
  8
ALL_FEATURES
100
AcDbLine
 62
9
  6
CONTINUOUS
 10
5.6625503226
 20
7.3562788722
 11
5.6153003226
 21
7.3562788722
  0
LINE
  5
314
100
AcDbEntity
  8
0
100
AcDbLine
 62
9
  6
CONTINUOUS
 10
5.6625503226
 20
7.3562788722
 11
5.8500503226
 21
7.3562788722
  0
LINE
  5
315
100
AcDbEntity
  8
ALL_FEATURES
100
AcDbLine
 62
9
  6
CONTINUOUS
 10
5.6625503226
 20
7.3862788722
 11
5.6153003226
 21
7.3862788722
  0
LINE
  5
316
100
AcDbEntity
  8
0
100
AcDbLine
 62
9
  6
CONTINUOUS
 10
5.6625503226
 20
7.3862788722
 11
5.8500503226
 21
7.3862788722
  0
LINE
  5
317
100
AcDbEntity
  8
ALL_FEATURES
100
AcDbLine
 62
7
  6
CONTINUOUS
 10
5.6625503226
 20
7.6075288722
 11
5.6153003226
 21
7.6075288722
  0
LINE
  5
318
100
AcDbEntity
  8
0
100
AcDbLine
 62
7
  6
CONTINUOUS
 10
5.6625503226
 20
7.7012788722
 11
5.8500503226
 21
7.7012788722
  0
LINE
  5
319
100
AcDbEntity
  8
ALL_FEATURES
100
AcDbLine
 62
7
  6
CONTINUOUS
 10
5.6625503226
 20
7.7012788722
 11
5.8500503226
 21
7.7012788722
  0
ARC
  5
31A
100
AcDbEntity
  8
0
100
AcDbCircle
 62
7
  6
CONTINUOUS
 10
-3.873322001
 20
2.4967323652
 40
9.3988651436
100
AcDbArc
 50
1.2532715723
 51
1.3788682335
  0
ARC
  5
31B
100
AcDbEntity
  8
0
100
AcDbCircle
 62
7
  6
CONTINUOUS
 10
-3.6354200354
 20
3.7304582986
 40
9.1598165472
100
AcDbArc
 50
359.6792284557
 51
359.8058810402
  0
ARC
  5
31C
100
AcDbEntity
  8
0
100
AcDbCircle
 62
7
  6
CONTINUOUS
 10
-3.4980205855
 20
2.4907898322
 40
9.0237235254
100
AcDbArc
 50
1.1175562249
 51
1.2367282421
  0
ARC
  5
31D
100
AcDbEntity
  8
0
100
AcDbCircle
 62
7
  6
CONTINUOUS
 10
2.0727897073
 20
3.0009738493
 40
3.4515891349
100
AcDbArc
 50
359.5348625366
 51
359.8114947649
  0
ARC
  5
31E
100
AcDbEntity
  8
ALL_FEATURES
100
AcDbCircle
 62
7
  6
CONTINUOUS
 10
0.5139133246
 20
3.2450790301
 40
2.8280739127
100
AcDbArc
 50
359.2261931351
 51
0.0664048371
  0
ARC
  5
31F
100
AcDbEntity
  8
0
100
AcDbCircle
 62
7
  6
CONTINUOUS
 10
1.8033716963
 20
3.4223106205
 40
1.8616108307
100
AcDbArc
 50
355.477528996
 51
355.6608730832
  0
ARC
  5
320
100
AcDbEntity
  8
ALL_FEATURES
100
AcDbCircle
 62
9
  6
CONTINUOUS
 10
2.0997645863
 20
3.2127930489
 40
1.2854309814
100
AcDbArc
 50
332.3387157646
 51
336.0426490621
  0
ARC
  5
321
100
AcDbEntity
  8
ALL_FEATURES
100
AcDbCircle
 62
9
  6
CONTINUOUS
 10
2.1134542635
 20
3.2065901227
 40
1.2704019639
100
AcDbArc
 50
336.0475987937
 51
344.5158471455
  0
ARC
  5
322
100
AcDbEntity
  8
ALL_FEATURES
100
AcDbCircle
 62
7
  6
CONTINUOUS
 10
0.7891633246
 20
5.6075790301
 40
2.8280739128
100
AcDbArc
 50
359.2261931351
 51
0.0664048371
  0
ARC
  5
323
100
AcDbEntity
  8
0
100
AcDbCircle
 62
7
  6
CONTINUOUS
 10
2.0786216966
 20
5.7848106205
 40
1.8616108304
100
AcDbArc
 50
355.477528996
 51
355.6608730832
  0
ARC
  5
324
100
AcDbEntity
  8
ALL_FEATURES
100
AcDbCircle
 62
9
  6
CONTINUOUS
 10
2.3750145863
 20
5.5752930489
 40
1.2854309814
100
AcDbArc
 50
332.3387157646
 51
336.0426490621
  0
ARC
  5
325
100
AcDbEntity
  8
ALL_FEATURES
100
AcDbCircle
 62
9
  6
CONTINUOUS
 10
2.3887042635
 20
5.5690901227
 40
1.2704019639
100
AcDbArc
 50
336.0475987937
 51
344.5158471455
  0
ARC
  5
326
100
AcDbEntity
  8
0
100
AcDbCircle
 62
7
  6
CONTINUOUS
 10
3.677186749
 20
2.6612788722
 40
0.56325
100
AcDbArc
 50
30.2628931686
 51
65.8818266345
  0
ARC
  5
327
100
AcDbEntity
  8
ALL_FEATURES
100
AcDbCircle
 62
7
  6
CONTINUOUS
 10
3.2355719294
 20
2.5523009872
 40
0.0705865136
100
AcDbArc
 50
169.1077601029
 51
179.9957103586
  0
ARC
  5
328
100
AcDbEntity
  8
ALL_FEATURES
100
AcDbCircle
 62
7
  6
CONTINUOUS
 10
3.7439002214
 20
2.5523010723
 40
0.0705850869
100
AcDbArc
 50
0.0042206055
 51
10.9833044395
  0
ARC
  5
329
100
AcDbEntity
  8
ALL_FEATURES
100
AcDbCircle
 62
7
  6
CONTINUOUS
 10
3.7439540418
 20
2.5523039467
 40
0.070531705
100
AcDbArc
 50
10.9893420143
 51
30.3984647756
  0
ARC
  5
32A
100
AcDbEntity
  8
ALL_FEATURES
100
AcDbCircle
 62
7
  6
CONTINUOUS
 10
3.2355162015
 20
2.5523041345
 40
0.0705311953
100
AcDbArc
 50
149.601469217
 51
169.1017163214
  0
ARC
  5
32B
100
AcDbEntity
  8
ALL_FEATURES
100
AcDbCircle
 62
7
  6
CONTINUOUS
 10
3.7439755768
 20
2.5523018514
 40
0.070509319
100
AcDbArc
 50
285.3021165838
 51
0.0035920533
  0
ARC
  5
32C
100
AcDbEntity
  8
ALL_FEATURES
100
AcDbCircle
 62
7
  6
CONTINUOUS
 10
3.2354951478
 20
2.5523018514
 40
0.0705093189
100
AcDbArc
 50
179.9964078858
 51
254.6978829685
  0
ARC
  5
32D
100
AcDbEntity
  8
ALL_FEATURES
100
AcDbCircle
 62
7
  6
CONTINUOUS
 10
3.743985362
 20
2.5521695244
 40
0.0705
100
AcDbArc
 50
285.2958419053
 51
360.0
  0
ARC
  5
32E
100
AcDbEntity
  8
ALL_FEATURES
100
AcDbCircle
 62
7
  6
CONTINUOUS
 10
3.235485362
 20
2.5521695244
 40
0.0705
100
AcDbArc
 50
180.0
 51
254.7041580947
  0
ARC
  5
32F
100
AcDbEntity
  8
ALL_FEATURES
100
AcDbCircle
 62
9
  6
CONTINUOUS
 10
3.6807912805
 20
2.5843923612
 40
0.0681880369
100
AcDbArc
 50
8.345142698
 51
27.65208414
  0
ARC
  5
330
100
AcDbEntity
  8
ALL_FEATURES
100
AcDbCircle
 62
9
  6
CONTINUOUS
 10
3.2986550999
 20
2.5844001243
 40
0.0681628024
100
AcDbArc
 50
152.3429034899
 51
171.6552109385
  0
ARC
  5
331
100
AcDbEntity
  8
0
100
AcDbCircle
 62
7
  6
CONTINUOUS
 10
4.2039486121
 20
2.8704691206
 40
0.045
100
AcDbArc
 50
38.5742443677
 51
77.9052432775
  0
ARC
  5
332
100
AcDbEntity
  8
ALL_FEATURES
100
AcDbCircle
 62
9
  6
CONTINUOUS
 10
3.2991821902
 20
2.5833675468
 40
0.0387013166
100
AcDbArc
 50
180.1146094089
 51
180.6126190514
  0
ARC
  5
333
100
AcDbEntity
  8
ALL_FEATURES
100
AcDbCircle
 62
9
  6
CONTINUOUS
 10
3.2979420551
 20
2.5834961886
 40
0.0374640592
100
AcDbArc
 50
182.3922138925
 51
258.0527921147
  0
ARC
  5
334
100
AcDbEntity
  8
ALL_FEATURES
100
AcDbCircle
 62
9
  6
CONTINUOUS
 10
3.6815308595
 20
2.5834936097
 40
0.0374608979
100
AcDbArc
 50
281.9447465326
 51
359.9658228575
  0
ARC
  5
335
100
AcDbEntity
  8
ALL_FEATURES
100
AcDbCircle
 62
9
  6
CONTINUOUS
 10
3.2978060578
 20
2.5834652322
 40
0.0373250521
100
AcDbArc
 50
180.7850576656
 51
182.3534494395
  0
ARC
  5
336
100
AcDbEntity
  8
0
100
AcDbCircle
 62
7
  6
CONTINUOUS
 10
2.7301776522
 20
3.0204569548
 40
2.7952735926
100
AcDbArc
 50
0.7924229274
 51
1.105580717
  0
ARC
  5
337
100
AcDbEntity
  8
0
100
AcDbCircle
 62
9
  6
CONTINUOUS
 10
3.138035509
 20
3.2438271251
 40
0.4994523135
100
AcDbArc
 50
0.0649385857
 51
0.5085610454
  0
ARC
  5
338
100
AcDbEntity
  8
0
100
AcDbCircle
 62
7
  6
CONTINUOUS
 10
3.3198394988
 20
3.3086871553
 40
0.3408916946
100
AcDbArc
 50
355.7777889644
 51
355.949962119
  0
ARC
  5
339
100
AcDbEntity
  8
0
100
AcDbCircle
 62
7
  6
CONTINUOUS
 10
3.3698284653
 20
3.2850070859
 40
0.3054972027
100
AcDbArc
 50
359.2648140956
 51
359.4262583102
  0
ARC
  5
33A
100
AcDbEntity
  8
0
100
AcDbCircle
 62
7
  6
CONTINUOUS
 10
3.4493814104
 20
3.2995525667
 40
0.2110281304
100
AcDbArc
 50
355.9397906289
 51
356.2148250679
  0
ARC
  5
33B
100
AcDbEntity
  8
0
100
AcDbCircle
 62
7
  6
CONTINUOUS
 10
3.5370204799
 20
3.0458061767
 40
1.9882321552
100
AcDbArc
 50
359.8564526287
 51
0.2047522319
  0
ARC
  5
33C
100
AcDbEntity
  8
0
100
AcDbCircle
 62
7
  6
CONTINUOUS
 10
4.2155015607
 20
2.9753771467
 40
0.06
100
AcDbArc
 50
210.2628924365
 51
257.9052426455
  0
ARC
  5
33D
100
AcDbEntity
  8
0
100
AcDbCircle
 62
7
  6
CONTINUOUS
 10
3.6465429136
 20
3.2370318264
 40
0.1322199196
100
AcDbArc
 50
26.718290989
 51
30.4564073395
  0
ARC
  5
33E
100
AcDbEntity
  8
0
100
AcDbCircle
 62
7
  6
CONTINUOUS
 10
3.6824875227
 20
3.2012788722
 40
0.045
100
AcDbArc
 50
90.0
 51
173.8287668088
  0
ARC
  5
33F
100
AcDbEntity
  8
0
100
AcDbCircle
 62
9
  6
CONTINUOUS
 10
3.6787320785
 20
3.2405393811
 40
0.0436289813
100
AcDbArc
 50
126.079981015
 51
127.9399930472
  0
ARC
  5
340
100
AcDbEntity
  8
0
100
AcDbCircle
 62
7
  6
CONTINUOUS
 10
3.674767238
 20
3.2584009832
 40
0.0985828734
100
AcDbArc
 50
21.3709486212
 51
25.4416948137
  0
ARC
  5
341
100
AcDbEntity
  8
0
100
AcDbCircle
 62
7
  6
CONTINUOUS
 10
3.6776141265
 20
3.2597765081
 40
0.0954211547
100
AcDbArc
 50
25.4302088492
 51
26.6951879661
  0
ARC
  5
342
100
AcDbEntity
  8
0
100
AcDbCircle
 62
7
  6
CONTINUOUS
 10
3.6817497706
 20
3.2618600031
 40
0.0907903351
100
AcDbArc
 50
26.6929790402
 51
27.5554777673
  0
ARC
  5
343
100
AcDbEntity
  8
0
100
AcDbCircle
 62
7
  6
CONTINUOUS
 10
3.6867736224
 20
3.2645134055
 40
0.0851088939
100
AcDbArc
 50
27.5363998738
 51
29.7927950912
  0
ARC
  5
344
100
AcDbEntity
  8
0
100
AcDbCircle
 62
7
  6
CONTINUOUS
 10
3.6894515965
 20
3.2721393032
 40
0.0747501925
100
AcDbArc
 50
22.9505747985
 51
26.1999784391
  0
ARC
  5
345
100
AcDbEntity
  8
0
100
AcDbCircle
 62
7
  6
CONTINUOUS
 10
3.5943677682
 20
3.2901324372
 40
0.0657366591
100
AcDbArc
 50
356.7694858665
 51
357.4759912473
  0
ARC
  5
346
100
AcDbEntity
  8
0
100
AcDbCircle
 62
7
  6
CONTINUOUS
 10
3.5969822457
 20
3.2899869363
 40
0.0631181368
100
AcDbArc
 50
356.2786005088
 51
356.7676117844
  0
ARC
  5
347
100
AcDbEntity
  8
0
100
AcDbCircle
 62
7
  6
CONTINUOUS
 10
3.5992638392
 20
3.2898415581
 40
0.0608319185
100
AcDbArc
 50
356.0219541579
 51
356.2757605977
  0
ARC
  5
348
100
AcDbEntity
  8
0
100
AcDbCircle
 62
7
  6
CONTINUOUS
 10
3.6104653602
 20
3.290122616
 40
0.0496372022
100
AcDbArc
 50
1.4297172372
 51
2.9604149313
  0
ARC
  5
349
100
AcDbEntity
  8
0
100
AcDbCircle
 62
7
  6
CONTINUOUS
 10
3.6186566599
 20
3.2895208832
 40
0.0414480179
100
AcDbArc
 50
357.8116040555
 51
358.7708701339
  0
ARC
  5
34A
100
AcDbEntity
  8
0
100
AcDbCircle
 62
7
  6
CONTINUOUS
 10
3.6240768789
 20
3.2893234159
 40
0.036024213
100
AcDbArc
 50
356.6805743155
 51
357.7962556972
  0
ARC
  5
34B
100
AcDbEntity
  8
0
100
AcDbCircle
 62
7
  6
CONTINUOUS
 10
3.6789362335
 20
3.2827223493
 40
0.0334827964
100
AcDbArc
 50
218.0936009794
 51
221.8578480759
  0
ARC
  5
34C
100
AcDbEntity
  8
0
100
AcDbCircle
 62
7
  6
CONTINUOUS
 10
3.6899262306
 20
3.281213521
 40
0.030031172
100
AcDbArc
 50
170.2926622798
 51
171.6456999714
  0
ARC
  5
34D
100
AcDbEntity
  8
0
100
AcDbCircle
 62
7
  6
CONTINUOUS
 10
3.6868076548
 20
3.2816715369
 40
0.026879142
100
AcDbArc
 50
171.6457971875
 51
172.4405388401
  0
ARC
  5
34E
100
AcDbEntity
  8
0
100
AcDbCircle
 62
7
  6
CONTINUOUS
 10
3.6764848279
 20
3.2850329291
 40
0.0165006878
100
AcDbArc
 50
184.1695068754
 51
189.4836115851
  0
ARC
  5
34F
100
AcDbEntity
  8
0
100
AcDbCircle
 62
7
  6
CONTINUOUS
 10
3.7459116106
 20
3.2012788722
 40
0.045
100
AcDbArc
 50
23.8911271408
 51
90.0
  0
ARC
  5
350
100
AcDbEntity
  8
0
100
AcDbCircle
 62
7
  6
CONTINUOUS
 10
3.7862698471
 20
3.2546043226
 40
0.1349069826
100
AcDbArc
 50
170.157140124
 51
170.9605648285
  0
ARC
  5
351
100
AcDbEntity
  8
0
100
AcDbCircle
 62
7
  6
CONTINUOUS
 10
3.7708749409
 20
3.2590235165
 40
0.1187442436
100
AcDbArc
 50
172.2963156586
 51
172.9830594493
  0
ARC
  5
352
100
AcDbEntity
  8
0
100
AcDbCircle
 62
7
  6
CONTINUOUS
 10
3.7693469072
 20
3.2592273869
 40
0.1172026723
100
AcDbArc
 50
171.815470662
 51
172.2949456962
  0
ARC
  5
353
100
AcDbEntity
  8
0
100
AcDbCircle
 62
7
  6
CONTINUOUS
 10
3.7686760845
 20
3.2593230742
 40
0.1165250598
100
AcDbArc
 50
171.5690863231
 51
171.8150837989
  0
ARC
  5
354
100
AcDbEntity
  8
0
100
AcDbCircle
 62
7
  6
CONTINUOUS
 10
3.7368462276
 20
3.2630419601
 40
0.0847734021
100
AcDbArc
 50
171.3442477468
 51
171.5743689132
  0
ARC
  5
355
100
AcDbEntity
  8
0
100
AcDbCircle
 62
7
  6
CONTINUOUS
 10
3.709630637
 20
3.2527954925
 40
0.0788727105
100
AcDbArc
 50
110.5761668967
 51
112.5749713425
  0
ARC
  5
356
100
AcDbEntity
  8
0
100
AcDbCircle
 62
7
  6
CONTINUOUS
 10
3.7309320531
 20
3.2638803128
 40
0.0788002287
100
AcDbArc
 50
171.5472672879
 51
173.4425979612
  0
ARC
  5
357
100
AcDbEntity
  8
0
100
AcDbCircle
 62
7
  6
CONTINUOUS
 10
3.6922548963
 20
3.2676770781
 40
0.0787801766
100
AcDbArc
 50
29.7767429655
 51
32.1527377121
  0
ARC
  5
358
100
AcDbEntity
  8
0
100
AcDbCircle
 62
7
  6
CONTINUOUS
 10
3.7130104061
 20
3.2538853709
 40
0.0776212395
100
AcDbArc
 50
64.9209307805
 51
68.3487507196
  0
ARC
  5
359
100
AcDbEntity
  8
0
100
AcDbCircle
 62
7
  6
CONTINUOUS
 10
3.6954761078
 20
3.2696941323
 40
0.0749795627
100
AcDbArc
 50
32.157746485
 51
32.9919989743
  0
ARC
  5
35A
100
AcDbEntity
  8
0
100
AcDbCircle
 62
7
  6
CONTINUOUS
 10
3.7323815111
 20
3.2716588315
 40
0.0735687571
100
AcDbArc
 50
163.2024601504
 51
164.5360446721
  0
ARC
  5
35B
100
AcDbEntity
  8
0
100
AcDbCircle
 62
7
  6
CONTINUOUS
 10
3.7247878041
 20
3.2645434687
 40
0.0723281175
100
AcDbArc
 50
172.8630273232
 51
173.4121739789
  0
ARC
  5
35C
100
AcDbEntity
  8
0
100
AcDbCircle
 62
7
  6
CONTINUOUS
 10
3.6921372211
 20
3.2732990401
 40
0.0718249365
100
AcDbArc
 50
22.282868696
 51
22.9340543914
  0
ARC
  5
35D
100
AcDbEntity
  8
0
100
AcDbCircle
 62
7
  6
CONTINUOUS
 10
3.6981372276
 20
3.2714370099
 40
0.0717985236
100
AcDbArc
 50
32.98178872
 51
34.6310729054
  0
ARC
  5
35E
100
AcDbEntity
  8
ALL_FEATURES
100
AcDbCircle
 62
7
  6
CONTINUOUS
 10
3.7194402548
 20
3.2584808233
 40
0.0681294257
100
AcDbArc
 50
68.2169505807
 51
71.9004085062
  0
ARC
  5
35F
100
AcDbEntity
  8
ALL_FEATURES
100
AcDbCircle
 62
7
  6
CONTINUOUS
 10
3.702243714
 20
3.2592454128
 40
0.067312697
100
AcDbArc
 50
108.7237790258
 51
112.4232203891
  0
ARC
  5
360
100
AcDbEntity
  8
0
100
AcDbCircle
 62
7
  6
CONTINUOUS
 10
3.725228631
 20
3.2736039177
 40
0.0661562084
100
AcDbArc
 50
164.5078831442
 51
166.4903820012
  0
ARC
  5
361
100
AcDbEntity
  8
ALL_FEATURES
100
AcDbCircle
 62
7
  6
CONTINUOUS
 10
3.6999225076
 20
3.2649883391
 40
0.0611185885
100
AcDbArc
 50
112.4653187803
 51
113.927090308
  0
ARC
  5
362
100
AcDbEntity
  8
ALL_FEATURES
100
AcDbCircle
 62
7
  6
CONTINUOUS
 10
3.722556116
 20
3.2662016332
 40
0.0598036472
100
AcDbArc
 50
65.0447247559
 51
68.2440020866
  0
ARC
  5
363
100
AcDbEntity
  8
0
100
AcDbCircle
 62
7
  6
CONTINUOUS
 10
3.7185347863
 20
3.2752192018
 40
0.0592702337
100
AcDbArc
 50
166.4970045352
 51
167.1601980439
  0
ARC
  5
364
100
AcDbEntity
  8
0
100
AcDbCircle
 62
7
  6
CONTINUOUS
 10
3.7121391436
 20
3.285126273
 40
0.0514307667
100
AcDbArc
 50
134.3914762375
 51
136.1203508738
  0
ARC
  5
365
100
AcDbEntity
  8
0
100
AcDbCircle
 62
7
  6
CONTINUOUS
 10
3.7090833254
 20
3.2775409567
 40
0.0495394197
100
AcDbArc
 50
167.3491141244
 51
167.6460472557
  0
ARC
  5
366
100
AcDbEntity
  8
0
100
AcDbCircle
 62
7
  6
CONTINUOUS
 10
3.7062847371
 20
3.2781494386
 40
0.0466754493
100
AcDbArc
 50
167.6406870419
 51
168.2551866611
  0
ARC
  5
367
100
AcDbEntity
  8
0
100
AcDbCircle
 62
7
  6
CONTINUOUS
 10
3.6987353407
 20
3.2796754316
 40
0.0389735105
100
AcDbArc
 50
168.1924734269
 51
170.2475086216
  0
ARC
  5
368
100
AcDbEntity
  8
0
100
AcDbCircle
 62
7
  6
CONTINUOUS
 10
3.7521660755
 20
3.292576252
 40
0.0098194456
100
AcDbArc
 50
3.2388207274
 51
7.311327526
  0
ARC
  5
369
100
AcDbEntity
  8
0
100
AcDbCircle
 62
7
  6
CONTINUOUS
 10
3.7522630991
 20
3.2925831194
 40
0.009722189
100
AcDbArc
 50
359.9917210215
 51
3.2307186158
  0
ARC
  5
36A
100
AcDbEntity
  8
0
100
AcDbCircle
 62
7
  6
CONTINUOUS
 10
3.7174315168
 20
3.3929929516
 40
0.1184156365
100
AcDbArc
 50
266.8794682712
 51
273.0716334602
  0
ARC
  5
36B
100
AcDbEntity
  8
ALL_FEATURES
100
AcDbCircle
 62
7
  6
CONTINUOUS
 10
3.7045570443
 20
3.373094181
 40
0.0967489898
100
AcDbArc
 50
261.8787332132
 51
271.0934621445
  0
ARC
  5
36C
100
AcDbEntity
  8
ALL_FEATURES
100
AcDbCircle
 62
7
  6
CONTINUOUS
 10
3.7038605055
 20
3.3675791099
 40
0.0911903997
100
AcDbArc
 50
260.6184132375
 51
261.822465926
  0
ARC
  5
36D
100
AcDbEntity
  8
0
100
AcDbCircle
 62
7
  6
CONTINUOUS
 10
3.6108289206
 20
3.3278338354
 40
0.0850377709
100
AcDbArc
 50
302.6432525924
 51
303.3925025354
  0
ARC
  5
36E
100
AcDbEntity
  8
0
100
AcDbCircle
 62
7
  6
CONTINUOUS
 10
3.7242026526
 20
3.3643619393
 40
0.0840572007
100
AcDbArc
 50
283.6357288037
 51
287.630656647
  0
ARC
  5
36F
100
AcDbEntity
  8
ALL_FEATURES
100
AcDbCircle
 62
7
  6
CONTINUOUS
 10
3.6992366518
 20
3.3486143408
 40
0.0716503076
100
AcDbArc
 50
251.5786710497
 51
252.5037826097
  0
ARC
  5
370
100
AcDbEntity
  8
0
100
AcDbCircle
 62
7
  6
CONTINUOUS
 10
3.7336599611
 20
3.3389991276
 40
0.0569639765
100
AcDbArc
 50
293.0895837384
 51
296.8581312415
  0
ARC
  5
371
100
AcDbEntity
  8
0
100
AcDbCircle
 62
7
  6
CONTINUOUS
 10
3.7368166207
 20
3.3090451277
 40
0.0309480985
100
AcDbArc
 50
301.3876147778
 51
305.0543953374
  0
ARC
  5
372
100
AcDbEntity
  8
0
100
AcDbCircle
 62
7
  6
CONTINUOUS
 10
3.6944166399
 20
3.3011308078
 40
0.0287558621
100
AcDbArc
 50
121.5928349535
 51
125.4636168354
  0
ARC
  5
373
100
AcDbEntity
  8
ALL_FEATURES
100
AcDbCircle
 62
7
  6
CONTINUOUS
 10
3.7462285474
 20
3.3045057847
 40
0.0147024752
100
AcDbArc
 50
335.2923186265
 51
337.7422405894
  0
ARC
  5
374
100
AcDbEntity
  8
0
100
AcDbCircle
 62
7
  6
CONTINUOUS
 10
3.8239580078
 20
3.2200721669
 40
0.1815045142
100
AcDbArc
 50
157.3466907838
 51
157.8187383994
  0
ARC
  5
375
100
AcDbEntity
  8
0
100
AcDbCircle
 62
7
  6
CONTINUOUS
 10
3.8081046327
 20
3.2267409464
 40
0.1643056902
100
AcDbArc
 50
154.7393227102
 51
157.3635355596
  0
ARC
  5
376
100
AcDbEntity
  8
0
100
AcDbCircle
 62
7
  6
CONTINUOUS
 10
3.9382223851
 20
3.2200288722
 40
0.0562370231
100
AcDbArc
 50
180.0
 51
213.871340548
  0
ARC
  5
377
100
AcDbEntity
  8
ALL_FEATURES
100
AcDbCircle
 62
7
  6
CONTINUOUS
 10
3.9382223851
 20
3.2200288722
 40
0.0562370231
100
AcDbArc
 50
180.0
 51
213.871340548
  0
ARC
  5
378
100
AcDbEntity
  8
0
100
AcDbCircle
 62
7
  6
CONTINUOUS
 10
3.9226652003
 20
3.2095861696
 40
0.0375
100
AcDbArc
 50
213.8713405478
 51
245.8818266345
  0
ARC
  5
379
100
AcDbEntity
  8
0
100
AcDbCircle
 62
7
  6
CONTINUOUS
 10
3.814485362
 20
3.2316538722
 40
0.03
100
AcDbArc
 50
203.8911271408
 51
360.0
  0
ARC
  5
37A
100
AcDbEntity
  8
0
100
AcDbCircle
 62
9
  6
CONTINUOUS
 10
3.9831516361
 20
3.3396091668
 40
0.3041212913
100
AcDbArc
 50
180.0033539838
 51
182.6355497049
  0
ARC
  5
37B
100
AcDbEntity
  8
0
100
AcDbCircle
 62
7
  6
CONTINUOUS
 10
4.3041560178
 20
2.9372788722
 40
0.075
100
AcDbArc
 50
218.574242923
 51
270.0
  0
ARC
  5
37C
100
AcDbEntity
  8
0
100
AcDbCircle
 62
7
  6
CONTINUOUS
 10
5.3778042596
 20
2.8772139116
 40
0.0147637795
100
AcDbArc
 50
180.0000000785
 51
270.0
  0
ARC
  5
37D
100
AcDbEntity
  8
ALL_FEATURES
100
AcDbCircle
 62
9
  6
CONTINUOUS
 10
4.881003487
 20
3.2134216498
 40
1.2868718097
100
AcDbArc
 50
203.9594726885
 51
207.6593257401
  0
ARC
  5
37E
100
AcDbEntity
  8
ALL_FEATURES
100
AcDbCircle
 62
9
  6
CONTINUOUS
 10
4.8660163357
 20
3.206590079
 40
1.270401832
100
AcDbArc
 50
195.484152461
 51
203.9524019795
  0
ARC
  5
37F
100
AcDbEntity
  8
0
100
AcDbCircle
 62
7
  6
CONTINUOUS
 10
4.4587774073
 20
2.9812918946
 40
1.0655203243
100
AcDbArc
 50
359.2053071542
 51
359.5516202649
  0
ARC
  5
380
100
AcDbEntity
  8
0
100
AcDbCircle
 62
7
  6
CONTINUOUS
 10
4.6154150214
 20
3.0469810914
 40
0.9098498076
100
AcDbArc
 50
0.6334716162
 51
0.7641566713
  0
ARC
  5
381
100
AcDbEntity
  8
0
100
AcDbCircle
 62
7
  6
CONTINUOUS
 10
4.7462145136
 20
3.0493121053
 40
0.7790337404
100
AcDbArc
 50
0.2647124432
 51
0.4942649569
  0
ARC
  5
382
100
AcDbEntity
  8
0
100
AcDbCircle
 62
7
  6
CONTINUOUS
 10
4.9604616804
 20
3.0288399019
 40
0.5623823037
100
AcDbArc
 50
0.024728752
 51
0.1566274591
  0
ARC
  5
383
100
AcDbEntity
  8
0
100
AcDbCircle
 62
7
  6
CONTINUOUS
 10
4.9928941723
 20
3.0284106296
 40
0.5299561955
100
AcDbArc
 50
0.9577100567
 51
1.0891536395
  0
ARC
  5
384
100
AcDbEntity
  8
0
100
AcDbCircle
 62
7
  6
CONTINUOUS
 10
5.0119906381
 20
3.0290176439
 40
0.510853054
100
AcDbArc
 50
0.152491255
 51
0.763428456
  0
ARC
  5
385
100
AcDbEntity
  8
0
100
AcDbCircle
 62
7
  6
CONTINUOUS
 10
5.0315350856
 20
3.0516153095
 40
0.4937039416
100
AcDbArc
 50
0.512622599
 51
0.6296028329
  0
ARC
  5
386
100
AcDbEntity
  8
0
100
AcDbCircle
 62
7
  6
CONTINUOUS
 10
5.1143244254
 20
3.0303897605
 40
0.4085100686
100
AcDbArc
 50
0.762235599
 51
0.9648316111
  0
ARC
  5
387
100
AcDbEntity
  8
0
100
AcDbCircle
 62
7
  6
CONTINUOUS
 10
5.23169497
 20
3.0302575489
 40
0.2911852241
100
AcDbArc
 50
358.1773134325
 51
358.5153001958
  0
ARC
  5
388
100
AcDbEntity
  8
0
100
AcDbCircle
 62
7
  6
CONTINUOUS
 10
5.7488563385
 20
3.0386915655
 40
0.226490039
100
AcDbArc
 50
178.9439085583
 51
179.177541731
  0
ARC
  5
389
100
AcDbEntity
  8
0
100
AcDbCircle
 62
7
  6
CONTINUOUS
 10
5.3395288473
 20
3.0271779716
 40
0.1833044581
100
AcDbArc
 50
358.6042055088
 51
358.8640871703
  0
ARC
  5
38A
100
AcDbEntity
  8
0
100
AcDbCircle
 62
7
  6
CONTINUOUS
 10
5.4244951303
 20
3.0395084068
 40
0.0982046099
100
AcDbArc
 50
2.1684460169
 51
2.4286785258
  0
ARC
  5
38B
100
AcDbEntity
  8
0
100
AcDbCircle
 62
7
  6
CONTINUOUS
 10
2.6976577481
 20
3.7902115814
 40
2.8280567177
100
AcDbArc
 50
359.6301724881
 51
359.7737342044
  0
ARC
  5
38C
100
AcDbEntity
  8
ALL_FEATURES
100
AcDbCircle
 62
7
  6
CONTINUOUS
 10
3.379485362
 20
3.7401538722
 40
0.0375
100
AcDbArc
 50
90.0
 51
180.0000015488
  0
ARC
  5
38D
100
AcDbEntity
  8
ALL_FEATURES
100
AcDbCircle
 62
7
  6
CONTINUOUS
 10
3.4448717961
 20
3.8215288722
 40
0.03
100
AcDbArc
 50
90.0
 51
180.0
  0
ARC
  5
38E
100
AcDbEntity
  8
ALL_FEATURES
100
AcDbCircle
 62
7
  6
CONTINUOUS
 10
3.3853913295
 20
3.8076538722
 40
0.03
100
AcDbArc
 50
270.0
 51
349.4067254951
  0
ARC
  5
38F
100
AcDbEntity
  8
ALL_FEATURES
100
AcDbCircle
 62
7
  6
CONTINUOUS
 10
3.489735362
 20
3.4818160649
 40
1.0342871927
100
AcDbArc
 50
254.7041580947
 51
285.2958419053
  0
ARC
  5
390
100
AcDbEntity
  8
ALL_FEATURES
100
AcDbCircle
 62
9
  6
CONTINUOUS
 10
3.489735362
 20
3.4815709705
 40
1.0339294232
100
AcDbArc
 50
254.6987357919
 51
285.3012642081
  0
ARC
  5
391
100
AcDbEntity
  8
ALL_FEATURES
100
AcDbCircle
 62
9
  6
CONTINUOUS
 10
3.489735362
 20
3.4870295344
 40
1.0023758916
100
AcDbArc
 50
254.7914924627
 51
285.2085075373
  0
ARC
  5
392
100
AcDbEntity
  8
ALL_FEATURES
100
AcDbCircle
 62
9
  6
CONTINUOUS
 10
3.489735362
 20
3.476153318
 40
0.9805042824
100
AcDbArc
 50
257.8848829325
 51
282.1151170675
  0
ARC
  5
393
100
AcDbEntity
  8
ALL_FEATURES
100
AcDbCircle
 62
9
  6
CONTINUOUS
 10
3.489735362
 20
3.4805102451
 40
0.9554059212
100
AcDbArc
 50
257.9442535837
 51
282.0557464163
  0
ARC
  5
394
100
AcDbEntity
  8
ALL_FEATURES
100
AcDbCircle
 62
9
  6
CONTINUOUS
 10
3.489735362
 20
3.4765827734
 40
0.950914842
100
AcDbArc
 50
257.8864524681
 51
282.1135475319
  0
ARC
  5
395
100
AcDbEntity
  8
ALL_FEATURES
100
AcDbCircle
 62
9
  6
CONTINUOUS
 10
3.489735362
 20
3.479493523
 40
0.925703621
100
AcDbArc
 50
257.9462712599
 51
282.0537287401
  0
ARC
  5
396
100
AcDbEntity
  8
ALL_FEATURES
100
AcDbCircle
 62
7
  6
CONTINUOUS
 10
3.599985362
 20
3.7401538722
 40
0.0375
100
AcDbArc
 50
16.6403769358
 51
90.0
  0
ARC
  5
397
100
AcDbEntity
  8
ALL_FEATURES
100
AcDbCircle
 62
7
  6
CONTINUOUS
 10
3.814485362
 20
3.7334038722
 40
0.03
100
AcDbArc
 50
0.0
 51
156.1088728592
  0
ARC
  5
398
100
AcDbEntity
  8
0
100
AcDbCircle
 62
7
  6
CONTINUOUS
 10
3.814485362
 20
3.7334038722
 40
0.03
100
AcDbArc
 50
0.0
 51
156.1088728592
  0
ARC
  5
399
100
AcDbEntity
  8
0
100
AcDbCircle
 62
7
  6
CONTINUOUS
 10
3.5882293536
 20
3.7718526871
 40
1.9359752322
100
AcDbArc
 50
358.7662186566
 51
358.9811243094
  0
ARC
  5
39A
100
AcDbEntity
  8
0
100
AcDbCircle
 62
7
  6
CONTINUOUS
 10
3.6780628489
 20
3.783200384
 40
1.8476260654
100
AcDbArc
 50
359.2373892607
 51
359.5444500937
  0
ARC
  5
39B
100
AcDbEntity
  8
0
100
AcDbCircle
 62
7
  6
CONTINUOUS
 10
3.6790303452
 20
3.7637788722
 40
0.045
100
AcDbArc
 50
196.6403769358
 51
270.0
  0
ARC
  5
39C
100
AcDbEntity
  8
0
100
AcDbCircle
 62
7
  6
CONTINUOUS
 10
3.7459116106
 20
3.7637788722
 40
0.045
100
AcDbArc
 50
270.0
 51
336.1088728592
  0
ARC
  5
39D
100
AcDbEntity
  8
ALL_FEATURES
100
AcDbCircle
 62
7
  6
CONTINUOUS
 10
3.5345989279
 20
3.8215288722
 40
0.03
100
AcDbArc
 50
0.0
 51
90.0
  0
ARC
  5
39E
100
AcDbEntity
  8
ALL_FEATURES
100
AcDbCircle
 62
7
  6
CONTINUOUS
 10
3.5940793945
 20
3.8076538722
 40
0.03
100
AcDbArc
 50
190.5932745042
 51
270.0
  0
ARC
  5
39F
100
AcDbEntity
  8
0
100
AcDbCircle
 62
7
  6
CONTINUOUS
 10
4.064954969
 20
3.6672537446
 40
1.4596840424
100
AcDbArc
 50
358.6878113153
 51
358.9697188762
  0
ARC
  5
3A0
100
AcDbEntity
  8
0
100
AcDbCircle
 62
7
  6
CONTINUOUS
 10
4.193593517
 20
3.6737806274
 40
1.3305808739
100
AcDbArc
 50
358.8802824694
 51
359.0974671761
  0
ARC
  5
3A1
100
AcDbEntity
  8
0
100
AcDbCircle
 62
7
  6
CONTINUOUS
 10
4.0240345382
 20
3.7933767657
 40
1.5016828027
100
AcDbArc
 50
0.058530814
 51
0.3434289853
  0
ARC
  5
3A2
100
AcDbEntity
  8
0
100
AcDbCircle
 62
7
  6
CONTINUOUS
 10
4.1596756373
 20
3.7771111236
 40
1.3659749288
100
AcDbArc
 50
359.0924347029
 51
359.223908616
  0
ARC
  5
3A3
100
AcDbEntity
  8
0
100
AcDbCircle
 62
7
  6
CONTINUOUS
 10
3.9382223851
 20
3.7450288722
 40
0.0562370231
100
AcDbArc
 50
146.128659452
 51
180.0
  0
ARC
  5
3A4
100
AcDbEntity
  8
ALL_FEATURES
100
AcDbCircle
 62
7
  6
CONTINUOUS
 10
3.9382223851
 20
3.7450288722
 40
0.0562370231
100
AcDbArc
 50
146.128659452
 51
180.0
  0
ARC
  5
3A5
100
AcDbEntity
  8
0
100
AcDbCircle
 62
7
  6
CONTINUOUS
 10
3.9226652003
 20
3.7554715747
 40
0.0375
100
AcDbArc
 50
114.1181733657
 51
146.1286594522
  0
ARC
  5
3A6
100
AcDbEntity
  8
0
100
AcDbCircle
 62
7
  6
CONTINUOUS
 10
3.677186749
 20
4.3037788722
 40
0.56325
100
AcDbArc
 50
294.1181733655
 51
329.7371068314
  0
ARC
  5
3A7
100
AcDbEntity
  8
0
100
AcDbCircle
 62
7
  6
CONTINUOUS
 10
4.2155015607
 20
3.9896805977
 40
0.06
100
AcDbArc
 50
102.0947573545
 51
149.7371075635
  0
ARC
  5
3A8
100
AcDbEntity
  8
0
100
AcDbCircle
 62
7
  6
CONTINUOUS
 10
4.2039486121
 20
4.0945886238
 40
0.045
100
AcDbArc
 50
282.0947567225
 51
321.4257556323
  0
ARC
  5
3A9
100
AcDbEntity
  8
0
100
AcDbCircle
 62
7
  6
CONTINUOUS
 10
4.3440830942
 20
3.7654312278
 40
1.1796141305
100
AcDbArc
 50
358.7816328189
 51
358.9505486232
  0
ARC
  5
3AA
100
AcDbEntity
  8
0
100
AcDbCircle
 62
7
  6
CONTINUOUS
 10
4.4433721074
 20
3.7856132258
 40
1.0821705938
100
AcDbArc
 50
359.1021050954
 51
359.9595559291
  0
ARC
  5
3AB
100
AcDbEntity
  8
0
100
AcDbCircle
 62
7
  6
CONTINUOUS
 10
4.5352170795
 20
3.7518648101
 40
0.9887767611
100
AcDbArc
 50
358.6202509472
 51
358.7426238395
  0
ARC
  5
3AC
100
AcDbEntity
  8
0
100
AcDbCircle
 62
7
  6
CONTINUOUS
 10
4.5411842912
 20
3.7868844702
 40
0.9843602442
100
AcDbArc
 50
359.8815429615
 51
0.3452843308
  0
ARC
  5
3AD
100
AcDbEntity
  8
0
100
AcDbCircle
 62
7
  6
CONTINUOUS
 10
4.54469428
 20
3.7561810174
 40
0.9793767654
100
AcDbArc
 50
0.8938818151
 51
1.0995535687
  0
ARC
  5
3AE
100
AcDbEntity
  8
0
100
AcDbCircle
 62
7
  6
CONTINUOUS
 10
4.5510556702
 20
3.7707512537
 40
0.9745432716
100
AcDbArc
 50
358.6722731138
 51
359.1018338827
  0
ARC
  5
3AF
100
AcDbEntity
  8
0
100
AcDbCircle
 62
7
  6
CONTINUOUS
 10
4.5741315945
 20
3.655863514
 40
0.950380146
100
AcDbArc
 50
358.4792521838
 51
358.6713585289
  0
ARC
  5
3B0
100
AcDbEntity
  8
0
100
AcDbCircle
 62
7
  6
CONTINUOUS
 10
4.5992634746
 20
3.7511317499
 40
0.924732523
100
AcDbArc
 50
358.2751954922
 51
358.4500718731
  0
ARC
  5
3B1
100
AcDbEntity
  8
0
100
AcDbCircle
 62
7
  6
CONTINUOUS
 10
4.7138692488
 20
3.6855301217
 40
0.8089723398
100
AcDbArc
 50
359.3570894206
 51
359.9737259379
  0
ARC
  5
3B2
100
AcDbEntity
  8
0
100
AcDbCircle
 62
7
  6
CONTINUOUS
 10
4.7656075404
 20
3.7563366996
 40
0.757991618
100
AcDbArc
 50
358.558113752
 51
358.7914316421
  0
ARC
  5
3B3
100
AcDbEntity
  8
0
100
AcDbCircle
 62
7
  6
CONTINUOUS
 10
4.7869747387
 20
3.7805372279
 40
0.7385306747
100
AcDbArc
 50
358.9359906756
 51
359.0781265635
  0
ARC
  5
3B4
100
AcDbEntity
  8
0
100
AcDbCircle
 62
7
  6
CONTINUOUS
 10
4.8360375418
 20
3.7446591341
 40
0.6878700147
100
AcDbArc
 50
358.4555668837
 51
358.616934168
  0
ARC
  5
3B5
100
AcDbEntity
  8
0
100
AcDbCircle
 62
7
  6
CONTINUOUS
 10
4.8440118218
 20
3.6602248296
 40
0.6800223906
100
AcDbArc
 50
358.2597576187
 51
358.9513143706
  0
ARC
  5
3B6
100
AcDbEntity
  8
0
100
AcDbCircle
 62
7
  6
CONTINUOUS
 10
4.8588576452
 20
3.6852802284
 40
0.663983938
100
AcDbArc
 50
359.9895521066
 51
0.1157108684
  0
ARC
  5
3B7
100
AcDbEntity
  8
0
100
AcDbCircle
 62
7
  6
CONTINUOUS
 10
4.8809625194
 20
3.7787610995
 40
0.644526119
100
AcDbArc
 50
358.7824268245
 51
358.938704282
  0
ARC
  5
3B8
100
AcDbEntity
  8
0
100
AcDbCircle
 62
7
  6
CONTINUOUS
 10
4.8975939258
 20
3.7422003074
 40
0.6262684133
100
AcDbArc
 50
358.0411235409
 51
358.270434132
  0
ARC
  5
3B9
100
AcDbEntity
  8
0
100
AcDbCircle
 62
7
  6
CONTINUOUS
 10
4.9111417727
 20
3.6468650601
 40
0.6132498621
100
AcDbArc
 50
357.9648414256
 51
358.4840536751
  0
ARC
  5
3BA
100
AcDbEntity
  8
0
100
AcDbCircle
 62
7
  6
CONTINUOUS
 10
5.013687033
 20
3.775903759
 40
0.5117708583
100
AcDbArc
 50
358.6067462735
 51
358.7865047056
  0
ARC
  5
3BB
100
AcDbEntity
  8
0
100
AcDbCircle
 62
7
  6
CONTINUOUS
 10
5.0469485769
 20
3.7895913814
 40
0.4785889512
100
AcDbArc
 50
0.3861119595
 51
0.9075604876
  0
ARC
  5
3BC
100
AcDbEntity
  8
0
100
AcDbCircle
 62
7
  6
CONTINUOUS
 10
5.0801525305
 20
3.7482775391
 40
0.4433434549
100
AcDbArc
 50
358.2290963152
 51
358.5764278844
  0
ARC
  5
3BD
100
AcDbEntity
  8
0
100
AcDbCircle
 62
7
  6
CONTINUOUS
 10
5.1432522911
 20
3.7727109214
 40
0.3821662752
100
AcDbArc
 50
358.3947600444
 51
358.6129805971
  0
ARC
  5
3BE
100
AcDbEntity
  8
0
100
AcDbCircle
 62
7
  6
CONTINUOUS
 10
5.1540867404
 20
3.6860837199
 40
0.3687538803
100
AcDbArc
 50
0.0835067677
 51
0.4816116507
  0
ARC
  5
3BF
100
AcDbEntity
  8
0
100
AcDbCircle
 62
7
  6
CONTINUOUS
 10
5.1812581753
 20
3.6375106099
 40
0.3429717272
100
AcDbArc
 50
357.5402136305
 51
357.9240751348
  0
ARC
  5
3C0
100
AcDbEntity
  8
0
100
AcDbCircle
 62
7
  6
CONTINUOUS
 10
5.2127470524
 20
3.6490138843
 40
0.3111167721
100
AcDbArc
 50
357.6811283137
 51
358.2612154859
  0
ARC
  5
3C1
100
AcDbEntity
  8
0
100
AcDbCircle
 62
7
  6
CONTINUOUS
 10
5.2567503836
 20
3.7927462299
 40
0.2687635463
100
AcDbArc
 50
0.943514194
 51
1.3386924342
  0
ARC
  5
3C2
100
AcDbEntity
  8
0
100
AcDbCircle
 62
7
  6
CONTINUOUS
 10
5.2711326245
 20
3.7422687847
 40
0.2522689081
100
AcDbArc
 50
357.739175447
 51
358.2527152782
  0
ARC
  5
3C3
100
AcDbEntity
  8
0
100
AcDbCircle
 62
7
  6
CONTINUOUS
 10
5.7632228664
 20
3.724801309
 40
0.2407207034
100
AcDbArc
 50
181.5296041244
 51
181.8509558081
  0
ARC
  5
3C4
100
AcDbEntity
  8
0
100
AcDbCircle
 62
7
  6
CONTINUOUS
 10
5.7374622115
 20
3.7706423337
 40
0.2145460073
100
AcDbArc
 50
177.4698913985
 51
178.0335214589
  0
ARC
  5
3C5
100
AcDbEntity
  8
0
100
AcDbCircle
 62
7
  6
CONTINUOUS
 10
5.3263039017
 20
3.8077310539
 40
0.1993112822
100
AcDbArc
 50
1.5069669803
 51
1.954485564
  0
ARC
  5
3C6
100
AcDbEntity
  8
0
100
AcDbCircle
 62
7
  6
CONTINUOUS
 10
5.678755061
 20
3.7220236024
 40
0.1562072591
100
AcDbArc
 50
181.8333583944
 51
182.2602625456
  0
ARC
  5
3C7
100
AcDbEntity
  8
0
100
AcDbCircle
 62
7
  6
CONTINUOUS
 10
5.6348224253
 20
3.7916547335
 40
0.1117917539
100
AcDbArc
 50
176.484444764
 51
177.1832900559
  0
ARC
  5
3C8
100
AcDbEntity
  8
0
100
AcDbCircle
 62
7
  6
CONTINUOUS
 10
4.3041560178
 20
4.0277788722
 40
0.075
100
AcDbArc
 50
90.0
 51
141.425757077
  0
ARC
  5
3C9
100
AcDbEntity
  8
0
100
AcDbCircle
 62
7
  6
CONTINUOUS
 10
5.3778042596
 20
4.0878438328
 40
0.0147637795
100
AcDbArc
 50
90.0
 51
179.9999999215
  0
ARC
  5
3CA
100
AcDbEntity
  8
0
100
AcDbCircle
 62
7
  6
CONTINUOUS
 10
4.432110362
 20
4.2002788722
 40
0.0075
100
AcDbArc
 50
90.0
 51
180.0
  0
ARC
  5
3CB
100
AcDbEntity
  8
0
100
AcDbCircle
 62
7
  6
CONTINUOUS
 10
4.705860362
 20
4.2002788722
 40
0.0075
100
AcDbArc
 50
0.0
 51
90.0
  0
ARC
  5
3CC
100
AcDbEntity
  8
0
100
AcDbCircle
 62
7
  6
CONTINUOUS
 10
8.9506354586
 20
3.0404685824
 40
3.428353156
100
AcDbArc
 50
180.7751214644
 51
180.9532452379
  0
ARC
  5
3CD
100
AcDbEntity
  8
0
100
AcDbCircle
 62
7
  6
CONTINUOUS
 10
8.2105493053
 20
3.032161193
 40
2.6882184716
100
AcDbArc
 50
180.2801934578
 51
180.4843617418
  0
ARC
  5
3CE
100
AcDbEntity
  8
0
100
AcDbCircle
 62
7
  6
CONTINUOUS
 10
7.7629440759
 20
3.0168052551
 40
2.2404255794
100
AcDbArc
 50
181.2210653429
 51
181.3351028445
  0
ARC
  5
3CF
100
AcDbEntity
  8
0
100
AcDbCircle
 62
7
  6
CONTINUOUS
 10
7.1839207594
 20
3.0305224001
 40
1.6615864705
100
AcDbArc
 50
179.8012562921
 51
180.0349539029
  0
ARC
  5
3D0
100
AcDbEntity
  8
0
100
AcDbCircle
 62
7
  6
CONTINUOUS
 10
7.1606051726
 20
3.0185453183
 40
1.6380576784
100
AcDbArc
 50
181.0691526834
 51
181.4880361511
  0
ARC
  5
3D1
100
AcDbEntity
  8
0
100
AcDbCircle
 62
7
  6
CONTINUOUS
 10
7.1091110121
 20
3.0185133411
 40
1.5865713657
100
AcDbArc
 50
180.7314885105
 51
181.0086580104
  0
ARC
  5
3D2
100
AcDbEntity
  8
0
100
AcDbCircle
 62
7
  6
CONTINUOUS
 10
6.5568454033
 20
2.9845675071
 40
1.0338917855
100
AcDbArc
 50
181.7643761861
 51
181.9506557129
  0
ARC
  5
3D3
100
AcDbEntity
  8
0
100
AcDbCircle
 62
7
  6
CONTINUOUS
 10
6.4952822625
 20
3.0118304376
 40
0.9727058582
100
AcDbArc
 50
180.1057047958
 51
180.6503780738
  0
ARC
  5
3D4
100
AcDbEntity
  8
0
100
AcDbCircle
 62
7
  6
CONTINUOUS
 10
6.4787015645
 20
3.0012711911
 40
0.9559355521
100
AcDbArc
 50
181.514379287
 51
181.9009599032
  0
ARC
  5
3D5
100
AcDbEntity
  8
0
100
AcDbCircle
 62
7
  6
CONTINUOUS
 10
6.334137939
 20
2.9769088328
 40
0.8110526888
100
AcDbArc
 50
181.9454602917
 51
182.1641525274
  0
ARC
  5
3D6
100
AcDbEntity
  8
0
100
AcDbCircle
 62
7
  6
CONTINUOUS
 10
6.1870874376
 20
2.9918060629
 40
0.6641679699
100
AcDbArc
 50
181.919376365
 51
182.16238198
  0
ARC
  5
3D7
100
AcDbEntity
  8
0
100
AcDbCircle
 62
7
  6
CONTINUOUS
 10
6.0973857966
 20
2.9678703074
 40
0.5741281016
100
AcDbArc
 50
182.1550011624
 51
182.4008977503
  0
ARC
  5
3D8
100
AcDbEntity
  8
0
100
AcDbCircle
 62
7
  6
CONTINUOUS
 10
5.9805090021
 20
3.0113145716
 40
0.4579327276
100
AcDbArc
 50
179.5321606532
 51
180.159985879
  0
ARC
  5
3D9
100
AcDbEntity
  8
0
100
AcDbCircle
 62
7
  6
CONTINUOUS
 10
8.9146134144
 20
3.6617586618
 40
3.392291295
100
AcDbArc
 50
179.883905063
 51
180.0014351996
  0
ARC
  5
3DA
100
AcDbEntity
  8
0
100
AcDbCircle
 62
7
  6
CONTINUOUS
 10
7.9292419931
 20
3.7424388375
 40
2.4068458458
100
AcDbArc
 50
179.5268810611
 51
179.7921141034
  0
ARC
  5
3DB
100
AcDbEntity
  8
0
100
AcDbCircle
 62
7
  6
CONTINUOUS
 10
7.8881955865
 20
3.7515185103
 40
2.3642443481
100
AcDbArc
 50
178.7243442077
 51
178.9252218302
  0
ARC
  5
3DC
100
AcDbEntity
  8
0
100
AcDbCircle
 62
7
  6
CONTINUOUS
 10
7.7203695237
 20
3.6610839861
 40
2.1980425922
100
AcDbArc
 50
180.1172249841
 51
180.365713467
  0
ARC
  5
3DD
100
AcDbEntity
  8
0
100
AcDbCircle
 62
7
  6
CONTINUOUS
 10
7.5523933675
 20
3.665060608
 40
2.0300670215
100
AcDbArc
 50
179.5533258115
 51
179.8503255205
  0
ARC
  5
3DE
100
AcDbEntity
  8
0
100
AcDbCircle
 62
7
  6
CONTINUOUS
 10
7.0494043984
 20
3.6565202322
 40
1.5270620309
100
AcDbArc
 50
180.3551708743
 51
180.6833990849
  0
ARC
  5
3DF
100
AcDbEntity
  8
0
100
AcDbCircle
 62
7
  6
CONTINUOUS
 10
7.0284035495
 20
3.7539871659
 40
1.5059266942
100
AcDbArc
 50
178.8814680796
 51
178.9979935684
  0
ARC
  5
3E0
100
AcDbEntity
  8
0
100
AcDbCircle
 62
7
  6
CONTINUOUS
 10
6.8877735359
 20
3.7433005688
 40
1.3652101678
100
AcDbArc
 50
179.4488707914
 51
179.6718860292
  0
ARC
  5
3E1
100
AcDbEntity
  8
0
100
AcDbCircle
 62
7
  6
CONTINUOUS
 10
6.8057846058
 20
3.744119008
 40
1.2832171585
100
AcDbArc
 50
179.2183943959
 51
179.4501995978
  0
ARC
  5
3E2
100
AcDbEntity
  8
0
100
AcDbCircle
 62
7
  6
CONTINUOUS
 10
6.7363256617
 20
3.7450406233
 40
1.2137521056
100
AcDbArc
 50
179.0993788286
 51
179.2171683928
  0
ARC
  5
3E3
100
AcDbEntity
  8
0
100
AcDbCircle
 62
7
  6
CONTINUOUS
 10
6.7076634808
 20
3.7602099598
 40
1.1851262689
100
AcDbArc
 50
178.7412678705
 51
178.8795583002
  0
ARC
  5
3E4
100
AcDbEntity
  8
0
100
AcDbCircle
 62
7
  6
CONTINUOUS
 10
6.6968156358
 20
3.7456985016
 40
1.1742366207
100
AcDbArc
 50
178.8651426288
 51
179.1011730977
  0
ARC
  5
3E5
100
AcDbEntity
  8
0
100
AcDbCircle
 62
7
  6
CONTINUOUS
 10
6.6222366836
 20
3.6514108569
 40
1.0998637608
100
AcDbArc
 50
180.6826665291
 51
180.8890384251
  0
ARC
  5
3E6
100
AcDbEntity
  8
0
100
AcDbCircle
 62
7
  6
CONTINUOUS
 10
6.5605084581
 20
3.6510305437
 40
1.0379484977
100
AcDbArc
 50
179.9226441102
 51
180.0501330687
  0
ARC
  5
3E7
100
AcDbEntity
  8
0
100
AcDbCircle
 62
7
  6
CONTINUOUS
 10
6.5589296448
 20
3.6510391982
 40
1.0363696742
100
AcDbArc
 50
179.7967240999
 51
179.9230047318
  0
ARC
  5
3E8
100
AcDbEntity
  8
0
100
AcDbCircle
 62
7
  6
CONTINUOUS
 10
6.5529193635
 20
3.7430926282
 40
1.0303575674
100
AcDbArc
 50
179.9645731614
 51
180.170839781
  0
ARC
  5
3E9
100
AcDbEntity
  8
0
100
AcDbCircle
 62
7
  6
CONTINUOUS
 10
6.5198684836
 20
3.6511659123
 40
0.9973083093
100
AcDbArc
 50
179.2843252021
 51
179.7960422224
  0
ARC
  5
3EA
100
AcDbEntity
  8
0
100
AcDbCircle
 62
7
  6
CONTINUOUS
 10
6.4565910739
 20
3.7505123908
 40
0.9339638385
100
AcDbArc
 50
178.7036130309
 51
178.8685246059
  0
ARC
  5
3EB
100
AcDbEntity
  8
0
100
AcDbCircle
 62
7
  6
CONTINUOUS
 10
6.411027546
 20
3.7666862953
 40
0.8884196488
100
AcDbArc
 50
178.5673967721
 51
178.7385912048
  0
ARC
  5
3EC
100
AcDbEntity
  8
0
100
AcDbCircle
 62
7
  6
CONTINUOUS
 10
6.3284932985
 20
3.785809636
 40
0.8041653315
100
AcDbArc
 50
178.488859121
 51
178.6929712468
  0
ARC
  5
3ED
100
AcDbEntity
  8
0
100
AcDbCircle
 62
7
  6
CONTINUOUS
 10
6.204408055
 20
3.7331718766
 40
0.6819884003
100
AcDbArc
 50
180.3991702011
 51
180.9437155504
  0
ARC
  5
3EE
100
AcDbEntity
  8
0
100
AcDbCircle
 62
7
  6
CONTINUOUS
 10
6.1774726103
 20
3.7724722226
 40
0.6547930646
100
AcDbArc
 50
178.3481235127
 51
178.562584418
  0
ARC
  5
3EF
100
AcDbEntity
  8
0
100
AcDbCircle
 62
7
  6
CONTINUOUS
 10
6.0509990258
 20
3.7925862071
 40
0.5265893947
100
AcDbArc
 50
178.1178816442
 51
178.3385946062
  0
ARC
  5
3F0
100
AcDbEntity
  8
0
100
AcDbCircle
 62
7
  6
CONTINUOUS
 10
5.9960456955
 20
3.7776695591
 40
0.4732917257
100
AcDbArc
 50
178.0751267616
 51
178.3439154406
  0
ARC
  5
3F1
100
AcDbEntity
  8
0
100
AcDbCircle
 62
7
  6
CONTINUOUS
 10
5.9886907342
 20
3.7620120415
 40
0.4659227217
100
AcDbArc
 50
178.0329857575
 51
178.7198480087
  0
ARC
  5
3F2
100
AcDbEntity
  8
0
100
AcDbCircle
 62
7
  6
CONTINUOUS
 10
5.9226933528
 20
3.7963266907
 40
0.3982292122
100
AcDbArc
 50
178.3413215937
 51
178.4617980353
  0
ARC
  5
3F3
100
AcDbEntity
  8
0
100
AcDbCircle
 62
7
  6
CONTINUOUS
 10
5.8567465273
 20
3.7272637529
 40
0.3342767716
100
AcDbArc
 50
180.9126458418
 51
181.5236216064
  0
ARC
  5
3F4
100
AcDbEntity
  8
0
100
AcDbCircle
 62
7
  6
CONTINUOUS
 10
5.8550881979
 20
3.6344312037
 40
0.3325151788
100
AcDbArc
 50
181.7388519879
 51
182.1668745761
  0
ARC
  5
3F5
100
AcDbEntity
  8
ALL_FEATURES
100
AcDbCircle
 62
7
  6
CONTINUOUS
 10
3.5108219294
 20
4.9148009872
 40
0.0705865136
100
AcDbArc
 50
169.1077601029
 51
179.9957103586
  0
ARC
  5
3F6
100
AcDbEntity
  8
ALL_FEATURES
100
AcDbCircle
 62
7
  6
CONTINUOUS
 10
3.5107662015
 20
4.9148041345
 40
0.0705311953
100
AcDbArc
 50
149.601469217
 51
169.1017163214
  0
ARC
  5
3F7
100
AcDbEntity
  8
ALL_FEATURES
100
AcDbCircle
 62
7
  6
CONTINUOUS
 10
3.5107451478
 20
4.9148018514
 40
0.0705093189
100
AcDbArc
 50
179.9964078858
 51
254.6978829685
  0
ARC
  5
3F8
100
AcDbEntity
  8
ALL_FEATURES
100
AcDbCircle
 62
7
  6
CONTINUOUS
 10
3.510735362
 20
4.9146695244
 40
0.0705
100
AcDbArc
 50
180.0
 51
254.7041580947
  0
ARC
  5
3F9
100
AcDbEntity
  8
ALL_FEATURES
100
AcDbCircle
 62
9
  6
CONTINUOUS
 10
3.5739050999
 20
4.9469001243
 40
0.0681628024
100
AcDbArc
 50
152.3429034899
 51
171.6552109385
  0
ARC
  5
3FA
100
AcDbEntity
  8
ALL_FEATURES
100
AcDbCircle
 62
9
  6
CONTINUOUS
 10
3.5744321902
 20
4.9458675468
 40
0.0387013166
100
AcDbArc
 50
180.1146094088
 51
180.6126190518
  0
ARC
  5
3FB
100
AcDbEntity
  8
ALL_FEATURES
100
AcDbCircle
 62
9
  6
CONTINUOUS
 10
3.5731920551
 20
4.9459961886
 40
0.0374640592
100
AcDbArc
 50
182.3922138925
 51
258.0527921147
  0
ARC
  5
3FC
100
AcDbEntity
  8
ALL_FEATURES
100
AcDbCircle
 62
9
  6
CONTINUOUS
 10
3.5730560578
 20
4.9459652322
 40
0.0373250521
100
AcDbArc
 50
180.7850576656
 51
182.3534494395
  0
ARC
  5
3FD
100
AcDbEntity
  8
0
100
AcDbCircle
 62
9
  6
CONTINUOUS
 10
3.4132855088
 20
5.6063271251
 40
0.4994523136
100
AcDbArc
 50
0.0649385857
 51
0.5085610454
  0
ARC
  5
3FE
100
AcDbEntity
  8
0
100
AcDbCircle
 62
7
  6
CONTINUOUS
 10
3.5950894984
 20
5.6711871553
 40
0.340891695
100
AcDbArc
 50
355.7777889644
 51
355.9499621188
  0
ARC
  5
3FF
100
AcDbEntity
  8
0
100
AcDbCircle
 62
7
  6
CONTINUOUS
 10
3.6450784653
 20
5.6475070859
 40
0.3054972027
100
AcDbArc
 50
359.2648140956
 51
359.4262583102
  0
ARC
  5
400
100
AcDbEntity
  8
0
100
AcDbCircle
 62
7
  6
CONTINUOUS
 10
3.7246314104
 20
5.6620525667
 40
0.2110281304
100
AcDbArc
 50
355.9397906288
 51
356.2148250679
  0
ARC
  5
401
100
AcDbEntity
  8
0
100
AcDbCircle
 62
7
  6
CONTINUOUS
 10
3.953235362
 20
5.0575197651
 40
0.56325
100
AcDbArc
 50
36.1922176694
 51
66.7691079294
  0
ARC
  5
402
100
AcDbEntity
  8
ALL_FEATURES
100
AcDbCircle
 62
7
  6
CONTINUOUS
 10
4.0191502214
 20
4.9148010723
 40
0.0705850869
100
AcDbArc
 50
0.0042206055
 51
10.9833044395
  0
ARC
  5
403
100
AcDbEntity
  8
ALL_FEATURES
100
AcDbCircle
 62
7
  6
CONTINUOUS
 10
4.0192040418
 20
4.9148039467
 40
0.070531705
100
AcDbArc
 50
10.9893420143
 51
30.3984647756
  0
ARC
  5
404
100
AcDbEntity
  8
ALL_FEATURES
100
AcDbCircle
 62
7
  6
CONTINUOUS
 10
4.0192255768
 20
4.9148018514
 40
0.070509319
100
AcDbArc
 50
285.3021165838
 51
0.0035920533
  0
ARC
  5
405
100
AcDbEntity
  8
ALL_FEATURES
100
AcDbCircle
 62
7
  6
CONTINUOUS
 10
4.019235362
 20
4.9146695244
 40
0.0705
100
AcDbArc
 50
285.2958419053
 51
360.0
  0
ARC
  5
406
100
AcDbEntity
  8
ALL_FEATURES
100
AcDbCircle
 62
9
  6
CONTINUOUS
 10
3.9560412805
 20
4.9468923612
 40
0.0681880369
100
AcDbArc
 50
8.345142698
 51
27.65208414
  0
ARC
  5
407
100
AcDbEntity
  8
ALL_FEATURES
100
AcDbCircle
 62
9
  6
CONTINUOUS
 10
3.9567808595
 20
4.9459936097
 40
0.0374608979
100
AcDbArc
 50
281.9447465326
 51
359.9658228575
  0
ARC
  5
408
100
AcDbEntity
  8
0
100
AcDbCircle
 62
7
  6
CONTINUOUS
 10
3.9217929136
 20
5.5995318264
 40
0.1322199196
100
AcDbArc
 50
26.718290989
 51
30.4564073395
  0
ARC
  5
409
100
AcDbEntity
  8
0
100
AcDbCircle
 62
7
  6
CONTINUOUS
 10
3.984880637
 20
5.6152954925
 40
0.0788727105
100
AcDbArc
 50
110.5761668968
 51
112.5749713424
  0
ARC
  5
40A
100
AcDbEntity
  8
0
100
AcDbCircle
 62
7
  6
CONTINUOUS
 10
3.9882604061
 20
5.6163853709
 40
0.0776212395
100
AcDbArc
 50
64.9209307805
 51
68.3487507197
  0
ARC
  5
40B
100
AcDbEntity
  8
0
100
AcDbCircle
 62
7
  6
CONTINUOUS
 10
3.9577375227
 20
5.5637788722
 40
0.045
100
AcDbArc
 50
90.0
 51
173.8287668088
  0
ARC
  5
40C
100
AcDbEntity
  8
0
100
AcDbCircle
 62
7
  6
CONTINUOUS
 10
4.0211616106
 20
5.5637788722
 40
0.045
100
AcDbArc
 50
23.8911271408
 51
90.0
  0
ARC
  5
40D
100
AcDbEntity
  8
0
100
AcDbCircle
 62
9
  6
CONTINUOUS
 10
3.9539820785
 20
5.6030393811
 40
0.0436289813
100
AcDbArc
 50
126.0799810148
 51
127.9399930474
  0
ARC
  5
40E
100
AcDbEntity
  8
0
100
AcDbCircle
 62
7
  6
CONTINUOUS
 10
3.950017238
 20
5.6209009832
 40
0.0985828734
100
AcDbArc
 50
21.3709486212
 51
25.4416948137
  0
ARC
  5
40F
100
AcDbEntity
  8
0
100
AcDbCircle
 62
7
  6
CONTINUOUS
 10
3.9528641265
 20
5.6222765082
 40
0.0954211547
100
AcDbArc
 50
25.4302088491
 51
26.6951879661
  0
ARC
  5
410
100
AcDbEntity
  8
0
100
AcDbCircle
 62
7
  6
CONTINUOUS
 10
3.9569997706
 20
5.6243600031
 40
0.0907903351
100
AcDbArc
 50
26.6929790401
 51
27.5554777674
  0
ARC
  5
411
100
AcDbEntity
  8
0
100
AcDbCircle
 62
7
  6
CONTINUOUS
 10
3.9620236224
 20
5.6270134055
 40
0.0851088938
100
AcDbArc
 50
27.5363998738
 51
29.7927950912
  0
ARC
  5
412
100
AcDbEntity
  8
0
100
AcDbCircle
 62
7
  6
CONTINUOUS
 10
4.0120962274
 20
5.6255419602
 40
0.084773402
100
AcDbArc
 50
171.3442477464
 51
171.5743689132
  0
ARC
  5
413
100
AcDbEntity
  8
0
100
AcDbCircle
 62
7
  6
CONTINUOUS
 10
4.0061820531
 20
5.6263803128
 40
0.0788002287
100
AcDbArc
 50
171.5472672879
 51
173.4425979612
  0
ARC
  5
414
100
AcDbEntity
  8
0
100
AcDbCircle
 62
7
  6
CONTINUOUS
 10
3.9675048963
 20
5.6301770781
 40
0.0787801766
100
AcDbArc
 50
29.7767429655
 51
32.1527377121
  0
ARC
  5
415
100
AcDbEntity
  8
0
100
AcDbCircle
 62
7
  6
CONTINUOUS
 10
3.9707261078
 20
5.6321941323
 40
0.0749795627
100
AcDbArc
 50
32.157746485
 51
32.9919989742
  0
ARC
  5
416
100
AcDbEntity
  8
0
100
AcDbCircle
 62
7
  6
CONTINUOUS
 10
3.9647015965
 20
5.6346393032
 40
0.0747501925
100
AcDbArc
 50
22.9505747986
 51
26.1999784391
  0
ARC
  5
417
100
AcDbEntity
  8
0
100
AcDbCircle
 62
7
  6
CONTINUOUS
 10
4.0076315111
 20
5.6341588315
 40
0.073568757
100
AcDbArc
 50
163.2024601503
 51
164.5360446722
  0
ARC
  5
418
100
AcDbEntity
  8
0
100
AcDbCircle
 62
7
  6
CONTINUOUS
 10
4.000037804
 20
5.6270434687
 40
0.0723281174
100
AcDbArc
 50
172.8630273229
 51
173.4121739793
  0
ARC
  5
419
100
AcDbEntity
  8
0
100
AcDbCircle
 62
7
  6
CONTINUOUS
 10
3.9673872211
 20
5.6357990401
 40
0.0718249365
100
AcDbArc
 50
22.282868696
 51
22.9340543915
  0
ARC
  5
41A
100
AcDbEntity
  8
0
100
AcDbCircle
 62
7
  6
CONTINUOUS
 10
3.9733872276
 20
5.6339370099
 40
0.0717985236
100
AcDbArc
 50
32.9817887199
 51
34.6310729055
  0
ARC
  5
41B
100
AcDbEntity
  8
ALL_FEATURES
100
AcDbCircle
 62
7
  6
CONTINUOUS
 10
3.9946902548
 20
5.6209808233
 40
0.0681294257
100
AcDbArc
 50
68.2169505806
 51
71.9004085062
  0
ARC
  5
41C
100
AcDbEntity
  8
ALL_FEATURES
100
AcDbCircle
 62
7
  6
CONTINUOUS
 10
3.977493714
 20
5.6217454128
 40
0.067312697
100
AcDbArc
 50
108.7237790258
 51
112.4232203891
  0
ARC
  5
41D
100
AcDbEntity
  8
0
100
AcDbCircle
 62
7
  6
CONTINUOUS
 10
4.000478631
 20
5.6361039177
 40
0.0661562084
100
AcDbArc
 50
164.5078831441
 51
166.4903820013
  0
ARC
  5
41E
100
AcDbEntity
  8
0
100
AcDbCircle
 62
7
  6
CONTINUOUS
 10
3.8696177682
 20
5.6526324372
 40
0.0657366591
100
AcDbArc
 50
356.7694858665
 51
357.4759912473
  0
ARC
  5
41F
100
AcDbEntity
  8
0
100
AcDbCircle
 62
7
  6
CONTINUOUS
 10
3.8722322457
 20
5.6524869363
 40
0.0631181368
100
AcDbArc
 50
356.2786005088
 51
356.7676117844
  0
ARC
  5
420
100
AcDbEntity
  8
ALL_FEATURES
100
AcDbCircle
 62
7
  6
CONTINUOUS
 10
3.9751725076
 20
5.6274883391
 40
0.0611185885
100
AcDbArc
 50
112.4653187803
 51
113.9270903081
  0
ARC
  5
421
100
AcDbEntity
  8
0
100
AcDbCircle
 62
7
  6
CONTINUOUS
 10
3.8745138389
 20
5.6523415581
 40
0.0608319188
100
AcDbArc
 50
356.0219541585
 51
356.2757605971
  0
ARC
  5
422
100
AcDbEntity
  8
ALL_FEATURES
100
AcDbCircle
 62
7
  6
CONTINUOUS
 10
3.997806116
 20
5.6287016332
 40
0.0598036472
100
AcDbArc
 50
65.0447247558
 51
68.2440020866
  0
ARC
  5
423
100
AcDbEntity
  8
0
100
AcDbCircle
 62
7
  6
CONTINUOUS
 10
3.9937847863
 20
5.6377192018
 40
0.0592702336
100
AcDbArc
 50
166.4970045348
 51
167.1601980443
  0
ARC
  5
424
100
AcDbEntity
  8
0
100
AcDbCircle
 62
7
  6
CONTINUOUS
 10
3.9873891436
 20
5.647626273
 40
0.0514307667
100
AcDbArc
 50
134.3914762375
 51
136.1203508738
  0
ARC
  5
425
100
AcDbEntity
  8
0
100
AcDbCircle
 62
7
  6
CONTINUOUS
 10
3.8857153602
 20
5.652622616
 40
0.0496372022
100
AcDbArc
 50
1.4297172371
 51
2.9604149315
  0
ARC
  5
426
100
AcDbEntity
  8
0
100
AcDbCircle
 62
7
  6
CONTINUOUS
 10
3.9843333255
 20
5.6400409567
 40
0.0495394198
100
AcDbArc
 50
167.3491141246
 51
167.6460472553
  0
ARC
  5
427
100
AcDbEntity
  8
0
100
AcDbCircle
 62
7
  6
CONTINUOUS
 10
3.981534737
 20
5.6406494386
 40
0.0466754492
100
AcDbArc
 50
167.6406870414
 51
168.2551866616
  0
ARC
  5
428
100
AcDbEntity
  8
0
100
AcDbCircle
 62
7
  6
CONTINUOUS
 10
3.8939066599
 20
5.6520208832
 40
0.0414480179
100
AcDbArc
 50
357.8116040556
 51
358.7708701339
  0
ARC
  5
429
100
AcDbEntity
  8
0
100
AcDbCircle
 62
7
  6
CONTINUOUS
 10
3.9739853407
 20
5.6421754316
 40
0.0389735105
100
AcDbArc
 50
168.1924734269
 51
170.2475086216
  0
ARC
  5
42A
100
AcDbEntity
  8
0
100
AcDbCircle
 62
7
  6
CONTINUOUS
 10
3.8993268789
 20
5.6518234159
 40
0.036024213
100
AcDbArc
 50
356.6805743155
 51
357.7962556972
  0
ARC
  5
42B
100
AcDbEntity
  8
0
100
AcDbCircle
 62
7
  6
CONTINUOUS
 10
3.9541862335
 20
5.6452223493
 40
0.0334827964
100
AcDbArc
 50
218.0936009793
 51
221.857848076
  0
ARC
  5
42C
100
AcDbEntity
  8
0
100
AcDbCircle
 62
7
  6
CONTINUOUS
 10
4.0120666207
 20
5.6715451277
 40
0.0309480985
100
AcDbArc
 50
301.3876147778
 51
305.0543953373
  0
ARC
  5
42D
100
AcDbEntity
  8
0
100
AcDbCircle
 62
7
  6
CONTINUOUS
 10
3.9651762306
 20
5.643713521
 40
0.0300311721
100
AcDbArc
 50
170.2926622799
 51
171.6456999714
  0
ARC
  5
42E
100
AcDbEntity
  8
0
100
AcDbCircle
 62
7
  6
CONTINUOUS
 10
3.9696666399
 20
5.6636308078
 40
0.0287558621
100
AcDbArc
 50
121.5928349536
 51
125.4636168353
  0
ARC
  5
42F
100
AcDbEntity
  8
0
100
AcDbCircle
 62
7
  6
CONTINUOUS
 10
3.9620576548
 20
5.6441715369
 40
0.026879142
100
AcDbArc
 50
171.6457971872
 51
172.4405388401
  0
ARC
  5
430
100
AcDbEntity
  8
0
100
AcDbCircle
 62
7
  6
CONTINUOUS
 10
3.9517348279
 20
5.6475329291
 40
0.0165006878
100
AcDbArc
 50
184.1695068753
 51
189.4836115852
  0
ARC
  5
431
100
AcDbEntity
  8
ALL_FEATURES
100
AcDbCircle
 62
7
  6
CONTINUOUS
 10
4.0214785474
 20
5.6670057847
 40
0.0147024752
100
AcDbArc
 50
335.2923186264
 51
337.7422405895
  0
ARC
  5
432
100
AcDbEntity
  8
0
100
AcDbCircle
 62
7
  6
CONTINUOUS
 10
4.0274160755
 20
5.655076252
 40
0.0098194456
100
AcDbArc
 50
3.2388207274
 51
7.311327526
  0
ARC
  5
433
100
AcDbEntity
  8
0
100
AcDbCircle
 62
7
  6
CONTINUOUS
 10
4.0275130991
 20
5.6550831194
 40
0.009722189
100
AcDbArc
 50
359.9917210217
 51
3.2307186158
  0
ARC
  5
434
100
AcDbEntity
  8
0
100
AcDbCircle
 62
7
  6
CONTINUOUS
 10
4.0992080079
 20
5.5825721668
 40
0.1815045142
100
AcDbArc
 50
157.3466907838
 51
157.8187383994
  0
ARC
  5
435
100
AcDbEntity
  8
0
100
AcDbCircle
 62
7
  6
CONTINUOUS
 10
4.0833546327
 20
5.5892409464
 40
0.1643056902
100
AcDbArc
 50
154.7393227103
 51
157.3635355595
  0
ARC
  5
436
100
AcDbEntity
  8
0
100
AcDbCircle
 62
7
  6
CONTINUOUS
 10
4.0615198471
 20
5.6171043226
 40
0.1349069826
100
AcDbArc
 50
170.157140124
 51
170.9605648285
  0
ARC
  5
437
100
AcDbEntity
  8
0
100
AcDbCircle
 62
7
  6
CONTINUOUS
 10
4.089735362
 20
5.5941538722
 40
0.03
100
AcDbArc
 50
203.8911271408
 51
360.0
  0
ARC
  5
438
100
AcDbEntity
  8
0
100
AcDbCircle
 62
7
  6
CONTINUOUS
 10
4.187235362
 20
5.602670719
 40
0.03
100
AcDbArc
 50
180.0
 51
246.7691079294
  0
ARC
  5
439
100
AcDbEntity
  8
0
100
AcDbCircle
 62
7
  6
CONTINUOUS
 10
4.0461249409
 20
5.6215235165
 40
0.1187442435
100
AcDbArc
 50
172.2963156586
 51
172.9830594493
  0
ARC
  5
43A
100
AcDbEntity
  8
0
100
AcDbCircle
 62
7
  6
CONTINUOUS
 10
4.0445969072
 20
5.6217273869
 40
0.1172026723
100
AcDbArc
 50
171.815470662
 51
172.2949456962
  0
ARC
  5
43B
100
AcDbEntity
  8
0
100
AcDbCircle
 62
7
  6
CONTINUOUS
 10
4.0439260846
 20
5.6218230742
 40
0.11652506
100
AcDbArc
 50
171.5690863232
 51
171.8150837988
  0
ARC
  5
43C
100
AcDbEntity
  8
ALL_FEATURES
100
AcDbCircle
 62
7
  6
CONTINUOUS
 10
3.764985362
 20
5.8443160649
 40
1.0342871927
100
AcDbArc
 50
254.7041580947
 51
285.2958419053
  0
ARC
  5
43D
100
AcDbEntity
  8
ALL_FEATURES
100
AcDbCircle
 62
9
  6
CONTINUOUS
 10
3.764985362
 20
5.8440709705
 40
1.0339294232
100
AcDbArc
 50
254.6987357919
 51
285.3012642081
  0
ARC
  5
43E
100
AcDbEntity
  8
ALL_FEATURES
100
AcDbCircle
 62
9
  6
CONTINUOUS
 10
3.764985362
 20
5.8495295344
 40
1.0023758916
100
AcDbArc
 50
254.7914924627
 51
285.2085075373
  0
ARC
  5
43F
100
AcDbEntity
  8
ALL_FEATURES
100
AcDbCircle
 62
9
  6
CONTINUOUS
 10
3.764985362
 20
5.838653318
 40
0.9805042824
100
AcDbArc
 50
257.8848829325
 51
282.1151170675
  0
ARC
  5
440
100
AcDbEntity
  8
ALL_FEATURES
100
AcDbCircle
 62
9
  6
CONTINUOUS
 10
3.764985362
 20
5.8430102451
 40
0.9554059212
100
AcDbArc
 50
257.9442535837
 51
282.0557464163
  0
ARC
  5
441
100
AcDbEntity
  8
ALL_FEATURES
100
AcDbCircle
 62
9
  6
CONTINUOUS
 10
3.764985362
 20
5.8390827734
 40
0.950914842
100
AcDbArc
 50
257.8864524681
 51
282.1135475319
  0
ARC
  5
442
100
AcDbEntity
  8
ALL_FEATURES
100
AcDbCircle
 62
9
  6
CONTINUOUS
 10
3.764985362
 20
5.841993523
 40
0.925703621
100
AcDbArc
 50
257.9462712599
 51
282.0537287401
  0
ARC
  5
443
100
AcDbEntity
  8
0
100
AcDbCircle
 62
7
  6
CONTINUOUS
 10
3.953235362
 20
6.6325379792
 40
0.56325
100
AcDbArc
 50
293.2308920706
 51
323.8077823306
  0
ARC
  5
444
100
AcDbEntity
  8
0
100
AcDbCircle
 62
9
  6
CONTINUOUS
 10
4.2584016361
 20
5.7021091668
 40
0.3041212913
100
AcDbArc
 50
180.0033539838
 51
182.6355497049
  0
ARC
  5
445
100
AcDbEntity
  8
0
100
AcDbCircle
 62
7
  6
CONTINUOUS
 10
3.9926815168
 20
5.7554929516
 40
0.1184156365
100
AcDbArc
 50
266.8794682712
 51
273.0716334602
  0
ARC
  5
446
100
AcDbEntity
  8
ALL_FEATURES
100
AcDbCircle
 62
7
  6
CONTINUOUS
 10
3.9798070443
 20
5.735594181
 40
0.0967489898
100
AcDbArc
 50
261.8787332132
 51
271.0934621445
  0
ARC
  5
447
100
AcDbEntity
  8
ALL_FEATURES
100
AcDbCircle
 62
7
  6
CONTINUOUS
 10
3.9791105055
 20
5.73007911
 40
0.0911903997
100
AcDbArc
 50
260.6184132378
 51
261.8224659257
  0
ARC
  5
448
100
AcDbEntity
  8
0
100
AcDbCircle
 62
7
  6
CONTINUOUS
 10
3.8860789207
 20
5.6903338353
 40
0.0850377708
100
AcDbArc
 50
302.643252592
 51
303.3925025358
  0
ARC
  5
449
100
AcDbEntity
  8
0
100
AcDbCircle
 62
7
  6
CONTINUOUS
 10
3.9994526526
 20
5.7268619393
 40
0.0840572007
100
AcDbArc
 50
283.6357288037
 51
287.630656647
  0
ARC
  5
44A
100
AcDbEntity
  8
ALL_FEATURES
100
AcDbCircle
 62
7
  6
CONTINUOUS
 10
3.9744866518
 20
5.7111143408
 40
0.0716503077
100
AcDbArc
 50
251.5786710497
 51
252.5037826094
  0
ARC
  5
44B
100
AcDbEntity
  8
0
100
AcDbCircle
 62
7
  6
CONTINUOUS
 10
4.0089099611
 20
5.7014991276
 40
0.0569639764
100
AcDbArc
 50
293.0895837383
 51
296.8581312416
  0
ARC
  5
44C
100
AcDbEntity
  8
0
100
AcDbCircle
 62
7
  6
CONTINUOUS
 10
3.9542803452
 20
6.1262788722
 40
0.045
100
AcDbArc
 50
196.6403769358
 51
270.0
  0
ARC
  5
44D
100
AcDbEntity
  8
0
100
AcDbCircle
 62
7
  6
CONTINUOUS
 10
4.0211616106
 20
6.1262788722
 40
0.045
100
AcDbArc
 50
270.0
 51
336.1088728592
  0
ARC
  5
44E
100
AcDbEntity
  8
ALL_FEATURES
100
AcDbCircle
 62
7
  6
CONTINUOUS
 10
3.654735362
 20
6.1026538722
 40
0.0375
100
AcDbArc
 50
90.0
 51
180.0000015488
  0
ARC
  5
44F
100
AcDbEntity
  8
ALL_FEATURES
100
AcDbCircle
 62
7
  6
CONTINUOUS
 10
3.875235362
 20
6.1026538722
 40
0.0375
100
AcDbArc
 50
16.6403769358
 51
90.0
  0
ARC
  5
450
100
AcDbEntity
  8
ALL_FEATURES
100
AcDbCircle
 62
7
  6
CONTINUOUS
 10
3.7201217961
 20
6.1840288722
 40
0.03
100
AcDbArc
 50
90.0
 51
180.0
  0
ARC
  5
451
100
AcDbEntity
  8
ALL_FEATURES
100
AcDbCircle
 62
7
  6
CONTINUOUS
 10
3.8098489279
 20
6.1840288722
 40
0.03
100
AcDbArc
 50
0.0
 51
90.0
  0
ARC
  5
452
100
AcDbEntity
  8
ALL_FEATURES
100
AcDbCircle
 62
7
  6
CONTINUOUS
 10
3.6606413295
 20
6.1701538722
 40
0.03
100
AcDbArc
 50
270.0
 51
349.4067254951
  0
ARC
  5
453
100
AcDbEntity
  8
ALL_FEATURES
100
AcDbCircle
 62
7
  6
CONTINUOUS
 10
3.8693293945
 20
6.1701538722
 40
0.03
100
AcDbArc
 50
190.5932745042
 51
270.0
  0
ARC
  5
454
100
AcDbEntity
  8
ALL_FEATURES
100
AcDbCircle
 62
7
  6
CONTINUOUS
 10
4.089735362
 20
6.0959038722
 40
0.03
100
AcDbArc
 50
0.0
 51
156.1088728592
  0
ARC
  5
455
100
AcDbEntity
  8
0
100
AcDbCircle
 62
7
  6
CONTINUOUS
 10
4.089735362
 20
6.0959038722
 40
0.03
100
AcDbArc
 50
0.0
 51
156.1088728592
  0
ARC
  5
456
100
AcDbEntity
  8
0
100
AcDbCircle
 62
7
  6
CONTINUOUS
 10
4.187235362
 20
6.0873870254
 40
0.03
100
AcDbArc
 50
113.2308920706
 51
180.0
  0
ARC
  5
457
100
AcDbEntity
  8
ALL_FEATURES
100
AcDbCircle
 62
9
  6
CONTINUOUS
 10
5.156253487
 20
5.5759216498
 40
1.2868718097
100
AcDbArc
 50
203.9594726885
 51
207.6593257401
  0
ARC
  5
458
100
AcDbEntity
  8
ALL_FEATURES
100
AcDbCircle
 62
9
  6
CONTINUOUS
 10
5.1412663357
 20
5.569090079
 40
1.270401832
100
AcDbArc
 50
195.484152461
 51
203.9524019795
  0
ARC
  5
459
100
AcDbEntity
  8
0
100
AcDbCircle
 62
7
  6
CONTINUOUS
 10
5.4239190551
 20
4.7419041875
 40
0.6396921648
100
AcDbArc
 50
267.9855100185
 51
269.9996067105
  0
ARC
  5
45A
100
AcDbEntity
  8
0
100
AcDbCircle
 62
7
  6
CONTINUOUS
 10
4.4683289771
 20
5.4344038722
 40
0.075
100
AcDbArc
 50
216.1922176693
 51
270.0
  0
ARC
  5
45B
100
AcDbEntity
  8
0
100
AcDbCircle
 62
7
  6
CONTINUOUS
 10
4.4683289771
 20
6.2556538722
 40
0.075
100
AcDbArc
 50
90.0
 51
143.8077823307
  0
SPLINE
  5
45C
100
AcDbEntity
  8
ALL_FEATURES
100
AcDbSpline
 62
7
  6
CONTINUOUS
 70
0
 71
3
 72
23
 73
19
 74
0
 42
0.0000001
 43
0.0000001
 44
0.0000000001
 40
0.0
 40
0.0
 40
0.0
 40
0.0
 40
0.0682425076
 40
0.1366112983
 40
0.2048712134
 40
0.2728281099
 40
0.3402937999
 40
0.4070733756
 40
0.4729760237
 40
0.5378206455
 40
0.6014333989
 40
0.663649565
 40
0.7243148236
 40
0.7832878422
 40
0.8404417394
 40
0.8956670243
 40
0.9488748659
 40
1.0
 40
1.0
 40
1.0
 40
1.0
 10
3.7064033448
 20
3.2763625425
 30
0.0
 10
3.7074156752
 20
3.2763148231
 30
0.0
 10
3.7094438527
 20
3.2762511966
 30
0.0
 10
3.7124868174
 20
3.2762504943
 30
0.0
 10
3.7155241162
 20
3.2763446393
 30
0.0
 10
3.7185435834
 20
3.2765331061
 30
0.0
 10
3.7215336737
 20
3.2768152469
 30
0.0
 10
3.7244828586
 20
3.2771898482
 30
0.0
 10
3.7273796324
 20
3.2776555983
 30
0.0
 10
3.7302127636
 20
3.2782105642
 30
0.0
 10
3.7329712743
 20
3.2788526868
 30
0.0
 10
3.7356444934
 20
3.2795793978
 30
0.0
 10
3.7382220328
 20
3.2803879531
 30
0.0
 10
3.7406939079
 20
3.2812751502
 30
0.0
 10
3.7430504975
 20
3.2822375972
 30
0.0
 10
3.7452827147
 20
3.2832715373
 30
0.0
 10
3.7473818418
 20
3.2843729525
 30
0.0
 10
3.7487143038
 20
3.2851655662
 30
0.0
 10
3.7493550575
 20
3.2855728651
 30
0.0
  0
SPLINE
  5
45D
100
AcDbEntity
  8
ALL_FEATURES
100
AcDbSpline
 62
7
  6
CONTINUOUS
 70
0
 71
3
 72
17
 73
13
 74
0
 42
0.0000001
 43
0.0000001
 44
0.0000000001
 40
0.0
 40
0.0
 40
0.0
 40
0.0
 40
0.1482279716
 40
0.2890523061
 40
0.4226039279
 40
0.5491985651
 40
0.6693551112
 40
0.783819922
 40
0.8392512061
 40
0.8936560891
 40
0.9471856575
 40
1.0
 40
1.0
 40
1.0
 40
1.0
 10
3.7493550575
 20
3.2855728651
 30
0.0
 10
3.7500567167
 20
3.2860188789
 30
0.0
 10
3.7513973888
 20
3.2869333289
 30
0.0
 10
3.753254193
 20
3.2884104425
 30
0.0
 10
3.7548964908
 20
3.2899510978
 30
0.0
 10
3.7563157243
 20
3.2915479903
 30
0.0
 10
3.7575043191
 20
3.2931933297
 30
0.0
 10
3.7583056435
 20
3.2946139928
 30
0.0
 10
3.7588195653
 20
3.2957631417
 30
0.0
 10
3.7591396977
 20
3.2966224468
 30
0.0
 10
3.7593981583
 20
3.2974869188
 30
0.0
 10
3.7595298682
 20
3.2980692594
 30
0.0
 10
3.7595850425
 20
3.2983603138
 30
0.0
  0
SPLINE
  5
45E
100
AcDbEntity
  8
ALL_FEATURES
100
AcDbSpline
 62
7
  6
CONTINUOUS
 70
0
 71
3
 72
11
 73
7
 74
0
 42
0.0000001
 43
0.0000001
 44
0.0000000001
 40
0.0
 40
0.0
 40
0.0
 40
0.0
 40
0.2420595736
 40
0.4897905089
 40
0.7426383365
 40
1.0
 40
1.0
 40
1.0
 40
1.0
 10
3.6776955002
 20
3.2802788056
 30
0.0
 10
3.6785897201
 20
3.2799968659
 30
0.0
 10
3.6804102754
 20
3.2794612314
 30
0.0
 10
3.6831982464
 20
3.2787503115
 30
0.0
 10
3.6860674285
 20
3.2781254315
 30
0.0
 10
3.6880121102
 20
3.2777709406
 30
0.0
 10
3.6889956589
 20
3.2776084184
 30
0.0
  0
SPLINE
  5
45F
100
AcDbEntity
  8
ALL_FEATURES
100
AcDbSpline
 62
7
  6
CONTINUOUS
 70
0
 71
3
 72
11
 73
7
 74
0
 42
0.0000001
 43
0.0000001
 44
0.0000000001
 40
0.0
 40
0.0
 40
0.0
 40
0.0
 40
0.2675172698
 40
0.5236708344
 40
0.767954401
 40
1.0
 40
1.0
 40
1.0
 40
1.0
 10
3.7493612881
 20
3.2855682477
 30
0.0
 10
3.7504430891
 20
3.2859274553
 30
0.0
 10
3.7525448534
 20
3.2866798716
 30
0.0
 10
3.7555665437
 20
3.2879395346
 30
0.0
 10
3.7583776436
 20
3.2892993753
 30
0.0
 10
3.7601487104
 20
3.2902941049
 30
0.0
 10
3.7609934565
 20
3.2908079162
 30
0.0
  0
SPLINE
  5
460
100
AcDbEntity
  8
ALL_FEATURES
100
AcDbSpline
 62
7
  6
CONTINUOUS
 70
0
 71
3
 72
23
 73
19
 74
0
 42
0.0000001
 43
0.0000001
 44
0.0000000001
 40
0.0
 40
0.0
 40
0.0
 40
0.0
 40
0.0583148662
 40
0.1183144141
 40
0.1797862516
 40
0.2425025312
 40
0.3062247093
 40
0.3707017887
 40
0.435676697
 40
0.5008867476
 40
0.5660677663
 40
0.6309552105
 40
0.6952878287
 40
0.7588092789
 40
0.8212717139
 40
0.8824373045
 40
0.9420826963
 40
1.0
 40
1.0
 40
1.0
 40
1.0
 10
3.7406059999
 20
3.3232390651
 30
0.0
 10
3.7394810474
 20
3.3236080554
 30
0.0
 10
3.7371802986
 20
3.3243017663
 30
0.0
 10
3.733641145
 20
3.3251991014
 30
0.0
 10
3.7299796868
 20
3.3259640279
 30
0.0
 10
3.7262158356
 20
3.3265927235
 30
0.0
 10
3.7223698001
 20
3.3270815146
 30
0.0
 10
3.7184623436
 20
3.3274280296
 30
0.0
 10
3.7145145354
 20
3.3276301404
 30
0.0
 10
3.7105476831
 20
3.3276869705
 30
0.0
 10
3.7065831949
 20
3.3275980344
 30
0.0
 10
3.7026424577
 20
3.3273639542
 30
0.0
 10
3.6987467451
 20
3.3269858941
 30
0.0
 10
3.6949170603
 20
3.3264659604
 30
0.0
 10
3.6911740688
 20
3.3258069469
 30
0.0
 10
3.6875379089
 20
3.3250123821
 30
0.0
 10
3.6840282688
 20
3.3240866425
 30
0.0
 10
3.6817492733
 20
3.3233740017
 30
0.0
 10
3.6806359293
 20
3.322995729
 30
0.0
  0
SPLINE
  5
461
100
AcDbEntity
  8
ALL_FEATURES
100
AcDbSpline
 62
7
  6
CONTINUOUS
 70
0
 71
3
 72
23
 73
19
 74
0
 42
0.0000001
 43
0.0000001
 44
0.0000000001
 40
0.0
 40
0.0
 40
0.0
 40
0.0
 40
0.0682425076
 40
0.1366112983
 40
0.2048712134
 40
0.2728281099
 40
0.3402937999
 40
0.4070733756
 40
0.4729760237
 40
0.5378206455
 40
0.6014333989
 40
0.663649565
 40
0.7243148236
 40
0.7832878422
 40
0.8404417394
 40
0.8956670243
 40
0.9488748659
 40
1.0
 40
1.0
 40
1.0
 40
1.0
 10
3.9816533448
 20
5.6388625425
 30
0.0
 10
3.9826656752
 20
5.6388148231
 30
0.0
 10
3.9846938527
 20
5.6387511966
 30
0.0
 10
3.9877368174
 20
5.6387504943
 30
0.0
 10
3.9907741162
 20
5.6388446393
 30
0.0
 10
3.9937935834
 20
5.6390331061
 30
0.0
 10
3.9967836737
 20
5.6393152469
 30
0.0
 10
3.9997328586
 20
5.6396898482
 30
0.0
 10
4.0026296324
 20
5.6401555983
 30
0.0
 10
4.0054627636
 20
5.6407105642
 30
0.0
 10
4.0082212743
 20
5.6413526868
 30
0.0
 10
4.0108944934
 20
5.6420793978
 30
0.0
 10
4.0134720328
 20
5.6428879531
 30
0.0
 10
4.0159439079
 20
5.6437751502
 30
0.0
 10
4.0183004975
 20
5.6447375972
 30
0.0
 10
4.0205327147
 20
5.6457715373
 30
0.0
 10
4.0226318418
 20
5.6468729525
 30
0.0
 10
4.0239643038
 20
5.6476655662
 30
0.0
 10
4.0246050575
 20
5.6480728651
 30
0.0
  0
SPLINE
  5
462
100
AcDbEntity
  8
ALL_FEATURES
100
AcDbSpline
 62
7
  6
CONTINUOUS
 70
0
 71
3
 72
17
 73
13
 74
0
 42
0.0000001
 43
0.0000001
 44
0.0000000001
 40
0.0
 40
0.0
 40
0.0
 40
0.0
 40
0.1482279716
 40
0.2890523061
 40
0.4226039279
 40
0.5491985651
 40
0.6693551112
 40
0.783819922
 40
0.8392512061
 40
0.8936560891
 40
0.9471856575
 40
1.0
 40
1.0
 40
1.0
 40
1.0
 10
4.0246050575
 20
5.6480728651
 30
0.0
 10
4.0253067167
 20
5.6485188789
 30
0.0
 10
4.0266473888
 20
5.6494333289
 30
0.0
 10
4.028504193
 20
5.6509104425
 30
0.0
 10
4.0301464908
 20
5.6524510978
 30
0.0
 10
4.0315657243
 20
5.6540479903
 30
0.0
 10
4.0327543191
 20
5.6556933297
 30
0.0
 10
4.0335556435
 20
5.6571139928
 30
0.0
 10
4.0340695653
 20
5.6582631417
 30
0.0
 10
4.0343896977
 20
5.6591224468
 30
0.0
 10
4.0346481583
 20
5.6599869188
 30
0.0
 10
4.0347798682
 20
5.6605692594
 30
0.0
 10
4.0348350425
 20
5.6608603138
 30
0.0
  0
SPLINE
  5
463
100
AcDbEntity
  8
ALL_FEATURES
100
AcDbSpline
 62
7
  6
CONTINUOUS
 70
0
 71
3
 72
11
 73
7
 74
0
 42
0.0000001
 43
0.0000001
 44
0.0000000001
 40
0.0
 40
0.0
 40
0.0
 40
0.0
 40
0.2420595736
 40
0.4897905089
 40
0.7426383365
 40
1.0
 40
1.0
 40
1.0
 40
1.0
 10
3.9529455002
 20
5.6427788056
 30
0.0
 10
3.9538397201
 20
5.6424968659
 30
0.0
 10
3.9556602754
 20
5.6419612314
 30
0.0
 10
3.9584482464
 20
5.6412503115
 30
0.0
 10
3.9613174285
 20
5.6406254315
 30
0.0
 10
3.9632621102
 20
5.6402709406
 30
0.0
 10
3.9642456589
 20
5.6401084184
 30
0.0
  0
SPLINE
  5
464
100
AcDbEntity
  8
ALL_FEATURES
100
AcDbSpline
 62
7
  6
CONTINUOUS
 70
0
 71
3
 72
11
 73
7
 74
0
 42
0.0000001
 43
0.0000001
 44
0.0000000001
 40
0.0
 40
0.0
 40
0.0
 40
0.0
 40
0.2675172698
 40
0.5236708344
 40
0.767954401
 40
1.0
 40
1.0
 40
1.0
 40
1.0
 10
4.0246112881
 20
5.6480682477
 30
0.0
 10
4.0256930891
 20
5.6484274553
 30
0.0
 10
4.0277948534
 20
5.6491798716
 30
0.0
 10
4.0308165437
 20
5.6504395346
 30
0.0
 10
4.0336276436
 20
5.6517993753
 30
0.0
 10
4.0353987104
 20
5.6527941049
 30
0.0
 10
4.0362434565
 20
5.6533079162
 30
0.0
  0
SPLINE
  5
465
100
AcDbEntity
  8
ALL_FEATURES
100
AcDbSpline
 62
7
  6
CONTINUOUS
 70
0
 71
3
 72
23
 73
19
 74
0
 42
0.0000001
 43
0.0000001
 44
0.0000000001
 40
0.0
 40
0.0
 40
0.0
 40
0.0
 40
0.0583148662
 40
0.1183144141
 40
0.1797862516
 40
0.2425025312
 40
0.3062247093
 40
0.3707017887
 40
0.435676697
 40
0.5008867476
 40
0.5660677663
 40
0.6309552105
 40
0.6952878287
 40
0.7588092789
 40
0.8212717139
 40
0.8824373045
 40
0.9420826963
 40
1.0
 40
1.0
 40
1.0
 40
1.0
 10
4.0158559999
 20
5.6857390651
 30
0.0
 10
4.0147310474
 20
5.6861080554
 30
0.0
 10
4.0124302986
 20
5.6868017663
 30
0.0
 10
4.008891145
 20
5.6876991014
 30
0.0
 10
4.0052296868
 20
5.6884640279
 30
0.0
 10
4.0014658356
 20
5.6890927235
 30
0.0
 10
3.9976198001
 20
5.6895815146
 30
0.0
 10
3.9937123436
 20
5.6899280296
 30
0.0
 10
3.9897645354
 20
5.6901301404
 30
0.0
 10
3.9857976831
 20
5.6901869705
 30
0.0
 10
3.9818331949
 20
5.6900980344
 30
0.0
 10
3.9778924577
 20
5.6898639542
 30
0.0
 10
3.9739967451
 20
5.6894858941
 30
0.0
 10
3.9701670603
 20
5.6889659604
 30
0.0
 10
3.9664240688
 20
5.6883069469
 30
0.0
 10
3.9627879089
 20
5.6875123821
 30
0.0
 10
3.9592782688
 20
5.6865866425
 30
0.0
 10
3.9569992733
 20
5.6858740017
 30
0.0
 10
3.9558859293
 20
5.685495729
 30
0.0
  0
LINE
  5
466
100
AcDbEntity
  8
0
100
AcDbLine
 62
7
  6
CONTINUOUS
 10
5.4014288092
 20
4.102607516
 11
5.4034908697
 21
4.1025383061
  0
LINE
  5
467
100
AcDbEntity
  8
0
100
AcDbLine
 62
7
  6
CONTINUOUS
 10
3.7618921569
 20
3.2938251084
 11
3.7611219639
 21
3.2910946998
  0
LINE
  5
468
100
AcDbEntity
  8
0
100
AcDbLine
 62
7
  6
CONTINUOUS
 10
3.7611219639
 20
3.2910946998
 11
3.759639862
 21
3.2885112686
  0
LINE
  5
469
100
AcDbEntity
  8
0
100
AcDbLine
 62
7
  6
CONTINUOUS
 10
3.759639862
 20
3.2885112686
 11
3.7574431675
 21
3.2860264527
  0
LINE
  5
46A
100
AcDbEntity
  8
0
100
AcDbLine
 62
7
  6
CONTINUOUS
 10
3.7574431675
 20
3.2860264527
 11
3.7545917806
 21
3.2837107935
  0
LINE
  5
46B
100
AcDbEntity
  8
0
100
AcDbLine
 62
7
  6
CONTINUOUS
 10
3.6599854126
 20
3.282829295
 11
3.6600212042
 21
3.2838264311
  0
LINE
  5
46C
100
AcDbEntity
  8
0
100
AcDbLine
 62
7
  6
CONTINUOUS
 10
3.6600212042
 20
3.2838264311
 11
3.660162123
 21
3.2852076234
  0
SPLINE
  5
46D
100
AcDbEntity
  8
0
100
AcDbSpline
 62
7
  6
CONTINUOUS
 70
0
 71
3
 72
9
 73
5
 74
0
 42
0.0000001
 43
0.0000001
 44
0.0000000001
 40
0.0
 40
0.0
 40
0.0
 40
0.0
 40
0.5103925501
 40
1.0
 40
1.0
 40
1.0
 40
1.0
 10
3.710985362
 20
3.2747528989
 30
0.0
 10
3.7082023798
 20
3.2749041982
 30
0.0
 10
3.7027582862
 20
3.2753919476
 30
0.0
 10
3.6973647473
 20
3.2762882873
 30
0.0
 10
3.6947492573
 20
3.2768426348
 30
0.0
  0
SPLINE
  5
46E
100
AcDbEntity
  8
0
100
AcDbSpline
 62
7
  6
CONTINUOUS
 70
0
 71
3
 72
11
 73
7
 74
0
 42
0.0000001
 43
0.0000001
 44
0.0000000001
 40
0.0
 40
0.0
 40
0.0
 40
0.0
 40
0.2457699442
 40
0.4969381062
 40
0.7496784532
 40
1.0
 40
1.0
 40
1.0
 40
1.0
 10
3.710985362
 20
3.3319412422
 30
0.0
 10
3.7135578972
 20
3.3319585474
 30
0.0
 10
3.7187644248
 20
3.331705719
 30
0.0
 10
3.7265391382
 20
3.3305637812
 30
0.0
 10
3.7342223545
 20
3.32870278
 30
0.0
 10
3.739214034
 20
3.3269973731
 30
0.0
 10
3.7416492329
 20
3.3260301865
 30
0.0
  0
SPLINE
  5
46F
100
AcDbEntity
  8
0
100
AcDbSpline
 62
7
  6
CONTINUOUS
 70
0
 71
3
 72
11
 73
7
 74
0
 42
0.0000001
 43
0.0000001
 44
0.0000000001
 40
0.0
 40
0.0
 40
0.0
 40
0.0
 40
0.2551464642
 40
0.5087210841
 40
0.7579521535
 40
1.0
 40
1.0
 40
1.0
 40
1.0
 10
3.6819106455
 20
3.3266365822
 30
0.0
 10
3.6842755892
 20
3.3275247242
 30
0.0
 10
3.6890769417
 20
3.329074265
 30
0.0
 10
3.6964046947
 20
3.3307360042
 30
0.0
 10
3.7037212492
 20
3.3317316041
 30
0.0
 10
3.7085888597
 20
3.3319513676
 30
0.0
 10
3.710985362
 20
3.3319412422
 30
0.0
  0
SPLINE
  5
470
100
AcDbEntity
  8
ALL_FEATURES
100
AcDbSpline
 62
7
  6
CONTINUOUS
 70
0
 71
3
 72
14
 73
10
 74
0
 42
0.0000001
 43
0.0000001
 44
0.0000000001
 40
0.0
 40
0.0
 40
0.0
 40
0.0
 40
0.2600960407
 40
0.3885427955
 40
0.5154197762
 40
0.6403485515
 40
0.7629684235
 40
0.8829463059
 40
1.0
 40
1.0
 40
1.0
 40
1.0
 10
3.2980198296
 20
2.8802512591
 30
0.0
 10
3.3055375702
 20
2.9075977749
 30
0.0
 10
3.3153173824
 20
2.9488694765
 30
0.0
 10
3.3253400714
 20
3.004178102
 30
0.0
 10
3.3313047582
 20
3.0452189373
 30
0.0
 10
3.3358015113
 20
3.0858055135
 30
0.0
 10
3.3389309437
 20
3.1257649491
 30
0.0
 10
3.3408506961
 20
3.164939245
 30
0.0
 10
3.3414832019
 20
3.1907797798
 30
0.0
 10
3.3416802667
 20
3.2035418668
 30
0.0
  0
LINE
  5
471
100
AcDbEntity
  8
ALL_FEATURES
100
AcDbLine
 62
7
  6
CONTINUOUS
 10
3.3416802667
 20
3.2035418668
 11
3.3417293239
 21
3.2068857024
  0
SPLINE
  5
472
100
AcDbEntity
  8
0
100
AcDbSpline
 62
7
  6
CONTINUOUS
 70
0
 71
3
 72
9
 73
5
 74
0
 42
0.0000001
 43
0.0000001
 44
0.0000000001
 40
0.0
 40
0.0
 40
0.0
 40
0.0
 40
0.466042437
 40
1.0
 40
1.0
 40
1.0
 40
1.0
 10
3.6530199146
 20
3.2564555264
 30
0.0
 10
3.652844345
 20
3.25762001
 30
0.0
 10
3.6525969081
 20
3.2601388838
 30
0.0
 10
3.6525640972
 20
3.2626683412
 30
0.0
 10
3.6525919312
 20
3.2640173137
 30
0.0
  0
SPLINE
  5
473
100
AcDbEntity
  8
0
100
AcDbSpline
 62
7
  6
CONTINUOUS
 70
0
 71
3
 72
11
 73
7
 74
0
 42
0.0000001
 43
0.0000001
 44
0.0000000001
 40
0.0
 40
0.0
 40
0.0
 40
0.0
 40
0.2718650687
 40
0.5268178595
 40
0.7680494923
 40
1.0
 40
1.0
 40
1.0
 40
1.0
 10
3.7585984964
 20
3.3005335841
 30
0.0
 10
3.7590550542
 20
3.3000196779
 30
0.0
 10
3.7598843371
 20
3.2989720816
 30
0.0
 10
3.7608792462
 20
3.2972967109
 30
0.0
 10
3.7615721417
 20
3.2955829051
 30
0.0
 10
3.761831077
 20
3.2944076109
 30
0.0
 10
3.7619056821
 20
3.2938258816
 30
0.0
  0
LINE
  5
474
100
AcDbEntity
  8
0
100
AcDbLine
 62
7
  6
CONTINUOUS
 10
3.6610044063
 20
3.279285456
 11
3.6602096588
 21
3.2823141852
  0
SPLINE
  5
475
100
AcDbEntity
  8
0
100
AcDbSpline
 62
7
  6
CONTINUOUS
 70
0
 71
3
 72
15
 73
11
 74
0
 42
0.0000001
 43
0.0000001
 44
0.0000000001
 40
0.0
 40
0.0
 40
0.0
 40
0.0
 40
0.1293072965
 40
0.2530506227
 40
0.3737076576
 40
0.4934594888
 40
0.6140929274
 40
0.7376794799
 40
0.865849978
 40
1.0
 40
1.0
 40
1.0
 40
1.0
 10
3.669482352
 20
3.2644121458
 30
0.0
 10
3.6688661183
 20
3.2648596728
 30
0.0
 10
3.6676985693
 20
3.2657904507
 30
0.0
 10
3.6661228416
 20
3.2673328304
 30
0.0
 10
3.664757316
 20
3.2689922661
 30
0.0
 10
3.6635933084
 20
3.2707773072
 30
0.0
 10
3.6626341948
 20
3.2726996167
 30
0.0
 10
3.6618747026
 20
3.2747617346
 30
0.0
 10
3.6613169915
 20
3.276969186
 30
0.0
 10
3.6610884962
 20
3.2784998275
 30
0.0
 10
3.6610044063
 20
3.279285456
 30
0.0
  0
LINE
  5
476
100
AcDbEntity
  8
0
100
AcDbLine
 62
7
  6
CONTINUOUS
 10
3.6525919312
 20
3.2640173137
 11
3.6525857838
 21
3.2685465279
  0
LINE
  5
477
100
AcDbEntity
  8
0
100
AcDbLine
 62
7
  6
CONTINUOUS
 10
3.6525857838
 20
3.2685465279
 11
3.6529372573
 21
3.2728413901
  0
SPLINE
  5
478
100
AcDbEntity
  8
0
100
AcDbSpline
 62
7
  6
CONTINUOUS
 70
0
 71
3
 72
9
 73
5
 74
0
 42
0.0000001
 43
0.0000001
 44
0.0000000001
 40
0.0
 40
0.0
 40
0.0
 40
0.0
 40
0.4849623125
 40
1.0
 40
1.0
 40
1.0
 40
1.0
 10
3.6534102632
 20
3.2764076036
 30
0.0
 10
3.6537136017
 20
3.2783955858
 30
0.0
 10
3.6544156958
 20
3.2824839069
 30
0.0
 10
3.6553465461
 20
3.2865281861
 30
0.0
 10
3.6558952677
 20
3.288592197
 30
0.0
  0
LINE
  5
479
100
AcDbEntity
  8
0
100
AcDbLine
 62
7
  6
CONTINUOUS
 10
3.6558952677
 20
3.288592197
 11
3.6559429874
 21
3.2887709981
  0
SPLINE
  5
47A
100
AcDbEntity
  8
0
100
AcDbSpline
 62
7
  6
CONTINUOUS
 70
0
 71
3
 72
9
 73
5
 74
0
 42
0.0000001
 43
0.0000001
 44
0.0000000001
 40
0.0
 40
0.0
 40
0.0
 40
0.0
 40
0.5006664861
 40
1.0
 40
1.0
 40
1.0
 40
1.0
 10
3.6761603886
 20
3.3218775036
 30
0.0
 10
3.6770513643
 20
3.3227494001
 30
0.0
 10
3.6788973376
 20
3.3244246881
 30
0.0
 10
3.680889528
 20
3.325926623
 30
0.0
 10
3.6819225555
 20
3.3266184549
 30
0.0
  0
SPLINE
  5
47B
100
AcDbEntity
  8
0
100
AcDbSpline
 62
7
  6
CONTINUOUS
 70
0
 71
3
 72
11
 73
7
 74
0
 42
0.0000001
 43
0.0000001
 44
0.0000000001
 40
0.0
 40
0.0
 40
0.0
 40
0.0
 40
0.240157243
 40
0.4871112759
 40
0.7404958811
 40
1.0
 40
1.0
 40
1.0
 40
1.0
 10
3.6619517926
 20
3.2929195174
 30
0.0
 10
3.6620985446
 20
3.2936804796
 30
0.0
 10
3.6624244772
 20
3.2952186599
 30
0.0
 10
3.6630094343
 20
3.2975361094
 30
0.0
 10
3.6636982269
 20
3.2998899283
 30
0.0
 10
3.6642207705
 20
3.3014608231
 30
0.0
 10
3.66449974
 20
3.3022504059
 30
0.0
  0
SPLINE
  5
47C
100
AcDbEntity
  8
0
100
AcDbSpline
 62
7
  6
CONTINUOUS
 70
0
 71
3
 72
14
 73
10
 74
0
 42
0.0000001
 43
0.0000001
 44
0.0000000001
 40
0.0
 40
0.0
 40
0.0
 40
0.0
 40
0.1168788442
 40
0.2361273413
 40
0.3576760684
 40
0.481492165
 40
0.6075603739
 40
0.7359318485
 40
1.0
 40
1.0
 40
1.0
 40
1.0
 10
3.66449974
 20
3.3022504059
 30
0.0
 10
3.6647781766
 20
3.3030384804
 30
0.0
 10
3.665370638
 20
3.3046202314
 30
0.0
 10
3.666362448
 20
3.3069786288
 30
0.0
 10
3.6674713627
 20
3.3093393001
 30
0.0
 10
3.6686998969
 20
3.3116951329
 30
0.0
 10
3.670058263
 20
3.3140357006
 30
0.0
 10
3.6720810727
 20
3.3171442366
 30
0.0
 10
3.6738101899
 20
3.3193667649
 30
0.0
 10
3.675067983
 20
3.3207752956
 30
0.0
  0
SPLINE
  5
47D
100
AcDbEntity
  8
0
100
AcDbSpline
 62
7
  6
CONTINUOUS
 70
0
 71
3
 72
9
 73
5
 74
0
 42
0.0000001
 43
0.0000001
 44
0.0000000001
 40
0.0
 40
0.0
 40
0.0
 40
0.0
 40
0.2559807573
 40
1.0
 40
1.0
 40
1.0
 40
1.0
 10
3.7417547651
 20
3.3259308556
 30
0.0
 10
3.7421300894
 20
3.3256680308
 30
0.0
 10
3.7435710739
 20
3.3246053603
 30
0.0
 10
3.7449142545
 20
3.3234128263
 30
0.0
 10
3.7458597632
 20
3.3224749406
 30
0.0
  0
LINE
  5
47E
100
AcDbEntity
  8
0
100
AcDbLine
 62
7
  6
CONTINUOUS
 10
3.7458597632
 20
3.3224749406
 11
3.7482260261
 21
3.3198975253
  0
SPLINE
  5
47F
100
AcDbEntity
  8
0
100
AcDbSpline
 62
7
  6
CONTINUOUS
 70
0
 71
3
 72
12
 73
8
 74
0
 42
0.0000001
 43
0.0000001
 44
0.0000000001
 40
0.0
 40
0.0
 40
0.0
 40
0.0
 40
0.2705851973
 40
0.5276474486
 40
0.7710093277
 40
0.8873560585
 40
1.0
 40
1.0
 40
1.0
 40
1.0
 10
3.7482260261
 20
3.3198975253
 30
0.0
 10
3.7492125936
 20
3.3187220246
 30
0.0
 10
3.7510102909
 20
3.3163213551
 30
0.0
 10
3.7532850298
 20
3.3125802558
 30
0.0
 10
3.7548318296
 20
3.3094375545
 30
0.0
 10
3.75586454
 20
3.3069650592
 30
0.0
 10
3.7563145674
 20
3.3057462321
 30
0.0
 10
3.7565218447
 20
3.3051419255
 30
0.0
  0
SPLINE
  5
480
100
AcDbEntity
  8
0
100
AcDbSpline
 62
7
  6
CONTINUOUS
 70
0
 71
3
 72
13
 73
9
 74
0
 42
0.0000001
 43
0.0000001
 44
0.0000000001
 40
0.0
 40
0.0
 40
0.0
 40
0.0
 40
0.1970981753
 40
0.4211087139
 40
0.5469552575
 40
0.6843298184
 40
0.8350143535
 40
1.0
 40
1.0
 40
1.0
 40
1.0
 10
3.7529351676
 20
3.2826258687
 30
0.0
 10
3.7520890129
 20
3.2819338393
 30
0.0
 10
3.7501412109
 20
3.2806234458
 30
0.0
 10
3.7473986267
 20
3.2793085756
 30
0.0
 10
3.7448705599
 20
3.2783514573
 30
0.0
 10
3.7426825524
 20
3.2776536153
 30
0.0
 10
3.7402542014
 20
3.2770053944
 30
0.0
 10
3.7385443877
 20
3.2766265356
 30
0.0
 10
3.7376474946
 20
3.276445352
 30
0.0
  0
SPLINE
  5
481
100
AcDbEntity
  8
0
100
AcDbSpline
 62
7
  6
CONTINUOUS
 70
0
 71
3
 72
19
 73
15
 74
0
 42
0.0000001
 43
0.0000001
 44
0.0000000001
 40
0.0
 40
0.0
 40
0.0
 40
0.0
 40
0.1663819216
 40
0.3196125844
 40
0.4586780583
 40
0.5228195463
 40
0.5834825333
 40
0.6409281959
 40
0.6955363535
 40
0.7983813208
 40
0.8481412336
 40
0.8978481968
 40
0.9482292021
 40
1.0
 40
1.0
 40
1.0
 40
1.0
 10
3.7646454351
 20
3.2964784541
 30
0.0
 10
3.7652684144
 20
3.2946386121
 30
0.0
 10
3.7663187121
 20
3.2910523623
 30
0.0
 10
3.767368535
 20
3.2857941951
 30
0.0
 10
3.7677649806
 20
3.281642085
 30
0.0
 10
3.7677745044
 20
3.2785596127
 30
0.0
 10
3.7676381766
 20
3.2764345164
 30
0.0
 10
3.7673573483
 20
3.2744353603
 30
0.0
 10
3.7668029496
 20
3.2719865381
 30
0.0
 10
3.7659428552
 20
3.2697049093
 30
0.0
 10
3.7647634481
 20
3.2676539768
 30
0.0
 10
3.7637297834
 20
3.2662382027
 30
0.0
 10
3.762537716
 20
3.2649219312
 30
0.0
 10
3.7616517053
 20
3.2641204163
 30
0.0
 10
3.7611854099
 20
3.2637358701
 30
0.0
  0
SPLINE
  5
482
100
AcDbEntity
  8
0
100
AcDbSpline
 62
7
  6
CONTINUOUS
 70
0
 71
3
 72
9
 73
5
 74
0
 42
0.0000001
 43
0.0000001
 44
0.0000000001
 40
0.0
 40
0.0
 40
0.0
 40
0.0
 40
0.4821294089
 40
1.0
 40
1.0
 40
1.0
 40
1.0
 10
3.7376474951
 20
3.2764453528
 30
0.0
 10
3.7354439398
 20
3.2760045246
 30
0.0
 10
3.7308345514
 20
3.2752796377
 30
0.0
 10
3.7261870034
 20
3.2748784326
 30
0.0
 10
3.7237767525
 20
3.2747474402
 30
0.0
  0
SPLINE
  5
483
100
AcDbEntity
  8
ALL_FEATURES
100
AcDbSpline
 62
9
  6
CONTINUOUS
 70
0
 71
3
 72
19
 73
15
 74
0
 42
0.0000001
 43
0.0000001
 44
0.0000000001
 40
0.0
 40
0.0
 40
0.0
 40
0.0
 40
0.0088125694
 40
0.0194355485
 40
0.0461265842
 40
0.0800124129
 40
0.120911428
 40
0.1685158592
 40
0.2224836481
 40
0.3478069564
 40
0.4930083959
 40
0.6534952254
 40
0.8243484931
 40
1.0
 40
1.0
 40
1.0
 40
1.0
 10
3.3663479999
 20
2.8575586269
 30
0.0
 10
3.3662790305
 20
2.8576149808
 30
0.0
 10
3.3661202555
 20
2.8577310857
 30
0.0
 10
3.3657267472
 20
2.8579813569
 30
0.0
 10
3.3650928154
 20
2.8583234321
 30
0.0
 10
3.3641667718
 20
2.8587645163
 30
0.0
 10
3.3630319315
 20
2.8592571532
 30
0.0
 10
3.3616972296
 20
2.8597976515
 30
0.0
 10
3.3595554265
 20
2.8606172067
 30
0.0
 10
3.3564653353
 20
2.8617168384
 30
0.0
 10
3.3523315302
 20
2.8630911042
 30
0.0
 10
3.3477362514
 20
2.8645337174
 30
0.0
 10
3.3428258592
 20
2.8659980791
 30
0.0
 10
3.3394569541
 20
2.8669546945
 30
0.0
 10
3.3377461375
 20
2.8674285717
 30
0.0
  0
SPLINE
  5
484
100
AcDbEntity
  8
ALL_FEATURES
100
AcDbSpline
 62
9
  6
CONTINUOUS
 70
0
 71
3
 72
16
 73
12
 74
0
 42
0.0000001
 43
0.0000001
 44
0.0000000001
 40
0.0
 40
0.0
 40
0.0
 40
0.0
 40
0.046902893
 40
0.095426325
 40
0.1986081897
 40
0.3115277331
 40
0.4345171326
 40
0.5667825374
 40
0.7066445228
 40
0.8519724728
 40
1.0
 40
1.0
 40
1.0
 40
1.0
 10
3.4148799724
 20
3.2891564914
 30
0.0
 10
3.4147186258
 20
3.2896789314
 30
0.0
 10
3.4143163398
 20
3.2907203033
 30
0.0
 10
3.4132118185
 20
3.2927609876
 30
0.0
 10
3.4112624782
 20
3.2951872562
 30
0.0
 10
3.4082159679
 20
3.2977373838
 30
0.0
 10
3.4045047506
 20
3.2999264654
 30
0.0
 10
3.400237608
 20
3.3016950936
 30
0.0
 10
3.3955366141
 20
3.3029966874
 30
0.0
 10
3.3905396593
 20
3.3037920161
 30
0.0
 10
3.3871170131
 20
3.3039704296
 30
0.0
 10
3.3853913295
 20
3.3039704296
 30
0.0
  0
SPLINE
  5
485
100
AcDbEntity
  8
ALL_FEATURES
100
AcDbSpline
 62
9
  6
CONTINUOUS
 70
0
 71
3
 72
16
 73
12
 74
0
 42
0.0000001
 43
0.0000001
 44
0.0000000001
 40
0.0
 40
0.0
 40
0.0
 40
0.0
 40
0.0469028925
 40
0.0954263246
 40
0.1986081903
 40
0.3115277348
 40
0.434517135
 40
0.56678254
 40
0.7066445249
 40
0.8519724744
 40
1.0
 40
1.0
 40
1.0
 40
1.0
 10
3.564590752
 20
3.2891564928
 30
0.0
 10
3.5647520987
 20
3.2896789327
 30
0.0
 10
3.5651543848
 20
3.2907203045
 30
0.0
 10
3.5662589063
 20
3.2927609886
 30
0.0
 10
3.5682082468
 20
3.295187257
 30
0.0
 10
3.5712547571
 20
3.2977373843
 30
0.0
 10
3.5749659743
 20
3.2999264657
 30
0.0
 10
3.5792331167
 20
3.3016950937
 30
0.0
 10
3.5839341104
 20
3.3029966874
 30
0.0
 10
3.588931065
 20
3.303792016
 30
0.0
 10
3.592353711
 20
3.3039704296
 30
0.0
 10
3.5940793945
 20
3.3039704296
 30
0.0
  0
SPLINE
  5
486
100
AcDbEntity
  8
ALL_FEATURES
100
AcDbSpline
 62
9
  6
CONTINUOUS
 70
0
 71
3
 72
19
 73
15
 74
0
 42
0.0000001
 43
0.0000001
 44
0.0000000001
 40
0.0
 40
0.0
 40
0.0
 40
0.0
 40
0.0087958863
 40
0.0194030201
 40
0.0460656306
 40
0.0799278038
 40
0.1208083473
 40
0.1683995513
 40
0.2223591337
 40
0.3476806472
 40
0.4928974836
 40
0.6534134262
 40
0.824305198
 40
1.0
 40
1.0
 40
1.0
 40
1.0
 10
3.6131207354
 20
2.8575570049
 30
0.0
 10
3.6131895191
 20
2.8576133314
 30
0.0
 10
3.6133479499
 20
2.8577293816
 30
0.0
 10
3.6137408364
 20
2.8579795574
 30
0.0
 10
3.6143741193
 20
2.8583215263
 30
0.0
 10
3.6152995155
 20
2.8587625128
 30
0.0
 10
3.6164338811
 20
2.8592551033
 30
0.0
 10
3.6177682778
 20
2.8597956054
 30
0.0
 10
3.6199099947
 20
2.8606152723
 30
0.0
 10
3.6230003614
 20
2.8617151224
 30
0.0
 10
3.6271348972
 20
2.8630897274
 30
0.0
 10
3.6317313476
 20
2.8645327707
 30
0.0
 10
3.6366432199
 20
2.8659976092
 30
0.0
 10
3.6400132035
 20
2.8669545384
 30
0.0
 10
3.6417245865
 20
2.8674285725
 30
0.0
  0
SPLINE
  5
487
100
AcDbEntity
  8
ALL_FEATURES
100
AcDbSpline
 62
9
  6
CONTINUOUS
 70
0
 71
3
 72
31
 73
27
 74
0
 42
0.0000001
 43
0.0000001
 44
0.0000000001
 40
0.0
 40
0.0
 40
0.0
 40
0.0
 40
0.0006365748
 40
0.0011074945
 40
0.0017065321
 40
0.0033179462
 40
0.0055029445
 40
0.0082716248
 40
0.0116279961
 40
0.0201083043
 40
0.0309443274
 40
0.0441145399
 40
0.0595833833
 40
0.0773136771
 40
0.0972675536
 40
0.1194027898
 40
0.1699773379
 40
0.2285348981
 40
0.2945208705
 40
0.3672750391
 40
0.4461042462
 40
0.5302160623
 40
0.6187830099
 40
0.7109591819
 40
0.8058832405
 40
1.0
 40
1.0
 40
1.0
 40
1.0
 10
3.804794604
 20
2.5879876341
 30
0.0
 10
3.8047986622
 20
2.5879806544
 30
0.0
 10
3.8047970074
 20
2.5879646604
 30
0.0
 10
3.8047879355
 20
2.58794541
 30
0.0
 10
3.8047696035
 20
2.5879164678
 30
0.0
 10
3.8047331695
 20
2.5878741706
 30
0.0
 10
3.8046740097
 20
2.5878154931
 30
0.0
 10
3.8045953077
 20
2.5877453434
 30
0.0
 10
3.8044528828
 20
2.58762686
 30
0.0
 10
3.8042248797
 20
2.587451495
 30
0.0
 10
3.8038917285
 20
2.5872090215
 30
0.0
 10
3.8034816213
 20
2.5869217879
 30
0.0
 10
3.8029956622
 20
2.5865905393
 30
0.0
 10
3.8024349978
 20
2.5862161874
 30
0.0
 10
3.8018008919
 20
2.5857996086
 30
0.0
 10
3.8008147373
 20
2.5851602675
 30
0.0
 10
3.7994108672
 20
2.5842652568
 30
0.0
 10
3.7975297531
 20
2.583084371
 30
0.0
 10
3.7954031383
 20
2.5817655413
 30
0.0
 10
3.7930516592
 20
2.580321524
 30
0.0
 10
3.7904984674
 20
2.5787667082
 30
0.0
 10
3.7877686765
 20
2.5771163266
 30
0.0
 10
3.7848890388
 20
2.5753866338
 30
0.0
 10
3.7818871336
 20
2.5735941966
 30
0.0
 10
3.7777297511
 20
2.5711256746
 30
0.0
 10
3.7745710388
 20
2.5692650949
 30
0.0
 10
3.7724469005
 20
2.5680203045
 30
0.0
  0
SPLINE
  5
488
100
AcDbEntity
  8
ALL_FEATURES
100
AcDbSpline
 62
9
  6
CONTINUOUS
 70
0
 71
3
 72
22
 73
18
 74
0
 42
0.0000001
 43
0.0000001
 44
0.0000000001
 40
0.0
 40
0.0
 40
0.0
 40
0.0
 40
0.006400824
 40
0.0148057451
 40
0.025229235
 40
0.0376582339
 40
0.0684455765
 40
0.1069653675
 40
0.1529006922
 40
0.2058630993
 40
0.2654266456
 40
0.3310711273
 40
0.4022544691
 40
0.4783664451
 40
0.6427094512
 40
0.8186362577
 40
1.0
 40
1.0
 40
1.0
 40
1.0
 10
3.6777373119
 20
2.6774039196
 30
0.0
 10
3.6777832283
 20
2.6774498443
 30
0.0
 10
3.6778972327
 20
2.6775481471
 30
0.0
 10
3.6781020036
 20
2.6777018124
 30
0.0
 10
3.6783639121
 20
2.6778808003
 30
0.0
 10
3.6788223604
 20
2.6781741391
 30
0.0
 10
3.6795359543
 20
2.6785970144
 30
0.0
 10
3.6805565457
 20
2.6791676286
 30
0.0
 10
3.6817853756
 20
2.6798263964
 30
0.0
 10
3.6832120502
 20
2.6805676435
 30
0.0
 10
3.6848245572
 20
2.6813847276
 30
0.0
 10
3.686609267
 20
2.6822708008
 30
0.0
 10
3.6885509585
 20
2.6832181226
 30
0.0
 10
3.6914008632
 20
2.6845875162
 30
0.0
 10
3.6952233016
 20
2.6863864624
 30
0.0
 10
3.7000315217
 20
2.688598015
 30
0.0
 10
3.7033368968
 20
2.6900864472
 30
0.0
 10
3.705017653
 20
2.6908354147
 30
0.0
  0
SPLINE
  5
489
100
AcDbEntity
  8
ALL_FEATURES
100
AcDbSpline
 62
9
  6
CONTINUOUS
 70
0
 71
3
 72
28
 73
24
 74
0
 42
0.0000001
 43
0.0000001
 44
0.0000000001
 40
0.0
 40
0.0
 40
0.0
 40
0.0
 40
0.0019166589
 40
0.0036000967
 40
0.0058386221
 40
0.0086495626
 40
0.0120406261
 40
0.0205748691
 40
0.0314514053
 40
0.0446540599
 40
0.0601494294
 40
0.0779013113
 40
0.1200207014
 40
0.1706137691
 40
0.2291774464
 40
0.2951576439
 40
0.3678931523
 40
0.4466893328
 40
0.5307529948
 40
0.6192542792
 40
0.7113454036
 40
0.8061631762
 40
1.0
 40
1.0
 40
1.0
 40
1.0
 10
3.7146470084
 20
2.6010231885
 30
0.0
 10
3.7146379406
 20
2.601040466
 30
0.0
 10
3.7146566568
 20
2.6010817942
 30
0.0
 10
3.7146913839
 20
2.6011264388
 30
0.0
 10
3.714739144
 20
2.6011771764
 30
0.0
 10
3.7148021179
 20
2.6012351265
 30
0.0
 10
3.714916938
 20
2.6013320108
 30
0.0
 10
3.7151016752
 20
2.6014725724
 30
0.0
 10
3.7153727829
 20
2.60166437
 30
0.0
 10
3.7157072032
 20
2.6018890777
 30
0.0
 10
3.7161040889
 20
2.6021462091
 30
0.0
 10
3.7167533063
 20
2.6025551541
 30
0.0
 10
3.7177139676
 20
2.6031399043
 30
0.0
 10
3.7190394978
 20
2.6039240087
 30
0.0
 10
3.720582523
 20
2.6048173972
 30
0.0
 10
3.7223278689
 20
2.6058111082
 30
0.0
 10
3.7242585803
 20
2.606895465
 30
0.0
 10
3.7263555929
 20
2.6080596036
 30
0.0
 10
3.7285982114
 20
2.6092920892
 30
0.0
 10
3.7309643883
 20
2.6105807263
 30
0.0
 10
3.7334313784
 20
2.6119131234
 30
0.0
 10
3.736847922
 20
2.6137439428
 30
0.0
 10
3.7394445819
 20
2.6151198303
 30
0.0
 10
3.7411910202
 20
2.6160385506
 30
0.0
  0
SPLINE
  5
48A
100
AcDbEntity
  8
0
100
AcDbSpline
 62
7
  6
CONTINUOUS
 70
0
 71
3
 72
14
 73
10
 74
0
 42
0.0000001
 43
0.0000001
 44
0.0000000001
 40
0.0
 40
0.0
 40
0.0
 40
0.0
 40
0.1100308395
 40
0.2217151407
 40
0.336606411
 40
0.4561064531
 40
0.7131538637
 40
0.8526622209
 40
1.0
 40
1.0
 40
1.0
 40
1.0
 10
3.761985288
 20
3.2925817146
 30
0.0
 10
3.7619852163
 20
3.2921281718
 30
0.0
 10
3.7619206499
 20
3.2912130365
 30
0.0
 10
3.7616323983
 20
3.2898517112
 30
0.0
 10
3.7611536737
 20
3.2885036158
 30
0.0
 10
3.7602435814
 20
3.286689114
 30
0.0
 10
3.7589645511
 20
3.2849668082
 30
0.0
 10
3.7573978659
 20
3.2833614985
 30
0.0
 10
3.7565038622
 20
3.2825851223
 30
0.0
 10
3.7560311334
 20
3.2822038537
 30
0.0
  0
SPLINE
  5
48B
100
AcDbEntity
  8
ALL_FEATURES
100
AcDbSpline
 62
9
  6
CONTINUOUS
 70
0
 71
3
 72
28
 73
24
 74
0
 42
0.0000001
 43
0.0000001
 44
0.0000000001
 40
0.0
 40
0.0
 40
0.0
 40
0.0
 40
0.0019223567
 40
0.0036034544
 40
0.0058368569
 40
0.0086403
 40
0.0120218011
 40
0.020531718
 40
0.0313777268
 40
0.0445421174
 40
0.0599926492
 40
0.0776946148
 40
0.1197032647
 40
0.1701724907
 40
0.2286109762
 40
0.2944725421
 40
0.3671071497
 40
0.4458317915
 40
0.5298637983
 40
0.6183871708
 40
0.7105666362
 40
0.8055512895
 40
1.0
 40
1.0
 40
1.0
 40
1.0
 10
3.7185781207
 20
2.5889852174
 30
0.0
 10
3.7185753567
 20
2.5890043669
 30
0.0
 10
3.7186061066
 20
2.5890369166
 30
0.0
 10
3.718653075
 20
2.5890673461
 30
0.0
 10
3.7187140148
 20
2.5890990931
 30
0.0
 10
3.7187914842
 20
2.5891325722
 30
0.0
 10
3.7189298579
 20
2.5891853723
 30
0.0
 10
3.7191475465
 20
2.589255968
 30
0.0
 10
3.7194623065
 20
2.5893459851
 30
0.0
 10
3.7198467123
 20
2.5894459014
 30
0.0
 10
3.7202998232
 20
2.589555532
 30
0.0
 10
3.7210373251
 20
2.5897239543
 30
0.0
 10
3.7221221653
 20
2.5899541056
 30
0.0
 10
3.7236119299
 20
2.5902504338
 30
0.0
 10
3.7253403127
 20
2.5905773162
 30
0.0
 10
3.7272905233
 20
2.5909314394
 30
0.0
 10
3.7294438805
 20
2.5913093839
 30
0.0
 10
3.7317793712
 20
2.5917073247
 30
0.0
 10
3.7342743003
 20
2.5921214462
 30
0.0
 10
3.7369044733
 20
2.5925476576
 30
0.0
 10
3.7396449964
 20
2.5929819258
 30
0.0
 10
3.7434404351
 20
2.5935706241
 30
0.0
 10
3.7463211498
 20
2.5940036815
 30
0.0
 10
3.7482573251
 20
2.5942888818
 30
0.0
  0
SPLINE
  5
48C
100
AcDbEntity
  8
ALL_FEATURES
100
AcDbSpline
 62
9
  6
CONTINUOUS
 70
0
 71
3
 72
15
 73
11
 74
0
 42
0.0000001
 43
0.0000001
 44
0.0000000001
 40
0.0
 40
0.0
 40
0.0
 40
0.0
 40
0.1245398137
 40
0.2491932922
 40
0.3739941258
 40
0.4989486554
 40
0.6240506934
 40
0.7492808198
 40
0.8746056445
 40
1.0
 40
1.0
 40
1.0
 40
1.0
 10
3.7189897942
 20
2.5833035235
 30
0.0
 10
3.7189862756
 20
2.5811720576
 30
0.0
 10
3.7186251552
 20
2.5768993393
 30
0.0
 10
3.7170323728
 20
2.5706707251
 30
0.0
 10
3.7144227059
 20
2.5647849476
 30
0.0
 10
3.7108588795
 20
2.5594135098
 30
0.0
 10
3.7064333687
 20
2.5547156646
 30
0.0
 10
3.7012664602
 20
2.5508359793
 30
0.0
 10
3.6955081784
 20
2.5478972017
 30
0.0
 10
3.6913826373
 20
2.5466274996
 30
0.0
 10
3.6892844984
 20
2.5461763531
 30
0.0
  0
SPLINE
  5
48D
100
AcDbEntity
  8
0
100
AcDbSpline
 62
7
  6
CONTINUOUS
 70
0
 71
3
 72
11
 73
7
 74
0
 42
0.0000001
 43
0.0000001
 44
0.0000000001
 40
0.0
 40
0.0
 40
0.0
 40
0.0
 40
0.2286167479
 40
0.4716491306
 40
0.728971741
 40
1.0
 40
1.0
 40
1.0
 40
1.0
 10
3.7669461099
 20
3.2726638157
 30
0.0
 10
3.766178694
 20
3.2720387372
 30
0.0
 10
3.7645364195
 20
3.2708205291
 30
0.0
 10
3.7618602628
 20
3.269142607
 30
0.0
 10
3.7589121817
 20
3.2675685053
 30
0.0
 10
3.7568295719
 20
3.2666185922
 30
0.0
 10
3.755748808
 20
3.2661616553
 30
0.0
  0
LINE
  5
48E
100
AcDbEntity
  8
0
100
AcDbLine
 62
7
  6
CONTINUOUS
 10
3.7559995174
 20
3.2865983753
 11
3.7496618859
 21
3.2842530107
  0
SPLINE
  5
48F
100
AcDbEntity
  8
0
100
AcDbSpline
 62
7
  6
CONTINUOUS
 70
0
 71
3
 72
11
 73
7
 74
0
 42
0.0000001
 43
0.0000001
 44
0.0000000001
 40
0.0
 40
0.0
 40
0.0
 40
0.0
 40
0.2516723601
 40
0.5057974331
 40
0.7570106816
 40
1.0
 40
1.0
 40
1.0
 40
1.0
 10
3.710985362
 20
3.2495864887
 30
0.0
 10
3.7085917044
 20
3.2495864563
 30
0.0
 10
3.7037809338
 20
3.2496319894
 30
0.0
 10
3.6965835792
 20
3.2498433658
 30
0.0
 10
3.6894751248
 20
3.2502112901
 30
0.0
 10
3.6847882342
 20
3.2505776638
 30
0.0
 10
3.6824875227
 20
3.2507962629
 30
0.0
  0
SPLINE
  5
490
100
AcDbEntity
  8
0
100
AcDbSpline
 62
7
  6
CONTINUOUS
 70
0
 71
3
 72
11
 73
7
 74
0
 42
0.0000001
 43
0.0000001
 44
0.0000000001
 40
0.0
 40
0.0
 40
0.0
 40
0.0
 40
0.2332165704
 40
0.4804573889
 40
0.7375571469
 40
1.0
 40
1.0
 40
1.0
 40
1.0
 10
3.7459116106
 20
3.2515139803
 30
0.0
 10
3.7432139703
 20
3.2511587552
 30
0.0
 10
3.7376366413
 20
3.2505757133
 30
0.0
 10
3.7290497168
 20
3.2499983517
 30
0.0
 10
3.7201090781
 20
3.2496586646
 30
0.0
 10
3.7140472695
 20
3.2495829322
 30
0.0
 10
3.710985362
 20
3.2495864887
 30
0.0
  0
SPLINE
  5
491
100
AcDbEntity
  8
ALL_FEATURES
100
AcDbSpline
 62
9
  6
CONTINUOUS
 70
0
 71
3
 72
26
 73
22
 74
0
 42
0.0000001
 43
0.0000001
 44
0.0000000001
 40
0.0
 40
0.0
 40
0.0
 40
0.0
 40
0.0017903322
 40
0.0037725971
 40
0.0060888666
 40
0.008828797
 40
0.0157661557
 40
0.0248192946
 40
0.0360750259
 40
0.0495562626
 40
0.0652539412
 40
0.0831474326
 40
0.1032098787
 40
0.1254059497
 40
0.1759771711
 40
0.2343906258
 40
0.3001085029
 40
0.4508268412
 40
0.6222555092
 40
0.8077681352
 40
1.0
 40
1.0
 40
1.0
 40
1.0
 10
3.6814644331
 20
2.8802155213
 30
0.0
 10
3.6814705119
 20
2.8801932996
 30
0.0
 10
3.6814748922
 20
2.8801438756
 30
0.0
 10
3.6814572195
 20
2.8800666178
 30
0.0
 10
3.6814173028
 20
2.879984696
 30
0.0
 10
3.6813277235
 20
2.8798584434
 30
0.0
 10
3.6811541265
 20
2.8796891059
 30
0.0
 10
3.6808752534
 20
2.8794761794
 30
0.0
 10
3.6805095863
 20
2.8792401911
 30
0.0
 10
3.6800578685
 20
2.8789816913
 30
0.0
 10
3.6795207704
 20
2.8787013559
 30
0.0
 10
3.6788995223
 20
2.8783999739
 30
0.0
 10
3.6781954199
 20
2.8780783063
 30
0.0
 10
3.6770996738
 20
2.8776024858
 30
0.0
 10
3.6755354938
 20
2.8769671826
 30
0.0
 10
3.6734344441
 20
2.876167151
 30
0.0
 10
3.6701076842
 20
2.8749660685
 30
0.0
 10
3.6653774211
 20
2.8733720481
 30
0.0
 10
3.6591465083
 20
2.8714086835
 30
0.0
 10
3.6523719914
 20
2.8693962547
 30
0.0
 10
3.6476923005
 20
2.8680808272
 30
0.0
 10
3.6453061821
 20
2.8674285725
 30
0.0
  0
SPLINE
  5
492
100
AcDbEntity
  8
ALL_FEATURES
100
AcDbSpline
 62
9
  6
CONTINUOUS
 70
0
 71
3
 72
28
 73
24
 74
0
 42
0.0000001
 43
0.0000001
 44
0.0000000001
 40
0.0
 40
0.0
 40
0.0
 40
0.0
 40
0.0019214957
 40
0.003602362
 40
0.0058355969
 40
0.0086389115
 40
0.0120203099
 40
0.0205300722
 40
0.0313759679
 40
0.0445402717
 40
0.0599907356
 40
0.077692648
 40
0.1197012295
 40
0.1701704327
 40
0.228608943
 40
0.2944705855
 40
0.3671053229
 40
0.4458301484
 40
0.5298623868
 40
0.6183860299
 40
0.7105657913
 40
0.8055507486
 40
1.0
 40
1.0
 40
1.0
 40
1.0
 10
3.2608934301
 20
2.5889883266
 30
0.0
 10
3.2608961936
 20
2.5890074676
 30
0.0
 10
3.260865432
 20
2.5890399977
 30
0.0
 10
3.2608184708
 20
2.5890704094
 30
0.0
 10
3.2607575286
 20
2.5891021447
 30
0.0
 10
3.2606800588
 20
2.5891356134
 30
0.0
 10
3.2605416825
 20
2.589188401
 30
0.0
 10
3.260323992
 20
2.5892589853
 30
0.0
 10
3.2600092298
 20
2.5893489944
 30
0.0
 10
3.2596248217
 20
2.5894489077
 30
0.0
 10
3.2591717083
 20
2.5895585398
 30
0.0
 10
3.2584342022
 20
2.5897269708
 30
0.0
 10
3.2573493563
 20
2.5899571442
 30
0.0
 10
3.2558595838
 20
2.5902535114
 30
0.0
 10
3.2541311909
 20
2.5905804445
 30
0.0
 10
3.2521809675
 20
2.5909346275
 30
0.0
 10
3.2500275946
 20
2.5913126384
 30
0.0
 10
3.247692085
 20
2.5917106498
 30
0.0
 10
3.2451971338
 20
2.5921248434
 30
0.0
 10
3.2425669357
 20
2.5925511259
 30
0.0
 10
3.2398263848
 20
2.5929854619
 30
0.0
 10
3.2360309065
 20
2.5935742434
 30
0.0
 10
3.2331501594
 20
2.5940073503
 30
0.0
 10
3.2312139615
 20
2.5942925764
 30
0.0
  0
SPLINE
  5
493
100
AcDbEntity
  8
ALL_FEATURES
100
AcDbSpline
 62
9
  6
CONTINUOUS
 70
0
 71
3
 72
28
 73
24
 74
0
 42
0.0000001
 43
0.0000001
 44
0.0000000001
 40
0.0
 40
0.0
 40
0.0
 40
0.0
 40
0.0019168956
 40
0.0036004592
 40
0.0058391093
 40
0.0086501736
 40
0.0120413602
 40
0.0205758481
 40
0.0314526273
 40
0.0446555213
 40
0.060151124
 40
0.0779032301
 40
0.1200230291
 40
0.1706164293
 40
0.2291803377
 40
0.2951606411
 40
0.3678961184
 40
0.4466921238
 40
0.5307554764
 40
0.6192563372
 40
0.7113469552
 40
0.8061641803
 40
1.0
 40
1.0
 40
1.0
 40
1.0
 10
3.2648225893
 20
2.6010225465
 30
0.0
 10
3.2648316571
 20
2.6010398262
 30
0.0
 10
3.2648129428
 20
2.6010811567
 30
0.0
 10
3.2647782176
 20
2.6011258081
 30
0.0
 10
3.2647304607
 20
2.6011765515
 30
0.0
 10
3.2646674908
 20
2.6012345089
 30
0.0
 10
3.2645526784
 20
2.6013314048
 30
0.0
 10
3.2643679532
 20
2.6014719838
 30
0.0
 10
3.2640968628
 20
2.6016638056
 30
0.0
 10
3.2637624639
 20
2.6018885418
 30
0.0
 10
3.2633656038
 20
2.602145706
 30
0.0
 10
3.2627164293
 20
2.6025547029
 30
0.0
 10
3.2617558318
 20
2.6031395277
 30
0.0
 10
3.2604303905
 20
2.6039237331
 30
0.0
 10
3.2588874706
 20
2.6048172364
 30
0.0
 10
3.2571422464
 20
2.6058110751
 30
0.0
 10
3.2552116722
 20
2.6068955713
 30
0.0
 10
3.2531148109
 20
2.6080598597
 30
0.0
 10
3.2508723567
 20
2.6092925043
 30
0.0
 10
3.2485063548
 20
2.6105813084
 30
0.0
 10
3.2460395481
 20
2.6119138795
 30
0.0
 10
3.242623258
 20
2.6137449411
 30
0.0
 10
3.24002679
 20
2.6151210145
 30
0.0
 10
3.2382804801
 20
2.6160398608
 30
0.0
  0
SPLINE
  5
494
100
AcDbEntity
  8
ALL_FEATURES
100
AcDbSpline
 62
9
  6
CONTINUOUS
 70
0
 71
3
 72
17
 73
13
 74
0
 42
0.0000001
 43
0.0000001
 44
0.0000000001
 40
0.0
 40
0.0
 40
0.0
 40
0.0
 40
0.1349407801
 40
0.2682780061
 40
0.3993776965
 40
0.5276026525
 40
0.6523424962
 40
0.7730185994
 40
0.8316605906
 40
0.8890813482
 40
0.9452164723
 40
1.0
 40
1.0
 40
1.0
 40
1.0
 10
3.573634937
 20
2.8865534
 30
0.0
 10
3.5695047033
 20
2.9028760661
 30
0.0
 10
3.5619929474
 20
2.935509041
 30
0.0
 10
3.5528841448
 20
2.9845154872
 30
0.0
 10
3.5459076358
 20
3.0330235407
 30
0.0
 10
3.5409048457
 20
3.0806936164
 30
0.0
 10
3.5376212716
 20
3.1272061164
 30
0.0
 10
3.5360145142
 20
3.165114595
 30
0.0
 10
3.5352340378
 20
3.1946434324
 30
0.0
 10
3.5348565
 20
3.2161262145
 30
0.0
 10
3.5346453014
 20
3.237129699
 30
0.0
 10
3.5345988576
 20
3.2509695126
 30
0.0
 10
3.5345989279
 20
3.257805076
 30
0.0
  0
SPLINE
  5
495
100
AcDbEntity
  8
ALL_FEATURES
100
AcDbSpline
 62
9
  6
CONTINUOUS
 70
0
 71
3
 72
17
 73
13
 74
0
 42
0.0000001
 43
0.0000001
 44
0.0000000001
 40
0.0
 40
0.0
 40
0.0
 40
0.0
 40
0.0547834865
 40
0.1109185185
 40
0.1683392202
 40
0.2269811433
 40
0.3476570813
 40
0.4723967841
 40
0.6006216426
 40
0.7317215076
 40
0.8650591349
 40
1.0
 40
1.0
 40
1.0
 40
1.0
 10
3.4448717961
 20
3.257805076
 30
0.0
 10
3.4448718653
 20
3.2509695178
 30
0.0
 10
3.4448254168
 20
3.2371297208
 30
0.0
 10
3.4446142208
 20
3.2161262598
 30
0.0
 10
3.4442366905
 20
3.1946435046
 30
0.0
 10
3.4434562135
 20
3.1651147033
 30
0.0
 10
3.4418494673
 20
3.1272062708
 30
0.0
 10
3.4385658806
 20
3.0806938225
 30
0.0
 10
3.433563136
 20
3.03302375
 30
0.0
 10
3.4265865943
 20
2.9845156405
 30
0.0
 10
3.4174777951
 20
2.9355091102
 30
0.0
 10
3.4099660241
 20
2.9028760762
 30
0.0
 10
3.405835787
 20
2.8865534
 30
0.0
  0
SPLINE
  5
496
100
AcDbEntity
  8
ALL_FEATURES
100
AcDbSpline
 62
9
  6
CONTINUOUS
 70
0
 71
3
 72
15
 73
11
 74
0
 42
0.0000001
 43
0.0000001
 44
0.0000000001
 40
0.0
 40
0.0
 40
0.0
 40
0.0
 40
0.1249516238
 40
0.2498673094
 40
0.3747908185
 40
0.4997357227
 40
0.6247239351
 40
0.749768589
 40
0.8748580037
 40
1.0
 40
1.0
 40
1.0
 40
1.0
 10
3.2913602841
 20
2.5851198654
 30
0.0
 10
3.2910894566
 20
2.5846082234
 30
0.0
 10
3.2906644656
 20
2.5835184149
 30
0.0
 10
3.2904170485
 20
2.5817849965
 30
0.0
 10
3.2905697445
 20
2.5800398221
 30
0.0
 10
3.2911161063
 20
2.5783751445
 30
0.0
 10
3.2920281318
 20
2.576878401
 30
0.0
 10
3.2932597795
 20
2.5756299857
 30
0.0
 10
3.2947451746
 20
2.574697773
 30
0.0
 10
3.2958549228
 20
2.5743215597
 30
0.0
 10
3.2964218945
 20
2.5742003573
 30
0.0
  0
SPLINE
  5
497
100
AcDbEntity
  8
ALL_FEATURES
100
AcDbSpline
 62
9
  6
CONTINUOUS
 70
0
 71
3
 72
11
 73
7
 74
0
 42
0.0000001
 43
0.0000001
 44
0.0000000001
 40
0.0
 40
0.0
 40
0.0
 40
0.0
 40
0.2495382198
 40
0.4994218989
 40
0.749594028
 40
1.0
 40
1.0
 40
1.0
 40
1.0
 10
3.405835787
 20
2.8865534
 30
0.0
 10
3.3994500765
 20
2.8604383775
 30
0.0
 10
3.3850775296
 20
2.8085464958
 30
0.0
 10
3.3587613386
 20
2.7321432775
 30
0.0
 10
3.327733422
 20
2.6574275644
 30
0.0
 10
3.3039801846
 20
2.6089640539
 30
0.0
 10
3.2913602841
 20
2.5851198654
 30
0.0
  0
SPLINE
  5
498
100
AcDbEntity
  8
ALL_FEATURES
100
AcDbSpline
 62
9
  6
CONTINUOUS
 70
0
 71
3
 72
11
 73
7
 74
0
 42
0.0000001
 43
0.0000001
 44
0.0000000001
 40
0.0
 40
0.0
 40
0.0
 40
0.0
 40
0.2504059053
 40
0.5005780297
 40
0.7504617303
 40
1.0
 40
1.0
 40
1.0
 40
1.0
 10
3.6881104399
 20
2.5851198654
 30
0.0
 10
3.6754905363
 20
2.6089640442
 30
0.0
 10
3.6517373116
 20
2.6574275526
 30
0.0
 10
3.6207093918
 20
2.7321432582
 30
0.0
 10
3.5943931984
 20
2.8085464834
 30
0.0
 10
3.5800206488
 20
2.8604383723
 30
0.0
 10
3.573634937
 20
2.8865534
 30
0.0
  0
SPLINE
  5
499
100
AcDbEntity
  8
ALL_FEATURES
100
AcDbSpline
 62
9
  6
CONTINUOUS
 70
0
 71
3
 72
15
 73
11
 74
0
 42
0.0000001
 43
0.0000001
 44
0.0000000001
 40
0.0
 40
0.0
 40
0.0
 40
0.0
 40
0.1251423474
 40
0.2502312738
 40
0.3752755945
 40
0.500263677
 40
0.625208716
 40
0.7501325536
 40
0.8750487083
 40
1.0
 40
1.0
 40
1.0
 40
1.0
 10
3.6830488295
 20
2.5742003573
 30
0.0
 10
3.6836158279
 20
2.5743214423
 30
0.0
 10
3.6847255274
 20
2.5746978654
 30
0.0
 10
3.6862109277
 20
2.5756300109
 30
0.0
 10
3.68744258
 20
2.5768784297
 30
0.0
 10
3.6883546232
 20
2.5783751547
 30
0.0
 10
3.6889010089
 20
2.5800398313
 30
0.0
 10
3.6890537058
 20
2.5817849998
 30
0.0
 10
3.6888063409
 20
2.5835184566
 30
0.0
 10
3.6883811613
 20
2.584608169
 30
0.0
 10
3.6881104399
 20
2.5851198654
 30
0.0
  0
SPLINE
  5
49A
100
AcDbEntity
  8
ALL_FEATURES
100
AcDbSpline
 62
9
  6
CONTINUOUS
 70
0
 71
3
 72
20
 73
16
 74
0
 42
0.0000001
 43
0.0000001
 44
0.0000000001
 40
0.0
 40
0.0
 40
0.0
 40
0.0
 40
0.0546475918
 40
0.1107058986
 40
0.168101966
 40
0.226761965
 40
0.2866104222
 40
0.3475704908
 40
0.4095634974
 40
0.472508722
 40
0.5363231798
 40
0.6009217458
 40
0.7321139265
 40
0.8653778578
 40
1.0
 40
1.0
 40
1.0
 40
1.0
 10
3.5940793945
 20
3.3039704296
 30
0.0
 10
3.5940793298
 20
3.2959459337
 30
0.0
 10
3.5941240983
 20
3.2796897578
 30
0.0
 10
3.5943322126
 20
3.2550062608
 30
0.0
 10
3.5947194924
 20
3.2297355646
 30
0.0
 10
3.5953410244
 20
3.2039126737
 30
0.0
 10
3.5962625248
 20
3.1775748555
 30
0.0
 10
3.5975530855
 20
3.150762278
 30
0.0
 10
3.5992794514
 20
3.1235182752
 30
0.0
 10
3.6015021501
 20
3.0958895097
 30
0.0
 10
3.6042735372
 20
3.0679254733
 30
0.0
 10
3.6087806148
 20
3.0300701805
 30
0.0
 10
3.6159906558
 20
2.982276062
 30
0.0
 10
3.6272762828
 20
2.9247534516
 30
0.0
 10
3.6365991569
 20
2.8865205784
 30
0.0
 10
3.6417245865
 20
2.8674285725
 30
0.0
  0
SPLINE
  5
49B
100
AcDbEntity
  8
ALL_FEATURES
100
AcDbSpline
 62
9
  6
CONTINUOUS
 70
0
 71
3
 72
19
 73
15
 74
0
 42
0.0000001
 43
0.0000001
 44
0.0000000001
 40
0.0
 40
0.0
 40
0.0
 40
0.0
 40
0.0571847555
 40
0.1153208001
 40
0.1743586241
 40
0.2342494603
 40
0.2949430218
 40
0.35638829
 40
0.4185326516
 40
0.4813218377
 40
0.6086059677
 40
0.7377873642
 40
0.8684085899
 40
1.0
 40
1.0
 40
1.0
 40
1.0
 10
3.599985362
 20
3.2295396959
 30
0.0
 10
3.5999853421
 20
3.2225583124
 30
0.0
 10
3.6000188318
 20
3.2084793483
 30
0.0
 10
3.6002346569
 20
3.1871936295
 30
0.0
 10
3.6006830837
 20
3.1655808808
 30
0.0
 10
3.6014248659
 20
3.143663574
 30
0.0
 10
3.602512892
 20
3.1214662302
 30
0.0
 10
3.6039919173
 20
3.0990156087
 30
0.0
 10
3.6058984437
 20
3.0763402259
 30
0.0
 10
3.6090623684
 20
3.045709723
 30
0.0
 10
3.6142244934
 20
3.0070652707
 30
0.0
 10
3.6224162405
 20
2.9605093637
 30
0.0
 10
3.6326752432
 20
2.9138264404
 30
0.0
 10
3.6408683313
 20
2.8828687558
 30
0.0
 10
3.6453061821
 20
2.8674285725
 30
0.0
  0
SPLINE
  5
49C
100
AcDbEntity
  8
ALL_FEATURES
100
AcDbSpline
 62
9
  6
CONTINUOUS
 70
0
 71
3
 72
20
 73
16
 74
0
 42
0.0000001
 43
0.0000001
 44
0.0000000001
 40
0.0
 40
0.0
 40
0.0
 40
0.0
 40
0.1346221456
 40
0.2678860783
 40
0.3990782576
 40
0.4636768232
 40
0.5274912805
 40
0.5904365047
 40
0.652429511
 40
0.7133895793
 40
0.7732380361
 40
0.8318980348
 40
0.8892941019
 40
0.9453524085
 40
1.0
 40
1.0
 40
1.0
 40
1.0
 10
3.3377461375
 20
2.8674285725
 30
0.0
 10
3.3428715683
 20
2.8865205786
 30
0.0
 10
3.3521944407
 20
2.924753453
 30
0.0
 10
3.3634800685
 20
2.9822760637
 30
0.0
 10
3.3706901095
 20
3.0300701822
 30
0.0
 10
3.3751971869
 20
3.0679254747
 30
0.0
 10
3.377968574
 20
3.0958895109
 30
0.0
 10
3.3801912727
 20
3.1235182762
 30
0.0
 10
3.3819176386
 20
3.1507622787
 30
0.0
 10
3.3832081992
 20
3.1775748562
 30
0.0
 10
3.3841296996
 20
3.2039126742
 30
0.0
 10
3.3847512316
 20
3.2297355649
 30
0.0
 10
3.3851385114
 20
3.255006261
 30
0.0
 10
3.3853466257
 20
3.2796897579
 30
0.0
 10
3.3853913941
 20
3.2959459337
 30
0.0
 10
3.3853913295
 20
3.3039704296
 30
0.0
  0
SPLINE
  5
49D
100
AcDbEntity
  8
ALL_FEATURES
100
AcDbSpline
 62
9
  6
CONTINUOUS
 70
0
 71
3
 72
19
 73
15
 74
0
 42
0.0000001
 43
0.0000001
 44
0.0000000001
 40
0.0
 40
0.0
 40
0.0
 40
0.0
 40
0.1315914129
 40
0.2622126427
 40
0.391394038
 40
0.5186781661
 40
0.5814673516
 40
0.6436117126
 40
0.7050569802
 40
0.7657505411
 40
0.8256413768
 40
0.8846792005
 40
0.9428152448
 40
1.0
 40
1.0
 40
1.0
 40
1.0
 10
3.3341645419
 20
2.8674285725
 30
0.0
 10
3.3386023896
 20
2.8828687571
 30
0.0
 10
3.3467954806
 20
2.9138264416
 30
0.0
 10
3.357054485
 20
2.9605093653
 30
0.0
 10
3.3652462303
 20
3.0070652727
 30
0.0
 10
3.3704083551
 20
3.0457097246
 30
0.0
 10
3.3735722794
 20
3.0763402272
 30
0.0
 10
3.3754788055
 20
3.0990156097
 30
0.0
 10
3.3769578306
 20
3.121466231
 30
0.0
 10
3.3780458566
 20
3.1436635746
 30
0.0
 10
3.3787876389
 20
3.1655808812
 30
0.0
 10
3.3792360659
 20
3.1871936297
 30
0.0
 10
3.3794518917
 20
3.2084793484
 30
0.0
 10
3.3794853822
 20
3.2225583124
 30
0.0
 10
3.379485362
 20
3.2295396959
 30
0.0
  0
SPLINE
  5
49E
100
AcDbEntity
  8
ALL_FEATURES
100
AcDbSpline
 62
9
  6
CONTINUOUS
 70
0
 71
3
 72
11
 73
7
 74
0
 42
0.0000001
 43
0.0000001
 44
0.0000000001
 40
0.0
 40
0.0
 40
0.0
 40
0.0
 40
0.2497451237
 40
0.4996927367
 40
0.7497924964
 40
1.0
 40
1.0
 40
1.0
 40
1.0
 10
3.6453061821
 20
2.8674285725
 30
0.0
 10
3.6525456948
 20
2.8412586101
 30
0.0
 10
3.6687586048
 20
2.7893580488
 30
0.0
 10
3.6981537077
 20
2.713262273
 30
0.0
 10
3.7325111731
 20
2.6392190231
 30
0.0
 10
3.7586227122
 20
2.5914489585
 30
0.0
 10
3.7724469005
 20
2.5680203045
 30
0.0
  0
SPLINE
  5
49F
100
AcDbEntity
  8
ALL_FEATURES
100
AcDbSpline
 62
9
  6
CONTINUOUS
 70
0
 71
3
 72
23
 73
19
 74
0
 42
0.0000001
 43
0.0000001
 44
0.0000000001
 40
0.0
 40
0.0
 40
0.0
 40
0.0
 40
0.0624766481
 40
0.1249922782
 40
0.1874815413
 40
0.249972137
 40
0.3124673769
 40
0.3749625263
 40
0.437458501
 40
0.499956778
 40
0.5624567764
 40
0.6249581124
 40
0.6874618436
 40
0.749968354
 40
0.8124724216
 40
0.8749767191
 40
0.9375078177
 40
1.0
 40
1.0
 40
1.0
 40
1.0
 10
3.7724469005
 20
2.5680203045
 30
0.0
 10
3.7730846408
 20
2.5669391967
 30
0.0
 10
3.7742371989
 20
2.5647008079
 30
0.0
 10
3.775569016
 20
2.5611690139
 30
0.0
 10
3.7764850128
 20
2.5575064243
 30
0.0
 10
3.7769729983
 20
2.5537632913
 30
0.0
 10
3.7770270986
 20
2.5499886898
 30
0.0
 10
3.7766453628
 20
2.5462329321
 30
0.0
 10
3.775833522
 20
2.5425461308
 30
0.0
 10
3.7746029561
 20
2.5389770865
 30
0.0
 10
3.7729697206
 20
2.5355733292
 30
0.0
 10
3.7709567204
 20
2.5323793798
 30
0.0
 10
3.7685908393
 20
2.5294370867
 30
0.0
 10
3.7659035297
 20
2.5267851176
 30
0.0
 10
3.7629314398
 20
2.524456883
 30
0.0
 10
3.7597127849
 20
2.5224822517
 30
0.0
 10
3.7562907249
 20
2.5208877463
 30
0.0
 10
3.7539023341
 20
2.5200897645
 30
0.0
 10
3.7526908626
 20
2.5197601775
 30
0.0
  0
LINE
  5
4A0
100
AcDbEntity
  8
0
100
AcDbLine
 62
7
  6
CONTINUOUS
 10
3.6753103515
 20
3.2819479853
 11
3.6707415228
 21
3.2849429259
  0
SPLINE
  5
4A1
100
AcDbEntity
  8
ALL_FEATURES
100
AcDbSpline
 62
9
  6
CONTINUOUS
 70
0
 71
3
 72
23
 73
19
 74
0
 42
0.0000001
 43
0.0000001
 44
0.0000000001
 40
0.0
 40
0.0
 40
0.0
 40
0.0
 40
0.0624921765
 40
0.125023267
 40
0.1875275616
 40
0.25003163
 40
0.3125381361
 40
0.3750418648
 40
0.4375431989
 40
0.5000431946
 40
0.5625414743
 40
0.6250374508
 40
0.6875326026
 40
0.7500278469
 40
0.8125184418
 40
0.8750077078
 40
0.937523346
 40
1.0
 40
1.0
 40
1.0
 40
1.0
 10
3.2267798614
 20
2.5197601775
 30
0.0
 10
3.2255683896
 20
2.5200897629
 30
0.0
 10
3.2231799989
 20
2.5208877447
 30
0.0
 10
3.2197579408
 20
2.5224822534
 30
0.0
 10
3.2165392873
 20
2.5244568864
 30
0.0
 10
3.2135671967
 20
2.5267851198
 30
0.0
 10
3.2108798857
 20
2.5294370874
 30
0.0
 10
3.208514005
 20
2.5323793806
 30
0.0
 10
3.2065010047
 20
2.5355733297
 30
0.0
 10
3.204867768
 20
2.5389770864
 30
0.0
 10
3.2036372008
 20
2.5425461303
 30
0.0
 10
3.2028253596
 20
2.5462329317
 30
0.0
 10
3.2024436242
 20
2.5499886895
 30
0.0
 10
3.2024977226
 20
2.5537632912
 30
0.0
 10
3.2029857066
 20
2.5575064246
 30
0.0
 10
3.2039017056
 20
2.5611690139
 30
0.0
 10
3.2052335263
 20
2.5647008069
 30
0.0
 10
3.2063860845
 20
2.5669391957
 30
0.0
 10
3.2070238235
 20
2.5680203045
 30
0.0
  0
SPLINE
  5
4A2
100
AcDbEntity
  8
ALL_FEATURES
100
AcDbSpline
 62
9
  6
CONTINUOUS
 70
0
 71
3
 72
11
 73
7
 74
0
 42
0.0000001
 43
0.0000001
 44
0.0000000001
 40
0.0
 40
0.0
 40
0.0
 40
0.0
 40
0.2502074805
 40
0.5003074788
 40
0.7502552484
 40
1.0
 40
1.0
 40
1.0
 40
1.0
 10
3.2070238235
 20
2.5680203045
 30
0.0
 10
3.2208480103
 20
2.5914489565
 30
0.0
 10
3.2469595611
 20
2.6392190413
 30
0.0
 10
3.2813170412
 20
2.7132623292
 30
0.0
 10
3.3107121388
 20
2.7893581097
 30
0.0
 10
3.3269250408
 20
2.8412586488
 30
0.0
 10
3.3341645419
 20
2.8674285725
 30
0.0
  0
LINE
  5
4A3
100
AcDbEntity
  8
0
100
AcDbLine
 62
7
  6
CONTINUOUS
 10
3.7560311334
 20
3.2822038537
 11
3.7529351676
 21
3.2826258687
  0
SPLINE
  5
4A4
100
AcDbEntity
  8
0
100
AcDbSpline
 62
7
  6
CONTINUOUS
 70
0
 71
3
 72
11
 73
7
 74
0
 42
0.0000001
 43
0.0000001
 44
0.0000000001
 40
0.0
 40
0.0
 40
0.0
 40
0.0
 40
0.191897175
 40
0.4145905916
 40
0.6815593784
 40
1.0
 40
1.0
 40
1.0
 40
1.0
 10
3.6610044063
 20
3.279285456
 30
0.0
 10
3.6608324882
 20
3.2794549981
 30
0.0
 10
3.6605188399
 20
3.2798820923
 30
0.0
 10
3.660202599
 20
3.2806864604
 30
0.0
 10
3.6600183741
 20
3.281690954
 30
0.0
 10
3.6599851537
 20
3.2824286172
 30
0.0
 10
3.6599854126
 20
3.282829295
 30
0.0
  0
SPLINE
  5
4A5
100
AcDbEntity
  8
ALL_FEATURES
100
AcDbSpline
 62
9
  6
CONTINUOUS
 70
0
 71
3
 72
23
 73
19
 74
0
 42
0.0000001
 43
0.0000001
 44
0.0000000001
 40
0.0
 40
0.0
 40
0.0
 40
0.0
 40
0.0624910812
 40
0.1250191675
 40
0.1875280223
 40
0.2500339158
 40
0.3125445364
 40
0.3750530384
 40
0.4375589561
 40
0.5000619876
 40
0.5625620615
 40
0.6250590043
 40
0.6875546498
 40
0.7500480861
 40
0.8125339489
 40
0.8750245674
 40
0.9375340466
 40
1.0
 40
1.0
 40
1.0
 40
1.0
 10
3.2839505566
 20
2.5174871029
 30
0.0
 10
3.2818623349
 20
2.5179354009
 30
0.0
 10
3.2777250478
 20
2.5190336827
 30
0.0
 10
3.2717066874
 20
2.5212646792
 30
0.0
 10
3.2659280409
 20
2.5240610108
 30
0.0
 10
3.2604425581
 20
2.5273942734
 30
0.0
 10
3.2552979218
 20
2.5312327675
 30
0.0
 10
3.2505403979
 20
2.5355416401
 30
0.0
 10
3.2462107563
 20
2.5402798474
 30
0.0
 10
3.2423470909
 20
2.5454046861
 30
0.0
 10
3.2389809054
 20
2.5508687414
 30
0.0
 10
3.2361412997
 20
2.5566237433
 30
0.0
 10
3.2338508684
 20
2.562618199
 30
0.0
 10
3.232128371
 20
2.5687994121
 30
0.0
 10
3.230987063
 20
2.5751135534
 30
0.0
 10
3.2304357973
 20
2.5815070106
 30
0.0
 10
3.2304799665
 20
2.5879227374
 30
0.0
 10
3.2309040361
 20
2.5921802448
 30
0.0
 10
3.2312139615
 20
2.5942925704
 30
0.0
  0
SPLINE
  5
4A6
100
AcDbEntity
  8
ALL_FEATURES
100
AcDbSpline
 62
9
  6
CONTINUOUS
 70
0
 71
3
 72
23
 73
19
 74
0
 42
0.0000001
 43
0.0000001
 44
0.0000000001
 40
0.0
 40
0.0
 40
0.0
 40
0.0
 40
0.0624659408
 40
0.1249754047
 40
0.1874660263
 40
0.2499519012
 40
0.3124453523
 40
0.3749409971
 40
0.4374379165
 40
0.4999379518
 40
0.562440938
 40
0.6249468135
 40
0.687455293
 40
0.749965909
 40
0.8124717966
 40
0.8749806943
 40
0.9375088847
 40
1.0
 40
1.0
 40
1.0
 40
1.0
 10
3.7482573251
 20
2.594288886
 30
0.0
 10
3.7485671243
 20
2.5921766207
 30
0.0
 10
3.7489909477
 20
2.5879192462
 30
0.0
 10
3.7490347883
 20
2.5815037522
 30
0.0
 10
3.7484832548
 20
2.5751105531
 30
0.0
 10
3.7473417248
 20
2.5687966883
 30
0.0
 10
3.7456190471
 20
2.5626157672
 30
0.0
 10
3.7433284845
 20
2.5566216123
 30
0.0
 10
3.7404887961
 20
2.5508669145
 30
0.0
 10
3.7371225759
 20
2.5454031595
 30
0.0
 10
3.7332589209
 20
2.5402786113
 30
0.0
 10
3.728929335
 20
2.5355406751
 30
0.0
 10
3.7241719044
 20
2.5312320516
 30
0.0
 10
3.7190273995
 20
2.5273937745
 30
0.0
 10
3.7135420742
 20
2.5240607004
 30
0.0
 10
3.7077636102
 20
2.5212645191
 30
0.0
 10
3.7017454605
 20
2.519033611
 30
0.0
 10
3.6976083175
 20
2.5179353703
 30
0.0
 10
3.6955201674
 20
2.5174871029
 30
0.0
  0
LINE
  5
4A7
100
AcDbEntity
  8
0
100
AcDbLine
 62
7
  6
CONTINUOUS
 10
3.6598060171
 20
3.2835890703
 11
3.6597284103
 21
3.2825466289
  0
LINE
  5
4A8
100
AcDbEntity
  8
0
100
AcDbLine
 62
7
  6
CONTINUOUS
 10
3.6597284103
 20
3.2825466289
 11
3.6596465892
 21
3.2814617398
  0
LINE
  5
4A9
100
AcDbEntity
  8
0
100
AcDbLine
 62
7
  6
CONTINUOUS
 10
3.6591863756
 20
3.2755224694
 11
3.6576312854
 21
3.2568341091
  0
LINE
  5
4AA
100
AcDbEntity
  8
0
100
AcDbLine
 62
7
  6
CONTINUOUS
 10
3.6748749499
 20
3.2670549184
 11
3.669482352
 21
3.2644121458
  0
LINE
  5
4AB
100
AcDbEntity
  8
0
100
AcDbLine
 62
7
  6
CONTINUOUS
 10
3.6753005191
 20
3.2810872322
 11
3.6748749499
 21
3.2670549184
  0
SPLINE
  5
4AC
100
AcDbEntity
  8
0
100
AcDbSpline
 62
9
  6
CONTINUOUS
 70
0
 71
3
 72
13
 73
9
 74
0
 42
0.0000001
 43
0.0000001
 44
0.0000000001
 40
0.0
 40
0.0
 40
0.0
 40
0.0
 40
0.2576645509
 40
0.3848203764
 40
0.5107729193
 40
0.6354199327
 40
0.7586446817
 40
1.0
 40
1.0
 40
1.0
 40
1.0
 10
3.6359148998
 20
3.3201617635
 30
0.0
 10
3.6359148147
 20
3.313984617
 30
0.0
 10
3.6360028852
 20
3.3047588718
 30
0.0
 10
3.6362687153
 20
3.2925166352
 30
0.0
 10
3.6365247472
 20
3.283464059
 30
0.0
 10
3.6368086537
 20
3.2745066074
 30
0.0
 10
3.6371892826
 20
3.2627844256
 30
0.0
 10
3.6374168478
 20
3.2540461577
 30
0.0
 10
3.6374681559
 20
3.2482602296
 30
0.0
  0
SPLINE
  5
4AD
100
AcDbEntity
  8
0
100
AcDbSpline
 62
9
  6
CONTINUOUS
 70
0
 71
3
 72
15
 73
11
 74
0
 42
0.0000001
 43
0.0000001
 44
0.0000000001
 40
0.0
 40
0.0
 40
0.0
 40
0.0
 40
0.0974736273
 40
0.2032417394
 40
0.318072626
 40
0.4418734585
 40
0.5736912955
 40
0.7119695431
 40
0.8548548578
 40
1.0
 40
1.0
 40
1.0
 40
1.0
 10
3.6359148998
 20
3.3201617635
 30
0.0
 10
3.6353218259
 20
3.3189611984
 30
0.0
 10
3.6337799604
 20
3.3166023561
 30
0.0
 10
3.6306984239
 20
3.3134730726
 30
0.0
 10
3.6268482288
 20
3.310690561
 30
0.0
 10
3.6223293587
 20
3.3083180443
 30
0.0
 10
3.6172522105
 20
3.3064107618
 30
0.0
 10
3.6117425082
 20
3.3050131327
 30
0.0
 10
3.6059389111
 20
3.3041612658
 30
0.0
 10
3.6019793237
 20
3.3039704296
 30
0.0
 10
3.599985362
 20
3.3039704296
 30
0.0
  0
SPLINE
  5
4AE
100
AcDbEntity
  8
0
100
AcDbSpline
 62
9
  6
CONTINUOUS
 70
0
 71
3
 72
11
 73
7
 74
0
 42
0.0000001
 43
0.0000001
 44
0.0000000001
 40
0.0
 40
0.0
 40
0.0
 40
0.0
 40
0.2393736083
 40
0.4839633128
 40
0.7366570667
 40
1.0
 40
1.0
 40
1.0
 40
1.0
 10
3.6374681559
 20
3.2482602296
 30
0.0
 10
3.6374402812
 20
3.2477866794
 30
0.0
 10
3.6373145945
 20
3.2468320671
 30
0.0
 10
3.6369246374
 20
3.2454208716
 30
0.0
 10
3.6363350404
 20
3.2440293037
 30
0.0
 10
3.6358225482
 20
3.2431412155
 30
0.0
 10
3.6355375759
 20
3.2427040206
 30
0.0
  0
SPLINE
  5
4AF
100
AcDbEntity
  8
0
100
AcDbSpline
 62
9
  6
CONTINUOUS
 70
0
 71
3
 72
17
 73
13
 74
0
 42
0.0000001
 43
0.0000001
 44
0.0000000001
 40
0.0
 40
0.0
 40
0.0
 40
0.0
 40
0.0914763857
 40
0.1412217728
 40
0.1937565073
 40
0.3071588022
 40
0.431218529
 40
0.5646006987
 40
0.7053892534
 40
0.7779073847
 40
0.851443345
 40
1.0
 40
1.0
 40
1.0
 40
1.0
 10
3.6355375759
 20
3.2427040206
 30
0.0
 10
3.6348846809
 20
3.2417023709
 30
0.0
 10
3.6336823707
 20
3.24027796
 30
0.0
 10
3.6317963301
 20
3.2385859528
 30
0.0
 10
3.6295436369
 20
3.236885399
 30
0.0
 10
3.6262612586
 20
3.234963241
 30
0.0
 10
3.6217983196
 20
3.2330467406
 30
0.0
 10
3.6168171851
 20
3.2315071686
 30
0.0
 10
3.6123757181
 20
3.2305772401
 30
0.0
 10
3.6086637466
 20
3.2300435887
 30
0.0
 10
3.6048317727
 20
3.2296558048
 30
0.0
 10
3.6019270812
 20
3.2295396967
 30
0.0
 10
3.599985362
 20
3.2295396959
 30
0.0
  0
LINE
  5
4B0
100
AcDbEntity
  8
0
100
AcDbLine
 62
7
  6
CONTINUOUS
 10
3.6595105695
 20
3.2968563099
 11
3.6600363193
 21
3.292686179
  0
LINE
  5
4B1
100
AcDbEntity
  8
0
100
AcDbLine
 62
7
  6
CONTINUOUS
 10
3.6600871095
 20
3.2913610982
 11
3.6600951409
 21
3.2886317935
  0
LINE
  5
4B2
100
AcDbEntity
  8
ALL_FEATURES
100
AcDbLine
 62
9
  6
CONTINUOUS
 10
3.7625834717
 20
2.4842927143
 11
3.7526908626
 21
2.5197601775
  0
LINE
  5
4B3
100
AcDbEntity
  8
ALL_FEATURES
100
AcDbLine
 62
9
  6
CONTINUOUS
 10
3.2168873178
 20
2.4842929538
 11
3.2267798614
 21
2.5197601775
  0
SPLINE
  5
4B4
100
AcDbEntity
  8
ALL_FEATURES
100
AcDbSpline
 62
9
  6
CONTINUOUS
 70
0
 71
3
 72
9
 73
5
 74
0
 42
0.0000001
 43
0.0000001
 44
0.0000000001
 40
0.0
 40
0.0
 40
0.0
 40
0.0
 40
0.491413522
 40
1.0
 40
1.0
 40
1.0
 40
1.0
 10
3.341985362
 20
3.2488449741
 30
0.0
 10
3.341985362
 20
3.2481206676
 30
0.0
 10
3.3421500703
 20
3.24664267
 30
0.0
 10
3.342621885
 20
3.2452344963
 30
0.0
 10
3.3429255653
 20
3.2445491456
 30
0.0
  0
SPLINE
  5
4B5
100
AcDbEntity
  8
ALL_FEATURES
100
AcDbSpline
 62
9
  6
CONTINUOUS
 70
0
 71
3
 72
19
 73
15
 74
0
 42
0.0000001
 43
0.0000001
 44
0.0000000001
 40
0.0
 40
0.0
 40
0.0
 40
0.0
 40
0.0429289124
 40
0.0882055506
 40
0.1362099474
 40
0.1871894272
 40
0.298338476
 40
0.3585637689
 40
0.4217012968
 40
0.4875673267
 40
0.5559075491
 40
0.6987906539
 40
0.8478680017
 40
1.0
 40
1.0
 40
1.0
 40
1.0
 10
3.3429255653
 20
3.2445491456
 30
0.0
 10
3.3431650916
 20
3.2440085784
 30
0.0
 10
3.3437401318
 20
3.2429332434
 30
0.0
 10
3.3448346089
 20
3.2414041982
 30
0.0
 10
3.3461731252
 20
3.2399302462
 30
0.0
 10
3.3483319675
 20
3.2379966285
 30
0.0
 10
3.3508886225
 20
3.2362809205
 30
0.0
 10
3.3537467354
 20
3.2347739705
 30
0.0
 10
3.356129147
 20
3.2337122514
 30
0.0
 10
3.3586756707
 20
3.2327578859
 30
0.0
 10
3.3623198653
 20
3.2316190995
 30
0.0
 10
3.3671672775
 20
3.230515534
 30
0.0
 10
3.3732391399
 20
3.2297183771
 30
0.0
 10
3.3773900556
 20
3.2295396959
 30
0.0
 10
3.379485362
 20
3.2295396959
 30
0.0
  0
SPLINE
  5
4B6
100
AcDbEntity
  8
ALL_FEATURES
100
AcDbSpline
 62
9
  6
CONTINUOUS
 70
0
 71
3
 72
20
 73
16
 74
0
 42
0.0000001
 43
0.0000001
 44
0.0000000001
 40
0.0
 40
0.0
 40
0.0
 40
0.0
 40
0.0464865968
 40
0.093797881
 40
0.1425575416
 40
0.1933381766
 40
0.2466028454
 40
0.3026581019
 40
0.3616490645
 40
0.423609294
 40
0.5559054501
 40
0.6979720385
 40
0.8471285215
 40
0.9233851664
 40
1.0
 40
1.0
 40
1.0
 40
1.0
 10
3.341985362
 20
3.3266589229
 30
0.0
 10
3.341985362
 20
3.325915785
 30
0.0
 10
3.3421090625
 20
3.3244136586
 30
0.0
 10
3.3426572004
 20
3.3221924735
 30
0.0
 10
3.3435643031
 20
3.3200177831
 30
0.0
 10
3.3448181415
 20
3.3179126988
 30
0.0
 10
3.3464047956
 20
3.3158962225
 30
0.0
 10
3.3483079395
 20
3.3139865044
 30
0.0
 10
3.3505084457
 20
3.3121999113
 30
0.0
 10
3.3538850645
 20
3.309957242
 30
0.0
 10
3.3587390835
 20
3.3075863943
 30
0.0
 10
3.365207955
 20
3.3055235975
 30
0.0
 10
3.3710049247
 20
3.3044731152
 30
0.0
 10
3.3758160501
 20
3.3040433266
 30
0.0
 10
3.378260592
 20
3.3039704296
 30
0.0
 10
3.379485362
 20
3.3039704296
 30
0.0
  0
SPLINE
  5
4B7
100
AcDbEntity
  8
0
100
AcDbSpline
 62
7
  6
CONTINUOUS
 70
0
 71
3
 72
11
 73
7
 74
0
 42
0.0000001
 43
0.0000001
 44
0.0000000001
 40
0.0
 40
0.0
 40
0.0
 40
0.0
 40
0.304928047
 40
0.5648737064
 40
0.7927774986
 40
1.0
 40
1.0
 40
1.0
 40
1.0
 10
3.7585984964
 20
3.3005335841
 30
0.0
 10
3.7587181386
 20
3.3009272198
 30
0.0
 10
3.7589683529
 20
3.3016484839
 30
0.0
 10
3.7594246056
 20
3.3026186532
 30
0.0
 10
3.759933058
 20
3.303410219
 30
0.0
 10
3.7603202627
 20
3.3038546259
 30
0.0
 10
3.760518476
 20
3.3040518106
 30
0.0
  0
SPLINE
  5
4B8
100
AcDbEntity
  8
0
100
AcDbSpline
 62
7
  6
CONTINUOUS
 70
0
 71
3
 72
10
 73
6
 74
0
 42
0.0000001
 43
0.0000001
 44
0.0000000001
 40
0.0
 40
0.0
 40
0.0
 40
0.0
 40
0.5218867156
 40
0.7677460899
 40
1.0
 40
1.0
 40
1.0
 40
1.0
 10
3.755748808
 20
3.2661616553
 30
0.0
 10
3.755675522
 20
3.2689528082
 30
0.0
 10
3.7556446044
 20
3.2730619092
 30
0.0
 10
3.7557977449
 20
3.2784101739
 30
0.0
 10
3.7559408506
 20
3.2809645702
 30
0.0
 10
3.7560311334
 20
3.2822038537
 30
0.0
  0
LINE
  5
4B9
100
AcDbEntity
  8
0
100
AcDbLine
 62
7
  6
CONTINUOUS
 10
3.7611854099
 20
3.2637358701
 11
3.755748808
 21
3.2661616553
  0
SPLINE
  5
4BA
100
AcDbEntity
  8
ALL_FEATURES
100
AcDbSpline
 62
9
  6
CONTINUOUS
 70
0
 71
3
 72
15
 73
11
 74
0
 42
0.0000001
 43
0.0000001
 44
0.0000000001
 40
0.0
 40
0.0
 40
0.0
 40
0.0
 40
0.1253910848
 40
0.2507138175
 40
0.3759426017
 40
0.5010448802
 40
0.6260009898
 40
0.7508041665
 40
0.8754610886
 40
1.0
 40
1.0
 40
1.0
 40
1.0
 10
3.2901862256
 20
2.5461763531
 30
0.0
 10
3.2881023857
 20
2.5466244336
 30
0.0
 10
3.2840045204
 20
2.547882953
 30
0.0
 10
3.2782806277
 20
2.5507913955
 30
0.0
 10
3.2731379007
 20
2.5546293875
 30
0.0
 10
3.2687237119
 20
2.5592770821
 30
0.0
 10
3.2651565745
 20
2.5645933104
 30
0.0
 10
3.2625279173
 20
2.5704224266
 30
0.0
 10
3.260900366
 20
2.576596633
 30
0.0
 10
3.2605057223
 20
2.5808368883
 30
0.0
 10
3.2604830859
 20
2.5829537517
 30
0.0
  0
LINE
  5
4BB
100
AcDbEntity
  8
0
100
AcDbLine
 62
7
  6
CONTINUOUS
 10
3.6576312854
 20
3.2568341091
 11
3.6539981575
 21
3.2603797884
  0
SPLINE
  5
4BC
100
AcDbEntity
  8
0
100
AcDbSpline
 62
7
  6
CONTINUOUS
 70
0
 71
3
 72
9
 73
5
 74
0
 42
0.0000001
 43
0.0000001
 44
0.0000000001
 40
0.0
 40
0.0
 40
0.0
 40
0.0
 40
0.5168587867
 40
1.0
 40
1.0
 40
1.0
 40
1.0
 10
3.6748749499
 20
3.2670549184
 30
0.0
 10
3.6726032833
 20
3.2679771238
 30
0.0
 10
3.6682825255
 20
3.2699528443
 30
0.0
 10
3.6641809355
 20
3.2723579985
 30
0.0
 10
3.6622793391
 20
3.2736371354
 30
0.0
  0
SPLINE
  5
4BD
100
AcDbEntity
  8
ALL_FEATURES
100
AcDbSpline
 62
9
  6
CONTINUOUS
 70
0
 71
3
 72
18
 73
14
 74
0
 42
0.0000001
 43
0.0000001
 44
0.0000000001
 40
0.0
 40
0.0
 40
0.0
 40
0.0
 40
0.1525053169
 40
0.3014113745
 40
0.4432884428
 40
0.5755039238
 40
0.6963659544
 40
0.7525002241
 40
0.805884864
 40
0.8568120691
 40
0.9057431175
 40
0.9532608476
 40
1.0
 40
1.0
 40
1.0
 40
1.0
 10
3.4448717961
 20
3.257805076
 30
0.0
 10
3.4429177892
 20
3.2578050761
 30
0.0
 10
3.4390517781
 20
3.2580342935
 30
0.0
 10
3.4334503503
 20
3.2590555078
 30
0.0
 10
3.4282733338
 20
3.2607177224
 30
0.0
 10
3.423714344
 20
3.2629586732
 30
0.0
 10
3.4204888049
 20
3.2653059688
 30
0.0
 10
3.4184082629
 20
3.2674077847
 30
0.0
 10
3.4171385856
 20
3.2690312709
 30
0.0
 10
3.4161357595
 20
3.2707262082
 30
0.0
 10
3.4154095784
 20
3.2724767841
 30
0.0
 10
3.4149710172
 20
3.2742655567
 30
0.0
 10
3.4148722459
 20
3.2754753446
 30
0.0
 10
3.4148719807
 20
3.2760741999
 30
0.0
  0
SPLINE
  5
4BE
100
AcDbEntity
  8
ALL_FEATURES
100
AcDbSpline
 62
9
  6
CONTINUOUS
 70
0
 71
3
 72
25
 73
21
 74
0
 42
0.0000001
 43
0.0000001
 44
0.0000000001
 40
0.0
 40
0.0
 40
0.0
 40
0.0
 40
0.1901157468
 40
0.3738410445
 40
0.4609827164
 40
0.5438632783
 40
0.6216758966
 40
0.6936412463
 40
0.759087644
 40
0.8173884305
 40
0.8680231521
 40
0.9105703169
 40
0.9287097707
 40
0.9447364125
 40
0.958651346
 40
0.9704769058
 40
0.9802768831
 40
0.9882061693
 40
0.9945794968
 40
1.0
 40
1.0
 40
1.0
 40
1.0
 10
3.405835787
 20
2.8865534
 30
0.0
 10
3.4039024558
 20
2.8870176768
 30
0.0
 10
3.4001106547
 20
2.8879722664
 30
0.0
 10
3.3954623996
 20
2.8892534999
 30
0.0
 10
3.3919151959
 20
2.8903047934
 30
0.0
 10
3.3894404537
 20
2.8910757014
 30
0.0
 10
3.387128623
 20
2.8918350061
 30
0.0
 10
3.3850028305
 20
2.8925753772
 30
0.0
 10
3.3830842336
 20
2.8932889583
 30
0.0
 10
3.381391568
 20
2.8939686285
 30
0.0
 10
3.3799414754
 20
2.8946074107
 30
0.0
 10
3.3788970812
 20
2.8951234682
 30
0.0
 10
3.3781971656
 20
2.895516011
 30
0.0
 10
3.3777692754
 20
2.895780505
 30
0.0
 10
3.3774106138
 20
2.8960303454
 30
0.0
 10
3.3771217832
 20
2.8962650093
 30
0.0
 10
3.3769029213
 20
2.8964844244
 30
0.0
 10
3.3767537722
 20
2.8966893823
 30
0.0
 10
3.3766738828
 20
2.8968828412
 30
0.0
 10
3.3766730753
 20
2.8970106749
 30
0.0
 10
3.3766863684
 20
2.8970657838
 30
0.0
  0
SPLINE
  5
4BF
100
AcDbEntity
  8
ALL_FEATURES
100
AcDbSpline
 62
9
  6
CONTINUOUS
 70
0
 71
3
 72
28
 73
24
 74
0
 42
0.0000001
 43
0.0000001
 44
0.0000000001
 40
0.0
 40
0.0
 40
0.0
 40
0.0
 40
0.1923531777
 40
0.3782466236
 40
0.5501982238
 40
0.6288183117
 40
0.7014540441
 40
0.767404729
 40
0.8260050563
 40
0.8767006685
 40
0.8989271145
 40
0.9189951804
 40
0.9368663001
 40
0.9525074325
 40
0.9658893984
 40
0.9769907277
 40
0.9858168592
 40
0.9893922203
 40
0.992424268
 40
0.9949359434
 40
0.996969344
 40
0.9986057613
 40
1.0
 40
1.0
 40
1.0
 40
1.0
 10
3.2913602841
 20
2.5851198653
 30
0.0
 10
3.2895961124
 20
2.5860451643
 30
0.0
 10
3.2861371291
 20
2.5878840567
 30
0.0
 10
3.2811365792
 20
2.5906161741
 30
0.0
 10
3.2771974054
 20
2.5928336286
 30
0.0
 10
3.2743003877
 20
2.5945105074
 30
0.0
 10
3.2723638548
 20
2.5956551645
 30
0.0
 10
3.2706170277
 20
2.5967131022
 30
0.0
 10
3.2690772222
 20
2.5976739437
 30
0.0
 10
3.2679339303
 20
2.5984145683
 30
0.0
 10
3.2671354325
 20
2.5989530121
 30
0.0
 10
3.2666239327
 20
2.5993089058
 30
0.0
 10
3.2661741646
 20
2.5996339764
 30
0.0
 10
3.2657871309
 20
2.5999274325
 30
0.0
 10
3.2654636548
 20
2.6001884496
 30
0.0
 10
3.2652045769
 20
2.6004163674
 30
0.0
 10
3.2650318414
 20
2.6005883437
 30
0.0
 10
3.2649283396
 20
2.6007102786
 30
0.0
 10
3.2648726092
 20
2.600786662
 30
0.0
 10
3.2648329939
 20
2.6008546322
 30
0.0
 10
3.2648094421
 20
2.6009145385
 30
0.0
 10
3.2648020724
 20
2.600967231
 30
0.0
 10
3.2648098957
 20
2.6009987837
 30
0.0
 10
3.264816605
 20
2.6010115697
 30
0.0
  0
SPLINE
  5
4C0
100
AcDbEntity
  8
ALL_FEATURES
100
AcDbSpline
 62
9
  6
CONTINUOUS
 70
0
 71
3
 72
20
 73
16
 74
0
 42
0.0000001
 43
0.0000001
 44
0.0000000001
 40
0.0
 40
0.0
 40
0.0
 40
0.0
 40
0.187191756
 40
0.3666003519
 40
0.532377642
 40
0.6794663544
 40
0.7445102002
 40
0.8032018218
 40
0.8550730316
 40
0.8997113711
 40
0.9367908266
 40
0.9660012647
 40
0.9871222732
 40
0.9946002062
 40
1.0
 40
1.0
 40
1.0
 40
1.0
 10
3.2964218945
 20
2.5742003574
 30
0.0
 10
3.2960530061
 20
2.5724885913
 30
0.0
 10
3.2953267423
 20
2.5691370545
 30
0.0
 10
3.2942603736
 20
2.5642724944
 30
0.0
 10
3.2932621242
 20
2.5597770654
 30
0.0
 10
3.292484632
 20
2.5563285007
 30
0.0
 10
3.2919190429
 20
2.5538590472
 30
0.0
 10
3.2915480342
 20
2.5522587987
 30
0.0
 10
3.2912154751
 20
2.5508455849
 30
0.0
 10
3.2909239326
 20
2.5496304254
 30
0.0
 10
3.2906759764
 20
2.5486228016
 30
0.0
 10
3.2904733327
 20
2.547830645
 30
0.0
 10
3.2903322263
 20
2.547308527
 30
0.0
 10
3.2902412405
 20
2.5470037835
 30
0.0
 10
3.29020368
 20
2.5468892703
 30
0.0
 10
3.290186231
 20
2.5468418681
 30
0.0
  0
SPLINE
  5
4C1
100
AcDbEntity
  8
ALL_FEATURES
100
AcDbSpline
 62
9
  6
CONTINUOUS
 70
0
 71
3
 72
20
 73
16
 74
0
 42
0.0000001
 43
0.0000001
 44
0.0000000001
 40
0.0
 40
0.0
 40
0.0
 40
0.0
 40
0.1871935225
 40
0.3666034309
 40
0.5323813833
 40
0.6794700556
 40
0.7445136411
 40
0.803204876
 40
0.8550756034
 40
0.8997134008
 40
0.9367922927
 40
0.9660021827
 40
0.9871226927
 40
0.9946004041
 40
1.0
 40
1.0
 40
1.0
 40
1.0
 10
3.6830488295
 20
2.5742003573
 30
0.0
 10
3.6834177137
 20
2.5724886067
 30
0.0
 10
3.6841439688
 20
2.5691371039
 30
0.0
 10
3.6852103241
 20
2.5642725999
 30
0.0
 10
3.6862085587
 20
2.559777237
 30
0.0
 10
3.6869860379
 20
2.5563287333
 30
0.0
 10
3.6875516161
 20
2.5538593324
 30
0.0
 10
3.6879226166
 20
2.5522591241
 30
0.0
 10
3.6882551677
 20
2.5508459498
 30
0.0
 10
3.6885467028
 20
2.5496308277
 30
0.0
 10
3.6887946522
 20
2.5486232381
 30
0.0
 10
3.6889972902
 20
2.5478311113
 30
0.0
 10
3.6891383925
 20
2.5473090149
 30
0.0
 10
3.6892293758
 20
2.5470042858
 30
0.0
 10
3.6892669353
 20
2.5468897787
 30
0.0
 10
3.6892843839
 20
2.5468423794
 30
0.0
  0
SPLINE
  5
4C2
100
AcDbEntity
  8
ALL_FEATURES
100
AcDbSpline
 62
9
  6
CONTINUOUS
 70
0
 71
3
 72
28
 73
24
 74
0
 42
0.0000001
 43
0.0000001
 44
0.0000000001
 40
0.0
 40
0.0
 40
0.0
 40
0.0
 40
0.1923523467
 40
0.3782453053
 40
0.5501968765
 40
0.6288171144
 40
0.7014530841
 40
0.7674040607
 40
0.8260046988
 40
0.8767005995
 40
0.898927168
 40
0.9189953354
 40
0.9368665315
 40
0.9525077112
 40
0.9658896917
 40
0.976991
 40
0.9858170755
 40
0.9893923969
 40
0.9924243987
 40
0.9949360247
 40
0.9969693779
 40
0.9986057616
 40
1.0
 40
1.0
 40
1.0
 40
1.0
 10
3.6881104399
 20
2.5851198653
 30
0.0
 10
3.6898746336
 20
2.5860451712
 30
0.0
 10
3.6933336629
 20
2.5878840796
 30
0.0
 10
3.6983342838
 20
2.5906162252
 30
0.0
 10
3.7022735193
 20
2.5928337073
 30
0.0
 10
3.7051705878
 20
2.5945106112
 30
0.0
 10
3.7071071583
 20
2.5956552881
 30
0.0
 10
3.7088540211
 20
2.5967132456
 30
0.0
 10
3.7103938592
 20
2.5976741064
 30
0.0
 10
3.7115371755
 20
2.5984147465
 30
0.0
 10
3.7123356901
 20
2.5989532019
 30
0.0
 10
3.7128472003
 20
2.5993091033
 30
0.0
 10
3.7132969771
 20
2.5996341809
 30
0.0
 10
3.7136840176
 20
2.599927643
 30
0.0
 10
3.7140074984
 20
2.6001886653
 30
0.0
 10
3.7142665791
 20
2.6004165874
 30
0.0
 10
3.7144393154
 20
2.6005885666
 30
0.0
 10
3.7145428165
 20
2.6007105035
 30
0.0
 10
3.7145985458
 20
2.6007868878
 30
0.0
 10
3.7146381595
 20
2.6008548587
 30
0.0
 10
3.7146617091
 20
2.6009147655
 30
0.0
 10
3.7146690758
 20
2.6009674586
 30
0.0
 10
3.7146612498
 20
2.6009990109
 30
0.0
 10
3.7146545394
 20
2.6010117965
 30
0.0
  0
SPLINE
  5
4C3
100
AcDbEntity
  8
ALL_FEATURES
100
AcDbSpline
 62
9
  6
CONTINUOUS
 70
0
 71
3
 72
25
 73
21
 74
0
 42
0.0000001
 43
0.0000001
 44
0.0000000001
 40
0.0
 40
0.0
 40
0.0
 40
0.0
 40
0.1901157665
 40
0.3738410828
 40
0.4609827625
 40
0.5438633307
 40
0.6216759535
 40
0.6936413054
 40
0.759087703
 40
0.8173884868
 40
0.868023203
 40
0.9105703596
 40
0.9287098084
 40
0.9447364446
 40
0.9586513719
 40
0.9704769252
 40
0.9802768958
 40
0.9882061757
 40
0.9945794984
 40
1.0
 40
1.0
 40
1.0
 40
1.0
 10
3.573634937
 20
2.8865533998
 30
0.0
 10
3.5755682685
 20
2.8870176766
 30
0.0
 10
3.5793600703
 20
2.8879722663
 30
0.0
 10
3.5840083262
 20
2.8892535
 30
0.0
 10
3.5875555305
 20
2.8903047938
 30
0.0
 10
3.590030273
 20
2.8910757018
 30
0.0
 10
3.592342104
 20
2.8918350067
 30
0.0
 10
3.5944678967
 20
2.8925753779
 30
0.0
 10
3.5963864937
 20
2.893288959
 30
0.0
 10
3.5980791594
 20
2.8939686293
 30
0.0
 10
3.5995292518
 20
2.8946074116
 30
0.0
 10
3.6005736459
 20
2.8951234691
 30
0.0
 10
3.6012735614
 20
2.895516012
 30
0.0
 10
3.6017014514
 20
2.8957805059
 30
0.0
 10
3.6020601128
 20
2.8960303463
 30
0.0
 10
3.6023489432
 20
2.8962650103
 30
0.0
 10
3.6025678049
 20
2.8964844253
 30
0.0
 10
3.6027169537
 20
2.8966893832
 30
0.0
 10
3.6027968429
 20
2.8968828421
 30
0.0
 10
3.60279765
 20
2.8970106757
 30
0.0
 10
3.6027843569
 20
2.8970657846
 30
0.0
  0
SPLINE
  5
4C4
100
AcDbEntity
  8
ALL_FEATURES
100
AcDbSpline
 62
9
  6
CONTINUOUS
 70
0
 71
3
 72
18
 73
14
 74
0
 42
0.0000001
 43
0.0000001
 44
0.0000000001
 40
0.0
 40
0.0
 40
0.0
 40
0.0
 40
0.1525054236
 40
0.3014115642
 40
0.443288674
 40
0.5755041432
 40
0.6963661112
 40
0.7525003374
 40
0.8058849307
 40
0.8568120938
 40
0.9057431125
 40
0.9532608326
 40
1.0
 40
1.0
 40
1.0
 40
1.0
 10
3.5345989279
 20
3.257805076
 30
0.0
 10
3.5365529402
 20
3.257805076
 30
0.0
 10
3.5404189619
 20
3.2580342946
 30
0.0
 10
3.5460204039
 20
3.2590555145
 30
0.0
 10
3.5511974313
 20
3.2607177379
 30
0.0
 10
3.555756427
 20
3.2629587001
 30
0.0
 10
3.5589819663
 20
3.2653060074
 30
0.0
 10
3.5610625045
 20
3.2674078332
 30
0.0
 10
3.562332177
 20
3.2690313266
 30
0.0
 10
3.5633349964
 20
3.2707262709
 30
0.0
 10
3.5640611688
 20
3.2724768536
 30
0.0
 10
3.5644997195
 20
3.2742656325
 30
0.0
 10
3.5645984825
 20
3.2754754238
 30
0.0
 10
3.5645987433
 20
3.2760742805
 30
0.0
  0
LINE
  5
4C5
100
AcDbEntity
  8
ALL_FEATURES
100
AcDbLine
 62
9
  6
CONTINUOUS
 10
3.6892844953
 20
2.5461763679
 11
3.6955201674
 21
2.5174871029
  0
LINE
  5
4C6
100
AcDbEntity
  8
ALL_FEATURES
100
AcDbLine
 62
9
  6
CONTINUOUS
 10
3.2901862691
 20
2.5461765573
 11
3.2839505566
 21
2.5174870975
  0
SPLINE
  5
4C7
100
AcDbEntity
  8
ALL_FEATURES
100
AcDbSpline
 62
9
  6
CONTINUOUS
 70
0
 71
3
 72
22
 73
18
 74
0
 42
0.0000001
 43
0.0000001
 44
0.0000000001
 40
0.0
 40
0.0
 40
0.0
 40
0.0
 40
0.0063984781
 40
0.0148011607
 40
0.025222569
 40
0.0376496591
 40
0.0684337095
 40
0.1069509195
 40
0.1528844049
 40
0.2058456771
 40
0.2654087789
 40
0.331053469
 40
0.4022376155
 40
0.4783509503
 40
0.6426980373
 40
0.818630227
 40
1.0
 40
1.0
 40
1.0
 40
1.0
 10
3.3017335988
 20
2.6774037606
 30
0.0
 10
3.3016877072
 20
2.6774496772
 30
0.0
 10
3.3015737474
 20
2.6775479632
 30
0.0
 10
3.3013690392
 20
2.6777016028
 30
0.0
 10
3.3011071882
 20
2.6778805675
 30
0.0
 10
3.3006488069
 20
2.6781738822
 30
0.0
 10
3.2999352819
 20
2.6785967325
 30
0.0
 10
3.2989147564
 20
2.6791673237
 30
0.0
 10
3.2976859704
 20
2.6798260784
 30
0.0
 10
3.2962593184
 20
2.6805673224
 30
0.0
 10
3.2946468134
 20
2.6813844122
 30
0.0
 10
3.292862086
 20
2.6822704997
 30
0.0
 10
3.2909203588
 20
2.6832178435
 30
0.0
 10
3.2880703757
 20
2.6845872798
 30
0.0
 10
3.2842478082
 20
2.686386291
 30
0.0
 10
3.2794394071
 20
2.6885979297
 30
0.0
 10
3.2761338995
 20
2.6900864222
 30
0.0
 10
3.2744530737
 20
2.6908354208
 30
0.0
  0
SPLINE
  5
4C8
100
AcDbEntity
  8
0
100
AcDbSpline
 62
7
  6
CONTINUOUS
 70
0
 71
3
 72
11
 73
7
 74
0
 42
0.0000001
 43
0.0000001
 44
0.0000000001
 40
0.0
 40
0.0
 40
0.0
 40
0.0
 40
0.2350223043
 40
0.4806961546
 40
0.7362783471
 40
1.0
 40
1.0
 40
1.0
 40
1.0
 10
3.6533486551
 20
3.2776662101
 30
0.0
 10
3.6535007496
 20
3.2785403963
 30
0.0
 10
3.6538319865
 20
3.2803250088
 30
0.0
 10
3.6544213522
 20
3.2830420852
 30
0.0
 10
3.6551224953
 20
3.2858442645
 30
0.0
 10
3.6556512448
 20
3.287732518
 30
0.0
 10
3.6559321907
 20
3.2886877311
 30
0.0
  0
SPLINE
  5
4C9
100
AcDbEntity
  8
0
100
AcDbSpline
 62
9
  6
CONTINUOUS
 70
0
 71
3
 72
15
 73
11
 74
0
 42
0.0000001
 43
0.0000001
 44
0.0000000001
 40
0.0
 40
0.0
 40
0.0
 40
0.0
 40
0.0974737327
 40
0.2032419017
 40
0.3180728044
 40
0.4418736228
 40
0.5736914254
 40
0.7119696283
 40
0.8548548959
 40
1.0
 40
1.0
 40
1.0
 40
1.0
 10
3.6359148998
 20
3.3201617635
 30
0.0
 10
3.6366265883
 20
3.321602444
 30
0.0
 10
3.6384768263
 20
3.3244330591
 30
0.0
 10
3.6421746702
 20
3.328188205
 30
0.0
 10
3.6467949046
 20
3.3315272224
 30
0.0
 10
3.652217549
 20
3.3343742436
 30
0.0
 10
3.6583101271
 20
3.3366629816
 30
0.0
 10
3.66492177
 20
3.3383401332
 30
0.0
 10
3.6718860866
 20
3.3393623682
 30
0.0
 10
3.6766375914
 20
3.3395913669
 30
0.0
 10
3.6790303452
 20
3.3395913641
 30
0.0
  0
SPLINE
  5
4CA
100
AcDbEntity
  8
0
100
AcDbSpline
 62
7
  6
CONTINUOUS
 70
0
 71
3
 72
17
 73
13
 74
0
 42
0.0000001
 43
0.0000001
 44
0.0000000001
 40
0.0
 40
0.0
 40
0.0
 40
0.0
 40
0.1238766763
 40
0.2550790717
 40
0.3221214709
 40
0.3894295477
 40
0.45652288
 40
0.5229327217
 40
0.651843605
 40
0.7740147419
 40
0.8898968536
 40
1.0
 40
1.0
 40
1.0
 40
1.0
 10
3.6559105419
 20
3.2886811979
 30
0.0
 10
3.6563083942
 20
3.2900379997
 30
0.0
 10
3.657185965
 20
3.2928150149
 30
0.0
 10
3.6584382571
 20
3.2962731886
 30
0.0
 10
3.6595678246
 20
3.299086161
 30
0.0
 10
3.6604786457
 20
3.3011976233
 30
0.0
 10
3.6614397788
 20
3.3032787234
 30
0.0
 10
3.6627649483
 20
3.3059650964
 30
0.0
 10
3.6644949006
 20
3.3091516618
 30
0.0
 10
3.6667085902
 20
3.3127105684
 30
0.0
 10
3.669020418
 20
3.3159460656
 30
0.0
 10
3.6706627025
 20
3.3179386348
 30
0.0
 10
3.6714997866
 20
3.3188759884
 30
0.0
  0
SPLINE
  5
4CB
100
AcDbEntity
  8
0
100
AcDbSpline
 62
7
  6
CONTINUOUS
 70
0
 71
3
 72
9
 73
5
 74
0
 42
0.0000001
 43
0.0000001
 44
0.0000000001
 40
0.0
 40
0.0
 40
0.0
 40
0.0
 40
0.5171473877
 40
1.0
 40
1.0
 40
1.0
 40
1.0
 10
3.6714997866
 20
3.3188759884
 30
0.0
 10
3.6724692556
 20
3.3199615846
 30
0.0
 10
3.6744414601
 20
3.321976639
 30
0.0
 10
3.6766257955
 20
3.3237639186
 30
0.0
 10
3.677732895
 20
3.3245520004
 30
0.0
  0
SPLINE
  5
4CC
100
AcDbEntity
  8
0
100
AcDbSpline
 62
9
  6
CONTINUOUS
 70
0
 71
3
 72
13
 73
9
 74
0
 42
0.0000001
 43
0.0000001
 44
0.0000000001
 40
0.0
 40
0.0
 40
0.0
 40
0.0
 40
0.119804267
 40
0.2404901124
 40
0.3623428468
 40
0.4857537297
 40
0.7382555199
 40
1.0
 40
1.0
 40
1.0
 40
1.0
 10
3.637468152
 20
3.2482602568
 30
0.0
 10
3.6375089859
 20
3.2495098734
 30
0.0
 10
3.6377419892
 20
3.252015821
 30
0.0
 10
3.6385340115
 20
3.2557217732
 30
0.0
 10
3.6397652047
 20
3.2593462787
 30
0.0
 10
3.6419865858
 20
3.2640526871
 30
0.0
 10
3.6458187315
 20
3.269559396
 30
0.0
 10
3.6497531714
 20
3.2732680915
 30
0.0
 10
3.6519074172
 20
3.2749476004
 30
0.0
  0
SPLINE
  5
4CD
100
AcDbEntity
  8
ALL_FEATURES
100
AcDbSpline
 62
9
  6
CONTINUOUS
 70
0
 71
3
 72
26
 73
22
 74
0
 42
0.0000001
 43
0.0000001
 44
0.0000000001
 40
0.0
 40
0.0
 40
0.0
 40
0.0
 40
0.0017903322
 40
0.0037725945
 40
0.0060888598
 40
0.0088287851
 40
0.0157661327
 40
0.0248192608
 40
0.0360749822
 40
0.04955621
 40
0.0652538811
 40
0.0831473663
 40
0.1032098077
 40
0.1254058754
 40
0.175977094
 40
0.234390551
 40
0.3001084348
 40
0.4508267958
 40
0.6222554908
 40
0.8077681367
 40
1.0
 40
1.0
 40
1.0
 40
1.0
 10
3.2980062632
 20
2.8802155271
 30
0.0
 10
3.2980001843
 20
2.8801933054
 30
0.0
 10
3.2979958038
 20
2.8801438815
 30
0.0
 10
3.2980134761
 20
2.8800666236
 30
0.0
 10
3.2980533926
 20
2.8799847017
 30
0.0
 10
3.2981429716
 20
2.8798584491
 30
0.0
 10
3.2983165682
 20
2.8796891114
 30
0.0
 10
3.2985954411
 20
2.8794761848
 30
0.0
 10
3.2989611081
 20
2.8792401963
 30
0.0
 10
3.2994128259
 20
2.8789816964
 30
0.0
 10
3.2999499241
 20
2.8787013607
 30
0.0
 10
3.3005711724
 20
2.8783999786
 30
0.0
 10
3.3012752752
 20
2.8780783107
 30
0.0
 10
3.302371022
 20
2.8776024899
 30
0.0
 10
3.3039352031
 20
2.8769671861
 30
0.0
 10
3.3060362546
 20
2.8761671539
 30
0.0
 10
3.3093630175
 20
2.8749660704
 30
0.0
 10
3.314093285
 20
2.8733720489
 30
0.0
 10
3.3203242038
 20
2.8714086829
 30
0.0
 10
3.3270987266
 20
2.8693962529
 30
0.0
 10
3.3317784216
 20
2.8680808248
 30
0.0
 10
3.3341645419
 20
2.8674285698
 30
0.0
  0
SPLINE
  5
4CE
100
AcDbEntity
  8
0
100
AcDbSpline
 62
7
  6
CONTINUOUS
 70
0
 71
3
 72
11
 73
7
 74
0
 42
0.0000001
 43
0.0000001
 44
0.0000000001
 40
0.0
 40
0.0
 40
0.0
 40
0.0
 40
0.2312140786
 40
0.4752599936
 40
0.7318075962
 40
1.0
 40
1.0
 40
1.0
 40
1.0
 10
3.652591937
 20
3.2640173258
 30
0.0
 10
3.6524877478
 20
3.2646942802
 30
0.0
 10
3.6523445941
 20
3.266097166
 30
0.0
 10
3.6522992753
 20
3.268266243
 30
0.0
 10
3.6524009872
 20
3.2705426761
 30
0.0
 10
3.652552976
 20
3.2720903404
 30
0.0
 10
3.652647343
 20
3.2728791822
 30
0.0
  0
LINE
  5
4CF
100
AcDbEntity
  8
0
100
AcDbLine
 62
7
  6
CONTINUOUS
 10
3.6566988554
 20
3.2562281683
 11
3.6530199146
 21
3.2564555264
  0
SPLINE
  5
4D0
100
AcDbEntity
  8
0
100
AcDbSpline
 62
7
  6
CONTINUOUS
 70
0
 71
3
 72
18
 73
14
 74
0
 42
0.0000001
 43
0.0000001
 44
0.0000000001
 40
0.0
 40
0.0
 40
0.0
 40
0.0
 40
0.0994437603
 40
0.1912749475
 40
0.2762354359
 40
0.3550464177
 40
0.4968631175
 40
0.6210774665
 40
0.7307834572
 40
0.8285908885
 40
0.8739205491
 40
0.9173540755
 40
1.0
 40
1.0
 40
1.0
 40
1.0
 10
3.6824875227
 20
3.2507962629
 30
0.0
 10
3.681613915
 20
3.2509209932
 30
0.0
 10
3.6799312398
 20
3.2511447705
 30
0.0
 10
3.6774965808
 20
3.2514305461
 30
0.0
 10
3.6752414847
 20
3.2516744002
 30
0.0
 10
3.672544314
 20
3.2519555994
 30
0.0
 10
3.6695019796
 20
3.2522859162
 30
0.0
 10
3.6661974745
 20
3.2527373283
 30
0.0
 10
3.6633048454
 20
3.2532948635
 30
0.0
 10
3.6611427979
 20
3.2539120809
 30
0.0
 10
3.659599398
 20
3.2545151246
 30
0.0
 10
3.6582249084
 20
3.2551680474
 30
0.0
 10
3.6572735353
 20
3.2557725124
 30
0.0
 10
3.6566988554
 20
3.2562281683
 30
0.0
  0
SPLINE
  5
4D1
100
AcDbEntity
  8
0
100
AcDbSpline
 62
7
  6
CONTINUOUS
 70
0
 71
3
 72
11
 73
7
 74
0
 42
0.0000001
 43
0.0000001
 44
0.0000000001
 40
0.0
 40
0.0
 40
0.0
 40
0.0
 40
0.226898661
 40
0.4690803697
 40
0.7268519377
 40
1.0
 40
1.0
 40
1.0
 40
1.0
 10
3.7459116106
 20
3.3241887674
 30
0.0
 10
3.7469366134
 20
3.3234731726
 30
0.0
 10
3.748965095
 20
3.3218616044
 30
0.0
 10
3.7518357837
 20
3.3190618935
 30
0.0
 10
3.7546195822
 20
3.3158321363
 30
0.0
 10
3.756359788
 20
3.3134776079
 30
0.0
 10
3.7572150841
 20
3.3122393978
 30
0.0
  0
SPLINE
  5
4D2
100
AcDbEntity
  8
0
100
AcDbSpline
 62
7
  6
CONTINUOUS
 70
0
 71
3
 72
36
 73
32
 74
0
 42
0.0000001
 43
0.0000001
 44
0.0000000001
 40
0.0
 40
0.0
 40
0.0
 40
0.0
 40
0.1029744528
 40
0.1506645497
 40
0.1949865307
 40
0.2359388696
 40
0.2737868364
 40
0.308792513
 40
0.3412672458
 40
0.371567269
 40
0.4000509871
 40
0.4270289875
 40
0.4527625283
 40
0.4775307222
 40
0.501580779
 40
0.5250776709
 40
0.5482273169
 40
0.5712864329
 40
0.5945357226
 40
0.6183143011
 40
0.6429870213
 40
0.6686820509
 40
0.6953409649
 40
0.7228429496
 40
0.7511102536
 40
0.7800661945
 40
0.8095751138
 40
0.8395835035
 40
0.8701779424
 40
0.9334530909
 40
1.0
 40
1.0
 40
1.0
 40
1.0
 10
3.7665716224
 20
3.294325041
 30
0.0
 10
3.7673291226
 20
3.2923860073
 30
0.0
 10
3.7683439146
 20
3.2895110186
 30
0.0
 10
3.769472986
 20
3.2857338452
 30
0.0
 10
3.7701576961
 20
3.2831339187
 30
0.0
 10
3.7707082729
 20
3.2807060014
 30
0.0
 10
3.7711367626
 20
3.2784450397
 30
0.0
 10
3.7714580133
 20
3.2763396021
 30
0.0
 10
3.7716810322
 20
3.2743749353
 30
0.0
 10
3.7718105865
 20
3.2725339949
 30
0.0
 10
3.7718535953
 20
3.2708001257
 30
0.0
 10
3.7718125419
 20
3.2691583961
 30
0.0
 10
3.7716819829
 20
3.2675964925
 30
0.0
 10
3.7714581709
 20
3.2661048705
 30
0.0
 10
3.7711365529
 20
3.2646772293
 30
0.0
 10
3.7707047942
 20
3.2633127353
 30
0.0
 10
3.770151543
 20
3.2620140975
 30
0.0
 10
3.7694660176
 20
3.2607853224
 30
0.0
 10
3.7686355252
 20
3.2596332364
 30
0.0
 10
3.7676487572
 20
3.2585663063
 30
0.0
 10
3.7664993424
 20
3.2575986806
 30
0.0
 10
3.7652038759
 20
3.256729964
 30
0.0
 10
3.7637828783
 20
3.2559593474
 30
0.0
 10
3.7622549403
 20
3.2552901576
 30
0.0
 10
3.7606409389
 20
3.2547136499
 30
0.0
 10
3.7589603067
 20
3.2542117592
 30
0.0
 10
3.7572278038
 20
3.2537661473
 30
0.0
 10
3.7554515193
 20
3.2533611222
 30
0.0
 10
3.7529987853
 20
3.2528547404
 30
0.0
 10
3.7498104413
 20
3.252261367
 30
0.0
 10
3.7472308342
 20
3.2517776771
 30
0.0
 10
3.7459116106
 20
3.2515139803
 30
0.0
  0
SPLINE
  5
4D3
100
AcDbEntity
  8
ALL_FEATURES
100
AcDbSpline
 62
9
  6
CONTINUOUS
 70
0
 71
3
 72
31
 73
27
 74
0
 42
0.0000001
 43
0.0000001
 44
0.0000000001
 40
0.0
 40
0.0
 40
0.0
 40
0.0
 40
0.0006365691
 40
0.0011074857
 40
0.0017065206
 40
0.0033179314
 40
0.005502929
 40
0.0082716113
 40
0.0116279873
 40
0.0201083126
 40
0.0309443629
 40
0.0441146117
 40
0.0595834991
 40
0.0773138436
 40
0.0972677762
 40
0.1194030724
 40
0.1699777464
 40
0.2285354298
 40
0.29452151
 40
0.3672757596
 40
0.4461050106
 40
0.5302168262
 40
0.6187837233
 40
0.7109597926
 40
0.8058836964
 40
1.0
 40
1.0
 40
1.0
 40
1.0
 10
3.1746758875
 20
2.5879877707
 30
0.0
 10
3.1746718292
 20
2.5879807911
 30
0.0
 10
3.1746734838
 20
2.587964797
 30
0.0
 10
3.1746825557
 20
2.5879455466
 30
0.0
 10
3.1747008877
 20
2.5879166043
 30
0.0
 10
3.174737322
 20
2.5878743069
 30
0.0
 10
3.1747964822
 20
2.587815629
 30
0.0
 10
3.1748751849
 20
2.5877454788
 30
0.0
 10
3.1750176112
 20
2.5876269946
 30
0.0
 10
3.1752456165
 20
2.5874516281
 30
0.0
 10
3.175578771
 20
2.5872091525
 30
0.0
 10
3.1759888824
 20
2.5869219162
 30
0.0
 10
3.1764748465
 20
2.5865906646
 30
0.0
 10
3.1770355166
 20
2.5862163092
 30
0.0
 10
3.1776696289
 20
2.5857997266
 30
0.0
 10
3.1786557933
 20
2.5851603795
 30
0.0
 10
3.1800596769
 20
2.5842653607
 30
0.0
 10
3.1819408084
 20
2.5830844646
 30
0.0
 10
3.184067442
 20
2.5817656239
 30
0.0
 10
3.1864189405
 20
2.5803215953
 30
0.0
 10
3.188972152
 20
2.578766768
 30
0.0
 10
3.1917019624
 20
2.5771163751
 30
0.0
 10
3.1945816191
 20
2.5753866714
 30
0.0
 10
3.1975835424
 20
2.5735942238
 30
0.0
 10
3.2017409468
 20
2.5711256894
 30
0.0
 10
3.204899675
 20
2.5692651006
 30
0.0
 10
3.2070238235
 20
2.5680203045
 30
0.0
  0
SPLINE
  5
4D4
100
AcDbEntity
  8
0
100
AcDbSpline
 62
9
  6
CONTINUOUS
 70
0
 71
3
 72
15
 73
11
 74
0
 42
0.0000001
 43
0.0000001
 44
0.0000000001
 40
0.0
 40
0.0
 40
0.0
 40
0.0
 40
0.1202685131
 40
0.2411981864
 40
0.363097781
 40
0.4864071477
 40
0.6115307462
 40
0.7387784985
 40
0.868321256
 40
1.0
 40
1.0
 40
1.0
 40
1.0
 10
3.6374875233
 20
3.2443547939
 30
0.0
 10
3.6374875449
 20
3.2456971739
 30
0.0
 10
3.6376570689
 20
3.2483922209
 30
0.0
 10
3.6384113343
 20
3.2523841695
 30
0.0
 10
3.6396615892
 20
3.2562856796
 30
0.0
 10
3.641389786
 20
3.2600512015
 30
0.0
 10
3.643577713
 20
3.263639183
 30
0.0
 10
3.6461997982
 20
3.2670114555
 30
0.0
 10
3.6492267624
 20
3.2701270986
 30
0.0
 10
3.6514716789
 20
3.271997175
 30
0.0
 10
3.652647343
 20
3.2728791822
 30
0.0
  0
LINE
  5
4D5
100
AcDbEntity
  8
0
100
AcDbLine
 62
7
  6
CONTINUOUS
 10
4.0371421569
 20
5.6563251084
 11
4.0363719639
 21
5.6535946998
  0
LINE
  5
4D6
100
AcDbEntity
  8
0
100
AcDbLine
 62
7
  6
CONTINUOUS
 10
4.0363719639
 20
5.6535946998
 11
4.034889862
 21
5.6510112686
  0
LINE
  5
4D7
100
AcDbEntity
  8
0
100
AcDbLine
 62
7
  6
CONTINUOUS
 10
4.034889862
 20
5.6510112686
 11
4.0326931675
 21
5.6485264527
  0
LINE
  5
4D8
100
AcDbEntity
  8
0
100
AcDbLine
 62
7
  6
CONTINUOUS
 10
4.0326931675
 20
5.6485264527
 11
4.0298417806
 21
5.6462107935
  0
LINE
  5
4D9
100
AcDbEntity
  8
0
100
AcDbLine
 62
7
  6
CONTINUOUS
 10
3.9352354126
 20
5.645329295
 11
3.9352712042
 21
5.6463264311
  0
LINE
  5
4DA
100
AcDbEntity
  8
0
100
AcDbLine
 62
7
  6
CONTINUOUS
 10
3.9352712042
 20
5.6463264311
 11
3.935412123
 21
5.6477076234
  0
SPLINE
  5
4DB
100
AcDbEntity
  8
0
100
AcDbSpline
 62
7
  6
CONTINUOUS
 70
0
 71
3
 72
9
 73
5
 74
0
 42
0.0000001
 43
0.0000001
 44
0.0000000001
 40
0.0
 40
0.0
 40
0.0
 40
0.0
 40
0.5103925501
 40
1.0
 40
1.0
 40
1.0
 40
1.0
 10
3.986235362
 20
5.6372528989
 30
0.0
 10
3.9834523798
 20
5.6374041982
 30
0.0
 10
3.9780082862
 20
5.6378919476
 30
0.0
 10
3.9726147473
 20
5.6387882873
 30
0.0
 10
3.9699992573
 20
5.6393426348
 30
0.0
  0
SPLINE
  5
4DC
100
AcDbEntity
  8
0
100
AcDbSpline
 62
7
  6
CONTINUOUS
 70
0
 71
3
 72
11
 73
7
 74
0
 42
0.0000001
 43
0.0000001
 44
0.0000000001
 40
0.0
 40
0.0
 40
0.0
 40
0.0
 40
0.2457699442
 40
0.4969381062
 40
0.7496784532
 40
1.0
 40
1.0
 40
1.0
 40
1.0
 10
3.986235362
 20
5.6944412422
 30
0.0
 10
3.9888078972
 20
5.6944585474
 30
0.0
 10
3.9940144248
 20
5.694205719
 30
0.0
 10
4.0017891382
 20
5.6930637812
 30
0.0
 10
4.0094723545
 20
5.69120278
 30
0.0
 10
4.014464034
 20
5.6894973731
 30
0.0
 10
4.0168992329
 20
5.6885301865
 30
0.0
  0
SPLINE
  5
4DD
100
AcDbEntity
  8
0
100
AcDbSpline
 62
7
  6
CONTINUOUS
 70
0
 71
3
 72
11
 73
7
 74
0
 42
0.0000001
 43
0.0000001
 44
0.0000000001
 40
0.0
 40
0.0
 40
0.0
 40
0.0
 40
0.2551464642
 40
0.5087210841
 40
0.7579521535
 40
1.0
 40
1.0
 40
1.0
 40
1.0
 10
3.9571606455
 20
5.6891365822
 30
0.0
 10
3.9595255892
 20
5.6900247242
 30
0.0
 10
3.9643269417
 20
5.691574265
 30
0.0
 10
3.9716546947
 20
5.6932360042
 30
0.0
 10
3.9789712492
 20
5.6942316041
 30
0.0
 10
3.9838388597
 20
5.6944513676
 30
0.0
 10
3.986235362
 20
5.6944412422
 30
0.0
  0
SPLINE
  5
4DE
100
AcDbEntity
  8
ALL_FEATURES
100
AcDbSpline
 62
7
  6
CONTINUOUS
 70
0
 71
3
 72
14
 73
10
 74
0
 42
0.0000001
 43
0.0000001
 44
0.0000000001
 40
0.0
 40
0.0
 40
0.0
 40
0.0
 40
0.2600960407
 40
0.3885427955
 40
0.5154197762
 40
0.6403485515
 40
0.7629684235
 40
0.8829463059
 40
1.0
 40
1.0
 40
1.0
 40
1.0
 10
3.5732698296
 20
5.2427512591
 30
0.0
 10
3.5807875702
 20
5.2700977749
 30
0.0
 10
3.5905673824
 20
5.3113694765
 30
0.0
 10
3.6005900714
 20
5.366678102
 30
0.0
 10
3.6065547582
 20
5.4077189373
 30
0.0
 10
3.6110515113
 20
5.4483055135
 30
0.0
 10
3.6141809437
 20
5.4882649491
 30
0.0
 10
3.6161006961
 20
5.527439245
 30
0.0
 10
3.6167332019
 20
5.5532797798
 30
0.0
 10
3.6169302667
 20
5.5660418668
 30
0.0
  0
LINE
  5
4DF
100
AcDbEntity
  8
ALL_FEATURES
100
AcDbLine
 62
7
  6
CONTINUOUS
 10
3.6169302667
 20
5.5660418668
 11
3.6169793239
 21
5.5693857024
  0
SPLINE
  5
4E0
100
AcDbEntity
  8
0
100
AcDbSpline
 62
7
  6
CONTINUOUS
 70
0
 71
3
 72
9
 73
5
 74
0
 42
0.0000001
 43
0.0000001
 44
0.0000000001
 40
0.0
 40
0.0
 40
0.0
 40
0.0
 40
0.466042437
 40
1.0
 40
1.0
 40
1.0
 40
1.0
 10
3.9282699146
 20
5.6189555264
 30
0.0
 10
3.928094345
 20
5.62012001
 30
0.0
 10
3.9278469081
 20
5.6226388838
 30
0.0
 10
3.9278140972
 20
5.6251683412
 30
0.0
 10
3.9278419312
 20
5.6265173137
 30
0.0
  0
SPLINE
  5
4E1
100
AcDbEntity
  8
0
100
AcDbSpline
 62
7
  6
CONTINUOUS
 70
0
 71
3
 72
11
 73
7
 74
0
 42
0.0000001
 43
0.0000001
 44
0.0000000001
 40
0.0
 40
0.0
 40
0.0
 40
0.0
 40
0.2718650687
 40
0.5268178595
 40
0.7680494923
 40
1.0
 40
1.0
 40
1.0
 40
1.0
 10
4.0338484964
 20
5.6630335841
 30
0.0
 10
4.0343050542
 20
5.6625196779
 30
0.0
 10
4.0351343371
 20
5.6614720816
 30
0.0
 10
4.0361292462
 20
5.6597967109
 30
0.0
 10
4.0368221417
 20
5.6580829051
 30
0.0
 10
4.037081077
 20
5.6569076109
 30
0.0
 10
4.0371556821
 20
5.6563258816
 30
0.0
  0
LINE
  5
4E2
100
AcDbEntity
  8
0
100
AcDbLine
 62
7
  6
CONTINUOUS
 10
3.9362544063
 20
5.641785456
 11
3.9354596588
 21
5.6448141852
  0
SPLINE
  5
4E3
100
AcDbEntity
  8
0
100
AcDbSpline
 62
7
  6
CONTINUOUS
 70
0
 71
3
 72
15
 73
11
 74
0
 42
0.0000001
 43
0.0000001
 44
0.0000000001
 40
0.0
 40
0.0
 40
0.0
 40
0.0
 40
0.1293072965
 40
0.2530506227
 40
0.3737076576
 40
0.4934594888
 40
0.6140929274
 40
0.7376794799
 40
0.865849978
 40
1.0
 40
1.0
 40
1.0
 40
1.0
 10
3.944732352
 20
5.6269121458
 30
0.0
 10
3.9441161183
 20
5.6273596728
 30
0.0
 10
3.9429485693
 20
5.6282904507
 30
0.0
 10
3.9413728416
 20
5.6298328304
 30
0.0
 10
3.940007316
 20
5.6314922661
 30
0.0
 10
3.9388433084
 20
5.6332773072
 30
0.0
 10
3.9378841948
 20
5.6351996167
 30
0.0
 10
3.9371247026
 20
5.6372617346
 30
0.0
 10
3.9365669915
 20
5.639469186
 30
0.0
 10
3.9363384962
 20
5.6409998275
 30
0.0
 10
3.9362544063
 20
5.641785456
 30
0.0
  0
LINE
  5
4E4
100
AcDbEntity
  8
0
100
AcDbLine
 62
7
  6
CONTINUOUS
 10
3.9278419312
 20
5.6265173137
 11
3.9278357838
 21
5.6310465279
  0
LINE
  5
4E5
100
AcDbEntity
  8
0
100
AcDbLine
 62
7
  6
CONTINUOUS
 10
3.9278357838
 20
5.6310465279
 11
3.9281872573
 21
5.6353413901
  0
SPLINE
  5
4E6
100
AcDbEntity
  8
0
100
AcDbSpline
 62
7
  6
CONTINUOUS
 70
0
 71
3
 72
9
 73
5
 74
0
 42
0.0000001
 43
0.0000001
 44
0.0000000001
 40
0.0
 40
0.0
 40
0.0
 40
0.0
 40
0.4849623125
 40
1.0
 40
1.0
 40
1.0
 40
1.0
 10
3.9286602632
 20
5.6389076036
 30
0.0
 10
3.9289636017
 20
5.6408955858
 30
0.0
 10
3.9296656958
 20
5.6449839069
 30
0.0
 10
3.9305965461
 20
5.6490281861
 30
0.0
 10
3.9311452677
 20
5.651092197
 30
0.0
  0
LINE
  5
4E7
100
AcDbEntity
  8
0
100
AcDbLine
 62
7
  6
CONTINUOUS
 10
3.9311452677
 20
5.651092197
 11
3.9311929874
 21
5.6512709981
  0
SPLINE
  5
4E8
100
AcDbEntity
  8
0
100
AcDbSpline
 62
7
  6
CONTINUOUS
 70
0
 71
3
 72
9
 73
5
 74
0
 42
0.0000001
 43
0.0000001
 44
0.0000000001
 40
0.0
 40
0.0
 40
0.0
 40
0.0
 40
0.5006664861
 40
1.0
 40
1.0
 40
1.0
 40
1.0
 10
3.9514103886
 20
5.6843775036
 30
0.0
 10
3.9523013643
 20
5.6852494001
 30
0.0
 10
3.9541473376
 20
5.6869246881
 30
0.0
 10
3.956139528
 20
5.688426623
 30
0.0
 10
3.9571725555
 20
5.6891184549
 30
0.0
  0
SPLINE
  5
4E9
100
AcDbEntity
  8
0
100
AcDbSpline
 62
7
  6
CONTINUOUS
 70
0
 71
3
 72
11
 73
7
 74
0
 42
0.0000001
 43
0.0000001
 44
0.0000000001
 40
0.0
 40
0.0
 40
0.0
 40
0.0
 40
0.240157243
 40
0.4871112759
 40
0.7404958811
 40
1.0
 40
1.0
 40
1.0
 40
1.0
 10
3.9372017926
 20
5.6554195174
 30
0.0
 10
3.9373485446
 20
5.6561804796
 30
0.0
 10
3.9376744772
 20
5.6577186599
 30
0.0
 10
3.9382594343
 20
5.6600361094
 30
0.0
 10
3.9389482269
 20
5.6623899283
 30
0.0
 10
3.9394707705
 20
5.6639608231
 30
0.0
 10
3.93974974
 20
5.6647504059
 30
0.0
  0
SPLINE
  5
4EA
100
AcDbEntity
  8
0
100
AcDbSpline
 62
7
  6
CONTINUOUS
 70
0
 71
3
 72
14
 73
10
 74
0
 42
0.0000001
 43
0.0000001
 44
0.0000000001
 40
0.0
 40
0.0
 40
0.0
 40
0.0
 40
0.1168788442
 40
0.2361273413
 40
0.3576760684
 40
0.481492165
 40
0.6075603739
 40
0.7359318485
 40
1.0
 40
1.0
 40
1.0
 40
1.0
 10
3.93974974
 20
5.6647504059
 30
0.0
 10
3.9400281766
 20
5.6655384804
 30
0.0
 10
3.940620638
 20
5.6671202314
 30
0.0
 10
3.941612448
 20
5.6694786288
 30
0.0
 10
3.9427213627
 20
5.6718393001
 30
0.0
 10
3.9439498969
 20
5.6741951329
 30
0.0
 10
3.945308263
 20
5.6765357006
 30
0.0
 10
3.9473310727
 20
5.6796442366
 30
0.0
 10
3.9490601899
 20
5.6818667649
 30
0.0
 10
3.950317983
 20
5.6832752956
 30
0.0
  0
SPLINE
  5
4EB
100
AcDbEntity
  8
0
100
AcDbSpline
 62
7
  6
CONTINUOUS
 70
0
 71
3
 72
9
 73
5
 74
0
 42
0.0000001
 43
0.0000001
 44
0.0000000001
 40
0.0
 40
0.0
 40
0.0
 40
0.0
 40
0.2559807573
 40
1.0
 40
1.0
 40
1.0
 40
1.0
 10
4.0170047651
 20
5.6884308556
 30
0.0
 10
4.0173800894
 20
5.6881680308
 30
0.0
 10
4.0188210739
 20
5.6871053603
 30
0.0
 10
4.0201642545
 20
5.6859128263
 30
0.0
 10
4.0211097632
 20
5.6849749406
 30
0.0
  0
LINE
  5
4EC
100
AcDbEntity
  8
0
100
AcDbLine
 62
7
  6
CONTINUOUS
 10
4.0211097632
 20
5.6849749406
 11
4.0234760261
 21
5.6823975253
  0
SPLINE
  5
4ED
100
AcDbEntity
  8
0
100
AcDbSpline
 62
7
  6
CONTINUOUS
 70
0
 71
3
 72
12
 73
8
 74
0
 42
0.0000001
 43
0.0000001
 44
0.0000000001
 40
0.0
 40
0.0
 40
0.0
 40
0.0
 40
0.2705851973
 40
0.5276474486
 40
0.7710093277
 40
0.8873560585
 40
1.0
 40
1.0
 40
1.0
 40
1.0
 10
4.0234760261
 20
5.6823975253
 30
0.0
 10
4.0244625936
 20
5.6812220246
 30
0.0
 10
4.0262602909
 20
5.6788213551
 30
0.0
 10
4.0285350298
 20
5.6750802558
 30
0.0
 10
4.0300818296
 20
5.6719375545
 30
0.0
 10
4.03111454
 20
5.6694650592
 30
0.0
 10
4.0315645674
 20
5.6682462321
 30
0.0
 10
4.0317718447
 20
5.6676419255
 30
0.0
  0
SPLINE
  5
4EE
100
AcDbEntity
  8
0
100
AcDbSpline
 62
7
  6
CONTINUOUS
 70
0
 71
3
 72
13
 73
9
 74
0
 42
0.0000001
 43
0.0000001
 44
0.0000000001
 40
0.0
 40
0.0
 40
0.0
 40
0.0
 40
0.1970981753
 40
0.4211087139
 40
0.5469552575
 40
0.6843298184
 40
0.8350143535
 40
1.0
 40
1.0
 40
1.0
 40
1.0
 10
4.0281851676
 20
5.6451258687
 30
0.0
 10
4.0273390129
 20
5.6444338393
 30
0.0
 10
4.0253912109
 20
5.6431234458
 30
0.0
 10
4.0226486267
 20
5.6418085756
 30
0.0
 10
4.0201205599
 20
5.6408514573
 30
0.0
 10
4.0179325524
 20
5.6401536153
 30
0.0
 10
4.0155042014
 20
5.6395053944
 30
0.0
 10
4.0137943877
 20
5.6391265356
 30
0.0
 10
4.0128974946
 20
5.638945352
 30
0.0
  0
SPLINE
  5
4EF
100
AcDbEntity
  8
0
100
AcDbSpline
 62
7
  6
CONTINUOUS
 70
0
 71
3
 72
19
 73
15
 74
0
 42
0.0000001
 43
0.0000001
 44
0.0000000001
 40
0.0
 40
0.0
 40
0.0
 40
0.0
 40
0.1663819216
 40
0.3196125844
 40
0.4586780583
 40
0.5228195463
 40
0.5834825333
 40
0.6409281959
 40
0.6955363535
 40
0.7983813208
 40
0.8481412336
 40
0.8978481968
 40
0.9482292021
 40
1.0
 40
1.0
 40
1.0
 40
1.0
 10
4.0398954351
 20
5.6589784541
 30
0.0
 10
4.0405184144
 20
5.6571386121
 30
0.0
 10
4.0415687121
 20
5.6535523623
 30
0.0
 10
4.042618535
 20
5.6482941951
 30
0.0
 10
4.0430149806
 20
5.644142085
 30
0.0
 10
4.0430245044
 20
5.6410596127
 30
0.0
 10
4.0428881766
 20
5.6389345164
 30
0.0
 10
4.0426073483
 20
5.6369353603
 30
0.0
 10
4.0420529496
 20
5.6344865381
 30
0.0
 10
4.0411928552
 20
5.6322049093
 30
0.0
 10
4.0400134481
 20
5.6301539768
 30
0.0
 10
4.0389797834
 20
5.6287382027
 30
0.0
 10
4.037787716
 20
5.6274219312
 30
0.0
 10
4.0369017053
 20
5.6266204163
 30
0.0
 10
4.0364354099
 20
5.6262358701
 30
0.0
  0
SPLINE
  5
4F0
100
AcDbEntity
  8
0
100
AcDbSpline
 62
7
  6
CONTINUOUS
 70
0
 71
3
 72
9
 73
5
 74
0
 42
0.0000001
 43
0.0000001
 44
0.0000000001
 40
0.0
 40
0.0
 40
0.0
 40
0.0
 40
0.4821294089
 40
1.0
 40
1.0
 40
1.0
 40
1.0
 10
4.0128974951
 20
5.6389453528
 30
0.0
 10
4.0106939398
 20
5.6385045246
 30
0.0
 10
4.0060845514
 20
5.6377796377
 30
0.0
 10
4.0014370034
 20
5.6373784326
 30
0.0
 10
3.9990267525
 20
5.6372474402
 30
0.0
  0
SPLINE
  5
4F1
100
AcDbEntity
  8
ALL_FEATURES
100
AcDbSpline
 62
9
  6
CONTINUOUS
 70
0
 71
3
 72
19
 73
15
 74
0
 42
0.0000001
 43
0.0000001
 44
0.0000000001
 40
0.0
 40
0.0
 40
0.0
 40
0.0
 40
0.0088125694
 40
0.0194355485
 40
0.0461265842
 40
0.0800124129
 40
0.120911428
 40
0.1685158592
 40
0.2224836481
 40
0.3478069564
 40
0.4930083959
 40
0.6534952254
 40
0.8243484931
 40
1.0
 40
1.0
 40
1.0
 40
1.0
 10
3.6415979999
 20
5.2200586269
 30
0.0
 10
3.6415290305
 20
5.2201149808
 30
0.0
 10
3.6413702555
 20
5.2202310857
 30
0.0
 10
3.6409767472
 20
5.2204813569
 30
0.0
 10
3.6403428154
 20
5.2208234321
 30
0.0
 10
3.6394167718
 20
5.2212645163
 30
0.0
 10
3.6382819315
 20
5.2217571532
 30
0.0
 10
3.6369472296
 20
5.2222976515
 30
0.0
 10
3.6348054265
 20
5.2231172067
 30
0.0
 10
3.6317153353
 20
5.2242168384
 30
0.0
 10
3.6275815302
 20
5.2255911042
 30
0.0
 10
3.6229862514
 20
5.2270337174
 30
0.0
 10
3.6180758592
 20
5.2284980791
 30
0.0
 10
3.6147069541
 20
5.2294546945
 30
0.0
 10
3.6129961375
 20
5.2299285717
 30
0.0
  0
SPLINE
  5
4F2
100
AcDbEntity
  8
ALL_FEATURES
100
AcDbSpline
 62
9
  6
CONTINUOUS
 70
0
 71
3
 72
16
 73
12
 74
0
 42
0.0000001
 43
0.0000001
 44
0.0000000001
 40
0.0
 40
0.0
 40
0.0
 40
0.0
 40
0.046902893
 40
0.095426325
 40
0.1986081897
 40
0.3115277331
 40
0.4345171326
 40
0.5667825374
 40
0.7066445228
 40
0.8519724728
 40
1.0
 40
1.0
 40
1.0
 40
1.0
 10
3.6901299724
 20
5.6516564914
 30
0.0
 10
3.6899686258
 20
5.6521789314
 30
0.0
 10
3.6895663398
 20
5.6532203033
 30
0.0
 10
3.6884618185
 20
5.6552609876
 30
0.0
 10
3.6865124782
 20
5.6576872562
 30
0.0
 10
3.6834659679
 20
5.6602373838
 30
0.0
 10
3.6797547506
 20
5.6624264654
 30
0.0
 10
3.675487608
 20
5.6641950936
 30
0.0
 10
3.6707866141
 20
5.6654966874
 30
0.0
 10
3.6657896593
 20
5.6662920161
 30
0.0
 10
3.6623670131
 20
5.6664704296
 30
0.0
 10
3.6606413295
 20
5.6664704296
 30
0.0
  0
SPLINE
  5
4F3
100
AcDbEntity
  8
ALL_FEATURES
100
AcDbSpline
 62
9
  6
CONTINUOUS
 70
0
 71
3
 72
16
 73
12
 74
0
 42
0.0000001
 43
0.0000001
 44
0.0000000001
 40
0.0
 40
0.0
 40
0.0
 40
0.0
 40
0.0469028925
 40
0.0954263246
 40
0.1986081903
 40
0.3115277348
 40
0.434517135
 40
0.56678254
 40
0.7066445249
 40
0.8519724744
 40
1.0
 40
1.0
 40
1.0
 40
1.0
 10
3.839840752
 20
5.6516564928
 30
0.0
 10
3.8400020987
 20
5.6521789327
 30
0.0
 10
3.8404043848
 20
5.6532203045
 30
0.0
 10
3.8415089063
 20
5.6552609886
 30
0.0
 10
3.8434582468
 20
5.657687257
 30
0.0
 10
3.8465047571
 20
5.6602373843
 30
0.0
 10
3.8502159743
 20
5.6624264657
 30
0.0
 10
3.8544831167
 20
5.6641950937
 30
0.0
 10
3.8591841104
 20
5.6654966874
 30
0.0
 10
3.864181065
 20
5.666292016
 30
0.0
 10
3.867603711
 20
5.6664704296
 30
0.0
 10
3.8693293945
 20
5.6664704296
 30
0.0
  0
SPLINE
  5
4F4
100
AcDbEntity
  8
ALL_FEATURES
100
AcDbSpline
 62
9
  6
CONTINUOUS
 70
0
 71
3
 72
19
 73
15
 74
0
 42
0.0000001
 43
0.0000001
 44
0.0000000001
 40
0.0
 40
0.0
 40
0.0
 40
0.0
 40
0.0087958863
 40
0.0194030201
 40
0.0460656306
 40
0.0799278038
 40
0.1208083473
 40
0.1683995513
 40
0.2223591337
 40
0.3476806472
 40
0.4928974836
 40
0.6534134262
 40
0.824305198
 40
1.0
 40
1.0
 40
1.0
 40
1.0
 10
3.8883707354
 20
5.2200570049
 30
0.0
 10
3.8884395191
 20
5.2201133314
 30
0.0
 10
3.8885979499
 20
5.2202293816
 30
0.0
 10
3.8889908364
 20
5.2204795574
 30
0.0
 10
3.8896241193
 20
5.2208215263
 30
0.0
 10
3.8905495155
 20
5.2212625128
 30
0.0
 10
3.8916838811
 20
5.2217551033
 30
0.0
 10
3.8930182778
 20
5.2222956054
 30
0.0
 10
3.8951599947
 20
5.2231152723
 30
0.0
 10
3.8982503614
 20
5.2242151224
 30
0.0
 10
3.9023848972
 20
5.2255897274
 30
0.0
 10
3.9069813476
 20
5.2270327707
 30
0.0
 10
3.9118932199
 20
5.2284976092
 30
0.0
 10
3.9152632035
 20
5.2294545384
 30
0.0
 10
3.9169745865
 20
5.2299285725
 30
0.0
  0
SPLINE
  5
4F5
100
AcDbEntity
  8
ALL_FEATURES
100
AcDbSpline
 62
9
  6
CONTINUOUS
 70
0
 71
3
 72
31
 73
27
 74
0
 42
0.0000001
 43
0.0000001
 44
0.0000000001
 40
0.0
 40
0.0
 40
0.0
 40
0.0
 40
0.0006365748
 40
0.0011074945
 40
0.0017065321
 40
0.0033179462
 40
0.0055029445
 40
0.0082716248
 40
0.0116279961
 40
0.0201083043
 40
0.0309443274
 40
0.0441145399
 40
0.0595833833
 40
0.0773136771
 40
0.0972675536
 40
0.1194027898
 40
0.1699773379
 40
0.2285348981
 40
0.2945208705
 40
0.3672750391
 40
0.4461042462
 40
0.5302160623
 40
0.6187830099
 40
0.7109591819
 40
0.8058832405
 40
1.0
 40
1.0
 40
1.0
 40
1.0
 10
4.080044604
 20
4.9504876341
 30
0.0
 10
4.0800486622
 20
4.9504806544
 30
0.0
 10
4.0800470074
 20
4.9504646604
 30
0.0
 10
4.0800379355
 20
4.95044541
 30
0.0
 10
4.0800196035
 20
4.9504164678
 30
0.0
 10
4.0799831695
 20
4.9503741706
 30
0.0
 10
4.0799240097
 20
4.9503154931
 30
0.0
 10
4.0798453077
 20
4.9502453434
 30
0.0
 10
4.0797028828
 20
4.95012686
 30
0.0
 10
4.0794748797
 20
4.949951495
 30
0.0
 10
4.0791417285
 20
4.9497090215
 30
0.0
 10
4.0787316213
 20
4.9494217879
 30
0.0
 10
4.0782456622
 20
4.9490905393
 30
0.0
 10
4.0776849978
 20
4.9487161874
 30
0.0
 10
4.0770508919
 20
4.9482996086
 30
0.0
 10
4.0760647373
 20
4.9476602675
 30
0.0
 10
4.0746608672
 20
4.9467652568
 30
0.0
 10
4.0727797531
 20
4.945584371
 30
0.0
 10
4.0706531383
 20
4.9442655413
 30
0.0
 10
4.0683016592
 20
4.942821524
 30
0.0
 10
4.0657484674
 20
4.9412667082
 30
0.0
 10
4.0630186765
 20
4.9396163266
 30
0.0
 10
4.0601390388
 20
4.9378866338
 30
0.0
 10
4.0571371336
 20
4.9360941966
 30
0.0
 10
4.0529797511
 20
4.9336256746
 30
0.0
 10
4.0498210388
 20
4.9317650949
 30
0.0
 10
4.0476969005
 20
4.9305203045
 30
0.0
  0
SPLINE
  5
4F6
100
AcDbEntity
  8
ALL_FEATURES
100
AcDbSpline
 62
9
  6
CONTINUOUS
 70
0
 71
3
 72
22
 73
18
 74
0
 42
0.0000001
 43
0.0000001
 44
0.0000000001
 40
0.0
 40
0.0
 40
0.0
 40
0.0
 40
0.006400824
 40
0.0148057451
 40
0.025229235
 40
0.0376582339
 40
0.0684455765
 40
0.1069653675
 40
0.1529006922
 40
0.2058630993
 40
0.2654266456
 40
0.3310711273
 40
0.4022544691
 40
0.4783664451
 40
0.6427094512
 40
0.8186362577
 40
1.0
 40
1.0
 40
1.0
 40
1.0
 10
3.9529873119
 20
5.0399039196
 30
0.0
 10
3.9530332283
 20
5.0399498443
 30
0.0
 10
3.9531472327
 20
5.0400481471
 30
0.0
 10
3.9533520036
 20
5.0402018124
 30
0.0
 10
3.9536139121
 20
5.0403808003
 30
0.0
 10
3.9540723604
 20
5.0406741391
 30
0.0
 10
3.9547859543
 20
5.0410970144
 30
0.0
 10
3.9558065457
 20
5.0416676286
 30
0.0
 10
3.9570353756
 20
5.0423263964
 30
0.0
 10
3.9584620502
 20
5.0430676435
 30
0.0
 10
3.9600745572
 20
5.0438847276
 30
0.0
 10
3.961859267
 20
5.0447708008
 30
0.0
 10
3.9638009585
 20
5.0457181226
 30
0.0
 10
3.9666508632
 20
5.0470875162
 30
0.0
 10
3.9704733016
 20
5.0488864624
 30
0.0
 10
3.9752815217
 20
5.051098015
 30
0.0
 10
3.9785868968
 20
5.0525864472
 30
0.0
 10
3.980267653
 20
5.0533354147
 30
0.0
  0
SPLINE
  5
4F7
100
AcDbEntity
  8
ALL_FEATURES
100
AcDbSpline
 62
9
  6
CONTINUOUS
 70
0
 71
3
 72
28
 73
24
 74
0
 42
0.0000001
 43
0.0000001
 44
0.0000000001
 40
0.0
 40
0.0
 40
0.0
 40
0.0
 40
0.0019166589
 40
0.0036000967
 40
0.0058386221
 40
0.0086495626
 40
0.0120406261
 40
0.0205748691
 40
0.0314514053
 40
0.0446540599
 40
0.0601494294
 40
0.0779013113
 40
0.1200207014
 40
0.1706137691
 40
0.2291774464
 40
0.2951576439
 40
0.3678931523
 40
0.4466893328
 40
0.5307529948
 40
0.6192542792
 40
0.7113454036
 40
0.8061631762
 40
1.0
 40
1.0
 40
1.0
 40
1.0
 10
3.9898970084
 20
4.9635231885
 30
0.0
 10
3.9898879406
 20
4.963540466
 30
0.0
 10
3.9899066568
 20
4.9635817942
 30
0.0
 10
3.9899413839
 20
4.9636264388
 30
0.0
 10
3.989989144
 20
4.9636771764
 30
0.0
 10
3.9900521179
 20
4.9637351265
 30
0.0
 10
3.990166938
 20
4.9638320108
 30
0.0
 10
3.9903516752
 20
4.9639725724
 30
0.0
 10
3.9906227829
 20
4.96416437
 30
0.0
 10
3.9909572032
 20
4.9643890777
 30
0.0
 10
3.9913540889
 20
4.9646462091
 30
0.0
 10
3.9920033063
 20
4.9650551541
 30
0.0
 10
3.9929639676
 20
4.9656399043
 30
0.0
 10
3.9942894978
 20
4.9664240087
 30
0.0
 10
3.995832523
 20
4.9673173972
 30
0.0
 10
3.9975778689
 20
4.9683111082
 30
0.0
 10
3.9995085803
 20
4.969395465
 30
0.0
 10
4.0016055929
 20
4.9705596036
 30
0.0
 10
4.0038482114
 20
4.9717920892
 30
0.0
 10
4.0062143883
 20
4.9730807263
 30
0.0
 10
4.0086813784
 20
4.9744131234
 30
0.0
 10
4.012097922
 20
4.9762439428
 30
0.0
 10
4.0146945819
 20
4.9776198303
 30
0.0
 10
4.0164410202
 20
4.9785385506
 30
0.0
  0
SPLINE
  5
4F8
100
AcDbEntity
  8
0
100
AcDbSpline
 62
7
  6
CONTINUOUS
 70
0
 71
3
 72
14
 73
10
 74
0
 42
0.0000001
 43
0.0000001
 44
0.0000000001
 40
0.0
 40
0.0
 40
0.0
 40
0.0
 40
0.1100308395
 40
0.2217151407
 40
0.336606411
 40
0.4561064531
 40
0.7131538637
 40
0.8526622209
 40
1.0
 40
1.0
 40
1.0
 40
1.0
 10
4.037235288
 20
5.6550817146
 30
0.0
 10
4.0372352163
 20
5.6546281718
 30
0.0
 10
4.0371706499
 20
5.6537130365
 30
0.0
 10
4.0368823983
 20
5.6523517112
 30
0.0
 10
4.0364036737
 20
5.6510036158
 30
0.0
 10
4.0354935814
 20
5.649189114
 30
0.0
 10
4.0342145511
 20
5.6474668082
 30
0.0
 10
4.0326478659
 20
5.6458614985
 30
0.0
 10
4.0317538622
 20
5.6450851223
 30
0.0
 10
4.0312811334
 20
5.6447038537
 30
0.0
  0
SPLINE
  5
4F9
100
AcDbEntity
  8
ALL_FEATURES
100
AcDbSpline
 62
9
  6
CONTINUOUS
 70
0
 71
3
 72
28
 73
24
 74
0
 42
0.0000001
 43
0.0000001
 44
0.0000000001
 40
0.0
 40
0.0
 40
0.0
 40
0.0
 40
0.0019223567
 40
0.0036034544
 40
0.0058368569
 40
0.0086403
 40
0.0120218011
 40
0.020531718
 40
0.0313777268
 40
0.0445421174
 40
0.0599926492
 40
0.0776946148
 40
0.1197032647
 40
0.1701724907
 40
0.2286109762
 40
0.2944725421
 40
0.3671071497
 40
0.4458317915
 40
0.5298637983
 40
0.6183871708
 40
0.7105666362
 40
0.8055512895
 40
1.0
 40
1.0
 40
1.0
 40
1.0
 10
3.9938281207
 20
4.9514852174
 30
0.0
 10
3.9938253567
 20
4.9515043669
 30
0.0
 10
3.9938561066
 20
4.9515369166
 30
0.0
 10
3.993903075
 20
4.9515673461
 30
0.0
 10
3.9939640148
 20
4.9515990931
 30
0.0
 10
3.9940414842
 20
4.9516325722
 30
0.0
 10
3.9941798579
 20
4.9516853723
 30
0.0
 10
3.9943975465
 20
4.951755968
 30
0.0
 10
3.9947123065
 20
4.9518459851
 30
0.0
 10
3.9950967123
 20
4.9519459014
 30
0.0
 10
3.9955498232
 20
4.952055532
 30
0.0
 10
3.9962873251
 20
4.9522239543
 30
0.0
 10
3.9973721653
 20
4.9524541056
 30
0.0
 10
3.9988619299
 20
4.9527504338
 30
0.0
 10
4.0005903127
 20
4.9530773162
 30
0.0
 10
4.0025405233
 20
4.9534314394
 30
0.0
 10
4.0046938805
 20
4.9538093839
 30
0.0
 10
4.0070293712
 20
4.9542073247
 30
0.0
 10
4.0095243003
 20
4.9546214462
 30
0.0
 10
4.0121544733
 20
4.9550476576
 30
0.0
 10
4.0148949964
 20
4.9554819258
 30
0.0
 10
4.0186904351
 20
4.9560706241
 30
0.0
 10
4.0215711498
 20
4.9565036815
 30
0.0
 10
4.0235073251
 20
4.9567888818
 30
0.0
  0
SPLINE
  5
4FA
100
AcDbEntity
  8
ALL_FEATURES
100
AcDbSpline
 62
9
  6
CONTINUOUS
 70
0
 71
3
 72
15
 73
11
 74
0
 42
0.0000001
 43
0.0000001
 44
0.0000000001
 40
0.0
 40
0.0
 40
0.0
 40
0.0
 40
0.1245398137
 40
0.2491932922
 40
0.3739941258
 40
0.4989486554
 40
0.6240506934
 40
0.7492808198
 40
0.8746056445
 40
1.0
 40
1.0
 40
1.0
 40
1.0
 10
3.9942397942
 20
4.9458035235
 30
0.0
 10
3.9942362756
 20
4.9436720576
 30
0.0
 10
3.9938751552
 20
4.9393993393
 30
0.0
 10
3.9922823728
 20
4.9331707251
 30
0.0
 10
3.9896727059
 20
4.9272849476
 30
0.0
 10
3.9861088795
 20
4.9219135098
 30
0.0
 10
3.9816833687
 20
4.9172156646
 30
0.0
 10
3.9765164602
 20
4.9133359793
 30
0.0
 10
3.9707581784
 20
4.9103972017
 30
0.0
 10
3.9666326373
 20
4.9091274996
 30
0.0
 10
3.9645344984
 20
4.9086763531
 30
0.0
  0
SPLINE
  5
4FB
100
AcDbEntity
  8
0
100
AcDbSpline
 62
7
  6
CONTINUOUS
 70
0
 71
3
 72
11
 73
7
 74
0
 42
0.0000001
 43
0.0000001
 44
0.0000000001
 40
0.0
 40
0.0
 40
0.0
 40
0.0
 40
0.2286167479
 40
0.4716491306
 40
0.728971741
 40
1.0
 40
1.0
 40
1.0
 40
1.0
 10
4.0421961099
 20
5.6351638157
 30
0.0
 10
4.041428694
 20
5.6345387372
 30
0.0
 10
4.0397864195
 20
5.6333205291
 30
0.0
 10
4.0371102628
 20
5.631642607
 30
0.0
 10
4.0341621817
 20
5.6300685053
 30
0.0
 10
4.0320795719
 20
5.6291185922
 30
0.0
 10
4.030998808
 20
5.6286616553
 30
0.0
  0
LINE
  5
4FC
100
AcDbEntity
  8
0
100
AcDbLine
 62
7
  6
CONTINUOUS
 10
4.0312495174
 20
5.6490983753
 11
4.0249118859
 21
5.6467530107
  0
SPLINE
  5
4FD
100
AcDbEntity
  8
0
100
AcDbSpline
 62
7
  6
CONTINUOUS
 70
0
 71
3
 72
11
 73
7
 74
0
 42
0.0000001
 43
0.0000001
 44
0.0000000001
 40
0.0
 40
0.0
 40
0.0
 40
0.0
 40
0.2516723601
 40
0.5057974331
 40
0.7570106816
 40
1.0
 40
1.0
 40
1.0
 40
1.0
 10
3.986235362
 20
5.6120864887
 30
0.0
 10
3.9838417044
 20
5.6120864563
 30
0.0
 10
3.9790309338
 20
5.6121319894
 30
0.0
 10
3.9718335792
 20
5.6123433658
 30
0.0
 10
3.9647251248
 20
5.6127112901
 30
0.0
 10
3.9600382342
 20
5.6130776638
 30
0.0
 10
3.9577375227
 20
5.6132962629
 30
0.0
  0
SPLINE
  5
4FE
100
AcDbEntity
  8
0
100
AcDbSpline
 62
7
  6
CONTINUOUS
 70
0
 71
3
 72
11
 73
7
 74
0
 42
0.0000001
 43
0.0000001
 44
0.0000000001
 40
0.0
 40
0.0
 40
0.0
 40
0.0
 40
0.2332165704
 40
0.4804573889
 40
0.7375571469
 40
1.0
 40
1.0
 40
1.0
 40
1.0
 10
4.0211616106
 20
5.6140139803
 30
0.0
 10
4.0184639703
 20
5.6136587552
 30
0.0
 10
4.0128866413
 20
5.6130757133
 30
0.0
 10
4.0042997168
 20
5.6124983517
 30
0.0
 10
3.9953590781
 20
5.6121586646
 30
0.0
 10
3.9892972695
 20
5.6120829322
 30
0.0
 10
3.986235362
 20
5.6120864887
 30
0.0
  0
SPLINE
  5
4FF
100
AcDbEntity
  8
ALL_FEATURES
100
AcDbSpline
 62
9
  6
CONTINUOUS
 70
0
 71
3
 72
26
 73
22
 74
0
 42
0.0000001
 43
0.0000001
 44
0.0000000001
 40
0.0
 40
0.0
 40
0.0
 40
0.0
 40
0.0017903322
 40
0.0037725971
 40
0.0060888666
 40
0.008828797
 40
0.0157661557
 40
0.0248192946
 40
0.0360750259
 40
0.0495562626
 40
0.0652539412
 40
0.0831474326
 40
0.1032098787
 40
0.1254059497
 40
0.1759771711
 40
0.2343906258
 40
0.3001085029
 40
0.4508268412
 40
0.6222555092
 40
0.8077681352
 40
1.0
 40
1.0
 40
1.0
 40
1.0
 10
3.9567144331
 20
5.2427155213
 30
0.0
 10
3.9567205119
 20
5.2426932996
 30
0.0
 10
3.9567248922
 20
5.2426438756
 30
0.0
 10
3.9567072195
 20
5.2425666178
 30
0.0
 10
3.9566673028
 20
5.242484696
 30
0.0
 10
3.9565777235
 20
5.2423584434
 30
0.0
 10
3.9564041265
 20
5.2421891059
 30
0.0
 10
3.9561252534
 20
5.2419761794
 30
0.0
 10
3.9557595863
 20
5.2417401911
 30
0.0
 10
3.9553078685
 20
5.2414816913
 30
0.0
 10
3.9547707704
 20
5.2412013559
 30
0.0
 10
3.9541495223
 20
5.2408999739
 30
0.0
 10
3.9534454199
 20
5.2405783063
 30
0.0
 10
3.9523496738
 20
5.2401024858
 30
0.0
 10
3.9507854938
 20
5.2394671826
 30
0.0
 10
3.9486844441
 20
5.238667151
 30
0.0
 10
3.9453576842
 20
5.2374660685
 30
0.0
 10
3.9406274211
 20
5.2358720481
 30
0.0
 10
3.9343965083
 20
5.2339086835
 30
0.0
 10
3.9276219914
 20
5.2318962547
 30
0.0
 10
3.9229423005
 20
5.2305808272
 30
0.0
 10
3.9205561821
 20
5.2299285725
 30
0.0
  0
SPLINE
  5
500
100
AcDbEntity
  8
ALL_FEATURES
100
AcDbSpline
 62
9
  6
CONTINUOUS
 70
0
 71
3
 72
28
 73
24
 74
0
 42
0.0000001
 43
0.0000001
 44
0.0000000001
 40
0.0
 40
0.0
 40
0.0
 40
0.0
 40
0.0019214957
 40
0.003602362
 40
0.0058355969
 40
0.0086389115
 40
0.0120203099
 40
0.0205300722
 40
0.0313759679
 40
0.0445402717
 40
0.0599907356
 40
0.077692648
 40
0.1197012295
 40
0.1701704327
 40
0.228608943
 40
0.2944705855
 40
0.3671053229
 40
0.4458301484
 40
0.5298623868
 40
0.6183860299
 40
0.7105657913
 40
0.8055507486
 40
1.0
 40
1.0
 40
1.0
 40
1.0
 10
3.5361434301
 20
4.9514883266
 30
0.0
 10
3.5361461936
 20
4.9515074676
 30
0.0
 10
3.536115432
 20
4.9515399977
 30
0.0
 10
3.5360684708
 20
4.9515704094
 30
0.0
 10
3.5360075286
 20
4.9516021447
 30
0.0
 10
3.5359300588
 20
4.9516356134
 30
0.0
 10
3.5357916825
 20
4.951688401
 30
0.0
 10
3.535573992
 20
4.9517589853
 30
0.0
 10
3.5352592298
 20
4.9518489944
 30
0.0
 10
3.5348748217
 20
4.9519489077
 30
0.0
 10
3.5344217083
 20
4.9520585398
 30
0.0
 10
3.5336842022
 20
4.9522269708
 30
0.0
 10
3.5325993563
 20
4.9524571442
 30
0.0
 10
3.5311095838
 20
4.9527535114
 30
0.0
 10
3.5293811909
 20
4.9530804445
 30
0.0
 10
3.5274309675
 20
4.9534346275
 30
0.0
 10
3.5252775946
 20
4.9538126384
 30
0.0
 10
3.522942085
 20
4.9542106498
 30
0.0
 10
3.5204471338
 20
4.9546248434
 30
0.0
 10
3.5178169357
 20
4.9550511259
 30
0.0
 10
3.5150763848
 20
4.9554854619
 30
0.0
 10
3.5112809065
 20
4.9560742434
 30
0.0
 10
3.5084001594
 20
4.9565073503
 30
0.0
 10
3.5064639615
 20
4.9567925764
 30
0.0
  0
SPLINE
  5
501
100
AcDbEntity
  8
ALL_FEATURES
100
AcDbSpline
 62
9
  6
CONTINUOUS
 70
0
 71
3
 72
28
 73
24
 74
0
 42
0.0000001
 43
0.0000001
 44
0.0000000001
 40
0.0
 40
0.0
 40
0.0
 40
0.0
 40
0.0019168956
 40
0.0036004592
 40
0.0058391093
 40
0.0086501736
 40
0.0120413602
 40
0.0205758481
 40
0.0314526273
 40
0.0446555213
 40
0.060151124
 40
0.0779032301
 40
0.1200230291
 40
0.1706164293
 40
0.2291803377
 40
0.2951606411
 40
0.3678961184
 40
0.4466921238
 40
0.5307554764
 40
0.6192563372
 40
0.7113469552
 40
0.8061641803
 40
1.0
 40
1.0
 40
1.0
 40
1.0
 10
3.5400725893
 20
4.9635225465
 30
0.0
 10
3.5400816571
 20
4.9635398262
 30
0.0
 10
3.5400629428
 20
4.9635811567
 30
0.0
 10
3.5400282176
 20
4.9636258081
 30
0.0
 10
3.5399804607
 20
4.9636765515
 30
0.0
 10
3.5399174908
 20
4.9637345089
 30
0.0
 10
3.5398026784
 20
4.9638314048
 30
0.0
 10
3.5396179532
 20
4.9639719838
 30
0.0
 10
3.5393468628
 20
4.9641638056
 30
0.0
 10
3.5390124639
 20
4.9643885418
 30
0.0
 10
3.5386156038
 20
4.964645706
 30
0.0
 10
3.5379664293
 20
4.9650547029
 30
0.0
 10
3.5370058318
 20
4.9656395277
 30
0.0
 10
3.5356803905
 20
4.9664237331
 30
0.0
 10
3.5341374706
 20
4.9673172364
 30
0.0
 10
3.5323922464
 20
4.9683110751
 30
0.0
 10
3.5304616722
 20
4.9693955713
 30
0.0
 10
3.5283648109
 20
4.9705598597
 30
0.0
 10
3.5261223567
 20
4.9717925043
 30
0.0
 10
3.5237563548
 20
4.9730813084
 30
0.0
 10
3.5212895481
 20
4.9744138795
 30
0.0
 10
3.517873258
 20
4.9762449411
 30
0.0
 10
3.51527679
 20
4.9776210145
 30
0.0
 10
3.5135304801
 20
4.9785398608
 30
0.0
  0
SPLINE
  5
502
100
AcDbEntity
  8
ALL_FEATURES
100
AcDbSpline
 62
9
  6
CONTINUOUS
 70
0
 71
3
 72
17
 73
13
 74
0
 42
0.0000001
 43
0.0000001
 44
0.0000000001
 40
0.0
 40
0.0
 40
0.0
 40
0.0
 40
0.1349407801
 40
0.2682780061
 40
0.3993776965
 40
0.5276026525
 40
0.6523424962
 40
0.7730185994
 40
0.8316605906
 40
0.8890813482
 40
0.9452164723
 40
1.0
 40
1.0
 40
1.0
 40
1.0
 10
3.848884937
 20
5.2490534
 30
0.0
 10
3.8447547033
 20
5.2653760661
 30
0.0
 10
3.8372429474
 20
5.298009041
 30
0.0
 10
3.8281341448
 20
5.3470154872
 30
0.0
 10
3.8211576358
 20
5.3955235407
 30
0.0
 10
3.8161548457
 20
5.4431936164
 30
0.0
 10
3.8128712716
 20
5.4897061164
 30
0.0
 10
3.8112645142
 20
5.527614595
 30
0.0
 10
3.8104840378
 20
5.5571434324
 30
0.0
 10
3.8101065
 20
5.5786262145
 30
0.0
 10
3.8098953014
 20
5.599629699
 30
0.0
 10
3.8098488576
 20
5.6134695126
 30
0.0
 10
3.8098489279
 20
5.620305076
 30
0.0
  0
SPLINE
  5
503
100
AcDbEntity
  8
ALL_FEATURES
100
AcDbSpline
 62
9
  6
CONTINUOUS
 70
0
 71
3
 72
17
 73
13
 74
0
 42
0.0000001
 43
0.0000001
 44
0.0000000001
 40
0.0
 40
0.0
 40
0.0
 40
0.0
 40
0.0547834865
 40
0.1109185185
 40
0.1683392202
 40
0.2269811433
 40
0.3476570813
 40
0.4723967841
 40
0.6006216426
 40
0.7317215076
 40
0.8650591349
 40
1.0
 40
1.0
 40
1.0
 40
1.0
 10
3.7201217961
 20
5.620305076
 30
0.0
 10
3.7201218653
 20
5.6134695178
 30
0.0
 10
3.7200754168
 20
5.5996297208
 30
0.0
 10
3.7198642208
 20
5.5786262598
 30
0.0
 10
3.7194866905
 20
5.5571435046
 30
0.0
 10
3.7187062135
 20
5.5276147033
 30
0.0
 10
3.7170994673
 20
5.4897062708
 30
0.0
 10
3.7138158806
 20
5.4431938225
 30
0.0
 10
3.708813136
 20
5.39552375
 30
0.0
 10
3.7018365943
 20
5.3470156405
 30
0.0
 10
3.6927277951
 20
5.2980091102
 30
0.0
 10
3.6852160241
 20
5.2653760762
 30
0.0
 10
3.681085787
 20
5.2490534
 30
0.0
  0
SPLINE
  5
504
100
AcDbEntity
  8
ALL_FEATURES
100
AcDbSpline
 62
9
  6
CONTINUOUS
 70
0
 71
3
 72
15
 73
11
 74
0
 42
0.0000001
 43
0.0000001
 44
0.0000000001
 40
0.0
 40
0.0
 40
0.0
 40
0.0
 40
0.1249516238
 40
0.2498673094
 40
0.3747908185
 40
0.4997357227
 40
0.6247239351
 40
0.749768589
 40
0.8748580037
 40
1.0
 40
1.0
 40
1.0
 40
1.0
 10
3.5666102841
 20
4.9476198654
 30
0.0
 10
3.5663394566
 20
4.9471082234
 30
0.0
 10
3.5659144656
 20
4.9460184149
 30
0.0
 10
3.5656670485
 20
4.9442849965
 30
0.0
 10
3.5658197445
 20
4.9425398221
 30
0.0
 10
3.5663661063
 20
4.9408751445
 30
0.0
 10
3.5672781318
 20
4.939378401
 30
0.0
 10
3.5685097795
 20
4.9381299857
 30
0.0
 10
3.5699951746
 20
4.937197773
 30
0.0
 10
3.5711049228
 20
4.9368215597
 30
0.0
 10
3.5716718945
 20
4.9367003573
 30
0.0
  0
SPLINE
  5
505
100
AcDbEntity
  8
ALL_FEATURES
100
AcDbSpline
 62
9
  6
CONTINUOUS
 70
0
 71
3
 72
11
 73
7
 74
0
 42
0.0000001
 43
0.0000001
 44
0.0000000001
 40
0.0
 40
0.0
 40
0.0
 40
0.0
 40
0.2495382198
 40
0.4994218989
 40
0.749594028
 40
1.0
 40
1.0
 40
1.0
 40
1.0
 10
3.681085787
 20
5.2490534
 30
0.0
 10
3.6747000765
 20
5.2229383775
 30
0.0
 10
3.6603275296
 20
5.1710464958
 30
0.0
 10
3.6340113386
 20
5.0946432775
 30
0.0
 10
3.602983422
 20
5.0199275644
 30
0.0
 10
3.5792301846
 20
4.9714640539
 30
0.0
 10
3.5666102841
 20
4.9476198654
 30
0.0
  0
SPLINE
  5
506
100
AcDbEntity
  8
ALL_FEATURES
100
AcDbSpline
 62
9
  6
CONTINUOUS
 70
0
 71
3
 72
11
 73
7
 74
0
 42
0.0000001
 43
0.0000001
 44
0.0000000001
 40
0.0
 40
0.0
 40
0.0
 40
0.0
 40
0.2504059053
 40
0.5005780297
 40
0.7504617303
 40
1.0
 40
1.0
 40
1.0
 40
1.0
 10
3.9633604399
 20
4.9476198654
 30
0.0
 10
3.9507405363
 20
4.9714640442
 30
0.0
 10
3.9269873116
 20
5.0199275526
 30
0.0
 10
3.8959593918
 20
5.0946432582
 30
0.0
 10
3.8696431984
 20
5.1710464834
 30
0.0
 10
3.8552706488
 20
5.2229383723
 30
0.0
 10
3.848884937
 20
5.2490534
 30
0.0
  0
SPLINE
  5
507
100
AcDbEntity
  8
ALL_FEATURES
100
AcDbSpline
 62
9
  6
CONTINUOUS
 70
0
 71
3
 72
15
 73
11
 74
0
 42
0.0000001
 43
0.0000001
 44
0.0000000001
 40
0.0
 40
0.0
 40
0.0
 40
0.0
 40
0.1251423474
 40
0.2502312738
 40
0.3752755945
 40
0.500263677
 40
0.625208716
 40
0.7501325536
 40
0.8750487083
 40
1.0
 40
1.0
 40
1.0
 40
1.0
 10
3.9582988295
 20
4.9367003573
 30
0.0
 10
3.9588658279
 20
4.9368214423
 30
0.0
 10
3.9599755274
 20
4.9371978654
 30
0.0
 10
3.9614609277
 20
4.9381300109
 30
0.0
 10
3.96269258
 20
4.9393784297
 30
0.0
 10
3.9636046232
 20
4.9408751547
 30
0.0
 10
3.9641510089
 20
4.9425398313
 30
0.0
 10
3.9643037058
 20
4.9442849998
 30
0.0
 10
3.9640563409
 20
4.9460184566
 30
0.0
 10
3.9636311613
 20
4.947108169
 30
0.0
 10
3.9633604399
 20
4.9476198654
 30
0.0
  0
SPLINE
  5
508
100
AcDbEntity
  8
ALL_FEATURES
100
AcDbSpline
 62
9
  6
CONTINUOUS
 70
0
 71
3
 72
20
 73
16
 74
0
 42
0.0000001
 43
0.0000001
 44
0.0000000001
 40
0.0
 40
0.0
 40
0.0
 40
0.0
 40
0.0546475918
 40
0.1107058986
 40
0.168101966
 40
0.226761965
 40
0.2866104222
 40
0.3475704908
 40
0.4095634974
 40
0.472508722
 40
0.5363231798
 40
0.6009217458
 40
0.7321139265
 40
0.8653778578
 40
1.0
 40
1.0
 40
1.0
 40
1.0
 10
3.8693293945
 20
5.6664704296
 30
0.0
 10
3.8693293298
 20
5.6584459337
 30
0.0
 10
3.8693740983
 20
5.6421897578
 30
0.0
 10
3.8695822126
 20
5.6175062608
 30
0.0
 10
3.8699694924
 20
5.5922355646
 30
0.0
 10
3.8705910244
 20
5.5664126737
 30
0.0
 10
3.8715125248
 20
5.5400748555
 30
0.0
 10
3.8728030855
 20
5.513262278
 30
0.0
 10
3.8745294514
 20
5.4860182752
 30
0.0
 10
3.8767521501
 20
5.4583895097
 30
0.0
 10
3.8795235372
 20
5.4304254733
 30
0.0
 10
3.8840306148
 20
5.3925701805
 30
0.0
 10
3.8912406558
 20
5.344776062
 30
0.0
 10
3.9025262828
 20
5.2872534516
 30
0.0
 10
3.9118491569
 20
5.2490205784
 30
0.0
 10
3.9169745865
 20
5.2299285725
 30
0.0
  0
SPLINE
  5
509
100
AcDbEntity
  8
ALL_FEATURES
100
AcDbSpline
 62
9
  6
CONTINUOUS
 70
0
 71
3
 72
19
 73
15
 74
0
 42
0.0000001
 43
0.0000001
 44
0.0000000001
 40
0.0
 40
0.0
 40
0.0
 40
0.0
 40
0.0571847555
 40
0.1153208001
 40
0.1743586241
 40
0.2342494603
 40
0.2949430218
 40
0.35638829
 40
0.4185326516
 40
0.4813218377
 40
0.6086059677
 40
0.7377873642
 40
0.8684085899
 40
1.0
 40
1.0
 40
1.0
 40
1.0
 10
3.875235362
 20
5.5920396959
 30
0.0
 10
3.8752353421
 20
5.5850583124
 30
0.0
 10
3.8752688318
 20
5.5709793483
 30
0.0
 10
3.8754846569
 20
5.5496936295
 30
0.0
 10
3.8759330837
 20
5.5280808808
 30
0.0
 10
3.8766748659
 20
5.506163574
 30
0.0
 10
3.877762892
 20
5.4839662302
 30
0.0
 10
3.8792419173
 20
5.4615156087
 30
0.0
 10
3.8811484437
 20
5.4388402259
 30
0.0
 10
3.8843123684
 20
5.408209723
 30
0.0
 10
3.8894744934
 20
5.3695652707
 30
0.0
 10
3.8976662405
 20
5.3230093637
 30
0.0
 10
3.9079252432
 20
5.2763264404
 30
0.0
 10
3.9161183313
 20
5.2453687558
 30
0.0
 10
3.9205561821
 20
5.2299285725
 30
0.0
  0
SPLINE
  5
50A
100
AcDbEntity
  8
ALL_FEATURES
100
AcDbSpline
 62
9
  6
CONTINUOUS
 70
0
 71
3
 72
20
 73
16
 74
0
 42
0.0000001
 43
0.0000001
 44
0.0000000001
 40
0.0
 40
0.0
 40
0.0
 40
0.0
 40
0.1346221456
 40
0.2678860783
 40
0.3990782576
 40
0.4636768232
 40
0.5274912805
 40
0.5904365047
 40
0.652429511
 40
0.7133895793
 40
0.7732380361
 40
0.8318980348
 40
0.8892941019
 40
0.9453524085
 40
1.0
 40
1.0
 40
1.0
 40
1.0
 10
3.6129961375
 20
5.2299285725
 30
0.0
 10
3.6181215683
 20
5.2490205786
 30
0.0
 10
3.6274444407
 20
5.287253453
 30
0.0
 10
3.6387300685
 20
5.3447760637
 30
0.0
 10
3.6459401095
 20
5.3925701822
 30
0.0
 10
3.6504471869
 20
5.4304254747
 30
0.0
 10
3.653218574
 20
5.4583895109
 30
0.0
 10
3.6554412727
 20
5.4860182762
 30
0.0
 10
3.6571676386
 20
5.5132622787
 30
0.0
 10
3.6584581992
 20
5.5400748562
 30
0.0
 10
3.6593796996
 20
5.5664126742
 30
0.0
 10
3.6600012316
 20
5.5922355649
 30
0.0
 10
3.6603885114
 20
5.617506261
 30
0.0
 10
3.6605966257
 20
5.6421897579
 30
0.0
 10
3.6606413941
 20
5.6584459337
 30
0.0
 10
3.6606413295
 20
5.6664704296
 30
0.0
  0
SPLINE
  5
50B
100
AcDbEntity
  8
ALL_FEATURES
100
AcDbSpline
 62
9
  6
CONTINUOUS
 70
0
 71
3
 72
19
 73
15
 74
0
 42
0.0000001
 43
0.0000001
 44
0.0000000001
 40
0.0
 40
0.0
 40
0.0
 40
0.0
 40
0.1315914129
 40
0.2622126427
 40
0.391394038
 40
0.5186781661
 40
0.5814673516
 40
0.6436117126
 40
0.7050569802
 40
0.7657505411
 40
0.8256413768
 40
0.8846792005
 40
0.9428152448
 40
1.0
 40
1.0
 40
1.0
 40
1.0
 10
3.6094145419
 20
5.2299285725
 30
0.0
 10
3.6138523896
 20
5.2453687571
 30
0.0
 10
3.6220454806
 20
5.2763264416
 30
0.0
 10
3.632304485
 20
5.3230093653
 30
0.0
 10
3.6404962303
 20
5.3695652727
 30
0.0
 10
3.6456583551
 20
5.4082097246
 30
0.0
 10
3.6488222794
 20
5.4388402272
 30
0.0
 10
3.6507288055
 20
5.4615156097
 30
0.0
 10
3.6522078306
 20
5.483966231
 30
0.0
 10
3.6532958566
 20
5.5061635746
 30
0.0
 10
3.6540376389
 20
5.5280808812
 30
0.0
 10
3.6544860659
 20
5.5496936297
 30
0.0
 10
3.6547018917
 20
5.5709793484
 30
0.0
 10
3.6547353822
 20
5.5850583124
 30
0.0
 10
3.654735362
 20
5.5920396959
 30
0.0
  0
SPLINE
  5
50C
100
AcDbEntity
  8
ALL_FEATURES
100
AcDbSpline
 62
9
  6
CONTINUOUS
 70
0
 71
3
 72
11
 73
7
 74
0
 42
0.0000001
 43
0.0000001
 44
0.0000000001
 40
0.0
 40
0.0
 40
0.0
 40
0.0
 40
0.2497451237
 40
0.4996927367
 40
0.7497924964
 40
1.0
 40
1.0
 40
1.0
 40
1.0
 10
3.9205561821
 20
5.2299285725
 30
0.0
 10
3.9277956948
 20
5.2037586101
 30
0.0
 10
3.9440086048
 20
5.1518580488
 30
0.0
 10
3.9734037077
 20
5.075762273
 30
0.0
 10
4.0077611731
 20
5.0017190231
 30
0.0
 10
4.0338727122
 20
4.9539489585
 30
0.0
 10
4.0476969005
 20
4.9305203045
 30
0.0
  0
SPLINE
  5
50D
100
AcDbEntity
  8
ALL_FEATURES
100
AcDbSpline
 62
9
  6
CONTINUOUS
 70
0
 71
3
 72
23
 73
19
 74
0
 42
0.0000001
 43
0.0000001
 44
0.0000000001
 40
0.0
 40
0.0
 40
0.0
 40
0.0
 40
0.0624766481
 40
0.1249922782
 40
0.1874815413
 40
0.249972137
 40
0.3124673769
 40
0.3749625263
 40
0.437458501
 40
0.499956778
 40
0.5624567764
 40
0.6249581124
 40
0.6874618436
 40
0.749968354
 40
0.8124724216
 40
0.8749767191
 40
0.9375078177
 40
1.0
 40
1.0
 40
1.0
 40
1.0
 10
4.0476969005
 20
4.9305203045
 30
0.0
 10
4.0483346408
 20
4.9294391967
 30
0.0
 10
4.0494871989
 20
4.9272008079
 30
0.0
 10
4.050819016
 20
4.9236690139
 30
0.0
 10
4.0517350128
 20
4.9200064243
 30
0.0
 10
4.0522229983
 20
4.9162632913
 30
0.0
 10
4.0522770986
 20
4.9124886898
 30
0.0
 10
4.0518953628
 20
4.9087329321
 30
0.0
 10
4.051083522
 20
4.9050461308
 30
0.0
 10
4.0498529561
 20
4.9014770865
 30
0.0
 10
4.0482197206
 20
4.8980733292
 30
0.0
 10
4.0462067204
 20
4.8948793798
 30
0.0
 10
4.0438408393
 20
4.8919370867
 30
0.0
 10
4.0411535297
 20
4.8892851176
 30
0.0
 10
4.0381814398
 20
4.886956883
 30
0.0
 10
4.0349627849
 20
4.8849822517
 30
0.0
 10
4.0315407249
 20
4.8833877463
 30
0.0
 10
4.0291523341
 20
4.8825897645
 30
0.0
 10
4.0279408626
 20
4.8822601775
 30
0.0
  0
LINE
  5
50E
100
AcDbEntity
  8
0
100
AcDbLine
 62
7
  6
CONTINUOUS
 10
3.9505603515
 20
5.6444479853
 11
3.9459915228
 21
5.6474429259
  0
SPLINE
  5
50F
100
AcDbEntity
  8
ALL_FEATURES
100
AcDbSpline
 62
9
  6
CONTINUOUS
 70
0
 71
3
 72
23
 73
19
 74
0
 42
0.0000001
 43
0.0000001
 44
0.0000000001
 40
0.0
 40
0.0
 40
0.0
 40
0.0
 40
0.0624921765
 40
0.125023267
 40
0.1875275616
 40
0.25003163
 40
0.3125381361
 40
0.3750418648
 40
0.4375431989
 40
0.5000431946
 40
0.5625414743
 40
0.6250374508
 40
0.6875326026
 40
0.7500278469
 40
0.8125184418
 40
0.8750077078
 40
0.937523346
 40
1.0
 40
1.0
 40
1.0
 40
1.0
 10
3.5020298614
 20
4.8822601775
 30
0.0
 10
3.5008183896
 20
4.8825897629
 30
0.0
 10
3.4984299989
 20
4.8833877447
 30
0.0
 10
3.4950079408
 20
4.8849822534
 30
0.0
 10
3.4917892873
 20
4.8869568864
 30
0.0
 10
3.4888171967
 20
4.8892851198
 30
0.0
 10
3.4861298857
 20
4.8919370874
 30
0.0
 10
3.483764005
 20
4.8948793806
 30
0.0
 10
3.4817510047
 20
4.8980733297
 30
0.0
 10
3.480117768
 20
4.9014770864
 30
0.0
 10
3.4788872008
 20
4.9050461303
 30
0.0
 10
3.4780753596
 20
4.9087329317
 30
0.0
 10
3.4776936242
 20
4.9124886895
 30
0.0
 10
3.4777477226
 20
4.9162632912
 30
0.0
 10
3.4782357066
 20
4.9200064246
 30
0.0
 10
3.4791517056
 20
4.9236690139
 30
0.0
 10
3.4804835263
 20
4.9272008069
 30
0.0
 10
3.4816360845
 20
4.9294391957
 30
0.0
 10
3.4822738235
 20
4.9305203045
 30
0.0
  0
SPLINE
  5
510
100
AcDbEntity
  8
ALL_FEATURES
100
AcDbSpline
 62
9
  6
CONTINUOUS
 70
0
 71
3
 72
11
 73
7
 74
0
 42
0.0000001
 43
0.0000001
 44
0.0000000001
 40
0.0
 40
0.0
 40
0.0
 40
0.0
 40
0.2502074805
 40
0.5003074788
 40
0.7502552484
 40
1.0
 40
1.0
 40
1.0
 40
1.0
 10
3.4822738235
 20
4.9305203045
 30
0.0
 10
3.4960980103
 20
4.9539489565
 30
0.0
 10
3.5222095611
 20
5.0017190413
 30
0.0
 10
3.5565670412
 20
5.0757623292
 30
0.0
 10
3.5859621388
 20
5.1518581097
 30
0.0
 10
3.6021750408
 20
5.2037586488
 30
0.0
 10
3.6094145419
 20
5.2299285725
 30
0.0
  0
LINE
  5
511
100
AcDbEntity
  8
0
100
AcDbLine
 62
7
  6
CONTINUOUS
 10
4.0312811334
 20
5.6447038537
 11
4.0281851676
 21
5.6451258687
  0
SPLINE
  5
512
100
AcDbEntity
  8
0
100
AcDbSpline
 62
7
  6
CONTINUOUS
 70
0
 71
3
 72
11
 73
7
 74
0
 42
0.0000001
 43
0.0000001
 44
0.0000000001
 40
0.0
 40
0.0
 40
0.0
 40
0.0
 40
0.191897175
 40
0.4145905916
 40
0.6815593784
 40
1.0
 40
1.0
 40
1.0
 40
1.0
 10
3.9362544063
 20
5.641785456
 30
0.0
 10
3.9360824882
 20
5.6419549981
 30
0.0
 10
3.9357688399
 20
5.6423820923
 30
0.0
 10
3.935452599
 20
5.6431864604
 30
0.0
 10
3.9352683741
 20
5.644190954
 30
0.0
 10
3.9352351537
 20
5.6449286172
 30
0.0
 10
3.9352354126
 20
5.645329295
 30
0.0
  0
SPLINE
  5
513
100
AcDbEntity
  8
ALL_FEATURES
100
AcDbSpline
 62
9
  6
CONTINUOUS
 70
0
 71
3
 72
23
 73
19
 74
0
 42
0.0000001
 43
0.0000001
 44
0.0000000001
 40
0.0
 40
0.0
 40
0.0
 40
0.0
 40
0.0624910812
 40
0.1250191675
 40
0.1875280223
 40
0.2500339158
 40
0.3125445364
 40
0.3750530384
 40
0.4375589561
 40
0.5000619876
 40
0.5625620615
 40
0.6250590043
 40
0.6875546498
 40
0.7500480861
 40
0.8125339489
 40
0.8750245674
 40
0.9375340466
 40
1.0
 40
1.0
 40
1.0
 40
1.0
 10
3.5592005566
 20
4.8799871029
 30
0.0
 10
3.5571123349
 20
4.8804354009
 30
0.0
 10
3.5529750478
 20
4.8815336827
 30
0.0
 10
3.5469566874
 20
4.8837646792
 30
0.0
 10
3.5411780409
 20
4.8865610108
 30
0.0
 10
3.5356925581
 20
4.8898942734
 30
0.0
 10
3.5305479218
 20
4.8937327675
 30
0.0
 10
3.5257903979
 20
4.8980416401
 30
0.0
 10
3.5214607563
 20
4.9027798474
 30
0.0
 10
3.5175970909
 20
4.9079046861
 30
0.0
 10
3.5142309054
 20
4.9133687414
 30
0.0
 10
3.5113912997
 20
4.9191237433
 30
0.0
 10
3.5091008684
 20
4.925118199
 30
0.0
 10
3.507378371
 20
4.9312994121
 30
0.0
 10
3.506237063
 20
4.9376135534
 30
0.0
 10
3.5056857973
 20
4.9440070106
 30
0.0
 10
3.5057299665
 20
4.9504227374
 30
0.0
 10
3.5061540361
 20
4.9546802448
 30
0.0
 10
3.5064639615
 20
4.9567925704
 30
0.0
  0
SPLINE
  5
514
100
AcDbEntity
  8
ALL_FEATURES
100
AcDbSpline
 62
9
  6
CONTINUOUS
 70
0
 71
3
 72
23
 73
19
 74
0
 42
0.0000001
 43
0.0000001
 44
0.0000000001
 40
0.0
 40
0.0
 40
0.0
 40
0.0
 40
0.0624659408
 40
0.1249754047
 40
0.1874660263
 40
0.2499519012
 40
0.3124453523
 40
0.3749409971
 40
0.4374379165
 40
0.4999379518
 40
0.562440938
 40
0.6249468135
 40
0.687455293
 40
0.749965909
 40
0.8124717966
 40
0.8749806943
 40
0.9375088847
 40
1.0
 40
1.0
 40
1.0
 40
1.0
 10
4.0235073251
 20
4.956788886
 30
0.0
 10
4.0238171243
 20
4.9546766207
 30
0.0
 10
4.0242409477
 20
4.9504192462
 30
0.0
 10
4.0242847883
 20
4.9440037522
 30
0.0
 10
4.0237332548
 20
4.9376105531
 30
0.0
 10
4.0225917248
 20
4.9312966883
 30
0.0
 10
4.0208690471
 20
4.9251157672
 30
0.0
 10
4.0185784845
 20
4.9191216123
 30
0.0
 10
4.0157387961
 20
4.9133669145
 30
0.0
 10
4.0123725759
 20
4.9079031595
 30
0.0
 10
4.0085089209
 20
4.9027786113
 30
0.0
 10
4.004179335
 20
4.8980406751
 30
0.0
 10
3.9994219044
 20
4.8937320516
 30
0.0
 10
3.9942773995
 20
4.8898937745
 30
0.0
 10
3.9887920742
 20
4.8865607004
 30
0.0
 10
3.9830136102
 20
4.8837645191
 30
0.0
 10
3.9769954605
 20
4.881533611
 30
0.0
 10
3.9728583175
 20
4.8804353703
 30
0.0
 10
3.9707701674
 20
4.8799871029
 30
0.0
  0
LINE
  5
515
100
AcDbEntity
  8
0
100
AcDbLine
 62
7
  6
CONTINUOUS
 10
3.9350560171
 20
5.6460890703
 11
3.9349784103
 21
5.6450466289
  0
LINE
  5
516
100
AcDbEntity
  8
0
100
AcDbLine
 62
7
  6
CONTINUOUS
 10
3.9349784103
 20
5.6450466289
 11
3.9348965892
 21
5.6439617398
  0
LINE
  5
517
100
AcDbEntity
  8
0
100
AcDbLine
 62
7
  6
CONTINUOUS
 10
3.9344363756
 20
5.6380224694
 11
3.9328812854
 21
5.6193341091
  0
LINE
  5
518
100
AcDbEntity
  8
0
100
AcDbLine
 62
7
  6
CONTINUOUS
 10
3.9501249499
 20
5.6295549184
 11
3.944732352
 21
5.6269121458
  0
LINE
  5
519
100
AcDbEntity
  8
0
100
AcDbLine
 62
7
  6
CONTINUOUS
 10
3.9505505191
 20
5.6435872322
 11
3.9501249499
 21
5.6295549184
  0
SPLINE
  5
51A
100
AcDbEntity
  8
0
100
AcDbSpline
 62
9
  6
CONTINUOUS
 70
0
 71
3
 72
13
 73
9
 74
0
 42
0.0000001
 43
0.0000001
 44
0.0000000001
 40
0.0
 40
0.0
 40
0.0
 40
0.0
 40
0.2576645509
 40
0.3848203764
 40
0.5107729193
 40
0.6354199327
 40
0.7586446817
 40
1.0
 40
1.0
 40
1.0
 40
1.0
 10
3.9111648998
 20
5.6826617635
 30
0.0
 10
3.9111648147
 20
5.676484617
 30
0.0
 10
3.9112528852
 20
5.6672588718
 30
0.0
 10
3.9115187153
 20
5.6550166352
 30
0.0
 10
3.9117747472
 20
5.645964059
 30
0.0
 10
3.9120586537
 20
5.6370066074
 30
0.0
 10
3.9124392826
 20
5.6252844256
 30
0.0
 10
3.9126668478
 20
5.6165461577
 30
0.0
 10
3.9127181559
 20
5.6107602296
 30
0.0
  0
SPLINE
  5
51B
100
AcDbEntity
  8
0
100
AcDbSpline
 62
9
  6
CONTINUOUS
 70
0
 71
3
 72
15
 73
11
 74
0
 42
0.0000001
 43
0.0000001
 44
0.0000000001
 40
0.0
 40
0.0
 40
0.0
 40
0.0
 40
0.0974736273
 40
0.2032417394
 40
0.318072626
 40
0.4418734585
 40
0.5736912955
 40
0.7119695431
 40
0.8548548578
 40
1.0
 40
1.0
 40
1.0
 40
1.0
 10
3.9111648998
 20
5.6826617635
 30
0.0
 10
3.9105718259
 20
5.6814611984
 30
0.0
 10
3.9090299604
 20
5.6791023561
 30
0.0
 10
3.9059484239
 20
5.6759730726
 30
0.0
 10
3.9020982288
 20
5.673190561
 30
0.0
 10
3.8975793587
 20
5.6708180443
 30
0.0
 10
3.8925022105
 20
5.6689107618
 30
0.0
 10
3.8869925082
 20
5.6675131327
 30
0.0
 10
3.8811889111
 20
5.6666612658
 30
0.0
 10
3.8772293237
 20
5.6664704296
 30
0.0
 10
3.875235362
 20
5.6664704296
 30
0.0
  0
SPLINE
  5
51C
100
AcDbEntity
  8
0
100
AcDbSpline
 62
9
  6
CONTINUOUS
 70
0
 71
3
 72
11
 73
7
 74
0
 42
0.0000001
 43
0.0000001
 44
0.0000000001
 40
0.0
 40
0.0
 40
0.0
 40
0.0
 40
0.2393736083
 40
0.4839633128
 40
0.7366570667
 40
1.0
 40
1.0
 40
1.0
 40
1.0
 10
3.9127181559
 20
5.6107602296
 30
0.0
 10
3.9126902812
 20
5.6102866794
 30
0.0
 10
3.9125645945
 20
5.6093320671
 30
0.0
 10
3.9121746374
 20
5.6079208716
 30
0.0
 10
3.9115850404
 20
5.6065293037
 30
0.0
 10
3.9110725482
 20
5.6056412155
 30
0.0
 10
3.9107875759
 20
5.6052040206
 30
0.0
  0
SPLINE
  5
51D
100
AcDbEntity
  8
0
100
AcDbSpline
 62
9
  6
CONTINUOUS
 70
0
 71
3
 72
17
 73
13
 74
0
 42
0.0000001
 43
0.0000001
 44
0.0000000001
 40
0.0
 40
0.0
 40
0.0
 40
0.0
 40
0.0914763857
 40
0.1412217728
 40
0.1937565073
 40
0.3071588022
 40
0.431218529
 40
0.5646006987
 40
0.7053892534
 40
0.7779073847
 40
0.851443345
 40
1.0
 40
1.0
 40
1.0
 40
1.0
 10
3.9107875759
 20
5.6052040206
 30
0.0
 10
3.9101346809
 20
5.6042023709
 30
0.0
 10
3.9089323707
 20
5.60277796
 30
0.0
 10
3.9070463301
 20
5.6010859528
 30
0.0
 10
3.9047936369
 20
5.599385399
 30
0.0
 10
3.9015112586
 20
5.597463241
 30
0.0
 10
3.8970483196
 20
5.5955467406
 30
0.0
 10
3.8920671851
 20
5.5940071686
 30
0.0
 10
3.8876257181
 20
5.5930772401
 30
0.0
 10
3.8839137466
 20
5.5925435887
 30
0.0
 10
3.8800817727
 20
5.5921558048
 30
0.0
 10
3.8771770812
 20
5.5920396967
 30
0.0
 10
3.875235362
 20
5.5920396959
 30
0.0
  0
LINE
  5
51E
100
AcDbEntity
  8
0
100
AcDbLine
 62
7
  6
CONTINUOUS
 10
3.9347605695
 20
5.6593563099
 11
3.9352863193
 21
5.655186179
  0
LINE
  5
51F
100
AcDbEntity
  8
0
100
AcDbLine
 62
7
  6
CONTINUOUS
 10
3.9353371095
 20
5.6538610982
 11
3.9353451409
 21
5.6511317935
  0
LINE
  5
520
100
AcDbEntity
  8
ALL_FEATURES
100
AcDbLine
 62
9
  6
CONTINUOUS
 10
4.0378334717
 20
4.8467927143
 11
4.0279408626
 21
4.8822601775
  0
LINE
  5
521
100
AcDbEntity
  8
ALL_FEATURES
100
AcDbLine
 62
9
  6
CONTINUOUS
 10
3.4921373178
 20
4.8467929538
 11
3.5020298614
 21
4.8822601775
  0
SPLINE
  5
522
100
AcDbEntity
  8
ALL_FEATURES
100
AcDbSpline
 62
9
  6
CONTINUOUS
 70
0
 71
3
 72
9
 73
5
 74
0
 42
0.0000001
 43
0.0000001
 44
0.0000000001
 40
0.0
 40
0.0
 40
0.0
 40
0.0
 40
0.491413522
 40
1.0
 40
1.0
 40
1.0
 40
1.0
 10
3.617235362
 20
5.6113449741
 30
0.0
 10
3.617235362
 20
5.6106206676
 30
0.0
 10
3.6174000703
 20
5.60914267
 30
0.0
 10
3.617871885
 20
5.6077344963
 30
0.0
 10
3.6181755653
 20
5.6070491456
 30
0.0
  0
SPLINE
  5
523
100
AcDbEntity
  8
ALL_FEATURES
100
AcDbSpline
 62
9
  6
CONTINUOUS
 70
0
 71
3
 72
19
 73
15
 74
0
 42
0.0000001
 43
0.0000001
 44
0.0000000001
 40
0.0
 40
0.0
 40
0.0
 40
0.0
 40
0.0429289124
 40
0.0882055506
 40
0.1362099474
 40
0.1871894272
 40
0.298338476
 40
0.3585637689
 40
0.4217012968
 40
0.4875673267
 40
0.5559075491
 40
0.6987906539
 40
0.8478680017
 40
1.0
 40
1.0
 40
1.0
 40
1.0
 10
3.6181755653
 20
5.6070491456
 30
0.0
 10
3.6184150916
 20
5.6065085784
 30
0.0
 10
3.6189901318
 20
5.6054332434
 30
0.0
 10
3.6200846089
 20
5.6039041982
 30
0.0
 10
3.6214231252
 20
5.6024302462
 30
0.0
 10
3.6235819675
 20
5.6004966285
 30
0.0
 10
3.6261386225
 20
5.5987809205
 30
0.0
 10
3.6289967354
 20
5.5972739705
 30
0.0
 10
3.631379147
 20
5.5962122514
 30
0.0
 10
3.6339256707
 20
5.5952578859
 30
0.0
 10
3.6375698653
 20
5.5941190995
 30
0.0
 10
3.6424172775
 20
5.593015534
 30
0.0
 10
3.6484891399
 20
5.5922183771
 30
0.0
 10
3.6526400556
 20
5.5920396959
 30
0.0
 10
3.654735362
 20
5.5920396959
 30
0.0
  0
SPLINE
  5
524
100
AcDbEntity
  8
ALL_FEATURES
100
AcDbSpline
 62
9
  6
CONTINUOUS
 70
0
 71
3
 72
20
 73
16
 74
0
 42
0.0000001
 43
0.0000001
 44
0.0000000001
 40
0.0
 40
0.0
 40
0.0
 40
0.0
 40
0.0464865968
 40
0.093797881
 40
0.1425575416
 40
0.1933381766
 40
0.2466028454
 40
0.3026581019
 40
0.3616490645
 40
0.423609294
 40
0.5559054501
 40
0.6979720385
 40
0.8471285215
 40
0.9233851664
 40
1.0
 40
1.0
 40
1.0
 40
1.0
 10
3.617235362
 20
5.6891589229
 30
0.0
 10
3.617235362
 20
5.688415785
 30
0.0
 10
3.6173590625
 20
5.6869136586
 30
0.0
 10
3.6179072004
 20
5.6846924735
 30
0.0
 10
3.6188143031
 20
5.6825177831
 30
0.0
 10
3.6200681415
 20
5.6804126988
 30
0.0
 10
3.6216547956
 20
5.6783962225
 30
0.0
 10
3.6235579395
 20
5.6764865044
 30
0.0
 10
3.6257584457
 20
5.6746999113
 30
0.0
 10
3.6291350645
 20
5.672457242
 30
0.0
 10
3.6339890835
 20
5.6700863943
 30
0.0
 10
3.640457955
 20
5.6680235975
 30
0.0
 10
3.6462549247
 20
5.6669731152
 30
0.0
 10
3.6510660501
 20
5.6665433266
 30
0.0
 10
3.653510592
 20
5.6664704296
 30
0.0
 10
3.654735362
 20
5.6664704296
 30
0.0
  0
SPLINE
  5
525
100
AcDbEntity
  8
0
100
AcDbSpline
 62
7
  6
CONTINUOUS
 70
0
 71
3
 72
11
 73
7
 74
0
 42
0.0000001
 43
0.0000001
 44
0.0000000001
 40
0.0
 40
0.0
 40
0.0
 40
0.0
 40
0.304928047
 40
0.5648737064
 40
0.7927774986
 40
1.0
 40
1.0
 40
1.0
 40
1.0
 10
4.0338484964
 20
5.6630335841
 30
0.0
 10
4.0339681386
 20
5.6634272198
 30
0.0
 10
4.0342183529
 20
5.6641484839
 30
0.0
 10
4.0346746056
 20
5.6651186532
 30
0.0
 10
4.035183058
 20
5.665910219
 30
0.0
 10
4.0355702627
 20
5.6663546259
 30
0.0
 10
4.035768476
 20
5.6665518106
 30
0.0
  0
SPLINE
  5
526
100
AcDbEntity
  8
0
100
AcDbSpline
 62
7
  6
CONTINUOUS
 70
0
 71
3
 72
10
 73
6
 74
0
 42
0.0000001
 43
0.0000001
 44
0.0000000001
 40
0.0
 40
0.0
 40
0.0
 40
0.0
 40
0.5218867156
 40
0.7677460899
 40
1.0
 40
1.0
 40
1.0
 40
1.0
 10
4.030998808
 20
5.6286616553
 30
0.0
 10
4.030925522
 20
5.6314528082
 30
0.0
 10
4.0308946044
 20
5.6355619092
 30
0.0
 10
4.0310477449
 20
5.6409101739
 30
0.0
 10
4.0311908506
 20
5.6434645702
 30
0.0
 10
4.0312811334
 20
5.6447038537
 30
0.0
  0
LINE
  5
527
100
AcDbEntity
  8
0
100
AcDbLine
 62
7
  6
CONTINUOUS
 10
4.0364354099
 20
5.6262358701
 11
4.030998808
 21
5.6286616553
  0
SPLINE
  5
528
100
AcDbEntity
  8
ALL_FEATURES
100
AcDbSpline
 62
9
  6
CONTINUOUS
 70
0
 71
3
 72
15
 73
11
 74
0
 42
0.0000001
 43
0.0000001
 44
0.0000000001
 40
0.0
 40
0.0
 40
0.0
 40
0.0
 40
0.1253910848
 40
0.2507138175
 40
0.3759426017
 40
0.5010448802
 40
0.6260009898
 40
0.7508041665
 40
0.8754610886
 40
1.0
 40
1.0
 40
1.0
 40
1.0
 10
3.5654362256
 20
4.9086763531
 30
0.0
 10
3.5633523857
 20
4.9091244336
 30
0.0
 10
3.5592545204
 20
4.910382953
 30
0.0
 10
3.5535306277
 20
4.9132913955
 30
0.0
 10
3.5483879007
 20
4.9171293875
 30
0.0
 10
3.5439737119
 20
4.9217770821
 30
0.0
 10
3.5404065745
 20
4.9270933104
 30
0.0
 10
3.5377779173
 20
4.9329224266
 30
0.0
 10
3.536150366
 20
4.939096633
 30
0.0
 10
3.5357557223
 20
4.9433368883
 30
0.0
 10
3.5357330859
 20
4.9454537517
 30
0.0
  0
LINE
  5
529
100
AcDbEntity
  8
0
100
AcDbLine
 62
7
  6
CONTINUOUS
 10
3.9328812854
 20
5.6193341091
 11
3.9292481575
 21
5.6228797884
  0
SPLINE
  5
52A
100
AcDbEntity
  8
0
100
AcDbSpline
 62
7
  6
CONTINUOUS
 70
0
 71
3
 72
9
 73
5
 74
0
 42
0.0000001
 43
0.0000001
 44
0.0000000001
 40
0.0
 40
0.0
 40
0.0
 40
0.0
 40
0.5168587867
 40
1.0
 40
1.0
 40
1.0
 40
1.0
 10
3.9501249499
 20
5.6295549184
 30
0.0
 10
3.9478532833
 20
5.6304771238
 30
0.0
 10
3.9435325255
 20
5.6324528443
 30
0.0
 10
3.9394309355
 20
5.6348579985
 30
0.0
 10
3.9375293391
 20
5.6361371354
 30
0.0
  0
SPLINE
  5
52B
100
AcDbEntity
  8
ALL_FEATURES
100
AcDbSpline
 62
9
  6
CONTINUOUS
 70
0
 71
3
 72
18
 73
14
 74
0
 42
0.0000001
 43
0.0000001
 44
0.0000000001
 40
0.0
 40
0.0
 40
0.0
 40
0.0
 40
0.1525053169
 40
0.3014113745
 40
0.4432884428
 40
0.5755039238
 40
0.6963659544
 40
0.7525002241
 40
0.805884864
 40
0.8568120691
 40
0.9057431175
 40
0.9532608476
 40
1.0
 40
1.0
 40
1.0
 40
1.0
 10
3.7201217961
 20
5.620305076
 30
0.0
 10
3.7181677892
 20
5.6203050761
 30
0.0
 10
3.7143017781
 20
5.6205342935
 30
0.0
 10
3.7087003503
 20
5.6215555078
 30
0.0
 10
3.7035233338
 20
5.6232177224
 30
0.0
 10
3.698964344
 20
5.6254586732
 30
0.0
 10
3.6957388049
 20
5.6278059688
 30
0.0
 10
3.6936582629
 20
5.6299077847
 30
0.0
 10
3.6923885856
 20
5.6315312709
 30
0.0
 10
3.6913857595
 20
5.6332262082
 30
0.0
 10
3.6906595784
 20
5.6349767841
 30
0.0
 10
3.6902210172
 20
5.6367655567
 30
0.0
 10
3.6901222459
 20
5.6379753446
 30
0.0
 10
3.6901219807
 20
5.6385741999
 30
0.0
  0
SPLINE
  5
52C
100
AcDbEntity
  8
ALL_FEATURES
100
AcDbSpline
 62
9
  6
CONTINUOUS
 70
0
 71
3
 72
25
 73
21
 74
0
 42
0.0000001
 43
0.0000001
 44
0.0000000001
 40
0.0
 40
0.0
 40
0.0
 40
0.0
 40
0.1901157468
 40
0.3738410445
 40
0.4609827164
 40
0.5438632783
 40
0.6216758966
 40
0.6936412463
 40
0.759087644
 40
0.8173884305
 40
0.8680231521
 40
0.9105703169
 40
0.9287097707
 40
0.9447364125
 40
0.958651346
 40
0.9704769058
 40
0.9802768831
 40
0.9882061693
 40
0.9945794968
 40
1.0
 40
1.0
 40
1.0
 40
1.0
 10
3.681085787
 20
5.2490534
 30
0.0
 10
3.6791524558
 20
5.2495176768
 30
0.0
 10
3.6753606547
 20
5.2504722664
 30
0.0
 10
3.6707123996
 20
5.2517534999
 30
0.0
 10
3.6671651959
 20
5.2528047934
 30
0.0
 10
3.6646904537
 20
5.2535757014
 30
0.0
 10
3.662378623
 20
5.2543350061
 30
0.0
 10
3.6602528305
 20
5.2550753772
 30
0.0
 10
3.6583342336
 20
5.2557889583
 30
0.0
 10
3.656641568
 20
5.2564686285
 30
0.0
 10
3.6551914754
 20
5.2571074107
 30
0.0
 10
3.6541470812
 20
5.2576234682
 30
0.0
 10
3.6534471656
 20
5.258016011
 30
0.0
 10
3.6530192754
 20
5.258280505
 30
0.0
 10
3.6526606138
 20
5.2585303454
 30
0.0
 10
3.6523717832
 20
5.2587650093
 30
0.0
 10
3.6521529213
 20
5.2589844244
 30
0.0
 10
3.6520037722
 20
5.2591893823
 30
0.0
 10
3.6519238828
 20
5.2593828412
 30
0.0
 10
3.6519230753
 20
5.2595106749
 30
0.0
 10
3.6519363684
 20
5.2595657838
 30
0.0
  0
SPLINE
  5
52D
100
AcDbEntity
  8
ALL_FEATURES
100
AcDbSpline
 62
9
  6
CONTINUOUS
 70
0
 71
3
 72
28
 73
24
 74
0
 42
0.0000001
 43
0.0000001
 44
0.0000000001
 40
0.0
 40
0.0
 40
0.0
 40
0.0
 40
0.1923531777
 40
0.3782466236
 40
0.5501982238
 40
0.6288183117
 40
0.7014540441
 40
0.767404729
 40
0.8260050563
 40
0.8767006685
 40
0.8989271145
 40
0.9189951804
 40
0.9368663001
 40
0.9525074325
 40
0.9658893984
 40
0.9769907277
 40
0.9858168592
 40
0.9893922203
 40
0.992424268
 40
0.9949359434
 40
0.996969344
 40
0.9986057613
 40
1.0
 40
1.0
 40
1.0
 40
1.0
 10
3.5666102841
 20
4.9476198653
 30
0.0
 10
3.5648461124
 20
4.9485451643
 30
0.0
 10
3.5613871291
 20
4.9503840567
 30
0.0
 10
3.5563865792
 20
4.9531161741
 30
0.0
 10
3.5524474054
 20
4.9553336286
 30
0.0
 10
3.5495503877
 20
4.9570105074
 30
0.0
 10
3.5476138548
 20
4.9581551645
 30
0.0
 10
3.5458670277
 20
4.9592131022
 30
0.0
 10
3.5443272222
 20
4.9601739437
 30
0.0
 10
3.5431839303
 20
4.9609145683
 30
0.0
 10
3.5423854325
 20
4.9614530121
 30
0.0
 10
3.5418739327
 20
4.9618089058
 30
0.0
 10
3.5414241646
 20
4.9621339764
 30
0.0
 10
3.5410371309
 20
4.9624274325
 30
0.0
 10
3.5407136548
 20
4.9626884496
 30
0.0
 10
3.5404545769
 20
4.9629163674
 30
0.0
 10
3.5402818414
 20
4.9630883437
 30
0.0
 10
3.5401783396
 20
4.9632102786
 30
0.0
 10
3.5401226092
 20
4.963286662
 30
0.0
 10
3.5400829939
 20
4.9633546322
 30
0.0
 10
3.5400594421
 20
4.9634145385
 30
0.0
 10
3.5400520724
 20
4.963467231
 30
0.0
 10
3.5400598957
 20
4.9634987837
 30
0.0
 10
3.540066605
 20
4.9635115697
 30
0.0
  0
SPLINE
  5
52E
100
AcDbEntity
  8
ALL_FEATURES
100
AcDbSpline
 62
9
  6
CONTINUOUS
 70
0
 71
3
 72
20
 73
16
 74
0
 42
0.0000001
 43
0.0000001
 44
0.0000000001
 40
0.0
 40
0.0
 40
0.0
 40
0.0
 40
0.187191756
 40
0.3666003519
 40
0.532377642
 40
0.6794663544
 40
0.7445102002
 40
0.8032018218
 40
0.8550730316
 40
0.8997113711
 40
0.9367908266
 40
0.9660012647
 40
0.9871222732
 40
0.9946002062
 40
1.0
 40
1.0
 40
1.0
 40
1.0
 10
3.5716718945
 20
4.9367003574
 30
0.0
 10
3.5713030061
 20
4.9349885913
 30
0.0
 10
3.5705767423
 20
4.9316370545
 30
0.0
 10
3.5695103736
 20
4.9267724944
 30
0.0
 10
3.5685121242
 20
4.9222770654
 30
0.0
 10
3.567734632
 20
4.9188285007
 30
0.0
 10
3.5671690429
 20
4.9163590472
 30
0.0
 10
3.5667980342
 20
4.9147587987
 30
0.0
 10
3.5664654751
 20
4.9133455849
 30
0.0
 10
3.5661739326
 20
4.9121304254
 30
0.0
 10
3.5659259764
 20
4.9111228016
 30
0.0
 10
3.5657233327
 20
4.910330645
 30
0.0
 10
3.5655822263
 20
4.909808527
 30
0.0
 10
3.5654912405
 20
4.9095037835
 30
0.0
 10
3.56545368
 20
4.9093892703
 30
0.0
 10
3.565436231
 20
4.9093418681
 30
0.0
  0
SPLINE
  5
52F
100
AcDbEntity
  8
ALL_FEATURES
100
AcDbSpline
 62
9
  6
CONTINUOUS
 70
0
 71
3
 72
20
 73
16
 74
0
 42
0.0000001
 43
0.0000001
 44
0.0000000001
 40
0.0
 40
0.0
 40
0.0
 40
0.0
 40
0.1871935225
 40
0.3666034309
 40
0.5323813833
 40
0.6794700556
 40
0.7445136411
 40
0.803204876
 40
0.8550756034
 40
0.8997134008
 40
0.9367922927
 40
0.9660021827
 40
0.9871226927
 40
0.9946004041
 40
1.0
 40
1.0
 40
1.0
 40
1.0
 10
3.9582988295
 20
4.9367003573
 30
0.0
 10
3.9586677137
 20
4.9349886067
 30
0.0
 10
3.9593939688
 20
4.9316371039
 30
0.0
 10
3.9604603241
 20
4.9267725999
 30
0.0
 10
3.9614585587
 20
4.922277237
 30
0.0
 10
3.9622360379
 20
4.9188287333
 30
0.0
 10
3.9628016161
 20
4.9163593324
 30
0.0
 10
3.9631726166
 20
4.9147591241
 30
0.0
 10
3.9635051677
 20
4.9133459498
 30
0.0
 10
3.9637967028
 20
4.9121308277
 30
0.0
 10
3.9640446522
 20
4.9111232381
 30
0.0
 10
3.9642472902
 20
4.9103311113
 30
0.0
 10
3.9643883925
 20
4.9098090149
 30
0.0
 10
3.9644793758
 20
4.9095042858
 30
0.0
 10
3.9645169353
 20
4.9093897787
 30
0.0
 10
3.9645343839
 20
4.9093423794
 30
0.0
  0
SPLINE
  5
530
100
AcDbEntity
  8
ALL_FEATURES
100
AcDbSpline
 62
9
  6
CONTINUOUS
 70
0
 71
3
 72
28
 73
24
 74
0
 42
0.0000001
 43
0.0000001
 44
0.0000000001
 40
0.0
 40
0.0
 40
0.0
 40
0.0
 40
0.1923523467
 40
0.3782453053
 40
0.5501968765
 40
0.6288171144
 40
0.7014530841
 40
0.7674040607
 40
0.8260046988
 40
0.8767005995
 40
0.898927168
 40
0.9189953354
 40
0.9368665315
 40
0.9525077112
 40
0.9658896917
 40
0.976991
 40
0.9858170755
 40
0.9893923969
 40
0.9924243987
 40
0.9949360247
 40
0.9969693779
 40
0.9986057616
 40
1.0
 40
1.0
 40
1.0
 40
1.0
 10
3.9633604399
 20
4.9476198653
 30
0.0
 10
3.9651246336
 20
4.9485451712
 30
0.0
 10
3.9685836629
 20
4.9503840796
 30
0.0
 10
3.9735842838
 20
4.9531162252
 30
0.0
 10
3.9775235193
 20
4.9553337073
 30
0.0
 10
3.9804205878
 20
4.9570106112
 30
0.0
 10
3.9823571583
 20
4.9581552881
 30
0.0
 10
3.9841040211
 20
4.9592132456
 30
0.0
 10
3.9856438592
 20
4.9601741064
 30
0.0
 10
3.9867871755
 20
4.9609147465
 30
0.0
 10
3.9875856901
 20
4.9614532019
 30
0.0
 10
3.9880972003
 20
4.9618091033
 30
0.0
 10
3.9885469771
 20
4.9621341809
 30
0.0
 10
3.9889340176
 20
4.962427643
 30
0.0
 10
3.9892574984
 20
4.9626886653
 30
0.0
 10
3.9895165791
 20
4.9629165874
 30
0.0
 10
3.9896893154
 20
4.9630885666
 30
0.0
 10
3.9897928165
 20
4.9632105035
 30
0.0
 10
3.9898485458
 20
4.9632868878
 30
0.0
 10
3.9898881595
 20
4.9633548587
 30
0.0
 10
3.9899117091
 20
4.9634147655
 30
0.0
 10
3.9899190758
 20
4.9634674586
 30
0.0
 10
3.9899112498
 20
4.9634990109
 30
0.0
 10
3.9899045394
 20
4.9635117965
 30
0.0
  0
SPLINE
  5
531
100
AcDbEntity
  8
ALL_FEATURES
100
AcDbSpline
 62
9
  6
CONTINUOUS
 70
0
 71
3
 72
25
 73
21
 74
0
 42
0.0000001
 43
0.0000001
 44
0.0000000001
 40
0.0
 40
0.0
 40
0.0
 40
0.0
 40
0.1901157665
 40
0.3738410828
 40
0.4609827625
 40
0.5438633307
 40
0.6216759535
 40
0.6936413054
 40
0.759087703
 40
0.8173884868
 40
0.868023203
 40
0.9105703596
 40
0.9287098084
 40
0.9447364446
 40
0.9586513719
 40
0.9704769252
 40
0.9802768958
 40
0.9882061757
 40
0.9945794984
 40
1.0
 40
1.0
 40
1.0
 40
1.0
 10
3.848884937
 20
5.2490533998
 30
0.0
 10
3.8508182685
 20
5.2495176766
 30
0.0
 10
3.8546100703
 20
5.2504722663
 30
0.0
 10
3.8592583262
 20
5.2517535
 30
0.0
 10
3.8628055305
 20
5.2528047938
 30
0.0
 10
3.865280273
 20
5.2535757018
 30
0.0
 10
3.867592104
 20
5.2543350067
 30
0.0
 10
3.8697178967
 20
5.2550753779
 30
0.0
 10
3.8716364937
 20
5.255788959
 30
0.0
 10
3.8733291594
 20
5.2564686293
 30
0.0
 10
3.8747792518
 20
5.2571074116
 30
0.0
 10
3.8758236459
 20
5.2576234691
 30
0.0
 10
3.8765235614
 20
5.258016012
 30
0.0
 10
3.8769514514
 20
5.2582805059
 30
0.0
 10
3.8773101128
 20
5.2585303463
 30
0.0
 10
3.8775989432
 20
5.2587650103
 30
0.0
 10
3.8778178049
 20
5.2589844253
 30
0.0
 10
3.8779669537
 20
5.2591893832
 30
0.0
 10
3.8780468429
 20
5.2593828421
 30
0.0
 10
3.87804765
 20
5.2595106757
 30
0.0
 10
3.8780343569
 20
5.2595657846
 30
0.0
  0
SPLINE
  5
532
100
AcDbEntity
  8
ALL_FEATURES
100
AcDbSpline
 62
9
  6
CONTINUOUS
 70
0
 71
3
 72
18
 73
14
 74
0
 42
0.0000001
 43
0.0000001
 44
0.0000000001
 40
0.0
 40
0.0
 40
0.0
 40
0.0
 40
0.1525054236
 40
0.3014115642
 40
0.443288674
 40
0.5755041432
 40
0.6963661112
 40
0.7525003374
 40
0.8058849307
 40
0.8568120938
 40
0.9057431125
 40
0.9532608326
 40
1.0
 40
1.0
 40
1.0
 40
1.0
 10
3.8098489279
 20
5.620305076
 30
0.0
 10
3.8118029402
 20
5.620305076
 30
0.0
 10
3.8156689619
 20
5.6205342946
 30
0.0
 10
3.8212704039
 20
5.6215555145
 30
0.0
 10
3.8264474313
 20
5.6232177379
 30
0.0
 10
3.831006427
 20
5.6254587001
 30
0.0
 10
3.8342319663
 20
5.6278060074
 30
0.0
 10
3.8363125045
 20
5.6299078332
 30
0.0
 10
3.837582177
 20
5.6315313266
 30
0.0
 10
3.8385849964
 20
5.6332262709
 30
0.0
 10
3.8393111688
 20
5.6349768536
 30
0.0
 10
3.8397497195
 20
5.6367656325
 30
0.0
 10
3.8398484825
 20
5.6379754238
 30
0.0
 10
3.8398487433
 20
5.6385742805
 30
0.0
  0
LINE
  5
533
100
AcDbEntity
  8
ALL_FEATURES
100
AcDbLine
 62
9
  6
CONTINUOUS
 10
3.9645344953
 20
4.9086763679
 11
3.9707701674
 21
4.8799871029
  0
LINE
  5
534
100
AcDbEntity
  8
ALL_FEATURES
100
AcDbLine
 62
9
  6
CONTINUOUS
 10
3.5654362691
 20
4.9086765573
 11
3.5592005566
 21
4.8799870975
  0
SPLINE
  5
535
100
AcDbEntity
  8
ALL_FEATURES
100
AcDbSpline
 62
9
  6
CONTINUOUS
 70
0
 71
3
 72
22
 73
18
 74
0
 42
0.0000001
 43
0.0000001
 44
0.0000000001
 40
0.0
 40
0.0
 40
0.0
 40
0.0
 40
0.0063984781
 40
0.0148011607
 40
0.025222569
 40
0.0376496591
 40
0.0684337095
 40
0.1069509195
 40
0.1528844049
 40
0.2058456771
 40
0.2654087789
 40
0.331053469
 40
0.4022376155
 40
0.4783509503
 40
0.6426980373
 40
0.818630227
 40
1.0
 40
1.0
 40
1.0
 40
1.0
 10
3.5769835988
 20
5.0399037606
 30
0.0
 10
3.5769377072
 20
5.0399496772
 30
0.0
 10
3.5768237474
 20
5.0400479632
 30
0.0
 10
3.5766190392
 20
5.0402016028
 30
0.0
 10
3.5763571882
 20
5.0403805675
 30
0.0
 10
3.5758988069
 20
5.0406738822
 30
0.0
 10
3.5751852819
 20
5.0410967325
 30
0.0
 10
3.5741647564
 20
5.0416673237
 30
0.0
 10
3.5729359704
 20
5.0423260784
 30
0.0
 10
3.5715093184
 20
5.0430673224
 30
0.0
 10
3.5698968134
 20
5.0438844122
 30
0.0
 10
3.568112086
 20
5.0447704997
 30
0.0
 10
3.5661703588
 20
5.0457178435
 30
0.0
 10
3.5633203757
 20
5.0470872798
 30
0.0
 10
3.5594978082
 20
5.048886291
 30
0.0
 10
3.5546894071
 20
5.0510979297
 30
0.0
 10
3.5513838995
 20
5.0525864222
 30
0.0
 10
3.5497030737
 20
5.0533354208
 30
0.0
  0
SPLINE
  5
536
100
AcDbEntity
  8
0
100
AcDbSpline
 62
7
  6
CONTINUOUS
 70
0
 71
3
 72
11
 73
7
 74
0
 42
0.0000001
 43
0.0000001
 44
0.0000000001
 40
0.0
 40
0.0
 40
0.0
 40
0.0
 40
0.2350223043
 40
0.4806961546
 40
0.7362783471
 40
1.0
 40
1.0
 40
1.0
 40
1.0
 10
3.9285986551
 20
5.6401662101
 30
0.0
 10
3.9287507496
 20
5.6410403963
 30
0.0
 10
3.9290819865
 20
5.6428250088
 30
0.0
 10
3.9296713522
 20
5.6455420852
 30
0.0
 10
3.9303724953
 20
5.6483442645
 30
0.0
 10
3.9309012448
 20
5.650232518
 30
0.0
 10
3.9311821907
 20
5.6511877311
 30
0.0
  0
SPLINE
  5
537
100
AcDbEntity
  8
0
100
AcDbSpline
 62
9
  6
CONTINUOUS
 70
0
 71
3
 72
15
 73
11
 74
0
 42
0.0000001
 43
0.0000001
 44
0.0000000001
 40
0.0
 40
0.0
 40
0.0
 40
0.0
 40
0.0974737327
 40
0.2032419017
 40
0.3180728044
 40
0.4418736228
 40
0.5736914254
 40
0.7119696283
 40
0.8548548959
 40
1.0
 40
1.0
 40
1.0
 40
1.0
 10
3.9111648998
 20
5.6826617635
 30
0.0
 10
3.9118765883
 20
5.684102444
 30
0.0
 10
3.9137268263
 20
5.6869330591
 30
0.0
 10
3.9174246702
 20
5.690688205
 30
0.0
 10
3.9220449046
 20
5.6940272224
 30
0.0
 10
3.927467549
 20
5.6968742436
 30
0.0
 10
3.9335601271
 20
5.6991629816
 30
0.0
 10
3.94017177
 20
5.7008401332
 30
0.0
 10
3.9471360866
 20
5.7018623682
 30
0.0
 10
3.9518875914
 20
5.7020913669
 30
0.0
 10
3.9542803452
 20
5.7020913641
 30
0.0
  0
SPLINE
  5
538
100
AcDbEntity
  8
0
100
AcDbSpline
 62
7
  6
CONTINUOUS
 70
0
 71
3
 72
17
 73
13
 74
0
 42
0.0000001
 43
0.0000001
 44
0.0000000001
 40
0.0
 40
0.0
 40
0.0
 40
0.0
 40
0.1238766763
 40
0.2550790717
 40
0.3221214709
 40
0.3894295477
 40
0.45652288
 40
0.5229327217
 40
0.651843605
 40
0.7740147419
 40
0.8898968536
 40
1.0
 40
1.0
 40
1.0
 40
1.0
 10
3.9311605419
 20
5.6511811979
 30
0.0
 10
3.9315583942
 20
5.6525379997
 30
0.0
 10
3.932435965
 20
5.6553150149
 30
0.0
 10
3.9336882571
 20
5.6587731886
 30
0.0
 10
3.9348178246
 20
5.661586161
 30
0.0
 10
3.9357286457
 20
5.6636976233
 30
0.0
 10
3.9366897788
 20
5.6657787234
 30
0.0
 10
3.9380149483
 20
5.6684650964
 30
0.0
 10
3.9397449006
 20
5.6716516618
 30
0.0
 10
3.9419585902
 20
5.6752105684
 30
0.0
 10
3.944270418
 20
5.6784460656
 30
0.0
 10
3.9459127025
 20
5.6804386348
 30
0.0
 10
3.9467497866
 20
5.6813759884
 30
0.0
  0
SPLINE
  5
539
100
AcDbEntity
  8
0
100
AcDbSpline
 62
7
  6
CONTINUOUS
 70
0
 71
3
 72
9
 73
5
 74
0
 42
0.0000001
 43
0.0000001
 44
0.0000000001
 40
0.0
 40
0.0
 40
0.0
 40
0.0
 40
0.5171473877
 40
1.0
 40
1.0
 40
1.0
 40
1.0
 10
3.9467497866
 20
5.6813759884
 30
0.0
 10
3.9477192556
 20
5.6824615846
 30
0.0
 10
3.9496914601
 20
5.684476639
 30
0.0
 10
3.9518757955
 20
5.6862639186
 30
0.0
 10
3.952982895
 20
5.6870520004
 30
0.0
  0
SPLINE
  5
53A
100
AcDbEntity
  8
0
100
AcDbSpline
 62
9
  6
CONTINUOUS
 70
0
 71
3
 72
13
 73
9
 74
0
 42
0.0000001
 43
0.0000001
 44
0.0000000001
 40
0.0
 40
0.0
 40
0.0
 40
0.0
 40
0.119804267
 40
0.2404901124
 40
0.3623428468
 40
0.4857537297
 40
0.7382555199
 40
1.0
 40
1.0
 40
1.0
 40
1.0
 10
3.912718152
 20
5.6107602568
 30
0.0
 10
3.9127589859
 20
5.6120098734
 30
0.0
 10
3.9129919892
 20
5.614515821
 30
0.0
 10
3.9137840115
 20
5.6182217732
 30
0.0
 10
3.9150152047
 20
5.6218462787
 30
0.0
 10
3.9172365858
 20
5.6265526871
 30
0.0
 10
3.9210687315
 20
5.632059396
 30
0.0
 10
3.9250031714
 20
5.6357680915
 30
0.0
 10
3.9271574172
 20
5.6374476004
 30
0.0
  0
SPLINE
  5
53B
100
AcDbEntity
  8
ALL_FEATURES
100
AcDbSpline
 62
9
  6
CONTINUOUS
 70
0
 71
3
 72
26
 73
22
 74
0
 42
0.0000001
 43
0.0000001
 44
0.0000000001
 40
0.0
 40
0.0
 40
0.0
 40
0.0
 40
0.0017903322
 40
0.0037725945
 40
0.0060888598
 40
0.0088287851
 40
0.0157661327
 40
0.0248192608
 40
0.0360749822
 40
0.04955621
 40
0.0652538811
 40
0.0831473663
 40
0.1032098077
 40
0.1254058754
 40
0.175977094
 40
0.234390551
 40
0.3001084348
 40
0.4508267958
 40
0.6222554908
 40
0.8077681367
 40
1.0
 40
1.0
 40
1.0
 40
1.0
 10
3.5732562632
 20
5.2427155271
 30
0.0
 10
3.5732501843
 20
5.2426933054
 30
0.0
 10
3.5732458038
 20
5.2426438815
 30
0.0
 10
3.5732634761
 20
5.2425666236
 30
0.0
 10
3.5733033926
 20
5.2424847017
 30
0.0
 10
3.5733929716
 20
5.2423584491
 30
0.0
 10
3.5735665682
 20
5.2421891114
 30
0.0
 10
3.5738454411
 20
5.2419761848
 30
0.0
 10
3.5742111081
 20
5.2417401963
 30
0.0
 10
3.5746628259
 20
5.2414816964
 30
0.0
 10
3.5751999241
 20
5.2412013607
 30
0.0
 10
3.5758211724
 20
5.2408999786
 30
0.0
 10
3.5765252752
 20
5.2405783107
 30
0.0
 10
3.577621022
 20
5.2401024899
 30
0.0
 10
3.5791852031
 20
5.2394671861
 30
0.0
 10
3.5812862546
 20
5.2386671539
 30
0.0
 10
3.5846130175
 20
5.2374660704
 30
0.0
 10
3.589343285
 20
5.2358720489
 30
0.0
 10
3.5955742038
 20
5.2339086829
 30
0.0
 10
3.6023487266
 20
5.2318962529
 30
0.0
 10
3.6070284216
 20
5.2305808248
 30
0.0
 10
3.6094145419
 20
5.2299285698
 30
0.0
  0
SPLINE
  5
53C
100
AcDbEntity
  8
0
100
AcDbSpline
 62
7
  6
CONTINUOUS
 70
0
 71
3
 72
11
 73
7
 74
0
 42
0.0000001
 43
0.0000001
 44
0.0000000001
 40
0.0
 40
0.0
 40
0.0
 40
0.0
 40
0.2312140786
 40
0.4752599936
 40
0.7318075962
 40
1.0
 40
1.0
 40
1.0
 40
1.0
 10
3.927841937
 20
5.6265173258
 30
0.0
 10
3.9277377478
 20
5.6271942802
 30
0.0
 10
3.9275945941
 20
5.628597166
 30
0.0
 10
3.9275492753
 20
5.630766243
 30
0.0
 10
3.9276509872
 20
5.6330426761
 30
0.0
 10
3.927802976
 20
5.6345903404
 30
0.0
 10
3.927897343
 20
5.6353791822
 30
0.0
  0
LINE
  5
53D
100
AcDbEntity
  8
0
100
AcDbLine
 62
7
  6
CONTINUOUS
 10
3.9319488554
 20
5.6187281683
 11
3.9282699146
 21
5.6189555264
  0
SPLINE
  5
53E
100
AcDbEntity
  8
0
100
AcDbSpline
 62
7
  6
CONTINUOUS
 70
0
 71
3
 72
18
 73
14
 74
0
 42
0.0000001
 43
0.0000001
 44
0.0000000001
 40
0.0
 40
0.0
 40
0.0
 40
0.0
 40
0.0994437603
 40
0.1912749475
 40
0.2762354359
 40
0.3550464177
 40
0.4968631175
 40
0.6210774665
 40
0.7307834572
 40
0.8285908885
 40
0.8739205491
 40
0.9173540755
 40
1.0
 40
1.0
 40
1.0
 40
1.0
 10
3.9577375227
 20
5.6132962629
 30
0.0
 10
3.956863915
 20
5.6134209932
 30
0.0
 10
3.9551812398
 20
5.6136447705
 30
0.0
 10
3.9527465808
 20
5.6139305461
 30
0.0
 10
3.9504914847
 20
5.6141744002
 30
0.0
 10
3.947794314
 20
5.6144555994
 30
0.0
 10
3.9447519796
 20
5.6147859162
 30
0.0
 10
3.9414474745
 20
5.6152373283
 30
0.0
 10
3.9385548454
 20
5.6157948635
 30
0.0
 10
3.9363927979
 20
5.6164120809
 30
0.0
 10
3.934849398
 20
5.6170151246
 30
0.0
 10
3.9334749084
 20
5.6176680474
 30
0.0
 10
3.9325235353
 20
5.6182725124
 30
0.0
 10
3.9319488554
 20
5.6187281683
 30
0.0
  0
SPLINE
  5
53F
100
AcDbEntity
  8
0
100
AcDbSpline
 62
7
  6
CONTINUOUS
 70
0
 71
3
 72
11
 73
7
 74
0
 42
0.0000001
 43
0.0000001
 44
0.0000000001
 40
0.0
 40
0.0
 40
0.0
 40
0.0
 40
0.226898661
 40
0.4690803697
 40
0.7268519377
 40
1.0
 40
1.0
 40
1.0
 40
1.0
 10
4.0211616106
 20
5.6866887674
 30
0.0
 10
4.0221866134
 20
5.6859731726
 30
0.0
 10
4.024215095
 20
5.6843616044
 30
0.0
 10
4.0270857837
 20
5.6815618935
 30
0.0
 10
4.0298695822
 20
5.6783321363
 30
0.0
 10
4.031609788
 20
5.6759776079
 30
0.0
 10
4.0324650841
 20
5.6747393978
 30
0.0
  0
SPLINE
  5
540
100
AcDbEntity
  8
0
100
AcDbSpline
 62
7
  6
CONTINUOUS
 70
0
 71
3
 72
36
 73
32
 74
0
 42
0.0000001
 43
0.0000001
 44
0.0000000001
 40
0.0
 40
0.0
 40
0.0
 40
0.0
 40
0.1029744528
 40
0.1506645497
 40
0.1949865307
 40
0.2359388696
 40
0.2737868364
 40
0.308792513
 40
0.3412672458
 40
0.371567269
 40
0.4000509871
 40
0.4270289875
 40
0.4527625283
 40
0.4775307222
 40
0.501580779
 40
0.5250776709
 40
0.5482273169
 40
0.5712864329
 40
0.5945357226
 40
0.6183143011
 40
0.6429870213
 40
0.6686820509
 40
0.6953409649
 40
0.7228429496
 40
0.7511102536
 40
0.7800661945
 40
0.8095751138
 40
0.8395835035
 40
0.8701779424
 40
0.9334530909
 40
1.0
 40
1.0
 40
1.0
 40
1.0
 10
4.0418216224
 20
5.656825041
 30
0.0
 10
4.0425791226
 20
5.6548860073
 30
0.0
 10
4.0435939146
 20
5.6520110186
 30
0.0
 10
4.044722986
 20
5.6482338452
 30
0.0
 10
4.0454076961
 20
5.6456339187
 30
0.0
 10
4.0459582729
 20
5.6432060014
 30
0.0
 10
4.0463867626
 20
5.6409450397
 30
0.0
 10
4.0467080133
 20
5.6388396021
 30
0.0
 10
4.0469310322
 20
5.6368749353
 30
0.0
 10
4.0470605865
 20
5.6350339949
 30
0.0
 10
4.0471035953
 20
5.6333001257
 30
0.0
 10
4.0470625419
 20
5.6316583961
 30
0.0
 10
4.0469319829
 20
5.6300964925
 30
0.0
 10
4.0467081709
 20
5.6286048705
 30
0.0
 10
4.0463865529
 20
5.6271772293
 30
0.0
 10
4.0459547942
 20
5.6258127353
 30
0.0
 10
4.045401543
 20
5.6245140975
 30
0.0
 10
4.0447160176
 20
5.6232853224
 30
0.0
 10
4.0438855252
 20
5.6221332364
 30
0.0
 10
4.0428987572
 20
5.6210663063
 30
0.0
 10
4.0417493424
 20
5.6200986806
 30
0.0
 10
4.0404538759
 20
5.619229964
 30
0.0
 10
4.0390328783
 20
5.6184593474
 30
0.0
 10
4.0375049403
 20
5.6177901576
 30
0.0
 10
4.0358909389
 20
5.6172136499
 30
0.0
 10
4.0342103067
 20
5.6167117592
 30
0.0
 10
4.0324778038
 20
5.6162661473
 30
0.0
 10
4.0307015193
 20
5.6158611222
 30
0.0
 10
4.0282487853
 20
5.6153547404
 30
0.0
 10
4.0250604413
 20
5.614761367
 30
0.0
 10
4.0224808342
 20
5.6142776771
 30
0.0
 10
4.0211616106
 20
5.6140139803
 30
0.0
  0
SPLINE
  5
541
100
AcDbEntity
  8
ALL_FEATURES
100
AcDbSpline
 62
9
  6
CONTINUOUS
 70
0
 71
3
 72
31
 73
27
 74
0
 42
0.0000001
 43
0.0000001
 44
0.0000000001
 40
0.0
 40
0.0
 40
0.0
 40
0.0
 40
0.0006365691
 40
0.0011074857
 40
0.0017065206
 40
0.0033179314
 40
0.005502929
 40
0.0082716113
 40
0.0116279873
 40
0.0201083126
 40
0.0309443629
 40
0.0441146117
 40
0.0595834991
 40
0.0773138436
 40
0.0972677762
 40
0.1194030724
 40
0.1699777464
 40
0.2285354298
 40
0.29452151
 40
0.3672757596
 40
0.4461050106
 40
0.5302168262
 40
0.6187837233
 40
0.7109597926
 40
0.8058836964
 40
1.0
 40
1.0
 40
1.0
 40
1.0
 10
3.4499258875
 20
4.9504877707
 30
0.0
 10
3.4499218292
 20
4.9504807911
 30
0.0
 10
3.4499234838
 20
4.950464797
 30
0.0
 10
3.4499325557
 20
4.9504455466
 30
0.0
 10
3.4499508877
 20
4.9504166043
 30
0.0
 10
3.449987322
 20
4.9503743069
 30
0.0
 10
3.4500464822
 20
4.950315629
 30
0.0
 10
3.4501251849
 20
4.9502454788
 30
0.0
 10
3.4502676112
 20
4.9501269946
 30
0.0
 10
3.4504956165
 20
4.9499516281
 30
0.0
 10
3.450828771
 20
4.9497091525
 30
0.0
 10
3.4512388824
 20
4.9494219162
 30
0.0
 10
3.4517248465
 20
4.9490906646
 30
0.0
 10
3.4522855166
 20
4.9487163092
 30
0.0
 10
3.4529196289
 20
4.9482997266
 30
0.0
 10
3.4539057933
 20
4.9476603795
 30
0.0
 10
3.4553096769
 20
4.9467653607
 30
0.0
 10
3.4571908084
 20
4.9455844646
 30
0.0
 10
3.459317442
 20
4.9442656239
 30
0.0
 10
3.4616689405
 20
4.9428215953
 30
0.0
 10
3.464222152
 20
4.941266768
 30
0.0
 10
3.4669519624
 20
4.9396163751
 30
0.0
 10
3.4698316191
 20
4.9378866714
 30
0.0
 10
3.4728335424
 20
4.9360942238
 30
0.0
 10
3.4769909468
 20
4.9336256894
 30
0.0
 10
3.480149675
 20
4.9317651006
 30
0.0
 10
3.4822738235
 20
4.9305203045
 30
0.0
  0
SPLINE
  5
542
100
AcDbEntity
  8
0
100
AcDbSpline
 62
9
  6
CONTINUOUS
 70
0
 71
3
 72
15
 73
11
 74
0
 42
0.0000001
 43
0.0000001
 44
0.0000000001
 40
0.0
 40
0.0
 40
0.0
 40
0.0
 40
0.1202685131
 40
0.2411981864
 40
0.363097781
 40
0.4864071477
 40
0.6115307462
 40
0.7387784985
 40
0.868321256
 40
1.0
 40
1.0
 40
1.0
 40
1.0
 10
3.9127375233
 20
5.6068547939
 30
0.0
 10
3.9127375449
 20
5.6081971739
 30
0.0
 10
3.9129070689
 20
5.6108922209
 30
0.0
 10
3.9136613343
 20
5.6148841695
 30
0.0
 10
3.9149115892
 20
5.6187856796
 30
0.0
 10
3.916639786
 20
5.6225512015
 30
0.0
 10
3.918827713
 20
5.626139183
 30
0.0
 10
3.9214497982
 20
5.6295114555
 30
0.0
 10
3.9244767624
 20
5.6326270986
 30
0.0
 10
3.9267216789
 20
5.634497175
 30
0.0
 10
3.927897343
 20
5.6353791822
 30
0.0
  0
SPLINE
  5
543
100
AcDbEntity
  8
0
100
AcDbSpline
 62
7
  6
CONTINUOUS
 70
0
 71
3
 72
35
 73
31
 74
0
 42
0.0000001
 43
0.0000001
 44
0.0000000001
 40
0.0
 40
0.0
 40
0.0
 40
0.0
 40
0.0198798482
 40
0.0389061
 40
0.0572349263
 40
0.0750085906
 40
0.1093037191
 40
0.1423092093
 40
0.1743589853
 40
0.2056530689
 40
0.2363464043
 40
0.2665723801
 40
0.3259971954
 40
0.3844687642
 40
0.4423690724
 40
0.5
 40
0.5576309276
 40
0.6155312358
 40
0.6740028046
 40
0.7334276199
 40
0.7636535957
 40
0.7943469311
 40
0.8256410147
 40
0.8576907907
 40
0.8906962809
 40
0.9249914094
 40
0.9427650737
 40
0.9610939
 40
0.9801201518
 40
1.0
 40
1.0
 40
1.0
 40
1.0
 10
4.7438003226
 20
5.2249513722
 30
0.0
 10
4.7426563147
 20
5.2249513722
 30
0.0
 10
4.7404170002
 20
5.225006378
 30
0.0
 10
4.7371310349
 20
5.2252474998
 30
0.0
 10
4.7339799146
 20
5.2256236969
 30
0.0
 10
4.7299796507
 20
5.226268578
 30
0.0
 10
4.7251895089
 20
5.2272992801
 30
0.0
 10
4.7196858577
 20
5.228859254
 30
0.0
 10
4.7144404015
 20
5.2306637349
 30
0.0
 10
4.7094204006
 20
5.2326907569
 30
0.0
 10
4.7046013745
 20
5.2349173419
 30
0.0
 10
4.698449544
 20
5.2381015011
 30
0.0
 10
4.69111837
 20
5.2424686049
 30
0.0
 10
4.6828376482
 20
5.2482950039
 30
0.0
 10
4.6750668984
 20
5.2546227653
 30
0.0
 10
4.6677847628
 20
5.2614358124
 30
0.0
 10
4.6609717158
 20
5.268717948
 30
0.0
 10
4.6546439543
 20
5.2764886977
 30
0.0
 10
4.6488175553
 20
5.2847694195
 30
0.0
 10
4.6444504515
 20
5.2921005936
 30
0.0
 10
4.6412662923
 20
5.298252424
 30
0.0
 10
4.6390397073
 20
5.3030714502
 30
0.0
 10
4.6370126854
 20
5.308091451
 30
0.0
 10
4.6352082045
 20
5.3133369073
 30
0.0
 10
4.6336482305
 20
5.3188405585
 30
0.0
 10
4.6326175285
 20
5.3236307002
 30
0.0
 10
4.6319726473
 20
5.3276309642
 30
0.0
 10
4.6315964503
 20
5.3307820844
 30
0.0
 10
4.6313553284
 20
5.3340680498
 30
0.0
 10
4.6313003226
 20
5.3363073643
 30
0.0
 10
4.6313003226
 20
5.3374513722
 30
0.0
  0
SPLINE
  5
544
100
AcDbEntity
  8
0
100
AcDbSpline
 62
7
  6
CONTINUOUS
 70
0
 71
3
 72
35
 73
31
 74
0
 42
0.0000001
 43
0.0000001
 44
0.0000000001
 40
0.0
 40
0.0
 40
0.0
 40
0.0
 40
0.0198798482
 40
0.0389061
 40
0.0572349263
 40
0.0750085906
 40
0.1093037191
 40
0.1423092093
 40
0.1743589853
 40
0.2056530689
 40
0.2363464043
 40
0.2665723801
 40
0.3259971954
 40
0.3844687642
 40
0.4423690724
 40
0.5
 40
0.5576309276
 40
0.6155312358
 40
0.6740028046
 40
0.7334276199
 40
0.7636535957
 40
0.7943469311
 40
0.8256410147
 40
0.8576907907
 40
0.8906962809
 40
0.9249914094
 40
0.9427650737
 40
0.9610939
 40
0.9801201518
 40
1.0
 40
1.0
 40
1.0
 40
1.0
 10
4.7438003226
 20
6.4651063722
 30
0.0
 10
4.7426563147
 20
6.4651063722
 30
0.0
 10
4.7404170002
 20
6.4650513664
 30
0.0
 10
4.7371310349
 20
6.4648102445
 30
0.0
 10
4.7339799146
 20
6.4644340475
 30
0.0
 10
4.7299796507
 20
6.4637891663
 30
0.0
 10
4.7251895089
 20
6.4627584643
 30
0.0
 10
4.7196858577
 20
6.4611984903
 30
0.0
 10
4.7144404015
 20
6.4593940094
 30
0.0
 10
4.7094204006
 20
6.4573669875
 30
0.0
 10
4.7046013745
 20
6.4551404025
 30
0.0
 10
4.698449544
 20
6.4519562433
 30
0.0
 10
4.69111837
 20
6.4475891395
 30
0.0
 10
4.6828376482
 20
6.4417627405
 30
0.0
 10
4.6750668984
 20
6.435434979
 30
0.0
 10
4.6677847628
 20
6.428621932
 30
0.0
 10
4.6609717158
 20
6.4213397964
 30
0.0
 10
4.6546439543
 20
6.4135690466
 30
0.0
 10
4.6488175553
 20
6.4052883248
 30
0.0
 10
4.6444504515
 20
6.3979571508
 30
0.0
 10
4.6412662923
 20
6.3918053203
 30
0.0
 10
4.6390397073
 20
6.3869862942
 30
0.0
 10
4.6370126854
 20
6.3819662933
 30
0.0
 10
4.6352082045
 20
6.3767208371
 30
0.0
 10
4.6336482305
 20
6.3712171859
 30
0.0
 10
4.6326175285
 20
6.3664270441
 30
0.0
 10
4.6319726473
 20
6.3624267802
 30
0.0
 10
4.6315964503
 20
6.3592756599
 30
0.0
 10
4.6313553284
 20
6.3559896946
 30
0.0
 10
4.6313003226
 20
6.3537503801
 30
0.0
 10
4.6313003226
 20
6.3526063722
 30
0.0
  0
SPLINE
  5
545
100
AcDbEntity
  8
ALL_FEATURES
100
AcDbSpline
 62
7
  6
CONTINUOUS
 70
0
 71
3
 72
25
 73
21
 74
0
 42
0.0000001
 43
0.0000001
 44
0.0000000001
 40
0.0
 40
0.0
 40
0.0
 40
0.0
 40
0.0389120089
 40
0.1481991367
 40
0.2238432499
 40
0.2657404955
 40
0.3098480104
 40
0.3557669529
 40
0.4030644469
 40
0.4512969485
 40
0.4999994102
 40
0.5487020364
 40
0.596934802
 40
0.6442324729
 40
0.6901514933
 40
0.7342590259
 40
0.7761562088
 40
0.8518001232
 40
0.9610879005
 40
1.0
 40
1.0
 40
1.0
 40
1.0
 10
4.721235362
 20
4.1027788722
 30
0.0
 10
4.7173609256
 20
4.1018277442
 30
0.0
 10
4.7025735152
 20
4.0983280267
 30
0.0
 10
4.6800695372
 20
4.093767733
 30
0.0
 10
4.6570931533
 20
4.0901346622
 30
0.0
 10
4.6406545138
 20
4.088012549
 30
0.0
 10
4.6272051332
 20
4.0865622149
 30
0.0
 10
4.6131746019
 20
4.0853690359
 30
0.0
 10
4.5986978384
 20
4.0844761022
 30
0.0
 10
4.5839182404
 20
4.0839276816
 30
0.0
 10
4.5689855266
 20
4.0837396354
 30
0.0
 10
4.554052786
 20
4.0839276857
 30
0.0
 10
4.5392731251
 20
4.084476086
 30
0.0
 10
4.5247963085
 20
4.0853690247
 30
0.0
 10
4.5107657486
 20
4.0865621971
 30
0.0
 10
4.4973163648
 20
4.0880125325
 30
0.0
 10
4.4808777491
 20
4.0901346342
 30
0.0
 10
4.4579013249
 20
4.0937677061
 30
0.0
 10
4.4353972917
 20
4.098328007
 30
0.0
 10
4.4206098074
 20
4.1018277419
 30
0.0
 10
4.416735362
 20
4.1027788722
 30
0.0
  0
LINE
  5
546
100
AcDbEntity
  8
0
100
AcDbLine
 62
7
  6
CONTINUOUS
 10
5.5225051646
 20
3.0450595085
 11
5.5226115274
 21
3.0436699003
  0
LINE
  5
547
100
AcDbEntity
  8
0
100
AcDbLine
 62
7
  6
CONTINUOUS
 10
5.5226901732
 20
3.6931145382
 11
5.5227568065
 21
3.6925204768
  0
LINE
  5
548
100
AcDbEntity
  8
0
100
AcDbLine
 62
7
  6
CONTINUOUS
 10
5.5227568065
 20
3.6925204768
 11
5.522778522
 21
3.6920168793
  0
LINE
  5
549
100
AcDbEntity
  8
0
100
AcDbLine
 62
7
  6
CONTINUOUS
 10
5.5252458104
 20
3.8023788775
 11
5.5251736014
 21
3.8020747941
  0
LINE
  5
54A
100
AcDbEntity
  8
0
100
AcDbLine
 62
7
  6
CONTINUOUS
 10
5.5251736014
 20
3.8020747941
 11
5.5251316079
 21
3.8016542514
  0
LINE
  5
54B
100
AcDbEntity
  8
0
100
AcDbLine
 62
7
  6
CONTINUOUS
 10
5.5233559208
 20
3.78365478
 11
5.5232981542
 21
3.7830674371
  0
LINE
  5
54C
100
AcDbEntity
  8
0
100
AcDbLine
 62
7
  6
CONTINUOUS
 10
5.525225559
 20
3.8179981239
 11
5.5254992316
 21
3.8145286834
  0
LINE
  5
54D
100
AcDbEntity
  8
0
100
AcDbLine
 62
7
  6
CONTINUOUS
 10
5.5235282751
 20
3.800952294
 11
5.5237004856
 21
3.7996424342
  0
LINE
  5
54E
100
AcDbEntity
  8
0
100
AcDbLine
 62
7
  6
CONTINUOUS
 10
5.5230542194
 20
4.2532720681
 11
5.5229263021
 21
4.2478889956
  0
LINE
  5
54F
100
AcDbEntity
  8
0
100
AcDbLine
 62
7
  6
CONTINUOUS
 10
5.5229263021
 20
4.2478889956
 11
5.5227021593
 21
4.2388304344
  0
LINE
  5
550
100
AcDbEntity
  8
0
100
AcDbLine
 62
7
  6
CONTINUOUS
 10
5.5227021593
 20
4.2388304344
 11
5.5226861808
 21
4.2382119271
  0
LINE
  5
551
100
AcDbEntity
  8
0
100
AcDbLine
 62
7
  6
CONTINUOUS
 10
5.5226861808
 20
4.2382119271
 11
5.5224520826
 21
4.2304293792
  0
SPLINE
  5
552
100
AcDbEntity
  8
0
100
AcDbSpline
 62
7
  6
CONTINUOUS
 70
0
 71
3
 72
11
 73
7
 74
0
 42
0.0000001
 43
0.0000001
 44
0.0000000001
 40
0.0
 40
0.0
 40
0.0
 40
0.0
 40
0.4392012657
 40
0.7499758187
 40
0.9353281903
 40
1.0
 40
1.0
 40
1.0
 40
1.0
 10
5.5224520826
 20
4.2304293792
 30
0.0
 10
5.5224511885
 20
4.2304160588
 30
0.0
 10
5.5224492904
 20
4.2303940504
 30
0.0
 10
5.5224475539
 20
4.2303635294
 30
0.0
 10
5.5224440463
 20
4.2303503766
 30
0.0
 10
5.5224438743
 20
4.230338958
 30
0.0
 10
5.5224419089
 20
4.2303390009
 30
0.0
  0
LINE
  5
553
100
AcDbEntity
  8
0
100
AcDbLine
 62
7
  6
CONTINUOUS
 10
5.5242729121
 20
4.3077195382
 11
5.5234235726
 21
4.2692505041
  0
LINE
  5
554
100
AcDbEntity
  8
0
100
AcDbLine
 62
7
  6
CONTINUOUS
 10
5.5234235726
 20
4.2692505041
 11
5.5231184491
 21
4.2560118482
  0
LINE
  5
555
100
AcDbEntity
  8
0
100
AcDbLine
 62
7
  6
CONTINUOUS
 10
5.5231184491
 20
4.2560118482
 11
5.5230542194
 21
4.2532720681
  0
LINE
  5
556
100
AcDbEntity
  8
0
100
AcDbLine
 62
7
  6
CONTINUOUS
 10
5.5253808269
 20
4.3611720423
 11
5.5252308755
 21
4.3536261779
  0
LINE
  5
557
100
AcDbEntity
  8
0
100
AcDbLine
 62
7
  6
CONTINUOUS
 10
5.5252308755
 20
4.3536261779
 11
5.5250670978
 21
4.345527346
  0
LINE
  5
558
100
AcDbEntity
  8
0
100
AcDbLine
 62
7
  6
CONTINUOUS
 10
5.5250670978
 20
4.345527346
 11
5.5242729121
 21
4.3077195382
  0
LINE
  5
559
100
AcDbEntity
  8
0
100
AcDbLine
 62
7
  6
CONTINUOUS
 10
5.5257499428
 20
4.3826517758
 11
5.525655248
 21
4.375653261
  0
LINE
  5
55A
100
AcDbEntity
  8
0
100
AcDbLine
 62
7
  6
CONTINUOUS
 10
5.525655248
 20
4.375653261
 11
5.525600842
 21
4.3726477358
  0
LINE
  5
55B
100
AcDbEntity
  8
0
100
AcDbLine
 62
7
  6
CONTINUOUS
 10
5.525600842
 20
4.3726477358
 11
5.5255367996
 21
4.3692272858
  0
LINE
  5
55C
100
AcDbEntity
  8
0
100
AcDbLine
 62
7
  6
CONTINUOUS
 10
5.5255367996
 20
4.3692272858
 11
5.5254633435
 21
4.3653972607
  0
LINE
  5
55D
100
AcDbEntity
  8
0
100
AcDbLine
 62
7
  6
CONTINUOUS
 10
5.5254633435
 20
4.3653972607
 11
5.5253808269
 21
4.3611720423
  0
LINE
  5
55E
100
AcDbEntity
  8
0
100
AcDbLine
 62
7
  6
CONTINUOUS
 10
5.5248304941
 20
4.1373187589
 11
5.5231895261
 21
4.079759903
  0
LINE
  5
55F
100
AcDbEntity
  8
0
100
AcDbLine
 62
7
  6
CONTINUOUS
 10
5.5231895261
 20
4.079759903
 11
5.5227814116
 21
4.065444701
  0
LINE
  5
560
100
AcDbEntity
  8
0
100
AcDbLine
 62
7
  6
CONTINUOUS
 10
5.5227814116
 20
4.065444701
 11
5.5227199833
 21
4.0632900109
  0
LINE
  5
561
100
AcDbEntity
  8
0
100
AcDbLine
 62
7
  6
CONTINUOUS
 10
5.5227199833
 20
4.0632900109
 11
5.5223741483
 21
4.0511593039
  0
LINE
  5
562
100
AcDbEntity
  8
0
100
AcDbLine
 62
7
  6
CONTINUOUS
 10
5.5248304941
 20
4.1493710266
 11
5.5248298762
 21
4.1393274807
  0
LINE
  5
563
100
AcDbEntity
  8
0
100
AcDbLine
 62
7
  6
CONTINUOUS
 10
5.5248298762
 20
4.1393274807
 11
5.5248304941
 21
4.1373187589
  0
LINE
  5
564
100
AcDbEntity
  8
0
100
AcDbLine
 62
7
  6
CONTINUOUS
 10
5.5240794843
 20
3.7819846972
 11
5.5240987287
 21
3.7804316714
  0
LINE
  5
565
100
AcDbEntity
  8
0
100
AcDbLine
 62
7
  6
CONTINUOUS
 10
5.5231702205
 20
3.7140783566
 11
5.5230057753
 21
3.7127967148
  0
LINE
  5
566
100
AcDbEntity
  8
0
100
AcDbLine
 62
7
  6
CONTINUOUS
 10
5.5230057753
 20
3.7127967148
 11
5.5229510746
 21
3.7127040167
  0
LINE
  5
567
100
AcDbEntity
  8
0
100
AcDbLine
 62
7
  6
CONTINUOUS
 10
5.5234963593
 20
3.7207930854
 11
5.5232523243
 21
3.7152402055
  0
LINE
  5
568
100
AcDbEntity
  8
0
100
AcDbLine
 62
7
  6
CONTINUOUS
 10
5.5232523243
 20
3.7152402055
 11
5.5231702205
 21
3.7140783566
  0
LINE
  5
569
100
AcDbEntity
  8
0
100
AcDbLine
 62
7
  6
CONTINUOUS
 10
5.5242186918
 20
3.7581114009
 11
5.5241738494
 21
3.7549293521
  0
LINE
  5
56A
100
AcDbEntity
  8
0
100
AcDbLine
 62
7
  6
CONTINUOUS
 10
5.5239452546
 20
3.740110788
 11
5.5238984913
 21
3.7374275661
  0
LINE
  5
56B
100
AcDbEntity
  8
0
100
AcDbLine
 62
7
  6
CONTINUOUS
 10
5.5249741235
 20
3.7391451802
 11
5.5248020775
 21
3.7380927476
  0
LINE
  5
56C
100
AcDbEntity
  8
0
100
AcDbLine
 62
7
  6
CONTINUOUS
 10
5.5253372898
 20
3.7481699831
 11
5.5250711374
 21
3.7405758841
  0
LINE
  5
56D
100
AcDbEntity
  8
0
100
AcDbLine
 62
7
  6
CONTINUOUS
 10
5.5250711374
 20
3.7405758841
 11
5.5249741235
 21
3.7391451802
  0
LINE
  5
56E
100
AcDbEntity
  8
0
100
AcDbLine
 62
7
  6
CONTINUOUS
 10
5.5257134082
 20
3.7863781729
 11
5.5257047752
 21
3.7826784934
  0
LINE
  5
56F
100
AcDbEntity
  8
0
100
AcDbLine
 62
7
  6
CONTINUOUS
 10
5.5257047752
 20
3.7826784934
 11
5.5256924136
 21
3.7790433794
  0
LINE
  5
570
100
AcDbEntity
  8
0
100
AcDbLine
 62
7
  6
CONTINUOUS
 10
5.5256555529
 20
3.7719574285
 11
5.5256305148
 21
3.7685103489
  0
LINE
  5
571
100
AcDbEntity
  8
0
100
AcDbLine
 62
7
  6
CONTINUOUS
 10
5.5255462491
 20
3.8129726423
 11
5.5256903651
 21
3.8023777483
  0
LINE
  5
572
100
AcDbEntity
  8
0
100
AcDbLine
 62
7
  6
CONTINUOUS
 10
5.5257165574
 20
3.7949108177
 11
5.5257183751
 21
3.7928570805
  0
LINE
  5
573
100
AcDbEntity
  8
0
100
AcDbLine
 62
7
  6
CONTINUOUS
 10
5.5257183751
 20
3.7928570805
 11
5.5257167231
 21
3.788589221
  0
LINE
  5
574
100
AcDbEntity
  8
0
100
AcDbLine
 62
7
  6
CONTINUOUS
 10
5.5257167231
 20
3.788589221
 11
5.5257134082
 21
3.7863781729
  0
LINE
  5
575
100
AcDbEntity
  8
0
100
AcDbLine
 62
7
  6
CONTINUOUS
 10
5.5228908541
 20
3.6320955194
 11
5.5230708428
 21
3.6305320635
  0
SPLINE
  5
576
100
AcDbEntity
  8
0
100
AcDbSpline
 62
7
  6
CONTINUOUS
 70
0
 71
3
 72
9
 73
5
 74
0
 42
0.0000001
 43
0.0000001
 44
0.0000000001
 40
0.0
 40
0.0
 40
0.0
 40
0.0
 40
0.6510360885
 40
1.0
 40
1.0
 40
1.0
 40
1.0
 10
5.5230708428
 20
3.6305320635
 30
0.0
 10
5.5230767001
 20
3.6305161886
 30
0.0
 10
5.5230851708
 20
3.6304926424
 30
0.0
 10
5.5231070496
 20
3.6304716067
 30
0.0
 10
5.5231161194
 20
3.6304716017
 30
0.0
  0
LINE
  5
577
100
AcDbEntity
  8
0
100
AcDbLine
 62
7
  6
CONTINUOUS
 10
5.5225603578
 20
3.6501223523
 11
5.5227596787
 21
3.6348787354
  0
LINE
  5
578
100
AcDbEntity
  8
0
100
AcDbLine
 62
7
  6
CONTINUOUS
 10
5.5227732255
 20
3.6746408441
 11
5.5226567966
 21
3.6652344666
  0
LINE
  5
579
100
AcDbEntity
  8
0
100
AcDbLine
 62
7
  6
CONTINUOUS
 10
5.5226567966
 20
3.6652344666
 11
5.5226359837
 21
3.6636228596
  0
LINE
  5
57A
100
AcDbEntity
  8
0
100
AcDbLine
 62
7
  6
CONTINUOUS
 10
5.5227906608
 20
3.6764529093
 11
5.5227712708
 21
3.6746408552
  0
LINE
  5
57B
100
AcDbEntity
  8
0
100
AcDbLine
 62
7
  6
CONTINUOUS
 10
5.5227778614
 20
3.6920168648
 11
5.5228275935
 21
3.6891833212
  0
LINE
  5
57C
100
AcDbEntity
  8
0
100
AcDbLine
 62
7
  6
CONTINUOUS
 10
5.5236270195
 20
3.6178640984
 11
5.5234069748
 21
3.6160853857
  0
LINE
  5
57D
100
AcDbEntity
  8
0
100
AcDbLine
 62
7
  6
CONTINUOUS
 10
5.5234069748
 20
3.6160853857
 11
5.5233057841
 21
3.6158759563
  0
LINE
  5
57E
100
AcDbEntity
  8
0
100
AcDbLine
 62
7
  6
CONTINUOUS
 10
5.523913885
 20
3.6227908861
 11
5.5237252382
 21
3.6191992241
  0
LINE
  5
57F
100
AcDbEntity
  8
0
100
AcDbLine
 62
7
  6
CONTINUOUS
 10
5.5237252382
 20
3.6191992241
 11
5.5236270195
 21
3.6178640984
  0
LINE
  5
580
100
AcDbEntity
  8
0
100
AcDbLine
 62
7
  6
CONTINUOUS
 10
5.5256015058
 20
3.6961563171
 11
5.5256153615
 21
3.6772757039
  0
LINE
  5
581
100
AcDbEntity
  8
0
100
AcDbLine
 62
7
  6
CONTINUOUS
 10
5.5256153615
 20
3.6772757039
 11
5.5256384672
 21
3.6584039274
  0
LINE
  5
582
100
AcDbEntity
  8
0
100
AcDbLine
 62
7
  6
CONTINUOUS
 10
5.5256384672
 20
3.6584039274
 11
5.5256534751
 21
3.648971353
  0
LINE
  5
583
100
AcDbEntity
  8
0
100
AcDbLine
 62
7
  6
CONTINUOUS
 10
5.5256534751
 20
3.648971353
 11
5.5256626368
 21
3.6438228276
  0
LINE
  5
584
100
AcDbEntity
  8
0
100
AcDbLine
 62
7
  6
CONTINUOUS
 10
5.5256626368
 20
3.6438228276
 11
5.5256707773
 21
3.639540988
  0
LINE
  5
585
100
AcDbEntity
  8
0
100
AcDbLine
 62
7
  6
CONTINUOUS
 10
5.5243714686
 20
3.7077157218
 11
5.5253909169
 21
3.6981237773
  0
LINE
  5
586
100
AcDbEntity
  8
0
100
AcDbLine
 62
7
  6
CONTINUOUS
 10
5.5253909169
 20
3.6981237773
 11
5.5256015058
 21
3.6961563171
  0
LINE
  5
587
100
AcDbEntity
  8
0
100
AcDbLine
 62
7
  6
CONTINUOUS
 10
5.5248304941
 20
3.3419666141
 11
5.5248298762
 21
3.3388890877
  0
LINE
  5
588
100
AcDbEntity
  8
0
100
AcDbLine
 62
7
  6
CONTINUOUS
 10
5.5248298762
 20
3.3388890877
 11
5.5248298762
 21
3.3265789908
  0
LINE
  5
589
100
AcDbEntity
  8
0
100
AcDbLine
 62
7
  6
CONTINUOUS
 10
5.5248298762
 20
3.3265789908
 11
5.5248304941
 21
3.3235014687
  0
LINE
  5
58A
100
AcDbEntity
  8
0
100
AcDbLine
 62
7
  6
CONTINUOUS
 10
5.5223741483
 20
3.3614973769
 11
5.5227813069
 21
3.3582599726
  0
LINE
  5
58B
100
AcDbEntity
  8
0
100
AcDbLine
 62
7
  6
CONTINUOUS
 10
5.5227813069
 20
3.3582599726
 11
5.524418871
 21
3.3452394641
  0
LINE
  5
58C
100
AcDbEntity
  8
0
100
AcDbLine
 62
7
  6
CONTINUOUS
 10
5.524418871
 20
3.3452394641
 11
5.5246603101
 21
3.3433197599
  0
LINE
  5
58D
100
AcDbEntity
  8
0
100
AcDbLine
 62
7
  6
CONTINUOUS
 10
5.5246603101
 20
3.3433197599
 11
5.5247735286
 21
3.3424195504
  0
LINE
  5
58E
100
AcDbEntity
  8
0
100
AcDbLine
 62
7
  6
CONTINUOUS
 10
5.5247735286
 20
3.3424195504
 11
5.5248304941
 21
3.3419666141
  0
LINE
  5
58F
100
AcDbEntity
  8
0
100
AcDbLine
 62
7
  6
CONTINUOUS
 10
5.5224552682
 20
3.1139759188
 11
5.5228850716
 21
3.0966890232
  0
LINE
  5
590
100
AcDbEntity
  8
0
100
AcDbLine
 62
7
  6
CONTINUOUS
 10
5.5228850716
 20
3.0966890232
 11
5.5233252044
 21
3.0790730248
  0
LINE
  5
591
100
AcDbEntity
  8
0
100
AcDbLine
 62
7
  6
CONTINUOUS
 10
5.5233252044
 20
3.0790730248
 11
5.5237756234
 21
3.0611279231
  0
LINE
  5
592
100
AcDbEntity
  8
0
100
AcDbLine
 62
7
  6
CONTINUOUS
 10
5.5237756234
 20
3.0611279231
 11
5.5242362765
 21
3.0428537173
  0
LINE
  5
593
100
AcDbEntity
  8
0
100
AcDbLine
 62
7
  6
CONTINUOUS
 10
5.5242362765
 20
3.0428537173
 11
5.5247071271
 21
3.0242504072
  0
LINE
  5
594
100
AcDbEntity
  8
0
100
AcDbLine
 62
7
  6
CONTINUOUS
 10
5.5257068247
 20
3.0455736175
 11
5.525677169
 21
3.0341992984
  0
LINE
  5
595
100
AcDbEntity
  8
0
100
AcDbLine
 62
7
  6
CONTINUOUS
 10
5.525677169
 20
3.0341992984
 11
5.5256521358
 21
3.0228211801
  0
LINE
  5
596
100
AcDbEntity
  8
0
100
AcDbLine
 62
7
  6
CONTINUOUS
 10
5.5256521358
 20
3.0228211801
 11
5.5256227204
 21
3.0053234368
  0
LINE
  5
597
100
AcDbEntity
  8
0
100
AcDbLine
 62
7
  6
CONTINUOUS
 10
5.5256227204
 20
3.0053234368
 11
5.5256160248
 21
3.0000535469
  0
LINE
  5
598
100
AcDbEntity
  8
0
100
AcDbLine
 62
7
  6
CONTINUOUS
 10
5.5256160248
 20
3.0000535469
 11
5.5256049823
 21
2.9886640323
  0
LINE
  5
599
100
AcDbEntity
  8
0
100
AcDbLine
 62
7
  6
CONTINUOUS
 10
5.5256049823
 20
2.9886640323
 11
5.5255986325
 21
2.9772707193
  0
LINE
  5
59A
100
AcDbEntity
  8
0
100
AcDbLine
 62
7
  6
CONTINUOUS
 10
5.5249787617
 20
3.0767351166
 11
5.5250979982
 21
3.0716094929
  0
LINE
  5
59B
100
AcDbEntity
  8
0
100
AcDbLine
 62
7
  6
CONTINUOUS
 10
5.5250979982
 20
3.0716094929
 11
5.5252180784
 21
3.0664566855
  0
LINE
  5
59C
100
AcDbEntity
  8
0
100
AcDbLine
 62
7
  6
CONTINUOUS
 10
5.5252180784
 20
3.0664566855
 11
5.5253390019
 21
3.0612766942
  0
LINE
  5
59D
100
AcDbEntity
  8
0
100
AcDbLine
 62
7
  6
CONTINUOUS
 10
5.5253390019
 20
3.0612766942
 11
5.5254607678
 21
3.0560695191
  0
LINE
  5
59E
100
AcDbEntity
  8
0
100
AcDbLine
 62
7
  6
CONTINUOUS
 10
5.5254607678
 20
3.0560695191
 11
5.5255833757
 21
3.0508351602
  0
LINE
  5
59F
100
AcDbEntity
  8
0
100
AcDbLine
 62
7
  6
CONTINUOUS
 10
5.5255833757
 20
3.0508351602
 11
5.5257068247
 21
3.0455736175
  0
SPLINE
  5
5A0
100
AcDbEntity
  8
0
100
AcDbSpline
 62
7
  6
CONTINUOUS
 70
0
 71
3
 72
9
 73
5
 74
0
 42
0.0000001
 43
0.0000001
 44
0.0000000001
 40
0.0
 40
0.0
 40
0.0
 40
0.0
 40
0.6716640808
 40
1.0
 40
1.0
 40
1.0
 40
1.0
 10
5.5238500568
 20
2.9592641692
 30
0.0
 10
5.5238551143
 20
2.9592487403
 30
0.0
 10
5.5238616549
 20
2.9592272809
 30
0.0
 10
5.5238806965
 20
2.9592049616
 30
0.0
 10
5.5238886269
 20
2.9592052888
 30
0.0
  0
LINE
  5
5A1
100
AcDbEntity
  8
0
100
AcDbLine
 62
7
  6
CONTINUOUS
 10
5.5226390706
 20
3.0007892582
 11
5.522668945
 21
2.9982583204
  0
LINE
  5
5A2
100
AcDbEntity
  8
0
100
AcDbLine
 62
7
  6
CONTINUOUS
 10
5.5227854913
 20
2.9905841416
 11
5.5228326753
 21
2.9879805517
  0
LINE
  5
5A3
100
AcDbEntity
  8
0
100
AcDbLine
 62
7
  6
CONTINUOUS
 10
5.5226495729
 20
3.0183526218
 11
5.5225915403
 21
3.0150537051
  0
LINE
  5
5A4
100
AcDbEntity
  8
0
100
AcDbLine
 62
7
  6
CONTINUOUS
 10
5.5227328674
 20
3.0209959613
 11
5.5227053469
 21
3.0201395525
  0
LINE
  5
5A5
100
AcDbEntity
  8
0
100
AcDbLine
 62
7
  6
CONTINUOUS
 10
5.5227053469
 20
3.0201395525
 11
5.5226451955
 21
3.0183525671
  0
LINE
  5
5A6
100
AcDbEntity
  8
0
100
AcDbLine
 62
7
  6
CONTINUOUS
 10
5.5228439317
 20
3.029082625
 11
5.5227972829
 21
3.023544122
  0
LINE
  5
5A7
100
AcDbEntity
  8
0
100
AcDbLine
 62
7
  6
CONTINUOUS
 10
5.5226294724
 20
3.043224216
 11
5.5227546197
 21
3.0384841282
  0
LINE
  5
5A8
100
AcDbEntity
  8
0
100
AcDbLine
 62
7
  6
CONTINUOUS
 10
5.5244322728
 20
2.936703719
 11
5.5243620761
 21
2.9363235724
  0
SPLINE
  5
5A9
100
AcDbEntity
  8
0
100
AcDbSpline
 62
7
  6
CONTINUOUS
 70
0
 71
3
 72
9
 73
5
 74
0
 42
0.0000001
 43
0.0000001
 44
0.0000000001
 40
0.0
 40
0.0
 40
0.0
 40
0.0
 40
0.6522647535
 40
1.0
 40
1.0
 40
1.0
 40
1.0
 10
5.5243620761
 20
2.9363235724
 30
0.0
 10
5.5243566353
 20
2.9363080936
 30
0.0
 10
5.5243488258
 20
2.9362854241
 30
0.0
 10
5.5243285124
 20
2.9362639544
 30
0.0
 10
5.5243197669
 20
2.9362637895
 30
0.0
  0
LINE
  5
5AA
100
AcDbEntity
  8
0
100
AcDbLine
 62
7
  6
CONTINUOUS
 10
5.525612409
 20
2.9383538831
 11
5.5256220443
 21
2.9303458006
  0
LINE
  5
5AB
100
AcDbEntity
  8
0
100
AcDbLine
 62
7
  6
CONTINUOUS
 10
5.5256220443
 20
2.9303458006
 11
5.5256339903
 21
2.9223402138
  0
LINE
  5
5AC
100
AcDbEntity
  8
0
100
AcDbLine
 62
7
  6
CONTINUOUS
 10
5.5256339903
 20
2.9223402138
 11
5.5256647892
 21
2.9063365268
  0
LINE
  5
5AD
100
AcDbEntity
  8
0
100
AcDbLine
 62
7
  6
CONTINUOUS
 10
5.5256647892
 20
2.9063365268
 11
5.525683627
 21
2.8983384265
  0
LINE
  5
5AE
100
AcDbEntity
  8
0
100
AcDbLine
 62
7
  6
CONTINUOUS
 10
5.525683627
 20
2.8983384265
 11
5.5257047455
 21
2.8903428214
  0
LINE
  5
5AF
100
AcDbEntity
  8
0
100
AcDbLine
 62
7
  6
CONTINUOUS
 10
5.5243716923
 20
2.9926819627
 11
5.5245730329
 21
2.9838155019
  0
LINE
  5
5B0
100
AcDbEntity
  8
0
100
AcDbLine
 62
7
  6
CONTINUOUS
 10
5.5245730329
 20
2.9838155019
 11
5.5247765564
 21
2.9748737535
  0
LINE
  5
5B1
100
AcDbEntity
  8
0
100
AcDbLine
 62
7
  6
CONTINUOUS
 10
5.5247765564
 20
2.9748737535
 11
5.5249968824
 21
2.9652164769
  0
LINE
  5
5B2
100
AcDbEntity
  8
0
100
AcDbLine
 62
7
  6
CONTINUOUS
 10
5.5249968824
 20
2.9652164769
 11
5.5254001891
 21
2.9475967823
  0
LINE
  5
5B3
100
AcDbEntity
  8
0
100
AcDbLine
 62
7
  6
CONTINUOUS
 10
5.5254001891
 20
2.9475967823
 11
5.525612409
 21
2.9383538831
  0
LINE
  5
5B4
100
AcDbEntity
  8
0
100
AcDbLine
 62
7
  6
CONTINUOUS
 10
5.5259077641
 20
2.5739582823
 11
5.526050272
 21
2.5674089427
  0
LINE
  5
5B5
100
AcDbEntity
  8
0
100
AcDbLine
 62
7
  6
CONTINUOUS
 10
5.5257459473
 20
2.5800035109
 11
5.5259077641
 21
2.5739582823
  0
LINE
  5
5B6
100
AcDbEntity
  8
0
100
AcDbLine
 62
7
  6
CONTINUOUS
 10
5.524909758
 20
2.6180633326
 11
5.5252589001
 21
2.6020440488
  0
LINE
  5
5B7
100
AcDbEntity
  8
0
100
AcDbLine
 62
7
  6
CONTINUOUS
 10
5.5236228034
 20
2.6855520761
 11
5.523835805
 21
2.6756737729
  0
LINE
  5
5B8
100
AcDbEntity
  8
0
100
AcDbLine
 62
7
  6
CONTINUOUS
 10
5.523835805
 20
2.6756737729
 11
5.5240498527
 21
2.6657499989
  0
LINE
  5
5B9
100
AcDbEntity
  8
0
100
AcDbLine
 62
7
  6
CONTINUOUS
 10
5.5240498527
 20
2.6657499989
 11
5.5242649453
 21
2.6557807542
  0
LINE
  5
5BA
100
AcDbEntity
  8
0
100
AcDbLine
 62
7
  6
CONTINUOUS
 10
5.5242649453
 20
2.6557807542
 11
5.5246982591
 21
2.6357058523
  0
LINE
  5
5BB
100
AcDbEntity
  8
0
100
AcDbLine
 62
7
  6
CONTINUOUS
 10
5.5246982591
 20
2.6357058523
 11
5.5249164778
 21
2.6256001951
  0
LINE
  5
5BC
100
AcDbEntity
  8
0
100
AcDbLine
 62
7
  6
CONTINUOUS
 10
5.522469277
 20
2.7416007482
 11
5.5226099382
 21
2.7350987183
  0
LINE
  5
5BD
100
AcDbEntity
  8
0
100
AcDbLine
 62
7
  6
CONTINUOUS
 10
5.5226099382
 20
2.7350987183
 11
5.5230345289
 21
2.7154790486
  0
LINE
  5
5BE
100
AcDbEntity
  8
0
100
AcDbLine
 62
7
  6
CONTINUOUS
 10
5.5230345289
 20
2.7154790486
 11
5.5231769269
 21
2.7089012986
  0
LINE
  5
5BF
100
AcDbEntity
  8
0
100
AcDbLine
 62
7
  6
CONTINUOUS
 10
5.5231769269
 20
2.7089012986
 11
5.523319758
 21
2.7023046185
  0
LINE
  5
5C0
100
AcDbEntity
  8
0
100
AcDbLine
 62
7
  6
CONTINUOUS
 10
5.5251316079
 20
3.8016542514
 11
5.5250646097
 21
3.8006140874
  0
LINE
  5
5C1
100
AcDbEntity
  8
0
100
AcDbLine
 62
7
  6
CONTINUOUS
 10
5.524665712
 20
3.7863737456
 11
5.5246386101
 21
3.7849772005
  0
LINE
  5
5C2
100
AcDbEntity
  8
0
100
AcDbLine
 62
7
  6
CONTINUOUS
 10
5.5246386101
 20
3.7849772005
 11
5.5246013595
 21
3.7829776705
  0
LINE
  5
5C3
100
AcDbEntity
  8
0
100
AcDbLine
 62
7
  6
CONTINUOUS
 10
5.5246013595
 20
3.7829776705
 11
5.5245563138
 21
3.7804378933
  0
LINE
  5
5C4
100
AcDbEntity
  8
0
100
AcDbLine
 62
7
  6
CONTINUOUS
 10
5.5245563138
 20
3.7804378933
 11
5.5245389164
 21
3.7794222119
  0
LINE
  5
5C5
100
AcDbEntity
  8
0
100
AcDbLine
 62
7
  6
CONTINUOUS
 10
5.5245389164
 20
3.7794222119
 11
5.5244194556
 21
3.7719359131
  0
LINE
  5
5C6
100
AcDbEntity
  8
0
100
AcDbLine
 62
7
  6
CONTINUOUS
 10
5.5244194556
 20
3.7719359131
 11
5.5243615062
 21
3.7679837318
  0
LINE
  5
5C7
100
AcDbEntity
  8
0
100
AcDbLine
 62
7
  6
CONTINUOUS
 10
5.5246876083
 20
3.7559677881
 11
5.5247906284
 21
3.7552015393
  0
SPLINE
  5
5C8
100
AcDbEntity
  8
0
100
AcDbSpline
 62
7
  6
CONTINUOUS
 70
0
 71
3
 72
9
 73
5
 74
0
 42
0.0000001
 43
0.0000001
 44
0.0000000001
 40
0.0
 40
0.0
 40
0.0
 40
0.0
 40
0.6537462377
 40
1.0
 40
1.0
 40
1.0
 40
1.0
 10
5.5247906284
 20
3.7552015393
 30
0.0
 10
5.5247953056
 20
3.7551881644
 30
0.0
 10
5.5248020587
 20
3.7551686419
 30
0.0
 10
5.524819297
 20
3.755150024
 30
0.0
 10
5.5248267965
 20
3.7551497454
 30
0.0
  0
LINE
  5
5C9
100
AcDbEntity
  8
0
100
AcDbLine
 62
7
  6
CONTINUOUS
 10
5.5243615062
 20
3.7679837318
 11
5.5245863121
 21
3.7581068288
  0
LINE
  5
5CA
100
AcDbEntity
  8
0
100
AcDbLine
 62
7
  6
CONTINUOUS
 10
5.5227005888
 20
3.7300898537
 11
5.5228525254
 21
3.7281264013
  0
SPLINE
  5
5CB
100
AcDbEntity
  8
0
100
AcDbSpline
 62
7
  6
CONTINUOUS
 70
0
 71
3
 72
9
 73
5
 74
0
 42
0.0000001
 43
0.0000001
 44
0.0000000001
 40
0.0
 40
0.0
 40
0.0
 40
0.0
 40
0.3461907752
 40
1.0
 40
1.0
 40
1.0
 40
1.0
 10
5.5228525254
 20
3.7281264013
 30
0.0
 10
5.5228539629
 20
3.7281235722
 30
0.0
 10
5.5228582363
 20
3.7281158687
 30
0.0
 10
5.5228658033
 20
3.7281076325
 30
0.0
 10
5.5228717953
 20
3.728107515
 30
0.0
  0
LINE
  5
5CC
100
AcDbEntity
  8
0
100
AcDbLine
 62
7
  6
CONTINUOUS
 10
5.5225646433
 20
3.7457008777
 11
5.522561993
 21
3.7437297136
  0
LINE
  5
5CD
100
AcDbEntity
  8
0
100
AcDbLine
 62
7
  6
CONTINUOUS
 10
5.5225857539
 20
3.7511186329
 11
5.5225727886
 21
3.7484258661
  0
LINE
  5
5CE
100
AcDbEntity
  8
0
100
AcDbLine
 62
7
  6
CONTINUOUS
 10
5.5225727886
 20
3.7484258661
 11
5.5225693582
 21
3.7474669658
  0
LINE
  5
5CF
100
AcDbEntity
  8
0
100
AcDbLine
 62
7
  6
CONTINUOUS
 10
5.5225693582
 20
3.7474669658
 11
5.5225646433
 21
3.7457008777
  0
LINE
  5
5D0
100
AcDbEntity
  8
0
100
AcDbLine
 62
7
  6
CONTINUOUS
 10
5.5232981542
 20
3.7830674371
 11
5.5231253518
 21
3.7801133332
  0
LINE
  5
5D1
100
AcDbEntity
  8
0
100
AcDbLine
 62
7
  6
CONTINUOUS
 10
5.5228843028
 20
3.7724212249
 11
5.5228662947
 21
3.77164266
  0
LINE
  5
5D2
100
AcDbEntity
  8
0
100
AcDbLine
 62
7
  6
CONTINUOUS
 10
5.5232391724
 20
2.69473175
 11
5.5235302782
 21
2.6813695232
  0
LINE
  5
5D3
100
AcDbEntity
  8
0
100
AcDbLine
 62
7
  6
CONTINUOUS
 10
5.5233629499
 20
3.6320138736
 11
5.5236090579
 21
3.6364258203
  0
LINE
  5
5D4
100
AcDbEntity
  8
0
100
AcDbLine
 62
7
  6
CONTINUOUS
 10
5.5231161194
 20
3.6304716017
 11
5.5233629499
 21
3.6320138736
  0
LINE
  5
5D5
100
AcDbEntity
  8
0
100
AcDbLine
 62
7
  6
CONTINUOUS
 10
5.5226316592
 20
3.6927514123
 11
5.5226901732
 21
3.6931145382
  0
LINE
  5
5D6
100
AcDbEntity
  8
0
100
AcDbLine
 62
7
  6
CONTINUOUS
 10
5.5224036641
 20
3.682646848
 11
5.5225962041
 21
3.6922124565
  0
LINE
  5
5D7
100
AcDbEntity
  8
0
100
AcDbLine
 62
7
  6
CONTINUOUS
 10
5.5223290831
 20
3.6686322496
 11
5.5223332728
 21
3.6703637713
  0
LINE
  5
5D8
100
AcDbEntity
  8
0
100
AcDbLine
 62
7
  6
CONTINUOUS
 10
5.522388036
 20
3.6808867187
 11
5.5224037129
 21
3.6826468479
  0
LINE
  5
5D9
100
AcDbEntity
  8
0
100
AcDbLine
 62
7
  6
CONTINUOUS
 10
5.522331532
 20
3.6565868777
 11
5.5223248279
 21
3.6616736706
  0
LINE
  5
5DA
100
AcDbEntity
  8
0
100
AcDbLine
 62
7
  6
CONTINUOUS
 10
5.5228717953
 20
3.728107515
 11
5.5229873452
 21
3.7286667911
  0
LINE
  5
5DB
100
AcDbEntity
  8
0
100
AcDbLine
 62
7
  6
CONTINUOUS
 10
5.5229873452
 20
3.7286667911
 11
5.52303501
 21
3.729167333
  0
SPLINE
  5
5DC
100
AcDbEntity
  8
0
100
AcDbSpline
 62
7
  6
CONTINUOUS
 70
0
 71
3
 72
17
 73
13
 74
0
 42
0.0000001
 43
0.0000001
 44
0.0000000001
 40
0.0
 40
0.0
 40
0.0
 40
0.0
 40
0.0069590106
 40
0.0203920322
 40
0.041374483
 40
0.070096459
 40
0.1508221169
 40
0.2623955718
 40
0.4044243293
 40
0.5760384769
 40
0.7752764515
 40
1.0
 40
1.0
 40
1.0
 40
1.0
 10
5.5233057841
 20
3.6158759563
 30
0.0
 10
5.5232918035
 20
3.6158762385
 30
0.0
 10
5.5232598176
 20
3.6159124611
 30
0.0
 10
5.5232333835
 20
3.6159878152
 30
0.0
 10
5.523200053
 20
3.616112126
 30
0.0
 10
5.5231533359
 20
3.6163691889
 30
0.0
 10
5.5230979173
 20
3.616810737
 30
0.0
 10
5.5230371703
 20
3.6174794943
 30
0.0
 10
5.5229772374
 20
3.6183319922
 30
0.0
 10
5.5229189849
 20
3.6193608975
 30
0.0
 10
5.5228623983
 20
3.6205563344
 30
0.0
 10
5.5228279348
 20
3.621407545
 30
0.0
 10
5.5228107863
 20
3.6218587778
 30
0.0
  0
LINE
  5
5DD
100
AcDbEntity
  8
0
100
AcDbLine
 62
7
  6
CONTINUOUS
 10
5.5247992273
 20
3.693590139
 11
5.5251163781
 21
3.6902771405
  0
LINE
  5
5DE
100
AcDbEntity
  8
0
100
AcDbLine
 62
7
  6
CONTINUOUS
 10
5.5251163781
 20
3.6902771405
 11
5.5251804609
 21
3.6896092717
  0
LINE
  5
5DF
100
AcDbEntity
  8
0
100
AcDbLine
 62
7
  6
CONTINUOUS
 10
5.5251804609
 20
3.6896092717
 11
5.5251853594
 21
3.6819745677
  0
LINE
  5
5E0
100
AcDbEntity
  8
0
100
AcDbLine
 62
7
  6
CONTINUOUS
 10
5.5251853594
 20
3.6819745677
 11
5.5252204134
 21
3.6514497446
  0
LINE
  5
5E1
100
AcDbEntity
  8
0
100
AcDbLine
 62
7
  6
CONTINUOUS
 10
5.5252204134
 20
3.6514497446
 11
5.5252330271
 21
3.6438220373
  0
LINE
  5
5E2
100
AcDbEntity
  8
0
100
AcDbLine
 62
7
  6
CONTINUOUS
 10
5.5252330271
 20
3.6438220373
 11
5.5256707773
 21
3.639540988
  0
LINE
  5
5E3
100
AcDbEntity
  8
0
100
AcDbLine
 62
7
  6
CONTINUOUS
 10
5.5248267965
 20
3.7551497454
 11
5.5249571549
 21
3.7557331608
  0
LINE
  5
5E4
100
AcDbEntity
  8
0
100
AcDbLine
 62
7
  6
CONTINUOUS
 10
5.5249571549
 20
3.7557331608
 11
5.5250157137
 21
3.7563336661
  0
LINE
  5
5E5
100
AcDbEntity
  8
0
100
AcDbLine
 62
7
  6
CONTINUOUS
 10
5.5248304941
 20
3.3235014687
 11
5.5225443287
 21
3.3416790898
  0
LINE
  5
5E6
100
AcDbEntity
  8
0
100
AcDbLine
 62
7
  6
CONTINUOUS
 10
5.5225443287
 20
3.3416790898
 11
5.5223741483
 21
3.3430322315
  0
LINE
  5
5E7
100
AcDbEntity
  8
0
100
AcDbLine
 62
7
  6
CONTINUOUS
 10
5.5223741483
 20
3.3614973769
 11
5.5223741483
 21
3.3430322315
  0
LINE
  5
5E8
100
AcDbEntity
  8
0
100
AcDbLine
 62
7
  6
CONTINUOUS
 10
5.5249787617
 20
3.0767351166
 11
5.5249308697
 21
3.0743912731
  0
LINE
  5
5E9
100
AcDbEntity
  8
0
100
AcDbLine
 62
7
  6
CONTINUOUS
 10
5.5252463954
 20
3.040825027
 11
5.5252218283
 21
3.0289939423
  0
LINE
  5
5EA
100
AcDbEntity
  8
0
100
AcDbLine
 62
7
  6
CONTINUOUS
 10
5.5252218283
 20
3.0289939423
 11
5.5251881325
 21
3.005317992
  0
LINE
  5
5EB
100
AcDbEntity
  8
0
100
AcDbLine
 62
7
  6
CONTINUOUS
 10
5.5224552682
 20
3.1139759188
 11
5.5224254937
 21
3.1015570858
  0
LINE
  5
5EC
100
AcDbEntity
  8
0
100
AcDbLine
 62
7
  6
CONTINUOUS
 10
5.5224254937
 20
3.1015570858
 11
5.5229222131
 21
3.0818791584
  0
LINE
  5
5ED
100
AcDbEntity
  8
0
100
AcDbLine
 62
7
  6
CONTINUOUS
 10
5.5229222131
 20
3.0818791584
 11
5.5234318745
 21
3.0617866452
  0
LINE
  5
5EE
100
AcDbEntity
  8
0
100
AcDbLine
 62
7
  6
CONTINUOUS
 10
5.5234318745
 20
3.0617866452
 11
5.5239544142
 21
3.0412795455
  0
LINE
  5
5EF
100
AcDbEntity
  8
0
100
AcDbLine
 62
7
  6
CONTINUOUS
 10
5.5239544142
 20
3.0412795455
 11
5.5244897565
 21
3.0203578584
  0
LINE
  5
5F0
100
AcDbEntity
  8
0
100
AcDbLine
 62
7
  6
CONTINUOUS
 10
5.5250378491
 20
2.9990215833
 11
5.5255986325
 21
2.9772707193
  0
LINE
  5
5F1
100
AcDbEntity
  8
0
100
AcDbLine
 62
7
  6
CONTINUOUS
 10
5.5243601617
 20
2.9896180137
 11
5.5243716923
 21
2.9926819627
  0
SPLINE
  5
5F2
100
AcDbEntity
  8
0
100
AcDbSpline
 62
7
  6
CONTINUOUS
 70
0
 71
3
 72
23
 73
19
 74
0
 42
0.0000001
 43
0.0000001
 44
0.0000000001
 40
0.0
 40
0.0
 40
0.0
 40
0.0
 40
0.0018626202
 40
0.0059932292
 40
0.0127322459
 40
0.0221222594
 40
0.0340897643
 40
0.0485420687
 40
0.0845108423
 40
0.1292355464
 40
0.1819111225
 40
0.2417366316
 40
0.3080153105
 40
0.3801238753
 40
0.4574399858
 40
0.625204171
 40
0.8069295046
 40
1.0
 40
1.0
 40
1.0
 40
1.0
 10
5.5248020775
 20
3.7380927476
 30
0.0
 10
5.5247915126
 20
3.7380918116
 30
0.0
 10
5.5247668227
 20
3.7381271664
 30
0.0
 10
5.5247503949
 20
3.7381919995
 30
0.0
 10
5.5247258407
 20
3.7383078999
 30
0.0
 10
5.524704868
 20
3.7384652757
 30
0.0
 10
5.5246823948
 20
3.7386684388
 30
0.0
 10
5.524651257
 20
3.7390221278
 30
0.0
 10
5.5246148479
 20
3.7395628718
 30
0.0
 10
5.5245750639
 20
3.7403212222
 30
0.0
 10
5.5245369369
 20
3.7412157284
 30
0.0
 10
5.5245006751
 20
3.7422331021
 30
0.0
 10
5.5244663492
 20
3.7433612637
 30
0.0
 10
5.5244339043
 20
3.744589111
 30
0.0
 10
5.5243919196
 20
3.7463947856
 30
0.0
 10
5.5243447787
 20
3.7488246845
 30
0.0
 10
5.5242952704
 20
3.7519137766
 30
0.0
 10
5.5242666817
 20
3.7540477775
 30
0.0
 10
5.5242530369
 20
3.7551470891
 30
0.0
  0
LINE
  5
5F3
100
AcDbEntity
  8
0
100
AcDbLine
 62
7
  6
CONTINUOUS
 10
5.5242432005
 20
3.75595514
 11
5.5242186918
 21
3.7581114009
  0
LINE
  5
5F4
100
AcDbEntity
  8
0
100
AcDbLine
 62
7
  6
CONTINUOUS
 10
5.5229510746
 20
3.7127040167
 11
5.5226693329
 21
3.7158629768
  0
LINE
  5
5F5
100
AcDbEntity
  8
0
100
AcDbLine
 62
7
  6
CONTINUOUS
 10
5.5224047733
 20
3.0428660553
 11
5.5225051646
 21
3.0450595085
  0
LINE
  5
5F6
100
AcDbEntity
  8
0
100
AcDbLine
 62
7
  6
CONTINUOUS
 10
5.5223357863
 20
3.0280427078
 11
5.5223345982
 21
3.0295087316
  0
LINE
  5
5F7
100
AcDbEntity
  8
0
100
AcDbLine
 62
7
  6
CONTINUOUS
 10
5.5223442851
 20
3.0362859869
 11
5.5223896338
 21
3.0419426288
  0
LINE
  5
5F8
100
AcDbEntity
  8
0
100
AcDbLine
 62
7
  6
CONTINUOUS
 10
5.5225960233
 20
2.9940897901
 11
5.5225302181
 21
2.9992730961
  0
LINE
  5
5F9
100
AcDbEntity
  8
0
100
AcDbLine
 62
7
  6
CONTINUOUS
 10
5.5225302181
 20
2.9992730961
 11
5.5224737973
 21
3.0043948216
  0
LINE
  5
5FA
100
AcDbEntity
  8
0
100
AcDbLine
 62
7
  6
CONTINUOUS
 10
5.5224737973
 20
3.0043948216
 11
5.5224268902
 21
3.0094360519
  0
LINE
  5
5FB
100
AcDbEntity
  8
0
100
AcDbLine
 62
7
  6
CONTINUOUS
 10
5.5223629781
 20
3.0190150549
 11
5.522345013
 21
3.0235836007
  0
LINE
  5
5FC
100
AcDbEntity
  8
0
100
AcDbLine
 62
7
  6
CONTINUOUS
 10
5.522345013
 20
3.0235836007
 11
5.5223357863
 21
3.0280427078
  0
LINE
  5
5FD
100
AcDbEntity
  8
0
100
AcDbLine
 62
7
  6
CONTINUOUS
 10
5.5230272608
 20
2.9690617918
 11
5.5229329797
 21
2.9736730926
  0
LINE
  5
5FE
100
AcDbEntity
  8
0
100
AcDbLine
 62
7
  6
CONTINUOUS
 10
5.5229329797
 20
2.9736730926
 11
5.5228429002
 21
2.9784631411
  0
LINE
  5
5FF
100
AcDbEntity
  8
0
100
AcDbLine
 62
7
  6
CONTINUOUS
 10
5.5228429002
 20
2.9784631411
 11
5.5227567735
 21
2.9834327836
  0
LINE
  5
600
100
AcDbEntity
  8
0
100
AcDbLine
 62
7
  6
CONTINUOUS
 10
5.5248076433
 20
2.9652121503
 11
5.525192251
 21
2.9481231547
  0
LINE
  5
601
100
AcDbEntity
  8
0
100
AcDbLine
 62
7
  6
CONTINUOUS
 10
5.525192251
 20
2.9481231547
 11
5.5252099803
 21
2.9351738046
  0
LINE
  5
602
100
AcDbEntity
  8
0
100
AcDbLine
 62
7
  6
CONTINUOUS
 10
5.5252099803
 20
2.9351738046
 11
5.5252211578
 21
2.9287015546
  0
LINE
  5
603
100
AcDbEntity
  8
0
100
AcDbLine
 62
7
  6
CONTINUOUS
 10
5.5252211578
 20
2.9287015546
 11
5.5252338724
 21
2.9222309212
  0
LINE
  5
604
100
AcDbEntity
  8
0
100
AcDbLine
 62
7
  6
CONTINUOUS
 10
5.5252338724
 20
2.9222309212
 11
5.5252638952
 21
2.9092945041
  0
LINE
  5
605
100
AcDbEntity
  8
0
100
AcDbLine
 62
7
  6
CONTINUOUS
 10
5.5252638952
 20
2.9092945041
 11
5.5257047455
 21
2.8903428214
  0
LINE
  5
606
100
AcDbEntity
  8
0
100
AcDbLine
 62
7
  6
CONTINUOUS
 10
5.5238886269
 20
2.9592052888
 11
5.5240319744
 21
2.9602032308
  0
LINE
  5
607
100
AcDbEntity
  8
0
100
AcDbLine
 62
7
  6
CONTINUOUS
 10
5.524513671
 20
2.6425582325
 11
5.5242912393
 21
2.6499062142
  0
LINE
  5
608
100
AcDbEntity
  8
0
100
AcDbLine
 62
7
  6
CONTINUOUS
 10
5.5248960674
 20
2.6255997493
 11
5.524513671
 21
2.6425582325
  0
SPLINE
  5
609
100
AcDbEntity
  8
0
100
AcDbSpline
 62
7
  6
CONTINUOUS
 70
0
 71
3
 72
18
 73
14
 74
0
 42
0.0000001
 43
0.0000001
 44
0.0000000001
 40
0.0
 40
0.0
 40
0.0
 40
0.0
 40
0.0054148512
 40
0.0174643086
 40
0.0370991622
 40
0.0646507225
 40
0.1002367161
 40
0.143815536
 40
0.2547068164
 40
0.3968022197
 40
0.5695120031
 40
0.7713685202
 40
1.0
 40
1.0
 40
1.0
 40
1.0
 10
5.5243197669
 20
2.9362637895
 30
0.0
 10
5.5243060617
 20
2.936263531
 30
0.0
 10
5.524276758
 20
2.9363103035
 30
0.0
 10
5.5242537715
 20
2.9363936314
 30
0.0
 10
5.524221359
 20
2.9365443043
 30
0.0
 10
5.524191218
 20
2.9367499496
 30
0.0
 10
5.5241584297
 20
2.9370188042
 30
0.0
 10
5.524110326
 20
2.937497223
 30
0.0
 10
5.5240505183
 20
2.938245863
 30
0.0
 10
5.5239802924
 20
2.9393211492
 30
0.0
 10
5.5239078665
 20
2.9406271238
 30
0.0
 10
5.5238336328
 20
2.9421523117
 30
0.0
 10
5.5237859701
 20
2.9432410582
 30
0.0
 10
5.5237616796
 20
2.9438193299
 30
0.0
  0
LINE
  5
60A
100
AcDbEntity
  8
0
100
AcDbLine
 62
7
  6
CONTINUOUS
 10
5.5240452728
 20
2.6612416285
 11
5.5239864727
 21
2.6667867217
  0
LINE
  5
60B
100
AcDbEntity
  8
0
100
AcDbLine
 62
7
  6
CONTINUOUS
 10
5.5228215399
 20
2.722901653
 11
5.5225768134
 21
2.7302623159
  0
SPLINE
  5
60C
100
AcDbEntity
  8
0
100
AcDbSpline
 62
7
  6
CONTINUOUS
 70
0
 71
3
 72
11
 73
7
 74
0
 42
0.0000001
 43
0.0000001
 44
0.0000000001
 40
0.0
 40
0.0
 40
0.0
 40
0.0
 40
0.4399052762
 40
0.7511467734
 40
0.9365270697
 40
1.0
 40
1.0
 40
1.0
 40
1.0
 10
5.5257412075
 20
4.3825572226
 30
0.0
 10
5.5257419866
 20
4.382571149
 30
0.0
 10
5.5257437881
 20
4.3825941079
 30
0.0
 10
5.5257448242
 20
4.3826261804
 30
0.0
 10
5.5257486171
 20
4.3826396591
 30
0.0
 10
5.5257479308
 20
4.3826518198
 30
0.0
 10
5.5257499428
 20
4.3826517758
 30
0.0
  0
LINE
  5
60D
100
AcDbEntity
  8
0
100
AcDbLine
 62
7
  6
CONTINUOUS
 10
5.5223741483
 20
4.0632115716
 11
5.5240081407
 21
4.120526114
  0
LINE
  5
60E
100
AcDbEntity
  8
0
100
AcDbLine
 62
7
  6
CONTINUOUS
 10
5.5240081407
 20
4.120526114
 11
5.5248304941
 21
4.1493710266
  0
LINE
  5
60F
100
AcDbEntity
  8
0
100
AcDbLine
 62
7
  6
CONTINUOUS
 10
5.5221720416
 20
2.7415942563
 11
5.5223150786
 21
2.7350449295
  0
LINE
  5
610
100
AcDbEntity
  8
0
100
AcDbLine
 62
7
  6
CONTINUOUS
 10
5.5230416671
 20
2.702298549
 11
5.5233182867
 21
2.6896245076
  0
LINE
  5
611
100
AcDbEntity
  8
0
100
AcDbLine
 62
7
  6
CONTINUOUS
 10
5.5248449525
 20
2.6196810216
 11
5.525229955
 21
2.6020434166
  0
LINE
  5
612
100
AcDbEntity
  8
0
100
AcDbLine
 62
7
  6
CONTINUOUS
 10
5.5258332674
 20
2.5739566552
 11
5.5258571017
 21
2.5728653516
  0
LINE
  5
613
100
AcDbEntity
  8
0
100
AcDbLine
 62
7
  6
CONTINUOUS
 10
5.5258571017
 20
2.5728653516
 11
5.5259524611
 21
2.5684991329
  0
LINE
  5
614
100
AcDbEntity
  8
0
100
AcDbLine
 62
7
  6
CONTINUOUS
 10
5.5259524611
 20
2.5684991329
 11
5.5259763064
 21
2.5674073272
  0
LINE
  5
615
100
AcDbEntity
  8
0
100
AcDbLine
 62
7
  6
CONTINUOUS
 10
5.5223741483
 20
4.0632115716
 11
5.5223741483
 21
4.0511593039
  0
LINE
  5
616
100
AcDbEntity
  8
0
100
AcDbLine
 62
7
  6
CONTINUOUS
 10
5.5233184956
 20
3.7995927129
 11
5.5234825857
 21
3.8008785313
  0
SPLINE
  5
617
100
AcDbEntity
  8
0
100
AcDbSpline
 62
7
  6
CONTINUOUS
 70
0
 71
3
 72
9
 73
5
 74
0
 42
0.0000001
 43
0.0000001
 44
0.0000000001
 40
0.0
 40
0.0
 40
0.0
 40
0.0
 40
0.6713109121
 40
1.0
 40
1.0
 40
1.0
 40
1.0
 10
5.5234825857
 20
3.8008785313
 30
0.0
 10
5.5234885926
 20
3.8008975506
 30
0.0
 10
5.5234965192
 20
3.8009236231
 30
0.0
 10
5.52351851
 20
3.8009524012
 30
0.0
 10
5.5235282751
 20
3.800952294
 30
0.0
  0
LINE
  5
618
100
AcDbEntity
  8
0
100
AcDbLine
 62
7
  6
CONTINUOUS
 10
5.5230210349
 20
3.7935669816
 11
5.5231657328
 21
3.7971482992
  0
LINE
  5
619
100
AcDbEntity
  8
0
100
AcDbLine
 62
7
  6
CONTINUOUS
 10
5.522401133
 20
3.7474722947
 11
5.5224119897
 21
3.7511715611
  0
LINE
  5
61A
100
AcDbEntity
  8
0
100
AcDbLine
 62
7
  6
CONTINUOUS
 10
5.5224782034
 20
3.7623131008
 11
5.5225127236
 21
3.7660726573
  0
LINE
  5
61B
100
AcDbEntity
  8
0
100
AcDbLine
 62
7
  6
CONTINUOUS
 10
5.5225127236
 20
3.7660726573
 11
5.5225530105
 21
3.7697586603
  0
LINE
  5
61C
100
AcDbEntity
  8
0
100
AcDbLine
 62
7
  6
CONTINUOUS
 10
5.5225530105
 20
3.7697586603
 11
5.5225987355
 21
3.7733458149
  0
LINE
  5
61D
100
AcDbEntity
  8
0
100
AcDbLine
 62
7
  6
CONTINUOUS
 10
5.5225987355
 20
3.7733458149
 11
5.5226501006
 21
3.7768663046
  0
LINE
  5
61E
100
AcDbEntity
  8
0
100
AcDbLine
 62
7
  6
CONTINUOUS
 10
5.5226501006
 20
3.7768663046
 11
5.5227071365
 21
3.7803219384
  0
LINE
  5
61F
100
AcDbEntity
  8
0
100
AcDbLine
 62
7
  6
CONTINUOUS
 10
5.5224076441
 20
3.7334087965
 11
5.5223993335
 21
3.7360891198
  0
LINE
  5
620
100
AcDbEntity
  8
0
100
AcDbLine
 62
7
  6
CONTINUOUS
 10
5.5223993335
 20
3.7360891198
 11
5.5223948151
 21
3.7388441682
  0
LINE
  5
621
100
AcDbEntity
  8
0
100
AcDbLine
 62
7
  6
CONTINUOUS
 10
5.5223948151
 20
3.7388441682
 11
5.5223937794
 21
3.7416530247
  0
LINE
  5
622
100
AcDbEntity
  8
0
100
AcDbLine
 62
7
  6
CONTINUOUS
 10
5.5223937794
 20
3.7416530247
 11
5.5223959536
 21
3.7445287985
  0
LINE
  5
623
100
AcDbEntity
  8
0
100
AcDbLine
 62
7
  6
CONTINUOUS
 10
5.5223959536
 20
3.7445287985
 11
5.5223976794
 21
3.7457003966
  0
LINE
  5
624
100
AcDbEntity
  8
0
100
AcDbLine
 62
7
  6
CONTINUOUS
 10
5.5223976794
 20
3.7457003966
 11
5.522401133
 21
3.7474722947
  0
LINE
  5
625
100
AcDbEntity
  8
0
100
AcDbLine
 62
7
  6
CONTINUOUS
 10
5.5254405737
 20
3.7990252088
 11
5.5252458104
 21
3.8023788775
  0
LINE
  5
626
100
AcDbEntity
  8
0
100
AcDbLine
 62
7
  6
CONTINUOUS
 10
5.5250157137
 20
3.7563336661
 11
5.5252685879
 21
3.7620052756
  0
LINE
  5
627
100
AcDbEntity
  8
0
100
AcDbLine
 62
7
  6
CONTINUOUS
 10
5.5238029944
 20
3.761714043
 11
5.5238775775
 21
3.7665216162
  0
LINE
  5
628
100
AcDbEntity
  8
0
100
AcDbLine
 62
7
  6
CONTINUOUS
 10
5.5238775775
 20
3.7665216162
 11
5.5238998834
 21
3.7679891086
  0
LINE
  5
629
100
AcDbEntity
  8
0
100
AcDbLine
 62
7
  6
CONTINUOUS
 10
5.5238998834
 20
3.7679891086
 11
5.5239518593
 21
3.7714598316
  0
LINE
  5
62A
100
AcDbEntity
  8
0
100
AcDbLine
 62
7
  6
CONTINUOUS
 10
5.52303501
 20
3.729167333
 11
5.5232051668
 21
3.732317131
  0
LINE
  5
62B
100
AcDbEntity
  8
0
100
AcDbLine
 62
7
  6
CONTINUOUS
 10
5.5250205019
 20
3.8166877783
 11
5.5251560731
 21
3.8178328772
  0
LINE
  5
62C
100
AcDbEntity
  8
0
100
AcDbLine
 62
7
  6
CONTINUOUS
 10
5.5251560731
 20
3.8178328772
 11
5.525225559
 21
3.8179981239
  0
LINE
  5
62D
100
AcDbEntity
  8
0
100
AcDbLine
 62
7
  6
CONTINUOUS
 10
5.5238907047
 20
3.7749749169
 11
5.5235193032
 21
3.784075965
  0
LINE
  5
62E
100
AcDbEntity
  8
0
100
AcDbLine
 62
7
  6
CONTINUOUS
 10
5.5240987287
 20
3.7804316714
 11
5.5241557288
 21
3.783887915
  0
LINE
  5
62F
100
AcDbEntity
  8
0
100
AcDbLine
 62
7
  6
CONTINUOUS
 10
5.5241557288
 20
3.783887915
 11
5.5243420197
 21
3.7945204887
  0
LINE
  5
630
100
AcDbEntity
  8
0
100
AcDbLine
 62
7
  6
CONTINUOUS
 10
5.5243420197
 20
3.7945204887
 11
5.5243671892
 21
3.7958653926
  0
LINE
  5
631
100
AcDbEntity
  8
0
100
AcDbLine
 62
7
  6
CONTINUOUS
 10
5.5230056905
 20
4.2535539041
 11
5.5230627502
 21
4.2560551142
  0
LINE
  5
632
100
AcDbEntity
  8
0
100
AcDbLine
 62
7
  6
CONTINUOUS
 10
5.5240093153
 20
3.6528219589
 11
5.5242529622
 21
3.6791771541
  0
LINE
  5
633
100
AcDbEntity
  8
0
100
AcDbLine
 62
7
  6
CONTINUOUS
 10
5.5243439407
 20
3.6994247622
 11
5.5243714686
 21
3.7077157218
  0
ENDSEC
  0
SECTION
  2
OBJECTS
  0
DICTIONARY
  5
C
100
AcDbDictionary
280
0
281
1
  3
ACAD_GROUP
350
D
  3
ACAD_MLINESTYLE
350
17
  3
ACAD_LAYOUT
350
1A
  3
ACAD_PLOTSETTINGS
350
19
  3
ACAD_PLOTSTYLENAME
350
E
  0
DICTIONARY
  5
D
102
{ACAD_REACTORS
330
C
102
}
100
AcDbDictionary
280
0
281
1
  0
ACDBDICTIONARYWDFLT
  5
E
102
{ACAD_REACTORS
330
C
102
}
100
AcDbDictionary
281
1
  3
Normal
350
F
100
AcDbDictionaryWithDefault
340
F
  0
DICTIONARY
  5
17
102
{ACAD_REACTORS
330
C
102
}
100
AcDbDictionary
280
0
281
1
  3
Standard
350
18
  0
DICTIONARY
  5
19
102
{ACAD_REACTORS
330
C
102
}
100
AcDbDictionary
281
1
  0
DICTIONARY
  5
1A
102
{ACAD_REACTORS
330
C
102
}
100
AcDbDictionary
281
1
  3
Model
350
634
  3
Layout1
350
635
  0
ACDBPLACEHOLDER
  5
F
102
{ACAD_REACTORS
330
E
102
}
  0
MLINESTYLE
  5
18
102
{ACAD_REACTORS
330
17
102
}
100
AcDbMlineStyle
  2
STANDARD
 70
0
  3

 62
256
 51
90.0
 52
90.0
 71
2
 49
0.5
 62
256
  6
BYLAYER
 49
-0.5
 62
256
  6
BYLAYER
  0
LAYOUT
  5
634
102
{ACAD_REACTORS
330
1A
102
}
100
AcDbPlotSettings
  1

  2
none_device
  4
ANSI_A_(11.00_x_8.50_Inches)
  6

 40
0.0
 41
0.0
 42
0.0
 43
0.0
 44
279.4
 45
215.9
 46
0.0
 47
0.0
 48
0.0
 49
0.0
140
0.0
141
0.0
142
1.0
143
1.0
 70
1024
 72
0
 73
0
 74
0
  7

 75
0
147
1.0
148
0.0
149
0.0
100
AcDbLayout
  1
Model
 70
0
 71
0
 10
0.0
 20
0.0
 11
11.0
 21
8.5
 12
0.0
 22
0.0
 32
0.0
 14
0.0
 24
0.0
 34
0.0
 15
0.0
 25
0.0
 35
0.0
146
0.0
 13
0.0
 23
0.0
 33
0.0
 16
1.0
 26
0.0
 36
0.0
 17
0.0
 27
1.0
 37
0.0
 76
0
330
21D
345
0
346
0
  0
LAYOUT
  5
635
102
{ACAD_REACTORS
330
1A
102
}
100
AcDbPlotSettings
  1

  2
none_device
  4
ANSI_A_(11.00_x_8.50_Inches)
  6

 40
0.0
 41
0.0
 42
0.0
 43
0.0
 44
279.4
 45
215.9
 46
0.0
 47
0.0
 48
0.0
 49
0.0
140
0.0
141
0.0
142
1.0
143
1.0
 70
0
 72
0
 73
0
 74
0
  7

 75
0
147
1.0
148
0.0
149
0.0
100
AcDbLayout
  1
Layout1
 70
0
 71
1
 10
0.0
 20
0.0
 11
11.0
 21
8.5
 12
0.0
 22
0.0
 32
0.0
 14
0.0
 24
0.0
 34
0.0
 15
0.0
 25
0.0
 35
0.0
146
0.0
 13
0.0
 23
0.0
 33
0.0
 16
1.0
 26
0.0
 36
0.0
 17
0.0
 27
1.0
 37
0.0
 76
0
330
21E
345
0
346
0
  0
ENDSEC
  0
EOF
