999
DXF file: 3-2533ts_TOP.dxf
999
Pro/ENGINEER 2013150 by Parametric Technology Corporation
  0
SECTION
  2
HEADER
  9
$ACADVER
  1
AC1021
  9
$DWGCODEPAGE
  3
ANSI_1252
  9
$EXTMAX
 10
11.0
 20
8.5
 30
0.0
  9
$EXTMIN
 10
0.0
 20
0.0
 30
0.0
  9
$LIMMIN
 10
0.0
 20
0.0
  9
$LIMMAX
 10
11.0
 20
8.5
  9
$VIEWCTR
 10
5.5
 20
4.25
  9
$VIEWSIZE
 40
8.5
  9
$CLAYER
  8
0
  9
$LTSCALE
 40
0.605
  9
$CELTYPE
  6
BYLAYER
  9
$DIMSCALE
 40
1.0
  9
$DIMASZ
 40
0.1
  9
$DIMEXO
 40
0.0625
  9
$DIMDLI
 40
0.418
  9
$DIMEXE
 40
0.125
  9
$DIMCEN
 40
0.099
  9
$DIMLFAC
 40
1.0
  9
$DIMBLK
  1
_FILLED
  9
$DIMTXT
 40
0.08
  9
$DIMTOL
 70
1
  9
$DIMLIM
 70
0
  9
$DIMTFAC
 40
1.0
  9
$DIMTP
 40
0.001
  9
$DIMTM
 40
0.001
  9
$DIMGAP
 40
0.09
  9
$DIMDSEP
 70
46
  9
$PDMODE
 70
3
  9
$PDSIZE
 40
0.06
  9
$HANDSEED
  5
3F0
  9
$TILEMODE
 70
1
  9
$MEASUREMENT
 70
0
  9
$INSUNITS
 70
1
  0
ENDSEC
  0
SECTION
  2
CLASSES
  0
CLASS
  1
ACDBDICTIONARYWDFLT
  2
AcDbDictionaryWithDefault
  3
AutoCAD 2000
 90
0
 91
1
280
0
281
0
  0
CLASS
  1
ACDBPLACEHOLDER
  2
AcDbPlaceHolder
  3
AutoCAD 2000
 90
0
 91
1
280
0
281
0
  0
CLASS
  1
LAYOUT
  2
AcDbLayout
  3
AutoCAD 2000
 90
0
 91
0
280
0
281
0
  0
ENDSEC
  0
SECTION
  2
TABLES
  0
TABLE
  2
VPORT
  5
8
100
AcDbSymbolTable
 70
2
  0
VPORT
  5
1F4
100
AcDbSymbolTableRecord
100
AcDbViewportTableRecord
  2
*ACTIVE
 70
0
 10
0.0
 20
0.0
 11
1.0
 21
1.0
 12
5.5
 22
4.25
 13
0.0
 23
0.0
 14
1.0
 24
1.0
 15
0.0
 25
0.0
 16
0.0
 26
0.0
 36
1.0
 17
0.0
 27
0.0
 37
0.0
 40
8.5
 41
1.2941176471
 42
50.0
 43
0.0
 44
0.0
 50
0.0
 51
0.0
 71
0
 72
100
 73
1
 74
1
 75
0
 76
0
 77
0
 78
0
  0
ENDTAB
  0
TABLE
  2
LTYPE
  5
5
100
AcDbSymbolTable
 70
6
  0
LTYPE
  5
14
100
AcDbSymbolTableRecord
100
AcDbLinetypeTableRecord
  2
BYBLOCK
 70
0
  3

 72
65
 73
0
 40
0.0
  0
LTYPE
  5
15
100
AcDbSymbolTableRecord
100
AcDbLinetypeTableRecord
  2
BYLAYER
 70
0
  3

 72
65
 73
0
 40
0.0
  0
LTYPE
  5
16
100
AcDbSymbolTableRecord
100
AcDbLinetypeTableRecord
  2
CONTINUOUS
 70
64
  3
Solid line
 72
65
 73
0
 40
0.0
  0
LTYPE
  5
1F5
100
AcDbSymbolTableRecord
100
AcDbLinetypeTableRecord
  2
CENTER
 70
64
  3
____ _ ____ _ ____ _ ____ _ ____ _ ____ _ ____
 72
65
 73
4
 40
0.6
 49
0.375
 74
0
 49
-0.075
 74
0
 49
0.075
 74
0
 49
-0.075
 74
0
  0
LTYPE
  5
1F6
100
AcDbSymbolTableRecord
100
AcDbLinetypeTableRecord
  2
HIDDEN
 70
64
  3
- - - - - - - - - - - - - - - - - - - -
 72
65
 73
2
 40
0.2
 49
0.1
 74
0
 49
-0.1
 74
0
  0
LTYPE
  5
1F7
100
AcDbSymbolTableRecord
100
AcDbLinetypeTableRecord
  2
PHANTOM
 70
64
  3
_____ _ _ _____ _ _ _____ _ _ _____
 72
65
 73
6
 40
0.8
 49
0.45
 74
0
 49
-0.05
 74
0
 49
0.1
 74
0
 49
-0.05
 74
0
 49
0.1
 74
0
 49
-0.05
 74
0
  0
LTYPE
  5
1F8
100
AcDbSymbolTableRecord
100
AcDbLinetypeTableRecord
  2
DOT
 70
64
  3
. . . . . . . . . . . . . . . . . . . .
 72
65
 73
2
 40
0.2
 49
0.1
 74
0
 49
-0.1
 74
0
  0
LTYPE
  5
1F9
100
AcDbSymbolTableRecord
100
AcDbLinetypeTableRecord
  2
DASHED
 70
64
  3
- - - - - - - - - - - - - - - - - - - -
 72
65
 73
2
 40
0.2
 49
0.1
 74
0
 49
-0.1
 74
0
  0
ENDTAB
  0
TABLE
  2
LAYER
  5
2
100
AcDbSymbolTable
 70
36
  0
LAYER
  5
10
100
AcDbSymbolTableRecord
100
AcDbLayerTableRecord
  2
0
 70
0
 62
7
  6
CONTINUOUS
370
-3
390
F
  0
LAYER
  5
1FA
100
AcDbSymbolTableRecord
100
AcDbLayerTableRecord
  2
DEFAULT_1
 70
0
 62
7
  6
CENTER
370
-3
390
F
  0
LAYER
  5
1FB
100
AcDbSymbolTableRecord
100
AcDbLayerTableRecord
  2
DEFAULT_2
 70
0
 62
8
  6
HIDDEN
370
-3
390
F
  0
LAYER
  5
1FC
100
AcDbSymbolTableRecord
100
AcDbLayerTableRecord
  2
DEFAULT_3
 70
0
 62
7
  6
PHANTOM
370
-3
390
F
  0
LAYER
  5
1FD
100
AcDbSymbolTableRecord
100
AcDbLayerTableRecord
  2
ALL_FEATURES
 70
0
 62
7
  6
CONTINUOUS
370
-3
390
F
  0
LAYER
  5
1FE
100
AcDbSymbolTableRecord
100
AcDbLayerTableRecord
  2
AXES_FEATURES
 70
0
 62
7
  6
CONTINUOUS
370
-3
390
F
  0
LAYER
  5
1FF
100
AcDbSymbolTableRecord
100
AcDbLayerTableRecord
  2
CHAMFER_FEATURES
 70
0
 62
7
  6
CONTINUOUS
370
-3
390
F
  0
LAYER
  5
200
100
AcDbSymbolTableRecord
100
AcDbLayerTableRecord
  2
COSMETIC_SKETCHES
 70
0
 62
7
  6
CONTINUOUS
370
-3
390
F
  0
LAYER
  5
201
100
AcDbSymbolTableRecord
100
AcDbLayerTableRecord
  2
CUT_FEATURES
 70
0
 62
7
  6
CONTINUOUS
370
-3
390
F
  0
LAYER
  5
202
100
AcDbSymbolTableRecord
100
AcDbLayerTableRecord
  2
DATUM_CURVES
 70
0
 62
7
  6
CONTINUOUS
370
-3
390
F
  0
LAYER
  5
203
100
AcDbSymbolTableRecord
100
AcDbLayerTableRecord
  2
DATUM_PLANES
 70
0
 62
7
  6
CONTINUOUS
370
-3
390
F
  0
LAYER
  5
204
100
AcDbSymbolTableRecord
100
AcDbLayerTableRecord
  2
DATUM_POINTS
 70
0
 62
7
  6
CONTINUOUS
370
-3
390
F
  0
LAYER
  5
205
100
AcDbSymbolTableRecord
100
AcDbLayerTableRecord
  2
DEFAULT_COORDINATE_SYSTEM
 70
0
 62
7
  6
CONTINUOUS
370
-3
390
F
  0
LAYER
  5
206
100
AcDbSymbolTableRecord
100
AcDbLayerTableRecord
  2
DEFAULT_DATUM_AXES
 70
0
 62
7
  6
CONTINUOUS
370
-3
390
F
  0
LAYER
  5
207
100
AcDbSymbolTableRecord
100
AcDbLayerTableRecord
  2
DEFAULT_DATUM_CURVES
 70
0
 62
7
  6
CONTINUOUS
370
-3
390
F
  0
LAYER
  5
208
100
AcDbSymbolTableRecord
100
AcDbLayerTableRecord
  2
DEFAULT_DATUM_PLANES
 70
0
 62
7
  6
CONTINUOUS
370
-3
390
F
  0
LAYER
  5
209
100
AcDbSymbolTableRecord
100
AcDbLayerTableRecord
  2
DEFAULT_SURFACES
 70
0
 62
7
  6
CONTINUOUS
370
-3
390
F
  0
LAYER
  5
20A
100
AcDbSymbolTableRecord
100
AcDbLayerTableRecord
  2
DIMENSIONS
 70
0
 62
7
  6
CONTINUOUS
370
-3
390
F
  0
LAYER
  5
20B
100
AcDbSymbolTableRecord
100
AcDbLayerTableRecord
  2
HOLE_FEATURES
 70
0
 62
7
  6
CONTINUOUS
370
-3
390
F
  0
LAYER
  5
20C
100
AcDbSymbolTableRecord
100
AcDbLayerTableRecord
  2
HOLE_PATTERN
 70
0
 62
7
  6
CONTINUOUS
370
-3
390
F
  0
LAYER
  5
20D
100
AcDbSymbolTableRecord
100
AcDbLayerTableRecord
  2
INTFCLR_1
 70
0
 62
7
  6
CONTINUOUS
370
-3
390
F
  0
LAYER
  5
20E
100
AcDbSymbolTableRecord
100
AcDbLayerTableRecord
  2
NOTES
 70
0
 62
7
  6
CONTINUOUS
370
-3
390
F
  0
LAYER
  5
20F
100
AcDbSymbolTableRecord
100
AcDbLayerTableRecord
  2
PART_REFERENCE_DIMENSIONS
 70
0
 62
7
  6
CONTINUOUS
370
-3
390
F
  0
LAYER
  5
210
100
AcDbSymbolTableRecord
100
AcDbLayerTableRecord
  2
PLATED_SURFACE_AREA
 70
0
 62
7
  6
CONTINUOUS
370
-3
390
F
  0
LAYER
  5
211
100
AcDbSymbolTableRecord
100
AcDbLayerTableRecord
  2
POINTS
 70
0
 62
7
  6
CONTINUOUS
370
-3
390
F
  0
LAYER
  5
212
100
AcDbSymbolTableRecord
100
AcDbLayerTableRecord
  2
PROTRUSION
 70
0
 62
7
  6
CONTINUOUS
370
-3
390
F
  0
LAYER
  5
213
100
AcDbSymbolTableRecord
100
AcDbLayerTableRecord
  2
PROTRUSION_FEATURES
 70
0
 62
7
  6
CONTINUOUS
370
-3
390
F
  0
LAYER
  5
214
100
AcDbSymbolTableRecord
100
AcDbLayerTableRecord
  2
QUILTS
 70
0
 62
7
  6
CONTINUOUS
370
-3
390
F
  0
LAYER
  5
215
100
AcDbSymbolTableRecord
100
AcDbLayerTableRecord
  2
REFERENCE_DIMENSIONS
 70
0
 62
7
  6
CONTINUOUS
370
-3
390
F
  0
LAYER
  5
216
100
AcDbSymbolTableRecord
100
AcDbLayerTableRecord
  2
ROUND_FEATURES
 70
0
 62
7
  6
CONTINUOUS
370
-3
390
F
  0
LAYER
  5
217
100
AcDbSymbolTableRecord
100
AcDbLayerTableRecord
  2
SATIN_DIRECTION
 70
0
 62
7
  6
CONTINUOUS
370
-3
390
F
  0
LAYER
  5
218
100
AcDbSymbolTableRecord
100
AcDbLayerTableRecord
  2
SHELL_FEATURES
 70
0
 62
7
  6
CONTINUOUS
370
-3
390
F
  0
LAYER
  5
219
100
AcDbSymbolTableRecord
100
AcDbLayerTableRecord
  2
SIZE_REF
 70
0
 62
7
  6
CONTINUOUS
370
-3
390
F
  0
LAYER
  5
21A
100
AcDbSymbolTableRecord
100
AcDbLayerTableRecord
  2
SURFACE_FEATURES
 70
0
 62
7
  6
CONTINUOUS
370
-3
390
F
  0
ENDTAB
  0
TABLE
  2
STYLE
  5
3
100
AcDbSymbolTable
 70
1
  0
STYLE
  5
11
100
AcDbSymbolTableRecord
100
AcDbTextStyleTableRecord
  2
STANDARD
 70
0
 40
0.0
 41
0.8
 50
0.0
 71
0
 42
0.2
  3
txt
  4

  0
STYLE
  5
21B
100
AcDbSymbolTableRecord
100
AcDbTextStyleTableRecord
  2
TEXTSTYLE_1
 70
0
 40
0.0
 41
0.8
 50
0.0
 71
0
 42
0.2
  3
gdt
  4

  0
ENDTAB
  0
TABLE
  2
VIEW
  5
6
100
AcDbSymbolTable
 70
0
  0
ENDTAB
  0
TABLE
  2
UCS
  5
7
100
AcDbSymbolTable
 70
0
  0
ENDTAB
  0
TABLE
  2
APPID
  5
9
100
AcDbSymbolTable
 70
1
  0
APPID
  5
21C
100
AcDbSymbolTableRecord
100
AcDbRegAppTableRecord
  2
ACAD
 70
0
  0
ENDTAB
  0
TABLE
  2
BLOCK_RECORD
  5
1
100
AcDbSymbolTable
 70
0
  0
BLOCK_RECORD
  5
21D
100
AcDbSymbolTableRecord
100
AcDbBlockTableRecord
  2
*Model_Space
  0
BLOCK_RECORD
  5
21E
100
AcDbSymbolTableRecord
100
AcDbBlockTableRecord
  2
*Paper_Space
  0
ENDTAB
  0
TABLE
  2
DIMSTYLE
  5
A
100
AcDbSymbolTable
 70
1
100
AcDbDimStyleTable
 71
0
  0
DIMSTYLE
105
21F
100
AcDbSymbolTableRecord
100
AcDbDimStyleTableRecord
  2
STANDARD
 70
0
  3

  4

 40
1.0
 41
0.1
 42
0.0625
 43
0.38
 44
0.125
 45
0.0
 46
0.0
 47
0.001
 48
0.001
140
0.08
141
0.09
142
0.0
143
25.4
144
1.0
145
0.0
146
1.0
147
0.09
 71
1.0
 72
0.0
 73
1
 74
1
 75
0
 76
0
 77
0
 78
4
170
0
171
2
172
0
173
0
174
0
175
0
176
0
177
0
178
0
270
2
271
3
272
3
273
2
274
2
275
0
280
0
281
0
282
0
283
1
284
4
285
0
286
0
287
3
288
0
340
11
278
46
  0
ENDTAB
  0
ENDSEC
  0
SECTION
  2
BLOCKS
  0
BLOCK
  5
20
100
AcDbEntity
  8
0
100
AcDbBlockBegin
  2
*Model_Space
 70
0
 10
0.0
 20
0.0
 30
0.0
  3
*Model_Space
  1

  0
ENDBLK
  5
21
100
AcDbEntity
  8
0
100
AcDbBlockEnd
  0
BLOCK
  5
1C
100
AcDbEntity
  8
0
100
AcDbBlockBegin
  2
*Paper_Space
 70
0
 10
0.0
 20
0.0
 30
0.0
  3
*Paper_Space
  1

  0
ENDBLK
  5
1D
100
AcDbEntity
  8
0
100
AcDbBlockEnd
  0
ENDSEC
  0
SECTION
  2
ENTITIES
  0
LINE
  5
220
100
AcDbEntity
  8
0
100
AcDbLine
 62
7
  6
CONTINUOUS
 10
0.0
 20
0.0
 11
0.0
 21
8.5
  0
LINE
  5
221
100
AcDbEntity
  8
0
100
AcDbLine
 62
7
  6
CONTINUOUS
 10
0.0
 20
0.0
 11
11.0
 21
0.0
  0
LINE
  5
222
100
AcDbEntity
  8
0
100
AcDbLine
 62
7
  6
CONTINUOUS
 10
0.0
 20
8.5
 11
11.0
 21
8.5
  0
LINE
  5
223
100
AcDbEntity
  8
0
100
AcDbLine
 62
7
  6
CONTINUOUS
 10
11.0
 20
0.0
 11
11.0
 21
8.5
  0
LINE
  5
224
100
AcDbEntity
  8
0
100
AcDbLine
 62
7
  6
CONTINUOUS
 10
2.671739299
 20
4.8328550683
 11
2.671739299
 21
5.0203550683
  0
LINE
  5
225
100
AcDbEntity
  8
ALL_FEATURES
100
AcDbLine
 62
7
  6
CONTINUOUS
 10
2.671739299
 20
4.8328550683
 11
2.671739299
 21
5.0203550683
  0
LINE
  5
226
100
AcDbEntity
  8
ALL_FEATURES
100
AcDbLine
 62
7
  6
CONTINUOUS
 10
2.765489299
 20
4.8328550683
 11
2.765489299
 21
4.7856050683
  0
LINE
  5
227
100
AcDbEntity
  8
ALL_FEATURES
100
AcDbLine
 62
9
  6
CONTINUOUS
 10
2.986739299
 20
4.8328550683
 11
2.986739299
 21
4.7856050683
  0
LINE
  5
228
100
AcDbEntity
  8
0
100
AcDbLine
 62
9
  6
CONTINUOUS
 10
2.986739299
 20
4.8328550683
 11
2.986739299
 21
5.0203550683
  0
LINE
  5
229
100
AcDbEntity
  8
ALL_FEATURES
100
AcDbLine
 62
9
  6
CONTINUOUS
 10
3.016739299
 20
4.8328550683
 11
3.016739299
 21
4.7856050683
  0
LINE
  5
22A
100
AcDbEntity
  8
0
100
AcDbLine
 62
9
  6
CONTINUOUS
 10
3.016739299
 20
4.8328550683
 11
3.016739299
 21
5.0203550683
  0
LINE
  5
22B
100
AcDbEntity
  8
0
100
AcDbLine
 62
7
  6
CONTINUOUS
 10
3.046739299
 20
4.8328550683
 11
3.046739299
 21
5.0203550683
  0
LINE
  5
22C
100
AcDbEntity
  8
ALL_FEATURES
100
AcDbLine
 62
7
  6
CONTINUOUS
 10
3.046739299
 20
4.8328550683
 11
3.046739299
 21
5.0203550683
  0
LINE
  5
22D
100
AcDbEntity
  8
ALL_FEATURES
100
AcDbLine
 62
7
  6
CONTINUOUS
 10
3.140489299
 20
4.8328550683
 11
3.140489299
 21
4.7856050683
  0
LWPOLYLINE
  5
22E
100
AcDbEntity
  8
ALL_FEATURES
100
AcDbPolyline
 62
7
  6
CONTINUOUS
 90
54
 70
0
 10
4.7501918394
 20
2.3352901103
 10
4.7509319081
 20
2.33529741
 10
4.7525475498
 20
2.3353641378
 10
4.7541433129
 20
2.3354987746
 10
4.755716849
 20
2.335699145
 10
4.7572655879
 20
2.3359629794
 10
4.7587871346
 20
2.3362879341
 10
4.7602796502
 20
2.3366717086
 10
4.7617410657
 20
2.3371118882
 10
4.7631694889
 20
2.3376060163
 10
4.7645635682
 20
2.3381517591
 10
4.76592171
 20
2.3387466428
 10
4.7672424814
 20
2.3393881772
 10
4.7685249681
 20
2.3400740672
 10
4.7697680573
 20
2.3408018791
 10
4.7709706837
 20
2.3415691281
 10
4.7721321802
 20
2.3423735158
 10
4.7732517752
 20
2.3432126229
 10
4.7743288467
 20
2.3440840649
 10
4.7753631105
 20
2.3449856793
 10
4.7763541484
 20
2.3459151484
 10
4.7773016734
 20
2.3468702045
 10
4.778205728
 20
2.3478488674
 10
4.7790662305
 20
2.3488489997
 10
4.7798831479
 20
2.3498684518
 10
4.7806567101
 20
2.3509053471
 10
4.7813875426
 20
2.3519583758
 10
4.7820753873
 20
2.3530249355
 10
4.7827194708
 20
2.3541012206
 10
4.7833213108
 20
2.3551870191
 10
4.7838805788
 20
2.3562788631
 10
4.7843947737
 20
2.3573678052
 10
4.7848655654
 20
2.3584522731
 10
4.7852943946
 20
2.359530223
 10
4.7856800516
 20
2.3605918467
 10
4.7860255538
 20
2.3616374312
 10
4.7863327344
 20
2.3626640869
 10
4.7866007144
 20
2.3636577368
 10
4.786834013
 20
2.3646219775
 10
4.7870351017
 20
2.3655533047
 10
4.7872030236
 20
2.3664282157
 10
4.7873415278
 20
2.3672412139
 10
4.7874565767
 20
2.3680023431
 10
4.7875518342
 20
2.3687121477
 10
4.7876298401
 20
2.3693645252
 10
4.7876949877
 20
2.3699725335
 10
4.7877521014
 20
2.3705646287
 10
4.7878026516
 20
2.3711445476
 10
4.7878478811
 20
2.3717159805
 10
4.7878905044
 20
2.3723069791
 10
4.7879312941
 20
2.372926669
 10
4.7879703832
 20
2.3735760419
 10
4.788008728
 20
2.3742713301
 10
4.7887056633
 20
2.3883074711
  0
LINE
  5
22F
100
AcDbEntity
  8
ALL_FEATURES
100
AcDbLine
 62
7
  6
CONTINUOUS
 10
4.7501922422
 20
2.3352901077
 11
4.7182863558
 21
2.3352901077
  0
LINE
  5
230
100
AcDbEntity
  8
ALL_FEATURES
100
AcDbLine
 62
9
  6
CONTINUOUS
 10
4.7502735455
 20
2.3449859119
 11
4.7182050525
 21
2.3449859119
  0
LINE
  5
231
100
AcDbEntity
  8
ALL_FEATURES
100
AcDbLine
 62
9
  6
CONTINUOUS
 10
3.361739299
 20
4.8328550683
 11
3.361739299
 21
4.7856050683
  0
LINE
  5
232
100
AcDbEntity
  8
0
100
AcDbLine
 62
9
  6
CONTINUOUS
 10
3.361739299
 20
4.8328550683
 11
3.361739299
 21
5.0203550683
  0
LWPOLYLINE
  5
233
100
AcDbEntity
  8
ALL_FEATURES
100
AcDbPolyline
 62
7
  6
CONTINUOUS
 90
41
 70
0
 10
4.8207591524
 20
2.4308078966
 10
4.8220565205
 20
2.4308858872
 10
4.8233410066
 20
2.431018899
 10
4.8246103376
 20
2.4312056121
 10
4.8258623482
 20
2.4314446233
 10
4.8270945953
 20
2.4317343544
 10
4.8283051325
 20
2.4320732064
 10
4.8294921348
 20
2.4324595216
 10
4.830653534
 20
2.4328914477
 10
4.8317877386
 20
2.4333671787
 10
4.832893282
 20
2.4338848733
 10
4.8339684912
 20
2.4344424832
 10
4.835012149
 20
2.4350380709
 10
4.8360231456
 20
2.4356696768
 10
4.8370001872
 20
2.4363351168
 10
4.8379424357
 20
2.437032393
 10
4.8388491297
 20
2.4377594842
 10
4.839719316
 20
2.4385141007
 10
4.8405525356
 20
2.4392942513
 10
4.8413483606
 20
2.4400978971
 10
4.8421061286
 20
2.4409226319
 10
4.8428256394
 20
2.4417663884
 10
4.843506916
 20
2.4426272783
 10
4.8441498641
 20
2.4435031781
 10
4.8447546858
 20
2.4443922566
 10
4.8453215976
 20
2.445292628
 10
4.845850757
 20
2.4462021826
 10
4.846341871
 20
2.4471177183
 10
4.8467963433
 20
2.4480389944
 10
4.8472167043
 20
2.4489688296
 10
4.8476050143
 20
2.4499104601
 10
4.8479595748
 20
2.4508582874
 10
4.8482781276
 20
2.4518026266
 10
4.8485643485
 20
2.4527501867
 10
4.8488172527
 20
2.4536930698
 10
4.8490319767
 20
2.4546011942
 10
4.8492120237
 20
2.455469762
 10
4.849363342
 20
2.4563071497
 10
4.8494885696
 20
2.4571062184
 10
4.8495919095
 20
2.45786876
 10
4.8496154916
 20
2.4580597873
  0
LINE
  5
234
100
AcDbEntity
  8
ALL_FEATURES
100
AcDbLine
 62
7
  6
CONTINUOUS
 10
4.8167288471
 20
2.4307306625
 11
4.8185410802
 21
2.4307855579
  0
LINE
  5
235
100
AcDbEntity
  8
ALL_FEATURES
100
AcDbLine
 62
7
  6
CONTINUOUS
 10
4.819606413
 20
2.4307857568
 11
4.8207591524
 21
2.4308078966
  0
LINE
  5
236
100
AcDbEntity
  8
0
100
AcDbLine
 62
7
  6
CONTINUOUS
 10
4.6488723987
 20
2.4307855574
 11
4.6499345989
 21
2.4307855574
  0
LINE
  5
237
100
AcDbEntity
  8
0
100
AcDbLine
 62
7
  6
CONTINUOUS
 10
4.8185439811
 20
2.4307855574
 11
4.8196061993
 21
2.4307855574
  0
LINE
  5
238
100
AcDbEntity
  8
ALL_FEATURES
100
AcDbLine
 62
7
  6
CONTINUOUS
 10
4.9918636624
 20
2.5122901077
 11
4.4766149469
 21
2.5122901077
  0
LWPOLYLINE
  5
239
100
AcDbEntity
  8
ALL_FEATURES
100
AcDbPolyline
 62
7
  6
CONTINUOUS
 90
19
 70
0
 10
4.5818155347
 20
2.512290117
 10
4.5925712537
 20
2.5122473398
 10
4.6037095235
 20
2.5120678718
 10
4.6135317576
 20
2.5117248204
 10
4.6220246942
 20
2.5112198358
 10
4.6293653183
 20
2.5105644465
 10
4.6358645744
 20
2.5097535102
 10
4.6415766015
 20
2.5088006555
 10
4.6465033967
 20
2.5077358097
 10
4.6507857607
 20
2.5065616451
 10
4.6544395003
 20
2.5053044501
 10
4.657452797
 20
2.5040112772
 10
4.6598702316
 20
2.502716491
 10
4.6616435303
 20
2.501528995
 10
4.6629183129
 20
2.5004577245
 10
4.6639798928
 20
2.4992995026
 10
4.664915934
 20
2.4978954893
 10
4.6656930046
 20
2.4962174589
 10
4.6662792039
 20
2.4944028136
  0
LINE
  5
23A
100
AcDbEntity
  8
ALL_FEATURES
100
AcDbLine
 62
7
  6
CONTINUOUS
 10
4.6499373257
 20
2.4307855758
 11
4.6511449484
 21
2.430761218
  0
LWPOLYLINE
  5
23B
100
AcDbEntity
  8
ALL_FEATURES
100
AcDbPolyline
 62
7
  6
CONTINUOUS
 90
30
 70
0
 10
4.6511449484
 20
2.430761218
 10
4.6526443552
 20
2.4306629638
 10
4.6541299835
 20
2.4304905911
 10
4.655595831
 20
2.4302460382
 10
4.6570385149
 20
2.4299312971
 10
4.6584548017
 20
2.4295485061
 10
4.6598392992
 20
2.4291007528
 10
4.6611891462
 20
2.4285908036
 10
4.6625019123
 20
2.428021435
 10
4.6637733718
 20
2.427396516
 10
4.665001788
 20
2.4267191091
 10
4.666185125
 20
2.4259925803
 10
4.6673193739
 20
2.4252219442
 10
4.6684036584
 20
2.4244106266
 10
4.6694368748
 20
2.423562345
 10
4.6704155455
 20
2.422683274
 10
4.6713395387
 20
2.4217772838
 10
4.6722090131
 20
2.420848073
 10
4.6730218953
 20
2.4199021715
 10
4.6737791235
 20
2.4189432869
 10
4.6744816352
 20
2.4179751951
 10
4.675128314
 20
2.4170050313
 10
4.6757205463
 20
2.4160370553
 10
4.6762605433
 20
2.4150742578
 10
4.6767490951
 20
2.4141223519
 10
4.6771901382
 20
2.4131809547
 10
4.677583837
 20
2.412257438
 10
4.677926842
 20
2.4113705569
 10
4.6782238472
 20
2.410521494
 10
4.6783814374
 20
2.4100214864
  0
LWPOLYLINE
  5
23C
100
AcDbEntity
  8
ALL_FEATURES
100
AcDbPolyline
 62
7
  6
CONTINUOUS
 90
41
 70
0
 10
4.8207591524
 20
2.7060578966
 10
4.8220565205
 20
2.7061358872
 10
4.8233410066
 20
2.706268899
 10
4.8246103376
 20
2.7064556121
 10
4.8258623482
 20
2.7066946233
 10
4.8270945953
 20
2.7069843544
 10
4.8283051325
 20
2.7073232064
 10
4.8294921348
 20
2.7077095216
 10
4.830653534
 20
2.7081414477
 10
4.8317877386
 20
2.7086171787
 10
4.832893282
 20
2.7091348733
 10
4.8339684912
 20
2.7096924832
 10
4.835012149
 20
2.7102880709
 10
4.8360231456
 20
2.7109196768
 10
4.8370001872
 20
2.7115851168
 10
4.8379424357
 20
2.712282393
 10
4.8388491297
 20
2.7130094842
 10
4.839719316
 20
2.7137641007
 10
4.8405525356
 20
2.7145442513
 10
4.8413483606
 20
2.7153478971
 10
4.8421061286
 20
2.7161726319
 10
4.8428256394
 20
2.7170163884
 10
4.843506916
 20
2.7178772783
 10
4.8441498641
 20
2.7187531781
 10
4.8447546858
 20
2.7196422566
 10
4.8453215976
 20
2.720542628
 10
4.845850757
 20
2.7214521826
 10
4.846341871
 20
2.7223677183
 10
4.8467963433
 20
2.7232889944
 10
4.8472167043
 20
2.7242188296
 10
4.8476050143
 20
2.7251604601
 10
4.8479595748
 20
2.7261082874
 10
4.8482781276
 20
2.7270526266
 10
4.8485643485
 20
2.7280001867
 10
4.8488172527
 20
2.7289430698
 10
4.8490319767
 20
2.7298511942
 10
4.8492120237
 20
2.730719762
 10
4.849363342
 20
2.7315571497
 10
4.8494885696
 20
2.7323562184
 10
4.8495919095
 20
2.73311876
 10
4.8496154916
 20
2.7333097873
  0
LINE
  5
23D
100
AcDbEntity
  8
ALL_FEATURES
100
AcDbLine
 62
7
  6
CONTINUOUS
 10
4.8167288471
 20
2.7059806625
 11
4.8185410802
 21
2.7060355579
  0
LINE
  5
23E
100
AcDbEntity
  8
ALL_FEATURES
100
AcDbLine
 62
7
  6
CONTINUOUS
 10
4.819606413
 20
2.7060357568
 11
4.8207591524
 21
2.7060578966
  0
LWPOLYLINE
  5
23F
100
AcDbEntity
  8
ALL_FEATURES
100
AcDbPolyline
 62
7
  6
CONTINUOUS
 90
54
 70
0
 10
4.7501918394
 20
2.6105401103
 10
4.7509319081
 20
2.61054741
 10
4.7525475498
 20
2.6106141378
 10
4.7541433129
 20
2.6107487746
 10
4.755716849
 20
2.610949145
 10
4.7572655879
 20
2.6112129794
 10
4.7587871346
 20
2.6115379341
 10
4.7602796502
 20
2.6119217086
 10
4.7617410657
 20
2.6123618882
 10
4.7631694889
 20
2.6128560163
 10
4.7645635682
 20
2.6134017591
 10
4.76592171
 20
2.6139966428
 10
4.7672424814
 20
2.6146381772
 10
4.7685249681
 20
2.6153240672
 10
4.7697680573
 20
2.6160518791
 10
4.7709706837
 20
2.6168191281
 10
4.7721321802
 20
2.6176235158
 10
4.7732517752
 20
2.6184626229
 10
4.7743288467
 20
2.6193340649
 10
4.7753631105
 20
2.6202356793
 10
4.7763541484
 20
2.6211651484
 10
4.7773016734
 20
2.6221202045
 10
4.778205728
 20
2.6230988674
 10
4.7790662305
 20
2.6240989997
 10
4.7798831479
 20
2.6251184518
 10
4.7806567101
 20
2.6261553471
 10
4.7813875426
 20
2.6272083758
 10
4.7820753873
 20
2.6282749355
 10
4.7827194708
 20
2.6293512206
 10
4.7833213108
 20
2.6304370191
 10
4.7838805788
 20
2.6315288631
 10
4.7843947737
 20
2.6326178052
 10
4.7848655654
 20
2.6337022731
 10
4.7852943946
 20
2.634780223
 10
4.7856800516
 20
2.6358418467
 10
4.7860255538
 20
2.6368874312
 10
4.7863327344
 20
2.6379140869
 10
4.7866007144
 20
2.6389077368
 10
4.786834013
 20
2.6398719775
 10
4.7870351017
 20
2.6408033047
 10
4.7872030236
 20
2.6416782157
 10
4.7873415278
 20
2.6424912139
 10
4.7874565767
 20
2.6432523431
 10
4.7875518342
 20
2.6439621477
 10
4.7876298401
 20
2.6446145252
 10
4.7876949877
 20
2.6452225335
 10
4.7877521014
 20
2.6458146287
 10
4.7878026516
 20
2.6463945476
 10
4.7878478811
 20
2.6469659805
 10
4.7878905044
 20
2.6475569791
 10
4.7879312941
 20
2.648176669
 10
4.7879703832
 20
2.6488260419
 10
4.788008728
 20
2.6495213301
 10
4.7887056633
 20
2.6635574711
  0
LINE
  5
240
100
AcDbEntity
  8
ALL_FEATURES
100
AcDbLine
 62
9
  6
CONTINUOUS
 10
5.029364299
 20
2.5497901077
 11
4.439114299
 21
2.5497901077
  0
LINE
  5
241
100
AcDbEntity
  8
ALL_FEATURES
100
AcDbLine
 62
9
  6
CONTINUOUS
 10
5.029364299
 20
2.5556960751
 11
4.439114299
 21
2.5556960751
  0
LINE
  5
242
100
AcDbEntity
  8
ALL_FEATURES
100
AcDbLine
 62
7
  6
CONTINUOUS
 10
5.0731786153
 20
2.5851765418
 11
4.3965361365
 21
2.5851765418
  0
LINE
  5
243
100
AcDbEntity
  8
ALL_FEATURES
100
AcDbLine
 62
7
  6
CONTINUOUS
 10
4.7501922422
 20
2.6105401077
 11
4.7182863558
 21
2.6105401077
  0
LINE
  5
244
100
AcDbEntity
  8
ALL_FEATURES
100
AcDbLine
 62
9
  6
CONTINUOUS
 10
4.365239299
 20
2.6151765418
 11
4.7002328123
 21
2.6151765418
  0
LINE
  5
245
100
AcDbEntity
  8
ALL_FEATURES
100
AcDbLine
 62
9
  6
CONTINUOUS
 10
4.768249123
 20
2.6151765418
 11
5.103239299
 21
2.6151765418
  0
LINE
  5
246
100
AcDbEntity
  8
ALL_FEATURES
100
AcDbLine
 62
9
  6
CONTINUOUS
 10
4.7502735455
 20
2.6202359119
 11
4.7182050525
 21
2.6202359119
  0
LINE
  5
247
100
AcDbEntity
  8
ALL_FEATURES
100
AcDbLine
 62
9
  6
CONTINUOUS
 10
5.103239299
 20
2.7049036735
 11
4.8104063144
 21
2.7049036736
  0
LINE
  5
248
100
AcDbEntity
  8
ALL_FEATURES
100
AcDbLine
 62
9
  6
CONTINUOUS
 10
4.6580656931
 20
2.7049036736
 11
4.365239299
 21
2.7049036735
  0
LINE
  5
249
100
AcDbEntity
  8
0
100
AcDbLine
 62
7
  6
CONTINUOUS
 10
4.6488723987
 20
2.7060355574
 11
4.6499345989
 21
2.7060355574
  0
LINE
  5
24A
100
AcDbEntity
  8
0
100
AcDbLine
 62
7
  6
CONTINUOUS
 10
4.8185439811
 20
2.7060355574
 11
4.8196061993
 21
2.7060355574
  0
LINE
  5
24B
100
AcDbEntity
  8
ALL_FEATURES
100
AcDbLine
 62
7
  6
CONTINUOUS
 10
4.6499373257
 20
2.7060355758
 11
4.6511449484
 21
2.706011218
  0
LWPOLYLINE
  5
24C
100
AcDbEntity
  8
ALL_FEATURES
100
AcDbPolyline
 62
7
  6
CONTINUOUS
 90
30
 70
0
 10
4.6511449484
 20
2.706011218
 10
4.6526443552
 20
2.7059129638
 10
4.6541299835
 20
2.7057405911
 10
4.655595831
 20
2.7054960382
 10
4.6570385149
 20
2.7051812971
 10
4.6584548017
 20
2.7047985061
 10
4.6598392992
 20
2.7043507528
 10
4.6611891462
 20
2.7038408036
 10
4.6625019123
 20
2.703271435
 10
4.6637733718
 20
2.702646516
 10
4.665001788
 20
2.7019691091
 10
4.666185125
 20
2.7012425803
 10
4.6673193739
 20
2.7004719442
 10
4.6684036584
 20
2.6996606266
 10
4.6694368748
 20
2.698812345
 10
4.6704155455
 20
2.697933274
 10
4.6713395387
 20
2.6970272838
 10
4.6722090131
 20
2.696098073
 10
4.6730218953
 20
2.6951521715
 10
4.6737791235
 20
2.6941932869
 10
4.6744816352
 20
2.6932251951
 10
4.675128314
 20
2.6922550313
 10
4.6757205463
 20
2.6912870553
 10
4.6762605433
 20
2.6903242578
 10
4.6767490951
 20
2.6893723519
 10
4.6771901382
 20
2.6884309547
 10
4.677583837
 20
2.687507438
 10
4.677926842
 20
2.6866205569
 10
4.6782238472
 20
2.685771494
 10
4.6783814374
 20
2.6852714864
  0
LINE
  5
24D
100
AcDbEntity
  8
ALL_FEATURES
100
AcDbLine
 62
7
  6
CONTINUOUS
 10
5.0731786153
 20
2.7349036736
 11
4.8496149296
 21
2.7349036736
  0
LINE
  5
24E
100
AcDbEntity
  8
ALL_FEATURES
100
AcDbLine
 62
7
  6
CONTINUOUS
 10
4.6188626304
 20
2.7349036736
 11
4.3965361365
 21
2.7349036736
  0
LINE
  5
24F
100
AcDbEntity
  8
ALL_FEATURES
100
AcDbLine
 62
9
  6
CONTINUOUS
 10
4.439114299
 20
2.7643841402
 11
4.6144737708
 21
2.7643841402
  0
LINE
  5
250
100
AcDbEntity
  8
ALL_FEATURES
100
AcDbLine
 62
9
  6
CONTINUOUS
 10
4.8540034322
 20
2.7643841402
 11
5.029364299
 21
2.7643841402
  0
LINE
  5
251
100
AcDbEntity
  8
ALL_FEATURES
100
AcDbLine
 62
9
  6
CONTINUOUS
 10
4.439114299
 20
2.7702901077
 11
4.6134336739
 21
2.7702901077
  0
LINE
  5
252
100
AcDbEntity
  8
ALL_FEATURES
100
AcDbLine
 62
9
  6
CONTINUOUS
 10
4.8550447159
 20
2.7702901077
 11
5.029364299
 21
2.7702901077
  0
LINE
  5
253
100
AcDbEntity
  8
ALL_FEATURES
100
AcDbLine
 62
7
  6
CONTINUOUS
 10
4.9918636624
 20
2.7875401077
 11
4.4766149469
 21
2.7875401077
  0
LINE
  5
254
100
AcDbEntity
  8
ALL_FEATURES
100
AcDbLine
 62
9
  6
CONTINUOUS
 10
5.029364299
 20
2.8250401077
 11
4.439114299
 21
2.8250401077
  0
LINE
  5
255
100
AcDbEntity
  8
ALL_FEATURES
100
AcDbLine
 62
9
  6
CONTINUOUS
 10
5.029364299
 20
2.8309460751
 11
4.439114299
 21
2.8309460751
  0
LINE
  5
256
100
AcDbEntity
  8
ALL_FEATURES
100
AcDbLine
 62
7
  6
CONTINUOUS
 10
5.0731786153
 20
2.8604265418
 11
4.3965361365
 21
2.8604265418
  0
LINE
  5
257
100
AcDbEntity
  8
ALL_FEATURES
100
AcDbLine
 62
9
  6
CONTINUOUS
 10
4.365239299
 20
2.8904265418
 11
5.103239299
 21
2.8904265418
  0
LWPOLYLINE
  5
258
100
AcDbEntity
  8
ALL_FEATURES
100
AcDbPolyline
 62
7
  6
CONTINUOUS
 90
19
 70
0
 10
4.5818155347
 20
2.787540117
 10
4.5925712537
 20
2.7874973398
 10
4.6037095235
 20
2.7873178718
 10
4.6135317576
 20
2.7869748204
 10
4.6220246942
 20
2.7864698358
 10
4.6293653183
 20
2.7858144465
 10
4.6358645744
 20
2.7850035102
 10
4.6415766015
 20
2.7840506555
 10
4.6465033967
 20
2.7829858097
 10
4.6507857607
 20
2.7818116451
 10
4.6544395003
 20
2.7805544501
 10
4.657452797
 20
2.7792612772
 10
4.6598702316
 20
2.777966491
 10
4.6616435303
 20
2.776778995
 10
4.6629183129
 20
2.7757077245
 10
4.6639798928
 20
2.7745495026
 10
4.664915934
 20
2.7731454893
 10
4.6656930046
 20
2.7714674589
 10
4.6662792039
 20
2.7696528136
  0
LINE
  5
259
100
AcDbEntity
  8
0
100
AcDbLine
 62
7
  6
CONTINUOUS
 10
3.721364299
 20
4.7256050683
 11
3.721364299
 21
4.7856050683
  0
LINE
  5
25A
100
AcDbEntity
  8
0
100
AcDbLine
 62
7
  6
CONTINUOUS
 10
3.781364299
 20
4.6971050683
 11
3.781364299
 21
4.7256050683
  0
LINE
  5
25B
100
AcDbEntity
  8
ALL_FEATURES
100
AcDbLine
 62
9
  6
CONTINUOUS
 10
5.103239299
 20
2.9801536735
 11
4.365239299
 21
2.9801536735
  0
LINE
  5
25C
100
AcDbEntity
  8
ALL_FEATURES
100
AcDbLine
 62
7
  6
CONTINUOUS
 10
5.0731786153
 20
3.0101536736
 11
4.3965361365
 21
3.0101536736
  0
LINE
  5
25D
100
AcDbEntity
  8
ALL_FEATURES
100
AcDbLine
 62
9
  6
CONTINUOUS
 10
4.439114299
 20
3.0396341402
 11
5.029364299
 21
3.0396341402
  0
LINE
  5
25E
100
AcDbEntity
  8
ALL_FEATURES
100
AcDbLine
 62
9
  6
CONTINUOUS
 10
4.439114299
 20
3.0455401077
 11
5.029364299
 21
3.0455401077
  0
LINE
  5
25F
100
AcDbEntity
  8
0
100
AcDbLine
 62
9
  6
CONTINUOUS
 10
5.0280818715
 20
3.0618340272
 11
5.0256163822
 21
3.0618340272
  0
LINE
  5
260
100
AcDbEntity
  8
0
100
AcDbLine
 62
9
  6
CONTINUOUS
 10
4.4428622647
 20
3.0618341254
 11
4.4403967265
 21
3.0618340272
  0
LINE
  5
261
100
AcDbEntity
  8
0
100
AcDbLine
 62
9
  6
CONTINUOUS
 10
5.0414084246
 20
3.0776466968
 11
5.0111942758
 21
3.077646696
  0
LINE
  5
262
100
AcDbEntity
  8
0
100
AcDbLine
 62
9
  6
CONTINUOUS
 10
4.4572843198
 20
3.0776466945
 11
4.4270701734
 21
3.0776466968
  0
LINE
  5
263
100
AcDbEntity
  8
0
100
AcDbLine
 62
9
  6
CONTINUOUS
 10
5.0026029354
 20
3.0814696455
 11
4.4658756626
 21
3.0814696455
  0
LINE
  5
264
100
AcDbEntity
  8
0
100
AcDbLine
 62
9
  6
CONTINUOUS
 10
4.970489299
 20
3.1245850909
 11
4.497989299
 21
3.1245850909
  0
LINE
  5
265
100
AcDbEntity
  8
0
100
AcDbLine
 62
9
  6
CONTINUOUS
 10
4.497989299
 20
3.1914663563
 11
4.970489299
 21
3.1914663563
  0
LINE
  5
266
100
AcDbEntity
  8
0
100
AcDbLine
 62
9
  6
CONTINUOUS
 10
4.471214299
 20
3.2326106071
 11
4.997264299
 21
3.2326106071
  0
LINE
  5
267
100
AcDbEntity
  8
0
100
AcDbLine
 62
7
  6
CONTINUOUS
 10
4.1502383166
 20
3.4094343963
 11
4.1422246837
 21
3.4158256992
  0
LINE
  5
268
100
AcDbEntity
  8
ALL_FEATURES
100
AcDbLine
 62
7
  6
CONTINUOUS
 10
4.113989299
 20
3.4744607634
 11
4.113989299
 21
3.9141050683
  0
LINE
  5
269
100
AcDbEntity
  8
0
100
AcDbLine
 62
7
  6
CONTINUOUS
 10
4.114161799
 20
4.7856050683
 11
4.114161799
 21
3.9141050683
  0
LINE
  5
26A
100
AcDbEntity
  8
ALL_FEATURES
100
AcDbLine
 62
7
  6
CONTINUOUS
 10
4.985114299
 20
3.2900401077
 11
4.4833642991
 21
3.2900401077
  0
LINE
  5
26B
100
AcDbEntity
  8
0
100
AcDbLine
 62
7
  6
CONTINUOUS
 10
4.9765974522
 20
3.3275401077
 11
4.4918811458
 21
3.3275401077
  0
LINE
  5
26C
100
AcDbEntity
  8
0
100
AcDbLine
 62
9
  6
CONTINUOUS
 10
4.99514721
 20
3.3339829759
 11
5.2716291255
 21
3.3339829791
  0
LINE
  5
26D
100
AcDbEntity
  8
0
100
AcDbLine
 62
9
  6
CONTINUOUS
 10
4.1968494725
 20
3.3339829791
 11
4.4733313848
 21
3.3339829782
  0
LINE
  5
26E
100
AcDbEntity
  8
0
100
AcDbLine
 62
9
  6
CONTINUOUS
 10
5.0041651363
 20
3.345706985
 11
4.4643134617
 21
3.345706985
  0
LINE
  5
26F
100
AcDbEntity
  8
0
100
AcDbLine
 62
9
  6
CONTINUOUS
 10
4.1684194287
 20
3.373234561
 11
4.4515057014
 21
3.3732345603
  0
LINE
  5
270
100
AcDbEntity
  8
0
100
AcDbLine
 62
9
  6
CONTINUOUS
 10
5.0169728955
 20
3.3732345582
 11
5.3000591693
 21
3.373234561
  0
LINE
  5
271
100
AcDbEntity
  8
0
100
AcDbLine
 62
9
  6
CONTINUOUS
 10
5.302297942
 20
3.3836821667
 11
5.0223083963
 21
3.3836821636
  0
LINE
  5
272
100
AcDbEntity
  8
0
100
AcDbLine
 62
9
  6
CONTINUOUS
 10
4.4461702008
 20
3.3836821655
 11
4.166180656
 21
3.3836821667
  0
LINE
  5
273
100
AcDbEntity
  8
0
100
AcDbLine
 62
7
  6
CONTINUOUS
 10
4.166180656
 20
3.3836821667
 11
4.1684194287
 21
3.373234561
  0
LINE
  5
274
100
AcDbEntity
  8
0
100
AcDbLine
 62
7
  6
CONTINUOUS
 10
4.248614299
 20
3.8016050683
 11
4.248614299
 21
3.6386337228
  0
LINE
  5
275
100
AcDbEntity
  8
ALL_FEATURES
100
AcDbLine
 62
7
  6
CONTINUOUS
 10
4.248614299
 20
3.6386337228
 11
4.248614299
 21
3.8016050683
  0
LINE
  5
276
100
AcDbEntity
  8
ALL_FEATURES
100
AcDbLine
 62
7
  6
CONTINUOUS
 10
4.365239299
 20
2.9801536735
 11
4.365239299
 21
2.8904265418
  0
LINE
  5
277
100
AcDbEntity
  8
ALL_FEATURES
100
AcDbLine
 62
7
  6
CONTINUOUS
 10
4.365239299
 20
2.7049036735
 11
4.365239299
 21
2.6151765418
  0
LINE
  5
278
100
AcDbEntity
  8
0
100
AcDbLine
 62
9
  6
CONTINUOUS
 10
5.3182402814
 20
3.4094343963
 11
5.0365294352
 21
3.4094343885
  0
LINE
  5
279
100
AcDbEntity
  8
0
100
AcDbLine
 62
9
  6
CONTINUOUS
 10
4.4319491607
 20
3.4094343928
 11
4.1502383166
 21
3.4094343963
  0
LINE
  5
27A
100
AcDbEntity
  8
0
100
AcDbLine
 62
9
  6
CONTINUOUS
 10
5.3262539143
 20
3.4158256992
 11
5.0403562369
 21
3.4158256992
  0
LINE
  5
27B
100
AcDbEntity
  8
0
100
AcDbLine
 62
9
  6
CONTINUOUS
 10
4.4281223609
 20
3.4158256992
 11
4.1422246837
 21
3.4158256992
  0
LINE
  5
27C
100
AcDbEntity
  8
0
100
AcDbLine
 62
9
  6
CONTINUOUS
 10
4.113989299
 20
3.4744607634
 11
4.387298811
 21
3.4744607634
  0
LINE
  5
27D
100
AcDbEntity
  8
0
100
AcDbLine
 62
9
  6
CONTINUOUS
 10
5.0811797859
 20
3.4744607631
 11
5.354489299
 21
3.4744607634
  0
LINE
  5
27E
100
AcDbEntity
  8
0
100
AcDbLine
 62
9
  6
CONTINUOUS
 10
4.2793270949
 20
3.5781056834
 11
5.1891515031
 21
3.5781056834
  0
LINE
  5
27F
100
AcDbEntity
  8
ALL_FEATURES
100
AcDbLine
 62
7
  6
CONTINUOUS
 10
4.6662792271
 20
2.49440282
 11
4.666263634
 21
2.4944589278
  0
LINE
  5
280
100
AcDbEntity
  8
ALL_FEATURES
100
AcDbLine
 62
7
  6
CONTINUOUS
 10
4.6662792271
 20
2.76965282
 11
4.666263634
 21
2.7697089278
  0
LWPOLYLINE
  5
281
100
AcDbEntity
  8
ALL_FEATURES
100
AcDbPolyline
 62
7
  6
CONTINUOUS
 90
7
 70
0
 10
4.666263634
 20
2.4944589278
 10
4.6676185313
 20
2.4892636529
 10
4.6691489534
 20
2.4826063902
 10
4.6706347856
 20
2.475212579
 10
4.6720667191
 20
2.4670529832
 10
4.6734322227
 20
2.45812306
 10
4.6747181772
 20
2.4484422505
  0
LWPOLYLINE
  5
282
100
AcDbEntity
  8
ALL_FEATURES
100
AcDbPolyline
 62
7
  6
CONTINUOUS
 90
7
 70
0
 10
4.666263634
 20
2.7697089278
 10
4.6676185313
 20
2.7645136529
 10
4.6691489534
 20
2.7578563902
 10
4.6706347856
 20
2.750462579
 10
4.6720667191
 20
2.7423029832
 10
4.6734322227
 20
2.73337306
 10
4.6747181772
 20
2.7236922505
  0
LWPOLYLINE
  5
283
100
AcDbEntity
  8
ALL_FEATURES
100
AcDbPolyline
 62
7
  6
CONTINUOUS
 90
5
 70
0
 10
4.6102275809
 20
2.5118402221
 10
4.6120002373
 20
2.5031795711
 10
4.6145236463
 20
2.4888509329
 10
4.6168762349
 20
2.4732966559
 10
4.6188636345
 20
2.4580552244
  0
LWPOLYLINE
  5
284
100
AcDbEntity
  8
ALL_FEATURES
100
AcDbPolyline
 62
7
  6
CONTINUOUS
 90
5
 70
0
 10
4.6102275809
 20
2.7870902221
 10
4.6120002373
 20
2.7784295711
 10
4.6145236463
 20
2.7641009329
 10
4.6168762349
 20
2.7485466559
 10
4.6188636345
 20
2.7333052244
  0
LWPOLYLINE
  5
285
100
AcDbEntity
  8
ALL_FEATURES
100
AcDbPolyline
 62
7
  6
CONTINUOUS
 90
3
 70
0
 10
4.6780408078
 20
2.4147856577
 10
4.6789539986
 20
2.4020134352
 10
4.6797655328
 20
2.3884436708
  0
LINE
  5
286
100
AcDbEntity
  8
ALL_FEATURES
100
AcDbLine
 62
7
  6
CONTINUOUS
 10
4.439114299
 20
3.0455401077
 11
4.439114299
 21
3.0396341402
  0
LINE
  5
287
100
AcDbEntity
  8
ALL_FEATURES
100
AcDbLine
 62
7
  6
CONTINUOUS
 10
4.439114299
 20
2.8309460751
 11
4.439114299
 21
2.8250401077
  0
LINE
  5
288
100
AcDbEntity
  8
ALL_FEATURES
100
AcDbLine
 62
7
  6
CONTINUOUS
 10
4.439114299
 20
2.7702901077
 11
4.439114299
 21
2.7643841402
  0
LINE
  5
289
100
AcDbEntity
  8
ALL_FEATURES
100
AcDbLine
 62
7
  6
CONTINUOUS
 10
4.439114299
 20
2.5556960751
 11
4.439114299
 21
2.5497901077
  0
LINE
  5
28A
100
AcDbEntity
  8
ALL_FEATURES
100
AcDbLine
 62
7
  6
CONTINUOUS
 10
4.497989299
 20
3.1245850909
 11
4.497989299
 21
3.1914663563
  0
LINE
  5
28B
100
AcDbEntity
  8
0
100
AcDbLine
 62
9
  6
CONTINUOUS
 10
4.248614299
 20
3.6386337228
 11
5.219864299
 21
3.6386337228
  0
LWPOLYLINE
  5
28C
100
AcDbEntity
  8
ALL_FEATURES
100
AcDbPolyline
 62
7
  6
CONTINUOUS
 90
42
 70
0
 10
4.6188626304
 20
2.4580637247
 10
4.6188870924
 20
2.4578655542
 10
4.6189849987
 20
2.4571408828
 10
4.6191044981
 20
2.4563714879
 10
4.6192492327
 20
2.4555600366
 10
4.6194196692
 20
2.4547240937
 10
4.6196194256
 20
2.4538614721
 10
4.619852378
 20
2.4529704157
 10
4.6201158949
 20
2.4520715527
 10
4.6204095503
 20
2.4511716419
 10
4.6207368219
 20
2.4502648874
 10
4.6210982305
 20
2.44935491
 10
4.6214946708
 20
2.4484437072
 10
4.6219275156
 20
2.4475320823
 10
4.6223972753
 20
2.4466226341
 10
4.6229048444
 20
2.4457169823
 10
4.6234509403
 20
2.4448170199
 10
4.6240353371
 20
2.4439259651
 10
4.6246582355
 20
2.4430460307
 10
4.6253202083
 20
2.4421788166
 10
4.6260212264
 20
2.4413266699
 10
4.6267613097
 20
2.4404917382
 10
4.6275405767
 20
2.4396759846
 10
4.628358935
 20
2.4388815481
 10
4.6292162192
 20
2.4381105745
 10
4.6301120939
 20
2.4373652979
 10
4.6310460183
 20
2.4366480409
 10
4.6320174693
 20
2.4359610294
 10
4.6330257216
 20
2.4353065644
 10
4.6340697055
 20
2.4346870722
 10
4.6351484124
 20
2.4341048323
 10
4.6362607675
 20
2.4335620821
 10
4.6374053657
 20
2.4330611347
 10
4.6385808008
 20
2.432604204
 10
4.6397855347
 20
2.4321934722
 10
4.6410177323
 20
2.4318311283
 10
4.6422755558
 20
2.4315192582
 10
4.6435570113
 20
2.4312598961
 10
4.6448597976
 20
2.4310550335
 10
4.6461816278
 20
2.4309065446
 10
4.6475200689
 20
2.4308162202
 10
4.6488721814
 20
2.4307857567
  0
LWPOLYLINE
  5
28D
100
AcDbEntity
  8
ALL_FEATURES
100
AcDbPolyline
 62
7
  6
CONTINUOUS
 90
42
 70
0
 10
4.6188626304
 20
2.7333137247
 10
4.6188870924
 20
2.7331155542
 10
4.6189849987
 20
2.7323908828
 10
4.6191044981
 20
2.7316214879
 10
4.6192492327
 20
2.7308100366
 10
4.6194196692
 20
2.7299740937
 10
4.6196194256
 20
2.7291114721
 10
4.619852378
 20
2.7282204157
 10
4.6201158949
 20
2.7273215527
 10
4.6204095503
 20
2.7264216419
 10
4.6207368219
 20
2.7255148874
 10
4.6210982305
 20
2.72460491
 10
4.6214946708
 20
2.7236937072
 10
4.6219275156
 20
2.7227820823
 10
4.6223972753
 20
2.7218726341
 10
4.6229048444
 20
2.7209669823
 10
4.6234509403
 20
2.7200670199
 10
4.6240353371
 20
2.7191759651
 10
4.6246582355
 20
2.7182960307
 10
4.6253202083
 20
2.7174288166
 10
4.6260212264
 20
2.7165766699
 10
4.6267613097
 20
2.7157417382
 10
4.6275405767
 20
2.7149259846
 10
4.628358935
 20
2.7141315481
 10
4.6292162192
 20
2.7133605745
 10
4.6301120939
 20
2.7126152979
 10
4.6310460183
 20
2.7118980409
 10
4.6320174693
 20
2.7112110294
 10
4.6330257216
 20
2.7105565644
 10
4.6340697055
 20
2.7099370722
 10
4.6351484124
 20
2.7093548323
 10
4.6362607675
 20
2.7088120821
 10
4.6374053657
 20
2.7083111347
 10
4.6385808008
 20
2.707854204
 10
4.6397855347
 20
2.7074434722
 10
4.6410177323
 20
2.7070811283
 10
4.6422755558
 20
2.7067692582
 10
4.6435570113
 20
2.7065098961
 10
4.6448597976
 20
2.7063050335
 10
4.6461816278
 20
2.7061565446
 10
4.6475200689
 20
2.7060662202
 10
4.6488721814
 20
2.7060357567
  0
LWPOLYLINE
  5
28E
100
AcDbEntity
  8
ALL_FEATURES
100
AcDbPolyline
 62
7
  6
CONTINUOUS
 90
4
 70
0
 10
4.6747181772
 20
2.4484422505
 10
4.6759182034
 20
2.4380004681
 10
4.6770277532
 20
2.4267792361
 10
4.6780408078
 20
2.4147856577
  0
LWPOLYLINE
  5
28F
100
AcDbEntity
  8
ALL_FEATURES
100
AcDbPolyline
 62
7
  6
CONTINUOUS
 90
4
 70
0
 10
4.6747181772
 20
2.7236922505
 10
4.6759182034
 20
2.7132504681
 10
4.6770277532
 20
2.7020292361
 10
4.6780408078
 20
2.6900356577
  0
LWPOLYLINE
  5
290
100
AcDbEntity
  8
ALL_FEATURES
100
AcDbPolyline
 62
7
  6
CONTINUOUS
 90
3
 70
0
 10
4.6780408078
 20
2.6900356577
 10
4.6789539986
 20
2.6772634352
 10
4.6797655328
 20
2.6636936708
  0
LWPOLYLINE
  5
291
100
AcDbEntity
  8
ALL_FEATURES
100
AcDbPolyline
 62
7
  6
CONTINUOUS
 90
54
 70
0
 10
4.6805231952
 20
2.3733203957
 10
4.6805591975
 20
2.3727401354
 10
4.6805966541
 20
2.372183861
 10
4.6806360375
 20
2.3716459303
 10
4.6806792498
 20
2.3711048538
 10
4.6807270071
 20
2.370559057
 10
4.6807803366
 20
2.3700048666
 10
4.6808428708
 20
2.3694168844
 10
4.6809172024
 20
2.3687882919
 10
4.681005435
 20
2.3681200978
 10
4.6811124006
 20
2.3673969688
 10
4.6812442895
 20
2.3666036138
 10
4.6814039662
 20
2.3657501708
 10
4.6815911547
 20
2.364859107
 10
4.6818091074
 20
2.36393108
 10
4.6820621062
 20
2.3629635438
 10
4.6823485552
 20
2.3619751
 10
4.6826698117
 20
2.3609697211
 10
4.683029324
 20
2.3599448496
 10
4.6834262397
 20
2.3589100632
 10
4.6838619926
 20
2.3578672555
 10
4.6843384286
 20
2.3568173678
 10
4.684853781
 20
2.355768655
 10
4.6854085939
 20
2.3547233178
 10
4.6860040138
 20
2.3536823541
 10
4.6866379748
 20
2.3526519615
 10
4.6873096574
 20
2.3516352886
 10
4.6880202312
 20
2.3506323064
 10
4.6887700848
 20
2.3496443407
 10
4.689559307
 20
2.3486731187
 10
4.6903879012
 20
2.3477204197
 10
4.691256065
 20
2.3467877758
 10
4.6921636612
 20
2.3458770717
 10
4.6931104893
 20
2.3449902006
 10
4.6940965759
 20
2.3441288208
 10
4.6951215671
 20
2.3432949181
 10
4.696184989
 20
2.3424905206
 10
4.697286593
 20
2.3417174535
 10
4.6984257339
 20
2.3409778038
 10
4.6996016562
 20
2.3402736719
 10
4.7008138263
 20
2.3396069893
 10
4.7020612354
 20
2.3389799245
 10
4.7033428431
 20
2.3383945973
 10
4.7046579328
 20
2.3378529536
 10
4.7060052053
 20
2.3373571687
 10
4.707383205
 20
2.3369094094
 10
4.7087908244
 20
2.3365116888
 10
4.7102263649
 20
2.3361661655
 10
4.7116879832
 20
2.3358749604
 10
4.7131741709
 20
2.3356400814
 10
4.7146828062
 20
2.3354636042
 10
4.7162116173
 20
2.3353475416
 10
4.7177586627
 20
2.3352938271
 10
4.7182867585
 20
2.3352901103
  0
LWPOLYLINE
  5
292
100
AcDbEntity
  8
ALL_FEATURES
100
AcDbPolyline
 62
7
  6
CONTINUOUS
 90
54
 70
0
 10
4.6805231952
 20
2.6485703957
 10
4.6805591975
 20
2.6479901354
 10
4.6805966541
 20
2.647433861
 10
4.6806360375
 20
2.6468959303
 10
4.6806792498
 20
2.6463548538
 10
4.6807270071
 20
2.645809057
 10
4.6807803366
 20
2.6452548666
 10
4.6808428708
 20
2.6446668844
 10
4.6809172024
 20
2.6440382919
 10
4.681005435
 20
2.6433700978
 10
4.6811124006
 20
2.6426469688
 10
4.6812442895
 20
2.6418536138
 10
4.6814039662
 20
2.6410001708
 10
4.6815911547
 20
2.640109107
 10
4.6818091074
 20
2.63918108
 10
4.6820621062
 20
2.6382135438
 10
4.6823485552
 20
2.6372251
 10
4.6826698117
 20
2.6362197211
 10
4.683029324
 20
2.6351948496
 10
4.6834262397
 20
2.6341600632
 10
4.6838619926
 20
2.6331172555
 10
4.6843384286
 20
2.6320673678
 10
4.684853781
 20
2.631018655
 10
4.6854085939
 20
2.6299733178
 10
4.6860040138
 20
2.6289323541
 10
4.6866379748
 20
2.6279019615
 10
4.6873096574
 20
2.6268852886
 10
4.6880202312
 20
2.6258823064
 10
4.6887700848
 20
2.6248943407
 10
4.689559307
 20
2.6239231187
 10
4.6903879012
 20
2.6229704197
 10
4.691256065
 20
2.6220377758
 10
4.6921636612
 20
2.6211270717
 10
4.6931104893
 20
2.6202402006
 10
4.6940965759
 20
2.6193788208
 10
4.6951215671
 20
2.6185449181
 10
4.696184989
 20
2.6177405206
 10
4.697286593
 20
2.6169674535
 10
4.6984257339
 20
2.6162278038
 10
4.6996016562
 20
2.6155236719
 10
4.7008138263
 20
2.6148569893
 10
4.7020612354
 20
2.6142299245
 10
4.7033428431
 20
2.6136445973
 10
4.7046579328
 20
2.6131029536
 10
4.7060052053
 20
2.6126071687
 10
4.707383205
 20
2.6121594094
 10
4.7087908244
 20
2.6117616888
 10
4.7102263649
 20
2.6114161655
 10
4.7116879832
 20
2.6111249604
 10
4.7131741709
 20
2.6108900814
 10
4.7146828062
 20
2.6107136042
 10
4.7162116173
 20
2.6105975416
 10
4.7177586627
 20
2.6105438271
 10
4.7182867585
 20
2.6105401103
  0
LINE
  5
293
100
AcDbEntity
  8
ALL_FEATURES
100
AcDbLine
 62
7
  6
CONTINUOUS
 10
4.6804543405
 20
2.3745706125
 11
4.6805231952
 21
2.3733203957
  0
LINE
  5
294
100
AcDbEntity
  8
ALL_FEATURES
100
AcDbLine
 62
7
  6
CONTINUOUS
 10
4.6804543405
 20
2.6498206125
 11
4.6805231952
 21
2.6485703957
  0
LINE
  5
295
100
AcDbEntity
  8
ALL_FEATURES
100
AcDbLine
 62
7
  6
CONTINUOUS
 10
4.6797655328
 20
2.3884436708
 11
4.6804543405
 21
2.3745706125
  0
LINE
  5
296
100
AcDbEntity
  8
ALL_FEATURES
100
AcDbLine
 62
7
  6
CONTINUOUS
 10
4.6797655328
 20
2.6636936708
 11
4.6804543405
 21
2.6498206125
  0
LINE
  5
297
100
AcDbEntity
  8
0
100
AcDbLine
 62
7
  6
CONTINUOUS
 10
4.595489299
 20
3.3275401077
 11
4.595489299
 21
3.2900401077
  0
LINE
  5
298
100
AcDbEntity
  8
0
100
AcDbLine
 62
7
  6
CONTINUOUS
 10
5.241816799
 20
3.8016050683
 11
4.226661799
 21
3.8016050683
  0
LINE
  5
299
100
AcDbEntity
  8
0
100
AcDbLine
 62
9
  6
CONTINUOUS
 10
5.354316799
 20
3.9141050683
 11
4.114161799
 21
3.9141050683
  0
LINE
  5
29A
100
AcDbEntity
  8
0
100
AcDbLine
 62
7
  6
CONTINUOUS
 10
4.872989299
 20
3.3275401077
 11
4.872989299
 21
3.2900401077
  0
LINE
  5
29B
100
AcDbEntity
  8
ALL_FEATURES
100
AcDbLine
 62
7
  6
CONTINUOUS
 10
4.7887056633
 20
2.6635574711
 11
4.7895160419
 21
2.6771326927
  0
LINE
  5
29C
100
AcDbEntity
  8
ALL_FEATURES
100
AcDbLine
 62
7
  6
CONTINUOUS
 10
4.7887056633
 20
2.3883074711
 11
4.7895160419
 21
2.4018826927
  0
LINE
  5
29D
100
AcDbEntity
  8
ALL_FEATURES
100
AcDbLine
 62
7
  6
CONTINUOUS
 10
4.7895160419
 20
2.6771326927
 11
4.7904280771
 21
2.6899107425
  0
LINE
  5
29E
100
AcDbEntity
  8
ALL_FEATURES
100
AcDbLine
 62
7
  6
CONTINUOUS
 10
4.7895160419
 20
2.4018826927
 11
4.7904280771
 21
2.4146607425
  0
LWPOLYLINE
  5
29F
100
AcDbEntity
  8
ALL_FEATURES
100
AcDbPolyline
 62
7
  6
CONTINUOUS
 90
3
 70
0
 10
4.7904280771
 20
2.6899107425
 10
4.7914399855
 20
2.7019104557
 10
4.7925484143
 20
2.7131381105
  0
LWPOLYLINE
  5
2A0
100
AcDbEntity
  8
ALL_FEATURES
100
AcDbPolyline
 62
7
  6
CONTINUOUS
 90
3
 70
0
 10
4.7904280771
 20
2.4146607425
 10
4.7914399855
 20
2.4266604557
 10
4.7925484143
 20
2.4378881105
  0
LINE
  5
2A1
100
AcDbEntity
  8
ALL_FEATURES
100
AcDbLine
 62
7
  6
CONTINUOUS
 10
4.7925484143
 20
2.7131381105
 11
4.7937473678
 21
2.7235866118
  0
LINE
  5
2A2
100
AcDbEntity
  8
ALL_FEATURES
100
AcDbLine
 62
7
  6
CONTINUOUS
 10
4.970489299
 20
3.1245850909
 11
4.970489299
 21
3.1914663563
  0
LINE
  5
2A3
100
AcDbEntity
  8
ALL_FEATURES
100
AcDbLine
 62
7
  6
CONTINUOUS
 10
5.029364299
 20
3.0455401077
 11
5.029364299
 21
3.0396341402
  0
LINE
  5
2A4
100
AcDbEntity
  8
ALL_FEATURES
100
AcDbLine
 62
7
  6
CONTINUOUS
 10
5.029364299
 20
2.8309460751
 11
5.029364299
 21
2.8250401077
  0
LINE
  5
2A5
100
AcDbEntity
  8
ALL_FEATURES
100
AcDbLine
 62
7
  6
CONTINUOUS
 10
5.029364299
 20
2.7702901077
 11
5.029364299
 21
2.7643841402
  0
LINE
  5
2A6
100
AcDbEntity
  8
ALL_FEATURES
100
AcDbLine
 62
7
  6
CONTINUOUS
 10
5.029364299
 20
2.5556960751
 11
5.029364299
 21
2.5497901077
  0
LINE
  5
2A7
100
AcDbEntity
  8
ALL_FEATURES
100
AcDbLine
 62
7
  6
CONTINUOUS
 10
4.7925484143
 20
2.4378881105
 11
4.7937473678
 21
2.4483366118
  0
LWPOLYLINE
  5
2A8
100
AcDbEntity
  8
ALL_FEATURES
100
AcDbPolyline
 62
7
  6
CONTINUOUS
 90
5
 70
0
 10
4.8496149296
 20
2.733304945
 10
4.8516192288
 20
2.7486670293
 10
4.8539733017
 20
2.7642132454
 10
4.8564981392
 20
2.7785336539
 10
4.8582513996
 20
2.7870897782
  0
LWPOLYLINE
  5
2A9
100
AcDbEntity
  8
ALL_FEATURES
100
AcDbPolyline
 62
7
  6
CONTINUOUS
 90
5
 70
0
 10
4.8496149296
 20
2.458054945
 10
4.8516192288
 20
2.4734170293
 10
4.8539733017
 20
2.4889632454
 10
4.8564981392
 20
2.5032836539
 10
4.8582513996
 20
2.5118397782
  0
LWPOLYLINE
  5
2AA
100
AcDbEntity
  8
ALL_FEATURES
100
AcDbPolyline
 62
7
  6
CONTINUOUS
 90
7
 70
0
 10
4.7937473678
 20
2.7235866118
 10
4.7950323135
 20
2.7332743898
 10
4.7963968936
 20
2.7422115023
 10
4.7978280311
 20
2.7503785353
 10
4.7993132329
 20
2.757780013
 10
4.8008432155
 20
2.7644451058
 10
4.802215101
 20
2.7697094227
  0
LWPOLYLINE
  5
2AB
100
AcDbEntity
  8
ALL_FEATURES
100
AcDbPolyline
 62
7
  6
CONTINUOUS
 90
7
 70
0
 10
4.7937473678
 20
2.4483366118
 10
4.7950323135
 20
2.4580243898
 10
4.7963968936
 20
2.4669615023
 10
4.7978280311
 20
2.4751285353
 10
4.7993132329
 20
2.482530013
 10
4.8008432155
 20
2.4891951058
 10
4.802215101
 20
2.4944594227
  0
LINE
  5
2AC
100
AcDbEntity
  8
ALL_FEATURES
100
AcDbLine
 62
7
  6
CONTINUOUS
 10
5.103239299
 20
2.9801536735
 11
5.103239299
 21
2.8904265418
  0
LINE
  5
2AD
100
AcDbEntity
  8
ALL_FEATURES
100
AcDbLine
 62
7
  6
CONTINUOUS
 10
5.103239299
 20
2.7049036735
 11
5.103239299
 21
2.6151765418
  0
LINE
  5
2AE
100
AcDbEntity
  8
ALL_FEATURES
100
AcDbLine
 62
7
  6
CONTINUOUS
 10
5.219864299
 20
3.6386337228
 11
5.219864299
 21
3.8016050683
  0
LINE
  5
2AF
100
AcDbEntity
  8
ALL_FEATURES
100
AcDbLine
 62
7
  6
CONTINUOUS
 10
4.8021978512
 20
2.7696472115
 11
4.8022151424
 21
2.7697094112
  0
LINE
  5
2B0
100
AcDbEntity
  8
ALL_FEATURES
100
AcDbLine
 62
7
  6
CONTINUOUS
 10
4.8021978512
 20
2.4943972115
 11
4.8022151424
 21
2.4944594112
  0
LWPOLYLINE
  5
2B1
100
AcDbEntity
  8
ALL_FEATURES
100
AcDbPolyline
 62
7
  6
CONTINUOUS
 90
4
 70
0
 10
4.7900971845
 20
2.685274779
 10
4.790143977
 20
2.6854304285
 10
4.7904472094
 20
2.6863313885
 10
4.7908167115
 20
2.6873130755
  0
LWPOLYLINE
  5
2B2
100
AcDbEntity
  8
ALL_FEATURES
100
AcDbPolyline
 62
7
  6
CONTINUOUS
 90
4
 70
0
 10
4.7900971845
 20
2.410024779
 10
4.790143977
 20
2.4101804285
 10
4.7904472094
 20
2.4110813885
 10
4.7908167115
 20
2.4120630755
  0
LWPOLYLINE
  5
2B3
100
AcDbEntity
  8
ALL_FEATURES
100
AcDbPolyline
 62
7
  6
CONTINUOUS
 90
19
 70
0
 10
4.8021978512
 20
2.7696472115
 10
4.8027775869
 20
2.77144661
 10
4.8035543926
 20
2.7731305833
 10
4.8044892656
 20
2.7745375208
 10
4.8055478838
 20
2.775695945
 10
4.8068176246
 20
2.7767658394
 10
4.808584438
 20
2.77795209
 10
4.8109944275
 20
2.7792461952
 10
4.8139992807
 20
2.7805390962
 10
4.8176437926
 20
2.7817965264
 10
4.8219160584
 20
2.782971349
 10
4.8268318653
 20
2.7840372493
 10
4.8325323515
 20
2.7849916366
 10
4.839019402
 20
2.7858044407
 10
4.8463473407
 20
2.7864619414
 10
4.8548282057
 20
2.786969274
 10
4.8646395866
 20
2.787314657
 10
4.8757681353
 20
2.7874960973
 10
4.8866630519
 20
2.787540117
  0
LWPOLYLINE
  5
2B4
100
AcDbEntity
  8
ALL_FEATURES
100
AcDbPolyline
 62
7
  6
CONTINUOUS
 90
19
 70
0
 10
4.8021978512
 20
2.4943972115
 10
4.8027775869
 20
2.49619661
 10
4.8035543926
 20
2.4978805833
 10
4.8044892656
 20
2.4992875208
 10
4.8055478838
 20
2.500445945
 10
4.8068176246
 20
2.5015158394
 10
4.808584438
 20
2.50270209
 10
4.8109944275
 20
2.5039961952
 10
4.8139992807
 20
2.5052890962
 10
4.8176437926
 20
2.5065465264
 10
4.8219160584
 20
2.507721349
 10
4.8268318653
 20
2.5087872493
 10
4.8325323515
 20
2.5097416366
 10
4.839019402
 20
2.5105544407
 10
4.8463473407
 20
2.5112119414
 10
4.8548282057
 20
2.511719274
 10
4.8646395866
 20
2.512064657
 10
4.8757681353
 20
2.5122460973
 10
4.8866630519
 20
2.512290117
  0
LWPOLYLINE
  5
2B5
100
AcDbEntity
  8
ALL_FEATURES
100
AcDbPolyline
 62
7
  6
CONTINUOUS
 90
24
 70
0
 10
4.7908167115
 20
2.6873130755
 10
4.7912583245
 20
2.6883632364
 10
4.7917630203
 20
2.6894404266
 10
4.7923309731
 20
2.690532679
 10
4.7929688028
 20
2.6916411413
 10
4.7936714414
 20
2.6927471568
 10
4.7944384033
 20
2.6938430157
 10
4.7952730842
 20
2.694926987
 10
4.7961739642
 20
2.6959908871
 10
4.797141419
 20
2.6970297026
 10
4.7981759633
 20
2.6980387378
 10
4.7992752006
 20
2.6990108789
 10
4.8004384979
 20
2.6999412568
 10
4.801664981
 20
2.7008249851
 10
4.8029508698
 20
2.7016555316
 10
4.8042937553
 20
2.7024279482
 10
4.8056919894
 20
2.7031379633
 10
4.8071421079
 20
2.7037805839
 10
4.8086412241
 20
2.7043514237
 10
4.8101859622
 20
2.7048461259
 10
4.8117714693
 20
2.7052602002
 10
4.8133936818
 20
2.7055897675
 10
4.8150481524
 20
2.7058311151
 10
4.8167288471
 20
2.7059806625
  0
LINE
  5
2B6
100
AcDbEntity
  8
0
100
AcDbLine
 62
7
  6
CONTINUOUS
 10
5.354316799
 20
4.7856050683
 11
5.354316799
 21
3.9141050683
  0
LINE
  5
2B7
100
AcDbEntity
  8
ALL_FEATURES
100
AcDbLine
 62
7
  6
CONTINUOUS
 10
5.354489299
 20
3.4744607634
 11
5.354489299
 21
3.9141050683
  0
LINE
  5
2B8
100
AcDbEntity
  8
0
100
AcDbLine
 62
7
  6
CONTINUOUS
 10
5.302297942
 20
3.3836821667
 11
5.3000591693
 21
3.373234561
  0
LWPOLYLINE
  5
2B9
100
AcDbEntity
  8
ALL_FEATURES
100
AcDbPolyline
 62
7
  6
CONTINUOUS
 90
24
 70
0
 10
4.7908167115
 20
2.4120630755
 10
4.7912583245
 20
2.4131132364
 10
4.7917630203
 20
2.4141904266
 10
4.7923309731
 20
2.415282679
 10
4.7929688028
 20
2.4163911413
 10
4.7936714414
 20
2.4174971568
 10
4.7944384033
 20
2.4185930157
 10
4.7952730842
 20
2.419676987
 10
4.7961739642
 20
2.4207408871
 10
4.797141419
 20
2.4217797026
 10
4.7981759633
 20
2.4227887378
 10
4.7992752006
 20
2.4237608789
 10
4.8004384979
 20
2.4246912568
 10
4.801664981
 20
2.4255749851
 10
4.8029508698
 20
2.4264055316
 10
4.8042937553
 20
2.4271779482
 10
4.8056919894
 20
2.4278879633
 10
4.8071421079
 20
2.4285305839
 10
4.8086412241
 20
2.4291014237
 10
4.8101859622
 20
2.4295961259
 10
4.8117714693
 20
2.4300102002
 10
4.8133936818
 20
2.4303397675
 10
4.8150481524
 20
2.4305811151
 10
4.8167288471
 20
2.4307306625
  0
LINE
  5
2BA
100
AcDbEntity
  8
0
100
AcDbLine
 62
7
  6
CONTINUOUS
 10
3.8519836175
 20
4.6957604081
 11
3.852021512
 21
4.6957559266
  0
LINE
  5
2BB
100
AcDbEntity
  8
0
100
AcDbLine
 62
7
  6
CONTINUOUS
 10
3.8856291286
 20
4.6954981326
 11
3.8856670203
 21
4.695490567
  0
LINE
  5
2BC
100
AcDbEntity
  8
0
100
AcDbLine
 62
7
  6
CONTINUOUS
 10
5.3262539143
 20
3.4158256992
 11
5.3182402814
 21
3.4094343963
  0
LINE
  5
2BD
100
AcDbEntity
  8
0
100
AcDbLine
 62
7
  6
CONTINUOUS
 10
5.446739299
 20
4.6918550683
 11
5.4564276084
 21
4.6920666694
  0
LINE
  5
2BE
100
AcDbEntity
  8
0
100
AcDbLine
 62
7
  6
CONTINUOUS
 10
5.6216200096
 20
4.6956746158
 11
5.687114299
 21
4.6971050683
  0
LINE
  5
2BF
100
AcDbEntity
  8
0
100
AcDbLine
 62
7
  6
CONTINUOUS
 10
4.114161799
 20
4.6918550683
 11
4.021739299
 21
4.6918550683
  0
LINE
  5
2C0
100
AcDbEntity
  8
0
100
AcDbLine
 62
7
  6
CONTINUOUS
 10
5.354316799
 20
4.6918550683
 11
5.446739299
 21
4.6918550683
  0
LINE
  5
2C1
100
AcDbEntity
  8
0
100
AcDbLine
 62
7
  6
CONTINUOUS
 10
4.114161799
 20
4.6971050683
 11
3.781364299
 21
4.6971050683
  0
LINE
  5
2C2
100
AcDbEntity
  8
0
100
AcDbLine
 62
7
  6
CONTINUOUS
 10
5.354316799
 20
4.6971050683
 11
5.687114299
 21
4.6971050683
  0
LINE
  5
2C3
100
AcDbEntity
  8
0
100
AcDbLine
 62
7
  6
CONTINUOUS
 10
4.114161799
 20
4.7256050683
 11
3.721391907
 21
4.7256050683
  0
LINE
  5
2C4
100
AcDbEntity
  8
0
100
AcDbLine
 62
7
  6
CONTINUOUS
 10
5.354316799
 20
4.7256050683
 11
5.747086691
 21
4.7256050683
  0
LINE
  5
2C5
100
AcDbEntity
  8
ALL_FEATURES
100
AcDbLine
 62
7
  6
CONTINUOUS
 10
6.702989299
 20
4.7856050683
 11
2.765489299
 21
4.7856050683
  0
LINE
  5
2C6
100
AcDbEntity
  8
0
100
AcDbLine
 62
7
  6
CONTINUOUS
 10
5.687114299
 20
4.6971050683
 11
5.687114299
 21
4.7256050683
  0
LINE
  5
2C7
100
AcDbEntity
  8
0
100
AcDbLine
 62
7
  6
CONTINUOUS
 10
5.747114299
 20
4.7256050683
 11
5.747114299
 21
4.7856050683
  0
LINE
  5
2C8
100
AcDbEntity
  8
ALL_FEATURES
100
AcDbLine
 62
7
  6
CONTINUOUS
 10
6.796739299
 20
4.8328550683
 11
2.671739299
 21
4.8328550683
  0
LINE
  5
2C9
100
AcDbEntity
  8
0
100
AcDbLine
 62
7
  6
CONTINUOUS
 10
2.671739299
 20
5.0203550683
 11
6.796739299
 21
5.0203550683
  0
LINE
  5
2CA
100
AcDbEntity
  8
ALL_FEATURES
100
AcDbLine
 62
9
  6
CONTINUOUS
 10
6.106739299
 20
4.8328550683
 11
6.106739299
 21
4.7856050683
  0
LINE
  5
2CB
100
AcDbEntity
  8
0
100
AcDbLine
 62
9
  6
CONTINUOUS
 10
6.106739299
 20
4.8328550683
 11
6.106739299
 21
5.0203550683
  0
LINE
  5
2CC
100
AcDbEntity
  8
ALL_FEATURES
100
AcDbLine
 62
7
  6
CONTINUOUS
 10
6.327989299
 20
4.8328550683
 11
6.327989299
 21
4.7856050683
  0
LINE
  5
2CD
100
AcDbEntity
  8
0
100
AcDbLine
 62
7
  6
CONTINUOUS
 10
6.421739299
 20
4.8328550683
 11
6.421739299
 21
5.0203550683
  0
LINE
  5
2CE
100
AcDbEntity
  8
ALL_FEATURES
100
AcDbLine
 62
9
  6
CONTINUOUS
 10
6.451739299
 20
4.8328550683
 11
6.451739299
 21
4.7856050683
  0
LINE
  5
2CF
100
AcDbEntity
  8
0
100
AcDbLine
 62
9
  6
CONTINUOUS
 10
6.451739299
 20
4.8328550683
 11
6.451739299
 21
5.0203550683
  0
LINE
  5
2D0
100
AcDbEntity
  8
ALL_FEATURES
100
AcDbLine
 62
9
  6
CONTINUOUS
 10
6.481739299
 20
4.8328550683
 11
6.481739299
 21
4.7856050683
  0
LINE
  5
2D1
100
AcDbEntity
  8
0
100
AcDbLine
 62
9
  6
CONTINUOUS
 10
6.481739299
 20
4.8328550683
 11
6.481739299
 21
5.0203550683
  0
LINE
  5
2D2
100
AcDbEntity
  8
ALL_FEATURES
100
AcDbLine
 62
7
  6
CONTINUOUS
 10
6.702989299
 20
4.8328550683
 11
6.702989299
 21
4.7856050683
  0
LINE
  5
2D3
100
AcDbEntity
  8
0
100
AcDbLine
 62
7
  6
CONTINUOUS
 10
6.796739299
 20
4.8328550683
 11
6.796739299
 21
5.0203550683
  0
ARC
  5
2D4
100
AcDbEntity
  8
0
100
AcDbCircle
 62
7
  6
CONTINUOUS
 10
3.8834089779
 20
-0.8167673288
 40
5.5122506668
100
AcDbArc
 50
88.8381976856
 51
89.1108694697
  0
ARC
  5
2D5
100
AcDbEntity
  8
0
100
AcDbCircle
 62
7
  6
CONTINUOUS
 10
3.9146611302
 20
0.3664240495
 40
4.3284761599
100
AcDbArc
 50
88.697336761
 51
88.8466124559
  0
ARC
  5
2D6
100
AcDbEntity
  8
0
100
AcDbCircle
 62
7
  6
CONTINUOUS
 10
3.9180081605
 20
0.5335702869
 40
4.1612965507
100
AcDbArc
 50
88.9985440706
 51
89.1474615936
  0
ARC
  5
2D7
100
AcDbEntity
  8
0
100
AcDbCircle
 62
7
  6
CONTINUOUS
 10
3.9187026168
 20
0.5731733124
 40
4.121687437
100
AcDbArc
 50
88.8449304483
 51
88.9985743187
  0
ARC
  5
2D8
100
AcDbEntity
  8
0
100
AcDbCircle
 62
7
  6
CONTINUOUS
 10
3.9340257865
 20
1.2244616259
 40
3.4702603097
100
AcDbArc
 50
89.5549315376
 51
89.6931911843
  0
ARC
  5
2D9
100
AcDbEntity
  8
0
100
AcDbCircle
 62
7
  6
CONTINUOUS
 10
3.9222530587
 20
1.7266882573
 40
2.9684979973
100
AcDbArc
 50
89.1996615501
 51
89.3761360011
  0
ARC
  5
2DA
100
AcDbEntity
  8
0
100
AcDbCircle
 62
7
  6
CONTINUOUS
 10
3.9476132012
 20
1.8477360606
 40
2.8469725367
100
AcDbArc
 50
88.3502067698
 51
88.5911820287
  0
ARC
  5
2DB
100
AcDbEntity
  8
0
100
AcDbCircle
 62
7
  6
CONTINUOUS
 10
3.941165649
 20
2.0659244477
 40
2.6287674828
100
AcDbArc
 50
89.1551978847
 51
89.5680809875
  0
ARC
  5
2DC
100
AcDbEntity
  8
0
100
AcDbCircle
 62
7
  6
CONTINUOUS
 10
3.9553983079
 20
2.0704500118
 40
2.6239632331
100
AcDbArc
 50
88.4788509668
 51
88.6468372081
  0
ARC
  5
2DD
100
AcDbEntity
  8
0
100
AcDbCircle
 62
7
  6
CONTINUOUS
 10
3.9261469413
 20
2.1057050979
 40
2.5894612373
100
AcDbArc
 50
89.370976444
 51
89.6489963035
  0
ARC
  5
2DE
100
AcDbEntity
  8
0
100
AcDbCircle
 62
7
  6
CONTINUOUS
 10
3.9280677035
 20
2.4249756902
 40
2.2701848695
100
AcDbArc
 50
89.6481087306
 51
89.8373075771
  0
ARC
  5
2DF
100
AcDbEntity
  8
0
100
AcDbCircle
 62
7
  6
CONTINUOUS
 10
3.9870711281
 20
3.2507189228
 40
1.4432695084
100
AcDbArc
 50
88.2359843001
 51
88.4919638287
  0
ARC
  5
2E0
100
AcDbEntity
  8
0
100
AcDbCircle
 62
7
  6
CONTINUOUS
 10
3.9906855755
 20
3.3492269516
 40
1.3448639982
100
AcDbArc
 50
87.9595493771
 51
88.3427971334
  0
ARC
  5
2E1
100
AcDbEntity
  8
0
100
AcDbCircle
 62
7
  6
CONTINUOUS
 10
4.0069378046
 20
3.8940168058
 40
0.7996649359
100
AcDbArc
 50
88.0455032619
 51
88.2398971662
  0
ARC
  5
2E2
100
AcDbEntity
  8
0
100
AcDbCircle
 62
7
  6
CONTINUOUS
 10
3.9467301919
 20
3.1235401077
 40
0.56325
100
AcDbArc
 50
23.2308920706
 51
53.8077823306
  0
ARC
  5
2E3
100
AcDbEntity
  8
0
100
AcDbCircle
 62
7
  6
CONTINUOUS
 10
3.912989299
 20
2.8474914947
 40
0.56325
100
AcDbArc
 50
24.1181733655
 51
59.7371069019
  0
ARC
  5
2E4
100
AcDbEntity
  8
0
100
AcDbCircle
 62
7
  6
CONTINUOUS
 10
4.188989299
 20
3.4744607634
 40
0.075
100
AcDbArc
 50
180.0
 51
231.4257570771
  0
ARC
  5
2E5
100
AcDbEntity
  8
0
100
AcDbCircle
 62
7
  6
CONTINUOUS
 10
4.2270875735
 20
3.3858063063
 40
0.06
100
AcDbArc
 50
192.094757077
 51
239.7371069019
  0
ARC
  5
2E6
100
AcDbEntity
  8
0
100
AcDbCircle
 62
7
  6
CONTINUOUS
 10
4.1221795474
 20
3.3742533577
 40
0.045
100
AcDbArc
 50
12.094757077
 51
51.425757077
  0
ARC
  5
2E7
100
AcDbEntity
  8
ALL_FEATURES
100
AcDbCircle
 62
7
  6
CONTINUOUS
 10
4.476614299
 20
2.7702901077
 40
0.0375
100
AcDbArc
 50
133.1033950903
 51
180.0
  0
ARC
  5
2E8
100
AcDbEntity
  8
ALL_FEATURES
100
AcDbCircle
 62
7
  6
CONTINUOUS
 10
4.476614299
 20
2.5497901077
 40
0.0375
100
AcDbArc
 50
180.0
 51
270.0000330372
  0
ARC
  5
2E9
100
AcDbEntity
  8
ALL_FEATURES
100
AcDbCircle
 62
7
  6
CONTINUOUS
 10
4.476614299
 20
2.8250401077
 40
0.0375
100
AcDbArc
 50
180.0
 51
270.0000330372
  0
ARC
  5
2EA
100
AcDbEntity
  8
ALL_FEATURES
100
AcDbCircle
 62
7
  6
CONTINUOUS
 10
4.395239299
 20
2.6151765418
 40
0.03
100
AcDbArc
 50
180.0
 51
270.0
  0
ARC
  5
2EB
100
AcDbEntity
  8
ALL_FEATURES
100
AcDbCircle
 62
7
  6
CONTINUOUS
 10
4.395239299
 20
2.7049036736
 40
0.03
100
AcDbArc
 50
90.0
 51
180.0
  0
ARC
  5
2EC
100
AcDbEntity
  8
ALL_FEATURES
100
AcDbCircle
 62
7
  6
CONTINUOUS
 10
4.409114299
 20
2.5556960751
 40
0.03
100
AcDbArc
 50
0.0
 51
79.4067254951
  0
ARC
  5
2ED
100
AcDbEntity
  8
ALL_FEATURES
100
AcDbCircle
 62
7
  6
CONTINUOUS
 10
4.409114299
 20
2.7643841402
 40
0.03
100
AcDbArc
 50
280.5932745042
 51
360.0
  0
ARC
  5
2EE
100
AcDbEntity
  8
ALL_FEATURES
100
AcDbCircle
 62
7
  6
CONTINUOUS
 10
4.395239299
 20
2.8904265418
 40
0.03
100
AcDbArc
 50
180.0
 51
270.0
  0
ARC
  5
2EF
100
AcDbEntity
  8
ALL_FEATURES
100
AcDbCircle
 62
7
  6
CONTINUOUS
 10
4.395239299
 20
2.9801536736
 40
0.03
100
AcDbArc
 50
90.0
 51
180.0
  0
ARC
  5
2F0
100
AcDbEntity
  8
ALL_FEATURES
100
AcDbCircle
 62
7
  6
CONTINUOUS
 10
4.409114299
 20
2.8309460751
 40
0.03
100
AcDbArc
 50
0.0
 51
79.4067254951
  0
ARC
  5
2F1
100
AcDbEntity
  8
0
100
AcDbCircle
 62
7
  6
CONTINUOUS
 10
4.323614299
 20
3.6386337228
 40
0.075
100
AcDbArc
 50
180.0
 51
233.8077823306
  0
ARC
  5
2F2
100
AcDbEntity
  8
ALL_FEATURES
100
AcDbCircle
 62
7
  6
CONTINUOUS
 10
4.471739299
 20
3.1085271307
 40
0.0562370231
100
AcDbArc
 50
236.128659452
 51
238.4207467351
  0
ARC
  5
2F3
100
AcDbEntity
  8
0
100
AcDbCircle
 62
7
  6
CONTINUOUS
 10
4.452989299
 20
3.1245850909
 40
0.045
100
AcDbArc
 50
286.6403769358
 51
360.0
  0
ARC
  5
2F4
100
AcDbEntity
  8
0
100
AcDbCircle
 62
7
  6
CONTINUOUS
 10
4.452989299
 20
3.1914663563
 40
0.045
100
AcDbArc
 50
0.0
 51
66.1088728592
  0
ARC
  5
2F5
100
AcDbEntity
  8
ALL_FEATURES
100
AcDbCircle
 62
7
  6
CONTINUOUS
 10
4.476614299
 20
3.0455401077
 40
0.0375
100
AcDbArc
 50
106.6403769358
 51
180.0
  0
ARC
  5
2F6
100
AcDbEntity
  8
0
100
AcDbCircle
 62
7
  6
CONTINUOUS
 10
4.4612965965
 20
3.092969946
 40
0.0375
100
AcDbArc
 50
204.1181733656
 51
236.1286594521
  0
ARC
  5
2F7
100
AcDbEntity
  8
ALL_FEATURES
100
AcDbCircle
 62
7
  6
CONTINUOUS
 10
4.409114299
 20
3.0396341402
 40
0.03
100
AcDbArc
 50
280.5932745042
 51
360.0
  0
ARC
  5
2F8
100
AcDbEntity
  8
ALL_FEATURES
100
AcDbCircle
 62
7
  6
CONTINUOUS
 10
4.483364299
 20
3.2600401077
 40
0.03
100
AcDbArc
 50
89.9999999148
 51
246.1088728592
  0
ARC
  5
2F9
100
AcDbEntity
  8
0
100
AcDbCircle
 62
7
  6
CONTINUOUS
 10
4.4918811458
 20
3.3575401077
 40
0.03
100
AcDbArc
 50
203.2308920706
 51
270.0
  0
ARC
  5
2FA
100
AcDbEntity
  8
ALL_FEATURES
100
AcDbCircle
 62
9
  6
CONTINUOUS
 10
4.7248731478
 20
2.7170964737
 40
0.0950563702
100
AcDbArc
 50
355.3896662602
 51
355.9454511197
  0
ARC
  5
2FB
100
AcDbEntity
  8
ALL_FEATURES
100
AcDbCircle
 62
9
  6
CONTINUOUS
 10
4.7248731479
 20
2.4418464737
 40
0.0950563702
100
AcDbArc
 50
355.3896662602
 51
355.9454511198
  0
ARC
  5
2FC
100
AcDbEntity
  8
ALL_FEATURES
100
AcDbCircle
 62
9
  6
CONTINUOUS
 10
4.650285919
 20
2.4016540638
 40
0.0293366808
100
AcDbArc
 50
16.6863545287
 51
17.2761798491
  0
ARC
  5
2FD
100
AcDbEntity
  8
ALL_FEATURES
100
AcDbCircle
 62
9
  6
CONTINUOUS
 10
4.650285919
 20
2.6769040638
 40
0.0293366808
100
AcDbArc
 50
16.6863545288
 51
17.276179849
  0
ARC
  5
2FE
100
AcDbEntity
  8
0
100
AcDbCircle
 62
7
  6
CONTINUOUS
 10
3.8800239479
 20
8.6988775651
 40
4.0029769181
100
AcDbArc
 50
270.3132041652
 51
270.5724981095
  0
ARC
  5
2FF
100
AcDbEntity
  8
0
100
AcDbCircle
 62
7
  6
CONTINUOUS
 10
4.0766210876
 20
8.2159349726
 40
3.5237015342
100
AcDbArc
 50
268.7036636598
 51
268.8451901511
  0
ARC
  5
300
100
AcDbEntity
  8
0
100
AcDbCircle
 62
7
  6
CONTINUOUS
 10
4.0141024526
 20
4.0188334388
 40
0.6748484302
100
AcDbArc
 50
87.7232976724
 51
87.8830364257
  0
ARC
  5
301
100
AcDbEntity
  8
0
100
AcDbCircle
 62
7
  6
CONTINUOUS
 10
4.0166997469
 20
4.1789419289
 40
0.5145726369
100
AcDbArc
 50
87.8966493562
 51
88.0498087191
  0
ARC
  5
302
100
AcDbEntity
  8
0
100
AcDbCircle
 62
7
  6
CONTINUOUS
 10
4.0180719341
 20
5.1854390413
 40
0.4926395561
100
AcDbArc
 50
269.0520255252
 51
269.7963779377
  0
ARC
  5
303
100
AcDbEntity
  8
0
100
AcDbCircle
 62
7
  6
CONTINUOUS
 10
5.144864299
 20
3.6386337228
 40
0.075
100
AcDbArc
 50
306.1922176694
 51
360.0
  0
ARC
  5
304
100
AcDbEntity
  8
ALL_FEATURES
100
AcDbCircle
 62
7
  6
CONTINUOUS
 10
4.996739299
 20
3.1085271307
 40
0.0562370231
100
AcDbArc
 50
301.5792538092
 51
303.871340548
  0
ARC
  5
305
100
AcDbEntity
  8
0
100
AcDbCircle
 62
7
  6
CONTINUOUS
 10
5.015489299
 20
3.1245850909
 40
0.045
100
AcDbArc
 50
180.0
 51
253.3596230642
  0
ARC
  5
306
100
AcDbEntity
  8
0
100
AcDbCircle
 62
7
  6
CONTINUOUS
 10
5.015489299
 20
3.1914663563
 40
0.045
100
AcDbArc
 50
113.8911271408
 51
180.0
  0
ARC
  5
307
100
AcDbEntity
  8
ALL_FEATURES
100
AcDbCircle
 62
7
  6
CONTINUOUS
 10
4.991864299
 20
2.7702901077
 40
0.0375
100
AcDbArc
 50
0.0
 51
46.8966049097
  0
ARC
  5
308
100
AcDbEntity
  8
ALL_FEATURES
100
AcDbCircle
 62
7
  6
CONTINUOUS
 10
4.991864299
 20
2.5497901077
 40
0.0375
100
AcDbArc
 50
269.9999870873
 51
360.0
  0
ARC
  5
309
100
AcDbEntity
  8
ALL_FEATURES
100
AcDbCircle
 62
7
  6
CONTINUOUS
 10
4.991864299
 20
3.0455401077
 40
0.0375
100
AcDbArc
 50
0.0
 51
73.3596230642
  0
ARC
  5
30A
100
AcDbEntity
  8
ALL_FEATURES
100
AcDbCircle
 62
7
  6
CONTINUOUS
 10
4.991864299
 20
2.8250401077
 40
0.0375
100
AcDbArc
 50
269.9999870873
 51
360.0
  0
ARC
  5
30B
100
AcDbEntity
  8
0
100
AcDbCircle
 62
7
  6
CONTINUOUS
 10
5.0071820016
 20
3.092969946
 40
0.0375
100
AcDbArc
 50
303.871340548
 51
335.8818266344
  0
ARC
  5
30C
100
AcDbEntity
  8
ALL_FEATURES
100
AcDbCircle
 62
7
  6
CONTINUOUS
 10
5.073239299
 20
2.6151765418
 40
0.03
100
AcDbArc
 50
270.0
 51
360.0
  0
ARC
  5
30D
100
AcDbEntity
  8
ALL_FEATURES
100
AcDbCircle
 62
7
  6
CONTINUOUS
 10
5.073239299
 20
2.7049036736
 40
0.03
100
AcDbArc
 50
0.0
 51
90.0
  0
ARC
  5
30E
100
AcDbEntity
  8
ALL_FEATURES
100
AcDbCircle
 62
7
  6
CONTINUOUS
 10
5.059364299
 20
2.5556960751
 40
0.03
100
AcDbArc
 50
100.5932745049
 51
180.0
  0
ARC
  5
30F
100
AcDbEntity
  8
ALL_FEATURES
100
AcDbCircle
 62
7
  6
CONTINUOUS
 10
5.059364299
 20
2.7643841402
 40
0.03
100
AcDbArc
 50
180.0
 51
259.4067254958
  0
ARC
  5
310
100
AcDbEntity
  8
ALL_FEATURES
100
AcDbCircle
 62
7
  6
CONTINUOUS
 10
5.073239299
 20
2.8904265418
 40
0.03
100
AcDbArc
 50
270.0
 51
360.0
  0
ARC
  5
311
100
AcDbEntity
  8
ALL_FEATURES
100
AcDbCircle
 62
7
  6
CONTINUOUS
 10
5.073239299
 20
2.9801536736
 40
0.03
100
AcDbArc
 50
0.0
 51
90.0
  0
ARC
  5
312
100
AcDbEntity
  8
ALL_FEATURES
100
AcDbCircle
 62
7
  6
CONTINUOUS
 10
5.059364299
 20
2.8309460751
 40
0.03
100
AcDbArc
 50
100.5932745049
 51
180.0
  0
ARC
  5
313
100
AcDbEntity
  8
ALL_FEATURES
100
AcDbCircle
 62
7
  6
CONTINUOUS
 10
5.059364299
 20
3.0396341402
 40
0.03
100
AcDbArc
 50
180.0
 51
259.4067254958
  0
ARC
  5
314
100
AcDbEntity
  8
ALL_FEATURES
100
AcDbCircle
 62
7
  6
CONTINUOUS
 10
4.985114299
 20
3.2600401077
 40
0.03
100
AcDbArc
 50
293.8911271408
 51
90.0000000852
  0
ARC
  5
315
100
AcDbEntity
  8
0
100
AcDbCircle
 62
7
  6
CONTINUOUS
 10
4.9765974522
 20
3.3575401077
 40
0.03
100
AcDbArc
 50
270.0
 51
336.7691079294
  0
ARC
  5
316
100
AcDbEntity
  8
ALL_FEATURES
100
AcDbCircle
 62
9
  6
CONTINUOUS
 10
4.8181925628
 20
2.4016541624
 40
0.0293369545
100
AcDbArc
 50
162.7239663212
 51
163.3118561303
  0
ARC
  5
317
100
AcDbEntity
  8
ALL_FEATURES
100
AcDbCircle
 62
9
  6
CONTINUOUS
 10
4.8181925628
 20
2.6769041624
 40
0.0293369545
100
AcDbArc
 50
162.7239663211
 51
163.3118561301
  0
ARC
  5
318
100
AcDbEntity
  8
0
100
AcDbCircle
 62
7
  6
CONTINUOUS
 10
5.5746277874
 20
-0.8983982506
 40
5.5931966128
100
AcDbArc
 50
90.7207102464
 51
90.8884286319
  0
ARC
  5
319
100
AcDbEntity
  8
0
100
AcDbCircle
 62
7
  6
CONTINUOUS
 10
5.63593718
 20
0.3728562627
 40
4.323555693
100
AcDbArc
 50
91.119733813
 51
91.2846436402
  0
ARC
  5
31A
100
AcDbEntity
  8
0
100
AcDbCircle
 62
7
  6
CONTINUOUS
 10
5.5578702585
 20
0.3904405024
 40
4.3042596149
100
AcDbArc
 50
91.1294499749
 51
91.2816820616
  0
ARC
  5
31B
100
AcDbEntity
  8
0
100
AcDbCircle
 62
7
  6
CONTINUOUS
 10
5.5591766293
 20
0.5535746567
 40
4.1410432974
100
AcDbArc
 50
90.9455660063
 51
91.1219513709
  0
ARC
  5
31C
100
AcDbEntity
  8
0
100
AcDbCircle
 62
7
  6
CONTINUOUS
 10
5.5522081825
 20
0.9162527473
 40
3.7782982949
100
AcDbArc
 50
91.1239880368
 51
91.2438977598
  0
ARC
  5
31D
100
AcDbEntity
  8
0
100
AcDbCircle
 62
7
  6
CONTINUOUS
 10
5.5470287963
 20
0.927008089
 40
3.767582586
100
AcDbArc
 50
91.0100768817
 51
91.1254520951
  0
ARC
  5
31E
100
AcDbEntity
  8
0
100
AcDbCircle
 62
7
  6
CONTINUOUS
 10
5.523952817
 20
2.1565104036
 40
2.5377189329
100
AcDbArc
 50
91.2731025471
 51
91.5780278888
  0
ARC
  5
31F
100
AcDbEntity
  8
0
100
AcDbCircle
 62
7
  6
CONTINUOUS
 10
5.5894564167
 20
2.3415967818
 40
2.3542669502
100
AcDbArc
 50
91.2995696911
 51
91.6087728001
  0
ARC
  5
320
100
AcDbEntity
  8
0
100
AcDbCircle
 62
7
  6
CONTINUOUS
 10
5.601946449
 20
2.4329609247
 40
2.2631677575
100
AcDbArc
 50
90.7219976219
 51
90.8975565724
  0
ARC
  5
321
100
AcDbEntity
  8
0
100
AcDbCircle
 62
7
  6
CONTINUOUS
 10
5.6013958138
 20
2.4570919639
 40
2.2389218383
100
AcDbArc
 50
90.8873210506
 51
91.3013202554
  0
ARC
  5
322
100
AcDbEntity
  8
0
100
AcDbCircle
 62
7
  6
CONTINUOUS
 10
5.5916120984
 20
2.8637702031
 40
1.8321263764
100
AcDbArc
 50
91.2842647229
 51
91.6153136489
  0
ARC
  5
323
100
AcDbEntity
  8
0
100
AcDbCircle
 62
7
  6
CONTINUOUS
 10
5.5626817734
 20
3.3522276883
 40
1.3432836798
100
AcDbArc
 50
91.6774050154
 51
92.1459877138
  0
ARC
  5
324
100
AcDbEntity
  8
0
100
AcDbCircle
 62
7
  6
CONTINUOUS
 10
5.5897441261
 20
3.3847680857
 40
1.3112824209
100
AcDbArc
 50
90.514302948
 51
90.7129211843
  0
ARC
  5
325
100
AcDbEntity
  8
0
100
AcDbCircle
 62
7
  6
CONTINUOUS
 10
5.5739919207
 20
3.4940575457
 40
1.201592584
100
AcDbArc
 50
91.7317314345
 51
92.0163923709
  0
ARC
  5
326
100
AcDbEntity
  8
0
100
AcDbCircle
 62
7
  6
CONTINUOUS
 10
5.4852718892
 20
3.5976551395
 40
1.0960560204
100
AcDbArc
 50
91.6313697767
 51
91.768561284
  0
ARC
  5
327
100
AcDbEntity
  8
0
100
AcDbCircle
 62
7
  6
CONTINUOUS
 10
5.5639138504
 20
3.7843525128
 40
0.9111227771
100
AcDbArc
 50
92.0253421939
 51
92.3266155734
  0
ARC
  5
328
100
AcDbEntity
  8
0
100
AcDbCircle
 62
7
  6
CONTINUOUS
 10
5.5217484061
 20
3.1235401077
 40
0.56325
100
AcDbArc
 50
126.1922176694
 51
156.7691079294
  0
ARC
  5
329
100
AcDbEntity
  8
0
100
AcDbCircle
 62
7
  6
CONTINUOUS
 10
5.555489299
 20
2.8474914947
 40
0.56325
100
AcDbArc
 50
120.2628930981
 51
155.8818266345
  0
ARC
  5
32A
100
AcDbEntity
  8
0
100
AcDbCircle
 62
7
  6
CONTINUOUS
 10
5.279489299
 20
3.4744607634
 40
0.075
100
AcDbArc
 50
308.5742429229
 51
360.0
  0
ARC
  5
32B
100
AcDbEntity
  8
0
100
AcDbCircle
 62
7
  6
CONTINUOUS
 10
5.2418211599
 20
3.8709725468
 40
0.0693674786
100
AcDbArc
 50
269.9963980156
 51
274.168907223
  0
ARC
  5
32C
100
AcDbEntity
  8
0
100
AcDbCircle
 62
7
  6
CONTINUOUS
 10
5.2418235001
 20
3.870908194
 40
0.069303126
100
AcDbArc
 50
269.9944599293
 51
274.1708453092
  0
ARC
  5
32D
100
AcDbEntity
  8
0
100
AcDbCircle
 62
7
  6
CONTINUOUS
 10
5.2413910245
 20
3.3858063063
 40
0.06
100
AcDbArc
 50
300.2628930981
 51
347.905242923
  0
ARC
  5
32E
100
AcDbEntity
  8
0
100
AcDbCircle
 62
7
  6
CONTINUOUS
 10
5.3462990506
 20
3.3742533577
 40
0.045
100
AcDbArc
 50
128.574242923
 51
167.905242923
  0
ARC
  5
32F
100
AcDbEntity
  8
0
100
AcDbCircle
 62
7
  6
CONTINUOUS
 10
5.6014073428
 20
7.4585516674
 40
2.762650009
100
AcDbArc
 50
270.1044776049
 51
270.3142560795
  0
ARC
  5
330
100
AcDbEntity
  8
0
100
AcDbCircle
 62
7
  6
CONTINUOUS
 10
5.4743302014
 20
5.8647534687
 40
1.171209792
100
AcDbArc
 50
271.62017782
 51
272.0543221143
  0
ARC
  5
331
100
AcDbEntity
  8
0
100
AcDbCircle
 62
7
  6
CONTINUOUS
 10
5.4873246816
 20
5.5090643808
 40
0.8152831861
100
AcDbArc
 50
272.1264979583
 51
272.4450590245
  0
ARC
  5
332
100
AcDbEntity
  8
0
100
AcDbCircle
 62
7
  6
CONTINUOUS
 10
5.4737710879
 20
3.9713076253
 40
0.7222265853
100
AcDbArc
 50
91.7714535959
 51
91.9543800605
  0
ARC
  5
333
100
AcDbEntity
  8
0
100
AcDbCircle
 62
7
  6
CONTINUOUS
 10
5.5608966024
 20
5.3468864981
 40
0.6515073441
100
AcDbArc
 50
271.4980655407
 51
272.0198471724
  0
ARC
  5
334
100
AcDbEntity
  8
0
100
AcDbCircle
 62
7
  6
CONTINUOUS
 10
5.4497651951
 20
4.4255043047
 40
0.2677081715
100
AcDbArc
 50
92.2181604395
 51
92.5138529005
  0
ARC
  5
335
100
AcDbEntity
  8
0
100
AcDbCircle
 62
7
  6
CONTINUOUS
 10
5.575399438
 20
4.9331385254
 40
0.2375052965
100
AcDbArc
 50
272.0413186864
 51
272.257908356
  0
ARC
  5
336
100
AcDbEntity
  8
0
100
AcDbCircle
 62
7
  6
CONTINUOUS
 10
5.5832814066
 20
4.4858777696
 40
0.2101451708
100
AcDbArc
 50
89.6132850332
 51
89.785569881
  0
ARC
  5
337
100
AcDbEntity
  8
0
100
AcDbCircle
 62
7
  6
CONTINUOUS
 10
5.5837017852
 20
4.5464647873
 40
0.1495566962
100
AcDbArc
 50
89.2753084995
 51
89.6176689343
  0
ARC
  5
338
100
AcDbEntity
  8
0
100
AcDbCircle
 62
7
  6
CONTINUOUS
 10
5.4469366945
 20
4.8094188991
 40
0.1165525799
100
AcDbArc
 50
269.5841571944
 51
270.2294810301
  0
ARC
  5
339
100
AcDbEntity
  8
0
100
AcDbCircle
 62
7
  6
CONTINUOUS
 10
5.2849493205
 20
3.9141007074
 40
0.0693674786
100
AcDbArc
 50
355.8310920192
 51
0.0036019849
  0
ARC
  5
33A
100
AcDbEntity
  8
0
100
AcDbCircle
 62
7
  6
CONTINUOUS
 10
5.2850136733
 20
3.9140983672
 40
0.069303126
100
AcDbArc
 50
355.8291539349
 51
0.0055400692
  0
ARC
  5
33B
100
AcDbEntity
  8
0
100
AcDbCircle
 62
7
  6
CONTINUOUS
 10
5.5766362509
 20
4.6459740081
 40
0.0498740476
100
AcDbArc
 50
89.0968792828
 51
89.65995208
  0
SPLINE
  5
33C
100
AcDbEntity
  8
ALL_FEATURES
100
AcDbSpline
 62
9
  6
CONTINUOUS
 70
0
 71
3
 72
20
 73
16
 74
0
 42
0.0000001
 43
0.0000001
 44
0.0000000001
 40
0.0
 40
0.0
 40
0.0
 40
0.0
 40
0.0670376233
 40
0.1339661245
 40
0.2664304859
 40
0.3318253063
 40
0.3965008086
 40
0.4603707091
 40
0.5233727677
 40
0.6465748716
 40
0.7664515421
 40
0.8254299578
 40
0.8839087841
 40
0.9420606309
 40
1.0
 40
1.0
 40
1.0
 40
1.0
 10
4.7502735455
 20
2.3449859098
 30
0.0
 10
4.7514745761
 20
2.3449625619
 30
0.0
 10
4.7538780521
 20
2.3450162734
 30
0.0
 10
4.758629622
 20
2.3455173451
 30
0.0
 10
4.7632755927
 20
2.3466090957
 30
0.0
 10
4.7676809722
 20
2.3482728696
 30
0.0
 10
4.7708151934
 20
2.3497852894
 30
0.0
 10
4.7737637628
 20
2.3515520941
 30
0.0
 10
4.777380827
 20
2.3542063513
 30
0.0
 10
4.7813250499
 20
2.3580707456
 30
0.0
 10
4.7843718729
 20
2.3625956379
 30
0.0
 10
4.7861543601
 20
2.3664646685
 30
0.0
 10
4.7871561802
 20
2.3694546936
 30
0.0
 10
4.7878167743
 20
2.3725185191
 30
0.0
 10
4.7880276853
 20
2.3745931622
 30
0.0
 10
4.7880749333
 20
2.3756303111
 30
0.0
  0
SPLINE
  5
33D
100
AcDbEntity
  8
ALL_FEATURES
100
AcDbSpline
 62
9
  6
CONTINUOUS
 70
0
 71
3
 72
19
 73
15
 74
0
 42
0.0000001
 43
0.0000001
 44
0.0000000001
 40
0.0
 40
0.0
 40
0.0
 40
0.0
 40
0.1272840094
 40
0.1908299483
 40
0.254175408
 40
0.3173184286
 40
0.3802657776
 40
0.4430207711
 40
0.5055769723
 40
0.6299919822
 40
0.6919887567
 40
0.7538355914
 40
0.8770569913
 40
1.0
 40
1.0
 40
1.0
 40
1.0
 10
4.7655569592
 20
2.4683245482
 30
0.0
 10
4.7676113134
 20
2.4682570278
 30
0.0
 10
4.7707069082
 20
2.468403013
 30
0.0
 10
4.7747571436
 20
2.469087114
 30
0.0
 10
4.7777351988
 20
2.4698428882
 30
0.0
 10
4.7806326994
 20
2.470834401
 30
0.0
 10
4.7834307339
 20
2.4720557916
 30
0.0
 10
4.7861105914
 20
2.4734990504
 30
0.0
 10
4.78949461
 20
2.4756988822
 30
0.0
 10
4.7925823167
 20
2.4783089502
 30
0.0
 10
4.7952954362
 20
2.4812656646
 30
0.0
 10
4.7977360902
 20
2.4844273326
 30
0.0
 10
4.8002637113
 20
2.488740291
 30
0.0
 10
4.8016643297
 20
2.4924848783
 30
0.0
 10
4.8021979184
 20
2.4943971927
 30
0.0
  0
SPLINE
  5
33E
100
AcDbEntity
  8
ALL_FEATURES
100
AcDbSpline
 62
9
  6
CONTINUOUS
 70
0
 71
3
 72
19
 73
15
 74
0
 42
0.0000001
 43
0.0000001
 44
0.0000000001
 40
0.0
 40
0.0
 40
0.0
 40
0.0
 40
0.1272842327
 40
0.1908302466
 40
0.2541757497
 40
0.3173187913
 40
0.3802661419
 40
0.4430211102
 40
0.5055772569
 40
0.6299920871
 40
0.691988783
 40
0.7538355534
 40
0.877056848
 40
1.0
 40
1.0
 40
1.0
 40
1.0
 10
4.7029216384
 20
2.4683245747
 30
0.0
 10
4.700867037
 20
2.4682570482
 30
0.0
 10
4.6977710677
 20
2.4684030836
 30
0.0
 10
4.6937203633
 20
2.4690873697
 30
0.0
 10
4.6907419788
 20
2.4698433393
 30
0.0
 10
4.6878441776
 20
2.4708351012
 30
0.0
 10
4.6850458787
 20
2.4720567926
 30
0.0
 10
4.6823657984
 20
2.4735003981
 30
0.0
 10
4.6789815489
 20
2.4757007466
 30
0.0
 10
4.6758937163
 20
2.478311409
 30
0.0
 10
4.6731805983
 20
2.4812687647
 30
0.0
 10
4.6707400339
 20
2.4844310963
 30
0.0
 10
4.6682126924
 20
2.4887449121
 30
0.0
 10
4.6668124925
 20
2.4924901688
 30
0.0
 10
4.6662791597
 20
2.4944028013
 30
0.0
  0
LINE
  5
33F
100
AcDbEntity
  8
ALL_FEATURES
100
AcDbLine
 62
9
  6
CONTINUOUS
 10
4.6492189342
 20
2.4311928667
 11
4.6497736999
 21
2.4308074338
  0
LINE
  5
340
100
AcDbEntity
  8
ALL_FEATURES
100
AcDbLine
 62
9
  6
CONTINUOUS
 10
4.6497736999
 20
2.4308074338
 11
4.6499372868
 21
2.4307856207
  0
LINE
  5
341
100
AcDbEntity
  8
ALL_FEATURES
100
AcDbLine
 62
9
  6
CONTINUOUS
 10
4.8192596638
 20
2.4311928668
 11
4.8195551639
 21
2.430794714
  0
SPLINE
  5
342
100
AcDbEntity
  8
ALL_FEATURES
100
AcDbSpline
 62
9
  6
CONTINUOUS
 70
0
 71
3
 72
9
 73
5
 74
0
 42
0.0000001
 43
0.0000001
 44
0.0000000001
 40
0.0
 40
0.0
 40
0.0
 40
0.0
 40
0.2568231113
 40
1.0
 40
1.0
 40
1.0
 40
1.0
 10
4.8195551639
 20
2.430794714
 30
0.0
 10
4.8195593737
 20
2.4307932463
 30
0.0
 10
4.819575972
 20
2.4307881513
 30
0.0
 10
4.8195934247
 20
2.4307857664
 30
0.0
 10
4.8196063257
 20
2.4307857406
 30
0.0
  0
SPLINE
  5
343
100
AcDbEntity
  8
ALL_FEATURES
100
AcDbSpline
 62
9
  6
CONTINUOUS
 70
0
 71
3
 72
9
 73
5
 74
0
 42
0.0000001
 43
0.0000001
 44
0.0000000001
 40
0.0
 40
0.0
 40
0.0
 40
0.0
 40
0.5162763983
 40
1.0
 40
1.0
 40
1.0
 40
1.0
 10
4.8196916257
 20
2.435124976
 30
0.0
 10
4.8202914591
 20
2.4415019678
 30
0.0
 10
4.8215673151
 20
2.4538435324
 30
0.0
 10
4.8231167053
 20
2.4661542441
 30
0.0
 10
4.8239462034
 20
2.4720979178
 30
0.0
  0
LINE
  5
344
100
AcDbEntity
  8
ALL_FEATURES
100
AcDbLine
 62
9
  6
CONTINUOUS
 10
4.8192596173
 20
2.4311930105
 11
4.8194790746
 21
2.4326698487
  0
LINE
  5
345
100
AcDbEntity
  8
ALL_FEATURES
100
AcDbLine
 62
9
  6
CONTINUOUS
 10
4.8194790746
 20
2.4326698487
 11
4.8196219534
 21
2.4342059662
  0
LINE
  5
346
100
AcDbEntity
  8
ALL_FEATURES
100
AcDbLine
 62
9
  6
CONTINUOUS
 10
4.6487869885
 20
2.4351254001
 11
4.6492189807
 21
2.4311930105
  0
SPLINE
  5
347
100
AcDbEntity
  8
ALL_FEATURES
100
AcDbSpline
 62
9
  6
CONTINUOUS
 70
0
 71
3
 72
9
 73
5
 74
0
 42
0.0000001
 43
0.0000001
 44
0.0000000001
 40
0.0
 40
0.0
 40
0.0
 40
0.0
 40
0.483723596
 40
1.0
 40
1.0
 40
1.0
 40
1.0
 10
4.6445323946
 20
2.4720979181
 30
0.0
 10
4.6453618926
 20
2.4661542442
 30
0.0
 10
4.6469112829
 20
2.4538435321
 30
0.0
 10
4.6481871395
 20
2.4415019673
 30
0.0
 10
4.6487869723
 20
2.4351249751
 30
0.0
  0
LINE
  5
348
100
AcDbEntity
  8
ALL_FEATURES
100
AcDbLine
 62
9
  6
CONTINUOUS
 10
4.7501919045
 20
2.3352901616
 11
4.7502735455
 21
2.3449859119
  0
SPLINE
  5
349
100
AcDbEntity
  8
ALL_FEATURES
100
AcDbSpline
 62
9
  6
CONTINUOUS
 70
0
 71
3
 72
17
 73
13
 74
0
 42
0.0000001
 43
0.0000001
 44
0.0000000001
 40
0.0
 40
0.0
 40
0.0
 40
0.0
 40
0.1293803133
 40
0.2582020799
 40
0.3858135275
 40
0.5119616135
 40
0.6364169968
 40
0.7591099171
 40
0.8198738023
 40
0.8802525133
 40
0.940279057
 40
1.0
 40
1.0
 40
1.0
 40
1.0
 10
4.6445323961
 20
2.4720978871
 30
0.0
 10
4.6460809737
 20
2.4721895322
 30
0.0
 10
4.6491889351
 20
2.4721525742
 30
0.0
 10
4.653775003
 20
2.4714398696
 30
0.0
 10
4.6581743284
 20
2.4700831324
 30
0.0
 10
4.6622789403
 20
2.4681155099
 30
0.0
 10
4.6659910705
 20
2.4655841686
 30
0.0
 10
4.6686931017
 20
2.4630434993
 30
0.0
 10
4.670567184
 20
2.4607960588
 30
0.0
 10
4.6718199552
 20
2.459018351
 30
0.0
 10
4.672916226
 20
2.4571548337
 30
0.0
 10
4.673539298
 20
2.4558590679
 30
0.0
 10
4.6738222048
 20
2.4552012621
 30
0.0
  0
SPLINE
  5
34A
100
AcDbEntity
  8
ALL_FEATURES
100
AcDbSpline
 62
9
  6
CONTINUOUS
 70
0
 71
3
 72
18
 73
14
 74
0
 42
0.0000001
 43
0.0000001
 44
0.0000000001
 40
0.0
 40
0.0
 40
0.0
 40
0.0
 40
0.1313782307
 40
0.2618288951
 40
0.3905314193
 40
0.5170736895
 40
0.5794776131
 40
0.6412496011
 40
0.7023959206
 40
0.7629400795
 40
0.8229215449
 40
0.8823904217
 40
1.0
 40
1.0
 40
1.0
 40
1.0
 10
4.6487869938
 20
2.435125532
 30
0.0
 10
4.650441234
 20
2.4351559941
 30
0.0
 10
4.6537476353
 20
2.4349743105
 30
0.0
 10
4.6585824394
 20
2.4339808968
 30
0.0
 10
4.6631561711
 20
2.4322906726
 30
0.0
 10
4.6666639177
 20
2.4303294414
 30
0.0
 10
4.6692140195
 20
2.4284625312
 30
0.0
 10
4.6709790626
 20
2.4269313079
 30
0.0
 10
4.672592682
 20
2.4252737909
 30
0.0
 10
4.6740428904
 20
2.4235005724
 30
0.0
 10
4.675320753
 20
2.4216244097
 30
0.0
 10
4.6767762182
 20
2.4190147955
 30
0.0
 10
4.6775940134
 20
2.416922273
 30
0.0
 10
4.6780019073
 20
2.415498422
 30
0.0
  0
SPLINE
  5
34B
100
AcDbEntity
  8
ALL_FEATURES
100
AcDbSpline
 62
9
  6
CONTINUOUS
 70
0
 71
3
 72
15
 73
11
 74
0
 42
0.0000001
 43
0.0000001
 44
0.0000000001
 40
0.0
 40
0.0
 40
0.0
 40
0.0
 40
0.1256166117
 40
0.251177953
 40
0.3764770021
 40
0.5015774501
 40
0.6264526293
 40
0.7511223798
 40
0.875624247
 40
1.0
 40
1.0
 40
1.0
 40
1.0
 10
4.6492189114
 20
2.4311930161
 30
0.0
 10
4.6508233355
 20
2.4312223007
 30
0.0
 10
4.654041951
 20
2.4310243854
 30
0.0
 10
4.6587538069
 20
2.4299680712
 30
0.0
 10
4.6632321691
 20
2.4281761356
 30
0.0
 10
4.6673593302
 20
2.4256969291
 30
0.0
 10
4.6710296838
 20
2.4225932774
 30
0.0
 10
4.6741480835
 20
2.4189450177
 30
0.0
 10
4.6766337068
 20
2.4148482149
 30
0.0
 10
4.6778272066
 20
2.4118835687
 30
0.0
 10
4.6782990564
 20
2.4103664101
 30
0.0
  0
LINE
  5
34C
100
AcDbEntity
  8
ALL_FEATURES
100
AcDbLine
 62
9
  6
CONTINUOUS
 10
4.6488722723
 20
2.4307857406
 11
4.6492189342
 21
2.4311928667
  0
SPLINE
  5
34D
100
AcDbEntity
  8
ALL_FEATURES
100
AcDbSpline
 62
9
  6
CONTINUOUS
 70
0
 71
3
 72
15
 73
11
 74
0
 42
0.0000001
 43
0.0000001
 44
0.0000000001
 40
0.0
 40
0.0
 40
0.0
 40
0.0
 40
0.1256164942
 40
0.2511777431
 40
0.3764767206
 40
0.5015771221
 40
0.6264522918
 40
0.7511220839
 40
0.8756240595
 40
1.0
 40
1.0
 40
1.0
 40
1.0
 10
4.819259631
 20
2.4311934574
 30
0.0
 10
4.8176551875
 20
2.4312227336
 30
0.0
 10
4.8144365342
 20
2.4310248017
 30
0.0
 10
4.809724624
 20
2.4299684615
 30
0.0
 10
4.8052462092
 20
2.4281764972
 30
0.0
 10
4.8011189978
 20
2.4256972568
 30
0.0
 10
4.7974485978
 20
2.4225935638
 30
0.0
 10
4.7943301585
 20
2.4189452536
 30
0.0
 10
4.7918445054
 20
2.4148483911
 30
0.0
 10
4.7906509947
 20
2.4118837002
 30
0.0
 10
4.790179142
 20
2.4103665185
 30
0.0
  0
SPLINE
  5
34E
100
AcDbEntity
  8
ALL_FEATURES
100
AcDbSpline
 62
9
  6
CONTINUOUS
 70
0
 71
3
 72
18
 73
14
 74
0
 42
0.0000001
 43
0.0000001
 44
0.0000000001
 40
0.0
 40
0.0
 40
0.0
 40
0.0
 40
0.1313777739
 40
0.2618281016
 40
0.3905304045
 40
0.5170725918
 40
0.5794765285
 40
0.6412485695
 40
0.7023949832
 40
0.762939274
 40
0.8229209082
 40
0.8823899852
 40
1.0
 40
1.0
 40
1.0
 40
1.0
 10
4.8196916306
 20
2.4351250268
 30
0.0
 10
4.8180374837
 20
2.4351554774
 30
0.0
 10
4.8147312696
 20
2.434973798
 30
0.0
 10
4.8098967301
 20
2.4339804698
 30
0.0
 10
4.8053232263
 20
2.4322904036
 30
0.0
 10
4.8018156268
 20
2.4303293574
 30
0.0
 10
4.7992656061
 20
2.4284626209
 30
0.0
 10
4.7975006039
 20
2.426931537
 30
0.0
 10
4.7958870039
 20
2.4252741678
 30
0.0
 10
4.794436792
 20
2.4235011031
 30
0.0
 10
4.7931589023
 20
2.4216250972
 30
0.0
 10
4.791703367
 20
2.4190156923
 30
0.0
 10
4.7908854813
 20
2.4169233266
 30
0.0
 10
4.7904775089
 20
2.4154995741
 30
0.0
  0
SPLINE
  5
34F
100
AcDbEntity
  8
ALL_FEATURES
100
AcDbSpline
 62
9
  6
CONTINUOUS
 70
0
 71
3
 72
17
 73
13
 74
0
 42
0.0000001
 43
0.0000001
 44
0.0000000001
 40
0.0
 40
0.0
 40
0.0
 40
0.0
 40
0.1293805248
 40
0.2582024523
 40
0.3858139939
 40
0.5119620938
 40
0.6364174023
 40
0.7591101866
 40
0.8198739975
 40
0.8802526334
 40
0.9402791069
 40
1.0
 40
1.0
 40
1.0
 40
1.0
 10
4.8239462035
 20
2.4720979186
 30
0.0
 10
4.8223975708
 20
2.4721895672
 30
0.0
 10
4.8192894984
 20
2.4721526006
 30
0.0
 10
4.8147032733
 20
2.4714398364
 30
0.0
 10
4.8103038114
 20
2.4700829956
 30
0.0
 10
4.8061990945
 20
2.4681152301
 30
0.0
 10
4.8024869007
 20
2.4655837127
 30
0.0
 10
4.7997848571
 20
2.4630428754
 30
0.0
 10
4.7979107938
 20
2.4607952937
 30
0.0
 10
4.7966580506
 20
2.4590174786
 30
0.0
 10
4.795561823
 20
2.4571538531
 30
0.0
 10
4.7949387902
 20
2.4558580156
 30
0.0
 10
4.7946559053
 20
2.4552001745
 30
0.0
  0
SPLINE
  5
350
100
AcDbEntity
  8
ALL_FEATURES
100
AcDbSpline
 62
9
  6
CONTINUOUS
 70
0
 71
3
 72
19
 73
15
 74
0
 42
0.0000001
 43
0.0000001
 44
0.0000000001
 40
0.0
 40
0.0
 40
0.0
 40
0.0
 40
0.0589085818
 40
0.1179276562
 40
0.1771958852
 40
0.2368565998
 40
0.3576369813
 40
0.4190452622
 40
0.4811469254
 40
0.6073543732
 40
0.736228091
 40
0.8015991438
 40
0.8674724676
 40
1.0
 40
1.0
 40
1.0
 40
1.0
 10
4.8496144282
 20
2.458055005
 30
0.0
 10
4.8495168545
 20
2.4572494161
 30
0.0
 10
4.8492377935
 20
2.4556455552
 30
0.0
 10
4.8485701568
 20
2.4532934591
 30
0.0
 10
4.8476603654
 20
2.4510123558
 30
0.0
 10
4.846129379
 20
2.448081687
 30
0.0
 10
4.8441447484
 20
2.4453738022
 30
0.0
 10
4.8417825831
 20
2.442971708
 30
0.0
 10
4.8391476862
 20
2.4407530717
 30
0.0
 10
4.8354254331
 20
2.4384166783
 30
0.0
 10
4.8313119134
 20
2.4367529025
 30
0.0
 10
4.8278434865
 20
2.4358384653
 30
0.0
 10
4.8242618861
 20
2.4352085435
 30
0.0
 10
4.8215163507
 20
2.4350697027
 30
0.0
 10
4.8196916096
 20
2.4351254008
 30
0.0
  0
LINE
  5
351
100
AcDbEntity
  8
ALL_FEATURES
100
AcDbLine
 62
9
  6
CONTINUOUS
 10
4.7182050525
 20
2.3449859119
 11
4.7182866936
 21
2.3352901616
  0
SPLINE
  5
352
100
AcDbEntity
  8
ALL_FEATURES
100
AcDbSpline
 62
9
  6
CONTINUOUS
 70
0
 71
3
 72
23
 73
19
 74
0
 42
0.0000001
 43
0.0000001
 44
0.0000000001
 40
0.0
 40
0.0
 40
0.0
 40
0.0
 40
0.0480471412
 40
0.0947289074
 40
0.1408758303
 40
0.1873868165
 40
0.2351623233
 40
0.2850393195
 40
0.3377474537
 40
0.3938906149
 40
0.4539418032
 40
0.5182488781
 40
0.5870461368
 40
0.6604654706
 40
0.7385466496
 40
0.8212472794
 40
0.9084552579
 40
1.0
 40
1.0
 40
1.0
 40
1.0
 10
4.7655569596
 20
2.4683245752
 30
0.0
 10
4.766161872
 20
2.4704592625
 30
0.0
 10
4.7676038542
 20
2.4746033956
 30
0.0
 10
4.7705337465
 20
2.4804330281
 30
0.0
 10
4.7742001904
 20
2.4857464731
 30
0.0
 10
4.7786050702
 20
2.4905339
 30
0.0
 10
4.7837458054
 20
2.4947934945
 30
0.0
 10
4.7896173973
 20
2.4985301141
 30
0.0
 10
4.7962145317
 20
2.5017550879
 30
0.0
 10
4.8035319705
 20
2.5044853445
 30
0.0
 10
4.81156433
 20
2.5067418924
 30
0.0
 10
4.8203044396
 20
2.5085518064
 30
0.0
 10
4.8297430719
 20
2.5099468017
 30
0.0
 10
4.8398678075
 20
2.5109656334
 30
0.0
 10
4.8506627016
 20
2.5116545657
 30
0.0
 10
4.8621080963
 20
2.5120669055
 30
0.0
 10
4.8741805153
 20
2.5122624319
 30
0.0
 10
4.8824351216
 20
2.5122901155
 30
0.0
 10
4.8866625117
 20
2.5122901077
 30
0.0
  0
SPLINE
  5
353
100
AcDbEntity
  8
ALL_FEATURES
100
AcDbSpline
 62
9
  6
CONTINUOUS
 70
0
 71
3
 72
19
 73
15
 74
0
 42
0.0000001
 43
0.0000001
 44
0.0000000001
 40
0.0
 40
0.0
 40
0.0
 40
0.0
 40
0.0589086776
 40
0.1179278172
 40
0.1771960736
 40
0.2368567816
 40
0.3576370764
 40
0.4190452951
 40
0.481146893
 40
0.6073542305
 40
0.7362279108
 40
0.8015989808
 40
0.8674723436
 40
1.0
 40
1.0
 40
1.0
 40
1.0
 10
4.6188641118
 20
2.4580552822
 30
0.0
 10
4.6189616708
 20
2.4572496777
 30
0.0
 10
4.6192407029
 20
2.4556457844
 30
0.0
 10
4.6199083
 20
2.4532936355
 30
0.0
 10
4.6208180565
 20
2.4510124767
 30
0.0
 10
4.6223490027
 20
2.4480817309
 30
0.0
 10
4.6243336063
 20
2.4453737649
 30
0.0
 10
4.6266957599
 20
2.442971591
 30
0.0
 10
4.6293306557
 20
2.4407528766
 30
0.0
 10
4.6330529291
 20
2.4384163927
 30
0.0
 10
4.6371664931
 20
2.4367525476
 30
0.0
 10
4.6406349668
 20
2.4358380709
 30
0.0
 10
4.6442166214
 20
2.4352081213
 30
0.0
 10
4.6469622017
 20
2.4350692744
 30
0.0
 10
4.6487869723
 20
2.4351249751
 30
0.0
  0
SPLINE
  5
354
100
AcDbEntity
  8
ALL_FEATURES
100
AcDbSpline
 62
9
  6
CONTINUOUS
 70
0
 71
3
 72
15
 73
11
 74
0
 42
0.0000001
 43
0.0000001
 44
0.0000000001
 40
0.0
 40
0.0
 40
0.0
 40
0.0
 40
0.1573814667
 40
0.3056622449
 40
0.4447251992
 40
0.574485947
 40
0.6948870625
 40
0.8059099826
 40
0.9075836992
 40
1.0
 40
1.0
 40
1.0
 40
1.0
 10
4.7502735455
 20
2.3449859119
 30
0.0
 10
4.7505742889
 20
2.3515111618
 30
0.0
 10
4.7512408942
 20
2.3641807771
 30
0.0
 10
4.7524992107
 20
2.3825971766
 30
0.0
 10
4.7539962698
 20
2.3998455488
 30
0.0
 10
4.7557411402
 20
2.4159074626
 30
0.0
 10
4.7577422211
 20
2.4307663455
 30
0.0
 10
4.760007197
 20
2.4444076348
 30
0.0
 10
4.7625429989
 20
2.4568181564
 30
0.0
 10
4.764511348
 20
2.4646340668
 30
0.0
 10
4.7655569596
 20
2.4683245752
 30
0.0
  0
SPLINE
  5
355
100
AcDbEntity
  8
ALL_FEATURES
100
AcDbSpline
 62
9
  6
CONTINUOUS
 70
0
 71
3
 72
15
 73
11
 74
0
 42
0.0000001
 43
0.0000001
 44
0.0000000001
 40
0.0
 40
0.0
 40
0.0
 40
0.0
 40
0.0924165064
 40
0.1940903207
 40
0.3051132713
 40
0.425514358
 40
0.5552750136
 40
0.6943379036
 40
0.8426185222
 40
1.0
 40
1.0
 40
1.0
 40
1.0
 10
4.7029216384
 20
2.4683245752
 30
0.0
 10
4.7039672522
 20
2.4646340585
 30
0.0
 10
4.7059356039
 20
2.4568181358
 30
0.0
 10
4.7084714075
 20
2.4444076004
 30
0.0
 10
4.710736383
 20
2.4307663068
 30
0.0
 10
4.7127374619
 20
2.4159074275
 30
0.0
 10
4.7144823312
 20
2.3998455213
 30
0.0
 10
4.7159793884
 20
2.3825971621
 30
0.0
 10
4.7172377044
 20
2.3641807714
 30
0.0
 10
4.7179043092
 20
2.3515111623
 30
0.0
 10
4.7182050525
 20
2.3449859119
 30
0.0
  0
SPLINE
  5
356
100
AcDbEntity
  8
ALL_FEATURES
100
AcDbSpline
 62
9
  6
CONTINUOUS
 70
0
 71
3
 72
23
 73
19
 74
0
 42
0.0000001
 43
0.0000001
 44
0.0000000001
 40
0.0
 40
0.0
 40
0.0
 40
0.0
 40
0.0915447486
 40
0.1787527342
 40
0.261453368
 40
0.3395345493
 40
0.4129538825
 40
0.4817511398
 40
0.5460582184
 40
0.6061094067
 40
0.6622525598
 40
0.7149607062
 40
0.7648377226
 40
0.8126132089
 40
0.8591241617
 40
0.9052710806
 40
0.9519528511
 40
1.0
 40
1.0
 40
1.0
 40
1.0
 10
4.5818160863
 20
2.5122901077
 30
0.0
 10
4.5860434768
 20
2.5122901155
 30
0.0
 10
4.5942980838
 20
2.512262432
 30
0.0
 10
4.6063705038
 20
2.5120669053
 30
0.0
 10
4.6178158993
 20
2.5116545655
 30
0.0
 10
4.6286107938
 20
2.5109656333
 30
0.0
 10
4.6387355296
 20
2.5099468013
 30
0.0
 10
4.6481741621
 20
2.5085518053
 30
0.0
 10
4.6569142718
 20
2.506741891
 30
0.0
 10
4.6649466315
 20
2.5044853436
 30
0.0
 10
4.6722640692
 20
2.5017550837
 30
0.0
 10
4.6788612059
 20
2.4985301117
 30
0.0
 10
4.6847327984
 20
2.4947934918
 30
0.0
 10
4.6898735314
 20
2.4905338962
 30
0.0
 10
4.6942783993
 20
2.4857464624
 30
0.0
 10
4.6979448544
 20
2.4804330286
 30
0.0
 10
4.7008747724
 20
2.4746034079
 30
0.0
 10
4.7023167449
 20
2.4704592682
 30
0.0
 10
4.7029216384
 20
2.4683245752
 30
0.0
  0
SPLINE
  5
357
100
AcDbEntity
  8
ALL_FEATURES
100
AcDbSpline
 62
9
  6
CONTINUOUS
 70
0
 71
3
 72
9
 73
5
 74
0
 42
0.0000001
 43
0.0000001
 44
0.0000000001
 40
0.0
 40
0.0
 40
0.0
 40
0.0
 40
0.5231314037
 40
1.0
 40
1.0
 40
1.0
 40
1.0
 10
4.8239462067
 20
2.4720979435
 30
0.0
 10
4.824608026
 20
2.4785800253
 30
0.0
 10
4.8260283252
 20
2.490955903
 30
0.0
 10
4.8278432454
 20
2.503281491
 30
0.0
 10
4.8288301986
 20
2.5091384789
 30
0.0
  0
SPLINE
  5
358
100
AcDbEntity
  8
ALL_FEATURES
100
AcDbSpline
 62
9
  6
CONTINUOUS
 70
0
 71
3
 72
9
 73
5
 74
0
 42
0.0000001
 43
0.0000001
 44
0.0000000001
 40
0.0
 40
0.0
 40
0.0
 40
0.0
 40
0.4768682963
 40
1.0
 40
1.0
 40
1.0
 40
1.0
 10
4.6396483438
 20
2.5091388384
 30
0.0
 10
4.6406353125
 20
2.5032817988
 30
0.0
 10
4.6424502612
 20
2.4909560933
 30
0.0
 10
4.6438705578
 20
2.4785800946
 30
0.0
 10
4.6445323908
 20
2.4720979473
 30
0.0
  0
LINE
  5
359
100
AcDbEntity
  8
ALL_FEATURES
100
AcDbLine
 62
9
  6
CONTINUOUS
 10
4.8185411536
 20
2.4307856193
 11
4.8192596638
 21
2.4311928668
  0
SPLINE
  5
35A
100
AcDbEntity
  8
ALL_FEATURES
100
AcDbSpline
 62
9
  6
CONTINUOUS
 70
0
 71
3
 72
11
 73
7
 74
0
 42
0.0000001
 43
0.0000001
 44
0.0000000001
 40
0.0
 40
0.0
 40
0.0
 40
0.0
 40
0.2669528288
 40
0.5225740272
 40
0.7668980144
 40
1.0
 40
1.0
 40
1.0
 40
1.0
 10
4.6445323908
 20
2.4720979473
 30
0.0
 10
4.6439387115
 20
2.4754696998
 30
0.0
 10
4.6427184564
 20
2.4820600551
 30
0.0
 10
4.6407364888
 20
2.4916943228
 30
0.0
 10
4.638640894
 20
2.5008597739
 30
0.0
 10
4.6371316753
 20
2.5067945809
 30
0.0
 10
4.6363550177
 20
2.509681421
 30
0.0
  0
SPLINE
  5
35B
100
AcDbEntity
  8
ALL_FEATURES
100
AcDbSpline
 62
9
  6
CONTINUOUS
 70
0
 71
3
 72
11
 73
7
 74
0
 42
0.0000001
 43
0.0000001
 44
0.0000000001
 40
0.0
 40
0.0
 40
0.0
 40
0.0
 40
0.233101119
 40
0.4774248106
 40
0.7330463001
 40
1.0
 40
1.0
 40
1.0
 40
1.0
 10
4.8321240127
 20
2.509683028
 30
0.0
 10
4.8313473094
 20
2.5067960774
 30
0.0
 10
4.8298380041
 20
2.5008610338
 30
0.0
 10
4.8277422965
 20
2.4916952018
 30
0.0
 10
4.825760227
 20
2.4820605084
 30
0.0
 10
4.8245399137
 20
2.4754698532
 30
0.0
 10
4.8239462067
 20
2.4720979435
 30
0.0
  0
SPLINE
  5
35C
100
AcDbEntity
  8
ALL_FEATURES
100
AcDbSpline
 62
9
  6
CONTINUOUS
 70
0
 71
3
 72
20
 73
16
 74
0
 42
0.0000001
 43
0.0000001
 44
0.0000000001
 40
0.0
 40
0.0
 40
0.0
 40
0.0
 40
0.0670375877
 40
0.1339660553
 40
0.2664303733
 40
0.331825184
 40
0.3965006865
 40
0.4603705965
 40
0.5233726732
 40
0.6465748294
 40
0.7664515508
 40
0.8254299815
 40
0.8839088116
 40
0.9420606499
 40
1.0
 40
1.0
 40
1.0
 40
1.0
 10
4.7182050502
 20
2.3449861313
 30
0.0
 10
4.7170040274
 20
2.3449627837
 30
0.0
 10
4.714600567
 20
2.3450164943
 30
0.0
 10
4.7098490271
 20
2.3455175582
 30
0.0
 10
4.7052030838
 20
2.3466092918
 30
0.0
 10
4.7007977259
 20
2.3482730409
 30
0.0
 10
4.6976635174
 20
2.3497854388
 30
0.0
 10
4.6947149568
 20
2.351552219
 30
0.0
 10
4.6910978984
 20
2.3542064412
 30
0.0
 10
4.6871536725
 20
2.3580707879
 30
0.0
 10
4.6841068316
 20
2.3625956309
 30
0.0
 10
4.682324322
 20
2.3664646246
 30
0.0
 10
4.6813224816
 20
2.3694546232
 30
0.0
 10
4.6806618637
 20
2.372518424
 30
0.0
 10
4.6804509351
 20
2.3745930522
 30
0.0
 10
4.6804036777
 20
2.3756301942
 30
0.0
  0
SPLINE
  5
35D
100
AcDbEntity
  8
ALL_FEATURES
100
AcDbSpline
 62
9
  6
CONTINUOUS
 70
0
 71
3
 72
20
 73
16
 74
0
 42
0.0000001
 43
0.0000001
 44
0.0000000001
 40
0.0
 40
0.0
 40
0.0
 40
0.0
 40
0.0670376233
 40
0.1339661245
 40
0.2664304859
 40
0.3318253063
 40
0.3965008086
 40
0.4603707091
 40
0.5233727677
 40
0.6465748716
 40
0.7664515421
 40
0.8254299578
 40
0.8839087841
 40
0.9420606309
 40
1.0
 40
1.0
 40
1.0
 40
1.0
 10
4.7502735455
 20
2.6202359098
 30
0.0
 10
4.7514745761
 20
2.6202125619
 30
0.0
 10
4.7538780521
 20
2.6202662734
 30
0.0
 10
4.758629622
 20
2.6207673451
 30
0.0
 10
4.7632755927
 20
2.6218590957
 30
0.0
 10
4.7676809722
 20
2.6235228696
 30
0.0
 10
4.7708151934
 20
2.6250352894
 30
0.0
 10
4.7737637628
 20
2.6268020941
 30
0.0
 10
4.777380827
 20
2.6294563513
 30
0.0
 10
4.7813250499
 20
2.6333207456
 30
0.0
 10
4.7843718729
 20
2.6378456379
 30
0.0
 10
4.7861543601
 20
2.6417146685
 30
0.0
 10
4.7871561802
 20
2.6447046936
 30
0.0
 10
4.7878167743
 20
2.6477685191
 30
0.0
 10
4.7880276853
 20
2.6498431622
 30
0.0
 10
4.7880749333
 20
2.6508803111
 30
0.0
  0
SPLINE
  5
35E
100
AcDbEntity
  8
ALL_FEATURES
100
AcDbSpline
 62
9
  6
CONTINUOUS
 70
0
 71
3
 72
19
 73
15
 74
0
 42
0.0000001
 43
0.0000001
 44
0.0000000001
 40
0.0
 40
0.0
 40
0.0
 40
0.0
 40
0.1272840094
 40
0.1908299483
 40
0.254175408
 40
0.3173184286
 40
0.3802657776
 40
0.4430207711
 40
0.5055769723
 40
0.6299919822
 40
0.6919887567
 40
0.7538355914
 40
0.8770569913
 40
1.0
 40
1.0
 40
1.0
 40
1.0
 10
4.7655569592
 20
2.7435745482
 30
0.0
 10
4.7676113134
 20
2.7435070278
 30
0.0
 10
4.7707069082
 20
2.743653013
 30
0.0
 10
4.7747571436
 20
2.744337114
 30
0.0
 10
4.7777351988
 20
2.7450928882
 30
0.0
 10
4.7806326994
 20
2.746084401
 30
0.0
 10
4.7834307339
 20
2.7473057916
 30
0.0
 10
4.7861105914
 20
2.7487490504
 30
0.0
 10
4.78949461
 20
2.7509488822
 30
0.0
 10
4.7925823167
 20
2.7535589502
 30
0.0
 10
4.7952954362
 20
2.7565156646
 30
0.0
 10
4.7977360902
 20
2.7596773326
 30
0.0
 10
4.8002637113
 20
2.763990291
 30
0.0
 10
4.8016643297
 20
2.7677348783
 30
0.0
 10
4.8021979184
 20
2.7696471927
 30
0.0
  0
SPLINE
  5
35F
100
AcDbEntity
  8
ALL_FEATURES
100
AcDbSpline
 62
9
  6
CONTINUOUS
 70
0
 71
3
 72
19
 73
15
 74
0
 42
0.0000001
 43
0.0000001
 44
0.0000000001
 40
0.0
 40
0.0
 40
0.0
 40
0.0
 40
0.1272842327
 40
0.1908302466
 40
0.2541757497
 40
0.3173187913
 40
0.3802661419
 40
0.4430211102
 40
0.5055772569
 40
0.6299920871
 40
0.691988783
 40
0.7538355534
 40
0.877056848
 40
1.0
 40
1.0
 40
1.0
 40
1.0
 10
4.7029216384
 20
2.7435745747
 30
0.0
 10
4.700867037
 20
2.7435070482
 30
0.0
 10
4.6977710677
 20
2.7436530836
 30
0.0
 10
4.6937203633
 20
2.7443373697
 30
0.0
 10
4.6907419788
 20
2.7450933393
 30
0.0
 10
4.6878441776
 20
2.7460851012
 30
0.0
 10
4.6850458787
 20
2.7473067926
 30
0.0
 10
4.6823657984
 20
2.7487503981
 30
0.0
 10
4.6789815489
 20
2.7509507466
 30
0.0
 10
4.6758937163
 20
2.753561409
 30
0.0
 10
4.6731805983
 20
2.7565187647
 30
0.0
 10
4.6707400339
 20
2.7596810963
 30
0.0
 10
4.6682126924
 20
2.7639949121
 30
0.0
 10
4.6668124925
 20
2.7677401688
 30
0.0
 10
4.6662791597
 20
2.7696528013
 30
0.0
  0
LINE
  5
360
100
AcDbEntity
  8
ALL_FEATURES
100
AcDbLine
 62
9
  6
CONTINUOUS
 10
4.6492189342
 20
2.7064428667
 11
4.6497736999
 21
2.7060574338
  0
LINE
  5
361
100
AcDbEntity
  8
ALL_FEATURES
100
AcDbLine
 62
9
  6
CONTINUOUS
 10
4.6497736999
 20
2.7060574338
 11
4.6499372868
 21
2.7060356207
  0
LINE
  5
362
100
AcDbEntity
  8
ALL_FEATURES
100
AcDbLine
 62
9
  6
CONTINUOUS
 10
4.8192596638
 20
2.7064428668
 11
4.8195551639
 21
2.706044714
  0
SPLINE
  5
363
100
AcDbEntity
  8
ALL_FEATURES
100
AcDbSpline
 62
9
  6
CONTINUOUS
 70
0
 71
3
 72
9
 73
5
 74
0
 42
0.0000001
 43
0.0000001
 44
0.0000000001
 40
0.0
 40
0.0
 40
0.0
 40
0.0
 40
0.2568231113
 40
1.0
 40
1.0
 40
1.0
 40
1.0
 10
4.8195551639
 20
2.706044714
 30
0.0
 10
4.8195593737
 20
2.7060432463
 30
0.0
 10
4.819575972
 20
2.7060381513
 30
0.0
 10
4.8195934247
 20
2.7060357664
 30
0.0
 10
4.8196063257
 20
2.7060357406
 30
0.0
  0
SPLINE
  5
364
100
AcDbEntity
  8
ALL_FEATURES
100
AcDbSpline
 62
9
  6
CONTINUOUS
 70
0
 71
3
 72
9
 73
5
 74
0
 42
0.0000001
 43
0.0000001
 44
0.0000000001
 40
0.0
 40
0.0
 40
0.0
 40
0.0
 40
0.5162763983
 40
1.0
 40
1.0
 40
1.0
 40
1.0
 10
4.8196916257
 20
2.710374976
 30
0.0
 10
4.8202914591
 20
2.7167519678
 30
0.0
 10
4.8215673151
 20
2.7290935324
 30
0.0
 10
4.8231167053
 20
2.7414042441
 30
0.0
 10
4.8239462034
 20
2.7473479178
 30
0.0
  0
LINE
  5
365
100
AcDbEntity
  8
ALL_FEATURES
100
AcDbLine
 62
9
  6
CONTINUOUS
 10
4.8192596173
 20
2.7064430105
 11
4.8194790746
 21
2.7079198487
  0
LINE
  5
366
100
AcDbEntity
  8
ALL_FEATURES
100
AcDbLine
 62
9
  6
CONTINUOUS
 10
4.8194790746
 20
2.7079198487
 11
4.8196219534
 21
2.7094559662
  0
LINE
  5
367
100
AcDbEntity
  8
ALL_FEATURES
100
AcDbLine
 62
9
  6
CONTINUOUS
 10
4.6487869885
 20
2.7103754001
 11
4.6492189807
 21
2.7064430105
  0
SPLINE
  5
368
100
AcDbEntity
  8
ALL_FEATURES
100
AcDbSpline
 62
9
  6
CONTINUOUS
 70
0
 71
3
 72
9
 73
5
 74
0
 42
0.0000001
 43
0.0000001
 44
0.0000000001
 40
0.0
 40
0.0
 40
0.0
 40
0.0
 40
0.483723596
 40
1.0
 40
1.0
 40
1.0
 40
1.0
 10
4.6445323946
 20
2.7473479181
 30
0.0
 10
4.6453618926
 20
2.7414042442
 30
0.0
 10
4.6469112829
 20
2.7290935321
 30
0.0
 10
4.6481871395
 20
2.7167519673
 30
0.0
 10
4.6487869723
 20
2.7103749751
 30
0.0
  0
LINE
  5
369
100
AcDbEntity
  8
ALL_FEATURES
100
AcDbLine
 62
9
  6
CONTINUOUS
 10
4.7501919045
 20
2.6105401616
 11
4.7502735455
 21
2.6202359119
  0
SPLINE
  5
36A
100
AcDbEntity
  8
ALL_FEATURES
100
AcDbSpline
 62
9
  6
CONTINUOUS
 70
0
 71
3
 72
17
 73
13
 74
0
 42
0.0000001
 43
0.0000001
 44
0.0000000001
 40
0.0
 40
0.0
 40
0.0
 40
0.0
 40
0.1293803133
 40
0.2582020799
 40
0.3858135275
 40
0.5119616135
 40
0.6364169968
 40
0.7591099171
 40
0.8198738023
 40
0.8802525133
 40
0.940279057
 40
1.0
 40
1.0
 40
1.0
 40
1.0
 10
4.6445323961
 20
2.7473478871
 30
0.0
 10
4.6460809737
 20
2.7474395322
 30
0.0
 10
4.6491889351
 20
2.7474025742
 30
0.0
 10
4.653775003
 20
2.7466898696
 30
0.0
 10
4.6581743284
 20
2.7453331324
 30
0.0
 10
4.6622789403
 20
2.7433655099
 30
0.0
 10
4.6659910705
 20
2.7408341686
 30
0.0
 10
4.6686931017
 20
2.7382934993
 30
0.0
 10
4.670567184
 20
2.7360460588
 30
0.0
 10
4.6718199552
 20
2.734268351
 30
0.0
 10
4.672916226
 20
2.7324048337
 30
0.0
 10
4.673539298
 20
2.7311090679
 30
0.0
 10
4.6738222048
 20
2.7304512621
 30
0.0
  0
SPLINE
  5
36B
100
AcDbEntity
  8
ALL_FEATURES
100
AcDbSpline
 62
9
  6
CONTINUOUS
 70
0
 71
3
 72
18
 73
14
 74
0
 42
0.0000001
 43
0.0000001
 44
0.0000000001
 40
0.0
 40
0.0
 40
0.0
 40
0.0
 40
0.1313782307
 40
0.2618288951
 40
0.3905314193
 40
0.5170736895
 40
0.5794776131
 40
0.6412496011
 40
0.7023959206
 40
0.7629400795
 40
0.8229215449
 40
0.8823904217
 40
1.0
 40
1.0
 40
1.0
 40
1.0
 10
4.6487869938
 20
2.710375532
 30
0.0
 10
4.650441234
 20
2.7104059941
 30
0.0
 10
4.6537476353
 20
2.7102243105
 30
0.0
 10
4.6585824394
 20
2.7092308968
 30
0.0
 10
4.6631561711
 20
2.7075406726
 30
0.0
 10
4.6666639177
 20
2.7055794414
 30
0.0
 10
4.6692140195
 20
2.7037125312
 30
0.0
 10
4.6709790626
 20
2.7021813079
 30
0.0
 10
4.672592682
 20
2.7005237909
 30
0.0
 10
4.6740428904
 20
2.6987505724
 30
0.0
 10
4.675320753
 20
2.6968744097
 30
0.0
 10
4.6767762182
 20
2.6942647955
 30
0.0
 10
4.6775940134
 20
2.692172273
 30
0.0
 10
4.6780019073
 20
2.690748422
 30
0.0
  0
SPLINE
  5
36C
100
AcDbEntity
  8
ALL_FEATURES
100
AcDbSpline
 62
9
  6
CONTINUOUS
 70
0
 71
3
 72
15
 73
11
 74
0
 42
0.0000001
 43
0.0000001
 44
0.0000000001
 40
0.0
 40
0.0
 40
0.0
 40
0.0
 40
0.1256166117
 40
0.251177953
 40
0.3764770021
 40
0.5015774501
 40
0.6264526293
 40
0.7511223798
 40
0.875624247
 40
1.0
 40
1.0
 40
1.0
 40
1.0
 10
4.6492189114
 20
2.7064430161
 30
0.0
 10
4.6508233355
 20
2.7064723007
 30
0.0
 10
4.654041951
 20
2.7062743854
 30
0.0
 10
4.6587538069
 20
2.7052180712
 30
0.0
 10
4.6632321691
 20
2.7034261356
 30
0.0
 10
4.6673593302
 20
2.7009469291
 30
0.0
 10
4.6710296838
 20
2.6978432774
 30
0.0
 10
4.6741480835
 20
2.6941950177
 30
0.0
 10
4.6766337068
 20
2.6900982149
 30
0.0
 10
4.6778272066
 20
2.6871335687
 30
0.0
 10
4.6782990564
 20
2.6856164101
 30
0.0
  0
LINE
  5
36D
100
AcDbEntity
  8
ALL_FEATURES
100
AcDbLine
 62
9
  6
CONTINUOUS
 10
4.6488722723
 20
2.7060357406
 11
4.6492189342
 21
2.7064428667
  0
SPLINE
  5
36E
100
AcDbEntity
  8
ALL_FEATURES
100
AcDbSpline
 62
9
  6
CONTINUOUS
 70
0
 71
3
 72
15
 73
11
 74
0
 42
0.0000001
 43
0.0000001
 44
0.0000000001
 40
0.0
 40
0.0
 40
0.0
 40
0.0
 40
0.1256164942
 40
0.2511777431
 40
0.3764767206
 40
0.5015771221
 40
0.6264522918
 40
0.7511220839
 40
0.8756240595
 40
1.0
 40
1.0
 40
1.0
 40
1.0
 10
4.819259631
 20
2.7064434574
 30
0.0
 10
4.8176551875
 20
2.7064727336
 30
0.0
 10
4.8144365342
 20
2.7062748017
 30
0.0
 10
4.809724624
 20
2.7052184615
 30
0.0
 10
4.8052462092
 20
2.7034264972
 30
0.0
 10
4.8011189978
 20
2.7009472568
 30
0.0
 10
4.7974485978
 20
2.6978435638
 30
0.0
 10
4.7943301585
 20
2.6941952536
 30
0.0
 10
4.7918445054
 20
2.6900983911
 30
0.0
 10
4.7906509947
 20
2.6871337002
 30
0.0
 10
4.790179142
 20
2.6856165185
 30
0.0
  0
SPLINE
  5
36F
100
AcDbEntity
  8
ALL_FEATURES
100
AcDbSpline
 62
9
  6
CONTINUOUS
 70
0
 71
3
 72
18
 73
14
 74
0
 42
0.0000001
 43
0.0000001
 44
0.0000000001
 40
0.0
 40
0.0
 40
0.0
 40
0.0
 40
0.1313777739
 40
0.2618281016
 40
0.3905304045
 40
0.5170725918
 40
0.5794765285
 40
0.6412485695
 40
0.7023949832
 40
0.762939274
 40
0.8229209082
 40
0.8823899852
 40
1.0
 40
1.0
 40
1.0
 40
1.0
 10
4.8196916306
 20
2.7103750268
 30
0.0
 10
4.8180374837
 20
2.7104054774
 30
0.0
 10
4.8147312696
 20
2.710223798
 30
0.0
 10
4.8098967301
 20
2.7092304698
 30
0.0
 10
4.8053232263
 20
2.7075404036
 30
0.0
 10
4.8018156268
 20
2.7055793574
 30
0.0
 10
4.7992656061
 20
2.7037126209
 30
0.0
 10
4.7975006039
 20
2.702181537
 30
0.0
 10
4.7958870039
 20
2.7005241678
 30
0.0
 10
4.794436792
 20
2.6987511031
 30
0.0
 10
4.7931589023
 20
2.6968750972
 30
0.0
 10
4.791703367
 20
2.6942656923
 30
0.0
 10
4.7908854813
 20
2.6921733266
 30
0.0
 10
4.7904775089
 20
2.6907495741
 30
0.0
  0
SPLINE
  5
370
100
AcDbEntity
  8
ALL_FEATURES
100
AcDbSpline
 62
9
  6
CONTINUOUS
 70
0
 71
3
 72
17
 73
13
 74
0
 42
0.0000001
 43
0.0000001
 44
0.0000000001
 40
0.0
 40
0.0
 40
0.0
 40
0.0
 40
0.1293805248
 40
0.2582024523
 40
0.3858139939
 40
0.5119620938
 40
0.6364174023
 40
0.7591101866
 40
0.8198739975
 40
0.8802526334
 40
0.9402791069
 40
1.0
 40
1.0
 40
1.0
 40
1.0
 10
4.8239462035
 20
2.7473479186
 30
0.0
 10
4.8223975708
 20
2.7474395672
 30
0.0
 10
4.8192894984
 20
2.7474026006
 30
0.0
 10
4.8147032733
 20
2.7466898364
 30
0.0
 10
4.8103038114
 20
2.7453329956
 30
0.0
 10
4.8061990945
 20
2.7433652301
 30
0.0
 10
4.8024869007
 20
2.7408337127
 30
0.0
 10
4.7997848571
 20
2.7382928754
 30
0.0
 10
4.7979107938
 20
2.7360452937
 30
0.0
 10
4.7966580506
 20
2.7342674786
 30
0.0
 10
4.795561823
 20
2.7324038531
 30
0.0
 10
4.7949387902
 20
2.7311080156
 30
0.0
 10
4.7946559053
 20
2.7304501745
 30
0.0
  0
SPLINE
  5
371
100
AcDbEntity
  8
ALL_FEATURES
100
AcDbSpline
 62
9
  6
CONTINUOUS
 70
0
 71
3
 72
19
 73
15
 74
0
 42
0.0000001
 43
0.0000001
 44
0.0000000001
 40
0.0
 40
0.0
 40
0.0
 40
0.0
 40
0.0589085818
 40
0.1179276562
 40
0.1771958852
 40
0.2368565998
 40
0.3576369813
 40
0.4190452622
 40
0.4811469254
 40
0.6073543732
 40
0.736228091
 40
0.8015991438
 40
0.8674724676
 40
1.0
 40
1.0
 40
1.0
 40
1.0
 10
4.8496144282
 20
2.733305005
 30
0.0
 10
4.8495168545
 20
2.7324994161
 30
0.0
 10
4.8492377935
 20
2.7308955552
 30
0.0
 10
4.8485701568
 20
2.7285434591
 30
0.0
 10
4.8476603654
 20
2.7262623558
 30
0.0
 10
4.846129379
 20
2.723331687
 30
0.0
 10
4.8441447484
 20
2.7206238022
 30
0.0
 10
4.8417825831
 20
2.718221708
 30
0.0
 10
4.8391476862
 20
2.7160030717
 30
0.0
 10
4.8354254331
 20
2.7136666783
 30
0.0
 10
4.8313119134
 20
2.7120029025
 30
0.0
 10
4.8278434865
 20
2.7110884653
 30
0.0
 10
4.8242618861
 20
2.7104585435
 30
0.0
 10
4.8215163507
 20
2.7103197027
 30
0.0
 10
4.8196916096
 20
2.7103754008
 30
0.0
  0
LINE
  5
372
100
AcDbEntity
  8
ALL_FEATURES
100
AcDbLine
 62
9
  6
CONTINUOUS
 10
4.7182050525
 20
2.6202359119
 11
4.7182866936
 21
2.6105401616
  0
SPLINE
  5
373
100
AcDbEntity
  8
ALL_FEATURES
100
AcDbSpline
 62
9
  6
CONTINUOUS
 70
0
 71
3
 72
23
 73
19
 74
0
 42
0.0000001
 43
0.0000001
 44
0.0000000001
 40
0.0
 40
0.0
 40
0.0
 40
0.0
 40
0.0480471412
 40
0.0947289074
 40
0.1408758303
 40
0.1873868165
 40
0.2351623233
 40
0.2850393195
 40
0.3377474537
 40
0.3938906149
 40
0.4539418032
 40
0.5182488781
 40
0.5870461368
 40
0.6604654706
 40
0.7385466496
 40
0.8212472794
 40
0.9084552579
 40
1.0
 40
1.0
 40
1.0
 40
1.0
 10
4.7655569596
 20
2.7435745752
 30
0.0
 10
4.766161872
 20
2.7457092625
 30
0.0
 10
4.7676038542
 20
2.7498533956
 30
0.0
 10
4.7705337465
 20
2.7556830281
 30
0.0
 10
4.7742001904
 20
2.7609964731
 30
0.0
 10
4.7786050702
 20
2.7657839
 30
0.0
 10
4.7837458054
 20
2.7700434945
 30
0.0
 10
4.7896173973
 20
2.7737801141
 30
0.0
 10
4.7962145317
 20
2.7770050879
 30
0.0
 10
4.8035319705
 20
2.7797353445
 30
0.0
 10
4.81156433
 20
2.7819918924
 30
0.0
 10
4.8203044396
 20
2.7838018064
 30
0.0
 10
4.8297430719
 20
2.7851968017
 30
0.0
 10
4.8398678075
 20
2.7862156334
 30
0.0
 10
4.8506627016
 20
2.7869045657
 30
0.0
 10
4.8621080963
 20
2.7873169055
 30
0.0
 10
4.8741805153
 20
2.7875124319
 30
0.0
 10
4.8824351216
 20
2.7875401155
 30
0.0
 10
4.8866625117
 20
2.7875401077
 30
0.0
  0
SPLINE
  5
374
100
AcDbEntity
  8
ALL_FEATURES
100
AcDbSpline
 62
9
  6
CONTINUOUS
 70
0
 71
3
 72
19
 73
15
 74
0
 42
0.0000001
 43
0.0000001
 44
0.0000000001
 40
0.0
 40
0.0
 40
0.0
 40
0.0
 40
0.0589086776
 40
0.1179278172
 40
0.1771960736
 40
0.2368567816
 40
0.3576370764
 40
0.4190452951
 40
0.481146893
 40
0.6073542305
 40
0.7362279108
 40
0.8015989808
 40
0.8674723436
 40
1.0
 40
1.0
 40
1.0
 40
1.0
 10
4.6188641118
 20
2.7333052822
 30
0.0
 10
4.6189616708
 20
2.7324996777
 30
0.0
 10
4.6192407029
 20
2.7308957844
 30
0.0
 10
4.6199083
 20
2.7285436355
 30
0.0
 10
4.6208180565
 20
2.7262624767
 30
0.0
 10
4.6223490027
 20
2.7233317309
 30
0.0
 10
4.6243336063
 20
2.7206237649
 30
0.0
 10
4.6266957599
 20
2.718221591
 30
0.0
 10
4.6293306557
 20
2.7160028766
 30
0.0
 10
4.6330529291
 20
2.7136663927
 30
0.0
 10
4.6371664931
 20
2.7120025476
 30
0.0
 10
4.6406349668
 20
2.7110880709
 30
0.0
 10
4.6442166214
 20
2.7104581213
 30
0.0
 10
4.6469622017
 20
2.7103192744
 30
0.0
 10
4.6487869723
 20
2.7103749751
 30
0.0
  0
SPLINE
  5
375
100
AcDbEntity
  8
ALL_FEATURES
100
AcDbSpline
 62
9
  6
CONTINUOUS
 70
0
 71
3
 72
15
 73
11
 74
0
 42
0.0000001
 43
0.0000001
 44
0.0000000001
 40
0.0
 40
0.0
 40
0.0
 40
0.0
 40
0.1573814667
 40
0.3056622449
 40
0.4447251992
 40
0.574485947
 40
0.6948870625
 40
0.8059099826
 40
0.9075836992
 40
1.0
 40
1.0
 40
1.0
 40
1.0
 10
4.7502735455
 20
2.6202359119
 30
0.0
 10
4.7505742889
 20
2.6267611618
 30
0.0
 10
4.7512408942
 20
2.6394307771
 30
0.0
 10
4.7524992107
 20
2.6578471766
 30
0.0
 10
4.7539962698
 20
2.6750955488
 30
0.0
 10
4.7557411402
 20
2.6911574626
 30
0.0
 10
4.7577422211
 20
2.7060163455
 30
0.0
 10
4.760007197
 20
2.7196576348
 30
0.0
 10
4.7625429989
 20
2.7320681564
 30
0.0
 10
4.764511348
 20
2.7398840668
 30
0.0
 10
4.7655569596
 20
2.7435745752
 30
0.0
  0
SPLINE
  5
376
100
AcDbEntity
  8
ALL_FEATURES
100
AcDbSpline
 62
9
  6
CONTINUOUS
 70
0
 71
3
 72
15
 73
11
 74
0
 42
0.0000001
 43
0.0000001
 44
0.0000000001
 40
0.0
 40
0.0
 40
0.0
 40
0.0
 40
0.0924165064
 40
0.1940903207
 40
0.3051132713
 40
0.425514358
 40
0.5552750136
 40
0.6943379036
 40
0.8426185222
 40
1.0
 40
1.0
 40
1.0
 40
1.0
 10
4.7029216384
 20
2.7435745752
 30
0.0
 10
4.7039672522
 20
2.7398840585
 30
0.0
 10
4.7059356039
 20
2.7320681358
 30
0.0
 10
4.7084714075
 20
2.7196576004
 30
0.0
 10
4.710736383
 20
2.7060163068
 30
0.0
 10
4.7127374619
 20
2.6911574275
 30
0.0
 10
4.7144823312
 20
2.6750955213
 30
0.0
 10
4.7159793884
 20
2.6578471621
 30
0.0
 10
4.7172377044
 20
2.6394307714
 30
0.0
 10
4.7179043092
 20
2.6267611623
 30
0.0
 10
4.7182050525
 20
2.6202359119
 30
0.0
  0
SPLINE
  5
377
100
AcDbEntity
  8
ALL_FEATURES
100
AcDbSpline
 62
9
  6
CONTINUOUS
 70
0
 71
3
 72
23
 73
19
 74
0
 42
0.0000001
 43
0.0000001
 44
0.0000000001
 40
0.0
 40
0.0
 40
0.0
 40
0.0
 40
0.0915447486
 40
0.1787527342
 40
0.261453368
 40
0.3395345493
 40
0.4129538825
 40
0.4817511398
 40
0.5460582184
 40
0.6061094067
 40
0.6622525598
 40
0.7149607062
 40
0.7648377226
 40
0.8126132089
 40
0.8591241617
 40
0.9052710806
 40
0.9519528511
 40
1.0
 40
1.0
 40
1.0
 40
1.0
 10
4.5818160863
 20
2.7875401077
 30
0.0
 10
4.5860434768
 20
2.7875401155
 30
0.0
 10
4.5942980838
 20
2.787512432
 30
0.0
 10
4.6063705038
 20
2.7873169053
 30
0.0
 10
4.6178158993
 20
2.7869045655
 30
0.0
 10
4.6286107938
 20
2.7862156333
 30
0.0
 10
4.6387355296
 20
2.7851968013
 30
0.0
 10
4.6481741621
 20
2.7838018053
 30
0.0
 10
4.6569142718
 20
2.781991891
 30
0.0
 10
4.6649466315
 20
2.7797353436
 30
0.0
 10
4.6722640692
 20
2.7770050837
 30
0.0
 10
4.6788612059
 20
2.7737801117
 30
0.0
 10
4.6847327984
 20
2.7700434918
 30
0.0
 10
4.6898735314
 20
2.7657838962
 30
0.0
 10
4.6942783993
 20
2.7609964624
 30
0.0
 10
4.6979448544
 20
2.7556830286
 30
0.0
 10
4.7008747724
 20
2.7498534079
 30
0.0
 10
4.7023167449
 20
2.7457092682
 30
0.0
 10
4.7029216384
 20
2.7435745752
 30
0.0
  0
SPLINE
  5
378
100
AcDbEntity
  8
ALL_FEATURES
100
AcDbSpline
 62
9
  6
CONTINUOUS
 70
0
 71
3
 72
9
 73
5
 74
0
 42
0.0000001
 43
0.0000001
 44
0.0000000001
 40
0.0
 40
0.0
 40
0.0
 40
0.0
 40
0.5231314037
 40
1.0
 40
1.0
 40
1.0
 40
1.0
 10
4.8239462067
 20
2.7473479435
 30
0.0
 10
4.824608026
 20
2.7538300253
 30
0.0
 10
4.8260283252
 20
2.766205903
 30
0.0
 10
4.8278432454
 20
2.778531491
 30
0.0
 10
4.8288301986
 20
2.7843884789
 30
0.0
  0
SPLINE
  5
379
100
AcDbEntity
  8
ALL_FEATURES
100
AcDbSpline
 62
9
  6
CONTINUOUS
 70
0
 71
3
 72
9
 73
5
 74
0
 42
0.0000001
 43
0.0000001
 44
0.0000000001
 40
0.0
 40
0.0
 40
0.0
 40
0.0
 40
0.4768682963
 40
1.0
 40
1.0
 40
1.0
 40
1.0
 10
4.6396483438
 20
2.7843888384
 30
0.0
 10
4.6406353125
 20
2.7785317988
 30
0.0
 10
4.6424502612
 20
2.7662060933
 30
0.0
 10
4.6438705578
 20
2.7538300946
 30
0.0
 10
4.6445323908
 20
2.7473479473
 30
0.0
  0
LINE
  5
37A
100
AcDbEntity
  8
ALL_FEATURES
100
AcDbLine
 62
9
  6
CONTINUOUS
 10
4.8185411536
 20
2.7060356193
 11
4.8192596638
 21
2.7064428668
  0
SPLINE
  5
37B
100
AcDbEntity
  8
ALL_FEATURES
100
AcDbSpline
 62
9
  6
CONTINUOUS
 70
0
 71
3
 72
11
 73
7
 74
0
 42
0.0000001
 43
0.0000001
 44
0.0000000001
 40
0.0
 40
0.0
 40
0.0
 40
0.0
 40
0.2669528288
 40
0.5225740272
 40
0.7668980144
 40
1.0
 40
1.0
 40
1.0
 40
1.0
 10
4.6445323908
 20
2.7473479473
 30
0.0
 10
4.6439387115
 20
2.7507196998
 30
0.0
 10
4.6427184564
 20
2.7573100551
 30
0.0
 10
4.6407364888
 20
2.7669443228
 30
0.0
 10
4.638640894
 20
2.7761097739
 30
0.0
 10
4.6371316753
 20
2.7820445809
 30
0.0
 10
4.6363550177
 20
2.784931421
 30
0.0
  0
SPLINE
  5
37C
100
AcDbEntity
  8
ALL_FEATURES
100
AcDbSpline
 62
9
  6
CONTINUOUS
 70
0
 71
3
 72
11
 73
7
 74
0
 42
0.0000001
 43
0.0000001
 44
0.0000000001
 40
0.0
 40
0.0
 40
0.0
 40
0.0
 40
0.233101119
 40
0.4774248106
 40
0.7330463001
 40
1.0
 40
1.0
 40
1.0
 40
1.0
 10
4.8321240127
 20
2.784933028
 30
0.0
 10
4.8313473094
 20
2.7820460774
 30
0.0
 10
4.8298380041
 20
2.7761110338
 30
0.0
 10
4.8277422965
 20
2.7669452018
 30
0.0
 10
4.825760227
 20
2.7573105084
 30
0.0
 10
4.8245399137
 20
2.7507198532
 30
0.0
 10
4.8239462067
 20
2.7473479435
 30
0.0
  0
SPLINE
  5
37D
100
AcDbEntity
  8
ALL_FEATURES
100
AcDbSpline
 62
9
  6
CONTINUOUS
 70
0
 71
3
 72
20
 73
16
 74
0
 42
0.0000001
 43
0.0000001
 44
0.0000000001
 40
0.0
 40
0.0
 40
0.0
 40
0.0
 40
0.0670375877
 40
0.1339660553
 40
0.2664303733
 40
0.331825184
 40
0.3965006865
 40
0.4603705965
 40
0.5233726732
 40
0.6465748294
 40
0.7664515508
 40
0.8254299815
 40
0.8839088116
 40
0.9420606499
 40
1.0
 40
1.0
 40
1.0
 40
1.0
 10
4.7182050502
 20
2.6202361313
 30
0.0
 10
4.7170040274
 20
2.6202127837
 30
0.0
 10
4.714600567
 20
2.6202664943
 30
0.0
 10
4.7098490271
 20
2.6207675582
 30
0.0
 10
4.7052030838
 20
2.6218592918
 30
0.0
 10
4.7007977259
 20
2.6235230409
 30
0.0
 10
4.6976635174
 20
2.6250354388
 30
0.0
 10
4.6947149568
 20
2.626802219
 30
0.0
 10
4.6910978984
 20
2.6294564412
 30
0.0
 10
4.6871536725
 20
2.6333207879
 30
0.0
 10
4.6841068316
 20
2.6378456309
 30
0.0
 10
4.682324322
 20
2.6417146246
 30
0.0
 10
4.6813224816
 20
2.6447046232
 30
0.0
 10
4.6806618637
 20
2.647768424
 30
0.0
 10
4.6804509351
 20
2.6498430522
 30
0.0
 10
4.6804036777
 20
2.6508801942
 30
0.0
  0
SPLINE
  5
37E
100
AcDbEntity
  8
0
100
AcDbSpline
 62
7
  6
CONTINUOUS
 70
0
 71
3
 72
35
 73
31
 74
0
 42
0.0000001
 43
0.0000001
 44
0.0000000001
 40
0.0
 40
0.0
 40
0.0
 40
0.0
 40
0.0198798482
 40
0.0389061
 40
0.0572349263
 40
0.0750085906
 40
0.1093037191
 40
0.1423092093
 40
0.1743589853
 40
0.2056530689
 40
0.2363464043
 40
0.2665723801
 40
0.3259971954
 40
0.3844687642
 40
0.4423690724
 40
0.5
 40
0.5576309276
 40
0.6155312358
 40
0.6740028046
 40
0.7334276199
 40
0.7636535957
 40
0.7943469311
 40
0.8256410147
 40
0.8576907907
 40
0.8906962809
 40
0.9249914094
 40
0.9427650737
 40
0.9610939
 40
0.9801201518
 40
1.0
 40
1.0
 40
1.0
 40
1.0
 10
4.226661799
 20
3.8016050683
 30
0.0
 10
4.2255177911
 20
3.8016050683
 30
0.0
 10
4.2232784766
 20
3.8016600741
 30
0.0
 10
4.2199925113
 20
3.8019011959
 30
0.0
 10
4.216841391
 20
3.802277393
 30
0.0
 10
4.2128411271
 20
3.8029222742
 30
0.0
 10
4.2080509853
 20
3.8039529762
 30
0.0
 10
4.2025473341
 20
3.8055129501
 30
0.0
 10
4.1973018778
 20
3.807317431
 30
0.0
 10
4.192281877
 20
3.809344453
 30
0.0
 10
4.1874628509
 20
3.811571038
 30
0.0
 10
4.1813110204
 20
3.8147551972
 30
0.0
 10
4.1739798464
 20
3.819122301
 30
0.0
 10
4.1656991246
 20
3.8249487
 30
0.0
 10
4.1579283748
 20
3.8312764614
 30
0.0
 10
4.1506462392
 20
3.8380895085
 30
0.0
 10
4.1438331922
 20
3.8453716441
 30
0.0
 10
4.1375054307
 20
3.8531423938
 30
0.0
 10
4.1316790317
 20
3.8614231156
 30
0.0
 10
4.1273119279
 20
3.8687542897
 30
0.0
 10
4.1241277687
 20
3.8749061202
 30
0.0
 10
4.1219011837
 20
3.8797251463
 30
0.0
 10
4.1198741617
 20
3.8847451471
 30
0.0
 10
4.1180696808
 20
3.8899906034
 30
0.0
 10
4.1165097069
 20
3.8954942546
 30
0.0
 10
4.1154790049
 20
3.9002843963
 30
0.0
 10
4.1148341237
 20
3.9042846603
 30
0.0
 10
4.1144579266
 20
3.9074357805
 30
0.0
 10
4.1142168048
 20
3.9107217459
 30
0.0
 10
4.114161799
 20
3.9129610604
 30
0.0
 10
4.114161799
 20
3.9141050683
 30
0.0
  0
SPLINE
  5
37F
100
AcDbEntity
  8
0
100
AcDbSpline
 62
7
  6
CONTINUOUS
 70
0
 71
3
 72
39
 73
35
 74
0
 42
0.0000001
 43
0.0000001
 44
0.0000000001
 40
0.0
 40
0.0
 40
0.0
 40
0.0
 40
0.0189207966
 40
0.0372305348
 40
0.0550542325
 40
0.0724822351
 40
0.1063471836
 40
0.1228752505
 40
0.1391807571
 40
0.171207758
 40
0.2025842549
 40
0.2334432417
 40
0.2638984405
 40
0.2940325334
 40
0.3239014194
 40
0.3830310758
 40
0.4416392352
 40
0.5000000007
 40
0.5583607662
 40
0.6169689255
 40
0.6760985819
 40
0.7059674678
 40
0.7361015607
 40
0.7665567595
 40
0.7974157462
 40
0.828792243
 40
0.8608192437
 40
0.8771247503
 40
0.8936528172
 40
0.9275177655
 40
0.944945768
 40
0.9627694655
 40
0.9810792036
 40
1.0
 40
1.0
 40
1.0
 40
1.0
 10
5.2468639656
 20
3.8017886093
 30
0.0
 10
5.2478864098
 20
3.801863139
 30
0.0
 10
5.2498953065
 20
3.8020542978
 30
0.0
 10
5.2528511308
 20
3.8024607183
 30
0.0
 10
5.2557102571
 20
3.8029614189
 30
0.0
 10
5.2593764893
 20
3.8037272022
 30
0.0
 10
5.2629365435
 20
3.8046482838
 30
0.0
 10
5.2663938965
 20
3.8057011832
 30
0.0
 10
5.2697283464
 20
3.8068119715
 30
0.0
 10
5.2737724821
 20
3.8083329758
 30
0.0
 10
5.2784618821
 20
3.8103608879
 30
0.0
 10
5.2829784249
 20
3.8125604558
 30
0.0
 10
5.2873424248
 20
3.8149094066
 30
0.0
 10
5.2915692523
 20
3.8173926831
 30
0.0
 10
5.2970112418
 20
3.8208661172
 30
0.0
 10
5.3035189563
 20
3.8255267211
 30
0.0
 10
5.3108936387
 20
3.8315912234
 30
0.0
 10
5.3178252273
 20
3.8380966395
 30
0.0
 10
5.3243306434
 20
3.8450282281
 30
0.0
 10
5.3303951457
 20
3.8524029105
 30
0.0
 10
5.3350557497
 20
3.8589106249
 30
0.0
 10
5.3385291838
 20
3.8643526144
 30
0.0
 10
5.3410124604
 20
3.8685794418
 30
0.0
 10
5.3433614112
 20
3.8729434418
 30
0.0
 10
5.345560979
 20
3.8774599845
 30
0.0
 10
5.3475888912
 20
3.8821493845
 30
0.0
 10
5.3491098955
 20
3.8861935202
 30
0.0
 10
5.3502206839
 20
3.8895279701
 30
0.0
 10
5.3512735833
 20
3.892985323
 30
0.0
 10
5.3521946649
 20
3.8965453771
 30
0.0
 10
5.3529604483
 20
3.9002116094
 30
0.0
 10
5.3534611489
 20
3.9030707356
 30
0.0
 10
5.3538675694
 20
3.9060265599
 30
0.0
 10
5.3540587282
 20
3.9080354566
 30
0.0
 10
5.3541332579
 20
3.9090579008
 30
0.0
  0
LINE
  5
380
100
AcDbEntity
  8
0
100
AcDbLine
 62
7
  6
CONTINUOUS
 10
5.4449591417
 20
4.6929097041
 11
5.4450976065
 21
4.6928904996
  0
LINE
  5
381
100
AcDbEntity
  8
0
100
AcDbLine
 62
7
  6
CONTINUOUS
 10
5.4450976065
 20
4.6928904996
 11
5.4454755029
 21
4.6928775343
  0
LINE
  5
382
100
AcDbEntity
  8
0
100
AcDbLine
 62
7
  6
CONTINUOUS
 10
5.4454755029
 20
4.6928775343
 11
5.4460907836
 21
4.6928693889
  0
LINE
  5
383
100
AcDbEntity
  8
0
100
AcDbLine
 62
7
  6
CONTINUOUS
 10
5.4354641613
 20
4.6927783167
 11
5.4380232645
 21
4.6929548462
  0
LINE
  5
384
100
AcDbEntity
  8
0
100
AcDbLine
 62
7
  6
CONTINUOUS
 10
5.4843748191
 20
4.6940694117
 11
5.4879031293
 21
4.6941259722
  0
LINE
  5
385
100
AcDbEntity
  8
0
100
AcDbLine
 62
7
  6
CONTINUOUS
 10
5.5042741272
 20
4.6943558752
 11
5.5065127133
 21
4.69438423
  0
LINE
  5
386
100
AcDbEntity
  8
0
100
AcDbLine
 62
7
  6
CONTINUOUS
 10
5.5065127133
 20
4.69438423
 11
5.5080573519
 21
4.6944034744
  0
LINE
  5
387
100
AcDbEntity
  8
0
100
AcDbLine
 62
7
  6
CONTINUOUS
 10
5.480612893
 20
4.6940052313
 11
5.4843748191
 21
4.6940694117
  0
LINE
  5
388
100
AcDbEntity
  8
0
100
AcDbLine
 62
7
  6
CONTINUOUS
 10
5.4394036754
 20
4.6930118822
 11
5.4520883929
 21
4.6933972656
  0
LINE
  5
389
100
AcDbEntity
  8
0
100
AcDbLine
 62
7
  6
CONTINUOUS
 10
5.4520883929
 20
4.6933972656
 11
5.4550293647
 21
4.6934704785
  0
LINE
  5
38A
100
AcDbEntity
  8
0
100
AcDbLine
 62
7
  6
CONTINUOUS
 10
5.4550293647
 20
4.6934704785
 11
5.4581973762
 21
4.6935457881
  0
LINE
  5
38B
100
AcDbEntity
  8
0
100
AcDbLine
 62
7
  6
CONTINUOUS
 10
5.4581973762
 20
4.6935457881
 11
5.4615938433
 21
4.6936232413
  0
LINE
  5
38C
100
AcDbEntity
  8
0
100
AcDbLine
 62
7
  6
CONTINUOUS
 10
5.5855933657
 20
4.6960095208
 11
5.5869179129
 21
4.6959602986
  0
SPLINE
  5
38D
100
AcDbEntity
  8
0
100
AcDbSpline
 62
7
  6
CONTINUOUS
 70
0
 71
3
 72
9
 73
5
 74
0
 42
0.0000001
 43
0.0000001
 44
0.0000000001
 40
0.0
 40
0.0
 40
0.0
 40
0.0
 40
0.3879710723
 40
1.0
 40
1.0
 40
1.0
 40
1.0
 10
5.5869179129
 20
4.6959602986
 30
0.0
 10
5.5869198371
 20
4.6959597673
 30
0.0
 10
5.5869242612
 20
4.6959582661
 30
0.0
 10
5.5869310237
 20
4.6959560211
 30
0.0
 10
5.5869312211
 20
4.6959528784
 30
0.0
  0
LINE
  5
38E
100
AcDbEntity
  8
0
100
AcDbLine
 62
7
  6
CONTINUOUS
 10
5.5779738463
 20
4.6959976796
 11
5.5840678755
 21
4.6960214687
  0
LINE
  5
38F
100
AcDbEntity
  8
0
100
AcDbLine
 62
7
  6
CONTINUOUS
 10
5.5514471289
 20
4.6955863332
 11
5.5575771389
 21
4.6957012324
  0
LINE
  5
390
100
AcDbEntity
  8
0
100
AcDbLine
 62
7
  6
CONTINUOUS
 10
5.5575771389
 20
4.6957012324
 11
5.5635567101
 21
4.6958039773
  0
LINE
  5
391
100
AcDbEntity
  8
0
100
AcDbLine
 62
7
  6
CONTINUOUS
 10
5.5635567101
 20
4.6958039773
 11
5.5664946578
 21
4.6958509947
  0
LINE
  5
392
100
AcDbEntity
  8
0
100
AcDbLine
 62
7
  6
CONTINUOUS
 10
5.5360620538
 20
4.6952581667
 11
5.5390057303
 21
4.6953252475
  0
LINE
  5
393
100
AcDbEntity
  8
0
100
AcDbLine
 62
7
  6
CONTINUOUS
 10
5.5080573519
 20
4.6944034744
 11
5.5116719329
 21
4.6945426914
  0
LINE
  5
394
100
AcDbEntity
  8
0
100
AcDbLine
 62
7
  6
CONTINUOUS
 10
5.5116719329
 20
4.6945426914
 11
5.5123814484
 21
4.6945692699
  0
LINE
  5
395
100
AcDbEntity
  8
0
100
AcDbLine
 62
7
  6
CONTINUOUS
 10
5.6165598587
 20
4.6959432128
 11
5.6216134375
 21
4.6959755229
  0
LINE
  5
396
100
AcDbEntity
  8
0
100
AcDbLine
 62
7
  6
CONTINUOUS
 10
5.585691566
 20
4.6954873023
 11
5.5869391079
 21
4.6955124316
  0
LINE
  5
397
100
AcDbEntity
  8
0
100
AcDbLine
 62
7
  6
CONTINUOUS
 10
5.5869391079
 20
4.6955124316
 11
5.5960249663
 21
4.6956956626
  0
LINE
  5
398
100
AcDbEntity
  8
0
100
AcDbLine
 62
7
  6
CONTINUOUS
 10
5.5960249663
 20
4.6956956626
 11
5.6064449721
 21
4.6959062514
  0
SPLINE
  5
399
100
AcDbEntity
  8
0
100
AcDbSpline
 62
7
  6
CONTINUOUS
 70
0
 71
3
 72
9
 73
5
 74
0
 42
0.0000001
 43
0.0000001
 44
0.0000000001
 40
0.0
 40
0.0
 40
0.0
 40
0.0
 40
0.7081424666
 40
1.0
 40
1.0
 40
1.0
 40
1.0
 10
5.5779504648
 20
4.6958076342
 30
0.0
 10
5.5779548175
 20
4.6958085469
 30
0.0
 10
5.5779598993
 20
4.6958098485
 30
0.0
 10
5.5779676161
 20
4.6958126602
 30
0.0
 10
5.5779677017
 20
4.6958144912
 30
0.0
  0
LINE
  5
39A
100
AcDbEntity
  8
0
100
AcDbLine
 62
7
  6
CONTINUOUS
 10
3.852021512
 20
4.6957559266
 11
3.852285371
 21
4.6957207685
  0
LINE
  5
39B
100
AcDbEntity
  8
0
100
AcDbLine
 62
7
  6
CONTINUOUS
 10
3.8815002366
 20
4.6951991928
 11
3.861071102
 21
4.6956637705
  0
LINE
  5
39C
100
AcDbEntity
  8
0
100
AcDbLine
 62
7
  6
CONTINUOUS
 10
3.861071102
 20
4.6956637705
 11
3.851986121
 21
4.6958704417
  0
LINE
  5
39D
100
AcDbEntity
  8
0
100
AcDbLine
 62
7
  6
CONTINUOUS
 10
3.851986121
 20
4.6958704417
 11
3.8483296335
 21
4.6959536337
  0
LINE
  5
39E
100
AcDbEntity
  8
0
100
AcDbLine
 62
7
  6
CONTINUOUS
 10
3.8483296335
 20
4.6959536337
 11
3.8404560422
 21
4.6961327948
  0
LINE
  5
39F
100
AcDbEntity
  8
0
100
AcDbLine
 62
7
  6
CONTINUOUS
 10
3.8856671266
 20
4.6954956947
 11
3.8859301471
 21
4.6954230329
  0
LINE
  5
3A0
100
AcDbEntity
  8
0
100
AcDbLine
 62
7
  6
CONTINUOUS
 10
3.9950041963
 20
4.6931785318
 11
3.9969029535
 21
4.6931353017
  0
LINE
  5
3A1
100
AcDbEntity
  8
0
100
AcDbLine
 62
7
  6
CONTINUOUS
 10
4.0056048667
 20
4.6929491369
 11
4.008574265
 21
4.6928923776
  0
LINE
  5
3A2
100
AcDbEntity
  8
0
100
AcDbLine
 62
7
  6
CONTINUOUS
 10
4.008574265
 20
4.6928923776
 11
4.0099214855
 21
4.6928686896
  0
LINE
  5
3A3
100
AcDbEntity
  8
0
100
AcDbLine
 62
7
  6
CONTINUOUS
 10
3.8741033111
 20
4.6959550646
 11
3.8819771406
 21
4.6957742627
  0
LINE
  5
3A4
100
AcDbEntity
  8
0
100
AcDbLine
 62
7
  6
CONTINUOUS
 10
3.8819771406
 20
4.6957742627
 11
3.8856335413
 21
4.6956903032
  0
LINE
  5
3A5
100
AcDbEntity
  8
0
100
AcDbLine
 62
7
  6
CONTINUOUS
 10
3.8856335413
 20
4.6956903032
 11
3.8943947742
 21
4.6954891251
  0
LINE
  5
3A6
100
AcDbEntity
  8
0
100
AcDbLine
 62
7
  6
CONTINUOUS
 10
3.9749953651
 20
4.6936383739
 11
3.9950041976
 21
4.6931789388
  0
LINE
  5
3A7
100
AcDbEntity
  8
0
100
AcDbLine
 62
7
  6
CONTINUOUS
 10
4.0378514569
 20
4.6929439546
 11
4.038900381
 21
4.6929676369
  0
LINE
  5
3A8
100
AcDbEntity
  8
0
100
AcDbLine
 62
7
  6
CONTINUOUS
 10
4.038900381
 20
4.6929676369
 11
4.0390111963
 21
4.6929852701
  0
LINE
  5
3A9
100
AcDbEntity
  8
0
100
AcDbLine
 62
7
  6
CONTINUOUS
 10
4.040911141
 20
4.6931491645
 11
4.0457409556
 21
4.6929122974
  0
LINE
  5
3AA
100
AcDbEntity
  8
0
100
AcDbLine
 62
7
  6
CONTINUOUS
 10
4.0457409556
 20
4.6929122974
 11
4.0464131692
 21
4.6928512281
  0
LINE
  5
3AB
100
AcDbEntity
  8
0
100
AcDbLine
 62
7
  6
CONTINUOUS
 10
4.0464131692
 20
4.6928512281
 11
4.046618881
 21
4.6928021602
  0
LINE
  5
3AC
100
AcDbEntity
  8
0
100
AcDbLine
 62
7
  6
CONTINUOUS
 10
4.0083236903
 20
4.6940674938
 11
4.0176089663
 21
4.693848008
  0
LINE
  5
3AD
100
AcDbEntity
  8
0
100
AcDbLine
 62
7
  6
CONTINUOUS
 10
4.0385695313
 20
4.6932382241
 11
4.0390310691
 21
4.6932212855
  0
LINE
  5
3AE
100
AcDbEntity
  8
0
100
AcDbLine
 62
7
  6
CONTINUOUS
 10
3.9951747446
 20
4.6943501465
 11
3.9995806654
 21
4.6942589356
  0
LINE
  5
3AF
100
AcDbEntity
  8
0
100
AcDbLine
 62
7
  6
CONTINUOUS
 10
3.9995806654
 20
4.6942589356
 11
4.0083236903
 21
4.6940674938
  0
LINE
  5
3B0
100
AcDbEntity
  8
0
100
AcDbLine
 62
7
  6
CONTINUOUS
 10
3.9637172965
 20
4.6948966524
 11
3.9689460574
 21
4.6948196315
  0
LINE
  5
3B1
100
AcDbEntity
  8
0
100
AcDbLine
 62
7
  6
CONTINUOUS
 10
3.9354248918
 20
4.6956536742
 11
3.9200209356
 21
4.6961004731
  0
LINE
  5
3B2
100
AcDbEntity
  8
0
100
AcDbLine
 62
7
  6
CONTINUOUS
 10
5.5869312211
 20
4.6959528784
 11
5.584756609
 21
4.6958176262
  0
LINE
  5
3B3
100
AcDbEntity
  8
0
100
AcDbLine
 62
7
  6
CONTINUOUS
 10
5.4491404511
 20
4.6931140898
 11
5.4450681035
 21
4.6929312717
  0
LINE
  5
3B4
100
AcDbEntity
  8
0
100
AcDbLine
 62
7
  6
CONTINUOUS
 10
5.4450681035
 20
4.6929312717
 11
5.4449591417
 21
4.6929097041
  0
LINE
  5
3B5
100
AcDbEntity
  8
0
100
AcDbLine
 62
7
  6
CONTINUOUS
 10
5.5042736417
 20
4.6942566049
 11
5.5021270513
 21
4.6942267031
  0
LINE
  5
3B6
100
AcDbEntity
  8
0
100
AcDbLine
 62
7
  6
CONTINUOUS
 10
5.5021270513
 20
4.6942267031
 11
5.499949002
 21
4.6941954503
  0
LINE
  5
3B7
100
AcDbEntity
  8
0
100
AcDbLine
 62
7
  6
CONTINUOUS
 10
5.499949002
 20
4.6941954503
 11
5.4908390996
 21
4.694054046
  0
LINE
  5
3B8
100
AcDbEntity
  8
0
100
AcDbLine
 62
7
  6
CONTINUOUS
 10
5.4701873489
 20
4.6936606665
 11
5.4675697706
 21
4.6936028998
  0
LINE
  5
3B9
100
AcDbEntity
  8
0
100
AcDbLine
 62
7
  6
CONTINUOUS
 10
5.5869401552
 20
4.6954598608
 11
5.588198485
 21
4.6954852066
  0
LINE
  5
3BA
100
AcDbEntity
  8
0
100
AcDbLine
 62
7
  6
CONTINUOUS
 10
5.588198485
 20
4.6954852066
 11
5.590244087
 21
4.6954901051
  0
LINE
  5
3BB
100
AcDbEntity
  8
0
100
AcDbLine
 62
7
  6
CONTINUOUS
 10
5.590244087
 20
4.6954901051
 11
5.5922892791
 21
4.6954965521
  0
LINE
  5
3BC
100
AcDbEntity
  8
0
100
AcDbLine
 62
7
  6
CONTINUOUS
 10
5.5922892791
 20
4.6954965521
 11
5.5943340613
 21
4.6955045453
  0
LINE
  5
3BD
100
AcDbEntity
  8
0
100
AcDbLine
 62
7
  6
CONTINUOUS
 10
5.5943340613
 20
4.6955045453
 11
5.6004659489
 21
4.6955377728
  0
LINE
  5
3BE
100
AcDbEntity
  8
0
100
AcDbLine
 62
7
  6
CONTINUOUS
 10
5.6004659489
 20
4.6955377728
 11
5.6145268488
 21
4.6958286579
  0
LINE
  5
3BF
100
AcDbEntity
  8
0
100
AcDbLine
 62
7
  6
CONTINUOUS
 10
5.6145268488
 20
4.6958286579
 11
5.6216134375
 21
4.6959755229
  0
LINE
  5
3C0
100
AcDbEntity
  8
0
100
AcDbLine
 62
7
  6
CONTINUOUS
 10
4.0019990306
 20
4.6928478559
 11
4.0016284401
 21
4.6928705866
  0
LINE
  5
3C1
100
AcDbEntity
  8
0
100
AcDbLine
 62
7
  6
CONTINUOUS
 10
4.046618881
 20
4.6928021602
 11
4.0431448935
 21
4.692688067
  0
LINE
  5
3C2
100
AcDbEntity
  8
0
100
AcDbLine
 62
7
  6
CONTINUOUS
 10
3.852285371
 20
4.6957207685
 11
3.8483263691
 21
4.695810161
  0
LINE
  5
3C3
100
AcDbEntity
  8
0
100
AcDbLine
 62
7
  6
CONTINUOUS
 10
3.8527360766
 20
4.6957603058
 11
3.8519868173
 21
4.6957603389
  0
LINE
  5
3C4
100
AcDbEntity
  8
0
100
AcDbLine
 62
7
  6
CONTINUOUS
 10
3.863716384
 20
4.6955332568
 11
3.8527360766
 21
4.6957603058
  0
LINE
  5
3C5
100
AcDbEntity
  8
0
100
AcDbLine
 62
7
  6
CONTINUOUS
 10
3.8793278482
 20
4.6951794336
 11
3.8637164447
 21
4.6955332554
  0
LINE
  5
3C6
100
AcDbEntity
  8
0
100
AcDbLine
 62
7
  6
CONTINUOUS
 10
3.8483263691
 20
4.695810161
 11
3.8443896329
 21
4.6959658182
  0
LINE
  5
3C7
100
AcDbEntity
  8
0
100
AcDbLine
 62
7
  6
CONTINUOUS
 10
3.8443896329
 20
4.6959658182
 11
3.8404560422
 21
4.6961327948
  0
LINE
  5
3C8
100
AcDbEntity
  8
0
100
AcDbLine
 62
7
  6
CONTINUOUS
 10
3.8859302809
 20
4.695429471
 11
3.8819713071
 21
4.695520218
  0
LINE
  5
3C9
100
AcDbEntity
  8
0
100
AcDbLine
 62
7
  6
CONTINUOUS
 10
3.8863815855
 20
4.6955117703
 11
3.8856323621
 21
4.6954980645
  0
LINE
  5
3CA
100
AcDbEntity
  8
0
100
AcDbLine
 62
7
  6
CONTINUOUS
 10
3.8973625438
 20
4.6952989611
 11
3.8940598838
 21
4.6953731651
  0
LINE
  5
3CB
100
AcDbEntity
  8
0
100
AcDbLine
 62
7
  6
CONTINUOUS
 10
3.8940598838
 20
4.6953731651
 11
3.8863815855
 21
4.6955117703
  0
LINE
  5
3CC
100
AcDbEntity
  8
0
100
AcDbLine
 62
7
  6
CONTINUOUS
 10
3.9892309972
 20
4.6931908048
 11
3.9740481614
 21
4.6935391869
  0
LINE
  5
3CD
100
AcDbEntity
  8
0
100
AcDbLine
 62
7
  6
CONTINUOUS
 10
3.9740481614
 20
4.6935391869
 11
3.9588138962
 21
4.6938887606
  0
LINE
  5
3CE
100
AcDbEntity
  8
0
100
AcDbLine
 62
7
  6
CONTINUOUS
 10
4.0016284401
 20
4.6928705866
 11
4.0005203408
 21
4.692910436
  0
LINE
  5
3CF
100
AcDbEntity
  8
0
100
AcDbLine
 62
7
  6
CONTINUOUS
 10
4.0005203408
 20
4.692910436
 11
3.9912988077
 21
4.6931425302
  0
LINE
  5
3D0
100
AcDbEntity
  8
0
100
AcDbLine
 62
7
  6
CONTINUOUS
 10
3.9912988077
 20
4.6931425302
 11
3.9902787966
 21
4.693166419
  0
LINE
  5
3D1
100
AcDbEntity
  8
0
100
AcDbLine
 62
7
  6
CONTINUOUS
 10
3.9902787966
 20
4.693166419
 11
3.9892309969
 21
4.6931908048
  0
LINE
  5
3D2
100
AcDbEntity
  8
0
100
AcDbLine
 62
7
  6
CONTINUOUS
 10
4.004455873
 20
4.6927182426
 11
4.0018682841
 21
4.6927775197
  0
LINE
  5
3D3
100
AcDbEntity
  8
0
100
AcDbLine
 62
7
  6
CONTINUOUS
 10
4.004455873
 20
4.6927182426
 11
4.0075831009
 21
4.6927041894
  0
LINE
  5
3D4
100
AcDbEntity
  8
0
100
AcDbLine
 62
7
  6
CONTINUOUS
 10
4.0075831009
 20
4.6927041894
 11
4.0138391089
 21
4.6926849841
  0
LINE
  5
3D5
100
AcDbEntity
  8
0
100
AcDbLine
 62
7
  6
CONTINUOUS
 10
4.0390111963
 20
4.6929852701
 11
4.0355856685
 21
4.6931678721
  0
LINE
  5
3D6
100
AcDbEntity
  8
0
100
AcDbLine
 62
7
  6
CONTINUOUS
 10
3.8819713071
 20
4.695520218
 11
3.8780415634
 21
4.6957321586
  0
LINE
  5
3D7
100
AcDbEntity
  8
0
100
AcDbLine
 62
7
  6
CONTINUOUS
 10
3.8780415634
 20
4.6957321586
 11
3.8741033111
 21
4.6959550646
  0
LINE
  5
3D8
100
AcDbEntity
  8
0
100
AcDbLine
 62
7
  6
CONTINUOUS
 10
3.9526083309
 20
4.6946721823
 11
3.9469537457
 21
4.6946989511
  0
LINE
  5
3D9
100
AcDbEntity
  8
0
100
AcDbLine
 62
7
  6
CONTINUOUS
 10
4.0173630701
 20
4.6936814955
 11
4.0130638582
 21
4.6937815307
  0
LINE
  5
3DA
100
AcDbEntity
  8
0
100
AcDbLine
 62
7
  6
CONTINUOUS
 10
4.0431448935
 20
4.692688067
 11
4.034377236
 21
4.6927229986
  0
LINE
  5
3DB
100
AcDbEntity
  8
0
100
AcDbLine
 62
7
  6
CONTINUOUS
 10
3.9207745219
 20
4.6955425871
 11
3.9281035057
 21
4.6955913021
  0
LINE
  5
3DC
100
AcDbEntity
  8
0
100
AcDbLine
 62
7
  6
CONTINUOUS
 10
3.9281035057
 20
4.6955913021
 11
3.934509407
 21
4.6956451299
  0
LINE
  5
3DD
100
AcDbEntity
  8
0
100
AcDbLine
 62
7
  6
CONTINUOUS
 10
3.934509407
 20
4.6956451299
 11
3.9354248918
 21
4.6956536742
  0
LINE
  5
3DE
100
AcDbEntity
  8
0
100
AcDbLine
 62
7
  6
CONTINUOUS
 10
3.9469537457
 20
4.6946989511
 11
3.9321753568
 21
4.6951112756
  0
LINE
  5
3DF
100
AcDbEntity
  8
0
100
AcDbLine
 62
7
  6
CONTINUOUS
 10
3.9246970761
 20
4.6953205097
 11
3.9171594044
 21
4.6955317866
  0
LINE
  5
3E0
100
AcDbEntity
  8
0
100
AcDbLine
 62
7
  6
CONTINUOUS
 10
3.9171594044
 20
4.6955317866
 11
3.9019058878
 21
4.6959604553
  0
LINE
  5
3E1
100
AcDbEntity
  8
0
100
AcDbLine
 62
7
  6
CONTINUOUS
 10
5.5779677017
 20
4.6958144912
 11
5.5774223546
 21
4.6958418601
  0
LINE
  5
3E2
100
AcDbEntity
  8
0
100
AcDbLine
 62
7
  6
CONTINUOUS
 10
5.4374388036
 20
4.6927058787
 11
5.4355666267
 21
4.6927548263
  0
LINE
  5
3E3
100
AcDbEntity
  8
0
100
AcDbLine
 62
7
  6
CONTINUOUS
 10
5.4355666267
 20
4.6927548263
 11
5.4354641613
 21
4.6927783167
  0
LINE
  5
3E4
100
AcDbEntity
  8
0
100
AcDbLine
 62
7
  6
CONTINUOUS
 10
5.4443893346
 20
4.6927246337
 11
5.4382877557
 21
4.6927006992
  0
LINE
  5
3E5
100
AcDbEntity
  8
0
100
AcDbLine
 62
7
  6
CONTINUOUS
 10
5.5175764742
 20
4.6943426475
 11
5.5163145624
 21
4.6942964254
  0
LINE
  5
3E6
100
AcDbEntity
  8
0
100
AcDbLine
 62
7
  6
CONTINUOUS
 10
5.5074445995
 20
4.6940119031
 11
5.5056811851
 21
4.6939624156
  0
LINE
  5
3E7
100
AcDbEntity
  8
0
100
AcDbLine
 62
7
  6
CONTINUOUS
 10
5.525328213
 20
4.694564753
 11
5.5233540527
 21
4.6945391002
  0
LINE
  5
3E8
100
AcDbEntity
  8
0
100
AcDbLine
 62
7
  6
CONTINUOUS
 10
5.5233540527
 20
4.6945391002
 11
5.5221057868
 21
4.6945234375
  0
LINE
  5
3E9
100
AcDbEntity
  8
0
100
AcDbLine
 62
7
  6
CONTINUOUS
 10
5.5399666414
 20
4.6951685229
 11
5.5376800166
 21
4.6951013349
  0
LINE
  5
3EA
100
AcDbEntity
  8
0
100
AcDbLine
 62
7
  6
CONTINUOUS
 10
5.5269259618
 20
4.6947242012
 11
5.5255377448
 21
4.6946662518
  0
LINE
  5
3EB
100
AcDbEntity
  8
0
100
AcDbLine
 62
7
  6
CONTINUOUS
 10
5.5769322495
 20
4.6958471773
 11
5.5714103429
 21
4.6958108507
  0
LINE
  5
3EC
100
AcDbEntity
  8
0
100
AcDbLine
 62
7
  6
CONTINUOUS
 10
5.5714103429
 20
4.6958108507
 11
5.5692324135
 21
4.6957822353
  0
LINE
  5
3ED
100
AcDbEntity
  8
0
100
AcDbLine
 62
7
  6
CONTINUOUS
 10
5.5692324135
 20
4.6957822353
 11
5.5667237475
 21
4.6957453194
  0
ENDSEC
  0
SECTION
  2
OBJECTS
  0
DICTIONARY
  5
C
100
AcDbDictionary
280
0
281
1
  3
ACAD_GROUP
350
D
  3
ACAD_MLINESTYLE
350
17
  3
ACAD_LAYOUT
350
1A
  3
ACAD_PLOTSETTINGS
350
19
  3
ACAD_PLOTSTYLENAME
350
E
  0
DICTIONARY
  5
D
102
{ACAD_REACTORS
330
C
102
}
100
AcDbDictionary
280
0
281
1
  0
ACDBDICTIONARYWDFLT
  5
E
102
{ACAD_REACTORS
330
C
102
}
100
AcDbDictionary
281
1
  3
Normal
350
F
100
AcDbDictionaryWithDefault
340
F
  0
DICTIONARY
  5
17
102
{ACAD_REACTORS
330
C
102
}
100
AcDbDictionary
280
0
281
1
  3
Standard
350
18
  0
DICTIONARY
  5
19
102
{ACAD_REACTORS
330
C
102
}
100
AcDbDictionary
281
1
  0
DICTIONARY
  5
1A
102
{ACAD_REACTORS
330
C
102
}
100
AcDbDictionary
281
1
  3
Model
350
3EE
  3
Layout1
350
3EF
  0
ACDBPLACEHOLDER
  5
F
102
{ACAD_REACTORS
330
E
102
}
  0
MLINESTYLE
  5
18
102
{ACAD_REACTORS
330
17
102
}
100
AcDbMlineStyle
  2
STANDARD
 70
0
  3

 62
256
 51
90.0
 52
90.0
 71
2
 49
0.5
 62
256
  6
BYLAYER
 49
-0.5
 62
256
  6
BYLAYER
  0
LAYOUT
  5
3EE
102
{ACAD_REACTORS
330
1A
102
}
100
AcDbPlotSettings
  1

  2
none_device
  4
ANSI_A_(11.00_x_8.50_Inches)
  6

 40
0.0
 41
0.0
 42
0.0
 43
0.0
 44
279.4
 45
215.9
 46
0.0
 47
0.0
 48
0.0
 49
0.0
140
0.0
141
0.0
142
1.0
143
1.0
 70
1024
 72
0
 73
0
 74
0
  7

 75
0
147
1.0
148
0.0
149
0.0
100
AcDbLayout
  1
Model
 70
0
 71
0
 10
0.0
 20
0.0
 11
11.0
 21
8.5
 12
0.0
 22
0.0
 32
0.0
 14
0.0
 24
0.0
 34
0.0
 15
0.0
 25
0.0
 35
0.0
146
0.0
 13
0.0
 23
0.0
 33
0.0
 16
1.0
 26
0.0
 36
0.0
 17
0.0
 27
1.0
 37
0.0
 76
0
330
21D
345
0
346
0
  0
LAYOUT
  5
3EF
102
{ACAD_REACTORS
330
1A
102
}
100
AcDbPlotSettings
  1

  2
none_device
  4
ANSI_A_(11.00_x_8.50_Inches)
  6

 40
0.0
 41
0.0
 42
0.0
 43
0.0
 44
279.4
 45
215.9
 46
0.0
 47
0.0
 48
0.0
 49
0.0
140
0.0
141
0.0
142
1.0
143
1.0
 70
0
 72
0
 73
0
 74
0
  7

 75
0
147
1.0
148
0.0
149
0.0
100
AcDbLayout
  1
Layout1
 70
0
 71
1
 10
0.0
 20
0.0
 11
11.0
 21
8.5
 12
0.0
 22
0.0
 32
0.0
 14
0.0
 24
0.0
 34
0.0
 15
0.0
 25
0.0
 35
0.0
146
0.0
 13
0.0
 23
0.0
 33
0.0
 16
1.0
 26
0.0
 36
0.0
 17
0.0
 27
1.0
 37
0.0
 76
0
330
21E
345
0
346
0
  0
ENDSEC
  0
EOF
