999
DXF file: 3-2534ts_FRONT.dxf
999
Pro/ENGINEER 2018400 by Parametric Technology Corporation
  0
SECTION
  2
HEADER
  9
$ACADVER
  1
AC1027
  9
$DWGCODEPAGE
  3
ANSI_1252
  9
$EXTMAX
 10
11.0
 20
8.5
 30
0.0
  9
$EXTMIN
 10
0.0
 20
0.0
 30
0.0
  9
$LIMMIN
 10
0.0
 20
0.0
  9
$LIMMAX
 10
11.0
 20
8.5
  9
$VIEWCTR
 10
5.5
 20
4.25
  9
$VIEWSIZE
 40
8.5
  9
$CLAYER
  8
0
  9
$LTSCALE
 40
0.605
  9
$CELTYPE
  6
BYLAYER
  9
$DIMSCALE
 40
1.0
  9
$DIMASZ
 40
0.1
  9
$DIMEXO
 40
0.0625
  9
$DIMDLI
 40
0.418
  9
$DIMEXE
 40
0.125
  9
$DIMCEN
 40
0.099
  9
$DIMLFAC
 40
1.0
  9
$DIMBLK
  1
_FILLED
  9
$DIMALT
 70
1
  9
$DIMALTD
 70
2
  9
$DIMALTTD
 70
2
  9
$DIMALTF
 40
25.4
  9
$DIMTXT
 40
0.08
  9
$DIMTOL
 70
1
  9
$DIMLIM
 70
0
  9
$DIMTFAC
 40
1.0
  9
$DIMTP
 40
0.001
  9
$DIMTM
 40
0.001
  9
$DIMGAP
 40
0.09
  9
$DIMDSEP
 70
46
  9
$AUNITS
 70
0
  9
$PDMODE
 70
3
  9
$PDSIZE
 40
0.3125
  9
$HANDSEED
  5
4B6
  9
$TILEMODE
 70
1
  9
$MEASUREMENT
 70
0
  9
$INSUNITS
 70
1
  0
ENDSEC
  0
SECTION
  2
CLASSES
  0
CLASS
  1
ACDBDICTIONARYWDFLT
  2
AcDbDictionaryWithDefault
  3
AutoCAD 2000
 90
0
 91
1
280
0
281
0
  0
CLASS
  1
ACDBPLACEHOLDER
  2
AcDbPlaceHolder
  3
AutoCAD 2000
 90
0
 91
1
280
0
281
0
  0
CLASS
  1
LAYOUT
  2
AcDbLayout
  3
AutoCAD 2000
 90
0
 91
0
280
0
281
0
  0
ENDSEC
  0
SECTION
  2
TABLES
  0
TABLE
  2
VPORT
  5
8
100
AcDbSymbolTable
 70
2
  0
VPORT
  5
1F4
100
AcDbSymbolTableRecord
100
AcDbViewportTableRecord
  2
*ACTIVE
 70
0
 10
0.0
 20
0.0
 11
1.0
 21
1.0
 12
5.5
 22
4.25
 13
0.0
 23
0.0
 14
1.0
 24
1.0
 15
0.0
 25
0.0
 16
0.0
 26
0.0
 36
1.0
 17
0.0
 27
0.0
 37
0.0
 40
8.5
 41
1.2941176471
 42
50.0
 43
0.0
 44
0.0
 50
0.0
 51
0.0
 71
0
 72
100
 73
1
 74
1
 75
0
 76
0
 77
0
 78
0
  0
ENDTAB
  0
TABLE
  2
LTYPE
  5
5
100
AcDbSymbolTable
 70
6
  0
LTYPE
  5
14
100
AcDbSymbolTableRecord
100
AcDbLinetypeTableRecord
  2
BYBLOCK
 70
0
  3

 72
65
 73
0
 40
0.0
  0
LTYPE
  5
15
100
AcDbSymbolTableRecord
100
AcDbLinetypeTableRecord
  2
BYLAYER
 70
0
  3

 72
65
 73
0
 40
0.0
  0
LTYPE
  5
16
100
AcDbSymbolTableRecord
100
AcDbLinetypeTableRecord
  2
CONTINUOUS
 70
64
  3
Solid line
 72
65
 73
0
 40
0.0
  0
LTYPE
  5
1F5
100
AcDbSymbolTableRecord
100
AcDbLinetypeTableRecord
  2
CENTER
 70
64
  3
____ _ ____ _ ____ _ ____ _ ____ _ ____ _ ____
 72
65
 73
4
 40
0.6
 49
0.375
 74
0
 49
-0.075
 74
0
 49
0.075
 74
0
 49
-0.075
 74
0
  0
LTYPE
  5
1F6
100
AcDbSymbolTableRecord
100
AcDbLinetypeTableRecord
  2
HIDDEN
 70
64
  3
- - - - - - - - - - - - - - - - - - - -
 72
65
 73
2
 40
0.2
 49
0.1
 74
0
 49
-0.1
 74
0
  0
LTYPE
  5
1F7
100
AcDbSymbolTableRecord
100
AcDbLinetypeTableRecord
  2
PHANTOM
 70
64
  3
_____ _ _ _____ _ _ _____ _ _ _____
 72
65
 73
6
 40
0.8
 49
0.45
 74
0
 49
-0.05
 74
0
 49
0.1
 74
0
 49
-0.05
 74
0
 49
0.1
 74
0
 49
-0.05
 74
0
  0
LTYPE
  5
1F8
100
AcDbSymbolTableRecord
100
AcDbLinetypeTableRecord
  2
DOT
 70
64
  3
. . . . . . . . . . . . . . . . . . . .
 72
65
 73
2
 40
0.2
 49
0.1
 74
0
 49
-0.1
 74
0
  0
LTYPE
  5
1F9
100
AcDbSymbolTableRecord
100
AcDbLinetypeTableRecord
  2
DASHED
 70
64
  3
- - - - - - - - - - - - - - - - - - - -
 72
65
 73
2
 40
0.2
 49
0.1
 74
0
 49
-0.1
 74
0
  0
ENDTAB
  0
TABLE
  2
LAYER
  5
2
100
AcDbSymbolTable
 70
36
  0
LAYER
  5
10
100
AcDbSymbolTableRecord
100
AcDbLayerTableRecord
  2
0
 70
0
 62
7
  6
CONTINUOUS
370
-3
390
F
  0
LAYER
  5
1FA
100
AcDbSymbolTableRecord
100
AcDbLayerTableRecord
  2
DEFAULT_1
 70
0
 62
7
  6
CENTER
370
-3
390
F
  0
LAYER
  5
1FB
100
AcDbSymbolTableRecord
100
AcDbLayerTableRecord
  2
DEFAULT_2
 70
0
 62
8
  6
HIDDEN
370
-3
390
F
  0
LAYER
  5
1FC
100
AcDbSymbolTableRecord
100
AcDbLayerTableRecord
  2
DEFAULT_3
 70
0
 62
7
  6
PHANTOM
370
-3
390
F
  0
LAYER
  5
1FD
100
AcDbSymbolTableRecord
100
AcDbLayerTableRecord
  2
ALL_ASSEMBLY_MEMBERS
 70
0
 62
7
  6
CONTINUOUS
370
-3
390
F
  0
LAYER
  5
1FE
100
AcDbSymbolTableRecord
100
AcDbLayerTableRecord
  2
ALL_FEATURES
 70
0
 62
7
  6
CONTINUOUS
370
-3
390
F
  0
LAYER
  5
1FF
100
AcDbSymbolTableRecord
100
AcDbLayerTableRecord
  2
AXES_FEATURES
 70
0
 62
7
  6
CONTINUOUS
370
-3
390
F
  0
LAYER
  5
200
100
AcDbSymbolTableRecord
100
AcDbLayerTableRecord
  2
CHAMFER_FEATURES
 70
0
 62
7
  6
CONTINUOUS
370
-3
390
F
  0
LAYER
  5
201
100
AcDbSymbolTableRecord
100
AcDbLayerTableRecord
  2
COSMETIC_SKETCHES
 70
0
 62
7
  6
CONTINUOUS
370
-3
390
F
  0
LAYER
  5
202
100
AcDbSymbolTableRecord
100
AcDbLayerTableRecord
  2
CUT_FEATURES
 70
0
 62
7
  6
CONTINUOUS
370
-3
390
F
  0
LAYER
  5
203
100
AcDbSymbolTableRecord
100
AcDbLayerTableRecord
  2
DATUM_CURVES
 70
0
 62
7
  6
CONTINUOUS
370
-3
390
F
  0
LAYER
  5
204
100
AcDbSymbolTableRecord
100
AcDbLayerTableRecord
  2
DATUM_PLANES
 70
0
 62
7
  6
CONTINUOUS
370
-3
390
F
  0
LAYER
  5
205
100
AcDbSymbolTableRecord
100
AcDbLayerTableRecord
  2
DATUM_POINTS
 70
0
 62
7
  6
CONTINUOUS
370
-3
390
F
  0
LAYER
  5
206
100
AcDbSymbolTableRecord
100
AcDbLayerTableRecord
  2
DEFAULT_COORDINATE_SYSTEM
 70
0
 62
7
  6
CONTINUOUS
370
-3
390
F
  0
LAYER
  5
207
100
AcDbSymbolTableRecord
100
AcDbLayerTableRecord
  2
DEFAULT_DATUM_AXES
 70
0
 62
7
  6
CONTINUOUS
370
-3
390
F
  0
LAYER
  5
208
100
AcDbSymbolTableRecord
100
AcDbLayerTableRecord
  2
DEFAULT_DATUM_CURVES
 70
0
 62
7
  6
CONTINUOUS
370
-3
390
F
  0
LAYER
  5
209
100
AcDbSymbolTableRecord
100
AcDbLayerTableRecord
  2
DEFAULT_DATUM_PLANES
 70
0
 62
7
  6
CONTINUOUS
370
-3
390
F
  0
LAYER
  5
20A
100
AcDbSymbolTableRecord
100
AcDbLayerTableRecord
  2
DEFAULT_SURFACES
 70
0
 62
7
  6
CONTINUOUS
370
-3
390
F
  0
LAYER
  5
20B
100
AcDbSymbolTableRecord
100
AcDbLayerTableRecord
  2
DIMENSIONS
 70
0
 62
7
  6
CONTINUOUS
370
-3
390
F
  0
LAYER
  5
20C
100
AcDbSymbolTableRecord
100
AcDbLayerTableRecord
  2
HOLE_FEATURES
 70
0
 62
7
  6
CONTINUOUS
370
-3
390
F
  0
LAYER
  5
20D
100
AcDbSymbolTableRecord
100
AcDbLayerTableRecord
  2
HOLE_PATTERN
 70
0
 62
7
  6
CONTINUOUS
370
-3
390
F
  0
LAYER
  5
20E
100
AcDbSymbolTableRecord
100
AcDbLayerTableRecord
  2
NONE
 70
0
 62
7
  6
CONTINUOUS
370
-3
390
F
  0
LAYER
  5
20F
100
AcDbSymbolTableRecord
100
AcDbLayerTableRecord
  2
PART_REFERENCE_DIMENSIONS
 70
0
 62
7
  6
CONTINUOUS
370
-3
390
F
  0
LAYER
  5
210
100
AcDbSymbolTableRecord
100
AcDbLayerTableRecord
  2
PLATED_SURFACE_AREA
 70
0
 62
7
  6
CONTINUOUS
370
-3
390
F
  0
LAYER
  5
211
100
AcDbSymbolTableRecord
100
AcDbLayerTableRecord
  2
POINTS
 70
0
 62
7
  6
CONTINUOUS
370
-3
390
F
  0
LAYER
  5
212
100
AcDbSymbolTableRecord
100
AcDbLayerTableRecord
  2
PROTRUSION
 70
0
 62
7
  6
CONTINUOUS
370
-3
390
F
  0
LAYER
  5
213
100
AcDbSymbolTableRecord
100
AcDbLayerTableRecord
  2
PROTRUSION_FEATURES
 70
0
 62
7
  6
CONTINUOUS
370
-3
390
F
  0
LAYER
  5
214
100
AcDbSymbolTableRecord
100
AcDbLayerTableRecord
  2
QUILT
 70
0
 62
7
  6
CONTINUOUS
370
-3
390
F
  0
LAYER
  5
215
100
AcDbSymbolTableRecord
100
AcDbLayerTableRecord
  2
QUILTS
 70
0
 62
7
  6
CONTINUOUS
370
-3
390
F
  0
LAYER
  5
216
100
AcDbSymbolTableRecord
100
AcDbLayerTableRecord
  2
REFERENCE_DIMENSIONS
 70
0
 62
7
  6
CONTINUOUS
370
-3
390
F
  0
LAYER
  5
217
100
AcDbSymbolTableRecord
100
AcDbLayerTableRecord
  2
ROUND_FEATURES
 70
0
 62
7
  6
CONTINUOUS
370
-3
390
F
  0
LAYER
  5
218
100
AcDbSymbolTableRecord
100
AcDbLayerTableRecord
  2
SATIN_DIRECTION
 70
0
 62
7
  6
CONTINUOUS
370
-3
390
F
  0
LAYER
  5
219
100
AcDbSymbolTableRecord
100
AcDbLayerTableRecord
  2
SHELL_FEATURES
 70
0
 62
7
  6
CONTINUOUS
370
-3
390
F
  0
LAYER
  5
21A
100
AcDbSymbolTableRecord
100
AcDbLayerTableRecord
  2
SURFACE_FEATURES
 70
0
 62
7
  6
CONTINUOUS
370
-3
390
F
  0
LAYER
  5
21B
100
AcDbSymbolTableRecord
100
AcDbLayerTableRecord
  2
XSEC_DATUMS
 70
0
 62
7
  6
CONTINUOUS
370
-3
390
F
  0
ENDTAB
  0
TABLE
  2
STYLE
  5
3
100
AcDbSymbolTable
 70
1
  0
STYLE
  5
11
100
AcDbSymbolTableRecord
100
AcDbTextStyleTableRecord
  2
STANDARD
 70
0
 40
0.0
 41
0.8
 50
0.0
 71
0
 42
0.2
  3
txt
  4

  0
STYLE
  5
21C
100
AcDbSymbolTableRecord
100
AcDbTextStyleTableRecord
  2
TEXTSTYLE_1
 70
0
 40
0.0
 41
0.8
 50
0.0
 71
0
 42
0.2
  3
gdt
  4

  0
ENDTAB
  0
TABLE
  2
VIEW
  5
6
100
AcDbSymbolTable
 70
0
  0
ENDTAB
  0
TABLE
  2
UCS
  5
7
100
AcDbSymbolTable
 70
0
  0
ENDTAB
  0
TABLE
  2
APPID
  5
9
100
AcDbSymbolTable
 70
1
  0
APPID
  5
21D
100
AcDbSymbolTableRecord
100
AcDbRegAppTableRecord
  2
ACAD
 70
0
  0
ENDTAB
  0
TABLE
  2
BLOCK_RECORD
  5
1
100
AcDbSymbolTable
 70
0
  0
BLOCK_RECORD
  5
21E
100
AcDbSymbolTableRecord
100
AcDbBlockTableRecord
  2
*Model_Space
  0
BLOCK_RECORD
  5
21F
100
AcDbSymbolTableRecord
100
AcDbBlockTableRecord
  2
*Paper_Space
  0
BLOCK_RECORD
  5
220
100
AcDbSymbolTableRecord
100
AcDbBlockTableRecord
  2
_FILLED
  0
ENDTAB
  0
TABLE
  2
DIMSTYLE
  5
A
100
AcDbSymbolTable
 70
1
100
AcDbDimStyleTable
 71
0
  0
DIMSTYLE
105
221
100
AcDbSymbolTableRecord
100
AcDbDimStyleTableRecord
  2
STANDARD
 70
0
  3

  4

 40
1.0
 41
0.1
 42
0.0625
 43
0.38
 44
0.125
 45
0.0
 46
0.0
 47
0.001
 48
0.001
140
0.08
141
0.09
142
0.0
143
25.4
144
1.0
145
0.0
146
1.0
147
0.09
 71
1.0
 72
0.0
 73
1
 74
1
 75
0
 76
0
 77
0
 78
4
 79
1
170
1
171
2
172
0
173
0
174
0
175
0
176
0
177
0
178
0
270
2
179
3
271
3
272
3
273
2
274
2
275
0
280
0
281
0
282
0
283
1
284
4
285
0
286
0
287
3
288
0
340
11
278
46
341
220
342
220
343
220
344
220
  0
ENDTAB
  0
ENDSEC
  0
SECTION
  2
BLOCKS
  0
BLOCK
  5
20
100
AcDbEntity
  8
0
100
AcDbBlockBegin
  2
*Model_Space
 70
0
 10
0.0
 20
0.0
 30
0.0
  3
*Model_Space
  1

  0
ENDBLK
  5
21
100
AcDbEntity
  8
0
100
AcDbBlockEnd
  0
BLOCK
  5
1C
100
AcDbEntity
  8
0
100
AcDbBlockBegin
  2
*Paper_Space
 70
0
 10
0.0
 20
0.0
 30
0.0
  3
*Paper_Space
  1

  0
ENDBLK
  5
1D
100
AcDbEntity
  8
0
100
AcDbBlockEnd
  0
BLOCK
  5
222
100
AcDbEntity
  8
0
100
AcDbBlockBegin
  2
_FILLED
 70
64
 10
0.0
 20
0.0
  3
_FILLED
  1

  0
SOLID
  5
223
100
AcDbEntity
  8
0
  6
BYBLOCK
 62
0
100
AcDbTrace
 10
0.0
 20
0.0
 11
-1.0
 21
0.2
 12
-1.0
 22
-0.2
 13
-1.0
 23
-0.2
  0
ENDBLK
  5
224
100
AcDbEntity
  8
0
  6
BYBLOCK
 62
0
100
AcDbBlockEnd
  0
ENDSEC
  0
SECTION
  2
ENTITIES
  0
MTEXT
  5
225
100
AcDbEntity
  8
0
100
AcDbMText
 62
2
  6
CONTINUOUS
  7
STANDARD
 71
3
 72
1
 10
4.7736413043
 20
2.2612852185
 30
0.0
 11
1.0
 21
0.0
 31
0.0
 73
2
 44
0.9
  1
SCALE  .500
 40
0.08
 41
0.704
  0
LINE
  5
226
100
AcDbEntity
  8
0
100
AcDbLine
 62
7
  6
CONTINUOUS
 10
0.0
 20
0.0
 11
0.0
 21
8.5
  0
LINE
  5
227
100
AcDbEntity
  8
0
100
AcDbLine
 62
7
  6
CONTINUOUS
 10
0.0
 20
0.0
 11
11.0
 21
0.0
  0
LINE
  5
228
100
AcDbEntity
  8
0
100
AcDbLine
 62
7
  6
CONTINUOUS
 10
0.0
 20
8.5
 11
11.0
 21
8.5
  0
LINE
  5
229
100
AcDbEntity
  8
0
100
AcDbLine
 62
7
  6
CONTINUOUS
 10
11.0
 20
0.0
 11
11.0
 21
8.5
  0
LINE
  5
22A
100
AcDbEntity
  8
ALL_ASSEMBLY_MEMBERS
100
AcDbLine
 62
7
  6
CONTINUOUS
 10
3.0861413043
 20
5.8360983219
 11
3.0861413043
 21
3.3760983219
  0
LINE
  5
22B
100
AcDbEntity
  8
ALL_ASSEMBLY_MEMBERS
100
AcDbLine
 62
7
  6
CONTINUOUS
 10
3.1486413043
 20
5.8360983219
 11
3.1486413043
 21
3.3760983219
  0
LINE
  5
22C
100
AcDbEntity
  8
ALL_ASSEMBLY_MEMBERS
100
AcDbLine
 62
7
  6
CONTINUOUS
 10
3.3361413043
 20
6.0860983219
 11
3.3361413043
 21
6.0635983219
  0
LINE
  5
22D
100
AcDbEntity
  8
ALL_ASSEMBLY_MEMBERS
100
AcDbLine
 62
7
  6
CONTINUOUS
 10
3.3361413043
 20
3.1485983219
 11
3.3361413043
 21
3.1260983219
  0
LINE
  5
22E
100
AcDbEntity
  8
ALL_ASSEMBLY_MEMBERS
100
AcDbLine
 62
7
  6
CONTINUOUS
 10
3.3986413043
 20
6.0860983219
 11
3.3986413043
 21
6.0635983219
  0
LINE
  5
22F
100
AcDbEntity
  8
ALL_ASSEMBLY_MEMBERS
100
AcDbLine
 62
7
  6
CONTINUOUS
 10
3.3986413043
 20
3.1485983219
 11
3.3986413043
 21
3.1260983219
  0
LINE
  5
230
100
AcDbEntity
  8
ALL_ASSEMBLY_MEMBERS
100
AcDbLine
 62
7
  6
CONTINUOUS
 10
3.5436413043
 20
2.9185983219
 11
6.0036413043
 21
2.9185983219
  0
LINE
  5
231
100
AcDbEntity
  8
ALL_ASSEMBLY_MEMBERS
100
AcDbLine
 62
7
  6
CONTINUOUS
 10
3.5436413043
 20
2.9810983219
 11
6.0036413043
 21
2.9810983219
  0
LINE
  5
232
100
AcDbEntity
  8
ALL_ASSEMBLY_MEMBERS
100
AcDbLine
 62
7
  6
CONTINUOUS
 10
3.2936413043
 20
3.1685983219
 11
3.3161413043
 21
3.1685983219
  0
LINE
  5
233
100
AcDbEntity
  8
ALL_ASSEMBLY_MEMBERS
100
AcDbLine
 62
7
  6
CONTINUOUS
 10
6.2311413043
 20
3.1685983219
 11
6.2536413043
 21
3.1685983219
  0
LINE
  5
234
100
AcDbEntity
  8
ALL_ASSEMBLY_MEMBERS
100
AcDbLine
 62
7
  6
CONTINUOUS
 10
4.7809368077
 20
3.2211175366
 11
4.766345801
 21
3.2211175366
  0
LINE
  5
235
100
AcDbEntity
  8
ALL_ASSEMBLY_MEMBERS
100
AcDbLine
 62
7
  6
CONTINUOUS
 10
3.2936413043
 20
3.2310983219
 11
3.3161413043
 21
3.2310983219
  0
LINE
  5
236
100
AcDbEntity
  8
ALL_ASSEMBLY_MEMBERS
100
AcDbLine
 62
7
  6
CONTINUOUS
 10
6.2311413043
 20
3.2310983219
 11
6.2536413043
 21
3.2310983219
  0
LINE
  5
237
100
AcDbEntity
  8
ALL_ASSEMBLY_MEMBERS
100
AcDbLine
 62
7
  6
CONTINUOUS
 10
4.3543397367
 20
5.1729155468
 11
4.3443567928
 21
5.165392859
  0
LINE
  5
238
100
AcDbEntity
  8
ALL_ASSEMBLY_MEMBERS
100
AcDbLine
 62
7
  6
CONTINUOUS
 10
4.664420105
 20
5.312859891
 11
4.6750575432
 21
5.3184436757
  0
LINE
  5
239
100
AcDbEntity
  8
ALL_ASSEMBLY_MEMBERS
100
AcDbLine
 62
7
  6
CONTINUOUS
 10
4.6963346956
 20
5.3288062907
 11
4.664420105
 21
5.3122199871
  0
LINE
  5
23A
100
AcDbEntity
  8
ALL_ASSEMBLY_MEMBERS
100
AcDbLine
 62
7
  6
CONTINUOUS
 10
4.0707570576
 20
4.5508777925
 11
4.0718465044
 21
4.5384253588
  0
LINE
  5
23B
100
AcDbEntity
  8
ALL_ASSEMBLY_MEMBERS
100
AcDbLine
 62
7
  6
CONTINUOUS
 10
4.1249765926
 20
4.9425709163
 11
4.1107283763
 21
4.8987194156
  0
LINE
  5
23C
100
AcDbEntity
  8
ALL_ASSEMBLY_MEMBERS
100
AcDbLine
 62
7
  6
CONTINUOUS
 10
4.0677199018
 20
4.7206241243
 11
4.0656965733
 21
4.7324664051
  0
LINE
  5
23D
100
AcDbEntity
  8
ALL_ASSEMBLY_MEMBERS
100
AcDbLine
 62
7
  6
CONTINUOUS
 10
4.092106952
 20
4.8130652257
 11
4.0919530148
 21
4.8139860341
  0
LINE
  5
23E
100
AcDbEntity
  8
ALL_ASSEMBLY_MEMBERS
100
AcDbLine
 62
7
  6
CONTINUOUS
 10
4.0939286309
 20
4.802182408
 11
4.091953029
 21
4.8139860297
  0
LINE
  5
23F
100
AcDbEntity
  8
ALL_ASSEMBLY_MEMBERS
100
AcDbLine
 62
7
  6
CONTINUOUS
 10
4.0624161253
 20
4.7559044122
 11
4.0683284866
 21
4.7204263832
  0
LINE
  5
240
100
AcDbEntity
  8
ALL_ASSEMBLY_MEMBERS
100
AcDbLine
 62
7
  6
CONTINUOUS
 10
4.0888882144
 20
4.837377125
 11
4.0948005757
 21
4.801899096
  0
LINE
  5
241
100
AcDbEntity
  8
ALL_ASSEMBLY_MEMBERS
100
AcDbLine
 62
7
  6
CONTINUOUS
 10
4.2083652411
 20
4.3236213984
 11
4.2088890146
 21
4.3202386278
  0
LINE
  5
242
100
AcDbEntity
  8
ALL_ASSEMBLY_MEMBERS
100
AcDbLine
 62
7
  6
CONTINUOUS
 10
4.1355840093
 20
4.3806160921
 11
4.1360475502
 21
4.3808837176
  0
LINE
  5
243
100
AcDbEntity
  8
ALL_ASSEMBLY_MEMBERS
100
AcDbLine
 62
7
  6
CONTINUOUS
 10
4.1049475747
 20
4.3508676974
 11
4.1054826617
 21
4.35117663
  0
LINE
  5
244
100
AcDbEntity
  8
ALL_ASSEMBLY_MEMBERS
100
AcDbLine
 62
7
  6
CONTINUOUS
 10
4.144164273
 20
4.3658833013
 11
4.1447150307
 21
4.3662012814
  0
LINE
  5
245
100
AcDbEntity
  8
ALL_ASSEMBLY_MEMBERS
100
AcDbLine
 62
7
  6
CONTINUOUS
 10
4.1810762232
 20
4.3814878119
 11
4.1816353528
 21
4.3818106256
  0
LINE
  5
246
100
AcDbEntity
  8
ALL_ASSEMBLY_MEMBERS
100
AcDbLine
 62
7
  6
CONTINUOUS
 10
4.8555274251
 20
3.9215140938
 11
4.859810699
 21
3.9215140938
  0
LINE
  5
247
100
AcDbEntity
  8
ALL_ASSEMBLY_MEMBERS
100
AcDbLine
 62
7
  6
CONTINUOUS
 10
4.865773691
 20
3.9717681185
 11
4.8700569648
 21
3.9717681185
  0
LINE
  5
248
100
AcDbEntity
  8
ALL_ASSEMBLY_MEMBERS
100
AcDbLine
 62
7
  6
CONTINUOUS
 10
4.2161784307
 20
4.158129204
 11
4.2060240167
 21
4.1645496005
  0
LINE
  5
249
100
AcDbEntity
  8
ALL_ASSEMBLY_MEMBERS
100
AcDbLine
 62
7
  6
CONTINUOUS
 10
4.1864111482
 20
4.1777948504
 11
4.2167326038
 21
4.158449156
  0
LINE
  5
24A
100
AcDbEntity
  8
ALL_ASSEMBLY_MEMBERS
100
AcDbLine
 62
7
  6
CONTINUOUS
 10
4.2286981089
 20
4.3065580016
 11
4.245369282
 21
4.2776826828
  0
LINE
  5
24B
100
AcDbEntity
  8
ALL_ASSEMBLY_MEMBERS
100
AcDbLine
 62
7
  6
CONTINUOUS
 10
5.1752634377
 20
5.0944562161
 11
5.2226305892
 21
5.150906189
  0
LINE
  5
24C
100
AcDbEntity
  8
ALL_ASSEMBLY_MEMBERS
100
AcDbLine
 62
7
  6
CONTINUOUS
 10
5.2322061447
 20
5.1428713439
 11
5.1848389933
 21
5.086421371
  0
LINE
  5
24D
100
AcDbEntity
  8
ALL_ASSEMBLY_MEMBERS
100
AcDbLine
 62
7
  6
CONTINUOUS
 10
4.5785228612
 20
4.4562824578
 11
4.5983519713
 21
4.4715076472
  0
LINE
  5
24E
100
AcDbEntity
  8
ALL_ASSEMBLY_MEMBERS
100
AcDbLine
 62
7
  6
CONTINUOUS
 10
4.6010637963
 20
4.4749588304
 11
4.6368930368
 21
4.5021850224
  0
LINE
  5
24F
100
AcDbEntity
  8
ALL_ASSEMBLY_MEMBERS
100
AcDbLine
 62
7
  6
CONTINUOUS
 10
4.220537291
 20
4.3163931137
 11
4.2213272234
 21
4.3168491813
  0
LINE
  5
250
100
AcDbEntity
  8
ALL_ASSEMBLY_MEMBERS
100
AcDbLine
 62
7
  6
CONTINUOUS
 10
4.2278964668
 20
4.3060951734
 11
4.2286981089
 21
4.3065580016
  0
LINE
  5
251
100
AcDbEntity
  8
ALL_ASSEMBLY_MEMBERS
100
AcDbLine
 62
7
  6
CONTINUOUS
 10
4.1475178806
 20
4.2432992268
 11
4.1483236042
 21
4.2437644116
  0
LINE
  5
252
100
AcDbEntity
  8
ALL_ASSEMBLY_MEMBERS
100
AcDbLine
 62
7
  6
CONTINUOUS
 10
4.2445734335
 20
4.2772231995
 11
4.245369282
 21
4.2776826828
  0
LINE
  5
253
100
AcDbEntity
  8
ALL_ASSEMBLY_MEMBERS
100
AcDbLine
 62
7
  6
CONTINUOUS
 10
4.2670689626
 20
4.2681969
 11
4.2647104979
 21
4.2668352398
  0
LINE
  5
254
100
AcDbEntity
  8
ALL_ASSEMBLY_MEMBERS
100
AcDbLine
 62
7
  6
CONTINUOUS
 10
4.277829869
 20
4.2496802193
 11
4.2741846095
 21
4.2475756278
  0
LINE
  5
255
100
AcDbEntity
  8
ALL_ASSEMBLY_MEMBERS
100
AcDbLine
 62
7
  6
CONTINUOUS
 10
4.2708611832
 20
4.2265521008
 11
4.1857288969
 21
4.1774009524
  0
LINE
  5
256
100
AcDbEntity
  8
ALL_ASSEMBLY_MEMBERS
100
AcDbLine
 62
7
  6
CONTINUOUS
 10
4.2782690944
 20
4.2138578375
 11
4.2135732861
 21
4.1765056952
  0
LINE
  5
257
100
AcDbEntity
  8
ALL_ASSEMBLY_MEMBERS
100
AcDbLine
 62
7
  6
CONTINUOUS
 10
4.7544097973
 20
4.1705226693
 11
4.7294696568
 21
4.1687936826
  0
LINE
  5
258
100
AcDbEntity
  8
ALL_ASSEMBLY_MEMBERS
100
AcDbLine
 62
7
  6
CONTINUOUS
 10
4.7928728114
 20
4.1705226693
 11
4.8178129519
 21
4.1687936826
  0
LINE
  5
259
100
AcDbEntity
  8
ALL_ASSEMBLY_MEMBERS
100
AcDbLine
 62
7
  6
CONTINUOUS
 10
4.2647104979
 20
4.2668352398
 11
4.2577208361
 21
4.2683428034
  0
LINE
  5
25A
100
AcDbEntity
  8
ALL_ASSEMBLY_MEMBERS
100
AcDbLine
 62
7
  6
CONTINUOUS
 10
4.243558117
 20
4.2714005255
 11
4.2399841295
 21
4.2721740439
  0
LINE
  5
25B
100
AcDbEntity
  8
ALL_ASSEMBLY_MEMBERS
100
AcDbLine
 62
7
  6
CONTINUOUS
 10
4.243558117
 20
4.2714005255
 11
4.2399840257
 21
4.2721735199
  0
LINE
  5
25C
100
AcDbEntity
  8
ALL_ASSEMBLY_MEMBERS
100
AcDbLine
 62
7
  6
CONTINUOUS
 10
4.2434444739
 20
4.2720533463
 11
4.2443495759
 21
4.2718571233
  0
LINE
  5
25D
100
AcDbEntity
  8
ALL_ASSEMBLY_MEMBERS
100
AcDbLine
 62
7
  6
CONTINUOUS
 10
4.2443495759
 20
4.2718571233
 11
4.264836683
 21
4.2674175392
  0
LINE
  5
25E
100
AcDbEntity
  8
ALL_ASSEMBLY_MEMBERS
100
AcDbLine
 62
7
  6
CONTINUOUS
 10
4.7084004166
 20
3.2960235796
 11
4.7046413043
 21
3.7835983219
  0
LINE
  5
25F
100
AcDbEntity
  8
ALL_ASSEMBLY_MEMBERS
100
AcDbLine
 62
7
  6
CONTINUOUS
 10
4.7240323309
 20
3.7868615437
 11
4.7264331618
 21
3.3436221748
  0
LINE
  5
260
100
AcDbEntity
  8
ALL_ASSEMBLY_MEMBERS
100
AcDbLine
 62
7
  6
CONTINUOUS
 10
4.7267046117
 20
3.2830048865
 11
4.7267628172
 21
3.2721133707
  0
LINE
  5
261
100
AcDbEntity
  8
ALL_ASSEMBLY_MEMBERS
100
AcDbLine
 62
7
  6
CONTINUOUS
 10
4.7264331994
 20
3.3436220994
 11
4.7267046307
 21
3.2830050314
  0
LWPOLYLINE
  5
262
100
AcDbEntity
  8
ALL_ASSEMBLY_MEMBERS
100
AcDbPolyline
 62
7
  6
CONTINUOUS
 90
4
 70
0
 10
4.7656642105
 20
3.4921445314
 10
4.7658336405
 20
3.4468964608
 10
4.7659970715
 20
3.4018213536
 10
4.7661492494
 20
3.3569305228
  0
LINE
  5
263
100
AcDbEntity
  8
ALL_ASSEMBLY_MEMBERS
100
AcDbLine
 62
7
  6
CONTINUOUS
 10
4.7391413043
 20
3.9030983219
 11
4.7414776468
 21
3.2460282978
  0
LINE
  5
264
100
AcDbEntity
  8
ALL_ASSEMBLY_MEMBERS
100
AcDbLine
 62
7
  6
CONTINUOUS
 10
4.7641714399
 20
3.9054286153
 11
4.7661492494
 21
3.3569305228
  0
LINE
  5
265
100
AcDbEntity
  8
ALL_ASSEMBLY_MEMBERS
100
AcDbLine
 62
7
  6
CONTINUOUS
 10
4.7653413855
 20
3.5831093703
 11
4.7655008041
 21
3.5375518465
  0
LWPOLYLINE
  5
266
100
AcDbEntity
  8
ALL_ASSEMBLY_MEMBERS
100
AcDbPolyline
 62
7
  6
CONTINUOUS
 90
7
 70
0
 10
4.7641714399
 20
3.9054286153
 10
4.7643188811
 20
3.8591071335
 10
4.7644910004
 20
3.8128577632
 10
4.7646751164
 20
3.7666921056
 10
4.764848511
 20
3.7206200955
 10
4.7650075236
 20
3.6746548887
 10
4.7653413855
 20
3.5831093703
  0
LINE
  5
267
100
AcDbEntity
  8
ALL_ASSEMBLY_MEMBERS
100
AcDbLine
 62
7
  6
CONTINUOUS
 10
4.7663045839
 20
3.233645145
 11
4.766345801
 21
3.2211175366
  0
LINE
  5
268
100
AcDbEntity
  8
ALL_ASSEMBLY_MEMBERS
100
AcDbLine
 62
7
  6
CONTINUOUS
 10
4.7662498341
 20
3.2736598874
 11
4.7663045839
 21
3.233645145
  0
LINE
  5
269
100
AcDbEntity
  8
ALL_ASSEMBLY_MEMBERS
100
AcDbLine
 62
7
  6
CONTINUOUS
 10
4.7662344121
 20
3.2854872818
 11
4.7662498341
 21
3.2736598874
  0
LINE
  5
26A
100
AcDbEntity
  8
ALL_ASSEMBLY_MEMBERS
100
AcDbLine
 62
7
  6
CONTINUOUS
 10
4.7661492494
 20
3.3569305228
 11
4.76630587
 21
3.2327537555
  0
LINE
  5
26B
100
AcDbEntity
  8
ALL_ASSEMBLY_MEMBERS
100
AcDbLine
 62
7
  6
CONTINUOUS
 10
4.7662017927
 20
3.3114872579
 11
4.7662128144
 21
3.3025590947
  0
LINE
  5
26C
100
AcDbEntity
  8
ALL_ASSEMBLY_MEMBERS
100
AcDbLine
 62
7
  6
CONTINUOUS
 10
4.766185374
 20
3.3251538895
 11
4.7662017927
 21
3.3114872579
  0
LINE
  5
26D
100
AcDbEntity
  8
ALL_ASSEMBLY_MEMBERS
100
AcDbLine
 62
7
  6
CONTINUOUS
 10
4.664420105
 20
5.30964034
 11
4.664420105
 21
5.312859891
  0
LINE
  5
26E
100
AcDbEntity
  8
ALL_ASSEMBLY_MEMBERS
100
AcDbLine
 62
7
  6
CONTINUOUS
 10
4.6650919902
 20
5.2134643775
 11
4.6650919902
 21
5.217675101
  0
LINE
  5
26F
100
AcDbEntity
  8
ALL_ASSEMBLY_MEMBERS
100
AcDbLine
 62
7
  6
CONTINUOUS
 10
4.6770179708
 20
5.2196421789
 11
4.6770179708
 21
5.218973609
  0
LINE
  5
270
100
AcDbEntity
  8
ALL_ASSEMBLY_MEMBERS
100
AcDbLine
 62
7
  6
CONTINUOUS
 10
4.6816371855
 20
5.2312234822
 11
4.6816371855
 21
5.3059277668
  0
LINE
  5
271
100
AcDbEntity
  8
ALL_ASSEMBLY_MEMBERS
100
AcDbLine
 62
7
  6
CONTINUOUS
 10
4.6963346956
 20
5.2312917898
 11
4.6963346956
 21
5.3295940866
  0
LINE
  5
272
100
AcDbEntity
  8
ALL_ASSEMBLY_MEMBERS
100
AcDbLine
 62
7
  6
CONTINUOUS
 10
4.6973913043
 20
5.0142858219
 11
4.6973913043
 21
4.9003050345
  0
LINE
  5
273
100
AcDbEntity
  8
ALL_ASSEMBLY_MEMBERS
100
AcDbLine
 62
7
  6
CONTINUOUS
 10
4.7111413043
 20
5.0142858219
 11
4.7111413043
 21
5.1142858219
  0
LINE
  5
274
100
AcDbEntity
  8
ALL_ASSEMBLY_MEMBERS
100
AcDbLine
 62
7
  6
CONTINUOUS
 10
4.7128798909
 20
5.2136926716
 11
4.7128798909
 21
5.2179018548
  0
LINE
  5
275
100
AcDbEntity
  8
ALL_ASSEMBLY_MEMBERS
100
AcDbLine
 62
7
  6
CONTINUOUS
 10
4.7729297165
 20
5.3297366787
 11
4.7729297165
 21
5.3288062907
  0
LINE
  5
276
100
AcDbEntity
  8
ALL_ASSEMBLY_MEMBERS
100
AcDbLine
 62
7
  6
CONTINUOUS
 10
4.7731816651
 20
5.2180885258
 11
4.7731816651
 21
5.2171581927
  0
LINE
  5
277
100
AcDbEntity
  8
ALL_ASSEMBLY_MEMBERS
100
AcDbLine
 62
7
  6
CONTINUOUS
 10
4.7811132365
 20
3.3389099564
 11
4.7811333593
 21
3.3569305228
  0
LINE
  5
278
100
AcDbEntity
  8
ALL_ASSEMBLY_MEMBERS
100
AcDbLine
 62
7
  6
CONTINUOUS
 10
4.7810972347
 20
3.3251538895
 11
4.7811132365
 21
3.3389099564
  0
LINE
  5
279
100
AcDbEntity
  8
ALL_ASSEMBLY_MEMBERS
100
AcDbLine
 62
7
  6
CONTINUOUS
 10
4.781080816
 20
3.3114872579
 11
4.7810972347
 21
3.3251538895
  0
LINE
  5
27A
100
AcDbEntity
  8
ALL_ASSEMBLY_MEMBERS
100
AcDbLine
 62
7
  6
CONTINUOUS
 10
4.7809767387
 20
3.2327537555
 11
4.7811333593
 21
3.3569305228
  0
LINE
  5
27B
100
AcDbEntity
  8
ALL_ASSEMBLY_MEMBERS
100
AcDbLine
 62
7
  6
CONTINUOUS
 10
4.7811333593
 20
3.3569305228
 11
4.7812855367
 21
3.4018212352
  0
LWPOLYLINE
  5
27C
100
AcDbEntity
  8
ALL_ASSEMBLY_MEMBERS
100
AcDbPolyline
 62
7
  6
CONTINUOUS
 90
6
 70
0
 10
4.782275084
 20
3.6746545173
 10
4.782434097
 20
3.72061987
 10
4.7826074919
 20
3.766691999
 10
4.7827916081
 20
3.8128577199
 10
4.7829637274
 20
3.8591071258
 10
4.7831111688
 20
3.9054286153
  0
LINE
  5
27D
100
AcDbEntity
  8
ALL_ASSEMBLY_MEMBERS
100
AcDbLine
 62
7
  6
CONTINUOUS
 10
4.7809368077
 20
3.2211175366
 11
4.7809767387
 21
3.2327537555
  0
LINE
  5
27E
100
AcDbEntity
  8
ALL_ASSEMBLY_MEMBERS
100
AcDbLine
 62
7
  6
CONTINUOUS
 10
4.7811333593
 20
3.3569305228
 11
4.7831111688
 21
3.9054286153
  0
LINE
  5
27F
100
AcDbEntity
  8
ALL_ASSEMBLY_MEMBERS
100
AcDbLine
 62
7
  6
CONTINUOUS
 10
4.7819412214
 20
3.5831089185
 11
4.782109854
 21
3.6288123794
  0
LWPOLYLINE
  5
280
100
AcDbEntity
  8
ALL_ASSEMBLY_MEMBERS
100
AcDbPolyline
 62
7
  6
CONTINUOUS
 90
3
 70
0
 10
4.7812855367
 20
3.4018212352
 10
4.7816183971
 20
3.4921442256
 10
4.7819412214
 20
3.5831089185
  0
LINE
  5
281
100
AcDbEntity
  8
ALL_ASSEMBLY_MEMBERS
100
AcDbLine
 62
7
  6
CONTINUOUS
 10
4.2906084046
 20
4.2156481319
 11
4.2911874031
 21
4.2159824168
  0
LINE
  5
282
100
AcDbEntity
  8
ALL_ASSEMBLY_MEMBERS
100
AcDbLine
 62
7
  6
CONTINUOUS
 10
4.3019215279
 20
4.2084088304
 11
4.2982749343
 21
4.2063034687
  0
LINE
  5
283
100
AcDbEntity
  8
ALL_ASSEMBLY_MEMBERS
100
AcDbLine
 62
7
  6
CONTINUOUS
 10
4.2189666437
 20
4.1597389795
 11
4.2161784307
 21
4.158129204
  0
LINE
  5
284
100
AcDbEntity
  8
ALL_ASSEMBLY_MEMBERS
100
AcDbLine
 62
7
  6
CONTINUOUS
 10
4.6786807279
 20
4.2087813404
 11
4.7035177313
 21
4.211631474
  0
LINE
  5
285
100
AcDbEntity
  8
ALL_ASSEMBLY_MEMBERS
100
AcDbLine
 62
7
  6
CONTINUOUS
 10
4.6826749027
 20
4.1725152203
 11
4.7075368697
 21
4.1751386907
  0
LINE
  5
286
100
AcDbEntity
  8
ALL_ASSEMBLY_MEMBERS
100
AcDbLine
 62
7
  6
CONTINUOUS
 10
4.7075467565
 20
4.1945137585
 11
4.752417003
 21
4.1979285765
  0
LINE
  5
287
100
AcDbEntity
  8
ALL_ASSEMBLY_MEMBERS
100
AcDbLine
 62
7
  6
CONTINUOUS
 10
4.7089900175
 20
4.1749183002
 11
4.7289395118
 21
4.1763387491
  0
LINE
  5
288
100
AcDbEntity
  8
ALL_ASSEMBLY_MEMBERS
100
AcDbLine
 62
7
  6
CONTINUOUS
 10
4.8382925912
 20
4.1749183002
 11
4.8183430969
 21
4.1763387491
  0
LINE
  5
289
100
AcDbEntity
  8
ALL_ASSEMBLY_MEMBERS
100
AcDbLine
 62
7
  6
CONTINUOUS
 10
4.7948656057
 20
4.1979285765
 11
4.8397358522
 21
4.1945137585
  0
LINE
  5
28A
100
AcDbEntity
  8
ALL_ASSEMBLY_MEMBERS
100
AcDbLine
 62
7
  6
CONTINUOUS
 10
4.864607706
 20
4.1725152203
 11
4.839745739
 21
4.1751386907
  0
LINE
  5
28B
100
AcDbEntity
  8
ALL_ASSEMBLY_MEMBERS
100
AcDbLine
 62
7
  6
CONTINUOUS
 10
4.8686018808
 20
4.2087813404
 11
4.8437648774
 21
4.211631474
  0
LINE
  5
28C
100
AcDbEntity
  8
ALL_ASSEMBLY_MEMBERS
100
AcDbLine
 62
7
  6
CONTINUOUS
 10
4.1216954735
 20
4.8875938317
 11
4.1099662743
 21
4.8989670376
  0
LINE
  5
28D
100
AcDbEntity
  8
ALL_ASSEMBLY_MEMBERS
100
AcDbLine
 62
7
  6
CONTINUOUS
 10
4.1446239985
 20
4.8653641792
 11
4.1216954781
 21
4.8875938301
  0
LINE
  5
28E
100
AcDbEntity
  8
ALL_ASSEMBLY_MEMBERS
100
AcDbLine
 62
7
  6
CONTINUOUS
 10
4.8361413043
 20
5.0142858219
 11
4.8361413043
 21
5.1142858219
  0
LINE
  5
28F
100
AcDbEntity
  8
ALL_ASSEMBLY_MEMBERS
100
AcDbLine
 62
7
  6
CONTINUOUS
 10
4.8498913043
 20
5.0142858219
 11
4.8498913043
 21
4.9003105847
  0
LINE
  5
290
100
AcDbEntity
  8
ALL_ASSEMBLY_MEMBERS
100
AcDbLine
 62
7
  6
CONTINUOUS
 10
4.859810699
 20
3.9600608053
 11
4.859810699
 21
3.9207705341
  0
LINE
  5
291
100
AcDbEntity
  8
ALL_ASSEMBLY_MEMBERS
100
AcDbLine
 62
7
  6
CONTINUOUS
 10
4.8754054374
 20
5.2315799905
 11
4.8754054374
 21
5.2309343632
  0
LINE
  5
292
100
AcDbEntity
  8
ALL_ASSEMBLY_MEMBERS
100
AcDbLine
 62
7
  6
CONTINUOUS
 10
4.8803475098
 20
5.2713489324
 11
4.8803475098
 21
5.2707129722
  0
LINE
  5
293
100
AcDbEntity
  8
ALL_ASSEMBLY_MEMBERS
100
AcDbLine
 62
7
  6
CONTINUOUS
 10
4.8869519646
 20
5.3128193913
 11
4.8869519646
 21
5.3122015261
  0
LINE
  5
294
100
AcDbEntity
  8
ALL_ASSEMBLY_MEMBERS
100
AcDbLine
 62
7
  6
CONTINUOUS
 10
4.8973966128
 20
5.2714132633
 11
4.8973966128
 21
5.2708780124
  0
LINE
  5
295
100
AcDbEntity
  8
ALL_ASSEMBLY_MEMBERS
100
AcDbLine
 62
7
  6
CONTINUOUS
 10
4.8058049619
 20
3.2460282978
 11
4.8081413043
 21
3.9030983219
  0
LINE
  5
296
100
AcDbEntity
  8
ALL_ASSEMBLY_MEMBERS
100
AcDbLine
 62
7
  6
CONTINUOUS
 10
4.820577978
 20
3.2830050314
 11
4.8208494093
 21
3.3436220997
  0
LINE
  5
297
100
AcDbEntity
  8
ALL_ASSEMBLY_MEMBERS
100
AcDbLine
 62
7
  6
CONTINUOUS
 10
4.8205197915
 20
3.2721133707
 11
4.820577997
 21
3.2830048865
  0
LINE
  5
298
100
AcDbEntity
  8
ALL_ASSEMBLY_MEMBERS
100
AcDbLine
 62
7
  6
CONTINUOUS
 10
4.8208494469
 20
3.343622175
 11
4.8232502778
 21
3.7868615437
  0
LINE
  5
299
100
AcDbEntity
  8
ALL_ASSEMBLY_MEMBERS
100
AcDbLine
 62
7
  6
CONTINUOUS
 10
4.8426413043
 20
3.7835983219
 11
4.8388821921
 21
3.2960235796
  0
LINE
  5
29A
100
AcDbEntity
  8
ALL_ASSEMBLY_MEMBERS
100
AcDbLine
 62
7
  6
CONTINUOUS
 10
4.0707818767
 20
4.7196292284
 11
4.0677199018
 21
4.7206241243
  0
LINE
  5
29B
100
AcDbEntity
  8
ALL_ASSEMBLY_MEMBERS
100
AcDbLine
 62
7
  6
CONTINUOUS
 10
4.1624582766
 20
4.6905482223
 11
4.1584536405
 21
4.6918494074
  0
LINE
  5
29C
100
AcDbEntity
  8
ALL_ASSEMBLY_MEMBERS
100
AcDbLine
 62
7
  6
CONTINUOUS
 10
4.160268169
 20
4.7037995495
 11
4.1609040167
 21
4.7035929501
  0
LINE
  5
29D
100
AcDbEntity
  8
ALL_ASSEMBLY_MEMBERS
100
AcDbLine
 62
7
  6
CONTINUOUS
 10
4.1506811108
 20
4.7117715032
 11
4.0796331141
 21
4.7348563967
  0
LINE
  5
29E
100
AcDbEntity
  8
ALL_ASSEMBLY_MEMBERS
100
AcDbLine
 62
7
  6
CONTINUOUS
 10
4.1551579268
 20
4.7257707742
 11
4.0616668869
 21
4.7561478545
  0
LINE
  5
29F
100
AcDbEntity
  8
ALL_ASSEMBLY_MEMBERS
100
AcDbLine
 62
7
  6
CONTINUOUS
 10
5.25423398
 20
4.2222482234
 11
5.2535065416
 21
4.2227575813
  0
LINE
  5
2A0
100
AcDbEntity
  8
ALL_ASSEMBLY_MEMBERS
100
AcDbLine
 62
7
  6
CONTINUOUS
 10
4.3881453136
 20
5.1072835292
 11
4.3437974406
 21
5.1661351445
  0
LINE
  5
2A1
100
AcDbEntity
  8
ALL_ASSEMBLY_MEMBERS
100
AcDbLine
 62
7
  6
CONTINUOUS
 10
4.3537803844
 20
5.1736578323
 11
4.3981282575
 21
5.114806217
  0
LINE
  5
2A2
100
AcDbEntity
  8
ALL_ASSEMBLY_MEMBERS
100
AcDbLine
 62
7
  6
CONTINUOUS
 10
5.3766065565
 20
4.7275195832
 11
5.3757487773
 21
4.727289742
  0
LINE
  5
2A3
100
AcDbEntity
  8
ALL_ASSEMBLY_MEMBERS
100
AcDbLine
 62
7
  6
CONTINUOUS
 10
5.4500065577
 20
4.7613596618
 11
5.4491230294
 21
4.761122921
  0
LINE
  5
2A4
100
AcDbEntity
  8
ALL_ASSEMBLY_MEMBERS
100
AcDbLine
 62
7
  6
CONTINUOUS
 10
5.3800344391
 20
4.755044317
 11
5.3791403208
 21
4.7548047387
  0
LINE
  5
2A5
100
AcDbEntity
  8
ALL_ASSEMBLY_MEMBERS
100
AcDbLine
 62
7
  6
CONTINUOUS
 10
5.3544907059
 20
4.8027165798
 11
5.3536347826
 21
4.8024872358
  0
LINE
  5
2A6
100
AcDbEntity
  8
ALL_ASSEMBLY_MEMBERS
100
AcDbLine
 62
7
  6
CONTINUOUS
 10
5.4159112404
 20
4.8199566971
 11
5.4150527788
 21
4.819726673
  0
LINE
  5
2A7
100
AcDbEntity
  8
ALL_ASSEMBLY_MEMBERS
100
AcDbLine
 62
7
  6
CONTINUOUS
 10
5.4616404128
 20
4.8342096078
 11
5.4607829762
 21
4.8339798584
  0
LINE
  5
2A8
100
AcDbEntity
  8
ALL_ASSEMBLY_MEMBERS
100
AcDbLine
 62
7
  6
CONTINUOUS
 10
4.1443303917
 20
4.5447668772
 11
4.0709205991
 21
4.5383443525
  0
LINE
  5
2A9
100
AcDbEntity
  8
ALL_ASSEMBLY_MEMBERS
100
AcDbLine
 62
7
  6
CONTINUOUS
 10
4.0698311523
 20
4.5507967863
 11
4.1432409449
 21
4.5572193109
  0
LINE
  5
2AA
100
AcDbEntity
  8
ALL_ASSEMBLY_MEMBERS
100
AcDbLine
 62
7
  6
CONTINUOUS
 10
5.4677827977
 20
4.4773560318
 11
5.3952121114
 21
4.4901522018
  0
LINE
  5
2AB
100
AcDbEntity
  8
ALL_ASSEMBLY_MEMBERS
100
AcDbLine
 62
7
  6
CONTINUOUS
 10
5.3973827136
 20
4.5024622987
 11
5.4699533999
 21
4.4896661287
  0
LINE
  5
2AC
100
AcDbEntity
  8
ALL_ASSEMBLY_MEMBERS
100
AcDbLine
 62
7
  6
CONTINUOUS
 10
4.1770084294
 20
4.7360677634
 11
4.1730052583
 21
4.7373684725
  0
LINE
  5
2AD
100
AcDbEntity
  8
ALL_ASSEMBLY_MEMBERS
100
AcDbLine
 62
7
  6
CONTINUOUS
 10
4.0969894155
 20
4.8011878988
 11
4.0939286309
 21
4.802182408
  0
LINE
  5
2AE
100
AcDbEntity
  8
ALL_ASSEMBLY_MEMBERS
100
AcDbLine
 62
7
  6
CONTINUOUS
 10
4.1886276289
 20
4.7721193039
 11
4.1846250437
 21
4.7734198227
  0
LINE
  5
2AF
100
AcDbEntity
  8
ALL_ASSEMBLY_MEMBERS
100
AcDbLine
 62
7
  6
CONTINUOUS
 10
4.1769324963
 20
4.7933159344
 11
4.1059078454
 21
4.8163932424
  0
LINE
  5
2B0
100
AcDbEntity
  8
ALL_ASSEMBLY_MEMBERS
100
AcDbLine
 62
7
  6
CONTINUOUS
 10
4.0880049411
 20
4.8376641179
 11
4.1814750563
 21
4.8072938365
  0
LINE
  5
2B1
100
AcDbEntity
  8
ALL_ASSEMBLY_MEMBERS
100
AcDbLine
 62
7
  6
CONTINUOUS
 10
4.1993949109
 20
4.8188679669
 11
4.2033975141
 21
4.8175674423
  0
LINE
  5
2B2
100
AcDbEntity
  8
ALL_ASSEMBLY_MEMBERS
100
AcDbLine
 62
7
  6
CONTINUOUS
 10
4.1972389191
 20
4.8520657902
 11
4.1980417836
 21
4.8518049237
  0
LINE
  5
2B3
100
AcDbEntity
  8
ALL_ASSEMBLY_MEMBERS
100
AcDbLine
 62
7
  6
CONTINUOUS
 10
4.2125022621
 20
4.89046559
 11
4.2131391267
 21
4.8902586601
  0
LINE
  5
2B4
100
AcDbEntity
  8
ALL_ASSEMBLY_MEMBERS
100
AcDbLine
 62
7
  6
CONTINUOUS
 10
5.3273375955
 20
4.1877725435
 11
5.3265883205
 21
4.1882971915
  0
LINE
  5
2B5
100
AcDbEntity
  8
ALL_ASSEMBLY_MEMBERS
100
AcDbLine
 62
7
  6
CONTINUOUS
 10
5.2775225499
 20
4.2373148708
 11
5.2767642941
 21
4.2378458072
  0
LINE
  5
2B6
100
AcDbEntity
  8
ALL_ASSEMBLY_MEMBERS
100
AcDbLine
 62
7
  6
CONTINUOUS
 10
4.9103895719
 20
4.5021850224
 11
4.9462188123
 21
4.4749588304
  0
LINE
  5
2B7
100
AcDbEntity
  8
ALL_ASSEMBLY_MEMBERS
100
AcDbLine
 62
7
  6
CONTINUOUS
 10
4.9687597475
 20
4.4562824578
 11
4.9489306374
 21
4.4715076472
  0
LINE
  5
2B8
100
AcDbEntity
  8
ALL_ASSEMBLY_MEMBERS
100
AcDbLine
 62
7
  6
CONTINUOUS
 10
4.1962146228
 20
4.9027340765
 11
4.1968250566
 21
4.9025357345
  0
LINE
  5
2B9
100
AcDbEntity
  8
ALL_ASSEMBLY_MEMBERS
100
AcDbLine
 62
7
  6
CONTINUOUS
 10
4.1621203158
 20
4.9166378466
 11
4.1627318904
 21
4.916439134
  0
LINE
  5
2BA
100
AcDbEntity
  8
ALL_ASSEMBLY_MEMBERS
100
AcDbLine
 62
7
  6
CONTINUOUS
 10
4.192695666
 20
4.9183599515
 11
4.1932333393
 21
4.9181852509
  0
LINE
  5
2BB
100
AcDbEntity
  8
ALL_ASSEMBLY_MEMBERS
100
AcDbLine
 62
7
  6
CONTINUOUS
 10
5.3900585181
 20
4.2756029565
 11
5.3954048144
 21
4.2675984593
  0
LINE
  5
2BC
100
AcDbEntity
  8
ALL_ASSEMBLY_MEMBERS
100
AcDbLine
 62
7
  6
CONTINUOUS
 10
5.3239386427
 20
4.2092226599
 11
5.3472896614
 21
4.1669325954
  0
LINE
  5
2BD
100
AcDbEntity
  8
ALL_ASSEMBLY_MEMBERS
100
AcDbLine
 62
7
  6
CONTINUOUS
 10
5.4668674758
 20
4.4775174278
 11
5.4690380781
 21
4.4898275247
  0
LINE
  5
2BE
100
AcDbEntity
  8
ALL_ASSEMBLY_MEMBERS
100
AcDbLine
 62
7
  6
CONTINUOUS
 10
5.3200994798
 20
4.1296836681
 11
5.3465460467
 21
4.16745328
  0
LINE
  5
2BF
100
AcDbEntity
  8
ALL_ASSEMBLY_MEMBERS
100
AcDbLine
 62
7
  6
CONTINUOUS
 10
5.3679827
 20
4.1980679936
 11
5.405605234
 21
4.2517985406
  0
LINE
  5
2C0
100
AcDbEntity
  8
ALL_ASSEMBLY_MEMBERS
100
AcDbLine
 62
7
  6
CONTINUOUS
 10
4.6973926371
 20
5.0142858219
 11
4.8498899716
 21
5.0142858219
  0
LINE
  5
2C1
100
AcDbEntity
  8
ALL_ASSEMBLY_MEMBERS
100
AcDbLine
 62
7
  6
CONTINUOUS
 10
5.4313900105
 20
4.7725437819
 11
5.4787958249
 21
4.7632481705
  0
LINE
  5
2C2
100
AcDbEntity
  8
ALL_ASSEMBLY_MEMBERS
100
AcDbLine
 62
7
  6
CONTINUOUS
 10
4.7111413043
 20
5.1142858219
 11
4.8361413043
 21
5.1142858219
  0
LINE
  5
2C3
100
AcDbEntity
  8
ALL_ASSEMBLY_MEMBERS
100
AcDbLine
 62
7
  6
CONTINUOUS
 10
4.7311413043
 20
5.1342858219
 11
4.8161413043
 21
5.1342858219
  0
LINE
  5
2C4
100
AcDbEntity
  8
ALL_ASSEMBLY_MEMBERS
100
AcDbLine
 62
7
  6
CONTINUOUS
 10
5.4898526468
 20
4.7184761341
 11
5.4779189711
 21
4.7630132183
  0
LINE
  5
2C5
100
AcDbEntity
  8
ALL_ASSEMBLY_MEMBERS
100
AcDbLine
 62
7
  6
CONTINUOUS
 10
5.2316087108
 20
5.1421593499
 11
5.2220331553
 21
5.150194195
  0
LINE
  5
2C6
100
AcDbEntity
  8
ALL_ASSEMBLY_MEMBERS
100
AcDbLine
 62
7
  6
CONTINUOUS
 10
6.1486413043
 20
3.1260983219
 11
6.1486413043
 21
3.1485983219
  0
LINE
  5
2C7
100
AcDbEntity
  8
ALL_ASSEMBLY_MEMBERS
100
AcDbLine
 62
7
  6
CONTINUOUS
 10
6.1486413043
 20
6.0635983219
 11
6.1486413043
 21
6.0860983219
  0
LINE
  5
2C8
100
AcDbEntity
  8
ALL_ASSEMBLY_MEMBERS
100
AcDbLine
 62
7
  6
CONTINUOUS
 10
6.2111413043
 20
3.1260983219
 11
6.2111413043
 21
3.1485983219
  0
LINE
  5
2C9
100
AcDbEntity
  8
ALL_ASSEMBLY_MEMBERS
100
AcDbLine
 62
7
  6
CONTINUOUS
 10
6.2111413043
 20
6.0635983219
 11
6.2111413043
 21
6.0860983219
  0
LINE
  5
2CA
100
AcDbEntity
  8
ALL_ASSEMBLY_MEMBERS
100
AcDbLine
 62
7
  6
CONTINUOUS
 10
6.3986413043
 20
3.3760983219
 11
6.3986413043
 21
5.8360983219
  0
LINE
  5
2CB
100
AcDbEntity
  8
ALL_ASSEMBLY_MEMBERS
100
AcDbLine
 62
7
  6
CONTINUOUS
 10
6.4611413043
 20
3.3760983219
 11
6.4611413043
 21
5.8360983219
  0
LINE
  5
2CC
100
AcDbEntity
  8
ALL_ASSEMBLY_MEMBERS
100
AcDbLine
 62
7
  6
CONTINUOUS
 10
6.2536413043
 20
5.9810983219
 11
6.2311413043
 21
5.9810983219
  0
LINE
  5
2CD
100
AcDbEntity
  8
ALL_ASSEMBLY_MEMBERS
100
AcDbLine
 62
7
  6
CONTINUOUS
 10
3.3161413043
 20
5.9810983219
 11
3.2936413043
 21
5.9810983219
  0
LINE
  5
2CE
100
AcDbEntity
  8
ALL_ASSEMBLY_MEMBERS
100
AcDbLine
 62
7
  6
CONTINUOUS
 10
6.2536413043
 20
6.0435983219
 11
6.2311413043
 21
6.0435983219
  0
LINE
  5
2CF
100
AcDbEntity
  8
ALL_ASSEMBLY_MEMBERS
100
AcDbLine
 62
7
  6
CONTINUOUS
 10
3.3161413043
 20
6.0435983219
 11
3.2936413043
 21
6.0435983219
  0
LINE
  5
2D0
100
AcDbEntity
  8
ALL_ASSEMBLY_MEMBERS
100
AcDbLine
 62
7
  6
CONTINUOUS
 10
6.0036413043
 20
6.2310983219
 11
3.5436413043
 21
6.2310983219
  0
LINE
  5
2D1
100
AcDbEntity
  8
ALL_ASSEMBLY_MEMBERS
100
AcDbLine
 62
7
  6
CONTINUOUS
 10
6.0036413043
 20
6.2935983219
 11
3.5436413043
 21
6.2935983219
  0
ARC
  5
2D2
100
AcDbEntity
  8
ALL_ASSEMBLY_MEMBERS
100
AcDbCircle
 62
7
  6
CONTINUOUS
 10
-14.8310175521
 20
-0.6466668941
 40
21.0179851655
100
AcDbArc
 50
14.7898276008
 51
14.9155205964
  0
ARC
  5
2D3
100
AcDbEntity
  8
ALL_ASSEMBLY_MEMBERS
100
AcDbCircle
 62
7
  6
CONTINUOUS
 10
4.7753658058
 20
-12.8679706204
 40
18.0817712599
100
AcDbArc
 50
90.1979997579
 51
90.3494272382
  0
ARC
  5
2D4
100
AcDbEntity
  8
ALL_ASSEMBLY_MEMBERS
100
AcDbCircle
 62
7
  6
CONTINUOUS
 10
3.2797150675
 20
-0.1580661016
 40
4.5337327547
100
AcDbArc
 50
77.7270762627
 51
77.855528391
  0
ARC
  5
2D5
100
AcDbEntity
  8
ALL_ASSEMBLY_MEMBERS
100
AcDbCircle
 62
7
  6
CONTINUOUS
 10
-4.1750548825
 20
3.7386002771
 40
8.899218077
100
AcDbArc
 50
0.3107217305
 51
1.0481609379
  0
ARC
  5
2D6
100
AcDbEntity
  8
ALL_ASSEMBLY_MEMBERS
100
AcDbCircle
 62
7
  6
CONTINUOUS
 10
-11.8518421036
 20
16.2477258994
 40
21.0179851633
100
AcDbArc
 50
324.7898276008
 51
324.9155205964
  0
ARC
  5
2D7
100
AcDbEntity
  8
ALL_ASSEMBLY_MEMBERS
100
AcDbCircle
 62
7
  6
CONTINUOUS
 10
-11.8246525187
 20
16.2281139644
 40
20.9844637136
100
AcDbArc
 50
325.0632453361
 51
325.1978078348
  0
ARC
  5
2D8
100
AcDbEntity
  8
ALL_ASSEMBLY_MEMBERS
100
AcDbCircle
 62
7
  6
CONTINUOUS
 10
0.5476886781
 20
3.8845373378
 40
4.1714206142
100
AcDbArc
 50
3.4643419649
 51
3.991702514
  0
ARC
  5
2D9
100
AcDbEntity
  8
ALL_ASSEMBLY_MEMBERS
100
AcDbCircle
 62
7
  6
CONTINUOUS
 10
0.6891669062
 20
3.8886978367
 40
4.075
100
AcDbArc
 50
3.9657112856
 51
4.3520650345
  0
ARC
  5
2DA
100
AcDbEntity
  8
ALL_ASSEMBLY_MEMBERS
100
AcDbCircle
 62
7
  6
CONTINUOUS
 10
0.6891669062
 20
3.8886978367
 40
4.05
100
AcDbArc
 50
0.2037256205
 51
4.3520650345
  0
ARC
  5
2DB
100
AcDbEntity
  8
ALL_ASSEMBLY_MEMBERS
100
AcDbCircle
 62
7
  6
CONTINUOUS
 10
0.6891669062
 20
3.8886978367
 40
4.03
100
AcDbArc
 50
4.0727153233
 51
4.3520650345
  0
ARC
  5
2DC
100
AcDbEntity
  8
ALL_ASSEMBLY_MEMBERS
100
AcDbCircle
 62
7
  6
CONTINUOUS
 10
0.6951176498
 20
3.8276979754
 40
4.028230611
100
AcDbArc
 50
1.0482532872
 51
4.3980752425
  0
ARC
  5
2DD
100
AcDbEntity
  8
ALL_ASSEMBLY_MEMBERS
100
AcDbCircle
 62
7
  6
CONTINUOUS
 10
0.7047601816
 20
3.7527599684
 40
4.025
100
AcDbArc
 50
6.023641327
 51
6.5462580927
  0
ARC
  5
2DE
100
AcDbEntity
  8
ALL_ASSEMBLY_MEMBERS
100
AcDbCircle
 62
7
  6
CONTINUOUS
 10
0.7047601816
 20
3.7527599684
 40
4.0
100
AcDbArc
 50
0.4417312511
 51
6.5462580927
  0
ARC
  5
2DF
100
AcDbEntity
  8
ALL_ASSEMBLY_MEMBERS
100
AcDbCircle
 62
7
  6
CONTINUOUS
 10
0.8822750017
 20
3.7635922489
 40
3.8473365895
100
AcDbArc
 50
5.5637690205
 51
6.1406313651
  0
ARC
  5
2E0
100
AcDbEntity
  8
ALL_ASSEMBLY_MEMBERS
100
AcDbCircle
 62
7
  6
CONTINUOUS
 10
4.1790749648
 20
4.1542947911
 40
0.5750000044
100
AcDbArc
 50
4.3520650345
 51
37.2307480333
  0
ARC
  5
2E1
100
AcDbEntity
  8
ALL_ASSEMBLY_MEMBERS
100
AcDbCircle
 62
7
  6
CONTINUOUS
 10
4.1790749648
 20
4.1542947911
 40
0.55
100
AcDbArc
 50
4.3520650345
 51
37.2307480333
  0
ARC
  5
2E2
100
AcDbEntity
  8
ALL_ASSEMBLY_MEMBERS
100
AcDbCircle
 62
7
  6
CONTINUOUS
 10
4.1790749648
 20
4.1542947911
 40
0.5300000042
100
AcDbArc
 50
4.3520650345
 51
37.2307480333
  0
ARC
  5
2E3
100
AcDbEntity
  8
ALL_ASSEMBLY_MEMBERS
100
AcDbCircle
 62
7
  6
CONTINUOUS
 10
4.1819406596
 20
4.1517786689
 40
0.525000003
100
AcDbArc
 50
6.5462580927
 51
37.5177789101
  0
ARC
  5
2E4
100
AcDbEntity
  8
ALL_ASSEMBLY_MEMBERS
100
AcDbCircle
 62
7
  6
CONTINUOUS
 10
4.1819406596
 20
4.1517786689
 40
0.5
100
AcDbArc
 50
6.5462580927
 51
37.5177789101
  0
ARC
  5
2E5
100
AcDbEntity
  8
ALL_ASSEMBLY_MEMBERS
100
AcDbCircle
 62
7
  6
CONTINUOUS
 10
3.5436413043
 20
3.1260983219
 40
0.2075
100
AcDbArc
 50
180.0
 51
270.0
  0
ARC
  5
2E6
100
AcDbEntity
  8
ALL_ASSEMBLY_MEMBERS
100
AcDbCircle
 62
7
  6
CONTINUOUS
 10
3.2936413043
 20
3.3760983219
 40
0.2075
100
AcDbArc
 50
180.0
 51
270.0
  0
ARC
  5
2E7
100
AcDbEntity
  8
ALL_ASSEMBLY_MEMBERS
100
AcDbCircle
 62
7
  6
CONTINUOUS
 10
3.5436413043
 20
3.1260983219
 40
0.145
100
AcDbArc
 50
180.0
 51
270.0
  0
ARC
  5
2E8
100
AcDbEntity
  8
ALL_ASSEMBLY_MEMBERS
100
AcDbCircle
 62
7
  6
CONTINUOUS
 10
3.2936413043
 20
3.3760983219
 40
0.145
100
AcDbArc
 50
180.0
 51
270.0
  0
ARC
  5
2E9
100
AcDbEntity
  8
ALL_ASSEMBLY_MEMBERS
100
AcDbCircle
 62
7
  6
CONTINUOUS
 10
3.3161413043
 20
3.1485983219
 40
0.0825
100
AcDbArc
 50
0.0
 51
90.0
  0
ARC
  5
2EA
100
AcDbEntity
  8
ALL_ASSEMBLY_MEMBERS
100
AcDbCircle
 62
7
  6
CONTINUOUS
 10
4.1645493451
 20
4.1046364012
 40
0.0772780807
100
AcDbArc
 50
49.8029456297
 51
51.1610904261
  0
ARC
  5
2EB
100
AcDbEntity
  8
ALL_ASSEMBLY_MEMBERS
100
AcDbCircle
 62
7
  6
CONTINUOUS
 10
4.1403432517
 20
4.3385573878
 40
0.0404853001
100
AcDbArc
 50
209.9970171631
 51
211.1659241011
  0
ARC
  5
2EC
100
AcDbEntity
  8
ALL_ASSEMBLY_MEMBERS
100
AcDbCircle
 62
7
  6
CONTINUOUS
 10
4.1397088209
 20
4.3380038219
 40
0.0404176992
100
AcDbArc
 50
209.7670970486
 51
210.6428726021
  0
ARC
  5
2ED
100
AcDbEntity
  8
ALL_ASSEMBLY_MEMBERS
100
AcDbCircle
 62
7
  6
CONTINUOUS
 10
4.1807926583
 20
4.2628565365
 40
0.0377452563
100
AcDbArc
 50
249.6092864554
 51
258.1246560054
  0
ARC
  5
2EE
100
AcDbEntity
  8
ALL_ASSEMBLY_MEMBERS
100
AcDbCircle
 62
7
  6
CONTINUOUS
 10
4.1799075491
 20
4.2622603732
 40
0.0375833123
100
AcDbArc
 50
249.6672700449
 51
254.2977764118
  0
ARC
  5
2EF
100
AcDbEntity
  8
ALL_ASSEMBLY_MEMBERS
100
AcDbCircle
 62
7
  6
CONTINUOUS
 10
4.1314883061
 20
4.3315222347
 40
0.0291174914
100
AcDbArc
 50
230.241007137
 51
244.4604453528
  0
ARC
  5
2F0
100
AcDbEntity
  8
ALL_ASSEMBLY_MEMBERS
100
AcDbCircle
 62
7
  6
CONTINUOUS
 10
4.7808051199
 20
3.2461171897
 40
0.025
100
AcDbArc
 50
270.3018075705
 51
359.7962743795
  0
ARC
  5
2F1
100
AcDbEntity
  8
ALL_ASSEMBLY_MEMBERS
100
AcDbCircle
 62
7
  6
CONTINUOUS
 10
4.7664774888
 20
3.2461171897
 40
0.025
100
AcDbArc
 50
180.2037256205
 51
269.6981924295
  0
ARC
  5
2F2
100
AcDbEntity
  8
ALL_ASSEMBLY_MEMBERS
100
AcDbCircle
 62
7
  6
CONTINUOUS
 10
4.7333996736
 20
3.2962163194
 40
0.025
100
AcDbArc
 50
180.4417312511
 51
254.6048647476
  0
ARC
  5
2F3
100
AcDbEntity
  8
ALL_ASSEMBLY_MEMBERS
100
AcDbCircle
 62
7
  6
CONTINUOUS
 10
4.7657787628
 20
3.2573896873
 40
0.02434148
100
AcDbArc
 50
184.5351109228
 51
193.1629461435
  0
ARC
  5
2F4
100
AcDbEntity
  8
ALL_ASSEMBLY_MEMBERS
100
AcDbCircle
 62
7
  6
CONTINUOUS
 10
4.7815038811
 20
3.2573897624
 40
0.0243414451
100
AcDbArc
 50
346.8368926059
 51
355.4647172442
  0
ARC
  5
2F5
100
AcDbEntity
  8
ALL_ASSEMBLY_MEMBERS
100
AcDbCircle
 62
7
  6
CONTINUOUS
 10
4.7656624512
 20
3.2573832814
 40
0.0242250262
100
AcDbArc
 50
180.2085141259
 51
184.5417591856
  0
ARC
  5
2F6
100
AcDbEntity
  8
ALL_ASSEMBLY_MEMBERS
100
AcDbCircle
 62
7
  6
CONTINUOUS
 10
4.7816201947
 20
3.257383356
 40
0.0242249893
100
AcDbArc
 50
355.4580691098
 51
359.7913091209
  0
ARC
  5
2F7
100
AcDbEntity
  8
ALL_ASSEMBLY_MEMBERS
100
AcDbCircle
 62
7
  6
CONTINUOUS
 10
4.721453332
 20
3.2528310117
 40
0.02
100
AcDbArc
 50
0.2037256212
 51
74.6048647593
  0
ARC
  5
2F8
100
AcDbEntity
  8
ALL_ASSEMBLY_MEMBERS
100
AcDbCircle
 62
7
  6
CONTINUOUS
 10
3.3161413043
 20
3.1485983219
 40
0.02
100
AcDbArc
 50
0.0
 51
90.0
  0
ARC
  5
2F9
100
AcDbEntity
  8
ALL_ASSEMBLY_MEMBERS
100
AcDbCircle
 62
7
  6
CONTINUOUS
 10
4.1873713621
 20
4.366002096
 40
0.0167129055
100
AcDbArc
 50
22.7288435127
 51
30.0010661623
  0
ARC
  5
2FA
100
AcDbEntity
  8
ALL_ASSEMBLY_MEMBERS
100
AcDbCircle
 62
7
  6
CONTINUOUS
 10
3.2936413043
 20
5.8360983219
 40
0.2075
100
AcDbArc
 50
90.0
 51
180.0
  0
ARC
  5
2FB
100
AcDbEntity
  8
ALL_ASSEMBLY_MEMBERS
100
AcDbCircle
 62
7
  6
CONTINUOUS
 10
3.5436413043
 20
6.0860983219
 40
0.2075
100
AcDbArc
 50
90.0
 51
180.0
  0
ARC
  5
2FC
100
AcDbEntity
  8
ALL_ASSEMBLY_MEMBERS
100
AcDbCircle
 62
7
  6
CONTINUOUS
 10
3.2936413043
 20
5.8360983219
 40
0.145
100
AcDbArc
 50
90.0
 51
180.0
  0
ARC
  5
2FD
100
AcDbEntity
  8
ALL_ASSEMBLY_MEMBERS
100
AcDbCircle
 62
7
  6
CONTINUOUS
 10
3.5436413043
 20
6.0860983219
 40
0.145
100
AcDbArc
 50
90.0
 51
180.0
  0
ARC
  5
2FE
100
AcDbEntity
  8
ALL_ASSEMBLY_MEMBERS
100
AcDbCircle
 62
7
  6
CONTINUOUS
 10
3.3161413043
 20
6.0635983219
 40
0.0825
100
AcDbArc
 50
270.0
 51
360.0
  0
ARC
  5
2FF
100
AcDbEntity
  8
ALL_ASSEMBLY_MEMBERS
100
AcDbCircle
 62
7
  6
CONTINUOUS
 10
3.3161413043
 20
6.0635983219
 40
0.02
100
AcDbArc
 50
270.0
 51
360.0
  0
ARC
  5
300
100
AcDbEntity
  8
ALL_ASSEMBLY_MEMBERS
100
AcDbCircle
 62
7
  6
CONTINUOUS
 10
4.1976999689
 20
4.8796088614
 40
0.0195209602
100
AcDbArc
 50
308.4092111301
 51
312.0559988992
  0
ARC
  5
301
100
AcDbEntity
  8
ALL_ASSEMBLY_MEMBERS
100
AcDbCircle
 62
7
  6
CONTINUOUS
 10
4.1973386941
 20
4.8790360235
 40
0.0194809439
100
AcDbArc
 50
334.7889107586
 51
342.0546889724
  0
ARC
  5
302
100
AcDbEntity
  8
ALL_ASSEMBLY_MEMBERS
100
AcDbCircle
 62
7
  6
CONTINUOUS
 10
4.1971296217
 20
4.8797167944
 40
0.0193035568
100
AcDbArc
 50
308.2427098115
 51
313.5958892059
  0
ARC
  5
303
100
AcDbEntity
  8
ALL_ASSEMBLY_MEMBERS
100
AcDbCircle
 62
7
  6
CONTINUOUS
 10
4.7736413043
 20
4.6060983219
 40
1.3733641565
100
AcDbArc
 50
269.6939694198
 51
270.3060305802
  0
ARC
  5
304
100
AcDbEntity
  8
ALL_ASSEMBLY_MEMBERS
100
AcDbCircle
 62
7
  6
CONTINUOUS
 10
4.7736413043
 20
4.6060983219
 40
1.2491902662
100
AcDbArc
 50
269.656364835
 51
270.343635165
  0
ARC
  5
305
100
AcDbEntity
  8
ALL_ASSEMBLY_MEMBERS
100
AcDbCircle
 62
7
  6
CONTINUOUS
 10
4.7736413043
 20
4.6060983219
 40
0.87125
100
AcDbArc
 50
274.5227323609
 51
265.4772676391
  0
ARC
  5
306
100
AcDbEntity
  8
ALL_ASSEMBLY_MEMBERS
100
AcDbCircle
 62
7
  6
CONTINUOUS
 10
4.7736413043
 20
4.6060983219
 40
0.83125
100
AcDbArc
 50
274.7949426141
 51
265.2050573859
  0
ARC
  5
307
100
AcDbEntity
  8
ALL_ASSEMBLY_MEMBERS
100
AcDbCircle
 62
7
  6
CONTINUOUS
 10
4.7736413043
 20
4.6060983219
 40
0.525
100
AcDbArc
 50
96.264729109
 51
260.9035851983
  0
ARC
  5
308
100
AcDbEntity
  8
ALL_ASSEMBLY_MEMBERS
100
AcDbCircle
 62
7
  6
CONTINUOUS
 10
4.7736413043
 20
4.6060983219
 40
0.525
100
AcDbArc
 50
279.0957014561
 51
83.735270891
  0
ARC
  5
309
100
AcDbEntity
  8
ALL_ASSEMBLY_MEMBERS
100
AcDbCircle
 62
7
  6
CONTINUOUS
 10
4.7736413043
 20
4.6060983219
 40
0.5
100
AcDbArc
 50
279.8142770952
 51
82.819074294
  0
ARC
  5
30A
100
AcDbEntity
  8
ALL_ASSEMBLY_MEMBERS
100
AcDbCircle
 62
7
  6
CONTINUOUS
 10
4.7736413043
 20
4.6060983219
 40
0.5
100
AcDbArc
 50
97.180925706
 51
260.1852789456
  0
ARC
  5
30B
100
AcDbEntity
  8
ALL_ASSEMBLY_MEMBERS
100
AcDbCircle
 62
7
  6
CONTINUOUS
 10
4.7736413043
 20
4.6060983219
 40
0.49725
100
AcDbArc
 50
279.8945637898
 51
82.7790143286
  0
ARC
  5
30C
100
AcDbEntity
  8
ALL_ASSEMBLY_MEMBERS
100
AcDbCircle
 62
7
  6
CONTINUOUS
 10
4.7736413043
 20
4.6060983219
 40
0.49725
100
AcDbArc
 50
97.2209856714
 51
260.1047720492
  0
ARC
  5
30D
100
AcDbEntity
  8
ALL_ASSEMBLY_MEMBERS
100
AcDbCircle
 62
7
  6
CONTINUOUS
 10
4.7736413043
 20
4.6060983219
 40
0.4925
100
AcDbArc
 50
280.0450864942
 51
82.7061082243
  0
ARC
  5
30E
100
AcDbEntity
  8
ALL_ASSEMBLY_MEMBERS
100
AcDbCircle
 62
7
  6
CONTINUOUS
 10
4.7736413043
 20
4.6060983219
 40
0.4925
100
AcDbArc
 50
97.2938917757
 51
259.9547429766
  0
ARC
  5
30F
100
AcDbEntity
  8
ALL_ASSEMBLY_MEMBERS
100
AcDbCircle
 62
7
  6
CONTINUOUS
 10
4.7736413043
 20
4.6060983219
 40
0.49
100
AcDbArc
 50
97.329808353
 51
259.8735903228
  0
ARC
  5
310
100
AcDbEntity
  8
ALL_ASSEMBLY_MEMBERS
100
AcDbCircle
 62
7
  6
CONTINUOUS
 10
4.7736413043
 20
4.6060983219
 40
0.49
100
AcDbArc
 50
280.1263088862
 51
82.670191647
  0
ARC
  5
311
100
AcDbEntity
  8
ALL_ASSEMBLY_MEMBERS
100
AcDbCircle
 62
7
  6
CONTINUOUS
 10
4.7736413043
 20
4.6060983219
 40
0.4806601291
100
AcDbArc
 50
97.4728401641
 51
259.5651461559
  0
ARC
  5
312
100
AcDbEntity
  8
ALL_ASSEMBLY_MEMBERS
100
AcDbCircle
 62
7
  6
CONTINUOUS
 10
4.7736413043
 20
4.6060983219
 40
0.4806601291
100
AcDbArc
 50
280.4345611595
 51
82.5271598359
  0
ARC
  5
313
100
AcDbEntity
  8
ALL_ASSEMBLY_MEMBERS
100
AcDbCircle
 62
7
  6
CONTINUOUS
 10
4.7736413043
 20
4.6060983219
 40
0.436
100
AcDbArc
 50
278.5274235499
 51
278.7205689472
  0
ARC
  5
314
100
AcDbEntity
  8
ALL_ASSEMBLY_MEMBERS
100
AcDbCircle
 62
7
  6
CONTINUOUS
 10
4.7736413043
 20
4.6060983219
 40
0.436
100
AcDbArc
 50
261.2794310527
 51
261.4725764501
  0
ARC
  5
315
100
AcDbEntity
  8
ALL_ASSEMBLY_MEMBERS
100
AcDbCircle
 62
7
  6
CONTINUOUS
 10
4.7736413043
 20
4.6060983219
 40
0.436
100
AcDbArc
 50
267.4719224608
 51
272.5280775392
  0
ARC
  5
316
100
AcDbEntity
  8
ALL_ASSEMBLY_MEMBERS
100
AcDbCircle
 62
7
  6
CONTINUOUS
 10
4.7736413043
 20
4.6060983219
 40
0.246
100
AcDbArc
 50
322.4822210899
 51
217.5177789101
  0
ARC
  5
317
100
AcDbEntity
  8
ALL_ASSEMBLY_MEMBERS
100
AcDbCircle
 62
7
  6
CONTINUOUS
 10
4.7736413043
 20
4.6060983219
 40
0.2209999961
100
AcDbArc
 50
322.4822210899
 51
217.5177789101
  0
ARC
  5
318
100
AcDbEntity
  8
ALL_ASSEMBLY_MEMBERS
100
AcDbCircle
 62
7
  6
CONTINUOUS
 10
4.7736413043
 20
4.6060983219
 40
0.2167499891
100
AcDbArc
 50
322.7692519667
 51
217.2307480333
  0
ARC
  5
319
100
AcDbEntity
  8
ALL_ASSEMBLY_MEMBERS
100
AcDbCircle
 62
7
  6
CONTINUOUS
 10
4.7736413043
 20
4.6060983219
 40
0.19675
100
AcDbArc
 50
322.7692519667
 51
217.2307480333
  0
ARC
  5
31A
100
AcDbEntity
  8
ALL_ASSEMBLY_MEMBERS
100
AcDbCircle
 62
7
  6
CONTINUOUS
 10
4.7736413043
 20
4.6060983219
 40
0.1717499916
100
AcDbArc
 50
322.7692519667
 51
217.2307480333
  0
ARC
  5
31B
100
AcDbEntity
  8
ALL_ASSEMBLY_MEMBERS
100
AcDbCircle
 62
7
  6
CONTINUOUS
 10
4.7723496723
 20
5.2536063079
 40
0.041624128
100
AcDbArc
 50
269.9891952249
 51
271.7782221593
  0
ARC
  5
31C
100
AcDbEntity
  8
ALL_ASSEMBLY_MEMBERS
100
AcDbCircle
 62
7
  6
CONTINUOUS
 10
4.7729311398
 20
5.2916137062
 40
0.0381229816
100
AcDbArc
 50
88.9326180465
 51
90.0021402413
  0
ARC
  5
31D
100
AcDbEntity
  8
ALL_ASSEMBLY_MEMBERS
100
AcDbCircle
 62
7
  6
CONTINUOUS
 10
4.7723307586
 20
5.2451258276
 40
0.033143685
100
AcDbArc
 50
265.8879544631
 51
270.0191269657
  0
ARC
  5
31E
100
AcDbEntity
  8
ALL_ASSEMBLY_MEMBERS
100
AcDbCircle
 62
7
  6
CONTINUOUS
 10
4.7311413043
 20
5.1142858219
 40
0.02
100
AcDbArc
 50
90.0
 51
180.0
  0
ARC
  5
31F
100
AcDbEntity
  8
ALL_ASSEMBLY_MEMBERS
100
AcDbCircle
 62
7
  6
CONTINUOUS
 10
24.455788285
 20
-1.790893299
 40
21.4174392638
100
AcDbArc
 50
161.6753938543
 51
161.7987434926
  0
ARC
  5
320
100
AcDbEntity
  8
ALL_ASSEMBLY_MEMBERS
100
AcDbCircle
 62
7
  6
CONTINUOUS
 10
21.3930013252
 20
-0.7920458396
 40
18.0817712461
100
AcDbArc
 50
162.1979997579
 51
162.3494272383
  0
ARC
  5
321
100
AcDbEntity
  8
ALL_ASSEMBLY_MEMBERS
100
AcDbCircle
 62
7
  6
CONTINUOUS
 10
20.8992842887
 20
-0.6334407014
 40
17.5632037218
100
AcDbArc
 50
161.9187563744
 51
162.0746530724
  0
ARC
  5
322
100
AcDbEntity
  8
ALL_ASSEMBLY_MEMBERS
100
AcDbCircle
 62
7
  6
CONTINUOUS
 10
5.3682076439
 20
4.1542947911
 40
0.5750000044
100
AcDbArc
 50
142.7692519667
 51
175.6479349655
  0
ARC
  5
323
100
AcDbEntity
  8
ALL_ASSEMBLY_MEMBERS
100
AcDbCircle
 62
7
  6
CONTINUOUS
 10
5.3682076439
 20
4.1542947911
 40
0.55
100
AcDbArc
 50
142.7692519667
 51
175.6479349655
  0
ARC
  5
324
100
AcDbEntity
  8
ALL_ASSEMBLY_MEMBERS
100
AcDbCircle
 62
7
  6
CONTINUOUS
 10
5.3682076439
 20
4.1542947911
 40
0.5300000042
100
AcDbArc
 50
142.7692519667
 51
175.6479349655
  0
ARC
  5
325
100
AcDbEntity
  8
ALL_ASSEMBLY_MEMBERS
100
AcDbCircle
 62
7
  6
CONTINUOUS
 10
5.3653419491
 20
4.1517786689
 40
0.525000003
100
AcDbArc
 50
142.4822210899
 51
173.4537419073
  0
ARC
  5
326
100
AcDbEntity
  8
ALL_ASSEMBLY_MEMBERS
100
AcDbCircle
 62
7
  6
CONTINUOUS
 10
5.3653419491
 20
4.1517786689
 40
0.5
100
AcDbArc
 50
142.4822210899
 51
173.4537419073
  0
ARC
  5
327
100
AcDbEntity
  8
ALL_ASSEMBLY_MEMBERS
100
AcDbCircle
 62
7
  6
CONTINUOUS
 10
6.0036413043
 20
3.1260983219
 40
0.2075
100
AcDbArc
 50
270.0
 51
360.0
  0
ARC
  5
328
100
AcDbEntity
  8
ALL_ASSEMBLY_MEMBERS
100
AcDbCircle
 62
7
  6
CONTINUOUS
 10
6.2536413043
 20
3.3760983219
 40
0.2075
100
AcDbArc
 50
270.0
 51
360.0
  0
ARC
  5
329
100
AcDbEntity
  8
ALL_ASSEMBLY_MEMBERS
100
AcDbCircle
 62
7
  6
CONTINUOUS
 10
6.0036413043
 20
3.1260983219
 40
0.145
100
AcDbArc
 50
270.0
 51
360.0
  0
ARC
  5
32A
100
AcDbEntity
  8
ALL_ASSEMBLY_MEMBERS
100
AcDbCircle
 62
7
  6
CONTINUOUS
 10
6.2536413043
 20
3.3760983219
 40
0.145
100
AcDbArc
 50
270.0
 51
360.0
  0
ARC
  5
32B
100
AcDbEntity
  8
ALL_ASSEMBLY_MEMBERS
100
AcDbCircle
 62
7
  6
CONTINUOUS
 10
6.2311413043
 20
3.1485983219
 40
0.0825
100
AcDbArc
 50
90.0
 51
180.0
  0
ARC
  5
32C
100
AcDbEntity
  8
ALL_ASSEMBLY_MEMBERS
100
AcDbCircle
 62
7
  6
CONTINUOUS
 10
4.8138829351
 20
3.2962163194
 40
0.025
100
AcDbArc
 50
285.3951352579
 51
359.5582687489
  0
ARC
  5
32D
100
AcDbEntity
  8
ALL_ASSEMBLY_MEMBERS
100
AcDbCircle
 62
7
  6
CONTINUOUS
 10
4.8258292767
 20
3.2528310117
 40
0.02
100
AcDbArc
 50
105.3951352461
 51
179.7962743834
  0
ARC
  5
32E
100
AcDbEntity
  8
ALL_ASSEMBLY_MEMBERS
100
AcDbCircle
 62
7
  6
CONTINUOUS
 10
6.2311413043
 20
3.1485983219
 40
0.02
100
AcDbArc
 50
90.0
 51
180.0
  0
ARC
  5
32F
100
AcDbEntity
  8
ALL_ASSEMBLY_MEMBERS
100
AcDbCircle
 62
7
  6
CONTINUOUS
 10
6.0036413043
 20
6.0860983219
 40
0.2075
100
AcDbArc
 50
0.0
 51
90.0
  0
ARC
  5
330
100
AcDbEntity
  8
ALL_ASSEMBLY_MEMBERS
100
AcDbCircle
 62
7
  6
CONTINUOUS
 10
6.2536413043
 20
5.8360983219
 40
0.2075
100
AcDbArc
 50
0.0
 51
90.0
  0
ARC
  5
331
100
AcDbEntity
  8
ALL_ASSEMBLY_MEMBERS
100
AcDbCircle
 62
7
  6
CONTINUOUS
 10
6.0036413043
 20
6.0860983219
 40
0.145
100
AcDbArc
 50
0.0
 51
90.0
  0
ARC
  5
332
100
AcDbEntity
  8
ALL_ASSEMBLY_MEMBERS
100
AcDbCircle
 62
7
  6
CONTINUOUS
 10
6.2536413043
 20
5.8360983219
 40
0.145
100
AcDbArc
 50
0.0
 51
90.0
  0
ARC
  5
333
100
AcDbEntity
  8
ALL_ASSEMBLY_MEMBERS
100
AcDbCircle
 62
7
  6
CONTINUOUS
 10
5.3253363285
 20
4.7439807648
 40
0.1249679993
100
AcDbArc
 50
4.7958314267
 51
7.8842561578
  0
ARC
  5
334
100
AcDbEntity
  8
ALL_ASSEMBLY_MEMBERS
100
AcDbCircle
 62
7
  6
CONTINUOUS
 10
5.3179917517
 20
4.7489491385
 40
0.1160591177
100
AcDbArc
 50
43.9976432907
 51
45.6759118308
  0
ARC
  5
335
100
AcDbEntity
  8
ALL_ASSEMBLY_MEMBERS
100
AcDbCircle
 62
7
  6
CONTINUOUS
 10
5.4788854109
 20
4.8951396472
 40
0.0988014251
100
AcDbArc
 50
229.7540556282
 51
231.6102538966
  0
ARC
  5
336
100
AcDbEntity
  8
ALL_ASSEMBLY_MEMBERS
100
AcDbCircle
 62
7
  6
CONTINUOUS
 10
6.2311413043
 20
6.0635983219
 40
0.0825
100
AcDbArc
 50
180.0
 51
270.0
  0
ARC
  5
337
100
AcDbEntity
  8
ALL_ASSEMBLY_MEMBERS
100
AcDbCircle
 62
7
  6
CONTINUOUS
 10
5.358732876
 20
4.7769214916
 40
0.061291125
100
AcDbArc
 50
48.4013447244
 51
50.6452395079
  0
ARC
  5
338
100
AcDbEntity
  8
ALL_ASSEMBLY_MEMBERS
100
AcDbCircle
 62
7
  6
CONTINUOUS
 10
5.362614946
 20
4.7816265682
 40
0.0551913015
100
AcDbArc
 50
50.6640986456
 51
51.9932784447
  0
ARC
  5
339
100
AcDbEntity
  8
ALL_ASSEMBLY_MEMBERS
100
AcDbCircle
 62
7
  6
CONTINUOUS
 10
5.4221838224
 20
4.8250523775
 40
0.0395196571
100
AcDbArc
 50
23.4152822503
 51
28.0506009594
  0
ARC
  5
33A
100
AcDbEntity
  8
ALL_ASSEMBLY_MEMBERS
100
AcDbCircle
 62
7
  6
CONTINUOUS
 10
5.3995501209
 20
4.74083181
 40
0.0291431619
100
AcDbArc
 50
245.407881594
 51
249.5817265008
  0
ARC
  5
33B
100
AcDbEntity
  8
ALL_ASSEMBLY_MEMBERS
100
AcDbCircle
 62
7
  6
CONTINUOUS
 10
5.4003272984
 20
4.7408831334
 40
0.0289728216
100
AcDbArc
 50
245.3415251937
 51
250.0351623748
  0
ARC
  5
33C
100
AcDbEntity
  8
ALL_ASSEMBLY_MEMBERS
100
AcDbCircle
 62
7
  6
CONTINUOUS
 10
5.3753442693
 20
4.8090728522
 40
0.0226132521
100
AcDbArc
 50
165.2957398933
 51
180.3971212838
  0
ARC
  5
33D
100
AcDbEntity
  8
ALL_ASSEMBLY_MEMBERS
100
AcDbCircle
 62
7
  6
CONTINUOUS
 10
4.8161413043
 20
5.1142858219
 40
0.02
100
AcDbArc
 50
0.0
 51
90.0
  0
ARC
  5
33E
100
AcDbEntity
  8
ALL_ASSEMBLY_MEMBERS
100
AcDbCircle
 62
7
  6
CONTINUOUS
 10
6.2311413043
 20
6.0635983219
 40
0.02
100
AcDbArc
 50
180.0
 51
270.0
  0
ARC
  5
33F
100
AcDbEntity
  8
ALL_ASSEMBLY_MEMBERS
100
AcDbCircle
 62
7
  6
CONTINUOUS
 10
8.9995927289
 20
3.8845373764
 40
4.1714194127
100
AcDbArc
 50
176.0082968667
 51
176.5356581108
  0
ARC
  5
340
100
AcDbEntity
  8
ALL_ASSEMBLY_MEMBERS
100
AcDbCircle
 62
7
  6
CONTINUOUS
 10
8.8581157025
 20
3.8886978367
 40
4.075
100
AcDbArc
 50
175.6479349655
 51
176.0342887144
  0
ARC
  5
341
100
AcDbEntity
  8
ALL_ASSEMBLY_MEMBERS
100
AcDbCircle
 62
7
  6
CONTINUOUS
 10
8.8581157025
 20
3.8886978367
 40
4.05
100
AcDbArc
 50
175.6479349655
 51
179.7962743795
  0
ARC
  5
342
100
AcDbEntity
  8
ALL_ASSEMBLY_MEMBERS
100
AcDbCircle
 62
7
  6
CONTINUOUS
 10
8.8581157025
 20
3.8886978367
 40
4.03
100
AcDbArc
 50
175.6479349655
 51
175.9272846767
  0
ARC
  5
343
100
AcDbEntity
  8
ALL_ASSEMBLY_MEMBERS
100
AcDbCircle
 62
7
  6
CONTINUOUS
 10
8.8519069718
 20
3.8277102228
 40
4.0279724443
100
AcDbArc
 50
175.6018169304
 51
178.9518538707
  0
ARC
  5
344
100
AcDbEntity
  8
ALL_ASSEMBLY_MEMBERS
100
AcDbCircle
 62
7
  6
CONTINUOUS
 10
8.8425224271
 20
3.7527599684
 40
4.025
100
AcDbArc
 50
173.4537419073
 51
173.976358673
  0
ARC
  5
345
100
AcDbEntity
  8
ALL_ASSEMBLY_MEMBERS
100
AcDbCircle
 62
7
  6
CONTINUOUS
 10
8.8425224271
 20
3.7527599684
 40
4.0
100
AcDbArc
 50
173.4537419073
 51
179.5582687489
  0
ARC
  5
346
100
AcDbEntity
  8
ALL_ASSEMBLY_MEMBERS
100
AcDbCircle
 62
7
  6
CONTINUOUS
 10
8.6650127822
 20
3.7635918268
 40
3.8473417802
100
AcDbArc
 50
173.8593706284
 51
174.4362327833
  0
ARC
  5
347
100
AcDbEntity
  8
ALL_ASSEMBLY_MEMBERS
100
AcDbCircle
 62
7
  6
CONTINUOUS
 10
13.7187899633
 20
3.738642443
 40
8.8956703727
100
AcDbArc
 50
178.9516926759
 51
179.689425938
  0
ARC
  5
348
100
AcDbEntity
  8
ALL_ASSEMBLY_MEMBERS
100
AcDbCircle
 62
7
  6
CONTINUOUS
 10
19.9057666513
 20
13.3446262471
 40
18.081771244
100
AcDbArc
 50
210.1979997578
 51
210.3494272383
  0
ARC
  5
349
100
AcDbEntity
  8
ALL_ASSEMBLY_MEMBERS
100
AcDbCircle
 62
7
  6
CONTINUOUS
 10
19.470145265
 20
13.0911293613
 40
17.5777605591
100
AcDbArc
 50
209.9084223481
 51
210.1282491443
  0
SPLINE
  5
34A
100
AcDbEntity
  8
ALL_ASSEMBLY_MEMBERS
100
AcDbSpline
 62
7
  6
CONTINUOUS
 70
0
 71
3
 72
16
 73
12
 74
0
 42
0.0000001
 43
0.0000001
 44
0.0000000001
 40
0.0
 40
0.0
 40
0.0
 40
0.0
 40
0.1257249131
 40
0.2514143485
 40
0.376849191
 40
0.5020420185
 40
0.5645790619
 40
0.6270384142
 40
0.7516207361
 40
0.8759106532
 40
1.0
 40
1.0
 40
1.0
 40
1.0
 10
4.7663058701
 20
3.2327537758
 30
0.0
 10
4.7649133412
 20
3.2327608502
 30
0.0
 10
4.7621244807
 20
3.2330057077
 30
0.0
 10
4.7580649965
 20
3.2340525227
 30
0.0
 10
4.7542383429
 20
3.2357519745
 30
0.0
 10
4.7513297457
 20
3.2376735636
 30
0.0
 10
4.7492247055
 20
3.2394800995
 30
0.0
 10
4.7472820749
 20
3.2414506622
 30
0.0
 10
4.7451778269
 20
3.2442050878
 30
0.0
 10
4.7432466197
 20
3.2478774817
 30
0.0
 10
4.7423899118
 20
3.2505083206
 30
0.0
 10
4.7420768217
 20
3.2518466163
 30
0.0
  0
SPLINE
  5
34B
100
AcDbEntity
  8
ALL_ASSEMBLY_MEMBERS
100
AcDbSpline
 62
7
  6
CONTINUOUS
 70
0
 71
3
 72
16
 73
12
 74
0
 42
0.0000001
 43
0.0000001
 44
0.0000000001
 40
0.0
 40
0.0
 40
0.0
 40
0.0
 40
0.1257249108
 40
0.2514143444
 40
0.3768491863
 40
0.5020420141
 40
0.5645790579
 40
0.6270384107
 40
0.7516207343
 40
0.8759106527
 40
1.0
 40
1.0
 40
1.0
 40
1.0
 10
4.7809767381
 20
3.2327538695
 30
0.0
 10
4.7823692639
 20
3.2327609439
 30
0.0
 10
4.7851581181
 20
3.2330058
 30
0.0
 10
4.7892175939
 20
3.2340526095
 30
0.0
 10
4.793044241
 20
3.2357520528
 30
0.0
 10
4.7959528349
 20
3.2376736327
 30
0.0
 10
4.7980578738
 20
3.2394801606
 30
0.0
 10
4.8000005043
 20
3.2414507148
 30
0.0
 10
4.8021047539
 20
3.2442051294
 30
0.0
 10
4.8040359663
 20
3.2478775102
 30
0.0
 10
4.8048926795
 20
3.2505083408
 30
0.0
 10
4.8052057726
 20
3.2518466327
 30
0.0
  0
SPLINE
  5
34C
100
AcDbEntity
  8
ALL_ASSEMBLY_MEMBERS
100
AcDbSpline
 62
7
  6
CONTINUOUS
 70
0
 71
3
 72
21
 73
17
 74
0
 42
0.0000001
 43
0.0000001
 44
0.0000000001
 40
0.0
 40
0.0
 40
0.0
 40
0.0
 40
0.1799402007
 40
0.3536108527
 40
0.5148358599
 40
0.5890850106
 40
0.6582489499
 40
0.7218237296
 40
0.7793757985
 40
0.830623427
 40
0.875429741
 40
0.9139252606
 40
0.9466279215
 40
0.9746433764
 40
0.9875090722
 40
1.0
 40
1.0
 40
1.0
 40
1.0
 10
4.7811333593
 20
3.3569305236
 30
0.0
 10
4.782762627
 20
3.3569259111
 30
0.0
 10
4.7859649048
 20
3.3568313055
 30
0.0
 10
4.7906120569
 20
3.3564366814
 30
0.0
 10
4.7942805019
 20
3.3558975967
 30
0.0
 10
4.7969828948
 20
3.3553414407
 30
0.0
 10
4.7988013648
 20
3.3548851554
 30
0.0
 10
4.8004505793
 20
3.3543834823
 30
0.0
 10
4.8019150858
 20
3.3538406129
 30
0.0
 10
4.8031817194
 20
3.3532623447
 30
0.0
 10
4.8042396521
 20
3.3526536024
 30
0.0
 10
4.8050806431
 20
3.3520181334
 30
0.0
 10
4.8056988336
 20
3.3513586142
 30
0.0
 10
4.8060288177
 20
3.350768158
 30
0.0
 10
4.8061547312
 20
3.3502994095
 30
0.0
 10
4.8061749001
 20
3.3500692458
 30
0.0
 10
4.8061744979
 20
3.349956147
 30
0.0
  0
SPLINE
  5
34D
100
AcDbEntity
  8
ALL_ASSEMBLY_MEMBERS
100
AcDbSpline
 62
7
  6
CONTINUOUS
 70
0
 71
3
 72
24
 73
20
 74
0
 42
0.0000001
 43
0.0000001
 44
0.0000000001
 40
0.0
 40
0.0
 40
0.0
 40
0.0
 40
0.1924682191
 40
0.3776894367
 40
0.5485122144
 40
0.6265002585
 40
0.6985158722
 40
0.763899723
 40
0.8220305467
 40
0.8723997846
 40
0.9145628117
 40
0.9324659294
 40
0.9482185686
 40
0.9618087176
 40
0.9732412035
 40
0.982563486
 40
0.9898958481
 40
0.9955054206
 40
1.0
 40
1.0
 40
1.0
 40
1.0
 10
4.7831111688
 20
3.9054286155
 30
0.0
 10
4.7847386283
 20
3.9054230521
 30
0.0
 10
4.7879322543
 20
3.9053844266
 30
0.0
 10
4.7925684949
 20
3.9052449383
 30
0.0
 10
4.7962343117
 20
3.9050609154
 30
0.0
 10
4.7989407157
 20
3.9048731029
 30
0.0
 10
4.8007556634
 20
3.9047205669
 30
0.0
 10
4.8024006959
 20
3.9045538965
 30
0.0
 10
4.8038602098
 20
3.9043746743
 30
0.0
 10
4.8051201485
 20
3.9041850018
 30
0.0
 10
4.8060382427
 20
3.9040122434
 30
0.0
 10
4.8066626193
 20
3.9038662749
 30
0.0
 10
4.8070482233
 20
3.9037614202
 30
0.0
 10
4.8073765198
 20
3.9036554982
 30
0.0
 10
4.8076468498
 20
3.9035487045
 30
0.0
 10
4.8078593222
 20
3.9034413861
 30
0.0
 10
4.8080143129
 20
3.903333105
 30
0.0
 10
4.808114727
 20
3.9032220429
 30
0.0
 10
4.8081414413
 20
3.9031363268
 30
0.0
 10
4.8081413061
 20
3.9030983219
 30
0.0
  0
SPLINE
  5
34E
100
AcDbEntity
  8
ALL_ASSEMBLY_MEMBERS
100
AcDbSpline
 62
7
  6
CONTINUOUS
 70
0
 71
3
 72
24
 73
20
 74
0
 42
0.0000001
 43
0.0000001
 44
0.0000000001
 40
0.0
 40
0.0
 40
0.0
 40
0.0
 40
0.1924682258
 40
0.3776894476
 40
0.5485122271
 40
0.6265002713
 40
0.6985158846
 40
0.7638997347
 40
0.8220305572
 40
0.8723997936
 40
0.9145628189
 40
0.9324659357
 40
0.9482185737
 40
0.9618087217
 40
0.9732412065
 40
0.9825634879
 40
0.989895849
 40
0.9955054208
 40
1.0
 40
1.0
 40
1.0
 40
1.0
 10
4.7641714399
 20
3.9054286156
 30
0.0
 10
4.7625439805
 20
3.9054230521
 30
0.0
 10
4.7593503546
 20
3.9053844266
 30
0.0
 10
4.7547141141
 20
3.9052449383
 30
0.0
 10
4.7510482976
 20
3.9050609154
 30
0.0
 10
4.7483418938
 20
3.9048731029
 30
0.0
 10
4.7465269461
 20
3.9047205669
 30
0.0
 10
4.7448819138
 20
3.9045538965
 30
0.0
 10
4.7434224001
 20
3.9043746743
 30
0.0
 10
4.7421624615
 20
3.9041850018
 30
0.0
 10
4.7412443674
 20
3.9040122434
 30
0.0
 10
4.7406199909
 20
3.9038662748
 30
0.0
 10
4.740234387
 20
3.9037614202
 30
0.0
 10
4.7399060905
 20
3.9036554981
 30
0.0
 10
4.7396357605
 20
3.9035487045
 30
0.0
 10
4.7394232882
 20
3.9034413861
 30
0.0
 10
4.7392682975
 20
3.903333105
 30
0.0
 10
4.7391678835
 20
3.9032220429
 30
0.0
 10
4.7391411692
 20
3.9031363268
 30
0.0
 10
4.7391413044
 20
3.9030983219
 30
0.0
  0
SPLINE
  5
34F
100
AcDbEntity
  8
ALL_ASSEMBLY_MEMBERS
100
AcDbSpline
 62
7
  6
CONTINUOUS
 70
0
 71
3
 72
21
 73
17
 74
0
 42
0.0000001
 43
0.0000001
 44
0.0000000001
 40
0.0
 40
0.0
 40
0.0
 40
0.0
 40
0.1799398962
 40
0.3536102974
 40
0.5148351538
 40
0.5890842764
 40
0.6582482226
 40
0.7218230439
 40
0.7793751882
 40
0.830622922
 40
0.8754293647
 40
0.9139250248
 40
0.9466278186
 40
0.9746433664
 40
0.9875090799
 40
1.0
 40
1.0
 40
1.0
 40
1.0
 10
4.7661492492
 20
3.3569304924
 30
0.0
 10
4.764519986
 20
3.3569258799
 30
0.0
 10
4.7613177166
 20
3.3568312748
 30
0.0
 10
4.7566705757
 20
3.356436653
 30
0.0
 10
4.7530021382
 20
3.3558975714
 30
0.0
 10
4.7502997493
 20
3.3553414184
 30
0.0
 10
4.7484812805
 20
3.3548851355
 30
0.0
 10
4.746832066
 20
3.3543834649
 30
0.0
 10
4.7453675582
 20
3.3538405981
 30
0.0
 10
4.7441009219
 20
3.3532623326
 30
0.0
 10
4.7430429854
 20
3.3526535929
 30
0.0
 10
4.7422019894
 20
3.3520181265
 30
0.0
 10
4.7415837927
 20
3.35135861
 30
0.0
 10
4.7412538018
 20
3.3507681562
 30
0.0
 10
4.7411278822
 20
3.3502994089
 30
0.0
 10
4.7411077101
 20
3.3500692456
 30
0.0
 10
4.7411081108
 20
3.349956147
 30
0.0
  0
SPLINE
  5
350
100
AcDbEntity
  8
ALL_ASSEMBLY_MEMBERS
100
AcDbSpline
 62
7
  6
CONTINUOUS
 70
0
 71
3
 72
9
 73
5
 74
0
 42
0.0000001
 43
0.0000001
 44
0.0000000001
 40
0.0
 40
0.0
 40
0.0
 40
0.0
 40
0.5004987506
 40
1.0
 40
1.0
 40
1.0
 40
1.0
 10
4.7544097973
 20
4.1705226693
 30
0.0
 10
4.7575129673
 20
4.1263690813
 30
0.0
 10
4.7622288119
 20
4.0380395038
 30
0.0
 10
4.7640103879
 20
3.9496026069
 30
0.0
 10
4.7641714399
 20
3.9054286153
 30
0.0
  0
SPLINE
  5
351
100
AcDbEntity
  8
ALL_ASSEMBLY_MEMBERS
100
AcDbSpline
 62
7
  6
CONTINUOUS
 70
0
 71
3
 72
9
 73
5
 74
0
 42
0.0000001
 43
0.0000001
 44
0.0000000001
 40
0.0
 40
0.0
 40
0.0
 40
0.0
 40
0.4995012456
 40
1.0
 40
1.0
 40
1.0
 40
1.0
 10
4.7831111688
 20
3.9054286153
 30
0.0
 10
4.7832722278
 20
3.9496026065
 30
0.0
 10
4.7850537916
 20
4.0380395036
 30
0.0
 10
4.7897696413
 20
4.126369081
 30
0.0
 10
4.7928728114
 20
4.1705226693
 30
0.0
  0
SPLINE
  5
352
100
AcDbEntity
  8
ALL_ASSEMBLY_MEMBERS
100
AcDbSpline
 62
7
  6
CONTINUOUS
 70
0
 71
3
 72
15
 73
11
 74
0
 42
0.0000001
 43
0.0000001
 44
0.0000000001
 40
0.0
 40
0.0
 40
0.0
 40
0.0
 40
0.1258678173
 40
0.2515739006
 40
0.3769438299
 40
0.5020339105
 40
0.626832983
 40
0.7513610934
 40
0.8757619671
 40
1.0
 40
1.0
 40
1.0
 40
1.0
 10
4.8205779533
 20
3.2830050307
 30
0.0
 10
4.8195356701
 20
3.2827234372
 30
0.0
 10
4.8174939112
 20
3.281991841
 30
0.0
 10
4.814652082
 20
3.2804218359
 30
0.0
 10
4.8121046135
 20
3.2784183471
 30
0.0
 10
4.8099192685
 20
3.2760357296
 30
0.0
 10
4.8081541361
 20
3.2733355599
 30
0.0
 10
4.8068547895
 20
3.2703890131
 30
0.0
 10
4.8060572054
 20
3.2672748093
 30
0.0
 10
4.8058728414
 20
3.2651385886
 30
0.0
 10
4.8058690585
 20
3.2640729228
 30
0.0
  0
SPLINE
  5
353
100
AcDbEntity
  8
ALL_ASSEMBLY_MEMBERS
100
AcDbSpline
 62
7
  6
CONTINUOUS
 70
0
 71
3
 72
15
 73
11
 74
0
 42
0.0000001
 43
0.0000001
 44
0.0000000001
 40
0.0
 40
0.0
 40
0.0
 40
0.0
 40
0.1652536878
 40
0.3228984712
 40
0.4704141562
 40
0.6058738698
 40
0.7276052973
 40
0.834239613
 40
0.9250185749
 40
1.0
 40
1.0
 40
1.0
 40
1.0
 10
4.820849447
 20
3.3436221397
 30
0.0
 10
4.8200511192
 20
3.3436851791
 30
0.0
 10
4.8184932793
 20
3.3438367826
 30
0.0
 10
4.8162343044
 20
3.3441475518
 30
0.0
 10
4.8141333058
 20
3.3445328729
 30
0.0
 10
4.812224113
 20
3.3449860558
 30
0.0
 10
4.8105359886
 20
3.3454992522
 30
0.0
 10
4.8090941357
 20
3.3460649493
 30
0.0
 10
4.8079197719
 20
3.3466730271
 30
0.0
 10
4.8072637643
 20
3.3471464599
 30
0.0
 10
4.8069973042
 20
3.347393497
 30
0.0
  0
SPLINE
  5
354
100
AcDbEntity
  8
ALL_ASSEMBLY_MEMBERS
100
AcDbSpline
 62
7
  6
CONTINUOUS
 70
0
 71
3
 72
11
 73
7
 74
0
 42
0.0000001
 43
0.0000001
 44
0.0000000001
 40
0.0
 40
0.0
 40
0.0
 40
0.0
 40
0.290011019
 40
0.5476303215
 40
0.7806740693
 40
1.0
 40
1.0
 40
1.0
 40
1.0
 10
4.8069973042
 20
3.347393497
 30
0.0
 10
4.8068681902
 20
3.3475131995
 30
0.0
 10
4.8066376203
 20
3.3477546349
 30
0.0
 10
4.8063705234
 20
3.3481494826
 30
0.0
 10
4.806207307
 20
3.3485523765
 30
0.0
 10
4.8061704911
 20
3.3488282948
 30
0.0
 10
4.8061709611
 20
3.3489614467
 30
0.0
  0
SPLINE
  5
355
100
AcDbEntity
  8
ALL_ASSEMBLY_MEMBERS
100
AcDbSpline
 62
7
  6
CONTINUOUS
 70
0
 71
3
 72
22
 73
18
 74
0
 42
0.0000001
 43
0.0000001
 44
0.0000000001
 40
0.0
 40
0.0
 40
0.0
 40
0.0
 40
0.2000778175
 40
0.3869783317
 40
0.5553535524
 40
0.631197195
 40
0.7007900143
 40
0.7636573854
 40
0.8194317471
 40
0.8677937919
 40
0.9085214725
 40
0.9415601902
 40
0.9670636982
 40
0.9772029726
 40
0.9858252664
 40
0.9932547232
 40
1.0
 40
1.0
 40
1.0
 40
1.0
 10
4.8232502779
 20
3.7868615471
 30
0.0
 10
4.8221840425
 20
3.786896409
 30
0.0
 10
4.8201224235
 20
3.7869862431
 30
0.0
 10
4.8171678653
 20
3.787187622
 30
0.0
 10
4.8148794521
 20
3.7874099648
 30
0.0
 10
4.8132193063
 20
3.7876196385
 30
0.0
 10
4.812120606
 20
3.7877829756
 30
0.0
 10
4.811131983
 20
3.787956832
 30
0.0
 10
4.8102602797
 20
3.7881396702
 30
0.0
 10
4.8095114363
 20
3.7883300097
 30
0.0
 10
4.8088899068
 20
3.7885263923
 30
0.0
 10
4.8083996075
 20
3.7887270099
 30
0.0
 10
4.8080787352
 20
3.7889084254
 30
0.0
 10
4.8078976158
 20
3.7890609145
 30
0.0
 10
4.8078064889
 20
3.7891678791
 30
0.0
 10
4.8077499622
 20
3.789277028
 30
0.0
 10
4.8077368606
 20
3.789353083
 30
0.0
 10
4.8077369885
 20
3.7893890483
 30
0.0
  0
SPLINE
  5
356
100
AcDbEntity
  8
ALL_ASSEMBLY_MEMBERS
100
AcDbSpline
 62
7
  6
CONTINUOUS
 70
0
 71
3
 72
24
 73
20
 74
0
 42
0.0000001
 43
0.0000001
 44
0.0000000001
 40
0.0
 40
0.0
 40
0.0
 40
0.0
 40
0.2010200154
 40
0.3897874107
 40
0.560418716
 40
0.6373747281
 40
0.7079828659
 40
0.7716989584
 40
0.8280866661
 40
0.8767468051
 40
0.9173593737
 40
0.9345882443
 40
0.9497423044
 40
0.9628159044
 40
0.973827656
 40
0.9828384312
 40
0.9899730835
 40
0.995499312
 40
1.0
 40
1.0
 40
1.0
 40
1.0
 10
4.8246085013
 20
3.9013922338
 30
0.0
 10
4.8234891884
 20
3.9014129963
 30
0.0
 10
4.8213190341
 20
3.9014691216
 30
0.0
 10
4.8182006213
 20
3.9016004447
 30
0.0
 10
4.8157748098
 20
3.9017486079
 30
0.0
 10
4.8140083317
 20
3.9018898722
 30
0.0
 10
4.8128368451
 20
3.9020004691
 30
0.0
 10
4.8117812764
 20
3.9021186086
 30
0.0
 10
4.8108495905
 20
3.9022431103
 30
0.0
 10
4.8100487363
 20
3.9023729426
 30
0.0
 10
4.8094670057
 20
3.9024899664
 30
0.0
 10
4.8090724182
 20
3.9025880367
 30
0.0
 10
4.808829109
 20
3.9026582064
 30
0.0
 10
4.8086222096
 20
3.9027289123
 30
0.0
 10
4.8084519865
 20
3.9028000447
 30
0.0
 10
4.8083182332
 20
3.9028713941
 30
0.0
 10
4.808220619
 20
3.9029433159
 30
0.0
 10
4.8081576382
 20
3.9030171555
 30
0.0
 10
4.8081412163
 20
3.9030732571
 30
0.0
 10
4.8081413054
 20
3.9030983219
 30
0.0
  0
LINE
  5
357
100
AcDbEntity
  8
ALL_ASSEMBLY_MEMBERS
100
AcDbLine
 62
7
  6
CONTINUOUS
 10
4.8357961626
 20
4.1366049993
 11
4.8158041908
 21
4.1380802335
  0
LINE
  5
358
100
AcDbEntity
  8
ALL_ASSEMBLY_MEMBERS
100
AcDbLine
 62
7
  6
CONTINUOUS
 10
4.7114864471
 20
4.1366049933
 11
4.7314784083
 21
4.1380802333
  0
SPLINE
  5
359
100
AcDbEntity
  8
ALL_ASSEMBLY_MEMBERS
100
AcDbSpline
 62
7
  6
CONTINUOUS
 70
0
 71
3
 72
24
 73
20
 74
0
 42
0.0000001
 43
0.0000001
 44
0.0000000001
 40
0.0
 40
0.0
 40
0.0
 40
0.0
 40
0.2010200265
 40
0.3897874349
 40
0.5604187538
 40
0.6373747723
 40
0.7079829158
 40
0.7716990132
 40
0.8280867245
 40
0.8767468655
 40
0.9173594339
 40
0.9345883034
 40
0.9497423614
 40
0.9628159581
 40
0.9738277049
 40
0.9828384732
 40
0.9899731156
 40
0.9954993303
 40
1.0
 40
1.0
 40
1.0
 40
1.0
 10
4.7226741059
 20
3.9013922415
 30
0.0
 10
4.7237934189
 20
3.9014130039
 30
0.0
 10
4.7259635734
 20
3.9014691289
 30
0.0
 10
4.7290819866
 20
3.9016004513
 30
0.0
 10
4.7315077984
 20
3.9017486139
 30
0.0
 10
4.7332742768
 20
3.9018898775
 30
0.0
 10
4.7344457635
 20
3.9020004739
 30
0.0
 10
4.7355013325
 20
3.9021186129
 30
0.0
 10
4.7364330185
 20
3.9022431141
 30
0.0
 10
4.7372338729
 20
3.9023729458
 30
0.0
 10
4.7378156036
 20
3.9024899691
 30
0.0
 10
4.7382101912
 20
3.902588039
 30
0.0
 10
4.7384535005
 20
3.9026582083
 30
0.0
 10
4.7386603999
 20
3.902728914
 30
0.0
 10
4.7388306231
 20
3.902800046
 30
0.0
 10
4.7389643764
 20
3.9028713951
 30
0.0
 10
4.7390619907
 20
3.9029433165
 30
0.0
 10
4.7391249715
 20
3.9030171558
 30
0.0
 10
4.7391413934
 20
3.9030732572
 30
0.0
 10
4.7391413043
 20
3.9030983219
 30
0.0
  0
SPLINE
  5
35A
100
AcDbEntity
  8
ALL_ASSEMBLY_MEMBERS
100
AcDbSpline
 62
7
  6
CONTINUOUS
 70
0
 71
3
 72
22
 73
18
 74
0
 42
0.0000001
 43
0.0000001
 44
0.0000000001
 40
0.0
 40
0.0
 40
0.0
 40
0.0
 40
0.2000777745
 40
0.3869782513
 40
0.5553534426
 40
0.6311970745
 40
0.7007898862
 40
0.7636572532
 40
0.8194316146
 40
0.8677936636
 40
0.9085213536
 40
0.9415600871
 40
0.9670636191
 40
0.9772029093
 40
0.985825222
 40
0.9932547003
 40
1.0
 40
1.0
 40
1.0
 40
1.0
 10
4.7240323307
 20
3.7868615399
 30
0.0
 10
4.725098566
 20
3.7868964018
 30
0.0
 10
4.7271601849
 20
3.7869862357
 30
0.0
 10
4.730114743
 20
3.7871876148
 30
0.0
 10
4.7324031561
 20
3.7874099581
 30
0.0
 10
4.7340633019
 20
3.7876196323
 30
0.0
 10
4.7351620022
 20
3.7877829699
 30
0.0
 10
4.7361506252
 20
3.7879568268
 30
0.0
 10
4.7370223285
 20
3.7881396656
 30
0.0
 10
4.737771172
 20
3.7883300057
 30
0.0
 10
4.7383927016
 20
3.788526389
 30
0.0
 10
4.738883001
 20
3.7887270073
 30
0.0
 10
4.7392038733
 20
3.7889084234
 30
0.0
 10
4.7393849927
 20
3.7890609131
 30
0.0
 10
4.7394761197
 20
3.789167878
 30
0.0
 10
4.7395326464
 20
3.7892770273
 30
0.0
 10
4.739545748
 20
3.7893530826
 30
0.0
 10
4.7395456202
 20
3.7893890479
 30
0.0
  0
SPLINE
  5
35B
100
AcDbEntity
  8
ALL_ASSEMBLY_MEMBERS
100
AcDbSpline
 62
7
  6
CONTINUOUS
 70
0
 71
3
 72
15
 73
11
 74
0
 42
0.0000001
 43
0.0000001
 44
0.0000000001
 40
0.0
 40
0.0
 40
0.0
 40
0.0
 40
0.1652554537
 40
0.3229016624
 40
0.4704182998
 40
0.6058784026
 40
0.7276095964
 40
0.8342430334
 40
0.925020514
 40
1.0
 40
1.0
 40
1.0
 40
1.0
 10
4.7264332185
 20
3.3436221306
 30
0.0
 10
4.7272315532
 20
3.34368518
 30
0.0
 10
4.7287894051
 20
3.3438368
 30
0.0
 10
4.7310483954
 20
3.3441475847
 30
0.0
 10
4.7331494037
 20
3.3445329133
 30
0.0
 10
4.7350585994
 20
3.3449860971
 30
0.0
 10
4.7367467193
 20
3.3454992894
 30
0.0
 10
4.7381885599
 20
3.3460649789
 30
0.0
 10
4.7393629036
 20
3.346673047
 30
0.0
 10
4.7400188939
 20
3.3471464749
 30
0.0
 10
4.7402853426
 20
3.3473935099
 30
0.0
  0
SPLINE
  5
35C
100
AcDbEntity
  8
ALL_ASSEMBLY_MEMBERS
100
AcDbSpline
 62
7
  6
CONTINUOUS
 70
0
 71
3
 72
11
 73
7
 74
0
 42
0.0000001
 43
0.0000001
 44
0.0000000001
 40
0.0
 40
0.0
 40
0.0
 40
0.0
 40
0.2900096796
 40
0.5476274041
 40
0.7806709549
 40
1.0
 40
1.0
 40
1.0
 40
1.0
 10
4.7402853426
 20
3.3473935099
 30
0.0
 10
4.7404144503
 20
3.3475132106
 30
0.0
 10
4.7406450075
 20
3.347754643
 30
0.0
 10
4.7409120819
 20
3.348149488
 30
0.0
 10
4.7410752722
 20
3.3485523809
 30
0.0
 10
4.7411120674
 20
3.3488282961
 30
0.0
 10
4.7411115875
 20
3.3489614461
 30
0.0
  0
SPLINE
  5
35D
100
AcDbEntity
  8
ALL_ASSEMBLY_MEMBERS
100
AcDbSpline
 62
7
  6
CONTINUOUS
 70
0
 71
3
 72
15
 73
11
 74
0
 42
0.0000001
 43
0.0000001
 44
0.0000000001
 40
0.0
 40
0.0
 40
0.0
 40
0.0
 40
0.1258672119
 40
0.251572834
 40
0.3769424985
 40
0.50203253
 40
0.6268317595
 40
0.7513601952
 40
0.8757615015
 40
1.0
 40
1.0
 40
1.0
 40
1.0
 10
4.7267046137
 20
3.2830049598
 30
0.0
 10
4.7277468884
 20
3.2827233708
 30
0.0
 10
4.729788632
 20
3.2819917829
 30
0.0
 10
4.7326304406
 20
3.2804217894
 30
0.0
 10
4.7351778934
 20
3.2784183113
 30
0.0
 10
4.7373632289
 20
3.2760357037
 30
0.0
 10
4.7391283594
 20
3.2733355432
 30
0.0
 10
4.7404277125
 20
3.2703890044
 30
0.0
 10
4.7412253124
 20
3.2672748067
 30
0.0
 10
4.7414096932
 20
3.2651385883
 30
0.0
 10
4.7414134861
 20
3.2640729225
 30
0.0
  0
SPLINE
  5
35E
100
AcDbEntity
  8
ALL_ASSEMBLY_MEMBERS
100
AcDbSpline
 62
7
  6
CONTINUOUS
 70
0
 71
3
 72
15
 73
11
 74
0
 42
0.0000001
 43
0.0000001
 44
0.0000000001
 40
0.0
 40
0.0
 40
0.0
 40
0.0
 40
0.1242398924
 40
0.2486417465
 40
0.3731704864
 40
0.4979691939
 40
0.623058154
 40
0.7484266001
 40
0.8741316668
 40
1.0
 40
1.0
 40
1.0
 40
1.0
 10
4.7083191352
 20
3.3065661657
 30
0.0
 10
4.7083293785
 20
3.3052383488
 30
0.0
 10
4.7085694855
 20
3.3025775761
 30
0.0
 10
4.7095764197
 20
3.2987007145
 30
0.0
 10
4.7112059325
 20
3.2950340582
 30
0.0
 10
4.7134132047
 20
3.2916749475
 30
0.0
 10
4.7161415987
 20
3.2887113746
 30
0.0
 10
4.7193190543
 20
3.2862194396
 30
0.0
 10
4.7228615874
 20
3.2842663406
 30
0.0
 10
4.7254058891
 20
3.2833557412
 30
0.0
 10
4.7267046307
 20
3.2830050314
 30
0.0
  0
SPLINE
  5
35F
100
AcDbEntity
  8
ALL_ASSEMBLY_MEMBERS
100
AcDbSpline
 62
7
  6
CONTINUOUS
 70
0
 71
3
 72
20
 73
16
 74
0
 42
0.0000001
 43
0.0000001
 44
0.0000000001
 40
0.0
 40
0.0
 40
0.0
 40
0.0
 40
0.0276038593
 40
0.0573426689
 40
0.0908443598
 40
0.1291969667
 40
0.1730211154
 40
0.2226350524
 40
0.2781130291
 40
0.3393711794
 40
0.4062334294
 40
0.4784016847
 40
0.6371855543
 40
0.8124668216
 40
1.0
 40
1.0
 40
1.0
 40
1.0
 10
4.708085698
 20
3.3368440845
 30
0.0
 10
4.7080842444
 20
3.3370326141
 30
0.0
 10
4.7081422096
 20
3.3374266696
 30
0.0
 10
4.7084007705
 20
3.3379975106
 30
0.0
 10
4.7088227006
 20
3.3385539973
 30
0.0
 10
4.7094022897
 20
3.3390950792
 30
0.0
 10
4.7101352184
 20
3.3396208738
 30
0.0
 10
4.711017855
 20
3.3401289318
 30
0.0
 10
4.7120449715
 20
3.340616839
 30
0.0
 10
4.7132104018
 20
3.3410816113
 30
0.0
 10
4.7145068801
 20
3.341519817
 30
0.0
 10
4.7164619353
 20
3.3420833016
 30
0.0
 10
4.7191719822
 20
3.3426902431
 30
0.0
 10
4.722691379
 20
3.3432535017
 30
0.0
 10
4.7251567046
 20
3.3435161012
 30
0.0
 10
4.7264331618
 20
3.3436221748
 30
0.0
  0
SPLINE
  5
360
100
AcDbEntity
  8
ALL_ASSEMBLY_MEMBERS
100
AcDbSpline
 62
7
  6
CONTINUOUS
 70
0
 71
3
 72
22
 73
18
 74
0
 42
0.0000001
 43
0.0000001
 44
0.0000000001
 40
0.0
 40
0.0
 40
0.0
 40
0.0
 40
0.0067896607
 40
0.0142590801
 40
0.0229151143
 40
0.033082136
 40
0.0586264288
 40
0.091691743
 40
0.1324357143
 40
0.180805916
 40
0.2365815578
 40
0.2994440659
 40
0.3690263158
 40
0.4448539364
 40
0.6131811136
 40
0.8000125624
 40
1.0
 40
1.0
 40
1.0
 40
1.0
 10
4.7046413041
 20
3.7835983219
 30
0.0
 10
4.7046409549
 20
3.783643619
 30
0.0
 10
4.7046569182
 20
3.7837394132
 30
0.0
 10
4.7047270141
 20
3.7838771931
 30
0.0
 10
4.7048404382
 20
3.7840124318
 30
0.0
 10
4.7050661212
 20
3.7842054128
 30
0.0
 10
4.7054665355
 20
3.7844356376
 30
0.0
 10
4.7060788884
 20
3.7846909208
 30
0.0
 10
4.7068553939
 20
3.7849415268
 30
0.0
 10
4.707791172
 20
3.7851851575
 30
0.0
 10
4.7088806576
 20
3.7854199612
 30
0.0
 10
4.7101164258
 20
3.7856440423
 30
0.0
 10
4.7114899208
 20
3.785855429
 30
0.0
 10
4.7135653821
 20
3.7861280449
 30
0.0
 10
4.7164265597
 20
3.7864198186
 30
0.0
 10
4.720120933
 20
3.7866885563
 30
0.0
 10
4.7226989899
 20
3.7868122106
 30
0.0
 10
4.7240323309
 20
3.7868615436
 30
0.0
  0
SPLINE
  5
361
100
AcDbEntity
  8
ALL_ASSEMBLY_MEMBERS
100
AcDbSpline
 62
7
  6
CONTINUOUS
 70
0
 71
3
 72
22
 73
18
 74
0
 42
0.0000001
 43
0.0000001
 44
0.0000000001
 40
0.0
 40
0.0
 40
0.0
 40
0.0
 40
0.0067896605
 40
0.0142590793
 40
0.0229151126
 40
0.0330821332
 40
0.0586264237
 40
0.0916917358
 40
0.1324357054
 40
0.1808059058
 40
0.2365815468
 40
0.2994440546
 40
0.3690263046
 40
0.4448539257
 40
0.6131811051
 40
0.8000125576
 40
1.0
 40
1.0
 40
1.0
 40
1.0
 10
4.8426413043
 20
3.7835983219
 30
0.0
 10
4.8426416536
 20
3.783643619
 30
0.0
 10
4.8426256903
 20
3.7837394132
 30
0.0
 10
4.8425555945
 20
3.7838771931
 30
0.0
 10
4.8424421704
 20
3.7840124318
 30
0.0
 10
4.8422164874
 20
3.7842054128
 30
0.0
 10
4.8418160732
 20
3.7844356377
 30
0.0
 10
4.8412037204
 20
3.7846909208
 30
0.0
 10
4.8404272149
 20
3.7849415268
 30
0.0
 10
4.8394914368
 20
3.7851851575
 30
0.0
 10
4.8384019513
 20
3.7854199613
 30
0.0
 10
4.8371661831
 20
3.7856440424
 30
0.0
 10
4.8357926881
 20
3.7858554291
 30
0.0
 10
4.8337172268
 20
3.786128045
 30
0.0
 10
4.8308560492
 20
3.7864198187
 30
0.0
 10
4.8271616758
 20
3.7866885564
 30
0.0
 10
4.8245836189
 20
3.7868122107
 30
0.0
 10
4.8232502778
 20
3.7868615437
 30
0.0
  0
SPLINE
  5
362
100
AcDbEntity
  8
ALL_ASSEMBLY_MEMBERS
100
AcDbSpline
 62
7
  6
CONTINUOUS
 70
0
 71
3
 72
20
 73
16
 74
0
 42
0.0000001
 43
0.0000001
 44
0.0000000001
 40
0.0
 40
0.0
 40
0.0
 40
0.0
 40
0.0276037965
 40
0.0573426974
 40
0.0908445862
 40
0.1291974489
 40
0.1730218715
 40
0.2226360706
 40
0.278114275
 40
0.3393726005
 40
0.4062349588
 40
0.4784032463
 40
0.6371869284
 40
0.812467659
 40
1.0
 40
1.0
 40
1.0
 40
1.0
 10
4.8391969107
 20
3.3368440845
 30
0.0
 10
4.8391983599
 20
3.3370326134
 30
0.0
 10
4.8391403851
 20
3.3374266673
 30
0.0
 10
4.8388818117
 20
3.3379975033
 30
0.0
 10
4.8384598704
 20
3.3385539849
 30
0.0
 10
4.8378802712
 20
3.3390950618
 30
0.0
 10
4.8371473336
 20
3.3396208514
 30
0.0
 10
4.8362646895
 20
3.3401289042
 30
0.0
 10
4.8352375669
 20
3.340616806
 30
0.0
 10
4.8340721322
 20
3.3410815729
 30
0.0
 10
4.8327756515
 20
3.3415197731
 30
0.0
 10
4.8308205969
 20
3.34208325
 30
0.0
 10
4.8281105562
 20
3.3426901825
 30
0.0
 10
4.824591173
 20
3.3432534324
 30
0.0
 10
4.8221258594
 20
3.3435160279
 30
0.0
 10
4.8208494093
 20
3.3436220997
 30
0.0
  0
SPLINE
  5
363
100
AcDbEntity
  8
ALL_ASSEMBLY_MEMBERS
100
AcDbSpline
 62
7
  6
CONTINUOUS
 70
0
 71
3
 72
15
 73
11
 74
0
 42
0.0000001
 43
0.0000001
 44
0.0000000001
 40
0.0
 40
0.0
 40
0.0
 40
0.0
 40
0.1242398969
 40
0.2486417545
 40
0.373170495
 40
0.4979692015
 40
0.6230581605
 40
0.7484266078
 40
0.8741316702
 40
1.0
 40
1.0
 40
1.0
 40
1.0
 10
4.8389634735
 20
3.3065661657
 30
0.0
 10
4.8389532343
 20
3.3052383439
 30
0.0
 10
4.8387131354
 20
3.3025775609
 30
0.0
 10
4.8377062121
 20
3.2987006816
 30
0.0
 10
4.8360767082
 20
3.2950340057
 30
0.0
 10
4.8338694419
 20
3.2916748739
 30
0.0
 10
4.8311410499
 20
3.2887112795
 30
0.0
 10
4.8279635917
 20
3.2862193243
 30
0.0
 10
4.8244210517
 20
3.2842662078
 30
0.0
 10
4.8218767427
 20
3.2833555997
 30
0.0
 10
4.820577997
 20
3.2830048865
 30
0.0
  0
SPLINE
  5
364
100
AcDbEntity
  8
ALL_ASSEMBLY_MEMBERS
100
AcDbSpline
 62
7
  6
CONTINUOUS
 70
0
 71
3
 72
24
 73
20
 74
0
 42
0.0000001
 43
0.0000001
 44
0.0000000001
 40
0.0
 40
0.0
 40
0.0
 40
0.0
 40
0.0479575899
 40
0.0947705375
 40
0.1410188858
 40
0.1874883213
 40
0.2351176123
 40
0.2848988625
 40
0.3377400793
 40
0.3944099996
 40
0.4243625249
 40
0.4554427701
 40
0.5210739392
 40
0.5913468322
 40
0.6660530806
 40
0.7448276637
 40
0.8271551331
 40
0.912437509
 40
1.0
 40
1.0
 40
1.0
 40
1.0
 10
4.8561413043
 20
4.9181007719
 30
0.0
 10
4.8561413043
 20
4.9167634087
 30
0.0
 10
4.8559857419
 20
4.9141170413
 30
0.0
 10
4.8552353258
 20
4.9102443111
 30
0.0
 10
4.8539442551
 20
4.9065580343
 30
0.0
 10
4.8520909013
 20
4.9030928765
 30
0.0
 10
4.8496598149
 20
4.899880574
 30
0.0
 10
4.84664266
 20
4.896951767
 30
0.0
 10
4.8430490386
 20
4.8943193263
 30
0.0
 10
4.8396441813
 20
4.8924213753
 30
0.0
 10
4.8366621257
 20
4.8910477357
 30
0.0
 10
4.8333860292
 20
4.889723929
 30
0.0
 10
4.8289568223
 20
4.888268937
 30
0.0
 10
4.8232571781
 20
4.8868365591
 30
0.0
 10
4.8171258662
 20
4.8856637264
 30
0.0
 10
4.8106149678
 20
4.8847287365
 30
0.0
 10
4.8037811967
 20
4.8840046195
 30
0.0
 10
4.7966848335
 20
4.8834672725
 30
0.0
 10
4.7918705217
 20
4.8832231661
 30
0.0
 10
4.7894307121
 20
4.8831245889
 30
0.0
  0
SPLINE
  5
365
100
AcDbEntity
  8
ALL_ASSEMBLY_MEMBERS
100
AcDbSpline
 62
7
  6
CONTINUOUS
 70
0
 71
3
 72
9
 73
5
 74
0
 42
0.0000001
 43
0.0000001
 44
0.0000000001
 40
0.0
 40
0.0
 40
0.0
 40
0.0
 40
0.5000000801
 40
1.0
 40
1.0
 40
1.0
 40
1.0
 10
4.7894307121
 20
4.8831245889
 30
0.0
 10
4.7841708759
 20
4.8829120725
 30
0.0
 10
4.7736413547
 20
4.8827190358
 30
0.0
 10
4.7631118336
 20
4.8829120726
 30
0.0
 10
4.7578519989
 20
4.8831245852
 30
0.0
  0
LINE
  5
366
100
AcDbEntity
  8
ALL_ASSEMBLY_MEMBERS
100
AcDbLine
 62
7
  6
CONTINUOUS
 10
4.7578519989
 20
4.8831245852
 11
4.7575050097
 21
4.8831387757
  0
SPLINE
  5
367
100
AcDbEntity
  8
ALL_ASSEMBLY_MEMBERS
100
AcDbSpline
 62
7
  6
CONTINUOUS
 70
0
 71
3
 72
24
 73
20
 74
0
 42
0.0000001
 43
0.0000001
 44
0.0000000001
 40
0.0
 40
0.0
 40
0.0
 40
0.0
 40
0.0875807795
 40
0.1728547978
 40
0.2551525168
 40
0.3338821652
 40
0.4085343283
 40
0.4787517591
 40
0.544331929
 40
0.5753913166
 40
0.6053266269
 40
0.6619743606
 40
0.7148142324
 40
0.7646142523
 40
0.8122802767
 40
0.8588002097
 40
0.9051072272
 40
0.9519816788
 40
1.0
 40
1.0
 40
1.0
 40
1.0
 10
4.7575050097
 20
4.8831387757
 30
0.0
 10
4.7550749099
 20
4.8832393585
 30
0.0
 10
4.7502805402
 20
4.8834874475
 30
0.0
 10
4.7432147802
 20
4.884030783
 30
0.0
 10
4.7364125932
 20
4.8847606612
 30
0.0
 10
4.7299336523
 20
4.8857011936
 30
0.0
 10
4.7238340266
 20
4.8868790863
 30
0.0
 10
4.7181651356
 20
4.8883156121
 30
0.0
 10
4.713760898
 20
4.889773366
 30
0.0
 10
4.7105037698
 20
4.8910983697
 30
0.0
 10
4.7075388928
 20
4.8924727489
 30
0.0
 10
4.7041540171
 20
4.8943710111
 30
0.0
 10
4.7005820195
 20
4.8970014143
 30
0.0
 10
4.697583217
 20
4.8999261863
 30
0.0
 10
4.6951671728
 20
4.9031325099
 30
0.0
 10
4.6933251288
 20
4.906589723
 30
0.0
 10
4.6920419093
 20
4.9102665217
 30
0.0
 10
4.6912959713
 20
4.9141285013
 30
0.0
 10
4.6911413043
 20
4.916767269
 30
0.0
 10
4.6911413043
 20
4.9181007719
 30
0.0
  0
SPLINE
  5
368
100
AcDbEntity
  8
ALL_ASSEMBLY_MEMBERS
100
AcDbSpline
 62
7
  6
CONTINUOUS
 70
0
 71
3
 72
11
 73
7
 74
0
 42
0.0000001
 43
0.0000001
 44
0.0000000001
 40
0.0
 40
0.0
 40
0.0
 40
0.0
 40
0.4731437315
 40
0.5997638463
 40
0.7297491921
 40
1.0
 40
1.0
 40
1.0
 40
1.0
 10
4.8561413043
 20
4.9181007719
 30
0.0
 10
4.8561413043
 20
4.9218220626
 30
0.0
 10
4.8553714121
 20
4.9265572276
 30
0.0
 10
4.8536707895
 20
4.9320362374
 30
0.0
 10
4.8522253059
 20
4.9359224385
 30
0.0
 10
4.8508930894
 20
4.9387818774
 30
0.0
 10
4.8499066802
 20
4.9406646626
 30
0.0
  0
SPLINE
  5
369
100
AcDbEntity
  8
ALL_ASSEMBLY_MEMBERS
100
AcDbSpline
 62
7
  6
CONTINUOUS
 70
0
 71
3
 72
11
 73
7
 74
0
 42
0.0000001
 43
0.0000001
 44
0.0000000001
 40
0.0
 40
0.0
 40
0.0
 40
0.0
 40
0.2702526781
 40
0.4002382748
 40
0.5268583936
 40
1.0
 40
1.0
 40
1.0
 40
1.0
 10
4.6973765894
 20
4.9406659446
 30
0.0
 10
4.6963900725
 20
4.938783053
 30
0.0
 10
4.6950577148
 20
4.9359234486
 30
0.0
 10
4.693612081
 20
4.9320370158
 30
0.0
 10
4.6919112876
 20
4.926557709
 30
0.0
 10
4.6911413043
 20
4.9218222726
 30
0.0
 10
4.6911413043
 20
4.9181007719
 30
0.0
  0
SPLINE
  5
36A
100
AcDbEntity
  8
ALL_ASSEMBLY_MEMBERS
100
AcDbSpline
 62
7
  6
CONTINUOUS
 70
0
 71
3
 72
14
 73
10
 74
0
 42
0.0000001
 43
0.0000001
 44
0.0000000001
 40
0.0
 40
0.0
 40
0.0
 40
0.0
 40
0.2480937409
 40
0.3727193351
 40
0.4976839625
 40
0.6229603705
 40
0.7485063561
 40
0.8742497383
 40
1.0
 40
1.0
 40
1.0
 40
1.0
 10
4.8017543332
 20
5.229691816
 30
0.0
 10
4.8003439433
 20
5.2271767606
 30
0.0
 10
4.7978728701
 20
5.2235662244
 30
0.0
 10
4.7937809696
 20
5.21945738
 30
0.0
 10
4.7902942483
 20
5.2168186499
 30
0.0
 10
4.7864475461
 20
5.2147154986
 30
0.0
 10
4.7823205472
 20
5.2132111879
 30
0.0
 10
4.7780223831
 20
5.212295223
 30
0.0
 10
4.775102157
 20
5.212047682
 30
0.0
 10
4.7736413043
 20
5.2120022369
 30
0.0
  0
SPLINE
  5
36B
100
AcDbEntity
  8
ALL_ASSEMBLY_MEMBERS
100
AcDbSpline
 62
7
  6
CONTINUOUS
 70
0
 71
3
 72
11
 73
7
 74
0
 42
0.0000001
 43
0.0000001
 44
0.0000000001
 40
0.0
 40
0.0
 40
0.0
 40
0.0
 40
0.2497549459
 40
0.4996140098
 40
0.749646134
 40
1.0
 40
1.0
 40
1.0
 40
1.0
 10
4.8117311382
 20
5.2717707458
 30
0.0
 10
4.8117311382
 20
5.2681329683
 30
0.0
 10
4.8113951744
 20
5.2608495513
 30
0.0
 10
4.8096922179
 20
5.250038186
 30
0.0
 10
4.8066051864
 20
5.2395211803
 30
0.0
 10
4.8035379113
 20
5.2328723535
 30
0.0
 10
4.8017543332
 20
5.229691816
 30
0.0
  0
SPLINE
  5
36C
100
AcDbEntity
  8
ALL_ASSEMBLY_MEMBERS
100
AcDbSpline
 62
7
  6
CONTINUOUS
 70
0
 71
3
 72
11
 73
7
 74
0
 42
0.0000001
 43
0.0000001
 44
0.0000000001
 40
0.0
 40
0.0
 40
0.0
 40
0.0
 40
0.2506734877
 40
0.5007216556
 40
0.7504291522
 40
1.0
 40
1.0
 40
1.0
 40
1.0
 10
4.8302711075
 20
5.2281384532
 30
0.0
 10
4.8282153174
 20
5.2311636891
 30
0.0
 10
4.824718872
 20
5.2376417204
 30
0.0
 10
4.8213344858
 20
5.2481046735
 30
0.0
 10
4.8195435125
 20
5.2589227905
 30
0.0
 10
4.8192058692
 20
5.2662149607
 30
0.0
 10
4.8192058692
 20
5.2698565111
 30
0.0
  0
SPLINE
  5
36D
100
AcDbEntity
  8
ALL_ASSEMBLY_MEMBERS
100
AcDbSpline
 62
7
  6
CONTINUOUS
 70
0
 71
3
 72
14
 73
10
 74
0
 42
0.0000001
 43
0.0000001
 44
0.0000000001
 40
0.0
 40
0.0
 40
0.0
 40
0.0
 40
0.1255198928
 40
0.2511163668
 40
0.3765841673
 40
0.5018211517
 40
0.6268312497
 40
0.7515365691
 40
1.0
 40
1.0
 40
1.0
 40
1.0
 10
4.8580072894
 20
5.2117797189
 30
0.0
 10
4.8566019626
 20
5.2117864343
 30
0.0
 10
4.853787321
 20
5.2119734501
 30
0.0
 10
4.8496445229
 20
5.2128279991
 30
0.0
 10
4.8456702205
 20
5.2142718465
 30
0.0
 10
4.8419533058
 20
5.2162707758
 30
0.0
 10
4.8385453157
 20
5.2187420886
 30
0.0
 10
4.8344472011
 20
5.2225403464
 30
0.0
 10
4.8318346515
 20
5.2258375912
 30
0.0
 10
4.8302711075
 20
5.2281384532
 30
0.0
  0
SPLINE
  5
36E
100
AcDbEntity
  8
ALL_ASSEMBLY_MEMBERS
100
AcDbSpline
 62
7
  6
CONTINUOUS
 70
0
 71
3
 72
14
 73
10
 74
0
 42
0.0000001
 43
0.0000001
 44
0.0000000001
 40
0.0
 40
0.0
 40
0.0
 40
0.0
 40
0.2479775344
 40
0.3725423397
 40
0.4974624442
 40
0.6227237047
 40
0.74829736
 40
0.874120443
 40
1.0
 40
1.0
 40
1.0
 40
1.0
 10
4.8874200382
 20
5.2293574985
 30
0.0
 10
4.8859578346
 20
5.2267554861
 30
0.0
 10
4.8833805346
 20
5.2230263605
 30
0.0
 10
4.8790836564
 20
5.2188325809
 30
0.0
 10
4.8754136694
 20
5.2161796008
 30
0.0
 10
4.8713683095
 20
5.2141163395
 30
0.0
 10
4.8670419622
 20
5.2127044757
 30
0.0
 10
4.8625562816
 20
5.2119180211
 30
0.0
 10
4.8595223862
 20
5.211772479
 30
0.0
 10
4.8580072894
 20
5.2117797189
 30
0.0
  0
SPLINE
  5
36F
100
AcDbEntity
  8
ALL_ASSEMBLY_MEMBERS
100
AcDbSpline
 62
7
  6
CONTINUOUS
 70
0
 71
3
 72
11
 73
7
 74
0
 42
0.0000001
 43
0.0000001
 44
0.0000000001
 40
0.0
 40
0.0
 40
0.0
 40
0.0
 40
0.2499581139
 40
0.4998985114
 40
0.7498664665
 40
1.0
 40
1.0
 40
1.0
 40
1.0
 10
4.8973966128
 20
5.2714132633
 30
0.0
 10
4.8973966128
 20
5.2677743077
 30
0.0
 10
4.8970608928
 20
5.260490304
 30
0.0
 10
4.8953583346
 20
5.2496809955
 30
0.0
 10
4.8922718154
 20
5.2391723961
 30
0.0
 10
4.8892040051
 20
5.2325320934
 30
0.0
 10
4.8874200382
 20
5.2293574985
 30
0.0
  0
LINE
  5
370
100
AcDbEntity
  8
ALL_ASSEMBLY_MEMBERS
100
AcDbLine
 62
7
  6
CONTINUOUS
 10
5.1752634377
 20
5.0944562161
 11
5.1848389933
 21
5.086421371
  0
SPLINE
  5
371
100
AcDbEntity
  8
ALL_ASSEMBLY_MEMBERS
100
AcDbSpline
 62
7
  6
CONTINUOUS
 70
0
 71
3
 72
14
 73
10
 74
0
 42
0.0000001
 43
0.0000001
 44
0.0000000001
 40
0.0
 40
0.0
 40
0.0
 40
0.0
 40
0.2506532932
 40
0.375883964
 40
0.5009838712
 40
0.6258854939
 40
0.7506503537
 40
0.8754353564
 40
1.0
 40
1.0
 40
1.0
 40
1.0
 10
5.3491190222
 20
4.8299220468
 30
0.0
 10
5.3499058422
 20
4.8317303661
 30
0.0
 10
5.3513205801
 20
4.834355784
 30
0.0
 10
5.3537416675
 20
4.8374758641
 30
0.0
 10
5.3558260115
 20
4.8395772879
 30
0.0
 10
5.3581473685
 20
4.8414078003
 30
0.0
 10
5.3606825101
 20
4.8429242641
 30
0.0
 10
5.3633771253
 20
4.8441237252
 30
0.0
 10
5.3652484711
 20
4.8447259219
 30
0.0
 10
5.3661951223
 20
4.8449795763
 30
0.0
  0
SPLINE
  5
372
100
AcDbEntity
  8
ALL_ASSEMBLY_MEMBERS
100
AcDbSpline
 62
7
  6
CONTINUOUS
 70
0
 71
3
 72
12
 73
8
 74
0
 42
0.0000001
 43
0.0000001
 44
0.0000000001
 40
0.0
 40
0.0
 40
0.0
 40
0.0
 40
0.2505897638
 40
0.5009548746
 40
0.6260388563
 40
0.751025827
 40
1.0
 40
1.0
 40
1.0
 40
1.0
 10
5.3477809186
 20
4.8041339685
 30
0.0
 10
5.3472068641
 20
4.8062556982
 30
0.0
 10
5.3463243174
 20
4.8105764796
 30
0.0
 10
5.3460638453
 20
4.8160886075
 30
0.0
 10
5.3464361387
 20
4.8204682591
 30
0.0
 10
5.3472133245
 20
4.8247807215
 30
0.0
 10
5.3482477126
 20
4.8279195483
 30
0.0
 10
5.3491190222
 20
4.8299220468
 30
0.0
  0
SPLINE
  5
373
100
AcDbEntity
  8
ALL_ASSEMBLY_MEMBERS
100
AcDbSpline
 62
7
  6
CONTINUOUS
 70
0
 71
3
 72
13
 73
9
 74
0
 42
0.0000001
 43
0.0000001
 44
0.0000000001
 40
0.0
 40
0.0
 40
0.0
 40
0.0
 40
0.2490270627
 40
0.3741900528
 40
0.4992946036
 40
0.6245436449
 40
0.7497804741
 40
1.0
 40
1.0
 40
1.0
 40
1.0
 10
5.3628507479
 20
4.7812182875
 30
0.0
 10
5.3608765972
 20
4.782455555
 30
0.0
 10
5.3581382597
 20
4.784709193
 30
0.0
 10
5.3550938014
 20
4.7882598638
 30
0.0
 10
5.3531093237
 20
4.7911674451
 30
0.0
 10
5.3514097614
 20
4.794248011
 30
0.0
 10
5.3494873102
 20
4.7985241241
 30
0.0
 10
5.3483923123
 20
4.801874232
 30
0.0
 10
5.3477809186
 20
4.8041339685
 30
0.0
  0
SPLINE
  5
374
100
AcDbEntity
  8
ALL_ASSEMBLY_MEMBERS
100
AcDbSpline
 62
7
  6
CONTINUOUS
 70
0
 71
3
 72
13
 73
9
 74
0
 42
0.0000001
 43
0.0000001
 44
0.0000000001
 40
0.0
 40
0.0
 40
0.0
 40
0.0
 40
0.2489082269
 40
0.3736969204
 40
0.498645165
 40
0.6237791484
 40
0.7491091395
 40
1.0
 40
1.0
 40
1.0
 40
1.0
 10
5.3855740578
 20
4.7777440958
 30
0.0
 10
5.3836771261
 20
4.7772358145
 30
0.0
 10
5.3807485418
 20
4.7767237149
 30
0.0
 10
5.3768084025
 20
4.7766646632
 30
0.0
 10
5.3738584085
 20
4.7769527214
 30
0.0
 10
5.3709534837
 20
4.7775623863
 30
0.0
 10
5.367190383
 20
4.7788016108
 30
0.0
 10
5.3645280443
 20
4.7801670687
 30
0.0
 10
5.3628507479
 20
4.7812182875
 30
0.0
  0
SPLINE
  5
375
100
AcDbEntity
  8
ALL_ASSEMBLY_MEMBERS
100
AcDbSpline
 62
7
  6
CONTINUOUS
 70
0
 71
3
 72
15
 73
11
 74
0
 42
0.0000001
 43
0.0000001
 44
0.0000000001
 40
0.0
 40
0.0
 40
0.0
 40
0.0
 40
0.1241114187
 40
0.1864527746
 40
0.2487576403
 40
0.3734097267
 40
0.4984597969
 40
0.6236014348
 40
0.7490584422
 40
1.0
 40
1.0
 40
1.0
 40
1.0
 10
5.4464037769
 20
4.797173512
 30
0.0
 10
5.4448687227
 20
4.7967621954
 30
0.0
 10
5.4424904862
 20
4.796378359
 30
0.0
 10
5.439301263
 20
4.7963537714
 30
0.0
 10
5.436118519
 20
4.796667719
 30
0.0
 10
5.4322272484
 20
4.7976846487
 30
0.0
 10
5.427840321
 20
4.7996765294
 30
0.0
 10
5.4237741904
 20
4.8022705289
 30
0.0
 10
5.4187632031
 20
4.8063005714
 30
0.0
 10
5.4154029118
 20
4.8097845051
 30
0.0
 10
5.4133002862
 20
4.8122142715
 30
0.0
  0
SPLINE
  5
376
100
AcDbEntity
  8
ALL_ASSEMBLY_MEMBERS
100
AcDbSpline
 62
7
  6
CONTINUOUS
 70
0
 71
3
 72
9
 73
5
 74
0
 42
0.0000001
 43
0.0000001
 44
0.0000000001
 40
0.0
 40
0.0
 40
0.0
 40
0.0
 40
0.5003325496
 40
1.0
 40
1.0
 40
1.0
 40
1.0
 10
5.414009596
 20
4.8512702914
 30
0.0
 10
5.4156703392
 20
4.8529152871
 30
0.0
 10
5.4194356734
 20
4.8557866719
 30
0.0
 10
5.4238241042
 20
4.8575519161
 30
0.0
 10
5.4260789901
 20
4.8581561109
 30
0.0
  0
SPLINE
  5
377
100
AcDbEntity
  8
ALL_ASSEMBLY_MEMBERS
100
AcDbSpline
 62
7
  6
CONTINUOUS
 70
0
 71
3
 72
13
 73
9
 74
0
 42
0.0000001
 43
0.0000001
 44
0.0000000001
 40
0.0
 40
0.0
 40
0.0
 40
0.0
 40
0.2504782198
 40
0.5007345136
 40
0.6257625084
 40
0.7506906529
 40
0.8754586788
 40
1.0
 40
1.0
 40
1.0
 40
1.0
 10
5.402308243
 20
4.8297887984
 30
0.0
 10
5.4030750028
 20
4.8316928675
 30
0.0
 10
5.4046609017
 20
4.8354781921
 30
0.0
 10
5.4068270644
 20
4.840129124
 30
0.0
 10
5.4087315319
 20
4.8437598952
 30
0.0
 10
5.4102748336
 20
4.8464167836
 30
0.0
 10
5.4119793544
 20
4.8489678808
 30
0.0
 10
5.4132844861
 20
4.8505520571
 30
0.0
 10
5.414009596
 20
4.8512702914
 30
0.0
  0
SPLINE
  5
378
100
AcDbEntity
  8
ALL_ASSEMBLY_MEMBERS
100
AcDbSpline
 62
7
  6
CONTINUOUS
 70
0
 71
3
 72
14
 73
10
 74
0
 42
0.0000001
 43
0.0000001
 44
0.0000000001
 40
0.0
 40
0.0
 40
0.0
 40
0.0
 40
0.1245538834
 40
0.2493771848
 40
0.3743570571
 40
0.4994192508
 40
0.6245338376
 40
0.7496799043
 40
1.0
 40
1.0
 40
1.0
 40
1.0
 10
5.4286806656
 20
4.7294083932
 30
0.0
 10
5.429523701
 20
4.731018887
 30
0.0
 10
5.430844107
 20
4.7344385235
 30
0.0
 10
5.4320367848
 20
4.7397809381
 30
0.0
 10
5.4326819726
 20
4.7452210203
 30
0.0
 10
5.4329250498
 20
4.7506942676
 30
0.0
 10
5.4328633751
 20
4.7561738331
 30
0.0
 10
5.4324612476
 20
4.7634700616
 30
0.0
 10
5.4318713012
 20
4.768922329
 30
0.0
 10
5.4313900105
 20
4.7725437819
 30
0.0
  0
SPLINE
  5
379
100
AcDbEntity
  8
ALL_ASSEMBLY_MEMBERS
100
AcDbSpline
 62
7
  6
CONTINUOUS
 70
0
 71
3
 72
13
 73
9
 74
0
 42
0.0000001
 43
0.0000001
 44
0.0000000001
 40
0.0
 40
0.0
 40
0.0
 40
0.0
 40
0.2487894957
 40
0.373578842
 40
0.4985408428
 40
0.6237084852
 40
0.7490757226
 40
1.0
 40
1.0
 40
1.0
 40
1.0
 10
5.4085927453
 20
4.7131358689
 30
0.0
 10
5.4107255185
 20
4.7137073438
 30
0.0
 10
5.4138627363
 20
4.7148669199
 30
0.0
 10
5.4177202359
 20
4.7170486845
 30
0.0
 10
5.4204187147
 20
4.719007804
 30
0.0
 10
5.4228900397
 20
4.7212539357
 30
0.0
 10
5.4258375033
 20
4.7245977202
 30
0.0
 10
5.4276478778
 20
4.7274354055
 30
0.0
 10
5.4286806656
 20
4.7294083932
 30
0.0
  0
SPLINE
  5
37A
100
AcDbEntity
  8
ALL_ASSEMBLY_MEMBERS
100
AcDbSpline
 62
7
  6
CONTINUOUS
 70
0
 71
3
 72
13
 73
9
 74
0
 42
0.0000001
 43
0.0000001
 44
0.0000000001
 40
0.0
 40
0.0
 40
0.0
 40
0.0
 40
0.251428422
 40
0.5017730788
 40
0.6267543423
 40
0.7514001053
 40
0.8758082341
 40
1.0
 40
1.0
 40
1.0
 40
1.0
 10
5.3644856589
 20
4.7531387459
 30
0.0
 10
5.3646441523
 20
4.7540160901
 30
0.0
 10
5.3650776275
 20
4.755749874
 30
0.0
 10
5.366069338
 20
4.757771127
 30
0.0
 10
5.3672072964
 20
4.7591417083
 30
0.0
 10
5.3682317875
 20
4.7599963212
 30
0.0
 10
5.3693928537
 20
4.7606462342
 30
0.0
 10
5.3702294424
 20
4.7609380299
 30
0.0
 10
5.3706548112
 20
4.7610520071
 30
0.0
  0
SPLINE
  5
37B
100
AcDbEntity
  8
ALL_ASSEMBLY_MEMBERS
100
AcDbSpline
 62
7
  6
CONTINUOUS
 70
0
 71
3
 72
11
 73
7
 74
0
 42
0.0000001
 43
0.0000001
 44
0.0000000001
 40
0.0
 40
0.0
 40
0.0
 40
0.0
 40
0.250200325
 40
0.5003627418
 40
0.7503603891
 40
1.0
 40
1.0
 40
1.0
 40
1.0
 10
5.3658956998
 20
4.7366487065
 30
0.0
 10
5.3655379614
 20
4.7379921416
 30
0.0
 10
5.3648993187
 20
4.7407003047
 30
0.0
 10
5.364247149
 20
4.7448237217
 30
0.0
 10
5.3640100721
 20
4.7489913097
 30
0.0
 10
5.3642390629
 20
4.7517737068
 30
0.0
 10
5.3644856589
 20
4.7531387459
 30
0.0
  0
SPLINE
  5
37C
100
AcDbEntity
  8
ALL_ASSEMBLY_MEMBERS
100
AcDbSpline
 62
7
  6
CONTINUOUS
 70
0
 71
3
 72
13
 73
9
 74
0
 42
0.0000001
 43
0.0000001
 44
0.0000000001
 40
0.0
 40
0.0
 40
0.0
 40
0.0
 40
0.2487384485
 40
0.3736631366
 40
0.4987448431
 40
0.6240180584
 40
0.7493942377
 40
1.0
 40
1.0
 40
1.0
 40
1.0
 10
5.3867709315
 20
4.7072017798
 30
0.0
 10
5.3841787278
 20
4.7088367278
 30
0.0
 10
5.3805038434
 20
4.7116744229
 30
0.0
 10
5.376260184
 20
4.7161301287
 30
0.0
 10
5.373431636
 20
4.7197986079
 30
0.0
 10
5.3709734082
 20
4.7237301336
 30
0.0
 10
5.368208461
 20
4.7292605799
 30
0.0
 10
5.366690235
 20
4.7336649437
 30
0.0
 10
5.3658956998
 20
4.7366487065
 30
0.0
  0
SPLINE
  5
37D
100
AcDbEntity
  8
ALL_ASSEMBLY_MEMBERS
100
AcDbSpline
 62
7
  6
CONTINUOUS
 70
0
 71
3
 72
14
 73
10
 74
0
 42
0.0000001
 43
0.0000001
 44
0.0000000001
 40
0.0
 40
0.0
 40
0.0
 40
0.0
 40
0.124613615
 40
0.249409879
 40
0.3742179327
 40
0.4991321278
 40
0.6241955049
 40
0.7494048681
 40
1.0
 40
1.0
 40
1.0
 40
1.0
 10
5.4200816965
 20
4.7019547687
 30
0.0
 10
5.4186876948
 20
4.7015812471
 30
0.0
 10
5.4158616413
 20
4.7009603816
 30
0.0
 10
5.4115508258
 20
4.7004476159
 30
0.0
 10
5.4072043931
 20
4.7004018295
 30
0.0
 10
5.4028782281
 20
4.7008516551
 30
0.0
 10
5.3986229455
 20
4.701775698
 30
0.0
 10
5.3931171401
 20
4.703630585
 30
0.0
 10
5.38922566
 20
4.7056535399
 30
0.0
 10
5.3867709315
 20
4.7072017798
 30
0.0
  0
LINE
  5
37E
100
AcDbEntity
  8
ALL_ASSEMBLY_MEMBERS
100
AcDbLine
 62
7
  6
CONTINUOUS
 10
5.4500065577
 20
4.7613596618
 11
5.4646925606
 21
4.7581649867
  0
LINE
  5
37F
100
AcDbEntity
  8
ALL_ASSEMBLY_MEMBERS
100
AcDbLine
 62
7
  6
CONTINUOUS
 10
5.4646925606
 20
4.7581649867
 11
5.4742547734
 21
4.7221220645
  0
LINE
  5
380
100
AcDbEntity
  8
ALL_ASSEMBLY_MEMBERS
100
AcDbLine
 62
7
  6
CONTINUOUS
 10
5.4742547734
 20
4.7221220645
 11
5.4906149813
 21
4.7186804009
  0
LINE
  5
381
100
AcDbEntity
  8
ALL_ASSEMBLY_MEMBERS
100
AcDbLine
 62
7
  6
CONTINUOUS
 10
5.3973827136
 20
4.5024622987
 11
5.3952121114
 21
4.4901522018
  0
LINE
  5
382
100
AcDbEntity
  8
ALL_ASSEMBLY_MEMBERS
100
AcDbLine
 62
7
  6
CONTINUOUS
 10
5.3900585181
 20
4.2756029565
 11
5.3871567203
 21
4.2737387648
  0
SPLINE
  5
383
100
AcDbEntity
  8
ALL_ASSEMBLY_MEMBERS
100
AcDbSpline
 62
7
  6
CONTINUOUS
 70
0
 71
3
 72
12
 73
8
 74
0
 42
0.0000001
 43
0.0000001
 44
0.0000000001
 40
0.0
 40
0.0
 40
0.0
 40
0.0
 40
0.1254170491
 40
0.2506524482
 40
0.5006530455
 40
0.7504056296
 40
1.0
 40
1.0
 40
1.0
 40
1.0
 10
5.3910264553
 20
4.2601793572
 30
0.0
 10
5.3910157258
 20
4.2607714488
 30
0.0
 10
5.3909024224
 20
4.2619532068
 30
0.0
 10
5.3904622152
 20
4.2642772531
 30
0.0
 10
5.3896567459
 20
4.2671212152
 30
0.0
 10
5.3884814841
 20
4.270459369
 30
0.0
 10
5.3876083495
 20
4.2726502109
 30
0.0
 10
5.3871567203
 20
4.2737387648
 30
0.0
  0
SPLINE
  5
384
100
AcDbEntity
  8
ALL_ASSEMBLY_MEMBERS
100
AcDbSpline
 62
7
  6
CONTINUOUS
 70
0
 71
3
 72
13
 73
9
 74
0
 42
0.0000001
 43
0.0000001
 44
0.0000000001
 40
0.0
 40
0.0
 40
0.0
 40
0.0
 40
0.2500424111
 40
0.5000954227
 40
0.625134575
 40
0.7501059748
 40
0.875290641
 40
1.0
 40
1.0
 40
1.0
 40
1.0
 10
5.3853522666
 20
4.2474312827
 30
0.0
 10
5.3860251978
 20
4.2483980505
 30
0.0
 10
5.3873256452
 20
4.2503637123
 30
0.0
 10
5.3887882923
 20
4.2529243554
 30
0.0
 10
5.3897927528
 20
4.2550565688
 30
0.0
 10
5.3904330121
 20
4.2567064989
 30
0.0
 10
5.3909030813
 20
4.2584118932
 30
0.0
 10
5.3910370995
 20
4.2595919668
 30
0.0
 10
5.3910264553
 20
4.2601793572
 30
0.0
  0
LINE
  5
385
100
AcDbEntity
  8
ALL_ASSEMBLY_MEMBERS
100
AcDbLine
 62
7
  6
CONTINUOUS
 10
5.3853482008
 20
4.2474251569
 11
5.3658448996
 21
4.2194552748
  0
LINE
  5
386
100
AcDbEntity
  8
ALL_ASSEMBLY_MEMBERS
100
AcDbLine
 62
7
  6
CONTINUOUS
 10
5.303848003
 20
4.3039795704
 11
5.2970356561
 21
4.2941906973
  0
LINE
  5
387
100
AcDbEntity
  8
ALL_ASSEMBLY_MEMBERS
100
AcDbLine
 62
7
  6
CONTINUOUS
 10
5.2970356561
 20
4.2941906973
 11
5.3687439673
 21
4.1975349485
  0
SPLINE
  5
388
100
AcDbEntity
  8
ALL_ASSEMBLY_MEMBERS
100
AcDbSpline
 62
7
  6
CONTINUOUS
 70
0
 71
3
 72
14
 73
10
 74
0
 42
0.0000001
 43
0.0000001
 44
0.0000000001
 40
0.0
 40
0.0
 40
0.0
 40
0.0
 40
0.1245538834
 40
0.2493771848
 40
0.3743570571
 40
0.4994192508
 40
0.6245338376
 40
0.7496799043
 40
1.0
 40
1.0
 40
1.0
 40
1.0
 10
5.2891534845
 20
4.1835712451
 30
0.0
 10
5.2909290871
 20
4.183960648
 30
0.0
 10
5.2943974212
 20
4.1851472583
 30
0.0
 10
5.2992565867
 20
4.187667652
 30
0.0
 10
5.3038386502
 20
4.1906702269
 30
0.0
 10
5.3081876479
 20
4.1940021546
 30
0.0
 10
5.3123455949
 20
4.1975715969
 30
0.0
 10
5.3176763476
 20
4.2025695698
 30
0.0
 10
5.3214738166
 20
4.2065261449
 30
0.0
 10
5.3239386427
 20
4.2092226599
 30
0.0
  0
SPLINE
  5
389
100
AcDbEntity
  8
ALL_ASSEMBLY_MEMBERS
100
AcDbSpline
 62
7
  6
CONTINUOUS
 70
0
 71
3
 72
13
 73
9
 74
0
 42
0.0000001
 43
0.0000001
 44
0.0000000001
 40
0.0
 40
0.0
 40
0.0
 40
0.0
 40
0.2487894957
 40
0.373578842
 40
0.4985408428
 40
0.6237084852
 40
0.7490757226
 40
1.0
 40
1.0
 40
1.0
 40
1.0
 10
5.2637757415
 20
4.1884997079
 30
0.0
 10
5.2655844368
 20
4.1872332458
 30
0.0
 10
5.2684892884
 20
4.1855753587
 30
0.0
 10
5.2726401699
 20
4.1840227538
 30
0.0
 10
5.2758754913
 20
4.1832148968
 30
0.0
 10
5.2791846651
 20
4.1827655377
 30
0.0
 10
5.2836407457
 20
4.1826569928
 30
0.0
 10
5.2869782251
 20
4.1830941945
 30
0.0
 10
5.2891534845
 20
4.1835712451
 30
0.0
  0
SPLINE
  5
38A
100
AcDbEntity
  8
ALL_ASSEMBLY_MEMBERS
100
AcDbSpline
 62
7
  6
CONTINUOUS
 70
0
 71
3
 72
13
 73
9
 74
0
 42
0.0000001
 43
0.0000001
 44
0.0000000001
 40
0.0
 40
0.0
 40
0.0
 40
0.0
 40
0.251428422
 40
0.5017730788
 40
0.6267543423
 40
0.7514001053
 40
0.8758082341
 40
1.0
 40
1.0
 40
1.0
 40
1.0
 10
5.2660682345
 20
4.24800105
 30
0.0
 10
5.2668421967
 20
4.248443583
 30
0.0
 10
5.2684489847
 20
4.2492259765
 30
0.0
 10
5.2706348135
 20
4.2497655186
 30
0.0
 10
5.2724162053
 20
4.2497747846
 30
0.0
 10
5.273729407
 20
4.2495393135
 30
0.0
 10
5.2749735882
 20
4.2490676412
 30
0.0
 10
5.2757348654
 20
4.2486143397
 30
0.0
 10
5.2760955989
 20
4.2483617514
 30
0.0
  0
SPLINE
  5
38B
100
AcDbEntity
  8
ALL_ASSEMBLY_MEMBERS
100
AcDbSpline
 62
7
  6
CONTINUOUS
 70
0
 71
3
 72
11
 73
7
 74
0
 42
0.0000001
 43
0.0000001
 44
0.0000000001
 40
0.0
 40
0.0
 40
0.0
 40
0.0
 40
0.250200325
 40
0.5003627418
 40
0.7503603891
 40
1.0
 40
1.0
 40
1.0
 40
1.0
 10
5.2543424882
 20
4.236321303
 30
0.0
 10
5.2551416694
 20
4.23745889
 30
0.0
 10
5.2568057311
 20
4.2396888924
 30
0.0
 10
5.2595452452
 20
4.2428389647
 30
0.0
 10
5.2625854127
 20
4.2456994501
 30
0.0
 10
5.264864045
 20
4.2473125232
 30
0.0
 10
5.2660682345
 20
4.24800105
 30
0.0
  0
SPLINE
  5
38C
100
AcDbEntity
  8
ALL_ASSEMBLY_MEMBERS
100
AcDbSpline
 62
7
  6
CONTINUOUS
 70
0
 71
3
 72
13
 73
9
 74
0
 42
0.0000001
 43
0.0000001
 44
0.0000000001
 40
0.0
 40
0.0
 40
0.0
 40
0.0
 40
0.2487384485
 40
0.3736631366
 40
0.4987448431
 40
0.6240180584
 40
0.7493942377
 40
1.0
 40
1.0
 40
1.0
 40
1.0
 10
5.2452031739
 20
4.2014018282
 30
0.0
 10
5.2447893803
 20
4.2044384957
 30
0.0
 10
5.2446010107
 20
4.2090776557
 30
0.0
 10
5.2452865077
 20
4.2151925599
 30
0.0
 10
5.2462785702
 20
4.2197174063
 30
0.0
 10
5.2477101753
 20
4.2241276541
 30
0.0
 10
5.2501694691
 20
4.2298006289
 30
0.0
 10
5.2525675107
 20
4.233794728
 30
0.0
 10
5.2543424882
 20
4.236321303
 30
0.0
  0
SPLINE
  5
38D
100
AcDbEntity
  8
ALL_ASSEMBLY_MEMBERS
100
AcDbSpline
 62
7
  6
CONTINUOUS
 70
0
 71
3
 72
14
 73
10
 74
0
 42
0.0000001
 43
0.0000001
 44
0.0000000001
 40
0.0
 40
0.0
 40
0.0
 40
0.0
 40
0.124613615
 40
0.249409879
 40
0.3742179327
 40
0.4991321278
 40
0.6241955049
 40
0.7494048681
 40
1.0
 40
1.0
 40
1.0
 40
1.0
 10
5.2625954773
 20
4.172511588
 30
0.0
 10
5.2614132961
 20
4.1733393602
 30
0.0
 10
5.2591211334
 20
4.1751051581
 30
0.0
 10
5.2559573933
 20
4.178077835
 30
0.0
 10
5.2531284857
 20
4.1813779646
 30
0.0
 10
5.2506922669
 20
4.1849811416
 30
0.0
 10
5.2486648818
 20
4.1888348405
 30
0.0
 10
5.2465467443
 20
4.1942448305
 30
0.0
 10
5.2455950224
 20
4.1985262076
 30
0.0
 10
5.2452031739
 20
4.2014018282
 30
0.0
  0
LINE
  5
38E
100
AcDbEntity
  8
ALL_ASSEMBLY_MEMBERS
100
AcDbLine
 62
7
  6
CONTINUOUS
 10
5.3273375955
 20
4.1877725435
 11
5.3343303131
 21
4.1744689151
  0
LINE
  5
38F
100
AcDbEntity
  8
ALL_ASSEMBLY_MEMBERS
100
AcDbLine
 62
7
  6
CONTINUOUS
 10
5.3343303131
 20
4.1744689151
 11
5.3128663048
 21
4.1439758913
  0
LINE
  5
390
100
AcDbEntity
  8
ALL_ASSEMBLY_MEMBERS
100
AcDbLine
 62
7
  6
CONTINUOUS
 10
5.3128663048
 20
4.1439758913
 11
5.3207459764
 21
4.1292309863
  0
LINE
  5
391
100
AcDbEntity
  8
ALL_ASSEMBLY_MEMBERS
100
AcDbLine
 62
7
  6
CONTINUOUS
 10
4.859810699
 20
3.9600608053
 11
4.8555274251
 21
3.9600416709
  0
SPLINE
  5
392
100
AcDbEntity
  8
ALL_ASSEMBLY_MEMBERS
100
AcDbSpline
 62
7
  6
CONTINUOUS
 70
0
 71
3
 72
12
 73
8
 74
0
 42
0.0000001
 43
0.0000001
 44
0.0000000001
 40
0.0
 40
0.0
 40
0.0
 40
0.0
 40
0.2509073784
 40
0.501268185
 40
0.6260557099
 40
0.7507702025
 40
1.0
 40
1.0
 40
1.0
 40
1.0
 10
4.8514105972
 20
3.9477272676
 30
0.0
 10
4.8521684333
 20
3.9485292913
 30
0.0
 10
4.8533763075
 20
3.9504214201
 30
0.0
 10
4.8543117116
 20
3.9530213325
 30
0.0
 10
4.854832423
 20
3.9551583226
 30
0.0
 10
4.855237802
 20
3.957314604
 30
0.0
 10
4.855432232
 20
3.9589497601
 30
0.0
 10
4.8555274251
 20
3.9600416709
 30
0.0
  0
SPLINE
  5
393
100
AcDbEntity
  8
ALL_ASSEMBLY_MEMBERS
100
AcDbSpline
 62
7
  6
CONTINUOUS
 70
0
 71
3
 72
9
 73
5
 74
0
 42
0.0000001
 43
0.0000001
 44
0.0000000001
 40
0.0
 40
0.0
 40
0.0
 40
0.0
 40
0.502028751
 40
1.0
 40
1.0
 40
1.0
 40
1.0
 10
4.8471596559
 20
3.9452865579
 30
0.0
 10
4.8479467644
 20
3.9455386975
 30
0.0
 10
4.8494801502
 20
3.9461575956
 30
0.0
 10
4.8508475395
 20
3.9471313794
 30
0.0
 10
4.8514105972
 20
3.9477272676
 30
0.0
  0
LINE
  5
394
100
AcDbEntity
  8
ALL_ASSEMBLY_MEMBERS
100
AcDbLine
 62
7
  6
CONTINUOUS
 10
4.8688811649
 20
3.9968398151
 11
4.8700569648
 21
3.97108972
  0
LINE
  5
395
100
AcDbEntity
  8
ALL_ASSEMBLY_MEMBERS
100
AcDbLine
 62
7
  6
CONTINUOUS
 10
4.8688811649
 20
3.9968398151
 11
4.8499740715
 21
3.9967485248
  0
SPLINE
  5
396
100
AcDbEntity
  8
ALL_ASSEMBLY_MEMBERS
100
AcDbSpline
 62
7
  6
CONTINUOUS
 70
0
 71
3
 72
13
 73
9
 74
0
 42
0.0000001
 43
0.0000001
 44
0.0000000001
 40
0.0
 40
0.0
 40
0.0
 40
0.0
 40
0.2509469573
 40
0.3763134173
 40
0.5014808876
 40
0.626433288
 40
0.751220366
 40
1.0
 40
1.0
 40
1.0
 40
1.0
 10
5.4476572846
 20
4.844197286
 30
0.0
 10
5.4467395523
 20
4.8447995557
 30
0.0
 10
5.4452802194
 20
4.8455890504
 30
0.0
 10
5.4432083116
 20
4.8463203842
 30
0.0
 10
5.4416043558
 20
4.8466902999
 30
0.0
 10
5.4399713576
 20
4.8468777725
 30
0.0
 10
5.4377869511
 20
4.8468724521
 30
0.0
 10
5.4361607836
 20
4.8465979749
 30
0.0
 10
5.4351096371
 20
4.846316321
 30
0.0
  0
SPLINE
  5
397
100
AcDbEntity
  8
ALL_ASSEMBLY_MEMBERS
100
AcDbSpline
 62
7
  6
CONTINUOUS
 70
0
 71
3
 72
11
 73
7
 74
0
 42
0.0000001
 43
0.0000001
 44
0.0000000001
 40
0.0
 40
0.0
 40
0.0
 40
0.0
 40
0.2504429413
 40
0.500797765
 40
0.7507460574
 40
1.0
 40
1.0
 40
1.0
 40
1.0
 10
5.4556328947
 20
4.8330319516
 30
0.0
 10
5.4553275707
 20
4.8341621336
 30
0.0
 10
5.454542944
 20
4.8363810271
 30
0.0
 10
5.4527886522
 20
4.8394444053
 30
0.0
 10
5.4504783152
 20
4.8421075339
 30
0.0
 10
5.4486313937
 20
4.8435580186
 30
0.0
 10
5.4476572846
 20
4.844197286
 30
0.0
  0
SPLINE
  5
398
100
AcDbEntity
  8
ALL_ASSEMBLY_MEMBERS
100
AcDbSpline
 62
7
  6
CONTINUOUS
 70
0
 71
3
 72
12
 73
8
 74
0
 42
0.0000001
 43
0.0000001
 44
0.0000000001
 40
0.0
 40
0.0
 40
0.0
 40
0.0
 40
0.2489105674
 40
0.3739432064
 40
0.499059201
 40
0.7494521429
 40
1.0
 40
1.0
 40
1.0
 40
1.0
 10
5.4544076689
 20
4.8188810943
 30
0.0
 10
5.4549881627
 20
4.8199401325
 30
0.0
 10
5.4556900605
 20
4.8216337047
 30
0.0
 10
5.4562391792
 20
4.8239956357
 30
0.0
 10
5.4565281081
 20
4.8264114828
 30
0.0
 10
5.4564327161
 20
4.8294663178
 30
0.0
 10
5.4559499403
 20
4.831858381
 30
0.0
 10
5.4556328947
 20
4.8330319516
 30
0.0
  0
SPLINE
  5
399
100
AcDbEntity
  8
ALL_ASSEMBLY_MEMBERS
100
AcDbSpline
 62
7
  6
CONTINUOUS
 70
0
 71
3
 72
12
 73
8
 74
0
 42
0.0000001
 43
0.0000001
 44
0.0000000001
 40
0.0
 40
0.0
 40
0.0
 40
0.0
 40
0.2490971196
 40
0.4985743987
 40
0.6236822619
 40
0.7490725884
 40
1.0
 40
1.0
 40
1.0
 40
1.0
 10
5.4436246558
 20
4.8106883831
 30
0.0
 10
5.4447411098
 20
4.8109875361
 30
0.0
 10
5.4469352093
 20
4.8117613376
 30
0.0
 10
5.4494478594
 20
4.8132406474
 30
0.0
 10
5.4512360095
 20
4.8147257674
 30
0.0
 10
5.452849793
 20
4.816406971
 30
0.0
 10
5.4538480201
 20
4.817860085
 30
0.0
 10
5.4544076689
 20
4.8188810943
 30
0.0
  0
SPLINE
  5
39A
100
AcDbEntity
  8
ALL_ASSEMBLY_MEMBERS
100
AcDbSpline
 62
7
  6
CONTINUOUS
 70
0
 71
3
 72
9
 73
5
 74
0
 42
0.0000001
 43
0.0000001
 44
0.0000000001
 40
0.0
 40
0.0
 40
0.0
 40
0.0
 40
0.4996943764
 40
1.0
 40
1.0
 40
1.0
 40
1.0
 10
5.3902087144
 20
4.8010920982
 30
0.0
 10
5.3920652
 20
4.8045499073
 30
0.0
 10
5.3954075125
 20
4.8116726495
 30
0.0
 10
5.3981632583
 20
4.8190343085
 30
0.0
 10
5.3994245848
 20
4.8227558329
 30
0.0
  0
SPLINE
  5
39B
100
AcDbEntity
  8
ALL_ASSEMBLY_MEMBERS
100
AcDbSpline
 62
7
  6
CONTINUOUS
 70
0
 71
3
 72
11
 73
7
 74
0
 42
0.0000001
 43
0.0000001
 44
0.0000000001
 40
0.0
 40
0.0
 40
0.0
 40
0.0
 40
0.2491987035
 40
0.4987510671
 40
0.7490050499
 40
1.0
 40
1.0
 40
1.0
 40
1.0
 10
5.376737887
 20
4.7896359794
 30
0.0
 10
5.3781970174
 20
4.7900269522
 30
0.0
 10
5.3810446944
 20
4.7911348243
 30
0.0
 10
5.3847934308
 20
4.7937694499
 30
0.0
 10
5.3878700259
 20
4.7971643932
 30
0.0
 10
5.3894890024
 20
4.7997515942
 30
0.0
 10
5.3902087144
 20
4.8010920982
 30
0.0
  0
SPLINE
  5
39C
100
AcDbEntity
  8
ALL_ASSEMBLY_MEMBERS
100
AcDbSpline
 62
7
  6
CONTINUOUS
 70
0
 71
3
 72
14
 73
10
 74
0
 42
0.0000001
 43
0.0000001
 44
0.0000000001
 40
0.0
 40
0.0
 40
0.0
 40
0.0
 40
0.2505422253
 40
0.3759757417
 40
0.5010922204
 40
0.6258938472
 40
0.7509118169
 40
0.8758341041
 40
1.0
 40
1.0
 40
1.0
 40
1.0
 10
5.396599206
 20
4.8251139208
 30
0.0
 10
5.3947835026
 20
4.8265324474
 30
0.0
 10
5.3919110618
 20
4.8284901792
 30
0.0
 10
5.3877844147
 20
4.8305552037
 30
0.0
 10
5.3845448313
 20
4.8317692873
 30
0.0
 10
5.3811801982
 20
4.8325708132
 30
0.0
 10
5.3777359417
 20
4.8328823533
 30
0.0
 10
5.3742892324
 20
4.8327146469
 30
0.0
 10
5.3720299874
 20
4.8322834756
 30
0.0
 10
5.3709269978
 20
4.8319879304
 30
0.0
  0
SPLINE
  5
39D
100
AcDbEntity
  8
ALL_ASSEMBLY_MEMBERS
100
AcDbSpline
 62
7
  6
CONTINUOUS
 70
0
 71
3
 72
13
 73
9
 74
0
 42
0.0000001
 43
0.0000001
 44
0.0000000001
 40
0.0
 40
0.0
 40
0.0
 40
0.0
 40
0.1251006433
 40
0.2501358854
 40
0.3751287119
 40
0.5001108948
 40
0.7500369252
 40
1.0
 40
1.0
 40
1.0
 40
1.0
 10
4.8412941211
 20
5.3109752581
 30
0.0
 10
4.8407025461
 20
5.3095093441
 30
0.0
 10
4.8396955472
 20
5.3065062415
 30
0.0
 10
4.8385728753
 20
5.301897481
 30
0.0
 10
4.8377411073
 20
5.2972298472
 30
0.0
 10
4.836934688
 20
5.2909629658
 30
0.0
 10
4.8363755323
 20
5.2830808674
 30
0.0
 10
4.8362549865
 20
5.2767634303
 30
0.0
 10
4.8362549865
 20
5.2736048808
 30
0.0
  0
SPLINE
  5
39E
100
AcDbEntity
  8
ALL_ASSEMBLY_MEMBERS
100
AcDbSpline
 62
7
  6
CONTINUOUS
 70
0
 71
3
 72
11
 73
7
 74
0
 42
0.0000001
 43
0.0000001
 44
0.0000000001
 40
0.0
 40
0.0
 40
0.0
 40
0.0
 40
0.2518453978
 40
0.5024215464
 40
0.751657804
 40
1.0
 40
1.0
 40
1.0
 40
1.0
 10
4.8580912816
 20
5.3234587621
 30
0.0
 10
4.8562158649
 20
5.3234663561
 30
0.0
 10
4.8524297833
 20
5.3230029606
 30
0.0
 10
4.847367023
 20
5.3203052835
 30
0.0
 10
4.843653859
 20
5.3160280081
 30
0.0
 10
4.8419862011
 20
5.3126902219
 30
0.0
 10
4.8412941211
 20
5.3109752581
 30
0.0
  0
SPLINE
  5
39F
100
AcDbEntity
  8
ALL_ASSEMBLY_MEMBERS
100
AcDbSpline
 62
7
  6
CONTINUOUS
 70
0
 71
3
 72
12
 73
8
 74
0
 42
0.0000001
 43
0.0000001
 44
0.0000000001
 40
0.0
 40
0.0
 40
0.0
 40
0.0
 40
0.2483346086
 40
0.3732429827
 40
0.4982875803
 40
0.748789602
 40
1.0
 40
1.0
 40
1.0
 40
1.0
 10
4.8750564003
 20
5.3095152722
 30
0.0
 10
4.8743653334
 20
5.3113299901
 30
0.0
 10
4.8731306008
 20
5.3139974906
 30
0.0
 10
4.8709282706
 20
5.3172240004
 30
0.0
 10
4.8682845879
 20
5.3201247366
 30
0.0
 10
4.8640346897
 20
5.3228273374
 30
0.0
 10
4.8600556009
 20
5.323450808
 30
0.0
 10
4.8580912816
 20
5.3234587621
 30
0.0
  0
SPLINE
  5
3A0
100
AcDbEntity
  8
ALL_ASSEMBLY_MEMBERS
100
AcDbSpline
 62
7
  6
CONTINUOUS
 70
0
 71
3
 72
12
 73
8
 74
0
 42
0.0000001
 43
0.0000001
 44
0.0000000001
 40
0.0
 40
0.0
 40
0.0
 40
0.0
 40
0.2497638696
 40
0.4996086998
 40
0.7495931011
 40
0.8747386891
 40
1.0
 40
1.0
 40
1.0
 40
1.0
 10
4.8803475098
 20
5.2713489324
 30
0.0
 10
4.8803475098
 20
5.2745726347
 30
0.0
 10
4.8802088354
 20
5.281022757
 30
0.0
 10
4.8794528982
 20
5.290673816
 30
0.0
 10
4.8781962354
 20
5.2986565584
 30
0.0
 10
4.8766400922
 20
5.3049288167
 30
0.0
 10
4.8756317701
 20
5.3080043708
 30
0.0
 10
4.8750564003
 20
5.3095152722
 30
0.0
  0
SPLINE
  5
3A1
100
AcDbEntity
  8
ALL_ASSEMBLY_MEMBERS
100
AcDbSpline
 62
7
  6
CONTINUOUS
 70
0
 71
3
 72
13
 73
9
 74
0
 42
0.0000001
 43
0.0000001
 44
0.0000000001
 40
0.0
 40
0.0
 40
0.0
 40
0.0
 40
0.1251938327
 40
0.2502838695
 40
0.3753009971
 40
0.5002829957
 40
0.7501518397
 40
1.0
 40
1.0
 40
1.0
 40
1.0
 10
4.7556286713
 20
5.3110795162
 30
0.0
 10
4.7550371906
 20
5.3096115715
 30
0.0
 10
4.7540302705
 20
5.3066050837
 30
0.0
 10
4.7529075112
 20
5.3019920417
 30
0.0
 10
4.7520756934
 20
5.2973213688
 30
0.0
 10
4.7512692927
 20
5.2910522095
 30
0.0
 10
4.750710084
 20
5.283168949
 30
0.0
 10
4.7505894961
 20
5.2768510094
 30
0.0
 10
4.7505894961
 20
5.2736925737
 30
0.0
  0
SPLINE
  5
3A2
100
AcDbEntity
  8
ALL_ASSEMBLY_MEMBERS
100
AcDbSpline
 62
7
  6
CONTINUOUS
 70
0
 71
3
 72
14
 73
10
 74
0
 42
0.0000001
 43
0.0000001
 44
0.0000000001
 40
0.0
 40
0.0
 40
0.0
 40
0.0
 40
0.1258577302
 40
0.251729271
 40
0.3773753979
 40
0.5026255481
 40
0.6275439263
 40
0.7520642107
 40
1.0
 40
1.0
 40
1.0
 40
1.0
 10
4.7724257982
 20
5.3236302499
 30
0.0
 10
4.7714848172
 20
5.3236301947
 30
0.0
 10
4.7695992174
 20
5.3235110309
 30
0.0
 10
4.7668330316
 20
5.3228932593
 30
0.0
 10
4.764219902
 20
5.3217973683
 30
0.0
 10
4.7618688542
 20
5.3202291119
 30
0.0
 10
4.7598375849
 20
5.3182807542
 30
0.0
 10
4.7575786008
 20
5.3153131124
 30
0.0
 10
4.7563214619
 20
5.312798893
 30
0.0
 10
4.7556286713
 20
5.3110795162
 30
0.0
  0
SPLINE
  5
3A3
100
AcDbEntity
  8
ALL_ASSEMBLY_MEMBERS
100
AcDbSpline
 62
7
  6
CONTINUOUS
 70
0
 71
3
 72
14
 73
10
 74
0
 42
0.0000001
 43
0.0000001
 44
0.0000000001
 40
0.0
 40
0.0
 40
0.0
 40
0.0
 40
0.1259899997
 40
0.2519405689
 40
0.3776195366
 40
0.5028485104
 40
0.6275981419
 40
0.7522186853
 40
1.0
 40
1.0
 40
1.0
 40
1.0
 10
4.7724257982
 20
5.3236302499
 30
0.0
 10
4.7734114403
 20
5.3236303077
 30
0.0
 10
4.7753867266
 20
5.3234794808
 30
0.0
 10
4.7782641697
 20
5.3227324324
 30
0.0
 10
4.7809231023
 20
5.3214125337
 30
0.0
 10
4.7832744221
 20
5.3196216959
 30
0.0
 10
4.7852612307
 20
5.3174498218
 30
0.0
 10
4.7874659027
 20
5.3142351497
 30
0.0
 10
4.7886998937
 20
5.3115721238
 30
0.0
 10
4.7893909126
 20
5.309761038
 30
0.0
  0
SPLINE
  5
3A4
100
AcDbEntity
  8
ALL_ASSEMBLY_MEMBERS
100
AcDbSpline
 62
7
  6
CONTINUOUS
 70
0
 71
3
 72
12
 73
8
 74
0
 42
0.0000001
 43
0.0000001
 44
0.0000000001
 40
0.0
 40
0.0
 40
0.0
 40
0.0
 40
0.2498661033
 40
0.4997572675
 40
0.7497151005
 40
0.8748132004
 40
1.0
 40
1.0
 40
1.0
 40
1.0
 10
4.7946820194
 20
5.2716318642
 30
0.0
 10
4.7946820194
 20
5.2748538547
 30
0.0
 10
4.7945433985
 20
5.2812998338
 30
0.0
 10
4.7937875881
 20
5.290943361
 30
0.0
 10
4.7925310211
 20
5.2989181168
 30
0.0
 10
4.7909747979
 20
5.3051821387
 30
0.0
 10
4.7899663706
 20
5.3082528249
 30
0.0
 10
4.7893909126
 20
5.309761038
 30
0.0
  0
SPLINE
  5
3A5
100
AcDbEntity
  8
ALL_ASSEMBLY_MEMBERS
100
AcDbSpline
 62
7
  6
CONTINUOUS
 70
0
 71
3
 72
13
 73
9
 74
0
 42
0.0000001
 43
0.0000001
 44
0.0000000001
 40
0.0
 40
0.0
 40
0.0
 40
0.0
 40
0.1251006433
 40
0.2501358854
 40
0.3751287119
 40
0.5001108948
 40
0.7500369252
 40
1.0
 40
1.0
 40
1.0
 40
1.0
 10
4.1293735626
 20
4.3122489117
 30
0.0
 10
4.1309388689
 20
4.3124695497
 30
0.0
 10
4.1340431315
 20
4.3130990144
 30
0.0
 10
4.1385957711
 20
4.3144311323
 30
0.0
 10
4.1430539446
 20
4.316044617
 30
0.0
 10
4.1488844327
 20
4.318479678
 30
0.0
 10
4.155990108
 20
4.3219364842
 30
0.0
 10
4.1615214419
 20
4.324990807
 30
0.0
 10
4.1642568261
 20
4.3265700818
 30
0.0
  0
SPLINE
  5
3A6
100
AcDbEntity
  8
ALL_ASSEMBLY_MEMBERS
100
AcDbSpline
 62
7
  6
CONTINUOUS
 70
0
 71
3
 72
11
 73
7
 74
0
 42
0.0000001
 43
0.0000001
 44
0.0000000001
 40
0.0
 40
0.0
 40
0.0
 40
0.0
 40
0.2518453978
 40
0.5024215464
 40
0.751657804
 40
1.0
 40
1.0
 40
1.0
 40
1.0
 10
4.1101639508
 20
4.3205539274
 30
0.0
 10
4.1110950825
 20
4.3189259719
 30
0.0
 10
4.1133894356
 20
4.3158788268
 30
0.0
 10
4.1182570727
 20
4.3128431863
 30
0.0
 10
4.1238178838
 20
4.3117661296
 30
0.0
 10
4.1275423204
 20
4.3119907886
 30
0.0
 10
4.1293735626
 20
4.3122489117
 30
0.0
  0
SPLINE
  5
3A7
100
AcDbEntity
  8
ALL_ASSEMBLY_MEMBERS
100
AcDbSpline
 62
7
  6
CONTINUOUS
 70
0
 71
3
 72
12
 73
8
 74
0
 42
0.0000001
 43
0.0000001
 44
0.0000000001
 40
0.0
 40
0.0
 40
0.0
 40
0.0
 40
0.2483346086
 40
0.3732429827
 40
0.4982875803
 40
0.748789602
 40
1.0
 40
1.0
 40
1.0
 40
1.0
 10
4.1137568079
 20
4.3422178961
 30
0.0
 10
4.1125307495
 20
4.3407120557
 30
0.0
 10
4.1108379927
 20
4.3383089956
 30
0.0
 10
4.1091449183
 20
4.3347884668
 30
0.0
 10
4.1079546484
 20
4.3310486023
 30
0.0
 10
4.1077390766
 20
4.3260167821
 30
0.0
 10
4.1091886796
 20
4.3222590549
 30
0.0
 10
4.1101639508
 20
4.3205539274
 30
0.0
  0
SPLINE
  5
3A8
100
AcDbEntity
  8
ALL_ASSEMBLY_MEMBERS
100
AcDbSpline
 62
7
  6
CONTINUOUS
 70
0
 71
3
 72
12
 73
8
 74
0
 42
0.0000001
 43
0.0000001
 44
0.0000000001
 40
0.0
 40
0.0
 40
0.0
 40
0.0
 40
0.2497638696
 40
0.4996086998
 40
0.7495931011
 40
0.8747386891
 40
1.0
 40
1.0
 40
1.0
 40
1.0
 10
4.144164273
 20
4.3658833013
 30
0.0
 10
4.1413724649
 20
4.3642714501
 30
0.0
 10
4.1358558324
 20
4.3609262935
 30
0.0
 10
4.1278757386
 20
4.3554461031
 30
0.0
 10
4.1215908124
 20
4.35036643
 30
0.0
 10
4.1169369489
 20
4.3458826413
 30
0.0
 10
4.114777602
 20
4.3434716316
 30
0.0
 10
4.1137568079
 20
4.3422178961
 30
0.0
  0
LINE
  5
3A9
100
AcDbEntity
  8
ALL_ASSEMBLY_MEMBERS
100
AcDbLine
 62
7
  6
CONTINUOUS
 10
4.6718052399
 20
5.3122512369
 11
4.664420105
 21
5.30964034
  0
SPLINE
  5
3AA
100
AcDbEntity
  8
ALL_ASSEMBLY_MEMBERS
100
AcDbSpline
 62
7
  6
CONTINUOUS
 70
0
 71
3
 72
9
 73
5
 74
0
 42
0.0000001
 43
0.0000001
 44
0.0000000001
 40
0.0
 40
0.0
 40
0.0
 40
0.0
 40
0.5000595349
 40
1.0
 40
1.0
 40
1.0
 40
1.0
 10
4.6766820265
 20
5.3132513697
 30
0.0
 10
4.6758488549
 20
5.3132474496
 30
0.0
 10
4.6741816012
 20
5.3130422252
 30
0.0
 10
4.6725816833
 20
5.3125528911
 30
0.0
 10
4.6718052399
 20
5.3122512369
 30
0.0
  0
SPLINE
  5
3AB
100
AcDbEntity
  8
ALL_ASSEMBLY_MEMBERS
100
AcDbSpline
 62
7
  6
CONTINUOUS
 70
0
 71
3
 72
16
 73
12
 74
0
 42
0.0000001
 43
0.0000001
 44
0.0000000001
 40
0.0
 40
0.0
 40
0.0
 40
0.0
 40
0.2478014303
 40
0.3718211115
 40
0.4963270546
 40
0.6208857109
 40
0.6838364481
 40
0.7469478016
 40
0.8100303555
 40
0.8732854234
 40
1.0
 40
1.0
 40
1.0
 40
1.0
 10
4.6816371855
 20
5.3059277668
 30
0.0
 10
4.6816371855
 20
5.3067553117
 30
0.0
 10
4.6815685569
 20
5.3080021062
 30
0.0
 10
4.681225829
 20
5.3096274796
 30
0.0
 10
4.6807986569
 20
5.3108037479
 30
0.0
 10
4.6802342853
 20
5.3116958206
 30
0.0
 10
4.6796359398
 20
5.3122854983
 30
0.0
 10
4.6791230978
 20
5.3126584935
 30
0.0
 10
4.6785551191
 20
5.3129442862
 30
0.0
 10
4.6777445294
 20
5.3131934417
 30
0.0
 10
4.6771051913
 20
5.3132533608
 30
0.0
 10
4.6766820265
 20
5.3132513697
 30
0.0
  0
SPLINE
  5
3AC
100
AcDbEntity
  8
ALL_ASSEMBLY_MEMBERS
100
AcDbSpline
 62
7
  6
CONTINUOUS
 70
0
 71
3
 72
11
 73
7
 74
0
 42
0.0000001
 43
0.0000001
 44
0.0000000001
 40
0.0
 40
0.0
 40
0.0
 40
0.0
 40
0.2504469505
 40
0.5004203945
 40
0.7502112692
 40
1.0
 40
1.0
 40
1.0
 40
1.0
 10
4.7446074156
 20
5.2282017507
 30
0.0
 10
4.7425509759
 20
5.231217849
 30
0.0
 10
4.7390525525
 20
5.237681404
 30
0.0
 10
4.7356685346
 20
5.2481291732
 30
0.0
 10
4.7338777777
 20
5.2589389449
 30
0.0
 10
4.733540386
 20
5.2662277846
 30
0.0
 10
4.733540386
 20
5.2698686417
 30
0.0
  0
SPLINE
  5
3AD
100
AcDbEntity
  8
ALL_ASSEMBLY_MEMBERS
100
AcDbSpline
 62
7
  6
CONTINUOUS
 70
0
 71
3
 72
14
 73
10
 74
0
 42
0.0000001
 43
0.0000001
 44
0.0000000001
 40
0.0
 40
0.0
 40
0.0
 40
0.0
 40
0.125842957
 40
0.2515350657
 40
0.3769802837
 40
0.5021494194
 40
0.627045171
 40
0.7516509192
 40
1.0
 40
1.0
 40
1.0
 40
1.0
 10
4.7699541197
 20
5.2120674634
 30
0.0
 10
4.7686512222
 20
5.2121615022
 30
0.0
 10
4.7660546606
 20
5.2125066965
 30
0.0
 10
4.7622681541
 20
5.2135388323
 30
0.0
 10
4.75866013
 20
5.2150667454
 30
0.0
 10
4.7552960721
 20
5.217056639
 30
0.0
 10
4.7522050411
 20
5.219431503
 30
0.0
 10
4.7484681279
 20
5.2230119973
 30
0.0
 10
4.7460596664
 20
5.2260717921
 30
0.0
 10
4.7446074156
 20
5.2282017507
 30
0.0
  0
LINE
  5
3AE
100
AcDbEntity
  8
ALL_ASSEMBLY_MEMBERS
100
AcDbLine
 62
7
  6
CONTINUOUS
 10
4.3881453136
 20
5.1072835292
 11
4.3981282575
 21
5.114806217
  0
LINE
  5
3AF
100
AcDbEntity
  8
ALL_ASSEMBLY_MEMBERS
100
AcDbLine
 62
7
  6
CONTINUOUS
 10
4.0705808984
 20
4.7274597206
 11
4.0707818767
 21
4.7196292284
  0
SPLINE
  5
3B0
100
AcDbEntity
  8
ALL_ASSEMBLY_MEMBERS
100
AcDbSpline
 62
7
  6
CONTINUOUS
 70
0
 71
3
 72
9
 73
5
 74
0
 42
0.0000001
 43
0.0000001
 44
0.0000000001
 40
0.0
 40
0.0
 40
0.0
 40
0.0
 40
0.5000595349
 40
1.0
 40
1.0
 40
1.0
 40
1.0
 10
4.0711367255
 20
4.7324068782
 30
0.0
 10
4.0708829897
 20
4.7316132736
 30
0.0
 10
4.0705629599
 20
4.7299642033
 30
0.0
 10
4.0705339424
 20
4.7282913784
 30
0.0
 10
4.0705808984
 20
4.7274597206
 30
0.0
  0
SPLINE
  5
3B1
100
AcDbEntity
  8
ALL_ASSEMBLY_MEMBERS
100
AcDbSpline
 62
7
  6
CONTINUOUS
 70
0
 71
3
 72
16
 73
12
 74
0
 42
0.0000001
 43
0.0000001
 44
0.0000000001
 40
0.0
 40
0.0
 40
0.0
 40
0.0
 40
0.2478014303
 40
0.3718211115
 40
0.4963270546
 40
0.6208857109
 40
0.6838364481
 40
0.7469478016
 40
0.8100303555
 40
0.8732854234
 40
1.0
 40
1.0
 40
1.0
 40
1.0
 10
4.0796331141
 20
4.7348563967
 30
0.0
 10
4.0788460722
 20
4.7351121222
 30
0.0
 10
4.0776390927
 20
4.7354321332
 30
0.0
 10
4.0759873621
 20
4.7356084476
 30
0.0
 10
4.074736661
 20
4.7355656697
 30
0.0
 10
4.073713849
 20
4.735304586
 30
0.0
 10
4.0729681333
 20
4.7349177461
 30
0.0
 10
4.0724549169
 20
4.7345452662
 30
0.0
 10
4.0720075968
 20
4.7340934012
 30
0.0
 10
4.0715201498
 20
4.7333994778
 30
0.0
 10
4.071265597
 20
4.7328099471
 30
0.0
 10
4.0711367255
 20
4.7324068782
 30
0.0
  0
LINE
  5
3B2
100
AcDbEntity
  8
ALL_ASSEMBLY_MEMBERS
100
AcDbLine
 62
7
  6
CONTINUOUS
 10
4.0968185063
 20
4.8090087875
 11
4.0969894155
 21
4.8011878988
  0
SPLINE
  5
3B3
100
AcDbEntity
  8
ALL_ASSEMBLY_MEMBERS
100
AcDbSpline
 62
7
  6
CONTINUOUS
 70
0
 71
3
 72
9
 73
5
 74
0
 42
0.0000001
 43
0.0000001
 44
0.0000000001
 40
0.0
 40
0.0
 40
0.0
 40
0.0
 40
0.5002368415
 40
1.0
 40
1.0
 40
1.0
 40
1.0
 10
4.0973939307
 20
4.8139495134
 30
0.0
 10
4.0971370229
 20
4.8131573429
 30
0.0
 10
4.0968103016
 20
4.8115109884
 30
0.0
 10
4.096774703
 20
4.809839633
 30
0.0
 10
4.0968185063
 20
4.8090087875
 30
0.0
  0
SPLINE
  5
3B4
100
AcDbEntity
  8
ALL_ASSEMBLY_MEMBERS
100
AcDbSpline
 62
7
  6
CONTINUOUS
 70
0
 71
3
 72
16
 73
12
 74
0
 42
0.0000001
 43
0.0000001
 44
0.0000000001
 40
0.0
 40
0.0
 40
0.0
 40
0.0
 40
0.2475551804
 40
0.371524824
 40
0.4960487305
 40
0.6207034792
 40
0.6837214771
 40
0.7468990419
 40
0.8100340755
 40
0.8733167736
 40
1.0
 40
1.0
 40
1.0
 40
1.0
 10
4.1059078416
 20
4.8163932436
 30
0.0
 10
4.1051208843
 20
4.8166489416
 30
0.0
 10
4.1039137873
 20
4.8169689146
 30
0.0
 10
4.1022615517
 20
4.8171454809
 30
0.0
 10
4.1010095331
 20
4.817103167
 30
0.0
 10
4.0999850363
 20
4.8168428436
 30
0.0
 10
4.0992371905
 20
4.8164568848
 30
0.0
 10
4.0987220154
 20
4.8160851221
 30
0.0
 10
4.0982724566
 20
4.815634022
 30
0.0
 10
4.0977818304
 20
4.8149412413
 30
0.0
 10
4.0975245583
 20
4.8143523012
 30
0.0
 10
4.0973939307
 20
4.8139495134
 30
0.0
  0
SPLINE
  5
3B5
100
AcDbEntity
  8
ALL_ASSEMBLY_MEMBERS
100
AcDbSpline
 62
7
  6
CONTINUOUS
 70
0
 71
3
 72
14
 73
10
 74
0
 42
0.0000001
 43
0.0000001
 44
0.0000000001
 40
0.0
 40
0.0
 40
0.0
 40
0.0
 40
0.1246124479
 40
0.2494705311
 40
0.3744644644
 40
0.4995247488
 40
0.6246251302
 40
0.7497475683
 40
1.0
 40
1.0
 40
1.0
 40
1.0
 10
4.170478266
 20
4.9000372445
 30
0.0
 10
4.1688911068
 20
4.8991467536
 30
0.0
 10
4.1659144755
 20
4.8970008973
 30
0.0
 10
4.161993806
 20
4.8931732714
 30
0.0
 10
4.1584786494
 20
4.8889658024
 30
0.0
 10
4.1552825715
 20
4.8845114237
 30
0.0
 10
4.1523385283
 20
4.8798857502
 30
0.0
 10
4.1486868199
 20
4.8735523118
 30
0.0
 10
4.1462004826
 20
4.8686615052
 30
0.0
 10
4.1446239985
 20
4.8653641792
 30
0.0
  0
SPLINE
  5
3B6
100
AcDbEntity
  8
ALL_ASSEMBLY_MEMBERS
100
AcDbSpline
 62
7
  6
CONTINUOUS
 70
0
 71
3
 72
13
 73
9
 74
0
 42
0.0000001
 43
0.0000001
 44
0.0000000001
 40
0.0
 40
0.0
 40
0.0
 40
0.0
 40
0.2486883763
 40
0.3734630915
 40
0.4984320022
 40
0.6236205877
 40
0.7490168701
 40
1.0
 40
1.0
 40
1.0
 40
1.0
 10
4.1962146228
 20
4.9027340765
 30
0.0
 10
4.1941136877
 20
4.9034167117
 30
0.0
 10
4.1908492481
 20
4.9041533862
 30
0.0
 10
4.1864229465
 20
4.9044254768
 30
0.0
 10
4.1830897127
 20
4.9042532732
 30
0.0
 10
4.1797900525
 20
4.9037169313
 30
0.0
 10
4.1754913178
 20
4.9025199859
 30
0.0
 10
4.172422585
 20
4.9011281234
 30
0.0
 10
4.170478266
 20
4.9000372445
 30
0.0
  0
SPLINE
  5
3B7
100
AcDbEntity
  8
ALL_ASSEMBLY_MEMBERS
100
AcDbSpline
 62
7
  6
CONTINUOUS
 70
0
 71
3
 72
13
 73
9
 74
0
 42
0.0000001
 43
0.0000001
 44
0.0000000001
 40
0.0
 40
0.0
 40
0.0
 40
0.0
 40
0.2514413685
 40
0.5018493417
 40
0.6268607309
 40
0.7515128639
 40
0.8758877299
 40
1.0
 40
1.0
 40
1.0
 40
1.0
 10
4.2113119734
 20
4.8451939358
 30
0.0
 10
4.2106994428
 20
4.8445452115
 30
0.0
 10
4.2093875416
 20
4.8433294238
 30
0.0
 10
4.2074517251
 20
4.8421763965
 30
0.0
 10
4.2057488384
 20
4.8416480234
 30
0.0
 10
4.2044231919
 20
4.8414899064
 30
0.0
 10
4.2030949698
 20
4.8415775443
 30
0.0
 10
4.2022342336
 20
4.8417885413
 30
0.0
 10
4.2018153909
 20
4.8419246315
 30
0.0
  0
SPLINE
  5
3B8
100
AcDbEntity
  8
ALL_ASSEMBLY_MEMBERS
100
AcDbSpline
 62
7
  6
CONTINUOUS
 70
0
 71
3
 72
11
 73
7
 74
0
 42
0.0000001
 43
0.0000001
 44
0.0000000001
 40
0.0
 40
0.0
 40
0.0
 40
0.0
 40
0.2501100261
 40
0.500232469
 40
0.7502548419
 40
1.0
 40
1.0
 40
1.0
 40
1.0
 10
4.2191505532
 20
4.8597819797
 30
0.0
 10
4.218715582
 20
4.8584611474
 30
0.0
 10
4.2177695501
 20
4.855843396
 30
0.0
 10
4.2160606047
 20
4.8520323431
 30
0.0
 10
4.2139792666
 20
4.8484103427
 30
0.0
 10
4.2122652802
 20
4.8462035724
 30
0.0
 10
4.2113119734
 20
4.8451939358
 30
0.0
  0
SPLINE
  5
3B9
100
AcDbEntity
  8
ALL_ASSEMBLY_MEMBERS
100
AcDbSpline
 62
7
  6
CONTINUOUS
 70
0
 71
3
 72
13
 73
9
 74
0
 42
0.0000001
 43
0.0000001
 44
0.0000000001
 40
0.0
 40
0.0
 40
0.0
 40
0.0
 40
0.2486566223
 40
0.3735473334
 40
0.4986083741
 40
0.6238797943
 40
0.7492772366
 40
1.0
 40
1.0
 40
1.0
 40
1.0
 10
4.2177545038
 20
4.8958236595
 30
0.0
 10
4.2190337166
 20
4.8930419976
 30
0.0
 10
4.2205628839
 20
4.8886626127
 30
0.0
 10
4.2216837049
 20
4.8826181449
 30
0.0
 10
4.2220486434
 20
4.8780039441
 30
0.0
 10
4.2219592019
 20
4.8733710693
 30
0.0
 10
4.2212522964
 20
4.8672308941
 30
0.0
 10
4.2201161856
 20
4.8627142162
 30
0.0
 10
4.2191505532
 20
4.8597819797
 30
0.0
  0
SPLINE
  5
3BA
100
AcDbEntity
  8
ALL_ASSEMBLY_MEMBERS
100
AcDbSpline
 62
7
  6
CONTINUOUS
 70
0
 71
3
 72
14
 73
10
 74
0
 42
0.0000001
 43
0.0000001
 44
0.0000000001
 40
0.0
 40
0.0
 40
0.0
 40
0.0
 40
0.124708023
 40
0.2495716995
 40
0.3744168055
 40
0.4993373077
 40
0.6243791571
 40
0.7495431333
 40
1.0
 40
1.0
 40
1.0
 40
1.0
 10
4.192695666
 20
4.9183599515
 30
0.0
 10
4.1940685758
 20
4.9179138661
 30
0.0
 10
4.1967772974
 20
4.9168952741
 30
0.0
 10
4.200672103
 20
4.9149774232
 30
0.0
 10
4.2043414345
 20
4.9126488226
 30
0.0
 10
4.2077227321
 20
4.9099159211
 30
0.0
 10
4.2107851915
 20
4.9068242835
 30
0.0
 10
4.2143867432
 20
4.9022720243
 30
0.0
 10
4.2165431978
 20
4.8984576574
 30
0.0
 10
4.2177545038
 20
4.8958236595
 30
0.0
  0
LINE
  5
3BB
100
AcDbEntity
  8
ALL_ASSEMBLY_MEMBERS
100
AcDbLine
 62
7
  6
CONTINUOUS
 10
4.1351323171
 20
4.8848734702
 11
4.1245673821
 21
4.8955474666
  0
LINE
  5
3BC
100
AcDbEntity
  8
ALL_ASSEMBLY_MEMBERS
100
AcDbLine
 62
7
  6
CONTINUOUS
 10
4.1245673821
 20
4.8955474666
 11
4.1362513435
 21
4.930959799
  0
LINE
  5
3BD
100
AcDbEntity
  8
ALL_ASSEMBLY_MEMBERS
100
AcDbLine
 62
7
  6
CONTINUOUS
 10
4.1362513435
 20
4.930959799
 11
4.1244157273
 21
4.9427531525
  0
LINE
  5
3BE
100
AcDbEntity
  8
ALL_ASSEMBLY_MEMBERS
100
AcDbLine
 62
7
  6
CONTINUOUS
 10
4.1443303917
 20
4.5447668772
 11
4.1432409449
 21
4.5572193109
  0
LINE
  5
3BF
100
AcDbEntity
  8
ALL_ASSEMBLY_MEMBERS
100
AcDbLine
 62
7
  6
CONTINUOUS
 10
4.2144260418
 20
4.1636636566
 11
4.2189666437
 21
4.1597389795
  0
SPLINE
  5
3C0
100
AcDbEntity
  8
ALL_ASSEMBLY_MEMBERS
100
AcDbSpline
 62
7
  6
CONTINUOUS
 70
0
 71
3
 72
9
 73
5
 74
0
 42
0.0000001
 43
0.0000001
 44
0.0000000001
 40
0.0
 40
0.0
 40
0.0
 40
0.0
 40
0.5000595349
 40
1.0
 40
1.0
 40
1.0
 40
1.0
 10
4.2097084395
 20
4.1685526001
 30
0.0
 10
4.2101284202
 20
4.1678330125
 30
0.0
 10
4.2111397766
 20
4.1664917406
 30
0.0
 10
4.2123635112
 20
4.1653508381
 30
0.0
 10
4.2130129731
 20
4.1648292455
 30
0.0
  0
SPLINE
  5
3C1
100
AcDbEntity
  8
ALL_ASSEMBLY_MEMBERS
100
AcDbSpline
 62
7
  6
CONTINUOUS
 70
0
 71
3
 72
16
 73
12
 74
0
 42
0.0000001
 43
0.0000001
 44
0.0000000001
 40
0.0
 40
0.0
 40
0.0
 40
0.0
 40
0.2478014303
 40
0.3718211115
 40
0.4963270546
 40
0.6208857109
 40
0.6838364481
 40
0.7469478016
 40
0.8100303555
 40
0.8732854234
 40
1.0
 40
1.0
 40
1.0
 40
1.0
 10
4.2135732861
 20
4.1765056952
 30
0.0
 10
4.2128566112
 20
4.1760919227
 30
0.0
 10
4.2118111698
 20
4.1754090914
 30
0.0
 10
4.2105749191
 20
4.1742995936
 30
0.0
 10
4.2097698269
 20
4.1733415176
 30
0.0
 10
4.2092794552
 20
4.1724067211
 30
0.0
 10
4.209067952
 20
4.1715936998
 30
0.0
 10
4.2090013497
 20
4.170963068
 30
0.0
 10
4.2090378353
 20
4.1703282878
 30
0.0
 10
4.2092273551
 20
4.1695017187
 30
0.0
 10
4.2094951328
 20
4.1689180761
 30
0.0
 10
4.2097084395
 20
4.1685526001
 30
0.0
  0
SPLINE
  5
3C2
100
AcDbEntity
  8
ALL_ASSEMBLY_MEMBERS
100
AcDbSpline
 62
7
  6
CONTINUOUS
 70
0
 71
3
 72
12
 73
8
 74
0
 42
0.0000001
 43
0.0000001
 44
0.0000000001
 40
0.0
 40
0.0
 40
0.0
 40
0.0
 40
0.1248400314
 40
0.2497523606
 40
0.4996992809
 40
0.7497916306
 40
1.0
 40
1.0
 40
1.0
 40
1.0
 10
4.1950531148
 20
4.2888709963
 30
0.0
 10
4.1971423235
 20
4.2885252759
 30
0.0
 10
4.2013089505
 20
4.2877546984
 30
0.0
 10
4.2096053362
 20
4.2860161228
 30
0.0
 10
4.219929109
 20
4.2836030322
 30
0.0
 10
4.2322694561
 20
4.2804919963
 30
0.0
 10
4.2404744249
 20
4.278323827
 30
0.0
 10
4.2445734335
 20
4.2772231995
 30
0.0
  0
SPLINE
  5
3C3
100
AcDbEntity
  8
ALL_ASSEMBLY_MEMBERS
100
AcDbSpline
 62
7
  6
CONTINUOUS
 70
0
 71
3
 72
13
 73
9
 74
0
 42
0.0000001
 43
0.0000001
 44
0.0000000001
 40
0.0
 40
0.0
 40
0.0
 40
0.0
 40
0.1246716759
 40
0.2494019412
 40
0.3742207294
 40
0.4991692067
 40
0.7493107248
 40
1.0
 40
1.0
 40
1.0
 40
1.0
 10
4.1589906562
 20
4.285029233
 30
0.0
 10
4.1603207522
 20
4.2857971642
 30
0.0
 10
4.1630972953
 20
4.2871403118
 30
0.0
 10
4.1674848379
 20
4.288590087
 30
0.0
 10
4.1720095265
 20
4.2895342937
 30
0.0
 10
4.1781382868
 20
4.2902101878
 30
0.0
 10
4.1858736027
 20
4.29013247
 30
0.0
 10
4.1920062439
 20
4.2893751898
 30
0.0
 10
4.1950531148
 20
4.2888709963
 30
0.0
  0
LINE
  5
3C4
100
AcDbEntity
  8
ALL_ASSEMBLY_MEMBERS
100
AcDbLine
 62
7
  6
CONTINUOUS
 10
4.1950457193
 20
4.2269051944
 11
4.1946597354
 21
4.230367526
  0
SPLINE
  5
3C5
100
AcDbEntity
  8
ALL_ASSEMBLY_MEMBERS
100
AcDbSpline
 62
7
  6
CONTINUOUS
 70
0
 71
3
 72
11
 73
7
 74
0
 42
0.0000001
 43
0.0000001
 44
0.0000000001
 40
0.0
 40
0.0
 40
0.0
 40
0.0
 40
0.2507553423
 40
0.500851086
 40
0.7505585609
 40
1.0
 40
1.0
 40
1.0
 40
1.0
 10
4.1745124561
 20
4.2317357314
 30
0.0
 10
4.1760936887
 20
4.2311014058
 30
0.0
 10
4.1794119062
 20
4.2302234385
 30
0.0
 10
4.1845016735
 20
4.2297501126
 30
0.0
 10
4.1895989536
 20
4.2298387581
 30
0.0
 10
4.1929777048
 20
4.2301599212
 30
0.0
 10
4.1946597354
 20
4.230367526
 30
0.0
  0
SPLINE
  5
3C6
100
AcDbEntity
  8
ALL_ASSEMBLY_MEMBERS
100
AcDbSpline
 62
7
  6
CONTINUOUS
 70
0
 71
3
 72
11
 73
7
 74
0
 42
0.0000001
 43
0.0000001
 44
0.0000000001
 40
0.0
 40
0.0
 40
0.0
 40
0.0
 40
0.2503466151
 40
0.5006486511
 40
0.7506648106
 40
1.0
 40
1.0
 40
1.0
 40
1.0
 10
4.1626405162
 20
4.2425261304
 30
0.0
 10
4.1633225427
 20
4.2413460688
 30
0.0
 10
4.1648341446
 20
4.2390664812
 30
0.0
 10
4.1675842616
 20
4.2360194266
 30
0.0
 10
4.1708186404
 20
4.2334945524
 30
0.0
 10
4.1732525809
 20
4.2322411416
 30
0.0
 10
4.1745124561
 20
4.2317357314
 30
0.0
  0
SPLINE
  5
3C7
100
AcDbEntity
  8
ALL_ASSEMBLY_MEMBERS
100
AcDbSpline
 62
7
  6
CONTINUOUS
 70
0
 71
3
 72
14
 73
10
 74
0
 42
0.0000001
 43
0.0000001
 44
0.0000000001
 40
0.0
 40
0.0
 40
0.0
 40
0.0
 40
0.1241184878
 40
0.2487766947
 40
0.373600516
 40
0.4986846691
 40
0.6240359559
 40
0.7494409856
 40
1.0
 40
1.0
 40
1.0
 40
1.0
 10
4.1612574155
 20
4.2601307864
 30
0.0
 10
4.1609489735
 20
4.2594362432
 30
0.0
 10
4.1604100491
 20
4.2580072431
 30
0.0
 10
4.159863793
 20
4.2557799741
 30
0.0
 10
4.1596149522
 20
4.2534927908
 30
0.0
 10
4.1596808273
 20
4.2511894859
 30
0.0
 10
4.1600368378
 20
4.2489097437
 30
0.0
 10
4.1608805364
 20
4.2459523135
 30
0.0
 10
4.16187285
 20
4.2438543682
 30
0.0
 10
4.1626405162
 20
4.2425261304
 30
0.0
  0
SPLINE
  5
3C8
100
AcDbEntity
  8
ALL_ASSEMBLY_MEMBERS
100
AcDbSpline
 62
7
  6
CONTINUOUS
 70
0
 71
3
 72
9
 73
5
 74
0
 42
0.0000001
 43
0.0000001
 44
0.0000000001
 40
0.0
 40
0.0
 40
0.0
 40
0.0
 40
0.4991362407
 40
1.0
 40
1.0
 40
1.0
 40
1.0
 10
4.1725741538
 20
4.2731850324
 30
0.0
 10
4.1700524049
 20
4.2717291
 30
0.0
 10
4.1654779126
 20
4.2678898684
 30
0.0
 10
4.1624433458
 20
4.2628012394
 30
0.0
 10
4.1612574155
 20
4.2601307864
 30
0.0
  0
LINE
  5
3C9
100
AcDbEntity
  8
ALL_ASSEMBLY_MEMBERS
100
AcDbLine
 62
7
  6
CONTINUOUS
 10
4.2333299851
 20
4.3265913587
 11
4.2075937454
 21
4.3231759752
  0
SPLINE
  5
3CA
100
AcDbEntity
  8
ALL_ASSEMBLY_MEMBERS
100
AcDbSpline
 62
7
  6
CONTINUOUS
 70
0
 71
3
 72
11
 73
7
 74
0
 42
0.0000001
 43
0.0000001
 44
0.0000000001
 40
0.0
 40
0.0
 40
0.0
 40
0.0
 40
0.2506734877
 40
0.5007216556
 40
0.7504291522
 40
1.0
 40
1.0
 40
1.0
 40
1.0
 10
4.2066238468
 20
4.3441211043
 30
0.0
 10
4.2050318108
 20
4.3408281199
 30
0.0
 10
4.2011698938
 20
4.3345610937
 30
0.0
 10
4.1938009037
 20
4.3263986527
 30
0.0
 10
4.1853276263
 20
4.3194385659
 30
0.0
 10
4.1791812432
 20
4.3155000731
 30
0.0
 10
4.176027568
 20
4.3136792979
 30
0.0
  0
SPLINE
  5
3CB
100
AcDbEntity
  8
ALL_ASSEMBLY_MEMBERS
100
AcDbSpline
 62
7
  6
CONTINUOUS
 70
0
 71
3
 72
14
 73
10
 74
0
 42
0.0000001
 43
0.0000001
 44
0.0000000001
 40
0.0
 40
0.0
 40
0.0
 40
0.0
 40
0.1255198928
 40
0.2511163668
 40
0.3765841673
 40
0.5018211517
 40
0.6268312497
 40
0.7515365691
 40
1.0
 40
1.0
 40
1.0
 40
1.0
 10
4.2069228354
 20
4.3763207096
 30
0.0
 10
4.2076196831
 20
4.3751003032
 30
0.0
 10
4.2088650434
 20
4.3725692441
 30
0.0
 10
4.2101963814
 20
4.3685542013
 30
0.0
 10
4.210933124
 20
4.3643904308
 30
0.0
 10
4.2110604578
 20
4.3601720236
 30
0.0
 10
4.2106242332
 20
4.3559849611
 30
0.0
 10
4.2093839028
 20
4.3505367609
 30
0.0
 10
4.2078346798
 20
4.3466256042
 30
0.0
 10
4.2066238468
 20
4.3441211043
 30
0.0
  0
SPLINE
  5
3CC
100
AcDbEntity
  8
ALL_ASSEMBLY_MEMBERS
100
AcDbSpline
 62
7
  6
CONTINUOUS
 70
0
 71
3
 72
14
 73
10
 74
0
 42
0.0000001
 43
0.0000001
 44
0.0000000001
 40
0.0
 40
0.0
 40
0.0
 40
0.0
 40
0.2479775344
 40
0.3725423397
 40
0.4974624442
 40
0.6227237047
 40
0.74829736
 40
0.874120443
 40
1.0
 40
1.0
 40
1.0
 40
1.0
 10
4.1769936573
 20
4.3930040075
 30
0.0
 10
4.1799781679
 20
4.3930387082
 30
0.0
 10
4.1844963354
 20
4.3926712637
 30
0.0
 10
4.1902766943
 20
4.3910469479
 30
0.0
 10
4.1944092359
 20
4.3891951359
 30
0.0
 10
4.1982187526
 20
4.3867233822
 30
0.0
 10
4.2016046361
 20
4.3836825874
 30
0.0
 10
4.204528566
 20
4.3801911013
 30
0.0
 10
4.206171557
 20
4.3776364419
 30
0.0
 10
4.2069228354
 20
4.3763207096
 30
0.0
  0
SPLINE
  5
3CD
100
AcDbEntity
  8
ALL_ASSEMBLY_MEMBERS
100
AcDbSpline
 62
7
  6
CONTINUOUS
 70
0
 71
3
 72
11
 73
7
 74
0
 42
0.0000001
 43
0.0000001
 44
0.0000000001
 40
0.0
 40
0.0
 40
0.0
 40
0.0
 40
0.2499581139
 40
0.4998985114
 40
0.7498664665
 40
1.0
 40
1.0
 40
1.0
 40
1.0
 10
4.1355840093
 20
4.3806160921
 30
0.0
 10
4.1387354373
 20
4.3824355699
 30
0.0
 10
4.1452114296
 20
4.3857868297
 30
0.0
 10
4.1554238444
 20
4.3897170253
 30
0.0
 10
4.166067818
 20
4.392298321
 30
0.0
 10
4.173352394
 20
4.3929616707
 30
0.0
 10
4.1769936573
 20
4.3930040075
 30
0.0
  0
SPLINE
  5
3CE
100
AcDbEntity
  8
ALL_ASSEMBLY_MEMBERS
100
AcDbSpline
 62
7
  6
CONTINUOUS
 70
0
 71
3
 72
11
 73
7
 74
0
 42
0.0000001
 43
0.0000001
 44
0.0000000001
 40
0.0
 40
0.0
 40
0.0
 40
0.0
 40
0.2042862227
 40
0.4372076767
 40
0.7017485586
 40
1.0
 40
1.0
 40
1.0
 40
1.0
 10
5.3998245058
 20
4.7868986129
 30
0.0
 10
5.4007621197
 20
4.7878645911
 30
0.0
 10
5.4025949232
 20
4.7901024244
 30
0.0
 10
5.4050734451
 20
4.7940153423
 30
0.0
 10
5.4074575032
 20
4.7986923094
 30
0.0
 10
5.4088984646
 20
4.8021126962
 30
0.0
 10
5.4096122381
 20
4.8039439029
 30
0.0
  0
LINE
  5
3CF
100
AcDbEntity
  8
ALL_ASSEMBLY_MEMBERS
100
AcDbLine
 62
7
  6
CONTINUOUS
 10
5.4096122381
 20
4.8039439029
 11
5.4124295932
 21
4.81198097
  0
SPLINE
  5
3D0
100
AcDbEntity
  8
ALL_ASSEMBLY_MEMBERS
100
AcDbSpline
 62
7
  6
CONTINUOUS
 70
0
 71
3
 72
10
 73
6
 74
0
 42
0.0000001
 43
0.0000001
 44
0.0000000001
 40
0.0
 40
0.0
 40
0.0
 40
0.0
 40
0.2364585468
 40
0.4795539597
 40
1.0
 40
1.0
 40
1.0
 40
1.0
 10
5.4602366078
 20
4.8097000013
 30
0.0
 10
5.4607002267
 20
4.8107700704
 30
0.0
 10
5.4614961413
 20
4.8130060923
 30
0.0
 10
5.4625415612
 20
4.8178362332
 30
0.0
 10
5.4626447384
 20
4.8216422132
 30
0.0
 10
5.4624740919
 20
4.8242033143
 30
0.0
  0
SPLINE
  5
3D1
100
AcDbEntity
  8
ALL_ASSEMBLY_MEMBERS
100
AcDbSpline
 62
7
  6
CONTINUOUS
 70
0
 71
3
 72
9
 73
5
 74
0
 42
0.0000001
 43
0.0000001
 44
0.0000000001
 40
0.0
 40
0.0
 40
0.0
 40
0.0
 40
0.2361620559
 40
1.0
 40
1.0
 40
1.0
 40
1.0
 10
5.4624740919
 20
4.8242033143
 30
0.0
 10
5.462422118
 20
4.8249833503
 30
0.0
 10
5.462107939
 20
4.8282799818
 30
0.0
 10
5.4614374072
 20
4.8315374886
 30
0.0
 10
5.4607829762
 20
4.8339798584
 30
0.0
  0
LINE
  5
3D2
100
AcDbEntity
  8
ALL_ASSEMBLY_MEMBERS
100
AcDbLine
 62
7
  6
CONTINUOUS
 10
5.4607829762
 20
4.8339798584
 11
5.4596970557
 21
4.8375380703
  0
LINE
  5
3D3
100
AcDbEntity
  8
ALL_ASSEMBLY_MEMBERS
100
AcDbLine
 62
7
  6
CONTINUOUS
 10
5.4596970557
 20
4.8375380703
 11
5.458448983
 21
4.8407571993
  0
SPLINE
  5
3D4
100
AcDbEntity
  8
ALL_ASSEMBLY_MEMBERS
100
AcDbSpline
 62
7
  6
CONTINUOUS
 70
0
 71
3
 72
9
 73
5
 74
0
 42
0.0000001
 43
0.0000001
 44
0.0000000001
 40
0.0
 40
0.0
 40
0.0
 40
0.0
 40
0.5123551953
 40
1.0
 40
1.0
 40
1.0
 40
1.0
 10
5.4570612095
 20
4.843636542
 30
0.0
 10
5.4563960962
 20
4.844880635
 30
0.0
 10
5.4549557432
 20
4.8472366254
 30
0.0
 10
5.453213891
 20
4.8493821502
 30
0.0
 10
5.4522936913
 20
4.8503599229
 30
0.0
  0
SPLINE
  5
3D5
100
AcDbEntity
  8
ALL_ASSEMBLY_MEMBERS
100
AcDbSpline
 62
7
  6
CONTINUOUS
 70
0
 71
3
 72
9
 73
5
 74
0
 42
0.0000001
 43
0.0000001
 44
0.0000000001
 40
0.0
 40
0.0
 40
0.0
 40
0.0
 40
0.5032208674
 40
1.0
 40
1.0
 40
1.0
 40
1.0
 10
5.4522936913
 20
4.8503599229
 30
0.0
 10
5.4514519053
 20
4.8512543759
 30
0.0
 10
5.4496575304
 20
4.8529219622
 30
0.0
 10
5.4476449915
 20
4.8543193602
 30
0.0
 10
5.4466025879
 20
4.854938769
 30
0.0
  0
SPLINE
  5
3D6
100
AcDbEntity
  8
ALL_ASSEMBLY_MEMBERS
100
AcDbSpline
 62
7
  6
CONTINUOUS
 70
0
 71
3
 72
11
 73
7
 74
0
 42
0.0000001
 43
0.0000001
 44
0.0000000001
 40
0.0
 40
0.0
 40
0.0
 40
0.0
 40
0.2907116205
 40
0.5531150185
 40
0.7888090345
 40
1.0
 40
1.0
 40
1.0
 40
1.0
 10
5.3990841274
 20
4.8319777204
 30
0.0
 10
5.3977029098
 20
4.8333251622
 30
0.0
 10
5.395004744
 20
4.8358188261
 30
0.0
 10
5.3909188372
 20
4.8391009749
 30
0.0
 10
5.3870051972
 20
4.841729152
 30
0.0
 10
5.3843734091
 20
4.8431158925
 30
0.0
 10
5.3830906586
 20
4.843681175
 30
0.0
  0
SPLINE
  5
3D7
100
AcDbEntity
  8
ALL_ASSEMBLY_MEMBERS
100
AcDbSpline
 62
7
  6
CONTINUOUS
 70
0
 71
3
 72
9
 73
5
 74
0
 42
0.0000001
 43
0.0000001
 44
0.0000000001
 40
0.0
 40
0.0
 40
0.0
 40
0.0
 40
0.2498600558
 40
1.0
 40
1.0
 40
1.0
 40
1.0
 10
4.1976284957
 20
4.279510581
 30
0.0
 10
4.1992585721
 20
4.2794433191
 30
0.0
 10
4.2057777446
 20
4.2790622744
 30
0.0
 10
4.2122697696
 20
4.278259364
 30
0.0
 10
4.217102342
 20
4.2774611814
 30
0.0
  0
LINE
  5
3D8
100
AcDbEntity
  8
ALL_ASSEMBLY_MEMBERS
100
AcDbLine
 62
7
  6
CONTINUOUS
 10
4.217102342
 20
4.2774611814
 11
4.2335101198
 21
4.2742028083
  0
SPLINE
  5
3D9
100
AcDbEntity
  8
ALL_ASSEMBLY_MEMBERS
100
AcDbSpline
 62
7
  6
CONTINUOUS
 70
0
 71
3
 72
12
 73
8
 74
0
 42
0.0000001
 43
0.0000001
 44
0.0000000001
 40
0.0
 40
0.0
 40
0.0
 40
0.0
 40
0.2495620566
 40
0.4992996026
 40
0.6242392794
 40
0.7492478762
 40
1.0
 40
1.0
 40
1.0
 40
1.0
 10
4.2088890146
 20
4.3202386278
 30
0.0
 10
4.2097415922
 20
4.3201643172
 30
0.0
 10
4.211445385
 20
4.3199905007
 30
0.0
 10
4.2135641395
 20
4.3196779237
 30
0.0
 10
4.2152469567
 20
4.319352692
 30
0.0
 10
4.2169199709
 20
4.3189669103
 30
0.0
 10
4.2181533111
 20
4.3185751778
 30
0.0
 10
4.2189478333
 20
4.3182463208
 30
0.0
  0
SPLINE
  5
3DA
100
AcDbEntity
  8
ALL_ASSEMBLY_MEMBERS
100
AcDbSpline
 62
7
  6
CONTINUOUS
 70
0
 71
3
 72
9
 73
5
 74
0
 42
0.0000001
 43
0.0000001
 44
0.0000000001
 40
0.0
 40
0.0
 40
0.0
 40
0.0
 40
0.2511838708
 40
1.0
 40
1.0
 40
1.0
 40
1.0
 10
4.2189478333
 20
4.3182463208
 30
0.0
 10
4.2191617546
 20
4.3181577776
 30
0.0
 10
4.2200042886
 20
4.3177867867
 30
0.0
 10
4.2208085691
 20
4.3173045641
 30
0.0
 10
4.2213272234
 20
4.3168491813
 30
0.0
  0
SPLINE
  5
3DB
100
AcDbEntity
  8
ALL_ASSEMBLY_MEMBERS
100
AcDbSpline
 62
7
  6
CONTINUOUS
 70
0
 71
3
 72
11
 73
7
 74
0
 42
0.0000001
 43
0.0000001
 44
0.0000000001
 40
0.0
 40
0.0
 40
0.0
 40
0.0
 40
0.2498211863
 40
0.4998561516
 40
0.74990212
 40
1.0
 40
1.0
 40
1.0
 40
1.0
 10
4.2213272234
 20
4.3168491813
 30
0.0
 10
4.2221218197
 20
4.3161515191
 30
0.0
 10
4.2235201759
 20
4.3145450412
 30
0.0
 10
4.2253747414
 20
4.3119707292
 30
0.0
 10
4.2270887333
 20
4.309295533
 30
0.0
 10
4.2281688182
 20
4.3074747598
 30
0.0
 10
4.2286981089
 20
4.3065580016
 30
0.0
  0
SPLINE
  5
3DC
100
AcDbEntity
  8
ALL_ASSEMBLY_MEMBERS
100
AcDbSpline
 62
7
  6
CONTINUOUS
 70
0
 71
3
 72
15
 73
11
 74
0
 42
0.0000001
 43
0.0000001
 44
0.0000000001
 40
0.0
 40
0.0
 40
0.0
 40
0.0
 40
0.1243249313
 40
0.187396717
 40
0.2503045081
 40
0.3753283125
 40
0.5001173894
 40
0.6249925463
 40
0.749972343
 40
1.0
 40
1.0
 40
1.0
 40
1.0
 10
4.2911874031
 20
4.2159824168
 30
0.0
 10
4.2916528825
 20
4.2157830891
 30
0.0
 10
4.2923001488
 20
4.2153548385
 30
0.0
 10
4.2930591478
 20
4.2146754195
 30
0.0
 10
4.293780956
 20
4.2139503488
 30
0.0
 10
4.2946137821
 20
4.2129847181
 30
0.0
 10
4.295528606
 20
4.2117624377
 30
0.0
 10
4.2963959256
 20
4.210506733
 30
0.0
 10
4.2975027543
 20
4.2087976107
 30
0.0
 10
4.2982848858
 20
4.2074850872
 30
0.0
 10
4.2987940538
 20
4.2066031824
 30
0.0
  0
LINE
  5
3DD
100
AcDbEntity
  8
ALL_ASSEMBLY_MEMBERS
100
AcDbLine
 62
7
  6
CONTINUOUS
 10
4.2749001034
 20
4.2479887184
 11
4.2770011878
 21
4.2437745378
  0
LINE
  5
3DE
100
AcDbEntity
  8
ALL_ASSEMBLY_MEMBERS
100
AcDbLine
 62
7
  6
CONTINUOUS
 10
4.2770011878
 20
4.2437745378
 11
4.2788054035
 21
4.2391367979
  0
SPLINE
  5
3DF
100
AcDbEntity
  8
ALL_ASSEMBLY_MEMBERS
100
AcDbSpline
 62
7
  6
CONTINUOUS
 70
0
 71
3
 72
11
 73
7
 74
0
 42
0.0000001
 43
0.0000001
 44
0.0000000001
 40
0.0
 40
0.0
 40
0.0
 40
0.0
 40
0.25043461
 40
0.5028104161
 40
0.7532968109
 40
1.0
 40
1.0
 40
1.0
 40
1.0
 10
4.2788054035
 20
4.2391367979
 30
0.0
 10
4.2788889224
 20
4.238845575
 30
0.0
 10
4.2790415878
 20
4.2382565221
 30
0.0
 10
4.2792241957
 20
4.2373629464
 30
0.0
 10
4.2793162433
 20
4.2364585397
 30
0.0
 10
4.279269127
 20
4.2358530561
 30
0.0
 10
4.2792082401
 20
4.2355608847
 30
0.0
  0
SPLINE
  5
3E0
100
AcDbEntity
  8
ALL_ASSEMBLY_MEMBERS
100
AcDbSpline
 62
7
  6
CONTINUOUS
 70
0
 71
3
 72
15
 73
11
 74
0
 42
0.0000001
 43
0.0000001
 44
0.0000000001
 40
0.0
 40
0.0
 40
0.0
 40
0.0
 40
0.1257753805
 40
0.2517732519
 40
0.314582495
 40
0.3772562322
 40
0.5024960286
 40
0.6275166823
 40
0.7519670395
 40
1.0
 40
1.0
 40
1.0
 40
1.0
 10
4.8588471555
 20
5.2171581927
 30
0.0
 10
4.8579421311
 20
5.2171581927
 30
0.0
 10
4.8561273926
 20
5.2173048919
 30
0.0
 10
4.8539204168
 20
5.2178598894
 30
0.0
 10
4.8522402627
 20
5.2185384216
 30
0.0
 10
4.8506355851
 20
5.2193677749
 30
0.0
 10
4.8487748119
 20
5.2206541724
 30
0.0
 10
4.8467993133
 20
5.2225013048
 30
0.0
 10
4.8445128959
 20
5.2252655636
 30
0.0
 10
4.8431417543
 20
5.2275888669
 30
0.0
 10
4.8423356078
 20
5.2291811643
 30
0.0
  0
SPLINE
  5
3E1
100
AcDbEntity
  8
ALL_ASSEMBLY_MEMBERS
100
AcDbSpline
 62
7
  6
CONTINUOUS
 70
0
 71
3
 72
11
 73
7
 74
0
 42
0.0000001
 43
0.0000001
 44
0.0000000001
 40
0.0
 40
0.0
 40
0.0
 40
0.0
 40
0.2580772158
 40
0.5072024108
 40
0.7526736582
 40
1.0
 40
1.0
 40
1.0
 40
1.0
 10
4.8816365699
 20
5.3190927963
 30
0.0
 10
4.880557405
 20
5.3202165852
 30
0.0
 10
4.8782911685
 20
5.3222925191
 30
0.0
 10
4.8745216314
 20
5.3248588585
 30
0.0
 10
4.8704663458
 20
5.3267999593
 30
0.0
 10
4.867606519
 20
5.3276659951
 30
0.0
 10
4.8661499995
 20
5.3279946504
 30
0.0
  0
SPLINE
  5
3E2
100
AcDbEntity
  8
ALL_ASSEMBLY_MEMBERS
100
AcDbSpline
 62
7
  6
CONTINUOUS
 70
0
 71
3
 72
9
 73
5
 74
0
 42
0.0000001
 43
0.0000001
 44
0.0000000001
 40
0.0
 40
0.0
 40
0.0
 40
0.0
 40
0.243921155
 40
1.0
 40
1.0
 40
1.0
 40
1.0
 10
4.8661499995
 20
5.3279946504
 30
0.0
 10
4.8655466456
 20
5.3281307938
 30
0.0
 10
4.863056745
 20
5.328615512
 30
0.0
 10
4.8605124201
 20
5.3288062907
 30
0.0
 10
4.8585951929
 20
5.3288062907
 30
0.0
  0
LINE
  5
3E3
100
AcDbEntity
  8
ALL_ASSEMBLY_MEMBERS
100
AcDbLine
 62
7
  6
CONTINUOUS
 10
4.8585951929
 20
5.3288062907
 11
4.8544163549
 21
5.3285820223
  0
SPLINE
  5
3E4
100
AcDbEntity
  8
ALL_ASSEMBLY_MEMBERS
100
AcDbSpline
 62
7
  6
CONTINUOUS
 70
0
 71
3
 72
9
 73
5
 74
0
 42
0.0000001
 43
0.0000001
 44
0.0000000001
 40
0.0
 40
0.0
 40
0.0
 40
0.0
 40
0.5076421991
 40
1.0
 40
1.0
 40
1.0
 40
1.0
 10
4.8544163549
 20
5.3285820223
 30
0.0
 10
4.8531081888
 20
5.3284376201
 30
0.0
 10
4.8505444652
 20
5.3280090336
 30
0.0
 10
4.8480516598
 20
5.3272685978
 30
0.0
 10
4.8468541641
 20
5.3268265347
 30
0.0
  0
SPLINE
  5
3E5
100
AcDbEntity
  8
ALL_ASSEMBLY_MEMBERS
100
AcDbSpline
 62
7
  6
CONTINUOUS
 70
0
 71
3
 72
9
 73
5
 74
0
 42
0.0000001
 43
0.0000001
 44
0.0000000001
 40
0.0
 40
0.0
 40
0.0
 40
0.0
 40
0.4967264604
 40
1.0
 40
1.0
 40
1.0
 40
1.0
 10
4.8468541641
 20
5.3268265347
 30
0.0
 10
4.8451459765
 20
5.3261959464
 30
0.0
 10
4.8418175472
 20
5.3246015439
 30
0.0
 10
4.8388520744
 20
5.3224073346
 30
0.0
 10
4.837469924
 20
5.3211853758
 30
0.0
  0
SPLINE
  5
3E6
100
AcDbEntity
  8
ALL_ASSEMBLY_MEMBERS
100
AcDbSpline
 62
7
  6
CONTINUOUS
 70
0
 71
3
 72
9
 73
5
 74
0
 42
0.0000001
 43
0.0000001
 44
0.0000000001
 40
0.0
 40
0.0
 40
0.0
 40
0.0
 40
0.2418855964
 40
1.0
 40
1.0
 40
1.0
 40
1.0
 10
4.837469924
 20
5.3211853758
 30
0.0
 10
4.8369538952
 20
5.320729155
 30
0.0
 10
4.8348814333
 20
5.3187744721
 30
0.0
 10
4.8330601558
 20
5.3165599945
 30
0.0
 10
4.8318204291
 20
5.3147926821
 30
0.0
  0
SPLINE
  5
3E7
100
AcDbEntity
  8
ALL_ASSEMBLY_MEMBERS
100
AcDbSpline
 62
7
  6
CONTINUOUS
 70
0
 71
3
 72
12
 73
8
 74
0
 42
0.0000001
 43
0.0000001
 44
0.0000000001
 40
0.0
 40
0.0
 40
0.0
 40
0.0
 40
0.2490847056
 40
0.3736967536
 40
0.4986196437
 40
0.7494965804
 40
1.0
 40
1.0
 40
1.0
 40
1.0
 10
4.783624075
 20
5.2210272462
 30
0.0
 10
4.7829208653
 20
5.2203945982
 30
0.0
 10
4.7817813307
 20
5.2195314689
 30
0.0
 10
4.7801183
 20
5.2186203194
 30
0.0
 10
4.7783608766
 20
5.2178885395
 30
0.0
 10
4.7760403285
 20
5.2173058666
 30
0.0
 10
4.7741329637
 20
5.2171581927
 30
0.0
 10
4.7731816651
 20
5.2171581927
 30
0.0
  0
SPLINE
  5
3E8
100
AcDbEntity
  8
ALL_ASSEMBLY_MEMBERS
100
AcDbSpline
 62
7
  6
CONTINUOUS
 70
0
 71
3
 72
9
 73
5
 74
0
 42
0.0000001
 43
0.0000001
 44
0.0000000001
 40
0.0
 40
0.0
 40
0.0
 40
0.0
 40
0.2493806752
 40
1.0
 40
1.0
 40
1.0
 40
1.0
 10
4.7731816651
 20
5.2171581927
 30
0.0
 10
4.7728332573
 20
5.2171581927
 30
0.0
 10
4.7714365997
 20
5.2172017693
 30
0.0
 10
4.7700446526
 20
5.2174206746
 30
0.0
 10
4.7690301465
 20
5.217686224
 30
0.0
  0
SPLINE
  5
3E9
100
AcDbEntity
  8
ALL_ASSEMBLY_MEMBERS
100
AcDbSpline
 62
7
  6
CONTINUOUS
 70
0
 71
3
 72
11
 73
7
 74
0
 42
0.0000001
 43
0.0000001
 44
0.0000000001
 40
0.0
 40
0.0
 40
0.0
 40
0.0
 40
0.250811446
 40
0.5006382133
 40
0.750442542
 40
1.0
 40
1.0
 40
1.0
 40
1.0
 10
4.7690301465
 20
5.217686224
 30
0.0
 10
4.7683318509
 20
5.2178690046
 30
0.0
 10
4.7669607605
 20
5.2183314374
 30
0.0
 10
4.7650348032
 20
5.2193247081
 30
0.0
 10
4.7632625835
 20
5.220562301
 30
0.0
 10
4.7621870059
 20
5.2215206934
 30
0.0
 10
4.7616768917
 20
5.2220262742
 30
0.0
  0
SPLINE
  5
3EA
100
AcDbEntity
  8
ALL_ASSEMBLY_MEMBERS
100
AcDbSpline
 62
7
  6
CONTINUOUS
 70
0
 71
3
 72
9
 73
5
 74
0
 42
0.0000001
 43
0.0000001
 44
0.0000000001
 40
0.0
 40
0.0
 40
0.0
 40
0.0
 40
0.5006807316
 40
1.0
 40
1.0
 40
1.0
 40
1.0
 10
4.7616768917
 20
5.2220262742
 30
0.0
 10
4.7606384107
 20
5.223055526
 30
0.0
 10
4.7587866372
 20
5.2253408132
 30
0.0
 10
4.7573287562
 20
5.2278802433
 30
0.0
 10
4.7566701273
 20
5.2291811657
 30
0.0
  0
LINE
  5
3EB
100
AcDbEntity
  8
ALL_ASSEMBLY_MEMBERS
100
AcDbLine
 62
7
  6
CONTINUOUS
 10
4.8012864742
 20
5.3122015261
 11
4.7987112244
 21
5.3159063019
  0
LINE
  5
3EC
100
AcDbEntity
  8
ALL_ASSEMBLY_MEMBERS
100
AcDbLine
 62
7
  6
CONTINUOUS
 10
4.7987112244
 20
5.3159063019
 11
4.7959710783
 21
5.3190927977
  0
SPLINE
  5
3ED
100
AcDbEntity
  8
ALL_ASSEMBLY_MEMBERS
100
AcDbSpline
 62
7
  6
CONTINUOUS
 70
0
 71
3
 72
11
 73
7
 74
0
 42
0.0000001
 43
0.0000001
 44
0.0000000001
 40
0.0
 40
0.0
 40
0.0
 40
0.0
 40
0.2580772733
 40
0.5072024959
 40
0.7526737282
 40
1.0
 40
1.0
 40
1.0
 40
1.0
 10
4.7959710783
 20
5.3190927977
 30
0.0
 10
4.7948919134
 20
5.3202165866
 30
0.0
 10
4.7926256773
 20
5.3222925202
 30
0.0
 10
4.7888561411
 20
5.3248588595
 30
0.0
 10
4.7848008572
 20
5.3267999601
 30
0.0
 10
4.7819410317
 20
5.3276659957
 30
0.0
 10
4.7804845131
 20
5.327994651
 30
0.0
  0
SPLINE
  5
3EE
100
AcDbEntity
  8
ALL_ASSEMBLY_MEMBERS
100
AcDbSpline
 62
7
  6
CONTINUOUS
 70
0
 71
3
 72
9
 73
5
 74
0
 42
0.0000001
 43
0.0000001
 44
0.0000000001
 40
0.0
 40
0.0
 40
0.0
 40
0.0
 40
0.2439211968
 40
1.0
 40
1.0
 40
1.0
 40
1.0
 10
4.7804845131
 20
5.327994651
 30
0.0
 10
4.7798811599
 20
5.3281307942
 30
0.0
 10
4.7773912627
 20
5.3286155121
 30
0.0
 10
4.7748469411
 20
5.3288062907
 30
0.0
 10
4.7729297165
 20
5.3288062907
 30
0.0
  0
LINE
  5
3EF
100
AcDbEntity
  8
ALL_ASSEMBLY_MEMBERS
100
AcDbLine
 62
7
  6
CONTINUOUS
 10
4.7729297165
 20
5.3288062907
 11
4.7687508773
 21
5.3285820221
  0
SPLINE
  5
3F0
100
AcDbEntity
  8
ALL_ASSEMBLY_MEMBERS
100
AcDbSpline
 62
7
  6
CONTINUOUS
 70
0
 71
3
 72
9
 73
5
 74
0
 42
0.0000001
 43
0.0000001
 44
0.0000000001
 40
0.0
 40
0.0
 40
0.0
 40
0.0
 40
0.5076421809
 40
1.0
 40
1.0
 40
1.0
 40
1.0
 10
4.7687508773
 20
5.3285820221
 30
0.0
 10
4.7674427107
 20
5.3284376199
 30
0.0
 10
4.7648789863
 20
5.3280090332
 30
0.0
 10
4.7623861801
 20
5.3272685971
 30
0.0
 10
4.7611886839
 20
5.3268265339
 30
0.0
  0
SPLINE
  5
3F1
100
AcDbEntity
  8
ALL_ASSEMBLY_MEMBERS
100
AcDbSpline
 62
7
  6
CONTINUOUS
 70
0
 71
3
 72
9
 73
5
 74
0
 42
0.0000001
 43
0.0000001
 44
0.0000000001
 40
0.0
 40
0.0
 40
0.0
 40
0.0
 40
0.4967264634
 40
1.0
 40
1.0
 40
1.0
 40
1.0
 10
4.7611886839
 20
5.3268265339
 30
0.0
 10
4.7594804958
 20
5.3261959455
 30
0.0
 10
4.7561520654
 20
5.3246015427
 30
0.0
 10
4.7531865914
 20
5.322407333
 30
0.0
 10
4.7518044405
 20
5.3211853739
 30
0.0
  0
SPLINE
  5
3F2
100
AcDbEntity
  8
ALL_ASSEMBLY_MEMBERS
100
AcDbSpline
 62
7
  6
CONTINUOUS
 70
0
 71
3
 72
9
 73
5
 74
0
 42
0.0000001
 43
0.0000001
 44
0.0000000001
 40
0.0
 40
0.0
 40
0.0
 40
0.0
 40
0.2418856098
 40
1.0
 40
1.0
 40
1.0
 40
1.0
 10
4.7518044405
 20
5.3211853739
 30
0.0
 10
4.7512884117
 20
5.3207291531
 30
0.0
 10
4.7492159497
 20
5.3187744705
 30
0.0
 10
4.7473946721
 20
5.3165599932
 30
0.0
 10
4.7461549454
 20
5.3147926811
 30
0.0
  0
LINE
  5
3F3
100
AcDbEntity
  8
ALL_ASSEMBLY_MEMBERS
100
AcDbLine
 62
7
  6
CONTINUOUS
 10
4.7461549454
 20
5.3147926811
 11
4.743618683
 21
5.3107346487
  0
LINE
  5
3F4
100
AcDbEntity
  8
ALL_ASSEMBLY_MEMBERS
100
AcDbLine
 62
7
  6
CONTINUOUS
 10
4.6770179708
 20
5.218973609
 11
4.6764516096
 21
5.2186119012
  0
SPLINE
  5
3F5
100
AcDbEntity
  8
ALL_ASSEMBLY_MEMBERS
100
AcDbSpline
 62
7
  6
CONTINUOUS
 70
0
 71
3
 72
13
 73
9
 74
0
 42
0.0000001
 43
0.0000001
 44
0.0000000001
 40
0.0
 40
0.0
 40
0.0
 40
0.0
 40
0.1252938265
 40
0.2508618675
 40
0.3756697835
 40
0.5003981165
 40
0.7501172718
 40
1.0
 40
1.0
 40
1.0
 40
1.0
 10
4.6764516096
 20
5.2186119012
 30
0.0
 10
4.67602825
 20
5.2183808363
 30
0.0
 10
4.6751186857
 20
5.2180347363
 30
0.0
 10
4.673714938
 20
5.2176851827
 30
0.0
 10
4.6722890967
 20
5.2174478768
 30
0.0
 10
4.6703778325
 20
5.2172423379
 30
0.0
 10
4.6679773289
 20
5.2171006737
 30
0.0
 10
4.6660538997
 20
5.2170756735
 30
0.0
 10
4.6650919902
 20
5.2170756735
 30
0.0
  0
LINE
  5
3F6
100
AcDbEntity
  8
ALL_ASSEMBLY_MEMBERS
100
AcDbLine
 62
7
  6
CONTINUOUS
 10
4.7128798909
 20
5.2170756735
 11
4.7081797613
 21
5.2173631713
  0
SPLINE
  5
3F7
100
AcDbEntity
  8
ALL_ASSEMBLY_MEMBERS
100
AcDbSpline
 62
7
  6
CONTINUOUS
 70
0
 71
3
 72
10
 73
6
 74
0
 42
0.0000001
 43
0.0000001
 44
0.0000000001
 40
0.0
 40
0.0
 40
0.0
 40
0.0
 40
0.2498832931
 40
0.4993399662
 40
1.0
 40
1.0
 40
1.0
 40
1.0
 10
4.7081797613
 20
5.2173631713
 30
0.0
 10
4.7076690645
 20
5.2174112686
 30
0.0
 10
4.7066496269
 20
5.2175212086
 30
0.0
 10
4.7046163879
 20
5.217798906
 30
0.0
 10
4.7031035182
 20
5.2181260488
 30
0.0
 10
4.7021261363
 20
5.2184438368
 30
0.0
  0
SPLINE
  5
3F8
100
AcDbEntity
  8
ALL_ASSEMBLY_MEMBERS
100
AcDbSpline
 62
7
  6
CONTINUOUS
 70
0
 71
3
 72
9
 73
5
 74
0
 42
0.0000001
 43
0.0000001
 44
0.0000000001
 40
0.0
 40
0.0
 40
0.0
 40
0.0
 40
0.2537718235
 40
1.0
 40
1.0
 40
1.0
 40
1.0
 10
4.7021261363
 20
5.2184438368
 30
0.0
 10
4.7019297507
 20
5.2185076901
 30
0.0
 10
4.7011631539
 20
5.2187734015
 30
0.0
 10
4.7004158854
 20
5.2191541138
 30
0.0
 10
4.6999630029
 20
5.2195586345
 30
0.0
  0
SPLINE
  5
3F9
100
AcDbEntity
  8
ALL_ASSEMBLY_MEMBERS
100
AcDbSpline
 62
7
  6
CONTINUOUS
 70
0
 71
3
 72
11
 73
7
 74
0
 42
0.0000001
 43
0.0000001
 44
0.0000000001
 40
0.0
 40
0.0
 40
0.0
 40
0.0
 40
0.2505564104
 40
0.5006583864
 40
0.7504446823
 40
1.0
 40
1.0
 40
1.0
 40
1.0
 10
4.8012863094
 20
5.3131135161
 30
0.0
 10
4.8031996724
 20
5.3100573598
 30
0.0
 10
4.8064609882
 20
5.3035825378
 30
0.0
 10
4.8096699969
 20
5.2932292997
 30
0.0
 10
4.8113982068
 20
5.2825545502
 30
0.0
 10
4.8117311382
 20
5.2753620362
 30
0.0
 10
4.8117311382
 20
5.2717707458
 30
0.0
  0
SPLINE
  5
3FA
100
AcDbEntity
  8
ALL_ASSEMBLY_MEMBERS
100
AcDbSpline
 62
7
  6
CONTINUOUS
 70
0
 71
3
 72
9
 73
5
 74
0
 42
0.0000001
 43
0.0000001
 44
0.0000000001
 40
0.0
 40
0.0
 40
0.0
 40
0.0
 40
0.7497462512
 40
1.0
 40
1.0
 40
1.0
 40
1.0
 10
4.7736413043
 20
5.3297300757
 30
0.0
 10
4.7757462915
 20
5.3296907772
 30
0.0
 10
4.7785613187
 20
5.3293981772
 30
0.0
 10
4.7812923485
 20
5.328738659
 30
0.0
 10
4.7819691539
 20
5.328549528
 30
0.0
  0
SPLINE
  5
3FB
100
AcDbEntity
  8
ALL_ASSEMBLY_MEMBERS
100
AcDbSpline
 62
7
  6
CONTINUOUS
 70
0
 71
3
 72
9
 73
5
 74
0
 42
0.0000001
 43
0.0000001
 44
0.0000000001
 40
0.0
 40
0.0
 40
0.0
 40
0.0
 40
0.5009824286
 40
1.0
 40
1.0
 40
1.0
 40
1.0
 10
4.7819691539
 20
5.328549528
 30
0.0
 10
4.7846518338
 20
5.3277998621
 30
0.0
 10
4.7898268979
 20
5.3255362181
 30
0.0
 10
4.7941456643
 20
5.3219261816
 30
0.0
 10
4.7960601119
 20
5.3199179684
 30
0.0
  0
SPLINE
  5
3FC
100
AcDbEntity
  8
ALL_ASSEMBLY_MEMBERS
100
AcDbSpline
 62
7
  6
CONTINUOUS
 70
0
 71
3
 72
9
 73
5
 74
0
 42
0.0000001
 43
0.0000001
 44
0.0000000001
 40
0.0
 40
0.0
 40
0.0
 40
0.0
 40
0.2506278092
 40
1.0
 40
1.0
 40
1.0
 40
1.0
 10
4.7960601119
 20
5.3199179684
 30
0.0
 10
4.7965551972
 20
5.3193986349
 30
0.0
 10
4.7984694575
 20
5.3172683631
 30
0.0
 10
4.8001478885
 20
5.314931881
 30
0.0
 10
4.8012863094
 20
5.3131135161
 30
0.0
  0
SPLINE
  5
3FD
100
AcDbEntity
  8
ALL_ASSEMBLY_MEMBERS
100
AcDbSpline
 62
7
  6
CONTINUOUS
 70
0
 71
3
 72
11
 73
7
 74
0
 42
0.0000001
 43
0.0000001
 44
0.0000000001
 40
0.0
 40
0.0
 40
0.0
 40
0.0
 40
0.2506996057
 40
0.5008591606
 40
0.7505971276
 40
1.0
 40
1.0
 40
1.0
 40
1.0
 10
4.8869519646
 20
5.3128193913
 30
0.0
 10
4.8888649458
 20
5.3097546893
 30
0.0
 10
4.8921255358
 20
5.303265389
 30
0.0
 10
4.8953348346
 20
5.2928944745
 30
0.0
 10
4.8970634279
 20
5.2822068515
 30
0.0
 10
4.8973966128
 20
5.2750073173
 30
0.0
 10
4.8973966128
 20
5.2714132633
 30
0.0
  0
SPLINE
  5
3FE
100
AcDbEntity
  8
ALL_ASSEMBLY_MEMBERS
100
AcDbSpline
 62
7
  6
CONTINUOUS
 70
0
 71
3
 72
9
 73
5
 74
0
 42
0.0000001
 43
0.0000001
 44
0.0000000001
 40
0.0
 40
0.0
 40
0.0
 40
0.0
 40
0.2494466249
 40
1.0
 40
1.0
 40
1.0
 40
1.0
 10
4.8585951929
 20
5.329564572
 30
0.0
 10
4.8592458946
 20
5.3295619437
 30
0.0
 10
4.8618534343
 20
5.3294825402
 30
0.0
 10
4.8644547761
 20
5.3291183975
 30
0.0
 10
4.8663602394
 20
5.3286683271
 30
0.0
  0
SPLINE
  5
3FF
100
AcDbEntity
  8
ALL_ASSEMBLY_MEMBERS
100
AcDbSpline
 62
7
  6
CONTINUOUS
 70
0
 71
3
 72
11
 73
7
 74
0
 42
0.0000001
 43
0.0000001
 44
0.0000000001
 40
0.0
 40
0.0
 40
0.0
 40
0.0
 40
0.2506244578
 40
0.5008987832
 40
0.7509301063
 40
1.0
 40
1.0
 40
1.0
 40
1.0
 10
4.8663602394
 20
5.3286683271
 30
0.0
 10
4.8678954078
 20
5.3283057203
 30
0.0
 10
4.870915025
 20
5.327344234
 30
0.0
 10
4.8751357577
 20
5.3251743908
 30
0.0
 10
4.8789728867
 20
5.322403202
 30
0.0
 10
4.8812350348
 20
5.3202071163
 30
0.0
 10
4.8822884625
 20
5.3190461926
 30
0.0
  0
SPLINE
  5
400
100
AcDbEntity
  8
ALL_ASSEMBLY_MEMBERS
100
AcDbSpline
 62
7
  6
CONTINUOUS
 70
0
 71
3
 72
9
 73
5
 74
0
 42
0.0000001
 43
0.0000001
 44
0.0000000001
 40
0.0
 40
0.0
 40
0.0
 40
0.0
 40
0.250609723
 40
1.0
 40
1.0
 40
1.0
 40
1.0
 10
4.8822884625
 20
5.3190461926
 30
0.0
 10
4.8827255169
 20
5.3185645395
 30
0.0
 10
4.8844194658
 20
5.3165973417
 30
0.0
 10
4.8859221538
 20
5.3144692054
 30
0.0
 10
4.8869519646
 20
5.3128193913
 30
0.0
  0
SPLINE
  5
401
100
AcDbEntity
  8
ALL_ASSEMBLY_MEMBERS
100
AcDbSpline
 62
7
  6
CONTINUOUS
 70
0
 71
3
 72
9
 73
5
 74
0
 42
0.0000001
 43
0.0000001
 44
0.0000000001
 40
0.0
 40
0.0
 40
0.0
 40
0.0
 40
0.2497505556
 40
1.0
 40
1.0
 40
1.0
 40
1.0
 10
4.8292834161
 20
5.3115880542
 30
0.0
 10
4.829560179
 20
5.3120836247
 30
0.0
 10
4.8307010776
 20
5.3140491954
 30
0.0
 10
4.8319836507
 20
5.315934363
 30
0.0
 10
4.8330330023
 20
5.3172783419
 30
0.0
  0
SPLINE
  5
402
100
AcDbEntity
  8
ALL_ASSEMBLY_MEMBERS
100
AcDbSpline
 62
7
  6
CONTINUOUS
 70
0
 71
3
 72
9
 73
5
 74
0
 42
0.0000001
 43
0.0000001
 44
0.0000000001
 40
0.0
 40
0.0
 40
0.0
 40
0.0
 40
0.7497096004
 40
1.0
 40
1.0
 40
1.0
 40
1.0
 10
4.8330330023
 20
5.3172783419
 30
0.0
 10
4.8338668597
 20
5.3183463221
 30
0.0
 10
4.8350551448
 20
5.3197149196
 30
0.0
 10
4.8363446006
 20
5.3209816962
 30
0.0
 10
4.8366737825
 20
5.3212919554
 30
0.0
  0
SPLINE
  5
403
100
AcDbEntity
  8
ALL_ASSEMBLY_MEMBERS
100
AcDbSpline
 62
7
  6
CONTINUOUS
 70
0
 71
3
 72
11
 73
7
 74
0
 42
0.0000001
 43
0.0000001
 44
0.0000000001
 40
0.0
 40
0.0
 40
0.0
 40
0.0
 40
0.24928195
 40
0.4991611146
 40
0.7494173043
 40
1.0
 40
1.0
 40
1.0
 40
1.0
 10
4.8366737825
 20
5.3212919554
 30
0.0
 10
4.8373998171
 20
5.3219762543
 30
0.0
 10
4.8389177709
 20
5.323280599
 30
0.0
 10
4.8413791057
 20
5.3250031859
 30
0.0
 10
4.8440064975
 20
5.3264714088
 30
0.0
 10
4.845854062
 20
5.3272600561
 30
0.0
 10
4.8467953603
 20
5.327606125
 30
0.0
  0
SPLINE
  5
404
100
AcDbEntity
  8
ALL_ASSEMBLY_MEMBERS
100
AcDbSpline
 62
7
  6
CONTINUOUS
 70
0
 71
3
 72
9
 73
5
 74
0
 42
0.0000001
 43
0.0000001
 44
0.0000000001
 40
0.0
 40
0.0
 40
0.0
 40
0.0
 40
0.4997206379
 40
1.0
 40
1.0
 40
1.0
 40
1.0
 10
4.8467953603
 20
5.327606125
 30
0.0
 10
4.8486729521
 20
5.3282964227
 30
0.0
 10
4.8525795168
 20
5.3292966969
 30
0.0
 10
4.8565925072
 20
5.3295726613
 30
0.0
 10
4.8585951929
 20
5.329564572
 30
0.0
  0
SPLINE
  5
405
100
AcDbEntity
  8
ALL_ASSEMBLY_MEMBERS
100
AcDbSpline
 62
7
  6
CONTINUOUS
 70
0
 71
3
 72
11
 73
7
 74
0
 42
0.0000001
 43
0.0000001
 44
0.0000000001
 40
0.0
 40
0.0
 40
0.0
 40
0.0
 40
0.2497774743
 40
0.499649485
 40
0.7496873409
 40
1.0
 40
1.0
 40
1.0
 40
1.0
 10
4.8192058692
 20
5.2698565111
 30
0.0
 10
4.8192058692
 20
5.2734682247
 30
0.0
 10
4.8195549875
 20
5.2806998551
 30
0.0
 10
4.8213105061
 20
5.2914241972
 30
0.0
 10
4.8244516442
 20
5.3018417219
 30
0.0
 10
4.8275186133
 20
5.308428006
 30
0.0
 10
4.8292834161
 20
5.3115880542
 30
0.0
  0
LINE
  5
406
100
AcDbEntity
  8
ALL_ASSEMBLY_MEMBERS
100
AcDbLine
 62
7
  6
CONTINUOUS
 10
5.2226305892
 20
5.150906189
 11
5.2322061447
 21
5.1428713439
  0
SPLINE
  5
407
100
AcDbEntity
  8
ALL_ASSEMBLY_MEMBERS
100
AcDbSpline
 62
7
  6
CONTINUOUS
 70
0
 71
3
 72
11
 73
7
 74
0
 42
0.0000001
 43
0.0000001
 44
0.0000000001
 40
0.0
 40
0.0
 40
0.0
 40
0.0
 40
0.2493339763
 40
0.49925164
 40
0.7495163269
 40
1.0
 40
1.0
 40
1.0
 40
1.0
 10
5.3838575036
 20
4.8438866505
 30
0.0
 10
5.3856343098
 20
4.8431070131
 30
0.0
 10
5.3890443153
 20
4.8412051269
 30
0.0
 10
5.3937585005
 20
4.83775777
 30
0.0
 10
5.3981713547
 20
4.8339218672
 30
0.0
 10
5.4009509296
 20
4.8311878606
 30
0.0
 10
5.402308243
 20
4.8297887984
 30
0.0
  0
SPLINE
  5
408
100
AcDbEntity
  8
ALL_ASSEMBLY_MEMBERS
100
AcDbSpline
 62
7
  6
CONTINUOUS
 70
0
 71
3
 72
9
 73
5
 74
0
 42
0.0000001
 43
0.0000001
 44
0.0000000001
 40
0.0
 40
0.0
 40
0.0
 40
0.0
 40
0.4988637996
 40
1.0
 40
1.0
 40
1.0
 40
1.0
 10
5.3661951223
 20
4.8449795763
 30
0.0
 10
5.3690806701
 20
4.8457527565
 30
0.0
 10
5.3751347066
 20
4.8465342329
 30
0.0
 10
5.3811094633
 20
4.8450924515
 30
0.0
 10
5.3838575036
 20
4.8438866505
 30
0.0
  0
SPLINE
  5
409
100
AcDbEntity
  8
ALL_ASSEMBLY_MEMBERS
100
AcDbSpline
 62
7
  6
CONTINUOUS
 70
0
 71
3
 72
9
 73
5
 74
0
 42
0.0000001
 43
0.0000001
 44
0.0000000001
 40
0.0
 40
0.0
 40
0.0
 40
0.0
 40
0.5006934839
 40
1.0
 40
1.0
 40
1.0
 40
1.0
 10
5.4007192479
 20
4.7871384056
 30
0.0
 10
5.3986286768
 20
4.7849838472
 30
0.0
 10
5.3940219154
 20
4.7810581222
 30
0.0
 10
5.3884658318
 20
4.7785189443
 30
0.0
 10
5.3855740578
 20
4.7777440958
 30
0.0
  0
SPLINE
  5
40A
100
AcDbEntity
  8
ALL_ASSEMBLY_MEMBERS
100
AcDbSpline
 62
7
  6
CONTINUOUS
 70
0
 71
3
 72
11
 73
7
 74
0
 42
0.0000001
 43
0.0000001
 44
0.0000000001
 40
0.0
 40
0.0
 40
0.0
 40
0.0
 40
0.2505605717
 40
0.5008979259
 40
0.7508000143
 40
1.0
 40
1.0
 40
1.0
 40
1.0
 10
5.4133002862
 20
4.8122142715
 30
0.0
 10
5.4125895001
 20
4.8099636107
 30
0.0
 10
5.4110709308
 20
4.8054943245
 30
0.0
 10
5.4083915231
 20
4.7989408077
 30
0.0
 10
5.4051399364
 20
4.7926662348
 30
0.0
 10
5.4023539156
 20
4.7888231065
 30
0.0
 10
5.4007192479
 20
4.7871384056
 30
0.0
  0
SPLINE
  5
40B
100
AcDbEntity
  8
ALL_ASSEMBLY_MEMBERS
100
AcDbSpline
 62
7
  6
CONTINUOUS
 70
0
 71
3
 72
13
 73
9
 74
0
 42
0.0000001
 43
0.0000001
 44
0.0000000001
 40
0.0
 40
0.0
 40
0.0
 40
0.0
 40
0.2509006996
 40
0.3762409755
 40
0.5013925378
 40
0.6263426563
 40
0.7511203426
 40
1.0
 40
1.0
 40
1.0
 40
1.0
 10
5.461126935
 20
4.8099385275
 30
0.0
 10
5.4604563788
 20
4.8083884675
 30
0.0
 10
5.4592309996
 20
4.8061446717
 30
0.0
 10
5.4571257551
 20
4.8034980959
 30
0.0
 10
5.4553158676
 20
4.801724879
 30
0.0
 10
5.4533072068
 20
4.8001864183
 30
0.0
 10
5.4504025641
 20
4.798491371
 30
0.0
 10
5.4480219737
 20
4.7976071065
 30
0.0
 10
5.4464037769
 20
4.797173512
 30
0.0
  0
SPLINE
  5
40C
100
AcDbEntity
  8
ALL_ASSEMBLY_MEMBERS
100
AcDbSpline
 62
7
  6
CONTINUOUS
 70
0
 71
3
 72
12
 73
8
 74
0
 42
0.0000001
 43
0.0000001
 44
0.0000000001
 40
0.0
 40
0.0
 40
0.0
 40
0.0
 40
0.2503559615
 40
0.5006890109
 40
0.6257968259
 40
0.7508893421
 40
1.0
 40
1.0
 40
1.0
 40
1.0
 10
5.4616408066
 20
4.8342085215
 30
0.0
 10
5.4621787707
 20
4.8322169082
 30
0.0
 10
5.4630638302
 20
4.8281780478
 30
0.0
 10
5.4635204087
 20
4.8230214409
 30
0.0
 10
5.4633705087
 20
4.8188937022
 30
0.0
 10
5.4628276815
 20
4.8148113822
 30
0.0
 10
5.4619419521
 20
4.8118225238
 30
0.0
 10
5.461126935
 20
4.8099385275
 30
0.0
  0
SPLINE
  5
40D
100
AcDbEntity
  8
ALL_ASSEMBLY_MEMBERS
100
AcDbSpline
 62
7
  6
CONTINUOUS
 70
0
 71
3
 72
9
 73
5
 74
0
 42
0.0000001
 43
0.0000001
 44
0.0000000001
 40
0.0
 40
0.0
 40
0.0
 40
0.0
 40
0.2492414464
 40
1.0
 40
1.0
 40
1.0
 40
1.0
 10
5.4473990837
 20
4.8551521894
 30
0.0
 10
5.4479755712
 20
4.8548109632
 30
0.0
 10
5.4502323666
 20
4.8533484146
 30
0.0
 10
5.4522580274
 20
4.851534942
 30
0.0
 10
5.4536075299
 20
4.8500347261
 30
0.0
  0
SPLINE
  5
40E
100
AcDbEntity
  8
ALL_ASSEMBLY_MEMBERS
100
AcDbSpline
 62
7
  6
CONTINUOUS
 70
0
 71
3
 72
9
 73
5
 74
0
 42
0.0000001
 43
0.0000001
 44
0.0000000001
 40
0.0
 40
0.0
 40
0.0
 40
0.0
 40
0.4997141776
 40
1.0
 40
1.0
 40
1.0
 40
1.0
 10
5.4536075299
 20
4.8500347261
 30
0.0
 10
5.4546008461
 20
4.8489304754
 30
0.0
 10
5.4564108134
 20
4.8465563102
 30
0.0
 10
5.4578750028
 20
4.8439602768
 30
0.0
 10
5.4585305597
 20
4.8426256077
 30
0.0
  0
SPLINE
  5
40F
100
AcDbEntity
  8
ALL_ASSEMBLY_MEMBERS
100
AcDbSpline
 62
7
  6
CONTINUOUS
 70
0
 71
3
 72
9
 73
5
 74
0
 42
0.0000001
 43
0.0000001
 44
0.0000000001
 40
0.0
 40
0.0
 40
0.0
 40
0.0
 40
0.2502394274
 40
1.0
 40
1.0
 40
1.0
 40
1.0
 10
5.4585305597
 20
4.8426256077
 30
0.0
 10
5.4588608519
 20
4.8419531554
 30
0.0
 10
5.460103207
 20
4.8392278607
 30
0.0
 10
5.4610554578
 20
4.8363755589
 30
0.0
 10
5.4616408066
 20
4.8342085215
 30
0.0
  0
SPLINE
  5
410
100
AcDbEntity
  8
ALL_ASSEMBLY_MEMBERS
100
AcDbSpline
 62
7
  6
CONTINUOUS
 70
0
 71
3
 72
13
 73
9
 74
0
 42
0.0000001
 43
0.0000001
 44
0.0000000001
 40
0.0
 40
0.0
 40
0.0
 40
0.0
 40
0.2488312676
 40
0.373618203
 40
0.4985781795
 40
0.6237335966
 40
0.7490861956
 40
1.0
 40
1.0
 40
1.0
 40
1.0
 10
5.4260789901
 20
4.8581561109
 30
0.0
 10
5.4278518394
 20
4.8586311445
 30
0.0
 10
5.4305874094
 20
4.859113604
 30
0.0
 10
5.4342696779
 20
4.8591901683
 30
0.0
 10
5.4370298323
 20
4.8589468564
 30
0.0
 10
5.4397527982
 20
4.8584123822
 30
0.0
 10
5.4432901517
 20
4.85731408
 30
0.0
 10
5.4458064199
 20
4.856094896
 30
0.0
 10
5.4473990837
 20
4.8551521894
 30
0.0
  0
SPLINE
  5
411
100
AcDbEntity
  8
ALL_ASSEMBLY_MEMBERS
100
AcDbSpline
 62
7
  6
CONTINUOUS
 70
0
 71
3
 72
9
 73
5
 74
0
 42
0.0000001
 43
0.0000001
 44
0.0000000001
 40
0.0
 40
0.0
 40
0.0
 40
0.0
 40
0.5005217451
 40
1.0
 40
1.0
 40
1.0
 40
1.0
 10
5.3904347199
 20
4.7136515105
 30
0.0
 10
5.3915206502
 20
4.7132571287
 30
0.0
 10
5.3937397599
 20
4.7125983385
 30
0.0
 10
5.3960244058
 20
4.7122238744
 30
0.0
 10
5.3971715132
 20
4.7121082619
 30
0.0
  0
SPLINE
  5
412
100
AcDbEntity
  8
ALL_ASSEMBLY_MEMBERS
100
AcDbSpline
 62
7
  6
CONTINUOUS
 70
0
 71
3
 72
9
 73
5
 74
0
 42
0.0000001
 43
0.0000001
 44
0.0000000001
 40
0.0
 40
0.0
 40
0.0
 40
0.0
 40
0.5001819869
 40
1.0
 40
1.0
 40
1.0
 40
1.0
 10
5.3971715132
 20
4.7121082619
 30
0.0
 10
5.3990817219
 20
4.7119157393
 30
0.0
 10
5.4029488703
 20
4.7119232702
 30
0.0
 10
5.4067396273
 20
4.7126393274
 30
0.0
 10
5.4085927453
 20
4.7131358689
 30
0.0
  0
SPLINE
  5
413
100
AcDbEntity
  8
ALL_ASSEMBLY_MEMBERS
100
AcDbSpline
 62
7
  6
CONTINUOUS
 70
0
 71
3
 72
13
 73
9
 74
0
 42
0.0000001
 43
0.0000001
 44
0.0000000001
 40
0.0
 40
0.0
 40
0.0
 40
0.0
 40
0.2510366153
 40
0.3765941088
 40
0.5018459431
 40
0.6269286096
 40
0.7516619393
 40
1.0
 40
1.0
 40
1.0
 40
1.0
 10
5.3766059263
 20
4.7275218961
 30
0.0
 10
5.3769929916
 20
4.7260646321
 30
0.0
 10
5.3778318188
 20
4.7239328915
 30
0.0
 10
5.3794447508
 20
4.7213790568
 30
0.0
 10
5.3808904962
 20
4.7196369179
 30
0.0
 10
5.3825252171
 20
4.7180798499
 30
0.0
 10
5.3849088274
 20
4.7162636132
 30
0.0
 10
5.3868839883
 20
4.7151745476
 30
0.0
 10
5.3882395903
 20
4.7145523205
 30
0.0
  0
SPLINE
  5
414
100
AcDbEntity
  8
ALL_ASSEMBLY_MEMBERS
100
AcDbSpline
 62
7
  6
CONTINUOUS
 70
0
 71
3
 72
9
 73
5
 74
0
 42
0.0000001
 43
0.0000001
 44
0.0000000001
 40
0.0
 40
0.0
 40
0.0
 40
0.0
 40
0.499346371
 40
1.0
 40
1.0
 40
1.0
 40
1.0
 10
5.3769445934
 20
4.7381318054
 30
0.0
 10
5.3763733105
 20
4.7364385661
 30
0.0
 10
5.3756857529
 20
4.7328636798
 30
0.0
 10
5.3761459808
 20
4.7292535473
 30
0.0
 10
5.3766059263
 20
4.7275218961
 30
0.0
  0
LINE
  5
415
100
AcDbEntity
  8
ALL_ASSEMBLY_MEMBERS
100
AcDbLine
 62
7
  6
CONTINUOUS
 10
5.3796676207
 20
4.7467795414
 11
5.3769445934
 21
4.7381318054
  0
SPLINE
  5
416
100
AcDbEntity
  8
ALL_ASSEMBLY_MEMBERS
100
AcDbSpline
 62
7
  6
CONTINUOUS
 70
0
 71
3
 72
9
 73
5
 74
0
 42
0.0000001
 43
0.0000001
 44
0.0000000001
 40
0.0
 40
0.0
 40
0.0
 40
0.0
 40
0.5005428404
 40
1.0
 40
1.0
 40
1.0
 40
1.0
 10
5.3800344068
 20
4.7550444334
 30
0.0
 10
5.3803935422
 20
4.7537002242
 30
0.0
 10
5.3805434105
 20
4.7508627372
 30
0.0
 10
5.3800168732
 20
4.7481232342
 30
0.0
 10
5.3796676207
 20
4.7467795414
 30
0.0
  0
SPLINE
  5
417
100
AcDbEntity
  8
ALL_ASSEMBLY_MEMBERS
100
AcDbSpline
 62
7
  6
CONTINUOUS
 70
0
 71
3
 72
9
 73
5
 74
0
 42
0.0000001
 43
0.0000001
 44
0.0000000001
 40
0.0
 40
0.0
 40
0.0
 40
0.0
 40
0.4986504805
 40
1.0
 40
1.0
 40
1.0
 40
1.0
 10
5.3761973175
 20
4.7604504052
 30
0.0
 10
5.3771998001
 20
4.7599364134
 30
0.0
 10
5.3789070689
 20
4.7582786925
 30
0.0
 10
5.3797420443
 20
4.7561387183
 30
0.0
 10
5.3800344068
 20
4.7550444334
 30
0.0
  0
SPLINE
  5
418
100
AcDbEntity
  8
ALL_ASSEMBLY_MEMBERS
100
AcDbSpline
 62
7
  6
CONTINUOUS
 70
0
 71
3
 72
9
 73
5
 74
0
 42
0.0000001
 43
0.0000001
 44
0.0000000001
 40
0.0
 40
0.0
 40
0.0
 40
0.0
 40
0.4988949084
 40
1.0
 40
1.0
 40
1.0
 40
1.0
 10
5.3706548112
 20
4.7610520071
 30
0.0
 10
5.3715668095
 20
4.7612963763
 30
0.0
 10
5.3735035731
 20
4.7614808819
 30
0.0
 10
5.3753534217
 20
4.7608830866
 30
0.0
 10
5.3761973175
 20
4.7604504052
 30
0.0
  0
SPLINE
  5
419
100
AcDbEntity
  8
ALL_ASSEMBLY_MEMBERS
100
AcDbSpline
 62
7
  6
CONTINUOUS
 70
0
 71
3
 72
13
 73
9
 74
0
 42
0.0000001
 43
0.0000001
 44
0.0000000001
 40
0.0
 40
0.0
 40
0.0
 40
0.0
 40
0.2508271358
 40
0.3761462637
 40
0.5012720283
 40
0.6262285669
 40
0.7510424561
 40
1.0
 40
1.0
 40
1.0
 40
1.0
 10
5.4447550093
 20
4.7200431673
 30
0.0
 10
5.443341942
 20
4.7178390226
 30
0.0
 10
5.4409477251
 20
4.7146939667
 30
0.0
 10
5.4372232005
 20
4.7110097505
 30
0.0
 10
5.4341738067
 20
4.7085383336
 30
0.0
 10
5.4309028789
 20
4.706378125
 30
0.0
 10
5.426290581
 20
4.7039502279
 30
0.0
 10
5.4225918409
 20
4.7026273599
 30
0.0
 10
5.4200816965
 20
4.7019547687
 30
0.0
  0
SPLINE
  5
41A
100
AcDbEntity
  8
ALL_ASSEMBLY_MEMBERS
100
AcDbSpline
 62
7
  6
CONTINUOUS
 70
0
 71
3
 72
13
 73
9
 74
0
 42
0.0000001
 43
0.0000001
 44
0.0000000001
 40
0.0
 40
0.0
 40
0.0
 40
0.0
 40
0.2504586406
 40
0.5007111813
 40
0.6257959687
 40
0.7507467896
 40
0.8755187025
 40
1.0
 40
1.0
 40
1.0
 40
1.0
 10
5.4500065577
 20
4.7613596618
 30
0.0
 10
5.4504837228
 20
4.7578474279
 30
0.0
 10
5.4511743245
 20
4.7507863404
 30
0.0
 10
5.4511160088
 20
4.7419029423
 30
0.0
 10
5.4502544718
 20
4.7348672363
 30
0.0
 10
5.4491067625
 20
4.7296779864
 30
0.0
 10
5.4473530197
 20
4.7246661153
 30
0.0
 10
5.4457057927
 20
4.721526228
 30
0.0
 10
5.4447550093
 20
4.7200431673
 30
0.0
  0
LINE
  5
41B
100
AcDbEntity
  8
ALL_ASSEMBLY_MEMBERS
100
AcDbLine
 62
7
  6
CONTINUOUS
 10
5.4699533999
 20
4.4896661287
 11
5.4677827977
 21
4.4773560318
  0
SPLINE
  5
41C
100
AcDbEntity
  8
ALL_ASSEMBLY_MEMBERS
100
AcDbSpline
 62
7
  6
CONTINUOUS
 70
0
 71
3
 72
10
 73
6
 74
0
 42
0.0000001
 43
0.0000001
 44
0.0000000001
 40
0.0
 40
0.0
 40
0.0
 40
0.0
 40
0.2506095838
 40
0.6273206417
 40
1.0
 40
1.0
 40
1.0
 40
1.0
 10
4.8467377618
 20
3.9362528822
 30
0.0
 10
4.8472652224
 20
3.9360907746
 30
0.0
 10
4.8485666656
 20
3.935618201
 30
0.0
 10
4.8504985485
 20
3.9345295844
 30
0.0
 10
4.8516854729
 20
3.9333220017
 30
0.0
 10
4.8521184991
 20
3.9326249666
 30
0.0
  0
LINE
  5
41D
100
AcDbEntity
  8
ALL_ASSEMBLY_MEMBERS
100
AcDbLine
 62
7
  6
CONTINUOUS
 10
5.303848003
 20
4.3039795704
 11
5.3658448996
 21
4.2194552748
  0
SPLINE
  5
41E
100
AcDbEntity
  8
ALL_ASSEMBLY_MEMBERS
100
AcDbSpline
 62
7
  6
CONTINUOUS
 70
0
 71
3
 72
11
 73
7
 74
0
 42
0.0000001
 43
0.0000001
 44
0.0000000001
 40
0.0
 40
0.0
 40
0.0
 40
0.0
 40
0.250582729
 40
0.5009218146
 40
0.751380794
 40
1.0
 40
1.0
 40
1.0
 40
1.0
 10
4.8495522319
 20
3.9897430126
 30
0.0
 10
4.8505470423
 20
3.989619965
 30
0.0
 10
4.8525277287
 20
3.9893013049
 30
0.0
 10
4.8554387392
 20
3.9885153838
 30
0.0
 10
4.858177983
 20
3.9872606407
 30
0.0
 10
4.8597782585
 20
3.9860078542
 30
0.0
 10
4.8604376221
 20
3.9852633119
 30
0.0
  0
LINE
  5
41F
100
AcDbEntity
  8
ALL_ASSEMBLY_MEMBERS
100
AcDbLine
 62
7
  6
CONTINUOUS
 10
5.3780893801
 20
4.2109017872
 11
5.3687439673
 21
4.1975349485
  0
LINE
  5
420
100
AcDbEntity
  8
ALL_ASSEMBLY_MEMBERS
100
AcDbLine
 62
7
  6
CONTINUOUS
 10
5.3954048144
 20
4.2675984593
 11
5.406265039
 21
4.2513365402
  0
SPLINE
  5
421
100
AcDbEntity
  8
ALL_ASSEMBLY_MEMBERS
100
AcDbSpline
 62
7
  6
CONTINUOUS
 70
0
 71
3
 72
12
 73
8
 74
0
 42
0.0000001
 43
0.0000001
 44
0.0000000001
 40
0.0
 40
0.0
 40
0.0
 40
0.0
 40
0.2505854232
 40
0.3758336667
 40
0.5008870252
 40
0.7505318626
 40
1.0
 40
1.0
 40
1.0
 40
1.0
 10
5.2517780505
 20
4.2050016067
 30
0.0
 10
5.2522380984
 20
4.2033250922
 30
0.0
 10
5.2531557247
 20
4.2008640549
 30
0.0
 10
5.2548150111
 20
4.1978063761
 30
0.0
 10
5.2567534499
 20
4.194924323
 30
0.0
 10
5.2596512484
 20
4.1916752424
 30
0.0
 10
5.262358004
 20
4.1894924183
 30
0.0
 10
5.2637757415
 20
4.1884997079
 30
0.0
  0
SPLINE
  5
422
100
AcDbEntity
  8
ALL_ASSEMBLY_MEMBERS
100
AcDbSpline
 62
7
  6
CONTINUOUS
 70
0
 71
3
 72
13
 73
9
 74
0
 42
0.0000001
 43
0.0000001
 44
0.0000000001
 40
0.0
 40
0.0
 40
0.0
 40
0.0
 40
0.2510366153
 40
0.3765941088
 40
0.5018459431
 40
0.6269286096
 40
0.7516619393
 40
1.0
 40
1.0
 40
1.0
 40
1.0
 10
5.2542353467
 20
4.2222501928
 30
0.0
 10
5.2533678185
 20
4.2210169724
 30
0.0
 10
5.2522739983
 20
4.219004137
 30
0.0
 10
5.25135442
 20
4.2161269861
 30
0.0
 10
5.2509491714
 20
4.2138996556
 30
0.0
 10
5.2508071665
 20
4.2116465227
 30
0.0
 10
5.2509480036
 20
4.2086531168
 30
0.0
 10
5.2513833399
 20
4.2064400179
 30
0.0
 10
5.2517780505
 20
4.2050016067
 30
0.0
  0
SPLINE
  5
423
100
AcDbEntity
  8
ALL_ASSEMBLY_MEMBERS
100
AcDbSpline
 62
7
  6
CONTINUOUS
 70
0
 71
3
 72
9
 73
5
 74
0
 42
0.0000001
 43
0.0000001
 44
0.0000000001
 40
0.0
 40
0.0
 40
0.0
 40
0.0
 40
0.499346371
 40
1.0
 40
1.0
 40
1.0
 40
1.0
 10
5.2625806998
 20
4.2288106771
 30
0.0
 10
5.2609163896
 20
4.2281599119
 30
0.0
 10
5.2577359143
 20
4.226388719
 30
0.0
 10
5.2552662212
 20
4.2237156155
 30
0.0
 10
5.2542353467
 20
4.2222501928
 30
0.0
  0
LINE
  5
424
100
AcDbEntity
  8
ALL_ASSEMBLY_MEMBERS
100
AcDbLine
 62
7
  6
CONTINUOUS
 10
5.2709555781
 20
4.2322833746
 11
5.2625806998
 21
4.2288106771
  0
SPLINE
  5
425
100
AcDbEntity
  8
ALL_ASSEMBLY_MEMBERS
100
AcDbSpline
 62
7
  6
CONTINUOUS
 70
0
 71
3
 72
9
 73
5
 74
0
 42
0.0000001
 43
0.0000001
 44
0.0000000001
 40
0.0
 40
0.0
 40
0.0
 40
0.0
 40
0.5005428404
 40
1.0
 40
1.0
 40
1.0
 40
1.0
 10
5.2775226183
 20
4.2373149704
 30
0.0
 10
5.2767237421
 20
4.2361758157
 30
0.0
 10
5.2746464344
 20
4.2342371084
 30
0.0
 10
5.2722094017
 20
4.2328795409
 30
0.0
 10
5.2709555781
 20
4.2322833746
 30
0.0
  0
SPLINE
  5
426
100
AcDbEntity
  8
ALL_ASSEMBLY_MEMBERS
100
AcDbSpline
 62
7
  6
CONTINUOUS
 70
0
 71
3
 72
9
 73
5
 74
0
 42
0.0000001
 43
0.0000001
 44
0.0000000001
 40
0.0
 40
0.0
 40
0.0
 40
0.0
 40
0.4986504805
 40
1.0
 40
1.0
 40
1.0
 40
1.0
 10
5.2791973995
 20
4.243729243
 30
0.0
 10
5.2794480422
 20
4.2426309092
 30
0.0
 10
5.2792755656
 20
4.2402575029
 30
0.0
 10
5.2781729621
 20
4.2382423258
 30
0.0
 10
5.2775226183
 20
4.2373149704
 30
0.0
  0
SPLINE
  5
427
100
AcDbEntity
  8
ALL_ASSEMBLY_MEMBERS
100
AcDbSpline
 62
7
  6
CONTINUOUS
 70
0
 71
3
 72
9
 73
5
 74
0
 42
0.0000001
 43
0.0000001
 44
0.0000000001
 40
0.0
 40
0.0
 40
0.0
 40
0.0
 40
0.4988949084
 40
1.0
 40
1.0
 40
1.0
 40
1.0
 10
5.2760955989
 20
4.2483617514
 30
0.0
 10
5.2768690178
 20
4.2478201977
 30
0.0
 10
5.2782552849
 20
4.2464551486
 30
0.0
 10
5.2789864069
 20
4.244653827
 30
0.0
 10
5.2791973995
 20
4.243729243
 30
0.0
  0
SPLINE
  5
428
100
AcDbEntity
  8
ALL_ASSEMBLY_MEMBERS
100
AcDbSpline
 62
7
  6
CONTINUOUS
 70
0
 71
3
 72
13
 73
9
 74
0
 42
0.0000001
 43
0.0000001
 44
0.0000000001
 40
0.0
 40
0.0
 40
0.0
 40
0.0
 40
0.2508271358
 40
0.3761462637
 40
0.5012720283
 40
0.6262285669
 40
0.7510424561
 40
1.0
 40
1.0
 40
1.0
 40
1.0
 10
5.2923116943
 20
4.1652377324
 30
0.0
 10
5.2897149193
 20
4.1649034077
 30
0.0
 10
5.2857666937
 20
4.1647158813
 30
0.0
 10
5.2805503421
 20
4.1652008642
 30
0.0
 10
5.2766970144
 20
4.1659482392
 30
0.0
 10
5.2729396867
 20
4.1670653599
 30
0.0
 10
5.2681150817
 20
4.169037963
 30
0.0
 10
5.2647242017
 20
4.1710210391
 30
0.0
 10
5.2625954773
 20
4.172511588
 30
0.0
  0
SPLINE
  5
429
100
AcDbEntity
  8
ALL_ASSEMBLY_MEMBERS
100
AcDbSpline
 62
7
  6
CONTINUOUS
 70
0
 71
3
 72
13
 73
9
 74
0
 42
0.0000001
 43
0.0000001
 44
0.0000000001
 40
0.0
 40
0.0
 40
0.0
 40
0.0
 40
0.2504586406
 40
0.5007111813
 40
0.6257959687
 40
0.7507467896
 40
0.8755187025
 40
1.0
 40
1.0
 40
1.0
 40
1.0
 10
5.3273375955
 20
4.1877725435
 30
0.0
 10
5.324953784
 20
4.1851493935
 30
0.0
 10
5.3199885874
 20
4.1800815823
 30
0.0
 10
5.3131460251
 20
4.1744161166
 30
0.0
 10
5.3072025763
 20
4.1705536275
 30
0.0
 10
5.3024896469
 20
4.1680972383
 30
0.0
 10
5.2975230468
 20
4.1662191146
 30
0.0
 10
5.2940589365
 20
4.165462683
 30
0.0
 10
5.2923116943
 20
4.1652377324
 30
0.0
  0
SPLINE
  5
42A
100
AcDbEntity
  8
ALL_ASSEMBLY_MEMBERS
100
AcDbSpline
 62
7
  6
CONTINUOUS
 70
0
 71
3
 72
11
 73
7
 74
0
 42
0.0000001
 43
0.0000001
 44
0.0000000001
 40
0.0
 40
0.0
 40
0.0
 40
0.0
 40
0.2487455068
 40
0.4985383774
 40
0.7490213442
 40
1.0
 40
1.0
 40
1.0
 40
1.0
 10
4.8521184991
 20
3.9318521731
 30
0.0
 10
4.8518273653
 20
3.9323197495
 30
0.0
 10
4.8511078857
 20
3.9331766805
 30
0.0
 10
4.8497685656
 20
3.9341723183
 30
0.0
 10
4.8482781833
 20
3.9349244567
 30
0.0
 10
4.8472300882
 20
3.9352981706
 30
0.0
 10
4.8466986203
 20
3.9354606524
 30
0.0
  0
SPLINE
  5
42B
100
AcDbEntity
  8
ALL_ASSEMBLY_MEMBERS
100
AcDbSpline
 62
7
  6
CONTINUOUS
 70
0
 71
3
 72
9
 73
5
 74
0
 42
0.0000001
 43
0.0000001
 44
0.0000000001
 40
0.0
 40
0.0
 40
0.0
 40
0.0
 40
0.7498022354
 40
1.0
 40
1.0
 40
1.0
 40
1.0
 10
4.8555274251
 20
3.9207524805
 30
0.0
 10
4.8554266556
 20
3.9220147555
 30
0.0
 10
4.8551969458
 20
3.9236942467
 30
0.0
 10
4.8548116473
 20
3.9253390324
 30
0.0
 10
4.8547049615
 20
3.9257478846
 30
0.0
  0
SPLINE
  5
42C
100
AcDbEntity
  8
ALL_ASSEMBLY_MEMBERS
100
AcDbSpline
 62
7
  6
CONTINUOUS
 70
0
 71
3
 72
9
 73
5
 74
0
 42
0.0000001
 43
0.0000001
 44
0.0000000001
 40
0.0
 40
0.0
 40
0.0
 40
0.0
 40
0.499653998
 40
1.0
 40
1.0
 40
1.0
 40
1.0
 10
4.8547049615
 20
3.9257478846
 30
0.0
 10
4.8544253722
 20
3.9268193548
 30
0.0
 10
4.853722123
 20
3.9289297363
 30
0.0
 10
4.8527046096
 20
3.9309108485
 30
0.0
 10
4.8521184991
 20
3.9318521731
 30
0.0
  0
LINE
  5
42D
100
AcDbEntity
  8
ALL_ASSEMBLY_MEMBERS
100
AcDbLine
 62
7
  6
CONTINUOUS
 10
4.859810699
 20
3.9207705341
 11
4.8555274251
 21
3.9207524805
  0
SPLINE
  5
42E
100
AcDbEntity
  8
ALL_ASSEMBLY_MEMBERS
100
AcDbSpline
 62
7
  6
CONTINUOUS
 70
0
 71
3
 72
13
 73
9
 74
0
 42
0.0000001
 43
0.0000001
 44
0.0000000001
 40
0.0
 40
0.0
 40
0.0
 40
0.0
 40
0.248658449
 40
0.3734580185
 40
0.4985439621
 40
0.6237891327
 40
0.7492410299
 40
1.0
 40
1.0
 40
1.0
 40
1.0
 10
4.2131391267
 20
4.8902586601
 30
0.0
 10
4.2139403754
 20
4.8889966394
 30
0.0
 10
4.2150077483
 20
4.8870048592
 30
0.0
 10
4.2160261263
 20
4.8841810619
 30
0.0
 10
4.2165528185
 20
4.8819831161
 30
0.0
 10
4.2168199553
 20
4.8797337503
 30
0.0
 10
4.2167919476
 20
4.8767129084
 30
0.0
 10
4.216337759
 20
4.8744675027
 30
0.0
 10
4.2158719104
 20
4.873033768
 30
0.0
  0
SPLINE
  5
42F
100
AcDbEntity
  8
ALL_ASSEMBLY_MEMBERS
100
AcDbSpline
 62
7
  6
CONTINUOUS
 70
0
 71
3
 72
9
 73
5
 74
0
 42
0.0000001
 43
0.0000001
 44
0.0000000001
 40
0.0
 40
0.0
 40
0.0
 40
0.0
 40
0.5004903257
 40
1.0
 40
1.0
 40
1.0
 40
1.0
 10
4.2149639735
 20
4.8707380296
 30
0.0
 10
4.2144620793
 20
4.8696749726
 30
0.0
 10
4.2132486387
 20
4.8676426102
 30
0.0
 10
4.2116471877
 20
4.8659008518
 30
0.0
 10
4.2107762131
 20
4.8651147342
 30
0.0
  0
SPLINE
  5
430
100
AcDbEntity
  8
ALL_ASSEMBLY_MEMBERS
100
AcDbSpline
 62
7
  6
CONTINUOUS
 70
0
 71
3
 72
12
 73
8
 74
0
 42
0.0000001
 43
0.0000001
 44
0.0000000001
 40
0.0
 40
0.0
 40
0.0
 40
0.0
 40
0.2487006648
 40
0.4990843818
 40
0.6242260686
 40
0.7494525474
 40
1.0
 40
1.0
 40
1.0
 40
1.0
 10
4.8604376221
 20
3.9845417402
 30
0.0
 10
4.8597749397
 20
3.9852871046
 30
0.0
 10
4.8581669781
 20
3.9865396328
 30
0.0
 10
4.8558712394
 20
3.9875706485
 30
0.0
 10
4.8539505198
 20
3.9881616568
 30
0.0
 10
4.8519954784
 20
3.9886276443
 30
0.0
 10
4.8505040426
 20
3.9888618478
 30
0.0
 10
4.8495061086
 20
3.9889787742
 30
0.0
  0
SPLINE
  5
431
100
AcDbEntity
  8
ALL_ASSEMBLY_MEMBERS
100
AcDbSpline
 62
7
  6
CONTINUOUS
 70
0
 71
3
 72
9
 73
5
 74
0
 42
0.0000001
 43
0.0000001
 44
0.0000000001
 40
0.0
 40
0.0
 40
0.0
 40
0.0
 40
0.4999237644
 40
1.0
 40
1.0
 40
1.0
 40
1.0
 10
4.865773691
 20
3.9710679325
 30
0.0
 10
4.8655882006
 20
3.9724850197
 30
0.0
 10
4.865079894
 20
3.9753040968
 30
0.0
 10
4.8642024742
 20
3.9780396936
 30
0.0
 10
4.8636439405
 20
3.9793556833
 30
0.0
  0
SPLINE
  5
432
100
AcDbEntity
  8
ALL_ASSEMBLY_MEMBERS
100
AcDbSpline
 62
7
  6
CONTINUOUS
 70
0
 71
3
 72
9
 73
5
 74
0
 42
0.0000001
 43
0.0000001
 44
0.0000000001
 40
0.0
 40
0.0
 40
0.0
 40
0.0
 40
0.4995193573
 40
1.0
 40
1.0
 40
1.0
 40
1.0
 10
4.8636439405
 20
3.9793556833
 30
0.0
 10
4.8632459908
 20
3.9802933129
 30
0.0
 10
4.8623242529
 20
3.9821207826
 30
0.0
 10
4.8611157127
 20
3.9837790453
 30
0.0
 10
4.8604376221
 20
3.9845417402
 30
0.0
  0
LINE
  5
433
100
AcDbEntity
  8
ALL_ASSEMBLY_MEMBERS
100
AcDbLine
 62
7
  6
CONTINUOUS
 10
4.8700569648
 20
3.97108972
 11
4.865773691
 21
3.9710679325
  0
LINE
  5
434
100
AcDbEntity
  8
ALL_ASSEMBLY_MEMBERS
100
AcDbLine
 62
7
  6
CONTINUOUS
 10
4.2098278292
 20
4.8643123622
 11
4.2028438772
 21
4.858539115
  0
SPLINE
  5
435
100
AcDbEntity
  8
ALL_ASSEMBLY_MEMBERS
100
AcDbSpline
 62
7
  6
CONTINUOUS
 70
0
 71
3
 72
10
 73
6
 74
0
 42
0.0000001
 43
0.0000001
 44
0.0000000001
 40
0.0
 40
0.0
 40
0.0
 40
0.0
 40
0.2876767798
 40
0.5473529254
 40
1.0
 40
1.0
 40
1.0
 40
1.0
 10
4.2028438772
 20
4.858539115
 30
0.0
 10
4.2022537105
 20
4.8579986843
 30
0.0
 10
4.2011698513
 20
4.8569243068
 30
0.0
 10
4.1994048054
 20
4.8547738843
 30
0.0
 10
4.1984308736
 20
4.8530024197
 30
0.0
 10
4.1980417836
 20
4.8518049237
 30
0.0
  0
SPLINE
  5
436
100
AcDbEntity
  8
ALL_ASSEMBLY_MEMBERS
100
AcDbSpline
 62
7
  6
CONTINUOUS
 70
0
 71
3
 72
11
 73
7
 74
0
 42
0.0000001
 43
0.0000001
 44
0.0000000001
 40
0.0
 40
0.0
 40
0.0
 40
0.0
 40
0.2870409588
 40
0.5435906091
 40
0.7778840706
 40
1.0
 40
1.0
 40
1.0
 40
1.0
 10
4.1980417836
 20
4.8518049237
 30
0.0
 10
4.1978401727
 20
4.8511844292
 30
0.0
 10
4.1975390587
 20
4.8499796619
 30
0.0
 10
4.1974228158
 20
4.8482041707
 30
0.0
 10
4.197664871
 20
4.8465879899
 30
0.0
 10
4.1980673108
 20
4.8456179774
 30
0.0
 10
4.1983187046
 20
4.8451801639
 30
0.0
  0
SPLINE
  5
437
100
AcDbEntity
  8
ALL_ASSEMBLY_MEMBERS
100
AcDbSpline
 62
7
  6
CONTINUOUS
 70
0
 71
3
 72
14
 73
10
 74
0
 42
0.0000001
 43
0.0000001
 44
0.0000000001
 40
0.0
 40
0.0
 40
0.0
 40
0.0
 40
0.0988238485
 40
0.2028344599
 40
0.3134427589
 40
0.4318312705
 40
0.5589724218
 40
0.6956583385
 40
1.0
 40
1.0
 40
1.0
 40
1.0
 10
4.1627318904
 20
4.916439134
 30
0.0
 10
4.1614593695
 20
4.9158612275
 30
0.0
 10
4.158927212
 20
4.9144928868
 30
0.0
 10
4.1553113401
 20
4.9119121359
 30
0.0
 10
4.1517981492
 20
4.9087627247
 30
0.0
 10
4.1483886794
 20
4.9050462591
 30
0.0
 10
4.1450823186
 20
4.9007626435
 30
0.0
 10
4.1406532362
 20
4.8940517862
 30
0.0
 10
4.1377403066
 20
4.8885160711
 30
0.0
 10
4.1359082169
 20
4.884621365
 30
0.0
  0
SPLINE
  5
438
100
AcDbEntity
  8
ALL_ASSEMBLY_MEMBERS
100
AcDbSpline
 62
7
  6
CONTINUOUS
 70
0
 71
3
 72
9
 73
5
 74
0
 42
0.0000001
 43
0.0000001
 44
0.0000000001
 40
0.0
 40
0.0
 40
0.0
 40
0.0
 40
0.2480486592
 40
1.0
 40
1.0
 40
1.0
 40
1.0
 10
4.1873761058
 20
4.7850656629
 30
0.0
 10
4.1874413265
 20
4.78487428
 30
0.0
 10
4.1876486235
 20
4.7840831334
 30
0.0
 10
4.1876679961
 20
4.7832567504
 30
0.0
 10
4.1876448731
 20
4.7826442517
 30
0.0
  0
SPLINE
  5
439
100
AcDbEntity
  8
ALL_ASSEMBLY_MEMBERS
100
AcDbSpline
 62
7
  6
CONTINUOUS
 70
0
 71
3
 72
12
 73
8
 74
0
 42
0.0000001
 43
0.0000001
 44
0.0000000001
 40
0.0
 40
0.0
 40
0.0
 40
0.0
 40
0.2502422294
 40
0.3750543983
 40
0.499939255
 40
0.7499351481
 40
1.0
 40
1.0
 40
1.0
 40
1.0
 10
4.1876448731
 20
4.7826442517
 30
0.0
 10
4.1876141215
 20
4.7818296795
 30
0.0
 10
4.1874635509
 20
4.7806122311
 30
0.0
 10
4.1871413762
 20
4.7790161013
 30
0.0
 10
4.1867708545
 20
4.7774307826
 30
0.0
 10
4.1862338292
 20
4.7754664938
 30
0.0
 10
4.1857475376
 20
4.7739115969
 30
0.0
 10
4.1854958202
 20
4.7731368903
 30
0.0
  0
SPLINE
  5
43A
100
AcDbEntity
  8
ALL_ASSEMBLY_MEMBERS
100
AcDbSpline
 62
7
  6
CONTINUOUS
 70
0
 71
3
 72
11
 73
7
 74
0
 42
0.0000001
 43
0.0000001
 44
0.0000000001
 40
0.0
 40
0.0
 40
0.0
 40
0.0
 40
0.2497774743
 40
0.499649485
 40
0.7496873409
 40
1.0
 40
1.0
 40
1.0
 40
1.0
 10
4.176027568
 20
4.3136792979
 30
0.0
 10
4.1728997323
 20
4.3118734411
 30
0.0
 10
4.1664623976
 20
4.3085599713
 30
0.0
 10
4.1562970856
 20
4.3047181238
 30
0.0
 10
4.1457046755
 20
4.3022296669
 30
0.0
 10
4.1384673016
 20
4.301592598
 30
0.0
 10
4.1348482181
 20
4.301540938
 30
0.0
  0
SPLINE
  5
43B
100
AcDbEntity
  8
ALL_ASSEMBLY_MEMBERS
100
AcDbSpline
 62
7
  6
CONTINUOUS
 70
0
 71
3
 72
12
 73
8
 74
0
 42
0.0000001
 43
0.0000001
 44
0.0000000001
 40
0.0
 40
0.0
 40
0.0
 40
0.0
 40
0.2487246999
 40
0.4981504449
 40
0.7484465483
 40
0.8741058868
 40
1.0
 40
1.0
 40
1.0
 40
1.0
 10
4.1348482181
 20
4.301540938
 30
0.0
 10
4.1326393289
 20
4.3015094075
 30
0.0
 10
4.1282021148
 20
4.3017329439
 30
0.0
 10
4.1216753402
 20
4.3031823242
 30
0.0
 10
4.1165799148
 20
4.3055215053
 30
0.0
 10
4.1129062671
 20
4.3080604613
 30
0.0
 10
4.1112235433
 20
4.3095390608
 30
0.0
 10
4.1104246498
 20
4.3103214004
 30
0.0
  0
SPLINE
  5
43C
100
AcDbEntity
  8
ALL_ASSEMBLY_MEMBERS
100
AcDbSpline
 62
7
  6
CONTINUOUS
 70
0
 71
3
 72
9
 73
5
 74
0
 42
0.0000001
 43
0.0000001
 44
0.0000000001
 40
0.0
 40
0.0
 40
0.0
 40
0.0
 40
0.4998803358
 40
1.0
 40
1.0
 40
1.0
 40
1.0
 10
4.1104246498
 20
4.3103214004
 30
0.0
 10
4.1093556022
 20
4.3113682962
 30
0.0
 10
4.1073691223
 20
4.3136226204
 30
0.0
 10
4.105698044
 20
4.3161155759
 30
0.0
 10
4.1049350134
 20
4.3174035132
 30
0.0
  0
SPLINE
  5
43D
100
AcDbEntity
  8
ALL_ASSEMBLY_MEMBERS
100
AcDbSpline
 62
7
  6
CONTINUOUS
 70
0
 71
3
 72
15
 73
11
 74
0
 42
0.0000001
 43
0.0000001
 44
0.0000000001
 40
0.0
 40
0.0
 40
0.0
 40
0.0
 40
0.1242927224
 40
0.1867938511
 40
0.2491323784
 40
0.3738770533
 40
0.4987960722
 40
0.6239190566
 40
0.749188961
 40
1.0
 40
1.0
 40
1.0
 40
1.0
 10
5.4351096371
 20
4.846316321
 30
0.0
 10
5.433755667
 20
4.8459535258
 30
0.0
 10
5.4317978495
 20
4.8450848714
 30
0.0
 10
5.4294770435
 20
4.8434963929
 30
0.0
 10
5.4273392384
 20
4.8416568341
 30
0.0
 10
5.4250059157
 20
4.8390023172
 30
0.0
 10
5.4226325586
 20
4.8354962898
 30
0.0
 10
5.420596813
 20
4.831779718
 30
0.0
 10
5.4182376174
 20
4.8266398534
 30
0.0
 10
5.4167845083
 20
4.8226470847
 30
0.0
 10
5.4159112404
 20
4.8199566971
 30
0.0
  0
LINE
  5
43E
100
AcDbEntity
  8
ALL_ASSEMBLY_MEMBERS
100
AcDbLine
 62
7
  6
CONTINUOUS
 10
4.2002630914
 20
4.818585878
 11
4.1977349786
 21
4.8124351033
  0
SPLINE
  5
43F
100
AcDbEntity
  8
ALL_ASSEMBLY_MEMBERS
100
AcDbSpline
 62
7
  6
CONTINUOUS
 70
0
 71
3
 72
11
 73
7
 74
0
 42
0.0000001
 43
0.0000001
 44
0.0000000001
 40
0.0
 40
0.0
 40
0.0
 40
0.0
 40
0.2487672996
 40
0.4979532237
 40
0.7494205411
 40
1.0
 40
1.0
 40
1.0
 40
1.0
 10
4.1977349786
 20
4.8124351033
 30
0.0
 10
4.1975202034
 20
4.8119841436
 30
0.0
 10
4.1970766057
 20
4.8110878757
 30
0.0
 10
4.1963316849
 20
4.8097783946
 30
0.0
 10
4.1954885558
 20
4.8085285049
 30
0.0
 10
4.1948226554
 20
4.8077575894
 30
0.0
 10
4.1944348345
 20
4.8074370646
 30
0.0
  0
LINE
  5
440
100
AcDbEntity
  8
ALL_ASSEMBLY_MEMBERS
100
AcDbLine
 62
7
  6
CONTINUOUS
 10
4.1944348345
 20
4.8074370646
 11
4.1939101214
 21
4.8070684678
  0
SPLINE
  5
441
100
AcDbEntity
  8
ALL_ASSEMBLY_MEMBERS
100
AcDbSpline
 62
7
  6
CONTINUOUS
 70
0
 71
3
 72
9
 73
5
 74
0
 42
0.0000001
 43
0.0000001
 44
0.0000000001
 40
0.0
 40
0.0
 40
0.0
 40
0.0
 40
0.5005721628
 40
1.0
 40
1.0
 40
1.0
 40
1.0
 10
5.4314576716
 20
4.8104530729
 30
0.0
 10
5.4334453786
 20
4.8099638531
 30
0.0
 10
5.4375685013
 20
4.8095256896
 30
0.0
 10
5.4416519007
 20
4.810159785
 30
0.0
 10
5.4436246558
 20
4.8106883831
 30
0.0
  0
SPLINE
  5
442
100
AcDbEntity
  8
ALL_ASSEMBLY_MEMBERS
100
AcDbSpline
 62
7
  6
CONTINUOUS
 70
0
 71
3
 72
9
 73
5
 74
0
 42
0.0000001
 43
0.0000001
 44
0.0000000001
 40
0.0
 40
0.0
 40
0.0
 40
0.0
 40
0.5003527837
 40
1.0
 40
1.0
 40
1.0
 40
1.0
 10
5.4159112404
 20
4.8199566971
 30
0.0
 10
5.4172682045
 20
4.8188131851
 30
0.0
 10
5.4200349246
 20
4.816592029
 30
0.0
 10
5.4229510019
 20
4.8145630527
 30
0.0
 10
5.4244608612
 20
4.8136354636
 30
0.0
  0
SPLINE
  5
443
100
AcDbEntity
  8
ALL_ASSEMBLY_MEMBERS
100
AcDbSpline
 62
7
  6
CONTINUOUS
 70
0
 71
3
 72
9
 73
5
 74
0
 42
0.0000001
 43
0.0000001
 44
0.0000000001
 40
0.0
 40
0.0
 40
0.0
 40
0.0
 40
0.500710494
 40
1.0
 40
1.0
 40
1.0
 40
1.0
 10
5.4244608612
 20
4.8136354636
 30
0.0
 10
5.4255569653
 20
4.8129620669
 30
0.0
 10
5.4278014667
 20
4.8117075378
 30
0.0
 10
5.430212063
 20
4.8107596455
 30
0.0
 10
5.4314576716
 20
4.8104530729
 30
0.0
  0
SPLINE
  5
444
100
AcDbEntity
  8
ALL_ASSEMBLY_MEMBERS
100
AcDbSpline
 62
7
  6
CONTINUOUS
 70
0
 71
3
 72
9
 73
5
 74
0
 42
0.0000001
 43
0.0000001
 44
0.0000000001
 40
0.0
 40
0.0
 40
0.0
 40
0.0
 40
0.2480486614
 40
1.0
 40
1.0
 40
1.0
 40
1.0
 10
4.1609040167
 20
4.7035929501
 30
0.0
 10
4.1609692374
 20
4.7034015672
 30
0.0
 10
4.1611765344
 20
4.7026104208
 30
0.0
 10
4.1611959071
 20
4.701784038
 30
0.0
 10
4.1611727842
 20
4.7011715393
 30
0.0
  0
SPLINE
  5
445
100
AcDbEntity
  8
ALL_ASSEMBLY_MEMBERS
100
AcDbSpline
 62
7
  6
CONTINUOUS
 70
0
 71
3
 72
12
 73
8
 74
0
 42
0.0000001
 43
0.0000001
 44
0.0000000001
 40
0.0
 40
0.0
 40
0.0
 40
0.0
 40
0.2502422279
 40
0.375054398
 40
0.4999392556
 40
0.7499351487
 40
1.0
 40
1.0
 40
1.0
 40
1.0
 10
4.1611727842
 20
4.7011715393
 30
0.0
 10
4.1611420326
 20
4.7003569668
 30
0.0
 10
4.160991462
 20
4.6991395179
 30
0.0
 10
4.1606692869
 20
4.6975433874
 30
0.0
 10
4.1602987649
 20
4.6959580681
 30
0.0
 10
4.1597617394
 20
4.6939937786
 30
0.0
 10
4.1592754475
 20
4.692438881
 30
0.0
 10
4.15902373
 20
4.6916641741
 30
0.0
  0
LINE
  5
446
100
AcDbEntity
  8
ALL_ASSEMBLY_MEMBERS
100
AcDbLine
 62
7
  6
CONTINUOUS
 10
4.1737910034
 20
4.7371131685
 11
4.1712628905
 21
4.7309623931
  0
SPLINE
  5
447
100
AcDbEntity
  8
ALL_ASSEMBLY_MEMBERS
100
AcDbSpline
 62
7
  6
CONTINUOUS
 70
0
 71
3
 72
11
 73
7
 74
0
 42
0.0000001
 43
0.0000001
 44
0.0000000001
 40
0.0
 40
0.0
 40
0.0
 40
0.0
 40
0.2487673278
 40
0.4979532652
 40
0.7494205558
 40
1.0
 40
1.0
 40
1.0
 40
1.0
 10
4.1712628905
 20
4.7309623931
 30
0.0
 10
4.1710481151
 20
4.7305114332
 30
0.0
 10
4.1706045172
 20
4.7296151649
 30
0.0
 10
4.1698595958
 20
4.7283056835
 30
0.0
 10
4.1690164657
 20
4.7270557938
 30
0.0
 10
4.1683505646
 20
4.7262848787
 30
0.0
 10
4.1679627437
 20
4.7259643536
 30
0.0
  0
LINE
  5
448
100
AcDbEntity
  8
ALL_ASSEMBLY_MEMBERS
100
AcDbLine
 62
7
  6
CONTINUOUS
 10
4.1679627437
 20
4.7259643536
 11
4.1674380292
 21
4.7255957551
  0
SPLINE
  5
449
100
AcDbEntity
  8
ALL_ASSEMBLY_MEMBERS
100
AcDbSpline
 62
7
  6
CONTINUOUS
 70
0
 71
3
 72
12
 73
8
 74
0
 42
0.0000001
 43
0.0000001
 44
0.0000000001
 40
0.0
 40
0.0
 40
0.0
 40
0.0
 40
0.251115713
 40
0.3765838497
 40
0.5016560562
 40
0.7510765224
 40
1.0
 40
1.0
 40
1.0
 40
1.0
 10
5.3625496949
 20
4.7912230366
 30
0.0
 10
5.3635859939
 20
4.7905602098
 30
0.0
 10
5.3652728854
 20
4.7897548934
 30
0.0
 10
5.3676508497
 20
4.789117909
 30
0.0
 10
5.3700813802
 20
4.7887743915
 30
0.0
 10
5.3731558493
 20
4.7888417562
 30
0.0
 10
5.3755600321
 20
4.7893203741
 30
0.0
 10
5.376737887
 20
4.7896359794
 30
0.0
  0
SPLINE
  5
44A
100
AcDbEntity
  8
ALL_ASSEMBLY_MEMBERS
100
AcDbSpline
 62
7
  6
CONTINUOUS
 70
0
 71
3
 72
12
 73
8
 74
0
 42
0.0000001
 43
0.0000001
 44
0.0000000001
 40
0.0
 40
0.0
 40
0.0
 40
0.0
 40
0.2503412301
 40
0.5006738051
 40
0.625817694
 40
0.7508831025
 40
1.0
 40
1.0
 40
1.0
 40
1.0
 10
5.3544914548
 20
4.8027138055
 30
0.0
 10
5.3548042079
 20
4.8015569441
 30
0.0
 10
5.3555851876
 20
4.799280164
 30
0.0
 10
5.3570346324
 20
4.7966372992
 30
0.0
 10
5.3584849282
 20
4.7947248964
 30
0.0
 10
5.3601229474
 20
4.7929795863
 30
0.0
 10
5.3615450822
 20
4.7918655965
 30
0.0
 10
5.3625496949
 20
4.7912230366
 30
0.0
  0
SPLINE
  5
44B
100
AcDbEntity
  8
ALL_ASSEMBLY_MEMBERS
100
AcDbSpline
 62
7
  6
CONTINUOUS
 70
0
 71
3
 72
11
 73
7
 74
0
 42
0.0000001
 43
0.0000001
 44
0.0000000001
 40
0.0
 40
0.0
 40
0.0
 40
0.0
 40
0.2488570824
 40
0.4985608347
 40
0.7490419651
 40
1.0
 40
1.0
 40
1.0
 40
1.0
 10
5.3567283838
 20
4.8209652387
 30
0.0
 10
5.3559600805
 20
4.819602123
 30
0.0
 10
5.3546453045
 20
4.8167337522
 30
0.0
 10
5.353567993
 20
4.8121131958
 30
0.0
 10
5.3535007517
 20
4.8073563375
 30
0.0
 10
5.3540796486
 20
4.8042370603
 30
0.0
 10
5.3544914548
 20
4.8027138055
 30
0.0
  0
SPLINE
  5
44C
100
AcDbEntity
  8
ALL_ASSEMBLY_MEMBERS
100
AcDbSpline
 62
7
  6
CONTINUOUS
 70
0
 71
3
 72
13
 73
9
 74
0
 42
0.0000001
 43
0.0000001
 44
0.0000000001
 40
0.0
 40
0.0
 40
0.0
 40
0.0
 40
0.2492003862
 40
0.3740418138
 40
0.498988074
 40
0.6240664003
 40
0.7493172038
 40
1.0
 40
1.0
 40
1.0
 40
1.0
 10
5.3709269978
 20
4.8319879304
 30
0.0
 10
5.3694446749
 20
4.8315907432
 30
0.0
 10
5.3672614659
 20
4.8308026884
 30
0.0
 10
5.3645585241
 20
4.8293313932
 30
0.0
 10
5.3626578465
 20
4.8280131575
 30
0.0
 10
5.3609055925
 20
4.8264992792
 30
0.0
 10
5.3587998857
 20
4.8242379505
 30
0.0
 10
5.3574863829
 20
4.8223100726
 30
0.0
 10
5.3567283838
 20
4.8209652387
 30
0.0
  0
SPLINE
  5
44D
100
AcDbEntity
  8
ALL_ASSEMBLY_MEMBERS
100
AcDbSpline
 62
7
  6
CONTINUOUS
 70
0
 71
3
 72
12
 73
8
 74
0
 42
0.0000001
 43
0.0000001
 44
0.0000000001
 40
0.0
 40
0.0
 40
0.0
 40
0.0
 40
0.1250332566
 40
0.2500378169
 40
0.4999611317
 40
0.7499497599
 40
1.0
 40
1.0
 40
1.0
 40
1.0
 10
4.8754054374
 20
5.2315799905
 30
0.0
 10
4.8759687156
 20
5.2331598405
 30
0.0
 10
4.8769359162
 20
5.2363768895
 30
0.0
 10
4.8783934925
 20
5.2429270203
 30
0.0
 10
4.8795406812
 20
5.2512440262
 30
0.0
 10
4.8802232198
 20
5.2612854692
 30
0.0
 10
4.8803475098
 20
5.2679946264
 30
0.0
 10
4.8803475098
 20
5.2713489324
 30
0.0
  0
SPLINE
  5
44E
100
AcDbEntity
  8
ALL_ASSEMBLY_MEMBERS
100
AcDbSpline
 62
7
  6
CONTINUOUS
 70
0
 71
3
 72
12
 73
8
 74
0
 42
0.0000001
 43
0.0000001
 44
0.0000000001
 40
0.0
 40
0.0
 40
0.0
 40
0.0
 40
0.2517770562
 40
0.3776506181
 40
0.5031159712
 40
0.7519091192
 40
1.0
 40
1.0
 40
1.0
 40
1.0
 10
4.8588471555
 20
5.2178841283
 30
0.0
 10
4.860782579
 20
5.2178748809
 30
0.0
 10
4.863740058
 20
5.2183055656
 30
0.0
 10
4.8672288278
 20
5.2200289634
 30
0.0
 10
4.8703024625
 20
5.2223779639
 30
0.0
 10
4.8732212933
 20
5.226270128
 30
0.0
 10
4.8747649691
 20
5.2297836424
 30
0.0
 10
4.8754054374
 20
5.2315799905
 30
0.0
  0
SPLINE
  5
44F
100
AcDbEntity
  8
ALL_ASSEMBLY_MEMBERS
100
AcDbSpline
 62
7
  6
CONTINUOUS
 70
0
 71
3
 72
11
 73
7
 74
0
 42
0.0000001
 43
0.0000001
 44
0.0000000001
 40
0.0
 40
0.0
 40
0.0
 40
0.0
 40
0.2486072418
 40
0.4981591482
 40
0.7487761894
 40
1.0
 40
1.0
 40
1.0
 40
1.0
 10
4.8423356078
 20
5.2299810082
 30
0.0
 10
4.8431416731
 20
5.2283854847
 30
0.0
 10
4.8449777071
 20
5.2252899714
 30
0.0
 10
4.848634389
 20
5.2212627442
 30
0.0
 10
4.8533921467
 20
5.2184796219
 30
0.0
 10
4.8570407837
 20
5.217892759
 30
0.0
 10
4.8588471555
 20
5.2178841283
 30
0.0
  0
SPLINE
  5
450
100
AcDbEntity
  8
ALL_ASSEMBLY_MEMBERS
100
AcDbSpline
 62
7
  6
CONTINUOUS
 70
0
 71
3
 72
13
 73
9
 74
0
 42
0.0000001
 43
0.0000001
 44
0.0000000001
 40
0.0
 40
0.0
 40
0.0
 40
0.0
 40
0.2497628008
 40
0.4995702163
 40
0.6245329747
 40
0.7495554827
 40
0.8746729786
 40
1.0
 40
1.0
 40
1.0
 40
1.0
 10
4.8362549865
 20
5.2736048808
 30
0.0
 10
4.8362549865
 20
5.2699122524
 30
0.0
 10
4.8363776097
 20
5.2625257413
 30
0.0
 10
4.8369666776
 20
5.2533044701
 30
0.0
 10
4.8378588336
 20
5.2459672439
 30
0.0
 10
4.8388150789
 20
5.2405003738
 30
0.0
 10
4.8401765252
 20
5.2351141298
 30
0.0
 10
4.8415000863
 20
5.2316348375
 30
0.0
 10
4.8423356078
 20
5.2299810082
 30
0.0
  0
SPLINE
  5
451
100
AcDbEntity
  8
ALL_ASSEMBLY_MEMBERS
100
AcDbSpline
 62
7
  6
CONTINUOUS
 70
0
 71
3
 72
12
 73
8
 74
0
 42
0.0000001
 43
0.0000001
 44
0.0000000001
 40
0.0
 40
0.0
 40
0.0
 40
0.0
 40
0.2516699049
 40
0.5020584438
 40
0.6269598039
 40
0.7517988305
 40
1.0
 40
1.0
 40
1.0
 40
1.0
 10
4.7736425216
 20
5.2180942467
 30
0.0
 10
4.7755408293
 20
5.2180942465
 30
0.0
 10
4.7793680877
 20
5.2188391918
 30
0.0
 10
4.7834186061
 20
5.2214994478
 30
0.0
 10
4.7859147311
 20
5.2243459807
 30
0.0
 10
4.7879745247
 20
5.2274977338
 30
0.0
 10
4.7891119068
 20
5.2300939066
 30
0.0
 10
4.7897399486
 20
5.2318575633
 30
0.0
  0
SPLINE
  5
452
100
AcDbEntity
  8
ALL_ASSEMBLY_MEMBERS
100
AcDbSpline
 62
7
  6
CONTINUOUS
 70
0
 71
3
 72
11
 73
7
 74
0
 42
0.0000001
 43
0.0000001
 44
0.0000000001
 40
0.0
 40
0.0
 40
0.0
 40
0.0
 40
0.2484598867
 40
0.4978042359
 40
0.7483767498
 40
1.0
 40
1.0
 40
1.0
 40
1.0
 10
4.7566699804
 20
5.2301038001
 30
0.0
 10
4.7574927554
 20
5.2284794106
 30
0.0
 10
4.7593712542
 20
5.2253288838
 30
0.0
 10
4.7631393845
 20
5.2212669148
 30
0.0
 10
4.768058753
 20
5.2185059887
 30
0.0
 10
4.7717984595
 20
5.2180942468
 30
0.0
 10
4.7736425216
 20
5.2180942467
 30
0.0
  0
SPLINE
  5
453
100
AcDbEntity
  8
ALL_ASSEMBLY_MEMBERS
100
AcDbSpline
 62
7
  6
CONTINUOUS
 70
0
 71
3
 72
13
 73
9
 74
0
 42
0.0000001
 43
0.0000001
 44
0.0000000001
 40
0.0
 40
0.0
 40
0.0
 40
0.0
 40
0.2498966372
 40
0.4997799193
 40
0.6247486948
 40
0.749746703
 40
0.8747977661
 40
1.0
 40
1.0
 40
1.0
 40
1.0
 10
4.7505894961
 20
5.2736925737
 30
0.0
 10
4.7505894961
 20
5.2700007999
 30
0.0
 10
4.7507120781
 20
5.2626168562
 30
0.0
 10
4.7513010589
 20
5.253399472
 30
0.0
 10
4.7521932087
 20
5.2460670981
 30
0.0
 10
4.7531493309
 20
5.2406057816
 30
0.0
 10
4.7545105873
 20
5.2352271719
 30
0.0
 10
4.7558342105
 20
5.2317538454
 30
0.0
 10
4.7566699804
 20
5.2301038001
 30
0.0
  0
SPLINE
  5
454
100
AcDbEntity
  8
ALL_ASSEMBLY_MEMBERS
100
AcDbSpline
 62
7
  6
CONTINUOUS
 70
0
 71
3
 72
12
 73
8
 74
0
 42
0.0000001
 43
0.0000001
 44
0.0000000001
 40
0.0
 40
0.0
 40
0.0
 40
0.0
 40
0.1251317823
 40
0.250192496
 40
0.5001374793
 40
0.7500652211
 40
1.0
 40
1.0
 40
1.0
 40
1.0
 10
4.7897399486
 20
5.2318575633
 30
0.0
 10
4.7903031285
 20
5.2334390755
 30
0.0
 10
4.7912702453
 20
5.2366587366
 30
0.0
 10
4.7927277611
 20
5.2432121609
 30
0.0
 10
4.7938750551
 20
5.2515304228
 30
0.0
 10
4.7945576897
 20
5.2615710516
 30
0.0
 10
4.7946820194
 20
5.2682786854
 30
0.0
 10
4.7946820194
 20
5.2716318642
 30
0.0
  0
SPLINE
  5
455
100
AcDbEntity
  8
ALL_ASSEMBLY_MEMBERS
100
AcDbSpline
 62
7
  6
CONTINUOUS
 70
0
 71
3
 72
12
 73
8
 74
0
 42
0.0000001
 43
0.0000001
 44
0.0000000001
 40
0.0
 40
0.0
 40
0.0
 40
0.0
 40
0.1250332566
 40
0.2500378169
 40
0.4999611317
 40
0.7499497599
 40
1.0
 40
1.0
 40
1.0
 40
1.0
 10
4.1810762232
 20
4.3814878119
 30
0.0
 10
4.1794263939
 20
4.3811857002
 30
0.0
 10
4.1761567474
 20
4.380414796
 30
0.0
 10
4.1697553796
 20
4.3784020286
 30
0.0
 10
4.1619790469
 20
4.3752370203
 30
0.0
 10
4.1529416327
 20
4.3708073946
 30
0.0
 10
4.1470691872
 20
4.3675604542
 30
0.0
 10
4.144164273
 20
4.3658833013
 30
0.0
  0
SPLINE
  5
456
100
AcDbEntity
  8
ALL_ASSEMBLY_MEMBERS
100
AcDbSpline
 62
7
  6
CONTINUOUS
 70
0
 71
3
 72
12
 73
8
 74
0
 42
0.0000001
 43
0.0000001
 44
0.0000000001
 40
0.0
 40
0.0
 40
0.0
 40
0.0
 40
0.2517770562
 40
0.3776506181
 40
0.5031159712
 40
0.7519091192
 40
1.0
 40
1.0
 40
1.0
 40
1.0
 10
4.2012163287
 20
4.3739958503
 30
0.0
 10
4.2002566255
 20
4.3756765999
 30
0.0
 10
4.1984049021
 20
4.3780225095
 30
0.0
 10
4.1951680109
 20
4.3801821739
 30
0.0
 10
4.1915968994
 20
4.3816695193
 30
0.0
 10
4.1867667711
 20
4.3822512189
 30
0.0
 10
4.1829521404
 20
4.3818313241
 30
0.0
 10
4.1810762232
 20
4.3814878119
 30
0.0
  0
SPLINE
  5
457
100
AcDbEntity
  8
ALL_ASSEMBLY_MEMBERS
100
AcDbSpline
 62
7
  6
CONTINUOUS
 70
0
 71
3
 72
11
 73
7
 74
0
 42
0.0000001
 43
0.0000001
 44
0.0000000001
 40
0.0
 40
0.0
 40
0.0
 40
0.0
 40
0.2489226745
 40
0.4985513515
 40
0.7488848939
 40
1.0
 40
1.0
 40
1.0
 40
1.0
 10
4.1989958973
 20
4.3536479906
 30
0.0
 10
4.199583482
 20
4.3545460202
 30
0.0
 10
4.2006884221
 20
4.3563937498
 30
0.0
 10
4.2020479259
 20
4.3593302334
 30
0.0
 10
4.2030151012
 20
4.3624324852
 30
0.0
 10
4.2032967511
 20
4.3645914292
 30
0.0
 10
4.2033291196
 20
4.3656735764
 30
0.0
  0
SPLINE
  5
458
100
AcDbEntity
  8
ALL_ASSEMBLY_MEMBERS
100
AcDbSpline
 62
7
  6
CONTINUOUS
 70
0
 71
3
 72
11
 73
7
 74
0
 42
0.0000001
 43
0.0000001
 44
0.0000000001
 40
0.0
 40
0.0
 40
0.0
 40
0.0
 40
0.2497169053
 40
0.4996910003
 40
0.7501133444
 40
1.0
 40
1.0
 40
1.0
 40
1.0
 10
4.2033291196
 20
4.3656735764
 30
0.0
 10
4.2033507506
 20
4.366396747
 30
0.0
 10
4.2032997297
 20
4.3678489008
 30
0.0
 10
4.2029115502
 20
4.3699950616
 30
0.0
 10
4.2022155936
 20
4.372061626
 30
0.0
 10
4.2015753219
 20
4.3733671377
 30
0.0
 10
4.2012163287
 20
4.3739958503
 30
0.0
  0
SPLINE
  5
459
100
AcDbEntity
  8
ALL_ASSEMBLY_MEMBERS
100
AcDbSpline
 62
7
  6
CONTINUOUS
 70
0
 71
3
 72
13
 73
9
 74
0
 42
0.0000001
 43
0.0000001
 44
0.0000000001
 40
0.0
 40
0.0
 40
0.0
 40
0.0
 40
0.2497628008
 40
0.4995702163
 40
0.6245329747
 40
0.7495554827
 40
0.8746729786
 40
1.0
 40
1.0
 40
1.0
 40
1.0
 10
4.1642568261
 20
4.3265700818
 30
0.0
 10
4.1674547361
 20
4.328416396
 30
0.0
 10
4.1737903307
 20
4.3322158463
 30
0.0
 10
4.1814816519
 20
4.3373366297
 30
0.0
 10
4.1873897981
 20
4.3417778726
 30
0.0
 10
4.1916461239
 20
4.3453394403
 30
0.0
 10
4.1956300249
 20
4.3492116094
 30
0.0
 10
4.1979813999
 20
4.3520974931
 30
0.0
 10
4.1989958973
 20
4.3536479906
 30
0.0
  0
SPLINE
  5
45A
100
AcDbEntity
  8
ALL_ASSEMBLY_MEMBERS
100
AcDbSpline
 62
7
  6
CONTINUOUS
 70
0
 71
3
 72
9
 73
5
 74
0
 42
0.0000001
 43
0.0000001
 44
0.0000000001
 40
0.0
 40
0.0
 40
0.0
 40
0.0
 40
0.2495659361
 40
1.0
 40
1.0
 40
1.0
 40
1.0
 10
5.2510838527
 20
4.2054863579
 30
0.0
 10
5.25093464
 20
4.206027658
 30
0.0
 10
5.25039717
 20
4.2082118723
 30
0.0
 10
5.2501301499
 20
4.2104702503
 30
0.0
 10
5.2501417396
 20
4.2121585846
 30
0.0
  0
SPLINE
  5
45B
100
AcDbEntity
  8
ALL_ASSEMBLY_MEMBERS
100
AcDbSpline
 62
7
  6
CONTINUOUS
 70
0
 71
3
 72
9
 73
5
 74
0
 42
0.0000001
 43
0.0000001
 44
0.0000000001
 40
0.0
 40
0.0
 40
0.0
 40
0.0
 40
0.4992558391
 40
1.0
 40
1.0
 40
1.0
 40
1.0
 10
5.2501417396
 20
4.2121585846
 30
0.0
 10
5.2501545963
 20
4.2140314957
 30
0.0
 10
5.250703102
 20
4.2178098976
 30
0.0
 10
5.2524290561
 20
4.2212187725
 30
0.0
 10
5.2535065416
 20
4.2227575813
 30
0.0
  0
SPLINE
  5
45C
100
AcDbEntity
  8
ALL_ASSEMBLY_MEMBERS
100
AcDbSpline
 62
7
  6
CONTINUOUS
 70
0
 71
3
 72
13
 73
9
 74
0
 42
0.0000001
 43
0.0000001
 44
0.0000000001
 40
0.0
 40
0.0
 40
0.0
 40
0.0
 40
0.1261982345
 40
0.251862487
 40
0.3770657699
 40
0.5019777977
 40
0.7510912298
 40
1.0
 40
1.0
 40
1.0
 40
1.0
 10
4.6770179708
 20
5.2196421789
 30
0.0
 10
4.6775084161
 20
5.2198858633
 30
0.0
 10
4.6784158009
 20
5.2205294355
 30
0.0
 10
4.6794514819
 20
5.2218150214
 30
0.0
 10
4.6802044734
 20
5.2232701285
 30
0.0
 10
4.6809210424
 20
5.225319688
 30
0.0
 10
4.6814285961
 20
5.2279871541
 30
0.0
 10
4.6815938496
 20
5.2301441905
 30
0.0
 10
4.6816371855
 20
5.2312234822
 30
0.0
  0
SPLINE
  5
45D
100
AcDbEntity
  8
ALL_ASSEMBLY_MEMBERS
100
AcDbSpline
 62
7
  6
CONTINUOUS
 70
0
 71
3
 72
12
 73
8
 74
0
 42
0.0000001
 43
0.0000001
 44
0.0000000001
 40
0.0
 40
0.0
 40
0.0
 40
0.0
 40
0.2499319212
 40
0.4999033346
 40
0.7499351531
 40
0.8749074302
 40
1.0
 40
1.0
 40
1.0
 40
1.0
 10
4.6650919902
 20
5.217675101
 30
0.0
 10
4.6659681622
 20
5.2176804057
 30
0.0
 10
4.6677207444
 20
5.2177134738
 30
0.0
 10
4.6703461636
 20
5.2178615274
 30
0.0
 10
4.6725255577
 20
5.2181142518
 30
0.0
 10
4.6742457086
 20
5.2184581
 30
0.0
 10
4.6750894077
 20
5.2187042928
 30
0.0
 10
4.6755010377
 20
5.2188555417
 30
0.0
  0
LINE
  5
45E
100
AcDbEntity
  8
ALL_ASSEMBLY_MEMBERS
100
AcDbLine
 62
7
  6
CONTINUOUS
 10
4.6755010377
 20
5.2188555417
 11
4.6770179708
 21
5.2196421789
  0
SPLINE
  5
45F
100
AcDbEntity
  8
ALL_ASSEMBLY_MEMBERS
100
AcDbSpline
 62
7
  6
CONTINUOUS
 70
0
 71
3
 72
11
 73
7
 74
0
 42
0.0000001
 43
0.0000001
 44
0.0000000001
 40
0.0
 40
0.0
 40
0.0
 40
0.0
 40
0.2504402171
 40
0.5007219418
 40
0.7506273355
 40
1.0
 40
1.0
 40
1.0
 40
1.0
 10
5.2535065416
 20
4.2227575813
 30
0.0
 10
5.2540218197
 20
4.2234934746
 30
0.0
 10
5.2551503744
 20
4.2248995791
 30
0.0
 10
5.2571352133
 20
4.2267344124
 30
0.0
 10
5.2593774403
 20
4.2282371963
 30
0.0
 10
5.2610036824
 20
4.2290040945
 30
0.0
 10
5.2618364215
 20
4.2293307906
 30
0.0
  0
LINE
  5
460
100
AcDbEntity
  8
ALL_ASSEMBLY_MEMBERS
100
AcDbLine
 62
7
  6
CONTINUOUS
 10
5.2618364215
 20
4.2293307906
 11
5.2702031485
 21
4.2328098651
  0
SPLINE
  5
461
100
AcDbEntity
  8
ALL_ASSEMBLY_MEMBERS
100
AcDbSpline
 62
7
  6
CONTINUOUS
 70
0
 71
3
 72
10
 73
6
 74
0
 42
0.0000001
 43
0.0000001
 44
0.0000000001
 40
0.0
 40
0.0
 40
0.0
 40
0.0
 40
0.2876765656
 40
0.5473526881
 40
1.0
 40
1.0
 40
1.0
 40
1.0
 10
5.2702031485
 20
4.2328098651
 30
0.0
 10
5.2709255332
 20
4.2331541335
 30
0.0
 10
5.2722761485
 20
4.2338646761
 30
0.0
 10
5.2745927907
 20
4.2354050858
 30
0.0
 10
5.2760420916
 20
4.2368143952
 30
0.0
 10
5.2767642941
 20
4.2378458072
 30
0.0
  0
SPLINE
  5
462
100
AcDbEntity
  8
ALL_ASSEMBLY_MEMBERS
100
AcDbSpline
 62
7
  6
CONTINUOUS
 70
0
 71
3
 72
13
 73
9
 74
0
 42
0.0000001
 43
0.0000001
 44
0.0000000001
 40
0.0
 40
0.0
 40
0.0
 40
0.0
 40
0.1243788029
 40
0.2491717612
 40
0.374213372
 40
0.4993132606
 40
0.7496076731
 40
1.0
 40
1.0
 40
1.0
 40
1.0
 10
4.6999630029
 20
5.2203365739
 30
0.0
 10
4.7003750966
 20
5.2199700954
 30
0.0
 10
4.701379599
 20
5.2194509055
 30
0.0
 10
4.7029622742
 20
5.2189606419
 30
0.0
 10
4.7045922122
 20
5.2186186681
 30
0.0
 10
4.7067868442
 20
5.2182900494
 30
0.0
 10
4.7095523791
 20
5.2180399438
 30
0.0
 10
4.7117702435
 20
5.2179370016
 30
0.0
 10
4.7128798909
 20
5.2179018548
 30
0.0
  0
SPLINE
  5
463
100
AcDbEntity
  8
ALL_ASSEMBLY_MEMBERS
100
AcDbSpline
 62
7
  6
CONTINUOUS
 70
0
 71
3
 72
12
 73
8
 74
0
 42
0.0000001
 43
0.0000001
 44
0.0000000001
 40
0.0
 40
0.0
 40
0.0
 40
0.0
 40
0.2494302583
 40
0.3742324542
 40
0.4990753595
 40
0.7493411782
 40
1.0
 40
1.0
 40
1.0
 40
1.0
 10
4.6963346956
 20
5.2312917898
 30
0.0
 10
4.6963346956
 20
5.2303069136
 30
0.0
 10
4.6964081551
 20
5.2288267137
 30
0.0
 10
4.6966989201
 20
5.2268762617
 30
0.0
 10
4.6971363237
 20
5.2249494101
 30
0.0
 10
4.698023398
 20
5.2226256276
 30
0.0
 10
4.6992234257
 20
5.2209942862
 30
0.0
 10
4.6999630029
 20
5.2203365739
 30
0.0
  0
SPLINE
  5
464
100
AcDbEntity
  8
ALL_ASSEMBLY_MEMBERS
100
AcDbSpline
 62
7
  6
CONTINUOUS
 70
0
 71
3
 72
11
 73
7
 74
0
 42
0.0000001
 43
0.0000001
 44
0.0000000001
 40
0.0
 40
0.0
 40
0.0
 40
0.0
 40
0.2870410772
 40
0.5435909377
 40
0.7778844208
 40
1.0
 40
1.0
 40
1.0
 40
1.0
 10
5.2767642941
 20
4.2378458072
 30
0.0
 10
5.2771385108
 20
4.238380244
 30
0.0
 10
5.2777787078
 20
4.2394443323
 30
0.0
 10
5.2784089756
 20
4.2411082575
 30
0.0
 10
5.2786500232
 20
4.2427245888
 30
0.0
 10
5.2785487714
 20
4.2437698779
 30
0.0
 10
5.2784363656
 20
4.2442620604
 30
0.0
  0
LINE
  5
465
100
AcDbEntity
  8
ALL_ASSEMBLY_MEMBERS
100
AcDbLine
 62
7
  6
CONTINUOUS
 10
4.6750575432
 20
5.3184436757
 11
4.6963346956
 21
5.3295940866
  0
SPLINE
  5
466
100
AcDbEntity
  8
ALL_ASSEMBLY_MEMBERS
100
AcDbSpline
 62
7
  6
CONTINUOUS
 70
0
 71
3
 72
14
 73
10
 74
0
 42
0.0000001
 43
0.0000001
 44
0.0000000001
 40
0.0
 40
0.0
 40
0.0
 40
0.0
 40
0.0988237932
 40
0.2028343866
 40
0.3134426965
 40
0.4318312366
 40
0.5589724214
 40
0.6956583635
 40
1.0
 40
1.0
 40
1.0
 40
1.0
 10
5.2916341039
 20
4.1657121863
 30
0.0
 10
5.2930199843
 20
4.1658927919
 30
0.0
 10
5.2958415613
 20
4.1664610117
 30
0.0
 10
5.3000539738
 20
4.1678718184
 30
0.0
 10
5.3043344529
 20
4.1698564592
 30
0.0
 10
5.3086815345
 20
4.1724137019
 30
0.0
 10
5.3130958312
 20
4.1755434587
 30
0.0
 10
5.3192934481
 20
4.1806661454
 30
0.0
 10
5.3236975829
 20
4.1851083174
 30
0.0
 10
5.3265883205
 20
4.1882971915
 30
0.0
  0
SPLINE
  5
467
100
AcDbEntity
  8
ALL_ASSEMBLY_MEMBERS
100
AcDbSpline
 62
7
  6
CONTINUOUS
 70
0
 71
3
 72
9
 73
5
 74
0
 42
0.0000001
 43
0.0000001
 44
0.0000000001
 40
0.0
 40
0.0
 40
0.0
 40
0.0
 40
0.2497250754
 40
1.0
 40
1.0
 40
1.0
 40
1.0
 10
4.7436189271
 20
5.3116433755
 30
0.0
 10
4.74389627
 20
5.3121411101
 30
0.0
 10
4.7450397247
 20
5.314115523
 30
0.0
 10
4.7463253623
 20
5.3160094229
 30
0.0
 10
4.7473773625
 20
5.3173599076
 30
0.0
  0
SPLINE
  5
468
100
AcDbEntity
  8
ALL_ASSEMBLY_MEMBERS
100
AcDbSpline
 62
7
  6
CONTINUOUS
 70
0
 71
3
 72
9
 73
5
 74
0
 42
0.0000001
 43
0.0000001
 44
0.0000000001
 40
0.0
 40
0.0
 40
0.0
 40
0.0
 40
0.7497045395
 40
1.0
 40
1.0
 40
1.0
 40
1.0
 10
4.7473773625
 20
5.3173599076
 30
0.0
 10
4.7482114549
 20
5.3184306575
 30
0.0
 10
4.7493999798
 20
5.3198031352
 30
0.0
 10
4.7506896174
 20
5.3210741701
 30
0.0
 10
4.7510188491
 20
5.3213855267
 30
0.0
  0
SPLINE
  5
469
100
AcDbEntity
  8
ALL_ASSEMBLY_MEMBERS
100
AcDbSpline
 62
7
  6
CONTINUOUS
 70
0
 71
3
 72
11
 73
7
 74
0
 42
0.0000001
 43
0.0000001
 44
0.0000000001
 40
0.0
 40
0.0
 40
0.0
 40
0.0
 40
0.2493307863
 40
0.4992388567
 40
0.7494853566
 40
1.0
 40
1.0
 40
1.0
 40
1.0
 10
4.7510188491
 20
5.3213855267
 30
0.0
 10
4.7517448841
 20
5.3220721427
 30
0.0
 10
4.7532627254
 20
5.3233813415
 30
0.0
 10
4.7557237689
 20
5.3251120669
 30
0.0
 10
4.7583506971
 20
5.3265892407
 30
0.0
 10
4.7601981092
 20
5.3273845063
 30
0.0
 10
4.7611393523
 20
5.3277339844
 30
0.0
  0
SPLINE
  5
46A
100
AcDbEntity
  8
ALL_ASSEMBLY_MEMBERS
100
AcDbSpline
 62
7
  6
CONTINUOUS
 70
0
 71
3
 72
9
 73
5
 74
0
 42
0.0000001
 43
0.0000001
 44
0.0000000001
 40
0.0
 40
0.0
 40
0.0
 40
0.0
 40
0.4998783239
 40
1.0
 40
1.0
 40
1.0
 40
1.0
 10
4.7611393523
 20
5.3277339844
 30
0.0
 10
4.7630149613
 20
5.328430387
 30
0.0
 10
4.7669169833
 20
5.3294445017
 30
0.0
 10
4.7709280205
 20
5.3297366106
 30
0.0
 10
4.7729297158
 20
5.3297366787
 30
0.0
  0
SPLINE
  5
46B
100
AcDbEntity
  8
ALL_ASSEMBLY_MEMBERS
100
AcDbSpline
 62
7
  6
CONTINUOUS
 70
0
 71
3
 72
11
 73
7
 74
0
 42
0.0000001
 43
0.0000001
 44
0.0000000001
 40
0.0
 40
0.0
 40
0.0
 40
0.0
 40
0.2496028836
 40
0.4994185781
 40
0.749519269
 40
1.0
 40
1.0
 40
1.0
 40
1.0
 10
4.733540386
 20
5.2698686417
 30
0.0
 10
4.733540386
 20
5.2734812449
 30
0.0
 10
4.7338898159
 20
5.2807163544
 30
0.0
 10
4.7356457171
 20
5.291448506
 30
0.0
 10
4.7387874536
 20
5.3018791198
 30
0.0
 10
4.7418543185
 20
5.3084765129
 30
0.0
 10
4.7436189271
 20
5.3116433755
 30
0.0
  0
LINE
  5
46C
100
AcDbEntity
  8
ALL_ASSEMBLY_MEMBERS
100
AcDbLine
 62
7
  6
CONTINUOUS
 10
4.3437974406
 20
5.1661351445
 11
4.3537803844
 21
5.1736578323
  0
SPLINE
  5
46D
100
AcDbEntity
  8
ALL_ASSEMBLY_MEMBERS
100
AcDbSpline
 62
7
  6
CONTINUOUS
 70
0
 71
3
 72
13
 73
9
 74
0
 42
0.0000001
 43
0.0000001
 44
0.0000000001
 40
0.0
 40
0.0
 40
0.0
 40
0.0
 40
0.1261982345
 40
0.251862487
 40
0.3770657699
 40
0.5019777977
 40
0.7510912298
 40
1.0
 40
1.0
 40
1.0
 40
1.0
 10
4.160268169
 20
4.7037995495
 30
0.0
 10
4.1601879672
 20
4.7043412933
 30
0.0
 10
4.159856291
 20
4.7054031423
 30
0.0
 10
4.1589536692
 20
4.7067854014
 30
0.0
 10
4.1578024673
 20
4.7079511916
 30
0.0
 10
4.1560746524
 20
4.709266038
 30
0.0
 10
4.1536945841
 20
4.7105730425
 30
0.0
 10
4.1516941867
 20
4.7113967689
 30
0.0
 10
4.1506811108
 20
4.7117715032
 30
0.0
  0
SPLINE
  5
46E
100
AcDbEntity
  8
ALL_ASSEMBLY_MEMBERS
100
AcDbSpline
 62
7
  6
CONTINUOUS
 70
0
 71
3
 72
12
 73
8
 74
0
 42
0.0000001
 43
0.0000001
 44
0.0000000001
 40
0.0
 40
0.0
 40
0.0
 40
0.0
 40
0.2499530869
 40
0.4999472256
 40
0.750003709
 40
0.8750315361
 40
1.0
 40
1.0
 40
1.0
 40
1.0
 10
4.1584536405
 20
4.6918494074
 30
0.0
 10
4.1587040473
 20
4.6926362583
 30
0.0
 10
4.1591859679
 20
4.6942163134
 30
0.0
 10
4.1598262374
 20
4.6966102902
 30
0.0
 10
4.160255277
 20
4.698632429
 30
0.0
 10
4.1604840735
 20
4.7002690603
 30
0.0
 10
4.1605446316
 20
4.7010939675
 30
0.0
 10
4.1605526774
 20
4.7015067297
 30
0.0
  0
LINE
  5
46F
100
AcDbEntity
  8
ALL_ASSEMBLY_MEMBERS
100
AcDbLine
 62
7
  6
CONTINUOUS
 10
4.1605526774
 20
4.7015067297
 11
4.160268169
 21
4.7037995495
  0
SPLINE
  5
470
100
AcDbEntity
  8
ALL_ASSEMBLY_MEMBERS
100
AcDbSpline
 62
7
  6
CONTINUOUS
 70
0
 71
3
 72
9
 73
5
 74
0
 42
0.0000001
 43
0.0000001
 44
0.0000000001
 40
0.0
 40
0.0
 40
0.0
 40
0.0
 40
0.249987936
 40
1.0
 40
1.0
 40
1.0
 40
1.0
 10
4.1972339211
 20
4.3795188506
 30
0.0
 10
4.1977082349
 20
4.3791862136
 30
0.0
 10
4.1995182908
 20
4.3777320736
 30
0.0
 10
4.2009759594
 20
4.3758640533
 30
0.0
 10
4.2018450073
 20
4.3743588181
 30
0.0
  0
SPLINE
  5
471
100
AcDbEntity
  8
ALL_ASSEMBLY_MEMBERS
100
AcDbSpline
 62
7
  6
CONTINUOUS
 70
0
 71
3
 72
10
 73
6
 74
0
 42
0.0000001
 43
0.0000001
 44
0.0000000001
 40
0.0
 40
0.0
 40
0.0
 40
0.0
 40
0.5009991617
 40
0.750803546
 40
1.0
 40
1.0
 40
1.0
 40
1.0
 10
4.2027864052
 20
4.3724594682
 30
0.0
 10
4.2031872481
 20
4.3715018936
 30
0.0
 10
4.2036555485
 20
4.3700042253
 30
0.0
 10
4.2039593526
 20
4.3679517311
 30
0.0
 10
4.2040007724
 20
4.3669163181
 30
0.0
 10
4.2039965696
 20
4.366399992
 30
0.0
  0
SPLINE
  5
472
100
AcDbEntity
  8
ALL_ASSEMBLY_MEMBERS
100
AcDbSpline
 62
7
  6
CONTINUOUS
 70
0
 71
3
 72
13
 73
9
 74
0
 42
0.0000001
 43
0.0000001
 44
0.0000000001
 40
0.0
 40
0.0
 40
0.0
 40
0.0
 40
0.1243788029
 40
0.2491717612
 40
0.374213372
 40
0.4993132606
 40
0.7496076731
 40
1.0
 40
1.0
 40
1.0
 40
1.0
 10
4.1666981649
 20
4.7258361516
 30
0.0
 10
4.1671740507
 20
4.726114828
 30
0.0
 10
4.1679782379
 20
4.726909728
 30
0.0
 10
4.1689335799
 20
4.7282634418
 30
0.0
 10
4.1697624947
 20
4.7297079293
 30
0.0
 10
4.1707532083
 20
4.7316935995
 30
0.0
 10
4.1718456701
 20
4.7342464926
 30
0.0
 10
4.1726289318
 20
4.7363239961
 30
0.0
 10
4.1730052583
 20
4.7373684725
 30
0.0
  0
SPLINE
  5
473
100
AcDbEntity
  8
ALL_ASSEMBLY_MEMBERS
100
AcDbSpline
 62
7
  6
CONTINUOUS
 70
0
 71
3
 72
12
 73
8
 74
0
 42
0.0000001
 43
0.0000001
 44
0.0000000001
 40
0.0
 40
0.0
 40
0.0
 40
0.0
 40
0.2494302583
 40
0.3742324542
 40
0.4990753595
 40
0.7493411782
 40
1.0
 40
1.0
 40
1.0
 40
1.0
 10
4.1551579268
 20
4.7257707742
 30
0.0
 10
4.1560945997
 20
4.7254664308
 30
0.0
 10
4.1575250538
 20
4.7250788879
 30
0.0
 10
4.1594698952
 20
4.7247526991
 30
0.0
 10
4.161437605
 20
4.7245732648
 30
0.0
 10
4.1639217746
 20
4.7246988343
 30
0.0
 10
4.1658441014
 20
4.7253360162
 30
0.0
 10
4.1666981649
 20
4.7258361516
 30
0.0
  0
LINE
  5
474
100
AcDbEntity
  8
ALL_ASSEMBLY_MEMBERS
100
AcDbLine
 62
7
  6
CONTINUOUS
 10
4.065696557
 20
4.7324664084
 11
4.0616668869
 21
4.7561478545
  0
SPLINE
  5
475
100
AcDbEntity
  8
ALL_ASSEMBLY_MEMBERS
100
AcDbSpline
 62
7
  6
CONTINUOUS
 70
0
 71
3
 72
13
 73
9
 74
0
 42
0.0000001
 43
0.0000001
 44
0.0000000001
 40
0.0
 40
0.0
 40
0.0
 40
0.0
 40
0.1261334691
 40
0.251693392
 40
0.3768204226
 40
0.501703948
 40
0.7508898288
 40
1.0
 40
1.0
 40
1.0
 40
1.0
 10
4.1864944357
 20
4.7853522465
 30
0.0
 10
4.1864165696
 20
4.7858931307
 30
0.0
 10
4.1860892113
 20
4.7869538004
 30
0.0
 10
4.1851913124
 20
4.7883347716
 30
0.0
 10
4.1840438555
 20
4.7894992473
 30
0.0
 10
4.182319739
 20
4.7908128301
 30
0.0
 10
4.1799428517
 20
4.7921186083
 30
0.0
 10
4.1779447031
 20
4.7929414946
 30
0.0
 10
4.176932496
 20
4.7933159345
 30
0.0
  0
SPLINE
  5
476
100
AcDbEntity
  8
ALL_ASSEMBLY_MEMBERS
100
AcDbSpline
 62
7
  6
CONTINUOUS
 70
0
 71
3
 72
12
 73
8
 74
0
 42
0.0000001
 43
0.0000001
 44
0.0000000001
 40
0.0
 40
0.0
 40
0.0
 40
0.0
 40
0.2500553523
 40
0.5001046564
 40
0.7501443745
 40
0.8751225684
 40
1.0
 40
1.0
 40
1.0
 40
1.0
 10
4.1846250437
 20
4.7734198227
 30
0.0
 10
4.1848791858
 20
4.7742054495
 30
0.0
 10
4.1853685766
 20
4.7757829929
 30
0.0
 10
4.1860201165
 20
4.7781732814
 30
0.0
 10
4.1864586046
 20
4.7801924307
 30
0.0
 10
4.1866949155
 20
4.7818267372
 30
0.0
 10
4.1867592099
 20
4.7826505364
 30
0.0
 10
4.1867690905
 20
4.783062777
 30
0.0
  0
LINE
  5
477
100
AcDbEntity
  8
ALL_ASSEMBLY_MEMBERS
100
AcDbLine
 62
7
  6
CONTINUOUS
 10
4.1867690905
 20
4.783062777
 11
4.1864944357
 21
4.7853522465
  0
SPLINE
  5
478
100
AcDbEntity
  8
ALL_ASSEMBLY_MEMBERS
100
AcDbSpline
 62
7
  6
CONTINUOUS
 70
0
 71
3
 72
9
 73
5
 74
0
 42
0.0000001
 43
0.0000001
 44
0.0000000001
 40
0.0
 40
0.0
 40
0.0
 40
0.0
 40
0.4889043226
 40
1.0
 40
1.0
 40
1.0
 40
1.0
 10
4.1013404571
 20
4.3287621199
 30
0.0
 10
4.1016724064
 20
4.3269664593
 30
0.0
 10
4.1026958443
 20
4.3233504593
 30
0.0
 10
4.1043264139
 20
4.3199697806
 30
0.0
 10
4.1052808995
 20
4.318316563
 30
0.0
  0
SPLINE
  5
479
100
AcDbEntity
  8
ALL_ASSEMBLY_MEMBERS
100
AcDbSpline
 62
7
  6
CONTINUOUS
 70
0
 71
3
 72
13
 73
9
 74
0
 42
0.0000001
 43
0.0000001
 44
0.0000000001
 40
0.0
 40
0.0
 40
0.0
 40
0.0
 40
0.1245282808
 40
0.249395832
 40
0.3744615452
 40
0.499551342
 40
0.7497575217
 40
1.0
 40
1.0
 40
1.0
 40
1.0
 10
4.1930291776
 20
4.8073547699
 30
0.0
 10
4.1935067369
 20
4.8076327893
 30
0.0
 10
4.1943151237
 20
4.8084258704
 30
0.0
 10
4.195277802
 20
4.809777439
 30
0.0
 10
4.1961141765
 20
4.8112196242
 30
0.0
 10
4.1971148519
 20
4.8132019582
 30
0.0
 10
4.1982199491
 20
4.8157506709
 30
0.0
 10
4.1990134709
 20
4.8178250891
 30
0.0
 10
4.1993949109
 20
4.8188679669
 30
0.0
  0
SPLINE
  5
47A
100
AcDbEntity
  8
ALL_ASSEMBLY_MEMBERS
100
AcDbSpline
 62
7
  6
CONTINUOUS
 70
0
 71
3
 72
12
 73
8
 74
0
 42
0.0000001
 43
0.0000001
 44
0.0000000001
 40
0.0
 40
0.0
 40
0.0
 40
0.0
 40
0.2491617573
 40
0.3738852691
 40
0.4986936592
 40
0.7490499257
 40
1.0
 40
1.0
 40
1.0
 40
1.0
 10
4.1814750574
 20
4.8072938361
 30
0.0
 10
4.1824117131
 20
4.8069894983
 30
0.0
 10
4.1838423636
 20
4.8066019526
 30
0.0
 10
4.1857877531
 20
4.806275562
 30
0.0
 10
4.1877574221
 20
4.8060956057
 30
0.0
 10
4.1902455791
 20
4.8062203465
 30
0.0
 10
4.1921719375
 20
4.8068557128
 30
0.0
 10
4.1930291776
 20
4.8073547699
 30
0.0
  0
LINE
  5
47B
100
AcDbEntity
  8
ALL_ASSEMBLY_MEMBERS
100
AcDbLine
 62
7
  6
CONTINUOUS
 10
4.0919530148
 20
4.8139860341
 11
4.0880049411
 21
4.8376641179
  0
SPLINE
  5
47C
100
AcDbEntity
  8
ALL_ASSEMBLY_MEMBERS
100
AcDbSpline
 62
7
  6
CONTINUOUS
 70
0
 71
3
 72
9
 73
5
 74
0
 42
0.0000001
 43
0.0000001
 44
0.0000000001
 40
0.0
 40
0.0
 40
0.0
 40
0.0
 40
0.5126844247
 40
1.0
 40
1.0
 40
1.0
 40
1.0
 10
4.1057011059
 20
4.3176055081
 30
0.0
 10
4.1066856047
 20
4.3159779167
 30
0.0
 10
4.1088375549
 20
4.3129345545
 30
0.0
 10
4.1114755827
 20
4.3102942638
 30
0.0
 10
4.112865933
 20
4.3091384119
 30
0.0
  0
SPLINE
  5
47D
100
AcDbEntity
  8
ALL_ASSEMBLY_MEMBERS
100
AcDbSpline
 62
7
  6
CONTINUOUS
 70
0
 71
3
 72
10
 73
6
 74
0
 42
0.0000001
 43
0.0000001
 44
0.0000000001
 40
0.0
 40
0.0
 40
0.0
 40
0.0
 40
0.2345865689
 40
0.4772344338
 40
1.0
 40
1.0
 40
1.0
 40
1.0
 10
4.1189347626
 20
4.3052498757
 30
0.0
 10
4.1201411592
 20
4.3046725505
 30
0.0
 10
4.1226781128
 20
4.3036632651
 30
0.0
 10
4.1282107568
 20
4.3022414545
 30
0.0
 10
4.1326068594
 20
4.3019239609
 30
0.0
 10
4.1355869139
 20
4.3019682905
 30
0.0
  0
SPLINE
  5
47E
100
AcDbEntity
  8
ALL_ASSEMBLY_MEMBERS
100
AcDbSpline
 62
7
  6
CONTINUOUS
 70
0
 71
3
 72
12
 73
8
 74
0
 42
0.0000001
 43
0.0000001
 44
0.0000000001
 40
0.0
 40
0.0
 40
0.0
 40
0.0
 40
0.2504531109
 40
0.3756639921
 40
0.5007035234
 40
0.7503941338
 40
1.0
 40
1.0
 40
1.0
 40
1.0
 10
4.2125022621
 20
4.89046559
 30
0.0
 10
4.2115742953
 20
4.8919335875
 30
0.0
 10
4.2099798891
 20
4.8940178015
 30
0.0
 10
4.207502006
 20
4.8964553939
 30
0.0
 10
4.2048073438
 20
4.8986440862
 30
0.0
 10
4.2010870356
 20
4.9009034522
 30
0.0
 10
4.1978607385
 20
4.9021992211
 30
0.0
 10
4.1962146228
 20
4.9027340765
 30
0.0
  0
SPLINE
  5
47F
100
AcDbEntity
  8
ALL_ASSEMBLY_MEMBERS
100
AcDbSpline
 62
7
  6
CONTINUOUS
 70
0
 71
3
 72
13
 73
9
 74
0
 42
0.0000001
 43
0.0000001
 44
0.0000000001
 40
0.0
 40
0.0
 40
0.0
 40
0.0
 40
0.2511660843
 40
0.3767438637
 40
0.5019715378
 40
0.6270096122
 40
0.7517038884
 40
1.0
 40
1.0
 40
1.0
 40
1.0
 10
4.2151645245
 20
4.8732636116
 30
0.0
 10
4.2156368667
 20
4.8746950867
 30
0.0
 10
4.2160987071
 20
4.8769380423
 30
0.0
 10
4.2161433894
 20
4.8799566329
 30
0.0
 10
4.2158840275
 20
4.8822035946
 30
0.0
 10
4.2153647211
 20
4.8843982099
 30
0.0
 10
4.2143590532
 20
4.8872178762
 30
0.0
 10
4.2132984977
 20
4.8892059846
 30
0.0
 10
4.2125022621
 20
4.89046559
 30
0.0
  0
SPLINE
  5
480
100
AcDbEntity
  8
ALL_ASSEMBLY_MEMBERS
100
AcDbSpline
 62
7
  6
CONTINUOUS
 70
0
 71
3
 72
9
 73
5
 74
0
 42
0.0000001
 43
0.0000001
 44
0.0000000001
 40
0.0
 40
0.0
 40
0.0
 40
0.0
 40
0.4996813317
 40
1.0
 40
1.0
 40
1.0
 40
1.0
 10
4.2104407287
 20
4.8657367466
 30
0.0
 10
4.2110814546
 20
4.8663471771
 30
0.0
 10
4.2122809811
 20
4.8676599603
 30
0.0
 10
4.2132643472
 20
4.8691425364
 30
0.0
 10
4.2136972994
 20
4.8699156512
 30
0.0
  0
LINE
  5
481
100
AcDbEntity
  8
ALL_ASSEMBLY_MEMBERS
100
AcDbLine
 62
7
  6
CONTINUOUS
 10
4.2136972994
 20
4.8699156512
 11
4.2151645245
 21
4.8732636116
  0
LINE
  5
482
100
AcDbEntity
  8
ALL_ASSEMBLY_MEMBERS
100
AcDbLine
 62
7
  6
CONTINUOUS
 10
4.2020662003
 20
4.8587917976
 11
4.2090784079
 21
4.8645558639
  0
SPLINE
  5
483
100
AcDbEntity
  8
ALL_ASSEMBLY_MEMBERS
100
AcDbSpline
 62
7
  6
CONTINUOUS
 70
0
 71
3
 72
9
 73
5
 74
0
 42
0.0000001
 43
0.0000001
 44
0.0000000001
 40
0.0
 40
0.0
 40
0.0
 40
0.0
 40
0.5004167042
 40
1.0
 40
1.0
 40
1.0
 40
1.0
 10
4.197237229
 20
4.8520626176
 30
0.0
 10
4.1976716439
 20
4.8533857119
 30
0.0
 10
4.1990985778
 20
4.8558464866
 30
0.0
 10
4.2010383047
 20
4.857855704
 30
0.0
 10
4.2020662003
 20
4.8587917976
 30
0.0
  0
LINE
  5
484
100
AcDbEntity
  8
ALL_ASSEMBLY_MEMBERS
100
AcDbLine
 62
7
  6
CONTINUOUS
 10
4.1975006415
 20
4.8454434746
 11
4.1970390483
 21
4.8464712004
  0
SPLINE
  5
485
100
AcDbEntity
  8
ALL_ASSEMBLY_MEMBERS
100
AcDbSpline
 62
7
  6
CONTINUOUS
 70
0
 71
3
 72
9
 73
5
 74
0
 42
0.0000001
 43
0.0000001
 44
0.0000000001
 40
0.0
 40
0.0
 40
0.0
 40
0.0
 40
0.5000896401
 40
1.0
 40
1.0
 40
1.0
 40
1.0
 10
4.1970390483
 20
4.8464712004
 30
0.0
 10
4.196860268
 20
4.8469943109
 30
0.0
 10
4.196635689
 20
4.8480891377
 30
0.0
 10
4.1966554963
 20
4.8492024096
 30
0.0
 10
4.1967161417
 20
4.849751691
 30
0.0
  0
LINE
  5
486
100
AcDbEntity
  8
ALL_ASSEMBLY_MEMBERS
100
AcDbLine
 62
7
  6
CONTINUOUS
 10
4.1967161417
 20
4.849751691
 11
4.197237229
 21
4.8520626176
  0
SPLINE
  5
487
100
AcDbEntity
  8
ALL_ASSEMBLY_MEMBERS
100
AcDbSpline
 62
7
  6
CONTINUOUS
 70
0
 71
3
 72
9
 73
5
 74
0
 42
0.0000001
 43
0.0000001
 44
0.0000000001
 40
0.0
 40
0.0
 40
0.0
 40
0.0
 40
0.4990707131
 40
1.0
 40
1.0
 40
1.0
 40
1.0
 10
4.2018153909
 20
4.8419246315
 30
0.0
 10
4.2009182707
 20
4.8422161235
 30
0.0
 10
4.1991956504
 20
4.8431148161
 30
0.0
 10
4.1979711283
 20
4.8446218457
 30
0.0
 10
4.1975006415
 20
4.8454434746
 30
0.0
  0
SPLINE
  5
488
100
AcDbEntity
  8
ALL_ASSEMBLY_MEMBERS
100
AcDbSpline
 62
7
  6
CONTINUOUS
 70
0
 71
3
 72
13
 73
9
 74
0
 42
0.0000001
 43
0.0000001
 44
0.0000000001
 40
0.0
 40
0.0
 40
0.0
 40
0.0
 40
0.2508850945
 40
0.3762291278
 40
0.5013712721
 40
0.6263310074
 40
0.7511308571
 40
1.0
 40
1.0
 40
1.0
 40
1.0
 10
4.1621203158
 20
4.9166378466
 30
0.0
 10
4.1645098012
 20
4.9177153972
 30
0.0
 10
4.1682360401
 20
4.9190471093
 30
0.0
 10
4.1733726243
 20
4.9201063451
 30
0.0
 10
4.1772802918
 20
4.9205168988
 30
0.0
 10
4.181203696
 20
4.920546029
 30
0.0
 10
4.1863978518
 20
4.9200690622
 30
0.0
 10
4.1902227762
 20
4.9191634421
 30
0.0
 10
4.192695666
 20
4.9183599515
 30
0.0
  0
SPLINE
  5
489
100
AcDbEntity
  8
ALL_ASSEMBLY_MEMBERS
100
AcDbSpline
 62
7
  6
CONTINUOUS
 70
0
 71
3
 72
13
 73
9
 74
0
 42
0.0000001
 43
0.0000001
 44
0.0000000001
 40
0.0
 40
0.0
 40
0.0
 40
0.0
 40
0.250371527
 40
0.5005842034
 40
0.6256725407
 40
0.750645802
 40
0.875459891
 40
1.0
 40
1.0
 40
1.0
 40
1.0
 10
4.1351323171
 20
4.8848734702
 30
0.0
 10
4.1366523441
 20
4.8880769845
 30
0.0
 10
4.1399336311
 20
4.894371157
 30
0.0
 10
4.1448384246
 20
4.901783567
 30
0.0
 10
4.1494063987
 20
4.9072100733
 30
0.0
 10
4.1532052371
 20
4.9109337
 30
0.0
 10
4.1574152146
 20
4.914178639
 30
0.0
 10
4.1605124654
 20
4.9159127783
 30
0.0
 10
4.1621203158
 20
4.9166378466
 30
0.0
  0
SPLINE
  5
48A
100
AcDbEntity
  8
ALL_ASSEMBLY_MEMBERS
100
AcDbSpline
 62
7
  6
CONTINUOUS
 70
0
 71
3
 72
11
 73
7
 74
0
 42
0.0000001
 43
0.0000001
 44
0.0000000001
 40
0.0
 40
0.0
 40
0.0
 40
0.0
 40
0.2526629425
 40
0.4973136619
 40
0.7433851468
 40
1.0
 40
1.0
 40
1.0
 40
1.0
 10
4.1450770931
 20
4.2667165062
 30
0.0
 10
4.1445759942
 20
4.2647782362
 30
0.0
 10
4.1439275336
 20
4.2608624392
 30
0.0
 10
4.1441537679
 20
4.2549358144
 30
0.0
 10
4.1455985349
 20
4.2491523811
 30
0.0
 10
4.1473069492
 20
4.2455253097
 30
0.0
 10
4.1483236042
 20
4.2437644116
 30
0.0
  0
SPLINE
  5
48B
100
AcDbEntity
  8
ALL_ASSEMBLY_MEMBERS
100
AcDbSpline
 62
7
  6
CONTINUOUS
 70
0
 71
3
 72
11
 73
7
 74
0
 42
0.0000001
 43
0.0000001
 44
0.0000000001
 40
0.0
 40
0.0
 40
0.0
 40
0.0
 40
0.2560462331
 40
0.5060167619
 40
0.7529535814
 40
1.0
 40
1.0
 40
1.0
 40
1.0
 10
4.1483236042
 20
4.2437644116
 30
0.0
 10
4.1490480514
 20
4.2425096323
 30
0.0
 10
4.1506125473
 20
4.2401032437
 30
0.0
 10
4.1533316745
 20
4.2368108626
 30
0.0
 10
4.1563822309
 20
4.2338958514
 30
0.0
 10
4.1586245573
 20
4.2322139756
 30
0.0
 10
4.1597898782
 20
4.2314417459
 30
0.0
  0
SPLINE
  5
48C
100
AcDbEntity
  8
ALL_ASSEMBLY_MEMBERS
100
AcDbSpline
 62
7
  6
CONTINUOUS
 70
0
 71
3
 72
9
 73
5
 74
0
 42
0.0000001
 43
0.0000001
 44
0.0000000001
 40
0.0
 40
0.0
 40
0.0
 40
0.0
 40
0.4936337713
 40
1.0
 40
1.0
 40
1.0
 40
1.0
 10
4.1597898782
 20
4.2314417459
 30
0.0
 10
4.1609983565
 20
4.230640917
 30
0.0
 10
4.1635467236
 20
4.2291655483
 30
0.0
 10
4.1662474525
 20
4.2279944656
 30
0.0
 10
4.1676414513
 20
4.2274764556
 30
0.0
  0
LINE
  5
48D
100
AcDbEntity
  8
ALL_ASSEMBLY_MEMBERS
100
AcDbLine
 62
7
  6
CONTINUOUS
 10
4.0709205991
 20
4.5383443525
 11
4.0698311523
 21
4.5507967863
  0
SPLINE
  5
48E
100
AcDbEntity
  8
ALL_ASSEMBLY_MEMBERS
100
AcDbSpline
 62
7
  6
CONTINUOUS
 70
0
 71
3
 72
13
 73
9
 74
0
 42
0.0000001
 43
0.0000001
 44
0.0000000001
 40
0.0
 40
0.0
 40
0.0
 40
0.0
 40
0.1261982345
 40
0.251862487
 40
0.3770657699
 40
0.5019777977
 40
0.7510912298
 40
1.0
 40
1.0
 40
1.0
 40
1.0
 10
4.2906084046
 20
4.2156481319
 30
0.0
 10
4.2901521451
 20
4.2159510277
 30
0.0
 10
4.2891411028
 20
4.2164150599
 30
0.0
 10
4.2875099122
 20
4.2166691931
 30
0.0
 10
4.2858732568
 20
4.2165937493
 30
0.0
 10
4.2837400016
 20
4.2161895365
 30
0.0
 10
4.2811761315
 20
4.2152953578
 30
0.0
 10
4.2792254564
 20
4.2143599534
 30
0.0
 10
4.2782690944
 20
4.2138578375
 30
0.0
  0
SPLINE
  5
48F
100
AcDbEntity
  8
ALL_ASSEMBLY_MEMBERS
100
AcDbSpline
 62
7
  6
CONTINUOUS
 70
0
 71
3
 72
13
 73
9
 74
0
 42
0.0000001
 43
0.0000001
 44
0.0000000001
 40
0.0
 40
0.0
 40
0.0
 40
0.0
 40
0.2498720582
 40
0.499779765
 40
0.6247985508
 40
0.7497808385
 40
0.874727622
 40
1.0
 40
1.0
 40
1.0
 40
1.0
 10
4.2982749343
 20
4.2063034687
 30
0.0
 10
4.2977837704
 20
4.2071424181
 30
0.0
 10
4.2967773968
 20
4.2088064954
 30
0.0
 10
4.2954306379
 20
4.210832123
 30
0.0
 10
4.2942642879
 20
4.2123891334
 30
0.0
 10
4.2933278254
 20
4.2135094384
 30
0.0
 10
4.2923033629
 20
4.21455058
 30
0.0
 10
4.2915289256
 20
4.2151538605
 30
0.0
 10
4.2911070556
 20
4.2153979285
 30
0.0
  0
LINE
  5
490
100
AcDbEntity
  8
ALL_ASSEMBLY_MEMBERS
100
AcDbLine
 62
7
  6
CONTINUOUS
 10
4.2911070556
 20
4.2153979285
 11
4.2906084046
 21
4.2156481319
  0
SPLINE
  5
491
100
AcDbEntity
  8
ALL_ASSEMBLY_MEMBERS
100
AcDbSpline
 62
7
  6
CONTINUOUS
 70
0
 71
3
 72
13
 73
9
 74
0
 42
0.0000001
 43
0.0000001
 44
0.0000000001
 40
0.0
 40
0.0
 40
0.0
 40
0.0
 40
0.2486584491
 40
0.373458016
 40
0.49854396
 40
0.6237891311
 40
0.7492410274
 40
1.0
 40
1.0
 40
1.0
 40
1.0
 10
5.3874220276
 20
4.7143321262
 30
0.0
 10
5.386062699
 20
4.7149541541
 30
0.0
 10
5.3840827245
 20
4.7160432668
 30
0.0
 10
5.3816906911
 20
4.7178568513
 30
0.0
 10
5.3800518828
 20
4.7194133445
 30
0.0
 10
5.3786027506
 20
4.7211543262
 30
0.0
 10
5.3769809718
 20
4.7237030694
 30
0.0
 10
5.3761389514
 20
4.7258335925
 30
0.0
 10
5.3757487773
 20
4.727289742
 30
0.0
  0
SPLINE
  5
492
100
AcDbEntity
  8
ALL_ASSEMBLY_MEMBERS
100
AcDbSpline
 62
7
  6
CONTINUOUS
 70
0
 71
3
 72
11
 73
7
 74
0
 42
0.0000001
 43
0.0000001
 44
0.0000000001
 40
0.0
 40
0.0
 40
0.0
 40
0.0
 40
0.2504402171
 40
0.5007219418
 40
0.7506273355
 40
1.0
 40
1.0
 40
1.0
 40
1.0
 10
5.3757487773
 20
4.727289742
 30
0.0
 10
5.3755162647
 20
4.728157491
 30
0.0
 10
5.3751645471
 20
4.7299258406
 30
0.0
 10
5.3750348131
 20
4.7326257236
 30
0.0
 10
5.3753248896
 20
4.7353093399
 30
0.0
 10
5.3757827398
 20
4.7370480663
 30
0.0
 10
5.3760677504
 20
4.7378959777
 30
0.0
  0
LINE
  5
493
100
AcDbEntity
  8
ALL_ASSEMBLY_MEMBERS
100
AcDbLine
 62
7
  6
CONTINUOUS
 10
5.3760677504
 20
4.7378959777
 11
5.3787806532
 21
4.7465415684
  0
SPLINE
  5
494
100
AcDbEntity
  8
ALL_ASSEMBLY_MEMBERS
100
AcDbSpline
 62
7
  6
CONTINUOUS
 70
0
 71
3
 72
9
 73
5
 74
0
 42
0.0000001
 43
0.0000001
 44
0.0000000001
 40
0.0
 40
0.0
 40
0.0
 40
0.0
 40
0.4991538743
 40
1.0
 40
1.0
 40
1.0
 40
1.0
 10
4.2785345248
 20
4.235171915
 30
0.0
 10
4.2786378056
 20
4.235672974
 30
0.0
 10
4.2786049218
 20
4.2367194325
 30
0.0
 10
4.2783938245
 20
4.2377209802
 30
0.0
 10
4.2782640986
 20
4.238217645
 30
0.0
  0
SPLINE
  5
495
100
AcDbEntity
  8
ALL_ASSEMBLY_MEMBERS
100
AcDbSpline
 62
7
  6
CONTINUOUS
 70
0
 71
3
 72
10
 73
6
 74
0
 42
0.0000001
 43
0.0000001
 44
0.0000000001
 40
0.0
 40
0.0
 40
0.0
 40
0.0
 40
0.2497696988
 40
0.4997726215
 40
1.0
 40
1.0
 40
1.0
 40
1.0
 10
4.2782640986
 20
4.238217645
 30
0.0
 10
4.278048926
 20
4.2390414486
 30
0.0
 10
4.2774941089
 20
4.2406568825
 30
0.0
 10
4.2761520176
 20
4.2437911805
 30
0.0
 10
4.2749900441
 20
4.2460726059
 30
0.0
 10
4.2741846095
 20
4.2475756278
 30
0.0
  0
SPLINE
  5
496
100
AcDbEntity
  8
ALL_ASSEMBLY_MEMBERS
100
AcDbSpline
 62
7
  6
CONTINUOUS
 70
0
 71
3
 72
12
 73
8
 74
0
 42
0.0000001
 43
0.0000001
 44
0.0000000001
 40
0.0
 40
0.0
 40
0.0
 40
0.0
 40
0.2494302583
 40
0.3742324542
 40
0.4990753595
 40
0.7493411782
 40
1.0
 40
1.0
 40
1.0
 40
1.0
 10
4.2708611832
 20
4.2265521008
 30
0.0
 10
4.271714111
 20
4.2270445389
 30
0.0
 10
4.272959272
 20
4.2278482567
 30
0.0
 10
4.2745030305
 20
4.2290752926
 30
0.0
 10
4.2759530311
 20
4.230417521
 30
0.0
 10
4.2775219486
 20
4.2323476411
 30
0.0
 10
4.2783347178
 20
4.2342025663
 30
0.0
 10
4.2785345248
 20
4.235171915
 30
0.0
  0
SPLINE
  5
497
100
AcDbEntity
  8
ALL_ASSEMBLY_MEMBERS
100
AcDbSpline
 62
7
  6
CONTINUOUS
 70
0
 71
3
 72
10
 73
6
 74
0
 42
0.0000001
 43
0.0000001
 44
0.0000000001
 40
0.0
 40
0.0
 40
0.0
 40
0.0
 40
0.2876765656
 40
0.5473526881
 40
1.0
 40
1.0
 40
1.0
 40
1.0
 10
5.3787806532
 20
4.7465415684
 30
0.0
 10
5.3789812682
 20
4.7473162386
 30
0.0
 10
5.3793051198
 20
4.7488075979
 30
0.0
 10
5.3796142064
 20
4.7515724051
 30
0.0
 10
5.3794662055
 20
4.7535885207
 30
0.0
 10
5.3791403208
 20
4.7548047387
 30
0.0
  0
LINE
  5
498
100
AcDbEntity
  8
ALL_ASSEMBLY_MEMBERS
100
AcDbLine
 62
7
  6
CONTINUOUS
 10
4.2060240167
 20
4.1645496005
 11
4.1857288969
 21
4.1774009524
  0
SPLINE
  5
499
100
AcDbEntity
  8
ALL_ASSEMBLY_MEMBERS
100
AcDbSpline
 62
7
  6
CONTINUOUS
 70
0
 71
3
 72
11
 73
7
 74
0
 42
0.0000001
 43
0.0000001
 44
0.0000000001
 40
0.0
 40
0.0
 40
0.0
 40
0.0
 40
0.2870410772
 40
0.5435909377
 40
0.7778844208
 40
1.0
 40
1.0
 40
1.0
 40
1.0
 10
5.3791403208
 20
4.7548047387
 30
0.0
 10
5.3789714603
 20
4.7554349347
 30
0.0
 10
5.3785678321
 20
4.7566093368
 30
0.0
 10
5.3776983198
 20
4.7581617004
 30
0.0
 10
5.3766150806
 20
4.7593853114
 30
0.0
 10
5.3757492594
 20
4.7599796469
 30
0.0
 10
5.3752999725
 20
4.7602099078
 30
0.0
  0
SPLINE
  5
49A
100
AcDbEntity
  8
ALL_ASSEMBLY_MEMBERS
100
AcDbSpline
 62
7
  6
CONTINUOUS
 70
0
 71
3
 72
13
 73
9
 74
0
 42
0.0000001
 43
0.0000001
 44
0.0000000001
 40
0.0
 40
0.0
 40
0.0
 40
0.0
 40
0.2509003574
 40
0.3762453079
 40
0.5013360879
 40
0.6262814569
 40
0.7510592731
 40
1.0
 40
1.0
 40
1.0
 40
1.0
 10
4.1442799114
 20
4.2662558587
 30
0.0
 10
4.1447939085
 20
4.2682398555
 30
0.0
 10
4.1458558383
 20
4.2711537252
 30
0.0
 10
4.1478578085
 20
4.2747334929
 30
0.0
 10
4.1496467453
 20
4.2772317775
 30
0.0
 10
4.1516846908
 20
4.2795242418
 30
0.0
 10
4.1546930843
 20
4.2822786545
 30
0.0
 10
4.1572296028
 20
4.2840124883
 30
0.0
 10
4.1589906562
 20
4.285029233
 30
0.0
  0
SPLINE
  5
49B
100
AcDbEntity
  8
ALL_ASSEMBLY_MEMBERS
100
AcDbSpline
 62
7
  6
CONTINUOUS
 70
0
 71
3
 72
13
 73
9
 74
0
 42
0.0000001
 43
0.0000001
 44
0.0000000001
 40
0.0
 40
0.0
 40
0.0
 40
0.0
 40
0.2504831503
 40
0.375843604
 40
0.5011025062
 40
0.626208175
 40
0.7511407368
 40
1.0
 40
1.0
 40
1.0
 40
1.0
 10
4.1475179655
 20
4.2432990894
 30
0.0
 10
4.1465246943
 20
4.2450192703
 30
0.0
 10
4.1452418379
 20
4.2477328978
 30
0.0
 10
4.1440791377
 20
4.2515383772
 30
0.0
 10
4.1435057034
 20
4.254467784
 30
0.0
 10
4.1432351959
 20
4.257437282
 30
0.0
 10
4.1432933801
 20
4.2613986832
 30
0.0
 10
4.1437849791
 20
4.2643454506
 30
0.0
 10
4.1442799114
 20
4.2662558587
 30
0.0
  0
SPLINE
  5
49C
100
AcDbEntity
  8
ALL_ASSEMBLY_MEMBERS
100
AcDbSpline
 62
7
  6
CONTINUOUS
 70
0
 71
3
 72
9
 73
5
 74
0
 42
0.0000001
 43
0.0000001
 44
0.0000000001
 40
0.0
 40
0.0
 40
0.0
 40
0.0
 40
0.4993241826
 40
1.0
 40
1.0
 40
1.0
 40
1.0
 10
4.1668484245
 20
4.2270188547
 30
0.0
 10
4.165058891
 20
4.2276823695
 30
0.0
 10
4.1615611551
 20
4.2292602041
 30
0.0
 10
4.158342885
 20
4.2313569082
 30
0.0
 10
4.156830294
 20
4.2325292983
 30
0.0
  0
SPLINE
  5
49D
100
AcDbEntity
  8
ALL_ASSEMBLY_MEMBERS
100
AcDbSpline
 62
7
  6
CONTINUOUS
 70
0
 71
3
 72
10
 73
6
 74
0
 42
0.0000001
 43
0.0000001
 44
0.0000000001
 40
0.0
 40
0.0
 40
0.0
 40
0.0
 40
0.2499061065
 40
0.500064382
 40
1.0
 40
1.0
 40
1.0
 40
1.0
 10
4.156830294
 20
4.2325292983
 30
0.0
 10
4.1558877878
 20
4.2332598229
 30
0.0
 10
4.1540732808
 20
4.2348172813
 30
0.0
 10
4.1507817295
 20
4.2382798489
 30
0.0
 10
4.1487108416
 20
4.2412332257
 30
0.0
 10
4.1475179655
 20
4.2432990894
 30
0.0
  0
SPLINE
  5
49E
100
AcDbEntity
  8
ALL_ASSEMBLY_MEMBERS
100
AcDbSpline
 62
7
  6
CONTINUOUS
 70
0
 71
3
 72
9
 73
5
 74
0
 42
0.0000001
 43
0.0000001
 44
0.0000000001
 40
0.0
 40
0.0
 40
0.0
 40
0.0
 40
0.249789032
 40
1.0
 40
1.0
 40
1.0
 40
1.0
 10
4.1950457193
 20
4.2269051944
 30
0.0
 10
4.1942515047
 20
4.2266701127
 30
0.0
 10
4.1910548032
 20
4.2257895844
 30
0.0
 10
4.1877816077
 20
4.2251733962
 30
0.0
 10
4.1853085741
 20
4.224904359
 30
0.0
  0
SPLINE
  5
49F
100
AcDbEntity
  8
ALL_ASSEMBLY_MEMBERS
100
AcDbSpline
 62
7
  6
CONTINUOUS
 70
0
 71
3
 72
10
 73
6
 74
0
 42
0.0000001
 43
0.0000001
 44
0.0000000001
 40
0.0
 40
0.0
 40
0.0
 40
0.0
 40
0.4987943249
 40
0.7491463557
 40
1.0
 40
1.0
 40
1.0
 40
1.0
 10
4.1853085741
 20
4.224904359
 30
0.0
 10
4.1827134813
 20
4.224622043
 30
0.0
 10
4.178766022
 20
4.2245149568
 30
0.0
 10
4.1735637951
 20
4.2251436387
 30
0.0
 10
4.17099986
 20
4.2257241268
 30
0.0
 10
4.1697360839
 20
4.2260796234
 30
0.0
  0
SPLINE
  5
4A0
100
AcDbEntity
  8
ALL_ASSEMBLY_MEMBERS
100
AcDbSpline
 62
7
  6
CONTINUOUS
 70
0
 71
3
 72
11
 73
7
 74
0
 42
0.0000001
 43
0.0000001
 44
0.0000000001
 40
0.0
 40
0.0
 40
0.0
 40
0.0
 40
0.2091302647
 40
0.4409573991
 40
0.7028457312
 40
1.0
 40
1.0
 40
1.0
 40
1.0
 10
5.4439560098
 20
4.7198290761
 30
0.0
 10
5.445294797
 20
4.7219244808
 30
0.0
 10
5.4475739718
 20
4.726702463
 30
0.0
 10
5.4496033116
 20
4.734851302
 30
0.0
 10
5.4504127756
 20
4.7442504913
 30
0.0
 10
5.4501605616
 20
4.7509077978
 30
0.0
 10
5.4498668079
 20
4.7544287572
 30
0.0
  0
SPLINE
  5
4A1
100
AcDbEntity
  8
ALL_ASSEMBLY_MEMBERS
100
AcDbSpline
 62
7
  6
CONTINUOUS
 70
0
 71
3
 72
9
 73
5
 74
0
 42
0.0000001
 43
0.0000001
 44
0.0000000001
 40
0.0
 40
0.0
 40
0.0
 40
0.0
 40
0.5001683058
 40
1.0
 40
1.0
 40
1.0
 40
1.0
 10
4.1846218854
 20
4.2778799861
 30
0.0
 10
4.182509467
 20
4.27741862
 30
0.0
 10
4.1783536813
 20
4.2761553707
 30
0.0
 10
4.1744454261
 20
4.274265412
 30
0.0
 10
4.1725741538
 20
4.2731850324
 30
0.0
  0
SPLINE
  5
4A2
100
AcDbEntity
  8
ALL_ASSEMBLY_MEMBERS
100
AcDbSpline
 62
7
  6
CONTINUOUS
 70
0
 71
3
 72
9
 73
5
 74
0
 42
0.0000001
 43
0.0000001
 44
0.0000000001
 40
0.0
 40
0.0
 40
0.0
 40
0.0
 40
0.5004118931
 40
1.0
 40
1.0
 40
1.0
 40
1.0
 10
4.1968233658
 20
4.2790457293
 30
0.0
 10
4.1947763773
 20
4.279130352
 30
0.0
 10
4.1906687348
 20
4.2789857964
 30
0.0
 10
4.1866201449
 20
4.2783164192
 30
0.0
 10
4.1846218854
 20
4.2778799861
 30
0.0
  0
SPLINE
  5
4A3
100
AcDbEntity
  8
ALL_ASSEMBLY_MEMBERS
100
AcDbSpline
 62
7
  6
CONTINUOUS
 70
0
 71
3
 72
9
 73
5
 74
0
 42
0.0000001
 43
0.0000001
 44
0.0000000001
 40
0.0
 40
0.0
 40
0.0
 40
0.0
 40
0.2525909608
 40
1.0
 40
1.0
 40
1.0
 40
1.0
 10
4.2162966173
 20
4.2769959779
 30
0.0
 10
4.2146694084
 20
4.2772647397
 30
0.0
 10
4.2082133489
 20
4.2782403383
 30
0.0
 10
4.2016987079
 20
4.2788441841
 30
0.0
 10
4.1968227617
 20
4.2790453809
 30
0.0
  0
LINE
  5
4A4
100
AcDbEntity
  8
ALL_ASSEMBLY_MEMBERS
100
AcDbLine
 62
7
  6
CONTINUOUS
 10
4.2399840257
 20
4.2721735199
 11
4.2346208813
 21
4.2733318754
  0
SPLINE
  5
4A5
100
AcDbEntity
  8
ALL_ASSEMBLY_MEMBERS
100
AcDbSpline
 62
7
  6
CONTINUOUS
 70
0
 71
3
 72
10
 73
6
 74
0
 42
0.0000001
 43
0.0000001
 44
0.0000000001
 40
0.0
 40
0.0
 40
0.0
 40
0.0
 40
0.5001326893
 40
0.7501186985
 40
1.0
 40
1.0
 40
1.0
 40
1.0
 10
4.2346208813
 20
4.2733318754
 30
0.0
 10
4.2315751496
 20
4.2739872058
 30
0.0
 10
4.2270054238
 20
4.2749632626
 30
0.0
 10
4.220897061
 20
4.2761846824
 30
0.0
 10
4.2178333402
 20
4.2767430698
 30
0.0
 10
4.2162975471
 20
4.2769965159
 30
0.0
  0
LINE
  5
4A6
100
AcDbEntity
  8
ALL_ASSEMBLY_MEMBERS
100
AcDbLine
 62
7
  6
CONTINUOUS
 10
4.2577208361
 20
4.2683428034
 11
4.2435585596
 21
4.2714004299
  0
SPLINE
  5
4A7
100
AcDbEntity
  8
ALL_ASSEMBLY_MEMBERS
100
AcDbSpline
 62
7
  6
CONTINUOUS
 70
0
 71
3
 72
9
 73
5
 74
0
 42
0.0000001
 43
0.0000001
 44
0.0000000001
 40
0.0
 40
0.0
 40
0.0
 40
0.0
 40
0.4991929526
 40
1.0
 40
1.0
 40
1.0
 40
1.0
 10
5.4305765611
 20
4.8102171308
 30
0.0
 10
5.4292747315
 20
4.8105379945
 30
0.0
 10
5.4267598326
 20
4.8115457667
 30
0.0
 10
5.4244228035
 20
4.8128736089
 30
0.0
 10
5.4232832644
 20
4.8135883177
 30
0.0
  0
LINE
  5
4A8
100
AcDbEntity
  8
ALL_ASSEMBLY_MEMBERS
100
AcDbLine
 62
7
  6
CONTINUOUS
 10
5.4232832644
 20
4.8135883177
 11
5.4175289832
 21
4.8176986349
  0
SPLINE
  5
4A9
100
AcDbEntity
  8
ALL_ASSEMBLY_MEMBERS
100
AcDbSpline
 62
7
  6
CONTINUOUS
 70
0
 71
3
 72
14
 73
10
 74
0
 42
0.0000001
 43
0.0000001
 44
0.0000000001
 40
0.0
 40
0.0
 40
0.0
 40
0.0
 40
0.2508668863
 40
0.3762262036
 40
0.5015102721
 40
0.6264909869
 40
0.7513894805
 40
0.8758839818
 40
1.0
 40
1.0
 40
1.0
 40
1.0
 10
5.4150527788
 20
4.819726673
 30
0.0
 10
5.4159308221
 20
4.8224187262
 30
0.0
 10
5.4173866997
 20
4.8264164808
 30
0.0
 10
5.4197644983
 20
4.8315567651
 30
0.0
 10
5.4218012027
 20
4.8352808858
 30
0.0
 10
5.4241889641
 20
4.8387874837
 30
0.0
 10
5.4269929398
 20
4.8419710792
 30
0.0
 10
5.4303381068
 20
4.8445856556
 30
0.0
 10
5.4329455234
 20
4.8457364458
 30
0.0
 10
5.4342987306
 20
4.8460990366
 30
0.0
  0
LINE
  5
4AA
100
AcDbEntity
  8
ALL_ASSEMBLY_MEMBERS
100
AcDbLine
 62
7
  6
CONTINUOUS
 10
4.2081119552
 20
4.3197899924
 11
4.2075937454
 21
4.3231759752
  0
SPLINE
  5
4AB
100
AcDbEntity
  8
ALL_ASSEMBLY_MEMBERS
100
AcDbSpline
 62
7
  6
CONTINUOUS
 70
0
 71
3
 72
13
 73
9
 74
0
 42
0.0000001
 43
0.0000001
 44
0.0000000001
 40
0.0
 40
0.0
 40
0.0
 40
0.0
 40
0.1256913308
 40
0.2513935855
 40
0.3763969538
 40
0.5013082729
 40
0.7507909401
 40
1.0
 40
1.0
 40
1.0
 40
1.0
 10
4.2205376702
 20
4.3163927973
 30
0.0
 10
4.220127414
 20
4.316753928
 30
0.0
 10
4.2192000833
 20
4.31735477
 30
0.0
 10
4.2176954461
 20
4.3180058207
 30
0.0
 10
4.2161365837
 20
4.3185004735
 30
0.0
 10
4.2140258332
 20
4.3190151955
 30
0.0
 10
4.2113481098
 20
4.319462467
 30
0.0
 10
4.2091914697
 20
4.3196952482
 30
0.0
 10
4.2081119552
 20
4.3197899924
 30
0.0
  0
SPLINE
  5
4AC
100
AcDbEntity
  8
ALL_ASSEMBLY_MEMBERS
100
AcDbSpline
 62
7
  6
CONTINUOUS
 70
0
 71
3
 72
12
 73
8
 74
0
 42
0.0000001
 43
0.0000001
 44
0.0000000001
 40
0.0
 40
0.0
 40
0.0
 40
0.0
 40
0.2501126143
 40
0.500196131
 40
0.7501907886
 40
0.8751458122
 40
1.0
 40
1.0
 40
1.0
 40
1.0
 10
4.2278965163
 20
4.3060950876
 30
0.0
 10
4.227367818
 20
4.3070123578
 30
0.0
 10
4.2262884506
 20
4.3088343951
 30
0.0
 10
4.2245768897
 20
4.3115097523
 30
0.0
 10
4.2230350514
 20
4.3136636657
 30
0.0
 10
4.221676953
 20
4.3152869299
 30
0.0
 10
4.2209343784
 20
4.3160435923
 30
0.0
 10
4.2205376702
 20
4.3163927973
 30
0.0
  0
LINE
  5
4AD
100
AcDbEntity
  8
ALL_ASSEMBLY_MEMBERS
100
AcDbLine
 62
7
  6
CONTINUOUS
 10
4.2445734335
 20
4.2772231995
 11
4.2278964668
 21
4.3060951734
  0
SPLINE
  5
4AE
100
AcDbEntity
  8
ALL_ASSEMBLY_MEMBERS
100
AcDbSpline
 62
7
  6
CONTINUOUS
 70
0
 71
3
 72
11
 73
7
 74
0
 42
0.0000001
 43
0.0000001
 44
0.0000000001
 40
0.0
 40
0.0
 40
0.0
 40
0.0
 40
0.2490428994
 40
0.498878139
 40
0.7493317655
 40
1.0
 40
1.0
 40
1.0
 40
1.0
 10
5.3616693694
 20
4.7909876209
 30
0.0
 10
5.3606662712
 20
4.7916303773
 30
0.0
 10
5.358772171
 20
4.7931128004
 30
0.0
 10
5.3564510788
 20
4.7958774574
 30
0.0
 10
5.3547221222
 20
4.7990500106
 30
0.0
 10
5.353945142
 20
4.8013289588
 30
0.0
 10
5.3536347826
 20
4.8024872358
 30
0.0
  0
SPLINE
  5
4AF
100
AcDbEntity
  8
ALL_ASSEMBLY_MEMBERS
100
AcDbSpline
 62
7
  6
CONTINUOUS
 70
0
 71
3
 72
9
 73
5
 74
0
 42
0.0000001
 43
0.0000001
 44
0.0000000001
 40
0.0
 40
0.0
 40
0.0
 40
0.0
 40
0.749809036
 40
1.0
 40
1.0
 40
1.0
 40
1.0
 10
5.3536347826
 20
4.8024872358
 30
0.0
 10
5.3532141609
 20
4.8040570174
 30
0.0
 10
5.3528285303
 20
4.8062072621
 30
0.0
 10
5.3527353344
 20
4.8083738614
 30
0.0
 10
5.3527315603
 20
4.8089161193
 30
0.0
  0
SPLINE
  5
4B0
100
AcDbEntity
  8
ALL_ASSEMBLY_MEMBERS
100
AcDbSpline
 62
7
  6
CONTINUOUS
 70
0
 71
3
 72
9
 73
5
 74
0
 42
0.0000001
 43
0.0000001
 44
0.0000000001
 40
0.0
 40
0.0
 40
0.0
 40
0.0
 40
0.2507351926
 40
1.0
 40
1.0
 40
1.0
 40
1.0
 10
5.3534716264
 20
4.8148127709
 30
0.0
 10
5.353608341
 20
4.8153325988
 30
0.0
 10
5.3542284309
 20
4.8173858698
 30
0.0
 10
5.3551267286
 20
4.8193513979
 30
0.0
 10
5.3559175493
 20
4.8207494388
 30
0.0
  0
SPLINE
  5
4B1
100
AcDbEntity
  8
ALL_ASSEMBLY_MEMBERS
100
AcDbSpline
 62
7
  6
CONTINUOUS
 70
0
 71
3
 72
11
 73
7
 74
0
 42
0.0000001
 43
0.0000001
 44
0.0000000001
 40
0.0
 40
0.0
 40
0.0
 40
0.0
 40
0.2506996057
 40
0.5008591606
 40
0.7505971276
 40
1.0
 40
1.0
 40
1.0
 40
1.0
 10
4.1049475747
 20
4.3508676974
 30
0.0
 10
4.1066451939
 20
4.3540567388
 30
0.0
 10
4.1106347978
 20
4.3601251427
 30
0.0
 10
4.1180116238
 20
4.3680899342
 30
0.0
 10
4.1264030802
 20
4.3749307514
 30
0.0
 10
4.1324714672
 20
4.3788190651
 30
0.0
 10
4.1355840093
 20
4.3806160921
 30
0.0
  0
SPLINE
  5
4B2
100
AcDbEntity
  8
ALL_ASSEMBLY_MEMBERS
100
AcDbSpline
 62
7
  6
CONTINUOUS
 70
0
 71
3
 72
9
 73
5
 74
0
 42
0.0000001
 43
0.0000001
 44
0.0000000001
 40
0.0
 40
0.0
 40
0.0
 40
0.0
 40
0.2499756266
 40
1.0
 40
1.0
 40
1.0
 40
1.0
 10
4.1046242086
 20
4.3179374224
 30
0.0
 10
4.104145218
 20
4.318774852
 30
0.0
 10
4.1023611574
 20
4.322196691
 30
0.0
 10
4.1011360705
 20
4.325926171
 30
0.0
 10
4.1006600908
 20
4.3287813601
 30
0.0
  0
SPLINE
  5
4B3
100
AcDbEntity
  8
ALL_ASSEMBLY_MEMBERS
100
AcDbSpline
 62
7
  6
CONTINUOUS
 70
0
 71
3
 72
11
 73
7
 74
0
 42
0.0000001
 43
0.0000001
 44
0.0000000001
 40
0.0
 40
0.0
 40
0.0
 40
0.0
 40
0.2510033726
 40
0.5016631634
 40
0.7512403839
 40
1.0
 40
1.0
 40
1.0
 40
1.0
 10
4.1006600908
 20
4.3287813601
 30
0.0
 10
4.100345154
 20
4.3306705252
 30
0.0
 10
4.1000993446
 20
4.3345187918
 30
0.0
 10
4.100791727
 20
4.3402386199
 30
0.0
 10
4.1024524939
 20
4.3457321207
 30
0.0
 10
4.1040556541
 20
4.3491921913
 30
0.0
 10
4.1049475747
 20
4.3508676974
 30
0.0
  0
ENDSEC
  0
SECTION
  2
OBJECTS
  0
DICTIONARY
  5
C
100
AcDbDictionary
280
0
281
1
  3
ACAD_GROUP
350
D
  3
ACAD_MLINESTYLE
350
17
  3
ACAD_LAYOUT
350
1A
  3
ACAD_PLOTSETTINGS
350
19
  3
ACAD_PLOTSTYLENAME
350
E
  0
DICTIONARY
  5
D
102
{ACAD_REACTORS
330
C
102
}
100
AcDbDictionary
280
0
281
1
  0
ACDBDICTIONARYWDFLT
  5
E
102
{ACAD_REACTORS
330
C
102
}
100
AcDbDictionary
281
1
  3
Normal
350
F
100
AcDbDictionaryWithDefault
340
F
  0
DICTIONARY
  5
17
102
{ACAD_REACTORS
330
C
102
}
100
AcDbDictionary
280
0
281
1
  3
Standard
350
18
  0
DICTIONARY
  5
19
102
{ACAD_REACTORS
330
C
102
}
100
AcDbDictionary
281
1
  0
DICTIONARY
  5
1A
102
{ACAD_REACTORS
330
C
102
}
100
AcDbDictionary
281
1
  3
Model
350
4B4
  3
Layout1
350
4B5
  0
ACDBPLACEHOLDER
  5
F
102
{ACAD_REACTORS
330
E
102
}
  0
MLINESTYLE
  5
18
102
{ACAD_REACTORS
330
17
102
}
100
AcDbMlineStyle
  2
STANDARD
 70
0
  3

 62
256
 51
90.0
 52
90.0
 71
2
 49
0.5
 62
256
  6
BYLAYER
 49
-0.5
 62
256
  6
BYLAYER
  0
LAYOUT
  5
4B4
102
{ACAD_REACTORS
330
1A
102
}
100
AcDbPlotSettings
  1

  2
none_device
  4
ANSI_A_(11.00_x_8.50_Inches)
  6

 40
0.0
 41
0.0
 42
0.0
 43
0.0
 44
279.4
 45
215.9
 46
0.0
 47
0.0
 48
0.0
 49
0.0
140
0.0
141
0.0
142
1.0
143
1.0
 70
1024
 72
0
 73
0
 74
0
  7

 75
0
147
1.0
148
0.0
149
0.0
100
AcDbLayout
  1
Model
 70
0
 71
0
 10
0.0
 20
0.0
 11
11.0
 21
8.5
 12
0.0
 22
0.0
 32
0.0
 14
0.0
 24
0.0
 34
0.0
 15
0.0
 25
0.0
 35
0.0
146
0.0
 13
0.0
 23
0.0
 33
0.0
 16
1.0
 26
0.0
 36
0.0
 17
0.0
 27
1.0
 37
0.0
 76
0
330
21E
345
0
346
0
  0
LAYOUT
  5
4B5
102
{ACAD_REACTORS
330
1A
102
}
100
AcDbPlotSettings
  1

  2
none_device
  4
ANSI_A_(11.00_x_8.50_Inches)
  6

 40
0.0
 41
0.0
 42
0.0
 43
0.0
 44
279.4
 45
215.9
 46
0.0
 47
0.0
 48
0.0
 49
0.0
140
0.0
141
0.0
142
1.0
143
1.0
 70
0
 72
0
 73
0
 74
0
  7

 75
0
147
1.0
148
0.0
149
0.0
100
AcDbLayout
  1
Layout1
 70
0
 71
1
 10
0.0
 20
0.0
 11
11.0
 21
8.5
 12
0.0
 22
0.0
 32
0.0
 14
0.0
 24
0.0
 34
0.0
 15
0.0
 25
0.0
 35
0.0
146
0.0
 13
0.0
 23
0.0
 33
0.0
 16
1.0
 26
0.0
 36
0.0
 17
0.0
 27
1.0
 37
0.0
 76
0
330
21F
345
0
346
0
  0
ENDSEC
  0
EOF
